  0
SECTION
  2
HEADER
  9
$ACADVER
  1
AC1024
  9
$DWGCODEPAGE
  3
ANSI_1252
  9
$EXTMAX
 10
558.8
 20
431.8
 30
0.0
  9
$EXTMIN
 10
0.0
 20
0.0
 30
0.0
  9
$LIMMIN
 10
0.0
 20
0.0
  9
$LIMMAX
 10
558.8
 20
431.8
  9
$VIEWCTR
 10
279.4
 20
215.9
  9
$VIEWSIZE
 40
431.8
  9
$CLAYER
  8
0
  9
$LTSCALE
 40
30.734
  9
$CELTYPE
  6
BYLAYER
  9
$DIMSCALE
 40
1.0
  9
$DIMASZ
 40
3.0
  9
$DIMEXO
 40
0.5
  9
$DIMDLI
 40
21.2344
  9
$DIMEXE
 40
1.5
  9
$DIMCEN
 40
5.0292
  9
$DIMLFAC
 40
1.0
  9
$DIMBLK
  1
_FILLED
  9
$DIMALT
 70
0
  9
$DIMALTF
 40
0.0393700787
  9
$DIMTXT
 40
3.0
  9
$DIMTOL
 70
1
  9
$DIMLIM
 70
0
  9
$DIMTFAC
 40
1.0
  9
$DIMTP
 40
0.01
  9
$DIMTM
 40
0.01
  9
$DIMGAP
 40
0.625
  9
$DIMDSEP
 70
44
  9
$AUNITS
 70
0
  9
$PDMODE
 70
3
  9
$PDSIZE
 40
3.0
  9
$HANDSEED
  5
38B
  9
$TILEMODE
 70
1
  9
$MEASUREMENT
 70
1
  9
$INSUNITS
 70
4
  0
ENDSEC
  0
SECTION
  2
CLASSES
  0
CLASS
  1
ACDBDICTIONARYWDFLT
  2
AcDbDictionaryWithDefault
  3
AutoCAD 2000
 90
0
 91
1
280
0
281
0
  0
CLASS
  1
ACDBPLACEHOLDER
  2
AcDbPlaceHolder
  3
AutoCAD 2000
 90
0
 91
1
280
0
281
0
  0
CLASS
  1
LAYOUT
  2
AcDbLayout
  3
AutoCAD 2000
 90
0
 91
0
280
0
281
0
  0
ENDSEC
  0
SECTION
  2
TABLES
  0
TABLE
  2
VPORT
  5
8
100
AcDbSymbolTable
 70
2
  0
VPORT
  5
1F4
100
AcDbSymbolTableRecord
100
AcDbViewportTableRecord
  2
*ACTIVE
 70
0
 10
0.0
 20
0.0
 11
1.0
 21
1.0
 12
279.4
 22
215.9
 13
0.0
 23
0.0
 14
1.0
 24
1.0
 15
0.0
 25
0.0
 16
0.0
 26
0.0
 36
1.0
 17
0.0
 27
0.0
 37
0.0
 40
431.8
 41
1.2941176471
 42
50.0
 43
0.0
 44
0.0
 50
0.0
 51
0.0
 71
0
 72
100
 73
1
 74
1
 75
0
 76
0
 77
0
 78
0
  0
ENDTAB
  0
TABLE
  2
LTYPE
  5
5
100
AcDbSymbolTable
 70
6
  0
LTYPE
  5
14
100
AcDbSymbolTableRecord
100
AcDbLinetypeTableRecord
  2
BYBLOCK
 70
0
  3

 72
65
 73
0
 40
0.0
  0
LTYPE
  5
15
100
AcDbSymbolTableRecord
100
AcDbLinetypeTableRecord
  2
BYLAYER
 70
0
  3

 72
65
 73
0
 40
0.0
  0
LTYPE
  5
16
100
AcDbSymbolTableRecord
100
AcDbLinetypeTableRecord
  2
CONTINUOUS
 70
64
  3
Solid line
 72
65
 73
0
 40
0.0
  0
LTYPE
  5
1F5
100
AcDbSymbolTableRecord
100
AcDbLinetypeTableRecord
  2
CENTER
 70
64
  3
____ _ ____ _ ____ _ ____ _ ____ _ ____ _ ____
 72
65
 73
4
 40
0.6
 49
0.375
 74
0
 49
-0.075
 74
0
 49
0.075
 74
0
 49
-0.075
 74
0
  0
LTYPE
  5
1F6
100
AcDbSymbolTableRecord
100
AcDbLinetypeTableRecord
  2
HIDDEN
 70
64
  3
- - - - - - - - - - - - - - - - - - - -
 72
65
 73
2
 40
0.2
 49
0.1
 74
0
 49
-0.1
 74
0
  0
LTYPE
  5
1F7
100
AcDbSymbolTableRecord
100
AcDbLinetypeTableRecord
  2
PHANTOM
 70
64
  3
_____ _ _ _____ _ _ _____ _ _ _____
 72
65
 73
6
 40
0.8
 49
0.45
 74
0
 49
-0.05
 74
0
 49
0.1
 74
0
 49
-0.05
 74
0
 49
0.1
 74
0
 49
-0.05
 74
0
  0
LTYPE
  5
1F8
100
AcDbSymbolTableRecord
100
AcDbLinetypeTableRecord
  2
DOT
 70
64
  3
. . . . . . . . . . . . . . . . . . . .
 72
65
 73
2
 40
0.2
 49
0.1
 74
0
 49
-0.1
 74
0
  0
LTYPE
  5
1F9
100
AcDbSymbolTableRecord
100
AcDbLinetypeTableRecord
  2
DASHED
 70
64
  3
- - - - - - - - - - - - - - - - - - - -
 72
65
 73
2
 40
0.2
 49
0.1
 74
0
 49
-0.1
 74
0
  0
ENDTAB
  0
TABLE
  2
LAYER
  5
2
100
AcDbSymbolTable
 70
36
  0
LAYER
  5
10
100
AcDbSymbolTableRecord
100
AcDbLayerTableRecord
  2
0
 70
0
 62
7
  6
CONTINUOUS
370
-3
390
F
  0
LAYER
  5
1FA
100
AcDbSymbolTableRecord
100
AcDbLayerTableRecord
  2
DEFAULT_1
 70
0
 62
7
  6
CENTER
370
-3
390
F
  0
LAYER
  5
1FB
100
AcDbSymbolTableRecord
100
AcDbLayerTableRecord
  2
DEFAULT_2
 70
0
 62
7
  6
HIDDEN
370
-3
390
F
  0
LAYER
  5
1FC
100
AcDbSymbolTableRecord
100
AcDbLayerTableRecord
  2
DEFAULT_3
 70
0
 62
7
  6
PHANTOM
370
-3
390
F
  0
LAYER
  5
1FD
100
AcDbSymbolTableRecord
100
AcDbLayerTableRecord
  2
ASSI
 70
0
 62
7
  6
CONTINUOUS
370
-3
390
F
  0
LAYER
  5
1FE
100
AcDbSymbolTableRecord
100
AcDbLayerTableRecord
  2
COORDINATE
 70
0
 62
7
  6
CONTINUOUS
370
-3
390
F
  0
LAYER
  5
1FF
100
AcDbSymbolTableRecord
100
AcDbLayerTableRecord
  2
COPY_PUBLISH
 70
0
 62
7
  6
CONTINUOUS
370
-3
390
F
  0
LAYER
  5
200
100
AcDbSymbolTableRecord
100
AcDbLayerTableRecord
  2
COSMETICI
 70
0
 62
7
  6
CONTINUOUS
370
-3
390
F
  0
LAYER
  5
201
100
AcDbSymbolTableRecord
100
AcDbLayerTableRecord
  2
CURVE
 70
0
 62
7
  6
CONTINUOUS
370
-3
390
F
  0
LAYER
  5
202
100
AcDbSymbolTableRecord
100
AcDbLayerTableRecord
  2
DRAFT
 70
0
 62
7
  6
CONTINUOUS
370
-3
390
F
  0
LAYER
  5
203
100
AcDbSymbolTableRecord
100
AcDbLayerTableRecord
  2
IMPORT_IGES
 70
0
 62
7
  6
CONTINUOUS
370
-3
390
F
  0
LAYER
  5
204
100
AcDbSymbolTableRecord
100
AcDbLayerTableRecord
  2
INTF_1
 70
0
 62
7
  6
CONTINUOUS
370
-3
390
F
  0
LAYER
  5
205
100
AcDbSymbolTableRecord
100
AcDbLayerTableRecord
  2
INTF_11
 70
0
 62
7
  6
CONTINUOUS
370
-3
390
F
  0
LAYER
  5
206
100
AcDbSymbolTableRecord
100
AcDbLayerTableRecord
  2
INTF_12
 70
0
 62
7
  6
CONTINUOUS
370
-3
390
F
  0
LAYER
  5
207
100
AcDbSymbolTableRecord
100
AcDbLayerTableRecord
  2
INTF_2
 70
0
 62
7
  6
CONTINUOUS
370
-3
390
F
  0
LAYER
  5
208
100
AcDbSymbolTableRecord
100
AcDbLayerTableRecord
  2
INTF_8
 70
0
 62
7
  6
CONTINUOUS
370
-3
390
F
  0
LAYER
  5
209
100
AcDbSymbolTableRecord
100
AcDbLayerTableRecord
  2
NOTE
 70
0
 62
7
  6
CONTINUOUS
370
-3
390
F
  0
LAYER
  5
20A
100
AcDbSymbolTableRecord
100
AcDbLayerTableRecord
  2
PIANI
 70
0
 62
7
  6
CONTINUOUS
370
-3
390
F
  0
LAYER
  5
20B
100
AcDbSymbolTableRecord
100
AcDbLayerTableRecord
  2
PUNTI
 70
0
 62
7
  6
CONTINUOUS
370
-3
390
F
  0
LAYER
  5
20C
100
AcDbSymbolTableRecord
100
AcDbLayerTableRecord
  2
RACCORDO
 70
0
 62
7
  6
CONTINUOUS
370
-3
390
F
  0
LAYER
  5
20D
100
AcDbSymbolTableRecord
100
AcDbLayerTableRecord
  2
RGB____0____0____0__
 70
0
 62
7
  6
CONTINUOUS
370
-3
390
F
  0
LAYER
  5
20E
100
AcDbSymbolTableRecord
100
AcDbLayerTableRecord
  2
SIMBOLI
 70
0
 62
7
  6
CONTINUOUS
370
-3
390
F
  0
LAYER
  5
20F
100
AcDbSymbolTableRecord
100
AcDbLayerTableRecord
  2
SMUSSO
 70
0
 62
7
  6
CONTINUOUS
370
-3
390
F
  0
LAYER
  5
210
100
AcDbSymbolTableRecord
100
AcDbLayerTableRecord
  2
SUPERFICI
 70
0
 62
7
  6
CONTINUOUS
370
-3
390
F
  0
LAYER
  5
211
100
AcDbSymbolTableRecord
100
AcDbLayerTableRecord
  2
TRASH
 70
0
 62
7
  6
CONTINUOUS
370
-3
390
F
  0
ENDTAB
  0
TABLE
  2
STYLE
  5
3
100
AcDbSymbolTable
 70
1
  0
STYLE
  5
11
100
AcDbSymbolTableRecord
100
AcDbTextStyleTableRecord
  2
STANDARD
 70
0
 40
0.0
 41
0.8
 50
0.0
 71
0
 42
0.2
  3
txt
  4

  0
STYLE
  5
212
100
AcDbSymbolTableRecord
100
AcDbTextStyleTableRecord
  2
TEXTSTYLE_1
 70
0
 40
0.0
 41
0.8
 50
0.0
 71
0
 42
0.2
  3
gdt
  4

  0
ENDTAB
  0
TABLE
  2
VIEW
  5
6
100
AcDbSymbolTable
 70
0
  0
ENDTAB
  0
TABLE
  2
UCS
  5
7
100
AcDbSymbolTable
 70
0
  0
ENDTAB
  0
TABLE
  2
APPID
  5
9
100
AcDbSymbolTable
 70
1
  0
APPID
  5
213
100
AcDbSymbolTableRecord
100
AcDbRegAppTableRecord
  2
ACAD
 70
0
  0
ENDTAB
  0
TABLE
  2
BLOCK_RECORD
  5
1
100
AcDbSymbolTable
 70
0
  0
BLOCK_RECORD
  5
214
100
AcDbSymbolTableRecord
100
AcDbBlockTableRecord
  2
*Model_Space
  0
BLOCK_RECORD
  5
215
100
AcDbSymbolTableRecord
100
AcDbBlockTableRecord
  2
*Paper_Space
  0
BLOCK_RECORD
  5
216
100
AcDbSymbolTableRecord
100
AcDbBlockTableRecord
  2
_FILLED
  0
ENDTAB
  0
TABLE
  2
DIMSTYLE
  5
A
100
AcDbSymbolTable
 70
1
100
AcDbDimStyleTable
 71
0
  0
DIMSTYLE
105
217
100
AcDbSymbolTableRecord
100
AcDbDimStyleTableRecord
  2
STANDARD
 70
0
  3

  4

 40
1.0
 41
3.0
 42
0.5
 43
0.38
 44
1.5
 45
0.0
 46
0.0
 47
0.01
 48
0.01
140
3.0
141
0.09
142
0.0
143
25.4
144
1.0
145
0.0
146
1.0
147
0.625
 71
1
 72
0
 73
0
 74
0
 75
0
 76
0
 77
1
 78
8
 79
2
170
0
171
1
172
0
173
0
174
0
175
0
176
0
177
0
178
0
270
2
179
2
271
2
272
2
273
2
274
2
275
0
280
0
281
0
282
0
283
1
284
8
285
0
286
0
287
3
288
0
340
11
278
44
341
216
342
216
343
216
344
216
  0
ENDTAB
  0
ENDSEC
  0
SECTION
  2
BLOCKS
  0
BLOCK
  5
20
100
AcDbEntity
  8
0
100
AcDbBlockBegin
  2
*Model_Space
 70
0
 10
0.0
 20
0.0
 30
0.0
  3
*Model_Space
  1

  0
ENDBLK
  5
21
100
AcDbEntity
  8
0
100
AcDbBlockEnd
  0
BLOCK
  5
1C
100
AcDbEntity
  8
0
100
AcDbBlockBegin
  2
*Paper_Space
 70
0
 10
0.0
 20
0.0
 30
0.0
  3
*Paper_Space
  1

  0
ENDBLK
  5
1D
100
AcDbEntity
  8
0
100
AcDbBlockEnd
  0
BLOCK
  5
218
100
AcDbEntity
  8
0
100
AcDbBlockBegin
  2
_FILLED
 70
64
 10
0.0
 20
0.0
  3
_FILLED
  1

  0
SOLID
  5
219
100
AcDbEntity
  8
0
  6
BYBLOCK
 62
0
100
AcDbTrace
 10
0.0
 20
0.0
 11
-1.0
 21
0.1333333333
 12
-1.0
 22
-0.1333333333
 13
-1.0
 23
-0.1333333333
  0
ENDBLK
  5
21A
100
AcDbEntity
  8
0
  6
BYBLOCK
 62
0
100
AcDbBlockEnd
  0
ENDSEC
  0
SECTION
  2
ENTITIES
  0
LWPOLYLINE
  5
21B
100
AcDbEntity
  8
RACCORDO
100
AcDbPolyline
 62
7
  6
CONTINUOUS
 90
19
 70
0
 10
-55.9212976098
 20
68.2782529049
 10
-55.9406918838
 20
68.2655750804
 10
-55.994917288
 20
68.2269840266
 10
-56.047230126
 20
68.1849022522
 10
-56.0973543923
 20
68.1394360065
 10
-56.1450520342
 20
68.0906947471
 10
-56.1901204564
 20
68.0387724611
 10
-56.2323197897
 20
67.9838272212
 10
-56.2714278442
 20
67.9260343729
 10
-56.3072882803
 20
67.8655147824
 10
-56.3397329426
 20
67.8024291767
 10
-56.3685641677
 20
67.7370399708
 10
-56.3936270121
 20
67.6695934717
 10
-56.4148194247
 20
67.6002802389
 10
-56.4320429935
 20
67.5293517645
 10
-56.4452201775
 20
67.4570747812
 10
-56.4543143724
 20
67.3836352687
 10
-56.4593085515
 20
67.3092114941
 10
-56.4603545376
 20
67.2558441316
  0
LINE
  5
21C
100
AcDbEntity
  8
RACCORDO
100
AcDbLine
 62
7
  6
CONTINUOUS
 10
-55.9214724958
 20
68.278144861
 11
-43.246255382
 21
76.3837992599
  0
LINE
  5
21D
100
AcDbEntity
  8
RACCORDO
100
AcDbLine
 62
250
  6
CONTINUOUS
 10
-55.1961186554
 20
68.2244901018
 11
-42.7728088736
 21
76.1690526823
  0
LINE
  5
21E
100
AcDbEntity
  8
DRAFT
100
AcDbLine
 62
7
  6
CONTINUOUS
 10
-40.1923492207
 20
78.3232842392
 11
-42.8970894502
 21
76.6034051023
  0
LINE
  5
21F
100
AcDbEntity
  8
DRAFT
100
AcDbLine
 62
250
  6
CONTINUOUS
 10
-39.3524758785
 20
78.254172903
 11
-42.0381458696
 21
76.5952098431
  0
LINE
  5
220
100
AcDbEntity
  8
RACCORDO
100
AcDbLine
 62
250
  6
CONTINUOUS
 10
-51.1399459208
 20
48.6684266218
 11
-50.9278138865
 21
48.7909089998
  0
LWPOLYLINE
  5
221
100
AcDbEntity
  8
RACCORDO
100
AcDbPolyline
 62
7
  6
CONTINUOUS
 90
20
 70
0
 10
-56.4603545455
 20
-22.5724555953
 10
-56.4577302414
 20
-22.6578339022
 10
-56.4501129491
 20
-22.7417905117
 10
-56.437488404
 20
-22.8261855524
 10
-56.4198957117
 20
-22.9106160187
 10
-56.3976111342
 20
-22.9940264144
 10
-56.3706815434
 20
-23.0765535171
 10
-56.3390957964
 20
-23.1582472891
 10
-56.3032986575
 20
-23.2380416398
 10
-56.2632422453
 20
-23.3161479784
 10
-56.2188723229
 20
-23.3925779767
 10
-56.1709048633
 20
-23.4660941467
 10
-56.119351557
 20
-23.5367527823
 10
-56.0640528861
 20
-23.6046923617
 10
-56.005724767
 20
-23.6689848415
 10
-55.9443319454
 20
-23.7296610169
 10
-55.8797326347
 20
-23.7867506431
 10
-55.8127186417
 20
-23.8394825691
 10
-55.7436344362
 20
-23.8876217349
 10
-55.6776078539
 20
-23.9282431223
  0
LINE
  5
222
100
AcDbEntity
  8
RACCORDO
100
AcDbLine
 62
7
  6
CONTINUOUS
 10
-56.460354547
 20
-22.5724871254
 11
-56.460354547
 21
67.2557646837
  0
LINE
  5
223
100
AcDbEntity
  8
RACCORDO
100
AcDbLine
 62
250
  6
CONTINUOUS
 10
-56.1674613282
 20
-22.9807617188
 11
-56.1674613282
 21
66.8474900766
  0
LINE
  5
224
100
AcDbEntity
  8
RACCORDO
100
AcDbLine
 62
250
  6
CONTINUOUS
 10
-51.4227886333
 20
-19.9150766288
 11
-51.4227886333
 21
48.6684266218
  0
LINE
  5
225
100
AcDbEntity
  8
RACCORDO
100
AcDbLine
 62
250
  6
CONTINUOUS
 10
-51.1399459208
 20
-19.9150766288
 11
-51.1399459208
 21
48.6684266218
  0
LINE
  5
226
100
AcDbEntity
  8
SMUSSO
100
AcDbLine
 62
7
  6
CONTINUOUS
 10
-50.9278138865
 20
48.7909089998
 11
-50.9278138865
 21
-19.7925942508
  0
LWPOLYLINE
  5
227
100
AcDbEntity
  8
RACCORDO
100
AcDbPolyline
 62
7
  6
CONTINUOUS
 90
19
 70
0
 10
38.3819424172
 20
-78.2370485975
 10
38.4302552299
 20
-78.2636543897
 10
38.4972213839
 20
-78.2964424126
 10
38.5653706289
 20
-78.3251836493
 10
38.6345437345
 20
-78.3498069811
 10
38.7045557442
 20
-78.3702512333
 10
38.7751205915
 20
-78.3864495142
 10
38.845951646
 20
-78.3983640379
 10
38.9168500393
 20
-78.4059978448
 10
38.9875654348
 20
-78.4093684935
 10
39.0577900981
 20
-78.4085140155
 10
39.1272857173
 20
-78.4034968055
 10
39.1958609761
 20
-78.3943911558
 10
39.2632536578
 20
-78.3813015428
 10
39.3292086505
 20
-78.3643563047
 10
39.3935368353
 20
-78.3436861096
 10
39.456023494
 20
-78.3194441253
 10
39.5164426151
 20
-78.2918156133
 10
39.5370042692
 20
-78.2814138444
  0
LINE
  5
228
100
AcDbEntity
  8
RACCORDO
100
AcDbLine
 62
7
  6
CONTINUOUS
 10
38.3819424173
 20
-78.2370485976
 11
38.3818773482
 21
-78.2370110372
  0
LINE
  5
229
100
AcDbEntity
  8
RACCORDO
100
AcDbLine
 62
7
  6
CONTINUOUS
 10
38.3818773482
 20
-78.2370110372
 11
-55.6776329306
 21
-23.9282286448
  0
LINE
  5
22A
100
AcDbEntity
  8
RACCORDO
100
AcDbLine
 62
250
  6
CONTINUOUS
 10
38.1747947271
 20
-77.7792741761
 11
-55.8847155389
 21
-23.470491791
  0
LINE
  5
22B
100
AcDbEntity
  8
0
100
AcDbLine
 62
7
  6
CONTINUOUS
 10
27.7024601815
 20
-69.6833628971
 11
27.9937259499
 21
-69.8515361014
  0
LINE
  5
22C
100
AcDbEntity
  8
0
100
AcDbLine
 62
7
  6
CONTINUOUS
 10
28.5222048303
 20
-70.1566731835
 11
28.8134705987
 21
-70.3248463878
  0
LINE
  5
22D
100
AcDbEntity
  8
0
100
AcDbLine
 62
7
  6
CONTINUOUS
 10
31.2637462093
 20
-71.7396048162
 11
31.5278315002
 21
-71.8920843534
  0
LINE
  5
22E
100
AcDbEntity
  8
0
100
AcDbLine
 62
7
  6
CONTINUOUS
 10
32.9335046268
 20
-72.7037023995
 11
33.1975899177
 21
-72.8561819367
  0
LINE
  5
22F
100
AcDbEntity
  8
0
100
AcDbLine
 62
7
  6
CONTINUOUS
 10
30.3420742393
 20
-70.6118499497
 11
31.2637462093
 21
-71.1440117939
  0
LINE
  5
230
100
AcDbEntity
  8
0
100
AcDbLine
 62
7
  6
CONTINUOUS
 10
31.5278315002
 20
-71.2964913311
 11
31.8373201175
 21
-71.47518618
  0
LINE
  5
231
100
AcDbEntity
  8
0
100
AcDbLine
 62
7
  6
CONTINUOUS
 10
32.0115236512
 20
-71.575769117
 11
32.9335046268
 21
-72.1081093772
  0
LINE
  5
232
100
AcDbEntity
  8
0
100
AcDbLine
 62
7
  6
CONTINUOUS
 10
33.1975899177
 20
-72.2605889144
 11
33.507078535
 21
-72.4392837633
  0
LINE
  5
233
100
AcDbEntity
  8
0
100
AcDbLine
 62
7
  6
CONTINUOUS
 10
33.507078535
 20
-72.1753687275
 11
33.1975899177
 21
-71.9966738786
  0
LINE
  5
234
100
AcDbEntity
  8
0
100
AcDbLine
 62
7
  6
CONTINUOUS
 10
32.9335046268
 20
-71.8441943414
 11
32.254914755
 21
-71.4523850542
  0
LINE
  5
235
100
AcDbEntity
  8
0
100
AcDbLine
 62
7
  6
CONTINUOUS
 10
31.8373201175
 20
-71.2112711442
 11
31.5278315002
 21
-71.0325762953
  0
LINE
  5
236
100
AcDbEntity
  8
0
100
AcDbLine
 62
7
  6
CONTINUOUS
 10
31.2637462093
 20
-70.8800967581
 11
30.5851563375
 21
-70.4882874709
  0
LINE
  5
237
100
AcDbEntity
  8
0
100
AcDbLine
 62
7
  6
CONTINUOUS
 10
33.5777892131
 20
-72.1345412681
 11
33.2683005958
 21
-71.9558464193
  0
LINE
  5
238
100
AcDbEntity
  8
IMPORT_IGES
100
AcDbLine
 62
7
  6
CONTINUOUS
 10
33.5777892131
 20
-72.1345412681
 11
33.2683005958
 21
-71.9558464193
  0
LINE
  5
239
100
AcDbEntity
  8
0
100
AcDbLine
 62
7
  6
CONTINUOUS
 10
32.9335046268
 20
-71.7625394228
 11
32.3256254331
 21
-71.4115575949
  0
LINE
  5
23A
100
AcDbEntity
  8
IMPORT_IGES
100
AcDbLine
 62
7
  6
CONTINUOUS
 10
32.9335046268
 20
-71.7625394228
 11
32.3256254331
 21
-71.4115575949
  0
LINE
  5
23B
100
AcDbEntity
  8
0
100
AcDbLine
 62
7
  6
CONTINUOUS
 10
31.9080307956
 20
-71.1704436848
 11
31.5985421783
 21
-70.991748836
  0
LINE
  5
23C
100
AcDbEntity
  8
IMPORT_IGES
100
AcDbLine
 62
7
  6
CONTINUOUS
 10
31.9080307956
 20
-71.1704436848
 11
31.5985421783
 21
-70.991748836
  0
LINE
  5
23D
100
AcDbEntity
  8
0
100
AcDbLine
 62
7
  6
CONTINUOUS
 10
31.2637462093
 20
-70.7984418395
 11
30.6558670156
 21
-70.4474600115
  0
LINE
  5
23E
100
AcDbEntity
  8
IMPORT_IGES
100
AcDbLine
 62
7
  6
CONTINUOUS
 10
31.2637462093
 20
-70.7984418395
 11
30.6558670156
 21
-70.4474600115
  0
LINE
  5
23F
100
AcDbEntity
  8
0
100
AcDbLine
 62
7
  6
CONTINUOUS
 10
28.8134705987
 20
-69.2727517703
 11
29.4920544225
 21
-69.6645575655
  0
LINE
  5
240
100
AcDbEntity
  8
0
100
AcDbLine
 62
7
  6
CONTINUOUS
 10
29.3929205146
 20
-69.3184378256
 11
28.8134705987
 21
-68.9838707064
  0
LINE
  5
241
100
AcDbEntity
  8
0
100
AcDbLine
 62
7
  6
CONTINUOUS
 10
29.4636316035
 20
-69.2776106034
 11
28.8841812768
 21
-68.943043247
  0
LINE
  5
242
100
AcDbEntity
  8
IMPORT_IGES
100
AcDbLine
 62
7
  6
CONTINUOUS
 10
29.4636234642
 20
-69.2776059039
 11
28.8841812768
 21
-68.943043247
  0
LINE
  5
243
100
AcDbEntity
  8
0
100
AcDbLine
 62
7
  6
CONTINUOUS
 10
28.8134705987
 20
-68.1207963062
 11
29.4049567637
 21
-68.4623130048
  0
LINE
  5
244
100
AcDbEntity
  8
0
100
AcDbLine
 62
7
  6
CONTINUOUS
 10
33.1975899177
 20
-70.4167483731
 11
32.9785996547
 21
-70.2903061398
  0
LINE
  5
245
100
AcDbEntity
  8
0
100
AcDbLine
 62
7
  6
CONTINUOUS
 10
31.5278315002
 20
-69.4526507898
 11
31.3088419442
 21
-69.3262089648
  0
LINE
  5
246
100
AcDbEntity
  8
0
100
AcDbLine
 62
7
  6
CONTINUOUS
 10
29.49205821
 20
-68.2272903829
 11
28.5222048303
 21
-67.6673091966
  0
LINE
  5
247
100
AcDbEntity
  8
0
100
AcDbLine
 62
7
  6
CONTINUOUS
 10
27.9937259499
 20
-67.3621721145
 11
27.7024601815
 21
-67.1939989102
  0
LINE
  5
248
100
AcDbEntity
  8
0
100
AcDbLine
 62
7
  6
CONTINUOUS
 10
33.2683005958
 20
-70.3759209137
 11
33.0493103328
 21
-70.2494786805
  0
LINE
  5
249
100
AcDbEntity
  8
IMPORT_IGES
100
AcDbLine
 62
7
  6
CONTINUOUS
 10
33.2683005958
 20
-70.3759209137
 11
33.0493103328
 21
-70.2494786805
  0
LINE
  5
24A
100
AcDbEntity
  8
0
100
AcDbLine
 62
7
  6
CONTINUOUS
 10
31.5985421783
 20
-69.4118233304
 11
31.3795526224
 21
-69.2853815054
  0
LINE
  5
24B
100
AcDbEntity
  8
IMPORT_IGES
100
AcDbLine
 62
7
  6
CONTINUOUS
 10
31.5985421783
 20
-69.4118233304
 11
31.3795526224
 21
-69.2853815054
  0
LINE
  5
24C
100
AcDbEntity
  8
0
100
AcDbLine
 62
7
  6
CONTINUOUS
 10
29.5627687861
 20
-68.1864628647
 11
28.5929155084
 21
-67.6264817373
  0
LINE
  5
24D
100
AcDbEntity
  8
IMPORT_IGES
100
AcDbLine
 62
7
  6
CONTINUOUS
 10
29.5627711486
 20
-68.1864642288
 11
28.5929155084
 21
-67.6264817373
  0
LINE
  5
24E
100
AcDbEntity
  8
0
100
AcDbLine
 62
7
  6
CONTINUOUS
 10
28.064436628
 20
-67.3213446552
 11
27.7731708596
 21
-67.1531714509
  0
LINE
  5
24F
100
AcDbEntity
  8
IMPORT_IGES
100
AcDbLine
 62
7
  6
CONTINUOUS
 10
27.7731708596
 20
-67.1531714509
 11
28.064436628
 21
-67.3213446552
  0
LINE
  5
250
100
AcDbEntity
  8
0
100
AcDbLine
 62
7
  6
CONTINUOUS
 10
-14.4257866302
 20
40.1352913308
 11
-14.4964973083
 21
40.0944638714
  0
LINE
  5
251
100
AcDbEntity
  8
0
100
AcDbLine
 62
7
  6
CONTINUOUS
 10
-13.7845044192
 20
39.7650230193
 11
-13.8552150973
 21
39.72419556
  0
LINE
  5
252
100
AcDbEntity
  8
0
100
AcDbLine
 62
7
  6
CONTINUOUS
 10
-12.6898691808
 20
39.1329943517
 11
-12.7605798589
 21
39.0921668923
  0
LINE
  5
253
100
AcDbEntity
  8
0
100
AcDbLine
 62
7
  6
CONTINUOUS
 10
-12.0999405999
 20
38.7923769826
 11
-12.170651278
 21
38.7515495232
  0
LINE
  5
254
100
AcDbEntity
  8
0
100
AcDbLine
 62
7
  6
CONTINUOUS
 10
-11.8808668983
 20
38.6660825258
 11
-11.9515775764
 21
38.6252550664
  0
LINE
  5
255
100
AcDbEntity
  8
0
100
AcDbLine
 62
7
  6
CONTINUOUS
 10
-11.2905352665
 20
38.3252324402
 11
-11.3612459446
 21
38.2844049808
  0
LINE
  5
256
100
AcDbEntity
  8
0
100
AcDbLine
 62
7
  6
CONTINUOUS
 10
-10.7173820868
 20
37.9941050246
 11
-10.7880927649
 21
37.9532775653
  0
LINE
  5
257
100
AcDbEntity
  8
RACCORDO
100
AcDbLine
 62
250
  6
CONTINUOUS
 10
33.2178930747
 20
-69.3570746439
 11
-50.9278138865
 21
-20.7723980379
  0
LINE
  5
258
100
AcDbEntity
  8
RACCORDO
100
AcDbLine
 62
250
  6
CONTINUOUS
 10
33.359314431
 20
-69.1121256698
 11
-50.7863925302
 21
-20.5274490638
  0
LINE
  5
259
100
AcDbEntity
  8
SMUSSO
100
AcDbLine
 62
7
  6
CONTINUOUS
 10
-50.5742604959
 20
-20.4049666858
 11
33.5714464653
 21
-68.9896432918
  0
LINE
  5
25A
100
AcDbEntity
  8
0
100
AcDbLine
 62
7
  6
CONTINUOUS
 10
-13.0089991991
 20
36.0517733549
 11
-13.0797098772
 21
36.0109458956
  0
LINE
  5
25B
100
AcDbEntity
  8
0
100
AcDbLine
 62
7
  6
CONTINUOUS
 10
-10.1275376516
 20
37.6535362402
 11
-10.1982483297
 21
37.6127087809
  0
LINE
  5
25C
100
AcDbEntity
  8
0
100
AcDbLine
 62
7
  6
CONTINUOUS
 10
-8.9531096555
 20
36.9754362344
 11
-9.0238203337
 21
36.934608775
  0
LINE
  5
25D
100
AcDbEntity
  8
0
100
AcDbLine
 62
7
  6
CONTINUOUS
 10
-11.2905352665
 20
35.0595538176
 11
-11.3612459446
 21
35.0187263583
  0
LINE
  5
25E
100
AcDbEntity
  8
0
100
AcDbLine
 62
7
  6
CONTINUOUS
 10
-8.3690345045
 20
36.6381985624
 11
-8.4397451826
 21
36.597371103
  0
LINE
  5
25F
100
AcDbEntity
  8
0
100
AcDbLine
 62
7
  6
CONTINUOUS
 10
-10.4079861005
 20
34.5499809901
 11
-10.4786967786
 21
34.5091535308
  0
LINE
  5
260
100
AcDbEntity
  8
0
100
AcDbLine
 62
7
  6
CONTINUOUS
 10
-7.1248122408
 20
35.919800221
 11
-7.1955229189
 21
35.8789727617
  0
LINE
  5
261
100
AcDbEntity
  8
0
100
AcDbLine
 62
7
  6
CONTINUOUS
 10
-9.5052681278
 20
34.0287629464
 11
-9.5759788059
 21
33.987935487
  0
LINE
  5
262
100
AcDbEntity
  8
0
100
AcDbLine
 62
7
  6
CONTINUOUS
 10
-6.5537372479
 20
35.5900686774
 11
-6.6244479261
 21
35.5492412181
  0
LINE
  5
263
100
AcDbEntity
  8
0
100
AcDbLine
 62
7
  6
CONTINUOUS
 10
-5.5126613317
 20
34.9508129649
 11
-5.5833720098
 21
34.9099855055
  0
LINE
  5
264
100
AcDbEntity
  8
0
100
AcDbLine
 62
7
  6
CONTINUOUS
 10
-7.1443015179
 20
33.8219193064
 11
-7.215012196
 21
33.781091847
  0
LINE
  5
265
100
AcDbEntity
  8
0
100
AcDbLine
 62
7
  6
CONTINUOUS
 10
-8.1045765684
 20
33.2200211948
 11
-8.1752872465
 21
33.1791937354
  0
LINE
  5
266
100
AcDbEntity
  8
0
100
AcDbLine
 62
7
  6
CONTINUOUS
 10
-7.4279517463
 20
32.8293465026
 11
-7.4986624244
 21
32.7885190433
  0
LINE
  5
267
100
AcDbEntity
  8
0
100
AcDbLine
 62
250
  6
CONTINUOUS
 10
-4.0558129438
 20
34.0752665018
 11
-4.126523622
 21
34.0344390425
  0
LINE
  5
268
100
AcDbEntity
  8
0
100
AcDbLine
 62
7
  6
CONTINUOUS
 10
-4.9442794459
 20
33.2080419737
 11
-5.0149901241
 21
33.1672145143
  0
LINE
  5
269
100
AcDbEntity
  8
0
100
AcDbLine
 62
250
  6
CONTINUOUS
 10
-4.6069107269
 20
33.0132495035
 11
-4.677621405
 21
32.9724220442
  0
LINE
  5
26A
100
AcDbEntity
  8
0
100
AcDbLine
 62
7
  6
CONTINUOUS
 10
-5.6860111614
 20
31.8235718405
 11
-5.7567218395
 21
31.7827443812
  0
LINE
  5
26B
100
AcDbEntity
  8
0
100
AcDbLine
 62
7
  6
CONTINUOUS
 10
-4.04299072
 20
32.3437316317
 11
-4.0656581314
 21
32.3306437524
  0
LINE
  5
26C
100
AcDbEntity
  8
0
100
AcDbLine
 62
7
  6
CONTINUOUS
 10
-4.9247049345
 20
31.3840030751
 11
-4.9954156126
 21
31.3431756158
  0
LINE
  5
26D
100
AcDbEntity
  8
0
100
AcDbLine
 62
250
  6
CONTINUOUS
 10
-3.6546733084
 20
31.53453039
 11
-3.7253839865
 21
31.4937029307
  0
LINE
  5
26E
100
AcDbEntity
  8
0
100
AcDbLine
 62
7
  6
CONTINUOUS
 10
-3.4528628526
 20
30.5341799036
 11
-3.5235735307
 21
30.4933524442
  0
LINE
  5
26F
100
AcDbEntity
  8
0
100
AcDbLine
 62
7
  6
CONTINUOUS
 10
-12.7605798589
 20
39.0921668923
 11
-13.3161310295
 21
37.1652023012
  0
LINE
  5
270
100
AcDbEntity
  8
0
100
AcDbLine
 62
7
  6
CONTINUOUS
 10
-13.0797098772
 20
36.0109458956
 11
-12.170651278
 21
38.7515495232
  0
LINE
  5
271
100
AcDbEntity
  8
IMPORT_IGES
100
AcDbLine
 62
7
  6
CONTINUOUS
 10
-12.0999405999
 20
38.7923769826
 11
-13.0089991991
 21
36.0517733549
  0
LINE
  5
272
100
AcDbEntity
  8
0
100
AcDbLine
 62
7
  6
CONTINUOUS
 10
-13.0089991991
 20
36.0517733549
 11
-12.0999405999
 21
38.7923769826
  0
LINE
  5
273
100
AcDbEntity
  8
0
100
AcDbLine
 62
7
  6
CONTINUOUS
 10
-9.0238203337
 20
36.934608775
 11
-9.6141519655
 21
35.4624523193
  0
LINE
  5
274
100
AcDbEntity
  8
0
100
AcDbLine
 62
7
  6
CONTINUOUS
 10
-9.5759788059
 20
33.987935487
 11
-8.8740742093
 21
35.7060743317
  0
LINE
  5
275
100
AcDbEntity
  8
IMPORT_IGES
100
AcDbLine
 62
7
  6
CONTINUOUS
 10
-8.8676327859
 20
35.5895819734
 11
-9.5052681278
 21
34.0287629464
  0
LINE
  5
276
100
AcDbEntity
  8
0
100
AcDbLine
 62
7
  6
CONTINUOUS
 10
-9.5052681278
 20
34.0287629464
 11
-8.8676327859
 21
35.5895819734
  0
LINE
  5
277
100
AcDbEntity
  8
0
100
AcDbLine
 62
7
  6
CONTINUOUS
 10
-10.4786967786
 20
34.5091535308
 11
-10.3513030067
 21
36.5678966372
  0
LINE
  5
278
100
AcDbEntity
  8
IMPORT_IGES
100
AcDbLine
 62
7
  6
CONTINUOUS
 10
-10.2956993099
 20
36.3645881924
 11
-10.4079861005
 21
34.5499809901
  0
LINE
  5
279
100
AcDbEntity
  8
0
100
AcDbLine
 62
7
  6
CONTINUOUS
 10
-10.4079861005
 20
34.5499809901
 11
-10.2956993099
 21
36.3645881924
  0
LINE
  5
27A
100
AcDbEntity
  8
0
100
AcDbLine
 62
7
  6
CONTINUOUS
 10
-10.7880927649
 20
37.9532775653
 11
-11.043451651
 21
34.8352359161
  0
LINE
  5
27B
100
AcDbEntity
  8
0
100
AcDbLine
 62
7
  6
CONTINUOUS
 10
-7.215012196
 20
33.781091847
 11
-6.9210763923
 21
34.8232393356
  0
LINE
  5
27C
100
AcDbEntity
  8
IMPORT_IGES
100
AcDbLine
 62
7
  6
CONTINUOUS
 10
-6.8966446617
 20
34.6999850865
 11
-7.1443015179
 21
33.8219193064
  0
LINE
  5
27D
100
AcDbEntity
  8
0
100
AcDbLine
 62
7
  6
CONTINUOUS
 10
-7.1443015179
 20
33.8219193064
 11
-6.8966446617
 21
34.6999850865
  0
LINE
  5
27E
100
AcDbEntity
  8
0
100
AcDbLine
 62
7
  6
CONTINUOUS
 10
-7.4986624244
 20
32.7885190433
 11
-7.3357676494
 21
33.3463722519
  0
LINE
  5
27F
100
AcDbEntity
  8
IMPORT_IGES
100
AcDbLine
 62
7
  6
CONTINUOUS
 10
-7.2854604454
 20
33.3173255028
 11
-7.4279517463
 21
32.8293465026
  0
LINE
  5
280
100
AcDbEntity
  8
0
100
AcDbLine
 62
7
  6
CONTINUOUS
 10
-7.4279517463
 20
32.8293465026
 11
-7.2854604454
 21
33.3173255028
  0
LINE
  5
281
100
AcDbEntity
  8
0
100
AcDbLine
 62
7
  6
CONTINUOUS
 10
-7.1955229189
 20
35.8789727617
 11
-8.0825897901
 21
33.1256713859
  0
LINE
  5
282
100
AcDbEntity
  8
0
100
AcDbLine
 62
7
  6
CONTINUOUS
 10
-8.1752872465
 20
33.1791937354
 11
-8.4397451826
 21
36.597371103
  0
LINE
  5
283
100
AcDbEntity
  8
0
100
AcDbLine
 62
7
  6
CONTINUOUS
 10
-8.8740742093
 20
35.7060743317
 11
-8.7527884257
 21
33.5126356786
  0
LINE
  5
284
100
AcDbEntity
  8
0
100
AcDbLine
 62
7
  6
CONTINUOUS
 10
-11.9515775764
 20
38.6252550664
 11
-11.9515775764
 21
35.3595764439
  0
LINE
  5
285
100
AcDbEntity
  8
0
100
AcDbLine
 62
7
  6
CONTINUOUS
 10
-11.3612459446
 20
35.0187263583
 11
-11.3612459446
 21
38.2844049808
  0
LINE
  5
286
100
AcDbEntity
  8
0
100
AcDbLine
 62
7
  6
CONTINUOUS
 10
-11.2905352665
 20
35.0595538176
 11
-11.2905352665
 21
38.3252324402
  0
LINE
  5
287
100
AcDbEntity
  8
IMPORT_IGES
100
AcDbLine
 62
7
  6
CONTINUOUS
 10
-11.2905352665
 20
35.0595538176
 11
-11.2905352665
 21
38.3252324402
  0
LINE
  5
288
100
AcDbEntity
  8
0
100
AcDbLine
 62
7
  6
CONTINUOUS
 10
-5.5833720098
 20
34.9099855055
 11
-5.5833720098
 21
31.6826542707
  0
LINE
  5
289
100
AcDbEntity
  8
RACCORDO
100
AcDbLine
 62
250
  6
CONTINUOUS
 10
-51.1399459208
 20
-19.9150766288
 11
-50.9278138865
 21
-19.7925942508
  0
LINE
  5
28A
100
AcDbEntity
  8
RACCORDO
100
AcDbLine
 62
250
  6
CONTINUOUS
 10
-50.7863925302
 20
-20.5274490638
 11
-50.5742604959
 21
-20.4049666858
  0
LINE
  5
28B
100
AcDbEntity
  8
IMPORT_IGES
100
AcDbLine
 62
7
  6
CONTINUOUS
 10
-8.3690345045
 20
36.6381985624
 11
-8.1045765684
 21
33.2200211948
  0
LINE
  5
28C
100
AcDbEntity
  8
0
100
AcDbLine
 62
7
  6
CONTINUOUS
 10
-8.1045765684
 20
33.2200211948
 11
-8.3690345045
 21
36.6381985624
  0
LINE
  5
28D
100
AcDbEntity
  8
0
100
AcDbLine
 62
7
  6
CONTINUOUS
 10
-5.0149901241
 20
33.1672145143
 11
-5.0149901241
 21
34.06365324
  0
LINE
  5
28E
100
AcDbEntity
  8
0
100
AcDbLine
 62
7
  6
CONTINUOUS
 10
-4.9954156126
 20
31.3431756158
 11
-4.9954156126
 21
32.6211052425
  0
LINE
  5
28F
100
AcDbEntity
  8
0
100
AcDbLine
 62
7
  6
CONTINUOUS
 10
-4.9442794459
 20
33.2080419737
 11
-4.9442794459
 21
34.0356915699
  0
LINE
  5
290
100
AcDbEntity
  8
IMPORT_IGES
100
AcDbLine
 62
7
  6
CONTINUOUS
 10
-4.9442794459
 20
33.2080419737
 11
-4.9442794459
 21
34.0356915699
  0
LINE
  5
291
100
AcDbEntity
  8
0
100
AcDbLine
 62
7
  6
CONTINUOUS
 10
-4.9247049345
 20
31.3840030751
 11
-4.9247049345
 21
32.5802777832
  0
LINE
  5
292
100
AcDbEntity
  8
IMPORT_IGES
100
AcDbLine
 62
7
  6
CONTINUOUS
 10
-4.9247049345
 20
31.3840030751
 11
-4.9247049345
 21
32.5802777832
  0
LINE
  5
293
100
AcDbEntity
  8
0
100
AcDbLine
 62
7
  6
CONTINUOUS
 10
-4.0656581314
 20
32.3306437524
 11
-4.0656581314
 21
32.3499399095
  0
LINE
  5
294
100
AcDbEntity
  8
0
100
AcDbLine
 62
7
  6
CONTINUOUS
 10
-10.3513030067
 20
36.5678966372
 11
-9.6587725247
 21
34.0357395426
  0
LINE
  5
295
100
AcDbEntity
  8
0
100
AcDbLine
 62
7
  6
CONTINUOUS
 10
-9.6141519655
 20
35.4624523193
 11
-10.1982483297
 21
37.6127087809
  0
LINE
  5
296
100
AcDbEntity
  8
IMPORT_IGES
100
AcDbLine
 62
7
  6
CONTINUOUS
 10
-10.1275376516
 20
37.6535362402
 11
-9.5653857005
 21
35.5840645927
  0
LINE
  5
297
100
AcDbEntity
  8
0
100
AcDbLine
 62
7
  6
CONTINUOUS
 10
-9.5653857005
 20
35.5840645927
 11
-10.1275376516
 21
37.6535362402
  0
LINE
  5
298
100
AcDbEntity
  8
0
100
AcDbLine
 62
7
  6
CONTINUOUS
 10
-14.4964973083
 20
40.0944638714
 11
-13.599940357
 21
36.3113204546
  0
LINE
  5
299
100
AcDbEntity
  8
0
100
AcDbLine
 62
7
  6
CONTINUOUS
 10
-13.3161310295
 20
37.1652023012
 11
-13.8552150973
 21
39.72419556
  0
LINE
  5
29A
100
AcDbEntity
  8
IMPORT_IGES
100
AcDbLine
 62
7
  6
CONTINUOUS
 10
-13.7845044192
 20
39.7650230193
 11
-13.2703046841
 21
37.3241538965
  0
LINE
  5
29B
100
AcDbEntity
  8
0
100
AcDbLine
 62
7
  6
CONTINUOUS
 10
-13.2703046841
 20
37.3241538965
 11
-13.7845044192
 21
39.7650230193
  0
LINE
  5
29C
100
AcDbEntity
  8
0
100
AcDbLine
 62
7
  6
CONTINUOUS
 10
-6.5318346154
 20
32.8821913937
 11
-6.3789072176
 21
32.1419864207
  0
LINE
  5
29D
100
AcDbEntity
  8
0
100
AcDbLine
 62
7
  6
CONTINUOUS
 10
-6.9210763923
 20
34.8232393356
 11
-6.6498118463
 21
33.4547522488
  0
LINE
  5
29E
100
AcDbEntity
  8
0
100
AcDbLine
 62
7
  6
CONTINUOUS
 10
-5.7567218395
 20
31.7827443812
 11
-6.6244479261
 21
35.5492412181
  0
LINE
  5
29F
100
AcDbEntity
  8
IMPORT_IGES
100
AcDbLine
 62
7
  6
CONTINUOUS
 10
-6.5537372479
 20
35.5900686774
 11
-5.6860111614
 21
31.8235718405
  0
LINE
  5
2A0
100
AcDbEntity
  8
0
100
AcDbLine
 62
7
  6
CONTINUOUS
 10
-5.6860111614
 20
31.8235718405
 11
-6.5537372479
 21
35.5900686774
  0
LINE
  5
2A1
100
AcDbEntity
  8
DRAFT
100
AcDbLine
 62
250
  6
CONTINUOUS
 10
52.61516786
 20
21.9435727802
 11
55.3008378512
 21
23.6025358402
  0
LINE
  5
2A2
100
AcDbEntity
  8
RACCORDO
100
AcDbLine
 62
250
  6
CONTINUOUS
 10
51.9548285488
 20
21.4745020507
 11
38.8633916107
 21
13.9157077168
  0
LINE
  5
2A3
100
AcDbEntity
  8
RACCORDO
100
AcDbLine
 62
250
  6
CONTINUOUS
 10
53.6483594485
 20
20.1668797468
 11
39.8530018733
 21
12.2016524639
  0
LINE
  5
2A4
100
AcDbEntity
  8
DRAFT
100
AcDbLine
 62
250
  6
CONTINUOUS
 10
56.4602688746
 20
21.5943424018
 11
53.9051260353
 21
20.2185959462
  0
LINE
  5
2A5
100
AcDbEntity
  8
RACCORDO
100
AcDbLine
 62
7
  6
CONTINUOUS
 10
-50.8863973623
 20
48.862616228
 11
33.2593095989
 21
0.277939622
  0
LINE
  5
2A6
100
AcDbEntity
  8
RACCORDO
100
AcDbLine
 62
250
  6
CONTINUOUS
 10
-50.9278138865
 20
48.9541636002
 11
33.2178930747
 21
0.3694869942
  0
LINE
  5
2A7
100
AcDbEntity
  8
0
100
AcDbLine
 62
7
  6
CONTINUOUS
 10
-13.599940357
 20
36.3113204546
 11
-13.0797098772
 21
36.0109458956
  0
LINE
  5
2A8
100
AcDbEntity
  8
0
100
AcDbLine
 62
7
  6
CONTINUOUS
 10
-11.9515775764
 20
35.3595764439
 11
-11.3612459446
 21
35.0187263583
  0
LINE
  5
2A9
100
AcDbEntity
  8
0
100
AcDbLine
 62
7
  6
CONTINUOUS
 10
-11.043451651
 20
34.8352359161
 11
-10.4786967786
 21
34.5091535308
  0
LINE
  5
2AA
100
AcDbEntity
  8
0
100
AcDbLine
 62
7
  6
CONTINUOUS
 10
-9.6587725247
 20
34.0357395426
 11
-9.5759788059
 21
33.987935487
  0
LINE
  5
2AB
100
AcDbEntity
  8
0
100
AcDbLine
 62
7
  6
CONTINUOUS
 10
-8.7527884257
 20
33.5126356786
 11
-8.1752872465
 21
33.1791937354
  0
LINE
  5
2AC
100
AcDbEntity
  8
0
100
AcDbLine
 62
7
  6
CONTINUOUS
 10
-8.0825897901
 20
33.1256713859
 11
-7.4986624244
 21
32.7885190433
  0
LINE
  5
2AD
100
AcDbEntity
  8
0
100
AcDbLine
 62
7
  6
CONTINUOUS
 10
-6.3789072176
 20
32.1419864207
 11
-5.7567218395
 21
31.7827443812
  0
LINE
  5
2AE
100
AcDbEntity
  8
0
100
AcDbLine
 62
7
  6
CONTINUOUS
 10
-5.5833720098
 20
31.6826542707
 11
-4.9954156126
 21
31.3431756158
  0
LINE
  5
2AF
100
AcDbEntity
  8
0
100
AcDbLine
 62
7
  6
CONTINUOUS
 10
-4.0914040218
 20
30.8212106532
 11
-3.5235735307
 21
30.4933524442
  0
LINE
  5
2B0
100
AcDbEntity
  8
0
100
AcDbLine
 62
7
  6
CONTINUOUS
 10
-7.3357676494
 20
33.3463722519
 11
-6.5318346154
 21
32.8821913937
  0
LINE
  5
2B1
100
AcDbEntity
  8
0
100
AcDbLine
 62
7
  6
CONTINUOUS
 10
-6.6498118463
 20
33.4547522488
 11
-7.215012196
 21
33.781091847
  0
LINE
  5
2B2
100
AcDbEntity
  8
IMPORT_IGES
100
AcDbLine
 62
7
  6
CONTINUOUS
 10
-7.1443015179
 20
33.8219193064
 11
-6.6680895696
 21
33.5469604958
  0
LINE
  5
2B3
100
AcDbEntity
  8
0
100
AcDbLine
 62
7
  6
CONTINUOUS
 10
-6.6680895696
 20
33.5469604958
 11
-7.1443015179
 21
33.8219193064
  0
LINE
  5
2B4
100
AcDbEntity
  8
0
100
AcDbLine
 62
7
  6
CONTINUOUS
 10
-4.9954156126
 20
32.6211052425
 11
-4.6788938543
 21
32.4383495462
  0
LINE
  5
2B5
100
AcDbEntity
  8
0
100
AcDbLine
 62
7
  6
CONTINUOUS
 10
-4.677621405
 20
32.9724220442
 11
-5.0149901241
 21
33.1672145143
  0
LINE
  5
2B6
100
AcDbEntity
  8
0
100
AcDbLine
 62
7
  6
CONTINUOUS
 10
-4.6069107269
 20
33.0132495035
 11
-4.9442794459
 21
33.2080419737
  0
LINE
  5
2B7
100
AcDbEntity
  8
IMPORT_IGES
100
AcDbLine
 62
7
  6
CONTINUOUS
 10
-4.6069107269
 20
33.0132495035
 11
-4.9442794459
 21
33.2080419737
  0
LINE
  5
2B8
100
AcDbEntity
  8
0
100
AcDbLine
 62
7
  6
CONTINUOUS
 10
27.7024601815
 20
-67.1939989102
 11
27.7024601815
 21
-69.6833628971
  0
LINE
  5
2B9
100
AcDbEntity
  8
0
100
AcDbLine
 62
7
  6
CONTINUOUS
 10
27.9937259499
 20
-69.8515361014
 11
27.9937259499
 21
-67.3621721145
  0
LINE
  5
2BA
100
AcDbEntity
  8
0
100
AcDbLine
 62
7
  6
CONTINUOUS
 10
28.064436628
 20
-69.8107086421
 11
28.064436628
 21
-67.3213446552
  0
LINE
  5
2BB
100
AcDbEntity
  8
IMPORT_IGES
100
AcDbLine
 62
7
  6
CONTINUOUS
 10
28.064436628
 20
-67.3213446552
 11
28.064436628
 21
-69.8107086421
  0
LINE
  5
2BC
100
AcDbEntity
  8
0
100
AcDbLine
 62
7
  6
CONTINUOUS
 10
28.5222048303
 20
-67.6673091966
 11
28.5222048303
 21
-70.1566731835
  0
LINE
  5
2BD
100
AcDbEntity
  8
0
100
AcDbLine
 62
7
  6
CONTINUOUS
 10
28.8134705987
 20
-70.3248463878
 11
28.8134705987
 21
-69.2727517703
  0
LINE
  5
2BE
100
AcDbEntity
  8
0
100
AcDbLine
 62
7
  6
CONTINUOUS
 10
28.8134705987
 20
-68.9838707064
 11
28.8134705987
 21
-68.1207963062
  0
LINE
  5
2BF
100
AcDbEntity
  8
0
100
AcDbLine
 62
7
  6
CONTINUOUS
 10
28.8841812768
 20
-70.2840189285
 11
28.8841812768
 21
-69.3135792296
  0
LINE
  5
2C0
100
AcDbEntity
  8
IMPORT_IGES
100
AcDbLine
 62
7
  6
CONTINUOUS
 10
28.8841812768
 20
-70.2840189285
 11
28.8841812768
 21
-69.3135792296
  0
LINE
  5
2C1
100
AcDbEntity
  8
0
100
AcDbLine
 62
7
  6
CONTINUOUS
 10
28.8841812768
 20
-68.943043247
 11
28.8841812768
 21
-68.1616237655
  0
LINE
  5
2C2
100
AcDbEntity
  8
IMPORT_IGES
100
AcDbLine
 62
7
  6
CONTINUOUS
 10
28.8841812768
 20
-68.943043247
 11
28.8841812768
 21
-68.1616237655
  0
LINE
  5
2C3
100
AcDbEntity
  8
0
100
AcDbLine
 62
7
  6
CONTINUOUS
 10
30.3420742393
 20
-70.3158370179
 11
30.3420742393
 21
-70.6118499497
  0
LINE
  5
2C4
100
AcDbEntity
  8
0
100
AcDbLine
 62
7
  6
CONTINUOUS
 10
31.2637462093
 20
-69.7648604118
 11
31.2637462093
 21
-70.8800967581
  0
LINE
  5
2C5
100
AcDbEntity
  8
0
100
AcDbLine
 62
7
  6
CONTINUOUS
 10
31.2637462093
 20
-71.1440117939
 11
31.2637462093
 21
-71.7396048162
  0
LINE
  5
2C6
100
AcDbEntity
  8
0
100
AcDbLine
 62
7
  6
CONTINUOUS
 10
31.5278315002
 20
-71.8920843534
 11
31.5278315002
 21
-71.2964913311
  0
LINE
  5
2C7
100
AcDbEntity
  8
0
100
AcDbLine
 62
7
  6
CONTINUOUS
 10
31.5278315002
 20
-71.0325762953
 11
31.5278315002
 21
-69.4526507898
  0
LINE
  5
2C8
100
AcDbEntity
  8
0
100
AcDbLine
 62
7
  6
CONTINUOUS
 10
31.5985421783
 20
-71.851256894
 11
31.5985421783
 21
-71.3373187905
  0
LINE
  5
2C9
100
AcDbEntity
  8
IMPORT_IGES
100
AcDbLine
 62
7
  6
CONTINUOUS
 10
31.5985421783
 20
-71.851256894
 11
31.5985421783
 21
-71.3373187905
  0
LINE
  5
2CA
100
AcDbEntity
  8
0
100
AcDbLine
 62
7
  6
CONTINUOUS
 10
31.5985421783
 20
-70.991748836
 11
31.5985421783
 21
-69.4118233304
  0
LINE
  5
2CB
100
AcDbEntity
  8
IMPORT_IGES
100
AcDbLine
 62
7
  6
CONTINUOUS
 10
31.5985421783
 20
-70.991748836
 11
31.5985421783
 21
-69.4118233304
  0
LINE
  5
2CC
100
AcDbEntity
  8
0
100
AcDbLine
 62
7
  6
CONTINUOUS
 10
31.8373201175
 20
-71.47518618
 11
31.8373201175
 21
-71.2112711442
  0
LINE
  5
2CD
100
AcDbEntity
  8
0
100
AcDbLine
 62
7
  6
CONTINUOUS
 10
31.9080307956
 20
-71.4343587206
 11
31.9080307956
 21
-71.1704436848
  0
LINE
  5
2CE
100
AcDbEntity
  8
IMPORT_IGES
100
AcDbLine
 62
7
  6
CONTINUOUS
 10
31.9080307956
 20
-71.4343587206
 11
31.9080307956
 21
-71.1704436848
  0
LINE
  5
2CF
100
AcDbEntity
  8
0
100
AcDbLine
 62
7
  6
CONTINUOUS
 10
32.0115236512
 20
-71.2797561853
 11
32.0115236512
 21
-71.575769117
  0
LINE
  5
2D0
100
AcDbEntity
  8
0
100
AcDbLine
 62
7
  6
CONTINUOUS
 10
32.9335046268
 20
-70.7284460682
 11
32.9335046268
 21
-71.8441943414
  0
LINE
  5
2D1
100
AcDbEntity
  8
0
100
AcDbLine
 62
7
  6
CONTINUOUS
 10
32.9335046268
 20
-72.1081093772
 11
32.9335046268
 21
-72.7037023995
  0
LINE
  5
2D2
100
AcDbEntity
  8
0
100
AcDbLine
 62
7
  6
CONTINUOUS
 10
-6.6244479261
 20
35.5492412181
 11
-7.1955229189
 21
35.8789727617
  0
LINE
  5
2D3
100
AcDbEntity
  8
0
100
AcDbLine
 62
7
  6
CONTINUOUS
 10
-8.4397451826
 20
36.597371103
 11
-9.0238203337
 21
36.934608775
  0
LINE
  5
2D4
100
AcDbEntity
  8
0
100
AcDbLine
 62
7
  6
CONTINUOUS
 10
-10.1982483297
 20
37.6127087809
 11
-10.7880927649
 21
37.9532775653
  0
LINE
  5
2D5
100
AcDbEntity
  8
0
100
AcDbLine
 62
7
  6
CONTINUOUS
 10
-12.170651278
 20
38.7515495232
 11
-12.7605798589
 21
39.0921668923
  0
LINE
  5
2D6
100
AcDbEntity
  8
0
100
AcDbLine
 62
7
  6
CONTINUOUS
 10
-13.8552150973
 20
39.72419556
 11
-14.4964973083
 21
40.0944638714
  0
LINE
  5
2D7
100
AcDbEntity
  8
0
100
AcDbLine
 62
7
  6
CONTINUOUS
 10
-11.3612459446
 20
38.2844049808
 11
-11.9515775764
 21
38.6252550664
  0
LINE
  5
2D8
100
AcDbEntity
  8
IMPORT_IGES
100
AcDbLine
 62
7
  6
CONTINUOUS
 10
-14.4257866302
 20
40.1352913308
 11
-13.7845044192
 21
39.7650230193
  0
LINE
  5
2D9
100
AcDbEntity
  8
IMPORT_IGES
100
AcDbLine
 62
7
  6
CONTINUOUS
 10
-12.6898691808
 20
39.1329943517
 11
-12.0999405999
 21
38.7923769826
  0
LINE
  5
2DA
100
AcDbEntity
  8
IMPORT_IGES
100
AcDbLine
 62
7
  6
CONTINUOUS
 10
-10.7173820868
 20
37.9941050246
 11
-10.1275376516
 21
37.6535362402
  0
LINE
  5
2DB
100
AcDbEntity
  8
IMPORT_IGES
100
AcDbLine
 62
7
  6
CONTINUOUS
 10
-8.9531096555
 20
36.9754362344
 11
-8.3690345045
 21
36.6381985624
  0
LINE
  5
2DC
100
AcDbEntity
  8
IMPORT_IGES
100
AcDbLine
 62
7
  6
CONTINUOUS
 10
-7.1248122408
 20
35.919800221
 11
-6.5537372479
 21
35.5900686774
  0
LINE
  5
2DD
100
AcDbEntity
  8
0
100
AcDbLine
 62
7
  6
CONTINUOUS
 10
-6.5537372479
 20
35.5900686774
 11
-7.1248122408
 21
35.919800221
  0
LINE
  5
2DE
100
AcDbEntity
  8
0
100
AcDbLine
 62
7
  6
CONTINUOUS
 10
-8.3690345045
 20
36.6381985624
 11
-8.9531096555
 21
36.9754362344
  0
LINE
  5
2DF
100
AcDbEntity
  8
0
100
AcDbLine
 62
7
  6
CONTINUOUS
 10
-10.1275376516
 20
37.6535362402
 11
-10.7173820868
 21
37.9941050246
  0
LINE
  5
2E0
100
AcDbEntity
  8
0
100
AcDbLine
 62
7
  6
CONTINUOUS
 10
-12.0999405999
 20
38.7923769826
 11
-12.6898691808
 21
39.1329943517
  0
LINE
  5
2E1
100
AcDbEntity
  8
0
100
AcDbLine
 62
7
  6
CONTINUOUS
 10
-13.7845044192
 20
39.7650230193
 11
-14.4257866302
 21
40.1352913308
  0
LINE
  5
2E2
100
AcDbEntity
  8
0
100
AcDbLine
 62
7
  6
CONTINUOUS
 10
-11.2905352665
 20
38.3252324402
 11
-11.8808668983
 21
38.6660825258
  0
LINE
  5
2E3
100
AcDbEntity
  8
IMPORT_IGES
100
AcDbLine
 62
7
  6
CONTINUOUS
 10
-11.2905352665
 20
38.3252324402
 11
-11.8808668983
 21
38.6660825258
  0
LINE
  5
2E4
100
AcDbEntity
  8
RACCORDO
100
AcDbLine
 62
250
  6
CONTINUOUS
 10
-55.8847155389
 20
67.0107123986
 11
38.1747947271
 21
12.7019300136
  0
LINE
  5
2E5
100
AcDbEntity
  8
RACCORDO
100
AcDbLine
 62
250
  6
CONTINUOUS
 10
-55.1961186554
 20
68.2244901018
 11
38.8633916107
 21
13.9157077168
  0
LINE
  5
2E6
100
AcDbEntity
  8
0
100
AcDbLine
 62
7
  6
CONTINUOUS
 10
33.1975899177
 20
-72.8561819367
 11
33.1975899177
 21
-72.2605889144
  0
LINE
  5
2E7
100
AcDbEntity
  8
0
100
AcDbLine
 62
7
  6
CONTINUOUS
 10
33.1975899177
 20
-71.9966738786
 11
33.1975899177
 21
-70.4167483731
  0
LINE
  5
2E8
100
AcDbEntity
  8
0
100
AcDbLine
 62
7
  6
CONTINUOUS
 10
33.2683005958
 20
-72.8153544773
 11
33.2683005958
 21
-72.3014163738
  0
LINE
  5
2E9
100
AcDbEntity
  8
IMPORT_IGES
100
AcDbLine
 62
7
  6
CONTINUOUS
 10
33.2683005958
 20
-72.8153544773
 11
33.2683005958
 21
-72.3014163738
  0
LINE
  5
2EA
100
AcDbEntity
  8
0
100
AcDbLine
 62
7
  6
CONTINUOUS
 10
33.2683005958
 20
-71.9558464193
 11
33.2683005958
 21
-70.3759209137
  0
LINE
  5
2EB
100
AcDbEntity
  8
IMPORT_IGES
100
AcDbLine
 62
7
  6
CONTINUOUS
 10
33.2683005958
 20
-71.9558464193
 11
33.2683005958
 21
-70.3759209137
  0
LINE
  5
2EC
100
AcDbEntity
  8
0
100
AcDbLine
 62
7
  6
CONTINUOUS
 10
33.507078535
 20
-72.4392837633
 11
33.507078535
 21
-72.1753687275
  0
LINE
  5
2ED
100
AcDbEntity
  8
0
100
AcDbLine
 62
7
  6
CONTINUOUS
 10
33.5777892131
 20
-72.3984563039
 11
33.5777892131
 21
-72.1345412681
  0
LINE
  5
2EE
100
AcDbEntity
  8
IMPORT_IGES
100
AcDbLine
 62
7
  6
CONTINUOUS
 10
33.5777892131
 20
-72.3984563039
 11
33.5777892131
 21
-72.1345412681
  0
LINE
  5
2EF
100
AcDbEntity
  8
RACCORDO
100
AcDbLine
 62
7
  6
CONTINUOUS
 10
33.6542891778
 20
-0.4061794962
 11
33.6542891778
 21
-68.9896827468
  0
LINE
  5
2F0
100
AcDbEntity
  8
RACCORDO
100
AcDbLine
 62
250
  6
CONTINUOUS
 10
33.7128678216
 20
-0.4878344148
 11
33.7128678216
 21
-69.0713376654
  0
LINE
  5
2F1
100
AcDbEntity
  8
RACCORDO
100
AcDbLine
 62
250
  6
CONTINUOUS
 10
38.4575405165
 20
12.2121999413
 11
38.4575405165
 21
-77.6160518541
  0
LINE
  5
2F2
100
AcDbEntity
  8
DRAFT
100
AcDbLine
 62
7
  6
CONTINUOUS
 10
53.4411470167
 20
13.9320866757
 11
53.5330708982
 21
13.8790109785
  0
LINE
  5
2F3
100
AcDbEntity
  8
RACCORDO
100
AcDbLine
 62
250
  6
CONTINUOUS
 10
39.8530018733
 20
12.2016524639
 11
39.8530018733
 21
-77.6265993315
  0
LINE
  5
2F4
100
AcDbEntity
  8
RACCORDO
100
AcDbLine
 62
7
  6
CONTINUOUS
 10
-42.7728088736
 20
76.1690526823
 11
51.9548285488
 21
21.4745020507
  0
LINE
  5
2F5
100
AcDbEntity
  8
DRAFT
100
AcDbLine
 62
7
  6
CONTINUOUS
 10
-43.0508454797
 20
76.4784864275
 11
53.37111831
 21
20.8056529863
  0
LINE
  5
2F6
100
AcDbEntity
  8
DRAFT
100
AcDbLine
 62
7
  6
CONTINUOUS
 10
52.61516786
 20
21.9435727802
 11
-42.0381458696
 21
76.5952098431
  0
LINE
  5
2F7
100
AcDbEntity
  8
DRAFT
100
AcDbLine
 62
7
  6
CONTINUOUS
 10
55.3008378512
 20
23.6025358402
 11
-39.3524758785
 21
78.254172903
  0
LINE
  5
2F8
100
AcDbEntity
  8
RACCORDO
100
AcDbLine
 62
7
  6
CONTINUOUS
 10
53.4411470167
 20
-70.5817456434
 11
53.4411470167
 21
14.09578609
  0
LINE
  5
2F9
100
AcDbEntity
  8
DRAFT
100
AcDbLine
 62
7
  6
CONTINUOUS
 10
53.5330708982
 20
-70.4956218049
 11
53.5330708982
 21
13.8790109785
  0
LINE
  5
2FA
100
AcDbEntity
  8
DRAFT
100
AcDbLine
 62
7
  6
CONTINUOUS
 10
56.4602688746
 20
-68.9195524834
 11
56.4602688746
 21
21.5943424018
  0
LINE
  5
2FB
100
AcDbEntity
  8
0
100
AcDbLine
 62
7
  6
CONTINUOUS
 10
30.5851563375
 20
-70.4882874709
 11
31.2637462093
 21
-69.7648604118
  0
LINE
  5
2FC
100
AcDbEntity
  8
0
100
AcDbLine
 62
7
  6
CONTINUOUS
 10
30.6558670156
 20
-70.4474600115
 11
31.2637462093
 21
-69.7994157721
  0
LINE
  5
2FD
100
AcDbEntity
  8
IMPORT_IGES
100
AcDbLine
 62
7
  6
CONTINUOUS
 10
30.6558670156
 20
-70.4474600115
 11
31.2637462093
 21
-69.7994157721
  0
LINE
  5
2FE
100
AcDbEntity
  8
0
100
AcDbLine
 62
7
  6
CONTINUOUS
 10
31.3088419442
 20
-69.3262089648
 11
30.3420742393
 21
-70.3158370179
  0
LINE
  5
2FF
100
AcDbEntity
  8
0
100
AcDbLine
 62
7
  6
CONTINUOUS
 10
32.254914755
 20
-71.4523850542
 11
32.9335046268
 21
-70.7284460682
  0
LINE
  5
300
100
AcDbEntity
  8
0
100
AcDbLine
 62
7
  6
CONTINUOUS
 10
32.3256254331
 20
-71.4115575949
 11
32.9335046268
 21
-70.7630547725
  0
LINE
  5
301
100
AcDbEntity
  8
IMPORT_IGES
100
AcDbLine
 62
7
  6
CONTINUOUS
 10
32.3256254331
 20
-71.4115575949
 11
32.9335046268
 21
-70.7630547725
  0
LINE
  5
302
100
AcDbEntity
  8
0
100
AcDbLine
 62
7
  6
CONTINUOUS
 10
32.9785996547
 20
-70.2903061398
 11
32.0115236512
 21
-71.2797561853
  0
LINE
  5
303
100
AcDbEntity
  8
0
100
AcDbLine
 62
7
  6
CONTINUOUS
 10
27.7731708596
 20
-67.1531714509
 11
27.7024601815
 21
-67.1939989102
  0
LINE
  5
304
100
AcDbEntity
  8
0
100
AcDbLine
 62
7
  6
CONTINUOUS
 10
28.064436628
 20
-67.3213446552
 11
27.9937259499
 21
-67.3621721145
  0
LINE
  5
305
100
AcDbEntity
  8
0
100
AcDbLine
 62
7
  6
CONTINUOUS
 10
28.5929155084
 20
-67.6264817373
 11
28.5222048303
 21
-67.6673091966
  0
LINE
  5
306
100
AcDbEntity
  8
0
100
AcDbLine
 62
250
  6
CONTINUOUS
 10
29.5627711486
 20
-68.1864642288
 11
29.4920604705
 21
-68.2272916881
  0
LINE
  5
307
100
AcDbEntity
  8
0
100
AcDbLine
 62
7
  6
CONTINUOUS
 10
28.8841812768
 20
-68.943043247
 11
28.8134705987
 21
-68.9838707064
  0
LINE
  5
308
100
AcDbEntity
  8
0
100
AcDbLine
 62
7
  6
CONTINUOUS
 10
28.064436628
 20
-69.8107086421
 11
27.9937259499
 21
-69.8515361014
  0
LINE
  5
309
100
AcDbEntity
  8
0
100
AcDbLine
 62
250
  6
CONTINUOUS
 10
29.4636234642
 20
-69.2776059039
 11
29.3929127861
 21
-69.3184333632
  0
LINE
  5
30A
100
AcDbEntity
  8
0
100
AcDbLine
 62
250
  6
CONTINUOUS
 10
30.2024437138
 20
-69.2548223993
 11
30.1317330357
 21
-69.2956498586
  0
LINE
  5
30B
100
AcDbEntity
  8
0
100
AcDbLine
 62
7
  6
CONTINUOUS
 10
28.8841812768
 20
-70.2840189285
 11
28.8134705987
 21
-70.3248463878
  0
LINE
  5
30C
100
AcDbEntity
  8
0
100
AcDbLine
 62
7
  6
CONTINUOUS
 10
29.9507392913
 20
-69.7347760654
 11
30.0214499695
 21
-69.6939486061
  0
LINE
  5
30D
100
AcDbEntity
  8
0
100
AcDbLine
 62
7
  6
CONTINUOUS
 10
31.3795526224
 20
-69.2853815054
 11
31.3088419442
 21
-69.3262089648
  0
LINE
  5
30E
100
AcDbEntity
  8
0
100
AcDbLine
 62
7
  6
CONTINUOUS
 10
31.5985421783
 20
-69.4118233304
 11
31.5278315002
 21
-69.4526507898
  0
LINE
  5
30F
100
AcDbEntity
  8
0
100
AcDbLine
 62
7
  6
CONTINUOUS
 10
30.6558670156
 20
-70.4474600115
 11
30.5851563375
 21
-70.4882874709
  0
LINE
  5
310
100
AcDbEntity
  8
RACCORDO
100
AcDbLine
 62
250
  6
CONTINUOUS
 10
33.359314431
 20
-69.1121256698
 11
33.5714464653
 21
-68.9896432918
  0
LINE
  5
311
100
AcDbEntity
  8
0
100
AcDbLine
 62
7
  6
CONTINUOUS
 10
31.5985421783
 20
-70.991748836
 11
31.5278315002
 21
-71.0325762953
  0
LINE
  5
312
100
AcDbEntity
  8
0
100
AcDbLine
 62
7
  6
CONTINUOUS
 10
33.0493103328
 20
-70.2494786805
 11
32.9785996547
 21
-70.2903061398
  0
LINE
  5
313
100
AcDbEntity
  8
0
100
AcDbLine
 62
7
  6
CONTINUOUS
 10
33.2683005958
 20
-70.3759209137
 11
33.1975899177
 21
-70.4167483731
  0
LINE
  5
314
100
AcDbEntity
  8
0
100
AcDbLine
 62
7
  6
CONTINUOUS
 10
31.9080307956
 20
-71.1704436848
 11
31.8373201175
 21
-71.2112711442
  0
LINE
  5
315
100
AcDbEntity
  8
0
100
AcDbLine
 62
7
  6
CONTINUOUS
 10
31.9080307956
 20
-71.4343587206
 11
31.8373201175
 21
-71.47518618
  0
LINE
  5
316
100
AcDbEntity
  8
0
100
AcDbLine
 62
7
  6
CONTINUOUS
 10
32.3256254331
 20
-71.4115575949
 11
32.254914755
 21
-71.4523850542
  0
LINE
  5
317
100
AcDbEntity
  8
0
100
AcDbLine
 62
7
  6
CONTINUOUS
 10
31.5985421783
 20
-71.851256894
 11
31.5278315002
 21
-71.8920843534
  0
LINE
  5
318
100
AcDbEntity
  8
0
100
AcDbLine
 62
7
  6
CONTINUOUS
 10
33.2683005958
 20
-71.9558464193
 11
33.1975899177
 21
-71.9966738786
  0
LINE
  5
319
100
AcDbEntity
  8
0
100
AcDbLine
 62
7
  6
CONTINUOUS
 10
33.5777892131
 20
-72.1345412681
 11
33.507078535
 21
-72.1753687275
  0
LINE
  5
31A
100
AcDbEntity
  8
0
100
AcDbLine
 62
7
  6
CONTINUOUS
 10
33.5777892131
 20
-72.3984563039
 11
33.507078535
 21
-72.4392837633
  0
LINE
  5
31B
100
AcDbEntity
  8
0
100
AcDbLine
 62
7
  6
CONTINUOUS
 10
33.2683005958
 20
-72.8153544773
 11
33.1975899177
 21
-72.8561819367
  0
LINE
  5
31C
100
AcDbEntity
  8
DRAFT
100
AcDbLine
 62
250
  6
CONTINUOUS
 10
56.4602688746
 20
-68.9195524834
 11
53.5330708982
 21
-70.4956218049
  0
LINE
  5
31D
100
AcDbEntity
  8
DRAFT
100
AcDbLine
 62
7
  6
CONTINUOUS
 10
56.1002268828
 20
-69.6813505079
 11
53.2037005492
 21
-71.1925229634
  0
LINE
  5
31E
100
AcDbEntity
  8
RACCORDO
100
AcDbLine
 62
250
  6
CONTINUOUS
 10
39.8530018733
 20
-77.6265993315
 11
53.4411470167
 21
-70.5817456434
  0
LINE
  5
31F
100
AcDbEntity
  8
RACCORDO
100
AcDbLine
 62
7
  6
CONTINUOUS
 10
39.5368277
 20
-78.2815088663
 11
53.132822532
 21
-71.2325854609
  0
ARC
  5
320
100
AcDbEntity
  8
SMUSSO
100
AcDbCircle
 62
7
  6
CONTINUOUS
 10
-50.0768585426
 20
-19.7095382916
 40
0.8630277199
100
AcDbArc
 50
206.2404332458
 51
213.7188314934
  0
ARC
  5
321
100
AcDbEntity
  8
0
100
AcDbCircle
 62
7
  6
CONTINUOUS
 10
-4.5379771645
 20
31.8534028207
 40
0.750598655
100
AcDbArc
 50
38.107012427
 51
40.9464284925
  0
ARC
  5
322
100
AcDbEntity
  8
IMPORT_IGES
100
AcDbCircle
 62
7
  6
CONTINUOUS
 10
-4.5370335651
 20
31.853843701
 40
0.7495905606
100
AcDbArc
 50
37.2078012835
 51
41.9402670376
  0
ARC
  5
323
100
AcDbEntity
  8
0
100
AcDbCircle
 62
7
  6
CONTINUOUS
 10
-4.502938318
 20
31.8834799513
 40
0.7044219221
100
AcDbArc
 50
40.9663462027
 51
42.0049657251
  0
ARC
  5
324
100
AcDbEntity
  8
DRAFT
100
AcDbCircle
 62
7
  6
CONTINUOUS
 10
52.9712245173
 20
-70.7469576596
 40
0.5025637711
100
AcDbArc
 50
294.9031071414
 51
297.5592244325
  0
ARC
  5
325
100
AcDbEntity
  8
SMUSSO
100
AcDbCircle
 62
7
  6
CONTINUOUS
 10
-50.4839762373
 20
48.7911734029
 40
0.443837728
100
AcDbArc
 50
176.1320138006
 51
180.0341322528
  0
ARC
  5
326
100
AcDbEntity
  8
IMPORT_IGES
100
AcDbCircle
 62
7
  6
CONTINUOUS
 10
-4.0033865949
 20
32.7610623776
 40
0.3736472397
100
AcDbArc
 50
299.9661883547
 51
303.3295936624
  0
ARC
  5
327
100
AcDbEntity
  8
RACCORDO
100
AcDbCircle
 62
250
  6
CONTINUOUS
 10
-56.1276629006
 20
-22.5725045597
 40
0.3326914279
100
AcDbArc
 50
179.9969974907
 51
181.8318841288
  0
ARC
  5
328
100
AcDbEntity
  8
RACCORDO
100
AcDbCircle
 62
250
  6
CONTINUOUS
 10
-55.5113339742
 20
-23.6401737237
 40
0.3326121402
100
AcDbArc
 50
238.2737495443
 51
240.0014365915
  0
ARC
  5
329
100
AcDbEntity
  8
IMPORT_IGES
100
AcDbCircle
 62
7
  6
CONTINUOUS
 10
29.8939528436
 20
-69.4736130408
 40
0.2545648806
100
AcDbArc
 50
300.0558108431
 51
307.2013647185
  0
SPLINE
  5
32A
100
AcDbEntity
  8
SMUSSO
100
AcDbSpline
 62
7
  6
CONTINUOUS
 70
0
 71
3
 72
11
 73
7
 74
0
 42
0.0000001
 43
0.0000001
 44
0.0000000001
 40
0.0
 40
0.0
 40
0.0
 40
0.0
 40
0.2372200919
 40
0.4999938932
 40
0.7627710182
 40
1.0
 40
1.0
 40
1.0
 40
1.0
 10
-50.9278138865
 20
-19.7925942508
 30
0.0
 10
-50.9278138864
 20
-19.8505489949
 30
0.0
 10
-50.9060764945
 20
-19.9727805758
 30
0.0
 10
-50.8303027976
 20
-20.1445399863
 30
0.0
 10
-50.7194401064
 20
-20.2960432253
 30
0.0
 10
-50.6244518491
 20
-20.3759868277
 30
0.0
 10
-50.5742604959
 20
-20.4049666858
 30
0.0
  0
SPLINE
  5
32B
100
AcDbEntity
  8
DRAFT
100
AcDbSpline
 62
7
  6
CONTINUOUS
 70
0
 71
3
 72
11
 73
7
 74
0
 42
0.0000001
 43
0.0000001
 44
0.0000000001
 40
0.0
 40
0.0
 40
0.0
 40
0.0
 40
0.2372125046
 40
0.4999938932
 40
0.7627786059
 40
1.0
 40
1.0
 40
1.0
 40
1.0
 10
56.4602688746
 20
21.5943424018
 30
0.0
 10
56.4602688746
 20
21.7843910883
 30
0.0
 10
56.388980395
 20
22.1852314604
 30
0.0
 10
56.1405008129
 20
22.7485050906
 30
0.0
 10
55.776926324
 20
23.2453367413
 30
0.0
 10
55.4654283584
 20
23.5075033441
 30
0.0
 10
55.3008378512
 20
23.6025358402
 30
0.0
  0
SPLINE
  5
32C
100
AcDbEntity
  8
DRAFT
100
AcDbSpline
 62
7
  6
CONTINUOUS
 70
0
 71
3
 72
11
 73
7
 74
0
 42
0.0000001
 43
0.0000001
 44
0.0000000001
 40
0.0
 40
0.0
 40
0.0
 40
0.0
 40
0.2905899658
 40
0.5495761591
 40
0.7820912822
 40
1.0
 40
1.0
 40
1.0
 40
1.0
 10
-39.3524758785
 20
78.254172903
 30
0.0
 10
-39.4265810576
 20
78.2969603047
 30
0.0
 10
-39.5738889185
 20
78.3666931452
 30
0.0
 10
-39.8004729383
 20
78.4189143077
 30
0.0
 10
-40.0122987559
 20
78.408896317
 30
0.0
 10
-40.1381478989
 20
78.3577339421
 30
0.0
 10
-40.1923011803
 20
78.3233106625
 30
0.0
  0
SPLINE
  5
32D
100
AcDbEntity
  8
DRAFT
100
AcDbSpline
 62
7
  6
CONTINUOUS
 70
0
 71
3
 72
10
 73
6
 74
0
 42
0.0000001
 43
0.0000001
 44
0.0000000001
 40
0.0
 40
0.0
 40
0.0
 40
0.0
 40
0.6084815789
 40
0.8303513542
 40
1.0
 40
1.0
 40
1.0
 40
1.0
 10
-42.9904668456
 20
76.291289904
 30
0.0
 10
-43.0076284609
 20
76.3275764259
 30
0.0
 10
-43.0298437344
 20
76.3779250948
 30
0.0
 10
-43.0478962437
 20
76.441423598
 30
0.0
 10
-43.051219331
 20
76.4673013334
 30
0.0
 10
-43.0508454797
 20
76.4784864275
 30
0.0
  0
SPLINE
  5
32E
100
AcDbEntity
  8
DRAFT
100
AcDbSpline
 62
7
  6
CONTINUOUS
 70
0
 71
3
 72
11
 73
7
 74
0
 42
0.0000001
 43
0.0000001
 44
0.0000000001
 40
0.0
 40
0.0
 40
0.0
 40
0.0
 40
0.2179141282
 40
0.4504315634
 40
0.7094156728
 40
1.0
 40
1.0
 40
1.0
 40
1.0
 10
56.1002736257
 20
-69.6813221904
 30
0.0
 10
56.1571532037
 20
-69.6516361443
 30
0.0
 10
56.2643686316
 20
-69.5682364192
 30
0.0
 10
56.3789419619
 20
-69.3898242426
 30
0.0
 10
56.447003158
 20
-69.1675215306
 30
0.0
 10
56.4602688746
 20
-69.0051090556
 30
0.0
 10
56.4602688746
 20
-68.9195524834
 30
0.0
  0
SPLINE
  5
32F
100
AcDbEntity
  8
DRAFT
100
AcDbSpline
 62
7
  6
CONTINUOUS
 70
0
 71
3
 72
9
 73
5
 74
0
 42
0.0000001
 43
0.0000001
 44
0.0000000001
 40
0.0
 40
0.0
 40
0.0
 40
0.0
 40
0.5431439314
 40
1.0
 40
1.0
 40
1.0
 40
1.0
 10
53.37111831
 20
20.8056529863
 30
0.0
 10
53.4810941511
 20
20.7124939244
 30
0.0
 10
53.6757553282
 20
20.5315484091
 30
0.0
 10
53.8430003892
 20
20.3226997192
 30
0.0
 10
53.9051260353
 20
20.2185959462
 30
0.0
  0
SPLINE
  5
330
100
AcDbEntity
  8
DRAFT
100
AcDbSpline
 62
7
  6
CONTINUOUS
 70
0
 71
3
 72
11
 73
7
 74
0
 42
0.0000001
 43
0.0000001
 44
0.0000000001
 40
0.0
 40
0.0
 40
0.0
 40
0.0
 40
0.2179141009
 40
0.4504314528
 40
0.7094156295
 40
1.0
 40
1.0
 40
1.0
 40
1.0
 10
53.2037433027
 20
-71.1924970613
 30
0.0
 10
53.2557773566
 20
-71.1653399453
 30
0.0
 10
53.3538591818
 20
-71.0890449893
 30
0.0
 10
53.4586721361
 20
-70.9258316047
 30
0.0
 10
53.5209352655
 20
-70.7224666421
 30
0.0
 10
53.5330708982
 20
-70.5738899048
 30
0.0
 10
53.5330708982
 20
-70.4956218049
 30
0.0
  0
SPLINE
  5
331
100
AcDbEntity
  8
CURVE
100
AcDbSpline
 62
7
  6
CONTINUOUS
 70
0
 71
3
 72
68
 73
64
 74
0
 42
0.0000001
 43
0.0000001
 44
0.0000000001
 40
0.0
 40
0.0
 40
0.0
 40
0.0
 40
0.0625
 40
0.09375
 40
0.125
 40
0.140625
 40
0.15625
 40
0.1640625
 40
0.16796875
 40
0.171875
 40
0.1796875
 40
0.1875
 40
0.203125
 40
0.21875
 40
0.25
 40
0.28125
 40
0.296875
 40
0.3125
 40
0.3203125
 40
0.328125
 40
0.33203125
 40
0.3359375
 40
0.34375
 40
0.359375
 40
0.375
 40
0.40625
 40
0.4375
 40
0.453125
 40
0.46875
 40
0.484375
 40
0.4921875
 40
0.49609375
 40
0.5
 40
0.50390625
 40
0.5078125
 40
0.515625
 40
0.53125
 40
0.546875
 40
0.5625
 40
0.59375
 40
0.625
 40
0.640625
 40
0.65625
 40
0.6640625
 40
0.66796875
 40
0.671875
 40
0.6796875
 40
0.6875
 40
0.703125
 40
0.71875
 40
0.75
 40
0.78125
 40
0.8125
 40
0.8203125
 40
0.828125
 40
0.83203125
 40
0.8359375
 40
0.84375
 40
0.859375
 40
0.875
 40
0.90625
 40
0.9375
 40
1.0
 40
1.0
 40
1.0
 40
1.0
 10
50.9921227339
 20
22.0309882345
 30
0.0
 10
50.928118691
 20
22.0835840275
 30
0.0
 10
50.8321062027
 20
22.162468572
 30
0.0
 10
50.7041152471
 20
22.2676845443
 30
0.0
 10
50.6240673677
 20
22.3333683195
 30
0.0
 10
50.5601511175
 20
22.3860890927
 30
0.0
 10
50.5199250938
 20
22.4186432972
 30
0.0
 10
50.4923247495
 20
22.4422254173
 30
0.0
 10
50.4756802819
 20
22.4544583518
 30
0.0
 10
50.4557476884
 20
22.4620103692
 30
0.0
 10
50.4319577964
 20
22.4730531317
 30
0.0
 10
50.393264782
 20
22.4898258449
 30
0.0
 10
50.3451140184
 20
22.5110985744
 30
0.0
 10
50.2679519425
 20
22.5449625917
 30
0.0
 10
50.1715437369
 20
22.5873578861
 30
0.0
 10
50.075109042
 20
22.6297075266
 30
0.0
 10
49.9979893488
 20
22.6636445901
 30
0.0
 10
49.9497326285
 20
22.6847347042
 30
0.0
 10
49.9112568255
 20
22.7018817791
 30
0.0
 10
49.8869139715
 20
22.7119715171
 30
0.0
 10
49.86811644
 20
22.7214798027
 30
0.0
 10
49.8468482837
 20
22.7257438543
 30
0.0
 10
49.808481302
 20
22.730769781
 30
0.0
 10
49.7542701329
 20
22.7392207035
 30
0.0
 10
49.6671976894
 20
22.7520321038
 30
0.0
 10
49.5584712134
 20
22.7682878132
 30
0.0
 10
49.44970664
 20
22.7844652812
 30
0.0
 10
49.3626951523
 20
22.7974018676
 30
0.0
 10
49.2974588819
 20
22.8071674164
 30
0.0
 10
49.2430207673
 20
22.8150972554
 30
0.0
 10
49.2050608785
 20
22.821057581
 30
0.0
 10
49.1831402379
 20
22.8238240225
 30
0.0
 10
49.1673456437
 20
22.827700248
 30
0.0
 10
49.1490821421
 20
22.8246906253
 30
0.0
 10
49.1255919887
 20
22.8230796543
 30
0.0
 10
49.084082984
 20
22.8191414019
 30
0.0
 10
49.0249941417
 20
22.8141002383
 30
0.0
 10
48.9539979104
 20
22.8078011037
 30
0.0
 10
48.8593668083
 20
22.7994863841
 30
0.0
 10
48.7410729347
 20
22.789086382
 30
0.0
 10
48.6227608704
 20
22.7786076321
 30
0.0
 10
48.5281588735
 20
22.770418909
 30
0.0
 10
48.4689225844
 20
22.7648546388
 30
0.0
 10
48.4276778438
 20
22.76185442
 30
0.0
 10
48.4037641556
 20
22.7587400128
 30
0.0
 10
48.3785497987
 20
22.7503516043
 30
0.0
 10
48.3474771979
 20
22.7416718908
 30
0.0
 10
48.2975121643
 20
22.7267752501
 30
0.0
 10
48.2351410342
 20
22.7084995041
 30
0.0
 10
48.1352999336
 20
22.6790681577
 30
0.0
 10
48.0105126038
 20
22.6423249007
 30
0.0
 10
47.8607713265
 20
22.5982977768
 30
0.0
 10
47.7484379578
 20
22.5650279692
 30
0.0
 10
47.6735936303
 20
22.5432436268
 30
0.0
 10
47.6423417997
 20
22.5335768976
 30
0.0
 10
47.6174959427
 20
22.5272197689
 30
0.0
 10
47.592081011
 20
22.5158295576
 30
0.0
 10
47.5473404745
 20
22.4935581979
 30
0.0
 10
47.4835633763
 20
22.4629620782
 30
0.0
 10
47.3814429226
 20
22.4133264192
 30
0.0
 10
47.2538187647
 20
22.3515154179
 30
0.0
 10
47.0496052858
 20
22.2524866874
 30
0.0
 10
46.8964485125
 20
22.1782446434
 30
0.0
 10
46.7943432557
 20
22.1287433909
 30
0.0
  0
SPLINE
  5
332
100
AcDbEntity
  8
RACCORDO
100
AcDbSpline
 62
7
  6
CONTINUOUS
 70
0
 71
3
 72
12
 73
8
 74
0
 42
0.0000001
 43
0.0000001
 44
0.0000000001
 40
0.0
 40
0.0
 40
0.0
 40
0.0
 40
0.2621074856
 40
0.5403401601
 40
0.7932589211
 40
0.903556198
 40
1.0
 40
1.0
 40
1.0
 40
1.0
 10
51.9548285488
 20
21.4745020507
 30
0.0
 10
52.1178346153
 20
21.3803843909
 30
0.0
 10
52.4507204911
 20
21.1807671032
 30
0.0
 10
52.925919878
 20
20.8662753918
 30
0.0
 10
53.2873147568
 20
20.5782685454
 30
0.0
 10
53.5184821058
 20
20.3421001081
 30
0.0
 10
53.6104221882
 20
20.2248240921
 30
0.0
 10
53.6483594485
 20
20.1668797468
 30
0.0
  0
SPLINE
  5
333
100
AcDbEntity
  8
SMUSSO
100
AcDbSpline
 62
7
  6
CONTINUOUS
 70
0
 71
3
 72
9
 73
5
 74
0
 42
0.0000001
 43
0.0000001
 44
0.0000000001
 40
0.0
 40
0.0
 40
0.0
 40
0.0
 40
0.2617458189
 40
1.0
 40
1.0
 40
1.0
 40
1.0
 10
33.5714464653
 20
-68.9896432918
 30
0.0
 10
33.5781661096
 20
-68.9935231302
 30
0.0
 10
33.6041974147
 20
-69.0077005842
 30
0.0
 10
33.6317311106
 20
-69.01923658
 30
0.0
 10
33.6526644515
 20
-69.0256204227
 30
0.0
  0
SPLINE
  5
334
100
AcDbEntity
  8
0
100
AcDbSpline
 62
7
  6
CONTINUOUS
 70
0
 71
3
 72
11
 73
7
 74
0
 42
0.0000001
 43
0.0000001
 44
0.0000000001
 40
0.0
 40
0.0
 40
0.0
 40
0.0
 40
0.2846573013
 40
0.5493499294
 40
0.7864108873
 40
1.0
 40
1.0
 40
1.0
 40
1.0
 10
29.8315101223
 20
-69.1258713349
 30
0.0
 10
29.8315101223
 20
-69.1540402003
 30
0.0
 10
29.8282933239
 20
-69.2084901735
 30
0.0
 10
29.8135574164
 20
-69.2850863604
 30
0.0
 10
29.7862007957
 20
-69.3515832839
 30
0.0
 10
29.7526209002
 20
-69.3836126753
 30
0.0
 10
29.7343220999
 20
-69.3941905424
 30
0.0
  0
SPLINE
  5
335
100
AcDbEntity
  8
0
100
AcDbSpline
 62
7
  6
CONTINUOUS
 70
0
 71
3
 72
14
 73
10
 74
0
 42
0.0000001
 43
0.0000001
 44
0.0000000001
 40
0.0
 40
0.0
 40
0.0
 40
0.0
 40
0.1145951816
 40
0.2341220733
 40
0.3594041694
 40
0.4917275379
 40
0.6281778982
 40
0.7610179878
 40
1.0
 40
1.0
 40
1.0
 40
1.0
 10
29.4049567637
 20
-68.4623131891
 30
0.0
 10
29.4323595893
 20
-68.4781351036
 30
0.0
 10
29.4860078647
 20
-68.5144014888
 30
0.0
 10
29.5653864014
 20
-68.5740293724
 30
0.0
 10
29.6427069808
 20
-68.644095003
 30
0.0
 10
29.7131988682
 20
-68.7276433762
 30
0.0
 10
29.7682069566
 20
-68.8246240176
 30
0.0
 10
29.8180241004
 20
-68.9563032497
 30
0.0
 10
29.8315101223
 20
-69.0598826231
 30
0.0
 10
29.8315101223
 20
-69.1258713349
 30
0.0
  0
SPLINE
  5
336
100
AcDbEntity
  8
0
100
AcDbSpline
 62
7
  6
CONTINUOUS
 70
0
 71
3
 72
13
 73
9
 74
0
 42
0.0000001
 43
0.0000001
 44
0.0000000001
 40
0.0
 40
0.0
 40
0.0
 40
0.0
 40
0.2885299288
 40
0.5477019844
 40
0.6691360016
 40
0.78455972
 40
0.8939465872
 40
1.0
 40
1.0
 40
1.0
 40
1.0
 10
29.4920544225
 20
-69.6645571673
 30
0.0
 10
29.5323270667
 20
-69.6878102516
 30
0.0
 10
29.6103318764
 20
-69.7302577929
 30
0.0
 10
29.7155038626
 20
-69.7582455649
 30
0.0
 10
29.7949902907
 20
-69.7675642647
 30
0.0
 10
29.8509991871
 20
-69.7673007468
 30
0.0
 10
29.9038250445
 20
-69.7575713449
 30
0.0
 10
29.9358951773
 20
-69.7433431545
 30
0.0
 10
29.9506996121
 20
-69.7347989707
 30
0.0
  0
SPLINE
  5
337
100
AcDbEntity
  8
RACCORDO
100
AcDbSpline
 62
7
  6
CONTINUOUS
 70
0
 71
3
 72
12
 73
8
 74
0
 42
0.0000001
 43
0.0000001
 44
0.0000000001
 40
0.0
 40
0.0
 40
0.0
 40
0.0
 40
0.0380819715
 40
0.0946460098
 40
0.2825083319
 40
0.5840667386
 40
1.0
 40
1.0
 40
1.0
 40
1.0
 10
-43.2462586313
 20
76.3837998638
 30
0.0
 10
-43.240626173
 20
76.3874017883
 30
0.0
 10
-43.2232521416
 20
76.3902516393
 30
0.0
 10
-43.1745076074
 20
76.3807378767
 30
0.0
 10
-43.0860400863
 20
76.3417012789
 30
0.0
 10
-42.9456389167
 20
76.2679512842
 30
0.0
 10
-42.8360462839
 20
76.2055651705
 30
0.0
 10
-42.7728088736
 20
76.1690526823
 30
0.0
  0
SPLINE
  5
338
100
AcDbEntity
  8
0
100
AcDbSpline
 62
7
  6
CONTINUOUS
 70
0
 71
3
 72
12
 73
8
 74
0
 42
0.0000001
 43
0.0000001
 44
0.0000000001
 40
0.0
 40
0.0
 40
0.0
 40
0.0
 40
0.1428003025
 40
0.2712694286
 40
0.3965648587
 40
0.5208151596
 40
1.0
 40
1.0
 40
1.0
 40
1.0
 10
-4.0656581314
 20
32.3499399095
 30
0.0
 10
-4.0573586543
 20
32.3463844247
 30
0.0
 10
-4.0404447134
 20
32.3418568647
 30
0.0
 10
-4.0151030624
 20
32.3433516424
 30
0.0
 10
-3.9920557459
 20
32.3500004791
 30
0.0
 10
-3.9489730647
 20
32.3662605169
 30
0.0
 10
-3.9137011513
 20
32.3813879107
 30
0.0
 10
-3.8874628451
 20
32.3965377618
 30
0.0
  0
SPLINE
  5
339
100
AcDbEntity
  8
0
100
AcDbSpline
 62
7
  6
CONTINUOUS
 70
0
 71
3
 72
9
 73
5
 74
0
 42
0.0000001
 43
0.0000001
 44
0.0000000001
 40
0.0
 40
0.0
 40
0.0
 40
0.0
 40
0.5015506077
 40
1.0
 40
1.0
 40
1.0
 40
1.0
 10
-4.3495415657
 20
31.960457433
 30
0.0
 10
-4.2979489793
 20
31.7720998097
 30
0.0
 10
-4.2178486684
 20
31.3907143556
 30
0.0
 10
-4.132689345
 20
31.0108569187
 30
0.0
 10
-4.0914040218
 20
30.8212106532
 30
0.0
  0
SPLINE
  5
33A
100
AcDbEntity
  8
0
100
AcDbSpline
 62
7
  6
CONTINUOUS
 70
0
 71
3
 72
10
 73
6
 74
0
 42
0.0000001
 43
0.0000001
 44
0.0000000001
 40
0.0
 40
0.0
 40
0.0
 40
0.0
 40
0.2278023571
 40
0.6123988689
 40
1.0
 40
1.0
 40
1.0
 40
1.0
 10
-4.6788938543
 20
32.4383495462
 30
0.0
 10
-4.6399059295
 20
32.415838407
 30
0.0
 10
-4.5428811947
 20
32.3410745882
 30
0.0
 10
-4.4269871391
 20
32.1771949011
 30
0.0
 10
-4.3697609186
 20
32.0343415338
 30
0.0
 10
-4.3495415657
 20
31.960457433
 30
0.0
  0
SPLINE
  5
33B
100
AcDbEntity
  8
0
100
AcDbSpline
 62
7
  6
CONTINUOUS
 70
0
 71
3
 72
11
 73
7
 74
0
 42
0.0000001
 43
0.0000001
 44
0.0000000001
 40
0.0
 40
0.0
 40
0.0
 40
0.0
 40
0.2886922876
 40
0.553124213
 40
0.7872855475
 40
1.0
 40
1.0
 40
1.0
 40
1.0
 10
-4.2190518921
 20
33.2151044015
 30
0.0
 10
-4.2186211382
 20
33.182621997
 30
0.0
 10
-4.2206189876
 20
33.1202801097
 30
0.0
 10
-4.2364035043
 20
33.0325414422
 30
0.0
 10
-4.2708513366
 20
32.9588308533
 30
0.0
 10
-4.3089250067
 20
32.9233901193
 30
0.0
 10
-4.3296516498
 20
32.9114180947
 30
0.0
  0
SPLINE
  5
33C
100
AcDbEntity
  8
0
100
AcDbSpline
 62
7
  6
CONTINUOUS
 70
0
 71
3
 72
11
 73
7
 74
0
 42
0.0000001
 43
0.0000001
 44
0.0000000001
 40
0.0
 40
0.0
 40
0.0
 40
0.0
 40
0.2413629477
 40
0.5033335929
 40
0.764823587
 40
1.0
 40
1.0
 40
1.0
 40
1.0
 10
-4.5525184333
 20
33.8158505764
 30
0.0
 10
-4.5060666955
 20
33.7828027839
 30
0.0
 10
-4.417843617
 20
33.7015305095
 30
0.0
 10
-4.311084056
 20
33.5540706796
 30
0.0
 10
-4.2413617363
 20
33.3875938378
 30
0.0
 10
-4.2197983956
 20
33.2706462474
 30
0.0
 10
-4.2190518921
 20
33.2151044015
 30
0.0
  0
SPLINE
  5
33D
100
AcDbEntity
  8
0
100
AcDbSpline
 62
7
  6
CONTINUOUS
 70
0
 71
3
 72
10
 73
6
 74
0
 42
0.0000001
 43
0.0000001
 44
0.0000000001
 40
0.0
 40
0.0
 40
0.0
 40
0.0
 40
0.2356074691
 40
0.4806650841
 40
1.0
 40
1.0
 40
1.0
 40
1.0
 10
-5.0149901241
 20
34.06365324
 30
0.0
 10
-4.9763789309
 20
34.0489670042
 30
0.0
 10
-4.8981216714
 20
34.0175212982
 30
0.0
 10
-4.7406198217
 20
33.94018546
 30
0.0
 10
-4.6267151831
 20
33.8686350551
 30
0.0
 10
-4.5525184333
 20
33.8158505764
 30
0.0
  0
SPLINE
  5
33E
100
AcDbEntity
  8
RACCORDO
100
AcDbSpline
 62
7
  6
CONTINUOUS
 70
0
 71
3
 72
10
 73
6
 74
0
 42
0.0000001
 43
0.0000001
 44
0.0000000001
 40
0.0
 40
0.0
 40
0.0
 40
0.0
 40
0.4356064005
 40
0.7417261849
 40
1.0
 40
1.0
 40
1.0
 40
1.0
 10
-50.8863973623
 20
48.862616228
 30
0.0
 10
-50.9062763941
 20
48.8740941318
 30
0.0
 10
-50.9419752936
 20
48.891374118
 30
0.0
 10
-50.9924285536
 20
48.9042922795
 30
0.0
 10
-51.0246182055
 20
48.9041003748
 30
0.0
 10
-51.0364046103
 20
48.8972950524
 30
0.0
  0
SPLINE
  5
33F
100
AcDbEntity
  8
RACCORDO
100
AcDbSpline
 62
7
  6
CONTINUOUS
 70
0
 71
3
 72
11
 73
7
 74
0
 42
0.0000001
 43
0.0000001
 44
0.0000000001
 40
0.0
 40
0.0
 40
0.0
 40
0.0
 40
0.2293591421
 40
0.4999844377
 40
0.7706187711
 40
1.0
 40
1.0
 40
1.0
 40
1.0
 10
33.6542891778
 20
-0.4061794962
 30
0.0
 10
33.6542891778
 20
-0.343695801
 30
0.0
 10
33.6286051006
 20
-0.20764715
 30
0.0
 10
33.5429299763
 20
-0.0144043102
 30
0.0
 10
33.4184113519
 20
0.156419336
 30
0.0
 10
33.3134264055
 20
0.2466932561
 30
0.0
 10
33.2593095989
 20
0.277939622
 30
0.0
  0
SPLINE
  5
340
100
AcDbEntity
  8
RACCORDO
100
AcDbSpline
 62
7
  6
CONTINUOUS
 70
0
 71
3
 72
10
 73
6
 74
0
 42
0.0000001
 43
0.0000001
 44
0.0000000001
 40
0.0
 40
0.0
 40
0.0
 40
0.0
 40
0.2582862489
 40
0.5643991479
 40
1.0
 40
1.0
 40
1.0
 40
1.0
 10
33.609326511
 20
-69.1368962587
 30
0.0
 10
33.6211106362
 20
-69.1300922525
 30
0.0
 10
33.6373682801
 20
-69.1023183703
 30
0.0
 10
33.651403839
 20
-69.0521772316
 30
0.0
 10
33.6542891778
 20
-69.0126316084
 30
0.0
 10
33.6542891778
 20
-68.9896827468
 30
0.0
  0
SPLINE
  5
341
100
AcDbEntity
  8
SMUSSO
100
AcDbSpline
 62
7
  6
CONTINUOUS
 70
0
 71
3
 72
9
 73
5
 74
0
 42
0.0000001
 43
0.0000001
 44
0.0000000001
 40
0.0
 40
0.0
 40
0.0
 40
0.0
 40
0.2418986644
 40
1.0
 40
1.0
 40
1.0
 40
1.0
 10
-50.9183672809
 20
48.8791939431
 30
0.0
 10
-50.9194404549
 20
48.8745591206
 30
0.0
 10
-50.9234502328
 20
48.8553010813
 30
0.0
 10
-50.9258165364
 20
48.835713731
 30
0.0
 10
-50.9268216835
 20
48.8208379973
 30
0.0
  0
SPLINE
  5
342
100
AcDbEntity
  8
0
100
AcDbSpline
 62
7
  6
CONTINUOUS
 70
0
 71
3
 72
9
 73
5
 74
0
 42
0.0000001
 43
0.0000001
 44
0.0000000001
 40
0.0
 40
0.0
 40
0.0
 40
0.0
 40
0.4997796482
 40
1.0
 40
1.0
 40
1.0
 40
1.0
 10
-3.4528628526
 20
30.5341799036
 30
0.0
 10
-3.4873388699
 20
30.7006566468
 30
0.0
 10
-3.5529054422
 20
31.0344524533
 30
0.0
 10
-3.6200760337
 20
31.3679256899
 30
0.0
 10
-3.6546733084
 20
31.53453039
 30
0.0
  0
SPLINE
  5
343
100
AcDbEntity
  8
0
100
AcDbSpline
 62
7
  6
CONTINUOUS
 70
0
 71
3
 72
11
 73
7
 74
0
 42
0.0000001
 43
0.0000001
 44
0.0000000001
 40
0.0
 40
0.0
 40
0.0
 40
0.0
 40
0.2326905149
 40
0.4846142669
 40
0.7463365108
 40
1.0
 40
1.0
 40
1.0
 40
1.0
 10
-3.6546733084
 20
31.53453039
 30
0.0
 10
-3.667950538
 20
31.5984704882
 30
0.0
 10
-3.6946090326
 20
31.7318648633
 30
0.0
 10
-3.7505530597
 20
31.9340327606
 30
0.0
 10
-3.8292157082
 20
32.134936925
 30
0.0
 10
-3.9034060179
 20
32.2606218993
 30
0.0
 10
-3.9473614844
 20
32.3166214075
 30
0.0
  0
SPLINE
  5
344
100
AcDbEntity
  8
0
100
AcDbSpline
 62
7
  6
CONTINUOUS
 70
0
 71
3
 72
11
 73
7
 74
0
 42
0.0000001
 43
0.0000001
 44
0.0000000001
 40
0.0
 40
0.0
 40
0.0
 40
0.0
 40
0.2723923626
 40
0.5264900217
 40
0.7675845781
 40
1.0
 40
1.0
 40
1.0
 40
1.0
 10
-4.0558129438
 20
34.0752665018
 30
0.0
 10
-4.1658737618
 20
34.1847264896
 30
0.0
 10
-4.400506845
 20
34.3743637669
 30
0.0
 10
-4.7717840695
 20
34.6065676385
 30
0.0
 10
-5.141791528
 20
34.7947215893
 30
0.0
 10
-5.3900106327
 20
34.900830741
 30
0.0
 10
-5.5126613317
 20
34.9508129649
 30
0.0
  0
SPLINE
  5
345
100
AcDbEntity
  8
RACCORDO
100
AcDbSpline
 62
250
  6
CONTINUOUS
 70
0
 71
3
 72
11
 73
7
 74
0
 42
0.0000001
 43
0.0000001
 44
0.0000000001
 40
0.0
 40
0.0
 40
0.0
 40
0.0
 40
0.2167490822
 40
0.4492964608
 40
0.7088721476
 40
1.0
 40
1.0
 40
1.0
 40
1.0
 10
-55.9212768736
 20
68.2782660971
 30
0.0
 10
-55.8749321034
 20
68.3078673669
 30
0.0
 10
-55.7668518705
 20
68.3519572826
 30
0.0
 10
-55.5846332027
 20
68.3615446733
 30
0.0
 10
-55.3887230195
 20
68.3186257891
 30
0.0
 10
-55.2606852152
 20
68.2603620054
 30
0.0
 10
-55.1961186554
 20
68.2244901018
 30
0.0
  0
SPLINE
  5
346
100
AcDbEntity
  8
RACCORDO
100
AcDbSpline
 62
250
  6
CONTINUOUS
 70
0
 71
3
 72
15
 73
11
 74
0
 42
0.0000001
 43
0.0000001
 44
0.0000000001
 40
0.0
 40
0.0
 40
0.0
 40
0.0
 40
0.1448950818
 40
0.2745173586
 40
0.3911042685
 40
0.4999888256
 40
0.6088753743
 40
0.7254676402
 40
0.8550972113
 40
1.0
 40
1.0
 40
1.0
 40
1.0
 10
-51.4227886333
 20
48.6684266218
 30
0.0
 10
-51.4227886333
 20
48.7039041558
 30
0.0
 10
-51.4174262397
 20
48.771354611
 30
0.0
 10
-51.3900992198
 20
48.8640055411
 30
0.0
 10
-51.3440735277
 20
48.9392395634
 30
0.0
 10
-51.2801893898
 20
48.9929681302
 30
0.0
 10
-51.2017126438
 20
49.0214205966
 30
0.0
 10
-51.113541653
 20
49.023655313
 30
0.0
 10
-51.0196367117
 20
49.0009891154
 30
0.0
 10
-50.9585394714
 20
48.9719041679
 30
0.0
 10
-50.9278138865
 20
48.9541636002
 30
0.0
  0
SPLINE
  5
347
100
AcDbEntity
  8
RACCORDO
100
AcDbSpline
 62
250
  6
CONTINUOUS
 70
0
 71
3
 72
11
 73
7
 74
0
 42
0.0000001
 43
0.0000001
 44
0.0000000001
 40
0.0
 40
0.0
 40
0.0
 40
0.0
 40
0.217776562
 40
0.450959212
 40
0.7102041712
 40
1.0
 40
1.0
 40
1.0
 40
1.0
 10
-56.4603543281
 20
67.2557646837
 30
0.0
 10
-56.4603563708
 20
67.2176748335
 30
0.0
 10
-56.4462960007
 20
67.1382674656
 30
0.0
 10
-56.3860895699
 20
67.0276752444
 30
0.0
 10
-56.290978434
 20
66.9276459689
 30
0.0
 10
-56.2113562101
 20
66.8728344334
 30
0.0
 10
-56.1674613282
 20
66.8474900766
 30
0.0
  0
SPLINE
  5
348
100
AcDbEntity
  8
RACCORDO
100
AcDbSpline
 62
250
  6
CONTINUOUS
 70
0
 71
3
 72
11
 73
7
 74
0
 42
0.0000001
 43
0.0000001
 44
0.0000000001
 40
0.0
 40
0.0
 40
0.0
 40
0.0
 40
0.2177583859
 40
0.4514363819
 40
0.7108333029
 40
1.0
 40
1.0
 40
1.0
 40
1.0
 10
-56.4601842986
 20
-22.5831396941
 30
0.0
 10
-56.4589911982
 20
-22.6204425711
 30
0.0
 10
-56.4430553992
 20
-22.6978210191
 30
0.0
 10
-56.3822916078
 20
-22.8051991115
 30
0.0
 10
-56.2884023749
 20
-22.902465127
 30
0.0
 10
-56.2103814924
 20
-22.9559801539
 30
0.0
 10
-56.1674613282
 20
-22.9807617188
 30
0.0
  0
SPLINE
  5
349
100
AcDbEntity
  8
RACCORDO
100
AcDbSpline
 62
250
  6
CONTINUOUS
 70
0
 71
3
 72
11
 73
7
 74
0
 42
0.0000001
 43
0.0000001
 44
0.0000000001
 40
0.0
 40
0.0
 40
0.0
 40
0.0
 40
0.2372209733
 40
0.5000060101
 40
0.7627877321
 40
1.0
 40
1.0
 40
1.0
 40
1.0
 10
-50.9278138865
 20
-20.7723980379
 30
0.0
 10
-50.998079434
 20
-20.7318275914
 30
0.0
 10
-51.1310625418
 20
-20.6199066327
 30
0.0
 10
-51.2862765766
 20
-20.4078027731
 30
0.0
 10
-51.3923561002
 20
-20.1673344695
 30
0.0
 10
-51.4227886333
 20
-19.9962106237
 30
0.0
 10
-51.4227886333
 20
-19.9150766288
 30
0.0
  0
SPLINE
  5
34A
100
AcDbEntity
  8
RACCORDO
100
AcDbSpline
 62
250
  6
CONTINUOUS
 70
0
 71
3
 72
9
 73
5
 74
0
 42
0.0000001
 43
0.0000001
 44
0.0000000001
 40
0.0
 40
0.0
 40
0.0
 40
0.0
 40
0.2597732193
 40
1.0
 40
1.0
 40
1.0
 40
1.0
 10
33.7128678216
 20
-69.0713376654
 30
0.0
 10
33.7128678216
 20
-69.0805113354
 30
0.0
 10
33.7121263846
 20
-69.1158166893
 30
0.0
 10
33.7083438744
 20
-69.1510958854
 30
0.0
 10
33.7034655005
 20
-69.176777125
 30
0.0
  0
SPLINE
  5
34B
100
AcDbEntity
  8
RACCORDO
100
AcDbSpline
 62
250
  6
CONTINUOUS
 70
0
 71
3
 72
12
 73
8
 74
0
 42
0.0000001
 43
0.0000001
 44
0.0000000001
 40
0.0
 40
0.0
 40
0.0
 40
0.0
 40
0.254693677
 40
0.3683222586
 40
0.4791758707
 40
0.7151817369
 40
1.0
 40
1.0
 40
1.0
 40
1.0
 10
33.7034655005
 20
-69.176777125
 30
0.0
 10
33.6935447216
 20
-69.2290031137
 30
0.0
 10
33.6658632174
 20
-69.3046093055
 30
0.0
 10
33.5955672196
 20
-69.3775163458
 30
0.0
 10
33.510060838
 20
-69.4247138837
 30
0.0
 10
33.3716497531
 20
-69.4302584272
 30
0.0
 10
33.269375325
 20
-69.38679985
 30
0.0
 10
33.2178930747
 20
-69.3570746439
 30
0.0
  0
SPLINE
  5
34C
100
AcDbEntity
  8
RACCORDO
100
AcDbSpline
 62
250
  6
CONTINUOUS
 70
0
 71
3
 72
9
 73
5
 74
0
 42
0.0000001
 43
0.0000001
 44
0.0000000001
 40
0.0
 40
0.0
 40
0.0
 40
0.0
 40
0.2393076066
 40
1.0
 40
1.0
 40
1.0
 40
1.0
 10
33.2178930747
 20
0.3694869942
 30
0.0
 10
33.2288059671
 20
0.3631860269
 30
0.0
 10
33.2736461688
 20
0.3355437822
 30
0.0
 10
33.3154497788
 20
0.3030943545
 30
0.0
 10
33.3454406217
 20
0.2765417359
 30
0.0
  0
SPLINE
  5
34D
100
AcDbEntity
  8
RACCORDO
100
AcDbSpline
 62
250
  6
CONTINUOUS
 70
0
 71
3
 72
9
 73
5
 74
0
 42
0.0000001
 43
0.0000001
 44
0.0000000001
 40
0.0
 40
0.0
 40
0.0
 40
0.0
 40
0.5000013555
 40
1.0
 40
1.0
 40
1.0
 40
1.0
 10
33.3454406217
 20
0.2765417359
 30
0.0
 10
33.4340100897
 20
0.1981260906
 30
0.0
 10
33.5825002603
 20
0.0084652236
 30
0.0
 10
33.6725149444
 20
-0.214958154
 30
0.0
 10
33.6961439373
 20
-0.3308679597
 30
0.0
  0
SPLINE
  5
34E
100
AcDbEntity
  8
RACCORDO
100
AcDbSpline
 62
250
  6
CONTINUOUS
 70
0
 71
3
 72
9
 73
5
 74
0
 42
0.0000001
 43
0.0000001
 44
0.0000000001
 40
0.0
 40
0.0
 40
0.0
 40
0.0
 40
0.2604206504
 40
1.0
 40
1.0
 40
1.0
 40
1.0
 10
33.6961439373
 20
-0.3308679597
 30
0.0
 10
33.6988835717
 20
-0.3443069791
 30
0.0
 10
33.7082455542
 20
-0.3961322442
 30
0.0
 10
33.7128678216
 20
-0.4488834181
 30
0.0
 10
33.7128678216
 20
-0.4878344148
 30
0.0
  0
SPLINE
  5
34F
100
AcDbEntity
  8
RACCORDO
100
AcDbSpline
 62
250
  6
CONTINUOUS
 70
0
 71
3
 72
11
 73
7
 74
0
 42
0.0000001
 43
0.0000001
 44
0.0000000001
 40
0.0
 40
0.0
 40
0.0
 40
0.0
 40
0.2177529121
 40
0.4513997186
 40
0.7107899522
 40
1.0
 40
1.0
 40
1.0
 40
1.0
 10
-55.6862418602
 20
-23.9230837222
 30
0.0
 10
-55.7180197457
 20
-23.9034371288
 30
0.0
 10
-55.777209378
 20
-23.8509851747
 30
0.0
 10
-55.8399828785
 20
-23.7446177668
 30
0.0
 10
-55.8773659852
 20
-23.6145461304
 30
0.0
 10
-55.8847155408
 20
-23.5201126782
 30
0.0
 10
-55.8847155389
 20
-23.470491791
 30
0.0
  0
SPLINE
  5
350
100
AcDbEntity
  8
RACCORDO
100
AcDbSpline
 62
250
  6
CONTINUOUS
 70
0
 71
3
 72
11
 73
7
 74
0
 42
0.0000001
 43
0.0000001
 44
0.0000000001
 40
0.0
 40
0.0
 40
0.0
 40
0.0
 40
0.2177720433
 40
0.450952345
 40
0.7101985777
 40
1.0
 40
1.0
 40
1.0
 40
1.0
 10
38.3818774569
 20
-78.2370108489
 30
0.0
 10
38.3488953505
 20
-78.2179697459
 30
0.0
 10
38.2871677755
 20
-78.166095024
 30
0.0
 10
38.2215093669
 20
-78.0586711685
 30
0.0
 10
38.1824476133
 20
-77.9263035011
 30
0.0
 10
38.1747947271
 20
-77.8299545405
 30
0.0
 10
38.1747947271
 20
-77.7792741761
 30
0.0
  0
SPLINE
  5
351
100
AcDbEntity
  8
RACCORDO
100
AcDbSpline
 62
250
  6
CONTINUOUS
 70
0
 71
3
 72
13
 73
9
 74
0
 42
0.0000001
 43
0.0000001
 44
0.0000000001
 40
0.0
 40
0.0
 40
0.0
 40
0.0
 40
0.2738316528
 40
0.3907754622
 40
0.4999869964
 40
0.6092003161
 40
0.726149693
 40
1.0
 40
1.0
 40
1.0
 40
1.0
 10
38.4575405165
 20
-77.6160518541
 30
0.0
 10
38.4575393943
 20
-77.6542377622
 30
0.0
 10
38.4494400611
 20
-77.7104689671
 30
0.0
 10
38.4125952932
 20
-77.7707587326
 30
0.0
 10
38.3760959616
 20
-77.8014612612
 30
0.0
 10
38.3312547893
 20
-77.8177150101
 30
0.0
 10
38.2606162966
 20
-77.8194730891
 30
0.0
 10
38.2078669862
 20
-77.7983683619
 30
0.0
 10
38.1747947271
 20
-77.7792741761
 30
0.0
  0
SPLINE
  5
352
100
AcDbEntity
  8
RACCORDO
100
AcDbSpline
 62
250
  6
CONTINUOUS
 70
0
 71
3
 72
11
 73
7
 74
0
 42
0.0000001
 43
0.0000001
 44
0.0000000001
 40
0.0
 40
0.0
 40
0.0
 40
0.0
 40
0.2372187289
 40
0.5000039668
 40
0.7627865512
 40
1.0
 40
1.0
 40
1.0
 40
1.0
 10
-55.8847155389
 20
-23.470491791
 30
0.0
 10
-55.9248529143
 20
-23.4473154005
 30
0.0
 10
-56.0008238724
 20
-23.3833909732
 30
0.0
 10
-56.0894935958
 20
-23.2622314606
 30
0.0
 10
-56.150086262
 20
-23.1248627341
 30
0.0
 10
-56.1674599384
 20
-23.0271088692
 30
0.0
 10
-56.1674613282
 20
-22.9807617188
 30
0.0
  0
SPLINE
  5
353
100
AcDbEntity
  8
RACCORDO
100
AcDbSpline
 62
250
  6
CONTINUOUS
 70
0
 71
3
 72
13
 73
9
 74
0
 42
0.0000001
 43
0.0000001
 44
0.0000000001
 40
0.0
 40
0.0
 40
0.0
 40
0.0
 40
0.2738316528
 40
0.3907754622
 40
0.4999869964
 40
0.6092003161
 40
0.726149693
 40
1.0
 40
1.0
 40
1.0
 40
1.0
 10
-56.1674613282
 20
66.8474900766
 30
0.0
 10
-56.167460206
 20
66.8856759847
 30
0.0
 10
-56.1593608728
 20
66.9419071896
 30
0.0
 10
-56.122516105
 20
67.0021969551
 30
0.0
 10
-56.0860167733
 20
67.0328994837
 30
0.0
 10
-56.0411756011
 20
67.0491532327
 30
0.0
 10
-55.9705371083
 20
67.0509113116
 30
0.0
 10
-55.9177877979
 20
67.0298065844
 30
0.0
 10
-55.8847155389
 20
67.0107123986
 30
0.0
  0
SPLINE
  5
354
100
AcDbEntity
  8
RACCORDO
100
AcDbSpline
 62
250
  6
CONTINUOUS
 70
0
 71
3
 72
11
 73
7
 74
0
 42
0.0000001
 43
0.0000001
 44
0.0000000001
 40
0.0
 40
0.0
 40
0.0
 40
0.0
 40
0.2372187289
 40
0.5000039668
 40
0.7627865512
 40
1.0
 40
1.0
 40
1.0
 40
1.0
 10
38.1747947271
 20
12.7019300136
 30
0.0
 10
38.2149321026
 20
12.678753623
 30
0.0
 10
38.2909030607
 20
12.6148291958
 30
0.0
 10
38.3795727841
 20
12.4936696831
 30
0.0
 10
38.4401654503
 20
12.3563009566
 30
0.0
 10
38.4575391267
 20
12.2585470918
 30
0.0
 10
38.4575405165
 20
12.2121999413
 30
0.0
  0
SPLINE
  5
355
100
AcDbEntity
  8
0
100
AcDbSpline
 62
7
  6
CONTINUOUS
 70
0
 71
3
 72
11
 73
7
 74
0
 42
0.0000001
 43
0.0000001
 44
0.0000000001
 40
0.0
 40
0.0
 40
0.0
 40
0.0
 40
0.2723923626
 40
0.5264900217
 40
0.7675845781
 40
1.0
 40
1.0
 40
1.0
 40
1.0
 10
-4.126523622
 20
34.0344390425
 30
0.0
 10
-4.2365844399
 20
34.1438990302
 30
0.0
 10
-4.4712175231
 20
34.3335363076
 30
0.0
 10
-4.8424947476
 20
34.5657401791
 30
0.0
 10
-5.2125022061
 20
34.7538941299
 30
0.0
 10
-5.4607213108
 20
34.8600032817
 30
0.0
 10
-5.5833720098
 20
34.9099855055
 30
0.0
  0
SPLINE
  5
356
100
AcDbEntity
  8
0
100
AcDbSpline
 62
7
  6
CONTINUOUS
 70
0
 71
3
 72
11
 73
7
 74
0
 42
0.0000001
 43
0.0000001
 44
0.0000000001
 40
0.0
 40
0.0
 40
0.0
 40
0.0
 40
0.2339894271
 40
0.4889078396
 40
0.750659109
 40
1.0
 40
1.0
 40
1.0
 40
1.0
 10
-3.7253839865
 20
31.4937029307
 30
0.0
 10
-3.7398809764
 20
31.5635171151
 30
0.0
 10
-3.7691506503
 20
31.7096375191
 30
0.0
 10
-3.8328465509
 20
31.9298095454
 30
0.0
 10
-3.9241185558
 20
32.1452866731
 30
0.0
 10
-4.0129370216
 20
32.2759292852
 30
0.0
 10
-4.0656581314
 20
32.3306437524
 30
0.0
  0
SPLINE
  5
357
100
AcDbEntity
  8
0
100
AcDbSpline
 62
7
  6
CONTINUOUS
 70
0
 71
3
 72
9
 73
5
 74
0
 42
0.0000001
 43
0.0000001
 44
0.0000000001
 40
0.0
 40
0.0
 40
0.0
 40
0.0
 40
0.4997796482
 40
1.0
 40
1.0
 40
1.0
 40
1.0
 10
-3.5235735307
 20
30.4933524442
 30
0.0
 10
-3.558049548
 20
30.6598291874
 30
0.0
 10
-3.6236161203
 20
30.9936249939
 30
0.0
 10
-3.6907867118
 20
31.3270982305
 30
0.0
 10
-3.7253839865
 20
31.4937029307
 30
0.0
  0
SPLINE
  5
358
100
AcDbEntity
  8
RACCORDO
100
AcDbSpline
 62
250
  6
CONTINUOUS
 70
0
 71
3
 72
11
 73
7
 74
0
 42
0.0000001
 43
0.0000001
 44
0.0000000001
 40
0.0
 40
0.0
 40
0.0
 40
0.0
 40
0.289772364
 40
0.5490642426
 40
0.7822230623
 40
1.0
 40
1.0
 40
1.0
 40
1.0
 10
-51.1399459208
 20
48.6684266218
 30
0.0
 10
-51.1399459208
 20
48.693764068
 30
0.0
 10
-51.1361154265
 20
48.7419386011
 30
0.0
 10
-51.1165926161
 20
48.808124742
 30
0.0
 10
-51.0837539137
 20
48.8618332443
 30
0.0
 10
-51.0528942315
 20
48.8877714581
 30
0.0
 10
-51.0364034425
 20
48.8972930297
 30
0.0
  0
SPLINE
  5
359
100
AcDbEntity
  8
0
100
AcDbSpline
 62
7
  6
CONTINUOUS
 70
0
 71
3
 72
15
 73
11
 74
0
 42
0.0000001
 43
0.0000001
 44
0.0000000001
 40
0.0
 40
0.0
 40
0.0
 40
0.0
 40
0.1129595753
 40
0.2338602281
 40
0.3629062801
 40
0.4974827187
 40
0.6324983703
 40
0.7625169924
 40
0.88540797
 40
1.0
 40
1.0
 40
1.0
 40
1.0
 10
29.5627687861
 20
-68.1864630518
 30
0.0
 10
29.6051717514
 20
-68.2109458986
 30
0.0
 10
29.6909005603
 20
-68.2654854036
 30
0.0
 10
29.8116093566
 20
-68.3671601633
 30
0.0
 10
29.9234206774
 20
-68.4914267433
 30
0.0
 10
30.0225040564
 20
-68.6334640841
 30
0.0
 10
30.1040204596
 20
-68.7869201371
 30
0.0
 10
30.1602335662
 20
-68.946040437
 30
0.0
 10
30.1933638545
 20
-69.102185244
 30
0.0
 10
30.2024437138
 20
-69.2051513268
 30
0.0
 10
30.2024437138
 20
-69.2548223993
 30
0.0
  0
SPLINE
  5
35A
100
AcDbEntity
  8
0
100
AcDbSpline
 62
7
  6
CONTINUOUS
 70
0
 71
3
 72
11
 73
7
 74
0
 42
0.0000001
 43
0.0000001
 44
0.0000000001
 40
0.0
 40
0.0
 40
0.0
 40
0.0
 40
0.2868883737
 40
0.5490593419
 40
0.7835447438
 40
1.0
 40
1.0
 40
1.0
 40
1.0
 10
30.2024437138
 20
-69.2548223993
 30
0.0
 10
30.2024437138
 20
-69.3021473233
 30
0.0
 10
30.1942660717
 20
-69.3926369841
 30
0.0
 10
30.1658240717
 20
-69.519676416
 30
0.0
 10
30.1087273566
 20
-69.6244625071
 30
0.0
 10
30.0523437197
 20
-69.6761169863
 30
0.0
 10
30.0214190178
 20
-69.6939664741
 30
0.0
  0
SPLINE
  5
35B
100
AcDbEntity
  8
0
100
AcDbSpline
 62
7
  6
CONTINUOUS
 70
0
 71
3
 72
15
 73
11
 74
0
 42
0.0000001
 43
0.0000001
 44
0.0000000001
 40
0.0
 40
0.0
 40
0.0
 40
0.0
 40
0.114592028
 40
0.2374830029
 40
0.3675016217
 40
0.5025172707
 40
0.6370937092
 40
0.7661397636
 40
0.8870404207
 40
1.0
 40
1.0
 40
1.0
 40
1.0
 10
30.1317330357
 20
-69.2956498586
 30
0.0
 10
30.1317330357
 20
-69.2459787914
 30
0.0
 10
30.1226531784
 20
-69.14301272
 30
0.0
 10
30.0895228964
 20
-68.9868679301
 30
0.0
 10
30.0333098026
 20
-68.8277476459
 30
0.0
 10
29.9517934152
 20
-68.6742916053
 30
0.0
 10
29.8527100534
 20
-68.5322542719
 30
0.0
 10
29.7408987497
 20
-68.4079876932
 30
0.0
 10
29.6201899709
 20
-68.3063129277
 30
0.0
 10
29.5344611712
 20
-68.2517734184
 30
0.0
 10
29.49205821
 20
-68.22729057
 30
0.0
  0
SPLINE
  5
35C
100
AcDbEntity
  8
0
100
AcDbSpline
 62
7
  6
CONTINUOUS
 70
0
 71
3
 72
9
 73
5
 74
0
 42
0.0000001
 43
0.0000001
 44
0.0000000001
 40
0.0
 40
0.0
 40
0.0
 40
0.0
 40
0.242853161
 40
1.0
 40
1.0
 40
1.0
 40
1.0
 10
-4.2959824986
 20
32.9366893275
 30
0.0
 10
-4.3005472097
 20
32.9354121163
 30
0.0
 10
-4.3195638663
 20
32.9309414968
 30
0.0
 10
-4.3392211301
 20
32.9294999853
 30
0.0
 10
-4.3539980329
 20
32.9296842173
 30
0.0
  0
SPLINE
  5
35D
100
AcDbEntity
  8
0
100
AcDbSpline
 62
7
  6
CONTINUOUS
 70
0
 71
3
 72
9
 73
5
 74
0
 42
0.0000001
 43
0.0000001
 44
0.0000000001
 40
0.0
 40
0.0
 40
0.0
 40
0.0
 40
0.4696376628
 40
1.0
 40
1.0
 40
1.0
 40
1.0
 10
-4.3539980329
 20
32.9296842173
 30
0.0
 10
-4.395971946
 20
32.9302075297
 30
0.0
 10
-4.4846342207
 20
32.9518536116
 30
0.0
 10
-4.5654018518
 20
32.9903533234
 30
0.0
 10
-4.6069107269
 20
33.0132495035
 30
0.0
  0
SPLINE
  5
35E
100
AcDbEntity
  8
0
100
AcDbSpline
 62
7
  6
CONTINUOUS
 70
0
 71
3
 72
11
 73
7
 74
0
 42
0.0000001
 43
0.0000001
 44
0.0000000001
 40
0.0
 40
0.0
 40
0.0
 40
0.0
 40
0.2107789869
 40
0.447561262
 40
0.7145475493
 40
1.0
 40
1.0
 40
1.0
 40
1.0
 10
-4.3296516498
 20
32.9114180947
 30
0.0
 10
-4.3519561737
 20
32.8985346623
 30
0.0
 10
-4.4069606098
 20
32.8839153556
 30
0.0
 10
-4.4946779761
 20
32.8946372864
 30
0.0
 10
-4.5864112283
 20
32.9255846802
 30
0.0
 10
-4.6470766521
 20
32.9555736434
 30
0.0
 10
-4.677621405
 20
32.9724220442
 30
0.0
  0
SPLINE
  5
35F
100
AcDbEntity
  8
0
100
AcDbSpline
 62
7
  6
CONTINUOUS
 70
0
 71
3
 72
18
 73
14
 74
0
 42
0.0000001
 43
0.0000001
 44
0.0000000001
 40
0.0
 40
0.0
 40
0.0
 40
0.0
 40
0.0428175773
 40
0.0877323064
 40
0.1854556182
 40
0.2973006791
 40
0.4221308774
 40
0.4890445185
 40
0.5587689315
 40
0.7048366878
 40
0.854127324
 40
0.928174523
 40
1.0
 40
1.0
 40
1.0
 40
1.0
 10
-3.8167498828
 20
32.4373665401
 30
0.0
 10
-3.7941737135
 20
32.4504020928
 30
0.0
 10
-3.7505340436
 20
32.4822639055
 30
0.0
 10
-3.6782498799
 20
32.5701132678
 30
0.0
 10
-3.6152967387
 20
32.7149681705
 30
0.0
 10
-3.5892248341
 20
32.9185111436
 30
0.0
 10
-3.5982354792
 20
33.1039231059
 30
0.0
 10
-3.6244768477
 20
33.2610964511
 30
0.0
 10
-3.6670397087
 20
33.428066445
 30
0.0
 10
-3.7481724275
 20
33.6360465606
 30
0.0
 10
-3.8605490221
 20
33.8318598683
 30
0.0
 10
-3.9663529934
 20
33.9772462563
 30
0.0
 10
-4.0247968068
 20
34.0444384359
 30
0.0
 10
-4.0558129438
 20
34.0752665018
 30
0.0
  0
SPLINE
  5
360
100
AcDbEntity
  8
0
100
AcDbSpline
 62
7
  6
CONTINUOUS
 70
0
 71
3
 72
18
 73
14
 74
0
 42
0.0000001
 43
0.0000001
 44
0.0000000001
 40
0.0
 40
0.0
 40
0.0
 40
0.0
 40
0.0428175747
 40
0.0877322556
 40
0.1854554601
 40
0.2973004325
 40
0.4221305998
 40
0.4890442406
 40
0.5587686639
 40
0.7048364816
 40
0.8541272182
 40
0.928174471
 40
1.0
 40
1.0
 40
1.0
 40
1.0
 10
-3.8874628451
 20
32.3965377618
 30
0.0
 10
-3.8648865587
 20
32.4095731832
 30
0.0
 10
-3.8212465689
 20
32.4414346343
 30
0.0
 10
-3.7489617985
 20
32.5292836123
 30
0.0
 10
-3.6860079904
 20
32.6741383436
 30
0.0
 10
-3.6599355489
 20
32.8776814272
 30
0.0
 10
-3.6689459453
 20
33.0630935991
 30
0.0
 10
-3.6951871386
 20
33.2202671917
 30
0.0
 10
-3.7377498831
 20
33.387237516
 30
0.0
 10
-3.818882594
 20
33.5952180957
 30
0.0
 10
-3.9312593253
 20
33.7910318537
 30
0.0
 10
-4.0370634884
 20
33.9364185761
 30
0.0
 10
-4.095507418
 20
34.0036109101
 30
0.0
 10
-4.126523622
 20
34.0344390425
 30
0.0
  0
SPLINE
  5
361
100
AcDbEntity
  8
0
100
AcDbSpline
 62
7
  6
CONTINUOUS
 70
0
 71
3
 72
11
 73
7
 74
0
 42
0.0000001
 43
0.0000001
 44
0.0000000001
 40
0.0
 40
0.0
 40
0.0
 40
0.0
 40
0.2164550761
 40
0.4509399127
 40
0.7131108208
 40
1.0
 40
1.0
 40
1.0
 40
1.0
 10
29.9506996121
 20
-69.7347989707
 30
0.0
 10
29.9816256468
 20
-69.7169504187
 30
0.0
 10
30.038012009
 20
-69.6652965458
 30
0.0
 10
30.0951116867
 20
-69.5605093678
 30
0.0
 10
30.1235551301
 20
-69.4334674649
 30
0.0
 10
30.1317330357
 20
-69.3429758647
 30
0.0
 10
30.1317330357
 20
-69.2956498586
 30
0.0
  0
SPLINE
  5
362
100
AcDbEntity
  8
0
100
AcDbSpline
 62
7
  6
CONTINUOUS
 70
0
 71
3
 72
9
 73
5
 74
0
 42
0.0000001
 43
0.0000001
 44
0.0000000001
 40
0.0
 40
0.0
 40
0.0
 40
0.0
 40
0.241330295
 40
1.0
 40
1.0
 40
1.0
 40
1.0
 10
29.7666232698
 20
-69.3687012353
 30
0.0
 10
29.761476874
 20
-69.3699579444
 30
0.0
 10
29.7398771771
 20
-69.3740755325
 30
0.0
 10
29.7175902158
 20
-69.3735874108
 30
0.0
 10
29.7010492335
 20
-69.3716496437
 30
0.0
  0
SPLINE
  5
363
100
AcDbEntity
  8
0
100
AcDbSpline
 62
7
  6
CONTINUOUS
 70
0
 71
3
 72
10
 73
6
 74
0
 42
0.0000001
 43
0.0000001
 44
0.0000000001
 40
0.0
 40
0.0
 40
0.0
 40
0.0
 40
0.229109403
 40
0.4723807733
 40
1.0
 40
1.0
 40
1.0
 40
1.0
 10
29.7010492335
 20
-69.3716496437
 30
0.0
 10
29.6815566896
 20
-69.3693661026
 30
0.0
 10
29.641927627
 20
-69.3603573528
 30
0.0
 10
29.560519383
 20
-69.3331731336
 30
0.0
 10
29.5027724113
 20
-69.3002103414
 30
0.0
 10
29.4636316035
 20
-69.2776109428
 30
0.0
  0
SPLINE
  5
364
100
AcDbEntity
  8
0
100
AcDbSpline
 62
7
  6
CONTINUOUS
 70
0
 71
3
 72
11
 73
7
 74
0
 42
0.0000001
 43
0.0000001
 44
0.0000000001
 40
0.0
 40
0.0
 40
0.0
 40
0.0
 40
0.2114397329
 40
0.4503767778
 40
0.7141386623
 40
1.0
 40
1.0
 40
1.0
 40
1.0
 10
29.7343220999
 20
-69.3941905424
 30
0.0
 10
29.7121467505
 20
-69.4070093007
 30
0.0
 10
29.6562779434
 20
-69.4203338647
 30
0.0
 10
29.5706058851
 20
-69.4021859369
 30
0.0
 10
29.4806273669
 20
-69.3694459171
 30
0.0
 10
29.4229098271
 20
-69.3357536085
 30
0.0
 10
29.3929205146
 20
-69.318438165
 30
0.0
  0
SPLINE
  5
365
100
AcDbEntity
  8
RACCORDO
100
AcDbSpline
 62
250
  6
CONTINUOUS
 70
0
 71
3
 72
11
 73
7
 74
0
 42
0.0000001
 43
0.0000001
 44
0.0000000001
 40
0.0
 40
0.0
 40
0.0
 40
0.0
 40
0.2372289867
 40
0.5000061055
 40
0.7627799044
 40
1.0
 40
1.0
 40
1.0
 40
1.0
 10
-50.7863925302
 20
-20.5274490638
 30
0.0
 10
-50.8365838844
 20
-20.498469205
 30
0.0
 10
-50.9315721413
 20
-20.4185256025
 30
0.0
 10
-51.0424348319
 20
-20.2670223643
 30
0.0
 10
-51.1182085285
 20
-20.095262955
 30
0.0
 10
-51.1399459208
 20
-19.9730313738
 30
0.0
 10
-51.1399459208
 20
-19.9150766288
 30
0.0
  0
SPLINE
  5
366
100
AcDbEntity
  8
SMUSSO
100
AcDbSpline
 62
7
  6
CONTINUOUS
 70
0
 71
3
 72
9
 73
5
 74
0
 42
0.0000001
 43
0.0000001
 44
0.0000000001
 40
0.0
 40
0.0
 40
0.0
 40
0.0
 40
0.2404552289
 40
1.0
 40
1.0
 40
1.0
 40
1.0
 10
-50.9278138865
 20
-19.7925942508
 30
0.0
 10
-50.9278138865
 20
-19.8003234957
 30
0.0
 10
-50.9270159538
 20
-19.8324658497
 30
0.0
 10
-50.9232133303
 20
-19.8645077797
 30
0.0
 10
-50.918950546
 20
-19.888547736
 30
0.0
  0
SPLINE
  5
367
100
AcDbEntity
  8
SMUSSO
100
AcDbSpline
 62
7
  6
CONTINUOUS
 70
0
 71
3
 72
9
 73
5
 74
0
 42
0.0000001
 43
0.0000001
 44
0.0000000001
 40
0.0
 40
0.0
 40
0.0
 40
0.0
 40
0.2436846594
 40
1.0
 40
1.0
 40
1.0
 40
1.0
 10
-50.918950546
 20
-19.888547736
 30
0.0
 10
-50.9174675504
 20
-19.8969110841
 30
0.0
 10
-50.9106872375
 20
-19.9311063468
 30
0.0
 10
-50.9012570407
 20
-19.9647622518
 30
0.0
 10
-50.892863141
 20
-19.9897521411
 30
0.0
  0
SPLINE
  5
368
100
AcDbEntity
  8
SMUSSO
100
AcDbSpline
 62
7
  6
CONTINUOUS
 70
0
 71
3
 72
9
 73
5
 74
0
 42
0.0000001
 43
0.0000001
 44
0.0000000001
 40
0.0
 40
0.0
 40
0.0
 40
0.0
 40
0.2466570339
 40
1.0
 40
1.0
 40
1.0
 40
1.0
 10
-50.892863141
 20
-19.9897521411
 30
0.0
 10
-50.8899903588
 20
-19.9983048415
 30
0.0
 10
-50.8777346906
 20
-20.032772527
 30
0.0
 10
-50.8631300299
 20
-20.0663993131
 30
0.0
 10
-50.8509483032
 20
-20.091116446
 30
0.0
  0
SPLINE
  5
369
100
AcDbEntity
  8
SMUSSO
100
AcDbSpline
 62
7
  6
CONTINUOUS
 70
0
 71
3
 72
9
 73
5
 74
0
 42
0.0000001
 43
0.0000001
 44
0.0000000001
 40
0.0
 40
0.0
 40
0.0
 40
0.0
 40
0.2529653937
 40
1.0
 40
1.0
 40
1.0
 40
1.0
 10
-50.7947005898
 20
-20.1886203729
 30
0.0
 10
-50.7895440836
 20
-20.1963456391
 30
0.0
 10
-50.768661563
 20
-20.2265478523
 30
0.0
 10
-50.745808732
 20
-20.2553961771
 30
0.0
 10
-50.7276631288
 20
-20.2759650698
 30
0.0
  0
SPLINE
  5
36A
100
AcDbEntity
  8
SMUSSO
100
AcDbSpline
 62
7
  6
CONTINUOUS
 70
0
 71
3
 72
9
 73
5
 74
0
 42
0.0000001
 43
0.0000001
 44
0.0000000001
 40
0.0
 40
0.0
 40
0.0
 40
0.0
 40
0.2560364366
 40
1.0
 40
1.0
 40
1.0
 40
1.0
 10
-50.7276631288
 20
-20.2759650698
 30
0.0
 10
-50.7217831125
 20
-20.2826303441
 30
0.0
 10
-50.6983697448
 20
-20.308261753
 30
0.0
 10
-50.6731568256
 20
-20.3322697935
 30
0.0
 10
-50.6534052583
 20
-20.3489095408
 30
0.0
  0
SPLINE
  5
36B
100
AcDbEntity
  8
SMUSSO
100
AcDbSpline
 62
7
  6
CONTINUOUS
 70
0
 71
3
 72
9
 73
5
 74
0
 42
0.0000001
 43
0.0000001
 44
0.0000000001
 40
0.0
 40
0.0
 40
0.0
 40
0.0
 40
0.2593806946
 40
1.0
 40
1.0
 40
1.0
 40
1.0
 10
-50.6534052583
 20
-20.3489095408
 30
0.0
 10
-50.6469877113
 20
-20.354316016
 30
0.0
 10
-50.621834391
 20
-20.3746603361
 30
0.0
 10
-50.5950102641
 20
-20.3929860298
 30
0.0
 10
-50.5742604959
 20
-20.4049666858
 30
0.0
  0
SPLINE
  5
36C
100
AcDbEntity
  8
RACCORDO
100
AcDbSpline
 62
250
  6
CONTINUOUS
 70
0
 71
3
 72
11
 73
7
 74
0
 42
0.0000001
 43
0.0000001
 44
0.0000000001
 40
0.0
 40
0.0
 40
0.0
 40
0.0
 40
0.2177715888
 40
0.4509281875
 40
0.710222073
 40
1.0
 40
1.0
 40
1.0
 40
1.0
 10
33.6093253432
 20
-69.136894236
 30
0.0
 10
33.5928324934
 20
-69.1464169975
 30
0.0
 10
33.5549347317
 20
-69.1601763174
 30
0.0
 10
33.4919933816
 20
-69.1617612917
 30
0.0
 10
33.4249028629
 20
-69.1455716552
 30
0.0
 10
33.3812606519
 20
-69.1247971427
 30
0.0
 10
33.359314431
 20
-69.1121256698
 30
0.0
  0
SPLINE
  5
36D
100
AcDbEntity
  8
RACCORDO
100
AcDbSpline
 62
250
  6
CONTINUOUS
 70
0
 71
3
 72
11
 73
7
 74
0
 42
0.0000001
 43
0.0000001
 44
0.0000000001
 40
0.0
 40
0.0
 40
0.0
 40
0.0
 40
0.238826042
 40
0.5016289553
 40
0.7635479289
 40
1.0
 40
1.0
 40
1.0
 40
1.0
 10
39.8530018733
 20
12.2016524639
 30
0.0
 10
39.7521481109
 20
12.1463926454
 30
0.0
 10
39.5203792036
 20
12.0662731674
 30
0.0
 10
39.1518851092
 20
12.0296026062
 30
0.0
 10
38.7851103206
 20
12.0715581849
 30
0.0
 10
38.55614236
 20
12.1552684726
 30
0.0
 10
38.4575405165
 20
12.2121999413
 30
0.0
  0
SPLINE
  5
36E
100
AcDbEntity
  8
RACCORDO
100
AcDbSpline
 62
250
  6
CONTINUOUS
 70
0
 71
3
 72
11
 73
7
 74
0
 42
0.0000001
 43
0.0000001
 44
0.0000000001
 40
0.0
 40
0.0
 40
0.0
 40
0.0
 40
0.238829222
 40
0.5016351542
 40
0.7635537898
 40
1.0
 40
1.0
 40
1.0
 40
1.0
 10
38.8633916107
 20
13.9157077168
 30
0.0
 10
38.7651108801
 20
13.8559900412
 30
0.0
 10
38.5798463806
 20
13.6953248601
 30
0.0
 10
38.3638445339
 20
13.3945331363
 30
0.0
 10
38.2167895226
 20
13.055925038
 30
0.0
 10
38.1747947316
 20
12.8157838594
 30
0.0
 10
38.1747947271
 20
12.7019300136
 30
0.0
  0
SPLINE
  5
36F
100
AcDbEntity
  8
RACCORDO
100
AcDbSpline
 62
250
  6
CONTINUOUS
 70
0
 71
3
 72
11
 73
7
 74
0
 42
0.0000001
 43
0.0000001
 44
0.0000000001
 40
0.0
 40
0.0
 40
0.0
 40
0.0
 40
0.2388292216
 40
0.5016351517
 40
0.7635537867
 40
1.0
 40
1.0
 40
1.0
 40
1.0
 10
-55.1961186554
 20
68.2244901018
 30
0.0
 10
-55.2943993884
 20
68.1647724296
 30
0.0
 10
-55.4796638935
 20
68.004107254
 30
0.0
 10
-55.6956657446
 20
67.7033155318
 30
0.0
 10
-55.8427207544
 20
67.3647074296
 30
0.0
 10
-55.8847155389
 20
67.1245662466
 30
0.0
 10
-55.8847155389
 20
67.0107123986
 30
0.0
  0
SPLINE
  5
370
100
AcDbEntity
  8
RACCORDO
100
AcDbSpline
 62
250
  6
CONTINUOUS
 70
0
 71
3
 72
11
 73
7
 74
0
 42
0.0000001
 43
0.0000001
 44
0.0000000001
 40
0.0
 40
0.0
 40
0.0
 40
0.0
 40
0.2388260449
 40
0.5016289578
 40
0.7635479296
 40
1.0
 40
1.0
 40
1.0
 40
1.0
 10
39.8530018733
 20
-77.6265993315
 30
0.0
 10
39.752148111
 20
-77.6818591543
 30
0.0
 10
39.5203792031
 20
-77.7619786398
 30
0.0
 10
39.1518851061
 20
-77.7986492042
 30
0.0
 10
38.7851103168
 20
-77.7566936212
 30
0.0
 10
38.5561423582
 20
-77.6729833265
 30
0.0
 10
38.4575405165
 20
-77.6160518541
 30
0.0
  0
SPLINE
  5
371
100
AcDbEntity
  8
RACCORDO
100
AcDbSpline
 62
250
  6
CONTINUOUS
 70
0
 71
3
 72
11
 73
7
 74
0
 42
0.0000001
 43
0.0000001
 44
0.0000000001
 40
0.0
 40
0.0
 40
0.0
 40
0.0
 40
0.2366905816
 40
0.500004109
 40
0.763314922
 40
1.0
 40
1.0
 40
1.0
 40
1.0
 10
38.8633916107
 20
13.9157077168
 30
0.0
 10
39.0018242145
 20
13.8326443561
 30
0.0
 10
39.2638074164
 20
13.6061724135
 30
0.0
 10
39.5715747655
 20
13.1818657206
 30
0.0
 10
39.7851523648
 20
12.7031825704
 30
0.0
 10
39.8502876847
 20
12.363066617
 30
0.0
 10
39.8530018733
 20
12.2016524639
 30
0.0
  0
SPLINE
  5
372
100
AcDbEntity
  8
RACCORDO
100
AcDbSpline
 62
250
  6
CONTINUOUS
 70
0
 71
3
 72
11
 73
7
 74
0
 42
0.0000001
 43
0.0000001
 44
0.0000000001
 40
0.0
 40
0.0
 40
0.0
 40
0.0
 40
0.291120922
 40
0.5506925636
 40
0.7832433564
 40
1.0
 40
1.0
 40
1.0
 40
1.0
 10
39.8530018733
 20
-77.6265993315
 30
0.0
 10
39.8517827399
 20
-77.7004395074
 30
0.0
 10
39.8382202001
 20
-77.840432759
 30
0.0
 10
39.7774390562
 20
-78.0315255248
 30
0.0
 10
39.678039327
 20
-78.184517414
 30
0.0
 10
39.5858291697
 20
-78.2560665428
 30
0.0
 10
39.5370277566
 20
-78.281401603
 30
0.0
  0
SPLINE
  5
373
100
AcDbEntity
  8
RACCORDO
100
AcDbSpline
 62
250
  6
CONTINUOUS
 70
0
 71
3
 72
11
 73
7
 74
0
 42
0.0000001
 43
0.0000001
 44
0.0000000001
 40
0.0
 40
0.0
 40
0.0
 40
0.0
 40
0.2372383085
 40
0.5
 40
0.7627616915
 40
1.0
 40
1.0
 40
1.0
 40
1.0
 10
-51.4227886333
 20
-19.9150766288
 30
0.0
 10
-51.4027111683
 20
-19.9266691055
 30
0.0
 10
-51.3560206611
 20
-19.9435861251
 30
0.0
 10
-51.2813672771
 20
-19.9516913505
 30
0.0
 10
-51.206713893
 20
-19.9435861251
 30
0.0
 10
-51.1600233859
 20
-19.9266691055
 30
0.0
 10
-51.1399459208
 20
-19.9150766288
 30
0.0
  0
SPLINE
  5
374
100
AcDbEntity
  8
RACCORDO
100
AcDbSpline
 62
250
  6
CONTINUOUS
 70
0
 71
3
 72
11
 73
7
 74
0
 42
0.0000001
 43
0.0000001
 44
0.0000000001
 40
0.0
 40
0.0
 40
0.0
 40
0.0
 40
0.2372324595
 40
0.4999938932
 40
0.7627586504
 40
1.0
 40
1.0
 40
1.0
 40
1.0
 10
-50.9278138865
 20
-20.7723980379
 30
0.0
 10
-50.9278138865
 20
-20.7492149294
 30
0.0
 10
-50.9191179721
 20
-20.700322471
 30
0.0
 10
-50.8888101913
 20
-20.6316193162
 30
0.0
 10
-50.8444647936
 20
-20.5710197957
 30
0.0
 10
-50.8064701201
 20
-20.5390416126
 30
0.0
 10
-50.7863925302
 20
-20.5274490638
 30
0.0
  0
SPLINE
  5
375
100
AcDbEntity
  8
RACCORDO
100
AcDbSpline
 62
250
  6
CONTINUOUS
 70
0
 71
3
 72
11
 73
7
 74
0
 42
0.0000001
 43
0.0000001
 44
0.0000000001
 40
0.0
 40
0.0
 40
0.0
 40
0.0
 40
0.2372324595
 40
0.4999938932
 40
0.7627586504
 40
1.0
 40
1.0
 40
1.0
 40
1.0
 10
33.2178930747
 20
-69.3570746439
 30
0.0
 10
33.2178930747
 20
-69.3338915354
 30
0.0
 10
33.2265889891
 20
-69.284999077
 30
0.0
 10
33.2568967699
 20
-69.2162959222
 30
0.0
 10
33.3012421676
 20
-69.1556964017
 30
0.0
 10
33.3392368411
 20
-69.1237182186
 30
0.0
 10
33.359314431
 20
-69.1121256698
 30
0.0
  0
SPLINE
  5
376
100
AcDbEntity
  8
RACCORDO
100
AcDbSpline
 62
250
  6
CONTINUOUS
 70
0
 71
3
 72
9
 73
5
 74
0
 42
0.0000001
 43
0.0000001
 44
0.0000000001
 40
0.0
 40
0.0
 40
0.0
 40
0.0
 40
0.5507780032
 40
1.0
 40
1.0
 40
1.0
 40
1.0
 10
33.7128678216
 20
-69.0713376654
 30
0.0
 10
33.696326338
 20
-69.0617868202
 30
0.0
 10
33.6679074633
 20
-69.0400251297
 30
0.0
 10
33.6542891778
 20
-69.0052615915
 30
0.0
 10
33.6542891778
 20
-68.9896827468
 30
0.0
  0
SPLINE
  5
377
100
AcDbEntity
  8
RACCORDO
100
AcDbSpline
 62
250
  6
CONTINUOUS
 70
0
 71
3
 72
9
 73
5
 74
0
 42
0.0000001
 43
0.0000001
 44
0.0000000001
 40
0.0
 40
0.0
 40
0.0
 40
0.0
 40
0.5507780032
 40
1.0
 40
1.0
 40
1.0
 40
1.0
 10
33.7128678216
 20
-0.4878344148
 30
0.0
 10
33.696326338
 20
-0.4782835696
 30
0.0
 10
33.6679074633
 20
-0.4565218791
 30
0.0
 10
33.6542891778
 20
-0.4217583409
 30
0.0
 10
33.6542891778
 20
-0.4061794962
 30
0.0
  0
SPLINE
  5
378
100
AcDbEntity
  8
RACCORDO
100
AcDbSpline
 62
250
  6
CONTINUOUS
 70
0
 71
3
 72
9
 73
5
 74
0
 42
0.0000001
 43
0.0000001
 44
0.0000000001
 40
0.0
 40
0.0
 40
0.0
 40
0.0
 40
0.5507851039
 40
1.0
 40
1.0
 40
1.0
 40
1.0
 10
33.2178930747
 20
0.3694869942
 30
0.0
 10
33.2178930747
 20
0.3503885708
 30
0.0
 10
33.2225276367
 20
0.3149009727
 30
0.0
 10
33.2458201882
 20
0.2857282487
 30
0.0
 10
33.2593095989
 20
0.277939622
 30
0.0
  0
SPLINE
  5
379
100
AcDbEntity
  8
RACCORDO
100
AcDbSpline
 62
250
  6
CONTINUOUS
 70
0
 71
3
 72
9
 73
5
 74
0
 42
0.0000001
 43
0.0000001
 44
0.0000000001
 40
0.0
 40
0.0
 40
0.0
 40
0.0
 40
0.5507851039
 40
1.0
 40
1.0
 40
1.0
 40
1.0
 10
-50.9278138865
 20
48.9541636002
 30
0.0
 10
-50.9278138865
 20
48.9350651768
 30
0.0
 10
-50.9231793245
 20
48.8995775787
 30
0.0
 10
-50.899886773
 20
48.8704048547
 30
0.0
 10
-50.8863973623
 20
48.862616228
 30
0.0
  0
SPLINE
  5
37A
100
AcDbEntity
  8
RACCORDO
100
AcDbSpline
 62
250
  6
CONTINUOUS
 70
0
 71
3
 72
11
 73
7
 74
0
 42
0.0000001
 43
0.0000001
 44
0.0000000001
 40
0.0
 40
0.0
 40
0.0
 40
0.0
 40
0.2372383085
 40
0.5
 40
0.7627616915
 40
1.0
 40
1.0
 40
1.0
 40
1.0
 10
-51.4227886333
 20
48.6684266218
 30
0.0
 10
-51.4027111683
 20
48.6568341451
 30
0.0
 10
-51.3560206611
 20
48.6399171255
 30
0.0
 10
-51.2813672771
 20
48.6318119001
 30
0.0
 10
-51.206713893
 20
48.6399171255
 30
0.0
 10
-51.1600233859
 20
48.6568341451
 30
0.0
 10
-51.1399459208
 20
48.6684266218
 30
0.0
  0
SPLINE
  5
37B
100
AcDbEntity
  8
CURVE
100
AcDbSpline
 62
7
  6
CONTINUOUS
 70
0
 71
3
 72
68
 73
64
 74
0
 42
0.0000001
 43
0.0000001
 44
0.0000000001
 40
0.0
 40
0.0
 40
0.0
 40
0.0
 40
0.0625
 40
0.09375
 40
0.125
 40
0.140625
 40
0.15625
 40
0.1640625
 40
0.16796875
 40
0.171875
 40
0.1796875
 40
0.1875
 40
0.203125
 40
0.21875
 40
0.25
 40
0.28125
 40
0.296875
 40
0.3125
 40
0.3203125
 40
0.328125
 40
0.33203125
 40
0.3359375
 40
0.34375
 40
0.359375
 40
0.375
 40
0.40625
 40
0.4375
 40
0.453125
 40
0.46875
 40
0.484375
 40
0.4921875
 40
0.49609375
 40
0.5
 40
0.50390625
 40
0.5078125
 40
0.515625
 40
0.53125
 40
0.546875
 40
0.5625
 40
0.59375
 40
0.625
 40
0.640625
 40
0.65625
 40
0.6640625
 40
0.66796875
 40
0.671875
 40
0.6796875
 40
0.6875
 40
0.703125
 40
0.71875
 40
0.75
 40
0.78125
 40
0.8125
 40
0.8203125
 40
0.828125
 40
0.83203125
 40
0.8359375
 40
0.84375
 40
0.859375
 40
0.875
 40
0.90625
 40
0.9375
 40
1.0
 40
1.0
 40
1.0
 40
1.0
 10
5.0301819568
 20
48.5688368008
 30
0.0
 10
4.9661779139
 20
48.6214325938
 30
0.0
 10
4.8701654256
 20
48.7003171383
 30
0.0
 10
4.74217447
 20
48.8055331106
 30
0.0
 10
4.6621265906
 20
48.8712168858
 30
0.0
 10
4.5982103404
 20
48.923937659
 30
0.0
 10
4.5579843167
 20
48.9564918635
 30
0.0
 10
4.5303839724
 20
48.9800739836
 30
0.0
 10
4.5137395047
 20
48.9923069181
 30
0.0
 10
4.4938069113
 20
48.9998589355
 30
0.0
 10
4.4700170193
 20
49.010901698
 30
0.0
 10
4.4313240048
 20
49.0276744112
 30
0.0
 10
4.3831732413
 20
49.0489471407
 30
0.0
 10
4.3060111654
 20
49.082811158
 30
0.0
 10
4.2096029597
 20
49.1252064524
 30
0.0
 10
4.1131682649
 20
49.1675560929
 30
0.0
 10
4.0360485717
 20
49.2014931564
 30
0.0
 10
3.9877918514
 20
49.2225832705
 30
0.0
 10
3.9493160483
 20
49.2397303454
 30
0.0
 10
3.9249731944
 20
49.2498200834
 30
0.0
 10
3.9061756629
 20
49.259328369
 30
0.0
 10
3.8849075066
 20
49.2635924206
 30
0.0
 10
3.8465405249
 20
49.2686183473
 30
0.0
 10
3.7923293558
 20
49.2770692698
 30
0.0
 10
3.7052569123
 20
49.2898806701
 30
0.0
 10
3.5965304363
 20
49.3061363795
 30
0.0
 10
3.4877658629
 20
49.3223138475
 30
0.0
 10
3.4007543752
 20
49.3352504339
 30
0.0
 10
3.3355181048
 20
49.3450159827
 30
0.0
 10
3.2810799902
 20
49.3529458217
 30
0.0
 10
3.2431201014
 20
49.3589061473
 30
0.0
 10
3.2211994607
 20
49.3616725888
 30
0.0
 10
3.2054048666
 20
49.3655488143
 30
0.0
 10
3.187141365
 20
49.3625391916
 30
0.0
 10
3.1636512116
 20
49.3609282206
 30
0.0
 10
3.1221422069
 20
49.3569899682
 30
0.0
 10
3.0630533646
 20
49.3519488046
 30
0.0
 10
2.9920571333
 20
49.34564967
 30
0.0
 10
2.8974260312
 20
49.3373349504
 30
0.0
 10
2.7791321576
 20
49.3269349483
 30
0.0
 10
2.6608200933
 20
49.3164561984
 30
0.0
 10
2.5662180964
 20
49.3082674753
 30
0.0
 10
2.5069818073
 20
49.3027032051
 30
0.0
 10
2.4657370666
 20
49.2997029863
 30
0.0
 10
2.4418233785
 20
49.2965885791
 30
0.0
 10
2.4166090216
 20
49.2882001706
 30
0.0
 10
2.3855364208
 20
49.2795204571
 30
0.0
 10
2.3355713871
 20
49.2646238164
 30
0.0
 10
2.2732002571
 20
49.2463480704
 30
0.0
 10
2.1733591565
 20
49.216916724
 30
0.0
 10
2.0485718267
 20
49.180173467
 30
0.0
 10
1.8988305494
 20
49.1361463431
 30
0.0
 10
1.7864971807
 20
49.1028765355
 30
0.0
 10
1.7116528532
 20
49.0810921931
 30
0.0
 10
1.6804010226
 20
49.0714254639
 30
0.0
 10
1.6555551656
 20
49.0650683352
 30
0.0
 10
1.6301402339
 20
49.0536781239
 30
0.0
 10
1.5853996974
 20
49.0314067642
 30
0.0
 10
1.5216225992
 20
49.0008106446
 30
0.0
 10
1.4195021454
 20
48.9511749856
 30
0.0
 10
1.2918779876
 20
48.8893639842
 30
0.0
 10
1.0876645087
 20
48.7903352537
 30
0.0
 10
0.9345077354
 20
48.7160932097
 30
0.0
 10
0.8324024786
 20
48.6665919572
 30
0.0
  0
SPLINE
  5
37C
100
AcDbEntity
  8
IMPORT_IGES
100
AcDbSpline
 62
7
  6
CONTINUOUS
 70
0
 71
3
 72
11
 73
7
 74
0
 42
0.0000001
 43
0.0000001
 44
0.0000000001
 40
0.0
 40
0.0
 40
0.0
 40
0.0
 40
0.0991460271
 40
0.4289514218
 40
0.7038693502
 40
1.0
 40
1.0
 40
1.0
 40
1.0
 10
29.766402421
 20
-69.368754991
 30
0.0
 10
29.757804473
 20
-69.3708410085
 30
0.0
 10
29.7192882487
 20
-69.3767695255
 30
0.0
 10
29.6485607645
 20
-69.3638796887
 30
0.0
 10
29.5551074502
 20
-69.3303097432
 30
0.0
 10
29.4947850768
 20
-69.2955985679
 30
0.0
 10
29.46362354
 20
-69.2776062871
 30
0.0
  0
SPLINE
  5
37D
100
AcDbEntity
  8
IMPORT_IGES
100
AcDbSpline
 62
7
  6
CONTINUOUS
 70
0
 71
3
 72
11
 73
7
 74
0
 42
0.0000001
 43
0.0000001
 44
0.0000000001
 40
0.0
 40
0.0
 40
0.0
 40
0.0
 40
0.2370638674
 40
0.4790788965
 40
0.8876868482
 40
1.0
 40
1.0
 40
1.0
 40
1.0
 10
30.2024437138
 20
-69.2548223993
 30
0.0
 10
30.2024437138
 20
-69.2983602073
 30
0.0
 10
30.1951022028
 20
-69.3820288475
 30
0.0
 10
30.1663608714
 20
-69.525575962
 30
0.0
 10
30.111184913
 20
-69.621316704
 30
0.0
 10
30.0596235517
 20
-69.6674724628
 30
0.0
 10
30.0478673747
 20
-69.6763779183
 30
0.0
  0
SPLINE
  5
37E
100
AcDbEntity
  8
IMPORT_IGES
100
AcDbSpline
 62
7
  6
CONTINUOUS
 70
0
 71
3
 72
13
 73
9
 74
0
 42
0.0000001
 43
0.0000001
 44
0.0000000001
 40
0.0
 40
0.0
 40
0.0
 40
0.0
 40
0.1893154153
 40
0.3992664171
 40
0.6716208528
 40
0.7904132414
 40
0.8710907791
 40
1.0
 40
1.0
 40
1.0
 40
1.0
 10
29.5627712305
 20
-68.1864644632
 30
0.0
 10
29.6250584912
 20
-68.2224283468
 30
0.0
 10
29.7576208798
 20
-68.3100849523
 30
0.0
 10
29.9652126363
 20
-68.5298724523
 30
0.0
 10
30.1103887914
 20
-68.7844666604
 30
0.0
 10
30.1689825378
 20
-68.9856043173
 30
0.0
 10
30.1954387776
 20
-69.1219570721
 30
0.0
 10
30.2024437138
 20
-69.2058498611
 30
0.0
 10
30.2024437138
 20
-69.2548223993
 30
0.0
  0
SPLINE
  5
37F
100
AcDbEntity
  8
IMPORT_IGES
100
AcDbSpline
 62
7
  6
CONTINUOUS
 70
0
 71
3
 72
8
 73
4
 74
0
 42
0.0000001
 43
0.0000001
 44
0.0000000001
 40
0.0
 40
0.0
 40
0.0
 40
0.0
 40
1.0
 40
1.0
 40
1.0
 40
1.0
 10
-4.296614429
 20
32.9365138292
 30
0.0
 10
-4.3830782183
 20
32.9126809954
 30
0.0
 10
-4.4997163741
 20
32.9541213965
 30
0.0
 10
-4.6069107269
 20
33.0132495035
 30
0.0
  0
SPLINE
  5
380
100
AcDbEntity
  8
IMPORT_IGES
100
AcDbSpline
 62
7
  6
CONTINUOUS
 70
0
 71
3
 72
9
 73
5
 74
0
 42
0.0000001
 43
0.0000001
 44
0.0000000001
 40
0.0
 40
0.0
 40
0.0
 40
0.0
 40
0.2680326486
 40
1.0
 40
1.0
 40
1.0
 40
1.0
 10
-3.6546733084
 20
31.53453039
 30
0.0
 10
-3.6686737675
 20
31.6019533957
 30
0.0
 10
-3.7170905719
 20
31.8468503766
 30
0.0
 10
-3.8187013551
 20
32.1476910717
 30
0.0
 10
-3.94002397
 20
32.3071267823
 30
0.0
  0
SPLINE
  5
381
100
AcDbEntity
  8
IMPORT_IGES
100
AcDbSpline
 62
7
  6
CONTINUOUS
 70
0
 71
3
 72
9
 73
5
 74
0
 42
0.0000001
 43
0.0000001
 44
0.0000000001
 40
0.0
 40
0.0
 40
0.0
 40
0.0
 40
0.1980141723
 40
1.0
 40
1.0
 40
1.0
 40
1.0
 10
-3.4528628526
 20
30.5341799036
 30
0.0
 10
-3.466557501
 20
30.6003082047
 30
0.0
 10
-3.5335866682
 20
30.9336962297
 30
0.0
 10
-3.5990468746
 20
31.2666588481
 30
0.0
 10
-3.6546733084
 20
31.53453039
 30
0.0
  0
SPLINE
  5
382
100
AcDbEntity
  8
IMPORT_IGES
100
AcDbSpline
 62
7
  6
CONTINUOUS
 70
0
 71
3
 72
9
 73
5
 74
0
 42
0.0000001
 43
0.0000001
 44
0.0000000001
 40
0.0
 40
0.0
 40
0.0
 40
0.0
 40
0.2957417834
 40
1.0
 40
1.0
 40
1.0
 40
1.0
 10
-4.0558129438
 20
34.0752665018
 30
0.0
 10
-4.191806217
 20
34.2105173776
 30
0.0
 10
-4.6806197086
 20
34.5852255474
 30
0.0
 10
-5.1719972547
 20
34.8119866207
 30
0.0
 10
-5.5126613317
 20
34.9508129649
 30
0.0
  0
SPLINE
  5
383
100
AcDbEntity
  8
IMPORT_IGES
100
AcDbSpline
 62
7
  6
CONTINUOUS
 70
0
 71
3
 72
18
 73
14
 74
0
 42
0.0000001
 43
0.0000001
 44
0.0000000001
 40
0.0
 40
0.0
 40
0.0
 40
0.0
 40
0.032778649
 40
0.1162892535
 40
0.2104506437
 40
0.3165608476
 40
0.3751099707
 40
0.4380090284
 40
0.5365750858
 40
0.6251766975
 40
0.7795017627
 40
0.9070381552
 40
1.0
 40
1.0
 40
1.0
 40
1.0
 10
-3.7980844582
 20
32.4488712624
 30
0.0
 10
-3.7869162357
 20
32.4562251956
 30
0.0
 10
-3.7487315963
 20
32.4846006108
 30
0.0
 10
-3.6897063558
 20
32.554284496
 30
0.0
 10
-3.6316415761
 20
32.6726947969
 30
0.0
 10
-3.6026538163
 20
32.8043655096
 30
0.0
 10
-3.5936920606
 20
32.9316750855
 30
0.0
 10
-3.5956642035
 20
33.0612993739
 30
0.0
 10
-3.613822832
 20
33.2169060959
 30
0.0
 10
-3.6679040476
 20
33.4381446237
 30
0.0
 10
-3.7695256022
 20
33.6830925413
 30
0.0
 10
-3.9129936223
 20
33.9115823041
 30
0.0
 10
-4.0116385685
 20
34.0313599846
 30
0.0
 10
-4.0558129438
 20
34.0752665018
 30
0.0
  0
ELLIPSE
  5
384
100
AcDbEntity
  8
DRAFT
100
AcDbEllipse
 62
7
  6
CONTINUOUS
 10
49.0690939842
 20
14.8959213434
 30
0.0
 11
3.9003778217
 21
6.2913959323
 31
0.0
 40
0.5971151412
 41
-1.3684233754
 42
-0.2998693455
  0
ELLIPSE
  5
385
100
AcDbEntity
  8
DRAFT
100
AcDbEllipse
 62
7
  6
CONTINUOUS
 10
52.3322760625
 20
20.561179659
 30
0.0
 11
-0.3295983318
 21
1.4932059526
 31
0.0
 40
0.6978833431
 41
-1.5611103503
 42
-0.5681422899
  0
ELLIPSE
  5
386
100
AcDbEntity
  8
DRAFT
100
AcDbEllipse
 62
7
  6
CONTINUOUS
 10
-42.3210376672
 20
75.2128167219
 30
0.0
 11
-0.3295983318
 21
1.4932059526
 31
0.0
 40
0.6978833431
 41
-0.5681422899
 42
0.4248257705
  0
ELLIPSE
  5
387
100
AcDbEntity
  8
RACCORDO
100
AcDbEllipse
 62
7
  6
CONTINUOUS
 10
49.0874088733
 20
14.885346556
 30
0.0
 11
3.7190421511
 21
6.1081280936
 31
0.0
 40
0.5922410672
 41
-1.3466141291
 42
-0.2747305791
  0
ELLIPSE
  5
388
100
AcDbEntity
  8
RACCORDO
100
AcDbEllipse
 62
7
  6
CONTINUOUS
 10
52.4508581757
 20
-70.0091817485
 30
0.0
 11
-0.7005136052
 21
1.2132471482
 31
0.0
 40
0.5769361983
 41
-3.1677534085
 42
-2.3565853618
  0
ENDSEC
  0
SECTION
  2
OBJECTS
  0
DICTIONARY
  5
C
100
AcDbDictionary
280
0
281
1
  3
ACAD_GROUP
350
D
  3
ACAD_MLINESTYLE
350
17
  3
ACAD_LAYOUT
350
1A
  3
ACAD_PLOTSETTINGS
350
19
  3
ACAD_PLOTSTYLENAME
350
E
  0
DICTIONARY
  5
D
102
{ACAD_REACTORS
330
C
102
}
100
AcDbDictionary
280
0
281
1
  0
ACDBDICTIONARYWDFLT
  5
E
102
{ACAD_REACTORS
330
C
102
}
100
AcDbDictionary
281
1
  3
Normal
350
F
100
AcDbDictionaryWithDefault
340
F
  0
DICTIONARY
  5
17
102
{ACAD_REACTORS
330
C
102
}
100
AcDbDictionary
280
0
281
1
  3
Standard
350
18
  0
DICTIONARY
  5
19
102
{ACAD_REACTORS
330
C
102
}
100
AcDbDictionary
281
1
  0
DICTIONARY
  5
1A
102
{ACAD_REACTORS
330
C
102
}
100
AcDbDictionary
281
1
  3
Model
350
389
  3
Layout1
350
38A
  0
ACDBPLACEHOLDER
  5
F
102
{ACAD_REACTORS
330
E
102
}
  0
MLINESTYLE
  5
18
102
{ACAD_REACTORS
330
17
102
}
100
AcDbMlineStyle
  2
STANDARD
 70
0
  3

 62
256
 51
90.0
 52
90.0
 71
2
 49
0.5
 62
256
  6
BYLAYER
 49
-0.5
 62
256
  6
BYLAYER
  0
LAYOUT
  5
389
102
{ACAD_REACTORS
330
1A
102
}
100
AcDbPlotSettings
  1

  2
none_device
  4
ANSI_C_(22.00_x_17.00_Inches)
  6

 40
0.0
 41
0.0
 42
0.0
 43
0.0
 44
558.8
 45
431.8
 46
0.0
 47
0.0
 48
0.0
 49
0.0
140
0.0
141
0.0
142
1.0
143
1.0
 70
1024
 72
1
 73
0
 74
0
  7

 75
0
147
1.0
148
0.0
149
0.0
100
AcDbLayout
  1
Model
 70
0
 71
0
 10
0.0
 20
0.0
 11
558.8
 21
431.8
 12
0.0
 22
0.0
 32
0.0
 14
0.0
 24
0.0
 34
0.0
 15
0.0
 25
0.0
 35
0.0
146
0.0
 13
0.0
 23
0.0
 33
0.0
 16
1.0
 26
0.0
 36
0.0
 17
0.0
 27
1.0
 37
0.0
 76
0
330
214
345
0
346
0
  0
LAYOUT
  5
38A
102
{ACAD_REACTORS
330
1A
102
}
100
AcDbPlotSettings
  1

  2
none_device
  4
ANSI_C_(22.00_x_17.00_Inches)
  6

 40
0.0
 41
0.0
 42
0.0
 43
0.0
 44
558.8
 45
431.8
 46
0.0
 47
0.0
 48
0.0
 49
0.0
140
0.0
141
0.0
142
1.0
143
1.0
 70
0
 72
1
 73
0
 74
0
  7

 75
0
147
1.0
148
0.0
149
0.0
100
AcDbLayout
  1
Layout1
 70
0
 71
1
 10
0.0
 20
0.0
 11
558.8
 21
431.8
 12
0.0
 22
0.0
 32
0.0
 14
0.0
 24
0.0
 34
0.0
 15
0.0
 25
0.0
 35
0.0
146
0.0
 13
0.0
 23
0.0
 33
0.0
 16
1.0
 26
0.0
 36
0.0
 17
0.0
 27
1.0
 37
0.0
 76
0
330
215
345
0
346
0
  0
ENDSEC
  0
EOF
