  0
SECTION
  2
HEADER
  9
$ACADVER
  1
AC1024
  9
$DWGCODEPAGE
  3
ANSI_1252
  9
$EXTMAX
 10
558.8
 20
431.8
 30
0.0
  9
$EXTMIN
 10
0.0
 20
0.0
 30
0.0
  9
$LIMMIN
 10
0.0
 20
0.0
  9
$LIMMAX
 10
558.8
 20
431.8
  9
$VIEWCTR
 10
279.4
 20
215.9
  9
$VIEWSIZE
 40
431.8
  9
$CLAYER
  8
0
  9
$LTSCALE
 40
30.734
  9
$CELTYPE
  6
BYLAYER
  9
$DIMSCALE
 40
1.0
  9
$DIMASZ
 40
3.0
  9
$DIMEXO
 40
0.5
  9
$DIMDLI
 40
21.2344
  9
$DIMEXE
 40
1.5
  9
$DIMCEN
 40
5.0292
  9
$DIMLFAC
 40
1.0
  9
$DIMBLK
  1
_FILLED
  9
$DIMALT
 70
0
  9
$DIMALTF
 40
0.0393700787
  9
$DIMTXT
 40
3.0
  9
$DIMTOL
 70
1
  9
$DIMLIM
 70
0
  9
$DIMTFAC
 40
1.0
  9
$DIMTP
 40
0.01
  9
$DIMTM
 40
0.01
  9
$DIMGAP
 40
0.625
  9
$DIMDSEP
 70
44
  9
$AUNITS
 70
0
  9
$PDMODE
 70
3
  9
$PDSIZE
 40
3.0
  9
$HANDSEED
  5
383
  9
$TILEMODE
 70
1
  9
$MEASUREMENT
 70
1
  9
$INSUNITS
 70
4
  0
ENDSEC
  0
SECTION
  2
CLASSES
  0
CLASS
  1
ACDBDICTIONARYWDFLT
  2
AcDbDictionaryWithDefault
  3
AutoCAD 2000
 90
0
 91
1
280
0
281
0
  0
CLASS
  1
ACDBPLACEHOLDER
  2
AcDbPlaceHolder
  3
AutoCAD 2000
 90
0
 91
1
280
0
281
0
  0
CLASS
  1
LAYOUT
  2
AcDbLayout
  3
AutoCAD 2000
 90
0
 91
0
280
0
281
0
  0
ENDSEC
  0
SECTION
  2
TABLES
  0
TABLE
  2
VPORT
  5
8
100
AcDbSymbolTable
 70
2
  0
VPORT
  5
1F4
100
AcDbSymbolTableRecord
100
AcDbViewportTableRecord
  2
*ACTIVE
 70
0
 10
0.0
 20
0.0
 11
1.0
 21
1.0
 12
279.4
 22
215.9
 13
0.0
 23
0.0
 14
1.0
 24
1.0
 15
0.0
 25
0.0
 16
0.0
 26
0.0
 36
1.0
 17
0.0
 27
0.0
 37
0.0
 40
431.8
 41
1.2941176471
 42
50.0
 43
0.0
 44
0.0
 50
0.0
 51
0.0
 71
0
 72
100
 73
1
 74
1
 75
0
 76
0
 77
0
 78
0
  0
ENDTAB
  0
TABLE
  2
LTYPE
  5
5
100
AcDbSymbolTable
 70
6
  0
LTYPE
  5
14
100
AcDbSymbolTableRecord
100
AcDbLinetypeTableRecord
  2
BYBLOCK
 70
0
  3

 72
65
 73
0
 40
0.0
  0
LTYPE
  5
15
100
AcDbSymbolTableRecord
100
AcDbLinetypeTableRecord
  2
BYLAYER
 70
0
  3

 72
65
 73
0
 40
0.0
  0
LTYPE
  5
16
100
AcDbSymbolTableRecord
100
AcDbLinetypeTableRecord
  2
CONTINUOUS
 70
64
  3
Solid line
 72
65
 73
0
 40
0.0
  0
LTYPE
  5
1F5
100
AcDbSymbolTableRecord
100
AcDbLinetypeTableRecord
  2
CENTER
 70
64
  3
____ _ ____ _ ____ _ ____ _ ____ _ ____ _ ____
 72
65
 73
4
 40
0.6
 49
0.375
 74
0
 49
-0.075
 74
0
 49
0.075
 74
0
 49
-0.075
 74
0
  0
LTYPE
  5
1F6
100
AcDbSymbolTableRecord
100
AcDbLinetypeTableRecord
  2
HIDDEN
 70
64
  3
- - - - - - - - - - - - - - - - - - - -
 72
65
 73
2
 40
0.2
 49
0.1
 74
0
 49
-0.1
 74
0
  0
LTYPE
  5
1F7
100
AcDbSymbolTableRecord
100
AcDbLinetypeTableRecord
  2
PHANTOM
 70
64
  3
_____ _ _ _____ _ _ _____ _ _ _____
 72
65
 73
6
 40
0.8
 49
0.45
 74
0
 49
-0.05
 74
0
 49
0.1
 74
0
 49
-0.05
 74
0
 49
0.1
 74
0
 49
-0.05
 74
0
  0
LTYPE
  5
1F8
100
AcDbSymbolTableRecord
100
AcDbLinetypeTableRecord
  2
DOT
 70
64
  3
. . . . . . . . . . . . . . . . . . . .
 72
65
 73
2
 40
0.2
 49
0.1
 74
0
 49
-0.1
 74
0
  0
LTYPE
  5
1F9
100
AcDbSymbolTableRecord
100
AcDbLinetypeTableRecord
  2
DASHED
 70
64
  3
- - - - - - - - - - - - - - - - - - - -
 72
65
 73
2
 40
0.2
 49
0.1
 74
0
 49
-0.1
 74
0
  0
ENDTAB
  0
TABLE
  2
LAYER
  5
2
100
AcDbSymbolTable
 70
36
  0
LAYER
  5
10
100
AcDbSymbolTableRecord
100
AcDbLayerTableRecord
  2
0
 70
0
 62
7
  6
CONTINUOUS
370
-3
390
F
  0
LAYER
  5
1FA
100
AcDbSymbolTableRecord
100
AcDbLayerTableRecord
  2
DEFAULT_1
 70
0
 62
7
  6
CENTER
370
-3
390
F
  0
LAYER
  5
1FB
100
AcDbSymbolTableRecord
100
AcDbLayerTableRecord
  2
DEFAULT_2
 70
0
 62
7
  6
HIDDEN
370
-3
390
F
  0
LAYER
  5
1FC
100
AcDbSymbolTableRecord
100
AcDbLayerTableRecord
  2
DEFAULT_3
 70
0
 62
7
  6
PHANTOM
370
-3
390
F
  0
LAYER
  5
1FD
100
AcDbSymbolTableRecord
100
AcDbLayerTableRecord
  2
ASSI
 70
0
 62
7
  6
CONTINUOUS
370
-3
390
F
  0
LAYER
  5
1FE
100
AcDbSymbolTableRecord
100
AcDbLayerTableRecord
  2
COLOR5
 70
0
 62
7
  6
CONTINUOUS
370
-3
390
F
  0
LAYER
  5
1FF
100
AcDbSymbolTableRecord
100
AcDbLayerTableRecord
  2
COORDINATE
 70
0
 62
7
  6
CONTINUOUS
370
-3
390
F
  0
LAYER
  5
200
100
AcDbSymbolTableRecord
100
AcDbLayerTableRecord
  2
COORD_ORIGINE
 70
0
 62
7
  6
CONTINUOUS
370
-3
390
F
  0
LAYER
  5
201
100
AcDbSymbolTableRecord
100
AcDbLayerTableRecord
  2
CURVE
 70
0
 62
7
  6
CONTINUOUS
370
-3
390
F
  0
LAYER
  5
202
100
AcDbSymbolTableRecord
100
AcDbLayerTableRecord
  2
DRAFT
 70
0
 62
7
  6
CONTINUOUS
370
-3
390
F
  0
LAYER
  5
203
100
AcDbSymbolTableRecord
100
AcDbLayerTableRecord
  2
IGS
 70
0
 62
7
  6
CONTINUOUS
370
-3
390
F
  0
LAYER
  5
204
100
AcDbSymbolTableRecord
100
AcDbLayerTableRecord
  2
INTF_1
 70
0
 62
7
  6
CONTINUOUS
370
-3
390
F
  0
LAYER
  5
205
100
AcDbSymbolTableRecord
100
AcDbLayerTableRecord
  2
INTF_7
 70
0
 62
7
  6
CONTINUOUS
370
-3
390
F
  0
LAYER
  5
206
100
AcDbSymbolTableRecord
100
AcDbLayerTableRecord
  2
NOTE
 70
0
 62
7
  6
CONTINUOUS
370
-3
390
F
  0
LAYER
  5
207
100
AcDbSymbolTableRecord
100
AcDbLayerTableRecord
  2
PIANI
 70
0
 62
7
  6
CONTINUOUS
370
-3
390
F
  0
LAYER
  5
208
100
AcDbSymbolTableRecord
100
AcDbLayerTableRecord
  2
PIANI_ORIGINE
 70
0
 62
7
  6
CONTINUOUS
370
-3
390
F
  0
LAYER
  5
209
100
AcDbSymbolTableRecord
100
AcDbLayerTableRecord
  2
PUNTI
 70
0
 62
7
  6
CONTINUOUS
370
-3
390
F
  0
LAYER
  5
20A
100
AcDbSymbolTableRecord
100
AcDbLayerTableRecord
  2
RACCORDO
 70
0
 62
7
  6
CONTINUOUS
370
-3
390
F
  0
LAYER
  5
20B
100
AcDbSymbolTableRecord
100
AcDbLayerTableRecord
  2
RGB__255__255__255__
 70
0
 62
7
  6
CONTINUOUS
370
-3
390
F
  0
LAYER
  5
20C
100
AcDbSymbolTableRecord
100
AcDbLayerTableRecord
  2
RGB____0____0____0__
 70
0
 62
7
  6
CONTINUOUS
370
-3
390
F
  0
LAYER
  5
20D
100
AcDbSymbolTableRecord
100
AcDbLayerTableRecord
  2
SKEL_COPERCHIO
 70
0
 62
7
  6
CONTINUOUS
370
-3
390
F
  0
LAYER
  5
20E
100
AcDbSymbolTableRecord
100
AcDbLayerTableRecord
  2
SMUSSO
 70
0
 62
7
  6
CONTINUOUS
370
-3
390
F
  0
LAYER
  5
20F
100
AcDbSymbolTableRecord
100
AcDbLayerTableRecord
  2
SNAPLINE
 70
0
 62
7
  6
CONTINUOUS
370
-3
390
F
  0
LAYER
  5
210
100
AcDbSymbolTableRecord
100
AcDbLayerTableRecord
  2
SUPERFICI
 70
0
 62
7
  6
CONTINUOUS
370
-3
390
F
  0
LAYER
  5
211
100
AcDbSymbolTableRecord
100
AcDbLayerTableRecord
  2
TESTO
 70
0
 62
7
  6
CONTINUOUS
370
-3
390
F
  0
LAYER
  5
212
100
AcDbSymbolTableRecord
100
AcDbLayerTableRecord
  2
TRASH
 70
0
 62
7
  6
CONTINUOUS
370
-3
390
F
  0
LAYER
  5
213
100
AcDbSymbolTableRecord
100
AcDbLayerTableRecord
  2
XSEC_DATUMS
 70
0
 62
7
  6
CONTINUOUS
370
-3
390
F
  0
ENDTAB
  0
TABLE
  2
STYLE
  5
3
100
AcDbSymbolTable
 70
1
  0
STYLE
  5
11
100
AcDbSymbolTableRecord
100
AcDbTextStyleTableRecord
  2
STANDARD
 70
0
 40
0.0
 41
0.8
 50
0.0
 71
0
 42
0.2
  3
txt
  4

  0
STYLE
  5
214
100
AcDbSymbolTableRecord
100
AcDbTextStyleTableRecord
  2
TEXTSTYLE_1
 70
0
 40
0.0
 41
0.8
 50
0.0
 71
0
 42
0.2
  3
gdt
  4

  0
ENDTAB
  0
TABLE
  2
VIEW
  5
6
100
AcDbSymbolTable
 70
0
  0
ENDTAB
  0
TABLE
  2
UCS
  5
7
100
AcDbSymbolTable
 70
0
  0
ENDTAB
  0
TABLE
  2
APPID
  5
9
100
AcDbSymbolTable
 70
1
  0
APPID
  5
215
100
AcDbSymbolTableRecord
100
AcDbRegAppTableRecord
  2
ACAD
 70
0
  0
ENDTAB
  0
TABLE
  2
BLOCK_RECORD
  5
1
100
AcDbSymbolTable
 70
0
  0
BLOCK_RECORD
  5
216
100
AcDbSymbolTableRecord
100
AcDbBlockTableRecord
  2
*Model_Space
  0
BLOCK_RECORD
  5
217
100
AcDbSymbolTableRecord
100
AcDbBlockTableRecord
  2
*Paper_Space
  0
BLOCK_RECORD
  5
218
100
AcDbSymbolTableRecord
100
AcDbBlockTableRecord
  2
_FILLED
  0
ENDTAB
  0
TABLE
  2
DIMSTYLE
  5
A
100
AcDbSymbolTable
 70
1
100
AcDbDimStyleTable
 71
0
  0
DIMSTYLE
105
219
100
AcDbSymbolTableRecord
100
AcDbDimStyleTableRecord
  2
STANDARD
 70
0
  3

  4

 40
1.0
 41
3.0
 42
0.5
 43
0.38
 44
1.5
 45
0.0
 46
0.0
 47
0.01
 48
0.01
140
3.0
141
0.09
142
0.0
143
25.4
144
1.0
145
0.0
146
1.0
147
0.625
 71
1.0
 72
0.0
 73
0
 74
0
 75
0
 76
0
 77
1
 78
8
 79
2
170
0
171
1
172
0
173
0
174
0
175
0
176
0
177
0
178
0
270
2
179
2
271
2
272
2
273
2
274
2
275
0
280
0
281
0
282
0
283
1
284
8
285
0
286
0
287
3
288
0
340
11
278
44
341
218
342
218
343
218
344
218
  0
ENDTAB
  0
ENDSEC
  0
SECTION
  2
BLOCKS
  0
BLOCK
  5
20
100
AcDbEntity
  8
0
100
AcDbBlockBegin
  2
*Model_Space
 70
0
 10
0.0
 20
0.0
 30
0.0
  3
*Model_Space
  1

  0
ENDBLK
  5
21
100
AcDbEntity
  8
0
100
AcDbBlockEnd
  0
BLOCK
  5
1C
100
AcDbEntity
  8
0
100
AcDbBlockBegin
  2
*Paper_Space
 70
0
 10
0.0
 20
0.0
 30
0.0
  3
*Paper_Space
  1

  0
ENDBLK
  5
1D
100
AcDbEntity
  8
0
100
AcDbBlockEnd
  0
BLOCK
  5
21A
100
AcDbEntity
  8
0
100
AcDbBlockBegin
  2
_FILLED
 70
64
 10
0.0
 20
0.0
  3
_FILLED
  1

  0
SOLID
  5
21B
100
AcDbEntity
  8
0
  6
BYBLOCK
 62
0
100
AcDbTrace
 10
0.0
 20
0.0
 11
-1.0
 21
0.3166666667
 12
-1.0
 22
-0.3166666667
 13
-1.0
 23
-0.3166666667
  0
ENDBLK
  5
21C
100
AcDbEntity
  8
0
  6
BYBLOCK
 62
0
100
AcDbBlockEnd
  0
ENDSEC
  0
SECTION
  2
ENTITIES
  0
LWPOLYLINE
  5
21D
100
AcDbEntity
  8
RACCORDO
100
AcDbPolyline
 62
7
  6
CONTINUOUS
 90
3
 70
0
 10
-37.5776938682
 20
46.0750122157
 10
-37.6606960686
 20
45.9701882493
 10
-37.7317275048
 20
45.8407426564
  0
LINE
  5
21E
100
AcDbEntity
  8
RACCORDO
100
AcDbLine
 62
7
  6
CONTINUOUS
 10
-37.5335109665
 20
46.1167446844
 11
-37.5776938682
 21
46.0750122157
  0
LINE
  5
21F
100
AcDbEntity
  8
DRAFT
100
AcDbLine
 62
7
  6
CONTINUOUS
 10
-33.0188215168
 20
49.8236650892
 11
-37.5250439591
 21
46.1238551988
  0
LINE
  5
220
100
AcDbEntity
  8
0
100
AcDbLine
 62
7
  6
CONTINUOUS
 10
-37.6605929561
 20
45.8687668596
 11
-40.867453512
 21
43.2357911124
  0
LINE
  5
221
100
AcDbEntity
  8
SKEL_COPERCHIO
100
AcDbLine
 62
7
  6
CONTINUOUS
 10
-37.4630659106
 20
46.0309453862
 11
-41.2416574047
 21
42.9285530031
  0
LINE
  5
222
100
AcDbEntity
  8
RACCORDO
100
AcDbLine
 62
7
  6
CONTINUOUS
 10
-40.8656549693
 20
43.2372660903
 11
-40.8674530542
 21
43.2357914883
  0
LINE
  5
223
100
AcDbEntity
  8
0
100
AcDbLine
 62
7
  6
CONTINUOUS
 10
-36.3800413803
 20
45.8804150143
 11
-36.5988452616
 21
45.7036989012
  0
LINE
  5
224
100
AcDbEntity
  8
DRAFT
100
AcDbLine
 62
250
  6
CONTINUOUS
 10
-30.5383484745
 20
50.2622754178
 11
-35.7332259893
 21
46.0681752115
  0
LINE
  5
225
100
AcDbEntity
  8
0
100
AcDbLine
 62
250
  6
CONTINUOUS
 10
-38.6972895133
 20
43.5702155958
 11
-36.1778139986
 21
45.6043218371
  0
LINE
  5
226
100
AcDbEntity
  8
SKEL_COPERCHIO
100
AcDbLine
 62
250
  6
CONTINUOUS
 10
-39.0843741855
 20
43.2577016051
 11
-36.1652961091
 21
45.6144281934
  0
LINE
  5
227
100
AcDbEntity
  8
RACCORDO
100
AcDbLine
 62
7
  6
CONTINUOUS
 10
-37.7317275048
 20
45.8407426564
 11
-37.7484934602
 21
45.7965966197
  0
LINE
  5
228
100
AcDbEntity
  8
SKEL_COPERCHIO
100
AcDbLine
 62
7
  6
CONTINUOUS
 10
12.6985058394
 20
-46.4476950208
 11
-23.4429615335
 21
-36.8557205018
  0
LINE
  5
229
100
AcDbEntity
  8
RACCORDO
100
AcDbLine
 62
250
  6
CONTINUOUS
 10
-23.4972227862
 20
-36.109825206
 11
12.6459532861
 21
-45.7022532152
  0
LINE
  5
22A
100
AcDbEntity
  8
0
100
AcDbLine
 62
7
  6
CONTINUOUS
 10
11.6668943337
 20
-37.7295601012
 11
12.1660095434
 21
-37.8620187112
  0
LINE
  5
22B
100
AcDbEntity
  8
0
100
AcDbLine
 62
7
  6
CONTINUOUS
 10
9.8640460748
 20
-37.2510827228
 11
10.3631483768
 21
-37.383537907
  0
LINE
  5
22C
100
AcDbEntity
  8
0
100
AcDbLine
 62
7
  6
CONTINUOUS
 10
7.8948293296
 20
-36.7284571115
 11
8.3939445613
 21
-36.8609165983
  0
LINE
  5
22D
100
AcDbEntity
  8
0
100
AcDbLine
 62
7
  6
CONTINUOUS
 10
6.2617048435
 20
-36.295024559
 11
6.7608390063
 21
-36.4274890701
  0
LINE
  5
22E
100
AcDbEntity
  8
0
100
AcDbLine
 62
7
  6
CONTINUOUS
 10
8.893047039
 20
-36.9933787975
 11
9.3921624245
 21
-37.1258444223
  0
LINE
  5
22F
100
AcDbEntity
  8
0
100
AcDbLine
 62
7
  6
CONTINUOUS
 10
10.8350382264
 20
-37.5087848211
 11
11.3341527513
 21
-37.6412502176
  0
LINE
  5
230
100
AcDbEntity
  8
0
100
AcDbLine
 62
7
  6
CONTINUOUS
 10
5.4134885812
 20
-33.5263143504
 11
5.9126099902
 21
-33.6587815739
  0
LINE
  5
231
100
AcDbEntity
  8
0
100
AcDbLine
 62
7
  6
CONTINUOUS
 10
7.0160064076
 20
-33.9516238708
 11
7.5151278166
 21
-34.0840910943
  0
LINE
  5
232
100
AcDbEntity
  8
0
100
AcDbLine
 62
7
  6
CONTINUOUS
 10
7.847869399
 20
-34.172400978
 11
8.3469839239
 21
-34.3048663745
  0
LINE
  5
233
100
AcDbEntity
  8
0
100
AcDbLine
 62
7
  6
CONTINUOUS
 10
8.8460803781
 20
-34.437326975
 11
9.600608374
 21
-34.6375793122
  0
LINE
  5
234
100
AcDbEntity
  8
0
100
AcDbLine
 62
7
  6
CONTINUOUS
 10
10.532658955
 20
-34.8849462863
 11
11.2871860904
 21
-35.0851983951
  0
LINE
  5
235
100
AcDbEntity
  8
0
100
AcDbLine
 62
7
  6
CONTINUOUS
 10
5.5153731223
 20
-33.447179039
 11
6.0144945313
 21
-33.5796462625
  0
LINE
  5
236
100
AcDbEntity
  8
0
100
AcDbLine
 62
7
  6
CONTINUOUS
 10
7.1178909486
 20
-33.8724885594
 11
7.6170123576
 21
-34.004955783
  0
LINE
  5
237
100
AcDbEntity
  8
0
100
AcDbLine
 62
7
  6
CONTINUOUS
 10
7.9497539401
 20
-34.0932656666
 11
8.448868465
 21
-34.2257310631
  0
LINE
  5
238
100
AcDbEntity
  8
0
100
AcDbLine
 62
7
  6
CONTINUOUS
 10
8.9479649192
 20
-34.3581916636
 11
9.7024929151
 21
-34.5584440008
  0
LINE
  5
239
100
AcDbEntity
  8
0
100
AcDbLine
 62
7
  6
CONTINUOUS
 10
10.6345434961
 20
-34.8058109749
 11
11.3890706315
 21
-35.0060630837
  0
LINE
  5
23A
100
AcDbEntity
  8
0
100
AcDbLine
 62
7
  6
CONTINUOUS
 10
12.9003842891
 20
-36.9724713689
 11
12.5553491383
 21
-36.8800598011
  0
LINE
  5
23B
100
AcDbEntity
  8
RACCORDO
100
AcDbLine
 62
250
  6
CONTINUOUS
 10
-28.9019014223
 20
20.9232376395
 11
-28.7756037049
 21
1.1735503447
  0
LINE
  5
23C
100
AcDbEntity
  8
RACCORDO
100
AcDbLine
 62
7
  6
CONTINUOUS
 10
-27.3695727178
 20
20.0848098022
 11
-27.1187560549
 21
-19.4111361643
  0
LINE
  5
23D
100
AcDbEntity
  8
RACCORDO
100
AcDbLine
 62
250
  6
CONTINUOUS
 10
-26.8789932025
 20
19.6955009441
 11
-26.6281765392
 21
-19.8004450789
  0
LINE
  5
23E
100
AcDbEntity
  8
RACCORDO
100
AcDbLine
 62
250
  6
CONTINUOUS
 10
-28.7756037049
 20
1.1735503447
 11
-28.6542922892
 21
-18.5691210403
  0
LINE
  5
23F
100
AcDbEntity
  8
RACCORDO
100
AcDbLine
 62
250
  6
CONTINUOUS
 10
-23.8957626239
 20
-24.5788850888
 11
12.1897263918
 21
-34.1560029068
  0
LINE
  5
240
100
AcDbEntity
  8
RACCORDO
100
AcDbLine
 62
7
  6
CONTINUOUS
 10
-25.699131001
 20
-21.2440325618
 11
12.5075630239
 21
-31.3841198959
  0
LINE
  5
241
100
AcDbEntity
  8
RACCORDO
100
AcDbLine
 62
250
  6
CONTINUOUS
 10
-25.9520111281
 20
-20.6731528612
 11
12.2546829515
 21
-30.8132402098
  0
LINE
  5
242
100
AcDbEntity
  8
RACCORDO
100
AcDbLine
 62
250
  6
CONTINUOUS
 10
-25.2723357439
 20
-22.9333565746
 11
12.9343583357
 21
-33.0734439232
  0
LINE
  5
243
100
AcDbEntity
  8
SKEL_COPERCHIO
100
AcDbLine
 62
250
  6
CONTINUOUS
 10
-42.0122798732
 20
6.3870578282
 11
-41.9437732025
 21
6.3515940725
  0
LINE
  5
244
100
AcDbEntity
  8
SKEL_COPERCHIO
100
AcDbLine
 62
250
  6
CONTINUOUS
 10
-42.0151997936
 20
6.3859112199
 11
-41.94775466
 21
6.350023732
  0
LINE
  5
245
100
AcDbEntity
  8
0
100
AcDbLine
 62
7
  6
CONTINUOUS
 10
33.1025560998
 20
27.2048909004
 11
33.3213599811
 21
27.3816070135
  0
LINE
  5
246
100
AcDbEntity
  8
DRAFT
100
AcDbLine
 62
250
  6
CONTINUOUS
 10
33.1076642442
 20
27.7977475563
 11
38.302541759
 21
31.9918477626
  0
LINE
  5
247
100
AcDbEntity
  8
0
100
AcDbLine
 62
250
  6
CONTINUOUS
 10
30.1263904977
 20
25.3043555476
 11
32.6458660123
 21
27.3384617889
  0
LINE
  5
248
100
AcDbEntity
  8
SKEL_COPERCHIO
100
AcDbLine
 62
250
  6
CONTINUOUS
 10
29.7393058255
 20
24.9918415569
 11
32.6458660123
 21
27.3384617889
  0
LINE
  5
249
100
AcDbEntity
  8
0
100
AcDbLine
 62
7
  6
CONTINUOUS
 10
15.699573493
 20
-37.7741940155
 11
15.6594319826
 21
-37.6878433932
  0
LINE
  5
24A
100
AcDbEntity
  8
SKEL_COPERCHIO
100
AcDbLine
 62
250
  6
CONTINUOUS
 10
32.9275456211
 20
21.0023739022
 11
37.3792929692
 21
24.3272397726
  0
LINE
  5
24B
100
AcDbEntity
  8
ASSI
100
AcDbLine
 62
250
  6
CONTINUOUS
 10
33.3174976214
 20
21.2936162513
 11
37.3338613364
 21
24.2933084541
  0
LINE
  5
24C
100
AcDbEntity
  8
RACCORDO
100
AcDbLine
 62
250
  6
CONTINUOUS
 10
37.6615752871
 20
24.4537879584
 11
41.7671823665
 21
27.5201330445
  0
LINE
  5
24D
100
AcDbEntity
  8
SKEL_COPERCHIO
100
AcDbLine
 62
250
  6
CONTINUOUS
 10
12.2699813761
 20
-37.7835147057
 11
12.2722628908
 21
-37.8594975346
  0
LINE
  5
24E
100
AcDbEntity
  8
RACCORDO
100
AcDbLine
 62
250
  6
CONTINUOUS
 10
12.9220285743
 20
-30.2971013369
 11
12.6712119111
 21
9.1988446861
  0
LINE
  5
24F
100
AcDbEntity
  8
RACCORDO
100
AcDbLine
 62
250
  6
CONTINUOUS
 10
11.9950464999
 20
10.0715524684
 11
-26.2116475797
 21
20.211639817
  0
LINE
  5
250
100
AcDbEntity
  8
0
100
AcDbLine
 62
7
  6
CONTINUOUS
 10
14.6946662067
 20
-38.4348860972
 11
14.691916408
 21
-38.323268125
  0
LINE
  5
251
100
AcDbEntity
  8
RACCORDO
100
AcDbLine
 62
250
  6
CONTINUOUS
 10
16.2792649023
 20
-30.494523271
 11
16.1430990046
 21
-10.7479094946
  0
LINE
  5
252
100
AcDbEntity
  8
RACCORDO
100
AcDbLine
 62
250
  6
CONTINUOUS
 10
14.282918702
 20
-30.136692933
 11
14.0321020388
 21
9.35925309
  0
LINE
  5
253
100
AcDbEntity
  8
0
100
AcDbLine
 62
7
  6
CONTINUOUS
 10
14.9089039542
 20
9.4480079461
 11
15.1597206175
 21
-30.0479380769
  0
LINE
  5
254
100
AcDbEntity
  8
RACCORDO
100
AcDbLine
 62
250
  6
CONTINUOUS
 10
16.1430990046
 20
-10.7479094946
 11
16.0199897366
 21
9.0009315832
  0
LINE
  5
255
100
AcDbEntity
  8
RACCORDO
100
AcDbLine
 62
250
  6
CONTINUOUS
 10
12.6404848766
 20
13.3633637793
 11
-6.4672110129
 21
18.4317365206
  0
LINE
  5
256
100
AcDbEntity
  8
RACCORDO
100
AcDbLine
 62
250
  6
CONTINUOUS
 10
12.4899083961
 20
11.3497192859
 11
-25.7167856835
 21
21.4898066345
  0
LINE
  5
257
100
AcDbEntity
  8
0
100
AcDbLine
 62
7
  6
CONTINUOUS
 10
-25.4126589841
 20
22.3170713783
 11
12.7940350955
 21
12.1769840298
  0
LINE
  5
258
100
AcDbEntity
  8
RACCORDO
100
AcDbLine
 62
250
  6
CONTINUOUS
 10
-6.4672110129
 20
18.4317365206
 11
-25.566209203
 21
23.5034511279
  0
LINE
  5
259
100
AcDbEntity
  8
0
100
AcDbLine
 62
7
  6
CONTINUOUS
 10
12.2679416443
 20
-37.7828464593
 11
12.3823694145
 21
-37.4221320228
  0
LINE
  5
25A
100
AcDbEntity
  8
0
100
AcDbLine
 62
7
  6
CONTINUOUS
 10
12.7081881307
 20
-36.4042558961
 11
12.7179918531
 21
-36.373840435
  0
LINE
  5
25B
100
AcDbEntity
  8
0
100
AcDbLine
 62
7
  6
CONTINUOUS
 10
12.7081881307
 20
-36.4042558961
 11
12.7179960648
 21
-36.3738370757
  0
LINE
  5
25C
100
AcDbEntity
  8
0
100
AcDbLine
 62
7
  6
CONTINUOUS
 10
5.4134885812
 20
-33.5263143504
 11
5.5153731223
 21
-33.447179039
  0
LINE
  5
25D
100
AcDbEntity
  8
0
100
AcDbLine
 62
7
  6
CONTINUOUS
 10
5.9126099902
 20
-33.6587815739
 11
6.0144945313
 21
-33.5796462625
  0
LINE
  5
25E
100
AcDbEntity
  8
0
100
AcDbLine
 62
7
  6
CONTINUOUS
 10
7.0160064076
 20
-33.9516238708
 11
7.1178909486
 21
-33.8724885594
  0
LINE
  5
25F
100
AcDbEntity
  8
RACCORDO
100
AcDbLine
 62
250
  6
CONTINUOUS
 10
28.7259532799
 20
25.5847485204
 11
28.6767221047
 21
25.5949065525
  0
LINE
  5
260
100
AcDbEntity
  8
RACCORDO
100
AcDbLine
 62
250
  6
CONTINUOUS
 10
28.72576259
 20
25.5845574776
 11
28.6767221047
 21
25.5949065525
  0
LINE
  5
261
100
AcDbEntity
  8
RACCORDO
100
AcDbLine
 62
250
  6
CONTINUOUS
 10
-24.0608445146
 20
38.3536393404
 11
-24.3601828368
 21
38.4327661294
  0
LINE
  5
262
100
AcDbEntity
  8
RACCORDO
100
AcDbLine
 62
250
  6
CONTINUOUS
 10
-18.5682123772
 20
36.9013278792
 11
-23.2491393815
 21
38.1390949929
  0
LINE
  5
263
100
AcDbEntity
  8
RACCORDO
100
AcDbLine
 62
250
  6
CONTINUOUS
 10
18.718047333
 20
26.9966197272
 11
18.4632310979
 21
27.064238676
  0
LINE
  5
264
100
AcDbEntity
  8
RACCORDO
100
AcDbLine
 62
250
  6
CONTINUOUS
 10
4.718904438
 20
30.7230087189
 11
3.8578997889
 21
30.9518118172
  0
LINE
  5
265
100
AcDbEntity
  8
RACCORDO
100
AcDbLine
 62
250
  6
CONTINUOUS
 10
17.4561168477
 20
27.3319423336
 11
17.1647929873
 21
27.4094276013
  0
LINE
  5
266
100
AcDbEntity
  8
SKEL_COPERCHIO
100
AcDbLine
 62
7
  6
CONTINUOUS
 10
32.9856259675
 20
-29.7525132903
 11
32.9854476131
 21
-29.7259449647
  0
LINE
  5
267
100
AcDbEntity
  8
SKEL_COPERCHIO
100
AcDbLine
 62
7
  6
CONTINUOUS
 10
32.9856235067
 20
-29.7525151308
 11
32.9854476131
 21
-29.7259449647
  0
LINE
  5
268
100
AcDbEntity
  8
RACCORDO
100
AcDbLine
 62
250
  6
CONTINUOUS
 10
32.2830467284
 20
-29.7610641561
 11
32.2819324303
 21
-29.5763831949
  0
LINE
  5
269
100
AcDbEntity
  8
SKEL_COPERCHIO
100
AcDbLine
 62
7
  6
CONTINUOUS
 10
32.8346210142
 20
10.1894610092
 11
32.8345151654
 21
10.2317876485
  0
LINE
  5
26A
100
AcDbEntity
  8
0
100
AcDbLine
 62
7
  6
CONTINUOUS
 10
7.5151278166
 20
-34.0840910943
 11
7.6170123576
 21
-34.004955783
  0
LINE
  5
26B
100
AcDbEntity
  8
0
100
AcDbLine
 62
7
  6
CONTINUOUS
 10
7.847869399
 20
-34.172400978
 11
7.9497539401
 21
-34.0932656666
  0
LINE
  5
26C
100
AcDbEntity
  8
0
100
AcDbLine
 62
7
  6
CONTINUOUS
 10
8.3469839239
 20
-34.3048663745
 11
8.448868465
 21
-34.2257310631
  0
LINE
  5
26D
100
AcDbEntity
  8
0
100
AcDbLine
 62
7
  6
CONTINUOUS
 10
8.8460803781
 20
-34.437326975
 11
8.9479649192
 21
-34.3581916636
  0
LINE
  5
26E
100
AcDbEntity
  8
0
100
AcDbLine
 62
7
  6
CONTINUOUS
 10
6.7608390063
 20
-36.4274890701
 11
6.8627714442
 21
-36.3483165565
  0
LINE
  5
26F
100
AcDbEntity
  8
0
100
AcDbLine
 62
7
  6
CONTINUOUS
 10
9.600608374
 20
-34.6375793122
 11
9.7024929151
 21
-34.5584440008
  0
LINE
  5
270
100
AcDbEntity
  8
0
100
AcDbLine
 62
7
  6
CONTINUOUS
 10
10.532658955
 20
-34.8849462863
 11
10.6345434961
 21
-34.8058109749
  0
LINE
  5
271
100
AcDbEntity
  8
0
100
AcDbLine
 62
7
  6
CONTINUOUS
 10
8.3939445613
 20
-36.8609165983
 11
8.4958769991
 21
-36.7817440848
  0
LINE
  5
272
100
AcDbEntity
  8
0
100
AcDbLine
 62
7
  6
CONTINUOUS
 10
11.2871860904
 20
-35.0851983951
 11
11.3890706315
 21
-35.0060630837
  0
LINE
  5
273
100
AcDbEntity
  8
0
100
AcDbLine
 62
7
  6
CONTINUOUS
 10
9.3921624245
 20
-37.1258444223
 11
9.4940948623
 21
-37.0466719088
  0
LINE
  5
274
100
AcDbEntity
  8
0
100
AcDbLine
 62
7
  6
CONTINUOUS
 10
12.4209919856
 20
-35.3862917891
 11
12.522876542
 21
-35.3071564658
  0
LINE
  5
275
100
AcDbEntity
  8
SKEL_COPERCHIO
100
AcDbLine
 62
7
  6
CONTINUOUS
 10
-19.9585938247
 20
37.9666529316
 11
-22.9291342244
 21
38.752815708
  0
LINE
  5
276
100
AcDbEntity
  8
SKEL_COPERCHIO
100
AcDbLine
 62
7
  6
CONTINUOUS
 10
17.5523960275
 20
28.0070627716
 11
17.2015786986
 21
28.1001297803
  0
LINE
  5
277
100
AcDbEntity
  8
RACCORDO
100
AcDbLine
 62
250
  6
CONTINUOUS
 10
4.9831779051
 20
31.718064688
 11
4.1198125649
 21
31.9472885909
  0
LINE
  5
278
100
AcDbEntity
  8
RACCORDO
100
AcDbLine
 62
250
  6
CONTINUOUS
 10
3.2629257941
 20
32.1747610863
 11
2.3989085459
 21
32.4040786473
  0
LINE
  5
279
100
AcDbEntity
  8
0
100
AcDbLine
 62
7
  6
CONTINUOUS
 10
32.6458660123
 20
27.3384617889
 11
-36.1778139986
 21
45.6043218371
  0
LINE
  5
27A
100
AcDbEntity
  8
DRAFT
100
AcDbLine
 62
7
  6
CONTINUOUS
 10
-35.7332259893
 20
46.0681752115
 11
33.1076642442
 21
27.7977475563
  0
LINE
  5
27B
100
AcDbEntity
  8
SKEL_COPERCHIO
100
AcDbLine
 62
7
  6
CONTINUOUS
 10
4.8917298392
 20
31.3737732725
 11
3.1715621273
 21
31.8306225717
  0
LINE
  5
27C
100
AcDbEntity
  8
SKEL_COPERCHIO
100
AcDbLine
 62
7
  6
CONTINUOUS
 10
15.4806993682
 20
28.5573066713
 11
15.351084343
 21
28.5917599336
  0
LINE
  5
27D
100
AcDbEntity
  8
ASSI
100
AcDbLine
 62
7
  6
CONTINUOUS
 10
37.8141548326
 20
-44.1501909672
 11
37.3848855029
 21
23.4465869221
  0
LINE
  5
27E
100
AcDbEntity
  8
SKEL_COPERCHIO
100
AcDbLine
 62
7
  6
CONTINUOUS
 10
37.8141548326
 20
-44.1501909672
 11
37.3792929692
 21
24.3272397726
  0
LINE
  5
27F
100
AcDbEntity
  8
0
100
AcDbLine
 62
7
  6
CONTINUOUS
 10
10.3631483768
 20
-37.383537907
 11
10.4650808144
 21
-37.3043653936
  0
LINE
  5
280
100
AcDbEntity
  8
0
100
AcDbLine
 62
7
  6
CONTINUOUS
 10
12.9191543055
 20
-35.5195236807
 11
13.0210389869
 21
-35.4403882603
  0
LINE
  5
281
100
AcDbEntity
  8
0
100
AcDbLine
 62
7
  6
CONTINUOUS
 10
11.3341527513
 20
-37.6412502176
 11
11.4360851892
 21
-37.562077704
  0
LINE
  5
282
100
AcDbEntity
  8
0
100
AcDbLine
 62
7
  6
CONTINUOUS
 10
12.4534409612
 20
-36.959213471
 11
12.5553491383
 21
-36.8800598011
  0
LINE
  5
283
100
AcDbEntity
  8
0
100
AcDbLine
 62
7
  6
CONTINUOUS
 10
14.0500343762
 20
-35.8229084202
 11
14.1519169673
 21
-35.7437746234
  0
LINE
  5
284
100
AcDbEntity
  8
0
100
AcDbLine
 62
7
  6
CONTINUOUS
 10
12.1660095434
 20
-37.8620187112
 11
12.267941981
 21
-37.7828461978
  0
LINE
  5
285
100
AcDbEntity
  8
0
100
AcDbLine
 62
7
  6
CONTINUOUS
 10
15.2186988012
 20
-36.133170687
 11
15.3205808521
 21
-36.0540373098
  0
LINE
  5
286
100
AcDbEntity
  8
0
100
AcDbLine
 62
7
  6
CONTINUOUS
 10
14.5556674266
 20
-37.0536395319
 11
14.6575627953
 21
-36.9744958106
  0
LINE
  5
287
100
AcDbEntity
  8
0
100
AcDbLine
 62
7
  6
CONTINUOUS
 10
13.7637376589
 20
-38.2910619034
 11
13.8656729518
 21
-38.2118871724
  0
LINE
  5
288
100
AcDbEntity
  8
0
100
AcDbLine
 62
7
  6
CONTINUOUS
 10
15.1628847317
 20
-37.2148212811
 11
15.2647786607
 21
-37.1356786779
  0
LINE
  5
289
100
AcDbEntity
  8
0
100
AcDbLine
 62
7
  6
CONTINUOUS
 10
14.5927332935
 20
-38.5140589799
 11
14.6946662067
 21
-38.4348860972
  0
LINE
  5
28A
100
AcDbEntity
  8
RACCORDO
100
AcDbLine
 62
250
  6
CONTINUOUS
 10
34.2334009492
 20
27.294442798
 11
34.2396355205
 21
27.2922026384
  0
LINE
  5
28B
100
AcDbEntity
  8
DRAFT
100
AcDbLine
 62
7
  6
CONTINUOUS
 10
42.2021572104
 20
-40.975088662
 11
41.7671823665
 21
27.5201330445
  0
LINE
  5
28C
100
AcDbEntity
  8
0
100
AcDbLine
 62
7
  6
CONTINUOUS
 10
16.0932070063
 20
-38.9097279131
 11
16.1951402985
 21
-38.8305547359
  0
LINE
  5
28D
100
AcDbEntity
  8
DRAFT
100
AcDbLine
 62
7
  6
CONTINUOUS
 10
38.302541759
 20
31.9918477626
 11
-30.5383484745
 21
50.2622754178
  0
LINE
  5
28E
100
AcDbEntity
  8
RACCORDO
100
AcDbLine
 62
7
  6
CONTINUOUS
 10
36.6075434752
 20
-46.4657440383
 11
36.7371376286
 21
-46.4184652283
  0
LINE
  5
28F
100
AcDbEntity
  8
RACCORDO
100
AcDbLine
 62
250
  6
CONTINUOUS
 10
37.8141548326
 20
-44.1501909672
 11
33.4909657199
 21
-47.3790410339
  0
LINE
  5
290
100
AcDbEntity
  8
SKEL_COPERCHIO
100
AcDbLine
 62
250
  6
CONTINUOUS
 10
37.8141548326
 20
-44.1501909672
 11
33.1036392983
 21
-47.668322492
  0
LINE
  5
291
100
AcDbEntity
  8
RACCORDO
100
AcDbLine
 62
250
  6
CONTINUOUS
 10
42.2021572104
 20
-40.975088662
 11
38.2718937365
 21
-43.9104752826
  0
LINE
  5
292
100
AcDbEntity
  8
RACCORDO
100
AcDbLine
 62
7
  6
CONTINUOUS
 10
37.2624082667
 20
-46.1228099403
 11
37.2614833408
 21
-46.1234893921
  0
LINE
  5
293
100
AcDbEntity
  8
RACCORDO
100
AcDbLine
 62
7
  6
CONTINUOUS
 10
32.4659898842
 20
-49.5065226636
 11
32.466126723
 21
-49.5064221886
  0
LINE
  5
294
100
AcDbEntity
  8
0
100
AcDbLine
 62
7
  6
CONTINUOUS
 10
36.8376633494
 20
-46.2967872498
 11
32.465947207
 21
-49.5065539978
  0
LINE
  5
295
100
AcDbEntity
  8
SKEL_COPERCHIO
100
AcDbLine
 62
7
  6
CONTINUOUS
 10
36.8376633494
 20
-46.2967872498
 11
32.0413092681
 21
-49.8183282968
  0
LINE
  5
296
100
AcDbEntity
  8
DRAFT
100
AcDbLine
 62
7
  6
CONTINUOUS
 10
41.1633364835
 20
-43.2587017286
 11
37.2614833353
 21
-46.1234893961
  0
LINE
  5
297
100
AcDbEntity
  8
RACCORDO
100
AcDbLine
 62
7
  6
CONTINUOUS
 10
37.1253758424
 20
-46.2166195126
 11
37.2624013761
 21
-46.1228147744
  0
LINE
  5
298
100
AcDbEntity
  8
RACCORDO
100
AcDbLine
 62
7
  6
CONTINUOUS
 10
36.9364863457
 20
-46.3255620527
 11
37.1253758424
 21
-46.2166195126
  0
LINE
  5
299
100
AcDbEntity
  8
RACCORDO
100
AcDbLine
 62
7
  6
CONTINUOUS
 10
36.7371376286
 20
-46.4184652283
 11
36.9364863457
 21
-46.3255620527
  0
ARC
  5
29A
100
AcDbEntity
  8
0
100
AcDbCircle
 62
7
  6
CONTINUOUS
 10
-58.7381197546
 20
-304.0419687302
 40
275.9424925503
100
AcDbArc
 50
74.9103732747
 51
75.079395421
  0
ARC
  5
29B
100
AcDbEntity
  8
0
100
AcDbCircle
 62
7
  6
CONTINUOUS
 10
82.8527177422
 20
220.9799236394
 40
265.8599326567
100
AcDbArc
 50
255.0015462908
 51
255.2621314191
  0
ARC
  5
29C
100
AcDbEntity
  8
0
100
AcDbCircle
 62
7
  6
CONTINUOUS
 10
82.8560482713
 20
220.6873766843
 40
265.4754094436
100
AcDbArc
 50
255.0013318276
 51
255.2622943071
  0
ARC
  5
29D
100
AcDbEntity
  8
0
100
AcDbCircle
 62
7
  6
CONTINUOUS
 10
70.8140842245
 20
174.71536387
 40
218.5137485688
100
AcDbArc
 50
255.0782065302
 51
255.2429966304
  0
ARC
  5
29E
100
AcDbEntity
  8
0
100
AcDbCircle
 62
7
  6
CONTINUOUS
 10
70.0047936667
 20
169.7869408482
 40
214.5987680249
100
AcDbArc
 50
255.0299743702
 51
255.1502342477
  0
ARC
  5
29F
100
AcDbEntity
  8
0
100
AcDbCircle
 62
7
  6
CONTINUOUS
 10
68.2764587224
 20
164.1034274665
 40
208.2068419165
100
AcDbArc
 50
255.0476018979
 51
255.2204868479
  0
ARC
  5
2A0
100
AcDbEntity
  8
0
100
AcDbCircle
 62
7
  6
CONTINUOUS
 10
68.2885988485
 20
163.8425698466
 40
207.855194516
100
AcDbArc
 50
255.0473235541
 51
255.2205006849
  0
ARC
  5
2A1
100
AcDbEntity
  8
0
100
AcDbCircle
 62
7
  6
CONTINUOUS
 10
55.3974633599
 20
112.9700673259
 40
156.8830671849
100
AcDbArc
 50
255.2778690851
 51
255.4909940969
  0
ARC
  5
2A2
100
AcDbEntity
  8
RACCORDO
100
AcDbCircle
 62
250
  6
CONTINUOUS
 10
-20.5601700692
 20
-157.3499358923
 40
127.4727312744
100
AcDbArc
 50
74.6170030468
 51
75.1129927604
  0
ARC
  5
2A3
100
AcDbEntity
  8
RACCORDO
100
AcDbCircle
 62
250
  6
CONTINUOUS
 10
-56.4127141814
 20
-147.2991525464
 40
126.9551593433
100
AcDbArc
 50
75.1594830875
 51
75.6566347715
  0
ARC
  5
2A4
100
AcDbEntity
  8
RACCORDO
100
AcDbCircle
 62
250
  6
CONTINUOUS
 10
45.700098065
 20
106.0856422747
 40
82.2712213729
100
AcDbArc
 50
257.3100018439
 51
258.0582146435
  0
ARC
  5
2A5
100
AcDbEntity
  8
RACCORDO
100
AcDbCircle
 62
250
  6
CONTINUOUS
 10
42.5027071234
 20
90.809794014
 40
66.6643509074
100
AcDbArc
 50
258.0732299832
 51
259.3008989667
  0
ARC
  5
2A6
100
AcDbEntity
  8
SKEL_COPERCHIO
100
AcDbCircle
 62
250
  6
CONTINUOUS
 10
-22.8589460383
 20
42.3067419252
 40
40.709558294
100
AcDbArc
 50
241.6966258743
 51
241.9294039284
  0
ARC
  5
2A7
100
AcDbEntity
  8
0
100
AcDbCircle
 62
7
  6
CONTINUOUS
 10
30.2126882839
 20
15.4652146202
 40
12.3085328249
100
AcDbArc
 50
70.6598351467
 51
71.4395199955
  0
ARC
  5
2A8
100
AcDbEntity
  8
RACCORDO
100
AcDbCircle
 62
7
  6
CONTINUOUS
 10
30.7015682063
 20
17.4508650901
 40
10.4580038662
100
AcDbArc
 50
69.2099692946
 51
70.225939897
  0
ARC
  5
2A9
100
AcDbEntity
  8
RACCORDO
100
AcDbCircle
 62
250
  6
CONTINUOUS
 10
32.1080561409
 20
18.7209284803
 40
8.833019773
100
AcDbArc
 50
74.6747075897
 51
76.0772408359
  0
ARC
  5
2AA
100
AcDbEntity
  8
RACCORDO
100
AcDbCircle
 62
250
  6
CONTINUOUS
 10
13.1037035062
 20
-30.6828057502
 40
4.9677268645
100
AcDbArc
 50
354.7548555755
 51
0.5650241678
  0
ARC
  5
2AB
100
AcDbEntity
  8
RACCORDO
100
AcDbCircle
 62
250
  6
CONTINUOUS
 10
13.3564766965
 20
-30.7054851834
 40
4.713938855
100
AcDbArc
 50
351.5504699883
 51
354.748494407
  0
ARC
  5
2AC
100
AcDbEntity
  8
0
100
AcDbCircle
 62
7
  6
CONTINUOUS
 10
35.2234374162
 20
24.0399038759
 40
2.1255916033
100
AcDbArc
 50
7.5489058712
 51
11.9144902488
  0
ARC
  5
2AD
100
AcDbEntity
  8
0
100
AcDbCircle
 62
7
  6
CONTINUOUS
 10
35.2630820107
 20
24.0456065237
 40
2.0855414819
100
AcDbArc
 50
6.8211787155
 51
7.536679969
  0
ARC
  5
2AE
100
AcDbEntity
  8
RACCORDO
100
AcDbCircle
 62
250
  6
CONTINUOUS
 10
-38.9297292456
 20
-31.4115230372
 40
0.3515376292
100
AcDbArc
 50
247.0314062543
 51
248.2989319509
  0
ARC
  5
2AF
100
AcDbEntity
  8
0
100
AcDbCircle
 62
7
  6
CONTINUOUS
 10
15.344547505
 20
-36.834038405
 40
0.3120112253
100
AcDbArc
 50
255.1872918697
 51
261.9077420876
  0
ARC
  5
2B0
100
AcDbEntity
  8
0
100
AcDbCircle
 62
7
  6
CONTINUOUS
 10
209.2803593583
 20
27.1278864575
 40
212.258004545
100
AcDbArc
 50
196.6414176622
 51
197.180068319
  0
ARC
  5
2B1
100
AcDbEntity
  8
0
100
AcDbCircle
 62
7
  6
CONTINUOUS
 10
215.868483502
 20
24.8116855667
 40
211.7269114463
100
AcDbArc
 50
196.5557542364
 51
197.3398222143
  0
ARC
  5
2B2
100
AcDbEntity
  8
0
100
AcDbCircle
 62
7
  6
CONTINUOUS
 10
208.7481504069
 20
27.0177511236
 40
211.5962660225
100
AcDbArc
 50
196.6414851285
 51
197.1473292943
  0
ARC
  5
2B3
100
AcDbEntity
  8
0
100
AcDbCircle
 62
7
  6
CONTINUOUS
 10
207.7357157768
 20
26.9424155606
 40
211.1652218393
100
AcDbArc
 50
196.640005704
 51
197.4257134877
  0
ARC
  5
2B4
100
AcDbEntity
  8
0
100
AcDbCircle
 62
7
  6
CONTINUOUS
 10
210.2669102399
 20
19.6067196202
 40
207.8687294213
100
AcDbArc
 50
195.1267116324
 51
195.6387830047
  0
ARC
  5
2B5
100
AcDbEntity
  8
0
100
AcDbCircle
 62
7
  6
CONTINUOUS
 10
212.0798312954
 20
23.7097380128
 40
207.661118733
100
AcDbArc
 50
196.5492656341
 51
197.3486788047
  0
ARC
  5
2B6
100
AcDbEntity
  8
0
100
AcDbCircle
 62
7
  6
CONTINUOUS
 10
209.7591678759
 20
19.52145851
 40
207.2373254314
100
AcDbArc
 50
195.1268179854
 51
195.5996977528
  0
ARC
  5
2B7
100
AcDbEntity
  8
0
100
AcDbCircle
 62
7
  6
CONTINUOUS
 10
208.0670283178
 20
19.2661727516
 40
206.1034263092
100
AcDbArc
 50
195.3934742354
 51
195.9154134858
  0
ARC
  5
2B8
100
AcDbEntity
  8
SKEL_COPERCHIO
100
AcDbCircle
 62
250
  6
CONTINUOUS
 10
209.8862582169
 20
-31.487026947
 40
197.7152238482
100
AcDbArc
 50
181.1315807711
 51
181.3065969623
  0
ARC
  5
2B9
100
AcDbEntity
  8
0
100
AcDbCircle
 62
7
  6
CONTINUOUS
 10
201.723822494
 20
-32.1717155863
 40
192.8910480004
100
AcDbArc
 50
180.6729858998
 51
181.4323616003
  0
ARC
  5
2BA
100
AcDbEntity
  8
0
100
AcDbCircle
 62
7
  6
CONTINUOUS
 10
201.2247230271
 20
-32.0392541862
 40
192.8910480004
100
AcDbArc
 50
180.6729858998
 51
181.4323616003
  0
ARC
  5
2BB
100
AcDbEntity
  8
0
100
AcDbCircle
 62
7
  6
CONTINUOUS
 10
204.1649282063
 20
-32.8195870064
 40
192.8910480004
100
AcDbArc
 50
180.6729858998
 51
181.4323616003
  0
ARC
  5
2BC
100
AcDbEntity
  8
0
100
AcDbCircle
 62
7
  6
CONTINUOUS
 10
200.7256019342
 20
-31.9067887638
 40
192.8910418623
100
AcDbArc
 50
180.6729858949
 51
181.4323634434
  0
ARC
  5
2BD
100
AcDbEntity
  8
0
100
AcDbCircle
 62
7
  6
CONTINUOUS
 10
201.0172737816
 20
-31.9621250626
 40
192.5817119952
100
AcDbArc
 50
180.6734700284
 51
181.4340546959
  0
ARC
  5
2BE
100
AcDbEntity
  8
0
100
AcDbCircle
 62
7
  6
CONTINUOUS
 10
203.9574789609
 20
-32.7424578828
 40
192.5817119953
100
AcDbArc
 50
180.6734700284
 51
181.4340546959
  0
ARC
  5
2BF
100
AcDbEntity
  8
0
100
AcDbCircle
 62
7
  6
CONTINUOUS
 10
202.4601662243
 20
-32.7115910962
 40
191.6851691132
100
AcDbArc
 50
180.9310033625
 51
181.434057745
  0
ARC
  5
2C0
100
AcDbEntity
  8
0
100
AcDbCircle
 62
7
  6
CONTINUOUS
 10
201.0172938636
 20
-32.3286516108
 40
191.6851691131
100
AcDbArc
 50
180.9310033625
 51
181.434057745
  0
ARC
  5
2C1
100
AcDbEntity
  8
0
100
AcDbCircle
 62
7
  6
CONTINUOUS
 10
199.9058881259
 20
-32.2713030433
 40
190.4716649837
100
AcDbArc
 50
181.0742672289
 51
181.4366291878
  0
ARC
  5
2C2
100
AcDbEntity
  8
0
100
AcDbCircle
 62
7
  6
CONTINUOUS
 10
184.6349292035
 20
40.9159181663
 40
186.9374801423
100
AcDbArc
 50
204.8503440745
 51
205.2285541673
  0
ARC
  5
2C3
100
AcDbEntity
  8
0
100
AcDbCircle
 62
7
  6
CONTINUOUS
 10
179.2695576818
 20
38.2792574062
 40
180.5122180751
100
AcDbArc
 50
204.9001141415
 51
205.3160347729
  0
ARC
  5
2C4
100
AcDbEntity
  8
0
100
AcDbCircle
 62
7
  6
CONTINUOUS
 10
179.0951430345
 20
38.2345752049
 40
180.2094479881
100
AcDbArc
 50
204.9470273375
 51
205.3180087704
  0
ARC
  5
2C5
100
AcDbEntity
  8
0
100
AcDbCircle
 62
7
  6
CONTINUOUS
 10
185.1314038435
 20
-34.2592807758
 40
170.591738635
100
AcDbArc
 50
181.0981101654
 51
181.4291789133
  0
ARC
  5
2C6
100
AcDbEntity
  8
0
100
AcDbCircle
 62
7
  6
CONTINUOUS
 10
185.2277034717
 20
-34.1746267396
 40
170.5862418098
100
AcDbArc
 50
181.1359147634
 51
181.3935653741
  0
ARC
  5
2C7
100
AcDbEntity
  8
0
100
AcDbCircle
 62
7
  6
CONTINUOUS
 10
184.2210491403
 20
-34.099998881
 40
170.1797364057
100
AcDbArc
 50
180.5800757104
 51
181.4412675381
  0
ARC
  5
2C8
100
AcDbEntity
  8
SKEL_COPERCHIO
100
AcDbCircle
 62
250
  6
CONTINUOUS
 10
173.8268083731
 20
-32.1536666666
 40
161.649647643
100
AcDbArc
 50
180.5517444399
 51
181.147747426
  0
ARC
  5
2C9
100
AcDbEntity
  8
0
100
AcDbCircle
 62
7
  6
CONTINUOUS
 10
172.4887422274
 20
-34.3954871582
 40
157.8522489119
100
AcDbArc
 50
180.7483588877
 51
180.9361468518
  0
ARC
  5
2CA
100
AcDbEntity
  8
0
100
AcDbCircle
 62
7
  6
CONTINUOUS
 10
172.2521357612
 20
-34.4793825798
 40
157.7174781819
100
AcDbArc
 50
180.7085346944
 51
180.9352204341
  0
ARC
  5
2CB
100
AcDbEntity
  8
0
100
AcDbCircle
 62
250
  6
CONTINUOUS
 10
166.1732738063
 20
-32.3377527433
 40
153.9938253539
100
AcDbArc
 50
180.6765747531
 51
181.36067776
  0
ARC
  5
2CC
100
AcDbEntity
  8
0
100
AcDbCircle
 62
250
  6
CONTINUOUS
 10
163.830625121
 20
-33.049700311
 40
151.7390229666
100
AcDbArc
 50
181.2248602009
 51
181.8153290269
  0
ARC
  5
2CD
100
AcDbEntity
  8
0
100
AcDbCircle
 62
7
  6
CONTINUOUS
 10
269.5492636594
 20
-119.4547000095
 40
270.5225413061
100
AcDbArc
 50
161.8947789689
 51
162.0965630262
  0
ARC
  5
2CE
100
AcDbEntity
  8
0
100
AcDbCircle
 62
7
  6
CONTINUOUS
 10
264.3860347161
 20
-117.6275030825
 40
264.5324266416
100
AcDbArc
 50
162.0840925472
 51
162.2450429321
  0
ARC
  5
2CF
100
AcDbEntity
  8
0
100
AcDbCircle
 62
7
  6
CONTINUOUS
 10
248.9116580118
 20
-113.1065162679
 40
254.5171963846
100
AcDbArc
 50
161.88048404
 51
162.2629203458
  0
ARC
  5
2D0
100
AcDbEntity
  8
0
100
AcDbCircle
 62
7
  6
CONTINUOUS
 10
249.2471077333
 20
-113.1854483041
 40
254.3449917472
100
AcDbArc
 50
161.8804791847
 51
162.4350463283
  0
ARC
  5
2D1
100
AcDbEntity
  8
0
100
AcDbCircle
 62
7
  6
CONTINUOUS
 10
247.16779798
 20
-112.4005297688
 40
252.0524646038
100
AcDbArc
 50
161.8787586986
 51
162.4383585263
  0
ARC
  5
2D2
100
AcDbEntity
  8
0
100
AcDbCircle
 62
7
  6
CONTINUOUS
 10
250.2771543456
 20
-113.2460153531
 40
250.2750311092
100
AcDbArc
 50
162.0927913059
 51
162.4382264512
  0
ARC
  5
2D3
100
AcDbEntity
  8
0
100
AcDbCircle
 62
7
  6
CONTINUOUS
 10
242.6267492054
 20
-101.7522809242
 40
241.5344844338
100
AcDbArc
 50
163.92807471
 51
164.3088381424
  0
ARC
  5
2D4
100
AcDbEntity
  8
0
100
AcDbCircle
 62
7
  6
CONTINUOUS
 10
240.7569640817
 20
-101.2141813482
 40
239.0725023025
100
AcDbArc
 50
164.126934451
 51
164.5145993545
  0
ARC
  5
2D5
100
AcDbEntity
  8
0
100
AcDbCircle
 62
7
  6
CONTINUOUS
 10
238.7725460199
 20
-100.5465392425
 40
236.9047724755
100
AcDbArc
 50
164.2121929534
 51
164.5170339899
  0
ARC
  5
2D6
100
AcDbEntity
  8
0
100
AcDbCircle
 62
7
  6
CONTINUOUS
 10
227.7143361348
 20
28.8029343545
 40
224.6584957623
100
AcDbArc
 50
196.8323206209
 51
197.0554059204
  0
ARC
  5
2D7
100
AcDbEntity
  8
0
100
AcDbCircle
 62
7
  6
CONTINUOUS
 10
217.9851381547
 20
25.8053820641
 40
214.4779689988
100
AcDbArc
 50
197.1990364593
 51
197.3509187278
  0
ARC
  5
2D8
100
AcDbEntity
  8
SKEL_COPERCHIO
100
AcDbCircle
 62
7
  6
CONTINUOUS
 10
329.2057959724
 20
1202.2706357588
 40
1214.916779266
100
AcDbArc
 50
255.1361851984
 51
255.2740727358
  0
SPLINE
  5
2D9
100
AcDbEntity
  8
RACCORDO
100
AcDbSpline
 62
7
  6
CONTINUOUS
 70
0
 71
3
 72
11
 73
7
 74
0
 42
0.0000001
 43
0.0000001
 44
0.0000000001
 40
0.0
 40
0.0
 40
0.0
 40
0.0
 40
0.2484124923
 40
0.5000523662
 40
0.7516555284
 40
1.0
 40
1.0
 40
1.0
 40
1.0
 10
-25.6991310014
 20
-21.2440325617
 30
0.0
 10
-25.8969976863
 20
-21.1915185843
 30
0.0
 10
-26.2787349001
 20
-21.0129493746
 30
0.0
 10
-26.7347581948
 20
-20.579795038
 30
0.0
 10
-27.0401050993
 20
-20.029996323
 30
0.0
 10
-27.1174564033
 20
-19.6157927117
 30
0.0
 10
-27.118756055
 20
-19.4111361561
 30
0.0
  0
SPLINE
  5
2DA
100
AcDbEntity
  8
RACCORDO
100
AcDbSpline
 62
7
  6
CONTINUOUS
 70
0
 71
3
 72
9
 73
5
 74
0
 42
0.0000001
 43
0.0000001
 44
0.0000000001
 40
0.0
 40
0.0
 40
0.0
 40
0.0
 40
0.4983710894
 40
1.0
 40
1.0
 40
1.0
 40
1.0
 10
13.8199637468
 20
-31.1535740595
 30
0.0
 10
13.6368467004
 20
-31.2878004504
 30
0.0
 10
13.1989994435
 20
-31.4714492272
 30
0.0
 10
12.7284435165
 20
-31.4427417652
 30
0.0
 10
12.5075630162
 20
-31.3841198939
 30
0.0
  0
SPLINE
  5
2DB
100
AcDbEntity
  8
RACCORDO
100
AcDbSpline
 62
7
  6
CONTINUOUS
 70
0
 71
3
 72
9
 73
5
 74
0
 42
0.0000001
 43
0.0000001
 44
0.0000000001
 40
0.0
 40
0.0
 40
0.0
 40
0.0
 40
0.5015929799
 40
1.0
 40
1.0
 40
1.0
 40
1.0
 10
-27.3695727178
 20
20.0848098027
 30
0.0
 10
-27.3710187643
 20
20.3125178593
 30
0.0
 10
-27.2815509425
 20
20.7735946984
 30
0.0
 10
-26.9959912156
 20
21.1507029674
 30
0.0
 10
-26.8211706583
 20
21.2943490828
 30
0.0
  0
SPLINE
  5
2DC
100
AcDbEntity
  8
RACCORDO
100
AcDbSpline
 62
250
  6
CONTINUOUS
 70
0
 71
3
 72
10
 73
6
 74
0
 42
0.0000001
 43
0.0000001
 44
0.0000000001
 40
0.0
 40
0.0
 40
0.0
 40
0.0
 40
0.2373169604
 40
0.4804811606
 40
1.0
 40
1.0
 40
1.0
 40
1.0
 10
13.8205104111
 20
-31.1531771156
 30
0.0
 10
13.8940791076
 20
-31.0991573024
 30
0.0
 10
14.0290630575
 20
-30.9691717463
 30
0.0
 10
14.2302912995
 20
-30.6375607717
 30
0.0
 10
14.284187531
 20
-30.3364946091
 30
0.0
 10
14.282918702
 20
-30.136692933
 30
0.0
  0
SPLINE
  5
2DD
100
AcDbEntity
  8
RACCORDO
100
AcDbSpline
 62
250
  6
CONTINUOUS
 70
0
 71
3
 72
12
 73
8
 74
0
 42
0.0000001
 43
0.0000001
 44
0.0000000001
 40
0.0
 40
0.0
 40
0.0
 40
0.0
 40
0.3231403367
 40
0.5333858678
 40
0.7127414912
 40
0.8648156126
 40
1.0
 40
1.0
 40
1.0
 40
1.0
 10
-26.6281765392
 20
-19.8004450789
 30
0.0
 10
-26.6974189006
 20
-19.7820680873
 30
0.0
 10
-26.8100383912
 20
-19.7438032071
 30
0.0
 10
-26.9496019657
 20
-19.6682837187
 30
0.0
 10
-27.0429661614
 20
-19.5911720863
 30
0.0
 10
-27.1035348769
 20
-19.5052005728
 30
0.0
 10
-27.1185320478
 20
-19.4411054185
 30
0.0
 10
-27.1187436927
 20
-19.4111360839
 30
0.0
  0
SPLINE
  5
2DE
100
AcDbEntity
  8
RACCORDO
100
AcDbSpline
 62
250
  6
CONTINUOUS
 70
0
 71
3
 72
9
 73
5
 74
0
 42
0.0000001
 43
0.0000001
 44
0.0000000001
 40
0.0
 40
0.0
 40
0.0
 40
0.0
 40
0.4998762746
 40
1.0
 40
1.0
 40
1.0
 40
1.0
 10
-26.6281765392
 20
-19.8004450789
 30
0.0
 10
-26.6269512467
 20
-19.9933911445
 30
0.0
 10
-26.4737135182
 20
-20.3790298724
 30
0.0
 10
-26.1385970798
 20
-20.6236327995
 30
0.0
 10
-25.9520111281
 20
-20.6731528612
 30
0.0
  0
SPLINE
  5
2DF
100
AcDbEntity
  8
RACCORDO
100
AcDbSpline
 62
250
  6
CONTINUOUS
 70
0
 71
3
 72
12
 73
8
 74
0
 42
0.0000001
 43
0.0000001
 44
0.0000000001
 40
0.0
 40
0.0
 40
0.0
 40
0.0
 40
0.3233797288
 40
0.5336964869
 40
0.7130278797
 40
0.864990028
 40
1.0
 40
1.0
 40
1.0
 40
1.0
 10
-25.9520111281
 20
-20.6731528612
 30
0.0
 10
-25.9515572705
 20
-20.7446215282
 30
0.0
 10
-25.9427560111
 20
-20.8629336645
 30
0.0
 10
-25.9047768726
 20
-21.0165637668
 30
0.0
 10
-25.8537527992
 20
-21.125946827
 30
0.0
 10
-25.7860145765
 20
-21.2058742102
 30
0.0
 10
-25.727962373
 20
-21.2363455113
 30
0.0
 10
-25.6991277117
 20
-21.2440201754
 30
0.0
  0
SPLINE
  5
2E0
100
AcDbEntity
  8
RACCORDO
100
AcDbSpline
 62
250
  6
CONTINUOUS
 70
0
 71
3
 72
12
 73
8
 74
0
 42
0.0000001
 43
0.0000001
 44
0.0000000001
 40
0.0
 40
0.0
 40
0.0
 40
0.0
 40
0.3233797126
 40
0.5336964178
 40
0.7130278133
 40
0.864989984
 40
1.0
 40
1.0
 40
1.0
 40
1.0
 10
12.2546829515
 20
-30.8132402098
 30
0.0
 10
12.2551367963
 20
-30.8847088703
 30
0.0
 10
12.2639380187
 20
-31.003020991
 30
0.0
 10
12.3019171543
 20
-31.1566510713
 30
0.0
 10
12.3529411998
 20
-31.2660341324
 30
0.0
 10
12.4206794261
 20
-31.3459615268
 30
0.0
 10
12.4787316356
 20
-31.3764328437
 30
0.0
 10
12.5075663046
 20
-31.3841075118
 30
0.0
  0
SPLINE
  5
2E1
100
AcDbEntity
  8
RACCORDO
100
AcDbSpline
 62
250
  6
CONTINUOUS
 70
0
 71
3
 72
11
 73
7
 74
0
 42
0.0000001
 43
0.0000001
 44
0.0000000001
 40
0.0
 40
0.0
 40
0.0
 40
0.0
 40
0.2608560047
 40
0.5001588662
 40
0.7393622531
 40
1.0
 40
1.0
 40
1.0
 40
1.0
 10
12.2546829515
 20
-30.8132402098
 30
0.0
 10
12.3375453487
 20
-30.8352319567
 30
0.0
 10
12.5070509604
 20
-30.8496696391
 30
0.0
 10
12.7416551589
 20
-30.7531226441
 30
0.0
 10
12.8940794005
 20
-30.5503909169
 30
0.0
 10
12.9225725378
 20
-30.3827589337
 30
0.0
 10
12.9220285743
 20
-30.2971013369
 30
0.0
  0
SPLINE
  5
2E2
100
AcDbEntity
  8
RACCORDO
100
AcDbSpline
 62
250
  6
CONTINUOUS
 70
0
 71
3
 72
11
 73
7
 74
0
 42
0.0000001
 43
0.0000001
 44
0.0000000001
 40
0.0
 40
0.0
 40
0.0
 40
0.0
 40
0.2621559049
 40
0.5366915225
 40
0.7915514822
 40
1.0
 40
1.0
 40
1.0
 40
1.0
 10
12.9220285743
 20
-30.2971013369
 30
0.0
 10
13.0406558122
 20
-30.3285851013
 30
0.0
 10
13.2910935584
 20
-30.3652844837
 30
0.0
 10
13.6633800189
 20
-30.3556116767
 30
0.0
 10
14.003177534
 20
-30.2862122537
 30
0.0
 10
14.2047294896
 20
-30.1950899259
 30
0.0
 10
14.282918702
 20
-30.136692933
 30
0.0
  0
SPLINE
  5
2E3
100
AcDbEntity
  8
RACCORDO
100
AcDbSpline
 62
250
  6
CONTINUOUS
 70
0
 71
3
 72
11
 73
7
 74
0
 42
0.0000001
 43
0.0000001
 44
0.0000000001
 40
0.0
 40
0.0
 40
0.0
 40
0.0
 40
0.2621558492
 40
0.5366914334
 40
0.7915514293
 40
1.0
 40
1.0
 40
1.0
 40
1.0
 10
12.6712119111
 20
9.1988446861
 30
0.0
 10
12.7898391209
 20
9.1673609066
 30
0.0
 10
13.0402768264
 20
9.1306614899
 30
0.0
 10
13.4125632731
 20
9.1403342669
 30
0.0
 10
13.7523608225
 20
9.2097336982
 30
0.0
 10
13.9539128165
 20
9.3008560666
 30
0.0
 10
14.0321020387
 20
9.3592530916
 30
0.0
  0
SPLINE
  5
2E4
100
AcDbEntity
  8
RACCORDO
100
AcDbSpline
 62
250
  6
CONTINUOUS
 70
0
 71
3
 72
9
 73
5
 74
0
 42
0.0000001
 43
0.0000001
 44
0.0000000001
 40
0.0
 40
0.0
 40
0.0
 40
0.0
 40
0.4998759481
 40
1.0
 40
1.0
 40
1.0
 40
1.0
 10
14.0321020388
 20
9.35925309
 30
0.0
 10
14.0293074018
 20
9.7993228146
 30
0.0
 10
13.6798023391
 20
10.6788838761
 30
0.0
 10
12.9154725836
 20
11.2367742089
 30
0.0
 10
12.4899083961
 20
11.3497192859
 30
0.0
  0
SPLINE
  5
2E5
100
AcDbEntity
  8
RACCORDO
100
AcDbSpline
 62
250
  6
CONTINUOUS
 70
0
 71
3
 72
9
 73
5
 74
0
 42
0.0000001
 43
0.0000001
 44
0.0000000001
 40
0.0
 40
0.0
 40
0.0
 40
0.0
 40
0.4998762746
 40
1.0
 40
1.0
 40
1.0
 40
1.0
 10
12.6712119111
 20
9.1988446861
 30
0.0
 10
12.6699866185
 20
9.3917907517
 30
0.0
 10
12.51674889
 20
9.7774294796
 30
0.0
 10
12.1816324516
 20
10.0220324067
 30
0.0
 10
11.9950464999
 20
10.0715524684
 30
0.0
  0
SPLINE
  5
2E6
100
AcDbEntity
  8
RACCORDO
100
AcDbSpline
 62
250
  6
CONTINUOUS
 70
0
 71
3
 72
11
 73
7
 74
0
 42
0.0000001
 43
0.0000001
 44
0.0000000001
 40
0.0
 40
0.0
 40
0.0
 40
0.0
 40
0.262020609
 40
0.536554981
 40
0.7914912364
 40
1.0
 40
1.0
 40
1.0
 40
1.0
 10
11.9950464999
 20
10.0715524684
 30
0.0
 10
11.994267462
 20
10.1942270845
 30
0.0
 10
12.0213959986
 20
10.4458220104
 30
0.0
 10
12.1237284737
 20
10.8038763755
 30
0.0
 10
12.2756258049
 20
11.1157314928
 30
0.0
 10
12.4139508188
 20
11.2883947042
 30
0.0
 10
12.4899083961
 20
11.3497192859
 30
0.0
  0
SPLINE
  5
2E7
100
AcDbEntity
  8
RACCORDO
100
AcDbSpline
 62
250
  6
CONTINUOUS
 70
0
 71
3
 72
11
 73
7
 74
0
 42
0.0000001
 43
0.0000001
 44
0.0000000001
 40
0.0
 40
0.0
 40
0.0
 40
0.0
 40
0.2620205544
 40
0.5365549061
 40
0.7914912043
 40
1.0
 40
1.0
 40
1.0
 40
1.0
 10
-26.2116475797
 20
20.211639817
 30
0.0
 10
-26.2124265955
 20
20.3343144048
 30
0.0
 10
-26.1852980409
 20
20.5859092847
 30
0.0
 10
-26.0829655694
 20
20.9439636247
 30
0.0
 10
-25.9310682575
 20
21.2558187681
 30
0.0
 10
-25.7927432597
 20
21.4284820296
 30
0.0
 10
-25.7167856851
 20
21.4898066349
 30
0.0
  0
SPLINE
  5
2E8
100
AcDbEntity
  8
RACCORDO
100
AcDbSpline
 62
250
  6
CONTINUOUS
 70
0
 71
3
 72
10
 73
6
 74
0
 42
0.0000001
 43
0.0000001
 44
0.0000000001
 40
0.0
 40
0.0
 40
0.0
 40
0.0
 40
0.5196359439
 40
0.7627638226
 40
1.0
 40
1.0
 40
1.0
 40
1.0
 10
-25.7167856835
 20
21.4898066345
 30
0.0
 10
-25.9107731133
 20
21.5412910543
 30
0.0
 10
-26.217154162
 20
21.5644933501
 30
0.0
 10
-26.5900244624
 20
21.4516525448
 30
0.0
 10
-26.7500775114
 20
21.352706219
 30
0.0
 10
-26.8208983652
 20
21.2945650264
 30
0.0
  0
SPLINE
  5
2E9
100
AcDbEntity
  8
RACCORDO
100
AcDbSpline
 62
250
  6
CONTINUOUS
 70
0
 71
3
 72
11
 73
7
 74
0
 42
0.0000001
 43
0.0000001
 44
0.0000000001
 40
0.0
 40
0.0
 40
0.0
 40
0.0
 40
0.2608560047
 40
0.5001588662
 40
0.7393622531
 40
1.0
 40
1.0
 40
1.0
 40
1.0
 10
-26.2116475797
 20
20.211639817
 30
0.0
 10
-26.2945099769
 20
20.2336315639
 30
0.0
 10
-26.4640155885
 20
20.2480692463
 30
0.0
 10
-26.698619787
 20
20.1515222513
 30
0.0
 10
-26.8510440286
 20
19.9487905241
 30
0.0
 10
-26.879537166
 20
19.7811585409
 30
0.0
 10
-26.8789932025
 20
19.6955009441
 30
0.0
  0
SPLINE
  5
2EA
100
AcDbEntity
  8
RACCORDO
100
AcDbSpline
 62
250
  6
CONTINUOUS
 70
0
 71
3
 72
12
 73
8
 74
0
 42
0.0000001
 43
0.0000001
 44
0.0000000001
 40
0.0
 40
0.0
 40
0.0
 40
0.0
 40
0.3231403363
 40
0.5333859075
 40
0.7127415208
 40
0.8648156267
 40
1.0
 40
1.0
 40
1.0
 40
1.0
 10
-26.8789932025
 20
19.6955009441
 30
0.0
 10
-26.9482355648
 20
19.7138779227
 30
0.0
 10
-27.0608550595
 20
19.7521428027
 30
0.0
 10
-27.2004186548
 20
19.8276622584
 30
0.0
 10
-27.2937828448
 20
19.9047738976
 30
0.0
 10
-27.3543515521
 20
19.9907454037
 30
0.0
 10
-27.369348707
 20
20.0548405521
 30
0.0
 10
-27.3695603513
 20
20.0848098827
 30
0.0
  0
SPLINE
  5
2EB
100
AcDbEntity
  8
DRAFT
100
AcDbSpline
 62
7
  6
CONTINUOUS
 70
0
 71
3
 72
11
 73
7
 74
0
 42
0.0000001
 43
0.0000001
 44
0.0000000001
 40
0.0
 40
0.0
 40
0.0
 40
0.0
 40
0.2423339465
 40
0.499883151
 40
0.7574978943
 40
1.0
 40
1.0
 40
1.0
 40
1.0
 10
41.7671823665
 20
27.5201330445
 30
0.0
 10
41.7640990487
 20
28.0056611979
 30
0.0
 10
41.5596113967
 20
29.0102446679
 30
0.0
 10
40.8027243248
 20
30.3501249313
 30
0.0
 10
39.6940746867
 20
31.4178576479
 30
0.0
 10
38.7721587034
 20
31.8672110478
 30
0.0
 10
38.302541759
 20
31.9918477626
 30
0.0
  0
SPLINE
  5
2EC
100
AcDbEntity
  8
DRAFT
100
AcDbSpline
 62
7
  6
CONTINUOUS
 70
0
 71
3
 72
10
 73
6
 74
0
 42
0.0000001
 43
0.0000001
 44
0.0000000001
 40
0.0
 40
0.0
 40
0.0
 40
0.0
 40
0.5196393629
 40
0.7627624589
 40
1.0
 40
1.0
 40
1.0
 40
1.0
 10
-30.5383484745
 20
50.2622754178
 30
0.0
 10
-30.9741570163
 20
50.3779393554
 30
0.0
 10
-31.6624594923
 20
50.4300562388
 30
0.0
 10
-32.5001428864
 20
50.1765659747
 30
0.0
 10
-32.8597038411
 20
49.9542671973
 30
0.0
 10
-33.0188090819
 20
49.8236490739
 30
0.0
  0
SPLINE
  5
2ED
100
AcDbEntity
  8
DRAFT
100
AcDbSpline
 62
7
  6
CONTINUOUS
 70
0
 71
3
 72
10
 73
6
 74
0
 42
0.0000001
 43
0.0000001
 44
0.0000000001
 40
0.0
 40
0.0
 40
0.0
 40
0.0
 40
0.2373192468
 40
0.4804792439
 40
1.0
 40
1.0
 40
1.0
 40
1.0
 10
41.1633237821
 20
-43.2586853053
 30
0.0
 10
41.3286017904
 20
-43.1373242606
 30
0.0
 10
41.6318598713
 20
-42.8453128887
 30
0.0
 10
42.083919358
 20
-42.1003173736
 30
0.0
 10
42.2050077291
 20
-41.4239580961
 30
0.0
 10
42.2021572104
 20
-40.975088662
 30
0.0
  0
SPLINE
  5
2EE
100
AcDbEntity
  8
RACCORDO
100
AcDbSpline
 62
250
  6
CONTINUOUS
 70
0
 71
3
 72
9
 73
5
 74
0
 42
0.0000001
 43
0.0000001
 44
0.0000000001
 40
0.0
 40
0.0
 40
0.0
 40
0.0
 40
0.51911349
 40
1.0
 40
1.0
 40
1.0
 40
1.0
 10
34.4426127949
 20
27.2398535028
 30
0.0
 10
34.9652173857
 20
27.0966905993
 30
0.0
 10
35.9530294102
 20
26.7351863243
 30
0.0
 10
36.8048742032
 20
26.0781483394
 30
0.0
 10
37.1172084719
 20
25.6852002534
 30
0.0
  0
SPLINE
  5
2EF
100
AcDbEntity
  8
RACCORDO
100
AcDbSpline
 62
250
  6
CONTINUOUS
 70
0
 71
3
 72
9
 73
5
 74
0
 42
0.0000001
 43
0.0000001
 44
0.0000000001
 40
0.0
 40
0.0
 40
0.0
 40
0.0
 40
0.50722192
 40
1.0
 40
1.0
 40
1.0
 40
1.0
 10
37.1172084719
 20
25.6852002534
 30
0.0
 10
37.2601644406
 20
25.5053471924
 30
0.0
 10
37.5032752528
 20
25.1169583215
 30
0.0
 10
37.6322609031
 20
24.6750589118
 30
0.0
 10
37.6615752871
 20
24.4537879584
 30
0.0
  0
SPLINE
  5
2F0
100
AcDbEntity
  8
RACCORDO
100
AcDbSpline
 62
250
  6
CONTINUOUS
 70
0
 71
3
 72
9
 73
5
 74
0
 42
0.0000001
 43
0.0000001
 44
0.0000000001
 40
0.0
 40
0.0
 40
0.0
 40
0.0
 40
0.4681841435
 40
1.0
 40
1.0
 40
1.0
 40
1.0
 10
37.6615752928
 20
24.4537879276
 30
0.0
 10
37.629586273
 20
24.4184956306
 30
0.0
 10
37.5347482228
 20
24.3686740043
 30
0.0
 10
37.431232596
 20
24.3585108844
 30
0.0
 10
37.3774062448
 20
24.364006564
 30
0.0
  0
SPLINE
  5
2F1
100
AcDbEntity
  8
RACCORDO
100
AcDbSpline
 62
250
  6
CONTINUOUS
 70
0
 71
3
 72
9
 73
5
 74
0
 42
0.0000001
 43
0.0000001
 44
0.0000000001
 40
0.0
 40
0.0
 40
0.0
 40
0.0
 40
0.2415184231
 40
1.0
 40
1.0
 40
1.0
 40
1.0
 10
37.6615752871
 20
24.4537879584
 30
0.0
 10
37.6711602846
 20
24.386475239
 30
0.0
 10
37.7064828294
 20
24.1071534405
 30
0.0
 10
37.7252200604
 20
23.8258294505
 30
0.0
 10
37.7317102456
 20
23.6124020825
 30
0.0
  0
SPLINE
  5
2F2
100
AcDbEntity
  8
RACCORDO
100
AcDbSpline
 62
250
  6
CONTINUOUS
 70
0
 71
3
 72
9
 73
5
 74
0
 42
0.0000001
 43
0.0000001
 44
0.0000000001
 40
0.0
 40
0.0
 40
0.0
 40
0.0
 40
0.4551554292
 40
1.0
 40
1.0
 40
1.0
 40
1.0
 10
37.7317102456
 20
23.6124020825
 30
0.0
 10
37.6894064956
 20
23.5779277829
 30
0.0
 10
37.5695598346
 20
23.5392878076
 30
0.0
 10
37.448451843
 20
23.5392404737
 30
0.0
 10
37.3840720525
 20
23.5503146528
 30
0.0
  0
SPLINE
  5
2F3
100
AcDbEntity
  8
RACCORDO
100
AcDbSpline
 62
250
  6
CONTINUOUS
 70
0
 71
3
 72
9
 73
5
 74
0
 42
0.0000001
 43
0.0000001
 44
0.0000000001
 40
0.0
 40
0.0
 40
0.0
 40
0.0
 40
0.497544959
 40
1.0
 40
1.0
 40
1.0
 40
1.0
 10
37.7317102456
 20
23.6124020825
 30
0.0
 10
38.0721037392
 20
12.418419128
 30
0.0
 10
38.2955109015
 20
-10.0927772437
 30
0.0
 10
38.2301598906
 20
-32.6008748544
 30
0.0
 10
38.2718937365
 20
-43.9104752826
 30
0.0
  0
SPLINE
  5
2F4
100
AcDbEntity
  8
RACCORDO
100
AcDbSpline
 62
250
  6
CONTINUOUS
 70
0
 71
3
 72
9
 73
5
 74
0
 42
0.0000001
 43
0.0000001
 44
0.0000000001
 40
0.0
 40
0.0
 40
0.0
 40
0.0
 40
0.4473360337
 40
1.0
 40
1.0
 40
1.0
 40
1.0
 10
38.2718933788
 20
-43.9104751838
 30
0.0
 10
38.2146066239
 20
-43.95275473
 30
0.0
 10
38.0603680611
 20
-44.0087321675
 30
0.0
 10
37.9012818886
 20
-44.0245315884
 30
0.0
 10
37.8133238744
 20
-44.0235465652
 30
0.0
  0
SPLINE
  5
2F5
100
AcDbEntity
  8
RACCORDO
100
AcDbSpline
 62
250
  6
CONTINUOUS
 70
0
 71
3
 72
10
 73
6
 74
0
 42
0.0000001
 43
0.0000001
 44
0.0000000001
 40
0.0
 40
0.0
 40
0.0
 40
0.0
 40
0.5195013124
 40
0.7627142086
 40
1.0
 40
1.0
 40
1.0
 40
1.0
 10
38.2718937365
 20
-43.9104752826
 30
0.0
 10
38.2735024327
 20
-44.3454530943
 30
0.0
 10
38.1548018078
 20
-45.0004742966
 30
0.0
 10
37.7163143656
 20
-45.7221149922
 30
0.0
 10
37.4224988898
 20
-46.0051455226
 30
0.0
 10
37.2624081688
 20
-46.1228098186
 30
0.0
  0
SPLINE
  5
2F6
100
AcDbEntity
  8
RACCORDO
100
AcDbSpline
 62
250
  6
CONTINUOUS
 70
0
 71
3
 72
8
 73
4
 74
0
 42
0.0000001
 43
0.0000001
 44
0.0000000001
 40
0.0
 40
0.0
 40
0.0
 40
0.0
 40
1.0
 40
1.0
 40
1.0
 40
1.0
 10
-37.5250437979
 20
46.123855476
 30
0.0
 10
-37.4925630545
 20
46.1505242947
 30
0.0
 10
-37.456237919
 20
46.173167768
 30
0.0
 10
-37.4177818251
 20
46.1901192702
 30
0.0
  0
SPLINE
  5
2F7
100
AcDbEntity
  8
RACCORDO
100
AcDbSpline
 62
250
  6
CONTINUOUS
 70
0
 71
3
 72
10
 73
6
 74
0
 42
0.0000001
 43
0.0000001
 44
0.0000000001
 40
0.0
 40
0.0
 40
0.0
 40
0.0
 40
0.4413222796
 40
0.7002061414
 40
1.0
 40
1.0
 40
1.0
 40
1.0
 10
-37.4177818251
 20
46.1901192702
 30
0.0
 10
-37.3406900498
 20
46.224101437
 30
0.0
 10
-37.201569676
 20
46.2410064638
 30
0.0
 10
-37.0132923038
 20
46.2101137088
 30
0.0
 10
-36.9105007514
 20
46.1802766024
 30
0.0
 10
-36.8563605549
 20
46.1617226977
 30
0.0
  0
SPLINE
  5
2F8
100
AcDbEntity
  8
RACCORDO
100
AcDbSpline
 62
7
  6
CONTINUOUS
 70
0
 71
3
 72
9
 73
5
 74
0
 42
0.0000001
 43
0.0000001
 44
0.0000000001
 40
0.0
 40
0.0
 40
0.0
 40
0.0
 40
0.2418430713
 40
1.0
 40
1.0
 40
1.0
 40
1.0
 10
-36.8563605549
 20
46.1617226977
 30
0.0
 10
-36.7657635543
 20
46.1717753258
 30
0.0
 10
-36.3891019244
 20
46.1942430494
 30
0.0
 10
-36.0094209904
 20
46.141477587
 30
0.0
 10
-35.7332259893
 20
46.0681752115
 30
0.0
  0
SPLINE
  5
2F9
100
AcDbEntity
  8
RACCORDO
100
AcDbSpline
 62
7
  6
CONTINUOUS
 70
0
 71
3
 72
9
 73
5
 74
0
 42
0.0000001
 43
0.0000001
 44
0.0000000001
 40
0.0
 40
0.0
 40
0.0
 40
0.0
 40
0.2428015678
 40
1.0
 40
1.0
 40
1.0
 40
1.0
 10
33.1076642442
 20
27.7977475563
 30
0.0
 10
33.2043470334
 20
27.7720878663
 30
0.0
 10
33.5979831054
 20
27.6495269206
 30
0.0
 10
33.9706487015
 20
27.4625958144
 30
0.0
 10
34.2334009492
 20
27.294442798
 30
0.0
  0
SPLINE
  5
2FA
100
AcDbEntity
  8
0
100
AcDbSpline
 62
7
  6
CONTINUOUS
 70
0
 71
3
 72
12
 73
8
 74
0
 42
0.0000001
 43
0.0000001
 44
0.0000000001
 40
0.0
 40
0.0
 40
0.0
 40
0.0
 40
0.1058715753
 40
0.217540401
 40
0.4661074113
 40
0.7389112054
 40
1.0
 40
1.0
 40
1.0
 40
1.0
 10
15.376992644
 20
-37.1798749866
 30
0.0
 10
15.3978305335
 20
-37.1636667703
 30
0.0
 10
15.4343405223
 20
-37.1214128424
 30
0.0
 10
15.473535742
 20
-37.0096487871
 30
0.0
 10
15.4493884803
 20
-36.8447365749
 30
0.0
 10
15.3365241901
 20
-36.6795167674
 30
0.0
 10
15.2171861321
 20
-36.607247223
 30
0.0
 10
15.1542293854
 20
-36.5906683448
 30
0.0
  0
SPLINE
  5
2FB
100
AcDbEntity
  8
0
100
AcDbSpline
 62
7
  6
CONTINUOUS
 70
0
 71
3
 72
9
 73
5
 74
0
 42
0.0000001
 43
0.0000001
 44
0.0000000001
 40
0.0
 40
0.0
 40
0.0
 40
0.0
 40
0.2466309523
 40
1.0
 40
1.0
 40
1.0
 40
1.0
 10
15.7802289678
 20
-37.6182308322
 30
0.0
 10
15.7629402975
 20
-37.6316598583
 30
0.0
 10
15.6894286718
 20
-37.6816699511
 30
0.0
 10
15.6031112126
 20
-37.7119951498
 30
0.0
 10
15.5371821779
 20
-37.7231773326
 30
0.0
  0
SPLINE
  5
2FC
100
AcDbEntity
  8
0
100
AcDbSpline
 62
7
  6
CONTINUOUS
 70
0
 71
3
 72
11
 73
7
 74
0
 42
0.0000001
 43
0.0000001
 44
0.0000000001
 40
0.0
 40
0.0
 40
0.0
 40
0.0
 40
0.2394084568
 40
0.4844147035
 40
0.7375849138
 40
1.0
 40
1.0
 40
1.0
 40
1.0
 10
37.3032369835
 20
24.4787357616
 30
0.0
 10
37.2644958754
 20
24.6625191348
 30
0.0
 10
37.1365125839
 20
25.0253448381
 30
0.0
 10
36.8203928446
 20
25.5149601078
 30
0.0
 10
36.4045484095
 20
25.9470416287
 30
0.0
 10
36.0808261552
 20
26.1920621858
 30
0.0
 10
35.909368735
 20
26.306015932
 30
0.0
  0
SPLINE
  5
2FD
100
AcDbEntity
  8
0
100
AcDbSpline
 62
7
  6
CONTINUOUS
 70
0
 71
3
 72
9
 73
5
 74
0
 42
0.0000001
 43
0.0000001
 44
0.0000000001
 40
0.0
 40
0.0
 40
0.0
 40
0.0
 40
0.247336537
 40
1.0
 40
1.0
 40
1.0
 40
1.0
 10
35.909368735
 20
26.306015932
 30
0.0
 10
35.8735095147
 20
26.3298486275
 30
0.0
 10
35.7272857263
 20
26.4243313902
 30
0.0
 10
35.5764191362
 20
26.5115651363
 30
0.0
 10
35.4609825191
 20
26.573548074
 30
0.0
  0
SPLINE
  5
2FE
100
AcDbEntity
  8
0
100
AcDbSpline
 62
7
  6
CONTINUOUS
 70
0
 71
3
 72
9
 73
5
 74
0
 42
0.0000001
 43
0.0000001
 44
0.0000000001
 40
0.0
 40
0.0
 40
0.0
 40
0.0
 40
0.244603705
 40
1.0
 40
1.0
 40
1.0
 40
1.0
 10
35.4609825191
 20
26.573548074
 30
0.0
 10
35.3692357869
 20
26.6228108827
 30
0.0
 10
34.9890915127
 20
26.8148108758
 30
0.0
 10
34.5924134911
 20
26.9726205711
 30
0.0
 10
34.2889780195
 20
27.0791649513
 30
0.0
  0
SPLINE
  5
2FF
100
AcDbEntity
  8
0
100
AcDbSpline
 62
7
  6
CONTINUOUS
 70
0
 71
3
 72
9
 73
5
 74
0
 42
0.0000001
 43
0.0000001
 44
0.0000000001
 40
0.0
 40
0.0
 40
0.0
 40
0.0
 40
0.2515578105
 40
1.0
 40
1.0
 40
1.0
 40
1.0
 10
34.1305620575
 20
27.13355835
 30
0.0
 10
34.0632821986
 20
27.1561585124
 30
0.0
 10
33.795093544
 20
27.2438127417
 30
0.0
 10
33.5245201785
 20
27.3240181533
 30
0.0
 10
33.3213599811
 20
27.3816070135
 30
0.0
  0
SPLINE
  5
300
100
AcDbEntity
  8
0
100
AcDbSpline
 62
7
  6
CONTINUOUS
 70
0
 71
3
 72
11
 73
7
 74
0
 42
0.0000001
 43
0.0000001
 44
0.0000000001
 40
0.0
 40
0.0
 40
0.0
 40
0.0
 40
0.3512220241
 40
0.6161216841
 40
0.8215637617
 40
1.0
 40
1.0
 40
1.0
 40
1.0
 10
-36.3800413803
 20
45.8804150143
 30
0.0
 10
-36.5304039793
 20
45.916896922
 30
0.0
 10
-36.7951946562
 20
45.9772901095
 30
0.0
 10
-37.1552850135
 20
46.0229828665
 30
0.0
 10
-37.4440093499
 20
45.9976029087
 30
0.0
 10
-37.5998550107
 20
45.9186483819
 30
0.0
 10
-37.6606106396
 20
45.8687701839
 30
0.0
  0
SPLINE
  5
301
100
AcDbEntity
  8
0
100
AcDbSpline
 62
7
  6
CONTINUOUS
 70
0
 71
3
 72
11
 73
7
 74
0
 42
0.0000001
 43
0.0000001
 44
0.0000000001
 40
0.0
 40
0.0
 40
0.0
 40
0.0
 40
0.2360429574
 40
0.5002138006
 40
0.7642755009
 40
1.0
 40
1.0
 40
1.0
 40
1.0
 10
12.7940350955
 20
12.1769840298
 30
0.0
 10
13.072349474
 20
12.1031191698
 30
0.0
 10
13.6311800588
 20
11.8241110935
 30
0.0
 10
14.3099006921
 20
11.1668793595
 30
0.0
 10
14.7766965341
 20
10.3459132088
 30
0.0
 10
14.9070778519
 20
9.7355631532
 30
0.0
 10
14.9089039542
 20
9.4480079461
 30
0.0
  0
SPLINE
  5
302
100
AcDbEntity
  8
0
100
AcDbSpline
 62
7
  6
CONTINUOUS
 70
0
 71
3
 72
11
 73
7
 74
0
 42
0.0000001
 43
0.0000001
 44
0.0000000001
 40
0.0
 40
0.0
 40
0.0
 40
0.0
 40
0.2054771154
 40
0.4324997791
 40
0.695618884
 40
1.0
 40
1.0
 40
1.0
 40
1.0
 10
-26.5484601867
 20
22.1644669581
 30
0.0
 10
-26.4843606376
 20
22.2142398026
 30
0.0
 10
-26.3350301234
 20
22.3017836522
 30
0.0
 10
-26.0673756864
 20
22.3748287916
 30
0.0
 10
-25.7513769181
 20
22.3867585509
 30
0.0
 10
-25.5288539578
 20
22.3479096179
 30
0.0
 10
-25.4126589841
 20
22.3170713783
 30
0.0
  0
SPLINE
  5
303
100
AcDbEntity
  8
0
100
AcDbSpline
 62
7
  6
CONTINUOUS
 70
0
 71
3
 72
11
 73
7
 74
0
 42
0.0000001
 43
0.0000001
 44
0.0000000001
 40
0.0
 40
0.0
 40
0.0
 40
0.0
 40
0.3041757648
 40
0.5671942829
 40
0.7943409692
 40
1.0
 40
1.0
 40
1.0
 40
1.0
 10
15.1597206175
 20
-30.0479380769
 30
0.0
 10
15.1604793822
 20
-30.1674202902
 30
0.0
 10
15.1425298421
 20
-30.3912338123
 30
0.0
 10
15.0526146781
 20
-30.6925274544
 30
0.0
 10
14.9159770075
 20
-30.9323184076
 30
0.0
 10
14.7947850931
 20
-31.054752231
 30
0.0
 10
14.7309769077
 20
-31.1042988336
 30
0.0
  0
SPLINE
  5
304
100
AcDbEntity
  8
0
100
AcDbSpline
 62
7
  6
CONTINUOUS
 70
0
 71
3
 72
11
 73
7
 74
0
 42
0.0000001
 43
0.0000001
 44
0.0000000001
 40
0.0
 40
0.0
 40
0.0
 40
0.0
 40
0.2366047128
 40
0.478995596
 40
0.7325976987
 40
1.0
 40
1.0
 40
1.0
 40
1.0
 10
36.8376609858
 20
-46.2967840786
 30
0.0
 10
36.9930475476
 20
-46.1827292961
 30
0.0
 10
37.2780208365
 20
-45.9084018965
 30
0.0
 10
37.5903358648
 20
-45.3927494945
 30
0.0
 10
37.7779994401
 20
-44.7942522442
 30
0.0
 10
37.815538197
 20
-44.3680285073
 30
0.0
 10
37.8141548326
 20
-44.1501909672
 30
0.0
  0
LINE
  5
305
100
AcDbEntity
  8
0
100
AcDbLine
 62
7
  6
CONTINUOUS
 10
13.7637376589
 20
-38.2910619034
 11
13.2667434246
 21
-38.1569353187
  0
LINE
  5
306
100
AcDbEntity
  8
0
100
AcDbLine
 62
7
  6
CONTINUOUS
 10
14.5927332935
 20
-38.5140589799
 11
14.0951519714
 21
-38.3803955469
  0
SPLINE
  5
307
100
AcDbEntity
  8
RACCORDO
100
AcDbSpline
 62
250
  6
CONTINUOUS
 70
0
 71
3
 72
11
 73
7
 74
0
 42
0.0000001
 43
0.0000001
 44
0.0000000001
 40
0.0
 40
0.0
 40
0.0
 40
0.0
 40
0.2543960554
 40
0.5059699612
 40
0.754601389
 40
1.0
 40
1.0
 40
1.0
 40
1.0
 10
-23.8962296365
 20
-24.5787765431
 30
0.0
 10
-23.895743773
 20
-25.5573824611
 30
0.0
 10
-23.8851830314
 20
-27.503810925
 30
0.0
 10
-23.8088558268
 20
-30.4058169571
 30
0.0
 10
-23.6787861342
 20
-33.2711565958
 30
0.0
 10
-23.5638208884
 20
-35.1682128843
 30
0.0
 10
-23.4971324631
 20
-36.1098491751
 30
0.0
  0
LINE
  5
308
100
AcDbEntity
  8
0
100
AcDbLine
 62
7
  6
CONTINUOUS
 10
12.3116367016
 20
-37.4032781724
 11
12.1660092061
 21
-37.8620189732
  0
SPLINE
  5
309
100
AcDbEntity
  8
RACCORDO
100
AcDbSpline
 62
250
  6
CONTINUOUS
 70
0
 71
3
 72
14
 73
10
 74
0
 42
0.0000001
 43
0.0000001
 44
0.0000000001
 40
0.0
 40
0.0
 40
0.0
 40
0.0
 40
0.3215077932
 40
0.4731057214
 40
0.6118391517
 40
0.7339999799
 40
0.8377520377
 40
0.9243794345
 40
1.0
 40
1.0
 40
1.0
 40
1.0
 10
16.2792649023
 20
-30.494523271
 30
0.0
 10
16.1403783423
 20
-30.502862061
 30
0.0
 10
15.9340043256
 20
-30.4959995234
 30
0.0
 10
15.673409407
 20
-30.4469945978
 30
0.0
 10
15.5025497677
 20
-30.3935605788
 30
0.0
 10
15.3595911199
 20
-30.3251148438
 30
0.0
 10
15.2500518509
 20
-30.2438728278
 30
0.0
 10
15.1782219971
 20
-30.1513019972
 30
0.0
 10
15.1599246904
 20
-30.0806632209
 30
0.0
 10
15.1597211125
 20
-30.0479380738
 30
0.0
  0
SPLINE
  5
30A
100
AcDbEntity
  8
RACCORDO
100
AcDbSpline
 62
250
  6
CONTINUOUS
 70
0
 71
3
 72
13
 73
9
 74
0
 42
0.0000001
 43
0.0000001
 44
0.0000000001
 40
0.0
 40
0.0
 40
0.0
 40
0.0
 40
0.0913741183
 40
0.2027649779
 40
0.4703411115
 40
0.7549940585
 40
0.8855878679
 40
1.0
 40
1.0
 40
1.0
 40
1.0
 10
12.9343583357
 20
-33.0734439232
 30
0.0
 10
12.904636459
 20
-33.0279227407
 30
0.0
 10
12.8586384182
 20
-32.9141153655
 30
0.0
 10
12.8146543489
 20
-32.6365489879
 30
0.0
 10
12.8498088089
 20
-32.2379171292
 30
0.0
 10
12.9720587065
 20
-31.8468006801
 30
0.0
 10
13.1215885819
 20
-31.5684633206
 30
0.0
 10
13.2103632667
 20
-31.4515351106
 30
0.0
 10
13.2575305668
 20
-31.4024529238
 30
0.0
  0
SPLINE
  5
30B
100
AcDbEntity
  8
RACCORDO
100
AcDbSpline
 62
250
  6
CONTINUOUS
 70
0
 71
3
 72
12
 73
8
 74
0
 42
0.0000001
 43
0.0000001
 44
0.0000000001
 40
0.0
 40
0.0
 40
0.0
 40
0.0
 40
0.089182792
 40
0.1959996317
 40
0.4524019116
 40
0.7355096246
 40
1.0
 40
1.0
 40
1.0
 40
1.0
 10
-25.2723357439
 20
-22.9333565746
 30
0.0
 10
-25.2982649438
 20
-22.8936441481
 30
0.0
 10
-25.3401033926
 20
-22.7965456214
 30
0.0
 10
-25.3869148088
 20
-22.5595840853
 30
0.0
 10
-25.3729923859
 20
-22.2116847282
 30
0.0
 10
-25.270312544
 20
-21.7948161398
 30
0.0
 10
-25.1449326252
 20
-21.5281570079
 30
0.0
 10
-25.0669712711
 20
-21.4110822705
 30
0.0
  0
SPLINE
  5
30C
100
AcDbEntity
  8
RACCORDO
100
AcDbSpline
 62
250
  6
CONTINUOUS
 70
0
 71
3
 72
12
 73
8
 74
0
 42
0.0000001
 43
0.0000001
 44
0.0000000001
 40
0.0
 40
0.0
 40
0.0
 40
0.0
 40
0.0887615271
 40
0.1952817315
 40
0.4516609959
 40
0.7352302461
 40
1.0
 40
1.0
 40
1.0
 40
1.0
 10
-28.6542922892
 20
-18.5691210403
 30
0.0
 10
-28.6228624402
 20
-18.6047080056
 30
0.0
 10
-28.539847723
 20
-18.6706670859
 30
0.0
 10
-28.3219252466
 20
-18.7772449677
 30
0.0
 10
-27.9796320291
 20
-18.8522813309
 30
0.0
 10
-27.5474282238
 20
-18.857530091
 30
0.0
 10
-27.2557753544
 20
-18.8021048045
 30
0.0
 10
-27.1221568293
 20
-18.7551545923
 30
0.0
  0
SPLINE
  5
30D
100
AcDbEntity
  8
RACCORDO
100
AcDbSpline
 62
250
  6
CONTINUOUS
 70
0
 71
3
 72
13
 73
9
 74
0
 42
0.0000001
 43
0.0000001
 44
0.0000000001
 40
0.0
 40
0.0
 40
0.0
 40
0.0
 40
0.0914560414
 40
0.2029667491
 40
0.4708266454
 40
0.7555115267
 40
0.8859204862
 40
1.0
 40
1.0
 40
1.0
 40
1.0
 10
-28.9019014223
 20
20.9232376395
 30
0.0
 10
-28.8652609454
 20
20.8827555365
 30
0.0
 10
-28.7663153271
 20
20.8091446108
 30
0.0
 10
-28.5075491823
 20
20.6962913773
 30
0.0
 10
-28.1111148783
 20
20.6303609015
 30
0.0
 10
-27.7003291114
 20
20.6515267914
 30
0.0
 10
-27.3928853937
 20
20.7278494987
 30
0.0
 10
-27.2575519779
 20
20.7853290108
 30
0.0
 10
-27.1984314082
 20
20.819144637
 30
0.0
  0
SPLINE
  5
30E
100
AcDbEntity
  8
RACCORDO
100
AcDbSpline
 62
250
  6
CONTINUOUS
 70
0
 71
3
 72
14
 73
10
 74
0
 42
0.0000001
 43
0.0000001
 44
0.0000000001
 40
0.0
 40
0.0
 40
0.0
 40
0.0
 40
0.3220648689
 40
0.4736672304
 40
0.6122997345
 40
0.7343146833
 40
0.8379243706
 40
0.9244462224
 40
1.0
 40
1.0
 40
1.0
 40
1.0
 10
-25.566209203
 20
23.5034511279
 30
0.0
 10
-25.6081977721
 20
23.3717013713
 30
0.0
 10
-25.6522305267
 20
23.1714061235
 30
0.0
 10
-25.6691812773
 20
22.9086835575
 30
0.0
 10
-25.6598837928
 20
22.7314260813
 30
0.0
 10
-25.6293672424
 20
22.5773397563
 30
0.0
 10
-25.5783827403
 20
22.4521962814
 30
0.0
 10
-25.5072622162
 20
22.360427297
 30
0.0
 10
-25.4440136686
 20
22.3253887
 30
0.0
 10
-25.4126589136
 20
22.3170716439
 30
0.0
  0
SPLINE
  5
30F
100
AcDbEntity
  8
RACCORDO
100
AcDbSpline
 62
250
  6
CONTINUOUS
 70
0
 71
3
 72
13
 73
9
 74
0
 42
0.0000001
 43
0.0000001
 44
0.0000000001
 40
0.0
 40
0.0
 40
0.0
 40
0.0
 40
0.3219842765
 40
0.6117388788
 40
0.7338278987
 40
0.837555255
 40
0.9242427896
 40
1.0
 40
1.0
 40
1.0
 40
1.0
 10
16.0199897366
 20
9.0009315832
 30
0.0
 10
15.881841951
 20
8.9931818004
 30
0.0
 10
15.6176206357
 20
9.0030851925
 30
0.0
 10
15.3072876023
 20
9.0755023935
 30
0.0
 10
15.1068015013
 20
9.1720310295
 30
0.0
 10
14.998298711
 20
9.2530506176
 30
0.0
 10
14.9271947911
 20
9.3452234587
 30
0.0
 10
14.9091067449
 20
9.4154537412
 30
0.0
 10
14.9089043054
 20
9.4480079483
 30
0.0
  0
SPLINE
  5
310
100
AcDbEntity
  8
RACCORDO
100
AcDbSpline
 62
250
  6
CONTINUOUS
 70
0
 71
3
 72
14
 73
10
 74
0
 42
0.0000001
 43
0.0000001
 44
0.0000000001
 40
0.0
 40
0.0
 40
0.0
 40
0.0
 40
0.3220648682
 40
0.4736672299
 40
0.6122997342
 40
0.734314683
 40
0.8379243705
 40
0.9244462224
 40
1.0
 40
1.0
 40
1.0
 40
1.0
 10
12.6404848766
 20
13.3633637793
 30
0.0
 10
12.5984963076
 20
13.231614023
 30
0.0
 10
12.554463553
 20
13.0313187754
 30
0.0
 10
12.5375128023
 20
12.7685962095
 30
0.0
 10
12.5468102867
 20
12.5913387331
 30
0.0
 10
12.5773268372
 20
12.437252408
 30
0.0
 10
12.6283113392
 20
12.312108933
 30
0.0
 10
12.6994318633
 20
12.2203399484
 30
0.0
 10
12.7626804109
 20
12.1853013514
 30
0.0
 10
12.794035166
 20
12.1769842953
 30
0.0
  0
SPLINE
  5
311
100
AcDbEntity
  8
RACCORDO
100
AcDbSpline
 62
250
  6
CONTINUOUS
 70
0
 71
3
 72
13
 73
9
 74
0
 42
0.0000001
 43
0.0000001
 44
0.0000000001
 40
0.0
 40
0.0
 40
0.0
 40
0.0
 40
0.2420020209
 40
0.4991130441
 40
0.6291480868
 40
0.7570545297
 40
0.8810619151
 40
1.0
 40
1.0
 40
1.0
 40
1.0
 10
17.8472801748
 20
8.8315120739
 30
0.0
 10
17.8404553966
 20
9.5209462103
 30
0.0
 10
17.5587772369
 20
10.9466394058
 30
0.0
 10
16.6702184045
 20
12.5364130702
 30
0.0
 10
15.6822072171
 20
13.6278716511
 30
0.0
 10
14.8333703147
 20
14.3161462699
 30
0.0
 10
13.9144921534
 20
14.846369919
 30
0.0
 10
13.2616599472
 20
15.088712002
 30
0.0
 10
12.9344420149
 20
15.1767588764
 30
0.0
  0
SPLINE
  5
312
100
AcDbEntity
  8
RACCORDO
100
AcDbSpline
 62
250
  6
CONTINUOUS
 70
0
 71
3
 72
9
 73
5
 74
0
 42
0.0000001
 43
0.0000001
 44
0.0000000001
 40
0.0
 40
0.0
 40
0.0
 40
0.0
 40
0.4869833485
 40
1.0
 40
1.0
 40
1.0
 40
1.0
 10
17.8472801748
 20
8.8315120739
 30
0.0
 10
17.5581542247
 20
8.9066776794
 30
0.0
 10
16.9498069487
 20
9.0063843493
 30
0.0
 10
16.3342500357
 20
9.0176642494
 30
0.0
 10
16.0199880357
 20
9.0009385249
 30
0.0
  0
SPLINE
  5
313
100
AcDbEntity
  8
RACCORDO
100
AcDbSpline
 62
250
  6
CONTINUOUS
 70
0
 71
3
 72
11
 73
7
 74
0
 42
0.0000001
 43
0.0000001
 44
0.0000000001
 40
0.0
 40
0.0
 40
0.0
 40
0.0
 40
0.2423482452
 40
0.4999513848
 40
0.7575984338
 40
1.0
 40
1.0
 40
1.0
 40
1.0
 10
16.0199897366
 20
9.0009315832
 30
0.0
 10
16.0175823992
 20
9.4745872425
 30
0.0
 10
15.8176235861
 20
10.4548531486
 30
0.0
 10
15.078284805
 20
11.7613323114
 30
0.0
 10
13.9977462612
 20
12.8035655476
 30
0.0
 10
13.0985299269
 20
13.2423309485
 30
0.0
 10
12.6404848766
 20
13.3633637793
 30
0.0
  0
SPLINE
  5
314
100
AcDbEntity
  8
RACCORDO
100
AcDbSpline
 62
250
  6
CONTINUOUS
 70
0
 71
3
 72
9
 73
5
 74
0
 42
0.0000001
 43
0.0000001
 44
0.0000000001
 40
0.0
 40
0.0
 40
0.0
 40
0.0
 40
0.5001145378
 40
1.0
 40
1.0
 40
1.0
 40
1.0
 10
12.9344448593
 20
15.1767610297
 30
0.0
 10
9.751312278
 20
16.0330569414
 30
0.0
 10
3.3822515301
 20
17.7294072607
 30
0.0
 10
-2.9872727005
 20
19.4239618681
 30
0.0
 10
-6.1715934946
 20
20.269967309
 30
0.0
  0
SPLINE
  5
315
100
AcDbEntity
  8
RACCORDO
100
AcDbSpline
 62
250
  6
CONTINUOUS
 70
0
 71
3
 72
9
 73
5
 74
0
 42
0.0000001
 43
0.0000001
 44
0.0000000001
 40
0.0
 40
0.0
 40
0.0
 40
0.0
 40
0.486839796
 40
1.0
 40
1.0
 40
1.0
 40
1.0
 10
12.9344448593
 20
15.1767610297
 30
0.0
 10
12.9347826388
 20
14.8777986636
 30
0.0
 10
12.878811165
 20
14.2632317652
 30
0.0
 10
12.7354498419
 20
13.6638397409
 30
0.0
 10
12.640484881
 20
13.3633637769
 30
0.0
  0
SPLINE
  5
316
100
AcDbEntity
  8
RACCORDO
100
AcDbSpline
 62
250
  6
CONTINUOUS
 70
0
 71
3
 72
9
 73
5
 74
0
 42
0.0000001
 43
0.0000001
 44
0.0000000001
 40
0.0
 40
0.0
 40
0.0
 40
0.0
 40
0.5001152223
 40
1.0
 40
1.0
 40
1.0
 40
1.0
 10
-6.17159314
 20
20.269965984
 30
0.0
 10
-9.3536896294
 20
21.1136130955
 30
0.0
 10
-15.7169876772
 20
22.7983492076
 30
0.0
 10
-22.0807627403
 20
24.4813380515
 30
0.0
 10
-25.2640102688
 20
25.3146618389
 30
0.0
  0
SPLINE
  5
317
100
AcDbEntity
  8
RACCORDO
100
AcDbSpline
 62
250
  6
CONTINUOUS
 70
0
 71
3
 72
9
 73
5
 74
0
 42
0.0000001
 43
0.0000001
 44
0.0000000001
 40
0.0
 40
0.0
 40
0.0
 40
0.0
 40
0.4860478762
 40
1.0
 40
1.0
 40
1.0
 40
1.0
 10
-6.17159314
 20
20.269965984
 30
0.0
 10
-6.1697137035
 20
19.9674358092
 30
0.0
 10
-6.2249843567
 20
19.3442275338
 30
0.0
 10
-6.3704353105
 20
18.7366521072
 30
0.0
 10
-6.4672110129
 20
18.4317365206
 30
0.0
  0
SPLINE
  5
318
100
AcDbEntity
  8
RACCORDO
100
AcDbSpline
 62
250
  6
CONTINUOUS
 70
0
 71
3
 72
15
 73
11
 74
0
 42
0.0000001
 43
0.0000001
 44
0.0000000001
 40
0.0
 40
0.0
 40
0.0
 40
0.0
 40
0.1334873995
 40
0.2604389408
 40
0.381942692
 40
0.5001917566
 40
0.6183339848
 40
0.7396043921
 40
0.8664226768
 40
1.0
 40
1.0
 40
1.0
 40
1.0
 10
-25.2640136763
 20
25.314659278
 30
0.0
 10
-25.5751312318
 20
25.3961028274
 30
0.0
 10
-26.1983114805
 20
25.501364313
 30
0.0
 10
-27.1248376684
 20
25.4665615687
 30
0.0
 10
-27.9852898578
 20
25.2303021862
 30
0.0
 10
-28.7406377081
 20
24.7939114906
 30
0.0
 10
-29.3528403414
 20
24.1731065085
 30
0.0
 10
-29.7959395881
 20
23.3997662353
 30
0.0
 10
-30.0599327811
 20
22.5116817728
 30
0.0
 10
-30.114069326
 20
21.8822582182
 30
0.0
 10
-30.1138555845
 20
21.5604406711
 30
0.0
  0
SPLINE
  5
319
100
AcDbEntity
  8
RACCORDO
100
AcDbSpline
 62
250
  6
CONTINUOUS
 70
0
 71
3
 72
9
 73
5
 74
0
 42
0.0000001
 43
0.0000001
 44
0.0000000001
 40
0.0
 40
0.0
 40
0.0
 40
0.0
 40
0.4866724166
 40
1.0
 40
1.0
 40
1.0
 40
1.0
 10
-25.2640136763
 20
25.314659278
 30
0.0
 10
-25.2649239118
 20
25.0159313157
 30
0.0
 10
-25.3236391524
 20
24.4018732503
 30
0.0
 10
-25.4698075864
 20
23.8034323408
 30
0.0
 10
-25.5662074163
 20
23.5034501701
 30
0.0
  0
SPLINE
  5
31A
100
AcDbEntity
  8
RACCORDO
100
AcDbSpline
 62
250
  6
CONTINUOUS
 70
0
 71
3
 72
15
 73
11
 74
0
 42
0.0000001
 43
0.0000001
 44
0.0000000001
 40
0.0
 40
0.0
 40
0.0
 40
0.0
 40
0.1336422001
 40
0.2604863663
 40
0.381866611
 40
0.5001398203
 40
0.6183590483
 40
0.7396063829
 40
0.8663485969
 40
1.0
 40
1.0
 40
1.0
 40
1.0
 10
-25.566209203
 20
23.5034511279
 30
0.0
 10
-25.7797552091
 20
23.5603778794
 30
0.0
 10
-26.2077582239
 20
23.6330900595
 30
0.0
 10
-26.8436958904
 20
23.6055864222
 30
0.0
 10
-27.4325404837
 20
23.4383886371
 30
0.0
 10
-27.9492419744
 20
23.1366537632
 30
0.0
 10
-28.3711455654
 20
22.7126532316
 30
0.0
 10
-28.6806169131
 20
22.1850492407
 30
0.0
 10
-28.8665170081
 20
21.5766487759
 30
0.0
 10
-28.9034026447
 20
21.1442512706
 30
0.0
 10
-28.9019014223
 20
20.9232376395
 30
0.0
  0
SPLINE
  5
31B
100
AcDbEntity
  8
RACCORDO
100
AcDbSpline
 62
250
  6
CONTINUOUS
 70
0
 71
3
 72
9
 73
5
 74
0
 42
0.0000001
 43
0.0000001
 44
0.0000000001
 40
0.0
 40
0.0
 40
0.0
 40
0.0
 40
0.4999446868
 40
1.0
 40
1.0
 40
1.0
 40
1.0
 10
-30.1138468727
 20
21.5604472127
 30
0.0
 10
-30.1109869661
 20
18.2710543507
 30
0.0
 10
-30.0816358752
 20
11.6915807015
 30
0.0
 10
-30.0441892527
 20
5.1121698799
 30
0.0
 10
-30.0189061069
 20
1.8221450529
 30
0.0
  0
SPLINE
  5
31C
100
AcDbEntity
  8
RACCORDO
100
AcDbSpline
 62
250
  6
CONTINUOUS
 70
0
 71
3
 72
9
 73
5
 74
0
 42
0.0000001
 43
0.0000001
 44
0.0000000001
 40
0.0
 40
0.0
 40
0.0
 40
0.0
 40
0.5569680068
 40
1.0
 40
1.0
 40
1.0
 40
1.0
 10
-30.1138468727
 20
21.5604472127
 30
0.0
 10
-29.8662409104
 20
21.4933641036
 30
0.0
 10
-29.4304995824
 20
21.337627472
 30
0.0
 10
-29.0393405805
 20
21.0740649323
 30
0.0
 10
-28.9019014014
 20
20.9232376435
 30
0.0
  0
SPLINE
  5
31D
100
AcDbEntity
  8
RACCORDO
100
AcDbSpline
 62
250
  6
CONTINUOUS
 70
0
 71
3
 72
10
 73
6
 74
0
 42
0.0000001
 43
0.0000001
 44
0.0000000001
 40
0.0
 40
0.0
 40
0.0
 40
0.0
 40
0.5000175731
 40
0.7501298732
 40
1.0
 40
1.0
 40
1.0
 40
1.0
 10
-30.0189076147
 20
1.8221450771
 30
0.0
 10
-29.9996265943
 20
-1.4691520582
 30
0.0
 10
-29.9502211063
 20
-6.4066581806
 30
0.0
 10
-29.8675029468
 20
-12.9886003375
 30
0.0
 10
-29.8290055816
 20
-16.2795158329
 30
0.0
 10
-29.8170453113
 20
-17.9242364272
 30
0.0
  0
SPLINE
  5
31E
100
AcDbEntity
  8
RACCORDO
100
AcDbSpline
 62
250
  6
CONTINUOUS
 70
0
 71
3
 72
9
 73
5
 74
0
 42
0.0000001
 43
0.0000001
 44
0.0000000001
 40
0.0
 40
0.0
 40
0.0
 40
0.0
 40
0.5570815176
 40
1.0
 40
1.0
 40
1.0
 40
1.0
 10
-30.0189076147
 20
1.8221450771
 30
0.0
 10
-29.7648880355
 20
1.7547022841
 30
0.0
 10
-29.3178601277
 20
1.5970920214
 30
0.0
 10
-28.9163299269
 20
1.3280189546
 30
0.0
 10
-28.7756037024
 20
1.1735503451
 30
0.0
  0
SPLINE
  5
31F
100
AcDbEntity
  8
RACCORDO
100
AcDbSpline
 62
250
  6
CONTINUOUS
 70
0
 71
3
 72
13
 73
9
 74
0
 42
0.0000001
 43
0.0000001
 44
0.0000000001
 40
0.0
 40
0.0
 40
0.0
 40
0.0
 40
0.2419774446
 40
0.4991276194
 40
0.6292068502
 40
0.7573220949
 40
0.8813030663
 40
1.0
 40
1.0
 40
1.0
 40
1.0
 10
-29.817051358
 20
-17.9242407905
 30
0.0
 10
-29.8120213741
 20
-18.6132564632
 30
0.0
 10
-29.529850956
 20
-20.0374497359
 30
0.0
 10
-28.6632980661
 20
-21.6348675012
 30
0.0
 10
-27.6994909677
 20
-22.747675287
 30
0.0
 10
-26.8628284364
 20
-23.4519075444
 30
0.0
 10
-25.9439365797
 20
-23.9828350115
 30
0.0
 10
-25.2891687243
 20
-24.2172469189
 30
0.0
 10
-24.9618153666
 20
-24.3013764295
 30
0.0
  0
SPLINE
  5
320
100
AcDbEntity
  8
RACCORDO
100
AcDbSpline
 62
250
  6
CONTINUOUS
 70
0
 71
3
 72
9
 73
5
 74
0
 42
0.0000001
 43
0.0000001
 44
0.0000000001
 40
0.0
 40
0.0
 40
0.0
 40
0.0
 40
0.2564504684
 40
1.0
 40
1.0
 40
1.0
 40
1.0
 10
-29.817051358
 20
-17.9242407905
 30
0.0
 10
-29.7884281521
 20
-17.9326276732
 30
0.0
 10
-29.6771571074
 20
-17.9664791852
 30
0.0
 10
-29.5672809707
 20
-18.0049781394
 30
0.0
 10
-29.4867599591
 20
-18.0365214556
 30
0.0
  0
SPLINE
  5
321
100
AcDbEntity
  8
RACCORDO
100
AcDbSpline
 62
250
  6
CONTINUOUS
 70
0
 71
3
 72
9
 73
5
 74
0
 42
0.0000001
 43
0.0000001
 44
0.0000000001
 40
0.0
 40
0.0
 40
0.0
 40
0.0
 40
0.5385749575
 40
1.0
 40
1.0
 40
1.0
 40
1.0
 10
-29.4867599591
 20
-18.0365214556
 30
0.0
 10
-29.3403683468
 20
-18.0938689334
 30
0.0
 10
-29.0749547263
 20
-18.2181511885
 30
0.0
 10
-28.8352610116
 20
-18.3897353959
 30
0.0
 10
-28.7375943664
 20
-18.4825024668
 30
0.0
  0
SPLINE
  5
322
100
AcDbEntity
  8
RACCORDO
100
AcDbSpline
 62
250
  6
CONTINUOUS
 70
0
 71
3
 72
9
 73
5
 74
0
 42
0.0000001
 43
0.0000001
 44
0.0000000001
 40
0.0
 40
0.0
 40
0.0
 40
0.0
 40
0.2557041195
 40
1.0
 40
1.0
 40
1.0
 40
1.0
 10
-28.7375943664
 20
-18.4825024668
 30
0.0
 10
-28.7301658307
 20
-18.4895583403
 30
0.0
 10
-28.7014159019
 20
-18.517466665
 30
0.0
 10
-28.6739020992
 20
-18.5466571836
 30
0.0
 10
-28.6542862847
 20
-18.5691199082
 30
0.0
  0
SPLINE
  5
323
100
AcDbEntity
  8
RACCORDO
100
AcDbSpline
 62
250
  6
CONTINUOUS
 70
0
 71
3
 72
9
 73
5
 74
0
 42
0.0000001
 43
0.0000001
 44
0.0000000001
 40
0.0
 40
0.0
 40
0.0
 40
0.0
 40
0.4848357117
 40
1.0
 40
1.0
 40
1.0
 40
1.0
 10
-28.6542922892
 20
-18.5691210403
 30
0.0
 10
-28.651359399
 20
-19.0996710323
 30
0.0
 10
-28.4016216656
 20
-20.1966674311
 30
0.0
 10
-27.8020521833
 20
-21.1378637097
 30
0.0
 10
-27.4267377905
 20
-21.558517452
 30
0.0
  0
SPLINE
  5
324
100
AcDbEntity
  8
RACCORDO
100
AcDbSpline
 62
250
  6
CONTINUOUS
 70
0
 71
3
 72
9
 73
5
 74
0
 42
0.0000001
 43
0.0000001
 44
0.0000000001
 40
0.0
 40
0.0
 40
0.0
 40
0.0
 40
0.5146662096
 40
1.0
 40
1.0
 40
1.0
 40
1.0
 10
-27.4267377905
 20
-21.558517452
 30
0.0
 10
-27.1317969406
 20
-21.8890882339
 30
0.0
 10
-26.4724299675
 20
-22.460042324
 30
0.0
 10
-25.6760690989
 20
-22.8259680334
 30
0.0
 10
-25.2723357439
 20
-22.9333565746
 30
0.0
  0
SPLINE
  5
325
100
AcDbEntity
  8
RACCORDO
100
AcDbSpline
 62
250
  6
CONTINUOUS
 70
0
 71
3
 72
9
 73
5
 74
0
 42
0.0000001
 43
0.0000001
 44
0.0000000001
 40
0.0
 40
0.0
 40
0.0
 40
0.0
 40
0.5577649695
 40
1.0
 40
1.0
 40
1.0
 40
1.0
 10
-24.961813326
 20
-24.301374846
 30
0.0
 10
-24.9624986935
 20
-24.0381433544
 30
0.0
 10
-25.0011213441
 20
-23.5656325762
 30
0.0
 10
-25.1588053969
 20
-23.108486001
 30
0.0
 10
-25.2723357437
 20
-22.933356574
 30
0.0
  0
SPLINE
  5
326
100
AcDbEntity
  8
RACCORDO
100
AcDbSpline
 62
250
  6
CONTINUOUS
 70
0
 71
3
 72
9
 73
5
 74
0
 42
0.0000001
 43
0.0000001
 44
0.0000000001
 40
0.0
 40
0.0
 40
0.0
 40
0.0
 40
0.5573293029
 40
1.0
 40
1.0
 40
1.0
 40
1.0
 10
-23.8957626239
 20
-24.5788850888
 30
0.0
 10
-23.8974606074
 20
-24.3163891733
 30
0.0
 10
-23.9379954899
 20
-23.8449356171
 30
0.0
 10
-24.0976314692
 20
-23.3895175398
 30
0.0
 10
-24.2117733603
 20
-23.2150389673
 30
0.0
  0
SPLINE
  5
327
100
AcDbEntity
  8
RACCORDO
100
AcDbSpline
 62
250
  6
CONTINUOUS
 70
0
 71
3
 72
9
 73
5
 74
0
 42
0.0000001
 43
0.0000001
 44
0.0000000001
 40
0.0
 40
0.0
 40
0.0
 40
0.0
 40
0.5574460308
 40
1.0
 40
1.0
 40
1.0
 40
1.0
 10
12.1897263918
 20
-34.1560029068
 30
0.0
 10
12.1878574928
 20
-33.8935023265
 30
0.0
 10
12.147352934
 20
-33.4221891403
 30
0.0
 10
11.9881168844
 20
-32.9667300158
 30
0.0
 10
11.8741252756
 20
-32.7922654988
 30
0.0
  0
SPLINE
  5
328
100
AcDbEntity
  8
RACCORDO
100
AcDbSpline
 62
250
  6
CONTINUOUS
 70
0
 71
3
 72
11
 73
7
 74
0
 42
0.0000001
 43
0.0000001
 44
0.0000000001
 40
0.0
 40
0.0
 40
0.0
 40
0.0
 40
0.2664842921
 40
0.5208331364
 40
0.7641514264
 40
1.0
 40
1.0
 40
1.0
 40
1.0
 10
13.2545127139
 20
-34.444028086
 30
0.0
 10
13.5306510485
 20
-34.5196332254
 30
0.0
 10
14.0832308283
 20
-34.6260164669
 30
0.0
 10
14.9098843569
 20
-34.6281212542
 30
0.0
 10
15.6859724519
 20
-34.4557539142
 30
0.0
 10
16.1529174855
 20
-34.2261531693
 30
0.0
 10
16.3660839358
 20
-34.0891667208
 30
0.0
  0
SPLINE
  5
329
100
AcDbEntity
  8
RACCORDO
100
AcDbSpline
 62
250
  6
CONTINUOUS
 70
0
 71
3
 72
11
 73
7
 74
0
 42
0.0000001
 43
0.0000001
 44
0.0000000001
 40
0.0
 40
0.0
 40
0.0
 40
0.0
 40
0.2406797044
 40
0.4852260855
 40
0.7374461946
 40
1.0
 40
1.0
 40
1.0
 40
1.0
 10
16.3660839358
 20
-34.0891667208
 30
0.0
 10
16.5854688155
 20
-33.9481841436
 30
0.0
 10
16.9957777247
 20
-33.6108347361
 30
0.0
 10
17.4882696081
 20
-32.9738365408
 30
0.0
 10
17.8437987339
 20
-32.2253654077
 30
0.0
 10
17.9773886694
 20
-31.6795261233
 30
0.0
 10
18.0192489514
 20
-31.3981426946
 30
0.0
  0
SPLINE
  5
32A
100
AcDbEntity
  8
RACCORDO
100
AcDbSpline
 62
250
  6
CONTINUOUS
 70
0
 71
3
 72
9
 73
5
 74
0
 42
0.0000001
 43
0.0000001
 44
0.0000000001
 40
0.0
 40
0.0
 40
0.0
 40
0.0
 40
0.5408902859
 40
1.0
 40
1.0
 40
1.0
 40
1.0
 10
13.2545127139
 20
-34.444028086
 30
0.0
 10
13.252964922
 20
-34.2343391752
 30
0.0
 10
13.2245945545
 20
-33.8462482977
 30
0.0
 10
13.1255655863
 20
-33.4672605296
 30
0.0
 10
13.0559241193
 20
-33.3034607767
 30
0.0
  0
SPLINE
  5
32B
100
AcDbEntity
  8
RACCORDO
100
AcDbSpline
 62
250
  6
CONTINUOUS
 70
0
 71
3
 72
9
 73
5
 74
0
 42
0.0000001
 43
0.0000001
 44
0.0000000001
 40
0.0
 40
0.0
 40
0.0
 40
0.0
 40
0.2619406378
 40
1.0
 40
1.0
 40
1.0
 40
1.0
 10
13.0559241193
 20
-33.3034607767
 30
0.0
 10
13.0470292508
 20
-33.28253966
 30
0.0
 10
13.0115227558
 20
-33.2033519605
 30
0.0
 10
12.9695590466
 20
-33.1269482484
 30
0.0
 10
12.9343665499
 20
-33.0734266519
 30
0.0
  0
SPLINE
  5
32C
100
AcDbEntity
  8
RACCORDO
100
AcDbSpline
 62
250
  6
CONTINUOUS
 70
0
 71
3
 72
14
 73
10
 74
0
 42
0.0000001
 43
0.0000001
 44
0.0000000001
 40
0.0
 40
0.0
 40
0.0
 40
0.0
 40
0.2593766843
 40
0.380877941
 40
0.4992574222
 40
0.6177667656
 40
0.7393711018
 40
0.8663280654
 40
1.0
 40
1.0
 40
1.0
 40
1.0
 10
12.9343583357
 20
-33.0734439232
 30
0.0
 10
13.3487727767
 20
-33.1831968083
 30
0.0
 10
14.0012826224
 20
-33.2357456186
 30
0.0
 10
14.802008271
 20
-33.0089070473
 30
0.0
 10
15.3193470187
 20
-32.7068452833
 30
0.0
 10
15.7429231341
 20
-32.2835045599
 30
0.0
 10
16.0556753227
 20
-31.7565575479
 30
0.0
 10
16.2441273591
 20
-31.1481337165
 30
0.0
 10
16.2811546002
 20
-30.7154501072
 30
0.0
 10
16.2792649023
 20
-30.494523271
 30
0.0
  0
SPLINE
  5
32D
100
AcDbEntity
  8
RACCORDO
100
AcDbSpline
 62
250
  6
CONTINUOUS
 70
0
 71
3
 72
11
 73
7
 74
0
 42
0.0000001
 43
0.0000001
 44
0.0000000001
 40
0.0
 40
0.0
 40
0.0
 40
0.0
 40
0.2499230846
 40
0.499783107
 40
0.7497692353
 40
1.0
 40
1.0
 40
1.0
 40
1.0
 10
18.0711930862
 20
-30.6338135145
 30
0.0
 10
18.0562401328
 20
-28.9915737305
 30
0.0
 10
18.0471882781
 20
-25.7073488115
 30
0.0
 10
18.0398291718
 20
-20.7804443751
 30
0.0
 10
18.0252738698
 20
-15.8515144681
 30
0.0
 10
18.0085617796
 20
-12.5645015351
 30
0.0
 10
17.9977061356
 20
-10.9202076678
 30
0.0
  0
SPLINE
  5
32E
100
AcDbEntity
  8
RACCORDO
100
AcDbSpline
 62
250
  6
CONTINUOUS
 70
0
 71
3
 72
9
 73
5
 74
0
 42
0.0000001
 43
0.0000001
 44
0.0000000001
 40
0.0
 40
0.0
 40
0.0
 40
0.0
 40
0.488011098
 40
1.0
 40
1.0
 40
1.0
 40
1.0
 10
18.0711930862
 20
-30.6338135145
 30
0.0
 10
17.786059924
 20
-30.5656817293
 30
0.0
 10
17.1889912146
 20
-30.4778003784
 30
0.0
 10
16.5861830692
 20
-30.4745993363
 30
0.0
 10
16.2792649052
 20
-30.4945232818
 30
0.0
  0
SPLINE
  5
32F
100
AcDbEntity
  8
RACCORDO
100
AcDbSpline
 62
250
  6
CONTINUOUS
 70
0
 71
3
 72
10
 73
6
 74
0
 42
0.0000001
 43
0.0000001
 44
0.0000000001
 40
0.0
 40
0.0
 40
0.0
 40
0.0
 40
0.4997576203
 40
0.7497966001
 40
1.0
 40
1.0
 40
1.0
 40
1.0
 10
17.9977062868
 20
-10.920208086
 30
0.0
 10
17.9783114898
 20
-7.6298090176
 30
0.0
 10
17.9437374726
 20
-2.6931891274
 30
0.0
 10
17.8937441202
 20
3.8907261525
 30
0.0
 10
17.8632915732
 20
7.1842348406
 30
0.0
 10
17.8472931306
 20
8.8315224004
 30
0.0
  0
SPLINE
  5
330
100
AcDbEntity
  8
RACCORDO
100
AcDbSpline
 62
250
  6
CONTINUOUS
 70
0
 71
3
 72
9
 73
5
 74
0
 42
0.0000001
 43
0.0000001
 44
0.0000000001
 40
0.0
 40
0.0
 40
0.0
 40
0.0
 40
0.4861288779
 40
1.0
 40
1.0
 40
1.0
 40
1.0
 10
17.9977062868
 20
-10.920208086
 30
0.0
 10
17.7050740041
 20
-10.8427363371
 30
0.0
 10
17.0875245584
 20
-10.7406111657
 30
0.0
 10
16.4625902736
 20
-10.7300730876
 30
0.0
 10
16.1430990046
 20
-10.7479094944
 30
0.0
  0
SPLINE
  5
331
100
AcDbEntity
  8
0
100
AcDbSpline
 62
250
  6
CONTINUOUS
 70
0
 71
3
 72
10
 73
6
 74
0
 42
0.0000001
 43
0.0000001
 44
0.0000000001
 40
0.0
 40
0.0
 40
0.0
 40
0.0
 40
0.2534971447
 40
0.6293756138
 40
1.0
 40
1.0
 40
1.0
 40
1.0
 10
12.269746116
 20
-37.7771630244
 30
0.0
 10
12.2884252941
 20
-38.4473563141
 30
0.0
 10
12.3438982314
 20
-40.1110398979
 30
0.0
 10
12.4600791609
 20
-42.7533926853
 30
0.0
 10
12.5789751955
 20
-44.7242803494
 30
0.0
 10
12.6458629962
 20
-45.7022292489
 30
0.0
  0
SPLINE
  5
332
100
AcDbEntity
  8
0
100
AcDbSpline
 62
7
  6
CONTINUOUS
 70
0
 71
3
 72
8
 73
4
 74
0
 42
0.0000001
 43
0.0000001
 44
0.0000000001
 40
0.0
 40
0.0
 40
0.0
 40
0.0
 40
1.0
 40
1.0
 40
1.0
 40
1.0
 10
12.4534409612
 20
-36.959213471
 30
0.0
 10
12.6143243133
 20
-37.002179034
 30
0.0
 10
12.7751594483
 20
-37.045325263
 30
0.0
 10
12.9359658673
 20
-37.0885778717
 30
0.0
  0
SPLINE
  5
333
100
AcDbEntity
  8
0
100
AcDbSpline
 62
7
  6
CONTINUOUS
 70
0
 71
3
 72
9
 73
5
 74
0
 42
0.0000001
 43
0.0000001
 44
0.0000000001
 40
0.0
 40
0.0
 40
0.0
 40
0.0
 40
0.2410981251
 40
1.0
 40
1.0
 40
1.0
 40
1.0
 10
15.4214503832
 20
-37.1321839481
 30
0.0
 10
15.4122239664
 20
-37.1355012866
 30
0.0
 10
15.37304053
 20
-37.1467103906
 30
0.0
 10
15.3311844365
 20
-37.1472645129
 30
0.0
 10
15.3006264793
 20
-37.1429428372
 30
0.0
  0
LINE
  5
334
100
AcDbEntity
  8
0
100
AcDbLine
 62
7
  6
CONTINUOUS
 10
12.4209919856
 20
-35.3862917891
 11
12.9191543055
 21
-35.5195236807
  0
LINE
  5
335
100
AcDbEntity
  8
0
100
AcDbLine
 62
7
  6
CONTINUOUS
 10
13.0210389869
 20
-35.4403882603
 11
12.522876542
 21
-35.3071564658
  0
SPLINE
  5
336
100
AcDbEntity
  8
0
100
AcDbSpline
 62
7
  6
CONTINUOUS
 70
0
 71
3
 72
8
 73
4
 74
0
 42
0.0000001
 43
0.0000001
 44
0.0000000001
 40
0.0
 40
0.0
 40
0.0
 40
0.0
 40
1.0
 40
1.0
 40
1.0
 40
1.0
 10
12.5553491383
 20
-36.8800598011
 30
0.0
 10
12.606149051
 20
-36.7214115412
 30
0.0
 10
12.657092844
 20
-36.5628092726
 30
0.0
 10
12.7081881307
 20
-36.4042558961
 30
0.0
  0
SPLINE
  5
337
100
AcDbEntity
  8
0
100
AcDbSpline
 62
7
  6
CONTINUOUS
 70
0
 71
3
 72
9
 73
5
 74
0
 42
0.0000001
 43
0.0000001
 44
0.0000000001
 40
0.0
 40
0.0
 40
0.0
 40
0.0
 40
0.5224963845
 40
1.0
 40
1.0
 40
1.0
 40
1.0
 10
15.1628847263
 20
-37.2148230731
 30
0.0
 10
15.2004209329
 20
-37.2247237306
 30
0.0
 10
15.2768933263
 20
-37.2313567958
 30
0.0
 10
15.3489893202
 20
-37.2016566516
 30
0.0
 10
15.376992644
 20
-37.1798749866
 30
0.0
  0
SPLINE
  5
338
100
AcDbEntity
  8
RACCORDO
100
AcDbSpline
 62
250
  6
CONTINUOUS
 70
0
 71
3
 72
9
 73
5
 74
0
 42
0.0000001
 43
0.0000001
 44
0.0000000001
 40
0.0
 40
0.0
 40
0.0
 40
0.0
 40
0.4831040069
 40
1.0
 40
1.0
 40
1.0
 40
1.0
 10
17.9977101858
 20
-10.9208562719
 30
0.0
 10
20.2383309999
 20
-11.5155234473
 30
0.0
 10
24.9357224657
 20
-12.5284377725
 30
0.0
 10
29.6987771568
 20
-13.1544697185
 30
0.0
 10
32.1683877015
 20
-13.3849615093
 30
0.0
  0
SPLINE
  5
339
100
AcDbEntity
  8
0
100
AcDbSpline
 62
7
  6
CONTINUOUS
 70
0
 71
3
 72
13
 73
9
 74
0
 42
0.0000001
 43
0.0000001
 44
0.0000000001
 40
0.0
 40
0.0
 40
0.0
 40
0.0
 40
0.2605617948
 40
0.5328384313
 40
0.662547304
 40
0.7830725252
 40
0.8944186957
 40
1.0
 40
1.0
 40
1.0
 40
1.0
 10
15.218698795
 20
-36.1331690049
 30
0.0
 10
15.3774830753
 20
-36.1748936041
 30
0.0
 10
15.6783973717
 20
-36.3561161442
 30
0.0
 10
15.9204006929
 20
-36.7131997862
 30
0.0
 10
16.0017210386
 20
-37.0354535182
 30
0.0
 10
15.9966779354
 20
-37.2665409631
 30
0.0
 10
15.9247163646
 20
-37.4709280158
 30
0.0
 10
15.8327664755
 20
-37.5774221668
 30
0.0
 10
15.7802289678
 20
-37.6182308322
 30
0.0
  0
SPLINE
  5
33A
100
AcDbEntity
  8
0
100
AcDbSpline
 62
7
  6
CONTINUOUS
 70
0
 71
3
 72
13
 73
9
 74
0
 42
0.0000001
 43
0.0000001
 44
0.0000000001
 40
0.0
 40
0.0
 40
0.0
 40
0.0
 40
0.105623053
 40
0.2170358347
 40
0.3376235902
 40
0.4673425918
 40
0.7395050598
 40
1.0
 40
1.0
 40
1.0
 40
1.0
 10
15.8821302913
 20
-37.5390830901
 30
0.0
 10
15.9346839105
 20
-37.4982529309
 30
0.0
 10
16.0266669315
 20
-37.3916943895
 30
0.0
 10
16.0986174387
 20
-37.1871837446
 30
0.0
 10
16.1035736945
 20
-36.9560049967
 30
0.0
 10
16.0221479541
 20
-36.6338092773
 30
0.0
 10
15.780142848
 20
-36.2768816228
 30
0.0
 10
15.4793236025
 20
-36.0957486621
 30
0.0
 10
15.3205808459
 20
-36.0540356277
 30
0.0
  0
SPLINE
  5
33B
100
AcDbEntity
  8
RACCORDO
100
AcDbSpline
 62
250
  6
CONTINUOUS
 70
0
 71
3
 72
12
 73
8
 74
0
 42
0.0000001
 43
0.0000001
 44
0.0000000001
 40
0.0
 40
0.0
 40
0.0
 40
0.0
 40
0.2439984346
 40
0.4911201189
 40
0.6163751663
 40
0.7428331514
 40
1.0
 40
1.0
 40
1.0
 40
1.0
 10
12.6459686583
 20
-45.7022573888
 30
0.0
 10
14.0287509275
 20
-46.0693486296
 30
0.0
 10
16.8091252739
 20
-46.8191922962
 30
0.0
 10
20.3180735723
 20
-47.6865275462
 30
0.0
 10
23.1720778683
 20
-48.3271809044
 30
0.0
 10
26.0929034635
 20
-48.9370664906
 30
0.0
 10
28.3078775557
 20
-49.3349668712
 30
0.0
 10
29.7987495101
 20
-49.560884032
 30
0.0
  0
SPLINE
  5
33C
100
AcDbEntity
  8
RACCORDO
100
AcDbSpline
 62
250
  6
CONTINUOUS
 70
0
 71
3
 72
13
 73
9
 74
0
 42
0.0000001
 43
0.0000001
 44
0.0000000001
 40
0.0
 40
0.0
 40
0.0
 40
0.0
 40
0.2632663926
 40
0.5114758755
 40
0.6328048908
 40
0.7536101302
 40
0.875479772
 40
1.0
 40
1.0
 40
1.0
 40
1.0
 10
29.798749555
 20
-49.5608839667
 30
0.0
 10
30.1188910443
 20
-49.6093931024
 30
0.0
 10
30.7641919451
 20
-49.5988740353
 30
0.0
 10
31.4996587636
 20
-49.2765814895
 30
0.0
 10
31.9447606439
 20
-48.8625247533
 30
0.0
 10
32.1955280257
 20
-48.4863843657
 30
0.0
 10
32.3501900079
 20
-48.0575312341
 30
0.0
 10
32.3819826275
 20
-47.7527693282
 30
0.0
 10
32.3803557032
 20
-47.599628438
 30
0.0
  0
SPLINE
  5
33D
100
AcDbEntity
  8
RACCORDO
100
AcDbSpline
 62
250
  6
CONTINUOUS
 70
0
 71
3
 72
10
 73
6
 74
0
 42
0.0000001
 43
0.0000001
 44
0.0000000001
 40
0.0
 40
0.0
 40
0.0
 40
0.0
 40
0.3629138082
 40
0.6537850104
 40
1.0
 40
1.0
 40
1.0
 40
1.0
 10
29.798749555
 20
-49.5608839667
 30
0.0
 10
29.8005478074
 20
-49.6275137193
 30
0.0
 10
29.8103454561
 20
-49.7498814182
 30
0.0
 10
29.8436971659
 20
-49.9212089357
 30
0.0
 10
29.911837865
 20
-50.0519596456
 30
0.0
 10
29.9746198735
 20
-50.0620458981
 30
0.0
  0
SPLINE
  5
33E
100
AcDbEntity
  8
RACCORDO
100
AcDbSpline
 62
250
  6
CONTINUOUS
 70
0
 71
3
 72
10
 73
6
 74
0
 42
0.0000001
 43
0.0000001
 44
0.0000000001
 40
0.0
 40
0.0
 40
0.0
 40
0.0
 40
0.2494022399
 40
0.4996017557
 40
1.0
 40
1.0
 40
1.0
 40
1.0
 10
32.3803558974
 20
-47.5996280964
 30
0.0
 10
32.3645279842
 20
-46.1166971326
 30
0.0
 10
32.3471784539
 20
-43.1459553966
 30
0.0
 10
32.322290636
 20
-37.1997372224
 30
0.0
 10
32.3009397517
 20
-32.7365181858
 30
0.0
 10
32.2830467284
 20
-29.7610641561
 30
0.0
  0
SPLINE
  5
33F
100
AcDbEntity
  8
RACCORDO
100
AcDbSpline
 62
250
  6
CONTINUOUS
 70
0
 71
3
 72
9
 73
5
 74
0
 42
0.0000001
 43
0.0000001
 44
0.0000000001
 40
0.0
 40
0.0
 40
0.0
 40
0.0
 40
0.4999450678
 40
1.0
 40
1.0
 40
1.0
 40
1.0
 10
32.2819324303
 20
-29.5763831949
 30
0.0
 10
32.265598099
 20
-26.8781611165
 30
0.0
 10
32.2275039611
 20
-21.4811584917
 30
0.0
 10
32.1845310316
 20
-16.0841896926
 30
0.0
 10
32.168388149
 20
-13.385373498
 30
0.0
  0
SPLINE
  5
340
100
AcDbEntity
  8
RACCORDO
100
AcDbSpline
 62
250
  6
CONTINUOUS
 70
0
 71
3
 72
13
 73
9
 74
0
 42
0.0000001
 43
0.0000001
 44
0.0000000001
 40
0.0
 40
0.0
 40
0.0
 40
0.0
 40
0.12472701
 40
0.2498337471
 40
0.3749756749
 40
0.5000608553
 40
0.7500217721
 40
1.0
 40
1.0
 40
1.0
 40
1.0
 10
33.4909657199
 20
-47.3790410339
 30
0.0
 10
33.4686140089
 20
-45.9569952132
 30
0.0
 10
33.4440243902
 20
-43.1082851803
 30
0.0
 10
33.4181449941
 20
-38.8326522138
 30
0.0
 10
33.3927014285
 20
-34.5529144647
 30
0.0
 10
33.3546580042
 20
-28.8495602359
 30
0.0
 10
33.2975198321
 20
-21.7228404244
 30
0.0
 10
33.2478638744
 20
-16.0224058673
 30
0.0
 10
33.2303521602
 20
-13.172039344
 30
0.0
  0
SPLINE
  5
341
100
AcDbEntity
  8
RACCORDO
100
AcDbSpline
 62
250
  6
CONTINUOUS
 70
0
 71
3
 72
10
 73
6
 74
0
 42
0.0000001
 43
0.0000001
 44
0.0000000001
 40
0.0
 40
0.0
 40
0.0
 40
0.0
 40
0.54577834
 40
0.7932310817
 40
1.0
 40
1.0
 40
1.0
 40
1.0
 10
32.3803558974
 20
-47.5996280964
 30
0.0
 10
32.5886944432
 20
-47.6232736941
 30
0.0
 10
32.8998296575
 20
-47.6124843542
 30
0.0
 10
33.2708930918
 20
-47.5092579019
 30
0.0
 10
33.4281370831
 20
-47.4276481862
 30
0.0
 10
33.4909657199
 20
-47.3790410339
 30
0.0
  0
SPLINE
  5
342
100
AcDbEntity
  8
RACCORDO
100
AcDbSpline
 62
250
  6
CONTINUOUS
 70
0
 71
3
 72
14
 73
10
 74
0
 42
0.0000001
 43
0.0000001
 44
0.0000000001
 40
0.0
 40
0.0
 40
0.0
 40
0.0
 40
0.1244080254
 40
0.2491481962
 40
0.498611196
 40
0.6231980631
 40
0.7478153756
 40
0.8729246617
 40
1.0
 40
1.0
 40
1.0
 40
1.0
 10
32.1683881431
 20
-13.3853742264
 30
0.0
 10
32.1580583762
 20
-11.9524763661
 30
0.0
 10
32.151733087
 20
-9.0827593484
 30
0.0
 10
32.159539633
 20
-3.3397557357
 30
0.0
 10
32.1632766801
 20
2.405336961
 30
0.0
 10
32.1492346475
 20
8.1489752786
 30
0.0
 10
32.1348166625
 20
12.460333496
 30
0.0
 10
32.1296488295
 20
16.8002405381
 30
0.0
 10
32.1579267481
 20
19.7051980507
 30
0.0
 10
32.2025769549
 20
21.1681741224
 30
0.0
  0
SPLINE
  5
343
100
AcDbEntity
  8
RACCORDO
100
AcDbSpline
 62
250
  6
CONTINUOUS
 70
0
 71
3
 72
14
 73
10
 74
0
 42
0.0000001
 43
0.0000001
 44
0.0000000001
 40
0.0
 40
0.0
 40
0.0
 40
0.0
 40
0.2492086896
 40
0.4987270191
 40
0.6233336041
 40
0.7479584796
 40
0.8730413155
 40
0.9361216916
 40
1.0
 40
1.0
 40
1.0
 40
1.0
 10
33.2303521602
 20
-13.172039344
 30
0.0
 10
33.2094020089
 20
-10.308940721
 30
0.0
 10
33.2149510503
 20
-4.5789437687
 30
0.0
 10
33.2158301755
 20
2.5825471098
 30
0.0
 10
33.2035567299
 20
8.3127163682
 30
0.0
 10
33.1936703019
 20
12.6132043323
 30
0.0
 10
33.1974541699
 20
16.2069298366
 30
0.0
 10
33.2376562731
 20
19.1024132333
 30
0.0
 10
33.2831412844
 20
20.5605187082
 30
0.0
 10
33.3174976214
 20
21.2936162513
 30
0.0
  0
SPLINE
  5
344
100
AcDbEntity
  8
RACCORDO
100
AcDbSpline
 62
250
  6
CONTINUOUS
 70
0
 71
3
 72
10
 73
6
 74
0
 42
0.0000001
 43
0.0000001
 44
0.0000000001
 40
0.0
 40
0.0
 40
0.0
 40
0.0
 40
0.5484254583
 40
0.7945170058
 40
1.0
 40
1.0
 40
1.0
 40
1.0
 10
32.1683881431
 20
-13.3853742264
 30
0.0
 10
32.3687681833
 20
-13.4040460718
 30
0.0
 10
32.6656782948
 20
-13.3915711492
 30
0.0
 10
33.0201918579
 20
-13.2933646563
 30
0.0
 10
33.1700004742
 20
-13.2172424882
 30
0.0
 10
33.2303521602
 20
-13.172039344
 30
0.0
  0
SPLINE
  5
345
100
AcDbEntity
  8
RACCORDO
100
AcDbSpline
 62
250
  6
CONTINUOUS
 70
0
 71
3
 72
11
 73
7
 74
0
 42
0.0000001
 43
0.0000001
 44
0.0000000001
 40
0.0
 40
0.0
 40
0.0
 40
0.0
 40
0.2435559958
 40
0.4979165776
 40
0.7534916116
 40
1.0
 40
1.0
 40
1.0
 40
1.0
 10
32.2025802531
 20
21.1681786375
 30
0.0
 10
32.212874303
 20
21.5082557438
 30
0.0
 10
32.0788087149
 20
22.2119746256
 30
0.0
 10
31.5365640186
 20
23.1323393318
 30
0.0
 10
30.7512601151
 20
23.8612426674
 30
0.0
 10
30.0932386548
 20
24.1548857322
 30
0.0
 10
29.7564508695
 20
24.2266900264
 30
0.0
  0
SPLINE
  5
346
100
AcDbEntity
  8
RACCORDO
100
AcDbSpline
 62
250
  6
CONTINUOUS
 70
0
 71
3
 72
13
 73
9
 74
0
 42
0.0000001
 43
0.0000001
 44
0.0000000001
 40
0.0
 40
0.0
 40
0.0
 40
0.0
 40
0.1199838469
 40
0.2437494595
 40
0.3706413094
 40
0.4994000871
 40
0.755129546
 40
1.0
 40
1.0
 40
1.0
 40
1.0
 10
33.3174976214
 20
21.2936162513
 30
0.0
 10
33.3246451231
 20
21.5138802355
 30
0.0
 10
33.2930735341
 20
21.9638734331
 30
0.0
 10
33.118761465
 20
22.6254983209
 30
0.0
 10
32.8264371448
 20
23.2619223171
 30
0.0
 10
32.2989156086
 20
24.0430899241
 30
0.0
 10
31.4329732954
 20
24.8389421306
 30
0.0
 10
30.5666563642
 20
25.2124072201
 30
0.0
 10
30.1263904977
 20
25.3043555476
 30
0.0
  0
SPLINE
  5
347
100
AcDbEntity
  8
RACCORDO
100
AcDbSpline
 62
250
  6
CONTINUOUS
 70
0
 71
3
 72
10
 73
6
 74
0
 42
0.0000001
 43
0.0000001
 44
0.0000000001
 40
0.0
 40
0.0
 40
0.0
 40
0.0
 40
0.5552626555
 40
0.8014833152
 40
1.0
 40
1.0
 40
1.0
 40
1.0
 10
32.2025802531
 20
21.1681786375
 30
0.0
 10
32.4107620471
 20
21.1379578363
 30
0.0
 10
32.7189247704
 20
21.1302975695
 30
0.0
 10
33.0925314513
 20
21.1962368926
 30
0.0
 10
33.252639922
 20
21.2555139641
 30
0.0
 10
33.3174799978
 20
21.2936211167
 30
0.0
  0
SPLINE
  5
348
100
AcDbEntity
  8
RACCORDO
100
AcDbSpline
 62
250
  6
CONTINUOUS
 70
0
 71
3
 72
9
 73
5
 74
0
 42
0.0000001
 43
0.0000001
 44
0.0000000001
 40
0.0
 40
0.0
 40
0.0
 40
0.0
 40
0.2519921732
 40
1.0
 40
1.0
 40
1.0
 40
1.0
 10
29.7564512013
 20
24.2266901948
 30
0.0
 10
29.5666853511
 20
24.2671296407
 30
0.0
 10
28.814246994
 20
24.4305395414
 30
0.0
 10
28.0640532672
 20
24.6041584988
 30
0.0
 10
27.5037984425
 20
24.737676701
 30
0.0
  0
SPLINE
  5
349
100
AcDbEntity
  8
RACCORDO
100
AcDbSpline
 62
250
  6
CONTINUOUS
 70
0
 71
3
 72
9
 73
5
 74
0
 42
0.0000001
 43
0.0000001
 44
0.0000000001
 40
0.0
 40
0.0
 40
0.0
 40
0.0
 40
0.5033521017
 40
1.0
 40
1.0
 40
1.0
 40
1.0
 10
27.5037984425
 20
24.737676701
 30
0.0
 10
26.0231794808
 20
25.0905332463
 30
0.0
 10
23.0930394172
 20
25.8387577101
 30
0.0
 10
20.1695580054
 20
26.611328225
 30
0.0
 10
18.718004907
 20
26.9965956538
 30
0.0
  0
LINE
  5
34A
100
AcDbEntity
  8
RACCORDO
100
AcDbLine
 62
250
  6
CONTINUOUS
 10
18.463230598
 20
27.0642363735
 11
17.4560876438
 21
27.3319323263
  0
SPLINE
  5
34B
100
AcDbEntity
  8
RACCORDO
100
AcDbSpline
 62
250
  6
CONTINUOUS
 70
0
 71
3
 72
9
 73
5
 74
0
 42
0.0000001
 43
0.0000001
 44
0.0000000001
 40
0.0
 40
0.0
 40
0.0
 40
0.0
 40
0.2500546592
 40
1.0
 40
1.0
 40
1.0
 40
1.0
 10
17.1647931565
 20
27.4094275791
 30
0.0
 10
16.1273685955
 20
27.685466978
 30
0.0
 10
11.9789824179
 20
28.7909043328
 30
0.0
 10
7.8305125516
 20
29.8960289273
 30
0.0
 10
4.7189085251
 20
30.7230129626
 30
0.0
  0
LINE
  5
34C
100
AcDbEntity
  8
RACCORDO
100
AcDbLine
 62
250
  6
CONTINUOUS
 10
3.8579033385
 20
30.9518159532
 11
2.9976327488
 21
31.1803644923
  0
SPLINE
  5
34D
100
AcDbEntity
  8
RACCORDO
100
AcDbSpline
 62
250
  6
CONTINUOUS
 70
0
 71
3
 72
8
 73
4
 74
0
 42
0.0000001
 43
0.0000001
 44
0.0000000001
 40
0.0
 40
0.0
 40
0.0
 40
0.0
 40
1.0
 40
1.0
 40
1.0
 40
1.0
 10
2.9976327488
 20
31.1803644923
 30
0.0
 10
0.3357507087
 20
31.8874576064
 30
0.0
 10
-2.3263488084
 20
32.5937317981
 30
0.0
 10
-4.988407137
 20
33.3001609328
 30
0.0
  0
SPLINE
  5
34E
100
AcDbEntity
  8
RACCORDO
100
AcDbSpline
 62
250
  6
CONTINUOUS
 70
0
 71
3
 72
12
 73
8
 74
0
 42
0.0000001
 43
0.0000001
 44
0.0000000001
 40
0.0
 40
0.0
 40
0.0
 40
0.0
 40
0.126865919
 40
0.2523400588
 40
0.5018379098
 40
0.7509082081
 40
1.0
 40
1.0
 40
1.0
 40
1.0
 10
27.6270929136
 20
25.8240677139
 30
0.0
 10
26.6616659182
 20
26.041111333
 30
0.0
 10
24.7480940216
 20
26.5024637983
 30
0.0
 10
20.9564927389
 20
27.4745165185
 30
0.0
 10
16.2516397203
 20
28.7220073854
 30
0.0
 10
10.6161536881
 20
30.2214404487
 30
0.0
 10
6.8609617726
 20
31.2194485759
 30
0.0
 10
4.9831779051
 20
31.718064688
 30
0.0
  0
LINE
  5
34F
100
AcDbEntity
  8
RACCORDO
100
AcDbLine
 62
250
  6
CONTINUOUS
 10
4.1198184221
 20
31.9472933184
 11
3.2629257941
 21
32.1747610863
  0
LINE
  5
350
100
AcDbEntity
  8
RACCORDO
100
AcDbLine
 62
250
  6
CONTINUOUS
 10
2.3989085459
 20
32.4040786473
 11
-4.5239596542
 21
34.2406993635
  0
SPLINE
  5
351
100
AcDbEntity
  8
RACCORDO
100
AcDbSpline
 62
250
  6
CONTINUOUS
 70
0
 71
3
 72
10
 73
6
 74
0
 42
0.0000001
 43
0.0000001
 44
0.0000000001
 40
0.0
 40
0.0
 40
0.0
 40
0.0
 40
0.5574297756
 40
0.8039307822
 40
1.0
 40
1.0
 40
1.0
 40
1.0
 10
29.7564512013
 20
24.2266901948
 30
0.0
 10
29.7757643051
 20
24.4399737085
 30
0.0
 10
29.8388592897
 20
24.7465748767
 30
0.0
 10
29.9847665807
 20
25.1023713072
 30
0.0
 10
30.0759574085
 20
25.2484034488
 30
0.0
 10
30.1263904977
 20
25.3043555476
 30
0.0
  0
SPLINE
  5
352
100
AcDbEntity
  8
RACCORDO
100
AcDbSpline
 62
250
  6
CONTINUOUS
 70
0
 71
3
 72
9
 73
5
 74
0
 42
0.0000001
 43
0.0000001
 44
0.0000000001
 40
0.0
 40
0.0
 40
0.0
 40
0.0
 40
0.7499573437
 40
1.0
 40
1.0
 40
1.0
 40
1.0
 10
-4.9884075936
 20
33.3001610501
 30
0.0
 10
-8.3829583452
 20
34.2011833634
 30
0.0
 10
-12.9092370071
 20
35.4027908074
 30
0.0
 10
-17.436221507
 20
36.6017356842
 30
0.0
 10
-18.5682123772
 20
36.9013278792
 30
0.0
  0
LINE
  5
353
100
AcDbEntity
  8
RACCORDO
100
AcDbLine
 62
250
  6
CONTINUOUS
 10
-23.2491393815
 20
38.1390949929
 11
-24.0608445146
 21
38.3536393404
  0
SPLINE
  5
354
100
AcDbEntity
  8
RACCORDO
100
AcDbSpline
 62
250
  6
CONTINUOUS
 70
0
 71
3
 72
12
 73
8
 74
0
 42
0.0000001
 43
0.0000001
 44
0.0000000001
 40
0.0
 40
0.0
 40
0.0
 40
0.0
 40
0.2533932969
 40
0.5061449031
 40
0.7566473447
 40
0.8797411005
 40
1.0
 40
1.0
 40
1.0
 40
1.0
 10
-24.3601828368
 20
38.4327661294
 30
0.0
 10
-25.6243009278
 20
38.7669325411
 30
0.0
 10
-28.1493803468
 20
39.4342725421
 30
0.0
 10
-31.9225745887
 20
40.4378282155
 30
0.0
 10
-35.0417626606
 20
41.2848088898
 30
0.0
 10
-37.49116872
 20
41.9881777477
 30
0.0
 10
-38.6916647225
 20
42.3571050296
 30
0.0
 10
-39.2816504981
 20
42.54945843
 30
0.0
  0
SPLINE
  5
355
100
AcDbEntity
  8
RACCORDO
100
AcDbSpline
 62
250
  6
CONTINUOUS
 70
0
 71
3
 72
16
 73
12
 74
0
 42
0.0000001
 43
0.0000001
 44
0.0000000001
 40
0.0
 40
0.0
 40
0.0
 40
0.0
 40
0.2513525456
 40
0.3770543219
 40
0.5027823446
 40
0.628492918
 40
0.7540090301
 40
0.8165268962
 40
0.8786574335
 40
0.9400291425
 40
1.0
 40
1.0
 40
1.0
 40
1.0
 10
-4.5239596542
 20
34.2406993635
 30
0.0
 10
-7.3929176293
 20
35.0023544143
 30
0.0
 10
-11.6965058664
 20
36.145441557
 30
0.0
 10
-17.4356995528
 20
37.6674926722
 30
0.0
 10
-21.7411379086
 20
38.8075714083
 30
0.0
 10
-26.044393677
 20
39.9473073122
 30
0.0
 10
-29.6248248051
 20
40.9006179181
 30
0.0
 10
-32.475446505
 20
41.6764756487
 30
0.0
 10
-34.5906347427
 20
42.2698704561
 30
0.0
 10
-36.6678701449
 20
42.8864748753
 30
0.0
 10
-38.0298335284
 20
43.3333961436
 30
0.0
 10
-38.6972895133
 20
43.5702155958
 30
0.0
  0
SPLINE
  5
356
100
AcDbEntity
  8
RACCORDO
100
AcDbSpline
 62
250
  6
CONTINUOUS
 70
0
 71
3
 72
14
 73
10
 74
0
 42
0.0000001
 43
0.0000001
 44
0.0000000001
 40
0.0
 40
0.0
 40
0.0
 40
0.0
 40
0.1278550336
 40
0.2500472895
 40
0.3684852314
 40
0.4856918525
 40
0.6047234051
 40
0.7287927152
 40
1.0
 40
1.0
 40
1.0
 40
1.0
 10
-39.2816517562
 20
42.5494581396
 30
0.0
 10
-39.4202258696
 20
42.594616661
 30
0.0
 10
-39.7023447088
 20
42.6530780068
 30
0.0
 10
-40.1261452716
 20
42.6377096991
 30
0.0
 10
-40.5218835621
 20
42.5223854543
 30
0.0
 10
-40.8733887703
 20
42.3142024279
 30
0.0
 10
-41.167188444
 20
42.0211815132
 30
0.0
 10
-41.4755084526
 20
41.5172748083
 30
0.0
 10
-41.574281437
 20
41.0618748235
 30
0.0
 10
-41.5915428113
 20
40.7531979976
 30
0.0
  0
SPLINE
  5
357
100
AcDbEntity
  8
RACCORDO
100
AcDbSpline
 62
250
  6
CONTINUOUS
 70
0
 71
3
 72
11
 73
7
 74
0
 42
0.0000001
 43
0.0000001
 44
0.0000000001
 40
0.0
 40
0.0
 40
0.0
 40
0.0
 40
0.265204497
 40
0.5174550242
 40
0.7604291498
 40
1.0
 40
1.0
 40
1.0
 40
1.0
 10
-38.6972895133
 20
43.5702155958
 30
0.0
 10
-38.8891773648
 20
43.633269435
 30
0.0
 10
-39.2781164554
 20
43.7176041055
 30
0.0
 10
-39.8628682258
 20
43.7042763157
 30
0.0
 10
-40.4069315483
 20
43.5482872936
 30
0.0
 10
-40.7245111897
 20
43.3528960553
 30
0.0
 10
-40.8656513945
 20
43.2372638547
 30
0.0
  0
SPLINE
  5
358
100
AcDbEntity
  8
RACCORDO
100
AcDbSpline
 62
250
  6
CONTINUOUS
 70
0
 71
3
 72
15
 73
11
 74
0
 42
0.0000001
 43
0.0000001
 44
0.0000000001
 40
0.0
 40
0.0
 40
0.0
 40
0.0
 40
0.0637006865
 40
0.1266882549
 40
0.2517056624
 40
0.3763335925
 40
0.5009762945
 40
0.6257481441
 40
0.7506335373
 40
1.0
 40
1.0
 40
1.0
 40
1.0
 10
-41.5915457939
 20
40.753196996
 30
0.0
 10
-41.6323964893
 20
40.0210324342
 30
0.0
 10
-41.6876566654
 20
38.56344542
 30
0.0
 10
-41.7384948668
 20
35.6662700984
 30
0.0
 10
-41.7471366473
 20
32.0672267537
 30
0.0
 10
-41.7391380104
 20
27.7585702661
 30
0.0
 10
-41.7297341897
 20
23.452707882
 30
0.0
 10
-41.7247769686
 20
19.143880088
 30
0.0
 10
-41.7226724017
 20
13.3992805241
 30
0.0
 10
-41.7218399399
 20
9.0909464299
 30
0.0
 10
-41.7008035957
 20
6.220391193
 30
0.0
  0
SPLINE
  5
359
100
AcDbEntity
  8
RACCORDO
100
AcDbSpline
 62
250
  6
CONTINUOUS
 70
0
 71
3
 72
11
 73
7
 74
0
 42
0.0000001
 43
0.0000001
 44
0.0000000001
 40
0.0
 40
0.0
 40
0.0
 40
0.0
 40
0.3268735274
 40
0.598259041
 40
0.8165100661
 40
1.0
 40
1.0
 40
1.0
 40
1.0
 10
-41.5915457939
 20
40.753196996
 30
0.0
 10
-41.6337527016
 20
40.7714183543
 30
0.0
 10
-41.7092338439
 20
40.8094066289
 30
0.0
 10
-41.8018938865
 20
40.8785198704
 30
0.0
 10
-41.8616711644
 20
40.9541592853
 30
0.0
 10
-41.8754484075
 20
41.0116809941
 30
0.0
 10
-41.8743136173
 20
41.0374624396
 30
0.0
  0
SPLINE
  5
35A
100
AcDbEntity
  8
RACCORDO
100
AcDbSpline
 62
250
  6
CONTINUOUS
 70
0
 71
3
 72
13
 73
9
 74
0
 42
0.0000001
 43
0.0000001
 44
0.0000000001
 40
0.0
 40
0.0
 40
0.0
 40
0.0
 40
0.2499042138
 40
0.4998361315
 40
0.6249199204
 40
0.7500690566
 40
0.8751978038
 40
1.0
 40
1.0
 40
1.0
 40
1.0
 10
-41.7008013129
 20
6.2203921625
 30
0.0
 10
-41.6829304534
 20
3.3684052442
 30
0.0
 10
-41.631484593
 20
-2.3357742325
 30
0.0
 10
-41.5696365613
 20
-9.4674308916
 30
0.0
 10
-41.5264292409
 20
-15.1754200981
 30
0.0
 10
-41.4964418434
 20
-19.4591520737
 30
0.0
 10
-41.4650676159
 20
-23.7396353893
 30
0.0
 10
-41.4354457335
 20
-26.5918902585
 30
0.0
 10
-41.408712601
 20
-28.0159499481
 30
0.0
  0
SPLINE
  5
35B
100
AcDbEntity
  8
RACCORDO
100
AcDbSpline
 62
250
  6
CONTINUOUS
 70
0
 71
3
 72
11
 73
7
 74
0
 42
0.0000001
 43
0.0000001
 44
0.0000000001
 40
0.0
 40
0.0
 40
0.0
 40
0.0
 40
0.3048831668
 40
0.5684572601
 40
0.7952888395
 40
1.0
 40
1.0
 40
1.0
 40
1.0
 10
-41.7008013129
 20
6.2203921625
 30
0.0
 10
-41.7369799592
 20
6.2393014665
 30
0.0
 10
-41.802202792
 20
6.2792906914
 30
0.0
 10
-41.8814771353
 20
6.3516657755
 30
0.0
 10
-41.9322946882
 20
6.4313209214
 30
0.0
 10
-41.944754361
 20
6.4894352075
 30
0.0
 10
-41.9449496968
 20
6.5168442585
 30
0.0
  0
SPLINE
  5
35C
100
AcDbEntity
  8
RACCORDO
100
AcDbSpline
 62
250
  6
CONTINUOUS
 70
0
 71
3
 72
11
 73
7
 74
0
 42
0.0000001
 43
0.0000001
 44
0.0000000001
 40
0.0
 40
0.0
 40
0.0
 40
0.0
 40
0.2501512222
 40
0.5146507125
 40
0.770101923
 40
1.0
 40
1.0
 40
1.0
 40
1.0
 10
-41.4087130221
 20
-28.0159501424
 30
0.0
 10
-41.4024737264
 20
-28.3473853972
 30
0.0
 10
-41.2715880127
 20
-29.0285061928
 30
0.0
 10
-40.8261775508
 20
-29.9576023998
 30
0.0
 10
-40.1821378834
 20
-30.7278965432
 30
0.0
 10
-39.635170802
 20
-31.0926174538
 30
0.0
 10
-39.3531730313
 20
-31.207908148
 30
0.0
  0
SPLINE
  5
35D
100
AcDbEntity
  8
RACCORDO
100
AcDbSpline
 62
250
  6
CONTINUOUS
 70
0
 71
3
 72
11
 73
7
 74
0
 42
0.0000001
 43
0.0000001
 44
0.0000000001
 40
0.0
 40
0.0
 40
0.0
 40
0.0
 40
0.3060858621
 40
0.5703618828
 40
0.7967267212
 40
1.0
 40
1.0
 40
1.0
 40
1.0
 10
-41.4087130221
 20
-28.0159501424
 30
0.0
 10
-41.4494575361
 20
-27.9964972445
 30
0.0
 10
-41.5230713891
 20
-27.9548473026
 30
0.0
 10
-41.6131433997
 20
-27.8778557595
 30
0.0
 10
-41.6715141696
 20
-27.791789715
 30
0.0
 10
-41.6862463681
 20
-27.7281512286
 30
0.0
 10
-41.686705669
 20
-27.698170327
 30
0.0
  0
SPLINE
  5
35E
100
AcDbEntity
  8
RACCORDO
100
AcDbSpline
 62
250
  6
CONTINUOUS
 70
0
 71
3
 72
11
 73
7
 74
0
 42
0.0000001
 43
0.0000001
 44
0.0000000001
 40
0.0
 40
0.0
 40
0.0
 40
0.0
 40
0.2400392893
 40
0.4883122328
 40
0.742387123
 40
1.0
 40
1.0
 40
1.0
 40
1.0
 10
-39.3531730149
 20
-31.2079081381
 30
0.0
 10
-38.123216982
 20
-31.710767552
 30
0.0
 10
-35.5815543502
 20
-32.6366889421
 30
0.0
 10
-31.6638186281
 20
-33.879449371
 30
0.0
 10
-27.6163785889
 20
-35.0288666368
 30
0.0
 10
-24.8755927651
 20
-35.7441041662
 30
0.0
 10
-23.4972228302
 20
-36.1098252868
 30
0.0
  0
SPLINE
  5
35F
100
AcDbEntity
  8
RACCORDO
100
AcDbSpline
 62
250
  6
CONTINUOUS
 70
0
 71
3
 72
11
 73
7
 74
0
 42
0.0000001
 43
0.0000001
 44
0.0000000001
 40
0.0
 40
0.0
 40
0.0
 40
0.0
 40
0.2928608238
 40
0.5542118717
 40
0.7862771786
 40
1.0
 40
1.0
 40
1.0
 40
1.0
 10
-39.3531730149
 20
-31.2079081381
 30
0.0
 10
-39.3496925093
 20
-31.2692741549
 30
0.0
 10
-39.3334513906
 20
-31.3852705521
 30
0.0
 10
-39.2760175523
 20
-31.541644338
 30
0.0
 10
-39.1877221389
 20
-31.6637731427
 30
0.0
 10
-39.1082077453
 20
-31.7176865153
 30
0.0
 10
-39.0669085449
 20
-31.7351903735
 30
0.0
  0
SPLINE
  5
360
100
AcDbEntity
  8
RACCORDO
100
AcDbSpline
 62
250
  6
CONTINUOUS
 70
0
 71
3
 72
12
 73
8
 74
0
 42
0.0000001
 43
0.0000001
 44
0.0000000001
 40
0.0
 40
0.0
 40
0.0
 40
0.0
 40
0.2589833894
 40
0.5129720824
 40
0.7604307211
 40
0.8812416441
 40
1.0
 40
1.0
 40
1.0
 40
1.0
 10
-4.9894971552
 20
33.3004502073
 30
0.0
 10
-5.1852611151
 20
32.1864841965
 30
0.0
 10
-5.5377683289
 20
29.9734397263
 30
0.0
 10
-5.9130861375
 20
26.6726229326
 30
0.0
 10
-6.0976561817
 20
23.9603410138
 30
0.0
 10
-6.1697264246
 20
21.8344735037
 30
0.0
 10
-6.1766567373
 20
20.7879986887
 30
0.0
 10
-6.1694764505
 20
20.2694049093
 30
0.0
  0
SPLINE
  5
361
100
AcDbEntity
  8
RACCORDO
100
AcDbSpline
 62
250
  6
CONTINUOUS
 70
0
 71
3
 72
11
 73
7
 74
0
 42
0.0000001
 43
0.0000001
 44
0.0000000001
 40
0.0
 40
0.0
 40
0.0
 40
0.0
 40
0.2454375821
 40
0.4914217534
 40
0.7418721647
 40
1.0
 40
1.0
 40
1.0
 40
1.0
 10
32.4660779529
 20
-49.5064488362
 30
0.0
 10
32.6275758413
 20
-49.3878674011
 30
0.0
 10
32.9237050737
 20
-49.1103355839
 30
0.0
 10
33.2542080661
 20
-48.5958087276
 30
0.0
 10
33.4543784625
 20
-48.0072054075
 30
0.0
 10
33.493722365
 20
-47.5897398988
 30
0.0
 10
33.4909657199
 20
-47.3790410339
 30
0.0
  0
SPLINE
  5
362
100
AcDbEntity
  8
RACCORDO
100
AcDbSpline
 62
250
  6
CONTINUOUS
 70
0
 71
3
 72
9
 73
5
 74
0
 42
0.0000001
 43
0.0000001
 44
0.0000000001
 40
0.0
 40
0.0
 40
0.0
 40
0.0
 40
0.4813547249
 40
1.0
 40
1.0
 40
1.0
 40
1.0
 10
-41.7007984685
 20
6.2199796509
 30
0.0
 10
-39.9229196821
 20
5.291376482
 30
0.0
 10
-36.0911898865
 20
3.6231788482
 30
0.0
 10
-32.1077661395
 20
2.3771731726
 30
0.0
 10
-30.0189115277
 20
1.8227937634
 30
0.0
  0
SPLINE
  5
363
100
AcDbEntity
  8
SKEL_COPERCHIO
100
AcDbSpline
 62
7
  6
CONTINUOUS
 70
0
 71
3
 72
10
 73
6
 74
0
 42
0.0000001
 43
0.0000001
 44
0.0000000001
 40
0.0
 40
0.0
 40
0.0
 40
0.0
 40
0.2315406315
 40
0.472760387
 40
1.0
 40
1.0
 40
1.0
 40
1.0
 10
-41.2416515713
 20
42.9285511879
 30
0.0
 10
-41.3758258637
 20
42.8183997234
 30
0.0
 10
-41.6214600747
 20
42.5566143492
 30
0.0
 10
-41.9903605719
 20
41.8975244706
 30
0.0
 10
-42.0975215067
 20
41.3130001225
 30
0.0
 10
-42.1121671918
 20
40.9179738672
 30
0.0
  0
SPLINE
  5
364
100
AcDbEntity
  8
SKEL_COPERCHIO
100
AcDbSpline
 62
7
  6
CONTINUOUS
 70
0
 71
3
 72
10
 73
6
 74
0
 42
0.0000001
 43
0.0000001
 44
0.0000000001
 40
0.0
 40
0.0
 40
0.0
 40
0.0
 40
0.2373270364
 40
0.4804579077
 40
1.0
 40
1.0
 40
1.0
 40
1.0
 10
36.8376609858
 20
-46.2967840786
 30
0.0
 10
36.9930475476
 20
-46.1827292961
 30
0.0
 10
37.2780219019
 20
-45.9081654392
 30
0.0
 10
37.7030294066
 20
-45.2079397955
 30
0.0
 10
37.8168344227
 20
-44.5721443739
 30
0.0
 10
37.8141548326
 20
-44.1501909672
 30
0.0
  0
SPLINE
  5
365
100
AcDbEntity
  8
SKEL_COPERCHIO
100
AcDbSpline
 62
7
  6
CONTINUOUS
 70
0
 71
3
 72
9
 73
5
 74
0
 42
0.0000001
 43
0.0000001
 44
0.0000000001
 40
0.0
 40
0.0
 40
0.0
 40
0.0
 40
0.5145671992
 40
1.0
 40
1.0
 40
1.0
 40
1.0
 10
29.6548893712
 20
-50.3255856173
 30
0.0
 10
30.0760476255
 20
-50.3960625915
 30
0.0
 10
30.9274899355
 20
-50.396667682
 30
0.0
 10
31.7165950674
 20
-50.0567358409
 30
0.0
 10
32.0413075202
 20
-49.8183252816
 30
0.0
  0
SPLINE
  5
366
100
AcDbEntity
  8
SKEL_COPERCHIO
100
AcDbSpline
 62
7
  6
CONTINUOUS
 70
0
 71
3
 72
11
 73
7
 74
0
 42
0.0000001
 43
0.0000001
 44
0.0000000001
 40
0.0
 40
0.0
 40
0.0
 40
0.0
 40
0.2441358203
 40
0.4913401861
 40
0.7430383984
 40
1.0
 40
1.0
 40
1.0
 40
1.0
 10
12.6985058394
 20
-46.4476950208
 30
0.0
 10
14.0671731302
 20
-46.8108491976
 30
0.0
 10
16.8205246706
 20
-47.5463321717
 30
0.0
 10
21.0049497173
 20
-48.5798118298
 30
0.0
 10
25.286464078
 20
-49.5244742003
 30
0.0
 10
28.184911045
 20
-50.0795982159
 30
0.0
 10
29.6548893712
 20
-50.3255856173
 30
0.0
  0
SPLINE
  5
367
100
AcDbEntity
  8
SKEL_COPERCHIO
100
AcDbSpline
 62
7
  6
CONTINUOUS
 70
0
 71
3
 72
13
 73
9
 74
0
 42
0.0000001
 43
0.0000001
 44
0.0000000001
 40
0.0
 40
0.0
 40
0.0
 40
0.0
 40
0.1266824049
 40
0.2516983596
 40
0.376313571
 40
0.5009348062
 40
0.7505514778
 40
1.0
 40
1.0
 40
1.0
 40
1.0
 10
-42.1121671918
 20
40.9179738672
 30
0.0
 10
-42.1660722703
 20
39.4640356522
 30
0.0
 10
-42.2037922674
 20
36.5729711045
 30
0.0
 10
-42.2029125905
 20
32.2511740278
 30
0.0
 10
-42.1894247008
 20
27.9528982584
 30
0.0
 10
-42.1738728267
 20
22.223640241
 30
0.0
 10
-42.1716551325
 20
15.0606594375
 30
0.0
 10
-42.1776276596
 20
9.3288820664
 30
0.0
 10
-42.1609784173
 20
6.4640344028
 30
0.0
  0
SPLINE
  5
368
100
AcDbEntity
  8
SKEL_COPERCHIO
100
AcDbSpline
 62
7
  6
CONTINUOUS
 70
0
 71
3
 72
11
 73
7
 74
0
 42
0.0000001
 43
0.0000001
 44
0.0000000001
 40
0.0
 40
0.0
 40
0.0
 40
0.0
 40
0.2403637456
 40
0.48863647
 40
0.7425855927
 40
1.0
 40
1.0
 40
1.0
 40
1.0
 10
-39.1687906397
 20
-32.0597255691
 30
0.0
 10
-37.9397626615
 20
-32.5354171511
 30
0.0
 10
-35.41008846
 20
-33.4214708257
 30
0.0
 10
-31.5251771523
 20
-34.6409186929
 30
0.0
 10
-27.5182070995
 20
-35.7789348435
 30
0.0
 10
-24.8070733477
 20
-36.493593197
 30
0.0
 10
-23.4429615335
 20
-36.8557205018
 30
0.0
  0
SPLINE
  5
369
100
AcDbEntity
  8
SKEL_COPERCHIO
100
AcDbSpline
 62
7
  6
CONTINUOUS
 70
0
 71
3
 72
11
 73
7
 74
0
 42
0.0000001
 43
0.0000001
 44
0.0000000001
 40
0.0
 40
0.0
 40
0.0
 40
0.0
 40
0.2495976489
 40
0.5136901141
 40
0.769446377
 40
1.0
 40
1.0
 40
1.0
 40
1.0
 10
-41.9212504043
 20
-27.7566565759
 30
0.0
 10
-41.9153331524
 20
-28.2029128726
 30
0.0
 10
-41.7513275233
 20
-29.1215189444
 30
0.0
 10
-41.1688178927
 20
-30.3833664312
 30
0.0
 10
-40.3010929025
 20
-31.4277316025
 30
0.0
 10
-39.5532423761
 20
-31.910924681
 30
0.0
 10
-39.1687906397
 20
-32.0597255691
 30
0.0
  0
SPLINE
  5
36A
100
AcDbEntity
  8
SKEL_COPERCHIO
100
AcDbSpline
 62
7
  6
CONTINUOUS
 70
0
 71
3
 72
12
 73
8
 74
0
 42
0.0000001
 43
0.0000001
 44
0.0000000001
 40
0.0
 40
0.0
 40
0.0
 40
0.0
 40
0.2498870416
 40
0.4998275406
 40
0.7500728398
 40
0.875204164
 40
1.0
 40
1.0
 40
1.0
 40
1.0
 10
-42.1609784173
 20
6.4640344028
 30
0.0
 10
-42.1426853935
 20
3.613585685
 30
0.0
 10
-42.0949697814
 20
-2.0878434647
 30
0.0
 10
-42.0308364656
 20
-10.6438226002
 30
0.0
 10
-41.9917482107
 20
-17.7768315875
 30
0.0
 10
-41.9614424319
 20
-23.4822983412
 30
0.0
 10
-41.9401249081
 20
-26.3332126649
 30
0.0
 10
-41.9212504036
 20
-27.7566565754
 30
0.0
  0
SPLINE
  5
36B
100
AcDbEntity
  8
SKEL_COPERCHIO
100
AcDbSpline
 62
7
  6
CONTINUOUS
 70
0
 71
3
 72
10
 73
6
 74
0
 42
0.0000001
 43
0.0000001
 44
0.0000000001
 40
0.0
 40
0.0
 40
0.0
 40
0.0
 40
0.2495389536
 40
0.4997249608
 40
1.0
 40
1.0
 40
1.0
 40
1.0
 10
33.1036392983
 20
-47.668322492
 30
0.0
 10
33.0832604608
 20
-46.1781971925
 30
0.0
 10
33.0614195562
 20
-43.1938478412
 30
0.0
 10
33.0304286638
 20
-37.2218716629
 30
0.0
 10
33.005674035
 20
-32.7401246695
 30
0.0
 10
32.9856259675
 20
-29.7525132903
 30
0.0
  0
SPLINE
  5
36C
100
AcDbEntity
  8
SKEL_COPERCHIO
100
AcDbSpline
 62
7
  6
CONTINUOUS
 70
0
 71
3
 72
9
 73
5
 74
0
 42
0.0000001
 43
0.0000001
 44
0.0000000001
 40
0.0
 40
0.0
 40
0.0
 40
0.0
 40
0.5000295957
 40
1.0
 40
1.0
 40
1.0
 40
1.0
 10
32.9854476131
 20
-29.7259449647
 30
0.0
 10
32.9672259866
 20
-27.0126560902
 30
0.0
 10
32.9257037014
 20
-21.586435478
 30
0.0
 10
32.8799781799
 20
-16.1602450324
 30
0.0
 10
32.8625564249
 20
-13.4472721058
 30
0.0
  0
SPLINE
  5
36D
100
AcDbEntity
  8
SKEL_COPERCHIO
100
AcDbSpline
 62
7
  6
CONTINUOUS
 70
0
 71
3
 72
9
 73
5
 74
0
 42
0.0000001
 43
0.0000001
 44
0.0000000001
 40
0.0
 40
0.0
 40
0.0
 40
0.0
 40
0.4953897583
 40
1.0
 40
1.0
 40
1.0
 40
1.0
 10
32.0413075202
 20
-49.8183252816
 30
0.0
 10
32.3699733226
 20
-49.5770120917
 30
0.0
 10
32.9290606556
 20
-48.924137497
 30
0.0
 10
33.1093188142
 20
-48.0836144493
 30
0.0
 10
33.1036392969
 20
-47.6683224931
 30
0.0
  0
SPLINE
  5
36E
100
AcDbEntity
  8
SKEL_COPERCHIO
100
AcDbSpline
 62
250
  6
CONTINUOUS
 70
0
 71
3
 72
9
 73
5
 74
0
 42
0.0000001
 43
0.0000001
 44
0.0000000001
 40
0.0
 40
0.0
 40
0.0
 40
0.0
 40
0.5050510459
 40
1.0
 40
1.0
 40
1.0
 40
1.0
 10
12.2722628908
 20
-37.8594975346
 30
0.0
 10
12.3158842886
 20
-39.306537543
 30
0.0
 10
12.4195282865
 20
-42.1713221396
 30
0.0
 10
12.5962331743
 20
-45.0326457528
 30
0.0
 10
12.6985058393
 20
-46.4476950208
 30
0.0
  0
SPLINE
  5
36F
100
AcDbEntity
  8
SKEL_COPERCHIO
100
AcDbSpline
 62
7
  6
CONTINUOUS
 70
0
 71
3
 72
9
 73
5
 74
0
 42
0.0000001
 43
0.0000001
 44
0.0000000001
 40
0.0
 40
0.0
 40
0.0
 40
0.0
 40
0.5047603656
 40
1.0
 40
1.0
 40
1.0
 40
1.0
 10
29.7393058255
 20
24.9918415569
 30
0.0
 10
28.1500953347
 20
25.309298634
 30
0.0
 10
25.024024136
 20
26.0477693105
 30
0.0
 10
21.9171576127
 20
26.856555299
 30
0.0
 10
20.379268561
 20
27.2604415439
 30
0.0
  0
SPLINE
  5
370
100
AcDbEntity
  8
SKEL_COPERCHIO
100
AcDbSpline
 62
7
  6
CONTINUOUS
 70
0
 71
3
 72
8
 73
4
 74
0
 42
0.0000001
 43
0.0000001
 44
0.0000000001
 40
0.0
 40
0.0
 40
0.0
 40
0.0
 40
1.0
 40
1.0
 40
1.0
 40
1.0
 10
17.2015786986
 20
28.1001297803
 30
0.0
 10
16.6279112386
 20
28.2523641216
 30
0.0
 10
16.0542971997
 20
28.4047997711
 30
0.0
 10
15.4807028935
 20
28.5573095126
 30
0.0
  0
SPLINE
  5
371
100
AcDbEntity
  8
SKEL_COPERCHIO
100
AcDbSpline
 62
7
  6
CONTINUOUS
 70
0
 71
3
 72
8
 73
4
 74
0
 42
0.0000001
 43
0.0000001
 44
0.0000000001
 40
0.0
 40
0.0
 40
0.0
 40
0.0
 40
1.0
 40
1.0
 40
1.0
 40
1.0
 10
15.3510980872
 20
28.5917710101
 30
0.0
 10
11.8645810892
 20
29.5188672112
 30
0.0
 10
8.3784886807
 20
30.447560503
 30
0.0
 10
4.891738813
 20
31.3737805114
 30
0.0
  0
SPLINE
  5
372
100
AcDbEntity
  8
SKEL_COPERCHIO
100
AcDbSpline
 62
7
  6
CONTINUOUS
 70
0
 71
3
 72
8
 73
4
 74
0
 42
0.0000001
 43
0.0000001
 44
0.0000000001
 40
0.0
 40
0.0
 40
0.0
 40
0.0
 40
1.0
 40
1.0
 40
1.0
 40
1.0
 10
3.171567395
 20
31.8306268227
 30
0.0
 10
0.4910897098
 20
32.5423592015
 30
0.0
 10
-2.1895862355
 20
33.2533447009
 30
0.0
 10
-4.8701869551
 20
33.9646135543
 30
0.0
  0
SPLINE
  5
373
100
AcDbEntity
  8
SKEL_COPERCHIO
100
AcDbSpline
 62
7
  6
CONTINUOUS
 70
0
 71
3
 72
13
 73
9
 74
0
 42
0.0000001
 43
0.0000001
 44
0.0000000001
 40
0.0
 40
0.0
 40
0.0
 40
0.0
 40
0.1202252481
 40
0.2438604317
 40
0.3705705401
 40
0.4992236919
 40
0.7548484442
 40
1.0
 40
1.0
 40
1.0
 40
1.0
 10
32.9275456213
 20
21.0023739024
 30
0.0
 10
32.9362845354
 20
21.222342079
 30
0.0
 10
32.9064179928
 20
21.6715186945
 30
0.0
 10
32.7308181404
 20
22.330665628
 30
0.0
 10
32.4362682814
 20
22.9628734564
 30
0.0
 10
31.9073280208
 20
23.7384999031
 30
0.0
 10
31.045272046
 20
24.5325029289
 30
0.0
 10
30.1795005541
 20
24.9039092579
 30
0.0
 10
29.7393058255
 20
24.9918415569
 30
0.0
  0
SPLINE
  5
374
100
AcDbEntity
  8
SKEL_COPERCHIO
100
AcDbSpline
 62
7
  6
CONTINUOUS
 70
0
 71
3
 72
11
 73
7
 74
0
 42
0.0000001
 43
0.0000001
 44
0.0000000001
 40
0.0
 40
0.0
 40
0.0
 40
0.0
 40
0.2498540611
 40
0.5001694787
 40
0.7502340847
 40
1.0
 40
1.0
 40
1.0
 40
1.0
 10
32.8625564249
 20
-13.4472721058
 30
0.0
 10
32.8511801173
 20
-11.4787243557
 30
0.0
 10
32.8492776742
 20
-7.5378963568
 30
0.0
 10
32.855973176
 20
-1.6268756767
 30
0.0
 10
32.8513776602
 20
4.2834727541
 30
0.0
 10
32.8395516624
 20
8.2215810587
 30
0.0
 10
32.8346210142
 20
10.1894610092
 30
0.0
  0
SPLINE
  5
375
100
AcDbEntity
  8
SKEL_COPERCHIO
100
AcDbSpline
 62
7
  6
CONTINUOUS
 70
0
 71
3
 72
10
 73
6
 74
0
 42
0.0000001
 43
0.0000001
 44
0.0000000001
 40
0.0
 40
0.0
 40
0.0
 40
0.0
 40
0.4968410826
 40
0.7469073666
 40
1.0
 40
1.0
 40
1.0
 40
1.0
 10
32.8345151654
 20
10.2317876485
 30
0.0
 10
32.830062641
 20
12.0157087354
 30
0.0
 10
32.8234532792
 20
14.6975450733
 30
0.0
 10
32.8496918415
 20
18.2879986946
 30
0.0
 10
32.8914715761
 20
20.0943515527
 30
0.0
 10
32.9275456211
 20
21.0023739022
 30
0.0
  0
SPLINE
  5
376
100
AcDbEntity
  8
SKEL_COPERCHIO
100
AcDbSpline
 62
250
  6
CONTINUOUS
 70
0
 71
3
 72
9
 73
5
 74
0
 42
0.0000001
 43
0.0000001
 44
0.0000000001
 40
0.0
 40
0.0
 40
0.0
 40
0.0
 40
0.4818366647
 40
1.0
 40
1.0
 40
1.0
 40
1.0
 10
17.5681709621
 20
-10.8054517291
 30
0.0
 10
19.9760305549
 20
-11.4602909592
 30
0.0
 10
25.0447936333
 20
-12.5633022659
 30
0.0
 10
30.1890289501
 20
-13.2167988477
 30
0.0
 10
32.8625564249
 20
-13.4472721058
 30
0.0
  0
SPLINE
  5
377
100
AcDbEntity
  8
SKEL_COPERCHIO
100
AcDbSpline
 62
7
  6
CONTINUOUS
 70
0
 71
3
 72
11
 73
7
 74
0
 42
0.0000001
 43
0.0000001
 44
0.0000000001
 40
0.0
 40
0.0
 40
0.0
 40
0.0
 40
0.2643291717
 40
0.5168763328
 40
0.7604471255
 40
1.0
 40
1.0
 40
1.0
 40
1.0
 10
-39.0843741855
 20
43.2577016051
 30
0.0
 10
-39.2740818006
 20
43.3222396998
 30
0.0
 10
-39.6606582321
 20
43.4080866892
 30
0.0
 10
-40.2428280821
 20
43.3945415143
 30
0.0
 10
-40.7848546166
 20
43.2385972743
 30
0.0
 10
-41.1012902739
 20
43.0437819238
 30
0.0
 10
-41.2416515713
 20
42.9285511879
 30
0.0
  0
SPLINE
  5
378
100
AcDbEntity
  8
SKEL_COPERCHIO
100
AcDbSpline
 62
7
  6
CONTINUOUS
 70
0
 71
3
 72
8
 73
4
 74
0
 42
0.0000001
 43
0.0000001
 44
0.0000000001
 40
0.0
 40
0.0
 40
0.0
 40
0.0
 40
1.0
 40
1.0
 40
1.0
 40
1.0
 10
-4.8701869551
 20
33.9646135543
 30
0.0
 10
-9.0402655368
 20
35.0716116417
 30
0.0
 10
-13.2102387342
 20
36.1790082383
 30
0.0
 10
-17.3808485248
 20
37.2840033139
 30
0.0
  0
LINE
  5
379
100
AcDbEntity
  8
SKEL_COPERCHIO
100
AcDbLine
 62
7
  6
CONTINUOUS
 10
-17.3808485248
 20
37.2840033139
 11
-19.9585917421
 21
37.9666546172
  0
SPLINE
  5
37A
100
AcDbEntity
  8
SKEL_COPERCHIO
100
AcDbSpline
 62
7
  6
CONTINUOUS
 70
0
 71
3
 72
11
 73
7
 74
0
 42
0.0000001
 43
0.0000001
 44
0.0000000001
 40
0.0
 40
0.0
 40
0.0
 40
0.0
 40
0.2524779505
 40
0.5045695796
 40
0.7550733162
 40
1.0
 40
1.0
 40
1.0
 40
1.0
 10
-22.9291445519
 20
38.7528073478
 30
0.0
 10
-24.2938241483
 20
39.1139696235
 30
0.0
 10
-27.0210693645
 20
39.8357573892
 30
0.0
 10
-31.1007946309
 20
40.922105111
 30
0.0
 10
-35.1323689404
 20
42.0234210323
 30
0.0
 10
-37.787903105
 20
42.8166451226
 30
0.0
 10
-39.0843741855
 20
43.2577016051
 30
0.0
  0
SPLINE
  5
37B
100
AcDbEntity
  8
SKEL_COPERCHIO
100
AcDbSpline
 62
250
  6
CONTINUOUS
 70
0
 71
3
 72
12
 73
8
 74
0
 42
0.0000001
 43
0.0000001
 44
0.0000000001
 40
0.0
 40
0.0
 40
0.0
 40
0.0
 40
0.2596043227
 40
0.5139725262
 40
0.7612961177
 40
0.8817677386
 40
1.0
 40
1.0
 40
1.0
 40
1.0
 10
-4.8687215639
 20
33.9642238532
 30
0.0
 10
-5.0906779958
 20
32.7538797593
 30
0.0
 10
-5.4898567565
 20
30.3497144135
 30
0.0
 10
-5.909237457
 20
26.7641835596
 30
0.0
 10
-6.1076462543
 20
23.8204876616
 30
0.0
 10
-6.1770942862
 20
21.5175951623
 30
0.0
 10
-6.177078221
 20
20.3857907262
 30
0.0
 10
-6.1637551753
 20
19.8255269068
 30
0.0
  0
SPLINE
  5
37C
100
AcDbEntity
  8
SKEL_COPERCHIO
100
AcDbSpline
 62
250
  6
CONTINUOUS
 70
0
 71
3
 72
11
 73
7
 74
0
 42
0.0000001
 43
0.0000001
 44
0.0000000001
 40
0.0
 40
0.0
 40
0.0
 40
0.0
 40
0.2548844782
 40
0.5066313356
 40
0.7551160144
 40
1.0
 40
1.0
 40
1.0
 40
1.0
 10
-23.8953429944
 20
-24.1346287589
 30
0.0
 10
-23.8968266304
 20
-25.2163806964
 30
0.0
 10
-23.8892872894
 20
-27.3666842072
 30
0.0
 10
-23.8049394122
 20
-30.5706549345
 30
0.0
 10
-23.6551536961
 20
-33.7295977907
 30
0.0
 10
-23.521134477
 20
-35.8193546544
 30
0.0
 10
-23.4429615335
 20
-36.8557205018
 30
0.0
  0
SPLINE
  5
37D
100
AcDbEntity
  8
SKEL_COPERCHIO
100
AcDbSpline
 62
250
  6
CONTINUOUS
 70
0
 71
3
 72
9
 73
5
 74
0
 42
0.0000001
 43
0.0000001
 44
0.0000000001
 40
0.0
 40
0.0
 40
0.0
 40
0.0
 40
0.4803296235
 40
1.0
 40
1.0
 40
1.0
 40
1.0
 10
-41.94775466
 20
6.350023732
 30
0.0
 10
-40.0774439412
 20
5.35706527
 30
0.0
 10
-36.0249192827
 20
3.584797761
 30
0.0
 10
-31.8045256116
 20
2.2837372261
 30
0.0
 10
-29.5866760175
 20
1.7094826016
 30
0.0
  0
ELLIPSE
  5
37E
100
AcDbEntity
  8
ASSI
100
AcDbEllipse
 62
7
  6
CONTINUOUS
 10
34.3956880896
 20
21.2140520929
 30
0.0
 11
1.5184427104
 21
5.4942678209
 31
0.0
 40
0.4686718534
 41
5.2559605432
 42
5.4305300769
  0
ELLIPSE
  5
37F
100
AcDbEntity
  8
0
100
AcDbEllipse
 62
7
  6
CONTINUOUS
 10
-34.233353946
 20
43.7397475843
 30
0.0
 11
3.7579030659
 21
-1.8248871588
 31
0.0
 40
0.250985844
 41
2.2314917289
 42
2.3670157898
  0
ELLIPSE
  5
380
100
AcDbEntity
  8
0
100
AcDbEllipse
 62
7
  6
CONTINUOUS
 10
34.5903260649
 20
25.4738875361
 30
0.0
 11
3.7579030659
 21
-1.8248871588
 31
0.0
 40
0.250985844
 41
2.095967668
 42
2.2314917289
  0
ENDSEC
  0
SECTION
  2
OBJECTS
  0
DICTIONARY
  5
C
100
AcDbDictionary
280
0
281
1
  3
ACAD_GROUP
350
D
  3
ACAD_MLINESTYLE
350
17
  3
ACAD_LAYOUT
350
1A
  3
ACAD_PLOTSETTINGS
350
19
  3
ACAD_PLOTSTYLENAME
350
E
  0
DICTIONARY
  5
D
102
{ACAD_REACTORS
330
C
102
}
100
AcDbDictionary
280
0
281
1
  0
ACDBDICTIONARYWDFLT
  5
E
102
{ACAD_REACTORS
330
C
102
}
100
AcDbDictionary
281
1
  3
Normal
350
F
100
AcDbDictionaryWithDefault
340
F
  0
DICTIONARY
  5
17
102
{ACAD_REACTORS
330
C
102
}
100
AcDbDictionary
280
0
281
1
  3
Standard
350
18
  0
DICTIONARY
  5
19
102
{ACAD_REACTORS
330
C
102
}
100
AcDbDictionary
281
1
  0
DICTIONARY
  5
1A
102
{ACAD_REACTORS
330
C
102
}
100
AcDbDictionary
281
1
  3
Model
350
381
  3
Layout1
350
382
  0
ACDBPLACEHOLDER
  5
F
102
{ACAD_REACTORS
330
E
102
}
  0
MLINESTYLE
  5
18
102
{ACAD_REACTORS
330
17
102
}
100
AcDbMlineStyle
  2
STANDARD
 70
0
  3

 62
256
 51
90.0
 52
90.0
 71
2
 49
0.5
 62
256
  6
BYLAYER
 49
-0.5
 62
256
  6
BYLAYER
  0
LAYOUT
  5
381
102
{ACAD_REACTORS
330
1A
102
}
100
AcDbPlotSettings
  1

  2
none_device
  4
ANSI_C_(22.00_x_17.00_Inches)
  6

 40
0.0
 41
0.0
 42
0.0
 43
0.0
 44
558.8
 45
431.8
 46
0.0
 47
0.0
 48
0.0
 49
0.0
140
0.0
141
0.0
142
1.0
143
1.0
 70
1024
 72
1
 73
0
 74
0
  7

 75
0
147
1.0
148
0.0
149
0.0
100
AcDbLayout
  1
Model
 70
0
 71
0
 10
0.0
 20
0.0
 11
558.8
 21
431.8
 12
0.0
 22
0.0
 32
0.0
 14
0.0
 24
0.0
 34
0.0
 15
0.0
 25
0.0
 35
0.0
146
0.0
 13
0.0
 23
0.0
 33
0.0
 16
1.0
 26
0.0
 36
0.0
 17
0.0
 27
1.0
 37
0.0
 76
0
330
216
345
0
346
0
  0
LAYOUT
  5
382
102
{ACAD_REACTORS
330
1A
102
}
100
AcDbPlotSettings
  1

  2
none_device
  4
ANSI_C_(22.00_x_17.00_Inches)
  6

 40
0.0
 41
0.0
 42
0.0
 43
0.0
 44
558.8
 45
431.8
 46
0.0
 47
0.0
 48
0.0
 49
0.0
140
0.0
141
0.0
142
1.0
143
1.0
 70
0
 72
1
 73
0
 74
0
  7

 75
0
147
1.0
148
0.0
149
0.0
100
AcDbLayout
  1
Layout1
 70
0
 71
1
 10
0.0
 20
0.0
 11
558.8
 21
431.8
 12
0.0
 22
0.0
 32
0.0
 14
0.0
 24
0.0
 34
0.0
 15
0.0
 25
0.0
 35
0.0
146
0.0
 13
0.0
 23
0.0
 33
0.0
 16
1.0
 26
0.0
 36
0.0
 17
0.0
 27
1.0
 37
0.0
 76
0
330
217
345
0
346
0
  0
ENDSEC
  0
EOF
