0
SECTION
2
HEADER
9
$ACADVER
1
AC1015
9
$DWGCODEPAGE
3
ANSI_1252
9
$EXTMAX
10
431.8000000000
20
558.8000000000
30
0.0000000000
9
$EXTMIN
10
0.0000000000
20
0.0000000000
30
0.0000000000
9
$LIMMIN
10
0.0000000000
20
0.0000000000
9
$LIMMAX
10
431.8000000000
20
558.8000000000
9
$VIEWCTR
10
215.9000000000
20
279.4000000000
9
$VIEWSIZE
40
558.8000000000
9
$CLAYER
8
0
9
$LTSCALE
40
36.4254814815
9
$CELTYPE
6
BYLAYER
9
$DIMSCALE
40
1
9
$DIMASZ
40
3.0000000000
9
$DIMEXO
40
4.1392592593
9
$DIMDLI
40
25.1666962963
9
$DIMEXE
40
11.9210666667
9
$DIMCEN
40
5.9605333333
9
$DIMLFAC
40
1.0000000000
9
$DIMBLK
1
_FILLED
9
$DIMTXT
40
3.0000000000
9
$DIMTOL
70
1
9
$DIMLIM
70
0
9
$DIMTFAC
40
1.0000000000
9
$DIMTP
40
0.0100000000
9
$DIMTM
40
0.0100000000
9
$PDMODE
70
3
9
$PDSIZE
40
3.0000000000
9
$HANDSEED
5
375
9
$MEASUREMENT
70
1
9
$INSUNITS
70
4
0
ENDSEC
0
SECTION
2
CLASSES
0
CLASS
1
ACDBDICTIONARYWDFLT
2
AcDbDictionaryWithDefault
3
AutoCAD 2000
90
0
280
0
281
0
0
CLASS
1
ACDBPLACEHOLDER
2
AcDbPlaceHolder
3
AutoCAD 2000
90
0
280
0
281
0
0
CLASS
1
LAYOUT
2
AcDbLayout
3
AutoCAD 2000
90
0
280
0
281
0
0
ENDSEC
0
SECTION
2
TABLES
0
TABLE
2
VPORT
5
8
100
AcDbSymbolTable
70
2
0
VPORT
5
1F4
100
AcDbSymbolTableRecord
100
AcDbViewportTableRecord
2
*ACTIVE
70
0
10
0.0
20
0.0
11
1.0
21
1.0
12
215.9000000000
22
279.4000000000
13
0.0
23
0.0
14
1.0
24
1.0
15
0.0
25
0.0
16
0.0
26
0.0
36
1.0
17
0.0
27
0.0
37
0.0
40
558.8000000000
41
0.7727272727
42
50.0
43
0.0
44
0.0
50
0.0
51
0.0
71
0
72
100
73
1
74
1
75
0
76
0
77
0
78
0
0
ENDTAB
0
TABLE
2
LTYPE
5
5
100
AcDbSymbolTable
70
6
0
LTYPE
5
14
100
AcDbSymbolTableRecord
100
AcDbLinetypeTableRecord
2
BYBLOCK
70
0
3

72
65
73
0
40
0.0
0
LTYPE
5
15
100
AcDbSymbolTableRecord
100
AcDbLinetypeTableRecord
2
BYLAYER
70
0
3

72
65
73
0
40
0.0
0
LTYPE
5
16
100
AcDbSymbolTableRecord
100
AcDbLinetypeTableRecord
2
CONTINUOUS
70
64
3
Solid line
72
65
73
0
40
0
0
LTYPE
5
1F5
100
AcDbSymbolTableRecord
100
AcDbLinetypeTableRecord
2
CENTER
70
64
3
____ _ ____ _ ____ _ ____ _ ____ _ ____ _ ____
72
65
73
4
40
0.6
49
0.375
74
0
49
-0.075
74
0
49
0.075
74
0
49
-0.075
74
0
0
LTYPE
5
1F6
100
AcDbSymbolTableRecord
100
AcDbLinetypeTableRecord
2
HIDDEN
70
64
3
- - - - - - - - - - - - - - - - - - - -
72
65
73
2
40
0.2
49
0.1
74
0
49
-0.1
74
0
0
LTYPE
5
1F7
100
AcDbSymbolTableRecord
100
AcDbLinetypeTableRecord
2
PHANTOM
70
64
3
_____ _ _ _____ _ _ _____ _ _ _____
72
65
73
6
40
0.8
49
0.45
74
0
49
-0.05
74
0
49
0.1
74
0
49
-0.05
74
0
49
0.1
74
0
49
-0.05
74
0
0
LTYPE
5
1F8
100
AcDbSymbolTableRecord
100
AcDbLinetypeTableRecord
2
DOT
70
64
3
. . . . . . . . . . . . . . . . . . . .
72
65
73
2
40
0.2
49
0.1
74
0
49
-0.1
74
0
0
LTYPE
5
1F9
100
AcDbSymbolTableRecord
100
AcDbLinetypeTableRecord
2
DASHED
70
64
3
- - - - - - - - - - - - - - - - - - - -
72
65
73
2
40
0.2
49
0.1
74
0
49
-0.1
74
0
0
ENDTAB
0
TABLE
2
LAYER
5
2
100
AcDbSymbolTable
70
36
0
LAYER
5
10
100
AcDbSymbolTableRecord
100
AcDbLayerTableRecord
2
0
70
0
62
7
6
CONTINUOUS
370
-3
390
F
0
LAYER
5
1FA
100
AcDbSymbolTableRecord
100
AcDbLayerTableRecord
2
DEFAULT_1
70
0
62
7
6
CENTER
370
-3
390
F
0
LAYER
5
1FB
100
AcDbSymbolTableRecord
100
AcDbLayerTableRecord
2
DEFAULT_2
70
0
62
8
6
HIDDEN
370
-3
390
F
0
LAYER
5
1FC
100
AcDbSymbolTableRecord
100
AcDbLayerTableRecord
2
DEFAULT_3
70
0
62
7
6
PHANTOM
370
-3
390
F
0
LAYER
5
1FD
100
AcDbSymbolTableRecord
100
AcDbLayerTableRecord
2
_BLACK_HOLE
70
0
62
7
6
CONTINUOUS
370
-3
390
F
0
LAYER
5
1FE
100
AcDbSymbolTableRecord
100
AcDbLayerTableRecord
2
ASSI
70
0
62
7
6
CONTINUOUS
370
-3
390
F
0
LAYER
5
1FF
100
AcDbSymbolTableRecord
100
AcDbLayerTableRecord
2
COLOR5
70
0
62
7
6
CONTINUOUS
370
-3
390
F
0
LAYER
5
200
100
AcDbSymbolTableRecord
100
AcDbLayerTableRecord
2
COORDINATE
70
0
62
7
6
CONTINUOUS
370
-3
390
F
0
LAYER
5
201
100
AcDbSymbolTableRecord
100
AcDbLayerTableRecord
2
COORD_ORIGINE
70
0
62
7
6
CONTINUOUS
370
-3
390
F
0
LAYER
5
202
100
AcDbSymbolTableRecord
100
AcDbLayerTableRecord
2
COPY_GEOM
70
0
62
7
6
CONTINUOUS
370
-3
390
F
0
LAYER
5
203
100
AcDbSymbolTableRecord
100
AcDbLayerTableRecord
2
CURVE
70
0
62
7
6
CONTINUOUS
370
-3
390
F
0
LAYER
5
204
100
AcDbSymbolTableRecord
100
AcDbLayerTableRecord
2
DRAFT
70
0
62
7
6
CONTINUOUS
370
-3
390
F
0
LAYER
5
205
100
AcDbSymbolTableRecord
100
AcDbLayerTableRecord
2
IGS
70
0
62
7
6
CONTINUOUS
370
-3
390
F
0
LAYER
5
206
100
AcDbSymbolTableRecord
100
AcDbLayerTableRecord
2
IMPORT_COPY_GEOM
70
0
62
7
6
CONTINUOUS
370
-3
390
F
0
LAYER
5
207
100
AcDbSymbolTableRecord
100
AcDbLayerTableRecord
2
NOTE
70
0
62
7
6
CONTINUOUS
370
-3
390
F
0
LAYER
5
208
100
AcDbSymbolTableRecord
100
AcDbLayerTableRecord
2
PIANI
70
0
62
7
6
CONTINUOUS
370
-3
390
F
0
LAYER
5
209
100
AcDbSymbolTableRecord
100
AcDbLayerTableRecord
2
PIANI_ORIGINE
70
0
62
7
6
CONTINUOUS
370
-3
390
F
0
LAYER
5
20A
100
AcDbSymbolTableRecord
100
AcDbLayerTableRecord
2
PUNTI
70
0
62
7
6
CONTINUOUS
370
-3
390
F
0
LAYER
5
20B
100
AcDbSymbolTableRecord
100
AcDbLayerTableRecord
2
RACCORDO
70
0
62
7
6
CONTINUOUS
370
-3
390
F
0
LAYER
5
20C
100
AcDbSymbolTableRecord
100
AcDbLayerTableRecord
2
SMUSSO
70
0
62
7
6
CONTINUOUS
370
-3
390
F
0
LAYER
5
20D
100
AcDbSymbolTableRecord
100
AcDbLayerTableRecord
2
SUPERFICI
70
0
62
7
6
CONTINUOUS
370
-3
390
F
0
LAYER
5
20E
100
AcDbSymbolTableRecord
100
AcDbLayerTableRecord
2
TESTO
70
0
62
7
6
CONTINUOUS
370
-3
390
F
0
LAYER
5
20F
100
AcDbSymbolTableRecord
100
AcDbLayerTableRecord
2
TRASH
70
0
62
7
6
CONTINUOUS
370
-3
390
F
0
LAYER
5
210
100
AcDbSymbolTableRecord
100
AcDbLayerTableRecord
2
XSEC_DATUMS
70
0
62
7
6
CONTINUOUS
370
-3
390
F
0
ENDTAB
0
TABLE
2
STYLE
5
3
100
AcDbSymbolTable
70
1
0
STYLE
5
11
100
AcDbSymbolTableRecord
100
AcDbTextStyleTableRecord
2
STANDARD
70
0
40
0.0
41
0.8000000000
50
0.0
71
0
42
0.2
3
txt
4

0
ENDTAB
0
TABLE
2
VIEW
5
6
100
AcDbSymbolTable
70
0
0
ENDTAB
0
TABLE
2
UCS
5
7
100
AcDbSymbolTable
70
0
0
ENDTAB
0
TABLE
2
APPID
5
9
100
AcDbSymbolTable
70
1
0
APPID
5
211
100
AcDbSymbolTableRecord
100
AcDbRegAppTableRecord
2
ACAD
70
0
0
ENDTAB
0
TABLE
2
BLOCK_RECORD
5
1
100
AcDbSymbolTable
70
0
0
BLOCK_RECORD
5
1F
100
AcDbSymbolTableRecord
100
AcDbBlockTableRecord
2
*MODEL_SPACE
0
BLOCK_RECORD
5
1B
100
AcDbSymbolTableRecord
100
AcDbBlockTableRecord
2
*PAPER_SPACE
0
ENDTAB
0
TABLE
2
DIMSTYLE
5
A
100
AcDbSymbolTable
70
1
100
AcDbDimStyleTable
71
0
0
DIMSTYLE
105
212
100
AcDbSymbolTableRecord
100
AcDbDimStyleTableRecord
2
STANDARD
70
0
3

4

40
1.0
41
3.0000000000
42
0.0625
43
0.38
44
0.18
45
0.0
46
0.0
47
0.0100000000
48
0.0100000000
140
3.0000000000
141
0.09
142
0.0
143
25.4
144
1.0000000000
145
0.0
146
1.0000000000
147
0.09
71
1
72
0
73
0
74
0
75
0
76
0
77
1
78
8
170
0
171
2
172
0
173
0
174
0
175
0
176
0
177
0
178
0
270
2
271
2
272
2
273
2
274
2
275
0
280
0
281
0
282
0
283
1
284
8
285
0
286
0
287
3
288
0
340
11
0
ENDTAB
0
ENDSEC
0
SECTION
2
BLOCKS
0
BLOCK
5
20
100
AcDbEntity
8
0
100
AcDbBlockBegin
2
*MODEL_SPACE
70
0
10
0.0
20
0.0
30
0.0
3
*MODEL_SPACE
1

0
ENDBLK
5
21
100
AcDbEntity
8
0
100
AcDbBlockEnd
0
BLOCK
5
1C
100
AcDbEntity
8
0
100
AcDbBlockBegin
2
*PAPER_SPACE
70
0
10
0.0
20
0.0
30
0.0
3
*PAPER_SPACE
1

0
ENDBLK
5
1D
100
AcDbEntity
8
0
100
AcDbBlockEnd
0
ENDSEC
0
SECTION
2
ENTITIES
0
LWPOLYLINE
5
213
100
AcDbEntity
8
0
100
AcDbPolyline
62
7
6
CONTINUOUS
90
9
70
0
10
-60.1337281548
20
40.6195159464
10
-60.1806775151
20
40.5644136065
10
-60.2262506220
20
40.5081117730
10
-60.2704552645
20
40.4506247787
10
-60.3132723316
20
40.3920002851
10
-60.3546810741
20
40.3322914320
10
-60.3946861112
20
40.2715159723
10
-60.4332705794
20
40.2097233664
10
-60.4479192040
20
40.1849758021
0
LWPOLYLINE
5
214
100
AcDbEntity
8
0
100
AcDbPolyline
62
7
6
CONTINUOUS
90
3
70
0
10
-60.0357954237
20
40.7259150863
10
-60.0854263797
20
40.6733660603
10
-60.1337281548
20
40.6195159464
0
LWPOLYLINE
5
215
100
AcDbEntity
8
0
100
AcDbPolyline
62
7
6
CONTINUOUS
90
3
70
0
10
-59.9548237571
20
40.8060861139
10
-59.9848257295
20
40.7771489239
10
-60.0357954237
20
40.7259150863
0
LWPOLYLINE
5
216
100
AcDbEntity
8
0
100
AcDbPolyline
62
7
6
CONTINUOUS
90
13
70
0
10
-60.9803591208
20
39.6795334348
10
-61.0067085115
20
39.6542778838
10
-61.2036865494
20
39.4474866178
10
-61.3837928123
20
39.2250086801
10
-61.5458772703
20
38.9881927599
10
-61.6888602054
20
38.7384911765
10
-61.8117659389
20
38.4774791768
10
-61.9137798136
20
38.2067403571
10
-61.9941950738
20
37.9279376839
10
-62.0524276152
20
37.6428284270
10
-62.0880420227
20
37.3531618384
10
-62.1007309810
20
37.0607150755
10
-62.1006334028
20
37.0154116149
0
LINE
5
217
100
AcDbEntity
8
0
100
AcDbLine
62
7
6
CONTINUOUS
10
-58.5407522827
20
42.1484381403
11
-59.9548078392
21
40.8061012319
0
LINE
5
218
100
AcDbEntity
8
0
100
AcDbLine
62
7
6
CONTINUOUS
10
-60.9833171906
20
39.6767308030
11
-59.9993528477
21
40.6107915130
0
LINE
5
219
100
AcDbEntity
8
0
100
AcDbLine
62
9
6
CONTINUOUS
10
-57.6447769900
20
41.6024383394
11
-55.8951056460
21
43.1983129422
0
LINE
5
21A
100
AcDbEntity
8
0
100
AcDbLine
62
9
6
CONTINUOUS
10
-58.5938078527
20
40.6196610863
11
-57.7866244958
21
41.3558927355
0
LWPOLYLINE
5
21B
100
AcDbEntity
8
0
100
AcDbPolyline
62
7
6
CONTINUOUS
90
21
70
0
10
-60.2887407306
20
-39.2887024641
10
-60.2670385577
20
-39.5977158200
10
-60.2231154457
20
-39.8854036135
10
-60.1564534913
20
-40.1695837940
10
-60.0674760360
20
-40.4484075088
10
-59.9567752163
20
-40.7197359008
10
-59.8248996193
20
-40.9819625166
10
-59.6726602758
20
-41.2334452206
10
-59.5012710606
20
-41.4720095582
10
-59.3117475562
20
-41.6961528412
10
-59.1052451855
20
-41.9045782837
10
-58.8834563020
20
-42.0955371398
10
-58.6477667246
20
-42.2678601029
10
-58.3996702812
20
-42.4205921085
10
-58.1412420475
20
-42.5525017472
10
-57.8742202340
20
-42.6627947232
10
-57.6001805885
20
-42.7509961234
10
-57.3210726613
20
-42.8165392624
10
-57.0387973984
20
-42.8590766968
10
-56.7552986265
20
-42.8785773095
10
-56.7196982499
20
-42.8793977807
0
LWPOLYLINE
5
21C
100
AcDbEntity
8
0
100
AcDbPolyline
62
7
6
CONTINUOUS
90
3
70
0
10
-60.8846579111
20
-14.9930781299
10
-60.7768457388
20
-19.4125694444
10
-60.6729652251
20
-23.6988803407
0
LINE
5
21D
100
AcDbEntity
8
0
100
AcDbLine
62
7
6
CONTINUOUS
10
-61.2768542901
20
1.0382950517
11
-60.8846579111
21
-14.9930781299
0
LINE
5
21E
100
AcDbEntity
8
0
100
AcDbLine
62
7
6
CONTINUOUS
10
-61.3920429157
20
5.7971448667
11
-61.2768542901
21
1.0382950517
0
LINE
5
21F
100
AcDbEntity
8
0
100
AcDbLine
62
7
6
CONTINUOUS
10
-61.8678080005
20
25.5524553227
11
-61.7153981099
21
19.2736363023
0
LINE
5
220
100
AcDbEntity
8
0
100
AcDbLine
62
7
6
CONTINUOUS
10
-61.5031181579
20
10.4231068772
11
-61.3920429157
21
5.7971448667
0
LWPOLYLINE
5
221
100
AcDbEntity
8
0
100
AcDbPolyline
62
7
6
CONTINUOUS
90
3
70
0
10
-61.7153981099
20
19.2736363023
10
-61.6106703079
20
14.9157047109
10
-61.5031181579
20
10.4231068772
0
LWPOLYLINE
5
222
100
AcDbEntity
8
0
100
AcDbPolyline
62
7
6
CONTINUOUS
90
4
70
0
10
-60.6729652251
20
-23.6988803407
10
-60.4764054039
20
-31.8755643946
10
-60.3813083607
20
-35.7625498817
10
-60.2888006736
20
-39.2887110575
0
LWPOLYLINE
5
223
100
AcDbEntity
8
0
100
AcDbPolyline
62
7
6
CONTINUOUS
90
7
70
0
10
-62.1006332881
20
37.0153955710
10
-62.0817705239
20
35.3792520475
10
-62.0492726383
20
33.4733617262
10
-62.0091533210
20
31.5380678158
10
-61.9644130356
20
29.5737658846
10
-61.9169356984
20
27.5793391903
10
-61.8678080005
20
25.5524553227
0
LWPOLYLINE
5
224
100
AcDbEntity
8
0
100
AcDbPolyline
62
7
6
CONTINUOUS
90
8
70
0
10
55.5799022665
20
-42.8794200835
10
55.8704282482
20
-42.8629966350
10
56.1491620354
20
-42.8254213307
10
56.4239210144
20
-42.7666467967
10
56.6930780778
20
-42.6870275737
10
56.9551143991
20
-42.5870703723
10
57.2085826341
20
-42.4672574678
10
57.4519591361
20
-42.3282768548
0
LINE
5
225
100
AcDbEntity
8
0
100
AcDbLine
62
7
6
CONTINUOUS
10
-37.0126919996
20
21.4944846460
11
-36.8340639291
21
21.6640529557
0
LINE
5
226
100
AcDbEntity
8
0
100
AcDbLine
62
9
6
CONTINUOUS
10
-35.8350518955
20
21.9618088840
11
-35.6433681255
21
22.1366435816
0
LWPOLYLINE
5
227
100
AcDbEntity
8
0
100
AcDbPolyline
62
7
6
CONTINUOUS
90
6
70
0
10
-37.0466868846
20
22.1420964402
10
-36.9484024395
20
22.2170343391
10
-36.7867495131
20
22.3223550804
10
-36.6162659471
20
22.4127236470
10
-36.4381968650
20
22.4875199618
10
-36.2540697010
20
22.5461573389
0
LWPOLYLINE
5
228
100
AcDbEntity
8
0
100
AcDbPolyline
62
7
6
CONTINUOUS
90
9
70
0
10
31.9429038641
20
-43.0479922397
10
35.2378779163
20
-43.0416118084
10
38.4445720220
20
-43.0309641715
10
41.5619560512
20
-43.0163196092
10
44.5896101158
20
-42.9979461221
10
47.5277904903
20
-42.9758178106
10
50.3761175124
20
-42.9491930003
10
53.1336833674
20
-42.9164246077
10
55.5798946967
20
-42.8794599439
0
LINE
5
229
100
AcDbEntity
8
0
100
AcDbLine
62
7
6
CONTINUOUS
10
28.7274012711
20
-43.0499567385
11
31.9429038641
21
-43.0479922397
0
LINE
5
22A
100
AcDbEntity
8
0
100
AcDbLine
62
7
6
CONTINUOUS
10
-30.3836947251
20
-43.0337091168
11
28.6875818815
21
-43.0337091168
0
LINE
5
22B
100
AcDbEntity
8
0
100
AcDbLine
62
9
6
CONTINUOUS
10
-30.6674006747
20
-41.9222547387
11
28.5480169773
21
-41.9222547387
0
LWPOLYLINE
5
22C
100
AcDbEntity
8
0
100
AcDbPolyline
62
7
6
CONTINUOUS
90
10
70
0
10
-56.7196583094
20
-42.8794383977
10
-54.3966006006
20
-42.9161442283
10
-51.7314810139
20
-42.9489772521
10
-48.9582871937
20
-42.9756474171
10
-46.0825789707
20
-42.9978100885
10
-43.1067927854
20
-43.0162108838
10
-40.0307521392
20
-43.0308842959
10
-36.8540971856
20
-43.0415601347
10
-33.5771111098
20
-43.0479675819
10
-30.3836947251
20
-43.0499567385
0
LINE
5
22D
100
AcDbEntity
8
0
100
AcDbLine
62
9
6
CONTINUOUS
10
-39.0394091711
20
-1.7412297702
11
-39.5761455208
21
20.2425748350
0
LINE
5
22E
100
AcDbEntity
8
0
100
AcDbLine
62
7
6
CONTINUOUS
10
-36.7919033797
20
-23.6137411942
11
-37.8649250778
21
20.3541610579
0
LINE
5
22F
100
AcDbEntity
8
0
100
AcDbLine
62
7
6
CONTINUOUS
10
-37.5575109722
20
20.1766732513
11
-36.4844892747
21
-23.7912289744
0
LINE
5
230
100
AcDbEntity
8
0
100
AcDbLine
62
9
6
CONTINUOUS
10
-36.7297668785
20
20.0618975459
11
-35.6567451804
21
-23.9060047063
0
LINE
5
231
100
AcDbEntity
8
0
100
AcDbLine
62
9
6
CONTINUOUS
10
-38.5087092496
20
-23.7246443909
11
-39.0394091711
21
-1.7412297702
0
LWPOLYLINE
5
232
100
AcDbEntity
8
0
100
AcDbPolyline
62
7
6
CONTINUOUS
90
11
70
0
10
-37.5575109722
20
20.1766732513
10
-37.5544395168
20
20.3330485036
10
-37.5376459447
20
20.4882339413
10
-37.5073016995
20
20.6410371603
10
-37.4636977807
20
20.7902366292
10
-37.4072002980
20
20.9347454775
10
-37.3382106190
20
21.0735912872
10
-37.2572662175
20
21.2056955562
10
-37.1650129213
20
21.3300166914
10
-37.0621064065
20
21.4456679917
10
-37.0123323773
20
21.4948259289
0
LINE
5
233
100
AcDbEntity
8
0
100
AcDbLine
62
7
6
CONTINUOUS
10
28.0892346152
20
-33.8084761222
11
28.1478074005
21
-33.8084753138
0
LINE
5
234
100
AcDbEntity
8
0
100
AcDbLine
62
7
6
CONTINUOUS
10
25.8355751602
20
-33.8084830194
11
26.4067841259
21
-33.8084761222
0
LINE
5
235
100
AcDbEntity
8
0
100
AcDbLine
62
7
6
CONTINUOUS
10
23.9665528421
20
-33.8084830194
11
24.5377844584
21
-33.8084761222
0
LINE
5
236
100
AcDbEntity
8
0
100
AcDbLine
62
7
6
CONTINUOUS
10
26.9779805011
20
-33.8084761222
11
27.5491896788
21
-33.8084761222
0
LINE
5
237
100
AcDbEntity
8
0
100
AcDbLine
62
7
6
CONTINUOUS
10
22.9673987485
20
-30.9463458155
11
23.5386158046
21
-30.9463458155
0
LINE
5
238
100
AcDbEntity
8
0
100
AcDbLine
62
7
6
CONTINUOUS
10
24.8013924396
20
-30.9463458155
11
25.3726094958
21
-30.9463458155
0
LINE
5
239
100
AcDbEntity
8
0
100
AcDbLine
62
7
6
CONTINUOUS
10
25.7534139729
20
-30.9463458155
11
26.3246241354
21
-30.9463458155
0
LINE
5
23A
100
AcDbEntity
8
0
100
AcDbLine
62
7
6
CONTINUOUS
10
26.8958126322
20
-30.9463458155
11
27.7593275231
21
-30.9463458155
0
LINE
5
23B
100
AcDbEntity
8
0
100
AcDbLine
62
7
6
CONTINUOUS
10
23.0017932568
20
-30.9185088813
11
23.5730103129
21
-30.9185088813
0
LINE
5
23C
100
AcDbEntity
8
0
100
AcDbLine
62
7
6
CONTINUOUS
10
24.8357869479
20
-30.9185088813
11
25.4070040041
21
-30.9185088813
0
LINE
5
23D
100
AcDbEntity
8
0
100
AcDbLine
62
7
6
CONTINUOUS
10
25.7878084812
20
-30.9185088813
11
26.3590186437
21
-30.9185088813
0
LINE
5
23E
100
AcDbEntity
8
0
100
AcDbLine
62
7
6
CONTINUOUS
10
26.9302071405
20
-30.9185088813
11
27.7937220314
21
-30.9185088813
0
LINE
5
23F
100
AcDbEntity
8
0
100
AcDbLine
62
9
6
CONTINUOUS
10
28.0596353204
20
-29.2989664154
11
-31.0223407515
21
-29.2989664154
0
LINE
5
240
100
AcDbEntity
8
0
100
AcDbLine
62
9
6
CONTINUOUS
10
31.3130218649
20
-27.5844739933
11
27.9111539141
21
-27.5847751175
0
LINE
5
241
100
AcDbEntity
8
0
100
AcDbLine
62
7
6
CONTINUOUS
10
31.4123775861
20
-25.8913577524
11
-34.4712610905
21
-25.8913577524
0
LINE
5
242
100
AcDbEntity
8
0
100
AcDbLine
62
7
6
CONTINUOUS
10
-34.6971335981
20
-25.5398815019
11
31.1865050606
21
-25.5398815019
0
LINE
5
243
100
AcDbEntity
8
0
100
AcDbLine
62
9
6
CONTINUOUS
10
-34.8690918437
20
-24.6790546029
11
31.0145468329
21
-24.6790546029
0
LINE
5
244
100
AcDbEntity
8
0
100
AcDbLine
62
9
6
CONTINUOUS
10
27.9111539142
20
-27.5847751175
11
-34.5706168116
21
-27.5844739933
0
LWPOLYLINE
5
245
100
AcDbEntity
8
0
100
AcDbPolyline
62
7
6
CONTINUOUS
90
19
70
0
10
-34.6971335981
20
-25.5398815019
10
-34.8496813514
20
-25.5332812579
10
-35.0013269772
20
-25.5135133865
10
-35.1509597428
20
-25.4806950517
10
-35.2975632778
20
-25.4350032377
10
-35.4399714693
20
-25.3767468339
10
-35.5769120114
20
-25.3064279119
10
-35.7073922138
20
-25.2245630414
10
-35.8304857252
20
-25.1317249967
10
-35.9451530855
20
-25.0287018392
10
-36.0505987354
20
-24.9162251007
10
-36.1460632003
20
-24.7950993607
10
-36.2307294917
20
-24.6663819584
10
-36.3040106004
20
-24.5310215277
10
-36.3654118944
20
-24.3899630017
10
-36.4144445872
20
-24.2443775244
10
-36.4507735927
20
-24.0953724557
10
-36.4741761971
20
-23.9439611258
10
-36.4844892749
20
-23.7912289678
0
LINE
5
246
100
AcDbEntity
8
0
100
AcDbLine
62
9
6
CONTINUOUS
10
30.2402705510
20
22.1366435816
11
30.0485867810
21
21.9618088840
0
LINE
5
247
100
AcDbEntity
8
0
100
AcDbLine
62
9
6
CONTINUOUS
10
32.0564253861
20
20.3541610579
11
31.8450613544
21
20.1986417413
0
LINE
5
248
100
AcDbEntity
8
0
100
AcDbLine
62
9
6
CONTINUOUS
10
57.3093490239
20
37.0239991858
11
58.7364736649
21
38.0740617109
0
LINE
5
249
100
AcDbEntity
8
0
100
AcDbLine
62
9
6
CONTINUOUS
10
60.4088778309
20
39.2372406673
11
58.9720394602
21
38.1800308874
0
LINE
5
24A
100
AcDbEntity
8
0
100
AcDbLine
62
9
6
CONTINUOUS
10
56.3729781974
20
43.1983129422
11
54.6233068534
21
41.6024383394
0
LINE
5
24B
100
AcDbEntity
8
0
100
AcDbLine
62
9
6
CONTINUOUS
10
53.6545798356
20
40.6196610863
11
54.4617631925
21
41.3558927355
0
LINE
5
24C
100
AcDbEntity
8
0
100
AcDbLine
62
7
6
CONTINUOUS
10
-30.3107790246
20
-43.0337091168
11
-30.3177877416
21
-43.0389249406
0
LINE
5
24D
100
AcDbEntity
8
0
100
AcDbLine
62
9
6
CONTINUOUS
10
29.9037930953
20
20.8349474425
11
-35.9798455813
21
20.8349474425
0
LINE
5
24E
100
AcDbEntity
8
0
100
AcDbLine
62
9
6
CONTINUOUS
10
30.0485867810
20
21.9618088840
11
-35.8350518955
21
21.9618088840
0
LINE
5
24F
100
AcDbEntity
8
0
100
AcDbLine
62
7
6
CONTINUOUS
10
-35.6433681255
20
22.1366435816
11
30.2402705510
21
22.1366435816
0
LINE
5
250
100
AcDbEntity
8
0
100
AcDbLine
62
7
6
CONTINUOUS
10
-35.6796188586
20
22.6220456847
11
30.2040198180
21
22.6220456847
0
LINE
5
251
100
AcDbEntity
8
0
100
AcDbLine
62
9
6
CONTINUOUS
10
26.9281981790
20
24.1020543823
11
30.0517274182
21
24.1025050719
0
LINE
5
252
100
AcDbEntity
8
0
100
AcDbLine
62
9
6
CONTINUOUS
10
25.8056688727
20
24.1020373198
11
26.9281981790
21
24.1020543823
0
LINE
5
253
100
AcDbEntity
8
0
100
AcDbLine
62
9
6
CONTINUOUS
10
-35.8319112583
20
24.1025050719
11
25.8056688727
21
24.1020373198
0
LWPOLYLINE
5
254
100
AcDbEntity
8
0
100
AcDbPolyline
62
7
6
CONTINUOUS
90
19
70
0
10
30.2040198180
20
22.6220456847
10
30.4028063240
20
22.6132038543
10
30.6004574351
20
22.5867845558
10
30.7954117903
20
22.5430561669
10
30.9860510009
20
22.4824619570
10
31.1709733619
20
22.4055384915
10
31.3489746676
20
22.3128415362
10
31.5186471796
20
22.2051367222
10
31.6786662401
20
22.0833148742
10
31.8279897603
20
21.9481949862
10
31.9654238002
20
21.8008585643
10
32.0898883031
20
21.6424874330
10
32.2005669962
20
21.4741107491
10
32.2965585975
20
21.2970474457
10
32.3770808552
20
21.1127125479
10
32.4415689334
20
20.9223219595
10
32.4894781459
20
20.7272899462
10
32.5203573705
20
20.5292456243
10
32.5339346764
20
20.3297636624
0
LWPOLYLINE
5
255
100
AcDbEntity
8
0
100
AcDbPolyline
62
7
6
CONTINUOUS
90
4
70
0
10
-36.2540697010
20
22.5461573389
10
-36.0653472490
20
22.5882558514
10
-35.8733844826
20
22.6135931337
10
-35.6796190108
20
22.6220456847
0
LINE
5
256
100
AcDbEntity
8
0
100
AcDbLine
62
9
6
CONTINUOUS
10
34.5205124208
20
-1.7412297702
11
35.0645992866
21
-23.7246443909
0
LINE
5
257
100
AcDbEntity
8
0
100
AcDbLine
62
9
6
CONTINUOUS
10
31.7644681301
20
-23.9060047063
11
30.6914464320
21
20.0618975459
0
LINE
5
258
100
AcDbEntity
8
0
100
AcDbLine
62
9
6
CONTINUOUS
10
32.9180830524
20
-23.7692605108
11
31.8450613544
21
20.1986417413
0
LINE
5
259
100
AcDbEntity
8
0
100
AcDbLine
62
7
6
CONTINUOUS
10
32.0564253861
20
20.3541610579
11
33.1294470842
21
-23.6137411942
0
LINE
5
25A
100
AcDbEntity
8
0
100
AcDbLine
62
7
6
CONTINUOUS
10
32.5339346764
20
20.3297636624
11
33.6069563744
21
-23.6381385898
0
LINE
5
25B
100
AcDbEntity
8
0
100
AcDbLine
62
9
6
CONTINUOUS
10
33.9843043069
20
20.2425748350
11
34.5205124208
21
-1.7412297702
0
LWPOLYLINE
5
25C
100
AcDbEntity
8
0
100
AcDbPolyline
62
7
6
CONTINUOUS
90
7
70
0
10
33.6069563785
20
-23.6381387547
10
33.6033934162
20
-23.8328963372
10
33.5831707068
20
-24.0263709996
10
33.5463546267
20
-24.2170997108
10
33.4931296821
20
-24.4036634615
10
33.4238229215
20
-24.5846022458
10
33.3389219327
20
-24.7584491438
0
LINE
5
25D
100
AcDbEntity
8
0
100
AcDbLine
62
7
6
CONTINUOUS
10
22.9673987485
20
-30.9463458155
11
23.0017932568
21
-30.9185088813
0
LINE
5
25E
100
AcDbEntity
8
0
100
AcDbLine
62
7
6
CONTINUOUS
10
23.5386158046
20
-30.9463458155
11
23.5730103129
21
-30.9185088813
0
LINE
5
25F
100
AcDbEntity
8
0
100
AcDbLine
62
7
6
CONTINUOUS
10
24.8013924396
20
-30.9463458155
11
24.8357869479
21
-30.9185088813
0
LINE
5
260
100
AcDbEntity
8
0
100
AcDbLine
62
7
6
CONTINUOUS
10
25.3726094958
20
-30.9463458155
11
25.4070040041
21
-30.9185088813
0
LINE
5
261
100
AcDbEntity
8
0
100
AcDbLine
62
7
6
CONTINUOUS
10
25.7534139729
20
-30.9463458155
11
25.7878084812
21
-30.9185088813
0
LINE
5
262
100
AcDbEntity
8
0
100
AcDbLine
62
7
6
CONTINUOUS
10
26.3246241354
20
-30.9463458155
11
26.3590186437
21
-30.9185088813
0
LINE
5
263
100
AcDbEntity
8
0
100
AcDbLine
62
7
6
CONTINUOUS
10
26.8958126322
20
-30.9463458155
11
26.9302071405
21
-30.9185088813
0
LINE
5
264
100
AcDbEntity
8
0
100
AcDbLine
62
9
6
CONTINUOUS
10
33.1294470842
20
-23.6137411942
11
32.9180830524
21
-23.7692605108
0
LINE
5
265
100
AcDbEntity
8
0
100
AcDbLine
62
7
6
CONTINUOUS
10
32.1775911296
20
-25.2332171377
11
32.3808243474
21
-25.0937482535
0
LWPOLYLINE
5
266
100
AcDbEntity
8
0
100
AcDbPolyline
62
7
6
CONTINUOUS
90
8
70
0
10
32.1780155678
20
-25.2329257719
10
32.0764777440
20
-25.2976068071
10
31.9395376553
20
-25.3703313851
10
31.7965692945
20
-25.4306592907
10
31.6486194654
20
-25.4781241900
10
31.4968157578
20
-25.5123309160
10
31.3423737391
20
-25.5329773793
10
31.1865050548
20
-25.5398815019
0
LWPOLYLINE
5
267
100
AcDbEntity
8
0
100
AcDbPolyline
62
7
6
CONTINUOUS
90
6
70
0
10
33.3389219327
20
-24.7584491438
10
33.2389785301
20
-24.9239233886
10
33.1247008812
20
-25.0797153653
10
32.9970390495
20
-25.2244625437
10
32.8569034338
20
-25.3571019008
10
32.8036127675
20
-25.4016765766
0
LINE
5
268
100
AcDbEntity
8
0
100
AcDbLine
62
7
6
CONTINUOUS
10
27.7593275231
20
-30.9463458155
11
27.7937220314
21
-30.9185088813
0
LINE
5
269
100
AcDbEntity
8
0
100
AcDbLine
62
7
6
CONTINUOUS
10
24.5377844584
20
-33.8084761222
11
24.5721978887
21
-33.7806238735
0
LINE
5
26A
100
AcDbEntity
8
0
100
AcDbLine
62
7
6
CONTINUOUS
10
28.8260594092
20
-30.9463044130
11
28.8604540243
21
-30.9184673923
0
LINE
5
26B
100
AcDbEntity
8
0
100
AcDbLine
62
7
6
CONTINUOUS
10
29.6896214757
20
-30.9462670289
11
29.7240162665
21
-30.9184298660
0
LINE
5
26C
100
AcDbEntity
8
0
100
AcDbLine
62
7
6
CONTINUOUS
10
26.4067841259
20
-33.8084761222
11
26.4411975562
21
-33.7806238735
0
LINE
5
26D
100
AcDbEntity
8
0
100
AcDbLine
62
7
6
CONTINUOUS
10
30.9876065476
20
-30.9460961002
11
31.0220017221
21
-30.9182586267
0
LINE
5
26E
100
AcDbEntity
8
0
100
AcDbLine
62
7
6
CONTINUOUS
10
27.5491896788
20
-33.8084761222
11
27.5836031091
21
-33.7806238735
0
LINE
5
26F
100
AcDbEntity
8
0
100
AcDbLine
62
7
6
CONTINUOUS
10
31.5590448117
20
-30.9459346022
11
31.5934402435
21
-30.9180969206
0
LINE
5
270
100
AcDbEntity
8
0
100
AcDbLine
62
7
6
CONTINUOUS
10
28.6604205050
20
-33.8084757327
11
28.6948339756
21
-33.7806234515
0
LINE
5
271
100
AcDbEntity
8
0
100
AcDbLine
62
7
6
CONTINUOUS
10
32.8577060699
20
-30.9452354318
11
32.8921025461
21
-30.9173969048
0
LINE
5
272
100
AcDbEntity
8
0
100
AcDbLine
62
7
6
CONTINUOUS
10
31.0456354061
20
-32.7025111943
11
31.0800402140
21
-32.6746659242
0
LINE
5
273
100
AcDbEntity
8
0
100
AcDbLine
62
7
6
CONTINUOUS
10
29.7718311758
20
-33.8083634797
11
29.8062451443
21
-33.7805107955
0
LINE
5
274
100
AcDbEntity
8
0
100
AcDbLine
62
7
6
CONTINUOUS
10
34.1969545419
20
-30.9438856027
11
34.2313530222
21
-30.9160454536
0
LINE
5
275
100
AcDbEntity
8
0
100
AcDbLine
62
7
6
CONTINUOUS
10
30.7242081294
20
-33.8080613680
11
30.7586229530
21
-33.7802079917
0
LINE
5
276
100
AcDbEntity
8
0
100
AcDbLine
62
7
6
CONTINUOUS
10
33.4560696728
20
-32.1713499097
11
33.4904733421
21
-32.1435055610
0
LINE
5
277
100
AcDbEntity
8
0
100
AcDbLine
62
7
6
CONTINUOUS
10
54.4617631925
20
41.3558927355
11
-57.7866244958
21
41.3558927355
0
LINE
5
278
100
AcDbEntity
8
0
100
AcDbLine
62
7
6
CONTINUOUS
10
-58.5773028829
20
41.3783325349
11
55.5668842243
21
41.3783325349
0
LINE
5
279
100
AcDbEntity
8
0
100
AcDbLine
62
7
6
CONTINUOUS
10
54.6233068534
20
41.6024383394
11
-57.6447769900
21
41.6024383394
0
LINE
5
27A
100
AcDbEntity
8
0
100
AcDbLine
62
7
6
CONTINUOUS
10
-55.8951056460
20
43.1983129422
11
56.3729781974
21
43.1983129422
0
LINE
5
27B
100
AcDbEntity
8
0
100
AcDbLine
62
7
6
CONTINUOUS
10
32.5597640033
20
-33.8068106852
11
32.5941814814
21
-33.7789551605
0
LINE
5
27C
100
AcDbEntity
8
0
100
AcDbLine
62
7
6
CONTINUOUS
10
33.5131801808
20
-33.8056738619
11
33.5475995556
21
-33.7778168021
0
LINE
5
27D
100
AcDbEntity
8
0
100
AcDbLine
62
7
6
CONTINUOUS
10
35.2313821608
20
-33.8025965573
11
35.2658061213
21
-33.7747357861
0
LINE
5
27E
100
AcDbEntity
8
0
100
AcDbLine
62
7
6
CONTINUOUS
10
34.1515718574
20
-32.1704345419
11
34.1865629519
21
-32.1425882288
0
LINE
5
27F
100
AcDbEntity
8
0
100
AcDbLine
62
7
6
CONTINUOUS
10
60.6132475705
20
-38.1447173730
11
58.7767854345
21
37.1057531707
0
LWPOLYLINE
5
280
100
AcDbEntity
8
0
100
AcDbPolyline
62
7
6
CONTINUOUS
90
9
70
0
10
58.4361218308
20
-41.6571897872
10
58.5084558352
20
-41.6294270734
10
58.5854402137
20
-41.5978891920
10
58.6616781657
20
-41.5646487089
10
58.7371329803
20
-41.5297218900
10
58.8117695584
20
-41.4931252033
10
58.8855518171
20
-41.4548765284
10
58.9584441743
20
-41.4149945175
10
59.0304127998
20
-41.3734978448
0
LINE
5
281
100
AcDbEntity
8
0
100
AcDbLine
62
7
6
CONTINUOUS
10
60.4088778309
20
39.2372406673
11
62.2697487937
21
-37.0134006258
0
LWPOLYLINE
5
282
100
AcDbEntity
8
0
100
AcDbPolyline
62
7
6
CONTINUOUS
90
3
70
0
10
59.0304127998
20
-41.3734978448
10
59.1014233513
20
-41.3304064158
10
59.1714410582
20
-41.2857414550
0
LINE
5
283
100
AcDbEntity
8
0
100
AcDbLine
62
9
6
CONTINUOUS
10
59.1097527062
20
-39.2509722636
11
60.6132475705
21
-38.1447173730
0
LINE
5
284
100
AcDbEntity
8
0
100
AcDbLine
62
9
6
CONTINUOUS
10
62.2697487937
20
-37.0134006258
11
60.8494872826
21
-38.0584133358
0
LINE
5
285
100
AcDbEntity
8
0
100
AcDbLine
62
7
6
CONTINUOUS
10
59.0494973473
20
-41.2362605721
11
57.5848868710
21
-42.2413501486
0
LINE
5
286
100
AcDbEntity
8
0
100
AcDbLine
62
7
6
CONTINUOUS
10
60.6061847265
20
-40.3022763696
11
59.2404320977
21
-41.2395247052
0
LINE
5
287
100
AcDbEntity
8
0
100
AcDbLine
62
7
6
CONTINUOUS
10
59.1714410582
20
-41.2857414550
11
59.2404320977
21
-41.2395247052
0
LINE
5
288
100
AcDbEntity
8
0
100
AcDbLine
62
7
6
CONTINUOUS
10
57.4519591361
20
-42.3282768548
11
57.6006690538
21
-42.2304177101
0
SPLINE
5
289
100
AcDbEntity
8
0
100
AcDbSpline
62
9
6
CONTINUOUS
70
0
71
3
72
11
73
7
74
5
42
0.0000001000
43
0.0000001000
44
0.0000000001
12
1.4092687533
22
0.9681522408
32
0.0000000000
13
-0.0415913097
23
1.7042364011
33
0.0000000000
40
0.0000000000
40
0.0000000000
40
0.0000000000
40
0.0000000000
40
0.1970881529
40
0.4636935659
40
0.7307516438
40
1.0000000000
40
1.0000000000
40
1.0000000000
40
1.0000000000
10
32.1780025580
20
-25.2329071368
30
0.0000000000
10
32.2705859499
20
-25.1693033579
30
0.0000000000
10
32.4736026691
20
-24.9980079177
30
0.0000000000
10
32.7230439621
20
-24.6597331684
30
0.0000000000
10
32.8894401724
20
-24.2293973444
30
0.0000000000
10
32.9218158497
20
-23.9222147940
30
0.0000000000
10
32.9180830524
20
-23.7692605108
30
0.0000000000
11
32.1780025580
21
-25.2329071368
31
0.0000000000
11
32.4350844198
21
-25.0158562736
31
0.0000000000
11
32.7050276515
21
-24.6502124741
31
0.0000000000
11
32.8694545313
21
-24.2256767524
31
0.0000000000
11
32.9180830524
21
-23.7692605108
31
0.0000000000
0
SPLINE
5
28A
100
AcDbEntity
8
0
100
AcDbSpline
62
9
6
CONTINUOUS
70
0
71
3
72
11
73
7
74
5
42
0.0000001000
43
0.0000001000
44
0.0000000001
12
1.1678410919
22
0.0000000000
32
0.0000000000
13
0.9406501675
23
0.6921199884
33
0.0000000000
40
0.0000000000
40
0.0000000000
40
0.0000000000
40
0.0000000000
40
0.3303867334
40
0.6344529698
40
0.8681876379
40
1.0000000000
40
1.0000000000
40
1.0000000000
40
1.0000000000
10
31.7644681301
20
-23.9060047063
30
0.0000000000
10
31.8930811979
20
-23.9060047063
30
0.0000000000
10
32.1396504873
20
-23.8990063589
30
0.0000000000
10
32.4785133547
20
-23.8739172392
30
0.0000000000
10
32.7323665667
20
-23.8320226287
30
0.0000000000
10
32.8767532789
20
-23.7996705010
30
0.0000000000
10
32.9180830524
20
-23.7692605108
30
0.0000000000
11
31.7644681301
21
-23.9060047063
31
0.0000000000
11
32.1501681484
21
-23.8956419473
31
0.0000000000
11
32.5040379574
21
-23.8660968821
31
0.0000000000
11
32.7733796218
21
-23.8217693319
31
0.0000000000
11
32.9180830524
21
-23.7692605108
31
0.0000000000
0
SPLINE
5
28B
100
AcDbEntity
8
0
100
AcDbSpline
62
9
6
CONTINUOUS
70
0
71
3
72
11
73
7
74
5
42
0.0000001000
43
0.0000001000
44
0.0000000001
12
0.0216971439
22
-0.8890682177
32
0.0000000000
13
0.8475009897
23
-0.1639144424
33
0.0000000000
40
0.0000000000
40
0.0000000000
40
0.0000000000
40
0.0000000000
40
0.4107079964
40
0.7401095909
40
0.9443584366
40
1.0000000000
40
1.0000000000
40
1.0000000000
40
1.0000000000
10
31.0145468329
20
-24.6790546029
30
0.0000000000
10
31.0175172297
20
-24.8007704117
30
0.0000000000
10
31.0234370306
20
-25.0201049828
30
0.0000000000
10
31.0824263929
20
-25.2976901571
30
0.0000000000
10
31.0918467533
20
-25.4672917489
30
0.0000000000
10
31.1714603407
20
-25.5333559858
30
0.0000000000
10
31.1871791007
20
-25.5363961378
30
0.0000000000
11
31.0145468329
21
-24.6790546029
31
0.0000000000
11
31.0365010135
21
-25.0436503602
31
0.0000000000
11
31.0807936130
21
-25.3332302491
31
0.0000000000
11
31.1408292289
21
-25.5046674459
31
0.0000000000
11
31.1871791007
21
-25.5363961378
31
0.0000000000
0
SPLINE
5
28C
100
AcDbEntity
8
0
100
AcDbSpline
62
9
6
CONTINUOUS
70
0
71
3
72
13
73
9
74
7
42
0.0000001000
43
0.0000001000
44
0.0000000001
12
1.1981408903
22
0.0000000000
32
0.0000000000
13
-0.0292315172
23
1.1977842508
33
0.0000000000
40
0.0000000000
40
0.0000000000
40
0.0000000000
40
0.0000000000
40
0.1667720264
40
0.3331987066
40
0.4993752091
40
0.6658623722
40
0.8326377185
40
1.0000000000
40
1.0000000000
40
1.0000000000
40
1.0000000000
10
31.0145468329
20
-24.6790546029
30
0.0000000000
10
31.0811522943
20
-24.6790546029
30
0.0000000000
10
31.2149130571
20
-24.6614610046
30
0.0000000000
10
31.4008866014
20
-24.5832728688
30
0.0000000000
10
31.5594846918
20
-24.4585425871
30
0.0000000000
10
31.6791996234
20
-24.2959682463
30
0.0000000000
10
31.7519911987
20
-24.1073312516
30
0.0000000000
10
31.7660988812
20
-23.9728260079
30
0.0000000000
10
31.7644681301
20
-23.9060047063
30
0.0000000000
11
31.0145468329
21
-24.6790546029
31
0.0000000000
11
31.2126283246
21
-24.6527808512
31
0.0000000000
11
31.3964297288
21
-24.5754604464
31
0.0000000000
11
31.5529048723
21
-24.4523447310
31
0.0000000000
11
31.6712876858
21
-24.2917962457
31
0.0000000000
11
31.7433170069
21
-24.1054096744
31
0.0000000000
11
31.7644681301
21
-23.9060047063
31
0.0000000000
0
SPLINE
5
28D
100
AcDbEntity
8
0
100
AcDbSpline
62
9
6
CONTINUOUS
70
0
71
3
72
11
73
7
74
5
42
0.0000001000
43
0.0000001000
44
0.0000000001
12
0.0216974155
22
-0.8890685501
32
0.0000000000
13
0.8475055621
23
-0.1639123471
33
0.0000000000
40
0.0000000000
40
0.0000000000
40
0.0000000000
40
0.0000000000
40
0.4107136260
40
0.7401146041
40
0.9443598898
40
1.0000000000
40
1.0000000000
40
1.0000000000
40
1.0000000000
10
-34.8690918437
20
-24.6790546029
30
0.0000000000
10
-34.8661213689
20
-24.8007721255
30
0.0000000000
10
-34.8602014680
20
-25.0201084605
30
0.0000000000
10
-34.8012114704
20
-25.2976934671
30
0.0000000000
10
-34.7917905068
20
-25.4672945219
30
0.0000000000
10
-34.7121779445
20
-25.5333561101
30
0.0000000000
10
-34.6964595102
20
-25.5363961438
30
0.0000000000
11
-34.8690918437
21
-24.6790546029
31
0.0000000000
11
-34.8471370594
21
-25.0436554790
31
0.0000000000
11
-34.8028439109
21
-25.3332348422
31
0.0000000000
11
-34.7428084892
21
-25.5046688257
31
0.0000000000
11
-34.6964595102
21
-25.5363961438
31
0.0000000000
0
SPLINE
5
28E
100
AcDbEntity
8
0
100
AcDbSpline
62
9
6
CONTINUOUS
70
0
71
3
72
11
73
7
74
5
42
0.0000001000
43
0.0000001000
44
0.0000000001
12
-0.8400470892
22
0.0000002518
32
0.0000000000
13
-0.2190711354
23
0.8531166800
33
0.0000000000
40
0.0000000000
40
0.0000000000
40
0.0000000000
40
0.0000000000
40
0.4288286170
40
0.7650122248
40
0.9624287330
40
1.0000000000
40
1.0000000000
40
1.0000000000
40
1.0000000000
10
-35.6567451804
20
-23.9060047063
30
0.0000000000
10
-35.7768239242
20
-23.9060046703
30
0.0000000000
10
-35.9930936653
20
-23.9106266359
30
0.0000000000
10
-36.2553553343
20
-23.8542059061
30
0.0000000000
10
-36.4231975321
20
-23.8747272299
30
0.0000000000
10
-36.4742970341
20
-23.8000005094
30
0.0000000000
10
-36.4770406274
20
-23.7893162845
30
0.0000000000
11
-35.6567451804
21
-23.9060047063
31
0.0000000000
11
-36.0168323370
21
-23.8956421738
31
0.0000000000
11
-36.2976927208
21
-23.8660975042
31
0.0000000000
11
-36.4574978944
21
-23.8217699227
31
0.0000000000
11
-36.4770406274
21
-23.7893162845
31
0.0000000000
0
SPLINE
5
28F
100
AcDbEntity
8
0
100
AcDbSpline
62
9
6
CONTINUOUS
70
0
71
3
72
13
73
9
74
7
42
0.0000001000
43
0.0000001000
44
0.0000000001
12
0.0296944646
22
-1.2167538815
32
0.0000000000
13
1.2171161692
23
-0.0000000000
33
0.0000000000
40
0.0000000000
40
0.0000000000
40
0.0000000000
40
0.0000000000
40
0.1661432882
40
0.3335144626
40
0.5012547212
40
0.6687987342
40
0.8351375684
40
1.0000000000
40
1.0000000000
40
1.0000000000
40
1.0000000000
10
-35.6567451804
20
-23.9060047063
30
0.0000000000
10
-35.6551006684
20
-23.9733898699
30
0.0000000000
10
-35.6340198702
20
-24.1088538874
30
0.0000000000
10
-35.5517189905
20
-24.2971514118
30
0.0000000000
10
-35.4241452817
20
-24.4591230557
30
0.0000000000
10
-35.2600294587
20
-24.5832527014
30
0.0000000000
10
-35.0709829247
20
-24.6612253086
30
0.0000000000
10
-34.9359774207
20
-24.6790546029
30
0.0000000000
10
-34.8690918437
20
-24.6790546029
30
0.0000000000
11
-35.6567451804
21
-23.9060047063
31
0.0000000000
11
-35.6257396521
21
-24.1058292279
31
0.0000000000
11
-35.5442888025
21
-24.2925471688
31
0.0000000000
11
-35.4179383158
21
-24.4529111528
31
0.0000000000
11
-35.2552738294
21
-24.5758902011
31
0.0000000000
11
-35.0680357669
21
-24.6528928137
31
0.0000000000
11
-34.8690918437
21
-24.6790546029
31
0.0000000000
0
SPLINE
5
290
100
AcDbEntity
8
0
100
AcDbSpline
62
9
6
CONTINUOUS
70
0
71
3
72
11
73
7
74
5
42
0.0000001000
43
0.0000001000
44
0.0000000001
12
-0.8400476027
22
0.0000000000
32
0.0000000000
13
-0.2190642846
23
0.8531237382
33
0.0000000000
40
0.0000000000
40
0.0000000000
40
0.0000000000
40
0.0000000000
40
0.4288343278
40
0.7650170389
40
0.9624297698
40
1.0000000000
40
1.0000000000
40
1.0000000000
40
1.0000000000
10
-36.7297668785
20
20.0618975459
30
0.0000000000
10
-36.8498472948
20
20.0618975459
30
0.0000000000
10
-37.0661189251
20
20.0572754708
30
0.0000000000
10
-37.3283798169
20
20.1136965821
30
0.0000000000
10
-37.4962222842
20
20.0931762998
30
0.0000000000
10
-37.5473189755
20
20.1679018681
30
0.0000000000
10
-37.5500624073
20
20.1785858865
30
0.0000000000
11
-36.7297668785
21
20.0618975459
31
0.0000000000
11
-37.0898590482
21
20.0722603048
31
0.0000000000
11
-37.3707188064
21
20.1018053701
31
0.0000000000
11
-37.5305208011
21
20.1461329202
31
0.0000000000
11
-37.5500624073
21
20.1785858865
31
0.0000000000
0
SPLINE
5
291
100
AcDbEntity
8
0
100
AcDbSpline
62
9
6
CONTINUOUS
70
0
71
3
72
11
73
7
74
5
42
0.0000001000
43
0.0000001000
44
0.0000000001
12
-0.0279805986
22
1.1465408124
32
0.0000000000
13
0.8473532945
23
0.7728720093
33
0.0000000000
40
0.0000000000
40
0.0000000000
40
0.0000000000
40
0.0000000000
40
0.3359874014
40
0.6410315633
40
0.8718849728
40
1.0000000000
40
1.0000000000
40
1.0000000000
40
1.0000000000
10
-35.9798455813
20
20.8349474425
30
0.0000000000
10
-35.9829792908
20
20.9633551985
30
0.0000000000
10
-35.9804642016
20
21.2078476183
30
0.0000000000
10
-35.9564961742
20
21.5434511869
30
0.0000000000
10
-35.9115485883
20
21.7872963376
30
0.0000000000
10
-35.8712381362
20
21.9288033779
30
0.0000000000
10
-35.8350519061
20
21.9618088840
30
0.0000000000
11
-35.9798455813
21
20.8349474425
31
0.0000000000
11
-35.9761926849
21
21.2202680932
31
0.0000000000
11
-35.9474762808
21
21.5689372651
31
0.0000000000
11
-35.8979720658
21
21.8290296926
31
0.0000000000
11
-35.8350519061
21
21.9618088840
31
0.0000000000
0
SPLINE
5
292
100
AcDbEntity
8
0
100
AcDbSpline
62
9
6
CONTINUOUS
70
0
71
3
72
10
73
6
74
4
42
0.0000001000
43
0.0000001000
44
0.0000000001
12
-1.2936696553
22
-0.0000000039
32
0.0000000000
13
-0.9415613878
23
-0.8929229741
33
0.0000000000
40
0.0000000000
40
0.0000000000
40
0.0000000000
40
0.0000000000
40
0.3525394531
40
0.7036949300
40
1.0000000000
40
1.0000000000
40
1.0000000000
40
1.0000000000
10
-35.8350518955
20
21.9618088840
30
0.0000000000
10
-35.9870750931
20
21.9618088836
30
0.0000000000
10
-36.2920918359
20
21.9216514683
30
0.0000000000
10
-36.6942002371
20
21.7526299395
30
0.0000000000
10
-36.9193299793
20
21.5830120498
30
0.0000000000
10
-37.0123264503
20
21.4948195150
30
0.0000000000
11
-35.8350518955
21
21.9618088840
31
0.0000000000
11
-36.2871562363
21
21.9017993975
31
0.0000000000
11
-36.7058961245
21
21.7256560362
31
0.0000000000
11
-37.0123264503
21
21.4948195150
31
0.0000000000
0
SPLINE
5
293
100
AcDbEntity
8
0
100
AcDbSpline
62
9
6
CONTINUOUS
70
0
71
3
72
13
73
9
74
7
42
0.0000001000
43
0.0000001000
44
0.0000000001
12
-1.1981408903
22
0.0000000000
32
0.0000000000
13
0.0292315172
23
-1.1977842508
33
0.0000000000
40
0.0000000000
40
0.0000000000
40
0.0000000000
40
0.0000000000
40
0.1667720264
40
0.3331987066
40
0.4993752091
40
0.6658623722
40
0.8326377185
40
1.0000000000
40
1.0000000000
40
1.0000000000
40
1.0000000000
10
-35.9798455813
20
20.8349474425
30
0.0000000000
10
-36.0464510427
20
20.8349474425
30
0.0000000000
10
-36.1802118055
20
20.8173538442
30
0.0000000000
10
-36.3661853498
20
20.7391657084
30
0.0000000000
10
-36.5247834402
20
20.6144354267
30
0.0000000000
10
-36.6444983718
20
20.4518610859
30
0.0000000000
10
-36.7172899471
20
20.2632240912
30
0.0000000000
10
-36.7313976296
20
20.1287188475
30
0.0000000000
10
-36.7297668785
20
20.0618975459
30
0.0000000000
11
-35.9798455813
21
20.8349474425
31
0.0000000000
11
-36.1779270730
21
20.8086736908
31
0.0000000000
11
-36.3617284772
21
20.7313532860
31
0.0000000000
11
-36.5182036207
21
20.6082375706
31
0.0000000000
11
-36.6365864342
21
20.4476890853
31
0.0000000000
11
-36.7086157552
21
20.2613025140
31
0.0000000000
11
-36.7297668785
21
20.0618975459
31
0.0000000000
0
SPLINE
5
294
100
AcDbEntity
8
0
100
AcDbSpline
62
9
6
CONTINUOUS
70
0
71
3
72
11
73
7
74
5
42
0.0000001000
43
0.0000001000
44
0.0000000001
12
-0.0279809401
22
1.1465408777
32
0.0000000000
13
0.8473540332
23
0.7728713086
33
0.0000000000
40
0.0000000000
40
0.0000000000
40
0.0000000000
40
0.0000000000
40
0.3359923887
40
0.6410368464
40
0.8718873825
40
1.0000000000
40
1.0000000000
40
1.0000000000
40
1.0000000000
10
29.9037930953
20
20.8349474425
30
0.0000000000
10
29.9006593010
20
20.9633571119
30
0.0000000000
10
29.9031744590
20
21.2078515725
30
0.0000000000
10
29.9271429852
20
21.5434560305
30
0.0000000000
10
29.9720906095
20
21.7872994187
30
0.0000000000
10
30.0124012000
20
21.9288040286
30
0.0000000000
10
30.0485867810
20
21.9618088840
30
0.0000000000
11
29.9037930953
21
20.8349474425
31
0.0000000000
11
29.9074461596
21
21.2202738365
31
0.0000000000
11
29.9361630619
21
21.5689433302
31
0.0000000000
11
29.9856673099
21
21.8290324141
31
0.0000000000
11
30.0485867810
21
21.9618088840
31
0.0000000000
0
SPLINE
5
295
100
AcDbEntity
8
0
100
AcDbSpline
62
9
6
CONTINUOUS
70
0
71
3
72
11
73
7
74
5
42
0.0000001000
43
0.0000001000
44
0.0000000001
12
1.1678411065
22
-0.0000003500
32
0.0000000000
13
0.9406494381
23
0.6921210044
33
0.0000000000
40
0.0000000000
40
0.0000000000
40
0.0000000000
40
0.0000000000
40
0.3303817685
40
0.6344476092
40
0.8681851102
40
1.0000000000
40
1.0000000000
40
1.0000000000
40
1.0000000000
10
30.6914464320
20
20.0618975459
30
0.0000000000
10
30.8200575687
20
20.0618975073
30
0.0000000000
10
31.0666247756
20
20.0688956560
30
0.0000000000
10
31.4054867118
20
20.0939843190
30
0.0000000000
10
31.6593417723
20
20.1358789822
30
0.0000000000
10
31.8037308201
20
20.1682311340
30
0.0000000000
10
31.8450613541
20
20.1986417519
30
0.0000000000
11
30.6914464320
21
20.0618975459
31
0.0000000000
11
31.0771406656
21
20.0722599068
31
0.0000000000
11
31.4310100530
21
20.1018045202
31
0.0000000000
11
31.7003550575
21
20.1461321694
31
0.0000000000
11
31.8450613541
21
20.1986417519
31
0.0000000000
0
SPLINE
5
296
100
AcDbEntity
8
0
100
AcDbSpline
62
9
6
CONTINUOUS
70
0
71
3
72
13
73
9
74
7
42
0.0000001000
43
0.0000001000
44
0.0000000001
12
-0.0296944646
22
1.2167538815
32
0.0000000000
13
-1.2171161693
23
0.0000000000
33
0.0000000000
40
0.0000000000
40
0.0000000000
40
0.0000000000
40
0.0000000000
40
0.1661432882
40
0.3335144626
40
0.5012547212
40
0.6687987342
40
0.8351375684
40
1.0000000000
40
1.0000000000
40
1.0000000000
40
1.0000000000
10
30.6914464320
20
20.0618975459
30
0.0000000000
10
30.6898019200
20
20.1292827094
30
0.0000000000
10
30.6687211218
20
20.2647467270
30
0.0000000000
10
30.5864202421
20
20.4530442514
30
0.0000000000
10
30.4588465333
20
20.6150158953
30
0.0000000000
10
30.2947307104
20
20.7391455410
30
0.0000000000
10
30.1056841763
20
20.8171181482
30
0.0000000000
10
29.9706786723
20
20.8349474425
30
0.0000000000
10
29.9037930953
20
20.8349474425
30
0.0000000000
11
30.6914464320
21
20.0618975459
31
0.0000000000
11
30.6604409038
21
20.2617220675
31
0.0000000000
11
30.5789900541
21
20.4484400084
31
0.0000000000
11
30.4526395674
21
20.6088039924
31
0.0000000000
11
30.2899750810
21
20.7317830407
31
0.0000000000
11
30.1027370185
21
20.8087856533
31
0.0000000000
11
29.9037930953
21
20.8349474425
31
0.0000000000
0
SPLINE
5
297
100
AcDbEntity
8
0
100
AcDbSpline
62
9
6
CONTINUOUS
70
0
71
3
72
13
73
9
74
7
42
0.0000001000
43
0.0000001000
44
0.0000000001
12
-0.0677274873
22
2.7751863531
32
0.0000000000
13
-2.7760126633
23
-0.0000000000
33
0.0000000000
40
0.0000000000
40
0.0000000000
40
0.0000000000
40
0.0000000000
40
0.1662628051
40
0.3334422411
40
0.5010023762
40
0.6683752315
40
0.8345414779
40
1.0000000000
40
1.0000000000
40
1.0000000000
40
1.0000000000
10
31.8450613544
20
20.1986417413
30
0.0000000000
10
31.8413078337
20
20.3524451639
30
0.0000000000
10
31.7931987446
20
20.6613439852
30
0.0000000000
10
31.6056161488
20
21.0906033908
30
0.0000000000
10
31.3150241608
20
21.4596673097
30
0.0000000000
10
30.9412832822
20
21.7427186102
30
0.0000000000
10
30.5100156626
20
21.9209294630
30
0.0000000000
10
30.2016917652
20
21.9618088840
30
0.0000000000
10
30.0485867810
20
21.9618088840
30
0.0000000000
11
31.8450613544
21
20.1986417413
31
0.0000000000
11
31.7742521883
21
20.6547253932
31
0.0000000000
11
31.5886987014
21
21.0801093404
31
0.0000000000
11
31.3009080330
21
21.4455408339
31
0.0000000000
11
30.9304368544
21
21.7259536860
31
0.0000000000
11
30.5039529920
21
21.9017103031
31
0.0000000000
11
30.0485867810
21
21.9618088840
31
0.0000000000
0
SPLINE
5
298
100
AcDbEntity
8
0
100
AcDbSpline
62
7
6
CONTINUOUS
70
0
71
3
72
31
73
27
74
25
42
0.0000001000
43
0.0000001000
44
0.0000000001
12
-0.1525497513
22
6.2508452234
32
0.0000000000
13
-6.2527064087
23
0.0000000000
33
0.0000000000
40
0.0000000000
40
0.0000000000
40
0.0000000000
40
0.0000000000
40
0.0414982664
40
0.0830677038
40
0.1246804956
40
0.1663689432
40
0.2080807038
40
0.2498625781
40
0.2916509122
40
0.3334945532
40
0.3753319657
40
0.4172015779
40
0.4590575162
40
0.5009153586
40
0.5427576300
40
0.5845671257
40
0.6263601563
40
0.6680921883
40
0.7098032740
40
0.7514342486
40
0.7930363662
40
0.8345492157
40
0.8760226815
40
0.9174082756
40
0.9587419416
40
1.0000000000
40
1.0000000000
40
1.0000000000
40
1.0000000000
10
60.4088778309
20
39.2372406673
30
0.0000000000
10
60.4067676475
20
39.3237070807
30
0.0000000000
10
60.3969058366
20
39.4967029259
30
0.0000000000
10
60.3653112287
20
39.7548126906
30
0.0000000000
10
60.3170328378
20
40.0107419184
30
0.0000000000
10
60.2522909897
20
40.2633124023
30
0.0000000000
10
60.1713412494
20
40.5115347301
30
0.0000000000
10
60.0745624029
20
40.7542476487
30
0.0000000000
10
59.9623281480
20
40.9905155487
30
0.0000000000
10
59.8351662172
20
41.2192281071
30
0.0000000000
10
59.6935702175
20
41.4394974368
30
0.0000000000
10
59.5381948930
20
41.6503053889
30
0.0000000000
10
59.3696627856
20
41.8508062969
30
0.0000000000
10
59.1887241038
20
42.0401079847
30
0.0000000000
10
58.9961429594
20
42.2174095823
30
0.0000000000
10
58.7927339309
20
42.3819620880
30
0.0000000000
10
58.5794019511
20
42.5330327874
30
0.0000000000
10
58.3570027331
20
42.6700160906
30
0.0000000000
10
58.1265642066
20
42.7922783090
30
0.0000000000
10
57.8889809809
20
42.8993445348
30
0.0000000000
10
57.6453696269
20
42.9907110432
30
0.0000000000
10
57.3966693422
20
43.0660247056
30
0.0000000000
10
57.1440438211
20
43.1249328557
30
0.0000000000
10
56.8884828535
20
43.1672025464
30
0.0000000000
10
56.6311635176
20
43.1926409516
30
0.0000000000
10
56.4589697062
20
43.1983129422
30
0.0000000000
10
56.3729781974
20
43.1983129422
30
0.0000000000
11
60.4088778309
21
39.2372406673
31
0.0000000000
11
60.3941220955
21
39.4962972440
31
0.0000000000
11
60.3625546648
21
39.7542946801
31
0.0000000000
11
60.3143336502
21
40.0099798520
31
0.0000000000
11
60.2496195976
21
40.2624846220
31
0.0000000000
11
60.1687644499
21
40.5104463686
31
0.0000000000
11
60.0720100609
21
40.7531190751
31
0.0000000000
11
59.9599016817
21
40.9891365999
31
0.0000000000
11
59.8327681538
21
41.2178076814
31
0.0000000000
11
59.6913140987
21
41.4378616990
31
0.0000000000
11
59.5359885879
21
41.6486041579
31
0.0000000000
11
59.3675913161
21
41.8489438636
31
0.0000000000
11
59.1867487423
21
42.0381417337
31
0.0000000000
11
58.9942695419
21
42.2153440875
31
0.0000000000
11
58.7910220217
21
42.3797587155
31
0.0000000000
11
58.5777561196
21
42.5307738222
31
0.0000000000
11
58.3555759844
21
42.6676120568
31
0.0000000000
11
58.1251828855
21
42.7898389008
31
0.0000000000
11
57.8878569678
21
42.8967770068
31
0.0000000000
11
57.6442933373
21
42.9881126738
31
0.0000000000
11
57.3958631648
21
43.0633311525
31
0.0000000000
11
57.1433138418
21
43.1222075551
31
0.0000000000
11
56.8880082969
21
43.1644214265
31
0.0000000000
11
56.6308133010
21
43.1898326343
31
0.0000000000
11
56.3729781974
21
43.1983129422
31
0.0000000000
0
SPLINE
5
299
100
AcDbEntity
8
0
100
AcDbSpline
62
7
6
CONTINUOUS
70
0
71
3
72
19
73
15
74
13
42
0.0000001000
43
0.0000001000
44
0.0000000001
12
-2.9155084652
22
0.0000000000
32
0.0000000000
13
-2.1149013510
23
-2.0076283401
33
0.0000000000
40
0.0000000000
40
0.0000000000
40
0.0000000000
40
0.0000000000
40
0.0883416514
40
0.1765640029
40
0.2646238947
40
0.3526097700
40
0.4404352868
40
0.5282266371
40
0.6158808074
40
0.7035335668
40
0.7910912764
40
0.8786710495
40
0.9662143580
40
1.0000000000
40
1.0000000000
40
1.0000000000
40
1.0000000000
10
-55.8951056460
20
43.1983129422
30
0.0000000000
10
-55.9809592568
20
43.1983129422
30
0.0000000000
10
-56.1526046880
20
43.1926680760
30
0.0000000000
10
-56.4086964594
20
43.1672552766
30
0.0000000000
10
-56.6622164009
20
43.1250081860
30
0.0000000000
10
-56.9119963748
20
43.0661183027
30
0.0000000000
10
-57.1570566844
20
42.9908173974
30
0.0000000000
10
-57.3962496814
20
42.8994572211
30
0.0000000000
10
-57.6286518910
20
42.7923902010
30
0.0000000000
10
-57.8531697802
20
42.6701197233
30
0.0000000000
10
-58.0689303218
20
42.5331205789
30
0.0000000000
10
-58.2749348878
20
42.3820267444
30
0.0000000000
10
-58.4303407816
20
42.2511447640
30
0.0000000000
10
-58.5169243906
20
42.1710571371
30
0.0000000000
10
-58.5407421572
20
42.1484474664
30
0.0000000000
11
-55.8951056460
21
43.1983129422
31
0.0000000000
11
-56.1525268316
21
43.1898326343
31
0.0000000000
11
-56.4084815238
21
43.1644214265
31
0.0000000000
11
-56.6617266383
21
43.1222075551
31
0.0000000000
11
-56.9114022441
21
43.0633311525
31
0.0000000000
11
-57.1561610539
21
42.9881126738
31
0.0000000000
11
-57.3952666526
21
42.8967770068
31
0.0000000000
11
-57.6273729941
21
42.7898389008
31
0.0000000000
11
-57.8518002839
21
42.6676120568
31
0.0000000000
11
-58.0673014380
21
42.5307738222
31
0.0000000000
11
-58.2731963955
21
42.3797587155
31
0.0000000000
11
-58.4684189495
21
42.2153440875
31
0.0000000000
11
-58.5407421572
21
42.1484474664
31
0.0000000000
0
SPLINE
5
29A
100
AcDbEntity
8
0
100
AcDbSpline
62
7
6
CONTINUOUS
70
0
71
3
72
22
73
18
74
16
42
0.0000001000
43
0.0000001000
44
0.0000000001
12
3.1680773457
22
2.1740896182
32
0.0000000000
13
-0.0937248973
23
3.8404508788
33
0.0000000000
40
0.0000000000
40
0.0000000000
40
0.0000000000
40
0.0000000000
40
0.0643233560
40
0.1307627643
40
0.1972277438
40
0.2637186917
40
0.3302355226
40
0.3968301654
40
0.4634558190
40
0.5301984663
40
0.5969828769
40
0.6639078548
40
0.7308896128
40
0.7980186071
40
0.8652227729
40
0.9325631091
40
1.0000000000
40
1.0000000000
40
1.0000000000
40
1.0000000000
10
60.6061787261
20
-40.3022804827
30
0.0000000000
10
60.6741058484
20
-40.2556655692
30
0.0000000000
10
60.8091168938
20
-40.1564170429
30
0.0000000000
10
61.0024365953
20
-39.9936042642
30
0.0000000000
10
61.1864033468
20
-39.8162667863
30
0.0000000000
10
61.3581366850
20
-39.6269243251
30
0.0000000000
10
61.5169106301
20
-39.4263790094
30
0.0000000000
10
61.6620177788
20
-39.2155244686
30
0.0000000000
10
61.7928764894
20
-38.9952078526
30
0.0000000000
10
61.9088815406
20
-38.7664489083
30
0.0000000000
10
62.0095828839
20
-38.5301370538
30
0.0000000000
10
62.0945074022
20
-38.2873840725
30
0.0000000000
10
62.1633278236
20
-38.0391269794
30
0.0000000000
10
62.2157229811
20
-37.7865280830
30
0.0000000000
10
62.2514867800
20
-37.5305779585
30
0.0000000000
10
62.2704576906
20
-37.2724551912
30
0.0000000000
10
62.2718556323
20
-37.0997299815
30
0.0000000000
10
62.2697487937
20
-37.0134006258
30
0.0000000000
11
60.6061787261
21
-40.3022804827
31
0.0000000000
11
60.8052771526
21
-40.1559186741
31
0.0000000000
11
61.0004997066
21
-39.9915040461
31
0.0000000000
11
61.1843297807
21
-39.8143016922
31
0.0000000000
11
61.3559377351
21
-39.6251038222
31
0.0000000000
11
61.5145565622
21
-39.4247641165
31
0.0000000000
11
61.6595958770
21
-39.2140216575
31
0.0000000000
11
61.7903092452
21
-38.9939676400
31
0.0000000000
11
61.9062814932
21
-38.7652965585
31
0.0000000000
11
62.0068700175
21
-38.5292790336
31
0.0000000000
11
62.0917797169
21
-38.2866063271
31
0.0000000000
11
62.1605320204
21
-38.0386445806
31
0.0000000000
11
62.2129214870
21
-37.7861398106
31
0.0000000000
11
62.2486626823
21
-37.5304546386
31
0.0000000000
11
62.2676374336
21
-37.2724572026
31
0.0000000000
11
62.2697487937
21
-37.0134006258
31
0.0000000000
0
SPLINE
5
29B
100
AcDbEntity
8
0
100
AcDbSpline
62
7
6
CONTINUOUS
70
0
71
3
72
12
73
8
74
6
42
0.0000001000
43
0.0000001000
44
0.0000000001
12
-0.9147230973
22
0.0000000000
32
0.0000000000
13
-0.8870785983
23
-0.2231813279
33
0.0000000000
40
0.0000000000
40
0.0000000000
40
0.0000000000
40
0.0000000000
40
0.2004747550
40
0.4006889569
40
0.6006765404
40
0.8004488898
40
1.0000000000
40
1.0000000000
40
1.0000000000
40
1.0000000000
10
-57.6447769900
20
41.6024383394
30
0.0000000000
10
-57.7059032863
20
41.6024383394
30
0.0000000000
10
-57.8280978404
20
41.5994444269
30
0.0000000000
10
-58.0108222514
20
41.5859647884
30
0.0000000000
10
-58.1924549722
20
41.5635319749
30
0.0000000000
10
-58.3725552583
20
41.5322020326
30
0.0000000000
10
-58.4913893252
20
41.5054153492
30
0.0000000000
10
-58.5503951649
20
41.4905699886
30
0.0000000000
11
-57.6447769900
21
41.6024383394
31
0.0000000000
11
-57.8281007238
21
41.5979410662
31
0.0000000000
11
-58.0107446055
21
41.5844623671
31
0.0000000000
11
-58.1922978209
21
41.5620345220
31
0.0000000000
11
-58.3723295428
21
41.5307109761
31
0.0000000000
11
-58.5503951649
21
41.4905699886
31
0.0000000000
0
SPLINE
5
29C
100
AcDbEntity
8
0
100
AcDbSpline
62
7
6
CONTINUOUS
70
0
71
3
72
12
73
8
74
6
42
0.0000001000
43
0.0000001000
44
0.0000000001
12
-0.8930567094
22
0.2219923247
32
0.0000000000
13
-0.9202341433
23
-0.0000000000
33
0.0000000000
40
0.0000000000
40
0.0000000000
40
0.0000000000
40
0.0000000000
40
0.2004626181
40
0.4007039650
40
0.6007028342
40
0.8004592320
40
1.0000000000
40
1.0000000000
40
1.0000000000
40
1.0000000000
10
55.5345122072
20
41.4905384459
30
0.0000000000
10
55.4748373785
20
41.5053721667
30
0.0000000000
10
55.3548158342
20
41.5321425592
30
0.0000000000
10
55.1731696536
20
41.5634901537
30
0.0000000000
10
54.9904227890
20
41.5859390012
30
0.0000000000
10
54.8070183608
20
41.5994328458
30
0.0000000000
10
54.6845149293
20
41.6024383394
30
0.0000000000
10
54.6233068534
20
41.6024383394
30
0.0000000000
11
55.5345122072
21
41.4905384459
31
0.0000000000
11
55.3544624671
21
41.5306907958
31
0.0000000000
11
55.1728768930
21
41.5620231386
31
0.0000000000
11
54.9902035216
21
41.5844572982
31
0.0000000000
11
54.8068759688
21
41.5979397983
31
0.0000000000
11
54.6233068534
21
41.6024383394
31
0.0000000000
0
SPLINE
5
29D
100
AcDbEntity
8
0
100
AcDbSpline
62
7
6
CONTINUOUS
70
0
71
3
72
23
73
19
74
17
42
0.0000001000
43
0.0000001000
44
0.0000000001
12
-0.1812805342
22
-0.0456096206
32
0.0000000000
13
0.1869301194
23
-0.0000000053
33
0.0000000000
40
0.0000000000
40
0.0000000000
40
0.0000000000
40
0.0000000000
40
0.1037373866
40
0.2013969256
40
0.2892738931
40
0.3675544762
40
0.4376104709
40
0.4997021400
40
0.5537755385
40
0.6024288397
40
0.6466320006
40
0.6875761386
40
0.7282772126
40
0.7718144984
40
0.8194692704
40
0.8720488852
40
0.9321029635
40
1.0000000000
40
1.0000000000
40
1.0000000000
40
1.0000000000
10
-58.5503951649
20
41.4905699886
30
0.0000000000
10
-58.5566636878
20
41.4889928477
30
0.0000000000
10
-58.5686172507
20
41.4849978483
30
0.0000000000
10
-58.5847949546
20
41.4769313194
30
0.0000000000
10
-58.5984377170
20
41.4676732579
30
0.0000000000
10
-58.6094412299
20
41.4578304127
30
0.0000000000
10
-58.6179232228
20
41.4477701348
30
0.0000000000
10
-58.6239757985
20
41.4378096186
30
0.0000000000
10
-58.6277435391
20
41.4281954259
30
0.0000000000
10
-58.6293851632
20
41.4191218830
30
0.0000000000
10
-58.6290454775
20
41.4107182991
30
0.0000000000
10
-58.6268866492
20
41.4031027983
30
0.0000000000
10
-58.6229938564
20
41.3962579494
30
0.0000000000
10
-58.6173093337
20
41.3902202380
30
0.0000000000
10
-58.6098209918
20
41.3851825144
30
0.0000000000
10
-58.6005473987
20
41.3813242547
30
0.0000000000
10
-58.5895223957
20
41.3788569581
30
0.0000000000
10
-58.5815335499
20
41.3783325351
30
0.0000000000
10
-58.5773028829
20
41.3783325349
30
0.0000000000
11
-58.5503951649
21
41.4905699886
31
0.0000000000
11
-58.5687948167
21
41.4844471956
31
0.0000000000
11
-58.5851255188
21
41.4762880419
31
0.0000000000
11
-58.5986955493
21
41.4670308425
31
0.0000000000
11
-58.6095651461
21
41.4572340819
31
0.0000000000
11
-58.6179543379
21
41.4471784588
31
0.0000000000
11
-58.6239163982
21
41.4372199591
31
0.0000000000
11
-58.6275347894
21
41.4277818537
31
0.0000000000
11
-58.6290853412
21
41.4188202364
31
0.0000000000
11
-58.6287018152
21
41.4105662398
31
0.0000000000
11
-58.6265961931
21
41.4032078863
31
0.0000000000
11
-58.6228460201
21
41.3965880849
31
0.0000000000
11
-58.6173000248
21
41.3906319134
31
0.0000000000
11
-58.6099467575
21
41.3856036012
31
0.0000000000
11
-58.6009009429
21
41.3817595342
31
0.0000000000
11
-58.5899628408
21
41.3792338434
31
0.0000000000
11
-58.5773028829
21
41.3783325349
31
0.0000000000
0
SPLINE
5
29E
100
AcDbEntity
8
0
100
AcDbSpline
62
9
6
CONTINUOUS
70
0
71
3
72
21
73
17
74
15
42
0.0000001000
43
0.0000001000
44
0.0000000001
12
-0.9563048109
22
-0.1379009280
32
0.0000000000
13
-0.8371905085
23
-0.4823912486
33
0.0000000000
40
0.0000000000
40
0.0000000000
40
0.0000000000
40
0.0000000000
40
0.0738202424
40
0.1473003454
40
0.2203847224
40
0.2930527055
40
0.3652935092
40
0.4371251585
40
0.5085747149
40
0.5796654862
40
0.6504232188
40
0.7208708520
40
0.7910297904
40
0.8609227371
40
0.9305725248
40
1.0000000000
40
1.0000000000
40
1.0000000000
40
1.0000000000
10
-58.5503773341
20
41.4905750748
30
0.0000000000
10
-58.5739088851
20
41.4871817815
30
0.0000000000
10
-58.6207749992
20
41.4797788831
30
0.0000000000
10
-58.6905660390
20
41.4668050602
30
0.0000000000
10
-58.7596136789
20
41.4520041478
30
0.0000000000
10
-58.8278412445
20
41.4354087244
30
0.0000000000
10
-58.8951978159
20
41.4170510491
30
0.0000000000
10
-58.9616490567
20
41.3969638453
30
0.0000000000
10
-59.0271731012
20
41.3751793748
30
0.0000000000
10
-59.0917519502
20
41.3517299303
30
0.0000000000
10
-59.1553679308
20
41.3266488523
30
0.0000000000
10
-59.2180043309
20
41.2999699349
30
0.0000000000
10
-59.2796450623
20
41.2717274060
30
0.0000000000
10
-59.3402755036
20
41.2419553824
30
0.0000000000
10
-59.3998823182
20
41.2106877560
30
0.0000000000
10
-59.4389880538
20
41.1888353247
30
0.0000000000
10
-59.4583627283
20
41.1776715892
30
0.0000000000
11
-58.5503773341
21
41.4905750748
31
0.0000000000
11
-58.6208281408
21
41.4794431919
31
0.0000000000
11
-58.6906277539
21
41.4664633465
31
0.0000000000
11
-58.7596725772
21
41.4516602975
31
0.0000000000
11
-58.8278944220
21
41.4350638779
31
0.0000000000
11
-58.8952364496
21
41.4167083659
31
0.0000000000
11
-58.9616706755
21
41.3966251095
31
0.0000000000
11
-59.0271791750
21
41.3748450265
31
0.0000000000
11
-59.0917420970
21
41.3514010002
31
0.0000000000
11
-59.1553433698
21
41.3263257100
31
0.0000000000
11
-59.2179659034
21
41.2996530089
31
0.0000000000
11
-59.2795927849
21
41.2714174331
31
0.0000000000
11
-59.3402097550
21
41.2416529151
31
0.0000000000
11
-59.3998040880
21
41.2103929853
31
0.0000000000
11
-59.4583627283
21
41.1776715892
31
0.0000000000
0
SPLINE
5
29F
100
AcDbEntity
8
0
100
AcDbSpline
62
9
6
CONTINUOUS
70
0
71
3
72
8
73
4
74
2
42
0.0000001000
43
0.0000001000
44
0.0000000001
12
-0.0300368857
22
-0.0173073281
32
0.0000000000
13
-0.0297989946
23
-0.0177137673
33
0.0000000000
40
0.0000000000
40
0.0000000000
40
0.0000000000
40
0.0000000000
40
1.0000000000
40
1.0000000000
40
1.0000000000
40
1.0000000000
10
-59.4583627283
20
41.1776715892
30
0.0000000000
10
-59.4683750235
20
41.1719024798
30
0.0000000000
10
-59.4783480783
20
41.1660652758
30
0.0000000000
10
-59.4882810765
20
41.1601606867
30
0.0000000000
11
-59.4583627283
21
41.1776715892
31
0.0000000000
11
-59.4882810765
21
41.1601606867
31
0.0000000000
0
SPLINE
5
2A0
100
AcDbEntity
8
0
100
AcDbSpline
62
9
6
CONTINUOUS
70
0
71
3
72
17
73
13
74
11
42
0.0000001000
43
0.0000001000
44
0.0000000001
12
-0.5036924525
22
-0.2994158356
32
0.0000000000
13
-0.4249706907
23
-0.4034264847
33
0.0000000000
40
0.0000000000
40
0.0000000000
40
0.0000000000
40
0.0000000000
40
0.0549858030
40
0.1688266190
40
0.2823884518
40
0.3956966060
40
0.5087747039
40
0.6216449259
40
0.7343281367
40
0.8468439526
40
0.9592108225
40
1.0000000000
40
1.0000000000
40
1.0000000000
40
1.0000000000
10
-59.4882810765
20
41.1601606867
30
0.0000000000
10
-59.4975130545
20
41.1546728133
30
0.0000000000
10
-59.5257523779
20
41.1376443017
30
0.0000000000
10
-59.5724310334
20
41.1082526202
30
0.0000000000
10
-59.6278138026
20
41.0713452795
30
0.0000000000
10
-59.6821092870
20
41.0331146922
30
0.0000000000
10
-59.7353059276
20
40.9935956540
30
0.0000000000
10
-59.7873927719
20
40.9528229153
30
0.0000000000
10
-59.8383595230
20
40.9108311221
30
0.0000000000
10
-59.8881965586
20
40.8676547719
30
0.0000000000
10
-59.9265741912
20
40.8327224025
30
0.0000000000
10
-59.9483603607
20
40.8122220627
30
0.0000000000
10
-59.9541384290
20
40.8067369179
30
0.0000000000
11
-59.4882810765
21
41.1601606867
31
0.0000000000
11
-59.5158725489
21
41.1435230085
31
0.0000000000
11
-59.5723204956
21
41.1079818252
31
0.0000000000
11
-59.6276939593
21
41.0710827178
31
0.0000000000
11
-59.6819808085
21
41.0328604350
31
0.0000000000
11
-59.7351694339
21
40.9933497588
31
0.0000000000
11
-59.7872488506
21
40.9525854175
31
0.0000000000
11
-59.8382087382
21
40.9106020309
31
0.0000000000
11
-59.8880394481
21
40.8674340747
31
0.0000000000
11
-59.9367320148
21
40.8231158408
31
0.0000000000
11
-59.9541384290
21
40.8067369179
31
0.0000000000
0
SPLINE
5
2A1
100
AcDbEntity
8
0
100
AcDbSpline
62
9
6
CONTINUOUS
70
0
71
3
72
12
73
8
74
6
42
0.0000001000
43
0.0000001000
44
0.0000000001
12
-0.2739746557
22
-0.1546338635
32
0.0000000000
13
-0.2617026188
23
-0.1746080905
33
0.0000000000
40
0.0000000000
40
0.0000000000
40
0.0000000000
40
0.0000000000
40
0.2436265382
40
0.4853433801
40
0.7249992834
40
0.9624590606
40
1.0000000000
40
1.0000000000
40
1.0000000000
40
1.0000000000
10
-58.5773033191
20
41.3783325349
30
0.0000000000
10
-58.5995524847
20
41.3657748973
30
0.0000000000
10
-58.6436459619
20
41.3403472764
30
0.0000000000
10
-58.7088101935
20
41.3011740001
30
0.0000000000
10
-58.7727149789
20
41.2611839821
30
0.0000000000
10
-58.8179546965
20
41.2317479640
30
0.0000000000
10
-58.8419663307
20
41.2157754002
30
0.0000000000
10
-58.8452411847
20
41.2135904163
30
0.0000000000
11
-58.5773033191
21
41.3783325349
31
0.0000000000
11
-58.6437010449
21
41.3400465230
31
0.0000000000
11
-58.7088763660
21
41.3008684733
31
0.0000000000
11
-58.7727900683
21
41.2608735876
31
0.0000000000
11
-58.8354075581
21
41.2201317554
31
0.0000000000
11
-58.8452411847
21
41.2135904163
31
0.0000000000
0
SPLINE
5
2A2
100
AcDbEntity
8
0
100
AcDbSpline
62
7
6
CONTINUOUS
70
0
71
3
72
23
73
19
74
17
42
0.0000001000
43
0.0000001000
44
0.0000000001
12
0.1880936639
22
0.0000000164
32
0.0000000000
13
-0.1825384350
23
0.0453756121
33
0.0000000000
40
0.0000000000
40
0.0000000000
40
0.0000000000
40
0.0000000000
40
0.0671902305
40
0.1262040021
40
0.1775259647
40
0.2238659647
40
0.2662068391
40
0.3059212106
40
0.3461319523
40
0.3899760623
40
0.4387301308
40
0.4933134976
40
0.5562801157
40
0.6275004611
40
0.7070904309
40
0.7963411349
40
0.8953310034
40
1.0000000000
40
1.0000000000
40
1.0000000000
40
1.0000000000
10
55.5668842243
20
41.3783325349
30
0.0000000000
10
55.5710969099
20
41.3783325353
30
0.0000000000
10
55.5790262017
20
41.3788502904
30
0.0000000000
10
55.5899331652
20
41.3813099292
30
0.0000000000
10
55.5990327253
20
41.3851659114
30
0.0000000000
10
55.6063004347
20
41.3902157831
30
0.0000000000
10
55.6117118604
20
41.3962849140
30
0.0000000000
10
55.6152707760
20
41.4031646560
30
0.0000000000
10
55.6170398918
20
41.4107992241
30
0.0000000000
10
55.6169480199
20
41.4191986241
30
0.0000000000
10
55.6148515421
20
41.4282501308
30
0.0000000000
10
55.6106155802
20
41.4378356711
30
0.0000000000
10
55.6040898237
20
41.4477671795
30
0.0000000000
10
55.5951389630
20
41.4578020289
30
0.0000000000
10
55.5836815402
20
41.4676266581
30
0.0000000000
10
55.5696116382
20
41.4768765298
30
0.0000000000
10
55.5530585919
20
41.4849438104
30
0.0000000000
10
55.5408809121
20
41.4889553059
30
0.0000000000
10
55.5345122072
20
41.4905384459
30
0.0000000000
11
55.5668842243
21
41.3783325349
31
0.0000000000
11
55.5794901824
21
41.3792327001
31
0.0000000000
11
55.5902996929
21
41.3817560054
31
0.0000000000
11
55.5991557274
21
41.3855975609
31
0.0000000000
11
55.6062715870
21
41.3906312213
31
0.0000000000
11
55.6115376893
21
41.3966056888
31
0.0000000000
11
55.6149639840
21
41.4032435897
31
0.0000000000
11
55.6166996937
21
41.4106051191
31
0.0000000000
11
55.6166700733
21
41.4188518652
31
0.0000000000
11
55.6146763324
21
41.4278028414
31
0.0000000000
11
55.6105985037
21
41.4372250596
31
0.0000000000
11
55.6041594538
21
41.4471653824
31
0.0000000000
11
55.5952924052
21
41.4572068379
31
0.0000000000
11
55.5839623181
21
41.4669915748
31
0.0000000000
11
55.5699548601
21
41.4762441964
31
0.0000000000
11
55.5532216201
21
41.4844099484
31
0.0000000000
11
55.5345122072
21
41.4905384459
31
0.0000000000
0
SPLINE
5
2A3
100
AcDbEntity
8
0
100
AcDbSpline
62
9
6
CONTINUOUS
70
0
71
3
72
14
73
10
74
8
42
0.0000001000
43
0.0000001000
44
0.0000000001
12
0.5386418105
22
-0.2288856111
32
0.0000000000
13
0.5165608235
23
-0.2751253673
33
0.0000000000
40
0.0000000000
40
0.0000000000
40
0.0000000000
40
0.0000000000
40
0.1621125305
40
0.3228126782
40
0.4819620125
40
0.6394249639
40
0.7951302275
40
0.9490771081
40
1.0000000000
40
1.0000000000
40
1.0000000000
40
1.0000000000
10
55.5668840928
20
41.3783325349
30
0.0000000000
10
55.5959909551
20
41.3659641264
30
0.0000000000
10
55.6537794751
20
41.3409289233
30
0.0000000000
10
55.7395286184
20
41.3023535625
30
0.0000000000
10
55.8239134834
20
41.2629779010
30
0.0000000000
10
55.9068687017
20
41.2228638907
30
0.0000000000
10
55.9883569384
20
41.1820674173
30
0.0000000000
10
56.0508206935
20
41.1497146675
30
0.0000000000
10
56.0861397414
20
41.1310073873
30
0.0000000000
10
56.0949079984
20
41.1263373275
30
0.0000000000
11
55.5668840928
21
41.3783325349
31
0.0000000000
11
55.6539428565
21
41.3406170959
31
0.0000000000
11
55.7397136913
21
41.3020311137
31
0.0000000000
11
55.8241190430
21
41.2626439354
31
0.0000000000
11
55.9070836392
21
41.2225240460
31
0.0000000000
11
55.9885684587
21
41.1817268510
31
0.0000000000
11
56.0685711935
21
41.1402871395
31
0.0000000000
11
56.0949079984
21
41.1263373275
31
0.0000000000
0
SPLINE
5
2A4
100
AcDbEntity
8
0
100
AcDbSpline
62
9
6
CONTINUOUS
70
0
71
3
72
9
73
5
74
3
42
0.0000001000
43
0.0000001000
44
0.0000000001
12
0.1042105436
22
-0.0555035589
32
0.0000000000
13
0.1031737994
23
-0.0574077368
33
0.0000000000
40
0.0000000000
40
0.0000000000
40
0.0000000000
40
0.0000000000
40
0.5019328259
40
1.0000000000
40
1.0000000000
40
1.0000000000
40
1.0000000000
10
56.0949079984
20
41.1263373275
30
0.0000000000
10
56.1123435626
20
41.1170509748
30
0.0000000000
10
56.1469959216
20
41.0983911623
30
0.0000000000
10
56.1814755442
20
41.0794140400
30
0.0000000000
10
56.1986047051
20
41.0698830702
30
0.0000000000
11
56.0949079984
21
41.1263373275
31
0.0000000000
11
56.1470863569
21
41.0982390880
31
0.0000000000
11
56.1986047051
21
41.0698830702
31
0.0000000000
0
SPLINE
5
2A5
100
AcDbEntity
8
0
100
AcDbSpline
62
9
6
CONTINUOUS
70
0
71
3
72
9
73
5
74
3
42
0.0000001000
43
0.0000001000
44
0.0000000001
12
0.0684344640
22
-0.0380781528
32
0.0000000000
13
0.0679577908
23
-0.0389225029
33
0.0000000000
40
0.0000000000
40
0.0000000000
40
0.0000000000
40
0.0000000000
40
0.3732744903
40
1.0000000000
40
1.0000000000
40
1.0000000000
40
1.0000000000
10
56.1986047051
20
41.0698830702
30
0.0000000000
10
56.2071196516
20
41.0651452026
30
0.0000000000
10
56.2299020065
20
41.0524001280
30
0.0000000000
10
56.2526052941
20
41.0395144608
30
0.0000000000
10
56.2668022545
20
41.0313832190
30
0.0000000000
11
56.1986047051
21
41.0698830702
31
0.0000000000
11
56.2241167787
21
41.0556107908
31
0.0000000000
11
56.2668022545
21
41.0313832190
31
0.0000000000
0
SPLINE
5
2A6
100
AcDbEntity
8
0
100
AcDbSpline
62
9
6
CONTINUOUS
70
0
71
3
72
74
73
70
74
68
42
0.0000001000
43
0.0000001000
44
0.0000000001
12
5.1715748491
22
-0.5575143342
32
0.0000000000
13
0.2862715169
23
-5.1936554826
33
0.0000000000
40
0.0000000000
40
0.0000000000
40
0.0000000000
40
0.0000000000
40
0.0182726892
40
0.0364695078
40
0.0545650932
40
0.0725443831
40
0.0903944654
40
0.1081108964
40
0.1256932294
40
0.1431407296
40
0.1604540834
40
0.1776338534
40
0.1946807398
40
0.2115962175
40
0.2283822388
40
0.2450406417
40
0.2615732111
40
0.2779816653
40
0.2942677469
40
0.3104332140
40
0.3264798378
40
0.3424094231
40
0.3582238151
40
0.3739248955
40
0.3895145845
40
0.4049948396
40
0.4203676570
40
0.4356350689
40
0.4507991415
40
0.4658619767
40
0.4808257129
40
0.4956925231
40
0.5104646140
40
0.5251442255
40
0.5397336312
40
0.5542351377
40
0.5686510782
40
0.5829838128
40
0.5972357335
40
0.6114092612
40
0.6255068451
40
0.6395309617
40
0.6534841134
40
0.6673688287
40
0.6811876587
40
0.6949431762
40
0.7086379758
40
0.7222746728
40
0.7358559022
40
0.7493843168
40
0.7628625858
40
0.7762933942
40
0.7896794403
40
0.8030234349
40
0.8163280994
40
0.8295961647
40
0.8428303696
40
0.8560334592
40
0.8692081832
40
0.8823572941
40
0.8954835457
40
0.9085896914
40
0.9216784811
40
0.9347526643
40
0.9478149736
40
0.9608681643
40
0.9739149008
40
0.9869580244
40
1.0000000000
40
1.0000000000
40
1.0000000000
40
1.0000000000
10
55.5344944284
20
41.4905434431
30
0.0000000000
10
55.5659939550
20
41.4871476810
30
0.0000000000
10
55.6287962351
20
41.4797408100
30
0.0000000000
10
55.7225161035
20
41.4667665224
30
0.0000000000
10
55.8154500046
20
41.4519637582
30
0.0000000000
10
55.9074691909
20
41.4353656840
30
0.0000000000
10
55.9984824023
20
41.4170047180
30
0.0000000000
10
56.0884242991
20
41.3969136429
30
0.0000000000
10
56.1772516012
20
41.3751252017
30
0.0000000000
10
56.2649305988
20
41.3516717125
30
0.0000000000
10
56.3514303002
20
41.3265866965
30
0.0000000000
10
56.4367230612
20
41.2999040647
30
0.0000000000
10
56.5207834800
20
41.2716581468
30
0.0000000000
10
56.6035893478
20
41.2418831058
30
0.0000000000
10
56.6851212110
20
41.2106129089
30
0.0000000000
10
56.7653609594
20
41.1778815721
30
0.0000000000
10
56.8442909467
20
41.1437234586
30
0.0000000000
10
56.9218942121
20
41.1081731486
30
0.0000000000
10
56.9981545914
20
41.0712653677
30
0.0000000000
10
57.0730568372
20
41.0330348929
30
0.0000000000
10
57.1465866253
20
40.9935165058
30
0.0000000000
10
57.2187305822
20
40.9527449350
30
0.0000000000
10
57.2894763092
20
40.9107547979
30
0.0000000000
10
57.3588123727
20
40.8675805578
30
0.0000000000
10
57.4267282846
20
40.8232564884
30
0.0000000000
10
57.4932144862
20
40.7778166357
30
0.0000000000
10
57.5582623263
20
40.7312947854
30
0.0000000000
10
57.6218640352
20
40.6837244328
30
0.0000000000
10
57.6840126996
20
40.6351387537
30
0.0000000000
10
57.7447022403
20
40.5855705734
30
0.0000000000
10
57.8039273896
20
40.5350523363
30
0.0000000000
10
57.8616836634
20
40.4836160799
30
0.0000000000
10
57.9179673308
20
40.4312934111
30
0.0000000000
10
57.9727753861
20
40.3781154821
30
0.0000000000
10
58.0261055194
20
40.3241129671
30
0.0000000000
10
58.0779560803
20
40.2693160470
30
0.0000000000
10
58.1283260409
20
40.2137543975
30
0.0000000000
10
58.1772149638
20
40.1574571710
30
0.0000000000
10
58.2246229757
20
40.1004529762
30
0.0000000000
10
58.2705507366
20
40.0427698595
30
0.0000000000
10
58.3149994030
20
39.9844352957
30
0.0000000000
10
58.3579705922
20
39.9254761787
30
0.0000000000
10
58.3994663470
20
39.8659188133
30
0.0000000000
10
58.4394890988
20
39.8057889106
30
0.0000000000
10
58.4780416294
20
39.7451115875
30
0.0000000000
10
58.5151270352
20
39.6839113651
30
0.0000000000
10
58.5507486926
20
39.6222121675
30
0.0000000000
10
58.5849102232
20
39.5600373218
30
0.0000000000
10
58.6176154582
20
39.4974095630
30
0.0000000000
10
58.6488684028
20
39.4343510404
30
0.0000000000
10
58.6786732019
20
39.3708833266
30
0.0000000000
10
58.7070341058
20
39.3070274275
30
0.0000000000
10
58.7339554370
20
39.2428037953
30
0.0000000000
10
58.7594415578
20
39.1782323427
30
0.0000000000
10
58.7834968396
20
39.1133324590
30
0.0000000000
10
58.8061256328
20
39.0481230265
30
0.0000000000
10
58.8273322378
20
38.9826224406
30
0.0000000000
10
58.8471208777
20
38.9168486304
30
0.0000000000
10
58.8654956721
20
38.8508190818
30
0.0000000000
10
58.8824606120
20
38.7845508617
30
0.0000000000
10
58.8980195373
20
38.7180606430
30
0.0000000000
10
58.9121761145
20
38.6513647344
30
0.0000000000
10
58.9249338188
20
38.5844791009
30
0.0000000000
10
58.9362959119
20
38.5174194152
30
0.0000000000
10
58.9462654368
20
38.4502010222
30
0.0000000000
10
58.9548451779
20
38.3828391591
30
0.0000000000
10
58.9620377062
20
38.3153484843
30
0.0000000000
10
58.9678452524
20
38.2477443834
30
0.0000000000
10
58.9707949448
20
38.2026093968
30
0.0000000000
10
58.9720394602
20
38.1800308874
30
0.0000000000
11
55.5344944284
21
41.4905434431
31
0.0000000000
11
55.6288859650
21
41.4794079053
31
0.0000000000
11
55.7226425665
21
41.4664233323
31
0.0000000000
11
55.8155951196
21
41.4516139222
31
0.0000000000
11
55.9076291903
21
41.4350092164
31
0.0000000000
11
55.9986427239
21
41.4166443243
31
0.0000000000
11
56.0885781801
21
41.3965511584
31
0.0000000000
11
56.1773995087
21
41.3747607074
31
0.0000000000
11
56.2650701643
21
41.3513061104
31
0.0000000000
11
56.3515617531
21
41.3262201836
31
0.0000000000
11
56.4368462005
21
41.2995369479
31
0.0000000000
11
56.5208970676
21
41.2712910858
31
0.0000000000
11
56.6036926629
21
41.2415166544
31
0.0000000000
11
56.6852145061
21
41.2102472684
31
0.0000000000
11
56.7654443924
21
41.1775169712
31
0.0000000000
11
56.8443647000
21
41.1433601036
31
0.0000000000
11
56.9219583294
21
41.1078113028
31
0.0000000000
11
56.9982091369
21
41.0709052851
31
0.0000000000
11
57.0731018858
21
41.0326768227
31
0.0000000000
11
57.1466222265
21
40.9931607115
31
0.0000000000
11
57.2187567834
21
40.9523916846
31
0.0000000000
11
57.2894931708
21
40.9104043554
31
0.0000000000
11
57.3588199607
21
40.8672331876
31
0.0000000000
11
57.4267266731
21
40.8229124535
31
0.0000000000
11
57.4932037563
21
40.7774761984
31
0.0000000000
11
57.5582425699
21
40.7309582041
31
0.0000000000
11
57.6218353549
21
40.6833919618
31
0.0000000000
11
57.6839752025
21
40.6348106474
31
0.0000000000
11
57.7446560406
21
40.5852470843
31
0.0000000000
11
57.8038726108
21
40.5347337126
31
0.0000000000
11
57.8616204374
21
40.4833025661
31
0.0000000000
11
57.9178957977
21
40.4309852474
31
0.0000000000
11
57.9726956916
21
40.3778129064
31
0.0000000000
11
58.0260178169
21
40.3238162131
31
0.0000000000
11
58.0778605379
21
40.2690253359
31
0.0000000000
11
58.1282228315
21
40.2134699472
31
0.0000000000
11
58.1771042614
21
40.1571792007
31
0.0000000000
11
58.2245049630
21
40.1001816974
31
0.0000000000
11
58.2704256026
21
40.0425054777
31
0.0000000000
11
58.3148673435
21
39.9841780098
31
0.0000000000
11
58.3578318088
21
39.9252261814
31
0.0000000000
11
58.3993210468
21
39.8656762908
31
0.0000000000
11
58.4393374960
21
39.8055540400
31
0.0000000000
11
58.4778839437
21
39.7448845377
31
0.0000000000
11
58.5149634896
21
39.6836923001
31
0.0000000000
11
58.5505795148
21
39.6220012434
31
0.0000000000
11
58.5847356452
21
39.5598346866
31
0.0000000000
11
58.6174357162
21
39.4972153562
31
0.0000000000
11
58.6486837366
21
39.4341653936
31
0.0000000000
11
58.6784838545
21
39.3707063627
31
0.0000000000
11
58.7068403232
21
39.3068592605
31
0.0000000000
11
58.7337574679
21
39.2426445304
31
0.0000000000
11
58.7592396531
21
39.1780820766
31
0.0000000000
11
58.7832912519
21
39.1131912797
31
0.0000000000
11
58.8059166161
21
39.0479910130
31
0.0000000000
11
58.8271200474
21
38.9824996628
31
0.0000000000
11
58.8469057697
21
38.9167351493
31
0.0000000000
11
58.8652779029
21
38.8507149494
31
0.0000000000
11
58.8822404383
21
38.7844561204
31
0.0000000000
11
58.8977972154
21
38.7179753270
31
0.0000000000
11
58.9119519004
21
38.6512888662
31
0.0000000000
11
58.9247079660
21
38.5844127027
31
0.0000000000
11
58.9360686773
21
38.5173624734
31
0.0000000000
11
58.9460370637
21
38.4501535932
31
0.0000000000
11
58.9546159360
21
38.3828010705
31
0.0000000000
11
58.9618078019
21
38.3153201200
31
0.0000000000
11
58.9676150048
21
38.2477247965
31
0.0000000000
11
58.9720394602
21
38.1800308874
31
0.0000000000
0
SPLINE
5
2A7
100
AcDbEntity
8
0
100
AcDbSpline
62
9
6
CONTINUOUS
70
0
71
3
72
11
73
7
74
5
42
0.0000001000
43
0.0000001000
44
0.0000000001
12
-0.0547691222
22
-0.0931750740
32
0.0000000000
13
-0.0981360315
23
-0.0453583536
33
0.0000000000
40
0.0000000000
40
0.0000000000
40
0.0000000000
40
0.0000000000
40
0.1955829501
40
0.4255890421
40
0.6934978715
40
1.0000000000
40
1.0000000000
40
1.0000000000
40
1.0000000000
10
58.9720394607
20
38.1800308804
30
0.0000000000
10
58.9684688252
20
38.1739563951
30
0.0000000000
10
58.9588243265
20
38.1618329672
30
0.0000000000
10
58.9398064210
20
38.1454950650
30
0.0000000000
10
58.9154056120
20
38.1297292022
30
0.0000000000
10
58.8969388037
20
38.1203305798
30
0.0000000000
10
58.8869125028
20
38.1156964359
30
0.0000000000
11
58.9720394607
21
38.1800308804
31
0.0000000000
11
58.9591764236
21
38.1632564487
31
0.0000000000
11
58.9405366113
21
38.1468087035
31
0.0000000000
11
58.9163494169
21
38.1308900644
31
0.0000000000
11
58.8869125028
21
38.1156964359
31
0.0000000000
0
SPLINE
5
2A8
100
AcDbEntity
8
0
100
AcDbSpline
62
9
6
CONTINUOUS
70
0
71
3
72
11
73
7
74
5
42
0.0000001000
43
0.0000001000
44
0.0000000001
12
-0.1431936047
22
-0.0661839088
32
0.0000000000
13
-0.1541428817
23
-0.0333844116
33
0.0000000000
40
0.0000000000
40
0.0000000000
40
0.0000000000
40
0.0000000000
40
0.2357404926
40
0.4955447250
40
0.7771702980
40
1.0000000000
40
1.0000000000
40
1.0000000000
40
1.0000000000
10
58.8869125028
20
38.1156964359
30
0.0000000000
10
58.8756603259
20
38.1104956934
30
0.0000000000
10
58.8515506128
20
38.1005717811
30
0.0000000000
10
58.8128155901
20
38.0875104508
30
0.0000000000
10
58.7740837296
20
38.0767733115
30
0.0000000000
10
58.7482542705
20
38.0707445700
30
0.0000000000
10
58.7368050664
20
38.0682648905
30
0.0000000000
11
58.8869125028
21
38.1156964359
31
0.0000000000
11
58.8525881380
21
38.1014148001
31
0.0000000000
11
58.8137987392
21
38.0882209157
31
0.0000000000
11
58.7710216729
21
38.0762771547
31
0.0000000000
11
58.7368050664
21
38.0682648905
31
0.0000000000
0
SPLINE
5
2A9
100
AcDbEntity
8
0
100
AcDbSpline
62
9
6
CONTINUOUS
70
0
71
3
72
17
73
13
74
11
42
0.0000001000
43
0.0000001000
44
0.0000000001
12
0.0583389563
22
-0.9772294085
32
0.0000000000
13
0.0238843003
23
-0.9786778279
33
0.0000000000
40
0.0000000000
40
0.0000000000
40
0.0000000000
40
0.0000000000
40
0.0976444107
40
0.1958989442
40
0.2947256094
40
0.3940963464
40
0.4939797744
40
0.5943451747
40
0.6951617025
40
0.7963972792
40
0.8980230787
40
1.0000000000
40
1.0000000000
40
1.0000000000
40
1.0000000000
10
58.9720394602
20
38.1800308874
30
0.0000000000
10
58.9739382845
20
38.1482238908
30
0.0000000000
10
58.9776297938
20
38.0844040493
30
0.0000000000
10
58.9828334511
20
37.9883689582
30
0.0000000000
10
58.9877189521
20
37.8917530817
30
0.0000000000
10
58.9922840663
20
37.7945894078
30
0.0000000000
10
58.9965268111
20
37.6969085245
30
0.0000000000
10
59.0004452871
20
37.5987419259
30
0.0000000000
10
59.0040377117
20
37.5001213262
30
0.0000000000
10
59.0073024487
20
37.4010778121
30
0.0000000000
10
59.0102378955
20
37.3016451764
30
0.0000000000
10
59.0119715586
20
37.2352273807
30
0.0000000000
10
59.0127834410
20
37.2019598635
30
0.0000000000
11
58.9720394602
21
38.1800308874
31
0.0000000000
11
58.9775604761
21
38.0845995851
31
0.0000000000
11
58.9827657422
21
37.9885523662
31
0.0000000000
11
58.9876525829
21
37.8919276001
31
0.0000000000
11
58.9922189962
21
37.7947539403
31
0.0000000000
11
58.9964629369
21
37.6970632784
31
0.0000000000
11
59.0003825186
21
37.5988868511
31
0.0000000000
11
59.0039759728
21
37.5002560118
31
0.0000000000
11
59.0072416133
21
37.4012033147
31
0.0000000000
11
59.0101779765
21
37.3017581264
31
0.0000000000
11
59.0127834410
21
37.2019598635
31
0.0000000000
0
SPLINE
5
2AA
100
AcDbEntity
8
0
100
AcDbSpline
62
9
6
CONTINUOUS
70
0
71
3
72
15
73
11
74
9
42
0.0000001000
43
0.0000001000
44
0.0000000001
12
-0.1960644606
22
-0.1458148952
32
0.0000000000
13
-0.2430231647
23
-0.0254001876
33
0.0000000000
40
0.0000000000
40
0.0000000000
40
0.0000000000
40
0.0000000000
40
0.0637398673
40
0.1489527281
40
0.2556778081
40
0.3831427502
40
0.5300927518
40
0.6949233006
40
0.8757505476
40
1.0000000000
40
1.0000000000
40
1.0000000000
40
1.0000000000
10
59.0127841567
20
37.2019598617
30
0.0000000000
10
59.0086184492
20
37.1988617877
30
0.0000000000
10
58.9978404631
20
37.1930815612
30
0.0000000000
10
58.9783719201
20
37.1856649855
30
0.0000000000
10
58.9533634896
20
37.1784005778
30
0.0000000000
10
58.9231121235
20
37.1713998393
30
0.0000000000
10
58.8879490648
20
37.1647620788
30
0.0000000000
10
58.8483015680
20
37.1585787681
30
0.0000000000
10
58.8103413784
20
37.1536681692
30
0.0000000000
10
58.7856446462
20
37.1509243854
30
0.0000000000
10
58.7755794812
20
37.1498723990
30
0.0000000000
11
59.0127841567
21
37.2019598617
31
0.0000000000
11
58.9992909392
21
37.1941820908
31
0.0000000000
11
58.9799285283
21
37.1865259678
31
0.0000000000
11
58.9549351663
21
37.1790851051
31
0.0000000000
11
58.9246182537
21
37.1719505264
31
0.0000000000
11
58.8893505689
21
37.1652095613
31
0.0000000000
11
58.8495656859
21
37.1589447857
31
0.0000000000
11
58.8057526482
21
37.1532330211
31
0.0000000000
11
58.7755794812
21
37.1498723990
31
0.0000000000
0
SPLINE
5
2AB
100
AcDbEntity
8
0
100
AcDbSpline
62
9
6
CONTINUOUS
70
0
71
3
72
40
73
36
74
34
42
0.0000001000
43
0.0000001000
44
0.0000000001
12
1.8584449452
22
-75.2598394729
32
0.0000000000
13
1.8367038069
23
-75.2603732002
33
0.0000000000
40
0.0000000000
40
0.0000000000
40
0.0000000000
40
0.0000000000
40
0.0069481326
40
0.0145345641
40
0.0228841824
40
0.0319926780
40
0.0418731425
40
0.0525695713
40
0.0641208335
40
0.0765763158
40
0.0899935930
40
0.1044379009
40
0.1199821830
40
0.1367067583
40
0.1546992785
40
0.1740548935
40
0.1948766756
40
0.2172756846
40
0.2413714018
40
0.2672923742
40
0.2951769119
40
0.3251738283
40
0.3574432391
40
0.3921574235
40
0.4295017547
40
0.4696756969
40
0.5128938808
40
0.5593872630
40
0.6094043760
40
0.6632126705
40
0.7210999664
40
0.7833760131
40
0.8503741740
40
0.9224532390
40
1.0000000000
40
1.0000000000
40
1.0000000000
40
1.0000000000
10
59.0127834410
20
37.2019598635
30
0.0000000000
10
59.0170876816
20
37.0276547498
30
0.0000000000
10
59.0258990608
20
36.6630270386
30
0.0000000000
10
59.0399607366
20
36.0889375912
30
0.0000000000
10
59.0552742846
20
35.4606498333
30
0.0000000000
10
59.0720190323
20
34.7748128035
30
0.0000000000
10
59.0901909607
20
34.0301015918
30
0.0000000000
10
59.1098617798
20
33.2241092875
30
0.0000000000
10
59.1311079790
20
32.3535180210
30
0.0000000000
10
59.1540203537
20
31.4146694095
30
0.0000000000
10
59.1787038269
20
30.4032435635
30
0.0000000000
10
59.2052784106
20
29.3143296431
30
0.0000000000
10
59.2338778236
20
28.1424462253
30
0.0000000000
10
59.2646495791
20
26.8815495458
30
0.0000000000
10
59.2977547632
20
25.5250387560
30
0.0000000000
10
59.3333683995
20
24.0657421950
30
0.0000000000
10
59.3716798406
20
22.4959009684
30
0.0000000000
10
59.4128933363
20
20.8071457890
30
0.0000000000
10
59.4572287327
20
18.9904682876
30
0.0000000000
10
59.5049225596
20
17.0361764769
30
0.0000000000
10
59.5562293049
20
14.9338425110
30
0.0000000000
10
59.6114227838
20
12.6722465989
30
0.0000000000
10
59.6707976088
20
10.2393167664
30
0.0000000000
10
59.7346707753
20
7.6220638754
30
0.0000000000
10
59.8033833694
20
4.8065116571
30
0.0000000000
10
59.8773024064
20
1.7776213769
30
0.0000000000
10
59.9568228089
20
-1.4807892331
30
0.0000000000
10
60.0423695412
20
-4.9861334123
30
0.0000000000
10
60.1343999056
20
-8.7571494810
30
0.0000000000
10
60.2334060182
20
-12.8140022824
30
0.0000000000
10
60.3399174743
20
-17.1783923947
30
0.0000000000
10
60.4545042229
20
-21.8736739298
30
0.0000000000
10
60.5777796638
20
-26.9249814120
30
0.0000000000
10
60.7104043642
20
-32.3593821107
30
0.0000000000
10
60.8020104723
20
-36.1130139455
30
0.0000000000
10
60.8494872826
20
-38.0584133358
30
0.0000000000
11
59.0127834410
21
37.2019598635
31
0.0000000000
11
59.0255394540
21
36.6790406763
31
0.0000000000
11
59.0394808769
21
36.1080831884
31
0.0000000000
11
59.0548144313
21
35.4796877475
31
0.0000000000
11
59.0715446995
21
34.7941789837
31
0.0000000000
11
59.0896919919
21
34.0505715332
31
0.0000000000
11
59.1093382204
21
33.2455543080
31
0.0000000000
11
59.1305544510
21
32.3762020046
31
0.0000000000
11
59.1534314876
21
31.4387977559
31
0.0000000000
11
59.1780750504
21
30.4290084663
31
0.0000000000
11
59.2046049659
21
29.3419244689
31
0.0000000000
11
59.2331552080
21
28.1720559940
31
0.0000000000
11
59.2638732992
21
26.9133582131
31
0.0000000000
11
59.2969202295
21
25.5592344302
31
0.0000000000
11
59.3324707612
21
24.1025236246
31
0.0000000000
11
59.3707142077
21
22.5354685301
31
0.0000000000
11
59.4118545529
21
20.8497107504
31
0.0000000000
11
59.4561112483
21
19.0362580864
31
0.0000000000
11
59.5037203970
21
17.0854360259
31
0.0000000000
11
59.5549360334
21
14.9868353183
31
0.0000000000
11
59.6100314841
21
12.7292561888
31
0.0000000000
11
59.6693008338
21
10.3006482897
31
0.0000000000
11
59.7330605083
21
7.6880458208
31
0.0000000000
11
59.8016509837
21
4.8774975159
31
0.0000000000
11
59.8754386162
21
1.8539916346
31
0.0000000000
11
59.9548176192
21
-1.3986250198
31
0.0000000000
11
60.0402121913
21
-4.8977343142
31
0.0000000000
11
60.1320788131
21
-8.6620409030
31
0.0000000000
11
60.2309087124
21
-12.7116732260
31
0.0000000000
11
60.3372305291
21
-17.0682927182
31
0.0000000000
11
60.4516131813
21
-21.7552112398
31
0.0000000000
11
60.5746689584
21
-26.7975178314
31
0.0000000000
11
60.7070568516
21
-32.2222151648
31
0.0000000000
11
60.8494872826
21
-38.0584133358
31
0.0000000000
0
SPLINE
5
2AC
100
AcDbEntity
8
0
100
AcDbSpline
62
9
6
CONTINUOUS
70
0
71
3
72
15
73
11
74
9
42
0.0000001000
43
0.0000001000
44
0.0000000001
12
-0.1966281707
22
-0.1446768331
32
0.0000000000
13
-0.2427950435
23
-0.0254303571
33
0.0000000000
40
0.0000000000
40
0.0000000000
40
0.0000000000
40
0.0000000000
40
0.0636147681
40
0.1487870244
40
0.2555335086
40
0.3830689236
40
0.5301297035
40
0.6951043956
40
0.8761029707
40
1.0000000000
40
1.0000000000
40
1.0000000000
40
1.0000000000
10
60.8494872826
20
-38.0584133358
30
0.0000000000
10
60.8453177975
20
-38.0614811968
30
0.0000000000
10
60.8345379116
20
-38.0672022477
30
0.0000000000
10
60.8150772886
20
-38.0745510309
30
0.0000000000
10
60.7900736457
20
-38.0817596226
30
0.0000000000
10
60.7598248381
20
-38.0887172329
30
0.0000000000
10
60.7246625506
20
-38.0953242412
30
0.0000000000
10
60.6850144180
20
-38.1014893825
30
0.0000000000
10
60.6470913991
20
-38.1063901325
30
0.0000000000
10
60.6224322677
20
-38.1091326919
30
0.0000000000
10
60.6124050728
20
-38.1101829405
30
0.0000000000
11
60.8494872826
21
-38.0584133358
31
0.0000000000
11
60.8359990171
21
-38.0661097047
31
0.0000000000
11
60.8166404422
21
-38.0736964887
31
0.0000000000
11
60.7916496288
21
-38.0810803858
31
0.0000000000
11
60.7613339131
21
-38.0881705891
31
0.0000000000
11
60.7260661165
21
-38.0948799036
31
0.0000000000
11
60.6862799610
21
-38.1011258184
31
0.0000000000
11
60.6424647351
21
-38.1068315214
31
0.0000000000
11
60.6124050728
21
-38.1101829405
31
0.0000000000
0
SPLINE
5
2AD
100
AcDbEntity
8
0
100
AcDbSpline
62
9
6
CONTINUOUS
70
0
71
3
72
56
73
52
74
50
42
0.0000001000
43
0.0000001000
44
0.0000000001
12
0.0906687755
22
-3.7152238989
32
0.0000000000
13
-3.0642523760
23
-2.1028450707
33
0.0000000000
40
0.0000000000
40
0.0000000000
40
0.0000000000
40
0.0000000000
40
0.0207623328
40
0.0415152627
40
0.0622577444
40
0.0829890202
40
0.1037091368
40
0.1244184176
40
0.1451171068
40
0.1658054980
40
0.1864839937
40
0.2071530078
40
0.2278124743
40
0.2484615413
40
0.2690995012
40
0.2897275326
40
0.3103465278
40
0.3309558041
40
0.3515545347
40
0.3721428545
40
0.3927213701
40
0.4132906796
40
0.4338513442
40
0.4544039486
40
0.4749490586
40
0.4954866942
40
0.5160162382
40
0.5365371935
40
0.5570513453
40
0.5775594082
40
0.5980608287
40
0.6185552030
40
0.6390428468
40
0.6595244203
40
0.6800005863
40
0.7004720475
40
0.7209395490
40
0.7414038291
40
0.7618649702
40
0.7823224689
40
0.8027760231
40
0.8232277153
40
0.8436782087
40
0.8641272119
40
0.8845744746
40
0.9050201706
40
0.9254648408
40
0.9459093823
40
0.9663546268
40
0.9868012819
40
1.0000000000
40
1.0000000000
40
1.0000000000
40
1.0000000000
10
60.8494872826
20
-38.0584133358
30
0.0000000000
10
60.8501147811
20
-38.0841255742
30
0.0000000000
10
60.8508550993
20
-38.1355524517
30
0.0000000000
10
60.8504199908
20
-38.2126795807
30
0.0000000000
10
60.8484392083
20
-38.2897443402
30
0.0000000000
10
60.8449136745
20
-38.3667131239
30
0.0000000000
10
60.8398449836
20
-38.4435545184
30
0.0000000000
10
60.8332352534
20
-38.5202382037
30
0.0000000000
10
60.8250871272
20
-38.5967341994
30
0.0000000000
10
60.8154037807
20
-38.6730126185
30
0.0000000000
10
60.8041888974
20
-38.7490437986
30
0.0000000000
10
60.7914467614
20
-38.8247976566
30
0.0000000000
10
60.7771825211
20
-38.9002426180
30
0.0000000000
10
60.7614023301
20
-38.9753458238
30
0.0000000000
10
60.7441128230
20
-39.0500760358
30
0.0000000000
10
60.7253207696
20
-39.1244042146
30
0.0000000000
10
60.7050334135
20
-39.1983014188
30
0.0000000000
10
60.6832592570
20
-39.2717364185
30
0.0000000000
10
60.6600078495
20
-39.3446772602
30
0.0000000000
10
60.6352890117
20
-39.4170937039
30
0.0000000000
10
60.6091126024
20
-39.4889573428
30
0.0000000000
10
60.5814888161
20
-39.5602404072
30
0.0000000000
10
60.5524283569
20
-39.6309152467
30
0.0000000000
10
60.5219424486
20
-39.7009543289
30
0.0000000000
10
60.4900431026
20
-39.7703296777
30
0.0000000000
10
60.4567435455
20
-39.8390121796
30
0.0000000000
10
60.4220582896
20
-39.9069718257
30
0.0000000000
10
60.3860015854
20
-39.9741808797
30
0.0000000000
10
60.3485874404
20
-40.0406133047
30
0.0000000000
10
60.3098303353
20
-40.1062432030
30
0.0000000000
10
60.2697466958
20
-40.1710426262
30
0.0000000000
10
60.2283539089
20
-40.2349835931
30
0.0000000000
10
60.1856691998
20
-40.2980397703
30
0.0000000000
10
60.1417095942
20
-40.3601862506
30
0.0000000000
10
60.0964923133
20
-40.4213988183
30
0.0000000000
10
60.0500349662
20
-40.4816536396
30
0.0000000000
10
60.0023555439
20
-40.5409272555
30
0.0000000000
10
59.9534729633
20
-40.5991959257
30
0.0000000000
10
59.9034076435
20
-40.6564351091
30
0.0000000000
10
59.8521814550
20
-40.7126197839
30
0.0000000000
10
59.7998152016
20
-40.7677272791
30
0.0000000000
10
59.7463291118
20
-40.8217363502
30
0.0000000000
10
59.6917437525
20
-40.8746260791
30
0.0000000000
10
59.6360822136
20
-40.9263739689
30
0.0000000000
10
59.5793685791
20
-40.9769576762
30
0.0000000000
10
59.5216266875
20
-41.0263561173
30
0.0000000000
10
59.4628797395
20
-41.0745496413
30
0.0000000000
10
59.4031506696
20
-41.1215195556
30
0.0000000000
10
59.3424625754
20
-41.1672477033
30
0.0000000000
10
59.2881225471
20
-41.2064603261
30
0.0000000000
10
59.2539136950
20
-41.2302729488
30
0.0000000000
10
59.2404322940
20
-41.2395245685
30
0.0000000000
11
60.8494872826
21
-38.0584133358
31
0.0000000000
11
60.8505975350
21
-38.1355650302
31
0.0000000000
11
60.8501620714
21
-38.2126885387
31
0.0000000000
11
60.8481810102
21
-38.2897489876
31
0.0000000000
11
60.8446553287
21
-38.3667125391
31
0.0000000000
11
60.8395866164
21
-38.4435483269
31
0.0000000000
11
60.8329769687
21
-38.5202265027
31
0.0000000000
11
60.8248290427
21
-38.5967169212
31
0.0000000000
11
60.8151460270
21
-38.6729896270
31
0.0000000000
11
60.8039315937
21
-38.7490150794
31
0.0000000000
11
60.7911899274
21
-38.8247637981
31
0.0000000000
11
60.7769260833
21
-38.9002045797
31
0.0000000000
11
60.7611464140
21
-38.9753034321
31
0.0000000000
11
60.7438580484
21
-39.0500270200
31
0.0000000000
11
60.7250671893
21
-39.1243489363
31
0.0000000000
11
60.7047806445
21
-39.1982417781
31
0.0000000000
11
60.6830073440
21
-39.2716725987
31
0.0000000000
11
60.6597572471
21
-39.3446081393
31
0.0000000000
11
60.6350400244
21
-39.4170187528
31
0.0000000000
11
60.6088653541
21
-39.4888766014
31
0.0000000000
11
60.5812434175
21
-39.5601539514
31
0.0000000000
11
60.5521849458
21
-39.6308230849
31
0.0000000000
11
60.5217011426
21
-39.7008565213
31
0.0000000000
11
60.4898037457
21
-39.7702268806
31
0.0000000000
11
60.4565059069
21
-39.8389051419
31
0.0000000000
11
60.4218225354
21
-39.9068604508
31
0.0000000000
11
60.3857691528
21
-39.9740627162
31
0.0000000000
11
60.3483578301
21
-40.0404895782
31
0.0000000000
11
60.3096028754
21
-40.1061153260
31
0.0000000000
11
60.2695215819
21
-40.1709104882
31
0.0000000000
11
60.2281317254
21
-40.2348464984
31
0.0000000000
11
60.1854503009
21
-40.2978974305
31
0.0000000000
11
60.1414941020
21
-40.3600387368
31
0.0000000000
11
60.0962803768
21
-40.4212461669
31
0.0000000000
11
60.0498267361
21
-40.4814958888
31
0.0000000000
11
60.0021511331
21
-40.5407644957
31
0.0000000000
11
59.9532719662
21
-40.5990288655
31
0.0000000000
11
59.9032096834
21
-40.6562643739
31
0.0000000000
11
59.8519867885
21
-40.7124452612
31
0.0000000000
11
59.7996259532
21
-40.7675469063
31
0.0000000000
11
59.7461441769
21
-40.8215514989
31
0.0000000000
11
59.6915623862
21
-40.8744376721
31
0.0000000000
11
59.6359045378
21
-40.9261820568
31
0.0000000000
11
59.5791950684
21
-40.9767619985
31
0.0000000000
11
59.5214577754
21
-41.0261564769
31
0.0000000000
11
59.4627158578
21
-41.0743458675
31
0.0000000000
11
59.4029918491
21
-41.1213118158
31
0.0000000000
11
59.3423087836
21
-41.1670362089
31
0.0000000000
11
59.2806903846
21
-41.2115010729
31
0.0000000000
11
59.2404322940
21
-41.2395245685
31
0.0000000000
0
SPLINE
5
2AE
100
AcDbEntity
8
0
100
AcDbSpline
62
7
6
CONTINUOUS
70
0
71
3
72
9
73
5
74
3
42
0.0000001000
43
0.0000001000
44
0.0000000001
12
0.1633449315
22
0.1315621004
32
0.0000000000
13
0.0556644514
23
0.2022129087
33
0.0000000000
40
0.0000000000
40
0.0000000000
40
0.0000000000
40
0.0000000000
40
0.2750697375
40
1.0000000000
40
1.0000000000
40
1.0000000000
40
1.0000000000
10
34.3651511119
20
-32.0956472585
30
0.0000000000
10
34.3801281944
20
-32.0835843410
30
0.0000000000
10
34.4308029029
20
-32.0350740941
30
0.0000000000
10
34.4647179325
20
-31.9717778991
30
0.0000000000
10
34.4781688809
20
-31.9229144801
30
0.0000000000
11
34.3651511119
21
-32.0956472585
31
0.0000000000
11
34.4067382583
21
-32.0557781847
31
0.0000000000
11
34.4781688809
21
-31.9229144801
31
0.0000000000
0
SPLINE
5
2AF
100
AcDbEntity
8
0
100
AcDbSpline
62
7
6
CONTINUOUS
70
0
71
3
72
12
73
8
74
6
42
0.0000001000
43
0.0000001000
44
0.0000000001
12
0.1739649618
22
0.6319645675
32
0.0000000000
13
-0.6503191982
23
-0.0008845657
33
0.0000000000
40
0.0000000000
40
0.0000000000
40
0.0000000000
40
0.0000000000
40
0.2233211328
40
0.4296151518
40
0.6220841231
40
0.8088916129
40
1.0000000000
40
1.0000000000
40
1.0000000000
40
1.0000000000
10
34.4781688809
20
-31.9229144801
30
0.0000000000
10
34.4911188984
20
-31.8758707991
30
0.0000000000
10
34.4961761838
20
-31.7800599362
30
0.0000000000
10
34.4494078056
20
-31.6501596917
30
0.0000000000
10
34.3653533659
20
-31.5516339730
30
0.0000000000
10
34.2563572012
20
-31.4886369962
30
0.0000000000
10
34.1737072346
20
-31.4738017139
30
0.0000000000
10
34.1322800836
20
-31.4738580632
30
0.0000000000
11
34.4781688809
21
-31.9229144801
31
0.0000000000
11
34.4862827280
21
-31.7779111587
31
0.0000000000
11
34.4410725602
21
-31.6516013641
31
0.0000000000
11
34.3598964946
21
-31.5563277068
31
0.0000000000
11
34.2546298133
21
-31.4956858391
31
0.0000000000
11
34.1322800836
21
-31.4738580632
31
0.0000000000
0
SPLINE
5
2B0
100
AcDbEntity
8
0
100
AcDbSpline
62
7
6
CONTINUOUS
70
0
71
3
72
8
73
4
74
2
42
0.0000001000
43
0.0000001000
44
0.0000000001
12
-0.1058059437
22
-0.0853130653
32
0.0000000000
13
-0.1177528323
23
-0.0672831495
33
0.0000000000
40
0.0000000000
40
0.0000000000
40
0.0000000000
40
0.0000000000
40
1.0000000000
40
1.0000000000
40
1.0000000000
40
1.0000000000
10
34.7846095380
20
-32.5105318213
30
0.0000000000
10
34.7493408901
20
-32.5389695098
30
0.0000000000
10
34.7117832139
20
-32.5645722290
30
0.0000000000
10
34.6725322698
20
-32.5869999455
30
0.0000000000
11
34.7846095380
21
-32.5105318213
31
0.0000000000
11
34.6725322698
21
-32.5869999455
31
0.0000000000
0
SPLINE
5
2B1
100
AcDbEntity
8
0
100
AcDbSpline
62
7
6
CONTINUOUS
70
0
71
3
72
8
73
4
74
2
42
0.0000001000
43
0.0000001000
44
0.0000000001
12
-0.0466636250
22
-0.0266632709
32
0.0000000000
13
-0.0481478762
23
-0.0236081451
33
0.0000000000
40
0.0000000000
40
0.0000000000
40
0.0000000000
40
0.0000000000
40
1.0000000000
40
1.0000000000
40
1.0000000000
40
1.0000000000
10
34.6725322698
20
-32.5869999455
30
0.0000000000
10
34.6569777282
20
-32.5958877025
30
0.0000000000
10
34.6411572733
20
-32.6042768525
30
0.0000000000
10
34.6251079812
20
-32.6121462342
30
0.0000000000
11
34.6725322698
21
-32.5869999455
31
0.0000000000
11
34.6251079812
21
-32.6121462342
31
0.0000000000
0
SPLINE
5
2B2
100
AcDbEntity
8
0
100
AcDbSpline
62
7
6
CONTINUOUS
70
0
71
3
72
8
73
4
74
2
42
0.0000001000
43
0.0000001000
44
0.0000000001
12
-0.0388578550
22
-0.0190530082
32
0.0000000000
13
-0.0396936828
23
-0.0169883823
33
0.0000000000
40
0.0000000000
40
0.0000000000
40
0.0000000000
40
0.0000000000
40
1.0000000000
40
1.0000000000
40
1.0000000000
40
1.0000000000
10
34.6251079812
20
-32.6121462342
30
0.0000000000
10
34.6121553629
20
-32.6184972369
30
0.0000000000
10
34.5990536952
20
-32.6245096972
30
0.0000000000
10
34.5858224676
20
-32.6301724913
30
0.0000000000
11
34.6251079812
21
-32.6121462342
31
0.0000000000
11
34.5858224676
21
-32.6301724913
31
0.0000000000
0
SPLINE
5
2B3
100
AcDbEntity
8
0
100
AcDbSpline
62
7
6
CONTINUOUS
70
0
71
3
72
13
73
9
74
7
42
0.0000001000
43
0.0000001000
44
0.0000000001
12
-0.2419477553
22
4.0617046685
32
0.0000000000
13
-3.7948186315
23
1.4681059514
33
0.0000000000
40
0.0000000000
40
0.0000000000
40
0.0000000000
40
0.0000000000
40
0.1449883318
40
0.3185783717
40
0.5012807046
40
0.6787311799
40
0.8449275536
40
1.0000000000
40
1.0000000000
40
1.0000000000
40
1.0000000000
10
58.7364736649
20
38.0740617109
30
0.0000000000
10
58.7247804645
20
38.2703616390
30
0.0000000000
10
58.6582653737
20
38.7002932214
30
0.0000000000
10
58.4149473335
20
39.3413099372
30
0.0000000000
10
58.0088855279
20
39.9481103062
30
0.0000000000
10
57.4925326994
20
40.4478576126
30
0.0000000000
10
56.9270703111
20
40.8244866305
30
0.0000000000
10
56.5305569240
20
41.0090426123
30
0.0000000000
10
56.3343996544
20
41.0849302061
30
0.0000000000
11
58.7364736649
21
38.0740617109
31
0.0000000000
11
58.6459850325
21
38.6570242670
31
0.0000000000
11
58.3960792979
21
39.3176579672
31
0.0000000000
11
57.9844787056
21
39.9367105018
31
0.0000000000
11
57.4674892224
21
40.4407420442
31
0.0000000000
11
56.9058273226
21
40.8173487573
31
0.0000000000
11
56.3343996544
21
41.0849302061
31
0.0000000000
0
SPLINE
5
2B4
100
AcDbEntity
8
0
100
AcDbSpline
62
7
6
CONTINUOUS
70
0
71
3
72
9
73
5
74
3
42
0.0000001000
43
0.0000001000
44
0.0000000001
12
-0.0236455761
22
0.9688959511
32
0.0000000000
13
-0.0576302545
23
0.9674694988
33
0.0000000000
40
0.0000000000
40
0.0000000000
40
0.0000000000
40
0.0000000000
40
0.5066653899
40
1.0000000000
40
1.0000000000
40
1.0000000000
40
1.0000000000
10
58.7767854345
20
37.1057531707
30
0.0000000000
10
58.7727919695
20
37.2693885189
30
0.0000000000
10
58.7621864126
20
37.5922936653
30
0.0000000000
10
58.7459506646
20
37.9149663149
30
0.0000000000
10
58.7364736649
20
38.0740617109
30
0.0000000000
11
58.7767854345
21
37.1057531707
31
0.0000000000
11
58.7605997069
21
37.5965385585
31
0.0000000000
11
58.7364736649
21
38.0740617109
31
0.0000000000
0
SPLINE
5
2B5
100
AcDbEntity
8
0
100
AcDbSpline
62
7
6
CONTINUOUS
70
0
71
3
72
8
73
4
74
2
42
0.0000001000
43
0.0000001000
44
0.0000000001
12
-0.1526457910
22
-0.0743513188
32
0.0000000000
13
-0.1481122594
23
-0.0834777513
33
0.0000000000
40
0.0000000000
40
0.0000000000
40
0.0000000000
40
0.0000000000
40
1.0000000000
40
1.0000000000
40
1.0000000000
40
1.0000000000
10
-59.3128889705
20
41.0849302061
30
0.0000000000
10
-59.3637709008
20
41.0601464332
30
0.0000000000
10
-59.4139616791
20
41.0338273015
30
0.0000000000
10
-59.4633324322
20
41.0060013844
30
0.0000000000
11
-59.3128889705
21
41.0849302061
31
0.0000000000
11
-59.4633324322
21
41.0060013844
31
0.0000000000
0
SPLINE
5
2B6
100
AcDbEntity
8
0
100
AcDbSpline
62
7
6
CONTINUOUS
70
0
71
3
72
9
73
5
74
3
42
0.0000001000
43
0.0000001000
44
0.0000000001
12
-0.5765947541
22
-0.3249753511
32
0.0000000000
13
-0.4811905801
23
-0.4548767576
33
0.0000000000
40
0.0000000000
40
0.0000000000
40
0.0000000000
40
0.0000000000
40
0.5234886497
40
1.0000000000
40
1.0000000000
40
1.0000000000
40
1.0000000000
10
-59.4633324322
20
41.0060013844
30
0.0000000000
10
-59.5639460353
20
40.9492944151
30
0.0000000000
10
-59.7496385901
20
40.8290151666
30
0.0000000000
10
-59.9189233327
20
40.6867828928
30
0.0000000000
10
-59.9953542570
20
40.6145315802
30
0.0000000000
11
-59.4633324322
21
41.0060013844
31
0.0000000000
11
-59.7538655220
21
40.8173487573
31
0.0000000000
11
-59.9953542570
21
40.6145315802
31
0.0000000000
0
SPLINE
5
2B7
100
AcDbEntity
8
0
100
AcDbSpline
62
7
6
CONTINUOUS
70
0
71
3
72
9
73
5
74
3
42
0.0000001000
43
0.0000001000
44
0.0000000001
12
-0.1014583156
22
-0.0803767121
32
0.0000000000
13
-0.1014535048
23
-0.0803827843
33
0.0000000000
40
0.0000000000
40
0.0000000000
40
0.0000000000
40
0.0000000000
40
0.5000785191
40
1.0000000000
40
1.0000000000
40
1.0000000000
40
1.0000000000
10
56.3343996544
20
41.0849302061
30
0.0000000000
10
56.3174872797
20
41.0715319837
30
0.0000000000
10
56.2836682411
20
41.0447392415
30
0.0000000000
10
56.2498500043
20
41.0179454873
30
0.0000000000
10
56.2329437422
20
41.0045504604
30
0.0000000000
11
56.3343996544
21
41.0849302061
31
0.0000000000
11
56.2836631308
21
41.0447347810
31
0.0000000000
11
56.2329437422
21
41.0045504604
31
0.0000000000
0
SPLINE
5
2B8
100
AcDbEntity
8
0
100
AcDbSpline
62
7
6
CONTINUOUS
70
0
71
3
72
11
73
7
74
5
42
0.0000001000
43
0.0000001000
44
0.0000000001
12
0.9518179828
22
0.9036385831
32
0.0000000000
13
1.3102517399
23
0.0000000000
33
0.0000000000
40
0.0000000000
40
0.0000000000
40
0.0000000000
40
0.0000000000
40
0.2090231125
40
0.4718690892
40
0.7354037274
40
1.0000000000
40
1.0000000000
40
1.0000000000
40
1.0000000000
10
-36.8340615307
20
21.6640504273
30
0.0000000000
10
-36.7677442116
20
21.7270108770
30
0.0000000000
10
-36.6066451155
20
21.8571578118
30
0.0000000000
10
-36.3226128825
20
22.0117657189
30
0.0000000000
10
-35.9902585284
20
22.1138106203
30
0.0000000000
10
-35.7589307010
20
22.1366435816
30
0.0000000000
10
-35.6433681255
20
22.1366435816
30
0.0000000000
11
-36.8340615307
21
21.6640504273
31
0.0000000000
11
-36.6208706765
21
21.8362411108
31
0.0000000000
11
-36.3184221183
21
22.0009601786
31
0.0000000000
11
-35.9883598993
21
22.1023936797
31
0.0000000000
11
-35.6433681255
21
22.1366435816
31
0.0000000000
0
SPLINE
5
2B9
100
AcDbEntity
8
0
100
AcDbSpline
62
7
6
CONTINUOUS
70
0
71
3
72
12
73
8
74
6
42
0.0000001000
43
0.0000001000
44
0.0000000001
12
2.9778277672
22
2.0436293092
32
0.0000000000
13
-0.0879165462
23
3.6024491556
33
0.0000000000
40
0.0000000000
40
0.0000000000
40
0.0000000000
40
0.0000000000
40
0.0831863116
40
0.3111302031
40
0.5396509618
40
0.7691945324
40
1.0000000000
40
1.0000000000
40
1.0000000000
40
1.0000000000
10
59.0498327304
20
-41.2359863261
30
0.0000000000
10
59.1324042333
20
-41.1793189979
30
0.0000000000
10
59.4323567934
20
-40.9544379491
30
0.0000000000
10
59.8876102670
20
-40.4849949033
30
0.0000000000
10
60.3152319516
20
-39.7720858387
30
0.0000000000
10
60.5716993730
20
-38.9782239321
30
0.0000000000
10
60.6200114437
20
-38.4218723603
30
0.0000000000
10
60.6132475705
20
-38.1447173730
30
0.0000000000
11
59.0498327304
21
-41.2359863261
31
0.0000000000
11
59.2901204179
21
-41.0557949214
31
0.0000000000
11
59.8620519375
21
-40.4662242508
31
0.0000000000
11
60.2859738205
21
-39.7602435316
31
0.0000000000
11
60.5406288538
21
-38.9732535850
31
0.0000000000
11
60.6132475705
21
-38.1447173730
31
0.0000000000
0
SPLINE
5
2BA
100
AcDbEntity
8
0
100
AcDbSpline
62
7
6
CONTINUOUS
70
0
71
3
72
9
73
5
74
3
42
0.0000001000
43
0.0000001000
44
0.0000000001
12
-0.6615661087
22
-0.0008998637
32
0.0000000000
13
-0.6615663472
23
-0.0007031801
33
0.0000000000
40
0.0000000000
40
0.0000000000
40
0.0000000000
40
0.0000000000
40
0.5222156744
40
1.0000000000
40
1.0000000000
40
1.0000000000
40
1.0000000000
10
34.1322800424
20
-31.4738560769
30
0.0000000000
10
34.0171199786
20
-31.4740127179
30
0.0000000000
10
33.7965979171
20
-31.4742943878
30
0.0000000000
10
33.5760758166
20
-31.4745433287
30
0.0000000000
10
33.4707138063
20
-31.4746553182
30
0.0000000000
11
34.1322800424
21
-31.4738560769
31
0.0000000000
11
33.7867998139
21
-31.4742979772
31
0.0000000000
11
33.4707138063
21
-31.4746553182
31
0.0000000000
0
SPLINE
5
2BB
100
AcDbEntity
8
0
100
AcDbSpline
62
7
6
CONTINUOUS
70
0
71
3
72
8
73
4
74
2
42
0.0000001000
43
0.0000001000
44
0.0000000001
12
-0.0344292681
22
-0.0000365949
32
0.0000000000
13
-0.0344292686
23
-0.0000361022
33
0.0000000000
40
0.0000000000
40
0.0000000000
40
0.0000000000
40
0.0000000000
40
1.0000000000
40
1.0000000000
40
1.0000000000
40
1.0000000000
10
33.4707138063
20
-31.4746553182
30
0.0000000000
10
33.4592373836
20
-31.4746675165
30
0.0000000000
10
33.4477609608
20
-31.4746796323
30
0.0000000000
10
33.4362845379
20
-31.4746916664
30
0.0000000000
11
33.4707138063
21
-31.4746553182
31
0.0000000000
11
33.4362845379
21
-31.4746916664
31
0.0000000000
0
SPLINE
5
2BC
100
AcDbEntity
8
0
100
AcDbSpline
62
7
6
CONTINUOUS
70
0
71
3
72
10
73
6
74
4
42
0.0000001000
43
0.0000001000
44
0.0000000001
12
-0.0895538303
22
2.8609757718
32
0.0000000000
13
-0.0779506569
23
2.8613154231
33
0.0000000000
40
0.0000000000
40
0.0000000000
40
0.0000000000
40
0.0000000000
40
0.3535186308
40
0.6869314746
40
1.0000000000
40
1.0000000000
40
1.0000000000
40
1.0000000000
10
32.9410703666
20
-33.8063964088
30
0.0000000000
10
32.9305173841
20
-33.4692603296
30
0.0000000000
10
32.9105126006
20
-32.8141463894
30
0.0000000000
10
32.8829213134
20
-31.8604194284
30
0.0000000000
10
32.8658407023
20
-31.2438313652
30
0.0000000000
10
32.8577060699
20
-30.9452354318
30
0.0000000000
11
32.9410703666
21
-33.8063964088
31
0.0000000000
11
32.9102055587
21
-32.7949636254
31
0.0000000000
11
32.8825612408
21
-31.8410108242
31
0.0000000000
11
32.8577060699
21
-30.9452354318
31
0.0000000000
0
SPLINE
5
2BD
100
AcDbEntity
8
0
100
AcDbSpline
62
7
6
CONTINUOUS
70
0
71
3
72
8
73
4
74
2
42
0.0000001000
43
0.0000001000
44
0.0000000001
12
-0.0946330819
22
-0.0001311437
32
0.0000000000
13
-0.0946330873
23
-0.0001272437
33
0.0000000000
40
0.0000000000
40
0.0000000000
40
0.0000000000
40
0.0000000000
40
1.0000000000
40
1.0000000000
40
1.0000000000
40
1.0000000000
10
33.5131801808
20
-33.8056738619
30
0.0000000000
10
33.4816358202
20
-33.8057175765
30
0.0000000000
10
33.4500914586
20
-33.8057606381
30
0.0000000000
10
33.4185470962
20
-33.8058030526
30
0.0000000000
11
33.5131801808
21
-33.8056738619
31
0.0000000000
11
33.4185470962
21
-33.8058030526
31
0.0000000000
0
SPLINE
5
2BE
100
AcDbEntity
8
0
100
AcDbSpline
62
7
6
CONTINUOUS
70
0
71
3
72
9
73
5
74
3
42
0.0000001000
43
0.0000001000
44
0.0000000001
12
-0.4774766673
22
-0.0006420153
32
0.0000000000
13
-0.4774767872
23
-0.0005454394
33
0.0000000000
40
0.0000000000
40
0.0000000000
40
0.0000000000
40
0.0000000000
40
0.3981941595
40
1.0000000000
40
1.0000000000
40
1.0000000000
40
1.0000000000
10
33.4185470962
20
-33.8058030526
30
0.0000000000
10
33.3551709561
20
-33.8058882682
30
0.0000000000
10
33.1960120581
20
-33.8060957143
30
0.0000000000
10
33.0368531397
20
-33.8062869926
30
0.0000000000
10
32.9410703666
20
-33.8063964088
30
0.0000000000
11
33.4185470962
21
-33.8058030526
31
0.0000000000
11
33.2284186656
21
-33.8060509123
31
0.0000000000
11
32.9410703666
21
-33.8063964088
31
0.0000000000
0
SPLINE
5
2BF
100
AcDbEntity
8
0
100
AcDbSpline
62
7
6
CONTINUOUS
70
0
71
3
72
9
73
5
74
3
42
0.0000001000
43
0.0000001000
44
0.0000000001
12
-0.4649339773
22
-0.0006756447
32
0.0000000000
13
-0.4649341082
23
-0.0005786494
33
0.0000000000
40
0.0000000000
40
0.0000000000
40
0.0000000000
40
0.0000000000
40
0.5346010556
40
1.0000000000
40
1.0000000000
40
1.0000000000
40
1.0000000000
10
33.9788796864
20
-32.6999356963
30
0.0000000000
10
33.8960282881
20
-32.7000560964
30
0.0000000000
10
33.7410502825
20
-32.7002723555
30
0.0000000000
10
33.5860722554
20
-32.7004725016
30
0.0000000000
10
33.5139456410
20
-32.7005622692
30
0.0000000000
11
33.9788796864
21
-32.6999356963
31
0.0000000000
11
33.7303254712
21
-32.7002827160
31
0.0000000000
11
33.5139456410
21
-32.7005622692
31
0.0000000000
0
SPLINE
5
2C0
100
AcDbEntity
8
0
100
AcDbSpline
62
7
6
CONTINUOUS
70
0
71
3
72
8
73
4
74
2
42
0.0000001000
43
0.0000001000
44
0.0000000001
12
-0.0344427101
22
-0.0000428668
32
0.0000000000
13
-0.0344427107
23
-0.0000423543
33
0.0000000000
40
0.0000000000
40
0.0000000000
40
0.0000000000
40
0.0000000000
40
1.0000000000
40
1.0000000000
40
1.0000000000
40
1.0000000000
10
33.5139456410
20
-32.7005622692
30
0.0000000000
10
33.5024647376
20
-32.7005765581
30
0.0000000000
10
33.4909838342
20
-32.7005907614
30
0.0000000000
10
33.4795029306
20
-32.7006048795
30
0.0000000000
11
33.5139456410
21
-32.7005622692
31
0.0000000000
11
33.4795029306
21
-32.7006048795
31
0.0000000000
0
SPLINE
5
2C1
100
AcDbEntity
8
0
100
AcDbSpline
62
7
6
CONTINUOUS
70
0
71
3
72
8
73
4
74
2
42
0.0000001000
43
0.0000001000
44
0.0000000001
12
0.0094444497
22
-0.0389897616
32
0.0000000000
13
0.0092247703
23
-0.0390418406
33
0.0000000000
40
0.0000000000
40
0.0000000000
40
0.0000000000
40
0.0000000000
40
1.0000000000
40
1.0000000000
40
1.0000000000
40
1.0000000000
10
-59.3128889705
20
41.0849302061
30
0.0000000000
10
-59.3097408206
20
41.0719336189
30
0.0000000000
10
-59.3066297672
20
41.0589281883
30
0.0000000000
10
-59.3035548438
20
41.0459142415
30
0.0000000000
11
-59.3128889705
21
41.0849302061
31
0.0000000000
11
-59.3035548438
21
41.0459142415
31
0.0000000000
0
SPLINE
5
2C2
100
AcDbEntity
8
0
100
AcDbSpline
62
7
6
CONTINUOUS
70
0
71
3
72
10
73
6
74
4
42
0.0000001000
43
0.0000001000
44
0.0000000001
12
-0.6087235543
22
1.1033097590
32
0.0000000000
13
-0.6062380765
23
1.1046774120
33
0.0000000000
40
0.0000000000
40
0.0000000000
40
0.0000000000
40
0.0000000000
40
0.3343281213
40
0.6676630568
40
1.0000000000
40
1.0000000000
40
1.0000000000
40
1.0000000000
10
34.5863701729
20
-33.8039246014
30
0.0000000000
10
34.5185323721
20
-33.6809687751
30
0.0000000000
10
34.3831485908
20
-33.4353725548
30
0.0000000000
10
34.1806504422
20
-33.0673768488
30
0.0000000000
10
34.0460381228
20
-32.8223107344
30
0.0000000000
10
33.9788796864
20
-32.6999356963
30
0.0000000000
11
34.5863701729
21
-33.8039246014
31
0.0000000000
11
34.3829931484
21
-33.4349819123
31
0.0000000000
11
34.1804947403
21
-33.0669840852
31
0.0000000000
11
33.9788796864
21
-32.6999356963
31
0.0000000000
0
SPLINE
5
2C3
100
AcDbEntity
8
0
100
AcDbSpline
62
7
6
CONTINUOUS
70
0
71
3
72
8
73
4
74
2
42
0.0000001000
43
0.0000001000
44
0.0000000001
12
-0.2133332505
22
-0.0004752426
32
0.0000000000
13
-0.2133333033
23
-0.0004510821
33
0.0000000000
40
0.0000000000
40
0.0000000000
40
0.0000000000
40
0.0000000000
40
1.0000000000
40
1.0000000000
40
1.0000000000
40
1.0000000000
10
35.2313821608
20
-33.8025965573
30
0.0000000000
10
35.1602710773
20
-33.8027549715
30
0.0000000000
10
35.0891599846
20
-33.8029093008
30
0.0000000000
10
35.0180488835
20
-33.8030596615
30
0.0000000000
11
35.2313821608
21
-33.8025965573
31
0.0000000000
11
35.0180488835
21
-33.8030596615
31
0.0000000000
0
SPLINE
5
2C4
100
AcDbEntity
8
0
100
AcDbSpline
62
7
6
CONTINUOUS
70
0
71
3
72
9
73
5
74
3
42
0.0000001000
43
0.0000001000
44
0.0000000001
12
-0.4316786131
22
-0.0009127617
32
0.0000000000
13
-0.4316788024
23
-0.0008180093
33
0.0000000000
40
0.0000000000
40
0.0000000000
40
0.0000000000
40
0.0000000000
40
0.2485486856
40
1.0000000000
40
1.0000000000
40
1.0000000000
40
1.0000000000
10
35.0180488835
20
-33.8030596615
30
0.0000000000
10
34.9822844995
20
-33.8031352834
30
0.0000000000
10
34.8383916199
20
-33.8034354985
30
0.0000000000
10
34.6944987073
20
-33.8037197034
30
0.0000000000
10
34.5863701729
20
-33.8039246014
30
0.0000000000
11
35.0180488835
21
-33.8030596615
31
0.0000000000
11
34.9107557252
21
-33.8032835304
31
0.0000000000
11
34.5863701729
21
-33.8039246014
31
0.0000000000
0
SPLINE
5
2C5
100
AcDbEntity
8
0
100
AcDbSpline
62
7
6
CONTINUOUS
70
0
71
3
72
8
73
4
74
2
42
0.0000001000
43
0.0000001000
44
0.0000000001
12
-0.0501566357
22
0.1432259189
32
0.0000000000
13
-0.0501165189
23
0.1432399649
33
0.0000000000
40
0.0000000000
40
0.0000000000
40
0.0000000000
40
0.0000000000
40
1.0000000000
40
1.0000000000
40
1.0000000000
40
1.0000000000
10
31.5996079427
20
-32.7022525878
30
0.0000000000
10
31.5828890642
20
-32.6545106148
30
0.0000000000
10
31.5661769700
20
-32.6067662654
30
0.0000000000
10
31.5494714637
20
-32.5590196104
30
0.0000000000
11
31.5996079427
21
-32.7022525878
31
0.0000000000
11
31.5494714637
21
-32.5590196104
31
0.0000000000
0
SPLINE
5
2C6
100
AcDbEntity
8
0
100
AcDbSpline
62
7
6
CONTINUOUS
70
0
71
3
72
9
73
5
74
3
42
0.0000001000
43
0.0000001000
44
0.0000000001
12
-0.2014835260
22
0.5758678735
32
0.0000000000
13
-0.2008835946
23
0.5760774231
33
0.0000000000
40
0.0000000000
40
0.0000000000
40
0.0000000000
40
0.0000000000
40
0.4989900022
40
1.0000000000
40
1.0000000000
40
1.0000000000
40
1.0000000000
10
31.5494714637
20
-32.5590196104
30
0.0000000000
10
31.5159587087
20
-32.4632355066
30
0.0000000000
10
31.4488506648
20
-32.2712609549
30
0.0000000000
10
31.3818427248
20
-32.0792514435
30
0.0000000000
10
31.3482944950
20
-31.9830445940
30
0.0000000000
11
31.5494714637
21
-32.5590196104
31
0.0000000000
11
31.4490111477
21
-32.2716400380
31
0.0000000000
11
31.3482944950
21
-31.9830445940
31
0.0000000000
0
SPLINE
5
2C7
100
AcDbEntity
8
0
100
AcDbSpline
62
7
6
CONTINUOUS
70
0
71
3
72
8
73
4
74
2
42
0.0000001000
43
0.0000001000
44
0.0000000001
12
-0.0504745230
22
0.1447466787
32
0.0000000000
13
-0.0504398297
23
0.1447587688
33
0.0000000000
40
0.0000000000
40
0.0000000000
40
0.0000000000
40
0.0000000000
40
1.0000000000
40
1.0000000000
40
1.0000000000
40
1.0000000000
10
31.3482944950
20
-31.9830445940
30
0.0000000000
10
31.3314696540
20
-31.9347957011
30
0.0000000000
10
31.3146507030
20
-31.8865447547
30
0.0000000000
10
31.2978374264
20
-31.8382918317
30
0.0000000000
11
31.3482944950
21
-31.9830445940
31
0.0000000000
11
31.2978374264
21
-31.8382918317
31
0.0000000000
0
SPLINE
5
2C8
100
AcDbEntity
8
0
100
AcDbSpline
62
7
6
CONTINUOUS
70
0
71
3
72
8
73
4
74
2
42
0.0000001000
43
0.0000001000
44
0.0000000001
12
-0.0946778101
22
-0.0000410133
32
0.0000000000
13
-0.0946778110
23
-0.0000387942
33
0.0000000000
40
0.0000000000
40
0.0000000000
40
0.0000000000
40
0.0000000000
40
1.0000000000
40
1.0000000000
40
1.0000000000
40
1.0000000000
10
30.7242081294
20
-33.8080613680
30
0.0000000000
10
30.6926488594
20
-33.8080750391
30
0.0000000000
10
30.6610895892
20
-33.8080883362
30
0.0000000000
10
30.6295303189
20
-33.8081012676
30
0.0000000000
11
30.7242081294
21
-33.8080613680
31
0.0000000000
11
30.6295303189
21
-33.8081012676
31
0.0000000000
0
SPLINE
5
2C9
100
AcDbEntity
8
0
100
AcDbSpline
62
7
6
CONTINUOUS
70
0
71
3
72
9
73
5
74
3
42
0.0000001000
43
0.0000001000
44
0.0000000001
12
-0.4767789852
22
-0.0001953602
32
0.0000000000
13
-0.4767790037
23
-0.0001428656
33
0.0000000000
40
0.0000000000
40
0.0000000000
40
0.0000000000
40
0.0000000000
40
0.3985779865
40
1.0000000000
40
1.0000000000
40
1.0000000000
40
1.0000000000
10
30.6295303189
20
-33.8081012676
30
0.0000000000
10
30.5661857829
20
-33.8081272230
30
0.0000000000
10
30.4072594529
20
-33.8081886470
30
0.0000000000
10
30.2483331198
20
-33.8082412217
30
0.0000000000
10
30.1527513237
20
-33.8082698625
30
0.0000000000
11
30.6295303189
21
-33.8081012676
31
0.0000000000
11
30.4394967092
21
-33.8081747816
31
0.0000000000
11
30.1527513237
21
-33.8082698625
31
0.0000000000
0
SPLINE
5
2CA
100
AcDbEntity
8
0
100
AcDbSpline
62
7
6
CONTINUOUS
70
0
71
3
72
9
73
5
74
3
42
0.0000001000
43
0.0000001000
44
0.0000000001
12
-0.8682945627
22
-0.0005733617
32
0.0000000000
13
-0.8682946778
23
-0.0003593810
33
0.0000000000
40
0.0000000000
40
0.0000000000
40
0.0000000000
40
0.0000000000
40
0.5166263863
40
1.0000000000
40
1.0000000000
40
1.0000000000
40
1.0000000000
10
31.7901774159
20
-33.2454745119
30
0.0000000000
10
31.6406494551
20
-33.2455732498
30
0.0000000000
10
31.3512179204
20
-33.2457438026
30
0.0000000000
10
31.0617863672
20
-33.2458789098
30
0.0000000000
10
30.9218827885
20
-33.2459368149
30
0.0000000000
11
31.7901774159
21
-33.2454745119
31
0.0000000000
11
31.3415935145
21
-33.2457400134
31
0.0000000000
11
30.9218827885
21
-33.2459368149
31
0.0000000000
0
SPLINE
5
2CB
100
AcDbEntity
8
0
100
AcDbSpline
62
7
6
CONTINUOUS
70
0
71
3
72
8
73
4
74
2
42
0.0000001000
43
0.0000001000
44
0.0000000001
12
-0.0344212329
22
-0.0000142467
32
0.0000000000
13
-0.0344212330
23
-0.0000139494
33
0.0000000000
40
0.0000000000
40
0.0000000000
40
0.0000000000
40
0.0000000000
40
1.0000000000
40
1.0000000000
40
1.0000000000
40
1.0000000000
10
30.9218827885
20
-33.2459368149
30
0.0000000000
10
30.9104090442
20
-33.2459415638
30
0.0000000000
10
30.8989352999
20
-33.2459462629
30
0.0000000000
10
30.8874615555
20
-33.2459509127
30
0.0000000000
11
30.9218827885
21
-33.2459368149
31
0.0000000000
11
30.8874615555
21
-33.2459509127
31
0.0000000000
0
SPLINE
5
2CC
100
AcDbEntity
8
0
100
AcDbSpline
62
7
6
CONTINUOUS
70
0
71
3
72
9
73
5
74
3
42
0.0000001000
43
0.0000001000
44
0.0000000001
12
-0.1980375118
22
0.5617317064
32
0.0000000000
13
-0.1974443931
23
0.5619404574
33
0.0000000000
40
0.0000000000
40
0.0000000000
40
0.0000000000
40
0.0000000000
40
0.5008692151
40
1.0000000000
40
1.0000000000
40
1.0000000000
40
1.0000000000
10
31.9879198600
20
-33.8073101348
30
0.0000000000
10
31.9548562290
20
-33.7135254285
30
0.0000000000
10
31.8888924904
20
-33.5262643305
30
0.0000000000
10
31.8230276075
20
-33.3389684391
30
0.0000000000
10
31.7901774159
20
-33.2454745119
30
0.0000000000
11
31.9879198600
21
-33.8073101348
31
0.0000000000
11
31.8888026170
21
-33.5259300616
31
0.0000000000
11
31.7901774159
21
-33.2454745119
31
0.0000000000
0
SPLINE
5
2CD
100
AcDbEntity
8
0
100
AcDbSpline
62
7
6
CONTINUOUS
70
0
71
3
72
8
73
4
74
2
42
0.0000001000
43
0.0000001000
44
0.0000000001
12
-0.1895452075
22
-0.0001852953
32
0.0000000000
13
-0.1895452202
23
-0.0001719309
33
0.0000000000
40
0.0000000000
40
0.0000000000
40
0.0000000000
40
0.0000000000
40
1.0000000000
40
1.0000000000
40
1.0000000000
40
1.0000000000
10
32.5597640033
20
-33.8068106852
30
0.0000000000
10
32.4965822675
20
-33.8068724503
30
0.0000000000
10
32.4334005294
20
-33.8069319422
30
0.0000000000
10
32.3702187893
20
-33.8069892526
30
0.0000000000
11
32.5597640033
21
-33.8068106852
31
0.0000000000
11
32.3702187893
21
-33.8069892526
31
0.0000000000
0
SPLINE
5
2CE
100
AcDbEntity
8
0
100
AcDbSpline
62
7
6
CONTINUOUS
70
0
71
3
72
9
73
5
74
3
42
0.0000001000
43
0.0000001000
44
0.0000000001
12
-0.3822989071
22
-0.0003467722
32
0.0000000000
13
-0.3822989497
23
-0.0002957098
33
0.0000000000
40
0.0000000000
40
0.0000000000
40
0.0000000000
40
0.0000000000
40
0.2489509295
40
1.0000000000
40
1.0000000000
40
1.0000000000
40
1.0000000000
10
32.3702187893
20
-33.8069892526
30
0.0000000000
10
32.3384942332
20
-33.8070180290
30
0.0000000000
10
32.2110612622
20
-33.8071314103
30
0.0000000000
10
32.0836282836
20
-33.8072361040
30
0.0000000000
10
31.9879198600
20
-33.8073101348
30
0.0000000000
11
32.3702187893
21
-33.8069892526
31
0.0000000000
11
32.2750451196
21
-33.8070739433
31
0.0000000000
11
31.9879198600
21
-33.8073101348
31
0.0000000000
0
SPLINE
5
2CF
100
AcDbEntity
8
0
100
AcDbSpline
62
7
6
CONTINUOUS
70
0
71
3
72
10
73
6
74
4
42
0.0000001000
43
0.0000001000
44
0.0000000001
12
0.8307510058
22
2.8633686025
32
0.0000000000
13
0.8384607007
23
2.8611205219
33
0.0000000000
40
0.0000000000
40
0.0000000000
40
0.0000000000
40
0.0000000000
40
0.3545168928
40
0.6879080111
40
1.0000000000
40
1.0000000000
40
1.0000000000
40
1.0000000000
10
30.1527513237
20
-33.8082698625
30
0.0000000000
10
30.2509230787
20
-33.4698990159
30
0.0000000000
10
30.4417424395
20
-32.8134154370
30
0.0000000000
10
30.7201564721
20
-31.8593946895
30
0.0000000000
10
30.9003809250
20
-31.2437403649
30
0.0000000000
10
30.9876065476
20
-30.9460961002
30
0.0000000000
11
30.1527513237
21
-33.8082698625
31
0.0000000000
11
30.4477894800
21
-32.7933091755
31
0.0000000000
11
30.7262232749
21
-31.8391148808
31
0.0000000000
11
30.9876065476
21
-30.9460961002
31
0.0000000000
0
SPLINE
5
2D0
100
AcDbEntity
8
0
100
AcDbSpline
62
7
6
CONTINUOUS
70
0
71
3
72
10
73
6
74
4
42
0.0000001000
43
0.0000001000
44
0.0000000001
12
-0.0517725181
22
1.6810180851
32
0.0000000000
13
-0.0475572230
23
1.6811426755
33
0.0000000000
40
0.0000000000
40
0.0000000000
40
0.0000000000
40
0.0000000000
40
0.3798044419
40
0.7538500227
40
1.0000000000
40
1.0000000000
40
1.0000000000
40
1.0000000000
10
29.2005126070
20
-33.8084512175
30
0.0000000000
10
29.1939581296
20
-33.5956318390
30
0.0000000000
10
29.1811452150
20
-33.1732139127
30
0.0000000000
10
29.1646811744
20
-32.6128505968
30
0.0000000000
10
29.1547466576
20
-32.2653077613
30
0.0000000000
10
29.1508445878
20
-32.1273700175
30
0.0000000000
11
29.2005126070
21
-33.8084512175
31
0.0000000000
11
29.1811492475
21
-33.1699839107
31
0.0000000000
11
29.1626760368
21
-32.5411796838
31
0.0000000000
11
29.1508445878
21
-32.1273700175
31
0.0000000000
0
SPLINE
5
2D1
100
AcDbEntity
8
0
100
AcDbSpline
62
7
6
CONTINUOUS
70
0
71
3
72
8
73
4
74
2
42
0.0000001000
43
0.0000001000
44
0.0000000001
12
-0.0058072556
22
0.2052858543
32
0.0000000000
13
-0.0057479229
23
0.2052875173
33
0.0000000000
40
0.0000000000
40
0.0000000000
40
0.0000000000
40
0.0000000000
40
1.0000000000
40
1.0000000000
40
1.0000000000
40
1.0000000000
10
29.1508445878
20
-32.1273700175
30
0.0000000000
10
29.1489088359
20
-32.0589413994
30
0.0000000000
10
29.1469831371
20
-31.9905124976
30
0.0000000000
10
29.1450671628
20
-31.9220833252
30
0.0000000000
11
29.1508445878
21
-32.1273700175
31
0.0000000000
11
29.1450671628
21
-31.9220833252
31
0.0000000000
0
SPLINE
5
2D2
100
AcDbEntity
8
0
100
AcDbSpline
62
7
6
CONTINUOUS
70
0
71
3
72
8
73
4
74
2
42
0.0000001000
43
0.0000001000
44
0.0000000001
12
-0.1896221673
22
-0.0000392488
32
0.0000000000
13
-0.1896221686
23
-0.0000323490
33
0.0000000000
40
0.0000000000
40
0.0000000000
40
0.0000000000
40
0.0000000000
40
1.0000000000
40
1.0000000000
40
1.0000000000
40
1.0000000000
10
29.7718311758
20
-33.8083634797
30
0.0000000000
10
29.7086237867
20
-33.8083765627
30
0.0000000000
10
29.6454163974
20
-33.8083884662
30
0.0000000000
10
29.5822090079
20
-33.8083992492
30
0.0000000000
11
29.7718311758
21
-33.8083634797
31
0.0000000000
11
29.5822090079
21
-33.8083992492
31
0.0000000000
0
SPLINE
5
2D3
100
AcDbEntity
8
0
100
AcDbSpline
62
7
6
CONTINUOUS
70
0
71
3
72
9
73
5
74
3
42
0.0000001000
43
0.0000001000
44
0.0000000001
12
-0.3816963989
22
-0.0000651163
32
0.0000000000
13
-0.3816964024
23
-0.0000392867
33
0.0000000000
40
0.0000000000
40
0.0000000000
40
0.0000000000
40
0.0000000000
40
0.2491969855
40
1.0000000000
40
1.0000000000
40
1.0000000000
40
1.0000000000
10
29.5822090079
20
-33.8083992492
30
0.0000000000
10
29.5505031439
20
-33.8084046581
30
0.0000000000
10
29.4232710107
20
-33.8084252321
30
0.0000000000
10
29.2960388769
20
-33.8084413853
30
0.0000000000
10
29.2005126070
20
-33.8084512175
30
0.0000000000
11
29.5822090079
21
-33.8083992492
31
0.0000000000
11
29.4870914158
21
-33.8084146376
31
0.0000000000
11
29.2005126070
21
-33.8084512175
31
0.0000000000
0
SPLINE
5
2D4
100
AcDbEntity
8
0
100
AcDbSpline
62
7
6
CONTINUOUS
70
0
71
3
72
8
73
4
74
2
42
0.0000001000
43
0.0000001000
44
0.0000000001
12
0.0558106831
22
0.2171983527
32
0.0000000000
13
0.0558614926
23
0.2171852949
33
0.0000000000
40
0.0000000000
40
0.0000000000
40
0.0000000000
40
0.0000000000
40
1.0000000000
40
1.0000000000
40
1.0000000000
40
1.0000000000
10
28.3448841926
20
-32.8113149775
30
0.0000000000
10
28.3634877536
20
-32.7389155266
30
0.0000000000
10
28.3820997848
20
-32.6665182512
30
0.0000000000
10
28.4007202823
20
-32.5941231529
30
0.0000000000
11
28.3448841926
21
-32.8113149775
31
0.0000000000
11
28.4007202823
21
-32.5941231529
31
0.0000000000
0
SPLINE
5
2D5
100
AcDbEntity
8
0
100
AcDbSpline
62
7
6
CONTINUOUS
70
0
71
3
72
10
73
6
74
4
42
0.0000001000
43
0.0000001000
44
0.0000000001
12
0.4239237221
22
1.6481836458
32
0.0000000000
13
0.4266402810
23
1.6474825071
33
0.0000000000
40
0.0000000000
40
0.0000000000
40
0.0000000000
40
0.0000000000
40
0.2590362284
40
0.6363186998
40
1.0000000000
40
1.0000000000
40
1.0000000000
40
1.0000000000
10
28.4007202823
20
-32.5941231529
30
0.0000000000
10
28.4373241497
20
-32.4518100611
30
0.0000000000
10
28.5273213814
20
-32.1022407025
30
0.0000000000
10
28.6690655718
20
-31.5529585270
30
0.0000000000
10
28.7743390452
20
-31.1460239398
30
0.0000000000
10
28.8260594092
20
-30.9463044130
30
0.0000000000
11
28.4007202823
21
-32.5941231529
31
0.0000000000
11
28.5106300052
21
-32.1672091284
31
0.0000000000
11
28.6710572797
21
-31.5455041365
31
0.0000000000
11
28.8260594092
21
-30.9463044130
31
0.0000000000
0
SPLINE
5
2D6
100
AcDbEntity
8
0
100
AcDbSpline
62
7
6
CONTINUOUS
70
0
71
3
72
9
73
5
74
3
42
0.0000001000
43
0.0000001000
44
0.0000000001
12
-0.0879524631
22
2.8619631631
32
0.0000000000
13
-0.0763832748
23
2.8622974501
33
0.0000000000
40
0.0000000000
40
0.0000000000
40
0.0000000000
40
0.0000000000
40
0.4080711408
40
1.0000000000
40
1.0000000000
40
1.0000000000
40
1.0000000000
10
26.9779805011
20
-33.8084761222
30
0.0000000000
10
26.9660168804
20
-33.4191812646
30
0.0000000000
10
26.9374862347
20
-32.4651708080
30
0.0000000000
10
26.9108837871
20
-31.5111046370
30
0.0000000000
10
26.8958126322
20
-30.9463458155
30
0.0000000000
11
26.9779805011
21
-33.8084761222
31
0.0000000000
11
26.9430529017
21
-32.6405637163
31
0.0000000000
11
26.8958126322
21
-30.9463458155
31
0.0000000000
0
SPLINE
5
2D7
100
AcDbEntity
8
0
100
AcDbSpline
62
7
6
CONTINUOUS
70
0
71
3
72
8
73
4
74
2
42
0.0000001000
43
0.0000001000
44
0.0000000001
12
-0.0664298123
22
0.2093415843
32
0.0000000000
13
-0.0663604405
23
0.2093635940
33
0.0000000000
40
0.0000000000
40
0.0000000000
40
0.0000000000
40
0.0000000000
40
1.0000000000
40
1.0000000000
40
1.0000000000
40
1.0000000000
10
28.0892346152
20
-33.8084761222
30
0.0000000000
10
28.0670913444
20
-33.7386955941
30
0.0000000000
10
28.0449596380
20
-33.6689113944
30
0.0000000000
10
28.0228394912
20
-33.5991235297
30
0.0000000000
11
28.0892346152
21
-33.8084761222
31
0.0000000000
11
28.0228394912
21
-33.5991235297
31
0.0000000000
0
SPLINE
5
2D8
100
AcDbEntity
8
0
100
AcDbSpline
62
7
6
CONTINUOUS
70
0
71
3
72
10
73
6
74
4
42
0.0000001000
43
0.0000001000
44
0.0000000001
12
-0.4648674810
22
1.4666317135
32
0.0000000000
13
-0.4614689126
23
1.4677046025
33
0.0000000000
40
0.0000000000
40
0.0000000000
40
0.0000000000
40
0.0000000000
40
0.2855826455
40
0.7141569531
40
1.0000000000
40
1.0000000000
40
1.0000000000
40
1.0000000000
10
28.0228394912
20
-33.5991235297
30
0.0000000000
10
27.9785867962
20
-33.4595086748
30
0.0000000000
10
27.8680397080
20
-33.1103369152
30
0.0000000000
10
27.7136506585
20
-32.6212803326
30
0.0000000000
10
27.6036413597
20
-32.2717987570
30
0.0000000000
10
27.5596721330
20
-32.1319543718
30
0.0000000000
11
28.0228394912
21
-33.5991235297
31
0.0000000000
11
27.8902201607
21
-33.1802350128
31
0.0000000000
11
27.6917184882
21
-32.5514438980
31
0.0000000000
11
27.5596721330
21
-32.1319543718
31
0.0000000000
0
SPLINE
5
2D9
100
AcDbEntity
8
0
100
AcDbSpline
62
7
6
CONTINUOUS
70
0
71
3
72
8
73
4
74
2
42
0.0000001000
43
0.0000001000
44
0.0000000001
12
-0.0659714241
22
0.2098225040
32
0.0000000000
13
-0.0659020842
23
0.2098442841
33
0.0000000000
40
0.0000000000
40
0.0000000000
40
0.0000000000
40
0.0000000000
40
1.0000000000
40
1.0000000000
40
1.0000000000
40
1.0000000000
10
27.5596721330
20
-32.1319543718
30
0.0000000000
10
27.5376816584
20
-32.0620135372
30
0.0000000000
10
27.5157027428
20
-31.9920690692
30
0.0000000000
10
27.4937353814
20
-31.9221209745
30
0.0000000000
11
27.5596721330
21
-32.1319543718
31
0.0000000000
11
27.4937353814
21
-31.9221209745
31
0.0000000000
0
SPLINE
5
2DA
100
AcDbEntity
8
0
100
AcDbSpline
62
7
6
CONTINUOUS
70
0
71
3
72
8
73
4
74
2
42
0.0000001000
43
0.0000001000
44
0.0000000001
12
-0.0818710572
22
-0.0000027157
32
0.0000000000
13
-0.0818710572
23
-0.0000017730
33
0.0000000000
40
0.0000000000
40
0.0000000000
40
0.0000000000
40
0.0000000000
40
1.0000000000
40
1.0000000000
40
1.0000000000
40
1.0000000000
10
28.6604205050
20
-33.8084757327
30
0.0000000000
10
28.6331301527
20
-33.8084766379
30
0.0000000000
10
28.6058398003
20
-33.8084773832
30
0.0000000000
10
28.5785494479
20
-33.8084779742
30
0.0000000000
11
28.6604205050
21
-33.8084757327
31
0.0000000000
11
28.5785494479
21
-33.8084779742
31
0.0000000000
0
SPLINE
5
2DB
100
AcDbEntity
8
0
100
AcDbSpline
62
7
6
CONTINUOUS
70
0
71
3
72
8
73
4
74
2
42
0.0000001000
43
0.0000001000
44
0.0000000001
12
-0.1680194666
22
-0.0000036386
32
0.0000000000
13
-0.1680194667
23
0.0000001149
33
0.0000000000
40
0.0000000000
40
0.0000000000
40
0.0000000000
40
0.0000000000
40
1.0000000000
40
1.0000000000
40
1.0000000000
40
1.0000000000
10
28.5785494479
20
-33.8084779742
30
0.0000000000
10
28.5225429590
20
-33.8084791871
30
0.0000000000
10
28.4665364701
20
-33.8084797501
30
0.0000000000
10
28.4105299812
20
-33.8084797118
30
0.0000000000
11
28.5785494479
21
-33.8084779742
31
0.0000000000
11
28.4105299812
21
-33.8084797118
31
0.0000000000
0
SPLINE
5
2DC
100
AcDbEntity
8
0
100
AcDbSpline
62
7
6
CONTINUOUS
70
0
71
3
72
8
73
4
74
2
42
0.0000001000
43
0.0000001000
44
0.0000000001
12
-0.2627225807
22
0.0000001796
32
0.0000000000
13
-0.2627225806
23
0.0000084242
33
0.0000000000
40
0.0000000000
40
0.0000000000
40
0.0000000000
40
0.0000000000
40
1.0000000000
40
1.0000000000
40
1.0000000000
40
1.0000000000
10
28.4105299812
20
-33.8084797118
30
0.0000000000
10
28.3229557876
20
-33.8084796519
30
0.0000000000
10
28.2353815941
20
-33.8084781219
30
0.0000000000
10
28.1478074005
20
-33.8084753138
30
0.0000000000
11
28.4105299812
21
-33.8084797118
31
0.0000000000
11
28.1478074005
21
-33.8084753138
31
0.0000000000
0
SPLINE
5
2DD
100
AcDbEntity
8
0
100
AcDbSpline
62
7
6
CONTINUOUS
70
0
71
3
72
9
73
5
74
3
42
0.0000001000
43
0.0000001000
44
0.0000000001
12
-0.0879526965
22
2.8619698618
32
0.0000000000
13
-0.0763834539
23
2.8623041504
33
0.0000000000
40
0.0000000000
40
0.0000000000
40
0.0000000000
40
0.0000000000
40
0.4080725585
40
1.0000000000
40
1.0000000000
40
1.0000000000
40
1.0000000000
10
25.8355786031
20
-33.8084829136
30
0.0000000000
10
25.8236149092
20
-33.4191857923
30
0.0000000000
10
25.7950841921
20
-32.4651731027
30
0.0000000000
10
25.7684816821
20
-31.5111046983
30
0.0000000000
10
25.7534105279
20
-30.9463459075
30
0.0000000000
11
25.8355786031
21
-33.8084829136
31
0.0000000000
11
25.8006507950
21
-32.6405637163
31
0.0000000000
11
25.7534105279
21
-30.9463459075
31
0.0000000000
0
SPLINE
5
2DE
100
AcDbEntity
8
0
100
AcDbSpline
62
7
6
CONTINUOUS
70
0
71
3
72
8
73
4
74
2
42
0.0000001000
43
0.0000001000
44
0.0000000001
12
0.0637005473
22
0.2188249019
32
0.0000000000
13
0.0637471921
23
0.2188113218
33
0.0000000000
40
0.0000000000
40
0.0000000000
40
0.0000000000
40
0.0000000000
40
1.0000000000
40
1.0000000000
40
1.0000000000
40
1.0000000000
10
24.2253715290
20
-32.9180590647
30
0.0000000000
10
24.2466050448
20
-32.8451174308
30
0.0000000000
10
24.2678463392
20
-32.7721780604
30
0.0000000000
10
24.2890954032
20
-32.6992409531
30
0.0000000000
11
24.2253715290
21
-32.9180590647
31
0.0000000000
11
24.2890954032
21
-32.6992409531
31
0.0000000000
0
SPLINE
5
2DF
100
AcDbEntity
8
0
100
AcDbSpline
62
7
6
CONTINUOUS
70
0
71
3
72
10
73
6
74
4
42
0.0000001000
43
0.0000001000
44
0.0000000001
12
0.5108049738
22
1.7533307402
32
0.0000000000
13
0.5137846247
23
1.7524598881
33
0.0000000000
40
0.0000000000
40
0.0000000000
40
0.0000000000
40
0.0000000000
40
0.2497309405
40
0.6246672145
40
1.0000000000
40
1.0000000000
40
1.0000000000
40
1.0000000000
10
24.2890954032
20
-32.6992409531
30
0.0000000000
10
24.3316166720
20
-32.5532873082
30
0.0000000000
10
24.4380555355
20
-32.1882272331
30
0.0000000000
10
24.6087593534
20
-31.6039106746
30
0.0000000000
10
24.7371123682
20
-31.1655976993
30
0.0000000000
10
24.8013924396
20
-30.9463458155
30
0.0000000000
11
24.2890954032
21
-32.6992409531
31
0.0000000000
11
24.4167524752
21
-32.2614072017
31
0.0000000000
11
24.6087613991
21
-31.6041627561
31
0.0000000000
11
24.8013924396
21
-30.9463458155
31
0.0000000000
0
SPLINE
5
2E0
100
AcDbEntity
8
0
100
AcDbSpline
62
7
6
CONTINUOUS
70
0
71
3
72
10
73
6
74
4
42
0.0000001000
43
0.0000001000
44
0.0000000001
12
-1.0056256690
22
2.8598722328
32
0.0000000000
13
-0.9926935192
23
2.8643868019
33
0.0000000000
40
0.0000000000
40
0.0000000000
40
0.0000000000
40
0.0000000000
40
0.3330745654
40
0.6664142635
40
1.0000000000
40
1.0000000000
40
1.0000000000
40
1.0000000000
10
23.9665528421
20
-33.8084830194
30
0.0000000000
10
23.8549033979
20
-33.4909661191
30
0.0000000000
10
23.6319952523
20
-32.8555107990
30
0.0000000000
10
23.2989440631
20
-31.9014638297
30
0.0000000000
10
23.0777815481
20
-31.2648520092
30
0.0000000000
10
22.9673987485
20
-30.9463458155
30
0.0000000000
11
23.9665528421
21
-33.8084830194
31
0.0000000000
11
23.6323232663
21
-32.8556798843
31
0.0000000000
11
23.2992652783
21
-31.9016152157
31
0.0000000000
11
22.9673987485
21
-30.9463458155
31
0.0000000000
0
SPLINE
5
2E1
100
AcDbEntity
8
0
100
AcDbSpline
62
7
6
CONTINUOUS
70
0
71
3
72
8
73
4
74
2
42
0.0000001000
43
0.0000001000
44
0.0000000001
12
-0.0253089508
22
-0.0188347805
32
0.0000000000
13
-0.0317328183
23
-0.0005163797
33
0.0000000000
40
0.0000000000
40
0.0000000000
40
0.0000000000
40
0.0000000000
40
1.0000000000
40
1.0000000000
40
1.0000000000
40
1.0000000000
10
-30.3177878792
20
-43.0389250429
30
0.0000000000
10
-30.3262241961
20
-43.0452033031
30
0.0000000000
10
-30.3369776383
20
-43.0497442510
30
0.0000000000
10
-30.3475552444
20
-43.0499163775
30
0.0000000000
11
-30.3177878792
21
-43.0389250429
31
0.0000000000
11
-30.3475552444
21
-43.0499163775
31
0.0000000000
0
SPLINE
5
2E2
100
AcDbEntity
8
0
100
AcDbSpline
62
7
6
CONTINUOUS
70
0
71
3
72
9
73
5
74
3
42
0.0000001000
43
0.0000001000
44
0.0000000001
12
0.0333970071
22
-0.0274196262
32
0.0000000000
13
0.0435627469
23
0.0005170254
33
0.0000000000
40
0.0000000000
40
0.0000000000
40
0.0000000000
40
0.0000000000
40
0.9233429714
40
1.0000000000
40
1.0000000000
40
1.0000000000
40
1.0000000000
10
28.6875818815
20
-43.0337091168
30
0.0000000000
10
28.6978608454
20
-43.0421483565
30
0.0000000000
10
28.7117889722
20
-43.0495934705
30
0.0000000000
10
28.7262927804
20
-43.0499386131
30
0.0000000000
10
28.7274059107
20
-43.0499254019
30
0.0000000000
11
28.6875818815
21
-43.0337091168
31
0.0000000000
11
28.7240725256
21
-43.0498439763
31
0.0000000000
11
28.7274059107
21
-43.0499254019
31
0.0000000000
0
SPLINE
5
2E3
100
AcDbEntity
8
0
100
AcDbSpline
62
7
6
CONTINUOUS
70
0
71
3
72
10
73
6
74
4
42
0.0000001000
43
0.0000001000
44
0.0000000001
12
0.0226003397
22
-0.9260665730
32
0.0000000000
13
-0.4470469809
23
-0.8131223156
33
0.0000000000
40
0.0000000000
40
0.0000000000
40
0.0000000000
40
0.0000000000
40
0.3764097110
40
0.7509978132
40
1.0000000000
40
1.0000000000
40
1.0000000000
40
1.0000000000
10
33.1294470842
20
-23.6137411942
30
0.0000000000
10
33.1322827466
20
-23.7299346779
30
0.0000000000
10
33.1152847950
20
-23.9629676548
30
0.0000000000
10
33.0323793359
20
-24.2624173919
30
0.0000000000
10
32.9507257183
20
-24.4376326935
30
0.0000000000
10
32.9136204930
20
-24.5051224384
30
0.0000000000
11
33.1294470842
21
-23.6137411942
31
0.0000000000
11
33.1038726361
21
-23.9614862838
31
0.0000000000
11
33.0111589023
21
-24.2958677246
31
0.0000000000
11
32.9136204930
21
-24.5051224384
31
0.0000000000
0
SPLINE
5
2E4
100
AcDbEntity
8
0
100
AcDbSpline
62
7
6
CONTINUOUS
70
0
71
3
72
10
73
6
74
4
42
0.0000001000
43
0.0000001000
44
0.0000000001
12
-0.3860051913
22
-0.7020949663
32
0.0000000000
13
-0.6606298112
23
-0.4533389371
33
0.0000000000
40
0.0000000000
40
0.0000000000
40
0.0000000000
40
0.0000000000
40
0.1436172031
40
0.5743491971
40
1.0000000000
40
1.0000000000
40
1.0000000000
40
1.0000000000
10
32.9136204930
20
-24.5051224384
30
0.0000000000
10
32.8951414977
20
-24.5387334102
30
0.0000000000
10
32.8167768856
20
-24.6706949620
30
0.0000000000
10
32.6502008876
20
-24.8811699361
30
0.0000000000
10
32.4745569047
20
-25.0294269228
30
0.0000000000
10
32.3808243681
20
-25.0937482837
30
0.0000000000
11
32.9136204930
21
-24.5051224384
31
0.0000000000
11
32.8548688196
21
-24.6040354253
31
0.0000000000
11
32.6410085283
21
-24.8741466741
31
0.0000000000
11
32.3808243681
21
-25.0937482837
31
0.0000000000
0
SPLINE
5
2E5
100
AcDbEntity
8
0
100
AcDbSpline
62
7
6
CONTINUOUS
70
0
71
3
72
15
73
11
74
9
42
0.0000001000
43
0.0000001000
44
0.0000000001
12
2.8098259166
22
0.0000000000
32
0.0000000000
13
0.0685524342
23
-2.8089895417
33
0.0000000000
40
0.0000000000
40
0.0000000000
40
0.0000000000
40
0.0000000000
40
0.1239761155
40
0.2485504543
40
0.3736386456
40
0.4990795293
40
0.6246597551
40
0.7501454672
40
0.8753167112
40
1.0000000000
40
1.0000000000
40
1.0000000000
40
1.0000000000
10
30.2402705510
20
22.1366435816
30
0.0000000000
10
30.3563876518
20
22.1366435816
30
0.0000000000
10
30.5898133803
20
22.1134937941
30
0.0000000000
10
30.9267126981
20
22.0112883678
30
0.0000000000
10
31.2389706935
20
21.8455077433
30
0.0000000000
10
31.5144795383
20
21.6225403644
30
0.0000000000
10
31.7427689519
20
21.3509482139
30
0.0000000000
10
31.9151022186
20
21.0410680856
30
0.0000000000
10
32.0248686967
20
20.7049121275
30
0.0000000000
10
32.0535762718
20
20.4709057426
30
0.0000000000
10
32.0564253861
20
20.3541610579
30
0.0000000000
11
30.2402705510
21
22.1366435816
31
0.0000000000
11
30.5869340392
21
22.1023936797
31
0.0000000000
11
30.9219471584
21
22.0009601786
31
0.0000000000
11
31.2324355422
21
21.8362411108
31
0.0000000000
11
31.5064672962
21
21.6145665378
31
0.0000000000
11
31.7335115339
21
21.3444552889
31
0.0000000000
11
31.9048430724
21
21.0362875882
31
0.0000000000
11
32.0138777368
21
20.7019061474
31
0.0000000000
11
32.0564253861
21
20.3541610579
31
0.0000000000
0
SPLINE
5
2E6
100
AcDbEntity
8
0
100
AcDbSpline
62
7
6
CONTINUOUS
70
0
71
3
72
10
73
6
74
4
42
0.0000001000
43
0.0000001000
44
0.0000000001
12
1.4898215686
22
0.7318047350
32
0.0000000000
13
1.6598513417
23
-0.0000000000
33
0.0000000000
40
0.0000000000
40
0.0000000000
40
0.0000000000
40
0.0000000000
40
0.3327210928
40
0.6648687370
40
1.0000000000
40
1.0000000000
40
1.0000000000
40
1.0000000000
10
-59.3958791802
20
41.0045504604
30
0.0000000000
10
-59.2306474934
20
41.0857127508
30
0.0000000000
10
-58.8851382197
20
41.2181366645
30
0.0000000000
10
-58.3418217724
20
41.3319928198
30
0.0000000000
10
-57.9720471880
20
41.3558927355
30
0.0000000000
10
-57.7866244958
20
41.3558927355
30
0.0000000000
11
-59.3958791802
21
41.0045504604
31
0.0000000000
11
-58.8809022224
21
41.2040452782
31
0.0000000000
11
-58.3416512066
21
41.3187508020
31
0.0000000000
11
-57.7866244958
21
41.3558927355
31
0.0000000000
0
SPLINE
5
2E7
100
AcDbEntity
8
0
100
AcDbSpline
62
7
6
CONTINUOUS
70
0
71
3
72
10
73
6
74
4
42
0.0000001000
43
0.0000001000
44
0.0000000001
12
-1.6851924112
22
0.6749689325
32
0.0000000000
13
-1.8153392307
23
-0.0000000000
33
0.0000000000
40
0.0000000000
40
0.0000000000
40
0.0000000000
40
0.0000000000
40
0.3519264817
40
0.6841643151
40
1.0000000000
40
1.0000000000
40
1.0000000000
40
1.0000000000
10
56.2329437422
20
41.0045504604
30
0.0000000000
10
56.0352557968
20
41.0837302743
30
0.0000000000
10
55.6407634857
20
41.2136787033
30
0.0000000000
10
55.0454496407
20
41.3297430175
30
0.0000000000
10
54.6528794956
20
41.3558927355
30
0.0000000000
10
54.4617631925
20
41.3558927355
30
0.0000000000
11
56.2329437422
21
41.0045504604
31
0.0000000000
11
55.6260240457
21
41.2040452782
31
0.0000000000
11
55.0339077971
21
41.3187508020
31
0.0000000000
11
54.4617631925
21
41.3558927355
31
0.0000000000
0
SPLINE
5
2E8
100
AcDbEntity
8
0
100
AcDbSpline
62
7
6
CONTINUOUS
70
0
71
3
72
8
73
4
74
2
42
0.0000001000
43
0.0000001000
44
0.0000000001
12
0.0275759135
22
0.0950517445
32
0.0000000000
13
0.0275849336
23
0.0950491275
33
0.0000000000
40
0.0000000000
40
0.0000000000
40
0.0000000000
40
0.0000000000
40
1.0000000000
40
1.0000000000
40
1.0000000000
40
1.0000000000
10
30.7586229530
20
-33.7802079917
30
0.0000000000
10
30.7678149242
20
-33.7485240769
30
0.0000000000
10
30.7770083935
20
-33.7168405966
30
0.0000000000
10
30.7862033713
20
-33.6851575541
30
0.0000000000
11
30.7586229530
21
-33.7802079917
31
0.0000000000
11
30.7862033713
21
-33.6851575541
31
0.0000000000
0
SPLINE
5
2E9
100
AcDbEntity
8
0
100
AcDbSpline
62
7
6
CONTINUOUS
70
0
71
3
72
9
73
5
74
3
42
0.0000001000
43
0.0000001000
44
0.0000000001
12
0.1254266190
22
0.4321812364
32
0.0000000000
13
0.1256167381
23
0.4321260143
33
0.0000000000
40
0.0000000000
40
0.0000000000
40
0.0000000000
40
0.0000000000
40
0.4360825170
40
1.0000000000
40
1.0000000000
40
1.0000000000
40
1.0000000000
10
30.7862033713
20
-33.6851575541
30
0.0000000000
10
30.8044354899
20
-33.6223353270
30
0.0000000000
10
30.8462579637
20
-33.4782788617
30
0.0000000000
10
30.8881120517
20
-33.3342315779
30
0.0000000000
10
30.9117245433
20
-33.2530037731
30
0.0000000000
11
30.7862033713
21
-33.6851575541
31
0.0000000000
11
30.8409176012
21
-33.4966960611
31
0.0000000000
11
30.9117245433
21
-33.2530037731
31
0.0000000000
0
SPLINE
5
2EA
100
AcDbEntity
8
0
100
AcDbSpline
62
7
6
CONTINUOUS
70
0
71
3
72
9
73
5
74
3
42
0.0000001000
43
0.0000001000
44
0.0000000001
12
-0.6960894552
22
-0.0010294625
32
0.0000000000
13
-0.6960897451
23
-0.0008100034
33
0.0000000000
40
0.0000000000
40
0.0000000000
40
0.0000000000
40
0.0000000000
40
0.4966383001
40
1.0000000000
40
1.0000000000
40
1.0000000000
40
1.0000000000
10
34.1865629519
20
-32.1425882288
30
0.0000000000
10
34.0713280574
20
-32.1427586523
30
0.0000000000
10
33.8392982099
20
-32.1430824130
30
0.0000000000
10
33.6072683146
20
-32.1433696528
30
0.0000000000
10
33.4904733421
20
-32.1435055610
30
0.0000000000
11
34.1865629519
21
-32.1425882288
31
0.0000000000
11
33.8408582275
21
-32.1430712283
31
0.0000000000
11
33.4904733421
21
-32.1435055610
31
0.0000000000
0
SPLINE
5
2EB
100
AcDbEntity
8
0
100
AcDbSpline
62
7
6
CONTINUOUS
70
0
71
3
72
9
73
5
74
3
42
0.0000001000
43
0.0000001000
44
0.0000000001
12
-0.0193397805
22
0.6697902061
32
0.0000000000
13
-0.0187530788
23
0.6698068908
33
0.0000000000
40
0.0000000000
40
0.0000000000
40
0.0000000000
40
0.0000000000
40
0.5261990017
40
1.0000000000
40
1.0000000000
40
1.0000000000
40
1.0000000000
10
33.4904733421
20
-32.1435055610
30
0.0000000000
10
33.4870811510
20
-32.0260245818
30
0.0000000000
10
33.4806906031
20
-31.8027595585
30
0.0000000000
10
33.4743972136
20
-31.5794917789
30
0.0000000000
10
33.4714354711
20
-31.4737067210
30
0.0000000000
11
33.4904733421
21
-32.1435055610
31
0.0000000000
11
33.4803826529
21
-31.7910601539
31
0.0000000000
11
33.4714354711
21
-31.4737067210
31
0.0000000000
0
SPLINE
5
2EC
100
AcDbEntity
8
0
100
AcDbSpline
62
9
6
CONTINUOUS
70
0
71
3
72
8
73
4
74
2
42
0.0000001000
43
0.0000001000
44
0.0000000001
12
-0.0139846856
22
0.2998903777
32
0.0000000000
13
-0.0130574266
23
0.2999330047
33
0.0000000000
40
0.0000000000
40
0.0000000000
40
0.0000000000
40
0.0000000000
40
1.0000000000
40
1.0000000000
40
1.0000000000
40
1.0000000000
10
28.1602220660
20
-33.8084754861
30
0.0000000000
10
28.1555605042
20
-33.7085120269
30
0.0000000000
10
28.1510573204
20
-33.6085410451
30
0.0000000000
10
28.1467048449
20
-33.5085633769
30
0.0000000000
11
28.1602220660
21
-33.8084754861
31
0.0000000000
11
28.1467048449
21
-33.5085633769
31
0.0000000000
0
SPLINE
5
2ED
100
AcDbEntity
8
0
100
AcDbSpline
62
9
6
CONTINUOUS
70
0
71
3
72
9
73
5
74
3
42
0.0000001000
43
0.0000001000
44
0.0000000001
12
-0.0653481208
22
1.5010659359
32
0.0000000000
13
-0.0458222912
23
1.5017846964
33
0.0000000000
40
0.0000000000
40
0.0000000000
40
0.0000000000
40
0.0000000000
40
0.3998076837
40
1.0000000000
40
1.0000000000
40
1.0000000000
40
1.0000000000
10
28.1467048449
20
-33.5085633769
30
0.0000000000
10
28.1379959513
20
-33.3085174786
30
0.0000000000
10
28.1177224182
20
-32.8080952089
30
0.0000000000
10
28.1008392560
20
-32.3075473631
30
0.0000000000
10
28.0916718603
20
-32.0070941512
30
0.0000000000
11
28.1467048449
21
-33.5085633769
31
0.0000000000
11
28.1223268605
21
-32.9083520687
31
0.0000000000
11
28.0916718603
21
-32.0070941512
31
0.0000000000
0
SPLINE
5
2EE
100
AcDbEntity
8
0
100
AcDbSpline
62
7
6
CONTINUOUS
70
0
71
3
72
9
73
5
74
3
42
0.0000001000
43
0.0000001000
44
0.0000000001
12
0.2289752898
22
-0.0000474062
32
0.0000000000
13
0.1797426605
23
0.1447692423
33
0.0000000000
40
0.0000000000
40
0.0000000000
40
0.0000000000
40
0.0000000000
40
0.6085063546
40
1.0000000000
40
1.0000000000
40
1.0000000000
40
1.0000000000
10
34.1515712882
20
-32.1704365085
30
0.0000000000
10
34.1980155945
20
-32.1704461242
30
0.0000000000
10
34.2752776270
20
-32.1547714773
30
0.0000000000
10
34.3416950754
20
-32.1145393380
30
0.0000000000
10
34.3651511119
20
-32.0956472585
30
0.0000000000
11
34.1515712882
21
-32.1704365085
31
0.0000000000
11
34.2880289376
21
-32.1422767318
31
0.0000000000
11
34.3651511119
21
-32.0956472585
31
0.0000000000
0
SPLINE
5
2EF
100
AcDbEntity
8
0
100
AcDbSpline
62
7
6
CONTINUOUS
70
0
71
3
72
9
73
5
74
3
42
0.0000001000
43
0.0000001000
44
0.0000000001
12
0.6955023195
22
0.0008082958
32
0.0000000000
13
0.6955020310
23
0.0010269267
33
0.0000000000
40
0.0000000000
40
0.0000000000
40
0.0000000000
40
0.0000000000
40
0.5037828750
40
1.0000000000
40
1.0000000000
40
1.0000000000
40
1.0000000000
10
33.4560696728
20
-32.1713499097
30
0.0000000000
10
33.5728637255
20
-32.1712141745
30
0.0000000000
10
33.8046978124
20
-32.1709275798
30
0.0000000000
10
34.0365318514
20
-32.1706044015
30
0.0000000000
10
34.1515718574
20
-32.1704345419
30
0.0000000000
11
33.4560696728
21
-32.1713499097
31
0.0000000000
11
33.8064517990
21
-32.1709161267
31
0.0000000000
11
34.1515718574
21
-32.1704345419
31
0.0000000000
0
SPLINE
5
2F0
100
AcDbEntity
8
0
100
AcDbSpline
62
7
6
CONTINUOUS
70
0
71
3
72
9
73
5
74
3
42
0.0000001000
43
0.0000001000
44
0.0000000001
12
0.0194792332
22
-0.6966668815
32
0.0000000000
13
0.0201101866
23
-0.6966489537
33
0.0000000000
40
0.0000000000
40
0.0000000000
40
0.0000000000
40
0.0000000000
40
0.4940842987
40
1.0000000000
40
1.0000000000
40
1.0000000000
40
1.0000000000
10
33.4362845379
20
-31.4746916664
30
0.0000000000
10
33.4394926657
20
-31.5894290556
30
0.0000000000
10
33.4460330687
20
-31.8216500289
30
0.0000000000
10
33.4526783198
20
-32.0538680283
30
0.0000000000
10
33.4560696728
20
-32.1713499097
30
0.0000000000
11
33.4362845379
21
-31.4746916664
31
0.0000000000
11
33.4459812820
21
-31.8189018031
31
0.0000000000
11
33.4560696728
21
-32.1713499097
31
0.0000000000
0
SPLINE
5
2F1
100
AcDbEntity
8
0
100
AcDbSpline
62
9
6
CONTINUOUS
70
0
71
3
72
11
73
7
74
5
42
0.0000001000
43
0.0000001000
44
0.0000000001
12
20.3925401600
22
0.0004098082
32
0.0000000000
13
20.3825547328
23
0.6380884811
33
0.0000000000
40
0.0000000000
40
0.0000000000
40
0.0000000000
40
0.0000000000
40
0.5592533071
40
0.8377952440
40
0.9762809001
40
1.0000000000
40
1.0000000000
40
1.0000000000
40
1.0000000000
10
36.4119632477
20
-1.6575156106
30
0.0000000000
10
40.2134950892
20
-1.6574392151
30
0.0000000000
10
45.9085764054
20
-1.6060643201
30
0.0000000000
10
52.5433121618
20
-1.4602728963
30
0.0000000000
10
55.5380955850
20
-1.3751523353
30
0.0000000000
10
56.6401572916
20
-1.3410573419
30
0.0000000000
10
56.8013092421
20
-1.3360123804
30
0.0000000000
11
36.4119632477
21
-1.6575156106
31
0.0000000000
11
47.8161069040
21
-1.5559942027
31
0.0000000000
11
53.4949137227
21
-1.4312100690
31
0.0000000000
11
56.3178478590
21
-1.3509695177
31
0.0000000000
11
56.8013092421
21
-1.3360123804
31
0.0000000000
0
SPLINE
5
2F2
100
AcDbEntity
8
0
100
AcDbSpline
62
7
6
CONTINUOUS
70
0
71
3
72
10
73
6
74
4
42
0.0000001000
43
0.0000001000
44
0.0000000001
12
0.8308079365
22
2.8632790234
32
0.0000000000
13
0.8387845965
23
2.8609524627
33
0.0000000000
40
0.0000000000
40
0.0000000000
40
0.0000000000
40
0.0000000000
40
0.3328081271
40
0.6661481715
40
1.0000000000
40
1.0000000000
40
1.0000000000
40
1.0000000000
10
24.5721978887
20
-33.7806238735
30
0.0000000000
10
24.6643644331
20
-33.4629830304
30
0.0000000000
10
24.8491417619
20
-32.8272797818
30
0.0000000000
10
25.1274112703
20
-31.8732412536
30
0.0000000000
10
25.3136607470
20
-31.2368869516
30
0.0000000000
10
25.4070040041
20
-30.9185088813
30
0.0000000000
11
24.5721978887
21
-33.7806238735
31
0.0000000000
11
24.8491418306
21
-32.8278303770
31
0.0000000000
11
25.1274162106
21
-31.8737725619
31
0.0000000000
11
25.4070040041
21
-30.9185088813
31
0.0000000000
0
SPLINE
5
2F3
100
AcDbEntity
8
0
100
AcDbSpline
62
7
6
CONTINUOUS
70
0
71
3
72
10
73
6
74
4
42
0.0000001000
43
0.0000001000
44
0.0000000001
12
1.3392487964
22
0.0009972377
32
0.0000000000
13
1.3392480317
23
0.0017443374
33
0.0000000000
40
0.0000000000
40
0.0000000000
40
0.0000000000
40
0.0000000000
40
0.3396987889
40
0.6730323163
40
1.0000000000
40
1.0000000000
40
1.0000000000
40
1.0000000000
10
32.8577060699
20
-30.9452354318
30
0.0000000000
10
33.0093531346
20
-30.9451225117
30
0.0000000000
10
33.3098056908
20
-30.9448749768
30
0.0000000000
10
33.7562218585
20
-30.9444279550
30
0.0000000000
10
34.0509909329
20
-30.9440757166
30
0.0000000000
10
34.1969545419
20
-30.9438856027
30
0.0000000000
11
32.8577060699
21
-30.9452354318
31
0.0000000000
11
33.3126472344
21
-30.9448590511
31
0.0000000000
11
33.7590636583
21
-30.9444105656
31
0.0000000000
11
34.1969545419
21
-30.9438856027
31
0.0000000000
0
SPLINE
5
2F4
100
AcDbEntity
8
0
100
AcDbSpline
62
7
6
CONTINUOUS
70
0
71
3
72
8
73
4
74
2
42
0.0000001000
43
0.0000001000
44
0.0000000001
12
-0.0700295339
22
0.2219643679
32
0.0000000000
13
-0.0699519871
23
0.2219888232
33
0.0000000000
40
0.0000000000
40
0.0000000000
40
0.0000000000
40
0.0000000000
40
1.0000000000
40
1.0000000000
40
1.0000000000
40
1.0000000000
10
28.3642739191
20
-32.7358846899
30
0.0000000000
10
28.3409307412
20
-32.6618965673
30
0.0000000000
10
28.3176006957
20
-32.5879043004
30
0.0000000000
10
28.2942833667
20
-32.5139080260
30
0.0000000000
11
28.3642739191
21
-32.7358846899
31
0.0000000000
11
28.2942833667
21
-32.5139080260
31
0.0000000000
0
SPLINE
5
2F5
100
AcDbEntity
8
0
100
AcDbSpline
62
7
6
CONTINUOUS
70
0
71
3
72
9
73
5
74
3
42
0.0000001000
43
0.0000001000
44
0.0000000001
12
-0.1699412828
22
0.5392994104
32
0.0000000000
13
-0.1695062240
23
0.5394362976
33
0.0000000000
40
0.0000000000
40
0.0000000000
40
0.0000000000
40
0.0000000000
40
0.2499675280
40
1.0000000000
40
1.0000000000
40
1.0000000000
40
1.0000000000
10
28.2942833667
20
-32.5139080260
30
0.0000000000
10
28.2801234325
20
-32.4689722458
30
0.0000000000
10
28.2234950989
20
-32.2891998634
30
0.0000000000
10
28.1669403263
20
-32.1094043188
30
0.0000000000
10
28.1245619356
20
-31.9745394055
30
0.0000000000
11
28.2942833667
21
-32.5139080260
31
0.0000000000
11
28.2518175397
21
-32.3790962824
31
0.0000000000
11
28.1245619356
21
-31.9745394055
31
0.0000000000
0
SPLINE
5
2F6
100
AcDbEntity
8
0
100
AcDbSpline
62
7
6
CONTINUOUS
70
0
71
3
72
8
73
4
74
2
42
0.0000001000
43
0.0000001000
44
0.0000000001
12
-0.0622246361
22
0.1777916273
32
0.0000000000
13
-0.0621745921
23
0.1778091406
33
0.0000000000
40
0.0000000000
40
0.0000000000
40
0.0000000000
40
0.0000000000
40
1.0000000000
40
1.0000000000
40
1.0000000000
40
1.0000000000
10
24.2454204017
20
-32.8491964752
30
0.0000000000
10
24.2246788563
20
-32.7899325994
30
0.0000000000
10
24.2039456529
20
-32.7306658027
30
0.0000000000
10
24.1832207889
20
-32.6713960892
30
0.0000000000
11
24.2454204017
21
-32.8491964752
31
0.0000000000
11
24.1832207889
21
-32.6713960892
31
0.0000000000
0
SPLINE
5
2F7
100
AcDbEntity
8
0
100
AcDbSpline
62
7
6
CONTINUOUS
70
0
71
3
72
10
73
6
74
4
42
0.0000001000
43
0.0000001000
44
0.0000000001
12
-0.6126369498
22
1.7520412424
32
0.0000000000
13
-0.6077865248
23
1.7537296823
33
0.0000000000
40
0.0000000000
40
0.0000000000
40
0.0000000000
40
0.0000000000
40
0.2498678210
40
0.6248383645
40
1.0000000000
40
1.0000000000
40
1.0000000000
40
1.0000000000
10
24.1832207889
20
-32.6713960892
30
0.0000000000
10
24.1321947023
20
-32.5254698466
30
0.0000000000
10
24.0047214253
20
-32.1605114367
30
0.0000000000
10
23.8012169490
20
-31.5762505812
30
0.0000000000
10
23.6490163752
20
-31.1378195799
30
0.0000000000
10
23.5730103129
20
-30.9185088813
30
0.0000000000
11
24.1832207889
21
-32.6713960892
31
0.0000000000
11
24.0302941445
21
-32.2335643786
31
0.0000000000
11
23.8013694497
21
-31.5763227157
31
0.0000000000
11
23.5730103129
21
-30.9185088813
31
0.0000000000
0
SPLINE
5
2F8
100
AcDbEntity
8
0
100
AcDbSpline
62
7
6
CONTINUOUS
70
0
71
3
72
10
73
6
74
4
42
0.0000001000
43
0.0000001000
44
0.0000000001
12
0.0327166753
22
-1.1050979603
32
0.0000000000
13
0.0346229267
23
-1.1050398796
33
0.0000000000
40
0.0000000000
40
0.0000000000
40
0.0000000000
40
0.0000000000
40
0.3260205232
40
0.6593595582
40
1.0000000000
40
1.0000000000
40
1.0000000000
40
1.0000000000
10
33.4795029306
20
-32.7006048795
30
0.0000000000
10
33.4830583665
20
-32.8206997513
30
0.0000000000
10
33.4903187861
20
-33.0635833268
30
0.0000000000
10
33.5015415557
20
-33.4319398042
30
0.0000000000
10
33.5092488578
20
-33.6802001043
30
0.0000000000
10
33.5131801808
20
-33.8056738619
30
0.0000000000
11
33.4795029306
21
-32.7006048795
31
0.0000000000
11
33.4902722854
21
-33.0608864292
31
0.0000000000
11
33.5014946877
21
-33.4292492060
31
0.0000000000
11
33.5131801808
21
-33.8056738619
31
0.0000000000
0
SPLINE
5
2F9
100
AcDbEntity
8
0
100
AcDbSpline
62
7
6
CONTINUOUS
70
0
71
3
72
9
73
5
74
3
42
0.0000001000
43
0.0000001000
44
0.0000000001
12
-0.3317101039
22
1.0557576077
32
0.0000000000
13
-0.3299650649
23
1.0563043004
33
0.0000000000
40
0.0000000000
40
0.0000000000
40
0.0000000000
40
0.0000000000
40
0.5031750146
40
1.0000000000
40
1.0000000000
40
1.0000000000
40
1.0000000000
10
28.1245619356
20
-31.9745394055
30
0.0000000000
10
28.0689258568
20
-31.7974624556
30
0.0000000000
10
27.9585011357
20
-31.4454975799
30
0.0000000000
10
27.8483669942
20
-31.0934416708
30
0.0000000000
10
27.7937220314
20
-30.9185088813
30
0.0000000000
11
28.1245619356
21
-31.9745394055
31
0.0000000000
11
27.9578735059
21
-31.4432395444
31
0.0000000000
11
27.7937220314
21
-30.9185088813
31
0.0000000000
0
SPLINE
5
2FA
100
AcDbEntity
8
0
100
AcDbSpline
62
7
6
CONTINUOUS
70
0
71
3
72
9
73
5
74
3
42
0.0000001000
43
0.0000001000
44
0.0000000001
12
-0.0829926877
22
-0.0803771872
32
0.0000000000
13
-0.0829877276
23
-0.0803823084
33
0.0000000000
40
0.0000000000
40
0.0000000000
40
0.0000000000
40
0.0000000000
40
0.5000770402
40
1.0000000000
40
1.0000000000
40
1.0000000000
40
1.0000000000
10
-59.3128889705
20
41.0849302061
30
0.0000000000
10
-59.3267232163
20
41.0715319442
30
0.0000000000
10
-59.3543870332
20
41.0447391227
30
0.0000000000
10
-59.3820500234
20
41.0179454476
30
0.0000000000
10
-59.3958791802
20
41.0045504604
30
0.0000000000
11
-59.3128889705
21
41.0849302061
31
0.0000000000
11
-59.3543910889
21
41.0447347810
31
0.0000000000
11
-59.3958791802
21
41.0045504604
31
0.0000000000
0
SPLINE
5
2FB
100
AcDbEntity
8
0
100
AcDbSpline
62
9
6
CONTINUOUS
70
0
71
3
72
9
73
5
74
3
42
0.0000001000
43
0.0000001000
44
0.0000000001
12
-0.0519961284
22
2.6846711691
32
0.0000000000
13
-0.0751223017
23
2.6841236043
33
0.0000000000
40
0.0000000000
40
0.0000000000
40
0.0000000000
40
0.0000000000
40
0.5010004850
40
1.0000000000
40
1.0000000000
40
1.0000000000
40
1.0000000000
10
28.1273191331
20
-31.9833095190
30
0.0000000000
10
28.1186357713
20
-31.5349689997
30
0.0000000000
10
28.0978587648
20
-30.6401451255
30
0.0000000000
10
28.0732195612
20
-29.7454258386
30
0.0000000000
10
28.0607242305
20
-29.2989670463
30
0.0000000000
11
28.1273191331
21
-31.9833095190
31
0.0000000000
11
28.0968477734
21
-30.6383808614
31
0.0000000000
11
28.0607242305
21
-29.2989670463
31
0.0000000000
0
SPLINE
5
2FC
100
AcDbEntity
8
0
100
AcDbSpline
62
7
6
CONTINUOUS
70
0
71
3
72
11
73
7
74
5
42
0.0000001000
43
0.0000001000
44
0.0000000001
12
-0.0495447168
22
2.0301334737
32
0.0000000000
13
1.5835565176
23
1.2812200597
33
0.0000000000
40
0.0000000000
40
0.0000000000
40
0.0000000000
40
0.0000000000
40
0.2920590058
40
0.5821349475
40
0.8708166348
40
1.0000000000
40
1.0000000000
40
1.0000000000
40
1.0000000000
10
-37.8649250778
20
20.3541610579
30
0.0000000000
10
-37.8697484047
20
20.5518006459
30
0.0000000000
10
-37.8278723678
20
20.9489933629
30
0.0000000000
10
-37.6127175108
20
21.5049386535
30
0.0000000000
10
-37.3247356844
20
21.8952111170
30
0.0000000000
10
-37.1148503446
20
22.0868931190
30
0.0000000000
10
-37.0466606246
20
22.1420638920
30
0.0000000000
11
-37.8649250778
21
20.3541610579
31
0.0000000000
11
-37.8020673882
21
20.9439160510
31
0.0000000000
11
-37.5891524294
21
21.4931597037
31
0.0000000000
11
-37.2408091453
21
21.9646791711
31
0.0000000000
11
-37.0466606246
21
22.1420638920
31
0.0000000000
0
SPLINE
5
2FD
100
AcDbEntity
8
0
100
AcDbSpline
62
7
6
CONTINUOUS
70
0
71
3
72
10
73
6
74
4
42
0.0000001000
43
0.0000001000
44
0.0000000001
12
0.6441544447
22
-1.1731970471
32
0.0000000000
13
0.6469450944
23
-1.1716604904
33
0.0000000000
40
0.0000000000
40
0.0000000000
40
0.0000000000
40
0.0000000000
40
0.3309455230
40
0.6642810089
40
1.0000000000
40
1.0000000000
40
1.0000000000
40
1.0000000000
10
34.5858224676
20
-32.6301724913
30
0.0000000000
10
34.6568824775
20
-32.7595939281
30
0.0000000000
10
34.7996200558
20
-33.0193141335
30
0.0000000000
10
35.0148066015
20
-33.4101223209
30
0.0000000000
10
35.1589849093
20
-33.6714803313
30
0.0000000000
10
35.2313821608
20
-33.8025965573
30
0.0000000000
11
34.5858224676
21
-32.6301724913
31
0.0000000000
11
34.7991578299
21
-33.0183514744
31
0.0000000000
11
35.0143450320
21
-33.4091625409
31
0.0000000000
11
35.2313821608
21
-33.8025965573
31
0.0000000000
0
SPLINE
5
2FE
100
AcDbEntity
8
0
100
AcDbSpline
62
7
6
CONTINUOUS
70
0
71
3
72
13
73
9
74
7
42
0.0000001000
43
0.0000001000
44
0.0000000001
12
-3.3876288290
22
0.0000000000
32
0.0000000000
13
-0.3763054530
23
3.3752776703
33
0.0000000000
40
0.0000000000
40
0.0000000000
40
0.0000000000
40
0.0000000000
40
0.1751975117
40
0.3513849154
40
0.5282975433
40
0.7054709297
40
0.8823732470
40
1.0000000000
40
1.0000000000
40
1.0000000000
40
1.0000000000
10
-34.4712610905
20
-25.8913577524
30
0.0000000000
10
-34.6690958043
20
-25.8913577524
30
0.0000000000
10
-35.0677686886
20
-25.8384848176
30
0.0000000000
10
-35.6249136440
20
-25.6080672944
30
0.0000000000
10
-36.1074182536
20
-25.2424080629
30
0.0000000000
10
-36.4824317802
20
-24.7661514762
30
0.0000000000
10
-36.6980604536
20
-24.2730044197
30
0.0000000000
10
-36.7636846444
20
-23.9441906311
30
0.0000000000
10
-36.7784391739
20
-23.8118496468
30
0.0000000000
11
-34.4712610905
21
-25.8913577524
31
0.0000000000
11
-35.0596599121
21
-25.8136789738
31
0.0000000000
11
-35.6114289113
21
-25.5861050731
31
0.0000000000
11
-36.0891791538
21
-25.2242593074
31
0.0000000000
11
-36.4605369823
21
-24.7527398400
31
0.0000000000
11
-36.7002601502
21
-24.2034961874
31
0.0000000000
11
-36.7784391739
21
-23.8118496468
31
0.0000000000
0
SPLINE
5
2FF
100
AcDbEntity
8
0
100
AcDbSpline
62
7
6
CONTINUOUS
70
0
71
3
72
8
73
4
74
2
42
0.0000001000
43
0.0000001000
44
0.0000000001
12
-0.0220339493
22
0.1976338541
32
0.0000000000
13
-0.0048393955
23
0.1982980128
33
0.0000000000
40
0.0000000000
40
0.0000000000
40
0.0000000000
40
0.0000000000
40
1.0000000000
40
1.0000000000
40
1.0000000000
40
1.0000000000
10
-36.7784391739
20
-23.8118496468
30
0.0000000000
10
-36.7857838237
20
-23.7459716955
30
0.0000000000
10
-36.7902902479
20
-23.6798405319
30
0.0000000000
10
-36.7919033797
20
-23.6137411942
30
0.0000000000
11
-36.7784391739
21
-23.8118496468
31
0.0000000000
11
-36.7919033797
21
-23.6137411942
31
0.0000000000
0
SPLINE
5
300
100
AcDbEntity
8
0
100
AcDbSpline
62
9
6
CONTINUOUS
70
0
71
3
72
13
73
9
74
7
42
0.0000001000
43
0.0000001000
44
0.0000000001
12
-0.1431066636
22
-1.5043224741
32
0.0000000000
13
1.5290706612
23
-0.2675106019
33
0.0000000000
40
0.0000000000
40
0.0000000000
40
0.0000000000
40
0.0000000000
40
0.2308455870
40
0.4730785084
40
0.6951799889
40
0.8686750079
40
0.9734433046
40
1.0000000000
40
1.0000000000
40
1.0000000000
40
1.0000000000
10
-35.8319112583
20
24.1025050719
30
0.0000000000
10
-35.8429231056
20
23.9867496703
30
0.0000000000
10
-35.8560459013
20
23.7483815365
30
0.0000000000
10
-35.8507249643
20
23.3988201620
30
0.0000000000
10
-35.8351520400
20
23.0756291927
30
0.0000000000
10
-35.7768569266
20
22.8325013394
30
0.0000000000
10
-35.7652116337
20
22.6737812545
30
0.0000000000
10
-35.6923331281
20
22.6291089169
30
0.0000000000
10
-35.6787974402
20
22.6267408511
30
0.0000000000
11
-35.8319112583
21
24.1025050719
31
0.0000000000
11
-35.8517431784
21
23.7542352643
31
0.0000000000
11
-35.8484527735
21
23.3882084866
31
0.0000000000
11
-35.8224821229
21
23.0535941482
31
0.0000000000
11
-35.7773199851
21
22.7953425506
31
0.0000000000
11
-35.7190332001
21
22.6481458331
31
0.0000000000
11
-35.6787974402
21
22.6267408511
31
0.0000000000
0
SPLINE
5
301
100
AcDbEntity
8
0
100
AcDbSpline
62
9
6
CONTINUOUS
70
0
71
3
72
13
73
9
74
7
42
0.0000001000
43
0.0000001000
44
0.0000000001
12
1.7146140911
22
-0.2076321524
32
0.0000000000
13
1.3425297986
23
1.0865663035
33
0.0000000000
40
0.0000000000
40
0.0000000000
40
0.0000000000
40
0.0000000000
40
0.1720035234
40
0.3769817152
40
0.5880270083
40
0.7773597972
40
0.9203621509
40
1.0000000000
40
1.0000000000
40
1.0000000000
40
1.0000000000
10
-39.5761455208
20
20.2425748350
30
0.0000000000
10
-39.4778389658
20
20.2306703478
30
0.0000000000
10
-39.2610373382
20
20.2163664570
30
0.0000000000
10
-38.9222752023
20
20.2126817843
30
0.0000000000
10
-38.5744536384
20
20.2263713080
30
0.0000000000
10
-38.2608539040
20
20.2528791664
30
0.0000000000
10
-38.0308549788
20
20.2938938303
30
0.0000000000
10
-37.9005638063
20
20.3253171234
30
0.0000000000
10
-37.8649250778
20
20.3541610579
30
0.0000000000
11
-39.5761455208
21
20.2425748350
31
0.0000000000
11
-39.2799224560
21
20.2201036085
31
0.0000000000
11
-38.9259246049
21
20.2156365370
31
0.0000000000
11
-38.5616940846
21
20.2297735158
31
0.0000000000
11
-38.2361475985
21
20.2606159274
31
0.0000000000
11
-37.9930065264
21
20.3040215899
31
0.0000000000
11
-37.8649250778
21
20.3541610579
31
0.0000000000
0
SPLINE
5
302
100
AcDbEntity
8
0
100
AcDbSpline
62
9
6
CONTINUOUS
70
0
71
3
72
13
73
9
74
7
42
0.0000001000
43
0.0000001000
44
0.0000000001
12
1.7196944531
22
-0.2123638018
32
0.0000000000
13
1.3468960966
23
1.0901001336
33
0.0000000000
40
0.0000000000
40
0.0000000000
40
0.0000000000
40
0.0000000000
40
0.1711512984
40
0.3758745441
40
0.5871047943
40
0.7768337376
40
0.9202059437
40
1.0000000000
40
1.0000000000
40
1.0000000000
40
1.0000000000
10
-38.5087092496
20
-23.7246443909
30
0.0000000000
10
-38.4105999368
20
-23.7367598377
30
0.0000000000
10
-38.1937414253
20
-23.7513381545
30
0.0000000000
10
-37.8544142891
20
-23.7553136487
30
0.0000000000
10
-37.5052662829
20
-23.7417850790
30
0.0000000000
10
-37.1900714804
20
-23.7153322172
30
0.0000000000
10
-36.9588080848
20
-23.6742029918
30
0.0000000000
10
-36.8277281474
20
-23.6427356981
30
0.0000000000
10
-36.7919033797
20
-23.6137411942
30
0.0000000000
11
-38.5087092496
21
-23.7246443909
31
0.0000000000
11
-38.2130308269
21
-23.7475411628
31
0.0000000000
11
-37.8583275720
21
-23.7523367134
31
0.0000000000
11
-37.4925829406
21
-23.7383825450
31
0.0000000000
11
-37.1652762313
21
-23.7075664296
31
0.0000000000
11
-36.9206867169
21
-23.6640572863
31
0.0000000000
11
-36.7919033797
21
-23.6137411942
31
0.0000000000
0
SPLINE
5
303
100
AcDbEntity
8
0
100
AcDbSpline
62
9
6
CONTINUOUS
70
0
71
3
72
13
73
9
74
7
42
0.0000001000
43
0.0000001000
44
0.0000000001
12
-0.2903279303
22
1.6921319865
32
0.0000000000
13
1.3345373589
23
1.0800976830
33
0.0000000000
40
0.0000000000
40
0.0000000000
40
0.0000000000
40
0.0000000000
40
0.1779101088
40
0.3859966371
40
0.5973052214
40
0.7843989610
40
0.9235517392
40
1.0000000000
40
1.0000000000
40
1.0000000000
40
1.0000000000
10
-34.5706168116
20
-27.5844739933
30
0.0000000000
10
-34.5878342362
20
-27.4841248647
30
0.0000000000
10
-34.6113233640
20
-27.2641364380
30
0.0000000000
10
-34.6243373077
20
-26.9221339756
30
0.0000000000
10
-34.6159217208
20
-26.5758700269
30
0.0000000000
10
-34.5893567851
20
-26.2662188834
30
0.0000000000
10
-34.5452606164
20
-26.0461190027
30
0.0000000000
10
-34.5052687771
20
-25.9188816155
30
0.0000000000
10
-34.4712610905
20
-25.8913577524
30
0.0000000000
11
-34.5706168116
21
-27.5844739933
31
0.0000000000
11
-34.6062836385
21
-27.2811171682
31
0.0000000000
11
-34.6205850480
21
-26.9241485405
31
0.0000000000
11
-34.6116022969
21
-26.5614729586
31
0.0000000000
11
-34.5805409559
21
-26.2417649417
31
0.0000000000
11
-34.5315697531
21
-26.0079323524
31
0.0000000000
11
-34.4712610905
21
-25.8913577524
31
0.0000000000
0
SPLINE
5
304
100
AcDbEntity
8
0
100
AcDbSpline
62
9
6
CONTINUOUS
70
0
71
3
72
13
73
9
74
7
42
0.0000001000
43
0.0000001000
44
0.0000000001
12
-0.2903279303
22
1.6921319863
32
0.0000000000
13
1.3345373587
23
1.0800976828
33
0.0000000000
40
0.0000000000
40
0.0000000000
40
0.0000000000
40
0.0000000000
40
0.1779100056
40
0.3859965475
40
0.5973051576
40
0.7843989263
40
0.9235517279
40
1.0000000000
40
1.0000000000
40
1.0000000000
40
1.0000000000
10
31.3130218649
20
-27.5844739933
30
0.0000000000
10
31.2958044503
20
-27.4841249229
30
0.0000000000
10
31.2723153211
20
-27.2641365484
30
0.0000000000
10
31.2593013692
20
-26.9221341227
30
0.0000000000
10
31.2677169492
20
-26.5758701349
30
0.0000000000
10
31.2942818820
20
-26.2662189453
30
0.0000000000
10
31.3383780535
20
-26.0461190299
30
0.0000000000
10
31.3783698944
20
-25.9188816195
30
0.0000000000
10
31.4123775861
20
-25.8913577524
30
0.0000000000
11
31.3130218649
21
-27.5844739933
31
0.0000000000
11
31.2773550514
21
-27.2811173450
31
0.0000000000
11
31.2630536297
21
-26.9241486946
31
0.0000000000
11
31.2720363732
21
-26.5614730682
31
0.0000000000
11
31.3030977121
21
-26.2417650010
31
0.0000000000
11
31.3520689176
21
-26.0079323712
31
0.0000000000
11
31.4123775861
21
-25.8913577524
31
0.0000000000
0
SPLINE
5
305
100
AcDbEntity
8
0
100
AcDbSpline
62
9
6
CONTINUOUS
70
0
71
3
72
13
73
9
74
7
42
0.0000001000
43
0.0000001000
44
0.0000000001
12
-1.4665523740
22
-0.1387596478
32
0.0000000000
13
-0.2596212546
23
1.6068289052
33
0.0000000000
40
0.0000000000
40
0.0000000000
40
0.0000000000
40
0.0000000000
40
0.2396323887
40
0.4884848432
40
0.7135579306
40
0.8853309170
40
0.9829560735
40
1.0000000000
40
1.0000000000
40
1.0000000000
40
1.0000000000
10
35.0645992866
20
-23.7246443909
30
0.0000000000
10
34.9474548038
20
-23.7357281595
30
0.0000000000
10
34.7074420984
20
-23.7514248158
30
0.0000000000
10
34.3590715277
20
-23.7525784008
30
0.0000000000
10
34.0355484181
20
-23.7522380204
30
0.0000000000
10
33.8098038521
20
-23.6984154719
30
0.0000000000
10
33.6461206913
20
-23.7122769475
30
0.0000000000
10
33.6167724263
20
-23.6459197848
30
0.0000000000
10
33.6152974378
20
-23.6367908935
30
0.0000000000
11
35.0645992866
21
-23.7246443909
31
0.0000000000
11
34.7123396440
21
-23.7475411646
31
0.0000000000
11
34.3457859129
21
-23.7523367129
31
0.0000000000
11
34.0145240260
21
-23.7383825433
31
0.0000000000
11
33.7633683252
21
-23.7075664277
31
0.0000000000
11
33.6262960892
21
-23.6640572851
31
0.0000000000
11
33.6152974378
21
-23.6367908935
31
0.0000000000
0
SPLINE
5
306
100
AcDbEntity
8
0
100
AcDbSpline
62
9
6
CONTINUOUS
70
0
71
3
72
13
73
9
74
7
42
0.0000001000
43
0.0000001000
44
0.0000000001
12
-1.4595853801
22
-0.1360400853
32
0.0000000000
13
-0.2537550033
23
1.6008802490
33
0.0000000000
40
0.0000000000
40
0.0000000000
40
0.0000000000
40
0.0000000000
40
0.2404443021
40
0.4894797187
40
0.7143222569
40
0.8857042233
40
0.9830115212
40
1.0000000000
40
1.0000000000
40
1.0000000000
40
1.0000000000
10
33.9843043069
20
20.2425748350
30
0.0000000000
10
33.8673213109
20
20.2316714806
30
0.0000000000
10
33.6279727284
20
20.2162603701
30
0.0000000000
10
33.2809632097
20
20.2153774842
30
0.0000000000
10
32.9591422954
20
20.2160046287
30
0.0000000000
10
32.7351973325
20
20.2695430266
30
0.0000000000
10
32.5723870986
20
20.2562039897
30
0.0000000000
10
32.5436665770
20
20.3220129823
30
0.0000000000
10
32.5422296065
20
20.3310784890
30
0.0000000000
11
33.9843043069
21
20.2425748350
31
0.0000000000
11
33.6325512915
21
20.2201035950
31
0.0000000000
11
33.2675147535
21
20.2156365409
31
0.0000000000
11
32.9382188192
21
20.2297735293
31
0.0000000000
11
32.6888884079
21
20.2606159423
31
0.0000000000
11
32.5530089534
21
20.3040215993
31
0.0000000000
11
32.5422296065
21
20.3310784890
31
0.0000000000
0
SPLINE
5
307
100
AcDbEntity
8
0
100
AcDbSpline
62
9
6
CONTINUOUS
70
0
71
3
72
13
73
9
74
7
42
0.0000001000
43
0.0000001000
44
0.0000000001
12
-0.1431066637
22
-1.5043224757
32
0.0000000000
13
1.5290706957
23
-0.2675105725
33
0.0000000000
40
0.0000000000
40
0.0000000000
40
0.0000000000
40
0.0000000000
40
0.2308456564
40
0.4730785626
40
0.6951800231
40
0.8686750233
40
0.9734433076
40
1.0000000000
40
1.0000000000
40
1.0000000000
40
1.0000000000
10
30.0517274182
20
24.1025050719
30
0.0000000000
10
30.0407155676
20
23.9867496354
30
0.0000000000
10
30.0275927731
20
23.7483814736
30
0.0000000000
10
30.0329137155
20
23.3988200820
30
0.0000000000
10
30.0484866436
20
23.0756291391
30
0.0000000000
10
30.1067817541
20
22.8325013135
30
0.0000000000
10
30.1184270514
20
22.6737812430
30
0.0000000000
10
30.1913055495
20
22.6291089162
30
0.0000000000
10
30.2048412362
20
22.6267408508
30
0.0000000000
11
30.0517274182
21
24.1025050719
31
0.0000000000
11
30.0318954957
21
23.7542351590
31
0.0000000000
11
30.0351859065
21
23.3882084040
31
0.0000000000
11
30.0611565599
21
23.0535940957
31
0.0000000000
11
30.1063186976
21
22.7953425267
31
0.0000000000
11
30.1646054800
21
22.6481458283
31
0.0000000000
11
30.2048412362
21
22.6267408508
31
0.0000000000
0
SPLINE
5
308
100
AcDbEntity
8
0
100
AcDbSpline
62
9
6
CONTINUOUS
70
0
71
3
72
10
73
6
74
4
42
0.0000001000
43
0.0000001000
44
0.0000000001
12
1.8782662173
22
0.1732913845
32
0.0000000000
13
1.8862432611
23
-0.0004969508
33
0.0000000000
40
0.0000000000
40
0.0000000000
40
0.0000000000
40
0.0000000000
40
0.3205839372
40
0.6588910025
40
1.0000000000
40
1.0000000000
40
1.0000000000
40
1.0000000000
10
33.9843042956
20
20.2425748378
30
0.0000000000
10
34.1850182887
20
20.2610929826
30
0.0000000000
10
34.5982674567
20
20.2915139046
30
0.0000000000
10
35.2265030089
20
20.3187005339
30
0.0000000000
10
35.6537112932
20
20.3249737462
30
0.0000000000
10
35.8681828091
20
20.3249172415
30
0.0000000000
11
33.9843042956
21
20.2425748378
31
0.0000000000
11
34.5873149529
21
20.2877346145
31
0.0000000000
11
35.2248357037
21
20.3156000039
31
0.0000000000
11
35.8681828091
21
20.3249172415
31
0.0000000000
0
SPLINE
5
309
100
AcDbEntity
8
0
100
AcDbSpline
62
9
6
CONTINUOUS
70
0
71
3
72
15
73
11
74
9
42
0.0000001000
43
0.0000001000
44
0.0000000001
12
0.6153984172
22
-21.9805233433
32
0.0000000000
13
0.4940657140
23
-21.9835852565
33
0.0000000000
40
0.0000000000
40
0.0000000000
40
0.0000000000
40
0.0000000000
40
0.0965351390
40
0.2016341821
40
0.3150796100
40
0.4364678893
40
0.5681298045
40
0.7125122429
40
0.8605318567
40
1.0000000000
40
1.0000000000
40
1.0000000000
40
1.0000000000
10
35.8681828091
20
20.3249172415
30
0.0000000000
10
35.8879853331
20
19.6176196160
30
0.0000000000
10
35.9282209268
20
18.1402460863
30
0.0000000000
10
35.9871911664
20
15.8315555837
30
0.0000000000
10
36.0487723358
20
13.3407074671
30
0.0000000000
10
36.1145350447
20
10.6552051228
30
0.0000000000
10
36.1860339074
20
7.7430158964
30
0.0000000000
10
36.2627622214
20
4.6356962369
30
0.0000000000
10
36.3397733765
20
1.4711488445
30
0.0000000000
10
36.3889938843
20
-0.6354795398
30
0.0000000000
10
36.4119626936
20
-1.6574828125
30
0.0000000000
11
35.8681828091
21
20.3249172415
31
0.0000000000
11
35.9259394936
21
18.2029787871
31
0.0000000000
11
35.9853256568
21
15.8927047296
31
0.0000000000
11
36.0472391498
21
13.3989061811
31
0.0000000000
11
36.1127186731
21
10.7304860146
31
0.0000000000
11
36.1838103859
21
7.8362271769
31
0.0000000000
11
36.2619176544
21
4.6623429798
31
0.0000000000
11
36.3407563311
21
1.4084744530
31
0.0000000000
11
36.4119626936
21
-1.6574828125
31
0.0000000000
0
SPLINE
5
30A
100
AcDbEntity
8
0
100
AcDbSpline
62
9
6
CONTINUOUS
70
0
71
3
72
10
73
6
74
4
42
0.0000001000
43
0.0000001000
44
0.0000000001
12
1.8857207305
22
0.1756138193
32
0.0000000000
13
1.8938803782
23
0.0000055046
33
0.0000000000
40
0.0000000000
40
0.0000000000
40
0.0000000000
40
0.0000000000
40
0.3206457229
40
0.6589919924
40
1.0000000000
40
1.0000000000
40
1.0000000000
40
1.0000000000
10
34.5205124191
20
-1.7412297698
30
0.0000000000
10
34.7220618481
20
-1.7224598298
30
0.0000000000
10
35.1370259956
20
-1.6916016128
30
0.0000000000
10
35.7677904548
20
-1.6639467245
30
0.0000000000
10
36.1966880043
20
-1.6574834693
30
0.0000000000
10
36.4119641291
20
-1.6574828436
30
0.0000000000
11
34.5205124191
21
-1.7412297698
31
0.0000000000
11
35.1260468545
21
-1.6954215379
31
0.0000000000
11
35.7662070263
21
-1.6670772913
31
0.0000000000
11
36.4119641291
21
-1.6574828436
31
0.0000000000
0
SPLINE
5
30B
100
AcDbEntity
8
0
100
AcDbSpline
62
9
6
CONTINUOUS
70
0
71
3
72
33
73
29
74
27
42
0.0000001000
43
0.0000001000
44
0.0000000001
12
0.5362625288
22
-21.9742230386
32
0.0000000000
13
0.5664867325
23
-21.9734646433
33
0.0000000000
40
0.0000000000
40
0.0000000000
40
0.0000000000
40
0.0000000000
40
0.0208738533
40
0.0436539749
40
0.0685514690
40
0.0958739159
40
0.1259099561
40
0.1585672922
40
0.1936461073
40
0.2314076958
40
0.2720743529
40
0.3157396286
40
0.3624004640
40
0.4127808589
40
0.4675789787
40
0.5250240073
40
0.5826598387
40
0.6388659121
40
0.6921519541
40
0.7411263746
40
0.7855423267
40
0.8257476575
40
0.8621390560
40
0.8950919697
40
0.9249756256
40
0.9521633530
40
0.9770348984
40
1.0000000000
40
1.0000000000
40
1.0000000000
40
1.0000000000
10
36.4119641291
20
-1.6574828436
30
0.0000000000
10
36.4156954176
20
-1.8103784131
30
0.0000000000
10
36.4233989460
20
-2.1301349134
30
0.0000000000
10
36.4352394625
20
-2.6322666032
30
0.0000000000
10
36.4479635071
20
-3.1816388831
30
0.0000000000
10
36.4617088014
20
-3.7841652762
30
0.0000000000
10
36.4765604163
20
-4.4435369500
30
0.0000000000
10
36.4925289776
20
-5.1597281621
30
0.0000000000
10
36.5096129227
20
-5.9325130473
30
0.0000000000
10
36.5278621045
20
-6.7639701677
30
0.0000000000
10
36.5473768504
20
-7.6583269804
30
0.0000000000
10
36.5682232244
20
-8.6178743389
30
0.0000000000
10
36.5905506693
20
-9.6485781104
30
0.0000000000
10
36.6145994871
20
-10.7608332074
30
0.0000000000
10
36.6403423761
20
-11.9520850834
30
0.0000000000
10
36.6672770488
20
-13.1964836324
30
0.0000000000
10
36.6945290460
20
-14.4511936922
30
0.0000000000
10
36.7212606872
20
-15.6754352918
30
0.0000000000
10
36.7468114820
20
-16.8362260540
30
0.0000000000
10
36.7707011824
20
-17.9106471326
30
0.0000000000
10
36.7927156240
20
-18.8892448399
30
0.0000000000
10
36.8129348906
20
-19.7756647462
30
0.0000000000
10
36.8315262525
20
-20.5781111030
30
0.0000000000
10
36.8486519315
20
-21.3049449613
30
0.0000000000
10
36.8644691492
20
-21.9643562970
30
0.0000000000
10
36.8791489066
20
-22.5645662666
30
0.0000000000
10
36.8928648451
20
-23.1140928734
30
0.0000000000
10
36.9017959612
20
-23.4644744617
30
0.0000000000
10
36.9061324364
20
-23.6326820781
30
0.0000000000
11
36.4119641291
21
-1.6574828436
31
0.0000000000
11
36.4230251862
21
-2.1161727742
31
0.0000000000
11
36.4348403184
21
-2.6167578716
31
0.0000000000
11
36.4475218357
21
-3.1638769015
31
0.0000000000
11
36.4612278235
21
-3.7642887847
31
0.0000000000
11
36.4761039752
21
-4.4243363257
31
0.0000000000
11
36.4921116445
21
-5.1419910687
31
0.0000000000
11
36.5091588727
21
-5.9128618087
31
0.0000000000
11
36.5273779252
21
-6.7426904568
31
0.0000000000
11
36.5468839780
21
-7.6363618602
31
0.0000000000
11
36.5677367875
21
-8.5959314951
31
0.0000000000
11
36.5899537674
21
-9.6213317255
31
0.0000000000
11
36.6138977209
21
-10.7284724900
31
0.0000000000
11
36.6399301910
21
-11.9326957694
31
0.0000000000
11
36.6672625482
21
-13.1950856212
31
0.0000000000
11
36.6947812008
21
-14.4616664104
31
0.0000000000
11
36.7217649758
21
-15.6968242194
31
0.0000000000
11
36.7475520958
21
-16.8678083134
31
0.0000000000
11
36.7714927039
21
-17.9440373255
31
0.0000000000
11
36.7934630828
21
-18.9200867159
31
0.0000000000
11
36.8136274988
21
-19.8036005923
31
0.0000000000
11
36.8321648292
21
-20.6032965683
31
0.0000000000
11
36.8492354004
21
-21.3274256578
31
0.0000000000
11
36.8649967548
21
-21.9841021689
31
0.0000000000
11
36.8796160025
21
-22.5815303899
31
0.0000000000
11
36.8932635613
21
-23.1280556251
31
0.0000000000
11
36.9061324364
21
-23.6326820781
31
0.0000000000
0
SPLINE
5
30C
100
AcDbEntity
8
0
100
AcDbSpline
62
9
6
CONTINUOUS
70
0
71
3
72
16
73
12
74
10
42
0.0000001000
43
0.0000001000
44
0.0000000001
12
0.1530845621
22
-5.9947320504
32
0.0000000000
13
-5.9966858674
23
0.0024181382
33
0.0000000000
40
0.0000000000
40
0.0000000000
40
0.0000000000
40
0.0000000000
40
0.1076807119
40
0.2265138809
40
0.3498323653
40
0.4618502155
40
0.5616156377
40
0.6572937662
40
0.7623096793
40
0.8798593853
40
1.0000000000
40
1.0000000000
40
1.0000000000
40
1.0000000000
10
35.0645992866
20
-23.7246443909
30
0.0000000000
10
35.0700940382
20
-23.9398167292
30
0.0000000000
10
35.0434901061
20
-24.3943207435
30
0.0000000000
10
34.8779716641
20
-25.0778764195
30
0.0000000000
10
34.5805061068
20
-25.7254883935
30
0.0000000000
10
34.1897619159
20
-26.2739513067
30
0.0000000000
10
33.7519778313
20
-26.7090064090
30
0.0000000000
10
33.2631062759
20
-27.0619051301
30
0.0000000000
10
32.6910760473
20
-27.3472333414
30
0.0000000000
10
32.0295676071
20
-27.5397886288
30
0.0000000000
10
31.5531703737
20
-27.5845708322
30
0.0000000000
10
31.3130218649
20
-27.5844739933
30
0.0000000000
11
35.0645992866
21
-23.7246443909
31
0.0000000000
11
35.0265925116
21
-24.3692523588
31
0.0000000000
11
34.8587058693
21
-25.0617986085
31
0.0000000000
11
34.5499388926
21
-25.7337558727
31
0.0000000000
11
34.1601993510
21
-26.2808685006
31
0.0000000000
11
33.7358092591
21
-26.7025442124
31
0.0000000000
11
33.2705280359
21
-27.0382590146
31
0.0000000000
11
32.7070251694
21
-27.3194109749
31
0.0000000000
11
32.0302651643
21
-27.5166220184
31
0.0000000000
11
31.3130218649
21
-27.5844739933
31
0.0000000000
0
SPLINE
5
30D
100
AcDbEntity
8
0
100
AcDbSpline
62
9
6
CONTINUOUS
70
0
71
3
72
10
73
6
74
4
42
0.0000001000
43
0.0000001000
44
0.0000000001
12
1.8354950378
22
0.1808284501
32
0.0000000000
13
1.8443446367
23
0.0115681959
33
0.0000000000
40
0.0000000000
40
0.0000000000
40
0.0000000000
40
0.0000000000
40
0.3199136730
40
0.6580104460
40
1.0000000000
40
1.0000000000
40
1.0000000000
40
1.0000000000
10
35.0645944807
20
-23.7246432268
30
0.0000000000
10
35.2603278004
20
-23.7053600622
30
0.0000000000
10
35.6636742980
20
-23.6731610958
30
0.0000000000
10
36.2777908484
20
-23.6427814811
30
0.0000000000
10
36.6958815967
20
-23.6340026961
30
0.0000000000
10
36.9061304632
20
-23.6326839620
30
0.0000000000
11
35.0645944807
21
-23.7246432268
31
0.0000000000
11
35.6527053934
21
-23.6769367242
31
0.0000000000
11
36.2755085957
21
-23.6458363276
31
0.0000000000
11
36.9061304632
21
-23.6326839620
31
0.0000000000
0
SPLINE
5
30E
100
AcDbEntity
8
0
100
AcDbSpline
62
9
6
CONTINUOUS
70
0
71
3
72
16
73
12
74
10
42
0.0000001000
43
0.0000001000
44
0.0000000001
12
0.2252587455
22
-8.7525464702
32
0.0000000000
13
-8.7554114607
23
-0.0241115970
33
0.0000000000
40
0.0000000000
40
0.0000000000
40
0.0000000000
40
0.0000000000
40
0.1082712525
40
0.2275245921
40
0.3507059681
40
0.4619060153
40
0.5607315381
40
0.6561487297
40
0.7616120343
40
0.8795976095
40
1.0000000000
40
1.0000000000
40
1.0000000000
40
1.0000000000
10
36.9061304632
20
-23.6326839620
30
0.0000000000
10
36.9142601454
20
-23.9485670184
30
0.0000000000
10
36.8755166062
20
-24.6151201599
30
0.0000000000
10
36.6346862897
20
-25.6158774744
30
0.0000000000
10
36.2047323050
20
-26.5614648017
30
0.0000000000
10
35.6430576450
20
-27.3614634094
30
0.0000000000
10
35.0143233004
20
-27.9985300128
30
0.0000000000
10
34.3083128845
20
-28.5206764683
30
0.0000000000
10
33.4747495218
20
-28.9452589994
30
0.0000000000
10
32.5059971256
20
-29.2295239870
30
0.0000000000
10
31.8085738944
20
-29.2957480540
30
0.0000000000
10
31.4571830712
20
-29.2967157519
30
0.0000000000
11
36.9061304632
21
-23.6326839620
31
0.0000000000
11
36.8507794237
21
-24.5790295838
31
0.0000000000
11
36.6063456554
21
-25.5941307540
31
0.0000000000
11
36.1597475940
21
-26.5758277930
31
0.0000000000
11
35.6002510222
21
-27.3726163195
31
0.0000000000
11
34.9923622739
21
-27.9883667182
31
0.0000000000
11
34.3202636195
21
-28.4845621192
31
0.0000000000
11
33.4973695147
21
-28.9034564472
31
0.0000000000
11
32.5064865742
21
-29.1954725671
31
0.0000000000
11
31.4571830712
21
-29.2967157519
31
0.0000000000
0
SPLINE
5
30F
100
AcDbEntity
8
0
100
AcDbSpline
62
9
6
CONTINUOUS
70
0
71
3
72
10
73
6
74
4
42
0.0000001000
43
0.0000001000
44
0.0000000001
12
0.2868886980
22
-1.6954189238
32
0.0000000000
13
0.0397467246
23
-1.7190609791
33
0.0000000000
40
0.0000000000
40
0.0000000000
40
0.0000000000
40
0.0000000000
40
0.2968077871
40
0.6350045395
40
1.0000000000
40
1.0000000000
40
1.0000000000
40
1.0000000000
10
31.3130218689
20
-27.5844739705
30
0.0000000000
10
31.3414054688
20
-27.7522118168
30
0.0000000000
10
31.3888856342
20
-28.1133302368
30
0.0000000000
10
31.4357470521
20
-28.6847294339
30
0.0000000000
10
31.4523499760
20
-29.0875637331
30
0.0000000000
10
31.4571857673
20
-29.2967135510
30
0.0000000000
11
31.3130218689
21
-27.5844739705
31
0.0000000000
11
31.3819189452
21
-28.0901692517
31
0.0000000000
11
31.4307094185
21
-28.6696551136
31
0.0000000000
11
31.4571857673
21
-29.2967135510
31
0.0000000000
0
SPLINE
5
310
100
AcDbEntity
8
0
100
AcDbSpline
62
9
6
CONTINUOUS
70
0
71
3
72
10
73
6
74
4
42
0.0000001000
43
0.0000001000
44
0.0000000001
12
-3.3975393896
22
-0.0088011241
32
0.0000000000
13
-3.3975467633
23
-0.0052302392
33
0.0000000000
40
0.0000000000
40
0.0000000000
40
0.0000000000
40
0.0000000000
40
0.3592344679
40
0.6914229662
40
1.0000000000
40
1.0000000000
40
1.0000000000
40
1.0000000000
10
31.4571857673
20
-29.2967135510
30
0.0000000000
10
31.0503480157
20
-29.2977674400
30
0.0000000000
10
30.2672993479
20
-29.2985750886
30
0.0000000000
10
29.1347827352
20
-29.2982820195
30
0.0000000000
10
28.4091045291
20
-29.2984313868
30
0.0000000000
10
28.0596362282
20
-29.2989693641
30
0.0000000000
11
31.4571857673
21
-29.2967135510
31
0.0000000000
11
30.2366694932
21
-29.2983339643
31
0.0000000000
11
29.1080421992
21
-29.2983657150
31
0.0000000000
11
28.0596362282
21
-29.2989693641
31
0.0000000000
0
SPLINE
5
311
100
AcDbEntity
8
0
100
AcDbSpline
62
9
6
CONTINUOUS
70
0
71
3
72
10
73
6
74
4
42
0.0000001000
43
0.0000001000
44
0.0000000001
12
0.2927086340
22
-1.6967946338
32
0.0000000000
13
0.0430101876
23
-1.7213194060
33
0.0000000000
40
0.0000000000
40
0.0000000000
40
0.0000000000
40
0.0000000000
40
0.2968076584
40
0.6350120820
40
1.0000000000
40
1.0000000000
40
1.0000000000
40
1.0000000000
10
27.9111539142
20
-27.5847751175
30
0.0000000000
10
27.9401133023
20
-27.7526489981
30
0.0000000000
10
27.9886820378
20
-28.1141314454
30
0.0000000000
10
28.0369642195
20
-28.6861966214
30
0.0000000000
10
28.0544025874
20
-29.0895461534
30
0.0000000000
10
28.0596353204
20
-29.2989664154
30
0.0000000000
11
27.9111539142
21
-27.5847751175
31
0.0000000000
11
27.9816032952
21
-28.0909563681
31
0.0000000000
11
28.0318512245
21
-28.6711240046
31
0.0000000000
11
28.0596353204
21
-29.2989664154
31
0.0000000000
0
SPLINE
5
312
100
AcDbEntity
8
0
100
AcDbSpline
62
9
6
CONTINUOUS
70
0
71
3
72
10
73
6
74
4
42
0.0000001000
43
0.0000001000
44
0.0000000001
12
0.2869899176
22
-1.6974688656
32
0.0000000000
13
0.0483356374
23
-1.7208798414
33
0.0000000000
40
0.0000000000
40
0.0000000000
40
0.0000000000
40
0.0000000000
40
0.2967365091
40
0.6349268940
40
1.0000000000
40
1.0000000000
40
1.0000000000
40
1.0000000000
10
-31.1686454863
20
-27.5847751175
30
0.0000000000
10
-31.1402586909
20
-27.7526754460
30
0.0000000000
10
-31.0926482863
20
-28.1141751271
30
0.0000000000
10
-31.0464034898
20
-28.6862944825
30
0.0000000000
10
-31.0282227652
20
-29.0895507659
30
0.0000000000
10
-31.0223407515
20
-29.2989664154
30
0.0000000000
11
-31.1686454863
21
-27.5847751175
31
0.0000000000
11
-31.0997425538
21
-28.0909562709
31
0.0000000000
11
-31.0509631951
21
-28.6711237862
31
0.0000000000
11
-31.0223407515
21
-29.2989664154
31
0.0000000000
0
SPLINE
5
313
100
AcDbEntity
8
0
100
AcDbSpline
62
9
6
CONTINUOUS
70
0
71
3
72
10
73
6
74
4
42
0.0000001000
43
0.0000001000
44
0.0000000001
12
-3.3958372660
22
0.0052168582
32
0.0000000000
13
-3.3958298739
23
0.0087988682
33
0.0000000000
40
0.0000000000
40
0.0000000000
40
0.0000000000
40
0.0000000000
40
0.3086296929
40
0.6412642389
40
1.0000000000
40
1.0000000000
40
1.0000000000
40
1.0000000000
10
-31.0245193752
20
-29.2989660064
30
0.0000000000
10
-31.3738714461
20
-29.2984293139
30
0.0000000000
10
-32.0997490290
20
-29.2982830549
30
0.0000000000
10
-33.2316958040
20
-29.2985747123
30
0.0000000000
10
-34.0142908613
20
-29.2977657072
30
0.0000000000
10
-34.4203593994
20
-29.2967135509
30
0.0000000000
11
-31.0245193752
21
-29.2989660064
31
0.0000000000
11
-32.0725766527
21
-29.2983657307
31
0.0000000000
11
-33.2021507723
21
-29.2983331549
31
0.0000000000
11
-34.4203593994
21
-29.2967135509
31
0.0000000000
0
SPLINE
5
314
100
AcDbEntity
8
0
100
AcDbSpline
62
9
6
CONTINUOUS
70
0
71
3
72
16
73
12
74
10
42
0.0000001000
43
0.0000001000
44
0.0000000001
12
-6.0899950143
22
-0.0025060768
32
0.0000000000
13
-0.1433862479
23
6.0883073131
33
0.0000000000
40
0.0000000000
40
0.0000000000
40
0.0000000000
40
0.0000000000
40
0.1187059222
40
0.2359257572
40
0.3415190169
40
0.4380163457
40
0.5385435042
40
0.6514289187
40
0.7751746871
40
0.8934161617
40
1.0000000000
40
1.0000000000
40
1.0000000000
40
1.0000000000
10
-34.5706168116
20
-27.5844739933
30
0.0000000000
10
-34.8115896365
20
-27.5845731554
30
0.0000000000
10
-35.2917327652
20
-27.5392649087
30
0.0000000000
10
-35.9616094501
20
-27.3465824717
30
0.0000000000
10
-36.5469154949
20
-27.0612952779
30
0.0000000000
10
-37.0525019371
20
-26.7085018959
30
0.0000000000
10
-37.5107150133
20
-26.2738955210
30
0.0000000000
10
-37.9270873373
20
-25.7264826360
30
0.0000000000
10
-38.2552948736
20
-25.0802215057
30
0.0000000000
10
-38.4542731272
20
-24.3971680182
30
0.0000000000
10
-38.5036150308
20
-23.9409494450
30
0.0000000000
10
-38.5087092496
20
-23.7246443909
30
0.0000000000
11
-34.5706168116
21
-27.5844739933
31
0.0000000000
11
-35.2903563353
21
-27.5167523021
31
0.0000000000
11
-35.9764944336
21
-27.3197182486
31
0.0000000000
11
-36.5546328579
21
-27.0381417664
31
0.0000000000
11
-37.0366867975
21
-26.7020197187
31
0.0000000000
11
-37.4809081599
21
-26.2807497351
31
0.0000000000
11
-37.8969765699
21
-25.7334798061
31
0.0000000000
11
-38.2379830849
21
-25.0614348953
31
0.0000000000
11
-38.4390772532
21
-24.3699937790
31
0.0000000000
11
-38.5087092496
21
-23.7246443909
31
0.0000000000
0
SPLINE
5
315
100
AcDbEntity
8
0
100
AcDbSpline
62
9
6
CONTINUOUS
70
0
71
3
72
10
73
6
74
4
42
0.0000001000
43
0.0000001000
44
0.0000000001
12
0.2947581391
22
-1.6946484477
32
0.0000000000
13
0.0444277953
23
-1.7195179245
33
0.0000000000
40
0.0000000000
40
0.0000000000
40
0.0000000000
40
0.0000000000
40
0.2968850377
40
0.6350755684
40
1.0000000000
40
1.0000000000
40
1.0000000000
40
1.0000000000
10
-34.5706141775
20
-27.5844590111
30
0.0000000000
10
-34.5414444171
20
-27.7521642672
30
0.0000000000
10
-34.4924469340
20
-28.1132497749
30
0.0000000000
10
-34.4435668986
20
-28.6846749803
30
0.0000000000
10
-34.4257666629
20
-29.0875512725
30
0.0000000000
10
-34.4203624003
20
-29.2967159729
30
0.0000000000
11
-34.5706141775
21
-27.5844590111
31
0.0000000000
11
-34.4995575762
21
-28.0901608106
31
0.0000000000
11
-34.4487066769
21
-28.6696527356
31
0.0000000000
11
-34.4203624003
21
-29.2967159729
31
0.0000000000
0
SPLINE
5
316
100
AcDbEntity
8
0
100
AcDbSpline
62
9
6
CONTINUOUS
70
0
71
3
72
16
73
12
74
10
42
0.0000001000
43
0.0000001000
44
0.0000000001
12
-8.8889771090
22
0.0242934146
32
0.0000000000
13
-0.2117177349
23
8.8864886100
33
0.0000000000
40
0.0000000000
40
0.0000000000
40
0.0000000000
40
0.0000000000
40
0.1189732447
40
0.2366405824
40
0.3427155307
40
0.4389892741
40
0.5385575033
40
0.6505687740
40
0.7741359863
40
0.8928029850
40
1.0000000000
40
1.0000000000
40
1.0000000000
40
1.0000000000
10
-34.4203624003
20
-29.2967159729
30
0.0000000000
10
-34.7728792166
20
-29.2957525508
30
0.0000000000
10
-35.4756490702
20
-29.2287616181
30
0.0000000000
10
-36.4564852925
20
-28.9442272683
30
0.0000000000
10
-37.3094931377
20
-28.5197566052
30
0.0000000000
10
-38.0400473421
20
-27.9979262565
30
0.0000000000
10
-38.6982566468
20
-27.3614970953
30
0.0000000000
10
-39.2963316027
20
-26.5628703145
30
0.0000000000
10
-39.7698860639
20
-25.6191135311
30
0.0000000000
10
-40.0588286820
20
-24.6191652463
30
0.0000000000
10
-40.1309221897
20
-23.9502189413
30
0.0000000000
10
-40.1384873594
20
-23.6326839237
30
0.0000000000
11
-34.4203624003
21
-29.2967159729
31
0.0000000000
11
-35.4730779017
21
-29.1956646053
31
0.0000000000
11
-36.4775061964
21
-28.9038989352
31
0.0000000000
11
-37.3219505223
21
-28.4844032166
31
0.0000000000
11
-38.0187455835
21
-27.9875801724
31
0.0000000000
11
-38.6550868386
21
-27.3724327527
31
0.0000000000
11
-39.2518650278
21
-26.5754301007
31
0.0000000000
11
-39.7442956930
21
-25.5936087715
31
0.0000000000
11
-40.0366595048
21
-24.5801028178
31
0.0000000000
11
-40.1384873594
21
-23.6326839237
31
0.0000000000
0
SPLINE
5
317
100
AcDbEntity
8
0
100
AcDbSpline
62
9
6
CONTINUOUS
70
0
71
3
72
10
73
6
74
4
42
0.0000001000
43
0.0000001000
44
0.0000000001
12
-1.6198517273
22
0.2082405968
32
0.0000000000
13
-1.6331494119
23
0.0103326244
33
0.0000000000
40
0.0000000000
40
0.0000000000
40
0.0000000000
40
0.0000000000
40
0.2927291803
40
0.6307582226
40
1.0000000000
40
1.0000000000
40
1.0000000000
40
1.0000000000
10
-38.5087092497
20
-23.7246443909
30
0.0000000000
10
-38.6667685391
20
-23.7043250245
30
0.0000000000
10
-39.0087621679
20
-23.6715384351
30
0.0000000000
10
-39.5524447743
20
-23.6419643664
30
0.0000000000
10
-39.9374758009
20
-23.6339538237
30
0.0000000000
10
-40.1384847981
20
-23.6326820782
30
0.0000000000
11
-38.5087092497
21
-23.7246443909
31
0.0000000000
11
-38.9844029985
21
-23.6769369700
31
0.0000000000
11
-39.5355892058
21
-23.6458355350
31
0.0000000000
11
-40.1384847981
21
-23.6326820782
31
0.0000000000
0
SPLINE
5
318
100
AcDbEntity
8
0
100
AcDbSpline
62
9
6
CONTINUOUS
70
0
71
3
72
32
73
28
74
26
42
0.0000001000
43
0.0000001000
44
0.0000000001
12
-0.5221975262
22
21.9767343681
32
0.0000000000
13
-0.5363366202
23
21.9763938528
33
0.0000000000
40
0.0000000000
40
0.0000000000
40
0.0000000000
40
0.0000000000
40
0.0230460211
40
0.0484881581
40
0.0765361324
40
0.1073812069
40
0.1412071579
40
0.1781947008
40
0.2185327017
40
0.2624246933
40
0.3100884658
40
0.3617590490
40
0.4176680167
40
0.4780235236
40
0.5421433007
40
0.6051112527
40
0.6629637371
40
0.7143463673
40
0.7600804807
40
0.8012315789
40
0.8383669099
40
0.8721257530
40
0.9027981551
40
0.9305718919
40
0.9558186483
40
0.9788797260
40
1.0000000000
40
1.0000000000
40
1.0000000000
40
1.0000000000
10
-40.1384847981
20
-23.6326820782
30
0.0000000000
10
-40.1424963232
20
-23.4638566501
30
0.0000000000
10
-40.1510242059
20
-23.1086549404
30
0.0000000000
10
-40.1647418764
20
-22.5479930388
30
0.0000000000
10
-40.1801309444
20
-21.9302062861
30
0.0000000000
10
-40.1973338671
20
-21.2510121006
30
0.0000000000
10
-40.2164765603
20
-20.5063400994
30
0.0000000000
10
-40.2376914892
20
-19.6921376362
30
0.0000000000
10
-40.2611116313
20
-18.8042072650
30
0.0000000000
10
-40.2868629204
20
-17.8380795824
30
0.0000000000
10
-40.3150719284
20
-16.7889467969
30
0.0000000000
10
-40.3458791897
20
-15.6517959274
30
0.0000000000
10
-40.3794127418
20
-14.4216842810
30
0.0000000000
10
-40.4155882734
20
-13.1003874935
30
0.0000000000
10
-40.4532936760
20
-11.7273874785
30
0.0000000000
10
-40.4905429049
20
-10.3727231140
30
0.0000000000
10
-40.5251956246
20
-9.1113559323
30
0.0000000000
10
-40.5563100781
20
-7.9762226599
30
0.0000000000
10
-40.5839744152
20
-6.9634226311
30
0.0000000000
10
-40.6086601630
20
-6.0549793526
30
0.0000000000
10
-40.6308180292
20
-5.2342503250
30
0.0000000000
10
-40.6507469478
20
-4.4902732886
30
0.0000000000
10
-40.6686701457
20
-3.8148655961
30
0.0000000000
10
-40.6847431357
20
-3.2018043474
30
0.0000000000
10
-40.6991379300
20
-2.6444913920
30
0.0000000000
10
-40.7120333764
20
-2.1359102432
30
0.0000000000
10
-40.7200507328
20
-1.8122642054
30
0.0000000000
10
-40.7238265916
20
-1.6575483857
30
0.0000000000
11
-40.1384847981
21
-23.6326820782
31
0.0000000000
11
-40.1506395448
21
-23.1262086636
31
0.0000000000
11
-40.1643140826
21
-22.5670829480
31
0.0000000000
11
-40.1796614615
21
-21.9506971192
31
0.0000000000
11
-40.1968214858
21
-21.2728489445
31
0.0000000000
11
-40.2159226042
21
-20.5295005460
31
0.0000000000
11
-40.2370934496
21
-19.7166813633
31
0.0000000000
11
-40.2604642878
21
-18.8302416396
31
0.0000000000
11
-40.2861625187
21
-17.8657090101
31
0.0000000000
11
-40.3143168700
21
-16.8182975990
31
0.0000000000
11
-40.3450687943
21
-15.6828427529
31
0.0000000000
11
-40.3785481160
21
-14.4542554803
31
0.0000000000
11
-40.4148511918
21
-13.1279608902
31
0.0000000000
11
-40.4535336513
21
-11.7189507204
31
0.0000000000
11
-40.4915672977
21
-10.3352527791
31
0.0000000000
11
-40.5264836710
21
-9.0639646305
31
0.0000000000
11
-40.5574251371
21
-7.9348473479
31
0.0000000000
11
-40.5848665256
21
-6.9298517628
31
0.0000000000
11
-40.6094316344
21
-6.0255633353
31
0.0000000000
11
-40.6314557461
21
-5.2095168226
31
0.0000000000
11
-40.6513201671
21
-4.4676641873
31
0.0000000000
11
-40.6691959820
21
-3.7936316853
31
0.0000000000
11
-40.6851870423
21
-3.1832928114
31
0.0000000000
11
-40.6995057592
21
-2.6284796810
31
0.0000000000
11
-40.7123424184
21
-2.1216919965
31
0.0000000000
11
-40.7238265916
21
-1.6575483857
31
0.0000000000
0
SPLINE
5
319
100
AcDbEntity
8
0
100
AcDbSpline
62
9
6
CONTINUOUS
70
0
71
3
72
10
73
6
74
4
42
0.0000001000
43
0.0000001000
44
0.0000000001
12
-1.6751152015
22
0.2025519490
32
0.0000000000
13
-1.6873168727
23
-0.0000363901
33
0.0000000000
40
0.0000000000
40
0.0000000000
40
0.0000000000
40
0.0000000000
40
0.2930283381
40
0.6313122202
40
1.0000000000
40
1.0000000000
40
1.0000000000
40
1.0000000000
10
-39.0394091675
20
-1.7412297697
30
0.0000000000
10
-39.2030279088
20
-1.7214452827
30
0.0000000000
10
-39.5568985635
20
-1.6900881154
30
0.0000000000
10
-40.1187916543
20
-1.6632857893
30
0.0000000000
10
-40.5164605838
20
-1.6575438833
30
0.0000000000
10
-40.7238249543
20
-1.6575483555
30
0.0000000000
11
-39.0394091675
21
-1.7412297697
31
0.0000000000
11
-39.5317165201
21
-1.6954461890
31
0.0000000000
11
-40.1018055511
21
-1.6671244558
31
0.0000000000
11
-40.7238249543
21
-1.6575483555
31
0.0000000000
0
SPLINE
5
31A
100
AcDbEntity
8
0
100
AcDbSpline
62
9
6
CONTINUOUS
70
0
71
3
72
15
73
11
74
9
42
0.0000001000
43
0.0000001000
44
0.0000000001
12
-0.5785301324
22
21.9812273751
32
0.0000000000
13
-0.4536421440
23
21.9841593616
33
0.0000000000
40
0.0000000000
40
0.0000000000
40
0.0000000000
40
0.0000000000
40
0.1319251913
40
0.2771545016
40
0.4247448547
40
0.5647881141
40
0.6913854420
40
0.8043281344
40
0.9067930472
40
1.0000000000
40
1.0000000000
40
1.0000000000
40
1.0000000000
10
-40.7238249543
20
-1.6575483555
30
0.0000000000
10
-40.7492658538
20
-0.6909224799
30
0.0000000000
10
-40.8010550602
20
1.3398532086
30
0.0000000000
10
-40.8774042913
20
4.4521324675
30
0.0000000000
10
-40.9538834174
20
7.6239283269
30
0.0000000000
10
-41.0274599869
20
10.6591892188
30
0.0000000000
10
-41.0950694550
20
13.4405662000
30
0.0000000000
10
-41.1553376418
20
15.9466054983
30
0.0000000000
10
-41.2077876342
20
18.2080232686
30
0.0000000000
10
-41.2386206511
20
19.6418917393
30
0.0000000000
10
-41.2527148517
20
20.3249172405
30
0.0000000000
11
-40.7238249543
21
-1.6575483555
31
0.0000000000
11
-40.7981227381
21
1.2423818581
31
0.0000000000
11
-40.8767586796
21
4.4348374977
31
0.0000000000
11
-40.9552880420
21
7.6792278080
31
0.0000000000
11
-41.0298845341
21
10.7577128710
31
0.0000000000
11
-41.0973747781
21
13.5406229162
31
0.0000000000
11
-41.1568129089
21
16.0233902486
31
0.0000000000
11
-41.2086968957
21
18.2758772809
31
0.0000000000
11
-41.2527148517
21
20.3249172405
31
0.0000000000
0
SPLINE
5
31B
100
AcDbEntity
8
0
100
AcDbSpline
62
9
6
CONTINUOUS
70
0
71
3
72
18
73
14
74
12
42
0.0000001000
43
0.0000001000
44
0.0000000001
12
-0.1475657527
22
5.9927495445
32
0.0000000000
13
5.9945650222
23
-0.0035985781
33
0.0000000000
40
0.0000000000
40
0.0000000000
40
0.0000000000
40
0.0000000000
40
0.0718086770
40
0.1518853988
40
0.2396195109
40
0.3362060084
40
0.4455636394
40
0.5605592424
40
0.6687830136
40
0.7653691580
40
0.8513777085
40
0.9288928273
40
1.0000000000
40
1.0000000000
40
1.0000000000
40
1.0000000000
10
-39.5761455208
20
20.2425748350
30
0.0000000000
10
-39.5796776880
20
20.3860186406
30
0.0000000000
10
-39.5703063961
20
20.6900959371
30
0.0000000000
10
-39.4989809266
20
21.1647846005
30
0.0000000000
10
-39.3519546781
20
21.6740077945
30
0.0000000000
10
-39.1077489649
20
22.2101397483
30
0.0000000000
10
-38.7478125707
20
22.7449325987
30
0.0000000000
10
-38.2808170729
20
23.2231858271
30
0.0000000000
10
-37.7567792208
20
23.5946137092
30
0.0000000000
10
-37.2316753374
20
23.8489560816
30
0.0000000000
10
-36.7341863309
20
24.0050815877
30
0.0000000000
10
-36.2712444738
20
24.0861308095
30
0.0000000000
10
-35.9739967817
20
24.1025903668
30
0.0000000000
10
-35.8319112583
20
24.1025050719
30
0.0000000000
11
-39.5761455208
21
20.2425748350
31
0.0000000000
11
-39.5628056720
21
20.6728299483
31
0.0000000000
11
-39.4913856803
21
21.1475123466
31
0.0000000000
11
-39.3453739967
21
21.6527655312
31
0.0000000000
11
-39.1052336821
21
22.1796116643
31
0.0000000000
11
-38.7390682257
21
22.7233677587
31
0.0000000000
11
-38.2574194342
21
23.2165372342
31
0.0000000000
11
-37.7281598816
21
23.5917262435
31
0.0000000000
11
-37.2071094357
21
23.8441904994
31
0.0000000000
11
-36.7152069118
21
23.9986531404
31
0.0000000000
11
-36.2575113825
21
24.0788563202
31
0.0000000000
11
-35.8319112583
21
24.1025050719
31
0.0000000000
0
SPLINE
5
31C
100
AcDbEntity
8
0
100
AcDbSpline
62
9
6
CONTINUOUS
70
0
71
3
72
10
73
6
74
4
42
0.0000001000
43
0.0000001000
44
0.0000000001
12
-1.6674621734
22
0.1998890156
32
0.0000000000
13
-1.6794003460
23
-0.0004429115
33
0.0000000000
40
0.0000000000
40
0.0000000000
40
0.0000000000
40
0.0000000000
40
0.2930415701
40
0.6312870898
40
1.0000000000
40
1.0000000000
40
1.0000000000
40
1.0000000000
10
-39.5761448129
20
20.2425749438
30
0.0000000000
10
-39.7390233907
20
20.2621002075
30
0.0000000000
10
-40.0912422626
20
20.2930264283
30
0.0000000000
10
-40.6505127213
20
20.3193935078
30
0.0000000000
10
-41.0463093391
20
20.3249716628
30
0.0000000000
10
-41.2527148687
20
20.3249172270
30
0.0000000000
11
-39.5761448129
21
20.2425749438
31
0.0000000000
11
-40.0662025674
21
20.2877346664
31
0.0000000000
11
-40.6335683594
21
20.3156000067
31
0.0000000000
11
-41.2527148687
21
20.3249172270
31
0.0000000000
0
SPLINE
5
31D
100
AcDbEntity
8
0
100
AcDbSpline
62
9
6
CONTINUOUS
70
0
71
3
72
18
73
14
74
12
42
0.0000001000
43
0.0000001000
44
0.0000000001
12
-0.1810277774
22
8.7682182807
32
0.0000000000
13
8.7699349932
23
0.0516051411
33
0.0000000000
40
0.0000000000
40
0.0000000000
40
0.0000000000
40
0.0000000000
40
0.0718778235
40
0.1520270123
40
0.2398125400
40
0.3364090387
40
0.4457259662
40
0.5606327211
40
0.6687578761
40
0.7652958528
40
0.8513188826
40
0.9288740437
40
1.0000000000
40
1.0000000000
40
1.0000000000
40
1.0000000000
10
-41.2527148687
20
20.3249172270
30
0.0000000000
10
-41.2570521630
20
20.5349973758
30
0.0000000000
10
-41.2420375967
20
20.9801995100
30
0.0000000000
10
-41.1368431258
20
21.6750735325
30
0.0000000000
10
-40.9216830494
20
22.4204313785
30
0.0000000000
10
-40.5646898257
20
23.2049981296
30
0.0000000000
10
-40.0380374038
20
23.9870109875
30
0.0000000000
10
-39.3540093658
20
24.6851179087
30
0.0000000000
10
-38.5860363359
20
25.2255802280
30
0.0000000000
10
-37.8168349236
20
25.5947131569
30
0.0000000000
10
-37.0885506374
20
25.8214760793
30
0.0000000000
10
-36.4112036685
20
25.9404389747
30
0.0000000000
10
-35.9763402785
20
25.9663942161
30
0.0000000000
10
-35.7684169410
20
25.9676177044
30
0.0000000000
11
-41.2527148687
21
20.3249172270
31
0.0000000000
11
-41.2313038051
21
20.9549282552
31
0.0000000000
11
-41.1258592732
21
21.6498897160
31
0.0000000000
11
-40.9120418656
21
22.3894893689
31
0.0000000000
11
-40.5608442275
21
23.1604237000
31
0.0000000000
11
-40.0250114951
21
23.9554238881
31
0.0000000000
11
-39.3196286262
21
24.6751317344
31
0.0000000000
11
-38.5443089992
21
25.2211077166
31
0.0000000000
11
-37.7811652412
21
25.5877434964
31
0.0000000000
11
-37.0609461113
21
25.8123502287
31
0.0000000000
11
-36.3910777859
21
25.9302549795
31
0.0000000000
11
-35.7684169410
21
25.9676177044
31
0.0000000000
0
SPLINE
5
31E
100
AcDbEntity
8
0
100
AcDbSpline
62
9
6
CONTINUOUS
70
0
71
3
72
10
73
6
74
4
42
0.0000001000
43
0.0000001000
44
0.0000000001
12
0.1806279616
22
1.8583627070
32
0.0000000000
13
-0.0407699194
23
1.8666751793
33
0.0000000000
40
0.0000000000
40
0.0000000000
40
0.0000000000
40
0.0000000000
40
0.3181433946
40
0.6563373661
40
1.0000000000
40
1.0000000000
40
1.0000000000
40
1.0000000000
10
-35.8319112586
20
24.1025050728
30
0.0000000000
10
-35.8127560610
20
24.2995803461
30
0.0000000000
10
-35.7831617031
20
24.7071474113
30
0.0000000000
10
-35.7624142370
20
25.3292986641
30
0.0000000000
10
-35.7637464267
20
25.7537823154
30
0.0000000000
10
-35.7684167927
20
25.9676178183
30
0.0000000000
11
-35.8319112586
21
24.1025050728
31
0.0000000000
11
-35.7878197272
21
24.6948784360
31
0.0000000000
11
-35.7663356208
21
25.3259616952
31
0.0000000000
11
-35.7684167927
21
25.9676178183
31
0.0000000000
0
SPLINE
5
31F
100
AcDbEntity
8
0
100
AcDbSpline
62
9
6
CONTINUOUS
70
0
71
3
72
19
73
15
74
13
42
0.0000001000
43
0.0000001000
44
0.0000000001
12
32.9345204853
22
0.1938604786
32
0.0000000000
13
32.9350838513
23
0.0217529676
33
0.0000000000
40
0.0000000000
40
0.0000000000
40
0.0000000000
40
0.0000000000
40
0.0893280598
40
0.1880582500
40
0.2946303366
40
0.4032286203
40
0.5058632325
40
0.5989541210
40
0.6828208438
40
0.7586152041
40
0.8273039102
40
0.8898151036
40
0.9470728175
40
1.0000000000
40
1.0000000000
40
1.0000000000
40
1.0000000000
10
-35.7684167927
20
25.9676178183
30
0.0000000000
10
-34.7877578540
20
25.9733902118
30
0.0000000000
10
-32.7232196717
20
25.9854893548
30
0.0000000000
10
-29.4886654599
20
25.9938015010
30
0.0000000000
10
-26.0425494737
20
25.9940411628
30
0.0000000000
10
-22.5535724907
20
25.9905049925
30
0.0000000000
10
-19.2125977228
20
25.9864995415
30
0.0000000000
10
-16.1431341346
20
25.9834082612
30
0.0000000000
10
-13.3683318014
20
25.9813435548
30
0.0000000000
10
-10.8614249951
20
25.9802048612
30
0.0000000000
10
-8.5889667518
20
25.9797675783
30
0.0000000000
10
-6.5200105177
20
25.9798588967
30
0.0000000000
10
-4.6240900932
20
25.9803798764
30
0.0000000000
10
-3.4144403770
20
25.9810108959
30
0.0000000000
10
-2.8333866455
20
25.9813946703
30
0.0000000000
11
-35.7684167927
21
25.9676178183
31
0.0000000000
11
-32.8264310826
21
25.9833516238
31
0.0000000000
11
-29.5747555321
21
25.9922770174
31
0.0000000000
11
-26.0647943407
21
25.9934119923
31
0.0000000000
11
-22.4881013137
21
25.9903250199
31
0.0000000000
11
-19.1078231950
21
25.9864872416
31
0.0000000000
11
-16.0418678145
21
25.9834476803
31
0.0000000000
11
-13.2797104087
21
25.9814178032
31
0.0000000000
11
-10.7834165108
21
25.9802837043
31
0.0000000000
11
-8.5211477645
21
25.9798479233
31
0.0000000000
11
-6.4623359224
21
25.9799440589
31
0.0000000000
11
-4.5765479768
21
25.9804735790
31
0.0000000000
11
-2.8333866455
21
25.9813946703
31
0.0000000000
0
SPLINE
5
320
100
AcDbEntity
8
0
100
AcDbSpline
62
9
6
CONTINUOUS
70
0
71
3
72
10
73
6
74
4
42
0.0000001000
43
0.0000001000
44
0.0000000001
12
0.1777652550
22
1.8728059141
32
0.0000000000
13
-0.0456684515
23
1.8806692613
33
0.0000000000
40
0.0000000000
40
0.0000000000
40
0.0000000000
40
0.0000000000
40
0.3181886297
40
0.6564571879
40
1.0000000000
40
1.0000000000
40
1.0000000000
40
1.0000000000
10
-2.8929710319
20
24.1020542493
30
0.0000000000
10
-2.8741167376
20
24.3006894318
30
0.0000000000
10
-2.8452402439
20
24.7114781021
30
0.0000000000
10
-2.8257986946
20
25.3383759513
30
0.0000000000
10
-2.8281571164
20
25.7660336904
30
0.0000000000
10
-2.8333868058
20
25.9813971593
30
0.0000000000
11
-2.8929710319
21
24.1020542493
31
0.0000000000
11
-2.8499093347
21
24.6990873066
31
0.0000000000
11
-2.8297445488
21
25.3351265546
31
0.0000000000
11
-2.8333868058
21
25.9813971593
31
0.0000000000
0
SPLINE
5
321
100
AcDbEntity
8
0
100
AcDbSpline
62
9
6
CONTINUOUS
70
0
71
3
72
19
73
15
74
13
42
0.0000001000
43
0.0000001000
44
0.0000000001
12
32.9421266217
22
-0.0217451335
32
0.0000000000
13
32.9415642670
23
-0.1937081653
33
0.0000000000
40
0.0000000000
40
0.0000000000
40
0.0000000000
40
0.0000000000
40
0.0551784542
40
0.1150971248
40
0.1799980556
40
0.2501333911
40
0.3257525083
40
0.4072106512
40
0.4951602779
40
0.5903584170
40
0.6928174030
40
0.8005014222
40
0.9052630822
40
1.0000000000
40
1.0000000000
40
1.0000000000
40
1.0000000000
10
-2.8333868058
20
25.9813971593
30
0.0000000000
10
-2.2274882637
20
25.9809972050
30
0.0000000000
10
-0.9636401196
20
25.9803452285
30
0.0000000000
10
1.0128665090
20
25.9798303758
30
0.0000000000
10
3.1536104002
20
25.9797827147
30
0.0000000000
10
5.4667563115
20
25.9802926208
30
0.0000000000
10
7.9617119574
20
25.9815060975
30
0.0000000000
10
10.6522806932
20
25.9835711669
30
0.0000000000
10
13.5578403067
20
25.9865204535
30
0.0000000000
10
16.6940033408
20
25.9902595066
30
0.0000000000
10
20.0468645513
20
25.9937559682
30
0.0000000000
10
23.5047427172
20
25.9941730996
30
0.0000000000
10
26.8778240612
20
25.9864806154
30
0.0000000000
10
29.0684255496
20
25.9737349155
30
0.0000000000
10
30.1086863049
20
25.9676178106
30
0.0000000000
11
-2.8333868058
21
25.9813971593
31
0.0000000000
11
-1.0156910323
21
25.9804462607
31
0.0000000000
11
0.9581577587
21
25.9799198677
31
0.0000000000
11
3.0961329061
21
25.9798671239
31
0.0000000000
11
5.4065404547
21
25.9803778967
31
0.0000000000
11
7.8975952375
21
25.9815873003
31
0.0000000000
11
10.5809995089
21
25.9836229180
31
0.0000000000
11
13.4782464279
21
25.9865218354
31
0.0000000000
11
16.6142742337
21
25.9900892274
31
0.0000000000
11
19.9894904357
21
25.9931902661
31
0.0000000000
11
23.5368317771
21
25.9927378071
31
0.0000000000
11
26.9878935682
21
25.9840925081
31
0.0000000000
11
30.1086863049
21
25.9676178106
31
0.0000000000
0
SPLINE
5
322
100
AcDbEntity
8
0
100
AcDbSpline
62
9
6
CONTINUOUS
70
0
71
3
72
17
73
13
74
11
42
0.0000001000
43
0.0000001000
44
0.0000000001
12
6.0876742739
22
0.0036645405
32
0.0000000000
13
0.1468099615
23
-6.0859048899
33
0.0000000000
40
0.0000000000
40
0.0000000000
40
0.0000000000
40
0.0000000000
40
0.0767299747
40
0.1619744165
40
0.2576991477
40
0.3659158829
40
0.4882400655
40
0.6136546846
40
0.7279836825
40
0.8290692950
40
0.9193628384
40
1.0000000000
40
1.0000000000
40
1.0000000000
40
1.0000000000
10
30.0517274182
20
24.1025050719
30
0.0000000000
10
30.2074297826
20
24.1025987986
30
0.0000000000
10
30.5364562969
20
24.0826139380
30
0.0000000000
10
31.0515572400
20
23.9840476141
30
0.0000000000
10
31.6086079475
20
23.7926145826
30
0.0000000000
10
32.1957232826
20
23.4800477978
30
0.0000000000
10
32.7669318043
20
23.0310043815
30
0.0000000000
10
33.2519051482
20
22.4730594476
30
0.0000000000
10
33.6049887167
20
21.8742751198
30
0.0000000000
10
33.8289946719
20
21.2930874163
30
0.0000000000
10
33.9500125380
20
20.7527540907
30
0.0000000000
10
33.9803581941
20
20.4061582003
30
0.0000000000
10
33.9843043069
20
20.2425748350
30
0.0000000000
11
30.0517274182
21
24.1025050719
31
0.0000000000
11
30.5179790348
21
24.0742465249
31
0.0000000000
11
31.0276946198
21
23.9768337237
31
0.0000000000
11
31.5788490438
21
23.7875826271
31
0.0000000000
11
32.1604425048
21
23.4781458126
31
0.0000000000
11
32.7459507961
21
23.0180226531
31
0.0000000000
11
33.2468421492
21
22.4418153209
31
0.0000000000
11
33.6003098129
21
21.8422541612
31
0.0000000000
11
33.8215332004
21
21.2680169981
31
0.0000000000
11
33.9415562477
21
20.7316028570
31
0.0000000000
11
33.9843043069
21
20.2425748350
31
0.0000000000
0
SPLINE
5
323
100
AcDbEntity
8
0
100
AcDbSpline
62
9
6
CONTINUOUS
70
0
71
3
72
10
73
6
74
4
42
0.0000001000
43
0.0000001000
44
0.0000000001
12
0.1729904367
22
1.8588599601
32
0.0000000000
13
-0.0462617127
23
1.8663188089
33
0.0000000000
40
0.0000000000
40
0.0000000000
40
0.0000000000
40
0.0000000000
40
0.3180928291
40
0.6562900740
40
1.0000000000
40
1.0000000000
40
1.0000000000
40
1.0000000000
10
30.0517277184
20
24.1025041248
30
0.0000000000
10
30.0700700575
20
24.2996007994
30
0.0000000000
10
30.0980795807
20
24.7071973835
30
0.0000000000
10
30.1166492185
20
25.3293388810
30
0.0000000000
10
30.1139862809
20
25.7537935339
30
0.0000000000
10
30.1086860776
20
25.9676176338
30
0.0000000000
11
30.0517277184
21
24.1025041248
31
0.0000000000
11
30.0935045754
21
24.6948777897
31
0.0000000000
11
30.1127771210
21
25.3259613364
31
0.0000000000
11
30.1086860776
21
25.9676176338
31
0.0000000000
0
SPLINE
5
324
100
AcDbEntity
8
0
100
AcDbSpline
62
9
6
CONTINUOUS
70
0
71
3
72
17
73
13
74
11
42
0.0000001000
43
0.0000001000
44
0.0000000001
12
8.9062246708
22
-0.0523104507
32
0.0000000000
13
0.2492560483
23
-8.9028897383
33
0.0000000000
40
0.0000000000
40
0.0000000000
40
0.0000000000
40
0.0000000000
40
0.0767829741
40
0.1620774720
40
0.2577933056
40
0.3659174494
40
0.4881180605
40
0.6134560364
40
0.7277711160
40
0.8289000812
40
0.9192728041
40
1.0000000000
40
1.0000000000
40
1.0000000000
40
1.0000000000
10
30.1086860776
20
25.9676176338
30
0.0000000000
10
30.3366348837
20
25.9662787831
30
0.0000000000
10
30.8180904379
20
25.9350876569
30
0.0000000000
10
31.5718583595
20
25.7908444255
30
0.0000000000
10
32.3873489055
20
25.5130099655
30
0.0000000000
10
33.2473559883
20
25.0591214007
30
0.0000000000
10
34.0841466879
20
24.4048137572
30
0.0000000000
10
34.7940592166
20
23.5895685376
30
0.0000000000
10
35.3103694403
20
22.7135061058
30
0.0000000000
10
35.6379476160
20
21.8628423235
30
0.0000000000
10
35.8157114049
20
21.0718911350
30
0.0000000000
10
35.8614752465
20
20.5644854241
30
0.0000000000
10
35.8681824938
20
20.3249169828
30
0.0000000000
11
30.1086860776
21
25.9676176338
31
0.0000000000
11
30.7911114972
21
25.9233728260
31
0.0000000000
11
31.5372285387
21
25.7805429609
31
0.0000000000
11
32.3441393614
21
25.5055529600
31
0.0000000000
11
33.1957617808
21
25.0560001662
31
0.0000000000
11
34.0531845792
21
24.3856538130
31
0.0000000000
11
34.7863962190
21
23.5439038706
31
0.0000000000
11
35.3034212713
21
22.6668174440
31
0.0000000000
11
35.6271373560
21
21.8263083998
31
0.0000000000
11
35.8036073310
21
21.0409981761
31
0.0000000000
11
35.8681824938
21
20.3249169828
31
0.0000000000
0
SPLINE
5
325
100
AcDbEntity
8
0
100
AcDbSpline
62
7
6
CONTINUOUS
70
0
71
3
72
16
73
12
74
10
42
0.0000001000
43
0.0000001000
44
0.0000000001
12
2.1676659141
22
0.0028233312
32
0.0000000000
13
-1.6988931962
23
-1.3698454081
33
0.0000000000
40
0.0000000000
40
0.0000000000
40
0.0000000000
40
0.0000000000
40
0.1028932685
40
0.2052501157
40
0.3117382628
40
0.4273132707
40
0.5540149987
40
0.6904616283
40
0.8318450719
40
0.9718790583
40
1.0000000000
40
1.0000000000
40
1.0000000000
40
1.0000000000
10
34.1969545020
20
-30.9438837293
30
0.0000000000
10
34.2713005789
20
-30.9437868954
30
0.0000000000
10
34.4202914174
20
-30.9626671013
30
0.0000000000
10
34.6318366271
20
-31.0461430457
30
0.0000000000
10
34.8239530925
20
-31.1848396030
30
0.0000000000
10
34.9847465813
20
-31.3829821998
30
0.0000000000
10
35.0910904932
20
-31.6397443354
30
0.0000000000
10
35.1127326972
20
-31.9368270679
30
0.0000000000
10
35.0287959012
20
-32.2337675268
30
0.0000000000
10
34.8929694855
20
-32.4174530807
30
0.0000000000
10
34.8005343635
20
-32.4976913737
30
0.0000000000
10
34.7846095380
20
-32.5105318213
30
0.0000000000
11
34.1969545020
21
-30.9438837293
31
0.0000000000
11
34.4182410128
21
-30.9717838539
31
0.0000000000
11
34.6246980649
21
-31.0530505991
31
0.0000000000
11
34.8118749076
21
-31.1881348114
31
0.0000000000
11
34.9696794123
21
-31.3827167379
31
0.0000000000
11
35.0744879842
21
-31.6365794474
31
0.0000000000
11
35.0954229519
21
-31.9316085768
31
0.0000000000
11
35.0116243496
21
-32.2264018675
31
0.0000000000
11
34.8309291186
21
-32.4703078120
31
0.0000000000
11
34.7846095380
21
-32.5105318213
31
0.0000000000
0
SPLINE
5
326
100
AcDbEntity
8
0
100
AcDbSpline
62
7
6
CONTINUOUS
70
0
71
3
72
9
73
5
74
3
42
0.0000001000
43
0.0000001000
44
0.0000000001
12
0.5539725544
22
0.0002181718
32
0.0000000000
13
0.5539725154
23
0.0003014091
33
0.0000000000
40
0.0000000000
40
0.0000000000
40
0.0000000000
40
0.0000000000
40
0.5018903250
40
1.0000000000
40
1.0000000000
40
1.0000000000
40
1.0000000000
10
31.0456354061
20
-32.7025111943
30
0.0000000000
10
31.1383132279
20
-32.7024746949
30
0.0000000000
10
31.3229707436
20
-32.7023955946
30
0.0000000000
10
31.5076282529
20
-32.7023026327
30
0.0000000000
10
31.5996079427
20
-32.7022525878
30
0.0000000000
11
31.0456354061
21
-32.7025111943
31
0.0000000000
11
31.3236688674
21
-32.7023918039
31
0.0000000000
11
31.5996079427
21
-32.7022525878
31
0.0000000000
0
SPLINE
5
327
100
AcDbEntity
8
0
100
AcDbSpline
62
7
6
CONTINUOUS
70
0
71
3
72
9
73
5
74
3
42
0.0000001000
43
0.0000001000
44
0.0000000001
12
-0.2525590438
22
-0.8641151152
32
0.0000000000
13
-0.2518182656
23
-0.8643312814
33
0.0000000000
40
0.0000000000
40
0.0000000000
40
0.0000000000
40
0.0000000000
40
0.4924749408
40
1.0000000000
40
1.0000000000
40
1.0000000000
40
1.0000000000
10
31.2978374264
20
-31.8382918317
30
0.0000000000
10
31.2563777597
20
-31.9801435118
30
0.0000000000
10
31.1722454333
20
-32.2681976760
30
0.0000000000
10
31.0882367662
20
-32.5562879327
30
0.0000000000
10
31.0456354061
20
-32.7025111943
30
0.0000000000
11
31.2978374264
21
-31.8382918317
31
0.0000000000
11
31.1735416261
21
-32.2638711803
31
0.0000000000
11
31.0456354061
21
-32.7025111943
31
0.0000000000
0
SPLINE
5
328
100
AcDbEntity
8
0
100
AcDbSpline
62
9
6
CONTINUOUS
70
0
71
3
72
9
73
5
74
3
42
0.0000001000
43
0.0000001000
44
0.0000000001
12
0.0297668953
22
8.1272707692
32
0.0000000000
13
1.1345357588
23
8.0446878098
33
0.0000000000
40
0.0000000000
40
0.0000000000
40
0.0000000000
40
0.0000000000
40
0.4991979786
40
1.0000000000
40
1.0000000000
40
1.0000000000
40
1.0000000000
10
28.5076368027
20
-41.9222132566
30
0.0000000000
10
28.5125899941
20
-40.5698408767
30
0.0000000000
10
28.5701312641
20
-37.8663142504
30
0.0000000000
10
27.9962441700
20
-35.1448472111
30
0.0000000000
10
28.1856367705
20
-33.8019152389
30
0.0000000000
11
28.5076368027
21
-41.9222132566
31
0.0000000000
11
28.4126878873
21
-37.8661800965
31
0.0000000000
11
28.1856367705
21
-33.8019152389
31
0.0000000000
0
SPLINE
5
329
100
AcDbEntity
8
0
100
AcDbSpline
62
7
6
CONTINUOUS
70
0
71
3
72
9
73
5
74
3
42
0.0000001000
43
0.0000001000
44
0.0000000001
12
-0.1634148157
22
-0.5620635641
32
0.0000000000
13
-0.1630942563
23
-0.5621566646
33
0.0000000000
40
0.0000000000
40
0.0000000000
40
0.0000000000
40
0.0000000000
40
0.4956514846
40
1.0000000000
40
1.0000000000
40
1.0000000000
40
1.0000000000
10
30.8874615555
20
-33.2459509127
30
0.0000000000
10
30.8604626235
20
-33.3388134594
30
0.0000000000
10
30.8060180580
20
-33.5261758433
30
0.0000000000
10
30.7516269114
20
-33.7135537416
30
0.0000000000
10
30.7242081294
20
-33.8080613680
30
0.0000000000
11
30.8874615555
21
-33.2459509127
31
0.0000000000
11
30.8065046875
21
-33.5245501583
31
0.0000000000
11
30.7242081294
21
-33.8080613680
31
0.0000000000
0
SPLINE
5
32A
100
AcDbEntity
8
0
100
AcDbSpline
62
7
6
CONTINUOUS
70
0
71
3
72
10
73
6
74
4
42
0.0000001000
43
0.0000001000
44
0.0000000001
12
-1.0083507614
22
2.8581881849
32
0.0000000000
13
-0.9940064159
23
2.8632083758
33
0.0000000000
40
0.0000000000
40
0.0000000000
40
0.0000000000
40
0.0000000000
40
0.3397483075
40
0.6731098929
40
1.0000000000
40
1.0000000000
40
1.0000000000
40
1.0000000000
10
32.5941814814
20
-33.7789551605
30
0.0000000000
10
32.4799863265
20
-33.4552669611
30
0.0000000000
10
32.2543181999
20
-32.8137721164
30
0.0000000000
10
31.9208925555
20
-31.8600969849
30
0.0000000000
10
31.7017505314
20
-31.2300817515
30
0.0000000000
10
31.5934402435
20
-30.9180969206
30
0.0000000000
11
32.5941814814
21
-33.7789551605
31
0.0000000000
11
32.2524918736
21
-32.8075749741
31
0.0000000000
11
31.9189904429
21
-31.8538361718
31
0.0000000000
11
31.5934402435
21
-30.9180969206
31
0.0000000000
0
SPLINE
5
32B
100
AcDbEntity
8
0
100
AcDbSpline
62
7
6
CONTINUOUS
70
0
71
3
72
9
73
5
74
3
42
0.0000001000
43
0.0000001000
44
0.0000000001
12
-0.5714385094
22
-0.0002002867
32
0.0000000000
13
-0.5714385305
23
-0.0001268128
33
0.0000000000
40
0.0000000000
40
0.0000000000
40
0.0000000000
40
0.0000000000
40
0.4978461159
40
1.0000000000
40
1.0000000000
40
1.0000000000
40
1.0000000000
10
31.5934402435
20
-30.9180969206
30
0.0000000000
10
31.4986107627
20
-30.9181301579
30
0.0000000000
10
31.3081312570
20
-30.9181898889
30
0.0000000000
10
31.1176517480
20
-30.9182374002
30
0.0000000000
10
31.0220017221
20
-30.9182586267
30
0.0000000000
11
31.5934402435
21
-30.9180969206
31
0.0000000000
11
31.3089517978
21
-30.9181866029
31
0.0000000000
11
31.0220017221
21
-30.9182586267
31
0.0000000000
0
SPLINE
5
32C
100
AcDbEntity
8
0
100
AcDbSpline
62
7
6
CONTINUOUS
70
0
71
3
72
10
73
6
74
4
42
0.0000001000
43
0.0000001000
44
0.0000000001
12
0.9939995875
22
-2.8632208568
32
0.0000000000
13
1.0083157784
23
-2.8582106545
33
0.0000000000
40
0.0000000000
40
0.0000000000
40
0.0000000000
40
0.0000000000
40
0.3269016815
40
0.6602629191
40
1.0000000000
40
1.0000000000
40
1.0000000000
40
1.0000000000
10
31.5590448117
20
-30.9459346022
30
0.0000000000
10
31.6673581906
20
-31.2579318397
30
0.0000000000
10
31.8865014861
20
-31.8879608636
30
0.0000000000
10
32.2199194216
20
-32.8416420607
30
0.0000000000
10
32.4455765835
20
-33.4831306371
30
0.0000000000
10
32.5597640033
20
-33.8068106852
30
0.0000000000
11
31.5590448117
21
-30.9459346022
31
0.0000000000
11
31.8846027218
21
-31.8817116192
31
0.0000000000
11
32.2180963113
21
-32.8354554197
31
0.0000000000
11
32.5597640033
21
-33.8068106852
31
0.0000000000
0
SPLINE
5
32D
100
AcDbEntity
8
0
100
AcDbSpline
62
7
6
CONTINUOUS
70
0
71
3
72
9
73
5
74
3
42
0.0000001000
43
0.0000001000
44
0.0000000001
12
0.5714382732
22
0.0001266348
32
0.0000000000
13
0.5714382522
23
0.0002000433
33
0.0000000000
40
0.0000000000
40
0.0000000000
40
0.0000000000
40
0.0000000000
40
0.5021222755
40
1.0000000000
40
1.0000000000
40
1.0000000000
40
1.0000000000
10
30.9876065476
20
-30.9460961002
30
0.0000000000
10
31.0832505096
20
-30.9460749048
30
0.0000000000
10
31.2737299329
20
-30.9460274574
30
0.0000000000
10
31.4642093528
20
-30.9459678013
30
0.0000000000
10
31.5590448117
20
-30.9459346022
30
0.0000000000
11
30.9876065476
21
-30.9460961002
31
0.0000000000
11
31.2745384317
21
-30.9460241779
31
0.0000000000
11
31.5590448117
21
-30.9459346022
31
0.0000000000
0
SPLINE
5
32E
100
AcDbEntity
8
0
100
AcDbSpline
62
7
6
CONTINUOUS
70
0
71
3
72
9
73
5
74
3
42
0.0000001000
43
0.0000001000
44
0.0000000001
12
0.1695605277
22
0.5820054385
32
0.0000000000
13
0.1699092649
23
0.5819037300
33
0.0000000000
40
0.0000000000
40
0.0000000000
40
0.0000000000
40
0.0000000000
40
0.7537290711
40
1.0000000000
40
1.0000000000
40
1.0000000000
40
1.0000000000
10
31.0800402140
20
-32.6746659242
30
0.0000000000
10
31.1226411137
20
-32.5284411180
30
0.0000000000
10
31.1792080023
20
-32.3344529118
30
0.0000000000
10
31.2358311071
20
-32.1404811132
30
0.0000000000
10
31.2497790112
20
-32.0927124558
30
0.0000000000
11
31.0800402140
21
-32.6746659242
31
0.0000000000
11
31.2079452673
21
-32.2360213383
31
0.0000000000
11
31.2497790112
21
-32.0927124558
31
0.0000000000
0
SPLINE
5
32F
100
AcDbEntity
8
0
100
AcDbSpline
62
7
6
CONTINUOUS
70
0
71
3
72
8
73
4
74
2
42
0.0000001000
43
0.0000001000
44
0.0000000001
12
0.0623222258
22
0.2134406011
32
0.0000000000
13
0.0623645884
23
0.2134282259
33
0.0000000000
40
0.0000000000
40
0.0000000000
40
0.0000000000
40
0.0000000000
40
1.0000000000
40
1.0000000000
40
1.0000000000
40
1.0000000000
10
31.2497790112
20
-32.0927124558
30
0.0000000000
10
31.2705530865
20
-32.0215655887
30
0.0000000000
10
31.2913344368
20
-31.9504208461
30
0.0000000000
10
31.3121226330
20
-31.8792781041
30
0.0000000000
11
31.2497790112
21
-32.0927124558
31
0.0000000000
11
31.3121226330
21
-31.8792781041
31
0.0000000000
0
SPLINE
5
330
100
AcDbEntity
8
0
100
AcDbSpline
62
7
6
CONTINUOUS
70
0
71
3
72
10
73
6
74
4
42
0.0000001000
43
0.0000001000
44
0.0000000001
12
-0.4865513513
22
-1.8859023414
32
0.0000000000
13
-0.4827532507
23
-1.8868781512
33
0.0000000000
40
0.0000000000
40
0.0000000000
40
0.0000000000
40
0.0000000000
40
0.3218303833
40
0.6551757016
40
1.0000000000
40
1.0000000000
40
1.0000000000
40
1.0000000000
10
29.1450671628
20
-31.9220833252
30
0.0000000000
10
29.0928714935
20
-32.1243968830
30
0.0000000000
10
28.9867400467
20
-32.5362955712
30
0.0000000000
10
28.8251815970
20
-33.1650907345
30
0.0000000000
10
28.7159088554
20
-33.5915952545
30
0.0000000000
10
28.6604205050
20
-33.8084757327
30
0.0000000000
11
29.1450671628
21
-31.9220833252
31
0.0000000000
11
28.9886734531
21
-32.5290738356
31
0.0000000000
11
28.8271065014
21
-33.1578908664
31
0.0000000000
11
28.6604205050
21
-33.8084757327
31
0.0000000000
0
SPLINE
5
331
100
AcDbEntity
8
0
100
AcDbSpline
62
7
6
CONTINUOUS
70
0
71
3
72
8
73
4
74
2
42
0.0000001000
43
0.0000001000
44
0.0000000001
12
0.0026176598
22
-0.0976334809
32
0.0000000000
13
0.0026278693
23
-0.0976332088
33
0.0000000000
40
0.0000000000
40
0.0000000000
40
0.0000000000
40
0.0000000000
40
1.0000000000
40
1.0000000000
40
1.0000000000
40
1.0000000000
10
29.6896214757
20
-30.9462670289
30
0.0000000000
10
29.6904940290
20
-30.9788115225
30
0.0000000000
10
29.6913682566
20
-31.0113559717
30
0.0000000000
10
29.6922442130
20
-31.0439003746
30
0.0000000000
11
29.6896214757
21
-30.9462670289
31
0.0000000000
11
29.6922442130
21
-31.0439003746
31
0.0000000000
0
SPLINE
5
332
100
AcDbEntity
8
0
100
AcDbSpline
62
7
6
CONTINUOUS
70
0
71
3
72
10
73
6
74
4
42
0.0000001000
43
0.0000001000
44
0.0000000001
12
0.0744114750
22
-2.7646089649
32
0.0000000000
13
0.0852747459
23
-2.7642951483
33
0.0000000000
40
0.0000000000
40
0.0000000000
40
0.0000000000
40
0.0000000000
40
0.2978732412
40
0.6430174254
40
1.0000000000
40
1.0000000000
40
1.0000000000
40
1.0000000000
10
29.6922442130
20
-31.0439003746
30
0.0000000000
10
29.6996326087
20
-31.3184013856
30
0.0000000000
10
29.7158474164
20
-31.9109582003
30
0.0000000000
10
29.7421929646
20
-32.8324520140
30
0.0000000000
10
29.7616839764
20
-33.4794284134
30
0.0000000000
10
29.7718311758
20
-33.8083634797
30
0.0000000000
11
29.6922442130
21
-31.0439003746
31
0.0000000000
11
29.7148111576
21
-31.8673924888
31
0.0000000000
11
29.7421210485
21
-32.8215359871
31
0.0000000000
11
29.7718311758
21
-33.8083634797
31
0.0000000000
0
SPLINE
5
333
100
AcDbEntity
8
0
100
AcDbSpline
62
7
6
CONTINUOUS
70
0
71
3
72
9
73
5
74
3
42
0.0000001000
43
0.0000001000
44
0.0000000001
12
-0.0400833318
22
-0.0006522654
32
0.0000000000
13
-0.0295647907
23
0.0267200472
33
0.0000000000
40
0.0000000000
40
0.0000000000
40
0.0000000000
40
0.0000000000
40
0.0755619960
40
1.0000000000
40
1.0000000000
40
1.0000000000
40
1.0000000000
10
-30.3475552444
20
-43.0499163775
30
0.0000000000
10
-30.3485648366
20
-43.0499328064
30
0.0000000000
10
-30.3619047479
20
-43.0496235103
30
0.0000000000
10
-30.3745844531
20
-43.0419427925
30
0.0000000000
10
-30.3836947251
20
-43.0337091168
30
0.0000000000
11
-30.3475552444
21
-43.0499163775
31
0.0000000000
11
-30.3505770477
21
-43.0498439763
31
0.0000000000
11
-30.3836947251
21
-43.0337091168
31
0.0000000000
0
SPLINE
5
334
100
AcDbEntity
8
0
100
AcDbSpline
62
7
6
CONTINUOUS
70
0
71
3
72
9
73
5
74
3
42
0.0000001000
43
0.0000001000
44
0.0000000001
12
0.8635620667
22
0.0000338109
32
0.0000000000
13
0.8635620658
23
0.0000508679
33
0.0000000000
40
0.0000000000
40
0.0000000000
40
0.0000000000
40
0.0000000000
40
0.4980126821
40
1.0000000000
40
1.0000000000
40
1.0000000000
40
1.0000000000
10
28.8260594092
20
-30.9463044130
30
0.0000000000
10
28.9694143629
20
-30.9462988003
30
0.0000000000
10
29.2572683851
20
-30.9462885861
30
0.0000000000
10
29.5451224073
20
-30.9462755406
30
0.0000000000
10
29.6896214757
20
-30.9462670289
30
0.0000000000
11
28.8260594092
21
-30.9463044130
31
0.0000000000
11
29.2561242702
21
-30.9462879245
31
0.0000000000
11
29.6896214757
21
-30.9462670289
31
0.0000000000
0
SPLINE
5
335
100
AcDbEntity
8
0
100
AcDbSpline
62
7
6
CONTINUOUS
70
0
71
3
72
9
73
5
74
3
42
0.0000001000
43
0.0000001000
44
0.0000000001
12
0.2527144148
22
-0.8042731071
32
0.0000000000
13
0.2537084452
23
-0.8039600930
33
0.0000000000
40
0.0000000000
40
0.0000000000
40
0.0000000000
40
0.0000000000
40
0.4957983089
40
1.0000000000
40
1.0000000000
40
1.0000000000
40
1.0000000000
10
28.0916781392
20
-32.0071965575
30
0.0000000000
10
28.1334432657
20
-32.1401156397
30
0.0000000000
10
28.2177617948
20
-32.4081814217
30
0.0000000000
10
28.3022441169
20
-32.6761956314
30
0.0000000000
10
28.3448841926
20
-32.8113149775
30
0.0000000000
11
28.0916781392
21
-32.0071965575
31
0.0000000000
11
28.2170934969
21
-32.4059160852
31
0.0000000000
11
28.3448841926
21
-32.8113149775
31
0.0000000000
0
SPLINE
5
336
100
AcDbEntity
8
0
100
AcDbSpline
62
7
6
CONTINUOUS
70
0
71
3
72
9
73
5
74
3
42
0.0000001000
43
0.0000001000
44
0.0000000001
12
0.3314669850
22
-1.0611272689
32
0.0000000000
13
0.3332363294
23
-1.0605729544
33
0.0000000000
40
0.0000000000
40
0.0000000000
40
0.0000000000
40
0.0000000000
40
0.4992570391
40
1.0000000000
40
1.0000000000
40
1.0000000000
40
1.0000000000
10
27.7593275231
20
-30.9463458155
30
0.0000000000
10
27.8144899316
20
-31.1229375683
30
0.0000000000
10
27.9251263844
20
-31.4766006125
30
0.0000000000
10
28.0360562237
20
-31.8301717437
30
0.0000000000
10
28.0916781392
20
-32.0071965575
30
0.0000000000
11
27.7593275231
21
-30.9463458155
31
0.0000000000
11
27.9250351161
21
-31.4760521869
31
0.0000000000
11
28.0916781392
21
-32.0071965575
31
0.0000000000
0
SPLINE
5
337
100
AcDbEntity
8
0
100
AcDbSpline
62
9
6
CONTINUOUS
70
0
71
3
72
10
73
6
74
4
42
0.0000001000
43
0.0000001000
44
0.0000000001
12
2.2401386386
22
12.4308391208
32
0.0000000000
13
-0.3496036447
23
12.6262329956
33
0.0000000000
40
0.0000000000
40
0.0000000000
40
0.0000000000
40
0.0000000000
40
0.3313107737
40
0.6646483339
40
1.0000000000
40
1.0000000000
40
1.0000000000
40
1.0000000000
10
-30.6270242422
20
-41.9222146373
30
0.0000000000
10
-30.3796302204
20
-40.5493909952
30
0.0000000000
10
-31.0535522277
20
-37.7270327471
30
0.0000000000
10
-30.8363841849
20
-33.5267354369
30
0.0000000000
10
-30.9843484588
20
-30.7103764689
30
0.0000000000
10
-31.0234285137
20
-29.2989670449
30
0.0000000000
11
-30.6270242422
21
-41.9222146373
31
0.0000000000
11
-30.8481772729
21
-37.7432520476
31
0.0000000000
11
-30.9096762649
21
-33.5332904551
31
0.0000000000
11
-31.0234285137
21
-29.2989670449
31
0.0000000000
0
SPLINE
5
338
100
AcDbEntity
8
0
100
AcDbSpline
62
7
6
CONTINUOUS
70
0
71
3
72
9
73
5
74
3
42
0.0000001000
43
0.0000001000
44
0.0000000001
12
-0.0483139461
22
1.5715674231
32
0.0000000000
13
-0.0448154971
23
1.5716697263
33
0.0000000000
40
0.0000000000
40
0.0000000000
40
0.0000000000
40
0.0000000000
40
0.7464288452
40
1.0000000000
40
1.0000000000
40
1.0000000000
40
1.0000000000
10
27.5836031091
20
-33.7806238735
30
0.0000000000
10
27.5715821348
20
-33.3896027880
30
0.0000000000
10
27.5559127100
20
-32.8657342533
30
0.0000000000
10
27.5408263599
20
-32.3418486680
30
0.0000000000
10
27.5370383875
20
-32.2090052988
30
0.0000000000
11
27.5836031091
21
-33.7806238735
31
0.0000000000
11
27.5485147771
21
-32.6075321174
31
0.0000000000
11
27.5370383875
21
-32.2090052988
31
0.0000000000
0
SPLINE
5
339
100
AcDbEntity
8
0
100
AcDbSpline
62
7
6
CONTINUOUS
70
0
71
3
72
8
73
4
74
2
42
0.0000001000
43
0.0000001000
44
0.0000000001
12
-0.0046714868
22
0.1638280249
32
0.0000000000
13
-0.0046334740
23
0.1638291365
33
0.0000000000
40
0.0000000000
40
0.0000000000
40
0.0000000000
40
0.0000000000
40
1.0000000000
40
1.0000000000
40
1.0000000000
40
1.0000000000
10
27.5370383875
20
-32.2090052988
30
0.0000000000
10
27.5354812252
20
-32.1543959572
30
0.0000000000
10
27.5339303984
20
-32.0997864303
30
0.0000000000
10
27.5323859071
20
-32.0451767181
30
0.0000000000
11
27.5370383875
21
-32.2090052988
31
0.0000000000
11
27.5323859071
21
-32.0451767181
31
0.0000000000
0
SPLINE
5
33A
100
AcDbEntity
8
0
100
AcDbSpline
62
7
6
CONTINUOUS
70
0
71
3
72
9
73
5
74
3
42
0.0000001000
43
0.0000001000
44
0.0000000001
12
-0.0579702753
22
1.8862815842
32
0.0000000000
13
-0.0529383195
23
1.8864287112
33
0.0000000000
40
0.0000000000
40
0.0000000000
40
0.0000000000
40
0.0000000000
40
0.6191462694
40
1.0000000000
40
1.0000000000
40
1.0000000000
40
1.0000000000
10
27.5491896788
20
-33.8084761222
30
0.0000000000
10
27.5372256522
20
-33.4191813869
30
0.0000000000
10
27.5184214799
20
-32.7904056766
30
0.0000000000
10
27.5004559669
20
-32.1616054452
30
0.0000000000
10
27.4937353814
20
-31.9221209745
30
0.0000000000
11
27.5491896788
21
-33.8084761222
31
0.0000000000
11
27.5142620794
21
-32.6405637163
31
0.0000000000
11
27.4937353814
21
-31.9221209745
31
0.0000000000
0
SPLINE
5
33B
100
AcDbEntity
8
0
100
AcDbSpline
62
9
6
CONTINUOUS
70
0
71
3
72
10
73
6
74
4
42
0.0000001000
43
0.0000001000
44
0.0000000001
12
-0.4649466484
22
-13.4193299682
32
0.0000000000
13
0.4471591439
23
-13.4199344589
33
0.0000000000
40
0.0000000000
40
0.0000000000
40
0.0000000000
40
0.0000000000
40
0.3374758130
40
0.6678509733
40
1.0000000000
40
1.0000000000
40
1.0000000000
40
1.0000000000
10
-2.7441482915
20
39.4065997601
30
0.0000000000
10
-2.7964510409
20
37.8970333298
30
0.0000000000
10
-2.8898462819
20
34.9089437928
30
0.0000000000
10
-2.8967643312
20
30.4330362192
30
0.0000000000
10
-2.8795102871
20
27.4672031512
30
0.0000000000
10
-2.8300024623
20
25.9813970949
30
0.0000000000
11
-2.7441482915
21
39.4065997601
31
0.0000000000
11
-2.8681710740
21
34.8768805838
31
0.0000000000
11
-2.8913218997
21
30.4408674537
31
0.0000000000
11
-2.8300024623
21
25.9813970949
31
0.0000000000
0
SPLINE
5
33C
100
AcDbEntity
8
0
100
AcDbSpline
62
9
6
CONTINUOUS
70
0
71
3
72
11
73
7
74
5
42
0.0000001000
43
0.0000001000
44
0.0000000001
12
-19.5982541556
22
0.0003938660
32
0.0000000000
13
-19.5869823616
23
0.6645961714
33
0.0000000000
40
0.0000000000
40
0.0000000000
40
0.0000000000
40
0.0000000000
40
0.5691186472
40
0.8432194412
40
0.9772045704
40
1.0000000000
40
1.0000000000
40
1.0000000000
40
1.0000000000
10
-40.7238256743
20
-1.6575156106
30
0.0000000000
10
-44.4417363051
20
-1.6574408918
30
0.0000000000
10
-49.9504790548
20
-1.6088813433
30
0.0000000000
10
-56.3326836137
20
-1.4612816904
30
0.0000000000
10
-59.1462260666
20
-1.3753515810
30
0.0000000000
10
-60.1698603499
20
-1.3410622989
30
0.0000000000
10
-60.3186915759
20
-1.3360123805
30
0.0000000000
11
-40.7238256743
21
-1.6575156106
31
0.0000000000
11
-51.8770955349
21
-1.5559942027
31
0.0000000000
11
-57.2475430557
21
-1.4312100690
31
0.0000000000
11
-59.8721914038
21
-1.3509695177
31
0.0000000000
11
-60.3186915759
21
-1.3360123805
31
0.0000000000
0
SPLINE
5
33D
100
AcDbEntity
8
0
100
AcDbSpline
62
7
6
CONTINUOUS
70
0
71
3
72
8
73
4
74
2
42
0.0000001000
43
0.0000001000
44
0.0000000001
12
-0.2317863745
22
-0.0001233049
32
0.0000000000
13
-0.2317863821
23
-0.0001081945
33
0.0000000000
40
0.0000000000
40
0.0000000000
40
0.0000000000
40
0.0000000000
40
1.0000000000
40
1.0000000000
40
1.0000000000
40
1.0000000000
10
31.5898695528
20
-32.6744306727
30
0.0000000000
10
31.5126074280
20
-32.6744717743
30
0.0000000000
10
31.4353453018
20
-32.6745102684
30
0.0000000000
10
31.3580831744
20
-32.6745463333
30
0.0000000000
11
31.5898695528
21
-32.6744306727
31
0.0000000000
11
31.3580831744
21
-32.6745463333
31
0.0000000000
0
SPLINE
5
33E
100
AcDbEntity
8
0
100
AcDbSpline
62
7
6
CONTINUOUS
70
0
71
3
72
8
73
4
74
2
42
0.0000001000
43
0.0000001000
44
0.0000000001
12
-0.2780429560
22
-0.0001297864
32
0.0000000000
13
-0.2780429645
23
-0.0001096868
33
0.0000000000
40
0.0000000000
40
0.0000000000
40
0.0000000000
40
0.0000000000
40
1.0000000000
40
1.0000000000
40
1.0000000000
40
1.0000000000
10
31.3580831744
20
-32.6745463333
30
0.0000000000
10
31.2654021891
20
-32.6745895954
30
0.0000000000
10
31.1727212022
20
-32.6746293619
30
0.0000000000
10
31.0800402140
20
-32.6746659242
30
0.0000000000
11
31.3580831744
21
-32.6745463333
31
0.0000000000
11
31.0800402140
21
-32.6746659242
31
0.0000000000
0
SPLINE
5
33F
100
AcDbEntity
8
0
100
AcDbSpline
62
7
6
CONTINUOUS
70
0
71
3
72
10
73
6
74
4
42
0.0000001000
43
0.0000001000
44
0.0000000001
12
0.4315660220
22
1.6868600096
32
0.0000000000
13
0.4346175601
23
1.6860763931
33
0.0000000000
40
0.0000000000
40
0.0000000000
40
0.0000000000
40
0.0000000000
40
0.3857042928
40
0.7585733043
40
1.0000000000
40
1.0000000000
40
1.0000000000
40
1.0000000000
10
28.6948339756
20
-33.7806234515
30
0.0000000000
10
28.7503195981
20
-33.5637470691
30
0.0000000000
10
28.8595878543
20
-33.1372480920
30
0.0000000000
10
29.0040167313
20
-32.5751084235
30
0.0000000000
10
29.0929374372
20
-32.2298395503
30
0.0000000000
10
29.1279135310
20
-32.0941515995
30
0.0000000000
11
28.6948339756
21
-33.7806234515
31
0.0000000000
11
28.8615121017
21
-33.1300509514
31
0.0000000000
11
29.0230739926
21
-32.5012383149
31
0.0000000000
11
29.1279135310
21
-32.0941515995
31
0.0000000000
0
SPLINE
5
340
100
AcDbEntity
8
0
100
AcDbSpline
62
7
6
CONTINUOUS
70
0
71
3
72
9
73
5
74
3
42
0.0000001000
43
0.0000001000
44
0.0000000001
12
-0.0879804439
22
2.8619473412
32
0.0000000000
13
-0.0763931248
23
2.8622821912
33
0.0000000000
40
0.0000000000
40
0.0000000000
40
0.0000000000
40
0.0000000000
40
0.4098829808
40
1.0000000000
40
1.0000000000
40
1.0000000000
40
1.0000000000
10
26.4412014910
20
-33.7806237526
30
0.0000000000
10
26.4291809288
20
-33.3896025835
30
0.0000000000
10
26.4006456883
20
-32.4355972616
30
0.0000000000
10
26.3740416677
20
-31.4815361313
30
0.0000000000
10
26.3590147066
20
-30.9185089864
30
0.0000000000
11
26.4412014910
21
-33.7806237526
31
0.0000000000
11
26.4061131627
21
-32.6075321174
31
0.0000000000
11
26.3590147066
21
-30.9185089864
31
0.0000000000
0
SPLINE
5
341
100
AcDbEntity
8
0
100
AcDbSpline
62
7
6
CONTINUOUS
70
0
71
3
72
9
73
5
74
3
42
0.0000001000
43
0.0000001000
44
0.0000000001
12
-0.0879524557
22
2.8619629372
32
0.0000000000
13
-0.0763832691
23
2.8622972241
33
0.0000000000
40
0.0000000000
40
0.0000000000
40
0.0000000000
40
0.0000000000
40
0.4080711307
40
1.0000000000
40
1.0000000000
40
1.0000000000
40
1.0000000000
10
26.4067880607
20
-33.8084760012
30
0.0000000000
10
26.3948244414
20
-33.4191811839
30
0.0000000000
10
26.3662937980
20
-32.4651708028
30
0.0000000000
10
26.3396913524
20
-31.5111047071
30
0.0000000000
10
26.3246201983
20
-30.9463459206
30
0.0000000000
11
26.4067880607
21
-33.8084760012
31
0.0000000000
11
26.3718604650
21
-32.6405637163
31
0.0000000000
11
26.3246201983
21
-30.9463459206
31
0.0000000000
0
SPLINE
5
342
100
AcDbEntity
8
0
100
AcDbSpline
62
7
6
CONTINUOUS
70
0
71
3
72
10
73
6
74
4
42
0.0000001000
43
0.0000001000
44
0.0000000001
12
-0.8387972720
22
-2.8609695855
32
0.0000000000
13
-0.8308331679
23
-2.8632925244
33
0.0000000000
40
0.0000000000
40
0.0000000000
40
0.0000000000
40
0.0000000000
40
0.3338510807
40
0.6671909330
40
1.0000000000
40
1.0000000000
40
1.0000000000
40
1.0000000000
10
25.3726094958
20
-30.9463458155
30
0.0000000000
10
25.2792650372
20
-31.2647250782
30
0.0000000000
10
25.0930125442
20
-31.9010821577
30
0.0000000000
10
24.8147367308
20
-32.8551257901
30
0.0000000000
10
24.6299540622
20
-33.4908328843
30
0.0000000000
10
24.5377844584
20
-33.8084761222
30
0.0000000000
11
25.3726094958
21
-30.9463458155
31
0.0000000000
11
25.0930174043
21
-31.9016128714
31
0.0000000000
11
24.8147368774
21
-32.8556752408
31
0.0000000000
11
24.5377844584
21
-33.8084761222
31
0.0000000000
0
SPLINE
5
343
100
AcDbEntity
8
0
100
AcDbSpline
62
7
6
CONTINUOUS
70
0
71
3
72
10
73
6
74
4
42
0.0000001000
43
0.0000001000
44
0.0000000001
12
-1.1866572014
22
-0.0015474409
32
0.0000000000
13
-1.1866578321
23
-0.0009492233
33
0.0000000000
40
0.0000000000
40
0.0000000000
40
0.0000000000
40
0.0000000000
40
0.3690159820
40
0.7452127059
40
1.0000000000
40
1.0000000000
40
1.0000000000
40
1.0000000000
10
34.2313530222
20
-30.9160454536
30
0.0000000000
10
34.0853878647
20
-30.9162357971
30
0.0000000000
10
33.7906171479
20
-30.9165884588
30
0.0000000000
10
33.3950646079
20
-30.9169850220
30
0.0000000000
10
33.1454772431
20
-30.9171984063
30
0.0000000000
10
33.0446954637
20
-30.9172790229
30
0.0000000000
11
34.2313530222
21
-30.9160454536
31
0.0000000000
11
33.7934574928
21
-30.9165710501
31
0.0000000000
11
33.3470407875
21
-30.9170200730
31
0.0000000000
11
33.0446954637
21
-30.9172790229
31
0.0000000000
0
SPLINE
5
344
100
AcDbEntity
8
0
100
AcDbSpline
62
7
6
CONTINUOUS
70
0
71
3
72
8
73
4
74
2
42
0.0000001000
43
0.0000001000
44
0.0000000001
12
-0.1525929144
22
-0.0001220611
32
0.0000000000
13
-0.1525929206
23
-0.0001137618
33
0.0000000000
40
0.0000000000
40
0.0000000000
40
0.0000000000
40
0.0000000000
40
1.0000000000
40
1.0000000000
40
1.0000000000
40
1.0000000000
10
33.0446954637
20
-30.9172790229
30
0.0000000000
10
32.9938311589
20
-30.9173197100
30
0.0000000000
10
32.9429668530
20
-30.9173589842
30
0.0000000000
10
32.8921025461
20
-30.9173969048
30
0.0000000000
11
33.0446954637
21
-30.9172790229
31
0.0000000000
11
32.8921025461
21
-30.9173969048
31
0.0000000000
0
SPLINE
5
345
100
AcDbEntity
8
0
100
AcDbSpline
62
7
6
CONTINUOUS
70
0
71
3
72
10
73
6
74
4
42
0.0000001000
43
0.0000001000
44
0.0000000001
12
0.6836928555
22
-1.9727781836
32
0.0000000000
13
0.6898221822
23
-1.9706433060
33
0.0000000000
40
0.0000000000
40
0.0000000000
40
0.0000000000
40
0.0000000000
40
0.3335069161
40
0.6668435267
40
1.0000000000
40
1.0000000000
40
1.0000000000
40
1.0000000000
10
23.5386158046
20
-30.9463458155
30
0.0000000000
10
23.6146212366
20
-31.1656575383
30
0.0000000000
10
23.7668200974
20
-31.6040904279
30
0.0000000000
10
23.9957386159
20
-32.2613285797
30
0.0000000000
10
24.1487652872
20
-32.6992148734
30
0.0000000000
10
24.2253715290
20
-32.9180590647
30
0.0000000000
11
23.5386158046
21
-30.9463458155
31
0.0000000000
11
23.7669725184
21
-31.6041629087
31
0.0000000000
11
23.9958934296
21
-32.2614073542
31
0.0000000000
11
24.2253715290
21
-32.9180590647
31
0.0000000000
0
SPLINE
5
346
100
AcDbEntity
8
0
100
AcDbSpline
62
7
6
CONTINUOUS
70
0
71
3
72
15
73
11
74
9
42
0.0000001000
43
0.0000001000
44
0.0000000001
12
1.3067269779
22
1.5420847079
32
0.0000000000
13
-2.0100480720
23
-0.0026211703
33
0.0000000000
40
0.0000000000
40
0.0000000000
40
0.0000000000
40
0.0000000000
40
0.1014750180
40
0.2537622004
40
0.4026353332
40
0.5413712711
40
0.6668339029
40
0.7815787353
40
0.8906159570
40
1.0000000000
40
1.0000000000
40
1.0000000000
40
1.0000000000
10
34.9322995104
20
-32.3721179952
30
0.0000000000
10
34.9764995582
20
-32.3199569707
30
0.0000000000
10
35.0711369595
20
-32.1761449859
30
0.0000000000
10
35.1471058992
20
-31.9111359115
30
0.0000000000
10
35.1258134220
20
-31.6113857618
30
0.0000000000
10
35.0175298876
20
-31.3518517020
30
0.0000000000
10
34.8543489501
20
-31.1531287152
30
0.0000000000
10
34.6616611703
20
-31.0159455898
30
0.0000000000
10
34.4516467186
20
-30.9343056404
30
0.0000000000
10
34.3046420439
20
-30.9159480089
30
0.0000000000
10
34.2313529824
20
-30.9160435803
30
0.0000000000
11
34.9322995104
21
-32.3721179952
31
0.0000000000
11
35.0447103694
21
-32.2012296822
31
0.0000000000
11
35.1294930864
21
-31.9071003734
31
0.0000000000
11
35.1088519934
21
-31.6085707032
31
0.0000000000
11
35.0017762174
21
-31.3510806971
31
0.0000000000
11
34.8417975079
21
-31.1561328593
31
0.0000000000
11
34.6538857303
21
-31.0223970126
31
0.0000000000
11
34.4495425521
21
-30.9431539612
31
0.0000000000
11
34.2313529824
21
-30.9160435803
31
0.0000000000
0
SPLINE
5
347
100
AcDbEntity
8
0
100
AcDbSpline
62
9
6
CONTINUOUS
70
0
71
3
72
8
73
4
74
2
42
0.0000001000
43
0.0000001000
44
0.0000000001
12
0.2357525335
22
0.1635897140
32
0.0000000000
13
0.2216942596
23
0.1821782593
33
0.0000000000
40
0.0000000000
40
0.0000000000
40
0.0000000000
40
0.0000000000
40
1.0000000000
40
1.0000000000
40
1.0000000000
40
1.0000000000
10
57.6004464570
20
-42.2305740045
30
0.0000000000
10
57.6790306348
20
-42.1760440998
30
0.0000000000
10
57.7554091957
20
-42.1183364359
30
0.0000000000
10
57.8293072822
20
-42.0576103495
30
0.0000000000
11
57.6004464570
21
-42.2305740045
31
0.0000000000
11
57.8293072822
21
-42.0576103495
31
0.0000000000
0
SPLINE
5
348
100
AcDbEntity
8
0
100
AcDbSpline
62
9
6
CONTINUOUS
70
0
71
3
72
11
73
7
74
5
42
0.0000001000
43
0.0000001000
44
0.0000000001
12
2.4678600111
22
2.0279751124
32
0.0000000000
13
-0.0855660161
23
3.1861560746
33
0.0000000000
40
0.0000000000
40
0.0000000000
40
0.0000000000
40
0.0000000000
40
0.2514345019
40
0.5026145320
40
0.7529092241
40
1.0000000000
40
1.0000000000
40
1.0000000000
40
1.0000000000
10
57.8293072822
20
-42.0576103495
30
0.0000000000
10
58.0361423332
20
-41.8876427120
30
0.0000000000
10
58.4107588456
20
-41.5006109285
30
0.0000000000
10
58.8258073003
20
-40.8084993697
30
0.0000000000
10
59.0716520089
20
-40.0451591053
30
0.0000000000
10
59.1168002306
20
-39.5133955225
30
0.0000000000
10
59.1097527062
20
-39.2509722636
30
0.0000000000
11
57.8293072822
21
-42.0576103495
31
0.0000000000
11
58.3865374591
21
-41.4816468704
31
0.0000000000
11
58.7982596497
21
-40.7950429824
31
0.0000000000
11
59.0427713951
21
-40.0356723424
31
0.0000000000
11
59.1097527062
21
-39.2509722636
31
0.0000000000
0
SPLINE
5
349
100
AcDbEntity
8
0
100
AcDbSpline
62
7
6
CONTINUOUS
70
0
71
3
72
10
73
6
74
4
42
0.0000001000
43
0.0000001000
44
0.0000000001
12
-0.0337955727
22
1.0782298054
32
0.0000000000
13
-0.0319790989
23
1.0782852123
33
0.0000000000
40
0.0000000000
40
0.0000000000
40
0.0000000000
40
0.0000000000
40
0.3491236555
40
0.6907485756
40
1.0000000000
40
1.0000000000
40
1.0000000000
40
1.0000000000
10
33.5475995556
20
-33.7778168021
30
0.0000000000
10
33.5436666110
20
-33.6523382917
30
0.0000000000
10
33.5359563815
20
-33.4040741533
30
0.0000000000
10
33.5250021291
20
-33.0446545889
30
0.0000000000
10
33.5180017876
20
-32.8107129829
30
0.0000000000
10
33.5147052603
20
-32.6995592370
30
0.0000000000
11
33.5475995556
21
-33.7778168021
31
0.0000000000
11
33.5359093621
21
-33.4013778815
31
0.0000000000
11
33.5246831834
21
-33.0330178429
31
0.0000000000
11
33.5147052603
21
-32.6995592370
31
0.0000000000
0
SPLINE
5
34A
100
AcDbEntity
8
0
100
AcDbSpline
62
9
6
CONTINUOUS
70
0
71
3
72
11
73
7
74
5
42
0.0000001000
43
0.0000001000
44
0.0000000001
12
0.0498757379
22
-1.1713526699
32
0.0000000000
13
1.1482765330
23
-0.2046009800
33
0.0000000000
40
0.0000000000
40
0.0000000000
40
0.0000000000
40
0.0000000000
40
0.4171955374
40
0.7445006056
40
0.9449316844
40
1.0000000000
40
1.0000000000
40
1.0000000000
40
1.0000000000
10
-30.6674006747
20
-41.9222547387
30
0.0000000000
10
-30.6604646962
20
-42.0851491076
30
0.0000000000
10
-30.6475362492
20
-42.3769767947
30
0.0000000000
10
-30.5640456188
20
-42.7380270932
30
0.0000000000
10
-30.5439032427
20
-42.9649617859
30
0.0000000000
10
-30.4379160935
20
-43.0410931964
30
0.0000000000
10
-30.4168382087
20
-43.0448488735
30
0.0000000000
11
-30.6674006747
21
-41.9222547387
31
0.0000000000
11
-30.6293787381
21
-42.4099005951
31
0.0000000000
11
-30.5637557342
21
-42.7879849096
31
0.0000000000
11
-30.4790900251
21
-43.0071906950
31
0.0000000000
11
-30.4168382087
21
-43.0448488735
31
0.0000000000
0
SPLINE
5
34B
100
AcDbEntity
8
0
100
AcDbSpline
62
7
6
CONTINUOUS
70
0
71
3
72
10
73
6
74
4
42
0.0000001000
43
0.0000001000
44
0.0000000001
12
-0.0844730274
22
2.7373895191
32
0.0000000000
13
-0.0737761413
23
2.7376987729
33
0.0000000000
40
0.0000000000
40
0.0000000000
40
0.0000000000
40
0.0000000000
40
0.3604604861
40
0.7089950721
40
1.0000000000
40
1.0000000000
40
1.0000000000
40
1.0000000000
10
29.8062451443
20
-33.7805107955
30
0.0000000000
10
29.7960954148
20
-33.4516038767
30
0.0000000000
10
29.7765992038
20
-32.8046574261
30
0.0000000000
10
29.7505034413
20
-31.8921326578
30
0.0000000000
10
29.7345200087
20
-31.3085173293
30
0.0000000000
10
29.7273636018
20
-31.0429560513
30
0.0000000000
11
29.8062451443
21
-33.7805107955
31
0.0000000000
11
29.7765283060
21
-32.7937677114
31
0.0000000000
11
29.7492117954
21
-31.8396295744
31
0.0000000000
11
29.7273636018
21
-31.0429560513
31
0.0000000000
0
SPLINE
5
34C
100
AcDbEntity
8
0
100
AcDbSpline
62
7
6
CONTINUOUS
70
0
71
3
72
8
73
4
74
2
42
0.0000001000
43
0.0000001000
44
0.0000000001
12
-0.0033557545
22
0.1245259604
32
0.0000000000
13
-0.0033390298
23
0.1245264065
33
0.0000000000
40
0.0000000000
40
0.0000000000
40
0.0000000000
40
0.0000000000
40
1.0000000000
40
1.0000000000
40
1.0000000000
40
1.0000000000
10
29.7273636018
20
-31.0429560513
30
0.0000000000
10
29.7262450170
20
-31.0014473978
30
0.0000000000
10
29.7251292764
20
-30.9599386682
30
0.0000000000
10
29.7240162665
20
-30.9184298660
30
0.0000000000
11
29.7273636018
21
-31.0429560513
31
0.0000000000
11
29.7240162665
21
-30.9184298660
31
0.0000000000
0
SPLINE
5
34D
100
AcDbEntity
8
0
100
AcDbSpline
62
9
6
CONTINUOUS
70
0
71
3
72
11
73
7
74
5
42
0.0000001000
43
0.0000001000
44
0.0000000001
12
0.0489352759
22
-1.1429724942
32
0.0000000000
13
1.1385006156
23
-0.6721950656
33
0.0000000000
40
0.0000000000
40
0.0000000000
40
0.0000000000
40
0.0000000000
40
0.4275374700
40
0.7629698390
40
0.9683646147
40
1.0000000000
40
1.0000000000
40
1.0000000000
40
1.0000000000
10
28.5480169773
20
-41.9222547387
30
0.0000000000
10
28.5549908653
20
-42.0851425949
30
0.0000000000
10
28.5679642699
20
-42.3769550555
30
0.0000000000
10
28.6514255909
20
-42.7380211517
30
0.0000000000
10
28.6706512464
20
-42.9555120338
30
0.0000000000
10
28.7582714000
20
-43.0264698641
30
0.0000000000
10
28.7702770352
20
-43.0335582474
30
0.0000000000
11
28.5480169773
21
-41.9222547387
31
0.0000000000
11
28.5861051669
21
-42.4098807111
31
0.0000000000
11
28.6516894526
21
-42.7879759461
31
0.0000000000
11
28.7363018226
21
-43.0071888561
31
0.0000000000
11
28.7702770352
21
-43.0335582474
31
0.0000000000
0
SPLINE
5
34E
100
AcDbEntity
8
0
100
AcDbSpline
62
9
6
CONTINUOUS
70
0
71
3
72
8
73
4
74
2
42
0.0000001000
43
0.0000001000
44
0.0000000001
12
0.0281969815
22
-0.0166480998
32
0.0000000000
13
0.0277475351
23
-0.0049489775
33
0.0000000000
40
0.0000000000
40
0.0000000000
40
0.0000000000
40
0.0000000000
40
1.0000000000
40
1.0000000000
40
1.0000000000
40
1.0000000000
10
28.7702770352
20
-43.0335582474
30
0.0000000000
10
28.7796760290
20
-43.0391076140
30
0.0000000000
10
28.7892658531
20
-43.0431970127
30
0.0000000000
10
28.7985150315
20
-43.0448466719
30
0.0000000000
11
28.7702770352
21
-43.0335582474
31
0.0000000000
11
28.7985150315
21
-43.0448466719
31
0.0000000000
0
SPLINE
5
34F
100
AcDbEntity
8
0
100
AcDbSpline
62
9
6
CONTINUOUS
70
0
71
3
72
16
73
12
74
10
42
0.0000001000
43
0.0000001000
44
0.0000000001
12
26.9603167558
22
0.0275265543
32
0.0000000000
13
26.9487063995
23
0.7916190248
33
0.0000000000
40
0.0000000000
40
0.0000000000
40
0.0000000000
40
0.0000000000
40
0.1579652610
40
0.2994633963
40
0.4270084568
40
0.5427326331
40
0.6478224999
40
0.7438358425
40
0.8346061279
40
0.9203822323
40
1.0000000000
40
1.0000000000
40
1.0000000000
40
1.0000000000
10
28.5481045353
20
-41.9222222585
30
0.0000000000
10
29.9677023593
20
-41.9207728454
30
0.0000000000
10
32.6589120967
20
-41.9185088772
30
0.0000000000
10
36.4963395268
20
-41.9139364789
30
0.0000000000
10
39.9541489824
20
-41.9054293172
30
0.0000000000
10
43.0847490071
20
-41.8923630435
30
0.0000000000
10
45.9319506321
20
-41.8739557040
30
0.0000000000
10
48.5548258842
20
-41.8474230402
30
0.0000000000
10
51.0039881650
20
-41.8098063723
30
0.0000000000
10
53.3055164981
20
-41.7582569601
30
0.0000000000
10
54.7913201775
20
-41.7175046185
30
0.0000000000
10
55.5065187931
20
-41.6964956386
30
0.0000000000
11
28.5481045353
21
-41.9222222585
31
0.0000000000
11
32.8068982534
21
-41.9181220833
31
0.0000000000
11
36.6217312685
21
-41.9129385600
31
0.0000000000
11
40.0603770308
21
-41.9041382620
31
0.0000000000
11
43.1803102318
21
-41.8907153602
31
0.0000000000
11
46.0135035018
21
-41.8716267930
31
0.0000000000
11
48.6019141100
21
-41.8446214480
31
0.0000000000
11
51.0488088761
21
-41.8061665446
31
0.0000000000
11
53.3607951042
21
-41.7550087471
31
0.0000000000
11
55.5065187931
21
-41.6964956386
31
0.0000000000
0
SPLINE
5
350
100
AcDbEntity
8
0
100
AcDbSpline
62
9
6
CONTINUOUS
70
0
71
3
72
11
73
7
74
5
42
0.0000001000
43
0.0000001000
44
0.0000000001
12
0.0285263280
22
-1.1697790810
32
0.0000000000
13
0.5062990591
23
-0.2053811991
33
0.0000000000
40
0.0000000000
40
0.0000000000
40
0.0000000000
40
0.0000000000
40
0.4336781149
40
0.7733640462
40
0.9727515165
40
1.0000000000
40
1.0000000000
40
1.0000000000
40
1.0000000000
10
55.5065186751
20
-41.6964963616
30
0.0000000000
10
55.5106424232
20
-41.8655988905
30
0.0000000000
10
55.5084248029
20
-42.1478441746
30
0.0000000000
10
55.5638275784
20
-42.5890526360
30
0.0000000000
10
55.5206529229
20
-42.7082050468
30
0.0000000000
10
55.5782848116
20
-42.8701854360
30
0.0000000000
10
55.5828834387
20
-42.8720508781
30
0.0000000000
11
55.5065186751
21
-41.6964963616
31
0.0000000000
11
55.5227036204
21
-42.2036966009
31
0.0000000000
11
55.5433090874
21
-42.6006377687
31
0.0000000000
11
55.5655094711
21
-42.8328877658
31
0.0000000000
11
55.5828834387
21
-42.8720508781
31
0.0000000000
0
SPLINE
5
351
100
AcDbEntity
8
0
100
AcDbSpline
62
9
6
CONTINUOUS
70
0
71
3
72
14
73
10
74
8
42
0.0000001000
43
0.0000001000
44
0.0000000001
12
3.4226515574
22
0.1013558362
32
0.0000000000
13
-0.0686493179
23
3.4234637372
33
0.0000000000
40
0.0000000000
40
0.0000000000
40
0.0000000000
40
0.0000000000
40
0.1445506328
40
0.2898381484
40
0.4343702964
40
0.5781477576
40
0.7209324310
40
0.8619525746
40
1.0000000000
40
1.0000000000
40
1.0000000000
40
1.0000000000
10
55.5065186751
20
-41.6964963616
30
0.0000000000
10
55.6714341580
20
-41.6916126781
30
0.0000000000
10
56.0021641709
20
-41.6450105588
30
0.0000000000
10
56.4696034326
20
-41.4685730007
30
0.0000000000
10
56.8869310783
20
-41.1951672876
30
0.0000000000
10
57.2326981967
20
-40.8395154168
30
0.0000000000
10
57.4896305960
20
-40.4197219632
30
0.0000000000
10
57.6440401708
20
-39.9594352901
30
0.0000000000
10
57.6744698142
20
-39.6390776234
30
0.0000000000
10
57.6713108603
20
-39.4815441718
30
0.0000000000
11
55.5065186751
21
-41.6964963616
31
0.0000000000
11
55.9966406639
21
-41.6274374179
31
0.0000000000
11
56.4621386129
21
-41.4519252838
31
0.0000000000
11
56.8760349425
21
-41.1806028248
31
0.0000000000
11
57.2189823321
21
-40.8273861630
31
0.0000000000
11
57.4738188539
21
-40.4101361025
31
0.0000000000
11
57.6268150589
21
-39.9521406338
31
0.0000000000
11
57.6713108603
21
-39.4815441718
31
0.0000000000
0
SPLINE
5
352
100
AcDbEntity
8
0
100
AcDbSpline
62
9
6
CONTINUOUS
70
0
71
3
72
11
73
7
74
5
42
0.0000001000
43
0.0000001000
44
0.0000000001
12
1.4662310701
22
0.0432917734
32
0.0000000000
13
1.1156991644
23
0.9523251036
33
0.0000000000
40
0.0000000000
40
0.0000000000
40
0.0000000000
40
0.0000000000
40
0.3389848692
40
0.6390117962
40
0.8667887035
40
1.0000000000
40
1.0000000000
40
1.0000000000
40
1.0000000000
10
57.6713108927
20
-39.4815446972
30
0.0000000000
10
57.8369876085
20
-39.4766529451
30
0.0000000000
10
58.1485903983
20
-39.4590341466
30
0.0000000000
10
58.5720531659
20
-39.4123633491
30
0.0000000000
10
58.8848579705
20
-39.3476859581
30
0.0000000000
10
59.0602114621
20
-39.2932590842
30
0.0000000000
10
59.1097527062
20
-39.2509722636
30
0.0000000000
11
57.6713108927
21
-39.4815446972
31
0.0000000000
11
58.1677511539
21
-39.4532357288
31
0.0000000000
11
58.6047369815
21
-39.4009686547
31
0.0000000000
11
58.9314105983
21
-39.3308263999
31
0.0000000000
11
59.1097527062
21
-39.2509722636
31
0.0000000000
0
SPLINE
5
353
100
AcDbEntity
8
0
100
AcDbSpline
62
9
6
CONTINUOUS
70
0
71
3
72
17
73
13
74
11
42
0.0000001000
43
0.0000001000
44
0.0000000001
12
-1.0939783721
22
38.1080561506
32
0.0000000000
13
-0.9301274675
23
38.1124073649
33
0.0000000000
40
0.0000000000
40
0.0000000000
40
0.0000000000
40
0.0000000000
40
0.0603444754
40
0.1280365913
40
0.2040216366
40
0.2891618075
40
0.3834448586
40
0.4865960121
40
0.5985115900
40
0.7202720136
40
0.8531363089
40
1.0000000000
40
1.0000000000
40
1.0000000000
40
1.0000000000
10
59.1097527062
20
-39.2509722636
30
0.0000000000
10
59.0877475225
20
-38.4844353777
30
0.0000000000
10
59.0440166753
20
-36.8579421504
30
0.0000000000
10
58.9792196529
20
-34.2660613547
30
0.0000000000
10
58.9090752920
20
-31.3591153097
30
0.0000000000
10
58.8316148151
20
-28.1143323591
30
0.0000000000
10
58.7457003981
20
-24.5244281154
30
0.0000000000
10
58.6508225989
20
-20.5943813480
30
0.0000000000
10
58.5466237826
20
-16.3152777549
30
0.0000000000
10
58.4325414758
20
-11.6587107870
30
0.0000000000
10
58.3073889645
20
-6.5581640064
30
0.0000000000
10
58.2204021240
20
-3.0044680116
30
0.0000000000
10
58.1748681397
20
-1.1386917371
30
0.0000000000
11
59.1097527062
21
-39.2509722636
31
0.0000000000
11
59.0472074383
21
-36.9512646041
31
0.0000000000
11
58.9822057933
21
-34.3714056831
31
0.0000000000
11
58.9119990163
21
-31.4754212783
31
0.0000000000
11
58.8343569411
21
-28.2304869657
31
0.0000000000
11
58.7482769558
21
-24.6370938571
31
0.0000000000
11
58.6533793877
21
-20.7057296809
31
0.0000000000
11
58.5495681881
21
-16.4403506499
31
0.0000000000
11
58.4359694755
21
-11.7997762437
31
0.0000000000
11
58.3118003300
21
-6.7360124915
31
0.0000000000
11
58.1748681397
21
-1.1386917371
31
0.0000000000
0
SPLINE
5
354
100
AcDbEntity
8
0
100
AcDbSpline
62
9
6
CONTINUOUS
70
0
71
3
72
17
73
13
74
11
42
0.0000001000
43
0.0000001000
44
0.0000000001
12
-0.7714242491
22
38.1475826600
32
0.0000000000
13
-0.9308966890
23
38.1440242965
33
0.0000000000
40
0.0000000000
40
0.0000000000
40
0.0000000000
40
0.0000000000
40
0.0608174831
40
0.1287253681
40
0.2047614372
40
0.2898518764
40
0.3840316927
40
0.4870588942
40
0.5988460041
40
0.7204883585
40
0.8532437258
40
1.0000000000
40
1.0000000000
40
1.0000000000
40
1.0000000000
10
57.6713108927
20
-39.4815446972
30
0.0000000000
10
57.6556721989
20
-38.7081980427
30
0.0000000000
10
57.6225261397
20
-37.0713450412
30
0.0000000000
10
57.5683165217
20
-34.4676589156
30
0.0000000000
10
57.5063929198
20
-31.5553521592
30
0.0000000000
10
57.4355284585
20
-28.3090219126
30
0.0000000000
10
57.3552659952
20
-24.7195299137
30
0.0000000000
10
57.2654175878
20
-20.7906273300
30
0.0000000000
10
57.1655775320
20
-16.5125812334
30
0.0000000000
10
57.0553464818
20
-11.8565784912
30
0.0000000000
10
56.9330583486
20
-6.7559828711
30
0.0000000000
10
56.8468501253
20
-3.2020704487
30
0.0000000000
10
56.8013118154
20
-1.3361121530
30
0.0000000000
11
57.6713108927
21
-39.4815446972
31
0.0000000000
11
57.6241435335
21
-37.1615098288
31
0.0000000000
11
57.5702882815
21
-34.5710183049
31
0.0000000000
11
57.5085826469
21
-31.6704893478
31
0.0000000000
11
57.4377786499
21
-28.4246033017
31
0.0000000000
11
57.3574909955
21
-24.8320334881
31
0.0000000000
11
57.2676701365
21
-20.9020175797
31
0.0000000000
11
57.1682725290
21
-16.6378960567
31
0.0000000000
11
57.0584698786
21
-11.9978846044
31
0.0000000000
11
56.9371004428
21
-6.9340071447
31
0.0000000000
11
56.8013118154
21
-1.3361121530
31
0.0000000000
0
SPLINE
5
355
100
AcDbEntity
8
0
100
AcDbSpline
62
9
6
CONTINUOUS
70
0
71
3
72
11
73
7
74
5
42
0.0000001000
43
0.0000001000
44
0.0000000001
12
1.3943315561
22
0.0436731659
32
0.0000000000
13
1.1229755855
23
0.8276434427
33
0.0000000000
40
0.0000000000
40
0.0000000000
40
0.0000000000
40
0.0000000000
40
0.3423175519
40
0.6424092920
40
0.8687846236
40
1.0000000000
40
1.0000000000
40
1.0000000000
40
1.0000000000
10
56.8013116957
20
-1.3361120241
30
0.0000000000
10
56.9604130840
20
-1.3311286603
30
0.0000000000
10
57.2583856639
20
-1.3149743796
30
0.0000000000
10
57.6621606251
20
-1.2748650155
30
0.0000000000
10
57.9597990322
20
-1.2194958248
30
0.0000000000
10
58.1257509183
20
-1.1748915857
30
0.0000000000
10
58.1748681397
20
-1.1386917371
30
0.0000000000
11
56.8013116957
21
-1.3361120241
31
0.0000000000
11
57.2781397666
21
-1.3100781648
31
0.0000000000
11
57.6943337273
21
-1.2649580147
31
0.0000000000
11
58.0045161854
21
-1.2056737196
31
0.0000000000
11
58.1748681397
21
-1.1386917371
31
0.0000000000
0
SPLINE
5
356
100
AcDbEntity
8
0
100
AcDbSpline
62
9
6
CONTINUOUS
70
0
71
3
72
24
73
20
74
18
42
0.0000001000
43
0.0000001000
44
0.0000000001
12
-0.9333946936
22
38.1613336330
32
0.0000000000
13
-0.1805392243
23
38.1723200223
33
0.0000000000
40
0.0000000000
40
0.0000000000
40
0.0000000000
40
0.0000000000
40
0.0361559918
40
0.0753459312
40
0.1178985343
40
0.1641189534
40
0.2143121701
40
0.2687816029
40
0.3278272501
40
0.3917423639
40
0.4607826623
40
0.5350346782
40
0.6141666252
40
0.6940528290
40
0.7688312123
40
0.8359824967
40
0.8956406034
40
0.9499734448
40
1.0000000000
40
1.0000000000
40
1.0000000000
40
1.0000000000
10
58.1748681397
20
-1.1386917371
30
0.0000000000
10
58.1636188694
20
-0.6787714489
30
0.0000000000
10
58.1402222622
20
0.2796634132
30
0.0000000000
10
58.1037571107
20
1.7793904703
30
0.0000000000
10
58.0643433350
20
3.4071459541
30
0.0000000000
10
58.0217218846
20
5.1748732360
30
0.0000000000
10
57.9756383976
20
7.0941938123
30
0.0000000000
10
57.9258277439
20
9.1766633170
30
0.0000000000
10
57.8720009899
20
11.4336875275
30
0.0000000000
10
57.8138241538
20
13.8760640308
30
0.0000000000
10
57.7509234560
20
16.5118725177
30
0.0000000000
10
57.6831166819
20
19.3412418214
30
0.0000000000
10
57.6113931392
20
22.3085628386
30
0.0000000000
10
57.5389571015
20
25.2825661299
30
0.0000000000
10
57.4704094050
20
28.1041740338
30
0.0000000000
10
57.4102273327
20
30.6685215553
30
0.0000000000
10
57.3611785558
20
32.9729022135
30
0.0000000000
10
57.3255455086
20
35.0596061806
30
0.0000000000
10
57.3123596091
20
36.3874559605
30
0.0000000000
10
57.3093490239
20
37.0239991858
30
0.0000000000
11
58.1748681397
21
-1.1386917371
31
0.0000000000
11
58.1411857090
21
0.2410707251
31
0.0000000000
11
58.1048212718
21
1.7366163269
31
0.0000000000
11
58.0654996872
21
3.3604900691
31
0.0000000000
11
58.0229686841
21
5.1243377397
31
0.0000000000
11
57.9769723959
21
7.0397985186
31
0.0000000000
11
57.9272435445
21
9.1184516356
31
0.0000000000
11
57.8734886091
21
11.3717450826
31
0.0000000000
11
57.8153598543
21
13.8108679866
31
0.0000000000
11
57.7524626538
21
16.4455751758
31
0.0000000000
11
57.6845102943
21
19.2791639268
31
0.0000000000
11
57.6115323041
21
22.2989660334
31
0.0000000000
11
57.5374073902
21
25.3475408478
31
0.0000000000
11
57.4684656719
21
28.2012044914
31
0.0000000000
11
57.4089776428
21
30.7638631112
31
0.0000000000
11
57.3614077467
21
33.0406800352
31
0.0000000000
11
57.3271813055
21
35.1144314122
31
0.0000000000
11
57.3093490239
21
37.0239991858
31
0.0000000000
0
SPLINE
5
357
100
AcDbEntity
8
0
100
AcDbSpline
62
9
6
CONTINUOUS
70
0
71
3
72
24
73
20
74
18
42
0.0000001000
43
0.0000001000
44
0.0000000001
12
-0.9466796836
22
38.3087918719
32
0.0000000000
13
-0.9245469483
23
38.3093324145
33
0.0000000000
40
0.0000000000
40
0.0000000000
40
0.0000000000
40
0.0000000000
40
0.0360344045
40
0.0750918998
40
0.1174996281
40
0.1635609761
40
0.2135786967
40
0.2678532691
40
0.3266804226
40
0.3903475842
40
0.4591071613
40
0.5330437063
40
0.6118326813
40
0.6913954673
40
0.7659773473
40
0.8331642983
40
0.8932102771
40
0.9484513125
40
1.0000000000
40
1.0000000000
40
1.0000000000
40
1.0000000000
10
56.8013116957
20
-1.3361120241
30
0.0000000000
10
56.7899406828
20
-0.8759671903
30
0.0000000000
10
56.7663047021
20
0.0829276139
30
0.0000000000
10
56.7295144986
20
1.5833576399
30
0.0000000000
10
56.6898104011
20
3.2118338196
30
0.0000000000
10
56.6469521404
20
4.9802750744
30
0.0000000000
10
56.6007098265
20
6.9002598859
30
0.0000000000
10
56.5508527405
20
8.9832688627
30
0.0000000000
10
56.4971311451
20
11.2405863317
30
0.0000000000
10
56.4392979479
20
13.6828824647
30
0.0000000000
10
56.3769641331
20
16.3181258672
30
0.0000000000
10
56.3099444091
20
19.1464708933
30
0.0000000000
10
56.2388809630
20
22.1127534946
30
0.0000000000
10
56.1664850685
20
25.0872496490
30
0.0000000000
10
56.0955265906
20
27.9135378185
30
0.0000000000
10
56.0289403507
20
30.4905584440
30
0.0000000000
10
55.9673228546
20
32.8205746084
30
0.0000000000
10
55.9096157820
20
34.9508677473
30
0.0000000000
10
55.8740181207
20
36.3144829761
30
0.0000000000
10
55.8581317268
20
36.9727482444
30
0.0000000000
11
56.8013116957
21
-1.3361120241
31
0.0000000000
11
56.7672848119
21
0.0443246037
31
0.0000000000
11
56.7305966184
21
1.5405771211
31
0.0000000000
11
56.6909858176
21
3.1651791111
31
0.0000000000
11
56.6482189039
21
4.9297542238
31
0.0000000000
11
56.6020648510
21
6.8459018700
31
0.0000000000
11
56.5522895201
21
8.9251342192
31
0.0000000000
11
56.4986449796
21
11.1787810275
31
0.0000000000
11
56.4408479733
21
13.6178529843
31
0.0000000000
11
56.3785101940
21
16.2520159667
31
0.0000000000
11
56.3112933350
21
19.0845029520
31
0.0000000000
11
56.2389266727
21
22.1028674676
31
0.0000000000
11
56.1645346475
21
25.1508444820
31
0.0000000000
11
56.0927893527
21
28.0079577965
31
0.0000000000
11
56.0263096367
21
30.5817360610
31
0.0000000000
11
55.9654434632
21
32.8819220576
31
0.0000000000
11
55.9086971988
21
34.9980247189
31
0.0000000000
11
55.8581317268
21
36.9727482444
31
0.0000000000
0
SPLINE
5
358
100
AcDbEntity
8
0
100
AcDbSpline
62
9
6
CONTINUOUS
70
0
71
3
72
11
73
7
74
5
42
0.0000001000
43
0.0000001000
44
0.0000000001
12
1.4526959734
22
0.0069190660
32
0.0000000000
13
1.4256916757
23
0.2788847620
33
0.0000000000
40
0.0000000000
40
0.0000000000
40
0.0000000000
40
0.0000000000
40
0.3440016111
40
0.6475339409
40
0.8750251267
40
1.0000000000
40
1.0000000000
40
1.0000000000
40
1.0000000000
10
55.8581317262
20
36.9727482647
30
0.0000000000
10
56.0247083113
20
36.9735416546
30
0.0000000000
10
56.3381930366
20
36.9772080496
30
0.0000000000
10
56.7620536669
20
36.9865373391
30
0.0000000000
10
57.0788576845
20
37.0025731113
30
0.0000000000
10
57.2499569495
20
37.0123813237
30
0.0000000000
10
57.3093488283
20
37.0239991863
30
0.0000000000
11
55.8581317262
21
36.9727482647
31
0.0000000000
11
56.3578357428
21
36.9783508784
31
0.0000000000
11
56.7986338438
21
36.9897394187
31
0.0000000000
11
57.1287334704
21
37.0055757636
31
0.0000000000
11
57.3093488283
21
37.0239991863
31
0.0000000000
0
SPLINE
5
359
100
AcDbEntity
8
0
100
AcDbSpline
62
9
6
CONTINUOUS
70
0
71
3
72
19
73
15
74
13
42
0.0000001000
43
0.0000001000
44
0.0000000001
12
-0.0721066604
22
5.6841826373
32
0.0000000000
13
-5.6843522167
23
-0.0571970355
33
0.0000000000
40
0.0000000000
40
0.0000000000
40
0.0000000000
40
0.0000000000
40
0.0480478120
40
0.0998620635
40
0.1562958860
40
0.2181909259
40
0.2863808958
40
0.3616865404
40
0.4449157052
40
0.5368664953
40
0.6393210001
40
0.7546893362
40
0.8788140236
40
1.0000000000
40
1.0000000000
40
1.0000000000
40
1.0000000000
10
57.3093490239
20
37.0239991858
30
0.0000000000
10
57.3081941682
20
37.1150366987
30
0.0000000000
10
57.2986588622
20
37.3042318804
30
0.0000000000
10
57.2606629910
20
37.5982596544
30
0.0000000000
10
57.1924085276
20
37.9137826197
30
0.0000000000
10
57.0860283091
20
38.2513956693
30
0.0000000000
10
56.9318870408
20
38.6095543614
30
0.0000000000
10
56.7187376473
20
38.9836927207
30
0.0000000000
10
56.4341458248
20
39.3652001763
30
0.0000000000
10
56.0639886083
20
39.7415565317
30
0.0000000000
10
55.5918939013
20
40.0945691492
30
0.0000000000
10
55.0112899716
20
40.3902906067
30
0.0000000000
10
54.3506852048
20
40.5815495403
30
0.0000000000
10
53.8842010935
20
40.6219715791
30
0.0000000000
10
53.6545798356
20
40.6196610863
30
0.0000000000
11
57.3093490239
21
37.0239991858
31
0.0000000000
11
57.2956059084
21
37.2967877279
31
0.0000000000
11
57.2578659665
21
37.5889052883
31
0.0000000000
11
57.1900457520
21
37.9024605219
31
0.0000000000
11
57.0843136960
21
38.2380493645
31
0.0000000000
11
56.9310818774
21
38.5941128914
31
0.0000000000
11
56.7191743283
21
38.9660703713
31
0.0000000000
11
56.4362613769
21
39.3452935406
31
0.0000000000
11
56.0696969635
21
39.7179237622
31
0.0000000000
11
55.6031926631
21
40.0666116863
31
0.0000000000
11
55.0187313926
21
40.3641258440
31
0.0000000000
11
54.3409034363
21
40.5601526070
31
0.0000000000
11
53.6545798356
21
40.6196610863
31
0.0000000000
0
SPLINE
5
35A
100
AcDbEntity
8
0
100
AcDbSpline
62
9
6
CONTINUOUS
70
0
71
3
72
19
73
15
74
13
42
0.0000001000
43
0.0000001000
44
0.0000000001
12
-0.0856313021
22
3.5489182513
32
0.0000000000
13
-3.5498736068
23
0.0234701997
33
0.0000000000
40
0.0000000000
40
0.0000000000
40
0.0000000000
40
0.0000000000
40
0.0477965788
40
0.0995102280
40
0.1560298336
40
0.2182324499
40
0.2869761519
40
0.3630759834
40
0.4472601512
40
0.5401409895
40
0.6432001473
40
0.7584077061
40
0.8811823601
40
1.0000000000
40
1.0000000000
40
1.0000000000
40
1.0000000000
10
55.8581317262
20
36.9727482647
30
0.0000000000
10
55.8567674318
20
37.0292903150
30
0.0000000000
10
55.8495076652
20
37.1469462689
30
0.0000000000
10
55.8239403918
20
37.3299893025
30
0.0000000000
10
55.7795574422
20
37.5269816275
30
0.0000000000
10
55.7115273799
20
37.7384614032
30
0.0000000000
10
55.6139746482
20
37.9636652537
30
0.0000000000
10
55.4801054213
20
38.1999534042
30
0.0000000000
10
55.3025106300
20
38.4421491881
30
0.0000000000
10
55.0728361375
20
38.6825917829
30
0.0000000000
10
54.7814513618
20
38.9100430334
30
0.0000000000
10
54.4246326815
20
39.1032105158
30
0.0000000000
10
54.0196670240
20
39.2318448559
30
0.0000000000
10
53.7332129961
20
39.2627813981
30
0.0000000000
10
53.5926171282
20
39.2637109560
30
0.0000000000
11
55.8581317262
21
36.9727482647
31
0.0000000000
11
55.8477064436
21
37.1421032063
31
0.0000000000
11
55.8223423518
21
37.3239235047
31
0.0000000000
11
55.7782797913
21
37.5196673150
31
0.0000000000
11
55.7107019252
21
37.7298887439
31
0.0000000000
11
55.6137425131
21
37.9538370098
31
0.0000000000
11
55.4806039542
21
38.1889019330
31
0.0000000000
11
55.3038722550
21
38.4298937212
31
0.0000000000
11
55.0760485028
21
38.6682489753
31
0.0000000000
11
54.7874861867
21
38.8931526349
31
0.0000000000
11
54.4276010858
21
39.0874419687
31
0.0000000000
11
54.0120126474
21
39.2187670155
31
0.0000000000
11
53.5926171282
21
39.2637109560
31
0.0000000000
0
SPLINE
5
35B
100
AcDbEntity
8
0
100
AcDbSpline
62
9
6
CONTINUOUS
70
0
71
3
72
11
73
7
74
5
42
0.0000001000
43
0.0000001000
44
0.0000000001
12
-0.0162005596
22
1.3594604254
32
0.0000000000
13
0.5212712239
23
1.2556557719
33
0.0000000000
40
0.0000000000
40
0.0000000000
40
0.0000000000
40
0.0000000000
40
0.3533595214
40
0.6586767583
40
0.8821986700
40
1.0000000000
40
1.0000000000
40
1.0000000000
40
1.0000000000
10
53.5926172087
20
39.2637108725
30
0.0000000000
10
53.5907090014
20
39.4238369676
30
0.0000000000
10
53.5909888882
20
39.7220488590
30
0.0000000000
10
53.5984253600
20
40.1229646498
30
0.0000000000
10
53.6212694990
20
40.4128989991
30
0.0000000000
10
53.6341110211
20
40.5703551130
30
0.0000000000
10
53.6545798356
20
40.6196610863
30
0.0000000000
11
53.5926172087
21
39.2637108725
31
0.0000000000
11
53.5925266963
21
39.7441232579
31
0.0000000000
11
53.6038561592
21
40.1590647903
31
0.0000000000
11
53.6253403205
21
40.4621951754
31
0.0000000000
11
53.6545798356
21
40.6196610863
31
0.0000000000
0
SPLINE
5
35C
100
AcDbEntity
8
0
100
AcDbSpline
62
9
6
CONTINUOUS
70
0
71
3
72
21
73
17
74
15
42
0.0000001000
43
0.0000001000
44
0.0000000001
12
-56.1800503706
22
-0.9477769288
32
0.0000000000
13
-56.1880444193
23
0.0022556313
33
0.0000000000
40
0.0000000000
40
0.0000000000
40
0.0000000000
40
0.0000000000
40
0.0349398153
40
0.0739974598
40
0.1174548149
40
0.1655567743
40
0.2179281562
40
0.2750152098
40
0.3375198160
40
0.4062136538
40
0.4819327331
40
0.5654632036
40
0.6575456986
40
0.7595531181
40
0.8733130601
40
1.0000000000
40
1.0000000000
40
1.0000000000
40
1.0000000000
10
53.6545798356
20
40.6196610863
30
0.0000000000
10
53.0002729748
20
40.6086227027
30
0.0000000000
10
51.6144899555
20
40.5884819343
30
0.0000000000
10
49.4147497940
20
40.5657580049
30
0.0000000000
10
46.9684294193
20
40.5494053473
30
0.0000000000
10
44.2727176451
20
40.5392610638
30
0.0000000000
10
41.3217169919
20
40.5342760554
30
0.0000000000
10
38.1009608584
20
40.5332921432
30
0.0000000000
10
34.5744965125
20
40.5351361727
30
0.0000000000
10
30.6990678574
20
40.5387809727
30
0.0000000000
10
26.4298393198
20
40.5434250300
30
0.0000000000
10
21.7225563413
20
40.5481806926
30
0.0000000000
10
16.5229092837
20
40.5525471793
30
0.0000000000
10
10.7570830318
20
40.5558695932
30
0.0000000000
10
4.3431375202
20
40.5580651830
30
0.0000000000
10
-0.1602758430
20
40.5586399822
30
0.0000000000
10
-2.5330396444
20
40.5587352352
30
0.0000000000
11
53.6545798356
21
40.6196610863
31
0.0000000000
11
51.6915906096
21
40.5909013085
31
0.0000000000
11
49.4971387843
21
40.5678714339
31
0.0000000000
11
47.0554124742
21
40.5511154098
31
0.0000000000
11
44.3526784598
21
40.5404564570
31
0.0000000000
11
41.4100378465
21
40.5350746717
31
0.0000000000
11
38.2024282148
21
40.5337459441
31
0.0000000000
11
34.6904169725
21
40.5353084489
31
0.0000000000
11
30.8306460925
21
40.5387473775
31
0.0000000000
11
26.5761414411
21
40.5432136108
31
0.0000000000
11
21.8827299834
21
40.5478919879
31
0.0000000000
11
16.7087964301
21
40.5521754413
31
0.0000000000
11
10.9771999905
21
40.5555314806
31
0.0000000000
11
4.5852516996
21
40.5577658967
31
0.0000000000
11
-2.5330396444
21
40.5587352352
31
0.0000000000
0
SPLINE
5
35D
100
AcDbEntity
8
0
100
AcDbSpline
62
9
6
CONTINUOUS
70
0
71
3
72
21
73
17
74
15
42
0.0000001000
43
0.0000001000
44
0.0000000001
12
-56.3356784263
22
0.3714530972
32
0.0000000000
13
-56.3369026007
23
-0.0068200158
33
0.0000000000
40
0.0000000000
40
0.0000000000
40
0.0000000000
40
0.0000000000
40
0.0355593432
40
0.0751470990
40
0.1190090259
40
0.1673705957
40
0.2198657884
40
0.2769665087
40
0.3393969954
40
0.4079489784
40
0.4834703571
40
0.5667589673
40
0.6585626856
40
0.7602612449
40
0.8736847603
40
1.0000000000
40
1.0000000000
40
1.0000000000
40
1.0000000000
10
53.5926172087
20
39.2637108725
30
0.0000000000
10
52.9248639683
20
39.2681137485
30
0.0000000000
10
51.5137210934
20
39.2790602010
30
0.0000000000
10
49.2789146868
20
39.2954629943
30
0.0000000000
10
46.8036869879
20
39.3115271163
30
0.0000000000
10
44.0860558161
20
39.3257216953
30
0.0000000000
10
41.1198036389
20
39.3382799696
30
0.0000000000
10
37.8893458309
20
39.3498100035
30
0.0000000000
10
34.3573537694
20
39.3605072926
30
0.0000000000
10
30.4794383899
20
39.3708501913
30
0.0000000000
10
26.2098261528
20
39.3805440402
30
0.0000000000
10
21.5035674921
20
39.3893122804
30
0.0000000000
10
16.3057256808
20
39.3968702882
30
0.0000000000
10
10.5419787497
20
39.4025541519
30
0.0000000000
10
4.1301393989
20
39.4063138644
30
0.0000000000
10
-0.3719071192
20
39.4068879328
30
0.0000000000
10
-2.7439769035
20
39.4066007755
30
0.0000000000
11
53.5926172087
21
39.2637108725
31
0.0000000000
11
51.5893673680
21
39.2783414933
31
0.0000000000
11
49.3591748812
21
39.2945742388
31
0.0000000000
11
46.8881809681
21
39.3104824905
31
0.0000000000
11
44.1636779685
21
39.3248853928
31
0.0000000000
11
41.2062887232
21
39.3376000229
31
0.0000000000
11
37.9894318102
21
39.3491759261
31
0.0000000000
11
34.4723080583
21
39.3599570977
31
0.0000000000
11
30.6103153780
21
39.3702581351
31
0.0000000000
11
26.3556858038
21
39.3799381657
31
0.0000000000
11
21.6634716507
21
39.3887100385
31
0.0000000000
11
16.4915399208
21
39.3962173801
31
0.0000000000
11
10.7621609465
21
39.4019760884
31
0.0000000000
11
4.3722324460
21
39.4057095084
31
0.0000000000
11
-2.7439769035
21
39.4066007755
31
0.0000000000
0
SPLINE
5
35E
100
AcDbEntity
8
0
100
AcDbSpline
62
9
6
CONTINUOUS
70
0
71
3
72
11
73
7
74
5
42
0.0000001000
43
0.0000001000
44
0.0000000001
12
0.0439179463
22
1.1818649363
32
0.0000000000
13
0.8734512907
23
0.7973809356
33
0.0000000000
40
0.0000000000
40
0.0000000000
40
0.0000000000
40
0.0000000000
40
0.3514897881
40
0.6499329464
40
0.8707058106
40
1.0000000000
40
1.0000000000
40
1.0000000000
40
1.0000000000
10
-2.7439766637
20
39.4065999502
30
0.0000000000
10
-2.7388310938
20
39.5450711023
30
0.0000000000
10
-2.7227152373
20
39.8003970302
30
0.0000000000
10
-2.6799707932
20
40.1432470080
30
0.0000000000
10
-2.6229504597
20
40.3886259837
30
0.0000000000
10
-2.5706837032
20
40.5243696613
30
0.0000000000
10
-2.5330396444
20
40.5587352352
30
0.0000000000
11
-2.7439766637
21
39.4065999502
31
0.0000000000
11
-2.7167815707
21
39.8214096155
31
0.0000000000
11
-2.6694961948
21
40.1711908837
31
0.0000000000
11
-2.6063611231
21
40.4245466690
31
0.0000000000
11
-2.5330396444
21
40.5587352352
31
0.0000000000
0
SPLINE
5
35F
100
AcDbEntity
8
0
100
AcDbSpline
62
9
6
CONTINUOUS
70
0
71
3
72
9
73
5
74
3
42
0.0000001000
43
0.0000001000
44
0.0000000001
12
-10.7836091620
22
-0.0004314764
32
0.0000000000
13
-10.7836084766
23
-0.0039216139
33
0.0000000000
40
0.0000000000
40
0.0000000000
40
0.0000000000
40
0.0000000000
40
0.6467304436
40
1.0000000000
40
1.0000000000
40
1.0000000000
40
1.0000000000
10
-2.5330396444
20
40.5587352352
30
0.0000000000
10
-4.8577357568
20
40.5586422189
30
0.0000000000
10
-8.4522721463
20
40.5581911816
30
0.0000000000
10
-12.0468083932
20
40.5571268237
30
0.0000000000
10
-13.3166485874
20
40.5566650281
30
0.0000000000
11
-2.5330396444
21
40.5587352352
31
0.0000000000
11
-9.5071279248
21
40.5578022921
31
0.0000000000
11
-13.3166485874
21
40.5566650281
31
0.0000000000
0
SPLINE
5
360
100
AcDbEntity
8
0
100
AcDbSpline
62
9
6
CONTINUOUS
70
0
71
3
72
21
73
17
74
15
42
0.0000001000
43
0.0000001000
44
0.0000000001
12
-45.2775931068
22
-0.0164658463
32
0.0000000000
13
-45.2706498588
23
0.7930717369
33
0.0000000000
40
0.0000000000
40
0.0000000000
40
0.0000000000
40
0.0000000000
40
0.0532822021
40
0.1761569583
40
0.2869032775
40
0.3873745247
40
0.4785156961
40
0.5611771701
40
0.6362222824
40
0.7044396416
40
0.7665781586
40
0.8233881759
40
0.8750117648
40
0.9214142870
40
0.9629586717
40
1.0000000000
40
1.0000000000
40
1.0000000000
40
1.0000000000
10
-13.3166485874
20
40.5566650281
30
0.0000000000
10
-14.1208118758
20
40.5563725826
30
0.0000000000
10
-16.7794661946
20
40.5552919760
30
0.0000000000
10
-21.1095624648
20
40.5528777088
30
0.0000000000
10
-26.1518599190
20
40.5487863315
30
0.0000000000
10
-30.7152166443
20
40.5442893613
30
0.0000000000
10
-34.8547017249
20
40.5398128428
30
0.0000000000
10
-38.6104426227
20
40.5360691125
30
0.0000000000
10
-42.0202062996
20
40.5337249149
30
0.0000000000
10
-45.1202276176
20
40.5335267463
30
0.0000000000
10
-47.9450342502
20
40.5363144492
30
0.0000000000
10
-50.5193924789
20
40.5429302392
30
0.0000000000
10
-52.8562373652
20
40.5541464097
30
0.0000000000
10
-54.9626501366
20
40.5704626333
30
0.0000000000
10
-56.8489233640
20
40.5917377351
30
0.0000000000
10
-58.0348461853
20
40.6098689427
30
0.0000000000
10
-58.5938078527
20
40.6196610863
30
0.0000000000
11
-13.3166485874
21
40.5566650281
31
0.0000000000
11
-15.7291384118
21
40.5556821260
31
0.0000000000
11
-21.2926110907
21
40.5525280420
31
0.0000000000
11
-26.3069365801
21
40.5485079753
31
0.0000000000
11
-30.8560309623
21
40.5440742922
31
0.0000000000
11
-34.9826818219
21
40.5397354796
31
0.0000000000
11
-38.7253929362
21
40.5361567886
31
0.0000000000
11
-42.1232545447
21
40.5340240343
31
0.0000000000
11
-45.2119725758
21
40.5340870388
31
0.0000000000
11
-48.0254535568
21
40.5371693598
31
0.0000000000
11
-50.5976651468
21
40.5441330378
31
0.0000000000
11
-52.9350283644
21
40.5557334460
31
0.0000000000
11
-55.0359574167
21
40.5723358387
31
0.0000000000
11
-56.9168644442
21
40.5938330051
31
0.0000000000
11
-58.5938078527
21
40.6196610863
31
0.0000000000
0
SPLINE
5
361
100
AcDbEntity
8
0
100
AcDbSpline
62
9
6
CONTINUOUS
70
0
71
3
72
9
73
5
74
3
42
0.0000001000
43
0.0000001000
44
0.0000000001
12
-8.7183071473
22
0.0010590921
32
0.0000000000
13
-8.7183062923
23
-0.0041477495
33
0.0000000000
40
0.0000000000
40
0.0000000000
40
0.0000000000
40
0.0000000000
40
0.7997404267
40
1.0000000000
40
1.0000000000
40
1.0000000000
40
1.0000000000
10
-2.7439766637
20
39.4065999502
30
0.0000000000
10
-5.0681042229
20
39.4068822832
30
0.0000000000
10
-7.9742067404
20
39.4065255945
30
0.0000000000
10
-10.8803089224
20
39.4053138336
30
0.0000000000
10
-11.4622836885
20
39.4050369581
30
0.0000000000
11
-2.7439766637
21
39.4065999502
31
0.0000000000
11
-9.7163593428
21
39.4057648753
31
0.0000000000
11
-11.4622836885
21
39.4050369581
31
0.0000000000
0
SPLINE
5
362
100
AcDbEntity
8
0
100
AcDbSpline
62
9
6
CONTINUOUS
70
0
71
3
72
8
73
4
74
2
42
0.0000001000
43
0.0000001000
44
0.0000000001
12
-1.9352942748
22
-0.0009207196
32
0.0000000000
13
-1.9352941357
23
-0.0011725733
33
0.0000000000
40
0.0000000000
40
0.0000000000
40
0.0000000000
40
0.0000000000
40
1.0000000000
40
1.0000000000
40
1.0000000000
40
1.0000000000
10
-11.4622836885
20
39.4050369581
30
0.0000000000
10
-12.1073817802
20
39.4047300516
30
0.0000000000
10
-12.7524798510
20
39.4043811129
30
0.0000000000
10
-13.3975778962
20
39.4039902551
30
0.0000000000
11
-11.4622836885
21
39.4050369581
31
0.0000000000
11
-13.3975778962
21
39.4039902551
31
0.0000000000
0
SPLINE
5
363
100
AcDbEntity
8
0
100
AcDbSpline
62
9
6
CONTINUOUS
70
0
71
3
72
21
73
17
74
15
42
0.0000001000
43
0.0000001000
44
0.0000000001
12
-45.5640093172
22
-0.0276067292
32
0.0000000000
13
-45.5629512151
23
-0.3117018938
33
0.0000000000
40
0.0000000000
40
0.0000000000
40
0.0000000000
40
0.0000000000
40
0.0557226556
40
0.1777821077
40
0.2877933882
40
0.3876113818
40
0.4781818765
40
0.5603669430
40
0.6350353783
40
0.7029921743
40
0.7650026549
40
0.8218338436
40
0.8736460597
40
0.9203921055
40
0.9624069067
40
1.0000000000
40
1.0000000000
40
1.0000000000
40
1.0000000000
10
-13.3975778962
20
39.4039902551
30
0.0000000000
10
-14.2438937629
20
39.4034774817
30
0.0000000000
10
-16.9440488264
20
39.4016112999
30
0.0000000000
10
-21.3150545702
20
39.3974056693
30
0.0000000000
10
-26.3557777875
20
39.3904136349
30
0.0000000000
10
-30.9182437811
20
39.3821207665
30
0.0000000000
10
-35.0580830119
20
39.3732002490
30
0.0000000000
10
-38.8159476085
20
39.3634770253
30
0.0000000000
10
-42.2303536301
20
39.3536474881
30
0.0000000000
10
-45.3383447478
20
39.3432387265
30
0.0000000000
10
-48.1754191158
20
39.3320831929
30
0.0000000000
10
-50.7672840804
20
39.3201039456
30
0.0000000000
10
-53.1273004552
20
39.3063633957
30
0.0000000000
10
-55.2622760936
20
39.2918680828
30
0.0000000000
10
-57.1812841473
20
39.2771671265
30
0.0000000000
10
-58.3903318676
20
39.2676167373
30
0.0000000000
10
-58.9612826265
20
39.2637107911
30
0.0000000000
11
-13.3975778962
21
39.4039902551
31
0.0000000000
11
-15.9365253537
21
39.4022357452
31
0.0000000000
11
-21.4980417099
21
39.3968152677
31
0.0000000000
11
-26.5105927291
21
39.3898217511
31
0.0000000000
11
-31.0586940916
21
39.3815974860
31
0.0000000000
11
-35.1854399080
21
39.3726138149
31
0.0000000000
11
-38.9301093439
21
39.3629910521
31
0.0000000000
11
-42.3322887785
21
39.3530748756
31
0.0000000000
11
-45.4286557681
21
39.3426216311
31
0.0000000000
11
-48.2540802386
21
39.3314349035
31
0.0000000000
11
-50.8435086535
21
39.3192096750
31
0.0000000000
11
-53.2042416469
21
39.3055153074
31
0.0000000000
11
-55.3341302026
21
39.2910544701
31
0.0000000000
11
-57.2484385563
21
39.2765723918
31
0.0000000000
11
-58.9612826265
21
39.2637107911
31
0.0000000000
0
SPLINE
5
364
100
AcDbEntity
8
0
100
AcDbSpline
62
9
6
CONTINUOUS
70
0
71
3
72
11
73
7
74
5
42
0.0000001000
43
0.0000001000
44
0.0000000001
12
0.0516917317
22
1.4334236971
32
0.0000000000
13
1.2501333750
23
0.7032368557
33
0.0000000000
40
0.0000000000
40
0.0000000000
40
0.0000000000
40
0.0000000000
40
0.3361040015
40
0.6308909160
40
0.8564954089
40
1.0000000000
40
1.0000000000
40
1.0000000000
40
1.0000000000
10
-58.9612832667
20
39.2637109574
30
0.0000000000
10
-58.9554920008
20
39.4243041041
30
0.0000000000
10
-58.9314995173
20
39.7250157791
30
0.0000000000
10
-58.8561320628
20
40.1304226887
30
0.0000000000
10
-58.7563948421
20
40.4282895443
30
0.0000000000
10
-58.6536070729
20
40.5859949785
30
0.0000000000
10
-58.5938071133
20
40.6196342177
30
0.0000000000
11
-58.9612832667
21
39.2637109574
31
0.0000000000
11
-58.9209815141
21
39.7441160435
31
0.0000000000
11
-58.8396518176
21
40.1590498036
31
0.0000000000
11
-58.7263769125
21
40.4621732684
31
0.0000000000
11
-58.5938071133
21
40.6196342177
31
0.0000000000
0
SPLINE
5
365
100
AcDbEntity
8
0
100
AcDbSpline
62
9
6
CONTINUOUS
70
0
71
3
72
9
73
5
74
3
42
0.0000001000
43
0.0000001000
44
0.0000000001
12
-1.3620188101
22
0.0140135287
32
0.0000000000
13
-1.2615779131
23
-0.5189876243
33
0.0000000000
40
0.0000000000
40
0.0000000000
40
0.0000000000
40
0.0000000000
40
0.4943359567
40
1.0000000000
40
1.0000000000
40
1.0000000000
40
1.0000000000
10
-58.5938078527
20
40.6196610863
30
0.0000000000
10
-58.8182394766
20
40.6219702166
30
0.0000000000
10
-59.2739728766
20
40.5816091544
30
0.0000000000
10
-59.7120578782
20
40.4512980458
30
0.0000000000
10
-59.9247027410
20
40.3638202522
30
0.0000000000
11
-58.5938078527
21
40.6196610863
31
0.0000000000
11
-59.2644975847
21
40.5600854517
31
0.0000000000
11
-59.9247027410
21
40.3638202522
31
0.0000000000
0
SPLINE
5
366
100
AcDbEntity
8
0
100
AcDbSpline
62
9
6
CONTINUOUS
70
0
71
3
72
10
73
6
74
4
42
0.0000001000
43
0.0000001000
44
0.0000000001
12
-1.1703266097
22
-0.4814486847
32
0.0000000000
13
-0.9175914714
23
-0.8704815707
33
0.0000000000
40
0.0000000000
40
0.0000000000
40
0.0000000000
40
0.0000000000
40
0.5062469710
40
0.9560102315
40
1.0000000000
40
1.0000000000
40
1.0000000000
40
1.0000000000
10
-59.9247027410
20
40.3638202522
30
0.0000000000
10
-60.1221941748
20
40.2825762728
30
0.0000000000
10
-60.4806795436
20
40.0939951732
30
0.0000000000
10
-60.8147387100
20
39.8343481212
30
0.0000000000
10
-60.9669142541
20
39.6922938916
30
0.0000000000
10
-60.9803691329
20
39.6795297973
30
0.0000000000
11
-59.9247027410
21
40.3638202522
31
0.0000000000
11
-60.4908896565
21
40.0661282283
31
0.0000000000
11
-60.9396974679
21
39.7174959128
31
0.0000000000
11
-60.9803691329
21
39.6795297973
31
0.0000000000
0
SPLINE
5
367
100
AcDbEntity
8
0
100
AcDbSpline
62
9
6
CONTINUOUS
70
0
71
3
72
19
73
15
74
13
42
0.0000001000
43
0.0000001000
44
0.0000000001
12
-3.4820276270
22
-0.0238976792
32
0.0000000000
13
-0.0347542395
23
-3.4819361908
33
0.0000000000
40
0.0000000000
40
0.0000000000
40
0.0000000000
40
0.0000000000
40
0.1169702123
40
0.2383311697
40
0.3526316730
40
0.4552180844
40
0.5480018608
40
0.6324099918
40
0.7089843121
40
0.7783864545
40
0.8413698333
40
0.8987393927
40
0.9513300741
40
1.0000000000
40
1.0000000000
40
1.0000000000
40
1.0000000000
10
-58.9612832667
20
39.2637109574
30
0.0000000000
10
-59.0970477703
20
39.2627791851
30
0.0000000000
10
-59.3742593133
20
39.2316366125
30
0.0000000000
10
-59.7656313187
20
39.1026923405
30
0.0000000000
10
-60.1098896751
20
38.9093480134
30
0.0000000000
10
-60.3901071793
20
38.6818858823
30
0.0000000000
10
-60.6100107424
20
38.4415177259
30
0.0000000000
10
-60.7790917995
20
38.1994097906
30
0.0000000000
10
-60.9056217895
20
37.9631995220
30
0.0000000000
10
-60.9969517347
20
37.7380655537
30
0.0000000000
10
-61.0597972602
20
37.5266504382
30
0.0000000000
10
-61.0999353593
20
37.3297254909
30
0.0000000000
10
-61.1220905212
20
37.1467639571
30
0.0000000000
10
-61.1274977681
20
37.0292367901
30
0.0000000000
10
-61.1280615969
20
36.9727482647
30
0.0000000000
11
-58.9612832667
21
39.2637109574
31
0.0000000000
11
-59.3660938706
21
39.2187199288
31
0.0000000000
11
-59.7677118822
21
39.0872394915
31
0.0000000000
11
-60.1150123269
21
38.8928381522
31
0.0000000000
11
-60.3925728940
21
38.6679732810
31
0.0000000000
11
-60.6107780703
21
38.4297101744
31
0.0000000000
11
-60.7791298943
21
38.1887834858
31
0.0000000000
11
-60.9050562556
21
37.9537525598
31
0.0000000000
11
-60.9959050143
21
37.7298130702
31
0.0000000000
11
-61.0583899535
21
37.5195876796
31
0.0000000000
11
-61.0982781485
21
37.3238433969
31
0.0000000000
11
-61.1202818855
21
37.1420436243
31
0.0000000000
11
-61.1280615969
21
36.9727482647
31
0.0000000000
0
SPLINE
5
368
100
AcDbEntity
8
0
100
AcDbSpline
62
9
6
CONTINUOUS
70
0
71
3
72
11
73
7
74
5
42
0.0000001000
43
0.0000001000
44
0.0000000001
12
-0.9602858649
22
0.0048727803
32
0.0000000000
13
-0.2317342766
23
0.8458926724
33
0.0000000000
40
0.0000000000
40
0.0000000000
40
0.0000000000
40
0.0000000000
40
0.4579070647
40
0.8001040239
40
0.9867637923
40
1.0000000000
40
1.0000000000
40
1.0000000000
40
1.0000000000
10
-61.1280616220
20
36.9727482619
30
0.0000000000
10
-61.2746355159
20
36.9734920221
30
0.0000000000
10
-61.5290462895
20
36.9508908160
30
0.0000000000
10
-61.8500179601
20
37.0387257956
30
0.0000000000
10
-62.0154690685
20
36.9331552161
30
0.0000000000
10
-62.0837222139
20
37.0160161658
30
0.0000000000
10
-62.0847446416
20
37.0197483029
30
0.0000000000
11
-61.1280616220
21
36.9727482619
31
0.0000000000
11
-61.5677532546
21
36.9783522071
31
0.0000000000
11
-61.8961669756
21
36.9897410118
31
0.0000000000
11
-62.0747151427
21
37.0055767977
31
0.0000000000
11
-62.0847446416
21
37.0197483029
31
0.0000000000
0
SPLINE
5
369
100
AcDbEntity
8
0
100
AcDbSpline
62
9
6
CONTINUOUS
70
0
71
3
72
24
73
20
74
18
42
0.0000001000
43
0.0000001000
44
0.0000000001
12
-0.3826303376
22
-38.3162130725
32
0.0000000000
13
0.9276667034
23
-38.3068926524
33
0.0000000000
40
0.0000000000
40
0.0000000000
40
0.0000000000
40
0.0000000000
40
0.0503896189
40
0.1043169736
40
0.1623343254
40
0.2248944537
40
0.2926247173
40
0.3661604662
40
0.4440190834
40
0.5233554590
40
0.5997155852
40
0.6692582873
40
0.7317608389
40
0.7879228261
40
0.8384954927
40
0.8842304765
40
0.9258811734
40
0.9642012519
40
1.0000000000
40
1.0000000000
40
1.0000000000
40
1.0000000000
10
-61.1280616220
20
36.9727482619
30
0.0000000000
10
-61.1344884876
20
36.3291684706
30
0.0000000000
10
-61.1382314631
20
34.9967192167
30
0.0000000000
10
-61.1201723097
20
32.9233191344
30
0.0000000000
10
-61.0829467161
20
30.6947169416
30
0.0000000000
10
-61.0322867971
20
28.2900477427
30
0.0000000000
10
-60.9716705022
20
25.6873407311
30
0.0000000000
10
-60.9037084877
20
22.8893510892
30
0.0000000000
10
-60.8318171371
20
19.9431717420
30
0.0000000000
10
-60.7592010592
20
16.9609243816
30
0.0000000000
10
-60.6896858669
20
14.0848497980
30
0.0000000000
10
-60.6256465259
20
11.4237191980
30
0.0000000000
10
-60.5679855807
20
9.0204947304
30
0.0000000000
10
-60.5161412948
20
6.8594991566
30
0.0000000000
10
-60.4693903062
20
4.9126102592
30
0.0000000000
10
-60.4270229107
20
3.1510180026
30
0.0000000000
10
-60.3883473894
20
1.5458809384
30
0.0000000000
10
-60.3526589096
20
0.0676213745
30
0.0000000000
10
-60.3297637502
20
-0.8787998527
30
0.0000000000
10
-60.3186939813
20
-1.3359127857
30
0.0000000000
11
-61.1280616220
21
36.9727482619
31
0.0000000000
11
-61.1345233895
21
35.0419234336
31
0.0000000000
11
-61.1179755596
21
32.9755946549
31
0.0000000000
11
-61.0823607111
21
30.7527638983
31
0.0000000000
11
-61.0328256570
21
28.3560890225
31
0.0000000000
11
-60.9729826416
21
25.7614824456
31
0.0000000000
11
-60.9049982006
21
22.9445507898
31
0.0000000000
11
-60.8323032203
21
19.9620404733
31
0.0000000000
11
-60.7583681881
21
16.9229186390
31
0.0000000000
11
-60.6876355976
21
13.9977969588
31
0.0000000000
11
-60.6235166544
21
11.3338226351
31
0.0000000000
11
-60.5660439633
21
8.9395318327
31
0.0000000000
11
-60.5144206656
21
6.7881291348
31
0.0000000000
11
-60.4678942608
21
4.8508380621
31
0.0000000000
11
-60.4257551086
21
3.0988660051
31
0.0000000000
11
-60.3873095493
21
1.5033525841
31
0.0000000000
11
-60.3518692478
21
0.0354268372
31
0.0000000000
11
-60.3186939813
21
-1.3359127857
31
0.0000000000
0
SPLINE
5
36A
100
AcDbEntity
8
0
100
AcDbSpline
62
9
6
CONTINUOUS
70
0
71
3
72
11
73
7
74
5
42
0.0000001000
43
0.0000001000
44
0.0000000001
12
-0.9286027516
22
0.0315592265
32
0.0000000000
13
-0.1455271556
23
1.0099730813
33
0.0000000000
40
0.0000000000
40
0.0000000000
40
0.0000000000
40
0.0000000000
40
0.4449156268
40
0.7765963605
40
0.9641744435
40
1.0000000000
40
1.0000000000
40
1.0000000000
40
1.0000000000
10
-60.3186945220
20
-1.3359129146
30
0.0000000000
10
-60.4564111471
20
-1.3312325169
30
0.0000000000
10
-60.7031360704
20
-1.3273512131
30
0.0000000000
10
-60.9797675687
20
-1.2585978048
30
0.0000000000
10
-61.1783617633
20
-1.2622004341
30
0.0000000000
10
-61.2120322100
20
-1.1819535325
30
0.0000000000
10
-61.2137700738
20
-1.1698925833
30
0.0000000000
11
-60.3186945220
21
-1.3359129146
31
0.0000000000
11
-60.7312626111
21
-1.3098831923
31
0.0000000000
11
-61.0361253424
21
-1.2648047616
31
0.0000000000
11
-61.2000436997
21
-1.2055897875
31
0.0000000000
11
-61.2137700738
21
-1.1698925833
31
0.0000000000
0
SPLINE
5
36B
100
AcDbEntity
8
0
100
AcDbSpline
62
9
6
CONTINUOUS
70
0
71
3
72
17
73
13
74
11
42
0.0000001000
43
0.0000001000
44
0.0000000001
12
0.9309764192
22
-38.1473580242
32
0.0000000000
13
1.3682136350
23
-38.1341793247
33
0.0000000000
40
0.0000000000
40
0.0000000000
40
0.0000000000
40
0.0000000000
40
0.1513890523
40
0.2865265559
40
0.4080925897
40
0.5183281208
40
0.6199093248
40
0.7130024680
40
0.7973805605
40
0.8728808043
40
0.9400502917
40
1.0000000000
40
1.0000000000
40
1.0000000000
40
1.0000000000
10
-60.3186945220
20
-1.3359129146
30
0.0000000000
10
-60.2717146428
20
-3.2609437078
30
0.0000000000
10
-60.1818081647
20
-6.9043299471
30
0.0000000000
10
-60.0518518465
20
-12.0934660845
30
0.0000000000
10
-59.9340404681
20
-16.7592869285
30
0.0000000000
10
-59.8267968979
20
-20.9984167805
30
0.0000000000
10
-59.7284506153
20
-24.8754928466
30
0.0000000000
10
-59.6380278714
20
-28.4237685586
30
0.0000000000
10
-59.5547850630
20
-31.6403807436
30
0.0000000000
10
-59.4771871857
20
-34.5272902587
30
0.0000000000
10
-59.4028888923
20
-37.1034538968
30
0.0000000000
10
-59.3500504954
20
-38.7195003904
30
0.0000000000
10
-59.3227091593
20
-39.4815446995
30
0.0000000000
11
-60.3186945220
21
-1.3359129146
31
0.0000000000
11
-60.1763353998
21
-7.1109704775
31
0.0000000000
11
-60.0473438533
21
-12.2660305764
31
0.0000000000
11
-59.9303632523
21
-16.9033591594
31
0.0000000000
11
-59.8239636599
21
-21.1084596594
31
0.0000000000
11
-59.7256337310
21
-24.9834206258
31
0.0000000000
11
-59.6349585030
21
-28.5345780185
31
0.0000000000
11
-59.5512977719
21
-31.7532506417
31
0.0000000000
11
-59.4733443282
21
-34.6331882153
31
0.0000000000
11
-59.3985033776
21
-37.1951967522
31
0.0000000000
11
-59.3227091593
21
-39.4815446995
31
0.0000000000
0
SPLINE
5
36C
100
AcDbEntity
8
0
100
AcDbSpline
62
9
6
CONTINUOUS
70
0
71
3
72
11
73
7
74
5
42
0.0000001000
43
0.0000001000
44
0.0000000001
12
-0.9992338705
22
0.0314595039
32
0.0000000000
13
-0.1574585415
23
1.0720390994
33
0.0000000000
40
0.0000000000
40
0.0000000000
40
0.0000000000
40
0.0000000000
40
0.4375603398
40
0.7677899684
40
0.9586897190
40
1.0000000000
40
1.0000000000
40
1.0000000000
40
1.0000000000
10
-59.3227080038
20
-39.4815441723
30
0.0000000000
10
-59.4684497077
20
-39.4769556952
30
0.0000000000
10
-59.7299259977
20
-39.4707190557
30
0.0000000000
10
-60.0285589121
20
-39.3990625290
30
0.0000000000
10
-60.2393691134
20
-39.3901327156
30
0.0000000000
10
-60.2779661734
20
-39.3022073614
30
0.0000000000
10
-60.2801343923
20
-39.2874452826
30
0.0000000000
11
-59.3227080038
21
-39.4815441723
31
0.0000000000
11
-59.7592327276
21
-39.4532342605
31
0.0000000000
11
-60.0852091664
21
-39.4009670048
31
0.0000000000
11
-60.2627002910
21
-39.3308252587
31
0.0000000000
11
-60.2801343923
21
-39.2874452826
31
0.0000000000
0
SPLINE
5
36D
100
AcDbEntity
8
0
100
AcDbSpline
62
9
6
CONTINUOUS
70
0
71
3
72
14
73
10
74
8
42
0.0000001000
43
0.0000001000
44
0.0000000001
12
0.1225511546
22
-3.4011912569
32
0.0000000000
13
3.4017571497
23
-0.1056837086
33
0.0000000000
40
0.0000000000
40
0.0000000000
40
0.0000000000
40
0.0000000000
40
0.1397021994
40
0.2832247348
40
0.4283700601
40
0.5734717853
40
0.7176022624
40
0.8603084398
40
1.0000000000
40
1.0000000000
40
1.0000000000
40
1.0000000000
10
-59.3227080038
20
-39.4815441723
30
0.0000000000
10
-59.3170011152
20
-39.6399288054
30
0.0000000000
10
-59.2703515512
20
-39.9607394834
30
0.0000000000
10
-59.0996428222
20
-40.4194121774
30
0.0000000000
10
-58.8341572349
20
-40.8380465058
30
0.0000000000
10
-58.4874264451
20
-41.1932229729
30
0.0000000000
10
-58.0763939014
20
-41.4668118239
30
0.0000000000
10
-57.6221135567
20
-41.6439897051
30
0.0000000000
10
-57.3019716203
20
-41.6915753201
30
0.0000000000
10
-57.1435726991
20
-41.6964963608
30
0.0000000000
11
-59.3227080038
21
-39.4815441723
31
0.0000000000
11
-59.2548699648
21
-39.9521420322
31
0.0000000000
11
-59.0850520983
21
-40.4101369359
31
0.0000000000
11
-58.8206168234
21
-40.8273868693
31
0.0000000000
11
-58.4754862837
21
-41.1806033042
31
0.0000000000
11
-58.0668210377
21
-41.4519255652
31
0.0000000000
11
-57.6139563676
21
-41.6274375576
31
0.0000000000
11
-57.1435726991
21
-41.6964963608
31
0.0000000000
0
SPLINE
5
36E
100
AcDbEntity
8
0
100
AcDbSpline
62
9
6
CONTINUOUS
70
0
71
3
72
11
73
7
74
5
42
0.0000001000
43
0.0000001000
44
0.0000000001
12
0.0613608871
22
-1.3093768925
32
0.0000000000
13
1.3339342727
23
-0.1103234028
33
0.0000000000
40
0.0000000000
40
0.0000000000
40
0.0000000000
40
0.0000000000
40
0.3892624087
40
0.7034420536
40
0.9138544932
40
1.0000000000
40
1.0000000000
40
1.0000000000
40
1.0000000000
10
-57.1435721688
20
-41.6964960112
30
0.0000000000
10
-57.1356103399
20
-41.8663930789
30
0.0000000000
10
-57.1070012000
20
-42.1754671622
30
0.0000000000
10
-57.0021161141
20
-42.5568526461
30
0.0000000000
10
-56.8933578096
20
-42.8133770134
30
0.0000000000
10
-56.7577397545
20
-42.8730847545
30
0.0000000000
10
-56.7194356065
20
-42.8762527097
30
0.0000000000
11
-57.1435721688
21
-41.6964960112
31
0.0000000000
11
-57.0879856007
21
-42.2037097456
31
0.0000000000
11
-56.9782949028
21
-42.6006640925
31
0.0000000000
11
-56.8295422207
21
-42.8329239634
31
0.0000000000
11
-56.7194356065
21
-42.8762527097
31
0.0000000000
0
SPLINE
5
36F
100
AcDbEntity
8
0
100
AcDbSpline
62
9
6
CONTINUOUS
70
0
71
3
72
16
73
12
74
10
42
0.0000001000
43
0.0000001000
44
0.0000000001
12
26.4655914530
22
-0.8156180825
32
0.0000000000
13
26.4781425539
23
-0.0270316922
33
0.0000000000
40
0.0000000000
40
0.0000000000
40
0.0000000000
40
0.0000000000
40
0.0797094608
40
0.1666267378
40
0.2590628907
40
0.3571084853
40
0.4640942786
40
0.5807485900
40
0.7074873948
40
0.8461459738
40
1.0000000000
40
1.0000000000
40
1.0000000000
40
1.0000000000
10
-57.1435721688
20
-41.6964960112
30
0.0000000000
10
-56.4403861603
20
-41.7181668370
30
0.0000000000
10
-54.9703236692
20
-41.7601679218
30
0.0000000000
10
-52.6844014819
20
-41.8124979083
30
0.0000000000
10
-50.2363312967
20
-41.8500231225
30
0.0000000000
10
-47.6109895300
20
-41.8761225061
30
0.0000000000
10
-44.7718267188
20
-41.8939499599
30
0.0000000000
10
-41.6793878138
20
-41.9064451495
30
0.0000000000
10
-38.3073876203
20
-41.9143434141
30
0.0000000000
10
-34.6070550184
20
-41.9186357499
30
0.0000000000
10
-32.0253244945
20
-41.9208360005
30
0.0000000000
10
-30.6674015481
20
-41.9222223121
30
0.0000000000
11
-57.1435721688
21
-41.6964960112
31
0.0000000000
11
-55.0338640899
21
-41.7564418773
31
0.0000000000
11
-52.7330453420
21
-41.8085726878
31
0.0000000000
11
-50.2858101889
21
-41.8471319529
31
0.0000000000
11
-47.6898808165
21
-41.8738227882
31
0.0000000000
11
-44.8571551875
21
-41.8924029771
31
0.0000000000
11
-41.7683907995
21
-41.9052474944
31
0.0000000000
11
-38.4125909717
21
-41.9134654209
31
0.0000000000
11
-34.7411706237
21
-41.9183016480
31
0.0000000000
11
-30.6674015481
21
-41.9222223121
31
0.0000000000
0
SPLINE
5
370
100
AcDbEntity
8
0
100
AcDbSpline
62
7
6
CONTINUOUS
70
0
71
3
72
9
73
5
74
3
42
0.0000001000
43
0.0000001000
44
0.0000000001
12
-0.8635622414
22
-0.0000510309
32
0.0000000000
13
-0.8635622423
23
-0.0000339303
33
0.0000000000
40
0.0000000000
40
0.0000000000
40
0.0000000000
40
0.0000000000
40
0.5020099920
40
1.0000000000
40
1.0000000000
40
1.0000000000
40
1.0000000000
10
29.7240162665
20
-30.9184298660
30
0.0000000000
10
29.5795106418
20
-30.9184384054
30
0.0000000000
10
29.2916565611
20
-30.9184515016
30
0.0000000000
10
29.0038024803
20
-30.9184617600
30
0.0000000000
10
28.8604540243
20
-30.9184673923
30
0.0000000000
11
29.7240162665
21
-30.9184298660
31
0.0000000000
11
29.2904993922
21
-30.9184508391
31
0.0000000000
11
28.8604540243
21
-30.9184673923
31
0.0000000000
0
SPLINE
5
371
100
AcDbEntity
8
0
100
AcDbSpline
62
7
6
CONTINUOUS
70
0
71
3
72
10
73
6
74
4
42
0.0000001000
43
0.0000001000
44
0.0000000001
12
-1.1691793652
22
-0.9459568000
32
0.0000000000
13
-1.4993445923
23
0.0000000000
33
0.0000000000
40
0.0000000000
40
0.0000000000
40
0.0000000000
40
0.0000000000
40
0.2154240425
40
0.6066644593
40
1.0000000000
40
1.0000000000
40
1.0000000000
40
1.0000000000
10
32.8035865075
20
-25.4016440284
30
0.0000000000
10
32.7196300591
20
-25.4695713077
30
0.0000000000
10
32.4690943863
20
-25.6434129366
30
0.0000000000
10
32.0031067556
20
-25.8394109792
30
0.0000000000
10
31.6089594247
20
-25.8913577524
30
0.0000000000
10
31.4123775861
20
-25.8913577524
30
0.0000000000
11
32.8035865075
21
-25.4016440284
31
0.0000000000
11
32.5376462313
21
-25.5861050731
31
0.0000000000
11
31.9969849593
21
-25.8136789738
31
0.0000000000
11
31.4123775861
21
-25.8913577524
31
0.0000000000
0
SPLINE
5
372
100
AcDbEntity
8
0
100
AcDbSpline
62
7
6
CONTINUOUS
70
0
71
3
72
8
73
4
74
2
42
0.0000001000
43
0.0000001000
44
0.0000000001
12
-0.0428386255
22
-0.0054541600
32
0.0000000000
13
-0.0429450296
23
-0.0000635124
33
0.0000000000
40
0.0000000000
40
0.0000000000
40
0.0000000000
40
0.0000000000
40
1.0000000000
40
1.0000000000
40
1.0000000000
40
1.0000000000
10
34.2295215410
20
-32.1398252690
30
0.0000000000
10
34.2152419992
20
-32.1416433224
30
0.0000000000
10
34.2008780012
20
-32.1425690458
30
0.0000000000
10
34.1865629914
20
-32.1425902165
30
0.0000000000
11
34.2295215410
21
-32.1398252690
31
0.0000000000
11
34.1865629914
21
-32.1425902165
31
0.0000000000
0
SPLINE
5
373
100
AcDbEntity
8
0
100
AcDbSpline
62
7
6
CONTINUOUS
70
0
71
3
72
10
73
6
74
4
42
0.0000001000
43
0.0000001000
44
0.0000000001
12
-0.5757609928
22
1.0427043724
32
0.0000000000
13
-0.5735527768
23
1.0439206920
33
0.0000000000
40
0.0000000000
40
0.0000000000
40
0.0000000000
40
0.0000000000
40
0.3772257721
40
0.7517825029
40
1.0000000000
40
1.0000000000
40
1.0000000000
40
1.0000000000
10
35.2658061213
20
-33.7747357861
30
0.0000000000
10
35.1934088262
20
-33.6436241322
30
0.0000000000
10
35.0492288227
20
-33.3822719696
30
0.0000000000
10
34.8577200775
20
-33.0344768507
30
0.0000000000
10
34.7385974931
20
-32.8177997198
30
0.0000000000
10
34.6911422148
20
-32.7314265927
30
0.0000000000
11
35.2658061213
21
-33.7747357861
31
0.0000000000
11
35.0487690810
21
-33.3813153617
31
0.0000000000
11
34.8335771430
21
-32.9905079995
31
0.0000000000
11
34.6911422148
21
-32.7314265927
31
0.0000000000
0
SPLINE
5
374
100
AcDbEntity
8
0
100
AcDbSpline
62
7
6
CONTINUOUS
70
0
71
3
72
8
73
4
74
2
42
0.0000001000
43
0.0000001000
44
0.0000000001
12
-0.0709270741
22
0.1290940315
32
0.0000000000
13
-0.0708925985
23
0.1291129629
33
0.0000000000
40
0.0000000000
40
0.0000000000
40
0.0000000000
40
0.0000000000
40
1.0000000000
40
1.0000000000
40
1.0000000000
40
1.0000000000
10
34.6911422148
20
-32.7314265927
30
0.0000000000
10
34.6674998568
20
-32.6883952489
30
0.0000000000
10
34.6438632321
20
-32.6453607555
30
0.0000000000
10
34.6202323660
20
-32.6023231012
30
0.0000000000
11
34.6911422148
21
-32.7314265927
31
0.0000000000
11
34.6202323660
21
-32.6023231012
31
0.0000000000
0
ENDSEC
0
SECTION
2
OBJECTS
0
DICTIONARY
5
C
100
AcDbDictionary
280
0
281
1
3
ACAD_GROUP
350
D
3
ACAD_MLINESTYLE
350
17
3
ACAD_LAYOUT
350
1A
3
ACAD_PLOTSETTINGS
350
19
3
ACAD_PLOTSTYLENAME
350
E
0
DICTIONARY
5
D
102
{ACAD_REACTORS
330
C
102
}
100
AcDbDictionary
280
0
281
1
0
ACDBDICTIONARYWDFLT
5
E
102
{ACAD_REACTORS
330
C
102
}
100
AcDbDictionary
281
1
3
Normal
350
F
100
AcDbDictionaryWithDefault
340
F
0
DICTIONARY
5
17
102
{ACAD_REACTORS
330
C
102
}
100
AcDbDictionary
280
0
281
1
3
Standard
350
18
0
DICTIONARY
5
19
102
{ACAD_REACTORS
330
C
102
}
100
AcDbDictionary
281
1
0
DICTIONARY
5
1A
102
{ACAD_REACTORS
330
C
102
}
100
AcDbDictionary
281
1
3
Layout1
350
1E
3
Model
350
22
0
ACDBPLACEHOLDER
5
F
102
{ACAD_REACTORS
330
E
102
}
0
MLINESTYLE
5
18
102
{ACAD_REACTORS
330
17
102
}
100
AcDbMlineStyle
2
STANDARD
70
0
3

62
256
51
90.0
52
90.0
71
2
49
0.5
62
256
6
BYLAYER
49
-0.5
62
256
6
BYLAYER
0
LAYOUT
5
1E
102
{ACAD_REACTORS
330
1A
102
}
100
AcDbPlotSettings
1

2

4

6

40
0.0
41
0.0
42
0.0
43
0.0
44
0.0
45
0.0
46
0.0
47
0.0
48
0.0
49
0.0
140
0.0
141
0.0
142
1.0
143
1.0
70
0
72
0
73
0
74
0
7

75
0
147
1.0
148
0.0
149
0.0
100
AcDbLayout
1
Layout1
70
0
71
0
10
0.0
20
0.0
11
0.0
21
0.0
12
0.0
22
0.0
32
0.0
14
0.0
24
0.0
34
0.0
15
0.0
25
0.0
35
0.0
146
0.0
13
0.0
23
0.0
33
0.0
16
0.0
26
0.0
36
0.0
17
0.0
27
0.0
37
0.0
76
0
330
1B
331
0
345
0
346
0
0
LAYOUT
5
22
102
{ACAD_REACTORS
330
1A
102
}
100
AcDbPlotSettings
1

2

4

6

40
0.0
41
0.0
42
0.0
43
0.0
44
0.0
45
0.0
46
0.0
47
0.0
48
0.0
49
0.0
140
0.0
141
0.0
142
1.0
143
1.0
70
0
72
0
73
0
74
0
7

75
0
147
1.0
148
0.0
149
0.0
100
AcDbLayout
1
Model
70
0
71
0
10
0.0
20
0.0
11
0.0
21
0.0
12
0.0
22
0.0
32
0.0
14
0.0
24
0.0
34
0.0
15
0.0
25
0.0
35
0.0
146
0.0
13
0.0
23
0.0
33
0.0
16
0.0
26
0.0
36
0.0
17
0.0
27
0.0
37
0.0
76
0
330
1F
331
0
345
0
346
0
0
ENDSEC
0
EOF
