  0
SECTION
  2
HEADER
  9
$ACADVER
  1
AC1024
  9
$DWGCODEPAGE
  3
ANSI_1252
  9
$EXTMAX
 10
558.8
 20
431.8
 30
0.0
  9
$EXTMIN
 10
0.0
 20
0.0
 30
0.0
  9
$LIMMIN
 10
0.0
 20
0.0
  9
$LIMMAX
 10
558.8
 20
431.8
  9
$VIEWCTR
 10
279.4
 20
215.9
  9
$VIEWSIZE
 40
431.8
  9
$CLAYER
  8
0
  9
$LTSCALE
 40
30.734
  9
$CELTYPE
  6
BYLAYER
  9
$DIMSCALE
 40
1.0
  9
$DIMASZ
 40
3.0
  9
$DIMEXO
 40
0.5
  9
$DIMDLI
 40
21.2344
  9
$DIMEXE
 40
1.5
  9
$DIMCEN
 40
5.0292
  9
$DIMLFAC
 40
1.0
  9
$DIMBLK
  1
_FILLED
  9
$DIMALT
 70
0
  9
$DIMALTF
 40
0.0393700787
  9
$DIMTXT
 40
3.0
  9
$DIMTOL
 70
1
  9
$DIMLIM
 70
0
  9
$DIMTFAC
 40
1.0
  9
$DIMTP
 40
0.01
  9
$DIMTM
 40
0.01
  9
$DIMGAP
 40
0.625
  9
$DIMDSEP
 70
44
  9
$AUNITS
 70
0
  9
$PDMODE
 70
3
  9
$PDSIZE
 40
3.0
  9
$HANDSEED
  5
380
  9
$TILEMODE
 70
1
  9
$MEASUREMENT
 70
1
  9
$INSUNITS
 70
4
  0
ENDSEC
  0
SECTION
  2
CLASSES
  0
CLASS
  1
ACDBDICTIONARYWDFLT
  2
AcDbDictionaryWithDefault
  3
AutoCAD 2000
 90
0
 91
1
280
0
281
0
  0
CLASS
  1
ACDBPLACEHOLDER
  2
AcDbPlaceHolder
  3
AutoCAD 2000
 90
0
 91
1
280
0
281
0
  0
CLASS
  1
LAYOUT
  2
AcDbLayout
  3
AutoCAD 2000
 90
0
 91
0
280
0
281
0
  0
ENDSEC
  0
SECTION
  2
TABLES
  0
TABLE
  2
VPORT
  5
8
100
AcDbSymbolTable
 70
2
  0
VPORT
  5
1F4
100
AcDbSymbolTableRecord
100
AcDbViewportTableRecord
  2
*ACTIVE
 70
0
 10
0.0
 20
0.0
 11
1.0
 21
1.0
 12
279.4
 22
215.9
 13
0.0
 23
0.0
 14
1.0
 24
1.0
 15
0.0
 25
0.0
 16
0.0
 26
0.0
 36
1.0
 17
0.0
 27
0.0
 37
0.0
 40
431.8
 41
1.2941176471
 42
50.0
 43
0.0
 44
0.0
 50
0.0
 51
0.0
 71
0
 72
100
 73
1
 74
1
 75
0
 76
0
 77
0
 78
0
  0
ENDTAB
  0
TABLE
  2
LTYPE
  5
5
100
AcDbSymbolTable
 70
6
  0
LTYPE
  5
14
100
AcDbSymbolTableRecord
100
AcDbLinetypeTableRecord
  2
BYBLOCK
 70
0
  3

 72
65
 73
0
 40
0.0
  0
LTYPE
  5
15
100
AcDbSymbolTableRecord
100
AcDbLinetypeTableRecord
  2
BYLAYER
 70
0
  3

 72
65
 73
0
 40
0.0
  0
LTYPE
  5
16
100
AcDbSymbolTableRecord
100
AcDbLinetypeTableRecord
  2
CONTINUOUS
 70
64
  3
Solid line
 72
65
 73
0
 40
0.0
  0
LTYPE
  5
1F5
100
AcDbSymbolTableRecord
100
AcDbLinetypeTableRecord
  2
CENTER
 70
64
  3
____ _ ____ _ ____ _ ____ _ ____ _ ____ _ ____
 72
65
 73
4
 40
0.6
 49
0.375
 74
0
 49
-0.075
 74
0
 49
0.075
 74
0
 49
-0.075
 74
0
  0
LTYPE
  5
1F6
100
AcDbSymbolTableRecord
100
AcDbLinetypeTableRecord
  2
HIDDEN
 70
64
  3
- - - - - - - - - - - - - - - - - - - -
 72
65
 73
2
 40
0.2
 49
0.1
 74
0
 49
-0.1
 74
0
  0
LTYPE
  5
1F7
100
AcDbSymbolTableRecord
100
AcDbLinetypeTableRecord
  2
PHANTOM
 70
64
  3
_____ _ _ _____ _ _ _____ _ _ _____
 72
65
 73
6
 40
0.8
 49
0.45
 74
0
 49
-0.05
 74
0
 49
0.1
 74
0
 49
-0.05
 74
0
 49
0.1
 74
0
 49
-0.05
 74
0
  0
LTYPE
  5
1F8
100
AcDbSymbolTableRecord
100
AcDbLinetypeTableRecord
  2
DOT
 70
64
  3
. . . . . . . . . . . . . . . . . . . .
 72
65
 73
2
 40
0.2
 49
0.1
 74
0
 49
-0.1
 74
0
  0
LTYPE
  5
1F9
100
AcDbSymbolTableRecord
100
AcDbLinetypeTableRecord
  2
DASHED
 70
64
  3
- - - - - - - - - - - - - - - - - - - -
 72
65
 73
2
 40
0.2
 49
0.1
 74
0
 49
-0.1
 74
0
  0
ENDTAB
  0
TABLE
  2
LAYER
  5
2
100
AcDbSymbolTable
 70
36
  0
LAYER
  5
10
100
AcDbSymbolTableRecord
100
AcDbLayerTableRecord
  2
0
 70
0
 62
7
  6
CONTINUOUS
370
-3
390
F
  0
LAYER
  5
1FA
100
AcDbSymbolTableRecord
100
AcDbLayerTableRecord
  2
DEFAULT_1
 70
0
 62
7
  6
CENTER
370
-3
390
F
  0
LAYER
  5
1FB
100
AcDbSymbolTableRecord
100
AcDbLayerTableRecord
  2
DEFAULT_2
 70
0
 62
7
  6
HIDDEN
370
-3
390
F
  0
LAYER
  5
1FC
100
AcDbSymbolTableRecord
100
AcDbLayerTableRecord
  2
DEFAULT_3
 70
0
 62
7
  6
PHANTOM
370
-3
390
F
  0
LAYER
  5
1FD
100
AcDbSymbolTableRecord
100
AcDbLayerTableRecord
  2
ASSI
 70
0
 62
7
  6
CONTINUOUS
370
-3
390
F
  0
LAYER
  5
1FE
100
AcDbSymbolTableRecord
100
AcDbLayerTableRecord
  2
COLOR5
 70
0
 62
7
  6
CONTINUOUS
370
-3
390
F
  0
LAYER
  5
1FF
100
AcDbSymbolTableRecord
100
AcDbLayerTableRecord
  2
COORDINATE
 70
0
 62
7
  6
CONTINUOUS
370
-3
390
F
  0
LAYER
  5
200
100
AcDbSymbolTableRecord
100
AcDbLayerTableRecord
  2
COORD_ORIGINE
 70
0
 62
7
  6
CONTINUOUS
370
-3
390
F
  0
LAYER
  5
201
100
AcDbSymbolTableRecord
100
AcDbLayerTableRecord
  2
COPY_GEOM
 70
0
 62
7
  6
CONTINUOUS
370
-3
390
F
  0
LAYER
  5
202
100
AcDbSymbolTableRecord
100
AcDbLayerTableRecord
  2
CURVE
 70
0
 62
7
  6
CONTINUOUS
370
-3
390
F
  0
LAYER
  5
203
100
AcDbSymbolTableRecord
100
AcDbLayerTableRecord
  2
DRAFT
 70
0
 62
7
  6
CONTINUOUS
370
-3
390
F
  0
LAYER
  5
204
100
AcDbSymbolTableRecord
100
AcDbLayerTableRecord
  2
IGS
 70
0
 62
7
  6
CONTINUOUS
370
-3
390
F
  0
LAYER
  5
205
100
AcDbSymbolTableRecord
100
AcDbLayerTableRecord
  2
IMPORT_COPY_GEOM
 70
0
 62
7
  6
CONTINUOUS
370
-3
390
F
  0
LAYER
  5
206
100
AcDbSymbolTableRecord
100
AcDbLayerTableRecord
  2
INTF_1
 70
0
 62
7
  6
CONTINUOUS
370
-3
390
F
  0
LAYER
  5
207
100
AcDbSymbolTableRecord
100
AcDbLayerTableRecord
  2
INTF_7
 70
0
 62
7
  6
CONTINUOUS
370
-3
390
F
  0
LAYER
  5
208
100
AcDbSymbolTableRecord
100
AcDbLayerTableRecord
  2
NOTE
 70
0
 62
7
  6
CONTINUOUS
370
-3
390
F
  0
LAYER
  5
209
100
AcDbSymbolTableRecord
100
AcDbLayerTableRecord
  2
PIANI
 70
0
 62
7
  6
CONTINUOUS
370
-3
390
F
  0
LAYER
  5
20A
100
AcDbSymbolTableRecord
100
AcDbLayerTableRecord
  2
PIANI_ORIGINE
 70
0
 62
7
  6
CONTINUOUS
370
-3
390
F
  0
LAYER
  5
20B
100
AcDbSymbolTableRecord
100
AcDbLayerTableRecord
  2
PUNTI
 70
0
 62
7
  6
CONTINUOUS
370
-3
390
F
  0
LAYER
  5
20C
100
AcDbSymbolTableRecord
100
AcDbLayerTableRecord
  2
RACCORDO
 70
0
 62
7
  6
CONTINUOUS
370
-3
390
F
  0
LAYER
  5
20D
100
AcDbSymbolTableRecord
100
AcDbLayerTableRecord
  2
RGB__255__255__255__
 70
0
 62
7
  6
CONTINUOUS
370
-3
390
F
  0
LAYER
  5
20E
100
AcDbSymbolTableRecord
100
AcDbLayerTableRecord
  2
RGB____0____0____0__
 70
0
 62
7
  6
CONTINUOUS
370
-3
390
F
  0
LAYER
  5
20F
100
AcDbSymbolTableRecord
100
AcDbLayerTableRecord
  2
SMUSSO
 70
0
 62
7
  6
CONTINUOUS
370
-3
390
F
  0
LAYER
  5
210
100
AcDbSymbolTableRecord
100
AcDbLayerTableRecord
  2
SNAPLINE
 70
0
 62
7
  6
CONTINUOUS
370
-3
390
F
  0
LAYER
  5
211
100
AcDbSymbolTableRecord
100
AcDbLayerTableRecord
  2
SUPERFICI
 70
0
 62
7
  6
CONTINUOUS
370
-3
390
F
  0
LAYER
  5
212
100
AcDbSymbolTableRecord
100
AcDbLayerTableRecord
  2
TESTO
 70
0
 62
7
  6
CONTINUOUS
370
-3
390
F
  0
LAYER
  5
213
100
AcDbSymbolTableRecord
100
AcDbLayerTableRecord
  2
TRASH
 70
0
 62
7
  6
CONTINUOUS
370
-3
390
F
  0
LAYER
  5
214
100
AcDbSymbolTableRecord
100
AcDbLayerTableRecord
  2
XSEC_DATUMS
 70
0
 62
7
  6
CONTINUOUS
370
-3
390
F
  0
ENDTAB
  0
TABLE
  2
STYLE
  5
3
100
AcDbSymbolTable
 70
1
  0
STYLE
  5
11
100
AcDbSymbolTableRecord
100
AcDbTextStyleTableRecord
  2
STANDARD
 70
0
 40
0.0
 41
0.8
 50
0.0
 71
0
 42
0.2
  3
txt
  4

  0
STYLE
  5
215
100
AcDbSymbolTableRecord
100
AcDbTextStyleTableRecord
  2
TEXTSTYLE_1
 70
0
 40
0.0
 41
0.8
 50
0.0
 71
0
 42
0.2
  3
gdt
  4

  0
ENDTAB
  0
TABLE
  2
VIEW
  5
6
100
AcDbSymbolTable
 70
0
  0
ENDTAB
  0
TABLE
  2
UCS
  5
7
100
AcDbSymbolTable
 70
0
  0
ENDTAB
  0
TABLE
  2
APPID
  5
9
100
AcDbSymbolTable
 70
1
  0
APPID
  5
216
100
AcDbSymbolTableRecord
100
AcDbRegAppTableRecord
  2
ACAD
 70
0
  0
ENDTAB
  0
TABLE
  2
BLOCK_RECORD
  5
1
100
AcDbSymbolTable
 70
0
  0
BLOCK_RECORD
  5
217
100
AcDbSymbolTableRecord
100
AcDbBlockTableRecord
  2
*Model_Space
  0
BLOCK_RECORD
  5
218
100
AcDbSymbolTableRecord
100
AcDbBlockTableRecord
  2
*Paper_Space
  0
BLOCK_RECORD
  5
219
100
AcDbSymbolTableRecord
100
AcDbBlockTableRecord
  2
_FILLED
  0
ENDTAB
  0
TABLE
  2
DIMSTYLE
  5
A
100
AcDbSymbolTable
 70
1
100
AcDbDimStyleTable
 71
0
  0
DIMSTYLE
105
21A
100
AcDbSymbolTableRecord
100
AcDbDimStyleTableRecord
  2
STANDARD
 70
0
  3

  4

 40
1.0
 41
3.0
 42
0.5
 43
0.38
 44
1.5
 45
0.0
 46
0.0
 47
0.01
 48
0.01
140
3.0
141
0.09
142
0.0
143
25.4
144
1.0
145
0.0
146
1.0
147
0.625
 71
1
 72
0
 73
0
 74
0
 75
0
 76
0
 77
1
 78
8
 79
2
170
0
171
1
172
0
173
0
174
0
175
0
176
0
177
0
178
0
270
2
179
2
271
2
272
2
273
2
274
2
275
0
280
0
281
0
282
0
283
1
284
8
285
0
286
0
287
3
288
0
340
11
278
44
341
219
342
219
343
219
344
219
  0
ENDTAB
  0
ENDSEC
  0
SECTION
  2
BLOCKS
  0
BLOCK
  5
20
100
AcDbEntity
  8
0
100
AcDbBlockBegin
  2
*Model_Space
 70
0
 10
0.0
 20
0.0
 30
0.0
  3
*Model_Space
  1

  0
ENDBLK
  5
21
100
AcDbEntity
  8
0
100
AcDbBlockEnd
  0
BLOCK
  5
1C
100
AcDbEntity
  8
0
100
AcDbBlockBegin
  2
*Paper_Space
 70
0
 10
0.0
 20
0.0
 30
0.0
  3
*Paper_Space
  1

  0
ENDBLK
  5
1D
100
AcDbEntity
  8
0
100
AcDbBlockEnd
  0
BLOCK
  5
21B
100
AcDbEntity
  8
0
100
AcDbBlockBegin
  2
_FILLED
 70
64
 10
0.0
 20
0.0
  3
_FILLED
  1

  0
SOLID
  5
21C
100
AcDbEntity
  8
0
  6
BYBLOCK
 62
0
100
AcDbTrace
 10
0.0
 20
0.0
 11
-1.0
 21
0.3166666667
 12
-1.0
 22
-0.3166666667
 13
-1.0
 23
-0.3166666667
  0
ENDBLK
  5
21D
100
AcDbEntity
  8
0
  6
BYBLOCK
 62
0
100
AcDbBlockEnd
  0
ENDSEC
  0
SECTION
  2
ENTITIES
  0
LWPOLYLINE
  5
21E
100
AcDbEntity
  8
RACCORDO
100
AcDbPolyline
 62
7
  6
CONTINUOUS
 90
4
 70
0
 10
-50.8157249234
 20
46.4213505108
 10
-50.8484720185
 20
46.391462507
 10
-50.8808816238
 20
46.359423692
 10
-50.9112863448
 20
46.3269551375
  0
LWPOLYLINE
  5
21F
100
AcDbEntity
  8
RACCORDO
100
AcDbPolyline
 62
7
  6
CONTINUOUS
 90
9
 70
0
 10
-50.5474723285
 20
46.5844222166
 10
-50.5803973165
 20
46.5716253778
 10
-50.6142644099
 20
46.5564464221
 10
-50.6481878316
 20
46.539161422
 10
-50.6820527619
 20
46.5197859465
 10
-50.7157750351
 20
46.4983319596
 10
-50.7493529373
 20
46.4747606129
 10
-50.7826947717
 20
46.4490933995
 10
-50.8157249234
 20
46.4213505108
  0
LWPOLYLINE
  5
220
100
AcDbEntity
  8
RACCORDO
100
AcDbPolyline
 62
7
  6
CONTINUOUS
 90
16
 70
0
 10
-53.6842588196
 20
45.3398316162
 10
-53.7848215733
 20
45.3015197476
 10
-54.0337104335
 20
45.187361132
 10
-54.2733967515
 20
45.0487712403
 10
-54.5018774496
 20
44.8865225272
 10
-54.7170375622
 20
44.7017026142
 10
-54.9169230243
 20
44.4956970274
 10
-55.0999940711
 20
44.2697843493
 10
-55.2647879625
 20
44.0254688506
 10
-55.4098939292
 20
43.7645470596
 10
-55.5343685147
 20
43.4883521024
 10
-55.6371533913
 20
43.1986931312
 10
-55.7171990928
 20
42.8981009463
 10
-55.7738994727
 20
42.5885225101
 10
-55.8067951382
 20
42.2713973675
 10
-55.8118229892
 20
42.1778645763
  0
LINE
  5
221
100
AcDbEntity
  8
RACCORDO
100
AcDbLine
 62
7
  6
CONTINUOUS
 10
-53.6840787205
 20
45.3399157606
 11
-53.684352283
 21
45.3398173856
  0
LINE
  5
222
100
AcDbEntity
  8
DRAFT
100
AcDbLine
 62
7
  6
CONTINUOUS
 10
-45.3401022895
 20
48.4566706695
 11
-50.5474698917
 21
46.584423091
  0
LINE
  5
223
100
AcDbEntity
  8
SUPERFICI
100
AcDbLine
 62
7
  6
CONTINUOUS
 10
-53.6840810152
 20
45.3399149355
 11
-51.0665518944
 21
46.2810166461
  0
LINE
  5
224
100
AcDbEntity
  8
DRAFT
100
AcDbLine
 62
250
  6
CONTINUOUS
 10
-49.5579876273
 20
46.6388736273
 11
-44.0693016488
 21
48.5982298986
  0
LINE
  5
225
100
AcDbEntity
  8
RACCORDO
100
AcDbLine
 62
250
  6
CONTINUOUS
 10
-52.5644413675
 20
45.4565116266
 11
-50.0323224136
 21
46.360429827
  0
LWPOLYLINE
  5
226
100
AcDbEntity
  8
RACCORDO
100
AcDbPolyline
 62
7
  6
CONTINUOUS
 90
21
 70
0
 10
-55.1096598511
 20
-33.3863748573
 10
-55.1087320461
 20
-33.420103827
 10
-55.0906436702
 20
-33.7001516718
 10
-55.0540071685
 20
-33.9800269957
 10
-54.9986940503
 20
-34.2591069306
 10
-54.924858145
 20
-34.5355324595
 10
-54.8331903224
 20
-34.8060214486
 10
-54.7240650329
 20
-35.069374385
 10
-54.5978243723
 20
-35.3244203775
 10
-54.4558030625
 20
-35.5681032661
 10
-54.2986971619
 20
-35.7993458773
 10
-54.1270928306
 20
-36.0171842388
 10
-53.9428087089
 20
-36.2192129774
 10
-53.7468746665
 20
-36.4045734243
 10
-53.5401331746
 20
-36.5725637796
 10
-53.3246673422
 20
-36.721571156
 10
-53.1017591337
 20
-36.8510473518
 10
-52.872482797
 20
-36.9606159274
 10
-52.6390609212
 20
-37.0494592023
 10
-52.4033772174
 20
-37.1173866295
 10
-52.1717281891
 20
-37.1638082982
  0
LINE
  5
227
100
AcDbEntity
  8
RACCORDO
100
AcDbLine
 62
7
  6
CONTINUOUS
 10
-55.5575268035
 20
4.3323583137
 11
-55.5046462385
 21
-0.2010614392
  0
LWPOLYLINE
  5
228
100
AcDbEntity
  8
RACCORDO
100
AcDbPolyline
 62
7
  6
CONTINUOUS
 90
8
 70
0
 10
-55.5046462385
 20
-0.2010614392
 10
-55.3965887329
 20
-9.3452123572
 10
-55.3463163654
 20
-13.7202069174
 10
-55.2998261571
 20
-17.9639683161
 10
-55.2572186245
 20
-22.0751601544
 10
-55.2165357604
 20
-26.0530147813
 10
-55.1714195155
 20
-29.8969347841
 10
-55.1097024607
 20
-33.3864523431
  0
LWPOLYLINE
  5
229
100
AcDbEntity
  8
RACCORDO
100
AcDbPolyline
 62
7
  6
CONTINUOUS
 90
5
 70
0
 10
-55.6576373904
 20
13.5450533313
 10
-55.6338070168
 20
11.236757166
 10
-55.6088613198
 20
8.8955785711
 10
-55.582630355
 20
6.5216006165
 10
-55.5575261664
 20
4.332349942
  0
LWPOLYLINE
  5
22A
100
AcDbEntity
  8
RACCORDO
100
AcDbPolyline
 62
7
  6
CONTINUOUS
 90
13
 70
0
 10
-55.811824993
 20
42.1778127366
 10
-55.8633473143
 20
40.5538959703
 10
-55.8886292795
 20
38.6643270759
 10
-55.8905683395
 20
36.7490596874
 10
-55.8790313833
 20
34.8043653683
 10
-55.8603516514
 20
32.8279313613
 10
-55.8383651799
 20
30.8190966694
 10
-55.8152338754
 20
28.776726346
 10
-55.7920622913
 20
26.7001890059
 10
-55.7692976016
 20
24.5904273076
 10
-55.7469833024
 20
22.4477894492
 10
-55.7249241814
 20
20.2718644074
 10
-55.6576373904
 20
13.5450533313
  0
LWPOLYLINE
  5
22B
100
AcDbEntity
  8
RACCORDO
100
AcDbPolyline
 62
7
  6
CONTINUOUS
 90
6
 70
0
 10
43.9842807087
 20
-48.4223163144
 10
44.0259279465
 20
-48.4255170742
 10
44.3319308948
 20
-48.4330452089
 10
44.6358388867
 20
-48.4123510677
 10
44.9349224263
 20
-48.3635182357
 10
45.1660904727
 20
-48.3054389658
  0
LWPOLYLINE
  5
22C
100
AcDbEntity
  8
RACCORDO
100
AcDbPolyline
 62
7
  6
CONTINUOUS
 90
10
 70
0
 10
-52.1712068859
 20
-37.1639291164
 10
-50.2953632918
 20
-37.4503121104
 10
-48.1147181966
 20
-37.7653184409
 10
-45.8229816457
 20
-38.0820979504
 10
-43.4298019552
 20
-38.4025465643
 10
-40.939205309
 20
-38.7275623429
 10
-38.3508362704
 20
-39.0572567675
 10
-35.6634567019
 20
-39.3912853204
 10
-32.8764851903
 20
-39.729224208
 10
-30.1149923093
 20
-40.0561578089
  0
LINE
  5
22D
100
AcDbEntity
  8
RACCORDO
100
AcDbLine
 62
7
  6
CONTINUOUS
 10
-52.1717342129
 20
-37.1638458786
 11
-52.1712068859
 21
-37.1639291164
  0
LINE
  5
22E
100
AcDbEntity
  8
RACCORDO
100
AcDbLine
 62
7
  6
CONTINUOUS
 10
-30.1149843289
 20
-40.0560885648
 11
-30.1525879832
 21
-40.0499474624
  0
LWPOLYLINE
  5
22F
100
AcDbEntity
  8
RACCORDO
100
AcDbPolyline
 62
7
  6
CONTINUOUS
 90
9
 70
0
 10
23.1936259618
 20
-46.2940872065
 10
26.0365757413
 20
-46.6153650737
 10
28.8175623655
 20
-46.9216434145
 10
31.534844111
 20
-47.2132091328
 10
34.1872109499
 20
-47.4904070294
 10
36.7750281958
 20
-47.7532314073
 10
39.3006101548
 20
-48.0006016597
 10
41.7687593752
 20
-48.230083562
 10
43.9842807087
 20
-48.4223163144
  0
LINE
  5
230
100
AcDbEntity
  8
RACCORDO
100
AcDbLine
 62
7
  6
CONTINUOUS
 10
20.4318597013
 20
-45.9742991941
 11
23.1936259618
 21
-46.2940872065
  0
LINE
  5
231
100
AcDbEntity
  8
RACCORDO
100
AcDbLine
 62
7
  6
CONTINUOUS
 10
-30.1525879832
 20
-40.0499474624
 11
20.3932285251
 21
-45.9679676086
  0
LINE
  5
232
100
AcDbEntity
  8
RACCORDO
100
AcDbLine
 62
250
  6
CONTINUOUS
 10
-30.7950088459
 20
-38.9824985787
 11
19.874145556
 21
-44.9149594084
  0
LINE
  5
233
100
AcDbEntity
  8
RACCORDO
100
AcDbLine
 62
7
  6
CONTINUOUS
 10
20.3932285251
 20
-45.9679676086
 11
20.4318679239
 21
-45.9742299784
  0
LINE
  5
234
100
AcDbEntity
  8
RACCORDO
100
AcDbLine
 62
250
  6
CONTINUOUS
 10
-38.06496347
 20
1.4381163748
 11
-38.3157176339
 21
23.1854255056
  0
LINE
  5
235
100
AcDbEntity
  8
RACCORDO
100
AcDbLine
 62
7
  6
CONTINUOUS
 10
-36.8495883528
 20
22.8141866279
 11
-36.3483129093
 21
-20.6806535861
  0
LINE
  5
236
100
AcDbEntity
  8
RACCORDO
100
AcDbLine
 62
250
  6
CONTINUOUS
 10
-36.3879582942
 20
22.6507162685
 11
-35.8866828496
 21
-20.8441240459
  0
LINE
  5
237
100
AcDbEntity
  8
RACCORDO
100
AcDbLine
 62
250
  6
CONTINUOUS
 10
-37.8173017702
 20
-20.3079118592
 11
-38.06496347
 21
1.4381163748
  0
LINE
  5
238
100
AcDbEntity
  8
0
100
AcDbLine
 62
7
  6
CONTINUOUS
 10
-35.786982584
 20
24.4268216421
 11
-35.1918289255
 21
24.6408021177
  0
LINE
  5
239
100
AcDbEntity
  8
RACCORDO
100
AcDbLine
 62
250
  6
CONTINUOUS
 10
-35.7867994753
 20
24.42688746
 11
-35.7869828328
 21
24.4268215526
  0
LINE
  5
23A
100
AcDbEntity
  8
RACCORDO
100
AcDbLine
 62
250
  6
CONTINUOUS
 10
-35.2213191022
 20
24.4898330098
 11
-34.6200107341
 21
24.7044886353
  0
LINE
  5
23B
100
AcDbEntity
  8
0
100
AcDbLine
 62
7
  6
CONTINUOUS
 10
17.3311289154
 20
-36.6786730435
 11
17.8198981338
 21
-36.7358924761
  0
LINE
  5
23C
100
AcDbEntity
  8
0
100
AcDbLine
 62
7
  6
CONTINUOUS
 10
15.7318531833
 20
-36.4914261722
 11
16.2206417833
 21
-36.5486478739
  0
LINE
  5
23D
100
AcDbEntity
  8
0
100
AcDbLine
 62
7
  6
CONTINUOUS
 10
18.3086566105
 20
-36.7931174397
 11
18.797426042
 21
-36.8503436859
  0
LINE
  5
23E
100
AcDbEntity
  8
0
100
AcDbLine
 62
7
  6
CONTINUOUS
 10
24.3536529161
 20
-35.8856128299
 11
24.4520557707
 21
-35.896850363
  0
LINE
  5
23F
100
AcDbEntity
  8
ASSI
100
AcDbLine
 62
7
  6
CONTINUOUS
 10
24.5602622727
 20
-35.8618953612
 11
24.3625794857
 21
-35.8393102743
  0
LINE
  5
240
100
AcDbEntity
  8
ASSI
100
AcDbLine
 62
7
  6
CONTINUOUS
 10
21.9744979432
 20
-36.0852826075
 11
21.8948861014
 21
-36.076026014
  0
LINE
  5
241
100
AcDbEntity
  8
ASSI
100
AcDbLine
 62
7
  6
CONTINUOUS
 10
22.3371189444
 20
-34.3960182688
 11
22.1748925481
 21
-34.3771302332
  0
LINE
  5
242
100
AcDbEntity
  8
0
100
AcDbLine
 62
7
  6
CONTINUOUS
 10
14.876653026
 20
-33.5708373796
 11
15.3654291989
 21
-33.6280644152
  0
LINE
  5
243
100
AcDbEntity
  8
0
100
AcDbLine
 62
7
  6
CONTINUOUS
 10
16.4459556366
 20
-33.7545749292
 11
16.9347318095
 21
-33.8118019647
  0
LINE
  5
244
100
AcDbEntity
  8
0
100
AcDbLine
 62
7
  6
CONTINUOUS
 10
17.2605766927
 20
-33.8499526311
 11
17.7493469668
 21
-33.907178976
  0
LINE
  5
245
100
AcDbEntity
  8
0
100
AcDbLine
 62
7
  6
CONTINUOUS
 10
18.2380987021
 20
-33.9644031504
 11
18.9769868342
 21
-34.0509138678
  0
LINE
  5
246
100
AcDbEntity
  8
ASSI
100
AcDbLine
 62
7
  6
CONTINUOUS
 10
14.9843226837
 20
-33.5358355631
 11
15.4730988566
 21
-33.5930625986
  0
LINE
  5
247
100
AcDbEntity
  8
ASSI
100
AcDbLine
 62
7
  6
CONTINUOUS
 10
16.5536252942
 20
-33.7195731126
 11
17.0424014671
 21
-33.7768001481
  0
LINE
  5
248
100
AcDbEntity
  8
ASSI
100
AcDbLine
 62
7
  6
CONTINUOUS
 10
17.3682463503
 20
-33.8149508145
 11
17.8570166245
 21
-33.8721771595
  0
LINE
  5
249
100
AcDbEntity
  8
ASSI
100
AcDbLine
 62
7
  6
CONTINUOUS
 10
18.3457683598
 20
-33.9294013338
 11
19.0846564918
 21
-34.0159120513
  0
LINE
  5
24A
100
AcDbEntity
  8
RACCORDO
100
AcDbLine
 62
250
  6
CONTINUOUS
 10
19.3233989904
 20
-32.4449788318
 11
-31.2315727832
 21
-26.5258867662
  0
LINE
  5
24B
100
AcDbEntity
  8
RACCORDO
100
AcDbLine
 62
250
  6
CONTINUOUS
 10
21.8887227097
 20
-31.1121176698
 11
-31.5751842916
 21
-24.8527128579
  0
LINE
  5
24C
100
AcDbEntity
  8
0
100
AcDbLine
 62
7
  6
CONTINUOUS
 10
22.3025383006
 20
-29.4072796366
 11
-34.0724463407
 21
-22.8067671136
  0
LINE
  5
24D
100
AcDbEntity
  8
RACCORDO
100
AcDbLine
 62
7
  6
CONTINUOUS
 10
-34.7980216595
 20
-22.5040980001
 11
21.5769629411
 21
-29.1046105183
  0
LINE
  5
24E
100
AcDbEntity
  8
RACCORDO
100
AcDbLine
 62
250
  6
CONTINUOUS
 10
-35.2200372414
 20
-21.6858769932
 11
21.1549473999
 21
-28.2863895162
  0
LINE
  5
24F
100
AcDbEntity
  8
RACCORDO
100
AcDbLine
 62
250
  6
CONTINUOUS
 10
-31.5751842914
 20
-24.8527128579
 11
-34.4862619316
 21
-24.5116051468
  0
LINE
  5
250
100
AcDbEntity
  8
DRAFT
100
AcDbLine
 62
250
  6
CONTINUOUS
 10
51.995694601
 20
37.3507197697
 11
46.5070086225
 21
35.3913634984
  0
LINE
  5
251
100
AcDbEntity
  8
RACCORDO
100
AcDbLine
 62
250
  6
CONTINUOUS
 10
43.4837013741
 20
34.2109747451
 11
46.0158203281
 21
35.1148929455
  0
LINE
  5
252
100
AcDbEntity
  8
RACCORDO
100
AcDbLine
 62
250
  6
CONTINUOUS
 10
46.5665175244
 20
30.2951776258
 11
50.7390026345
 21
31.6025195464
  0
LINE
  5
253
100
AcDbEntity
  8
RACCORDO
100
AcDbLine
 62
250
  6
CONTINUOUS
 10
55.4115561738
 20
33.0376162091
 11
51.2106710268
 21
31.7213758605
  0
LINE
  5
254
100
AcDbEntity
  8
RACCORDO
100
AcDbLine
 62
250
  6
CONTINUOUS
 10
21.7549739073
 20
18.1039761123
 11
21.1536655391
 21
17.8893204868
  0
LINE
  5
255
100
AcDbEntity
  8
RACCORDO
100
AcDbLine
 62
250
  6
CONTINUOUS
 10
23.292111615
 20
16.16307951
 11
22.6741464774
 21
15.969455876
  0
LINE
  5
256
100
AcDbEntity
  8
ASSI
100
AcDbLine
 62
7
  6
CONTINUOUS
 10
16.0056925839
 20
-35.4272252069
 11
15.9923594794
 21
-35.3820035582
  0
LINE
  5
257
100
AcDbEntity
  8
ASSI
100
AcDbLine
 62
7
  6
CONTINUOUS
 10
25.4951318304
 20
-37.5768328725
 11
25.4317861954
 21
-37.4402231436
  0
LINE
  5
258
100
AcDbEntity
  8
RACCORDO
100
AcDbLine
 62
250
  6
CONTINUOUS
 10
20.6360449633
 20
16.7379157073
 11
-35.7389396781
 21
23.3384282303
  0
LINE
  5
259
100
AcDbEntity
  8
RACCORDO
100
AcDbLine
 62
250
  6
CONTINUOUS
 10
21.1536655391
 20
17.8893204868
 11
-35.2213191022
 21
24.4898330098
  0
LINE
  5
25A
100
AcDbEntity
  8
ASSI
100
AcDbLine
 62
7
  6
CONTINUOUS
 10
24.0162652141
 20
-37.4089480671
 11
24.0121457988
 21
-37.2841174375
  0
LINE
  5
25B
100
AcDbEntity
  8
ASSI
100
AcDbLine
 62
7
  6
CONTINUOUS
 10
23.9507514825
 20
-35.3307751698
 11
23.9466254541
 21
-35.1523666829
  0
LINE
  5
25C
100
AcDbEntity
  8
ASSI
100
AcDbLine
 62
7
  6
CONTINUOUS
 10
23.9507476626
 20
-35.3307765622
 11
23.9466292861
 21
-35.1523652949
  0
LINE
  5
25D
100
AcDbEntity
  8
RACCORDO
100
AcDbLine
 62
250
  6
CONTINUOUS
 10
24.8784248016
 20
-5.9314399128
 11
25.1375413755
 21
-27.6788093097
  0
LINE
  5
25E
100
AcDbEntity
  8
RACCORDO
100
AcDbLine
 62
250
  6
CONTINUOUS
 10
21.8039660161
 20
-27.5986775544
 11
21.3026905714
 21
15.8961627601
  0
LINE
  5
25F
100
AcDbEntity
  8
RACCORDO
100
AcDbLine
 62
250
  6
CONTINUOUS
 10
23.1754219221
 20
-27.5253844384
 11
22.6741464774
 21
15.969455876
  0
LINE
  5
260
100
AcDbEntity
  8
DRAFT
100
AcDbLine
 62
7
  6
CONTINUOUS
 10
23.292111615
 20
16.16307951
 11
23.7933870596
 21
-27.3317608044
  0
LINE
  5
261
100
AcDbEntity
  8
0
100
AcDbLine
 62
7
  6
CONTINUOUS
 10
23.5561911291
 20
16.0035617806
 11
24.0574665737
 21
-27.4912785339
  0
LINE
  5
262
100
AcDbEntity
  8
RACCORDO
100
AcDbLine
 62
250
  6
CONTINUOUS
 10
24.628122636
 20
15.815816297
 11
24.8784248016
 21
-5.9314399128
  0
LINE
  5
263
100
AcDbEntity
  8
RACCORDO
100
AcDbLine
 62
250
  6
CONTINUOUS
 10
5.3922374641
 20
23.8006777012
 11
6.5225228844
 21
23.6696288217
  0
LINE
  5
264
100
AcDbEntity
  8
DRAFT
100
AcDbLine
 62
7
  6
CONTINUOUS
 10
-34.6200107341
 20
24.7044886353
 11
21.7549739073
 21
18.1039761123
  0
LINE
  5
265
100
AcDbEntity
  8
0
100
AcDbLine
 62
7
  6
CONTINUOUS
 10
-34.7532336693
 20
25.1806933748
 11
21.6217509721
 21
18.5801808518
  0
LINE
  5
266
100
AcDbEntity
  8
RACCORDO
100
AcDbLine
 62
250
  6
CONTINUOUS
 10
-35.075207457
 20
26.6192835858
 11
-24.71801705
 21
25.4062271901
  0
LINE
  5
267
100
AcDbEntity
  8
RACCORDO
100
AcDbLine
 62
250
  6
CONTINUOUS
 10
-24.71801705
 20
25.4062271901
 11
21.2997771843
 21
20.0187710628
  0
LINE
  5
268
100
AcDbEntity
  8
RACCORDO
100
AcDbLine
 62
250
  6
CONTINUOUS
 10
13.6016520039
 20
22.8486987215
 11
15.3365912288
 21
22.6454774753
  0
LINE
  5
269
100
AcDbEntity
  8
RACCORDO
100
AcDbLine
 62
250
  6
CONTINUOUS
 10
-14.8325701007
 20
26.1655099003
 11
-14.7890429175
 21
26.1603886009
  0
LINE
  5
26A
100
AcDbEntity
  8
RACCORDO
100
AcDbLine
 62
250
  6
CONTINUOUS
 10
-14.7890429175
 20
26.1603886009
 11
-13.7970300834
 21
26.0437468673
  0
LINE
  5
26B
100
AcDbEntity
  8
RACCORDO
100
AcDbLine
 62
250
  6
CONTINUOUS
 10
14.9666093509
 20
22.6890487997
 11
15.3365910383
 21
22.6454066675
  0
LINE
  5
26C
100
AcDbEntity
  8
RACCORDO
100
AcDbLine
 62
250
  6
CONTINUOUS
 10
-24.7749421103
 20
27.3404402459
 11
-23.7393973295
 21
27.2179746614
  0
LINE
  5
26D
100
AcDbEntity
  8
RACCORDO
100
AcDbLine
 62
250
  6
CONTINUOUS
 10
19.5479645961
 20
22.1400086757
 11
20.7424682117
 21
21.9933523901
  0
LINE
  5
26E
100
AcDbEntity
  8
RACCORDO
100
AcDbLine
 62
250
  6
CONTINUOUS
 10
20.5835866893
 20
22.0125025266
 11
20.7424722759
 21
21.9928750028
  0
LINE
  5
26F
100
AcDbEntity
  8
RACCORDO
100
AcDbLine
 62
250
  6
CONTINUOUS
 10
20.7424722759
 20
21.9928750028
 11
21.6012868643
 21
21.8866483229
  0
LINE
  5
270
100
AcDbEntity
  8
RACCORDO
100
AcDbLine
 62
250
  6
CONTINUOUS
 10
20.7424682117
 20
21.9933523901
 11
21.6012868643
 21
21.8866483229
  0
LINE
  5
271
100
AcDbEntity
  8
ASSI
100
AcDbLine
 62
7
  6
CONTINUOUS
 10
21.6230868368
 20
-37.1328387772
 11
21.7487526277
 21
-36.6417239041
  0
LINE
  5
272
100
AcDbEntity
  8
ASSI
100
AcDbLine
 62
7
  6
CONTINUOUS
 10
22.0400966236
 20
-35.5195404708
 11
22.0551286597
 21
-35.462234124
  0
LINE
  5
273
100
AcDbEntity
  8
RACCORDO
100
AcDbLine
 62
250
  6
CONTINUOUS
 10
23.7933870596
 20
-27.3317608044
 11
23.1754219221
 21
-27.5253844384
  0
LINE
  5
274
100
AcDbEntity
  8
RACCORDO
100
AcDbLine
 62
250
  6
CONTINUOUS
 10
22.1898349132
 20
-29.0539743059
 11
22.1902734825
 21
-29.0538464537
  0
LINE
  5
275
100
AcDbEntity
  8
0
100
AcDbLine
 62
7
  6
CONTINUOUS
 10
22.1898350747
 20
-29.0539742588
 11
22.7968453428
 21
-28.877142205
  0
LINE
  5
276
100
AcDbEntity
  8
0
100
AcDbLine
 62
7
  6
CONTINUOUS
 10
14.876653026
 20
-33.5708373796
 11
14.9843226837
 21
-33.5358355631
  0
LINE
  5
277
100
AcDbEntity
  8
0
100
AcDbLine
 62
7
  6
CONTINUOUS
 10
15.3654291989
 20
-33.6280644152
 11
15.4730988566
 21
-33.5930625986
  0
LINE
  5
278
100
AcDbEntity
  8
0
100
AcDbLine
 62
7
  6
CONTINUOUS
 10
16.4459556366
 20
-33.7545749292
 11
16.5536252942
 21
-33.7195731126
  0
LINE
  5
279
100
AcDbEntity
  8
0
100
AcDbLine
 62
7
  6
CONTINUOUS
 10
16.9347318095
 20
-33.8118019647
 11
17.0424014671
 21
-33.7768001481
  0
LINE
  5
27A
100
AcDbEntity
  8
0
100
AcDbLine
 62
7
  6
CONTINUOUS
 10
17.2605766927
 20
-33.8499526311
 11
17.3682463503
 21
-33.8149508145
  0
LINE
  5
27B
100
AcDbEntity
  8
0
100
AcDbLine
 62
7
  6
CONTINUOUS
 10
17.7493469668
 20
-33.907178976
 11
17.8570166245
 21
-33.8721771595
  0
LINE
  5
27C
100
AcDbEntity
  8
0
100
AcDbLine
 62
7
  6
CONTINUOUS
 10
18.2380987021
 20
-33.9644031504
 11
18.3457683598
 21
-33.9294013338
  0
LINE
  5
27D
100
AcDbEntity
  8
0
100
AcDbLine
 62
7
  6
CONTINUOUS
 10
18.9769868342
 20
-34.0509138678
 11
19.0846564918
 21
-34.0159120513
  0
LINE
  5
27E
100
AcDbEntity
  8
0
100
AcDbLine
 62
7
  6
CONTINUOUS
 10
19.889879042
 20
-34.1577265731
 11
19.9975490341
 21
-34.1227246478
  0
LINE
  5
27F
100
AcDbEntity
  8
0
100
AcDbLine
 62
7
  6
CONTINUOUS
 10
20.6289126138
 20
-34.2441903829
 11
20.7365831556
 21
-34.2091882789
  0
LINE
  5
280
100
AcDbEntity
  8
0
100
AcDbLine
 62
7
  6
CONTINUOUS
 10
21.7400270308
 20
-34.3739948846
 11
21.8476987742
 21
-34.33899239
  0
LINE
  5
281
100
AcDbEntity
  8
0
100
AcDbLine
 62
7
  6
CONTINUOUS
 10
22.2294463958
 20
-34.4310210252
 11
22.3371189444
 21
-34.3960182688
  0
LINE
  5
282
100
AcDbEntity
  8
0
100
AcDbLine
 62
7
  6
CONTINUOUS
 10
16.2206417833
 20
-36.5486478739
 11
16.328370675
 21
-36.5136268013
  0
LINE
  5
283
100
AcDbEntity
  8
0
100
AcDbLine
 62
7
  6
CONTINUOUS
 10
23.3426435143
 20
-34.5601609435
 11
23.4503193325
 21
-34.5251571242
  0
LINE
  5
284
100
AcDbEntity
  8
RACCORDO
100
AcDbLine
 62
250
  6
CONTINUOUS
 10
-5.4702837304
 20
38.5679348201
 11
-7.5308859909
 21
38.8091227834
  0
LINE
  5
285
100
AcDbEntity
  8
RACCORDO
100
AcDbLine
 62
250
  6
CONTINUOUS
 10
-6.8709254911
 20
38.731972709
 11
-11.0850658094
 21
39.2241084186
  0
LINE
  5
286
100
AcDbEntity
  8
0
100
AcDbLine
 62
7
  6
CONTINUOUS
 10
46.0158203281
 20
35.1148929455
 11
-50.0323224136
 21
46.360429827
  0
LINE
  5
287
100
AcDbEntity
  8
RACCORDO
100
AcDbLine
 62
250
  6
CONTINUOUS
 10
25.0632406071
 20
36.2333410315
 11
24.8851656571
 21
36.2545023216
  0
LINE
  5
288
100
AcDbEntity
  8
0
100
AcDbLine
 62
7
  6
CONTINUOUS
 10
17.8198981338
 20
-36.7358924761
 11
17.9276270255
 21
-36.7008714034
  0
LINE
  5
289
100
AcDbEntity
  8
0
100
AcDbLine
 62
7
  6
CONTINUOUS
 10
24.4923988548
 20
-34.6924683953
 11
24.6000809468
 21
-34.6574625365
  0
LINE
  5
28A
100
AcDbEntity
  8
0
100
AcDbLine
 62
7
  6
CONTINUOUS
 10
18.797426042
 20
-36.8503436859
 11
18.9051549337
 21
-36.8153226133
  0
LINE
  5
28B
100
AcDbEntity
  8
0
100
AcDbLine
 62
7
  6
CONTINUOUS
 10
21.7871842016
 20
-36.111038312
 11
21.8948861014
 21
-36.076026014
  0
LINE
  5
28C
100
AcDbEntity
  8
0
100
AcDbLine
 62
7
  6
CONTINUOUS
 10
19.7482574185
 20
-36.9616742611
 11
19.8559864364
 21
-36.9266531474
  0
LINE
  5
28D
100
AcDbEntity
  8
0
100
AcDbLine
 62
7
  6
CONTINUOUS
 10
23.8543591626
 20
-35.8284361778
 11
23.9620574982
 21
-35.7934250385
  0
LINE
  5
28E
100
AcDbEntity
  8
0
100
AcDbLine
 62
7
  6
CONTINUOUS
 10
20.6996014719
 20
-37.0728621024
 11
20.8073320483
 21
-37.0378404821
  0
LINE
  5
28F
100
AcDbEntity
  8
0
100
AcDbLine
 62
7
  6
CONTINUOUS
 10
21.5153535834
 20
-37.1678612678
 11
21.6230868368
 21
-37.1328387772
  0
LINE
  5
290
100
AcDbEntity
  8
0
100
AcDbLine
 62
7
  6
CONTINUOUS
 10
23.089530304
 20
-37.3500247906
 11
23.1972718671
 21
-37.3149995987
  0
LINE
  5
291
100
AcDbEntity
  8
0
100
AcDbLine
 62
7
  6
CONTINUOUS
 10
23.9085177134
 20
-37.4439751893
 11
24.0162652141
 21
-37.4089480671
  0
LINE
  5
292
100
AcDbEntity
  8
0
100
AcDbLine
 62
7
  6
CONTINUOUS
 10
25.3873699746
 20
-37.6118646613
 11
25.4951318304
 21
-37.5768328725
  0
LINE
  5
293
100
AcDbEntity
  8
0
100
AcDbLine
 62
7
  6
CONTINUOUS
 10
24.55105768
 20
-35.8648830752
 11
24.5602622727
 21
-35.8618953612
  0
LINE
  5
294
100
AcDbEntity
  8
RACCORDO
100
AcDbLine
 62
7
  6
CONTINUOUS
 10
-50.3580516137
 20
46.5111515087
 11
47.3122793566
 21
35.0756851082
  0
LINE
  5
295
100
AcDbEntity
  8
DRAFT
100
AcDbLine
 62
7
  6
CONTINUOUS
 10
46.5070086225
 20
35.3913634984
 11
-49.5579876273
 21
46.6388736273
  0
LINE
  5
296
100
AcDbEntity
  8
DRAFT
100
AcDbLine
 62
7
  6
CONTINUOUS
 10
-44.0693016488
 20
48.5982298986
 11
51.995694601
 21
37.3507197697
  0
LINE
  5
297
100
AcDbEntity
  8
ASSI
100
AcDbLine
 62
7
  6
CONTINUOUS
 10
51.6560144646
 20
-43.793118332
 11
50.7980883151
 21
30.6477130982
  0
LINE
  5
298
100
AcDbEntity
  8
DRAFT
100
AcDbLine
 62
7
  6
CONTINUOUS
 10
55.4115561738
 20
33.0376162091
 11
56.2808852107
 21
-42.3926248768
  0
LINE
  5
299
100
AcDbEntity
  8
RACCORDO
100
AcDbLine
 62
250
  6
CONTINUOUS
 10
47.2602456899
 20
-45.170420501
 11
51.6560144646
 21
-43.793118332
  0
LINE
  5
29A
100
AcDbEntity
  8
RACCORDO
100
AcDbLine
 62
250
  6
CONTINUOUS
 10
56.2808852107
 20
-42.3926248768
 11
52.1284658373
 21
-43.6936797099
  0
LINE
  5
29B
100
AcDbEntity
  8
RACCORDO
100
AcDbLine
 62
7
  6
CONTINUOUS
 10
45.1660374411
 20
-48.3054620288
 11
45.1662391457
 21
-48.3054032773
  0
LINE
  5
29C
100
AcDbEntity
  8
SUPERFICI
100
AcDbLine
 62
7
  6
CONTINUOUS
 10
49.5746792341
 20
-47.0211523249
 11
45.166244637
 21
-48.3054016777
  0
LINE
  5
29D
100
AcDbEntity
  8
DRAFT
100
AcDbLine
 62
7
  6
CONTINUOUS
 10
54.0666987952
 20
-45.8267035927
 11
49.9868301754
 21
-47.0152362836
  0
ARC
  5
29E
100
AcDbEntity
  8
RACCORDO
100
AcDbCircle
 62
250
  6
CONTINUOUS
 10
-81.2903962449
 20
-800.613361395
 40
828.909815951
100
AcDbArc
 50
83.0125584727
 51
83.2336697131
  0
ARC
  5
29F
100
AcDbEntity
  8
RACCORDO
100
AcDbCircle
 62
250
  6
CONTINUOUS
 10
-14.5995465565
 20
220.0083891778
 40
219.6644095184
100
AcDbArc
 50
260.9561239903
 51
261.7516730628
  0
ARC
  5
2A0
100
AcDbEntity
  8
RACCORDO
100
AcDbCircle
 62
250
  6
CONTINUOUS
 10
43.7290540979
 20
26.904455211
 40
8.9223595925
100
AcDbArc
 50
62.5745198985
 51
66.3217208218
  0
ARC
  5
2A1
100
AcDbEntity
  8
RACCORDO
100
AcDbCircle
 62
250
  6
CONTINUOUS
 10
44.010356932
 20
27.4561555323
 40
8.303099139
100
AcDbArc
 50
60.2913998999
 51
62.5440003846
  0
ARC
  5
2A2
100
AcDbEntity
  8
RACCORDO
100
AcDbCircle
 62
250
  6
CONTINUOUS
 10
44.2334199938
 20
27.8508427671
 40
7.8497433353
100
AcDbArc
 50
58.9617545946
 51
60.2778261561
  0
ARC
  5
2A3
100
AcDbEntity
  8
RACCORDO
100
AcDbCircle
 62
250
  6
CONTINUOUS
 10
-32.0167831573
 20
-19.918036468
 40
6.9535237745
100
AcDbArc
 50
203.1669525699
 51
203.4715201165
  0
ARC
  5
2A4
100
AcDbEntity
  8
RACCORDO
100
AcDbCircle
 62
250
  6
CONTINUOUS
 10
-32.3913351484
 20
-20.131343337
 40
6.5217188245
100
AcDbArc
 50
214.6831401415
 51
214.8686275363
  0
ARC
  5
2A5
100
AcDbEntity
  8
RACCORDO
100
AcDbCircle
 62
250
  6
CONTINUOUS
 10
20.6569122471
 20
-27.825191064
 40
6.2982180158
100
AcDbArc
 50
355.2207894804
 51
0.7867219227
  0
ARC
  5
2A6
100
AcDbEntity
  8
RACCORDO
100
AcDbCircle
 62
250
  6
CONTINUOUS
 10
20.8587829582
 20
-27.8410141462
 40
6.0957309482
100
AcDbArc
 50
352.2122797807
 51
355.2109103533
  0
ARC
  5
2A7
100
AcDbEntity
  8
RACCORDO
100
AcDbCircle
 62
250
  6
CONTINUOUS
 10
20.8606175522
 20
-27.7349507135
 40
4.2772922798
100
AcDbArc
 50
352.2588210665
 51
0.752054723
  0
ARC
  5
2A8
100
AcDbEntity
  8
RACCORDO
100
AcDbCircle
 62
7
  6
CONTINUOUS
 10
49.195508651
 20
-44.2524550794
 40
2.8750032388
100
AcDbArc
 50
270.2988458628
 51
274.6602548284
  0
ARC
  5
2A9
100
AcDbEntity
  8
RACCORDO
100
AcDbCircle
 62
7
  6
CONTINUOUS
 10
49.1986933265
 20
-44.2950112142
 40
2.8323290635
100
AcDbArc
 50
274.6659881364
 51
279.7871285669
  0
ARC
  5
2AA
100
AcDbEntity
  8
RACCORDO
100
AcDbCircle
 62
7
  6
CONTINUOUS
 10
49.2038344154
 20
-44.3264511305
 40
2.80047281
100
AcDbArc
 50
279.7928192517
 51
286.2359826432
  0
ARC
  5
2AB
100
AcDbEntity
  8
0
100
AcDbCircle
 62
7
  6
CONTINUOUS
 10
20.7644489538
 20
15.9706754758
 40
2.7919358664
100
AcDbArc
 50
0.6749044857
 51
4.2016574421
  0
ARC
  5
2AC
100
AcDbEntity
  8
0
100
AcDbCircle
 62
7
  6
CONTINUOUS
 10
-34.7069551063
 20
23.4855601768
 40
1.7620387115
100
AcDbArc
 50
136.6626862415
 51
139.0178891949
  0
ARC
  5
2AD
100
AcDbEntity
  8
RACCORDO
100
AcDbCircle
 62
250
  6
CONTINUOUS
 10
50.6804051443
 20
32.9980628337
 40
1.3958376692
100
AcDbArc
 50
272.4004667386
 51
278.5802664365
  0
ARC
  5
2AE
100
AcDbEntity
  8
RACCORDO
100
AcDbCircle
 62
250
  6
CONTINUOUS
 10
20.5414554406
 20
-45.5654334936
 40
0.4186971293
100
AcDbArc
 50
261.1170171556
 51
263.3568058778
  0
ARC
  5
2AF
100
AcDbEntity
  8
ASSI
100
AcDbCircle
 62
7
  6
CONTINUOUS
 10
266.7869680825
 20
30.0624451453
 40
255.8565293152
100
AcDbArc
 50
194.7525509668
 51
194.8964329162
  0
ARC
  5
2B0
100
AcDbEntity
  8
0
100
AcDbCircle
 62
7
  6
CONTINUOUS
 10
263.5117703695
 20
-99.6799088275
 40
255.7101219336
100
AcDbArc
 50
165.0596810793
 51
165.4965445626
  0
ARC
  5
2B1
100
AcDbEntity
  8
0
100
AcDbCircle
 62
7
  6
CONTINUOUS
 10
263.9158400926
 20
-99.7149902004
 40
255.6225695599
100
AcDbArc
 50
165.0595821479
 51
165.6935648868
  0
ARC
  5
2B2
100
AcDbEntity
  8
ASSI
100
AcDbCircle
 62
7
  6
CONTINUOUS
 10
262.6731092757
 20
-99.322755982
 40
254.2257204625
100
AcDbArc
 50
165.0589067548
 51
165.6963653927
  0
ARC
  5
2B3
100
AcDbEntity
  8
0
100
AcDbCircle
 62
7
  6
CONTINUOUS
 10
266.1091469219
 20
-92.1309260794
 40
252.9522084037
100
AcDbArc
 50
166.7508250576
 51
167.1670323424
  0
ARC
  5
2B4
100
AcDbEntity
  8
0
100
AcDbCircle
 62
7
  6
CONTINUOUS
 10
263.9626372964
 20
-99.0111568982
 40
250.2106612434
100
AcDbArc
 50
165.2446876535
 51
165.4402998589
  0
ARC
  5
2B5
100
AcDbEntity
  8
0
100
AcDbCircle
 62
7
  6
CONTINUOUS
 10
254.7022766339
 20
34.8680636121
 40
248.9454681147
100
AcDbArc
 50
195.9706619119
 51
196.4529600073
  0
ARC
  5
2B6
100
AcDbEntity
  8
0
100
AcDbCircle
 62
7
  6
CONTINUOUS
 10
254.1044700048
 20
34.8938037658
 40
248.8319824774
100
AcDbArc
 50
195.9705991947
 51
196.671332753
  0
ARC
  5
2B7
100
AcDbEntity
  8
ASSI
100
AcDbCircle
 62
7
  6
CONTINUOUS
 10
254.4622777019
 20
34.8064558603
 40
248.584636956
100
AcDbArc
 50
195.9713023485
 51
196.4006513239
  0
ARC
  5
2B8
100
AcDbEntity
  8
0
100
AcDbCircle
 62
7
  6
CONTINUOUS
 10
259.2286199577
 20
28.0453963291
 40
248.1467512841
100
AcDbArc
 50
194.8000586504
 51
194.944577294
  0
ARC
  5
2B9
100
AcDbEntity
  8
ASSI
100
AcDbCircle
 62
7
  6
CONTINUOUS
 10
256.6385916119
 20
27.372329679
 40
245.3576742508
100
AcDbArc
 50
194.4892875631
 51
194.748534111
  0
ARC
  5
2BA
100
AcDbEntity
  8
0
100
AcDbCircle
 62
7
  6
CONTINUOUS
 10
255.3146031338
 20
27.0182534513
 40
244.1002090848
100
AcDbArc
 50
194.4882068234
 51
194.8016447583
  0
ARC
  5
2BB
100
AcDbEntity
  8
0
100
AcDbCircle
 62
7
  6
CONTINUOUS
 10
254.4830381296
 20
26.9854206564
 40
243.7457882066
100
AcDbArc
 50
194.7289889373
 51
195.1688439263
  0
ARC
  5
2BC
100
AcDbEntity
  8
0
100
AcDbCircle
 62
7
  6
CONTINUOUS
 10
267.4560269857
 20
-29.6476873112
 40
243.6800652961
100
AcDbArc
 50
181.2914686853
 51
181.4534172341
  0
ARC
  5
2BD
100
AcDbEntity
  8
0
100
AcDbCircle
 62
7
  6
CONTINUOUS
 10
257.4472574544
 20
-97.2830597974
 40
243.4701221062
100
AcDbArc
 50
165.5747493146
 51
165.7052653291
  0
ARC
  5
2BE
100
AcDbEntity
  8
ASSI
100
AcDbCircle
 62
7
  6
CONTINUOUS
 10
255.0456628395
 20
-96.6176974107
 40
240.8829148551
100
AcDbArc
 50
165.3068352119
 51
165.4436316251
  0
ARC
  5
2BF
100
AcDbEntity
  8
ASSI
100
AcDbCircle
 62
7
  6
CONTINUOUS
 10
251.0687296592
 20
-88.5687373796
 40
236.909766562
100
AcDbArc
 50
167.0664760341
 51
167.4094614276
  0
ARC
  5
2C0
100
AcDbEntity
  8
0
100
AcDbCircle
 62
7
  6
CONTINUOUS
 10
249.8685791817
 20
-88.3620423598
 40
235.7909250355
100
AcDbArc
 50
166.9578625113
 51
167.4089208208
  0
ARC
  5
2C1
100
AcDbEntity
  8
0
100
AcDbCircle
 62
7
  6
CONTINUOUS
 10
238.2442859849
 20
27.6314969973
 40
224.7535696402
100
AcDbArc
 50
196.0297148483
 51
196.8054840256
  0
ARC
  5
2C2
100
AcDbEntity
  8
0
100
AcDbCircle
 62
7
  6
CONTINUOUS
 10
242.5573278908
 20
-29.7843436095
 40
224.3581723084
100
AcDbArc
 50
181.067550272
 51
181.7901665882
  0
ARC
  5
2C3
100
AcDbEntity
  8
0
100
AcDbCircle
 62
7
  6
CONTINUOUS
 10
242.0685727841
 20
-29.7271190404
 40
224.3581723083
100
AcDbArc
 50
181.067550272
 51
181.7901665882
  0
ARC
  5
2C4
100
AcDbEntity
  8
0
100
AcDbCircle
 62
7
  6
CONTINUOUS
 10
241.5797993776
 20
-29.669892826
 40
224.3581687536
100
AcDbArc
 50
181.0675502682
 51
181.7901683368
  0
ARC
  5
2C5
100
AcDbEntity
  8
ASSI
100
AcDbCircle
 62
7
  6
CONTINUOUS
 10
237.9269191708
 20
27.5468374104
 40
224.3120133461
100
AcDbArc
 50
196.0303173796
 51
196.807613161
  0
ARC
  5
2C6
100
AcDbEntity
  8
ASSI
100
AcDbCircle
 62
7
  6
CONTINUOUS
 10
241.8207089721
 20
-29.6962493951
 40
224.0026235771
100
AcDbArc
 50
181.0681878227
 51
181.7919465827
  0
ARC
  5
2C7
100
AcDbEntity
  8
0
100
AcDbCircle
 62
7
  6
CONTINUOUS
 10
242.5420216125
 20
-29.855561536
 40
223.8539055374
100
AcDbArc
 50
181.3133331684
 51
181.7906175954
  0
ARC
  5
2C8
100
AcDbEntity
  8
ASSI
100
AcDbCircle
 62
7
  6
CONTINUOUS
 10
242.0395282182
 20
-29.8320533349
 40
223.243621613
100
AcDbArc
 50
181.439153831
 51
181.792557987
  0
ARC
  5
2C9
100
AcDbEntity
  8
0
100
AcDbCircle
 62
7
  6
CONTINUOUS
 10
223.9631783422
 20
54.5448692014
 40
218.9182844467
100
AcDbArc
 50
204.5442940401
 51
204.8954687602
  0
ARC
  5
2CA
100
AcDbEntity
  8
ASSI
100
AcDbCircle
 62
7
  6
CONTINUOUS
 10
223.2885361815
 20
54.2286159869
 40
218.0607016007
100
AcDbArc
 50
204.5457285731
 51
204.8587202017
  0
ARC
  5
2CB
100
AcDbEntity
  8
0
100
AcDbCircle
 62
7
  6
CONTINUOUS
 10
222.4925667007
 20
53.975852823
 40
217.8224427288
100
AcDbArc
 50
204.5137904026
 51
204.8460376402
  0
ARC
  5
2CC
100
AcDbEntity
  8
0
100
AcDbCircle
 62
7
  6
CONTINUOUS
 10
230.7503560567
 20
25.4676691314
 40
217.4078071104
100
AcDbArc
 50
196.2267389969
 51
196.468859947
  0
ARC
  5
2CD
100
AcDbEntity
  8
0
100
AcDbCircle
 62
7
  6
CONTINUOUS
 10
233.6994925229
 20
-30.3038407469
 40
213.5944828082
100
AcDbArc
 50
181.3005217084
 51
181.8007354878
  0
ARC
  5
2CE
100
AcDbEntity
  8
0
100
AcDbCircle
 62
7
  6
CONTINUOUS
 10
223.353364279
 20
23.3142983483
 40
209.7038267014
100
AcDbArc
 50
196.6355601005
 51
196.7990445774
  0
ARC
  5
2CF
100
AcDbEntity
  8
0
100
AcDbCircle
 62
7
  6
CONTINUOUS
 10
226.5370991235
 20
-30.6993284416
 40
202.740800689
100
AcDbArc
 50
181.5977551802
 51
181.9064298207
  0
ARC
  5
2D0
100
AcDbEntity
  8
ASSI
100
AcDbCircle
 62
7
  6
CONTINUOUS
 10
225.9671492115
 20
-30.6777568836
 40
202.0630282936
100
AcDbArc
 50
181.6127796542
 51
181.8735938395
  0
SPLINE
  5
2D1
100
AcDbEntity
  8
RACCORDO
100
AcDbSpline
 62
7
  6
CONTINUOUS
 70
0
 71
3
 72
11
 73
7
 74
0
 42
0.0000001
 43
0.0000001
 44
0.0000000001
 40
0.0
 40
0.0
 40
0.0
 40
0.0
 40
0.2528014591
 40
0.5032426101
 40
0.752012046
 40
1.0
 40
1.0
 40
1.0
 40
1.0
 10
-36.8495883528
 20
22.8141866279
 30
0.0
 10
-36.8515821916
 20
22.9871887264
 30
0.0
 10
-36.8078520293
 20
23.3342738683
 30
0.0
 10
-36.5957371805
 20
23.8115937512
 30
0.0
 10
-36.2493155965
 20
24.1992680419
 30
0.0
 10
-35.9464481166
 20
24.369497589
 30
0.0
 10
-35.7867227738
 20
24.4268775
 30
0.0
  0
SPLINE
  5
2D2
100
AcDbEntity
  8
RACCORDO
100
AcDbSpline
 62
7
  6
CONTINUOUS
 70
0
 71
3
 72
11
 73
7
 74
0
 42
0.0000001
 43
0.0000001
 44
0.0000000001
 40
0.0
 40
0.0
 40
0.0
 40
0.0
 40
0.2466432437
 40
0.4959008496
 40
0.7477593747
 40
1.0
 40
1.0
 40
1.0
 40
1.0
 10
-34.7980216594
 20
-22.5040980001
 30
0.0
 10
-35.0099304286
 20
-22.4792872353
 30
0.0
 10
-35.4297214854
 20
-22.3399716886
 30
0.0
 10
-35.933960451
 20
-21.9131481776
 30
0.0
 10
-36.2643551136
 20
-21.3373296802
 30
0.0
 10
-36.3457983665
 20
-20.8988373288
 30
0.0
 10
-36.3483129093
 20
-20.6806535832
 30
0.0
  0
SPLINE
  5
2D3
100
AcDbEntity
  8
RACCORDO
100
AcDbSpline
 62
7
  6
CONTINUOUS
 70
0
 71
3
 72
8
 73
4
 74
0
 42
0.0000001
 43
0.0000001
 44
0.0000000001
 40
0.0
 40
0.0
 40
0.0
 40
0.0
 40
1.0
 40
1.0
 40
1.0
 40
1.0
 10
22.1902520169
 20
-29.0538201805
 30
0.0
 10
21.9933355023
 20
-29.1112833423
 30
0.0
 10
21.7807007811
 20
-29.1284646183
 30
0.0
 10
21.5769629335
 20
-29.1046105175
 30
0.0
  0
SPLINE
  5
2D4
100
AcDbEntity
  8
RACCORDO
100
AcDbSpline
 62
250
  6
CONTINUOUS
 70
0
 71
3
 72
9
 73
5
 74
0
 42
0.0000001
 43
0.0000001
 44
0.0000000001
 40
0.0
 40
0.0
 40
0.0
 40
0.0
 40
0.4929151331
 40
1.0
 40
1.0
 40
1.0
 40
1.0
 10
22.1902744203
 20
-29.0538496131
 30
0.0
 10
22.3160611889
 20
-29.0171442483
 30
0.0
 10
22.5605125796
 20
-28.8997427971
 30
0.0
 10
22.7549486349
 20
-28.7116645941
 30
0.0
 10
22.8375341697
 20
-28.605125611
 30
0.0
  0
SPLINE
  5
2D5
100
AcDbEntity
  8
RACCORDO
100
AcDbSpline
 62
250
  6
CONTINUOUS
 70
0
 71
3
 72
9
 73
5
 74
0
 42
0.0000001
 43
0.0000001
 44
0.0000000001
 40
0.0
 40
0.0
 40
0.0
 40
0.0
 40
0.484224267
 40
1.0
 40
1.0
 40
1.0
 40
1.0
 10
22.8375341697
 20
-28.605125611
 30
0.0
 10
22.9509878873
 20
-28.4587653104
 30
0.0
 10
23.1265888955
 20
-28.1085084472
 30
0.0
 10
23.1776950688
 20
-27.7226216179
 30
0.0
 10
23.1754219221
 20
-27.5253844384
 30
0.0
  0
SPLINE
  5
2D6
100
AcDbEntity
  8
RACCORDO
100
AcDbSpline
 62
250
  6
CONTINUOUS
 70
0
 71
3
 72
10
 73
6
 74
0
 42
0.0000001
 43
0.0000001
 44
0.0000000001
 40
0.0
 40
0.0
 40
0.0
 40
0.0
 40
0.540232242
 40
0.7988112577
 40
1.0
 40
1.0
 40
1.0
 40
1.0
 10
21.3026905714
 20
15.8961627601
 30
0.0
 10
21.5494181399
 20
15.867275245
 30
0.0
 10
21.9191702968
 20
15.8615780954
 30
0.0
 10
22.3769748714
 20
15.9026716796
 30
0.0
 10
22.5858665305
 20
15.9417955654
 30
0.0
 10
22.6741464773
 20
15.9694558866
 30
0.0
  0
SPLINE
  5
2D7
100
AcDbEntity
  8
RACCORDO
100
AcDbSpline
 62
250
  6
CONTINUOUS
 70
0
 71
3
 72
11
 73
7
 74
0
 42
0.0000001
 43
0.0000001
 44
0.0000000001
 40
0.0
 40
0.0
 40
0.0
 40
0.0
 40
0.2613922636
 40
0.5217605531
 40
0.7696812449
 40
1.0
 40
1.0
 40
1.0
 40
1.0
 10
22.6741464774
 20
15.969455876
 30
0.0
 10
22.6714892951
 20
16.2000151363
 30
0.0
 10
22.5874658576
 20
16.6623096204
 30
0.0
 10
22.2573610076
 20
17.2686438751
 30
0.0
 10
21.765905765
 20
17.7164380917
 30
0.0
 10
21.3554517531
 20
17.865694894
 30
0.0
 10
21.1536655391
 20
17.8893204868
 30
0.0
  0
SPLINE
  5
2D8
100
AcDbEntity
  8
RACCORDO
100
AcDbSpline
 62
250
  6
CONTINUOUS
 70
0
 71
3
 72
10
 73
6
 74
0
 42
0.0000001
 43
0.0000001
 44
0.0000000001
 40
0.0
 40
0.0
 40
0.0
 40
0.0
 40
0.5184487126
 40
0.7680894054
 40
1.0
 40
1.0
 40
1.0
 40
1.0
 10
21.3026905714
 20
15.8961627601
 30
0.0
 10
21.3003957579
 20
16.0952799276
 30
0.0
 10
21.1936804087
 20
16.40010401
 30
0.0
 10
20.9045632534
 20
16.6617497156
 30
0.0
 10
20.7245149255
 20
16.7275574412
 30
0.0
 10
20.6360449633
 20
16.7379157073
 30
0.0
  0
SPLINE
  5
2D9
100
AcDbEntity
  8
RACCORDO
100
AcDbSpline
 62
250
  6
CONTINUOUS
 70
0
 71
3
 72
11
 73
7
 74
0
 42
0.0000001
 43
0.0000001
 44
0.0000000001
 40
0.0
 40
0.0
 40
0.0
 40
0.0
 40
0.2916353463
 40
0.5712873819
 40
0.8116503655
 40
1.0
 40
1.0
 40
1.0
 40
1.0
 10
20.6360449633
 20
16.7379157073
 30
0.0
 10
20.6345636254
 20
16.8664489432
 30
0.0
 10
20.6582892485
 20
17.1191490401
 30
0.0
 10
20.7632250488
 20
17.4641333594
 30
0.0
 10
20.921623001
 20
17.7364035429
 30
0.0
 10
21.0754806054
 20
17.8614099557
 30
0.0
 10
21.1536655391
 20
17.8893204868
 30
0.0
  0
SPLINE
  5
2DA
100
AcDbEntity
  8
RACCORDO
100
AcDbSpline
 62
250
  6
CONTINUOUS
 70
0
 71
3
 72
11
 73
7
 74
0
 42
0.0000001
 43
0.0000001
 44
0.0000000001
 40
0.0
 40
0.0
 40
0.0
 40
0.0
 40
0.2916353109
 40
0.5712873456
 40
0.8116503667
 40
1.0
 40
1.0
 40
1.0
 40
1.0
 10
-35.7389396781
 20
23.3384282303
 30
0.0
 10
-35.7404209828
 20
23.4669614444
 30
0.0
 10
-35.7166953222
 20
23.7196615049
 30
0.0
 10
-35.6117595159
 20
24.0646458013
 30
0.0
 10
-35.4533616035
 20
24.3369159973
 30
0.0
 10
-35.2995040348
 20
24.4619224655
 30
0.0
 10
-35.2213191113
 20
24.4898330108
 30
0.0
  0
SPLINE
  5
2DB
100
AcDbEntity
  8
RACCORDO
100
AcDbSpline
 62
250
  6
CONTINUOUS
 70
0
 71
3
 72
9
 73
5
 74
0
 42
0.0000001
 43
0.0000001
 44
0.0000000001
 40
0.0
 40
0.0
 40
0.0
 40
0.0
 40
0.2537436633
 40
1.0
 40
1.0
 40
1.0
 40
1.0
 10
-35.2213191022
 20
24.4898330098
 30
0.0
 10
-35.2693558216
 20
24.4954572589
 30
0.0
 10
-35.4597227171
 20
24.5072486957
 30
0.0
 10
-35.6529413478
 20
24.4749945818
 30
0.0
 10
-35.786798973
 20
24.4268859632
 30
0.0
  0
SPLINE
  5
2DC
100
AcDbEntity
  8
RACCORDO
100
AcDbSpline
 62
250
  6
CONTINUOUS
 70
0
 71
3
 72
11
 73
7
 74
0
 42
0.0000001
 43
0.0000001
 44
0.0000000001
 40
0.0
 40
0.0
 40
0.0
 40
0.0
 40
0.2367069474
 40
0.4746664033
 40
0.7278397593
 40
1.0
 40
1.0
 40
1.0
 40
1.0
 10
-35.7389396781
 20
23.3384282303
 30
0.0
 10
-35.8226092614
 20
23.3482244571
 30
0.0
 10
-35.9981419341
 20
23.3295103997
 30
0.0
 10
-36.2200888153
 20
23.1782184846
 30
0.0
 10
-36.3605760519
 20
22.9369139934
 30
0.0
 10
-36.3890745086
 20
22.7475683447
 30
0.0
 10
-36.3879582942
 20
22.6507162685
 30
0.0
  0
SPLINE
  5
2DD
100
AcDbEntity
  8
RACCORDO
100
AcDbSpline
 62
250
  6
CONTINUOUS
 70
0
 71
3
 72
12
 73
8
 74
0
 42
0.0000001
 43
0.0000001
 44
0.0000000001
 40
0.0
 40
0.0
 40
0.0
 40
0.0
 40
0.3823857961
 40
0.6818036206
 40
0.7953702616
 40
0.8845379783
 40
1.0
 40
1.0
 40
1.0
 40
1.0
 10
-36.3879582942
 20
22.6507162685
 30
0.0
 10
-36.4521210514
 20
22.6582285913
 30
0.0
 10
-36.5661854684
 20
22.6754073725
 30
0.0
 10
-36.6969711434
 20
22.7067626407
 30
0.0
 10
-36.7762982998
 20
22.7389973284
 30
0.0
 10
-36.8222002992
 20
22.7643901011
 30
0.0
 10
-36.8493173239
 20
22.7946820814
 30
0.0
 10
-36.8495662278
 20
22.814186884
 30
0.0
  0
SPLINE
  5
2DE
100
AcDbEntity
  8
RACCORDO
100
AcDbSpline
 62
250
  6
CONTINUOUS
 70
0
 71
3
 72
12
 73
8
 74
0
 42
0.0000001
 43
0.0000001
 44
0.0000000001
 40
0.0
 40
0.0
 40
0.0
 40
0.0
 40
0.382385804
 40
0.6818035865
 40
0.7953702446
 40
0.8845379786
 40
1.0
 40
1.0
 40
1.0
 40
1.0
 10
-35.8866828496
 20
-20.8441240459
 30
0.0
 10
-35.9508456077
 20
-20.8366117008
 30
0.0
 10
-36.0649100193
 20
-20.819432892
 30
0.0
 10
-36.1956956838
 20
-20.7880775801
 30
0.0
 10
-36.2750228391
 20
-20.7558428846
 30
0.0
 10
-36.3209248431
 20
-20.7304501084
 30
0.0
 10
-36.348041881
 20
-20.7001581331
 30
0.0
 10
-36.3482907874
 20
-20.68065333
 30
0.0
  0
SPLINE
  5
2DF
100
AcDbEntity
  8
RACCORDO
100
AcDbSpline
 62
250
  6
CONTINUOUS
 70
0
 71
3
 72
10
 73
6
 74
0
 42
0.0000001
 43
0.0000001
 44
0.0000000001
 40
0.0
 40
0.0
 40
0.0
 40
0.0
 40
0.5184487126
 40
0.7680894054
 40
1.0
 40
1.0
 40
1.0
 40
1.0
 10
-35.8866828496
 20
-20.8441240459
 30
0.0
 10
-35.8843880361
 20
-21.0432412135
 30
0.0
 10
-35.7776726869
 20
-21.3480652958
 30
0.0
 10
-35.4885555316
 20
-21.6097110015
 30
0.0
 10
-35.3085072037
 20
-21.675518727
 30
0.0
 10
-35.2200372414
 20
-21.6858769932
 30
0.0
  0
SPLINE
  5
2E0
100
AcDbEntity
  8
RACCORDO
100
AcDbSpline
 62
250
  6
CONTINUOUS
 70
0
 71
3
 72
11
 73
7
 74
0
 42
0.0000001
 43
0.0000001
 44
0.0000000001
 40
0.0
 40
0.0
 40
0.0
 40
0.0
 40
0.3162559544
 40
0.5920087612
 40
0.8159413905
 40
1.0
 40
1.0
 40
1.0
 40
1.0
 10
-35.2200372414
 20
-21.6858769932
 30
0.0
 10
-35.2188378511
 20
-21.7899461023
 30
0.0
 10
-35.1998514956
 20
-21.9853499972
 30
0.0
 10
-35.116827057
 20
-22.2431242193
 30
0.0
 10
-34.9864660087
 20
-22.4330745074
 30
0.0
 10
-34.8581701303
 20
-22.4969512412
 30
0.0
 10
-34.7980067882
 20
-22.5039708616
 30
0.0
  0
SPLINE
  5
2E1
100
AcDbEntity
  8
RACCORDO
100
AcDbSpline
 62
250
  6
CONTINUOUS
 70
0
 71
3
 72
11
 73
7
 74
0
 42
0.0000001
 43
0.0000001
 44
0.0000000001
 40
0.0
 40
0.0
 40
0.0
 40
0.0
 40
0.3162558939
 40
0.5920086546
 40
0.8159413121
 40
1.0
 40
1.0
 40
1.0
 40
1.0
 10
21.1549473999
 20
-28.2863895162
 30
0.0
 10
21.1561467633
 20
-28.3904586071
 30
0.0
 10
21.175133063
 20
-28.5858624776
 30
0.0
 10
21.2581574684
 20
-28.8436366845
 30
0.0
 10
21.3885185114
 20
-29.033587017
 30
0.0
 10
21.5168144374
 20
-29.0974637417
 30
0.0
 10
21.5769778054
 20
-29.1044833702
 30
0.0
  0
SPLINE
  5
2E2
100
AcDbEntity
  8
RACCORDO
100
AcDbSpline
 62
250
  6
CONTINUOUS
 70
0
 71
3
 72
11
 73
7
 74
0
 42
0.0000001
 43
0.0000001
 44
0.0000000001
 40
0.0
 40
0.0
 40
0.0
 40
0.0
 40
0.2367069474
 40
0.4746664033
 40
0.7278397593
 40
1.0
 40
1.0
 40
1.0
 40
1.0
 10
21.1549473999
 20
-28.2863895162
 30
0.0
 10
21.2386169832
 20
-28.2961857429
 30
0.0
 10
21.4141496559
 20
-28.2774716855
 30
0.0
 10
21.6360965371
 20
-28.1261797705
 30
0.0
 10
21.7765837737
 20
-27.8848752793
 30
0.0
 10
21.8050822305
 20
-27.6955296305
 30
0.0
 10
21.8039660161
 20
-27.5986775544
 30
0.0
  0
SPLINE
  5
2E3
100
AcDbEntity
  8
RACCORDO
100
AcDbSpline
 62
250
  6
CONTINUOUS
 70
0
 71
3
 72
10
 73
6
 74
0
 42
0.0000001
 43
0.0000001
 44
0.0000000001
 40
0.0
 40
0.0
 40
0.0
 40
0.0
 40
0.54023232
 40
0.7988113034
 40
1.0
 40
1.0
 40
1.0
 40
1.0
 10
21.8039660161
 20
-27.5986775544
 30
0.0
 10
22.0506936256
 20
-27.6275649889
 30
0.0
 10
22.420445788
 20
-27.6332620874
 30
0.0
 10
22.8782503582
 20
-27.5921685353
 30
0.0
 10
23.0871419831
 20
-27.5530447085
 30
0.0
 10
23.1754219221
 20
-27.5253844384
 30
0.0
  0
SPLINE
  5
2E4
100
AcDbEntity
  8
DRAFT
100
AcDbSpline
 62
7
  6
CONTINUOUS
 70
0
 71
3
 72
15
 73
11
 74
0
 42
0.0000001
 43
0.0000001
 44
0.0000000001
 40
0.0
 40
0.0
 40
0.0
 40
0.0
 40
0.129921052
 40
0.2611870741
 40
0.3922025486
 40
0.5214014274
 40
0.6474356072
 40
0.7693569672
 40
0.886780222
 40
1.0
 40
1.0
 40
1.0
 40
1.0
 10
55.4115561738
 20
33.0376162091
 30
0.0
 10
55.4085770451
 20
33.2961102714
 30
0.0
 10
55.3583458859
 20
33.8161996054
 30
0.0
 10
55.1577445164
 20
34.5736894424
 30
0.0
 10
54.8388001235
 20
35.2881385184
 30
0.0
 10
54.4133401453
 20
35.9324324249
 30
0.0
 10
53.8970551901
 20
36.4823225112
 30
0.0
 10
53.3087237933
 20
36.9167538595
 30
0.0
 10
52.6704234151
 20
37.2185379474
 30
0.0
 10
52.2194459639
 20
37.3245224469
 30
0.0
 10
51.995694601
 20
37.3507197697
 30
0.0
  0
SPLINE
  5
2E5
100
AcDbEntity
  8
DRAFT
100
AcDbSpline
 62
7
  6
CONTINUOUS
 70
0
 71
3
 72
11
 73
7
 74
0
 42
0.0000001
 43
0.0000001
 44
0.0000000001
 40
0.0
 40
0.0
 40
0.0
 40
0.0
 40
0.2532389829
 40
0.5036623658
 40
0.7522330205
 40
1.0
 40
1.0
 40
1.0
 40
1.0
 10
-44.0693016488
 20
48.5982298986
 30
0.0
 10
-44.1774081302
 20
48.6108872534
 30
0.0
 10
-44.3940156195
 20
48.6242086635
 30
0.0
 10
-44.7175783518
 20
48.6071605414
 30
0.0
 10
-45.0346782105
 20
48.5531207436
 30
0.0
 10
-45.2398806719
 20
48.4927035731
 30
0.0
 10
-45.340093527
 20
48.4566738034
 30
0.0
  0
SPLINE
  5
2E6
100
AcDbEntity
  8
DRAFT
100
AcDbSpline
 62
7
  6
CONTINUOUS
 70
0
 71
3
 72
15
 73
11
 74
0
 42
0.0000001
 43
0.0000001
 44
0.0000000001
 40
0.0
 40
0.0
 40
0.0
 40
0.0
 40
0.1159585106
 40
0.2329809031
 40
0.3522117702
 40
0.4745326165
 40
0.6004807492
 40
0.7302212887
 40
0.8635625066
 40
1.0
 40
1.0
 40
1.0
 40
1.0
 10
54.0667118479
 20
-45.8266997422
 30
0.0
 10
54.2294336194
 20
-45.7792948995
 30
0.0
 10
54.5482056258
 20
-45.6529835173
 30
0.0
 10
54.9856423554
 20
-45.3763383459
 30
0.0
 10
55.3729914909
 20
-45.0191816575
 30
0.0
 10
55.7009100752
 20
-44.5905685335
 30
0.0
 10
55.9619707294
 20
-44.101015523
 30
0.0
 10
56.1503278717
 20
-43.5622549852
 30
0.0
 10
56.2618549405
 20
-42.9871729003
 30
0.0
 10
56.2831833453
 20
-42.5920302113
 30
0.0
 10
56.2808852107
 20
-42.3926248768
 30
0.0
  0
SPLINE
  5
2E7
100
AcDbEntity
  8
RACCORDO
100
AcDbSpline
 62
7
  6
CONTINUOUS
 70
0
 71
3
 72
15
 73
11
 74
0
 42
0.0000001
 43
0.0000001
 44
0.0000000001
 40
0.0
 40
0.0
 40
0.0
 40
0.0
 40
0.2319350489
 40
0.3510015454
 40
0.4747605233
 40
0.6068008375
 40
0.6767801588
 40
0.7467386679
 40
0.8777731882
 40
1.0
 40
1.0
 40
1.0
 40
1.0
 10
-50.3339631699
 20
46.6192112206
 30
0.0
 10
-50.3467789819
 20
46.6169993741
 30
0.0
 10
-50.3657518911
 20
46.6094018149
 30
0.0
 10
-50.3862260107
 20
46.592112517
 30
0.0
 10
-50.3984951978
 20
46.5746945603
 30
0.0
 10
-50.4031776139
 20
46.5563104852
 30
0.0
 10
-50.400770998
 20
46.5410224224
 30
0.0
 10
-50.3938243494
 20
46.5272288276
 30
0.0
 10
-50.3788626325
 20
46.5155522938
 30
0.0
 10
-50.3648587321
 20
46.511948502
 30
0.0
 10
-50.3580516137
 20
46.5111515087
 30
0.0
  0
SPLINE
  5
2E8
100
AcDbEntity
  8
RACCORDO
100
AcDbSpline
 62
250
  6
CONTINUOUS
 70
0
 71
3
 72
9
 73
5
 74
0
 42
0.0000001
 43
0.0000001
 44
0.0000000001
 40
0.0
 40
0.0
 40
0.0
 40
0.0
 40
0.4994995046
 40
1.0
 40
1.0
 40
1.0
 40
1.0
 10
-50.3339478643
 20
46.6192144533
 30
0.0
 10
-50.3701145789
 20
46.6199291539
 30
0.0
 10
-50.4428235296
 20
46.6150778618
 30
0.0
 10
-50.5133612318
 20
46.596686457
 30
0.0
 10
-50.5474699068
 20
46.5844230891
 30
0.0
  0
SPLINE
  5
2E9
100
AcDbEntity
  8
RACCORDO
100
AcDbSpline
 62
250
  6
CONTINUOUS
 70
0
 71
3
 72
9
 73
5
 74
0
 42
0.0000001
 43
0.0000001
 44
0.0000000001
 40
0.0
 40
0.0
 40
0.0
 40
0.0
 40
0.246629352
 40
1.0
 40
1.0
 40
1.0
 40
1.0
 10
-50.3580519869
 20
46.5111515524
 30
0.0
 10
-50.3707877456
 20
46.5012445831
 30
0.0
 10
-50.4217401818
 20
46.4601962171
 30
0.0
 10
-50.4699827403
 20
46.4158135594
 30
0.0
 10
-50.5047786778
 20
46.3809059057
 30
0.0
  0
SPLINE
  5
2EA
100
AcDbEntity
  8
RACCORDO
100
AcDbSpline
 62
7
  6
CONTINUOUS
 70
0
 71
3
 72
18
 73
14
 74
0
 42
0.0000001
 43
0.0000001
 44
0.0000000001
 40
0.0
 40
0.0
 40
0.0
 40
0.0
 40
0.113002365
 40
0.1690307297
 40
0.226243331
 40
0.2868520772
 40
0.3516913993
 40
0.4190488179
 40
0.4869771088
 40
0.6209296085
 40
0.7512808423
 40
0.8776633207
 40
1.0
 40
1.0
 40
1.0
 40
1.0
 10
47.3122793566
 20
35.0756851082
 30
0.0
 10
47.3188127246
 20
35.0749201672
 30
0.0
 10
47.3289465571
 20
35.075058901
 30
0.0
 10
47.3413981821
 20
35.0797977241
 30
0.0
 10
47.3494059848
 20
35.0863559706
 30
0.0
 10
47.3545460405
 20
35.0959819257
 30
0.0
 10
47.3559619754
 20
35.1073137493
 30
0.0
 10
47.3542433652
 20
35.118936775
 30
0.0
 10
47.3489536381
 20
35.133763539
 30
0.0
 10
47.338573563
 20
35.1503311038
 30
0.0
 10
47.3228691612
 20
35.166926976
 30
0.0
 10
47.3051641894
 20
35.1802540503
 30
0.0
 10
47.2922441824
 20
35.1869801015
 30
0.0
 10
47.2856433121
 20
35.1896525983
 30
0.0
  0
SPLINE
  5
2EB
100
AcDbEntity
  8
RACCORDO
100
AcDbSpline
 62
250
  6
CONTINUOUS
 70
0
 71
3
 72
16
 73
12
 74
0
 42
0.0000001
 43
0.0000001
 44
0.0000000001
 40
0.0
 40
0.0
 40
0.0
 40
0.0
 40
0.127256759
 40
0.2540040675
 40
0.3802401104
 40
0.5058677076
 40
0.6307478014
 40
0.754740186
 40
0.8777565251
 40
0.9389883342
 40
1.0
 40
1.0
 40
1.0
 40
1.0
 10
47.2856281467
 20
35.1896593107
 30
0.0
 10
47.5218904206
 20
35.1545498978
 30
0.0
 10
47.990041765
 20
35.0577201028
 30
0.0
 10
48.6675274777
 20
34.8272627563
 30
0.0
 10
49.3055752341
 20
34.509024974
 30
0.0
 10
49.8874748722
 20
34.1023381914
 30
0.0
 10
50.3936238653
 20
33.6096617391
 30
0.0
 10
50.8018786377
 20
33.0386195141
 30
0.0
 10
51.0420833899
 20
32.507380215
 30
0.0
 10
51.1631534019
 20
32.0624972224
 30
0.0
 10
51.1991024889
 20
31.8353069084
 30
0.0
 10
51.2106710268
 20
31.7213758605
 30
0.0
  0
SPLINE
  5
2EC
100
AcDbEntity
  8
RACCORDO
100
AcDbSpline
 62
250
  6
CONTINUOUS
 70
0
 71
3
 72
11
 73
7
 74
0
 42
0.0000001
 43
0.0000001
 44
0.0000000001
 40
0.0
 40
0.0
 40
0.0
 40
0.0
 40
0.206658911
 40
0.44732013
 40
0.7147881255
 40
1.0
 40
1.0
 40
1.0
 40
1.0
 10
51.2106710277
 20
31.7213758536
 30
0.0
 10
51.1908345099
 20
31.7088939674
 30
0.0
 10
51.1454318314
 20
31.6857950485
 30
0.0
 10
51.0692972279
 20
31.6576355927
 30
0.0
 10
50.982311501
 20
31.6342270492
 30
0.0
 10
50.9206393607
 20
31.6226790953
 30
0.0
 10
50.8886568542
 20
31.6178476244
 30
0.0
  0
SPLINE
  5
2ED
100
AcDbEntity
  8
RACCORDO
100
AcDbSpline
 62
250
  6
CONTINUOUS
 70
0
 71
3
 72
9
 73
5
 74
0
 42
0.0000001
 43
0.0000001
 44
0.0000000001
 40
0.0
 40
0.0
 40
0.0
 40
0.0
 40
0.2460645974
 40
1.0
 40
1.0
 40
1.0
 40
1.0
 10
51.2106710268
 20
31.7213758605
 30
0.0
 10
51.219731753
 20
31.6426199
 30
0.0
 10
51.2521901546
 20
31.3220656033
 30
0.0
 10
51.2676274872
 20
30.9998295927
 30
0.0
 10
51.2704266882
 20
30.7569478242
 30
0.0
  0
SPLINE
  5
2EE
100
AcDbEntity
  8
RACCORDO
100
AcDbSpline
 62
250
  6
CONTINUOUS
 70
0
 71
3
 72
11
 73
7
 74
0
 42
0.0000001
 43
0.0000001
 44
0.0000000001
 40
0.0
 40
0.0
 40
0.0
 40
0.0
 40
0.1951775238
 40
0.4385345962
 40
0.713335709
 40
1.0
 40
1.0
 40
1.0
 40
1.0
 10
51.2704272956
 20
30.75694775
 30
0.0
 10
51.2407978752
 20
30.7475832671
 30
0.0
 10
51.1724444548
 20
30.7323429498
 30
0.0
 10
51.059852812
 20
30.7170758905
 30
0.0
 10
50.9319492071
 20
30.7080661631
 30
0.0
 10
50.8425198432
 20
30.7067035184
 30
0.0
 10
50.796883897
 20
30.7072786395
 30
0.0
  0
LINE
  5
2EF
100
AcDbEntity
  8
RACCORDO
100
AcDbLine
 62
250
  6
CONTINUOUS
 10
51.2704266882
 20
30.7569478242
 11
52.1284658373
 21
-43.6936797099
  0
SPLINE
  5
2F0
100
AcDbEntity
  8
RACCORDO
100
AcDbSpline
 62
250
  6
CONTINUOUS
 70
0
 71
3
 72
11
 73
7
 74
0
 42
0.0000001
 43
0.0000001
 44
0.0000000001
 40
0.0
 40
0.0
 40
0.0
 40
0.0
 40
0.1951021556
 40
0.4384347092
 40
0.7132583584
 40
1.0
 40
1.0
 40
1.0
 40
1.0
 10
52.1284658373
 20
-43.6936797099
 30
0.0
 10
52.0988596262
 20
-43.7029560619
 30
0.0
 10
52.0305822743
 20
-43.7180645654
 30
0.0
 10
51.9181260878
 20
-43.733233903
 30
0.0
 10
51.7903626481
 20
-43.7422299143
 30
0.0
 10
51.7010245983
 20
-43.7436403967
 30
0.0
 10
51.6554296362
 20
-43.7431052997
 30
0.0
  0
SPLINE
  5
2F1
100
AcDbEntity
  8
RACCORDO
100
AcDbSpline
 62
250
  6
CONTINUOUS
 70
0
 71
3
 72
15
 73
11
 74
0
 42
0.0000001
 43
0.0000001
 44
0.0000000001
 40
0.0
 40
0.0
 40
0.0
 40
0.0
 40
0.1364376523
 40
0.2697787675
 40
0.3995192991
 40
0.525467423
 40
0.6477882427
 40
0.7670190883
 40
0.8840414739
 40
1.0
 40
1.0
 40
1.0
 40
1.0
 10
52.1284658373
 20
-43.6936797099
 30
0.0
 10
52.13068868
 20
-43.8865520911
 30
0.0
 10
52.1100592694
 20
-44.2687487033
 30
0.0
 10
52.0021855445
 20
-44.8249891816
 30
0.0
 10
51.8199988423
 20
-45.3460976836
 30
0.0
 10
51.5674908289
 20
-45.8196109731
 30
0.0
 10
51.2503147692
 20
-46.234180359
 30
0.0
 10
50.8756553657
 20
-46.579634128
 30
0.0
 10
50.4525495281
 20
-46.8472138507
 30
0.0
 10
50.1442210108
 20
-46.9693857615
 30
0.0
 10
49.9868301751
 20
-47.0152362826
 30
0.0
  0
SPLINE
  5
2F2
100
AcDbEntity
  8
RACCORDO
100
AcDbSpline
 62
7
  6
CONTINUOUS
 70
0
 71
3
 72
9
 73
5
 74
0
 42
0.0000001
 43
0.0000001
 44
0.0000000001
 40
0.0
 40
0.0
 40
0.0
 40
0.0
 40
0.5032217268
 40
1.0
 40
1.0
 40
1.0
 40
1.0
 10
-49.5579876273
 20
46.6388736273
 30
0.0
 10
-49.6876441665
 20
46.6540541123
 30
0.0
 10
-49.9477408224
 20
46.6663843551
 30
0.0
 10
-50.2069698087
 20
46.6411278583
 30
0.0
 10
-50.3339631699
 20
46.6192112206
 30
0.0
  0
SPLINE
  5
2F3
100
AcDbEntity
  8
RACCORDO
100
AcDbSpline
 62
7
  6
CONTINUOUS
 70
0
 71
3
 72
9
 73
5
 74
0
 42
0.0000001
 43
0.0000001
 44
0.0000000001
 40
0.0
 40
0.0
 40
0.0
 40
0.0
 40
0.5053519037
 40
1.0
 40
1.0
 40
1.0
 40
1.0
 10
47.2856433121
 20
35.1896525983
 30
0.0
 10
47.1597716942
 20
35.2406135125
 30
0.0
 10
46.904001936
 20
35.32577156
 30
0.0
 10
46.6390270016
 20
35.3759064837
 30
0.0
 10
46.5070086225
 20
35.3913634984
 30
0.0
  0
SPLINE
  5
2F4
100
AcDbEntity
  8
0
100
AcDbSpline
 62
7
  6
CONTINUOUS
 70
0
 71
3
 72
13
 73
9
 74
0
 42
0.0000001
 43
0.0000001
 44
0.0000000001
 40
0.0
 40
0.0
 40
0.0
 40
0.0
 40
0.1128201783
 40
0.2307215247
 40
0.3566632105
 40
0.4895816175
 40
0.7566015432
 40
1.0
 40
1.0
 40
1.0
 40
1.0
 10
24.5580631961
 20
-35.8866750688
 30
0.0
 10
24.5901493329
 20
-35.8762891634
 30
0.0
 10
24.6517892699
 20
-35.8402121079
 30
0.0
 10
24.7159825521
 20
-35.751951263
 30
0.0
 10
24.7469673355
 20
-35.6414057613
 30
0.0
 10
24.7406854999
 20
-35.4824223834
 30
0.0
 10
24.6527286083
 20
-35.2996663908
 30
0.0
 10
24.508044144
 20
-35.2167073613
 30
0.0
 10
24.4357566867
 20
-35.2084394302
 30
0.0
  0
SPLINE
  5
2F5
100
AcDbEntity
  8
0
100
AcDbSpline
 62
7
  6
CONTINUOUS
 70
0
 71
3
 72
11
 73
7
 74
0
 42
0.0000001
 43
0.0000001
 44
0.0000000001
 40
0.0
 40
0.0
 40
0.0
 40
0.0
 40
0.2438674743
 40
0.4909580625
 40
0.742833325
 40
1.0
 40
1.0
 40
1.0
 40
1.0
 10
50.7390026345
 20
31.6025195464
 30
0.0
 10
50.6988438287
 20
31.9527514412
 30
0.0
 10
50.4801498947
 20
32.6469379704
 30
0.0
 10
49.8365400773
 20
33.5240252654
 30
0.0
 10
48.9827797041
 20
34.220777561
 30
0.0
 10
48.3278042694
 20
34.5659951293
 30
0.0
 10
47.9859403253
 20
34.712037321
 30
0.0
  0
LINE
  5
2F6
100
AcDbEntity
  8
0
100
AcDbLine
 62
7
  6
CONTINUOUS
 10
47.9859403253
 20
34.712037321
 11
47.6889761817
 21
34.6134030862
  0
SPLINE
  5
2F7
100
AcDbEntity
  8
DRAFT
100
AcDbSpline
 62
7
  6
CONTINUOUS
 70
0
 71
3
 72
9
 73
5
 74
0
 42
0.0000001
 43
0.0000001
 44
0.0000000001
 40
0.0
 40
0.0
 40
0.0
 40
0.0
 40
0.746035221
 40
1.0
 40
1.0
 40
1.0
 40
1.0
 10
-35.1918290363
 20
24.6408024358
 30
0.0
 10
-35.0565140916
 20
24.689453439
 30
0.0
 10
-34.8611327768
 20
24.7221583255
 30
0.0
 10
-34.6686292839
 20
24.7101810066
 30
0.0
 10
-34.6200107341
 20
24.7044886353
 30
0.0
  0
SPLINE
  5
2F8
100
AcDbEntity
  8
0
100
AcDbSpline
 62
7
  6
CONTINUOUS
 70
0
 71
3
 72
11
 73
7
 74
0
 42
0.0000001
 43
0.0000001
 44
0.0000000001
 40
0.0
 40
0.0
 40
0.0
 40
0.0
 40
0.2082423321
 40
0.4539099256
 40
0.7245408857
 40
1.0
 40
1.0
 40
1.0
 40
1.0
 10
21.6217509721
 20
18.5801808518
 30
0.0
 10
21.8493003605
 20
18.5535388474
 30
0.0
 10
22.3332340449
 20
18.3750047875
 30
0.0
 10
22.9406465094
 20
17.8363695436
 30
0.0
 10
23.3874296302
 20
17.0732196087
 30
0.0
 10
23.5267498369
 20
16.477477389
 30
0.0
 10
23.5488810966
 20
16.1752323728
 30
0.0
  0
SPLINE
  5
2F9
100
AcDbEntity
  8
0
100
AcDbSpline
 62
7
  6
CONTINUOUS
 70
0
 71
3
 72
11
 73
7
 74
0
 42
0.0000001
 43
0.0000001
 44
0.0000000001
 40
0.0
 40
0.0
 40
0.0
 40
0.0
 40
0.2974705037
 40
0.5636342847
 40
0.7943435106
 40
1.0
 40
1.0
 40
1.0
 40
1.0
 10
24.0574665748
 20
-27.4912786296
 30
0.0
 10
24.0600643922
 20
-27.7166876299
 30
0.0
 10
24.0127959437
 20
-28.1469969887
 30
0.0
 10
23.7831869383
 20
-28.7127727981
 30
0.0
 10
23.4336849797
 20
-29.1271602268
 30
0.0
 10
23.1374036077
 20
-29.2931378932
 30
0.0
 10
22.9891682385
 20
-29.3412479768
 30
0.0
  0
SPLINE
  5
2FA
100
AcDbEntity
  8
0
100
AcDbSpline
 62
7
  6
CONTINUOUS
 70
0
 71
3
 72
9
 73
5
 74
0
 42
0.0000001
 43
0.0000001
 44
0.0000000001
 40
0.0
 40
0.0
 40
0.0
 40
0.0
 40
0.2440175024
 40
1.0
 40
1.0
 40
1.0
 40
1.0
 10
-35.3122856657
 20
25.1282637358
 30
0.0
 10
-35.2686538064
 20
25.1424245424
 30
0.0
 10
-35.0866781672
 20
25.1904244794
 30
0.0
 10
-34.8943849273
 20
25.1972196878
 30
0.0
 10
-34.7532336693
 20
25.1806933748
 30
0.0
  0
SPLINE
  5
2FB
100
AcDbEntity
  8
0
100
AcDbSpline
 62
7
  6
CONTINUOUS
 70
0
 71
3
 72
11
 73
7
 74
0
 42
0.0000001
 43
0.0000001
 44
0.0000000001
 40
0.0
 40
0.0
 40
0.0
 40
0.0
 40
0.2327359332
 40
0.4741909091
 40
0.7299515628
 40
1.0
 40
1.0
 40
1.0
 40
1.0
 10
49.5746767551
 20
-47.0211528934
 30
0.0
 10
49.880661732
 20
-46.9320089909
 30
0.0
 10
50.4746470214
 20
-46.627931152
 30
0.0
 10
51.1546147532
 20
-45.868899772
 30
0.0
 10
51.5751951221
 20
-44.8885381918
 30
0.0
 10
51.6602761183
 20
-44.1628949705
 30
0.0
 10
51.6560144646
 20
-43.793118332
 30
0.0
  0
LINE
  5
2FC
100
AcDbEntity
  8
0
100
AcDbLine
 62
7
  6
CONTINUOUS
 10
24.4357566865
 20
-35.2084374637
 11
23.8378621835
 21
-35.139863668
  0
SPLINE
  5
2FD
100
AcDbEntity
  8
0
100
AcDbSpline
 62
7
  6
CONTINUOUS
 70
0
 71
3
 72
9
 73
5
 74
0
 42
0.0000001
 43
0.0000001
 44
0.0000000001
 40
0.0
 40
0.0
 40
0.0
 40
0.0
 40
0.2495647975
 40
1.0
 40
1.0
 40
1.0
 40
1.0
 10
23.4169468225
 20
-37.3876566753
 30
0.0
 10
23.4091767872
 20
-37.1524883403
 30
0.0
 10
23.3795923553
 20
-36.2101228964
 30
0.0
 10
23.3570536902
 20
-35.267545454
 30
0.0
 10
23.3426435143
 20
-34.5601609435
 30
0.0
  0
LINE
  5
2FE
100
AcDbEntity
  8
0
100
AcDbLine
 62
7
  6
CONTINUOUS
 10
23.9085177134
 20
-37.4439751893
 11
23.4169468225
 21
-37.3876566753
  0
LINE
  5
2FF
100
AcDbEntity
  8
0
100
AcDbLine
 62
7
  6
CONTINUOUS
 10
24.3043268502
 20
-36.4013464103
 11
23.8751223894
 21
-36.3522436431
  0
LINE
  5
300
100
AcDbEntity
  8
0
100
AcDbLine
 62
7
  6
CONTINUOUS
 10
25.3873699746
 20
-37.6118646613
 11
24.8317361065
 21
-37.5490760495
  0
LINE
  5
301
100
AcDbEntity
  8
0
100
AcDbLine
 62
7
  6
CONTINUOUS
 10
21.5153535834
 20
-37.1678612678
 11
21.0258084543
 21
-37.1108950557
  0
LINE
  5
302
100
AcDbEntity
  8
0
100
AcDbLine
 62
7
  6
CONTINUOUS
 10
22.4266744597
 20
-36.7203604038
 11
21.6529040537
 21
-36.6305803527
  0
LINE
  5
303
100
AcDbEntity
  8
0
100
AcDbLine
 62
7
  6
CONTINUOUS
 10
23.089530304
 20
-37.3500247906
 11
22.5987915926
 21
-37.2934278811
  0
SPLINE
  5
304
100
AcDbEntity
  8
0
100
AcDbSpline
 62
7
  6
CONTINUOUS
 70
0
 71
3
 72
9
 73
5
 74
0
 42
0.0000001
 43
0.0000001
 44
0.0000000001
 40
0.0
 40
0.0
 40
0.0
 40
0.0
 40
0.2492651842
 40
1.0
 40
1.0
 40
1.0
 40
1.0
 10
21.0258084543
 20
-37.1108950557
 30
0.0
 10
21.0838498877
 20
-36.8831539205
 30
0.0
 10
21.3179351644
 20
-35.9698182768
 30
0.0
 10
21.5578661687
 20
-35.0579879206
 30
0.0
 10
21.7400270308
 20
-34.3739948846
 30
0.0
  0
LINE
  5
305
100
AcDbEntity
  8
0
100
AcDbLine
 62
7
  6
CONTINUOUS
 10
20.6996014719
 20
-37.0728621024
 11
20.2104918392
 21
-37.0157460779
  0
LINE
  5
306
100
AcDbEntity
  8
0
100
AcDbLine
 62
7
  6
CONTINUOUS
 10
19.2595412386
 20
-36.9044437863
 11
19.2296154566
 21
-36.7941716054
  0
LINE
  5
307
100
AcDbEntity
  8
0
100
AcDbLine
 62
7
  6
CONTINUOUS
 10
19.7482574185
 20
-36.9616742611
 11
19.2595412386
 21
-36.9044437863
  0
SPLINE
  5
308
100
AcDbEntity
  8
DRAFT
100
AcDbSpline
 62
7
  6
CONTINUOUS
 70
0
 71
3
 72
11
 73
7
 74
0
 42
0.0000001
 43
0.0000001
 44
0.0000000001
 40
0.0
 40
0.0
 40
0.0
 40
0.0
 40
0.270039709
 40
0.5258079539
 40
0.7672571179
 40
1.0
 40
1.0
 40
1.0
 40
1.0
 10
23.7933870596
 20
-27.3317608044
 30
0.0
 10
23.7954273163
 20
-27.5087904989
 30
0.0
 10
23.754685173
 20
-27.8561983371
 30
0.0
 10
23.5533325569
 20
-28.3255615079
 30
0.0
 10
23.2277431058
 20
-28.6889259253
 30
0.0
 10
22.9433512135
 20
-28.834486749
 30
0.0
 10
22.796845383
 20
-28.877142338
 30
0.0
  0
SPLINE
  5
309
100
AcDbEntity
  8
DRAFT
100
AcDbSpline
 62
7
  6
CONTINUOUS
 70
0
 71
3
 72
11
 73
7
 74
0
 42
0.0000001
 43
0.0000001
 44
0.0000000001
 40
0.0
 40
0.0
 40
0.0
 40
0.0
 40
0.2303019156
 40
0.4782399486
 40
0.7386266468
 40
1.0
 40
1.0
 40
1.0
 40
1.0
 10
21.7549739073
 20
18.1039761123
 30
0.0
 10
21.9589558636
 20
18.0800934369
 30
0.0
 10
22.3739085977
 20
17.9292114192
 30
0.0
 10
22.8707654238
 20
17.4765008632
 30
0.0
 10
23.2044907746
 20
16.8635067338
 30
0.0
 10
23.289425517
 20
16.3961477866
 30
0.0
 10
23.292111615
 20
16.16307951
 30
0.0
  0
LINE
  5
30A
100
AcDbEntity
  8
ASSI
100
AcDbLine
 62
7
  6
CONTINUOUS
 10
20.7365831556
 20
-34.2091882789
 11
19.9975490341
 21
-34.1227246478
  0
LINE
  5
30B
100
AcDbEntity
  8
0
100
AcDbLine
 62
7
  6
CONTINUOUS
 10
23.8543591626
 20
-35.8284361778
 11
24.3536529161
 21
-35.8856128299
  0
SPLINE
  5
30C
100
AcDbEntity
  8
0
100
AcDbSpline
 62
7
  6
CONTINUOUS
 70
0
 71
3
 72
8
 73
4
 74
0
 42
0.0000001
 43
0.0000001
 44
0.0000000001
 40
0.0
 40
0.0
 40
0.0
 40
0.0
 40
1.0
 40
1.0
 40
1.0
 40
1.0
 10
23.3426435143
 20
-34.5601609435
 30
0.0
 10
23.725872472
 20
-34.604461305
 30
0.0
 10
24.1091217032
 20
-34.648586951
 30
0.0
 10
24.4923988548
 20
-34.6924683953
 30
0.0
  0
LINE
  5
30D
100
AcDbEntity
  8
ASSI
100
AcDbLine
 62
7
  6
CONTINUOUS
 10
22.1748925481
 20
-34.3771302332
 11
21.8476987742
 21
-34.33899239
  0
SPLINE
  5
30E
100
AcDbEntity
  8
0
100
AcDbSpline
 62
7
  6
CONTINUOUS
 70
0
 71
3
 72
9
 73
5
 74
0
 42
0.0000001
 43
0.0000001
 44
0.0000000001
 40
0.0
 40
0.0
 40
0.0
 40
0.0
 40
0.2568460156
 40
1.0
 40
1.0
 40
1.0
 40
1.0
 10
-36.3957899044
 20
24.0253263008
 30
0.0
 10
-36.3747253444
 20
24.0827872356
 30
0.0
 10
-36.2834446618
 20
24.3029299402
 30
0.0
 10
-36.1532842402
 20
24.5074781141
 30
0.0
 10
-36.0371434708
 20
24.6411463208
 30
0.0
  0
SPLINE
  5
30F
100
AcDbEntity
  8
0
100
AcDbSpline
 62
7
  6
CONTINUOUS
 70
0
 71
3
 72
9
 73
5
 74
0
 42
0.0000001
 43
0.0000001
 44
0.0000000001
 40
0.0
 40
0.0
 40
0.0
 40
0.0
 40
0.5050071224
 40
1.0
 40
1.0
 40
1.0
 40
1.0
 10
-35.9885316136
 20
24.6948335442
 30
0.0
 10
-35.895052398
 20
24.7938858258
 30
0.0
 10
-35.6860393509
 20
24.9690844276
 30
0.0
 10
-35.4395179762
 20
25.0864631084
 30
0.0
 10
-35.3126160122
 20
25.1279025289
 30
0.0
  0
SPLINE
  5
310
100
AcDbEntity
  8
0
100
AcDbSpline
 62
7
  6
CONTINUOUS
 70
0
 71
3
 72
9
 73
5
 74
0
 42
0.0000001
 43
0.0000001
 44
0.0000000001
 40
0.0
 40
0.0
 40
0.0
 40
0.0
 40
0.2456669024
 40
1.0
 40
1.0
 40
1.0
 40
1.0
 10
-34.0724463407
 20
-22.8067671136
 30
0.0
 10
-34.1148798727
 20
-22.8017988984
 30
0.0
 10
-34.2868026461
 20
-22.7750260146
 30
0.0
 10
-34.4545398642
 20
-22.7226765322
 30
0.0
 10
-34.5751880086
 20
-22.6711656426
 30
0.0
  0
SPLINE
  5
311
100
AcDbEntity
  8
0
100
AcDbSpline
 62
7
  6
CONTINUOUS
 70
0
 71
3
 72
9
 73
5
 74
0
 42
0.0000001
 43
0.0000001
 44
0.0000000001
 40
0.0
 40
0.0
 40
0.0
 40
0.0
 40
0.2468474944
 40
1.0
 40
1.0
 40
1.0
 40
1.0
 10
-34.5751880086
 20
-22.6711656426
 30
0.0
 10
-34.60458207
 20
-22.658615808
 30
0.0
 10
-34.7223938613
 20
-22.6048438398
 30
0.0
 10
-34.834938108
 20
-22.539656715
 30
0.0
 10
-34.9158595689
 20
-22.4852410562
 30
0.0
  0
SPLINE
  5
312
100
AcDbEntity
  8
RACCORDO
100
AcDbSpline
 62
250
  6
CONTINUOUS
 70
0
 71
3
 72
10
 73
6
 74
0
 42
0.0000001
 43
0.0000001
 44
0.0000000001
 40
0.0
 40
0.0
 40
0.0
 40
0.0
 40
0.5410720628
 40
0.7914283316
 40
1.0
 40
1.0
 40
1.0
 40
1.0
 10
-35.075207457
 20
26.6192835858
 30
0.0
 10
-35.1542001173
 20
26.3945337563
 30
0.0
 10
-35.2022158692
 20
26.0368598976
 30
0.0
 10
-35.1336090616
 20
25.6003752179
 30
0.0
 10
-35.0501451187
 20
25.4110635236
 30
0.0
 10
-34.9952862796
 20
25.3374187943
 30
0.0
  0
SPLINE
  5
313
100
AcDbEntity
  8
RACCORDO
100
AcDbSpline
 62
250
  6
CONTINUOUS
 70
0
 71
3
 72
9
 73
5
 74
0
 42
0.0000001
 43
0.0000001
 44
0.0000000001
 40
0.0
 40
0.0
 40
0.0
 40
0.0
 40
0.5328382287
 40
1.0
 40
1.0
 40
1.0
 40
1.0
 10
-34.9952862796
 20
25.3374187943
 30
0.0
 10
-34.9640327177
 20
25.295462746
 30
0.0
 10
-34.8941033943
 20
25.223287277
 30
0.0
 10
-34.7987845308
 20
25.1860845491
 30
0.0
 10
-34.753222188
 20
25.1807916517
 30
0.0
  0
SPLINE
  5
314
100
AcDbEntity
  8
RACCORDO
100
AcDbSpline
 62
250
  6
CONTINUOUS
 70
0
 71
3
 72
12
 73
8
 74
0
 42
0.0000001
 43
0.0000001
 44
0.0000000001
 40
0.0
 40
0.0
 40
0.0
 40
0.0
 40
0.0726959972
 40
0.1710101333
 40
0.4270401643
 40
0.7220218742
 40
1.0
 40
1.0
 40
1.0
 40
1.0
 10
-38.3157176339
 20
23.1854255056
 30
0.0
 10
-38.283400195
 20
23.1686535925
 30
0.0
 10
-38.2017395179
 20
23.1406834492
 30
0.0
 10
-37.9926538693
 20
23.0954499934
 30
0.0
 10
-37.6676695985
 20
23.0655186279
 30
0.0
 10
-37.2523072194
 20
23.0632046671
 30
0.0
 10
-36.9655641947
 20
23.0858658292
 30
0.0
 10
-36.8277608308
 20
23.1057286176
 30
0.0
  0
SPLINE
  5
315
100
AcDbEntity
  8
RACCORDO
100
AcDbSpline
 62
250
  6
CONTINUOUS
 70
0
 71
3
 72
12
 73
8
 74
0
 42
0.0000001
 43
0.0000001
 44
0.0000000001
 40
0.0
 40
0.0
 40
0.0
 40
0.0
 40
0.0717680461
 40
0.169056061
 40
0.423485932
 40
0.7187133283
 40
1.0
 40
1.0
 40
1.0
 40
1.0
 10
-37.8173017702
 20
-20.3079118592
 30
0.0
 10
-37.7860193293
 20
-20.3245647449
 30
0.0
 10
-37.7066043383
 20
-20.3524088095
 30
0.0
 10
-37.5024251191
 20
-20.3977282227
 30
0.0
 10
-37.1832908877
 20
-20.4283501164
 30
0.0
 10
-36.7728367101
 20
-20.4322743349
 30
0.0
 10
-36.4883103059
 20
-20.4112088229
 30
0.0
 10
-36.3506778352
 20
-20.3924987101
 30
0.0
  0
SPLINE
  5
316
100
AcDbEntity
  8
RACCORDO
100
AcDbSpline
 62
250
  6
CONTINUOUS
 70
0
 71
3
 72
12
 73
8
 74
0
 42
0.0000001
 43
0.0000001
 44
0.0000000001
 40
0.0
 40
0.0
 40
0.0
 40
0.0
 40
0.2530227709
 40
0.5412062053
 40
0.6799945399
 40
0.8054287699
 40
1.0
 40
1.0
 40
1.0
 40
1.0
 10
-34.4862619316
 20
-24.5116051468
 30
0.0
 10
-34.5558674924
 20
-24.3680654456
 30
0.0
 10
-34.6221296306
 20
-24.0230225648
 30
0.0
 10
-34.5824373664
 20
-23.5920382424
 30
0.0
 10
-34.4750184989
 20
-23.2580281488
 30
0.0
 10
-34.3429573506
 20
-23.0031140789
 30
0.0
 10
-34.189110105
 20
-22.8446927815
 30
0.0
 10
-34.0724463407
 20
-22.8067671136
 30
0.0
  0
SPLINE
  5
317
100
AcDbEntity
  8
RACCORDO
100
AcDbSpline
 62
250
  6
CONTINUOUS
 70
0
 71
3
 72
12
 73
8
 74
0
 42
0.0000001
 43
0.0000001
 44
0.0000000001
 40
0.0
 40
0.0
 40
0.0
 40
0.0
 40
0.2530227698
 40
0.5412062047
 40
0.6799945394
 40
0.8054287696
 40
1.0
 40
1.0
 40
1.0
 40
1.0
 10
21.8887227097
 20
-31.1121176698
 30
0.0
 10
21.8191171493
 20
-30.9685779692
 30
0.0
 10
21.752855011
 20
-30.623535089
 30
0.0
 10
21.7925472746
 20
-30.1925507668
 30
0.0
 10
21.899966142
 20
-29.8585406726
 30
0.0
 10
22.0320272904
 20
-29.6036266023
 30
0.0
 10
22.1858745361
 20
-29.4452053046
 30
0.0
 10
22.3025383006
 20
-29.4072796366
 30
0.0
  0
SPLINE
  5
318
100
AcDbEntity
  8
RACCORDO
100
AcDbSpline
 62
250
  6
CONTINUOUS
 70
0
 71
3
 72
14
 73
10
 74
0
 42
0.0000001
 43
0.0000001
 44
0.0000000001
 40
0.0
 40
0.0
 40
0.0
 40
0.0
 40
0.3604629534
 40
0.5266139966
 40
0.6742777308
 40
0.7979761653
 40
0.8934094749
 40
0.9590273719
 40
1.0
 40
1.0
 40
1.0
 40
1.0
 10
25.1375413755
 20
-27.6788093097
 30
0.0
 10
25.0022221539
 20
-27.6824886973
 30
0.0
 10
24.8041554106
 20
-27.6801047242
 30
0.0
 10
24.5516523693
 20
-27.660024945
 30
0.0
 10
24.3887312434
 20
-27.6379764718
 30
0.0
 10
24.2536146642
 20
-27.6105315467
 30
0.0
 10
24.1515976618
 20
-27.5768635432
 30
0.0
 10
24.0836552328
 20
-27.5433519952
 30
0.0
 10
24.057652859
 20
-27.5066643804
 30
0.0
 10
24.0574732674
 20
-27.4912784567
 30
0.0
  0
SPLINE
  5
319
100
AcDbEntity
  8
RACCORDO
100
AcDbSpline
 62
250
  6
CONTINUOUS
 70
0
 71
3
 72
14
 73
10
 74
0
 42
0.0000001
 43
0.0000001
 44
0.0000000001
 40
0.0
 40
0.0
 40
0.0
 40
0.0
 40
0.3609799161
 40
0.527094005
 40
0.6746168881
 40
0.7981378322
 40
0.8934233069
 40
0.9589737996
 40
1.0
 40
1.0
 40
1.0
 40
1.0
 10
24.628122636
 20
15.815816297
 30
0.0
 10
24.4935810026
 20
15.8123797695
 30
0.0
 10
24.2967690828
 20
15.815014953
 30
0.0
 10
24.0459877391
 20
15.8352977973
 30
0.0
 10
23.8844040861
 20
15.857391239
 30
0.0
 10
23.7504718468
 20
15.8848148508
 30
0.0
 10
23.6493945031
 20
15.9183648732
 30
0.0
 10
23.5820612438
 20
15.9517962998
 30
0.0
 10
23.5563757937
 20
15.9882669388
 30
0.0
 10
23.5561977503
 20
16.0035618569
 30
0.0
  0
SPLINE
  5
31A
100
AcDbEntity
  8
RACCORDO
100
AcDbSpline
 62
250
  6
CONTINUOUS
 70
0
 71
3
 72
13
 73
9
 74
0
 42
0.0000001
 43
0.0000001
 44
0.0000000001
 40
0.0
 40
0.0
 40
0.0
 40
0.0
 40
0.2990681383
 40
0.5884863399
 40
0.7152654567
 40
0.8249610124
 40
0.9179200934
 40
1.0
 40
1.0
 40
1.0
 40
1.0
 10
21.2997771843
 20
20.0187710628
 30
0.0
 10
21.2462778154
 20
19.8665547176
 30
0.0
 10
21.1848819744
 20
19.5510502137
 30
0.0
 10
21.204608703
 20
19.1602689214
 30
0.0
 10
21.2878503574
 20
18.8874680132
 30
0.0
 10
21.3746568469
 20
18.7304488957
 30
0.0
 10
21.4859310261
 20
18.6202925516
 30
0.0
 10
21.5777769424
 20
18.5853888483
 30
0.0
 10
21.6217624534
 20
18.5802791286
 30
0.0
  0
SPLINE
  5
31B
100
AcDbEntity
  8
RACCORDO
100
AcDbSpline
 62
250
  6
CONTINUOUS
 70
0
 71
3
 72
9
 73
5
 74
0
 42
0.0000001
 43
0.0000001
 44
0.0000000001
 40
0.0
 40
0.0
 40
0.0
 40
0.0
 40
0.5195312849
 40
1.0
 40
1.0
 40
1.0
 40
1.0
 10
24.6281226342
 20
15.815816302
 30
0.0
 10
24.9484475444
 20
15.8237312755
 30
0.0
 10
25.5656023911
 20
15.8196673549
 30
0.0
 10
26.1814786003
 20
15.7758541498
 30
0.0
 10
26.4758006207
 20
15.7414094468
 30
0.0
  0
SPLINE
  5
31C
100
AcDbEntity
  8
RACCORDO
100
AcDbSpline
 62
250
  6
CONTINUOUS
 70
0
 71
3
 72
9
 73
5
 74
0
 42
0.0000001
 43
0.0000001
 44
0.0000000001
 40
0.0
 40
0.0
 40
0.0
 40
0.0
 40
0.5000386113
 40
1.0
 40
1.0
 40
1.0
 40
1.0
 10
26.4758006207
 20
15.7414094468
 30
0.0
 10
26.5280987509
 20
12.1168105263
 30
0.0
 10
26.6072556877
 20
4.867833509
 30
0.0
 10
26.696703154
 20
-2.3810109186
 30
0.0
 10
26.7323640339
 20
-6.0052518601
 30
0.0
  0
SPLINE
  5
31D
100
AcDbEntity
  8
RACCORDO
100
AcDbSpline
 62
250
  6
CONTINUOUS
 70
0
 71
3
 72
9
 73
5
 74
0
 42
0.0000001
 43
0.0000001
 44
0.0000000001
 40
0.0
 40
0.0
 40
0.0
 40
0.0
 40
0.5197524919
 40
1.0
 40
1.0
 40
1.0
 40
1.0
 10
24.8784248013
 20
-5.9314399121
 30
0.0
 10
25.1999622998
 20
-5.9232540819
 30
0.0
 10
25.8192064832
 20
-5.9269433667
 30
0.0
 10
26.4371862254
 20
-5.9706977832
 30
0.0
 10
26.732365175
 20
-6.0052520468
 30
0.0
  0
SPLINE
  5
31E
100
AcDbEntity
  8
RACCORDO
100
AcDbSpline
 62
250
  6
CONTINUOUS
 70
0
 71
3
 72
11
 73
7
 74
0
 42
0.0000001
 43
0.0000001
 44
0.0000000001
 40
0.0
 40
0.0
 40
0.0
 40
0.0
 40
0.2500174202
 40
0.499997134
 40
0.7499849051
 40
1.0
 40
1.0
 40
1.0
 40
1.0
 10
26.732365175
 20
-6.0052520468
 30
0.0
 10
26.7532385752
 20
-7.8164747306
 30
0.0
 10
26.7881917542
 20
-11.438721954
 30
0.0
 10
26.8394691139
 20
-16.8720203715
 30
0.0
 10
26.891369939
 20
-22.3052939923
 30
0.0
 10
26.9300242464
 20
-25.9275511131
 30
0.0
 10
26.9545434555
 20
-27.7387112626
 30
0.0
  0
SPLINE
  5
31F
100
AcDbEntity
  8
RACCORDO
100
AcDbSpline
 62
250
  6
CONTINUOUS
 70
0
 71
3
 72
11
 73
7
 74
0
 42
0.0000001
 43
0.0000001
 44
0.0000000001
 40
0.0
 40
0.0
 40
0.0
 40
0.0
 40
0.2687840024
 40
0.5202428029
 40
0.7598301295
 40
1.0
 40
1.0
 40
1.0
 40
1.0
 10
25.0989293569
 20
-28.311095047
 30
0.0
 10
25.0415235674
 20
-28.7293782212
 30
0.0
 10
24.8030741241
 20
-29.5296629218
 30
0.0
 10
24.0679342675
 20
-30.5056936437
 30
0.0
 10
23.0412685023
 20
-31.0932132685
 30
0.0
 10
22.2634021242
 20
-31.1561437013
 30
0.0
 10
21.8887227097
 20
-31.1121176698
 30
0.0
  0
SPLINE
  5
320
100
AcDbEntity
  8
RACCORDO
100
AcDbSpline
 62
250
  6
CONTINUOUS
 70
0
 71
3
 72
9
 73
5
 74
0
 42
0.0000001
 43
0.0000001
 44
0.0000000001
 40
0.0
 40
0.0
 40
0.0
 40
0.0
 40
0.5180136868
 40
1.0
 40
1.0
 40
1.0
 40
1.0
 10
25.1375405345
 20
-27.6788072205
 30
0.0
 10
25.4514814133
 20
-27.6691931304
 30
0.0
 10
26.0582098101
 20
-27.669295491
 30
0.0
 10
26.6639534936
 20
-27.7076047526
 30
0.0
 10
26.9545365477
 20
-27.7387136562
 30
0.0
  0
SPLINE
  5
321
100
AcDbEntity
  8
RACCORDO
100
AcDbSpline
 62
250
  6
CONTINUOUS
 70
0
 71
3
 72
13
 73
9
 74
0
 42
0.0000001
 43
0.0000001
 44
0.0000000001
 40
0.0
 40
0.0
 40
0.0
 40
0.0
 40
0.2681178221
 40
0.5192233464
 40
0.640103315
 40
0.7593757476
 40
0.8788207544
 40
1.0
 40
1.0
 40
1.0
 40
1.0
 10
26.8982923985
 20
-28.6670053768
 30
0.0
 10
26.8146343416
 20
-29.2781123012
 30
0.0
 10
26.4685105266
 20
-30.4473008377
 30
0.0
 10
25.566833768
 20
-31.6579314507
 30
0.0
 10
24.6473093124
 20
-32.3277144468
 30
0.0
 10
23.8837224445
 20
-32.6634869522
 30
0.0
 10
23.0651315942
 20
-32.8239952802
 30
0.0
 10
22.5071989458
 20
-32.8147132828
 30
0.0
 10
22.2302127485
 20
-32.7831960854
 30
0.0
  0
SPLINE
  5
322
100
AcDbEntity
  8
RACCORDO
100
AcDbSpline
 62
250
  6
CONTINUOUS
 70
0
 71
3
 72
9
 73
5
 74
0
 42
0.0000001
 43
0.0000001
 44
0.0000000001
 40
0.0
 40
0.0
 40
0.0
 40
0.0
 40
0.4675658531
 40
1.0
 40
1.0
 40
1.0
 40
1.0
 10
21.8887227236
 20
-31.1121176463
 30
0.0
 10
22.0049861339
 20
-31.3528625036
 30
0.0
 10
22.1737566815
 20
-31.906355839
 30
0.0
 10
22.2269967692
 20
-32.4787708896
 30
0.0
 10
22.2302212232
 20
-32.7831933182
 30
0.0
  0
SPLINE
  5
323
100
AcDbEntity
  8
RACCORDO
100
AcDbSpline
 62
250
  6
CONTINUOUS
 70
0
 71
3
 72
8
 73
4
 74
0
 42
0.0000001
 43
0.0000001
 44
0.0000000001
 40
0.0
 40
0.0
 40
0.0
 40
0.0
 40
1.0
 40
1.0
 40
1.0
 40
1.0
 10
22.2302212232
 20
-32.7831933182
 30
0.0
 10
21.2610192915
 20
-32.6727315761
 30
0.0
 10
20.2924382568
 20
-32.5568837545
 30
0.0
 10
19.323401579
 20
-32.4449815734
 30
0.0
  0
SPLINE
  5
324
100
AcDbEntity
  8
RACCORDO
100
AcDbSpline
 62
250
  6
CONTINUOUS
 70
0
 71
3
 72
9
 73
5
 74
0
 42
0.0000001
 43
0.0000001
 44
0.0000000001
 40
0.0
 40
0.0
 40
0.0
 40
0.0
 40
0.4676648001
 40
1.0
 40
1.0
 40
1.0
 40
1.0
 10
18.9779249587
 20
-30.7715868551
 30
0.0
 10
19.0950375256
 20
-31.0125263299
 30
0.0
 10
19.2653866802
 20
-31.5666733285
 30
0.0
 10
19.3197196586
 20
-32.1400616912
 30
0.0
 10
19.3233989904
 20
-32.4449788318
 30
0.0
  0
SPLINE
  5
325
100
AcDbEntity
  8
RACCORDO
100
AcDbSpline
 62
250
  6
CONTINUOUS
 70
0
 71
3
 72
9
 73
5
 74
0
 42
0.0000001
 43
0.0000001
 44
0.0000000001
 40
0.0
 40
0.0
 40
0.0
 40
0.0
 40
0.4673794679
 40
1.0
 40
1.0
 40
1.0
 40
1.0
 10
-31.5751842916
 20
-24.8527128579
 30
0.0
 10
-31.4587646721
 20
-25.0936626594
 30
0.0
 10
-31.2901956628
 20
-25.6480475748
 30
0.0
 10
-31.2360686121
 20
-26.22096465
 30
0.0
 10
-31.2315727832
 20
-26.5258867662
 30
0.0
  0
SPLINE
  5
326
100
AcDbEntity
  8
RACCORDO
100
AcDbSpline
 62
250
  6
CONTINUOUS
 70
0
 71
3
 72
8
 73
4
 74
0
 42
0.0000001
 43
0.0000001
 44
0.0000000001
 40
0.0
 40
0.0
 40
0.0
 40
0.0
 40
1.0
 40
1.0
 40
1.0
 40
1.0
 10
-31.2334363891
 20
-26.5256680162
 30
0.0
 10
-32.2020425862
 20
-26.4107126071
 30
0.0
 10
-33.171115984
 20
-26.299693672
 30
0.0
 10
-34.1395493539
 20
-26.1832912697
 30
0.0
  0
SPLINE
  5
327
100
AcDbEntity
  8
RACCORDO
100
AcDbSpline
 62
250
  6
CONTINUOUS
 70
0
 71
3
 72
11
 73
7
 74
0
 42
0.0000001
 43
0.0000001
 44
0.0000000001
 40
0.0
 40
0.0
 40
0.0
 40
0.0
 40
0.2302943679
 40
0.4781814858
 40
0.7385608645
 40
1.0
 40
1.0
 40
1.0
 40
1.0
 10
-34.4862619316
 20
-24.5116051468
 30
0.0
 10
-34.9281542933
 20
-24.4600577332
 30
0.0
 10
-35.8272436804
 20
-24.1337254733
 30
0.0
 10
-36.9030417426
 20
-23.1526745721
 30
0.0
 10
-37.6272314983
 20
-21.8256024258
 30
0.0
 10
-37.8116989878
 20
-20.8129358109
 30
0.0
 10
-37.8173017702
 20
-20.3079118592
 30
0.0
  0
SPLINE
  5
328
100
AcDbEntity
  8
RACCORDO
100
AcDbSpline
 62
250
  6
CONTINUOUS
 70
0
 71
3
 72
9
 73
5
 74
0
 42
0.0000001
 43
0.0000001
 44
0.0000000001
 40
0.0
 40
0.0
 40
0.0
 40
0.0
 40
0.4677794517
 40
1.0
 40
1.0
 40
1.0
 40
1.0
 10
-34.4862528688
 20
-24.5115896877
 30
0.0
 10
-34.3690464439
 20
-24.7523105871
 30
0.0
 10
-34.1983213307
 20
-25.3058264238
 30
0.0
 10
-34.1434967887
 20
-25.8786977416
 30
0.0
 10
-34.1395587088
 20
-26.1832943115
 30
0.0
  0
SPLINE
  5
329
100
AcDbEntity
  8
RACCORDO
100
AcDbSpline
 62
250
  6
CONTINUOUS
 70
0
 71
3
 72
11
 73
7
 74
0
 42
0.0000001
 43
0.0000001
 44
0.0000000001
 40
0.0
 40
0.0
 40
0.0
 40
0.0
 40
0.2354953486
 40
0.4805732593
 40
0.7359489499
 40
1.0
 40
1.0
 40
1.0
 40
1.0
 10
-34.1395587088
 20
-26.1832943115
 30
0.0
 10
-34.4831364155
 20
-26.1419420683
 30
0.0
 10
-35.1764668314
 20
-25.9723512266
 30
0.0
 10
-36.1489230271
 20
-25.479945302
 30
0.0
 10
-37.0270209876
 20
-24.7672044215
 30
0.0
 10
-37.5203477797
 20
-24.1781448888
 30
0.0
 10
-37.7421773987
 20
-23.8597885406
 30
0.0
  0
SPLINE
  5
32A
100
AcDbEntity
  8
RACCORDO
100
AcDbSpline
 62
250
  6
CONTINUOUS
 70
0
 71
3
 72
9
 73
5
 74
0
 42
0.0000001
 43
0.0000001
 44
0.0000000001
 40
0.0
 40
0.0
 40
0.0
 40
0.0
 40
0.2483525254
 40
1.0
 40
1.0
 40
1.0
 40
1.0
 10
-37.7542196787
 20
-23.8424463994
 30
0.0
 10
-37.8164907706
 20
-23.7524590393
 30
0.0
 10
-38.0580997976
 20
-23.383875293
 30
0.0
 10
-38.2630445933
 20
-22.9913737818
 30
0.0
 10
-38.3949596245
 20
-22.6875775554
 30
0.0
  0
SPLINE
  5
32B
100
AcDbEntity
  8
RACCORDO
100
AcDbSpline
 62
250
  6
CONTINUOUS
 70
0
 71
3
 72
9
 73
5
 74
0
 42
0.0000001
 43
0.0000001
 44
0.0000000001
 40
0.0
 40
0.0
 40
0.0
 40
0.0
 40
0.2518122145
 40
1.0
 40
1.0
 40
1.0
 40
1.0
 10
-38.4095915097
 20
-22.653634072
 30
0.0
 10
-38.4988273548
 20
-22.4450994409
 30
0.0
 10
-38.8127582293
 20
-21.6003150497
 30
0.0
 10
-38.962637699
 20
-20.6939442774
 30
0.0
 10
-38.9706191772
 20
-20.0200451302
 30
0.0
  0
SPLINE
  5
32C
100
AcDbEntity
  8
RACCORDO
100
AcDbSpline
 62
250
  6
CONTINUOUS
 70
0
 71
3
 72
10
 73
6
 74
0
 42
0.0000001
 43
0.0000001
 44
0.0000000001
 40
0.0
 40
0.0
 40
0.0
 40
0.0
 40
0.1810352076
 40
0.4107135613
 40
1.0
 40
1.0
 40
1.0
 40
1.0
 10
-37.8173017702
 20
-20.3079118592
 30
0.0
 10
-37.8806119658
 20
-20.2735874292
 30
0.0
 10
-38.0325835118
 20
-20.2114441658
 30
0.0
 10
-38.4153358219
 20
-20.1021025511
 30
0.0
 10
-38.7380725006
 20
-20.0496749431
 30
0.0
 10
-38.9706118719
 20
-20.0200428481
 30
0.0
  0
SPLINE
  5
32D
100
AcDbEntity
  8
RACCORDO
100
AcDbSpline
 62
250
  6
CONTINUOUS
 70
0
 71
3
 72
11
 73
7
 74
0
 42
0.0000001
 43
0.0000001
 44
0.0000000001
 40
0.0
 40
0.0
 40
0.0
 40
0.0
 40
0.2499507113
 40
0.4999686148
 40
0.7499935531
 40
1.0
 40
1.0
 40
1.0
 40
1.0
 10
-38.9706118719
 20
-20.0200428481
 30
0.0
 10
-38.9919771413
 20
-18.2084757045
 30
0.0
 10
-39.0405360497
 20
-14.5849246092
 30
0.0
 10
-39.1186892587
 20
-9.149381903
 30
0.0
 10
-39.1975399193
 20
-3.7134482218
 30
0.0
 10
-39.2499220558
 20
-0.0894909193
 30
0.0
 10
-39.2708056516
 20
1.7224858513
 30
0.0
  0
SPLINE
  5
32E
100
AcDbEntity
  8
RACCORDO
100
AcDbSpline
 62
250
  6
CONTINUOUS
 70
0
 71
3
 72
10
 73
6
 74
0
 42
0.0000001
 43
0.0000001
 44
0.0000000001
 40
0.0
 40
0.0
 40
0.0
 40
0.0
 40
0.1808275274
 40
0.410700476
 40
1.0
 40
1.0
 40
1.0
 40
1.0
 10
-38.0649634655
 20
1.4381163752
 30
0.0
 10
-38.131514526
 20
1.472608833
 30
0.0
 10
-38.2909040995
 20
1.5346841618
 30
0.0
 10
-38.6912705073
 20
1.6430820745
 30
0.0
 10
-39.0281787975
 20
1.6940805282
 30
0.0
 10
-39.2708041659
 20
1.722485729
 30
0.0
  0
SPLINE
  5
32F
100
AcDbEntity
  8
RACCORDO
100
AcDbSpline
 62
250
  6
CONTINUOUS
 70
0
 71
3
 72
10
 73
6
 74
0
 42
0.0000001
 43
0.0000001
 44
0.0000000001
 40
0.0
 40
0.0
 40
0.0
 40
0.0
 40
0.5000320948
 40
0.7500366274
 40
1.0
 40
1.0
 40
1.0
 40
1.0
 10
-39.2708041659
 20
1.722485729
 30
0.0
 10
-39.3185039743
 20
5.3468390681
 30
0.0
 10
-39.3775053831
 20
10.7834441603
 30
0.0
 10
-39.4614481233
 20
18.0318229224
 30
0.0
 10
-39.5000061045
 20
21.6558271768
 30
0.0
 10
-39.5146259658
 20
23.4677199685
 30
0.0
  0
SPLINE
  5
330
100
AcDbEntity
  8
RACCORDO
100
AcDbSpline
 62
250
  6
CONTINUOUS
 70
0
 71
3
 72
13
 73
9
 74
0
 42
0.0000001
 43
0.0000001
 44
0.0000000001
 40
0.0
 40
0.0
 40
0.0
 40
0.0
 40
0.2712044012
 40
0.5236350797
 40
0.6442661598
 40
0.7625241395
 40
0.8804071534
 40
1.0
 40
1.0
 40
1.0
 40
1.0
 10
-38.3157176339
 20
23.1854255056
 30
0.0
 10
-38.3213460381
 20
23.6689083821
 30
0.0
 10
-38.1802733487
 20
24.6139868438
 30
0.0
 10
-37.5824347569
 20
25.6358183696
 30
0.0
 10
-36.9098919894
 20
26.2081106636
 30
0.0
 10
-36.3377899052
 20
26.4999106084
 30
0.0
 10
-35.714804366
 20
26.6467749628
 30
0.0
 10
-35.2869583371
 20
26.6442327416
 30
0.0
 10
-35.075207457
 20
26.6192835858
 30
0.0
  0
SPLINE
  5
331
100
AcDbEntity
  8
RACCORDO
100
AcDbSpline
 62
250
  6
CONTINUOUS
 70
0
 71
3
 72
10
 73
6
 74
0
 42
0.0000001
 43
0.0000001
 44
0.0000000001
 40
0.0
 40
0.0
 40
0.0
 40
0.0
 40
0.1808602011
 40
0.4107201483
 40
1.0
 40
1.0
 40
1.0
 40
1.0
 10
-38.3157167224
 20
23.1854255849
 30
0.0
 10
-38.381934477
 20
23.2196363052
 30
0.0
 10
-38.540443427
 20
23.2812170796
 30
0.0
 10
-38.9385135028
 20
23.3887977747
 30
0.0
 10
-39.2734312118
 20
23.4394678317
 30
0.0
 10
-39.5146260184
 20
23.4677199515
 30
0.0
  0
SPLINE
  5
332
100
AcDbEntity
  8
RACCORDO
100
AcDbSpline
 62
250
  6
CONTINUOUS
 70
0
 71
3
 72
14
 73
10
 74
0
 42
0.0000001
 43
0.0000001
 44
0.0000000001
 40
0.0
 40
0.0
 40
0.0
 40
0.0
 40
0.2708682675
 40
0.3999600949
 40
0.5243200575
 40
0.6447743384
 40
0.7628793429
 40
0.8806250463
 40
1.0
 40
1.0
 40
1.0
 40
1.0
 10
-39.5146260184
 20
23.4677199515
 30
0.0
 10
-39.5203406073
 20
24.1750882976
 30
0.0
 10
-39.3591295439
 20
25.2364820878
 30
0.0
 10
-38.7749491265
 20
26.4828588028
 30
0.0
 10
-38.1836349303
 20
27.269821309
 30
0.0
 10
-37.4539248993
 20
27.8876565396
 30
0.0
 10
-36.6149888671
 20
28.3104561993
 30
0.0
 10
-35.7033385334
 20
28.5225149698
 30
0.0
 10
-35.0779788451
 20
28.5207196618
 30
0.0
 10
-34.7681058843
 20
28.4865059491
 30
0.0
  0
SPLINE
  5
333
100
AcDbEntity
  8
RACCORDO
100
AcDbSpline
 62
250
  6
CONTINUOUS
 70
0
 71
3
 72
9
 73
5
 74
0
 42
0.0000001
 43
0.0000001
 44
0.0000000001
 40
0.0
 40
0.0
 40
0.0
 40
0.0
 40
0.4952131682
 40
1.0
 40
1.0
 40
1.0
 40
1.0
 10
-35.0752074579
 20
26.6192835867
 30
0.0
 10
-34.9707789136
 20
26.9148772013
 30
0.0
 10
-34.8168249904
 20
27.5326805543
 30
0.0
 10
-34.7659145751
 20
28.1669550788
 30
0.0
 10
-34.7681054226
 20
28.4865060937
 30
0.0
  0
SPLINE
  5
334
100
AcDbEntity
  8
RACCORDO
100
AcDbSpline
 62
250
  6
CONTINUOUS
 70
0
 71
3
 72
9
 73
5
 74
0
 42
0.0000001
 43
0.0000001
 44
0.0000000001
 40
0.0
 40
0.0
 40
0.0
 40
0.0
 40
0.499820799
 40
1.0
 40
1.0
 40
1.0
 40
1.0
 10
-34.7681054226
 20
28.4865060937
 30
0.0
 10
-33.1023796748
 20
28.3025928432
 30
0.0
 10
-29.7701900367
 20
27.9303595534
 30
0.0
 10
-26.4404051544
 20
27.5372461509
 30
0.0
 10
-24.7749418822
 20
27.3404529432
 30
0.0
  0
SPLINE
  5
335
100
AcDbEntity
  8
RACCORDO
100
AcDbSpline
 62
250
  6
CONTINUOUS
 70
0
 71
3
 72
8
 73
4
 74
0
 42
0.0000001
 43
0.0000001
 44
0.0000000001
 40
0.0
 40
0.0
 40
0.0
 40
0.0
 40
1.0
 40
1.0
 40
1.0
 40
1.0
 10
-23.7393977593
 20
27.2179921231
 30
0.0
 10
-20.7705133423
 20
26.8666730789
 30
0.0
 10
-17.8016870437
 20
26.5148583375
 30
0.0
 10
-14.8325701007
 20
26.1655099003
 30
0.0
  0
SPLINE
  5
336
100
AcDbEntity
  8
RACCORDO
100
AcDbSpline
 62
250
  6
CONTINUOUS
 70
0
 71
3
 72
8
 73
4
 74
0
 42
0.0000001
 43
0.0000001
 44
0.0000000001
 40
0.0
 40
0.0
 40
0.0
 40
0.0
 40
1.0
 40
1.0
 40
1.0
 40
1.0
 10
-13.7970300834
 20
26.0437468673
 30
0.0
 10
-11.3937573271
 20
25.7613442141
 30
0.0
 10
-8.9903510539
 20
25.4800730338
 30
0.0
 10
-6.5867521217
 20
25.2004601357
 30
0.0
  0
SPLINE
  5
337
100
AcDbEntity
  8
RACCORDO
100
AcDbSpline
 62
250
  6
CONTINUOUS
 70
0
 71
3
 72
9
 73
5
 74
0
 42
0.0000001
 43
0.0000001
 44
0.0000000001
 40
0.0
 40
0.0
 40
0.0
 40
0.0
 40
0.4952736257
 40
1.0
 40
1.0
 40
1.0
 40
1.0
 10
-6.8903027415
 20
23.3188540373
 30
0.0
 10
-6.7856988049
 20
23.6168349662
 30
0.0
 10
-6.6322470033
 20
24.2395591532
 30
0.0
 10
-6.5832038502
 20
24.8786467791
 30
0.0
 10
-6.586752456
 20
25.2004625768
 30
0.0
  0
SPLINE
  5
338
100
AcDbEntity
  8
RACCORDO
100
AcDbSpline
 62
250
  6
CONTINUOUS
 70
0
 71
3
 72
8
 73
4
 74
0
 42
0.0000001
 43
0.0000001
 44
0.0000000001
 40
0.0
 40
0.0
 40
0.0
 40
0.0
 40
1.0
 40
1.0
 40
1.0
 40
1.0
 10
-6.586752456
 20
25.2004625768
 30
0.0
 10
-2.5942086547
 20
24.7300085229
 30
0.0
 10
1.3988507691
 20
24.263922482
 30
0.0
 10
5.3922374641
 20
23.8006777012
 30
0.0
  0
SPLINE
  5
339
100
AcDbEntity
  8
RACCORDO
100
AcDbSpline
 62
250
  6
CONTINUOUS
 70
0
 71
3
 72
8
 73
4
 74
0
 42
0.0000001
 43
0.0000001
 44
0.0000000001
 40
0.0
 40
0.0
 40
0.0
 40
0.0
 40
1.0
 40
1.0
 40
1.0
 40
1.0
 10
6.5225228844
 20
23.6696288217
 30
0.0
 10
8.8822497665
 20
23.396167645
 30
0.0
 10
11.2421373549
 20
23.1240871152
 30
0.0
 10
13.6016509844
 20
22.8487919914
 30
0.0
  0
SPLINE
  5
33A
100
AcDbEntity
  8
RACCORDO
100
AcDbSpline
 62
250
  6
CONTINUOUS
 70
0
 71
3
 72
8
 73
4
 74
0
 42
0.0000001
 43
0.0000001
 44
0.0000000001
 40
0.0
 40
0.0
 40
0.0
 40
0.0
 40
1.0
 40
1.0
 40
1.0
 40
1.0
 10
15.3365912288
 20
22.6454774753
 30
0.0
 10
15.6817850887
 20
22.6048150641
 30
0.0
 10
16.0269621721
 20
22.5640098508
 30
0.0
 10
16.3721183029
 20
22.5230284166
 30
0.0
  0
SPLINE
  5
33B
100
AcDbEntity
  8
RACCORDO
100
AcDbSpline
 62
250
  6
CONTINUOUS
 70
0
 71
3
 72
11
 73
7
 74
0
 42
0.0000001
 43
0.0000001
 44
0.0000000001
 40
0.0
 40
0.0
 40
0.0
 40
0.0
 40
0.2302270418
 40
0.4782244823
 40
0.7386977909
 40
1.0
 40
1.0
 40
1.0
 40
1.0
 10
21.2997771843
 20
20.0187710628
 30
0.0
 10
21.7413938747
 20
19.967393456
 30
0.0
 10
22.64013337
 20
19.6408296903
 30
0.0
 10
23.7158650441
 20
18.6600514894
 30
0.0
 10
24.4386809671
 20
17.3325533839
 30
0.0
 10
24.6224671646
 20
16.3203896533
 30
0.0
 10
24.628122636
 20
15.815816297
 30
0.0
  0
SPLINE
  5
33C
100
AcDbEntity
  8
RACCORDO
100
AcDbSpline
 62
250
  6
CONTINUOUS
 70
0
 71
3
 72
9
 73
5
 74
0
 42
0.0000001
 43
0.0000001
 44
0.0000000001
 40
0.0
 40
0.0
 40
0.0
 40
0.0
 40
0.4950833354
 40
1.0
 40
1.0
 40
1.0
 40
1.0
 10
21.2997780481
 20
20.018770185
 30
0.0
 10
21.403208383
 20
20.3145782745
 30
0.0
 10
21.5551785125
 20
20.9327656577
 30
0.0
 10
21.6042910988
 20
21.5670688892
 30
0.0
 10
21.60128615
 20
21.8866480982
 30
0.0
  0
SPLINE
  5
33D
100
AcDbEntity
  8
RACCORDO
100
AcDbSpline
 62
250
  6
CONTINUOUS
 70
0
 71
3
 72
12
 73
8
 74
0
 42
0.0000001
 43
0.0000001
 44
0.0000000001
 40
0.0
 40
0.0
 40
0.0
 40
0.0
 40
0.1135969376
 40
0.231283908
 40
0.4788274305
 40
0.7389647743
 40
1.0
 40
1.0
 40
1.0
 40
1.0
 10
21.60128615
 20
21.8866480982
 30
0.0
 10
21.9201844956
 20
21.8471894411
 30
0.0
 10
22.5625049475
 20
21.694915058
 30
0.0
 10
23.7958638919
 20
21.1165877813
 30
0.0
 10
25.1428555113
 20
19.9027778079
 30
0.0
 10
26.1962133054
 20
17.9600472852
 30
0.0
 10
26.4651461299
 20
16.4797194101
 30
0.0
 10
26.4757996211
 20
15.7414091207
 30
0.0
  0
SPLINE
  5
33E
100
AcDbEntity
  8
0
100
AcDbSpline
 62
7
  6
CONTINUOUS
 70
0
 71
3
 72
15
 73
11
 74
0
 42
0.0000001
 43
0.0000001
 44
0.0000000001
 40
0.0
 40
0.0
 40
0.0
 40
0.0
 40
0.1185011643
 40
0.2449318114
 40
0.3777030676
 40
0.5126738169
 40
0.644886985
 40
0.7703755568
 40
0.8878990478
 40
1.0
 40
1.0
 40
1.0
 40
1.0
 10
24.4923988514
 20
-34.6924665408
 30
0.0
 10
24.580630243
 20
-34.7025681628
 30
0.0
 10
24.7598949539
 20
-34.7607179641
 30
0.0
 10
24.9877893568
 20
-34.936090471
 30
0.0
 10
25.161081522
 20
-35.180410747
 30
0.0
 10
25.2614878822
 20
-35.4669478431
 30
0.0
 10
25.2782020331
 20
-35.7649170737
 30
0.0
 10
25.2076512993
 20
-36.0423090954
 30
0.0
 10
25.0546471842
 20
-36.2674221543
 30
0.0
 10
24.9049295624
 20
-36.3635592863
 30
0.0
 10
24.826260486
 20
-36.3930393505
 30
0.0
  0
LINE
  5
33F
100
AcDbEntity
  8
0
100
AcDbLine
 62
7
  6
CONTINUOUS
 10
21.7871842016
 20
-36.111038312
 11
22.2619315152
 21
-36.1661805355
  0
SPLINE
  5
340
100
AcDbEntity
  8
RACCORDO
100
AcDbSpline
 62
250
  6
CONTINUOUS
 70
0
 71
3
 72
18
 73
14
 74
0
 42
0.0000001
 43
0.0000001
 44
0.0000000001
 40
0.0
 40
0.0
 40
0.0
 40
0.0
 40
0.1210861841
 40
0.2473264423
 40
0.3109651705
 40
0.3740607094
 40
0.4365873201
 40
0.4988024971
 40
0.6230520336
 40
0.6853907273
 40
0.7479961561
 40
0.8738094105
 40
1.0
 40
1.0
 40
1.0
 40
1.0
 10
-30.7604613062
 20
-38.9865043692
 30
0.0
 10
-30.696468104
 20
-38.4867583729
 30
0.0
 10
-30.7132032599
 20
-37.4488621753
 30
0.0
 10
-30.890365528
 20
-36.1682426855
 30
0.0
 10
-31.0276285088
 20
-35.1243990446
 30
0.0
 10
-31.0989868436
 20
-34.3398879131
 30
0.0
 10
-31.1358059943
 20
-33.5590017046
 30
0.0
 10
-31.1547093052
 20
-32.5230585233
 30
0.0
 10
-31.1454518553
 20
-31.4877866185
 30
0.0
 10
-31.1470834567
 20
-30.4509061261
 30
0.0
 10
-31.1634104287
 20
-29.4076289845
 30
0.0
 10
-31.1989474687
 20
-28.0990568004
 30
0.0
 10
-31.2249411234
 20
-27.050789219
 30
0.0
 10
-31.2325023182
 20
-26.5257782357
 30
0.0
  0
SPLINE
  5
341
100
AcDbEntity
  8
RACCORDO
100
AcDbSpline
 62
250
  6
CONTINUOUS
 70
0
 71
3
 72
13
 73
9
 74
0
 42
0.0000001
 43
0.0000001
 44
0.0000000001
 40
0.0
 40
0.0
 40
0.0
 40
0.0
 40
0.2507943288
 40
0.3764509054
 40
0.5020074052
 40
0.627310895
 40
0.7521906538
 40
1.0
 40
1.0
 40
1.0
 40
1.0
 10
-5.4704304614
 20
38.5679518449
 30
0.0
 10
-5.6645720079
 20
37.4618940321
 30
0.0
 10
-5.9249675058
 20
35.7958111134
 30
0.0
 10
-6.190919283
 20
33.5635829802
 30
0.0
 10
-6.3470673536
 20
31.8847480212
 30
0.0
 10
-6.4646197098
 20
30.2062856844
 30
0.0
 10
-6.5770454885
 20
27.9792928417
 30
0.0
 10
-6.6047421885
 20
26.3095281806
 30
0.0
 10
-6.5838564684
 20
25.2001234675
 30
0.0
  0
SPLINE
  5
342
100
AcDbEntity
  8
RACCORDO
100
AcDbSpline
 62
250
  6
CONTINUOUS
 70
0
 71
3
 72
9
 73
5
 74
0
 42
0.0000001
 43
0.0000001
 44
0.0000000001
 40
0.0
 40
0.0
 40
0.0
 40
0.0
 40
0.2568599002
 40
1.0
 40
1.0
 40
1.0
 40
1.0
 10
-39.2708045067
 20
1.7225181088
 30
0.0
 10
-39.8576445465
 20
1.7912502602
 30
0.0
 10
-42.1414419604
 20
2.0661999305
 30
0.0
 10
-44.4216825282
 20
2.3709437581
 30
0.0
 10
-46.1134207014
 20
2.6162813508
 30
0.0
  0
SPLINE
  5
343
100
AcDbEntity
  8
RACCORDO
100
AcDbSpline
 62
250
  6
CONTINUOUS
 70
0
 71
3
 72
9
 73
5
 74
0
 42
0.0000001
 43
0.0000001
 44
0.0000000001
 40
0.0
 40
0.0
 40
0.0
 40
0.0
 40
0.2583461538
 40
1.0
 40
1.0
 40
1.0
 40
1.0
 10
-49.1287646471
 20
3.0747912564
 30
0.0
 10
-49.6472982924
 20
3.1574193822
 30
0.0
 10
-51.6531944739
 20
3.4848935388
 30
0.0
 10
-53.6540681749
 20
3.8434383956
 30
0.0
 10
-55.1340176005
 20
4.1296693379
 30
0.0
  0
LINE
  5
344
100
AcDbEntity
  8
0
100
AcDbLine
 62
7
  6
CONTINUOUS
 10
21.7400270308
 20
-34.3739948846
 11
22.2294463958
 21
-34.4310210252
  0
LINE
  5
345
100
AcDbEntity
  8
ASSI
100
AcDbLine
 62
7
  6
CONTINUOUS
 10
22.2474048511
 20
-36.1169845666
 11
21.9744979432
 21
-36.0852826075
  0
SPLINE
  5
346
100
AcDbEntity
  8
ASSI
100
AcDbSpline
 62
7
  6
CONTINUOUS
 70
0
 71
3
 72
15
 73
11
 74
0
 42
0.0000001
 43
0.0000001
 44
0.0000000001
 40
0.0
 40
0.0
 40
0.0
 40
0.0
 40
0.1120879037
 40
0.2296089829
 40
0.3550924961
 40
0.487317621
 40
0.6223048242
 40
0.7550814524
 40
0.8815084178
 40
1.0
 40
1.0
 40
1.0
 40
1.0
 10
24.9339783211
 20
-36.3580218721
 30
0.0
 10
25.012638102
 20
-36.3285452734
 30
0.0
 10
25.1623478584
 20
-36.232420142
 30
0.0
 10
25.3153473108
 20
-36.0073227196
 30
0.0
 10
25.3859082265
 20
-35.7299305235
 30
0.0
 10
25.3691908261
 20
-35.4319427759
 30
0.0
 10
25.2687689411
 20
-35.14538402
 30
0.0
 10
25.0954581796
 20
-34.9010599774
 30
0.0
 10
24.8675599789
 20
-34.7257035553
 30
0.0
 10
24.6883050825
 20
-34.6675612012
 30
0.0
 10
24.6000809434
 20
-34.657460682
 30
0.0
  0
SPLINE
  5
347
100
AcDbEntity
  8
0
100
AcDbSpline
 62
7
  6
CONTINUOUS
 70
0
 71
3
 72
9
 73
5
 74
0
 42
0.0000001
 43
0.0000001
 44
0.0000000001
 40
0.0
 40
0.0
 40
0.0
 40
0.0
 40
0.2503990457
 40
1.0
 40
1.0
 40
1.0
 40
1.0
 10
20.6289126138
 20
-34.2441903829
 30
0.0
 10
20.6334048584
 20
-34.4803211346
 30
0.0
 10
20.652414101
 20
-35.423317828
 30
0.0
 10
20.6772535848
 20
-36.3662004499
 30
0.0
 10
20.6996014719
 20
-37.0728621024
 30
0.0
  0
SPLINE
  5
348
100
AcDbEntity
  8
ASSI
100
AcDbSpline
 62
7
  6
CONTINUOUS
 70
0
 71
3
 72
8
 73
4
 74
0
 42
0.0000001
 43
0.0000001
 44
0.0000000001
 40
0.0
 40
0.0
 40
0.0
 40
0.0
 40
1.0
 40
1.0
 40
1.0
 40
1.0
 10
24.6000809468
 20
-34.6574625365
 30
0.0
 10
24.2168016745
 20
-34.6135820331
 30
0.0
 10
23.8335503551
 20
-34.5694570383
 30
0.0
 10
23.4503193325
 20
-34.5251571242
 30
0.0
  0
LINE
  5
349
100
AcDbEntity
  8
0
100
AcDbLine
 62
7
  6
CONTINUOUS
 10
19.889879042
 20
-34.1577265731
 11
20.6289126138
 21
-34.2441903829
  0
SPLINE
  5
34A
100
AcDbEntity
  8
ASSI
100
AcDbSpline
 62
7
  6
CONTINUOUS
 70
0
 71
3
 72
9
 73
5
 74
0
 42
0.0000001
 43
0.0000001
 44
0.0000000001
 40
0.0
 40
0.0
 40
0.0
 40
0.0
 40
0.2495736112
 40
1.0
 40
1.0
 40
1.0
 40
1.0
 10
20.8073320483
 20
-37.0378404821
 30
0.0
 10
20.7998839576
 20
-36.8025648005
 30
0.0
 10
20.7715414472
 20
-35.8598063945
 30
0.0
 10
20.750052028
 20
-34.9168493955
 30
0.0
 10
20.7365831556
 20
-34.2091882789
 30
0.0
  0
LINE
  5
34B
100
AcDbEntity
  8
ASSI
100
AcDbLine
 62
7
  6
CONTINUOUS
 10
24.3625794857
 20
-35.8393102743
 11
23.9620574982
 21
-35.7934250385
  0
SPLINE
  5
34C
100
AcDbEntity
  8
ASSI
100
AcDbSpline
 62
7
  6
CONTINUOUS
 70
0
 71
3
 72
8
 73
4
 74
0
 42
0.0000001
 43
0.0000001
 44
0.0000000001
 40
0.0
 40
0.0
 40
0.0
 40
0.0
 40
1.0
 40
1.0
 40
1.0
 40
1.0
 10
23.9620574982
 20
-35.7934250385
 30
0.0
 10
23.9581345798
 20
-35.6392122621
 30
0.0
 10
23.9543720823
 20
-35.48499534
 30
0.0
 10
23.9507514825
 20
-35.3307751698
 30
0.0
  0
SPLINE
  5
34D
100
AcDbEntity
  8
RACCORDO
100
AcDbSpline
 62
250
  6
CONTINUOUS
 70
0
 71
3
 72
9
 73
5
 74
0
 42
0.0000001
 43
0.0000001
 44
0.0000000001
 40
0.0
 40
0.0
 40
0.0
 40
0.0
 40
0.2458851815
 40
1.0
 40
1.0
 40
1.0
 40
1.0
 10
26.7323641575
 20
-6.0052842862
 30
0.0
 10
27.3987605274
 20
-6.0832807376
 30
0.0
 10
30.1101087315
 20
-6.390575315
 30
0.0
 10
32.825772385
 20
-6.6595096256
 30
0.0
 10
34.8753246515
 20
-6.8429843186
 30
0.0
  0
SPLINE
  5
34E
100
AcDbEntity
  8
RACCORDO
100
AcDbSpline
 62
250
  6
CONTINUOUS
 70
0
 71
3
 72
9
 73
5
 74
0
 42
0.0000001
 43
0.0000001
 44
0.0000000001
 40
0.0
 40
0.0
 40
0.0
 40
0.0
 40
0.2465363968
 40
1.0
 40
1.0
 40
1.0
 40
1.0
 10
34.8753246515
 20
-6.8429843186
 30
0.0
 10
35.7131439558
 20
-6.9179854016
 30
0.0
 10
39.1126740429
 20
-7.2090408973
 30
0.0
 10
42.5165315387
 20
-7.4490736194
 30
0.0
 10
45.0826428648
 20
-7.6039271611
 30
0.0
  0
SPLINE
  5
34F
100
AcDbEntity
  8
RACCORDO
100
AcDbSpline
 62
250
  6
CONTINUOUS
 70
0
 71
3
 72
11
 73
7
 74
0
 42
0.0000001
 43
0.0000001
 44
0.0000000001
 40
0.0
 40
0.0
 40
0.0
 40
0.0
 40
0.315168676
 40
0.5883122696
 40
0.8121582738
 40
1.0
 40
1.0
 40
1.0
 40
1.0
 10
-30.7950088459
 20
-38.9824985787
 30
0.0
 10
-30.7855729068
 20
-39.1206318944
 30
0.0
 10
-30.7466641272
 20
-39.3780220781
 30
0.0
 10
-30.6190793159
 20
-39.7145917247
 30
0.0
 10
-30.4319746844
 20
-39.9589228893
 30
0.0
 10
-30.2580737581
 20
-40.0393131228
 30
0.0
 10
-30.176108248
 20
-40.0488619025
 30
0.0
  0
SPLINE
  5
350
100
AcDbEntity
  8
ASSI
100
AcDbSpline
 62
250
  6
CONTINUOUS
 70
0
 71
3
 72
9
 73
5
 74
0
 42
0.0000001
 43
0.0000001
 44
0.0000000001
 40
0.0
 40
0.0
 40
0.0
 40
0.0
 40
0.2494859639
 40
1.0
 40
1.0
 40
1.0
 40
1.0
 10
19.3672063131
 20
-35.0990610488
 30
0.0
 10
19.3637377032
 20
-34.8783498607
 30
0.0
 10
19.3493134964
 20
-33.9936945176
 30
0.0
 10
19.3340630683
 20
-33.1090516126
 30
0.0
 10
19.3243319795
 20
-32.4450883713
 30
0.0
  0
SPLINE
  5
351
100
AcDbEntity
  8
RACCORDO
100
AcDbSpline
 62
250
  6
CONTINUOUS
 70
0
 71
3
 72
9
 73
5
 74
0
 42
0.0000001
 43
0.0000001
 44
0.0000000001
 40
0.0
 40
0.0
 40
0.0
 40
0.0
 40
0.5457178069
 40
1.0
 40
1.0
 40
1.0
 40
1.0
 10
19.874145556
 20
-44.9149594084
 30
0.0
 10
19.8851853231
 20
-45.0760949009
 30
0.0
 10
19.9331976974
 20
-45.3702105715
 30
0.0
 10
20.0570051959
 20
-45.6465301876
 30
0.0
 10
20.1380430074
 20
-45.7538152387
 30
0.0
  0
SPLINE
  5
352
100
AcDbEntity
  8
RACCORDO
100
AcDbSpline
 62
250
  6
CONTINUOUS
 70
0
 71
3
 72
9
 73
5
 74
0
 42
0.0000001
 43
0.0000001
 44
0.0000000001
 40
0.0
 40
0.0
 40
0.0
 40
0.0
 40
0.531850946
 40
1.0
 40
1.0
 40
1.0
 40
1.0
 10
20.1380430074
 20
-45.7538152387
 30
0.0
 10
20.1823463626
 20
-45.8124679545
 30
0.0
 10
20.2807118393
 20
-45.9135812517
 30
0.0
 10
20.4128768795
 20
-45.9691177033
 30
0.0
 10
20.4768015069
 20
-45.9791086741
 30
0.0
  0
SPLINE
  5
353
100
AcDbEntity
  8
RACCORDO
100
AcDbSpline
 62
250
  6
CONTINUOUS
 70
0
 71
3
 72
12
 73
8
 74
0
 42
0.0000001
 43
0.0000001
 44
0.0000000001
 40
0.0
 40
0.0
 40
0.0
 40
0.0
 40
0.4922703534
 40
0.6174238599
 40
0.7434918422
 40
0.8708047433
 40
1.0
 40
1.0
 40
1.0
 40
1.0
 10
19.8742206689
 20
-44.9149361454
 30
0.0
 10
23.7441186626
 20
-45.3634897303
 30
0.0
 10
28.5989418493
 20
-45.9179373993
 30
0.0
 10
34.4509131666
 20
-46.5308574285
 30
0.0
 10
37.4320838647
 20
-46.8258933607
 30
0.0
 10
40.4480690028
 20
-47.092780556
 30
0.0
 10
42.4724518368
 20
-47.2444245566
 30
0.0
 10
43.4924038364
 20
-47.3157923514
 30
0.0
  0
SPLINE
  5
354
100
AcDbEntity
  8
RACCORDO
100
AcDbSpline
 62
250
  6
CONTINUOUS
 70
0
 71
3
 72
13
 73
9
 74
0
 42
0.0000001
 43
0.0000001
 44
0.0000000001
 40
0.0
 40
0.0
 40
0.0
 40
0.0
 40
0.337036601
 40
0.6209715226
 40
0.7379012003
 40
0.8378225128
 40
0.9232791383
 40
1.0
 40
1.0
 40
1.0
 40
1.0
 10
43.4924023395
 20
-47.3157932486
 30
0.0
 10
43.4977386616
 20
-47.4605578785
 30
0.0
 10
43.5250070976
 20
-47.7269162016
 30
0.0
 10
43.6101538385
 20
-48.0354767322
 30
0.0
 10
43.7100535306
 20
-48.2271317368
 30
0.0
 10
43.7910359672
 20
-48.3300040798
 30
0.0
 10
43.8821490888
 20
-48.3991152877
 30
0.0
 10
43.9509641311
 20
-48.4193832516
 30
0.0
 10
43.9838263226
 20
-48.4221166929
 30
0.0
  0
SPLINE
  5
355
100
AcDbEntity
  8
RACCORDO
100
AcDbSpline
 62
250
  6
CONTINUOUS
 70
0
 71
3
 72
11
 73
7
 74
0
 42
0.0000001
 43
0.0000001
 44
0.0000000001
 40
0.0
 40
0.0
 40
0.0
 40
0.0
 40
0.2450661606
 40
0.4881110309
 40
0.7382922659
 40
1.0
 40
1.0
 40
1.0
 40
1.0
 10
43.4924023395
 20
-47.3157932486
 30
0.0
 10
43.7479310917
 20
-47.3336071157
 30
0.0
 10
44.2719019699
 20
-47.262068094
 30
0.0
 10
44.9392851768
 20
-46.8296746796
 30
0.0
 10
45.3803316484
 20
-46.1490967759
 30
0.0
 10
45.4743575723
 20
-45.6057997161
 30
0.0
 10
45.4699923385
 20
-45.3322914479
 30
0.0
  0
SPLINE
  5
356
100
AcDbEntity
  8
RACCORDO
100
AcDbSpline
 62
250
  6
CONTINUOUS
 70
0
 71
3
 72
10
 73
6
 74
0
 42
0.0000001
 43
0.0000001
 44
0.0000000001
 40
0.0
 40
0.0
 40
0.0
 40
0.0
 40
0.5505061536
 40
0.8018858881
 40
1.0
 40
1.0
 40
1.0
 40
1.0
 10
45.4699910883
 20
-45.3322921488
 30
0.0
 10
45.8005690652
 20
-45.3540953441
 30
0.0
 10
46.2858452218
 20
-45.3469300913
 30
0.0
 10
46.8828716434
 20
-45.270993275
 30
0.0
 10
47.1478021551
 20
-45.2100589572
 30
0.0
 10
47.2602456899
 20
-45.170420501
 30
0.0
  0
SPLINE
  5
357
100
AcDbEntity
  8
RACCORDO
100
AcDbSpline
 62
250
  6
CONTINUOUS
 70
0
 71
3
 72
13
 73
9
 74
0
 42
0.0000001
 43
0.0000001
 44
0.0000000001
 40
0.0
 40
0.0
 40
0.0
 40
0.0
 40
0.1248153226
 40
0.2498580405
 40
0.3749238684
 40
0.4999668316
 40
0.7499893725
 40
1.0
 40
1.0
 40
1.0
 40
1.0
 10
47.2602456899
 20
-45.170420501
 30
0.0
 10
47.2224950088
 20
-43.6021928447
 30
0.0
 10
47.1786899475
 20
-40.4621785088
 30
0.0
 10
47.1307841249
 20
-35.7504016817
 30
0.0
 10
47.0836871254
 20
-31.0357151557
 30
0.0
 10
47.0159466661
 20
-24.7504195857
 30
0.0
 10
46.9230293114
 20
-16.8949950177
 30
0.0
 10
46.8482104732
 20
-10.6110120092
 30
0.0
 10
46.8119981942
 20
-7.469081135
 30
0.0
  0
SPLINE
  5
358
100
AcDbEntity
  8
RACCORDO
100
AcDbSpline
 62
250
  6
CONTINUOUS
 70
0
 71
3
 72
12
 73
8
 74
0
 42
0.0000001
 43
0.0000001
 44
0.0000000001
 40
0.0
 40
0.0
 40
0.0
 40
0.0
 40
0.1247750525
 40
0.2498086809
 40
0.4999233932
 40
0.7499629746
 40
1.0
 40
1.0
 40
1.0
 40
1.0
 10
45.4699910883
 20
-45.3322921488
 30
0.0
 10
45.4446884047
 20
-43.7632301416
 30
0.0
 10
45.4147324032
 20
-40.6215502762
 30
0.0
 10
45.3658465136
 20
-34.3343408211
 30
0.0
 10
45.295573822
 20
-26.4718013466
 30
0.0
 10
45.1913791862
 20
-17.0373991726
 30
0.0
 10
45.1188844093
 20
-10.7484729871
 30
0.0
 10
45.0826437756
 20
-7.6040259226
 30
0.0
  0
SPLINE
  5
359
100
AcDbEntity
  8
RACCORDO
100
AcDbSpline
 62
250
  6
CONTINUOUS
 70
0
 71
3
 72
10
 73
6
 74
0
 42
0.0000001
 43
0.0000001
 44
0.0000000001
 40
0.0
 40
0.0
 40
0.0
 40
0.0
 40
0.5537141069
 40
0.8034591583
 40
1.0
 40
1.0
 40
1.0
 40
1.0
 10
45.0826440357
 20
-7.6040257325
 30
0.0
 10
45.4033593261
 20
-7.6233740138
 30
0.0
 10
45.8716553536
 20
-7.6193250012
 30
0.0
 10
46.4484140286
 20
-7.555221682
 30
0.0
 10
46.7031828748
 20
-7.5032199619
 30
0.0
 10
46.8119981942
 20
-7.469081135
 30
0.0
  0
SPLINE
  5
35A
100
AcDbEntity
  8
RACCORDO
100
AcDbSpline
 62
250
  6
CONTINUOUS
 70
0
 71
3
 72
13
 73
9
 74
0
 42
0.0000001
 43
0.0000001
 44
0.0000000001
 40
0.0
 40
0.0
 40
0.0
 40
0.0
 40
0.2497135872
 40
0.4994899699
 40
0.6243496247
 40
0.7491934701
 40
0.8741954716
 40
1.0
 40
1.0
 40
1.0
 40
1.0
 10
46.8119981942
 20
-7.469081135
 30
0.0
 10
46.7752712851
 20
-4.3256733541
 30
0.0
 10
46.70820898
 20
1.9620031517
 30
0.0
 10
46.6334508551
 20
9.8215468087
 30
0.0
 10
46.5660903983
 20
16.1090626648
 30
0.0
 10
46.5111098192
 20
20.8259768623
 30
0.0
 10
46.4656163145
 20
25.5544178536
 30
0.0
 10
46.4943813892
 20
28.7130791894
 30
0.0
 10
46.5665175244
 20
30.2951776258
 30
0.0
  0
SPLINE
  5
35B
100
AcDbEntity
  8
RACCORDO
100
AcDbSpline
 62
250
  6
CONTINUOUS
 70
0
 71
3
 72
13
 73
9
 74
0
 42
0.0000001
 43
0.0000001
 44
0.0000000001
 40
0.0
 40
0.0
 40
0.0
 40
0.0
 40
0.2496809106
 40
0.4994195126
 40
0.6242593438
 40
0.74908998
 40
0.874109838
 40
1.0
 40
1.0
 40
1.0
 40
1.0
 10
45.0826440357
 20
-7.6040257325
 30
0.0
 10
45.0450158275
 20
-4.4484652064
 30
0.0
 10
44.9767501456
 20
1.8634665324
 30
0.0
 10
44.9030263752
 20
9.7533160044
 30
0.0
 10
44.8370687083
 20
16.0651193813
 30
0.0
 10
44.7808580568
 20
20.8006624604
 30
0.0
 10
44.7263792992
 20
25.5491999329
 30
0.0
 10
44.725425002
 20
28.7212834563
 30
0.0
 10
44.7691778311
 20
30.3118417582
 30
0.0
  0
SPLINE
  5
35C
100
AcDbEntity
  8
RACCORDO
100
AcDbSpline
 62
250
  6
CONTINUOUS
 70
0
 71
3
 72
10
 73
6
 74
0
 42
0.0000001
 43
0.0000001
 44
0.0000000001
 40
0.0
 40
0.0
 40
0.0
 40
0.0
 40
0.5549467498
 40
0.8060827744
 40
1.0
 40
1.0
 40
1.0
 40
1.0
 10
44.7691780397
 20
30.3118418077
 30
0.0
 10
45.1006615009
 20
30.2809826849
 30
0.0
 10
45.5844412516
 20
30.2567753489
 30
0.0
 10
46.1842933064
 20
30.2629788984
 30
0.0
 10
46.4511726747
 20
30.2800503723
 30
0.0
 10
46.5665173584
 20
30.2951776461
 30
0.0
  0
SPLINE
  5
35D
100
AcDbEntity
  8
RACCORDO
100
AcDbSpline
 62
250
  6
CONTINUOUS
 70
0
 71
3
 72
12
 73
8
 74
0
 42
0.0000001
 43
0.0000001
 44
0.0000000001
 40
0.0
 40
0.0
 40
0.0
 40
0.0
 40
0.2601715813
 40
0.5180640248
 40
0.7648759262
 40
0.8837879159
 40
1.0
 40
1.0
 40
1.0
 40
1.0
 10
46.5665175244
 20
30.2951776258
 30
0.0
 10
46.5771356919
 20
30.7662161621
 30
0.0
 10
46.4321470589
 20
31.7148175397
 30
0.0
 10
45.7760532606
 20
32.9625349343
 30
0.0
 10
44.9135139021
 20
33.7379280093
 30
0.0
 10
44.1135668627
 20
34.100396518
 30
0.0
 10
43.6931432934
 20
34.1903550257
 30
0.0
 10
43.4837013741
 20
34.2109747451
 30
0.0
  0
SPLINE
  5
35E
100
AcDbEntity
  8
RACCORDO
100
AcDbSpline
 62
250
  6
CONTINUOUS
 70
0
 71
3
 72
11
 73
7
 74
0
 42
0.0000001
 43
0.0000001
 44
0.0000000001
 40
0.0
 40
0.0
 40
0.0
 40
0.0
 40
0.2596722833
 40
0.5164463363
 40
0.7635427787
 40
1.0
 40
1.0
 40
1.0
 40
1.0
 10
44.7691780397
 20
30.3118418077
 30
0.0
 10
44.7772746401
 20
30.6061344023
 30
0.0
 10
44.6883694033
 20
31.1982292826
 30
0.0
 10
44.2873885135
 20
31.9815972454
 30
0.0
 10
43.6679645989
 20
32.5744511188
 30
0.0
 10
43.1332933369
 20
32.771515534
 30
0.0
 10
42.8668996282
 20
32.801571008
 30
0.0
  0
SPLINE
  5
35F
100
AcDbEntity
  8
RACCORDO
100
AcDbSpline
 62
250
  6
CONTINUOUS
 70
0
 71
3
 72
11
 73
7
 74
0
 42
0.0000001
 43
0.0000001
 44
0.0000000001
 40
0.0
 40
0.0
 40
0.0
 40
0.0
 40
0.3082966022
 40
0.5903437078
 40
0.8239731981
 40
1.0
 40
1.0
 40
1.0
 40
1.0
 10
42.8669001388
 20
32.8015709798
 30
0.0
 10
42.8799898826
 20
32.9643299725
 30
0.0
 10
42.9270958861
 20
33.274656838
 30
0.0
 10
43.0591176944
 20
33.6932424354
 30
0.0
 10
43.2345339801
 20
34.0167041616
 30
0.0
 10
43.3988018118
 20
34.1724536898
 30
0.0
 10
43.4837013741
 20
34.2109747451
 30
0.0
  0
SPLINE
  5
360
100
AcDbEntity
  8
RACCORDO
100
AcDbSpline
 62
250
  6
CONTINUOUS
 70
0
 71
3
 72
9
 73
5
 74
0
 42
0.0000001
 43
0.0000001
 44
0.0000000001
 40
0.0
 40
0.0
 40
0.0
 40
0.0
 40
0.5069130259
 40
1.0
 40
1.0
 40
1.0
 40
1.0
 10
43.4837013741
 20
34.2109747451
 30
0.0
 10
40.3640228459
 20
34.4806628772
 30
0.0
 10
34.2216629022
 20
35.145070029
 30
0.0
 10
28.0878031858
 20
35.8738119175
 30
0.0
 10
25.0631870245
 20
36.2333221344
 30
0.0
  0
LINE
  5
361
100
AcDbEntity
  8
RACCORDO
100
AcDbLine
 62
250
  6
CONTINUOUS
 10
24.8851275267
 20
36.2544888764
 11
23.2708760508
 21
36.4465503631
  0
SPLINE
  5
362
100
AcDbEntity
  8
RACCORDO
100
AcDbSpline
 62
250
  6
CONTINUOUS
 70
0
 71
3
 72
9
 73
5
 74
0
 42
0.0000001
 43
0.0000001
 44
0.0000000001
 40
0.0
 40
0.0
 40
0.0
 40
0.0
 40
0.4994182988
 40
1.0
 40
1.0
 40
1.0
 40
1.0
 10
23.2708760508
 20
36.4465503631
 30
0.0
 10
18.607114108
 20
37.0017662935
 30
0.0
 10
9.268743272
 20
38.1136554165
 30
0.0
 10
-0.0713714239
 20
39.2108086948
 30
0.0
 10
-4.7470269615
 20
39.7586028674
 30
0.0
  0
SPLINE
  5
363
100
AcDbEntity
  8
RACCORDO
100
AcDbSpline
 62
250
  6
CONTINUOUS
 70
0
 71
3
 72
11
 73
7
 74
0
 42
0.0000001
 43
0.0000001
 44
0.0000000001
 40
0.0
 40
0.0
 40
0.0
 40
0.0
 40
0.2567099709
 40
0.5064520647
 40
0.7535810845
 40
1.0
 40
1.0
 40
1.0
 40
1.0
 10
42.8669001388
 20
32.8015709798
 30
0.0
 10
40.9258796874
 20
33.0205247822
 30
0.0
 10
37.0996824498
 20
33.4800574762
 30
0.0
 10
31.4069990574
 20
34.1675867284
 30
0.0
 10
25.7923201008
 20
34.8481156956
 30
0.0
 10
22.0639773218
 20
35.2985429118
 30
0.0
 10
20.2024039427
 20
35.5227390356
 30
0.0
  0
SPLINE
  5
364
100
AcDbEntity
  8
RACCORDO
100
AcDbSpline
 62
250
  6
CONTINUOUS
 70
0
 71
3
 72
9
 73
5
 74
0
 42
0.0000001
 43
0.0000001
 44
0.0000000001
 40
0.0
 40
0.0
 40
0.0
 40
0.0
 40
0.249895235
 40
1.0
 40
1.0
 40
1.0
 40
1.0
 10
20.2024039427
 20
35.5227390356
 30
0.0
 10
19.4994851711
 20
35.6073941268
 30
0.0
 10
16.6865824453
 20
35.9457503615
 30
0.0
 10
13.8734795044
 20
36.2824426035
 30
0.0
 10
11.7632352854
 20
36.5339695788
 30
0.0
  0
SPLINE
  5
365
100
AcDbEntity
  8
RACCORDO
100
AcDbSpline
 62
250
  6
CONTINUOUS
 70
0
 71
3
 72
9
 73
5
 74
0
 42
0.0000001
 43
0.0000001
 44
0.0000000001
 40
0.0
 40
0.0
 40
0.0
 40
0.0
 40
0.2497263252
 40
1.0
 40
1.0
 40
1.0
 40
1.0
 10
11.7632352854
 20
36.5339695788
 30
0.0
 10
10.3288768196
 20
36.7049354998
 30
0.0
 10
4.5849123408
 20
37.3875091757
 30
0.0
 10
-1.1598034739
 20
38.063755714
 30
0.0
 10
-5.4702844155
 20
38.5679355898
 30
0.0
  0
SPLINE
  5
366
100
AcDbEntity
  8
RACCORDO
100
AcDbSpline
 62
250
  6
CONTINUOUS
 70
0
 71
3
 72
11
 73
7
 74
0
 42
0.0000001
 43
0.0000001
 44
0.0000000001
 40
0.0
 40
0.0
 40
0.0
 40
0.0
 40
0.2994374324
 40
0.5731218593
 40
0.8076805934
 40
1.0
 40
1.0
 40
1.0
 40
1.0
 10
-5.4702837304
 20
38.5679348201
 30
0.0
 10
-5.4450547215
 20
38.7098983128
 30
0.0
 10
-5.3757264645
 20
38.9784978029
 30
0.0
 10
-5.2133792803
 20
39.3346193084
 30
0.0
 10
-5.0089270738
 20
39.6067470022
 30
0.0
 10
-4.8342405308
 20
39.7274592694
 30
0.0
 10
-4.7470269615
 20
39.7586028674
 30
0.0
  0
SPLINE
  5
367
100
AcDbEntity
  8
RACCORDO
100
AcDbSpline
 62
250
  6
CONTINUOUS
 70
0
 71
3
 72
13
 73
9
 74
0
 42
0.0000001
 43
0.0000001
 44
0.0000000001
 40
0.0
 40
0.0
 40
0.0
 40
0.0
 40
0.2513393707
 40
0.5031874198
 40
0.6292279735
 40
0.7549994546
 40
0.8795309873
 40
1.0
 40
1.0
 40
1.0
 40
1.0
 10
-4.7470269615
 20
39.7586028674
 30
0.0
 10
-8.7542574334
 20
40.2274731229
 30
0.0
 10
-16.7770988479
 20
41.163849987
 30
0.0
 10
-26.8109004145
 20
42.3230858672
 30
0.0
 10
-34.8428982882
 20
43.2462649431
 30
0.0
 10
-40.8440614679
 20
43.9406286199
 30
0.0
 10
-46.7536936375
 20
44.6466355324
 30
0.0
 10
-50.6526748209
 20
45.1654177318
 30
0.0
 10
-52.5644413675
 20
45.4565116266
 30
0.0
  0
SPLINE
  5
368
100
AcDbEntity
  8
RACCORDO
100
AcDbSpline
 62
250
  6
CONTINUOUS
 70
0
 71
3
 72
14
 73
10
 74
0
 42
0.0000001
 43
0.0000001
 44
0.0000000001
 40
0.0
 40
0.0
 40
0.0
 40
0.0
 40
0.2516947977
 40
0.5038583321
 40
0.6299431791
 40
0.7556046097
 40
0.8798200325
 40
0.9406662142
 40
1.0
 40
1.0
 40
1.0
 40
1.0
 10
-11.0850658094
 20
39.2241084186
 30
0.0
 10
-14.6380104179
 20
39.6381321129
 30
0.0
 10
-21.7510020135
 20
40.462796816
 30
0.0
 10
-30.6455730227
 20
41.4796353777
 30
0.0
 10
-37.7614400892
 20
42.2856141085
 30
0.0
 10
-43.0706392914
 20
42.8858096108
 30
0.0
 10
-47.4585344168
 20
43.3821278633
 30
0.0
 10
-50.9092427677
 20
43.7771594327
 30
0.0
 10
-52.6056362443
 20
43.9756233185
 30
0.0
 10
-53.4426612884
 20
44.0777153915
 30
0.0
  0
SPLINE
  5
369
100
AcDbEntity
  8
RACCORDO
100
AcDbSpline
 62
250
  6
CONTINUOUS
 70
0
 71
3
 72
10
 73
6
 74
0
 42
0.0000001
 43
0.0000001
 44
0.0000000001
 40
0.0
 40
0.0
 40
0.0
 40
0.0
 40
0.2894997657
 40
0.5622219307
 40
1.0
 40
1.0
 40
1.0
 40
1.0
 10
-53.4426627158
 20
44.0777154956
 30
0.0
 10
-53.4227711826
 20
44.2406349668
 30
0.0
 10
-53.3507416263
 20
44.5553933294
 30
0.0
 10
-53.1170790679
 20
45.0677301574
 30
0.0
 10
-52.8029241437
 20
45.3877381687
 30
0.0
 10
-52.5644408046
 20
45.4564850648
 30
0.0
  0
SPLINE
  5
36A
100
AcDbEntity
  8
RACCORDO
100
AcDbSpline
 62
250
  6
CONTINUOUS
 70
0
 71
3
 72
9
 73
5
 74
0
 42
0.0000001
 43
0.0000001
 44
0.0000000001
 40
0.0
 40
0.0
 40
0.0
 40
0.0
 40
0.500557671
 40
1.0
 40
1.0
 40
1.0
 40
1.0
 10
-52.5644413675
 20
45.4565116266
 30
0.0
 10
-52.7518895467
 20
45.4822489085
 30
0.0
 10
-53.1339573348
 20
45.4894314931
 30
0.0
 10
-53.5064306152
 20
45.403793433
 30
0.0
 10
-53.6840803478
 20
45.339915094
 30
0.0
  0
SPLINE
  5
36B
100
AcDbEntity
  8
RACCORDO
100
AcDbSpline
 62
250
  6
CONTINUOUS
 70
0
 71
3
 72
12
 73
8
 74
0
 42
0.0000001
 43
0.0000001
 44
0.0000000001
 40
0.0
 40
0.0
 40
0.0
 40
0.0
 40
0.1128391346
 40
0.2270340573
 40
0.4649918676
 40
0.7231154111
 40
1.0
 40
1.0
 40
1.0
 40
1.0
 10
-53.4426627158
 20
44.0777154956
 30
0.0
 10
-53.5582620376
 20
44.0918120326
 30
0.0
 10
-53.7958768835
 20
44.0885848504
 30
0.0
 10
-54.2622013294
 20
43.9572545381
 30
0.0
 10
-54.7854228854
 20
43.5675282983
 30
0.0
 10
-55.2014321301
 20
42.8685166976
 30
0.0
 10
-55.3167098673
 20
42.3173277045
 30
0.0
 10
-55.3329866908
 20
42.0320328833
 30
0.0
  0
SPLINE
  5
36C
100
AcDbEntity
  8
RACCORDO
100
AcDbSpline
 62
250
  6
CONTINUOUS
 70
0
 71
3
 72
11
 73
7
 74
0
 42
0.0000001
 43
0.0000001
 44
0.0000000001
 40
0.0
 40
0.0
 40
0.0
 40
0.0
 40
0.4042729825
 40
0.7106934125
 40
0.9071704351
 40
1.0
 40
1.0
 40
1.0
 40
1.0
 10
-55.3329867403
 20
42.0320328792
 30
0.0
 10
-55.4010418603
 20
42.0420491111
 30
0.0
 10
-55.5193968217
 20
42.0610108482
 30
0.0
 10
-55.6731708067
 20
42.098327326
 30
0.0
 10
-55.7630810793
 20
42.1265279202
 30
0.0
 10
-55.8124658351
 20
42.1620304844
 30
0.0
 10
-55.8117981944
 20
42.177811596
 30
0.0
  0
SPLINE
  5
36D
100
AcDbEntity
  8
RACCORDO
100
AcDbSpline
 62
250
  6
CONTINUOUS
 70
0
 71
3
 72
13
 73
9
 74
0
 42
0.0000001
 43
0.0000001
 44
0.0000000001
 40
0.0
 40
0.0
 40
0.0
 40
0.0
 40
0.1256917409
 40
0.2506720486
 40
0.3755309967
 40
0.5004167655
 40
0.7502453318
 40
1.0
 40
1.0
 40
1.0
 40
1.0
 10
-55.3329867403
 20
42.0320328792
 30
0.0
 10
-55.4234533571
 20
40.4464747202
 30
0.0
 10
-55.4763968707
 20
37.2777748018
 30
0.0
 10
-55.4377942068
 20
32.533427041
 30
0.0
 10
-55.3832707316
 20
27.7989150097
 30
0.0
 10
-55.3140436128
 20
21.4871349867
 30
0.0
 10
-55.2371417992
 20
13.5972169108
 30
0.0
 10
-55.1702964524
 20
7.2852528308
 30
0.0
 10
-55.1340187222
 20
4.1297678568
 30
0.0
  0
SPLINE
  5
36E
100
AcDbEntity
  8
RACCORDO
100
AcDbSpline
 62
250
  6
CONTINUOUS
 70
0
 71
3
 72
11
 73
7
 74
0
 42
0.0000001
 43
0.0000001
 44
0.0000000001
 40
0.0
 40
0.0
 40
0.0
 40
0.0
 40
0.3771246202
 40
0.6687941314
 40
0.8703285467
 40
1.0
 40
1.0
 40
1.0
 40
1.0
 10
-55.1340195465
 20
4.1297677331
 30
0.0
 10
-55.1943129426
 20
4.1414331585
 30
0.0
 10
-55.300738799
 20
4.165286909
 30
0.0
 10
-55.4348364773
 20
4.2128122273
 30
0.0
 10
-55.5244280009
 20
4.2609327889
 30
0.0
 10
-55.557269219
 20
4.3112355
 30
0.0
 10
-55.5575058606
 20
4.3323500642
 30
0.0
  0
SPLINE
  5
36F
100
AcDbEntity
  8
RACCORDO
100
AcDbSpline
 62
250
  6
CONTINUOUS
 70
0
 71
3
 72
13
 73
9
 74
0
 42
0.0000001
 43
0.0000001
 44
0.0000000001
 40
0.0
 40
0.0
 40
0.0
 40
0.0
 40
0.2499618543
 40
0.4999553966
 40
0.6249915774
 40
0.7500588059
 40
0.8751194315
 40
1.0
 40
1.0
 40
1.0
 40
1.0
 10
-55.1340195465
 20
4.1297677331
 30
0.0
 10
-55.0977762936
 20
0.9850828142
 30
0.0
 10
-55.0213180331
 20
-5.3046388825
 30
0.0
 10
-54.9235716483
 20
-13.16736173
 30
0.0
 10
-54.8498999585
 20
-19.4588940114
 30
0.0
 10
-54.7967948604
 20
-24.17873175
 30
0.0
 10
-54.7399913651
 20
-28.8965118445
 30
0.0
 10
-54.6854250512
 20
-32.0408225927
 30
0.0
 10
-54.6388707844
 20
-33.6113169603
 30
0.0
  0
SPLINE
  5
370
100
AcDbEntity
  8
RACCORDO
100
AcDbSpline
 62
250
  6
CONTINUOUS
 70
0
 71
3
 72
12
 73
8
 74
0
 42
0.0000001
 43
0.0000001
 44
0.0000000001
 40
0.0
 40
0.0
 40
0.0
 40
0.0
 40
0.3731049962
 40
0.6636622912
 40
0.7758508783
 40
0.8670540176
 40
1.0
 40
1.0
 40
1.0
 40
1.0
 10
-54.6388685137
 20
-33.611316376
 30
0.0
 10
-54.7054594905
 20
-33.5992078397
 30
0.0
 10
-54.8231508035
 20
-33.5732861924
 30
0.0
 10
-54.9571761061
 20
-33.528458889
 30
0.0
 10
-55.0363867706
 20
-33.4853967257
 30
0.0
 10
-55.0848160604
 20
-33.4491567723
 30
0.0
 10
-55.1090635927
 20
-33.4105609906
 30
0.0
 10
-55.1096323672
 20
-33.3864507083
 30
0.0
  0
SPLINE
  5
371
100
AcDbEntity
  8
RACCORDO
100
AcDbSpline
 62
250
  6
CONTINUOUS
 70
0
 71
3
 72
11
 73
7
 74
0
 42
0.0000001
 43
0.0000001
 44
0.0000000001
 40
0.0
 40
0.0
 40
0.0
 40
0.0
 40
0.26896328
 40
0.5340877177
 40
0.7800363805
 40
1.0
 40
1.0
 40
1.0
 40
1.0
 10
-54.6388685137
 20
-33.611316376
 30
0.0
 10
-54.6303767684
 20
-33.8966988116
 30
0.0
 10
-54.5251549738
 20
-34.4636263699
 30
0.0
 10
-54.1463962073
 20
-35.2125251643
 30
0.0
 10
-53.5968760611
 20
-35.7789907863
 30
0.0
 10
-53.1295203939
 20
-35.9900640339
 30
0.0
 10
-52.8994682152
 20
-36.0300119252
 30
0.0
  0
SPLINE
  5
372
100
AcDbEntity
  8
RACCORDO
100
AcDbSpline
 62
250
  6
CONTINUOUS
 70
0
 71
3
 72
11
 73
7
 74
0
 42
0.0000001
 43
0.0000001
 44
0.0000000001
 40
0.0
 40
0.0
 40
0.0
 40
0.0
 40
0.2967371053
 40
0.5626581717
 40
0.7933944717
 40
1.0
 40
1.0
 40
1.0
 40
1.0
 10
-52.8994670863
 20
-36.0300115387
 30
0.0
 10
-52.8914480984
 20
-36.1726049828
 30
0.0
 10
-52.8489947735
 20
-36.4427213335
 30
0.0
 10
-52.6984812302
 20
-36.7986785828
 30
0.0
 10
-52.4712439073
 20
-37.0597957958
 30
0.0
 10
-52.2699406215
 20
-37.1482390377
 30
0.0
 10
-52.1717120679
 20
-37.1637051319
 30
0.0
  0
SPLINE
  5
373
100
AcDbEntity
  8
RACCORDO
100
AcDbSpline
 62
250
  6
CONTINUOUS
 70
0
 71
3
 72
12
 73
8
 74
0
 42
0.0000001
 43
0.0000001
 44
0.0000000001
 40
0.0
 40
0.0
 40
0.0
 40
0.0
 40
0.1194119077
 40
0.241540207
 40
0.3653320928
 40
0.4902889875
 40
1.0
 40
1.0
 40
1.0
 40
1.0
 10
-52.8994670863
 20
-36.0300115387
 30
0.0
 10
-52.0247567812
 20
-36.1816339261
 30
0.0
 10
-50.2531127869
 20
-36.4751632862
 30
0.0
 10
-47.5665590931
 20
-36.8748036047
 30
0.0
 10
-44.8346935565
 20
-37.2482805564
 30
0.0
 10
-39.2432019458
 20
-37.9764358431
 30
0.0
 10
-34.5581760667
 20
-38.5374493538
 30
0.0
 10
-30.7950094692
 20
-38.9824665186
 30
0.0
  0
SPLINE
  5
374
100
AcDbEntity
  8
0
100
AcDbSpline
 62
7
  6
CONTINUOUS
 70
0
 71
3
 72
9
 73
5
 74
0
 42
0.0000001
 43
0.0000001
 44
0.0000000001
 40
0.0
 40
0.0
 40
0.0
 40
0.0
 40
0.2484569644
 40
1.0
 40
1.0
 40
1.0
 40
1.0
 10
22.989498585
 20
-29.34088677
 30
0.0
 10
22.9349215069
 20
-29.358708736
 30
0.0
 10
22.7114350981
 20
-29.4184130694
 30
0.0
 10
22.4750260396
 20
-29.4274748968
 30
0.0
 10
22.3025383006
 20
-29.4072796366
 30
0.0
  0
SPLINE
  5
375
100
AcDbEntity
  8
ASSI
100
AcDbSpline
 62
250
  6
CONTINUOUS
 70
0
 71
3
 72
10
 73
6
 74
0
 42
0.0000001
 43
0.0000001
 44
0.0000000001
 40
0.0
 40
0.0
 40
0.0
 40
0.0
 40
0.4963739027
 40
0.7510704303
 40
1.0
 40
1.0
 40
1.0
 40
1.0
 10
19.8395916407
 20
-44.9108732924
 30
0.0
 10
19.8021366236
 20
-43.5867050322
 30
0.0
 10
19.7865631808
 20
-41.5750889781
 30
0.0
 10
19.4021228144
 20
-38.936209343
 30
0.0
 10
19.3413785276
 20
-37.5814336256
 30
0.0
 10
19.4174797898
 20
-36.9214760437
 30
0.0
  0
SPLINE
  5
376
100
AcDbEntity
  8
RACCORDO
100
AcDbSpline
 62
250
  6
CONTINUOUS
 70
0
 71
3
 72
11
 73
7
 74
0
 42
0.0000001
 43
0.0000001
 44
0.0000000001
 40
0.0
 40
0.0
 40
0.0
 40
0.0
 40
0.2379958131
 40
0.481348694
 40
0.7350670121
 40
1.0
 40
1.0
 40
1.0
 40
1.0
 10
45.1662415447
 20
-48.3054053107
 30
0.0
 10
45.4737499625
 20
-48.2158148362
 30
0.0
 10
46.0681969715
 20
-47.9193670209
 30
0.0
 10
46.7563011948
 20
-47.1824030903
 30
0.0
 10
47.1829141465
 20
-46.2314873084
 30
0.0
 10
47.2669605231
 20
-45.5269025916
 30
0.0
 10
47.2602456899
 20
-45.170420501
 30
0.0
  0
SPLINE
  5
377
100
AcDbEntity
  8
0
100
AcDbSpline
 62
250
  6
CONTINUOUS
 70
0
 71
3
 72
9
 73
5
 74
0
 42
0.0000001
 43
0.0000001
 44
0.0000000001
 40
0.0
 40
0.0
 40
0.0
 40
0.0
 40
0.2531048551
 40
1.0
 40
1.0
 40
1.0
 40
1.0
 10
19.229625285
 20
-36.7941695478
 30
0.0
 10
19.223613318
 20
-36.6715587764
 30
0.0
 10
19.2132296064
 20
-36.1865365646
 30
0.0
 10
19.2557737311
 20
-35.7006364988
 30
0.0
 10
19.3146922484
 20
-35.3432093366
 30
0.0
  0
LINE
  5
378
100
AcDbEntity
  8
0
100
AcDbLine
 62
7
  6
CONTINUOUS
 10
24.4520557707
 20
-35.896850363
 11
24.55105768
 21
-35.8648830752
  0
SPLINE
  5
379
100
AcDbEntity
  8
0
100
AcDbSpline
 62
7
  6
CONTINUOUS
 70
0
 71
3
 72
8
 73
4
 74
0
 42
0.0000001
 43
0.0000001
 44
0.0000000001
 40
0.0
 40
0.0
 40
0.0
 40
0.0
 40
1.0
 40
1.0
 40
1.0
 40
1.0
 10
24.452053917
 20
-35.8968524364
 30
0.0
 10
24.487316061
 20
-35.9009454773
 30
0.0
 10
24.5242895353
 20
-35.8976072059
 30
0.0
 10
24.5580631961
 20
-35.8866750688
 30
0.0
  0
ELLIPSE
  5
37A
100
AcDbEntity
  8
ASSI
100
AcDbEllipse
 62
7
  6
CONTINUOUS
 10
47.6459171229
 20
29.6600605526
 30
0.0
 11
0.6909768763
 21
5.6580134598
 31
0.0
 40
0.5436852945
 41
-1.3294292723
 42
-1.1548597582
  0
ELLIPSE
  5
37B
100
AcDbEntity
  8
0
100
AcDbEllipse
 62
7
  6
CONTINUOUS
 10
-47.9574481098
 20
43.3227607363
 30
0.0
 11
3.6146432189
 21
-2.5945506002
 31
0.0
 40
0.4490333886
 41
2.4605848198
 42
2.8416820317
  0
ELLIPSE
  5
37C
100
AcDbEntity
  8
RACCORDO
100
AcDbEllipse
 62
7
  6
CONTINUOUS
 10
-29.9454591269
 20
-38.5858975561
 30
0.0
 11
0.1685688042
 21
1.4703719884
 31
0.0
 40
0.5221086334
 41
-3.142849033
 42
-2.9216374968
  0
ELLIPSE
  5
37D
100
AcDbEntity
  8
0
100
AcDbEllipse
 62
7
  6
CONTINUOUS
 10
48.0906946319
 20
32.0772238548
 30
0.0
 11
3.6146432189
 21
-2.5945506002
 31
0.0
 40
0.4490333886
 41
1.988570399
 42
2.4605848198
  0
ENDSEC
  0
SECTION
  2
OBJECTS
  0
DICTIONARY
  5
C
100
AcDbDictionary
280
0
281
1
  3
ACAD_GROUP
350
D
  3
ACAD_MLINESTYLE
350
17
  3
ACAD_LAYOUT
350
1A
  3
ACAD_PLOTSETTINGS
350
19
  3
ACAD_PLOTSTYLENAME
350
E
  0
DICTIONARY
  5
D
102
{ACAD_REACTORS
330
C
102
}
100
AcDbDictionary
280
0
281
1
  0
ACDBDICTIONARYWDFLT
  5
E
102
{ACAD_REACTORS
330
C
102
}
100
AcDbDictionary
281
1
  3
Normal
350
F
100
AcDbDictionaryWithDefault
340
F
  0
DICTIONARY
  5
17
102
{ACAD_REACTORS
330
C
102
}
100
AcDbDictionary
280
0
281
1
  3
Standard
350
18
  0
DICTIONARY
  5
19
102
{ACAD_REACTORS
330
C
102
}
100
AcDbDictionary
281
1
  0
DICTIONARY
  5
1A
102
{ACAD_REACTORS
330
C
102
}
100
AcDbDictionary
281
1
  3
Model
350
37E
  3
Layout1
350
37F
  0
ACDBPLACEHOLDER
  5
F
102
{ACAD_REACTORS
330
E
102
}
  0
MLINESTYLE
  5
18
102
{ACAD_REACTORS
330
17
102
}
100
AcDbMlineStyle
  2
STANDARD
 70
0
  3

 62
256
 51
90.0
 52
90.0
 71
2
 49
0.5
 62
256
  6
BYLAYER
 49
-0.5
 62
256
  6
BYLAYER
  0
LAYOUT
  5
37E
102
{ACAD_REACTORS
330
1A
102
}
100
AcDbPlotSettings
  1

  2
none_device
  4
ANSI_C_(22.00_x_17.00_Inches)
  6

 40
0.0
 41
0.0
 42
0.0
 43
0.0
 44
558.8
 45
431.8
 46
0.0
 47
0.0
 48
0.0
 49
0.0
140
0.0
141
0.0
142
1.0
143
1.0
 70
1024
 72
1
 73
0
 74
0
  7

 75
0
147
1.0
148
0.0
149
0.0
100
AcDbLayout
  1
Model
 70
0
 71
0
 10
0.0
 20
0.0
 11
558.8
 21
431.8
 12
0.0
 22
0.0
 32
0.0
 14
0.0
 24
0.0
 34
0.0
 15
0.0
 25
0.0
 35
0.0
146
0.0
 13
0.0
 23
0.0
 33
0.0
 16
1.0
 26
0.0
 36
0.0
 17
0.0
 27
1.0
 37
0.0
 76
0
330
217
345
0
346
0
  0
LAYOUT
  5
37F
102
{ACAD_REACTORS
330
1A
102
}
100
AcDbPlotSettings
  1

  2
none_device
  4
ANSI_C_(22.00_x_17.00_Inches)
  6

 40
0.0
 41
0.0
 42
0.0
 43
0.0
 44
558.8
 45
431.8
 46
0.0
 47
0.0
 48
0.0
 49
0.0
140
0.0
141
0.0
142
1.0
143
1.0
 70
0
 72
1
 73
0
 74
0
  7

 75
0
147
1.0
148
0.0
149
0.0
100
AcDbLayout
  1
Layout1
 70
0
 71
1
 10
0.0
 20
0.0
 11
558.8
 21
431.8
 12
0.0
 22
0.0
 32
0.0
 14
0.0
 24
0.0
 34
0.0
 15
0.0
 25
0.0
 35
0.0
146
0.0
 13
0.0
 23
0.0
 33
0.0
 16
1.0
 26
0.0
 36
0.0
 17
0.0
 27
1.0
 37
0.0
 76
0
330
218
345
0
346
0
  0
ENDSEC
  0
EOF
