  0
SECTION
  2
HEADER
  9
$ACADVER
  1
AC1024
  9
$DWGCODEPAGE
  3
ANSI_1252
  9
$EXTMAX
 10
558.8
 20
431.8
 30
0.0
  9
$EXTMIN
 10
0.0
 20
0.0
 30
0.0
  9
$LIMMIN
 10
0.0
 20
0.0
  9
$LIMMAX
 10
558.8
 20
431.8
  9
$VIEWCTR
 10
279.4
 20
215.9
  9
$VIEWSIZE
 40
431.8
  9
$CLAYER
  8
0
  9
$LTSCALE
 40
30.734
  9
$CELTYPE
  6
BYLAYER
  9
$DIMSCALE
 40
1.0
  9
$DIMASZ
 40
3.0
  9
$DIMEXO
 40
0.5
  9
$DIMDLI
 40
21.2344
  9
$DIMEXE
 40
1.5
  9
$DIMCEN
 40
5.0292
  9
$DIMLFAC
 40
1.0
  9
$DIMBLK
  1
_FILLED
  9
$DIMALT
 70
0
  9
$DIMALTF
 40
0.0393700787
  9
$DIMTXT
 40
3.0
  9
$DIMTOL
 70
1
  9
$DIMLIM
 70
0
  9
$DIMTFAC
 40
1.0
  9
$DIMTP
 40
0.01
  9
$DIMTM
 40
0.01
  9
$DIMGAP
 40
0.625
  9
$DIMDSEP
 70
44
  9
$AUNITS
 70
0
  9
$PDMODE
 70
3
  9
$PDSIZE
 40
3.0
  9
$HANDSEED
  5
37D
  9
$TILEMODE
 70
1
  9
$MEASUREMENT
 70
1
  9
$INSUNITS
 70
4
  0
ENDSEC
  0
SECTION
  2
CLASSES
  0
CLASS
  1
ACDBDICTIONARYWDFLT
  2
AcDbDictionaryWithDefault
  3
AutoCAD 2000
 90
0
 91
1
280
0
281
0
  0
CLASS
  1
ACDBPLACEHOLDER
  2
AcDbPlaceHolder
  3
AutoCAD 2000
 90
0
 91
1
280
0
281
0
  0
CLASS
  1
LAYOUT
  2
AcDbLayout
  3
AutoCAD 2000
 90
0
 91
0
280
0
281
0
  0
ENDSEC
  0
SECTION
  2
TABLES
  0
TABLE
  2
VPORT
  5
8
100
AcDbSymbolTable
 70
2
  0
VPORT
  5
1F4
100
AcDbSymbolTableRecord
100
AcDbViewportTableRecord
  2
*ACTIVE
 70
0
 10
0.0
 20
0.0
 11
1.0
 21
1.0
 12
279.4
 22
215.9
 13
0.0
 23
0.0
 14
1.0
 24
1.0
 15
0.0
 25
0.0
 16
0.0
 26
0.0
 36
1.0
 17
0.0
 27
0.0
 37
0.0
 40
431.8
 41
1.2941176471
 42
50.0
 43
0.0
 44
0.0
 50
0.0
 51
0.0
 71
0
 72
100
 73
1
 74
1
 75
0
 76
0
 77
0
 78
0
  0
ENDTAB
  0
TABLE
  2
LTYPE
  5
5
100
AcDbSymbolTable
 70
6
  0
LTYPE
  5
14
100
AcDbSymbolTableRecord
100
AcDbLinetypeTableRecord
  2
BYBLOCK
 70
0
  3

 72
65
 73
0
 40
0.0
  0
LTYPE
  5
15
100
AcDbSymbolTableRecord
100
AcDbLinetypeTableRecord
  2
BYLAYER
 70
0
  3

 72
65
 73
0
 40
0.0
  0
LTYPE
  5
16
100
AcDbSymbolTableRecord
100
AcDbLinetypeTableRecord
  2
CONTINUOUS
 70
64
  3
Solid line
 72
65
 73
0
 40
0.0
  0
LTYPE
  5
1F5
100
AcDbSymbolTableRecord
100
AcDbLinetypeTableRecord
  2
CENTER
 70
64
  3
____ _ ____ _ ____ _ ____ _ ____ _ ____ _ ____
 72
65
 73
4
 40
0.6
 49
0.375
 74
0
 49
-0.075
 74
0
 49
0.075
 74
0
 49
-0.075
 74
0
  0
LTYPE
  5
1F6
100
AcDbSymbolTableRecord
100
AcDbLinetypeTableRecord
  2
HIDDEN
 70
64
  3
- - - - - - - - - - - - - - - - - - - -
 72
65
 73
2
 40
0.2
 49
0.1
 74
0
 49
-0.1
 74
0
  0
LTYPE
  5
1F7
100
AcDbSymbolTableRecord
100
AcDbLinetypeTableRecord
  2
PHANTOM
 70
64
  3
_____ _ _ _____ _ _ _____ _ _ _____
 72
65
 73
6
 40
0.8
 49
0.45
 74
0
 49
-0.05
 74
0
 49
0.1
 74
0
 49
-0.05
 74
0
 49
0.1
 74
0
 49
-0.05
 74
0
  0
LTYPE
  5
1F8
100
AcDbSymbolTableRecord
100
AcDbLinetypeTableRecord
  2
DOT
 70
64
  3
. . . . . . . . . . . . . . . . . . . .
 72
65
 73
2
 40
0.2
 49
0.1
 74
0
 49
-0.1
 74
0
  0
LTYPE
  5
1F9
100
AcDbSymbolTableRecord
100
AcDbLinetypeTableRecord
  2
DASHED
 70
64
  3
- - - - - - - - - - - - - - - - - - - -
 72
65
 73
2
 40
0.2
 49
0.1
 74
0
 49
-0.1
 74
0
  0
ENDTAB
  0
TABLE
  2
LAYER
  5
2
100
AcDbSymbolTable
 70
36
  0
LAYER
  5
10
100
AcDbSymbolTableRecord
100
AcDbLayerTableRecord
  2
0
 70
0
 62
7
  6
CONTINUOUS
370
-3
390
F
  0
LAYER
  5
1FA
100
AcDbSymbolTableRecord
100
AcDbLayerTableRecord
  2
DEFAULT_1
 70
0
 62
7
  6
CENTER
370
-3
390
F
  0
LAYER
  5
1FB
100
AcDbSymbolTableRecord
100
AcDbLayerTableRecord
  2
DEFAULT_2
 70
0
 62
7
  6
HIDDEN
370
-3
390
F
  0
LAYER
  5
1FC
100
AcDbSymbolTableRecord
100
AcDbLayerTableRecord
  2
DEFAULT_3
 70
0
 62
7
  6
PHANTOM
370
-3
390
F
  0
LAYER
  5
1FD
100
AcDbSymbolTableRecord
100
AcDbLayerTableRecord
  2
ASSI
 70
0
 62
7
  6
CONTINUOUS
370
-3
390
F
  0
LAYER
  5
1FE
100
AcDbSymbolTableRecord
100
AcDbLayerTableRecord
  2
COLOR5
 70
0
 62
7
  6
CONTINUOUS
370
-3
390
F
  0
LAYER
  5
1FF
100
AcDbSymbolTableRecord
100
AcDbLayerTableRecord
  2
COORDINATE
 70
0
 62
7
  6
CONTINUOUS
370
-3
390
F
  0
LAYER
  5
200
100
AcDbSymbolTableRecord
100
AcDbLayerTableRecord
  2
COORD_ORIGINE
 70
0
 62
7
  6
CONTINUOUS
370
-3
390
F
  0
LAYER
  5
201
100
AcDbSymbolTableRecord
100
AcDbLayerTableRecord
  2
COPY
 70
0
 62
7
  6
CONTINUOUS
370
-3
390
F
  0
LAYER
  5
202
100
AcDbSymbolTableRecord
100
AcDbLayerTableRecord
  2
CURVE
 70
0
 62
7
  6
CONTINUOUS
370
-3
390
F
  0
LAYER
  5
203
100
AcDbSymbolTableRecord
100
AcDbLayerTableRecord
  2
DRAFT
 70
0
 62
7
  6
CONTINUOUS
370
-3
390
F
  0
LAYER
  5
204
100
AcDbSymbolTableRecord
100
AcDbLayerTableRecord
  2
IGES
 70
0
 62
7
  6
CONTINUOUS
370
-3
390
F
  0
LAYER
  5
205
100
AcDbSymbolTableRecord
100
AcDbLayerTableRecord
  2
IGS
 70
0
 62
7
  6
CONTINUOUS
370
-3
390
F
  0
LAYER
  5
206
100
AcDbSymbolTableRecord
100
AcDbLayerTableRecord
  2
NOTE
 70
0
 62
7
  6
CONTINUOUS
370
-3
390
F
  0
LAYER
  5
207
100
AcDbSymbolTableRecord
100
AcDbLayerTableRecord
  2
PIANI
 70
0
 62
7
  6
CONTINUOUS
370
-3
390
F
  0
LAYER
  5
208
100
AcDbSymbolTableRecord
100
AcDbLayerTableRecord
  2
PIANI_ORIGINE
 70
0
 62
7
  6
CONTINUOUS
370
-3
390
F
  0
LAYER
  5
209
100
AcDbSymbolTableRecord
100
AcDbLayerTableRecord
  2
PIANI_RIFERIMENTO
 70
0
 62
7
  6
CONTINUOUS
370
-3
390
F
  0
LAYER
  5
20A
100
AcDbSymbolTableRecord
100
AcDbLayerTableRecord
  2
PUNTI
 70
0
 62
7
  6
CONTINUOUS
370
-3
390
F
  0
LAYER
  5
20B
100
AcDbSymbolTableRecord
100
AcDbLayerTableRecord
  2
RACCORDO
 70
0
 62
7
  6
CONTINUOUS
370
-3
390
F
  0
LAYER
  5
20C
100
AcDbSymbolTableRecord
100
AcDbLayerTableRecord
  2
SMUSSO
 70
0
 62
7
  6
CONTINUOUS
370
-3
390
F
  0
LAYER
  5
20D
100
AcDbSymbolTableRecord
100
AcDbLayerTableRecord
  2
SNAPLINE
 70
0
 62
7
  6
CONTINUOUS
370
-3
390
F
  0
LAYER
  5
20E
100
AcDbSymbolTableRecord
100
AcDbLayerTableRecord
  2
SOLIDO
 70
0
 62
7
  6
CONTINUOUS
370
-3
390
F
  0
LAYER
  5
20F
100
AcDbSymbolTableRecord
100
AcDbLayerTableRecord
  2
SUPERFICI
 70
0
 62
7
  6
CONTINUOUS
370
-3
390
F
  0
LAYER
  5
210
100
AcDbSymbolTableRecord
100
AcDbLayerTableRecord
  2
TESTO
 70
0
 62
7
  6
CONTINUOUS
370
-3
390
F
  0
LAYER
  5
211
100
AcDbSymbolTableRecord
100
AcDbLayerTableRecord
  2
TRASH
 70
0
 62
7
  6
CONTINUOUS
370
-3
390
F
  0
LAYER
  5
212
100
AcDbSymbolTableRecord
100
AcDbLayerTableRecord
  2
XSEC_DATUMS
 70
0
 62
7
  6
CONTINUOUS
370
-3
390
F
  0
ENDTAB
  0
TABLE
  2
STYLE
  5
3
100
AcDbSymbolTable
 70
1
  0
STYLE
  5
11
100
AcDbSymbolTableRecord
100
AcDbTextStyleTableRecord
  2
STANDARD
 70
0
 40
0.0
 41
0.8
 50
0.0
 71
0
 42
0.2
  3
txt
  4

  0
STYLE
  5
213
100
AcDbSymbolTableRecord
100
AcDbTextStyleTableRecord
  2
TEXTSTYLE_1
 70
0
 40
0.0
 41
0.8
 50
0.0
 71
0
 42
0.2
  3
gdt
  4

  0
ENDTAB
  0
TABLE
  2
VIEW
  5
6
100
AcDbSymbolTable
 70
0
  0
ENDTAB
  0
TABLE
  2
UCS
  5
7
100
AcDbSymbolTable
 70
0
  0
ENDTAB
  0
TABLE
  2
APPID
  5
9
100
AcDbSymbolTable
 70
1
  0
APPID
  5
214
100
AcDbSymbolTableRecord
100
AcDbRegAppTableRecord
  2
ACAD
 70
0
  0
ENDTAB
  0
TABLE
  2
BLOCK_RECORD
  5
1
100
AcDbSymbolTable
 70
0
  0
BLOCK_RECORD
  5
215
100
AcDbSymbolTableRecord
100
AcDbBlockTableRecord
  2
*Model_Space
  0
BLOCK_RECORD
  5
216
100
AcDbSymbolTableRecord
100
AcDbBlockTableRecord
  2
*Paper_Space
  0
BLOCK_RECORD
  5
217
100
AcDbSymbolTableRecord
100
AcDbBlockTableRecord
  2
_FILLED
  0
ENDTAB
  0
TABLE
  2
DIMSTYLE
  5
A
100
AcDbSymbolTable
 70
1
100
AcDbDimStyleTable
 71
0
  0
DIMSTYLE
105
218
100
AcDbSymbolTableRecord
100
AcDbDimStyleTableRecord
  2
STANDARD
 70
0
  3

  4

 40
1.0
 41
3.0
 42
0.5
 43
0.38
 44
1.5
 45
0.0
 46
0.0
 47
0.01
 48
0.01
140
3.0
141
0.09
142
0.0
143
25.4
144
1.0
145
0.0
146
1.0
147
0.625
 71
1
 72
0
 73
0
 74
0
 75
0
 76
0
 77
1
 78
8
 79
2
170
0
171
1
172
0
173
0
174
0
175
0
176
0
177
0
178
0
270
2
179
2
271
2
272
2
273
2
274
2
275
0
280
0
281
0
282
0
283
1
284
8
285
0
286
0
287
3
288
0
340
11
278
44
341
217
342
217
343
217
344
217
  0
ENDTAB
  0
ENDSEC
  0
SECTION
  2
BLOCKS
  0
BLOCK
  5
20
100
AcDbEntity
  8
0
100
AcDbBlockBegin
  2
*Model_Space
 70
0
 10
0.0
 20
0.0
 30
0.0
  3
*Model_Space
  1

  0
ENDBLK
  5
21
100
AcDbEntity
  8
0
100
AcDbBlockEnd
  0
BLOCK
  5
1C
100
AcDbEntity
  8
0
100
AcDbBlockBegin
  2
*Paper_Space
 70
0
 10
0.0
 20
0.0
 30
0.0
  3
*Paper_Space
  1

  0
ENDBLK
  5
1D
100
AcDbEntity
  8
0
100
AcDbBlockEnd
  0
BLOCK
  5
219
100
AcDbEntity
  8
0
100
AcDbBlockBegin
  2
_FILLED
 70
64
 10
0.0
 20
0.0
  3
_FILLED
  1

  0
SOLID
  5
21A
100
AcDbEntity
  8
0
  6
BYBLOCK
 62
0
100
AcDbTrace
 10
0.0
 20
0.0
 11
-1.0
 21
0.3166666667
 12
-1.0
 22
-0.3166666667
 13
-1.0
 23
-0.3166666667
  0
ENDBLK
  5
21B
100
AcDbEntity
  8
0
  6
BYBLOCK
 62
0
100
AcDbBlockEnd
  0
ENDSEC
  0
SECTION
  2
ENTITIES
  0
LWPOLYLINE
  5
21C
100
AcDbEntity
  8
RACCORDO
100
AcDbPolyline
 62
7
  6
CONTINUOUS
 90
40
 70
0
 10
-57.6785186319
 20
58.9821436489
 10
-57.7027691175
 20
58.9662599096
 10
-57.7510207302
 20
58.9333527973
 10
-57.7985712883
 20
58.8991577301
 10
-57.8453757886
 20
58.8636989822
 10
-57.8914180154
 20
58.8269811139
 10
-57.9367082865
 20
58.788985201
 10
-57.9812154792
 20
58.7497243933
 10
-58.0249084468
 20
58.709213498
 10
-58.0677942376
 20
58.6674309982
 10
-58.1098414561
 20
58.6243900265
 10
-58.1510187837
 20
58.5801053941
 10
-58.1913301576
 20
58.5345530413
 10
-58.2307428865
 20
58.4877474009
 10
-58.2692267228
 20
58.439701954
 10
-58.3067857393
 20
58.3903858099
 10
-58.3433865062
 20
58.3398136574
 10
-58.3789987396
 20
58.2879979658
 10
-58.4136268937
 20
58.2348983871
 10
-58.4472412827
 20
58.1805214069
 10
-58.4798057399
 20
58.1248858885
 10
-58.5113111804
 20
58.0679641808
 10
-58.5417362168
 20
58.0097454509
 10
-58.5710358561
 20
57.9502650729
 10
-58.5991673963
 20
57.8895619646
 10
-58.6261043968
 20
57.8276459381
 10
-58.6518173667
 20
57.7645359628
 10
-58.6762660626
 20
57.7002843219
 10
-58.6994281328
 20
57.6349050648
 10
-58.7212809153
 20
57.5684153368
 10
-58.7417912147
 20
57.5008716121
 10
-58.7609414701
 20
57.4322893019
 10
-58.7787143501
 20
57.3626849656
 10
-58.7950840108
 20
57.2921163564
 10
-58.8100369372
 20
57.2206003919
 10
-58.8235603578
 20
57.1481519363
 10
-58.8356355475
 20
57.0748255703
 10
-58.8462507122
 20
57.0006500216
 10
-58.8553980917
 20
56.9256280272
 10
-58.8617398327
 20
56.8640897116
  0
LWPOLYLINE
  5
21D
100
AcDbEntity
  8
RACCORDO
100
AcDbPolyline
 62
7
  6
CONTINUOUS
 90
42
 70
0
 10
-53.0155009524
 20
62.1274635388
 10
-53.0166762253
 20
62.1267011728
 10
-53.0277797522
 20
62.1192048975
 10
-53.038633255
 20
62.1113450908
 10
-53.0492101873
 20
62.1031513138
 10
-53.0595162643
 20
62.0946306936
 10
-53.0695461561
 20
62.0857989858
 10
-53.0792613805
 20
62.076705043
 10
-53.0886605567
 20
62.0673688547
 10
-53.0977541753
 20
62.0577986034
 10
-53.1065257456
 20
62.0480316826
 10
-53.1149737678
 20
62.0380925986
 10
-53.1231144759
 20
62.0279850658
 10
-53.1309591696
 20
62.0177166486
 10
-53.1385133999
 20
62.007301512
 10
-53.1457871981
 20
61.9967472609
 10
-53.1527974197
 20
61.9860496371
 10
-53.1595512254
 20
61.9752169097
 10
-53.16605622
 20
61.9642560906
 10
-53.1723281329
 20
61.953158807
 10
-53.1783737427
 20
61.9419301024
 10
-53.1841995766
 20
61.930574904
 10
-53.1898191406
 20
61.919082951
 10
-53.1952382828
 20
61.9074573165
 10
-53.2004627312
 20
61.8957007546
 10
-53.2055040449
 20
61.8838013092
 10
-53.2103661518
 20
61.8717629192
 10
-53.2150549033
 20
61.8595843121
 10
-53.2195828748
 20
61.8472443126
 10
-53.2239538537
 20
61.8347424788
 10
-53.2281715069
 20
61.8220781527
 10
-53.2322463017
 20
61.8092280719
 10
-53.236181248
 20
61.7961891042
 10
-53.2399786174
 20
61.7829599394
 10
-53.2436461003
 20
61.769518472
 10
-53.2471857052
 20
61.7558602663
 10
-53.2505988286
 20
61.7419825914
 10
-53.2538908728
 20
61.7278646154
 10
-53.2570629904
 20
61.713500739
 10
-53.2601157928
 20
61.6988871106
 10
-53.263052739
 20
61.6840045277
 10
-53.2638762526
 20
61.6795803092
  0
LINE
  5
21E
100
AcDbEntity
  8
DRAFT
100
AcDbLine
 62
7
  6
CONTINUOUS
 10
-47.3034040939
 20
65.8185467787
 11
-53.0155012916
 21
62.1274633188
  0
LINE
  5
21F
100
AcDbEntity
  8
SUPERFICI
100
AcDbLine
 62
7
  6
CONTINUOUS
 10
-57.6785527364
 20
58.982121612
 11
-53.4648030534
 21
61.7049922532
  0
LINE
  5
220
100
AcDbEntity
  8
DRAFT
100
AcDbLine
 62
250
  6
CONTINUOUS
 10
-51.9272383439
 20
61.3722796133
 11
-45.0973591647
 21
65.7177211812
  0
LINE
  5
221
100
AcDbEntity
  8
RACCORDO
100
AcDbLine
 62
250
  6
CONTINUOUS
 10
-52.5242168575
 20
60.8973360337
 11
-55.7296216849
 21
58.8579294523
  0
LINE
  5
222
100
AcDbEntity
  8
RACCORDO
100
AcDbLine
 62
250
  6
CONTINUOUS
 10
-52.2166954259
 20
61.0276733533
 11
-52.409056162
 21
60.9093448823
  0
LWPOLYLINE
  5
223
100
AcDbEntity
  8
RACCORDO
100
AcDbPolyline
 62
7
  6
CONTINUOUS
 90
61
 70
0
 10
-60.6053793339
 20
-6.6405563219
 10
-60.6058062419
 20
-6.7014085459
 10
-60.6049678916
 20
-6.7774045825
 10
-60.6026375929
 20
-6.8534477923
 10
-60.5988452501
 20
-6.9295349498
 10
-60.5936194316
 20
-7.005643921
 10
-60.5869899576
 20
-7.0817262049
 10
-60.5789835028
 20
-7.1577669016
 10
-60.5696247822
 20
-7.2337532192
 10
-60.5589429485
 20
-7.3096309616
 10
-60.546962685
 20
-7.385379911
 10
-60.5337055903
 20
-7.4609905577
 10
-60.5191987241
 20
-7.536417302
 10
-60.5034668939
 20
-7.6116282049
 10
-60.4865273241
 20
-7.6866230528
 10
-60.4683959353
 20
-7.7613979876
 10
-60.4490912039
 20
-7.8359324875
 10
-60.4286291216
 20
-7.9102121991
 10
-60.4070199831
 20
-7.984238068
 10
-60.3842781612
 20
-8.0579916369
 10
-60.3604176331
 20
-8.131453398
 10
-60.3354462383
 20
-8.2046195235
 10
-60.3093759249
 20
-8.2774704155
 10
-60.2822187906
 20
-8.3499845304
 10
-60.2539813924
 20
-8.4221530433
 10
-60.2246744033
 20
-8.4939541285
 10
-60.1943083155
 20
-8.5653654385
 10
-60.1628880137
 20
-8.6363762265
 10
-60.1304231992
 20
-8.7069629522
 10
-60.0969232431
 20
-8.7771021699
 10
-60.0623909371
 20
-8.8467828723
 10
-60.0268347773
 20
-8.9159808102
 10
-59.9902635789
 20
-8.98467065
 10
-59.9526787029
 20
-9.0528399701
 10
-59.9140876213
 20
-9.1204636938
 10
-59.8744985645
 20
-9.1875149985
 10
-59.8339117649
 20
-9.2539796367
 10
-59.7923336302
 20
-9.319831752
 10
-59.749771688
 20
-9.385043239
 10
-59.7062251038
 20
-9.4495978376
 10
-59.6616929304
 20
-9.5134775024
 10
-59.6161875513
 20
-9.5766441476
 10
-59.5697257927
 20
-9.6390544043
 10
-59.522307732
 20
-9.7006875539
 10
-59.4739437219
 20
-9.7615084798
 10
-59.4246644995
 20
-9.8214576897
 10
-59.3744748937
 20
-9.8805088244
 10
-59.3233795467
 20
-9.9386346605
 10
-59.2714068055
 20
-9.99578124
 10
-59.2185588165
 20
-10.0519243382
 10
-59.1648398881
 20
-10.1070359864
 10
-59.1102781117
 20
-10.1610638359
 10
-59.05487273
 20
-10.2139846589
 10
-58.9986266789
 20
-10.2657698923
 10
-58.9415689402
 20
-10.3163668382
 10
-58.8836984863
 20
-10.3657499101
 10
-58.82501375
 20
-10.4138919343
 10
-58.7655371465
 20
-10.4607451666
 10
-58.7052720293
 20
-10.5062769963
 10
-58.6442066968
 20
-10.5504640527
 10
-58.5938120662
 20
-10.5854814885
  0
LINE
  5
224
100
AcDbEntity
  8
RACCORDO
100
AcDbLine
 62
7
  6
CONTINUOUS
 10
-59.3561478163
 20
43.6421928869
 11
-59.4098133105
 21
41.4104237893
  0
LINE
  5
225
100
AcDbEntity
  8
RACCORDO
100
AcDbLine
 62
7
  6
CONTINUOUS
 10
-59.2550655546
 20
47.9050730188
 11
-59.3561478163
 21
43.6421928869
  0
LINE
  5
226
100
AcDbEntity
  8
RACCORDO
100
AcDbLine
 62
7
  6
CONTINUOUS
 10
-59.9408444898
 20
20.3490276401
 11
-60.2222852446
 21
8.8266215122
  0
LINE
  5
227
100
AcDbEntity
  8
RACCORDO
100
AcDbLine
 62
7
  6
CONTINUOUS
 10
-60.2222852446
 20
8.8266215122
 11
-60.2876052871
 21
6.1730741275
  0
LINE
  5
228
100
AcDbEntity
  8
RACCORDO
100
AcDbLine
 62
7
  6
CONTINUOUS
 10
-59.4098133105
 20
41.4104237893
 11
-59.452132117
 21
39.6894146488
  0
LWPOLYLINE
  5
229
100
AcDbEntity
  8
RACCORDO
100
AcDbPolyline
 62
7
  6
CONTINUOUS
 90
4
 70
0
 10
-60.5349630859
 20
-3.4680883913
 10
-60.5622421169
 20
-4.5572188321
 10
-60.5865219523
 20
-5.6190357039
 10
-60.6053797678
 20
-6.6405847993
  0
LWPOLYLINE
  5
22A
100
AcDbEntity
  8
RACCORDO
100
AcDbPolyline
 62
7
  6
CONTINUOUS
 90
4
 70
0
 10
-60.2876052871
 20
6.1730741275
 10
-60.3515495529
 20
3.614366901
 10
-60.3830695676
 20
2.371530573
 10
-60.4143451197
 20
1.1529974123
  0
LINE
  5
22B
100
AcDbEntity
  8
RACCORDO
100
AcDbLine
 62
7
  6
CONTINUOUS
 10
-59.7572336532
 20
27.7565228092
 11
-59.9408444898
 21
20.3490276401
  0
LINE
  5
22C
100
AcDbEntity
  8
RACCORDO
100
AcDbLine
 62
7
  6
CONTINUOUS
 10
-59.452132117
 20
39.6894146488
 11
-59.496316344
 21
37.9263466263
  0
LINE
  5
22D
100
AcDbEntity
  8
RACCORDO
100
AcDbLine
 62
7
  6
CONTINUOUS
 10
-59.7060542184
 20
29.7667235263
 11
-59.7572336532
 21
27.7565228092
  0
LINE
  5
22E
100
AcDbEntity
  8
RACCORDO
100
AcDbLine
 62
7
  6
CONTINUOUS
 10
-59.496316344
 20
37.9263466263
 11
-59.5423519799
 21
36.1197589149
  0
LWPOLYLINE
  5
22F
100
AcDbEntity
  8
RACCORDO
100
AcDbPolyline
 62
7
  6
CONTINUOUS
 90
3
 70
0
 10
-59.573958583
 20
34.8905486418
 10
-59.6723281926
 20
31.0794736327
 10
-59.7060542184
 20
29.7667235263
  0
LINE
  5
230
100
AcDbEntity
  8
RACCORDO
100
AcDbLine
 62
7
  6
CONTINUOUS
 10
-59.5423519799
 20
36.1197589149
 11
-59.573958583
 21
34.8905486418
  0
LINE
  5
231
100
AcDbEntity
  8
RACCORDO
100
AcDbLine
 62
7
  6
CONTINUOUS
 10
-60.4143451197
 20
1.1529974123
 11
-60.5349630859
 21
-3.4680883913
  0
LWPOLYLINE
  5
232
100
AcDbEntity
  8
RACCORDO
100
AcDbPolyline
 62
7
  6
CONTINUOUS
 90
19
 70
0
 10
-58.8617400039
 20
56.8640879205
 10
-58.8991590458
 20
56.4491898314
 10
-58.9345246093
 20
56.0154490729
 10
-58.9667594725
 20
55.5769187334
 10
-58.9961536937
 20
55.13335506
 10
-59.0229852771
 20
54.6847971165
 10
-59.0475137095
 20
54.2315586889
 10
-59.0700099957
 20
53.7734794194
 10
-59.0907282017
 20
53.3104191918
 10
-59.1098877652
 20
52.8427157514
 10
-59.12771457
 20
52.3702439744
 10
-59.1444185376
 20
51.8928411974
 10
-59.1601775566
 20
51.410781541
 10
-59.1751515149
 20
50.9239212375
 10
-59.1894743912
 20
50.4321712307
 10
-59.2032567432
 20
49.9358783732
 10
-59.2166118945
 20
49.4349515257
 10
-59.2296424123
 20
48.9293228285
 10
-59.2550655546
 20
47.9050730188
  0
LINE
  5
233
100
AcDbEntity
  8
RACCORDO
100
AcDbLine
 62
7
  6
CONTINUOUS
 10
-52.223869819
 20
60.7382303867
 11
-52.2166954259
 21
61.0276733533
  0
LINE
  5
234
100
AcDbEntity
  8
0
100
AcDbLine
 62
7
  6
CONTINUOUS
 10
-41.217504961
 20
32.6959126881
 11
-41.9536632002
 21
32.2430735033
  0
LINE
  5
235
100
AcDbEntity
  8
RACCORDO
100
AcDbLine
 62
250
  6
CONTINUOUS
 10
-40.2377220916
 20
32.6423833622
 11
-40.9738864756
 21
32.1895403975
  0
LINE
  5
236
100
AcDbEntity
  8
RACCORDO
100
AcDbLine
 62
7
  6
CONTINUOUS
 10
-43.5091227618
 20
-5.4478243936
 11
-42.6044678975
 21
31.0494773061
  0
LINE
  5
237
100
AcDbEntity
  8
RACCORDO
100
AcDbLine
 62
250
  6
CONTINUOUS
 10
-43.1786701645
 20
-5.8842791024
 11
-42.2740152956
 21
30.6130227855
  0
LINE
  5
238
100
AcDbEntity
  8
0
100
AcDbLine
 62
250
  6
CONTINUOUS
 10
-43.7065703716
 20
32.367940232
 11
-44.6112373566
 21
-4.1293263306
  0
LINE
  5
239
100
AcDbEntity
  8
0
100
AcDbLine
 62
250
  6
CONTINUOUS
 10
-44.6436466221
 20
33.2563766244
 11
-45.5466826455
 21
-3.1740421343
  0
LWPOLYLINE
  5
23A
100
AcDbEntity
  8
RACCORDO
100
AcDbPolyline
 62
7
  6
CONTINUOUS
 90
40
 70
0
 10
44.9121357374
 20
-65.4190126084
 10
44.9712895267
 20
-65.4426805251
 10
45.0454636804
 20
-65.4707258196
 10
45.1196408854
 20
-65.4969677613
 10
45.19380315
 20
-65.5214108123
 10
45.2679204114
 20
-65.5440552534
 10
45.3419492213
 20
-65.5648983387
 10
45.4158648087
 20
-65.5839438222
 10
45.4896415479
 20
-65.6011954392
 10
45.563232141
 20
-65.6166529273
 10
45.6366086541
 20
-65.630321794
 10
45.7097454665
 20
-65.6422084752
 10
45.7825956448
 20
-65.6523170907
 10
45.8551277161
 20
-65.6606557935
 10
45.9273162937
 20
-65.6672342119
 10
45.9991202888
 20
-65.6720615387
 10
46.070510408
 20
-65.6751492908
 10
46.1414562428
 20
-65.6765098234
 10
46.2119118454
 20
-65.6761567306
 10
46.2818468968
 20
-65.6741054649
 10
46.3512301324
 20
-65.6703725604
 10
46.4200114463
 20
-65.6649774011
 10
46.4881509906
 20
-65.6579412311
 10
46.5556268564
 20
-65.6492848591
 10
46.6224136209
 20
-65.6390300131
 10
46.6884625375
 20
-65.6272036197
 10
46.7537617593
 20
-65.613827748
 10
46.818338614
 20
-65.5989143274
 10
46.8821605166
 20
-65.5824867678
 10
46.9451995941
 20
-65.5645686615
 10
47.0074868961
 20
-65.5451655784
 10
47.0689911974
 20
-65.5242997107
 10
47.1296831883
 20
-65.5019940099
 10
47.1895932204
 20
-65.4782482583
 10
47.2486903025
 20
-65.4530836092
 10
47.3069444953
 20
-65.4265222142
 10
47.3643839464
 20
-65.3985584893
 10
47.420996368
 20
-65.3692025675
 10
47.4767317987
 20
-65.338485001
 10
47.5047025677
 20
-65.3223645289
  0
LWPOLYLINE
  5
23B
100
AcDbEntity
  8
RACCORDO
100
AcDbPolyline
 62
7
  6
CONTINUOUS
 90
28
 70
0
 10
-58.5938206058
 20
-10.5854756657
 10
-58.0369434962
 20
-10.9613762823
 10
-57.4497940634
 20
-11.3498719973
 10
-56.8432469182
 20
-11.7437385207
 10
-56.2176018321
 20
-12.1431627536
 10
-55.5735464118
 20
-12.5482497651
 10
-54.9121040349
 20
-12.9590022486
 10
-54.2338174896
 20
-13.3757308117
 10
-53.538996604
 20
-13.7987233503
 10
-52.8283024913
 20
-14.2279400111
 10
-52.1019504461
 20
-14.6635432438
 10
-51.3601072175
 20
-15.1056482627
 10
-50.6033005245
 20
-15.5540889164
 10
-49.8316012131
 20
-16.0089189248
 10
-49.0450507192
 20
-16.470168106
 10
-48.2440852301
 20
-16.9375969721
 10
-47.4286806818
 20
-17.4111920905
 10
-46.5987895517
 20
-17.8909162469
 10
-45.7548081624
 20
-18.3764816075
 10
-44.8966635774
 20
-18.867851837
 10
-44.0242670425
 20
-19.3649557073
 10
-43.1379637761
 20
-19.8674274531
 10
-42.2376642579
 20
-20.3751714731
 10
-41.3231871543
 20
-20.8880901381
 10
-40.3947072011
 20
-21.4057838396
 10
-39.4520275347
 20
-21.927951307
 10
-38.4945211901
 20
-22.4543902031
 10
-37.5321818224
 20
-22.9787301235
  0
LWPOLYLINE
  5
23C
100
AcDbEntity
  8
RACCORDO
100
AcDbPolyline
 62
7
  6
CONTINUOUS
 90
31
 70
0
 10
21.8586672959
 20
-54.4401620665
 10
22.731638659
 20
-54.8999510918
 10
23.6112862532
 20
-55.3577216293
 10
24.4849295299
 20
-55.8076461791
 10
25.3522855229
 20
-56.2501627228
 10
26.2129439793
 20
-56.6855157521
 10
27.0663525918
 20
-57.1138207118
 10
27.912338436
 20
-57.5353030595
 10
28.7507391983
 20
-57.9501290789
 10
29.581076865
 20
-58.3582880893
 10
30.4032034464
 20
-58.7599384774
 10
31.2170101922
 20
-59.155218082
 10
32.0220776171
 20
-59.5440779635
 10
32.8183398224
 20
-59.9266190667
 10
33.6057168152
 20
-60.302933488
 10
34.3837929822
 20
-60.672934074
 10
35.152554132
 20
-61.0366897663
 10
35.9120004037
 20
-61.3942441823
 10
36.661782687
 20
-61.7454492431
 10
37.401934369
 20
-62.0903061388
 10
38.1325635685
 20
-62.4288118057
 10
38.8534823735
 20
-62.7607807266
 10
39.5648953969
 20
-63.0861602892
 10
40.2669645361
 20
-63.4048328213
 10
40.959517945
 20
-63.7164761239
 10
41.6429640826
 20
-64.0209223185
 10
42.3175659912
 20
-64.3178977049
 10
42.9829673493
 20
-64.6068960529
 10
43.6390979542
 20
-64.8876203137
 10
44.286171625
 20
-65.159999523
 10
44.9121381796
 20
-65.4190136185
  0
LINE
  5
23D
100
AcDbEntity
  8
RACCORDO
100
AcDbLine
 62
7
  6
CONTINUOUS
 10
-37.5296299901
 20
-22.9798479649
 11
21.8587580014
 21
-54.4402144211
  0
LINE
  5
23E
100
AcDbEntity
  8
RACCORDO
100
AcDbLine
 62
250
  6
CONTINUOUS
 10
-37.7292171955
 20
-22.5910572726
 11
21.6592298284
 21
-54.0514550006
  0
LINE
  5
23F
100
AcDbEntity
  8
RACCORDO
100
AcDbLine
 62
7
  6
CONTINUOUS
 10
-37.5320777108
 20
-22.9785364421
 11
-37.5296299901
 21
-22.9798479649
  0
LINE
  5
240
100
AcDbEntity
  8
0
100
AcDbLine
 62
7
  6
CONTINUOUS
 10
20.0499497657
 20
-45.2867930057
 11
20.4807863551
 21
-45.515018406
  0
LINE
  5
241
100
AcDbEntity
  8
0
100
AcDbLine
 62
7
  6
CONTINUOUS
 10
19.3916203767
 20
-42.5523461992
 11
19.8224465402
 21
-42.780571774
  0
LINE
  5
242
100
AcDbEntity
  8
0
100
AcDbLine
 62
7
  6
CONTINUOUS
 10
20.774864202
 20
-43.2851048936
 11
21.2056903656
 21
-43.5133304684
  0
LINE
  5
243
100
AcDbEntity
  8
0
100
AcDbLine
 62
7
  6
CONTINUOUS
 10
19.4116976255
 20
-42.539995913
 11
19.842523789
 21
-42.7682214878
  0
LINE
  5
244
100
AcDbEntity
  8
0
100
AcDbLine
 62
7
  6
CONTINUOUS
 10
20.7949414508
 20
-43.2727546073
 11
21.2257676144
 21
-43.5009801821
  0
LINE
  5
245
100
AcDbEntity
  8
0
100
AcDbLine
 62
250
  6
CONTINUOUS
 10
-41.4290126698
 20
-10.1023657614
 11
24.9743206459
 21
-45.2788248416
  0
LINE
  5
246
100
AcDbEntity
  8
0
100
AcDbLine
 62
250
  6
CONTINUOUS
 10
-41.7939009441
 20
-8.8697301384
 11
24.6094323716
 21
-44.0461892186
  0
LINE
  5
247
100
AcDbEntity
  8
RACCORDO
100
AcDbLine
 62
7
  6
CONTINUOUS
 10
24.0037028715
 20
-42.5051181429
 11
-42.3996302735
 21
-7.3286591531
  0
LINE
  5
248
100
AcDbEntity
  8
RACCORDO
100
AcDbLine
 62
250
  6
CONTINUOUS
 10
23.802576337
 20
-42.0331253829
 11
-42.6007569787
 21
-6.8566663027
  0
LINE
  5
249
100
AcDbEntity
  8
0
100
AcDbLine
 62
250
  6
CONTINUOUS
 10
17.5847064393
 20
5.2740511881
 11
16.8390541096
 21
5.6622304304
  0
LINE
  5
24A
100
AcDbEntity
  8
0
100
AcDbLine
 62
250
  6
CONTINUOUS
 10
6.241921429
 20
11.1535403369
 11
5.4968835849
 21
11.5424817259
  0
LINE
  5
24B
100
AcDbEntity
  8
RACCORDO
100
AcDbLine
 62
250
  6
CONTINUOUS
 10
-41.6635019344
 20
30.9558536712
 11
24.7398313813
 21
-4.220605409
  0
LINE
  5
24C
100
AcDbEntity
  8
RACCORDO
100
AcDbLine
 62
250
  6
CONTINUOUS
 10
-40.9738864756
 20
32.1895403975
 11
25.4294468401
 21
-2.9869186827
  0
LINE
  5
24D
100
AcDbEntity
  8
ASSI
100
AcDbLine
 62
7
  6
CONTINUOUS
 10
-40.2377220916
 20
32.6423833622
 11
26.1656112241
 21
-2.534075718
  0
LINE
  5
24E
100
AcDbEntity
  8
0
100
AcDbLine
 62
7
  6
CONTINUOUS
 10
25.728060074
 20
-2.1847269448
 11
-40.6752732417
 21
32.9917321354
  0
LINE
  5
24F
100
AcDbEntity
  8
0
100
AcDbLine
 62
250
  6
CONTINUOUS
 10
25.6729905832
 20
-1.1372271574
 11
-39.3150060393
 21
33.289420974
  0
LINE
  5
250
100
AcDbEntity
  8
0
100
AcDbLine
 62
250
  6
CONTINUOUS
 10
24.6959139541
 20
1.3393937605
 11
-38.8767391994
 21
35.0163295156
  0
LINE
  5
251
100
AcDbEntity
  8
0
100
AcDbLine
 62
250
  6
CONTINUOUS
 10
-39.3150060268
 20
33.2894209681
 11
-40.7303427326
 21
34.0392319228
  0
LINE
  5
252
100
AcDbEntity
  8
0
100
AcDbLine
 62
250
  6
CONTINUOUS
 10
-28.1856733467
 20
29.4793811049
 11
-27.4470349656
 21
29.078321925
  0
LINE
  5
253
100
AcDbEntity
  8
RACCORDO
100
AcDbLine
 62
250
  6
CONTINUOUS
 10
26.2035535712
 20
-2.5107359242
 11
25.4294468401
 21
-2.9869186827
  0
LINE
  5
254
100
AcDbEntity
  8
RACCORDO
100
AcDbLine
 62
250
  6
CONTINUOUS
 10
27.4659158921
 20
-4.7219469188
 11
26.7297515081
 21
-5.1747898835
  0
LINE
  5
255
100
AcDbEntity
  8
0
100
AcDbLine
 62
250
  6
CONTINUOUS
 10
17.5847042978
 20
5.2739333722
 11
16.9947282142
 21
5.5813989561
  0
LINE
  5
256
100
AcDbEntity
  8
0
100
AcDbLine
 62
250
  6
CONTINUOUS
 10
21.8136651508
 20
3.0183025797
 11
21.6618407353
 21
3.1020069631
  0
LINE
  5
257
100
AcDbEntity
  8
0
100
AcDbLine
 62
250
  6
CONTINUOUS
 10
21.8136433397
 20
3.0178000813
 11
21.6618407353
 21
3.1020069631
  0
LINE
  5
258
100
AcDbEntity
  8
RACCORDO
100
AcDbLine
 62
250
  6
CONTINUOUS
 10
21.4789790118
 20
-43.6652305847
 11
21.4832852886
 21
-43.4294799113
  0
LINE
  5
259
100
AcDbEntity
  8
RACCORDO
100
AcDbLine
 62
250
  6
CONTINUOUS
 10
21.4781793995
 20
-43.6658339507
 11
21.4832852886
 21
-43.4294799113
  0
LINE
  5
25A
100
AcDbEntity
  8
DRAFT
100
AcDbLine
 62
250
  6
CONTINUOUS
 10
58.1471971092
 20
11.0250163474
 11
51.31731793
 21
6.6795747794
  0
LINE
  5
25B
100
AcDbEntity
  8
RACCORDO
100
AcDbLine
 62
250
  6
CONTINUOUS
 10
50.7054839625
 20
6.2125007184
 11
47.5000792571
 21
4.1730940724
  0
LINE
  5
25C
100
AcDbEntity
  8
RACCORDO
100
AcDbLine
 62
250
  6
CONTINUOUS
 10
-30.7579895922
 20
43.42255554
 11
-31.4817597569
 21
43.8000989269
  0
LINE
  5
25D
100
AcDbEntity
  8
RACCORDO
100
AcDbLine
 62
250
  6
CONTINUOUS
 10
-30.7579731833
 20
43.4225743696
 11
-31.3999527338
 21
43.7574496738
  0
LINE
  5
25E
100
AcDbEntity
  8
RACCORDO
100
AcDbLine
 62
250
  6
CONTINUOUS
 10
-31.3999527338
 20
43.7574496738
 11
-31.4817523522
 21
43.8001096037
  0
LINE
  5
25F
100
AcDbEntity
  8
0
100
AcDbLine
 62
250
  6
CONTINUOUS
 10
29.4479196393
 20
-38.6851779316
 11
29.448583141
 21
-38.6520620823
  0
LINE
  5
260
100
AcDbEntity
  8
0
100
AcDbLine
 62
250
  6
CONTINUOUS
 10
29.4051953352
 20
-40.7815075266
 11
29.4066307934
 21
-40.7146195499
  0
LINE
  5
261
100
AcDbEntity
  8
RACCORDO
100
AcDbLine
 62
250
  6
CONTINUOUS
 10
25.3177445671
 20
-5.1929926093
 11
24.4130896982
 21
-41.6902944972
  0
LINE
  5
262
100
AcDbEntity
  8
RACCORDO
100
AcDbLine
 62
250
  6
CONTINUOUS
 10
26.7297515081
 20
-5.1747898835
 11
25.8250966392
 21
-41.6720917714
  0
LINE
  5
263
100
AcDbEntity
  8
ASSI
100
AcDbLine
 62
7
  6
CONTINUOUS
 10
27.4659158921
 20
-4.7219469188
 11
26.5612610232
 21
-41.2192488067
  0
LINE
  5
264
100
AcDbEntity
  8
0
100
AcDbLine
 62
7
  6
CONTINUOUS
 10
26.6757179648
 20
-41.7846785654
 11
27.5803728336
 21
-5.2873766775
  0
LINE
  5
265
100
AcDbEntity
  8
0
100
AcDbLine
 62
250
  6
CONTINUOUS
 10
27.5856951827
 20
-42.3748829371
 11
28.4902874377
 21
-5.877576787
  0
LINE
  5
266
100
AcDbEntity
  8
0
100
AcDbLine
 62
250
  6
CONTINUOUS
 10
29.324269045
 20
-42.8361319259
 11
30.2272157519
 21
-6.4056659397
  0
LINE
  5
267
100
AcDbEntity
  8
RACCORDO
100
AcDbLine
 62
250
  6
CONTINUOUS
 10
55.3039959408
 20
2.842420663
 11
50.1159464768
 21
-0.2360663921
  0
LINE
  5
268
100
AcDbEntity
  8
RACCORDO
100
AcDbLine
 62
250
  6
CONTINUOUS
 10
61.0367630382
 20
6.1630803456
 11
55.854481248
 21
3.0880157153
  0
LWPOLYLINE
  5
269
100
AcDbEntity
  8
RACCORDO
100
AcDbPolyline
 62
7
  6
CONTINUOUS
 90
7
 70
0
 10
52.0237982512
 20
6.1169532593
 10
52.0560071408
 20
6.1016690117
 10
52.1560103638
 20
6.0535212692
 10
52.2553134546
 20
6.0046232354
 10
52.353868312
 20
5.9549573025
 10
52.451639532
 20
5.9045017636
 10
52.5075758118
 20
5.8750786037
  0
LINE
  5
26A
100
AcDbEntity
  8
0
100
AcDbLine
 62
7
  6
CONTINUOUS
 10
50.7054839625
 20
6.2125007184
 11
-52.5242168575
 21
60.8973360337
  0
LINE
  5
26B
100
AcDbEntity
  8
ASSI
100
AcDbLine
 62
7
  6
CONTINUOUS
 10
-53.2404804687
 20
61.6676566236
 11
-53.1091769492
 21
61.5980999816
  0
LINE
  5
26C
100
AcDbEntity
  8
RACCORDO
100
AcDbLine
 62
7
  6
CONTINUOUS
 10
-52.0847721919
 20
61.0679252566
 11
53.090977221
 21
5.3521914114
  0
LINE
  5
26D
100
AcDbEntity
  8
RACCORDO
100
AcDbLine
 62
7
  6
CONTINUOUS
 10
-52.639308524
 20
61.5610206399
 11
52.0202511952
 21
6.118732791
  0
LINE
  5
26E
100
AcDbEntity
  8
DRAFT
100
AcDbLine
 62
7
  6
CONTINUOUS
 10
51.31731793
 20
6.6795747794
 11
-51.9272383439
 21
61.3722796133
  0
LINE
  5
26F
100
AcDbEntity
  8
RACCORDO
100
AcDbLine
 62
7
  6
CONTINUOUS
 10
-52.7424859897
 20
61.6301786373
 11
-52.7425652194
 21
61.6302206183
  0
LWPOLYLINE
  5
270
100
AcDbEntity
  8
RACCORDO
100
AcDbPolyline
 62
7
  6
CONTINUOUS
 90
8
 70
0
 10
-52.7424857245
 20
61.6301784954
 10
-52.7351443227
 20
61.6261535482
 10
-52.725118936
 20
61.6202832507
 10
-52.7135886336
 20
61.613090646
 10
-52.7005777024
 20
61.6045026647
 10
-52.6861198484
 20
61.5944659647
 10
-52.6702196625
 20
61.5829204443
 10
-52.6522001671
 20
61.5692939476
  0
LINE
  5
271
100
AcDbEntity
  8
0
100
AcDbLine
 62
7
  6
CONTINUOUS
 10
53.0836646646
 20
5.3393271447
 11
53.0820494504
 21
5.3402365851
  0
LINE
  5
272
100
AcDbEntity
  8
0
100
AcDbLine
 62
250
  6
CONTINUOUS
 10
29.2309894946
 20
-44.9917270667
 11
29.231260047
 21
-44.9888237654
  0
LINE
  5
273
100
AcDbEntity
  8
0
100
AcDbLine
 62
250
  6
CONTINUOUS
 10
29.2308284047
 20
-44.9916270774
 11
29.2311223868
 21
-44.9887383542
  0
LINE
  5
274
100
AcDbEntity
  8
0
100
AcDbLine
 62
7
  6
CONTINUOUS
 10
53.0836580398
 20
5.3393217545
 11
53.0820494504
 21
5.3402365851
  0
LINE
  5
275
100
AcDbEntity
  8
DRAFT
100
AcDbLine
 62
7
  6
CONTINUOUS
 10
-45.0973591647
 20
65.7177211812
 11
58.1471971092
 21
11.0250163474
  0
LINE
  5
276
100
AcDbEntity
  8
0
100
AcDbLine
 62
7
  6
CONTINUOUS
 10
19.3916203767
 20
-42.5523461992
 11
19.4116976255
 21
-42.539995913
  0
LINE
  5
277
100
AcDbEntity
  8
0
100
AcDbLine
 62
7
  6
CONTINUOUS
 10
19.8224465402
 20
-42.780571774
 11
19.842523789
 21
-42.7682214878
  0
LINE
  5
278
100
AcDbEntity
  8
0
100
AcDbLine
 62
7
  6
CONTINUOUS
 10
20.774864202
 20
-43.2851048936
 11
20.7949414508
 21
-43.2727546073
  0
LINE
  5
279
100
AcDbEntity
  8
0
100
AcDbLine
 62
7
  6
CONTINUOUS
 10
21.2056903656
 20
-43.5133304684
 11
21.2257676144
 21
-43.5009801821
  0
LINE
  5
27A
100
AcDbEntity
  8
0
100
AcDbLine
 62
7
  6
CONTINUOUS
 10
21.4928905002
 20
-43.6654846952
 11
21.5129677495
 21
-43.6531344086
  0
LINE
  5
27B
100
AcDbEntity
  8
RACCORDO
100
AcDbLine
 62
250
  6
CONTINUOUS
 10
25.4317713107
 20
-42.4966538331
 11
25.431218301
 21
-42.4969943701
  0
LINE
  5
27C
100
AcDbEntity
  8
0
100
AcDbLine
 62
7
  6
CONTINUOUS
 10
21.9235738407
 20
-43.8937921732
 11
21.9436510738
 21
-43.8814418966
  0
LINE
  5
27D
100
AcDbEntity
  8
RACCORDO
100
AcDbLine
 62
250
  6
CONTINUOUS
 10
26.5612610232
 20
-41.2192488067
 11
25.8250966392
 21
-41.6720917714
  0
LINE
  5
27E
100
AcDbEntity
  8
0
100
AcDbLine
 62
7
  6
CONTINUOUS
 10
22.3542521654
 20
-44.1220840284
 11
22.3743293869
 21
-44.1097337589
  0
LINE
  5
27F
100
AcDbEntity
  8
0
100
AcDbLine
 62
7
  6
CONTINUOUS
 10
20.4807863551
 20
-45.515018406
 11
20.5008696631
 21
-45.5026643925
  0
LINE
  5
280
100
AcDbEntity
  8
0
100
AcDbLine
 62
7
  6
CONTINUOUS
 10
26.1673888298
 20
-42.0441476255
 11
25.431218301
 21
-42.4969943701
  0
LINE
  5
281
100
AcDbEntity
  8
0
100
AcDbLine
 62
7
  6
CONTINUOUS
 10
23.0053826215
 20
-44.4671906547
 11
23.025459836
 21
-44.4548403896
  0
LINE
  5
282
100
AcDbEntity
  8
0
100
AcDbLine
 62
7
  6
CONTINUOUS
 10
23.809799849
 20
-44.8934357657
 11
23.8298770629
 21
-44.881085501
  0
LINE
  5
283
100
AcDbEntity
  8
0
100
AcDbLine
 62
7
  6
CONTINUOUS
 10
21.8903026292
 20
-46.2618442577
 11
21.9103860343
 21
-46.2494901845
  0
LINE
  5
284
100
AcDbEntity
  8
0
100
AcDbLine
 62
7
  6
CONTINUOUS
 10
24.4611016291
 20
-45.2384370041
 11
24.4811788431
 21
-45.2260867393
  0
LINE
  5
285
100
AcDbEntity
  8
0
100
AcDbLine
 62
7
  6
CONTINUOUS
 10
22.7517519765
 20
-46.7183956069
 11
22.7718356111
 21
-46.7060413925
  0
LINE
  5
286
100
AcDbEntity
  8
0
100
AcDbLine
 62
7
  6
CONTINUOUS
 10
25.4401499258
 20
-45.7568112807
 11
25.4602271802
 21
-45.744460991
  0
LINE
  5
287
100
AcDbEntity
  8
0
100
AcDbLine
 62
7
  6
CONTINUOUS
 10
23.5901577777
 20
-47.1622044215
 11
23.6102417348
 21
-47.1498500087
  0
LINE
  5
288
100
AcDbEntity
  8
0
100
AcDbLine
 62
7
  6
CONTINUOUS
 10
25.871178029
 20
-45.9849304926
 11
25.8912553486
 21
-45.9725801627
  0
LINE
  5
289
100
AcDbEntity
  8
0
100
AcDbLine
 62
7
  6
CONTINUOUS
 10
24.4293737354
 20
-47.6055456873
 11
24.4494581697
 21
-47.5931909809
  0
LINE
  5
28A
100
AcDbEntity
  8
0
100
AcDbLine
 62
7
  6
CONTINUOUS
 10
25.4227976682
 20
-47.2149637937
 11
25.4428783328
 21
-47.2026114062
  0
LINE
  5
28B
100
AcDbEntity
  8
0
100
AcDbLine
 62
7
  6
CONTINUOUS
 10
26.8507279958
 20
-46.5030137442
 11
26.8708058268
 21
-46.4906630998
  0
LINE
  5
28C
100
AcDbEntity
  8
0
100
AcDbLine
 62
7
  6
CONTINUOUS
 10
25.1491394684
 20
-47.9848439176
 11
25.1692244574
 21
-47.9724888701
  0
LINE
  5
28D
100
AcDbEntity
  8
0
100
AcDbLine
 62
7
  6
CONTINUOUS
 10
27.8616899248
 20
-47.0361269693
 11
27.8817692455
 21
-47.0237754085
  0
LINE
  5
28E
100
AcDbEntity
  8
ASSI
100
AcDbLine
 62
7
  6
CONTINUOUS
 10
53.7946208349
 20
-60.4009402224
 11
55.3429254179
 21
2.0636987519
  0
LINE
  5
28F
100
AcDbEntity
  8
0
100
AcDbLine
 62
7
  6
CONTINUOUS
 10
27.2622412641
 20
-47.7418944044
 11
27.2823219608
 21
-47.7295419972
  0
LINE
  5
290
100
AcDbEntity
  8
0
100
AcDbLine
 62
7
  6
CONTINUOUS
 10
26.538500321
 20
-48.7138522222
 11
26.5585868681
 21
-48.7014962162
  0
LINE
  5
291
100
AcDbEntity
  8
0
100
AcDbLine
 62
7
  6
CONTINUOUS
 10
27.7896119154
 20
-48.0175790701
 11
27.8096934325
 21
-48.0052261583
  0
LINE
  5
292
100
AcDbEntity
  8
0
100
AcDbLine
 62
7
  6
CONTINUOUS
 10
27.2614788085
 20
-49.0911792662
 11
27.2815664648
 21
-49.078822578
  0
LINE
  5
293
100
AcDbEntity
  8
0
100
AcDbLine
 62
7
  6
CONTINUOUS
 10
28.5674465231
 20
-49.7682065247
 11
28.5875367723
 21
-49.7558482414
  0
LINE
  5
294
100
AcDbEntity
  8
DRAFT
100
AcDbLine
 62
7
  6
CONTINUOUS
 10
61.0367630382
 20
6.1630803456
 11
59.4678795944
 21
-57.1317900455
  0
LINE
  5
295
100
AcDbEntity
  8
RACCORDO
100
AcDbLine
 62
250
  6
CONTINUOUS
 10
53.7946208348
 20
-60.4009402224
 11
48.3721501916
 21
-63.6185282192
  0
LINE
  5
296
100
AcDbEntity
  8
RACCORDO
100
AcDbLine
 62
250
  6
CONTINUOUS
 10
59.4678795944
 20
-57.1317900455
 11
54.3453861201
 21
-60.1713774589
  0
LINE
  5
297
100
AcDbEntity
  8
SUPERFICI
100
AcDbLine
 62
7
  6
CONTINUOUS
 10
52.94444319
 20
-62.1405139355
 11
47.504665369
 21
-65.3223862896
  0
LINE
  5
298
100
AcDbEntity
  8
DRAFT
100
AcDbLine
 62
7
  6
CONTINUOUS
 10
58.5634352914
 20
-58.9824003786
 11
53.4705771338
 21
-61.9613500908
  0
ARC
  5
299
100
AcDbEntity
  8
0
100
AcDbCircle
 62
250
  6
CONTINUOUS
 10
53.322347844
 20
-6.8596372995
 40
23.0996446839
100
AcDbArc
 50
178.7077784887
 51
178.874070169
  0
ARC
  5
29A
100
AcDbEntity
  8
0
100
AcDbCircle
 62
250
  6
CONTINUOUS
 10
-67.5990373274
 20
33.9425285813
 40
22.9655109908
100
AcDbArc
 50
358.2877829887
 51
358.4544873023
  0
ARC
  5
29B
100
AcDbEntity
  8
0
100
AcDbCircle
 62
7
  6
CONTINUOUS
 10
46.12715615
 20
-7.1508698044
 40
14.2973787903
100
AcDbArc
 50
62.096113343
 51
63.0150547231
  0
ARC
  5
29C
100
AcDbEntity
  8
0
100
AcDbCircle
 62
7
  6
CONTINUOUS
 10
47.4167138362
 20
-4.7292052616
 40
11.5537737007
100
AcDbArc
 50
60.6367375004
 51
62.1274129493
  0
ARC
  5
29D
100
AcDbEntity
  8
0
100
AcDbCircle
 62
250
  6
CONTINUOUS
 10
-42.5242547508
 20
31.5995570259
 40
4.7173739301
100
AcDbArc
 50
67.4942239524
 51
70.7736270353
  0
ARC
  5
29E
100
AcDbEntity
  8
RACCORDO
100
AcDbCircle
 62
250
  6
CONTINUOUS
 10
-58.2692468817
 20
-10.1095823607
 40
0.576040228
100
AcDbArc
 50
235.0266057851
 51
235.7048214543
  0
ARC
  5
29F
100
AcDbEntity
  8
RACCORDO
100
AcDbCircle
 62
250
  6
CONTINUOUS
 10
-42.2627876083
 20
-7.0700753624
 40
0.2925543383
100
AcDbArc
 50
237.2880589809
 51
242.1121858584
  0
ARC
  5
2A0
100
AcDbEntity
  8
0
100
AcDbCircle
 62
7
  6
CONTINUOUS
 10
27.9300925809
 20
-47.8981972498
 40
0.1376861365
100
AcDbArc
 50
286.6617268542
 51
296.4168801405
  0
ARC
  5
2A1
100
AcDbEntity
  8
RACCORDO
100
AcDbCircle
 62
7
  6
CONTINUOUS
 10
52.0612374997
 20
6.1959940734
 40
0.0874596073
100
AcDbArc
 50
242.0545157727
 51
244.6545595807
  0
ARC
  5
2A2
100
AcDbEntity
  8
0
100
AcDbCircle
 62
7
  6
CONTINUOUS
 10
177.2296236476
 20
-6.3329833216
 40
161.5717986188
100
AcDbArc
 50
193.0370674344
 51
193.7244331924
  0
ARC
  5
2A3
100
AcDbEntity
  8
0
100
AcDbCircle
 62
7
  6
CONTINUOUS
 10
176.8944071504
 20
-6.4048726183
 40
161.206659938
100
AcDbArc
 50
193.0363848184
 51
193.7158233396
  0
ARC
  5
2A4
100
AcDbEntity
  8
0
100
AcDbCircle
 62
7
  6
CONTINUOUS
 10
175.9303611929
 20
-6.311467458
 40
160.6791170882
100
AcDbArc
 50
193.0351138554
 51
194.038050197
  0
ARC
  5
2A5
100
AcDbEntity
  8
0
100
AcDbCircle
 62
7
  6
CONTINUOUS
 10
170.8948755147
 20
5.4733921465
 40
152.6719727623
100
AcDbArc
 50
200.7284150932
 51
201.212745468
  0
ARC
  5
2A6
100
AcDbEntity
  8
0
100
AcDbCircle
 62
7
  6
CONTINUOUS
 10
170.4970791394
 20
5.3265055307
 40
152.2247808732
100
AcDbArc
 50
200.7333333128
 51
201.2137804405
  0
ARC
  5
2A7
100
AcDbEntity
  8
0
100
AcDbCircle
 62
7
  6
CONTINUOUS
 10
167.0560642278
 20
4.2159814327
 40
149.0041838688
100
AcDbArc
 50
200.6695999891
 51
201.1368973556
  0
ARC
  5
2A8
100
AcDbEntity
  8
0
100
AcDbCircle
 62
7
  6
CONTINUOUS
 10
176.2502492961
 20
-49.3080572223
 40
148.9962395609
100
AcDbArc
 50
179.1763339183
 51
179.3977286118
  0
ARC
  5
2A9
100
AcDbEntity
  8
0
100
AcDbCircle
 62
7
  6
CONTINUOUS
 10
169.9253642932
 20
-49.2170347413
 40
142.6507979665
100
AcDbArc
 50
179.1804260718
 51
179.4025368096
  0
ARC
  5
2AA
100
AcDbEntity
  8
0
100
AcDbCircle
 62
7
  6
CONTINUOUS
 10
162.0309416036
 20
-15.4044170579
 40
142.4061292496
100
AcDbArc
 50
192.0608254849
 51
192.7916871636
  0
ARC
  5
2AB
100
AcDbEntity
  8
0
100
AcDbCircle
 62
7
  6
CONTINUOUS
 10
153.5866508958
 20
-92.5165750031
 40
141.6428901637
100
AcDbArc
 50
159.6609619569
 51
160.2556778593
  0
ARC
  5
2AC
100
AcDbEntity
  8
0
100
AcDbCircle
 62
7
  6
CONTINUOUS
 10
153.8986417785
 20
-92.6997051268
 40
141.5157899555
100
AcDbArc
 50
159.6613586223
 51
160.5233011276
  0
ARC
  5
2AD
100
AcDbEntity
  8
0
100
AcDbCircle
 62
7
  6
CONTINUOUS
 10
152.5924775393
 20
-92.2067484271
 40
140.1051902566
100
AcDbArc
 50
159.6571397661
 51
160.5277583247
  0
ARC
  5
2AE
100
AcDbEntity
  8
0
100
AcDbCircle
 62
7
  6
CONTINUOUS
 10
156.2274038769
 20
-16.9564667894
 40
136.0107291611
100
AcDbArc
 50
191.6643499704
 51
192.4088232585
  0
ARC
  5
2AF
100
AcDbEntity
  8
0
100
AcDbCircle
 62
7
  6
CONTINUOUS
 10
155.6718730971
 20
-17.0833594685
 40
135.4631754594
100
AcDbArc
 50
191.6626919345
 51
192.4232511655
  0
ARC
  5
2B0
100
AcDbEntity
  8
0
100
AcDbCircle
 62
7
  6
CONTINUOUS
 10
152.319188342
 20
-92.7301832253
 40
134.7974944866
100
AcDbArc
 50
160.4399749128
 51
160.6075678121
  0
ARC
  5
2B1
100
AcDbEntity
  8
0
100
AcDbCircle
 62
7
  6
CONTINUOUS
 10
151.6616846678
 20
-92.5177374487
 40
134.1215966915
100
AcDbArc
 50
160.4305437592
 51
160.6077390283
  0
ARC
  5
2B2
100
AcDbEntity
  8
0
100
AcDbCircle
 62
7
  6
CONTINUOUS
 10
154.651857563
 20
-15.6824478313
 40
132.6663189937
100
AcDbArc
 50
194.0781231134
 51
194.31611842
  0
ARC
  5
2B3
100
AcDbEntity
  8
0
100
AcDbCircle
 62
7
  6
CONTINUOUS
 10
148.6233561356
 20
-91.4340710647
 40
130.8957870007
100
AcDbArc
 50
159.9747429575
 51
160.2559377646
  0
ARC
  5
2B4
100
AcDbEntity
  8
0
100
AcDbCircle
 62
7
  6
CONTINUOUS
 10
148.2383110929
 20
-91.274941203
 40
130.4648939771
100
AcDbArc
 50
159.9922124974
 51
160.2565040009
  0
ARC
  5
2B5
100
AcDbEntity
  8
0
100
AcDbCircle
 62
7
  6
CONTINUOUS
 10
146.981946074
 20
-90.8119553651
 40
129.6239723948
100
AcDbArc
 50
159.6604224575
 51
160.6006648528
  0
ARC
  5
2B6
100
AcDbEntity
  8
0
100
AcDbCircle
 62
7
  6
CONTINUOUS
 10
150.6455949608
 20
-16.9110977372
 40
128.0945549695
100
AcDbArc
 50
193.1131733448
 51
194.3697901124
  0
ARC
  5
2B7
100
AcDbEntity
  8
0
100
AcDbCircle
 62
7
  6
CONTINUOUS
 10
149.3386066453
 20
-46.646773777
 40
127.8804723999
100
AcDbArc
 50
178.6641372565
 51
179.7252498269
  0
ARC
  5
2B8
100
AcDbEntity
  8
0
100
AcDbCircle
 62
7
  6
CONTINUOUS
 10
145.175213442
 20
-84.7536164493
 40
127.2481261028
100
AcDbArc
 50
162.2087071244
 51
162.8115612304
  0
ARC
  5
2B9
100
AcDbEntity
  8
0
100
AcDbCircle
 62
7
  6
CONTINUOUS
 10
149.1254189175
 20
-17.2907633959
 40
126.5502395193
100
AcDbArc
 50
193.1052946129
 51
194.3772482322
  0
ARC
  5
2BA
100
AcDbEntity
  8
0
100
AcDbCircle
 62
7
  6
CONTINUOUS
 10
148.5828463359
 20
-17.1908862996
 40
126.4126538759
100
AcDbArc
 50
193.4578306939
 51
193.8424355447
  0
ARC
  5
2BB
100
AcDbEntity
  8
0
100
AcDbCircle
 62
7
  6
CONTINUOUS
 10
146.9727322365
 20
-46.8220394311
 40
125.0636567922
100
AcDbArc
 50
178.6526912726
 51
179.7376954199
  0
ARC
  5
2BC
100
AcDbEntity
  8
0
100
AcDbCircle
 62
7
  6
CONTINUOUS
 10
146.2715682777
 20
-46.8251454568
 40
124.3825411888
100
AcDbArc
 50
178.6495715471
 51
179.7405191169
  0
ARC
  5
2BD
100
AcDbEntity
  8
0
100
AcDbCircle
 62
7
  6
CONTINUOUS
 10
142.3916575142
 20
-83.8959148534
 40
124.3509622872
100
AcDbArc
 50
162.1698193044
 51
162.8182649763
  0
ARC
  5
2BE
100
AcDbEntity
  8
0
100
AcDbCircle
 62
7
  6
CONTINUOUS
 10
144.5488221358
 20
-47.0227072557
 40
122.2289922456
100
AcDbArc
 50
178.6401829158
 51
179.7503525344
  0
ARC
  5
2BF
100
AcDbEntity
  8
0
100
AcDbCircle
 62
7
  6
CONTINUOUS
 10
144.4830010956
 20
-47.2132082986
 40
121.7122221548
100
AcDbArc
 50
179.0740641215
 51
179.7612515259
  0
ARC
  5
2C0
100
AcDbEntity
  8
0
100
AcDbCircle
 62
7
  6
CONTINUOUS
 10
147.9943856185
 20
-49.0322043007
 40
120.7329212139
100
AcDbArc
 50
179.5963701762
 51
180.0279875342
  0
ARC
  5
2C1
100
AcDbEntity
  8
0
100
AcDbCircle
 62
7
  6
CONTINUOUS
 10
147.3344707417
 20
-49.0170441727
 40
120.0529201723
100
AcDbArc
 50
179.6062889405
 51
180.0294840145
  0
ARC
  5
2C2
100
AcDbEntity
  8
0
100
AcDbCircle
 62
7
  6
CONTINUOUS
 10
142.7826509603
 20
-47.2091539492
 40
120.031902237
100
AcDbArc
 50
179.021897076
 51
179.7657417771
  0
ARC
  5
2C3
100
AcDbEntity
  8
0
100
AcDbCircle
 62
7
  6
CONTINUOUS
 10
137.5667173061
 20
-82.2777698841
 40
119.7423262962
100
AcDbArc
 50
161.8077443818
 51
162.4775310472
  0
ARC
  5
2C4
100
AcDbEntity
  8
0
100
AcDbCircle
 62
7
  6
CONTINUOUS
 10
140.1609313199
 20
-47.7625194469
 40
116.1636818686
100
AcDbArc
 50
179.0418641382
 51
179.8102100037
  0
ARC
  5
2C5
100
AcDbEntity
  8
0
100
AcDbCircle
 62
7
  6
CONTINUOUS
 10
284.5478220044
 20
440.9522061398
 40
551.3804345935
100
AcDbArc
 50
242.1364731508
 51
242.2552372369
  0
ARC
  5
2C6
100
AcDbEntity
  8
0
100
AcDbCircle
 62
7
  6
CONTINUOUS
 10
224.9102192005
 20
327.8347299342
 40
423.4844850989
100
AcDbArc
 50
242.1186146663
 51
242.2732466654
  0
SPLINE
  5
2C7
100
AcDbEntity
  8
RACCORDO
100
AcDbSpline
 62
7
  6
CONTINUOUS
 70
0
 71
3
 72
9
 73
5
 74
0
 42
0.0000001
 43
0.0000001
 44
0.0000000001
 40
0.0
 40
0.0
 40
0.0
 40
0.0
 40
0.4992596281
 40
1.0
 40
1.0
 40
1.0
 40
1.0
 10
-43.5091227618
 20
-5.4478243935
 30
0.0
 10
-43.5184499956
 20
-5.824121345
 30
0.0
 10
-43.2911221193
 20
-6.586873402
 30
0.0
 10
-42.7332405603
 20
-7.1519327105
 30
0.0
 10
-42.3996302387
 20
-7.3286591715
 30
0.0
  0
SPLINE
  5
2C8
100
AcDbEntity
  8
RACCORDO
100
AcDbSpline
 62
7
  6
CONTINUOUS
 70
0
 71
3
 72
9
 73
5
 74
0
 42
0.0000001
 43
0.0000001
 44
0.0000000001
 40
0.0
 40
0.0
 40
0.0
 40
0.0
 40
0.5006059768
 40
1.0
 40
1.0
 40
1.0
 40
1.0
 10
24.0037028715
 20
-42.5051181428
 30
0.0
 10
24.2217770125
 20
-42.6206405981
 30
0.0
 10
24.7164746661
 20
-42.7623294443
 30
0.0
 10
25.222345714
 20
-42.6257804627
 30
0.0
 10
25.4318881873
 20
-42.4965550997
 30
0.0
  0
SPLINE
  5
2C9
100
AcDbEntity
  8
RACCORDO
100
AcDbSpline
 62
7
  6
CONTINUOUS
 70
0
 71
3
 72
9
 73
5
 74
0
 42
0.0000001
 43
0.0000001
 44
0.0000000001
 40
0.0
 40
0.0
 40
0.0
 40
0.0
 40
0.4997302503
 40
1.0
 40
1.0
 40
1.0
 40
1.0
 10
-41.9543330865
 20
32.2426342329
 30
0.0
 10
-42.1532107694
 20
32.1199858726
 30
0.0
 10
-42.4884807425
 20
31.7572979239
 30
0.0
 10
-42.59867186
 20
31.2833133197
 30
0.0
 10
-42.6044678986
 20
31.0494772618
 30
0.0
  0
SPLINE
  5
2CA
100
AcDbEntity
  8
RACCORDO
100
AcDbSpline
 62
250
  6
CONTINUOUS
 70
0
 71
3
 72
9
 73
5
 74
0
 42
0.0000001
 43
0.0000001
 44
0.0000000001
 40
0.0
 40
0.0
 40
0.0
 40
0.0
 40
0.4379446411
 40
1.0
 40
1.0
 40
1.0
 40
1.0
 10
24.0037056299
 20
-42.5051129342
 30
0.0
 10
23.9349387283
 20
-42.4687240158
 30
0.0
 10
23.8165646916
 20
-42.3152476357
 30
0.0
 10
23.8001021333
 20
-42.1329443981
 30
0.0
 10
23.802576337
 20
-42.0331253829
 30
0.0
  0
SPLINE
  5
2CB
100
AcDbEntity
  8
RACCORDO
100
AcDbSpline
 62
250
  6
CONTINUOUS
 70
0
 71
3
 72
10
 73
6
 74
0
 42
0.0000001
 43
0.0000001
 44
0.0000000001
 40
0.0
 40
0.0
 40
0.0
 40
0.0
 40
0.2222698083
 40
0.4580667072
 40
1.0
 40
1.0
 40
1.0
 40
1.0
 10
-41.953620355
 20
32.2430038376
 30
0.0
 10
-41.8891816071
 20
32.2826213513
 30
0.0
 10
-41.7416107758
 20
32.342316994
 30
0.0
 10
-41.397955352
 20
32.3662823641
 30
0.0
 10
-41.1368628653
 20
32.2758754048
 30
0.0
 10
-40.9738864756
 20
32.1895403975
 30
0.0
  0
SPLINE
  5
2CC
100
AcDbEntity
  8
RACCORDO
100
AcDbSpline
 62
250
  6
CONTINUOUS
 70
0
 71
3
 72
9
 73
5
 74
0
 42
0.0000001
 43
0.0000001
 44
0.0000000001
 40
0.0
 40
0.0
 40
0.0
 40
0.0
 40
0.4419510552
 40
1.0
 40
1.0
 40
1.0
 40
1.0
 10
-42.6044553688
 20
31.04947695
 30
0.0
 10
-42.6065740193
 20
30.9657078939
 30
0.0
 10
-42.5279081399
 20
30.7747813912
 30
0.0
 10
-42.3675149334
 20
30.6625531634
 30
0.0
 10
-42.2740152956
 20
30.6130227855
 30
0.0
  0
SPLINE
  5
2CD
100
AcDbEntity
  8
RACCORDO
100
AcDbSpline
 62
250
  6
CONTINUOUS
 70
0
 71
3
 72
11
 73
7
 74
0
 42
0.0000001
 43
0.0000001
 44
0.0000000001
 40
0.0
 40
0.0
 40
0.0
 40
0.0
 40
0.2403861239
 40
0.5028471117
 40
0.7637505072
 40
1.0
 40
1.0
 40
1.0
 40
1.0
 10
25.4294468401
 20
-2.9869186827
 30
0.0
 10
25.6171838518
 20
-3.0863703664
 30
0.0
 10
25.9731213367
 20
-3.3652021711
 30
0.0
 10
26.3865243714
 20
-3.9061398478
 30
0.0
 10
26.6630965575
 20
-4.5242563367
 30
0.0
 10
26.7349253235
 20
-4.9660579959
 30
0.0
 10
26.7297515081
 20
-5.1747898835
 30
0.0
  0
SPLINE
  5
2CE
100
AcDbEntity
  8
RACCORDO
100
AcDbSpline
 62
250
  6
CONTINUOUS
 70
0
 71
3
 72
10
 73
6
 74
0
 42
0.0000001
 43
0.0000001
 44
0.0000000001
 40
0.0
 40
0.0
 40
0.0
 40
0.0
 40
0.5385598603
 40
0.7753919607
 40
1.0
 40
1.0
 40
1.0
 40
1.0
 10
25.8250966392
 20
-41.6720917714
 30
0.0
 10
25.820882148
 20
-41.8421207705
 30
0.0
 10
25.7758290625
 20
-42.093110411
 30
0.0
 10
25.6048055953
 20
-42.3627248313
 30
0.0
 10
25.4921197816
 20
-42.4593771739
 30
0.0
 10
25.4317285228
 20
-42.4965843165
 30
0.0
  0
SPLINE
  5
2CF
100
AcDbEntity
  8
RACCORDO
100
AcDbSpline
 62
250
  6
CONTINUOUS
 70
0
 71
3
 72
9
 73
5
 74
0
 42
0.0000001
 43
0.0000001
 44
0.0000000001
 40
0.0
 40
0.0
 40
0.0
 40
0.0
 40
0.4401625674
 40
1.0
 40
1.0
 40
1.0
 40
1.0
 10
-42.4208885624
 20
-7.316230048
 30
0.0
 10
-42.48379968
 20
-7.2758225818
 30
0.0
 10
-42.5875769029
 20
-7.1250999152
 30
0.0
 10
-42.6031134196
 20
-6.9517363226
 30
0.0
 10
-42.6007569787
 20
-6.8566663027
 30
0.0
  0
SPLINE
  5
2D0
100
AcDbEntity
  8
RACCORDO
100
AcDbSpline
 62
250
  6
CONTINUOUS
 70
0
 71
3
 72
11
 73
7
 74
0
 42
0.0000001
 43
0.0000001
 44
0.0000000001
 40
0.0
 40
0.0
 40
0.0
 40
0.0
 40
0.2308776564
 40
0.4915087348
 40
0.7567573763
 40
1.0
 40
1.0
 40
1.0
 40
1.0
 10
25.8250966392
 20
-41.6720917714
 30
0.0
 10
25.7292235785
 20
-41.731066903
 30
0.0
 10
25.5012180765
 20
-41.8177527582
 30
0.0
 10
25.1322278413
 20
-41.8617384523
 30
0.0
 10
24.7562637831
 20
-41.8259083289
 30
0.0
 10
24.5178822566
 20
-41.7458071723
 30
0.0
 10
24.4130896982
 20
-41.6902944972
 30
0.0
  0
SPLINE
  5
2D1
100
AcDbEntity
  8
RACCORDO
100
AcDbSpline
 62
250
  6
CONTINUOUS
 70
0
 71
3
 72
11
 73
7
 74
0
 42
0.0000001
 43
0.0000001
 44
0.0000000001
 40
0.0
 40
0.0
 40
0.0
 40
0.0
 40
0.2308775719
 40
0.4915085478
 40
0.7567572399
 40
1.0
 40
1.0
 40
1.0
 40
1.0
 10
26.7297515081
 20
-5.1747898835
 30
0.0
 10
26.6338785053
 20
-5.2337650469
 30
0.0
 10
26.4058731122
 20
-5.3204509911
 30
0.0
 10
26.0368829178
 20
-5.3644367677
 30
0.0
 10
25.6609187853
 20
-5.3286066291
 30
0.0
 10
25.4225371644
 20
-5.2485053724
 30
0.0
 10
25.3177445671
 20
-5.1929926093
 30
0.0
  0
SPLINE
  5
2D2
100
AcDbEntity
  8
RACCORDO
100
AcDbSpline
 62
250
  6
CONTINUOUS
 70
0
 71
3
 72
11
 73
7
 74
0
 42
0.0000001
 43
0.0000001
 44
0.0000000001
 40
0.0
 40
0.0
 40
0.0
 40
0.0
 40
0.2322550026
 40
0.4943693071
 40
0.7595330834
 40
1.0
 40
1.0
 40
1.0
 40
1.0
 10
25.4294468401
 20
-2.9869186827
 30
0.0
 10
25.3332337266
 20
-3.0461029902
 30
0.0
 10
25.1512479571
 20
-3.209088252
 30
0.0
 10
24.9381193802
 20
-3.5137042793
 30
0.0
 10
24.789146244
 20
-3.8587202471
 30
0.0
 10
24.7427293312
 20
-4.1036883462
 30
0.0
 10
24.7398313813
 20
-4.220605409
 30
0.0
  0
SPLINE
  5
2D3
100
AcDbEntity
  8
RACCORDO
100
AcDbSpline
 62
250
  6
CONTINUOUS
 70
0
 71
3
 72
11
 73
7
 74
0
 42
0.0000001
 43
0.0000001
 44
0.0000000001
 40
0.0
 40
0.0
 40
0.0
 40
0.0
 40
0.2322548771
 40
0.4943691089
 40
0.7595329716
 40
1.0
 40
1.0
 40
1.0
 40
1.0
 10
-40.9738864756
 20
32.1895403975
 30
0.0
 10
-41.0700994982
 20
32.1303560749
 30
0.0
 10
-41.2520851266
 20
31.9673708451
 30
0.0
 10
-41.4652136469
 20
31.6627548854
 30
0.0
 10
-41.6141868741
 20
31.3177389283
 30
0.0
 10
-41.6606039221
 20
31.0727707782
 30
0.0
 10
-41.6635019344
 20
30.9558536712
 30
0.0
  0
SPLINE
  5
2D4
100
AcDbEntity
  8
RACCORDO
100
AcDbSpline
 62
250
  6
CONTINUOUS
 70
0
 71
3
 72
9
 73
5
 74
0
 42
0.0000001
 43
0.0000001
 44
0.0000000001
 40
0.0
 40
0.0
 40
0.0
 40
0.0
 40
0.4419509404
 40
1.0
 40
1.0
 40
1.0
 40
1.0
 10
-43.5091102361
 20
-5.4478247061
 30
0.0
 10
-43.5112288996
 20
-5.5315937655
 30
0.0
 10
-43.4325630247
 20
-5.7225203269
 30
0.0
 10
-43.272169825
 20
-5.8347486524
 30
0.0
 10
-43.1786701645
 20
-5.8842791024
 30
0.0
  0
SPLINE
  5
2D5
100
AcDbEntity
  8
RACCORDO
100
AcDbSpline
 62
250
  6
CONTINUOUS
 70
0
 71
3
 72
11
 73
7
 74
0
 42
0.0000001
 43
0.0000001
 44
0.0000000001
 40
0.0
 40
0.0
 40
0.0
 40
0.0
 40
0.2681417577
 40
0.4950398595
 40
0.7252061773
 40
1.0
 40
1.0
 40
1.0
 40
1.0
 10
-42.2740152956
 20
30.6130227855
 30
0.0
 10
-42.2720870201
 20
30.6908169351
 30
0.0
 10
-42.2467935722
 20
30.8376443221
 30
0.0
 10
-42.0991394904
 20
31.0070670726
 30
0.0
 10
-41.8761177446
 20
31.044609094
 30
0.0
 10
-41.7339731952
 20
30.9931850716
 30
0.0
 10
-41.6635019344
 20
30.9558536712
 30
0.0
  0
SPLINE
  5
2D6
100
AcDbEntity
  8
RACCORDO
100
AcDbSpline
 62
250
  6
CONTINUOUS
 70
0
 71
3
 72
9
 73
5
 74
0
 42
0.0000001
 43
0.0000001
 44
0.0000000001
 40
0.0
 40
0.0
 40
0.0
 40
0.0
 40
0.5029541347
 40
1.0
 40
1.0
 40
1.0
 40
1.0
 10
24.7398313813
 20
-4.220605409
 30
0.0
 10
24.9128250137
 20
-4.3122469445
 30
0.0
 10
25.1902841097
 20
-4.6116549459
 30
0.0
 10
25.3225385643
 20
-4.9995840855
 30
0.0
 10
25.3177445671
 20
-5.1929926093
 30
0.0
  0
SPLINE
  5
2D7
100
AcDbEntity
  8
RACCORDO
100
AcDbSpline
 62
250
  6
CONTINUOUS
 70
0
 71
3
 72
11
 73
7
 74
0
 42
0.0000001
 43
0.0000001
 44
0.0000000001
 40
0.0
 40
0.0
 40
0.0
 40
0.0
 40
0.2681417577
 40
0.4950398595
 40
0.7252061773
 40
1.0
 40
1.0
 40
1.0
 40
1.0
 10
24.4130896982
 20
-41.6902944972
 30
0.0
 10
24.4111614227
 20
-41.7680886467
 30
0.0
 10
24.3858679748
 20
-41.9149160338
 30
0.0
 10
24.238213893
 20
-42.0843387842
 30
0.0
 10
24.0151921472
 20
-42.1218808056
 30
0.0
 10
23.8730475978
 20
-42.0704567833
 30
0.0
 10
23.802576337
 20
-42.0331253829
 30
0.0
  0
SPLINE
  5
2D8
100
AcDbEntity
  8
RACCORDO
100
AcDbSpline
 62
250
  6
CONTINUOUS
 70
0
 71
3
 72
9
 73
5
 74
0
 42
0.0000001
 43
0.0000001
 44
0.0000000001
 40
0.0
 40
0.0
 40
0.0
 40
0.0
 40
0.5029541347
 40
1.0
 40
1.0
 40
1.0
 40
1.0
 10
-42.6007569787
 20
-6.8566663027
 30
0.0
 10
-42.7737506111
 20
-6.7650247672
 30
0.0
 10
-43.0512097071
 20
-6.4656167658
 30
0.0
 10
-43.1834641617
 20
-6.0776876262
 30
0.0
 10
-43.1786701645
 20
-5.8842791024
 30
0.0
  0
SPLINE
  5
2D9
100
AcDbEntity
  8
DRAFT
100
AcDbSpline
 62
7
  6
CONTINUOUS
 70
0
 71
3
 72
15
 73
11
 74
0
 42
0.0000001
 43
0.0000001
 44
0.0000000001
 40
0.0
 40
0.0
 40
0.0
 40
0.0
 40
0.1139478027
 40
0.2363539501
 40
0.3650266774
 40
0.4971810662
 40
0.6297304845
 40
0.75955517
 40
0.8837683799
 40
1.0
 40
1.0
 40
1.0
 40
1.0
 10
61.0367630382
 20
6.1630803456
 30
0.0
 10
61.0423216044
 20
6.3873345634
 30
0.0
 10
61.0106117844
 20
6.8540865349
 30
0.0
 10
60.854182123
 20
7.5576986864
 30
0.0
 10
60.5931413302
 20
8.2678058211
 30
0.0
 10
60.2372819682
 20
8.9577546856
 30
0.0
 10
59.79994255
 20
9.6018839288
 30
0.0
 10
59.2973693471
 20
10.1761331313
 30
0.0
 10
58.7484635565
 20
10.6589400944
 30
0.0
 10
58.3493972933
 20
10.9179029519
 30
0.0
 10
58.1471971092
 20
11.0250163474
 30
0.0
  0
SPLINE
  5
2DA
100
AcDbEntity
  8
DRAFT
100
AcDbSpline
 62
7
  6
CONTINUOUS
 70
0
 71
3
 72
14
 73
10
 74
0
 42
0.0000001
 43
0.0000001
 44
0.0000000001
 40
0.0
 40
0.0
 40
0.0
 40
0.0
 40
0.2850114031
 40
0.4172961439
 40
0.5430192435
 40
0.6628954487
 40
0.7780126251
 40
0.8898096033
 40
1.0
 40
1.0
 40
1.0
 40
1.0
 10
-45.0973591647
 20
65.7177211812
 30
0.0
 10
-45.2916115857
 20
65.8206243338
 30
0.0
 10
-45.5903981225
 20
65.9477867906
 30
0.0
 10
-45.9984113455
 20
66.0456387118
 30
0.0
 10
-46.2887797739
 20
66.0789645739
 30
0.0
 10
-46.567844221
 20
66.0734594722
 30
0.0
 10
-46.8326575524
 20
66.0289365604
 30
0.0
 10
-47.0801240466
 20
65.9457012058
 30
0.0
 10
-47.2320177692
 20
65.8646750053
 30
0.0
 10
-47.303399929
 20
65.8185492556
 30
0.0
  0
SPLINE
  5
2DB
100
AcDbEntity
  8
RACCORDO
100
AcDbSpline
 62
7
  6
CONTINUOUS
 70
0
 71
3
 72
9
 73
5
 74
0
 42
0.0000001
 43
0.0000001
 44
0.0000000001
 40
0.0
 40
0.0
 40
0.0
 40
0.0
 40
0.25786967
 40
1.0
 40
1.0
 40
1.0
 40
1.0
 10
-52.6522002441
 20
61.569293624
 30
0.0
 10
-52.6511565356
 20
61.5684894402
 30
0.0
 10
-52.6470374226
 20
61.5654646296
 30
0.0
 10
-52.6426593268
 20
61.5627956919
 30
0.0
 10
-52.639308524
 20
61.5610206399
 30
0.0
  0
SPLINE
  5
2DC
100
AcDbEntity
  8
RACCORDO
100
AcDbSpline
 62
7
  6
CONTINUOUS
 70
0
 71
3
 72
9
 73
5
 74
0
 42
0.0000001
 43
0.0000001
 44
0.0000000001
 40
0.0
 40
0.0
 40
0.0
 40
0.0
 40
0.5020122299
 40
1.0
 40
1.0
 40
1.0
 40
1.0
 10
52.8746691721
 20
-62.1815260052
 30
0.0
 10
52.9795773366
 20
-62.1620177324
 30
0.0
 10
53.1857811082
 20
-62.1059177516
 30
0.0
 10
53.3792085731
 20
-62.0147940194
 30
0.0
 10
53.4705771338
 20
-61.9613500908
 30
0.0
  0
SPLINE
  5
2DD
100
AcDbEntity
  8
RACCORDO
100
AcDbSpline
 62
7
  6
CONTINUOUS
 70
0
 71
3
 72
14
 73
10
 74
0
 42
0.0000001
 43
0.0000001
 44
0.0000000001
 40
0.0
 40
0.0
 40
0.0
 40
0.0
 40
0.0682416194
 40
0.1474528411
 40
0.2420558356
 40
0.3547865165
 40
0.4870866057
 40
0.6393230385
 40
1.0
 40
1.0
 40
1.0
 40
1.0
 10
-52.5038066825
 20
61.1747340346
 30
0.0
 10
-52.4951742339
 20
61.1800441883
 30
0.0
 10
-52.4744638972
 20
61.1882830428
 30
0.0
 10
-52.4384751954
 20
61.1923653246
 30
0.0
 10
-52.395859433
 20
61.1892282879
 30
0.0
 10
-52.3463843123
 20
61.1789034698
 30
0.0
 10
-52.2899673161
 20
61.1614134349
 30
0.0
 10
-52.2006337639
 20
61.126598102
 30
0.0
 10
-52.1321068506
 20
61.0930002882
 30
0.0
 10
-52.0847721919
 20
61.0679252566
 30
0.0
  0
SPLINE
  5
2DE
100
AcDbEntity
  8
DRAFT
100
AcDbSpline
 62
7
  6
CONTINUOUS
 70
0
 71
3
 72
14
 73
10
 74
0
 42
0.0000001
 43
0.0000001
 44
0.0000000001
 40
0.0
 40
0.0
 40
0.0
 40
0.0
 40
0.111463678
 40
0.224352926
 40
0.3402184941
 40
0.4603901471
 40
0.5859099582
 40
0.7175065117
 40
1.0
 40
1.0
 40
1.0
 40
1.0
 10
58.5634445015
 20
-58.982394923
 30
0.0
 10
58.6324074331
 20
-58.9420556787
 30
0.0
 10
58.7650519716
 20
-58.8497697817
 30
0.0
 10
58.9418482069
 20
-58.6804949772
 30
0.0
 10
59.095279149
 20
-58.4818582578
 30
0.0
 10
59.2238992087
 20
-58.2559836576
 30
0.0
 10
59.3266626268
 20
-58.0050712453
 30
0.0
 10
59.4304887426
 20
-57.6318008068
 30
0.0
 10
59.4628621673
 20
-57.3342126012
 30
0.0
 10
59.4678795944
 20
-57.1317900455
 30
0.0
  0
SPLINE
  5
2DF
100
AcDbEntity
  8
RACCORDO
100
AcDbSpline
 62
7
  6
CONTINUOUS
 70
0
 71
3
 72
9
 73
5
 74
0
 42
0.0000001
 43
0.0000001
 44
0.0000000001
 40
0.0
 40
0.0
 40
0.0
 40
0.0
 40
0.4791781493
 40
1.0
 40
1.0
 40
1.0
 40
1.0
 10
53.090977221
 20
5.3521914114
 30
0.0
 10
53.1611734189
 20
5.3150057227
 30
0.0
 10
53.3039658852
 20
5.2303903203
 30
0.0
 10
53.4404786484
 20
5.1360810584
 30
0.0
 10
53.5096985158
 20
5.0844733006
 30
0.0
  0
SPLINE
  5
2E0
100
AcDbEntity
  8
RACCORDO
100
AcDbSpline
 62
250
  6
CONTINUOUS
 70
0
 71
3
 72
14
 73
10
 74
0
 42
0.0000001
 43
0.0000001
 44
0.0000000001
 40
0.0
 40
0.0
 40
0.0
 40
0.0
 40
0.2625314942
 40
0.3916745184
 40
0.5189748894
 40
0.6440136567
 40
0.7662731749
 40
0.8851484945
 40
1.0
 40
1.0
 40
1.0
 40
1.0
 10
52.5075758466
 20
5.875078586
 30
0.0
 10
52.7547537371
 20
5.744137939
 30
0.0
 10
53.1164383933
 20
5.5345283268
 30
0.0
 10
53.5732135438
 20
5.2225344747
 30
0.0
 10
53.8956448455
 20
4.974639587
 30
0.0
 10
54.1958618896
 20
4.7111579395
 30
0.0
 10
54.4690093543
 20
4.4319412877
 30
0.0
 10
54.7090529262
 20
4.1375514343
 30
0.0
 10
54.8449308378
 20
3.9279926853
 30
0.0
 10
54.9044710124
 20
3.8210839665
 30
0.0
  0
SPLINE
  5
2E1
100
AcDbEntity
  8
RACCORDO
100
AcDbSpline
 62
7
  6
CONTINUOUS
 70
0
 71
3
 72
19
 73
15
 74
0
 42
0.0000001
 43
0.0000001
 44
0.0000000001
 40
0.0
 40
0.0
 40
0.0
 40
0.0
 40
0.0571047106
 40
0.1097816026
 40
0.1574043924
 40
0.2017147828
 40
0.2493866168
 40
0.3059336901
 40
0.3701273808
 40
0.4387417273
 40
0.5810251021
 40
0.7241056844
 40
0.8645023834
 40
1.0
 40
1.0
 40
1.0
 40
1.0
 10
52.0237982508
 20
6.1169530363
 30
0.0
 10
52.0265732208
 20
6.1156406295
 30
0.0
 10
52.0320592463
 20
6.1134065635
 30
0.0
 10
52.0403575643
 20
6.1115305486
 30
0.0
 10
52.048276106
 20
6.1117570638
 30
0.0
 10
52.0552683053
 20
6.1154154154
 30
0.0
 10
52.0591757456
 20
6.1228312518
 30
0.0
 10
52.0597607992
 20
6.1320027166
 30
0.0
 10
52.058068038
 20
6.1420922822
 30
0.0
 10
52.0534292815
 20
6.1561732125
 30
0.0
 10
52.0446860436
 20
6.1731865828
 30
0.0
 10
52.0316186937
 20
6.1920300142
 30
0.0
 10
52.0167927628
 20
6.2090393995
 30
0.0
 10
52.0058677811
 20
6.2191275414
 30
0.0
 10
52.0002093405
 20
6.2237138426
 30
0.0
  0
SPLINE
  5
2E2
100
AcDbEntity
  8
RACCORDO
100
AcDbSpline
 62
7
  6
CONTINUOUS
 70
0
 71
3
 72
9
 73
5
 74
0
 42
0.0000001
 43
0.0000001
 44
0.0000000001
 40
0.0
 40
0.0
 40
0.0
 40
0.0
 40
0.2444141874
 40
1.0
 40
1.0
 40
1.0
 40
1.0
 10
-52.2082133318
 20
61.1280783393
 30
0.0
 10
-52.2094199752
 20
61.1199552625
 30
0.0
 10
-52.2138112181
 20
61.0866405638
 30
0.0
 10
-52.2160663456
 20
61.053052906
 30
0.0
 10
-52.2166954259
 20
61.0276733533
 30
0.0
  0
SPLINE
  5
2E3
100
AcDbEntity
  8
RACCORDO
100
AcDbSpline
 62
7
  6
CONTINUOUS
 70
0
 71
3
 72
14
 73
10
 74
0
 42
0.0000001
 43
0.0000001
 44
0.0000000001
 40
0.0
 40
0.0
 40
0.0
 40
0.0
 40
0.2286548367
 40
0.3332179542
 40
0.4355741058
 40
0.5451422261
 40
0.6802300976
 40
0.8420086011
 40
1.0
 40
1.0
 40
1.0
 40
1.0
 10
-52.6146386737
 20
61.6423426734
 30
0.0
 10
-52.6242622446
 20
61.6447755206
 30
0.0
 10
-52.6392112686
 20
61.6460900145
 30
0.0
 10
-52.6576058739
 20
61.640941226
 30
0.0
 10
-52.6693282624
 20
61.6331924557
 30
0.0
 10
-52.6774597532
 20
61.6197435128
 30
0.0
 10
-52.6771737624
 20
61.6012021201
 30
0.0
 10
-52.6676734226
 20
61.5833002413
 30
0.0
 10
-52.6576332588
 20
61.573479795
 30
0.0
 10
-52.6522002441
 20
61.569293624
 30
0.0
  0
SPLINE
  5
2E4
100
AcDbEntity
  8
RACCORDO
100
AcDbSpline
 62
250
  6
CONTINUOUS
 70
0
 71
3
 72
18
 73
14
 74
0
 42
0.0000001
 43
0.0000001
 44
0.0000000001
 40
0.0
 40
0.0
 40
0.0
 40
0.0
 40
0.2050704171
 40
0.3857025341
 40
0.5415210413
 40
0.6723339322
 40
0.7786717333
 40
0.8233737918
 40
0.8631432971
 40
0.8989868379
 40
0.9324000008
 40
0.965347076
 40
1.0
 40
1.0
 40
1.0
 40
1.0
 10
-52.6146258116
 20
61.6423398854
 30
0.0
 10
-52.6323354373
 20
61.6857064437
 30
0.0
 10
-52.6665462539
 20
61.7669177902
 30
0.0
 10
-52.7194265211
 20
61.8787962864
 30
0.0
 10
-52.7712102345
 20
61.9722675051
 30
0.0
 10
-52.8219314285
 20
62.0464879731
 30
0.0
 10
-52.8655666558
 20
62.0944148926
 30
0.0
 10
-52.9003167841
 20
62.1209301238
 30
0.0
 10
-52.9245421908
 20
62.1341864365
 30
0.0
 10
-52.9484577304
 20
62.1417931743
 30
0.0
 10
-52.9720075546
 20
62.1434204321
 30
0.0
 10
-52.9948879304
 20
62.1387700633
 30
0.0
 10
-53.0088525846
 20
62.1317595925
 30
0.0
 10
-53.0155009436
 20
62.1274635435
 30
0.0
  0
SPLINE
  5
2E5
100
AcDbEntity
  8
RACCORDO
100
AcDbSpline
 62
250
  6
CONTINUOUS
 70
0
 71
3
 72
16
 73
12
 74
0
 42
0.0000001
 43
0.0000001
 44
0.0000000001
 40
0.0
 40
0.0
 40
0.0
 40
0.0
 40
0.1366098148
 40
0.2718234325
 40
0.4048521505
 40
0.5346899423
 40
0.6601430056
 40
0.779975495
 40
0.8932381143
 40
0.9474126939
 40
1.0
 40
1.0
 40
1.0
 40
1.0
 10
52.0001968288
 20
6.2237244434
 30
0.0
 10
52.2356351192
 20
6.1757197526
 30
0.0
 10
52.7003192125
 20
6.0596888527
 30
0.0
 10
53.3711264864
 20
5.8167353496
 30
0.0
 10
53.9996095137
 20
5.5042765843
 30
0.0
 10
54.5696314193
 20
5.1243251339
 30
0.0
 10
55.0628338803
 20
4.6821075225
 30
0.0
 10
55.4589014946
 20
4.1872729241
 30
0.0
 10
55.6943065479
 20
3.7353007878
 30
0.0
 10
55.8105688096
 20
3.3653353639
 30
0.0
 10
55.8441849693
 20
3.1799364427
 30
0.0
 10
55.854481248
 20
3.0880157153
 30
0.0
  0
SPLINE
  5
2E6
100
AcDbEntity
  8
RACCORDO
100
AcDbSpline
 62
250
  6
CONTINUOUS
 70
0
 71
3
 72
11
 73
7
 74
0
 42
0.0000001
 43
0.0000001
 44
0.0000000001
 40
0.0
 40
0.0
 40
0.0
 40
0.0
 40
0.2367309707
 40
0.4910772829
 40
0.7501843156
 40
1.0
 40
1.0
 40
1.0
 40
1.0
 10
55.8544812488
 20
3.0880157098
 30
0.0
 10
55.8173645325
 20
3.0582291926
 30
0.0
 10
55.7309160657
 20
3.0078648097
 30
0.0
 10
55.5854968924
 20
2.9638276551
 30
0.0
 10
55.4314722903
 20
2.9511827954
 30
0.0
 10
55.3290084607
 20
2.9651264526
 30
0.0
 10
55.2805166635
 20
2.9781925984
 30
0.0
  0
SPLINE
  5
2E7
100
AcDbEntity
  8
RACCORDO
100
AcDbSpline
 62
250
  6
CONTINUOUS
 70
0
 71
3
 72
9
 73
5
 74
0
 42
0.0000001
 43
0.0000001
 44
0.0000000001
 40
0.0
 40
0.0
 40
0.0
 40
0.0
 40
0.2408336945
 40
1.0
 40
1.0
 40
1.0
 40
1.0
 10
55.854481248
 20
3.0880157153
 30
0.0
 10
55.8628703381
 20
3.0253161978
 30
0.0
 10
55.891916384
 20
2.7642085228
 30
0.0
 10
55.8988354486
 20
2.5008256995
 30
0.0
 10
55.8938943297
 20
2.3014815546
 30
0.0
  0
SPLINE
  5
2E8
100
AcDbEntity
  8
RACCORDO
100
AcDbSpline
 62
250
  6
CONTINUOUS
 70
0
 71
3
 72
11
 73
7
 74
0
 42
0.0000001
 43
0.0000001
 44
0.0000000001
 40
0.0
 40
0.0
 40
0.0
 40
0.0
 40
0.2256263674
 40
0.4767207145
 40
0.7400360684
 40
1.0
 40
1.0
 40
1.0
 40
1.0
 10
55.8938950619
 20
2.3014811532
 30
0.0
 10
55.8574010697
 20
2.2797660983
 30
0.0
 10
55.77370216
 20
2.2447958998
 30
0.0
 10
55.636385907
 20
2.2176475386
 30
0.0
 10
55.4900095746
 20
2.2142815627
 30
0.0
 10
55.3919546031
 20
2.2285197725
 30
0.0
 10
55.3444078724
 20
2.240066555
 30
0.0
  0
LINE
  5
2E9
100
AcDbEntity
  8
RACCORDO
100
AcDbLine
 62
250
  6
CONTINUOUS
 10
55.8938943297
 20
2.3014815546
 11
54.3453861201
 21
-60.1713774589
  0
SPLINE
  5
2EA
100
AcDbEntity
  8
RACCORDO
100
AcDbSpline
 62
250
  6
CONTINUOUS
 70
0
 71
3
 72
11
 73
7
 74
0
 42
0.0000001
 43
0.0000001
 44
0.0000000001
 40
0.0
 40
0.0
 40
0.0
 40
0.0
 40
0.2254803164
 40
0.4764556699
 40
0.7397828098
 40
1.0
 40
1.0
 40
1.0
 40
1.0
 10
54.3453861201
 20
-60.1713774589
 30
0.0
 10
54.3090832903
 20
-60.1929188479
 30
0.0
 10
54.2258757891
 20
-60.2276522546
 30
0.0
 10
54.0893705365
 20
-60.2547745365
 30
0.0
 10
53.9437612675
 20
-60.2584278854
 30
0.0
 10
53.8461409468
 20
-60.2445959767
 30
0.0
 10
53.7987498656
 20
-60.233311414
 30
0.0
  0
SPLINE
  5
2EB
100
AcDbEntity
  8
RACCORDO
100
AcDbSpline
 62
250
  6
CONTINUOUS
 70
0
 71
3
 72
14
 73
10
 74
0
 42
0.0000001
 43
0.0000001
 44
0.0000000001
 40
0.0
 40
0.0
 40
0.0
 40
0.0
 40
0.2824935915
 40
0.414090168
 40
0.5396099011
 40
0.6597815267
 40
0.7756470376
 40
0.8885362824
 40
1.0
 40
1.0
 40
1.0
 40
1.0
 10
54.3453861201
 20
-60.1713774589
 30
0.0
 10
54.3405330696
 20
-60.3671684212
 30
0.0
 10
54.3092199438
 20
-60.6550072413
 30
0.0
 10
54.2087951922
 20
-61.0160488134
 30
0.0
 10
54.1093975173
 20
-61.2587405152
 30
0.0
 10
53.9849909054
 20
-61.4772148157
 30
0.0
 10
53.8365854918
 20
-61.6693430119
 30
0.0
 10
53.6655806193
 20
-61.8330712778
 30
0.0
 10
53.5372811678
 20
-61.9223331028
 30
0.0
 10
53.4705771338
 20
-61.9613500908
 30
0.0
  0
SPLINE
  5
2EC
100
AcDbEntity
  8
RACCORDO
100
AcDbSpline
 62
7
  6
CONTINUOUS
 70
0
 71
3
 72
9
 73
5
 74
0
 42
0.0000001
 43
0.0000001
 44
0.0000000001
 40
0.0
 40
0.0
 40
0.0
 40
0.0
 40
0.520740468
 40
1.0
 40
1.0
 40
1.0
 40
1.0
 10
-52.545797686
 20
61.1124859136
 30
0.0
 10
-52.5426791503
 20
61.1254195802
 30
0.0
 10
-52.5332608679
 20
61.1498616873
 30
0.0
 10
-52.5142359844
 20
61.1683185669
 30
0.0
 10
-52.5038066825
 20
61.1747340346
 30
0.0
  0
SPLINE
  5
2ED
100
AcDbEntity
  8
RACCORDO
100
AcDbSpline
 62
250
  6
CONTINUOUS
 70
0
 71
3
 72
15
 73
11
 74
0
 42
0.0000001
 43
0.0000001
 44
0.0000000001
 40
0.0
 40
0.0
 40
0.0
 40
0.0
 40
0.1386714751
 40
0.264604585
 40
0.3808191675
 40
0.491564534
 40
0.6024221559
 40
0.7198656972
 40
0.8504218236
 40
1.0
 40
1.0
 40
1.0
 40
1.0
 10
-52.7425649816
 20
61.6302204918
 30
0.0
 10
-52.7564580617
 20
61.6375802022
 30
0.0
 10
-52.7837282368
 20
61.6502892544
 30
0.0
 10
-52.8251875894
 20
61.6629484539
 30
0.0
 10
-52.865173026
 20
61.6677188837
 30
0.0
 10
-52.9036327285
 20
61.6639446072
 30
0.0
 10
-52.9402243331
 20
61.6509519022
 30
0.0
 10
-52.9744600396
 20
61.6282954332
 30
0.0
 10
-53.0060115053
 20
61.5957034146
 30
0.0
 10
-53.0237586456
 20
61.5691730735
 30
0.0
 10
-53.0322313064
 20
61.5544826454
 30
0.0
  0
SPLINE
  5
2EE
100
AcDbEntity
  8
RACCORDO
100
AcDbSpline
 62
7
  6
CONTINUOUS
 70
0
 71
3
 72
9
 73
5
 74
0
 42
0.0000001
 43
0.0000001
 44
0.0000000001
 40
0.0
 40
0.0
 40
0.0
 40
0.0
 40
0.2611237328
 40
1.0
 40
1.0
 40
1.0
 40
1.0
 10
-51.9272383439
 20
61.3722796133
 30
0.0
 10
-51.9841180574
 20
61.4024110361
 30
0.0
 10
-52.204884306
 20
61.5120339827
 30
0.0
 10
-52.4380589269
 20
61.5977021856
 30
0.0
 10
-52.6146386737
 20
61.6423426734
 30
0.0
  0
SPLINE
  5
2EF
100
AcDbEntity
  8
RACCORDO
100
AcDbSpline
 62
7
  6
CONTINUOUS
 70
0
 71
3
 72
9
 73
5
 74
0
 42
0.0000001
 43
0.0000001
 44
0.0000000001
 40
0.0
 40
0.0
 40
0.0
 40
0.0
 40
0.2586112923
 40
1.0
 40
1.0
 40
1.0
 40
1.0
 10
52.0002093405
 20
6.2237138426
 30
0.0
 10
51.945176335
 20
6.2683190995
 30
0.0
 10
51.7286392137
 20
6.4360823662
 30
0.0
 10
51.4967765431
 20
6.5845084891
 30
0.0
 10
51.31731793
 20
6.6795747794
 30
0.0
  0
SPLINE
  5
2F0
100
AcDbEntity
  8
0
100
AcDbSpline
 62
7
  6
CONTINUOUS
 70
0
 71
3
 72
9
 73
5
 74
0
 42
0.0000001
 43
0.0000001
 44
0.0000000001
 40
0.0
 40
0.0
 40
0.0
 40
0.0
 40
0.4832456082
 40
1.0
 40
1.0
 40
1.0
 40
1.0
 10
28.3307048898
 20
-48.5117463808
 30
0.0
 10
28.298637326
 20
-48.5314725282
 30
0.0
 10
28.2247148487
 20
-48.5608721772
 30
0.0
 10
28.1457516825
 20
-48.5656522097
 30
0.0
 10
28.1055710658
 20
-48.5631307071
 30
0.0
  0
SPLINE
  5
2F1
100
AcDbEntity
  8
0
100
AcDbSpline
 62
7
  6
CONTINUOUS
 70
0
 71
3
 72
16
 73
12
 74
0
 42
0.0000001
 43
0.0000001
 44
0.0000000001
 40
0.0
 40
0.0
 40
0.0
 40
0.0
 40
0.0448113937
 40
0.0910085893
 40
0.1919205213
 40
0.3087422859
 40
0.4407245002
 40
0.5830173431
 40
0.7285973214
 40
0.8698531102
 40
1.0
 40
1.0
 40
1.0
 40
1.0
 10
27.9816392361
 20
-48.0281022061
 30
0.0
 10
27.990593678
 20
-48.0225937895
 30
0.0
 10
28.0074897309
 20
-48.0091513803
 30
0.0
 10
28.0354697004
 20
-47.9734214964
 30
0.0
 10
28.0564457409
 20
-47.913434718
 30
0.0
 10
28.0580641659
 20
-47.8305000158
 30
0.0
 10
28.0384122773
 20
-47.7401669302
 30
0.0
 10
27.9991092025
 20
-47.6492574084
 30
0.0
 10
27.9433256448
 20
-47.5648150567
 30
0.0
 10
27.8755413245
 20
-47.4935860769
 30
0.0
 10
27.8229147919
 20
-47.4566267568
 30
0.0
 10
27.795866648
 20
-47.4424604009
 30
0.0
  0
SPLINE
  5
2F2
100
AcDbEntity
  8
0
100
AcDbSpline
 62
7
  6
CONTINUOUS
 70
0
 71
3
 72
14
 73
10
 74
0
 42
0.0000001
 43
0.0000001
 44
0.0000000001
 40
0.0
 40
0.0
 40
0.0
 40
0.0
 40
0.1088542556
 40
0.222182417
 40
0.3405199647
 40
0.4638923987
 40
0.5920091735
 40
0.7244291602
 40
1.0
 40
1.0
 40
1.0
 40
1.0
 10
55.3039959408
 20
2.842420663
 30
0.0
 10
55.2874488674
 20
2.9666981797
 30
0.0
 10
55.2270515722
 20
3.2173542528
 30
0.0
 10
55.0667741928
 20
3.5772134712
 30
0.0
 10
54.8437870055
 20
3.9216706437
 30
0.0
 10
54.5671584149
 20
4.2468649646
 30
0.0
 10
54.2454591769
 20
4.5512759233
 30
0.0
 10
53.7603463469
 20
4.9342717297
 30
0.0
 10
53.3602177313
 20
5.1835830856
 30
0.0
 10
53.0836646646
 20
5.3393271447
 30
0.0
  0
SPLINE
  5
2F3
100
AcDbEntity
  8
0
100
AcDbSpline
 62
7
  6
CONTINUOUS
 70
0
 71
3
 72
12
 73
8
 74
0
 42
0.0000001
 43
0.0000001
 44
0.0000000001
 40
0.0
 40
0.0
 40
0.0
 40
0.0
 40
0.3330207663
 40
0.5978045406
 40
0.8105838912
 40
0.9060683732
 40
1.0
 40
1.0
 40
1.0
 40
1.0
 10
-53.2404805808
 20
61.6676565785
 30
0.0
 10
-53.2637801274
 20
61.6799996956
 30
0.0
 10
-53.3064279823
 20
61.7007661736
 30
0.0
 10
-53.3677086555
 20
61.7207519377
 30
0.0
 10
-53.4139235643
 20
61.7236498186
 30
0.0
 10
-53.4450362443
 20
61.7158380552
 30
0.0
 10
-53.4585567698
 20
61.7090285371
 30
0.0
 10
-53.4648032833
 20
61.7049923089
 30
0.0
  0
SPLINE
  5
2F4
100
AcDbEntity
  8
0
100
AcDbSpline
 62
7
  6
CONTINUOUS
 70
0
 71
3
 72
15
 73
11
 74
0
 42
0.0000001
 43
0.0000001
 44
0.0000000001
 40
0.0
 40
0.0
 40
0.0
 40
0.0
 40
0.0545395653
 40
0.1183606344
 40
0.1996312895
 40
0.3044780127
 40
0.4365454866
 40
0.5970886162
 40
0.785509093
 40
1.0
 40
1.0
 40
1.0
 40
1.0
 10
26.4293729585
 20
-42.4700301066
 30
0.0
 10
26.4410321899
 20
-42.4628637788
 30
0.0
 10
26.4651128241
 20
-42.4452459516
 30
0.0
 10
26.5006315687
 20
-42.4096726894
 30
0.0
 10
26.5381472547
 20
-42.3591521067
 30
0.0
 10
26.5767499347
 20
-42.2890051952
 30
0.0
 10
26.6136544712
 20
-42.1960935409
 30
0.0
 10
26.6451974513
 20
-42.0793329284
 30
0.0
 10
26.667752843
 20
-41.9395303644
 30
0.0
 10
26.6743842963
 20
-41.8384839446
 30
0.0
 10
26.6757179648
 20
-41.7846785654
 30
0.0
  0
SPLINE
  5
2F5
100
AcDbEntity
  8
0
100
AcDbSpline
 62
7
  6
CONTINUOUS
 70
0
 71
3
 72
15
 73
11
 74
0
 42
0.0000001
 43
0.0000001
 44
0.0000000001
 40
0.0
 40
0.0
 40
0.0
 40
0.0
 40
0.2150190078
 40
0.4047371643
 40
0.5668575698
 40
0.7002008733
 40
0.8054849089
 40
0.8860164913
 40
0.9479859954
 40
1.0
 40
1.0
 40
1.0
 40
1.0
 10
-40.6752732417
 20
32.9917321354
 30
0.0
 10
-40.7287165781
 20
33.0200431741
 30
0.0
 10
-40.8316097964
 20
33.0691943348
 30
0.0
 10
-40.9816648348
 20
33.1238661229
 30
0.0
 10
-41.1144040252
 20
33.1567729807
 30
0.0
 10
-41.2265288529
 20
33.1708815552
 30
0.0
 10
-41.3165758727
 20
33.1704576374
 30
0.0
 10
-41.3857742523
 20
33.160219651
 30
0.0
 10
-41.438241481
 20
33.1439499797
 30
0.0
 10
-41.4670251352
 20
33.1294561188
 30
0.0
 10
-41.4794890896
 20
33.1217951693
 30
0.0
  0
SPLINE
  5
2F6
100
AcDbEntity
  8
0
100
AcDbSpline
 62
7
  6
CONTINUOUS
 70
0
 71
3
 72
15
 73
11
 74
0
 42
0.0000001
 43
0.0000001
 44
0.0000000001
 40
0.0
 40
0.0
 40
0.0
 40
0.0
 40
0.1052476121
 40
0.2262942064
 40
0.3579107275
 40
0.4950542651
 40
0.6328011216
 40
0.7662406574
 40
0.8903687043
 40
1.0
 40
1.0
 40
1.0
 40
1.0
 10
27.5803728336
 20
-5.2873766775
 30
0.0
 10
27.5836457345
 20
-5.1553351041
 30
0.0
 10
27.562702965
 20
-4.8705363389
 30
0.0
 10
27.4630761884
 20
-4.4312013054
 30
0.0
 10
27.2924968725
 20
-3.9712661939
 30
0.0
 10
27.0574995453
 20
-3.5170917894
 30
0.0
 10
26.7691120374
 20
-3.0920407417
 30
0.0
 10
26.4422315969
 20
-2.7170957353
 30
0.0
 10
26.0962486769
 20
-2.4107592746
 30
0.0
 10
25.8496382368
 20
-2.2491316825
 30
0.0
 10
25.728060074
 20
-2.1847269448
 30
0.0
  0
SPLINE
  5
2F7
100
AcDbEntity
  8
ASSI
100
AcDbSpline
 62
7
  6
CONTINUOUS
 70
0
 71
3
 72
13
 73
9
 74
0
 42
0.0000001
 43
0.0000001
 44
0.0000000001
 40
0.0
 40
0.0
 40
0.0
 40
0.0
 40
0.1101140169
 40
0.2220120178
 40
0.3373251747
 40
0.4574137124
 40
0.7152026046
 40
1.0
 40
1.0
 40
1.0
 40
1.0
 10
-41.2175048916
 20
32.6959125752
 30
0.0
 10
-41.1854435484
 20
32.7156354325
 30
0.0
 10
-41.1173914831
 20
32.7501292274
 30
0.0
 10
-41.0070311403
 20
32.7851126685
 30
0.0
 10
-40.8892435704
 20
32.8032389347
 30
0.0
 10
-40.7201568651
 20
32.8048156269
 30
0.0
 10
-40.4954387491
 20
32.7613650434
 30
0.0
 10
-40.3237531799
 20
32.6879574155
 30
0.0
 10
-40.2377220916
 20
32.6423833622
 30
0.0
  0
SPLINE
  5
2F8
100
AcDbEntity
  8
SUPERFICI
100
AcDbSpline
 62
7
  6
CONTINUOUS
 70
0
 71
3
 72
15
 73
11
 74
0
 42
0.0000001
 43
0.0000001
 44
0.0000000001
 40
0.0
 40
0.0
 40
0.0
 40
0.0
 40
0.1114341443
 40
0.2242865935
 40
0.3400907259
 40
0.4601998767
 40
0.5856941982
 40
0.7173728327
 40
0.8555178197
 40
1.0
 40
1.0
 40
1.0
 40
1.0
 10
52.9446635068
 20
-62.1403834245
 30
0.0
 10
53.0094740836
 20
-62.102449406
 30
0.0
 10
53.1340928825
 20
-62.0156316452
 30
0.0
 10
53.3002539163
 20
-61.856553157
 30
0.0
 10
53.4444643164
 20
-61.6698979158
 30
0.0
 10
53.5652997683
 20
-61.4575926743
 30
0.0
 10
53.6619551035
 20
-61.2217341823
 30
0.0
 10
53.7333606556
 20
-60.9644903926
 30
0.0
 10
53.7791771567
 20
-60.6886131024
 30
0.0
 10
53.7922081463
 20
-60.4982774801
 30
0.0
 10
53.7946208348
 20
-60.4009402224
 30
0.0
  0
SPLINE
  5
2F9
100
AcDbEntity
  8
0
100
AcDbSpline
 62
7
  6
CONTINUOUS
 70
0
 71
3
 72
9
 73
5
 74
0
 42
0.0000001
 43
0.0000001
 44
0.0000000001
 40
0.0
 40
0.0
 40
0.0
 40
0.0
 40
0.4984522283
 40
1.0
 40
1.0
 40
1.0
 40
1.0
 10
26.8275229859
 20
-48.8648788649
 30
0.0
 10
26.8275515732
 20
-48.4724298524
 30
0.0
 10
26.8315260578
 20
-47.6850885387
 30
0.0
 10
26.8434086015
 20
-46.8978321482
 30
0.0
 10
26.8507279958
 20
-46.5030137442
 30
0.0
  0
LINE
  5
2FA
100
AcDbEntity
  8
0
100
AcDbLine
 62
7
  6
CONTINUOUS
 10
27.2614788085
 20
-49.0911792662
 11
26.8275229859
 21
-48.8648788649
  0
LINE
  5
2FB
100
AcDbEntity
  8
0
100
AcDbLine
 62
7
  6
CONTINUOUS
 10
27.6430642246
 20
-48.3792868006
 11
27.2644602207
 21
-48.1816878218
  0
SPLINE
  5
2FC
100
AcDbEntity
  8
0
100
AcDbSpline
 62
7
  6
CONTINUOUS
 70
0
 71
3
 72
8
 73
4
 74
0
 42
0.0000001
 43
0.0000001
 44
0.0000000001
 40
0.0
 40
0.0
 40
0.0
 40
0.0
 40
1.0
 40
1.0
 40
1.0
 40
1.0
 10
28.5674465231
 20
-49.7682065247
 30
0.0
 10
28.4037775687
 20
-49.6837979648
 30
0.0
 10
28.2401845513
 20
-49.5992420444
 30
0.0
 10
28.0766567756
 20
-49.5145602979
 30
0.0
  0
SPLINE
  5
2FD
100
AcDbEntity
  8
0
100
AcDbSpline
 62
7
  6
CONTINUOUS
 70
0
 71
3
 72
8
 73
4
 74
0
 42
0.0000001
 43
0.0000001
 44
0.0000000001
 40
0.0
 40
0.0
 40
0.0
 40
0.0
 40
1.0
 40
1.0
 40
1.0
 40
1.0
 10
27.7958667093
 20
-47.4424587443
 30
0.0
 10
27.6203084472
 20
-47.3505108152
 30
0.0
 10
27.4448320134
 20
-47.2584065963
 30
0.0
 10
27.2694052754
 20
-47.1662079811
 30
0.0
  0
SPLINE
  5
2FE
100
AcDbEntity
  8
0
100
AcDbSpline
 62
7
  6
CONTINUOUS
 70
0
 71
3
 72
8
 73
4
 74
0
 42
0.0000001
 43
0.0000001
 44
0.0000000001
 40
0.0
 40
0.0
 40
0.0
 40
0.0
 40
1.0
 40
1.0
 40
1.0
 40
1.0
 10
25.970176426
 20
-47.9528233343
 30
0.0
 10
25.7425374852
 20
-47.8332812763
 30
0.0
 10
25.5149713243
 20
-47.71360055
 30
0.0
 10
25.2874685048
 20
-47.5937996398
 30
0.0
  0
LINE
  5
2FF
100
AcDbEntity
  8
0
100
AcDbLine
 62
7
  6
CONTINUOUS
 10
26.538500321
 20
-48.7138522222
 11
26.1053309209
 21
-48.4870615863
  0
LINE
  5
300
100
AcDbEntity
  8
0
100
AcDbLine
 62
7
  6
CONTINUOUS
 10
25.1491394684
 20
-47.9848439176
 11
24.7171786896
 21
-47.7573287167
  0
LINE
  5
301
100
AcDbEntity
  8
0
100
AcDbLine
 62
7
  6
CONTINUOUS
 10
22.7517519765
 20
-46.7183956069
 11
22.320990143
 21
-46.4901364129
  0
LINE
  5
302
100
AcDbEntity
  8
0
100
AcDbLine
 62
7
  6
CONTINUOUS
 10
23.5901577777
 20
-47.1622044215
 11
23.1591206231
 21
-46.9341329691
  0
LINE
  5
303
100
AcDbEntity
  8
0
100
AcDbLine
 62
7
  6
CONTINUOUS
 10
24.4293737354
 20
-47.6055456873
 11
23.9978867476
 21
-47.3777325635
  0
LINE
  5
304
100
AcDbEntity
  8
0
100
AcDbLine
 62
7
  6
CONTINUOUS
 10
52.6146828234
 20
5.5898930431
 11
52.2481479548
 21
5.3677949505
  0
LINE
  5
305
100
AcDbEntity
  8
0
100
AcDbLine
 62
7
  6
CONTINUOUS
 10
21.8903026292
 20
-46.2618442577
 11
21.459604539
 21
-46.0335515191
  0
SPLINE
  5
306
100
AcDbEntity
  8
ASSI
100
AcDbSpline
 62
7
  6
CONTINUOUS
 70
0
 71
3
 72
12
 73
8
 74
0
 42
0.0000001
 43
0.0000001
 44
0.0000000001
 40
0.0
 40
0.0
 40
0.0
 40
0.0
 40
0.2824478945
 40
0.5395143895
 40
0.7755170368
 40
0.8885567909
 40
1.0
 40
1.0
 40
1.0
 40
1.0
 10
26.5612610232
 20
-41.2192488067
 30
0.0
 10
26.5590412808
 20
-41.3088018655
 30
0.0
 10
26.5406416654
 20
-41.4801194881
 30
0.0
 10
26.464074622
 20
-41.7159545872
 30
0.0
 10
26.3594071307
 20
-41.8804060636
 30
0.0
 10
26.2553425313
 20
-41.9835487519
 30
0.0
 10
26.1974937156
 20
-42.0256281471
 30
0.0
 10
26.1673887604
 20
-42.0441475126
 30
0.0
  0
SPLINE
  5
307
100
AcDbEntity
  8
ASSI
100
AcDbSpline
 62
7
  6
CONTINUOUS
 70
0
 71
3
 72
9
 73
5
 74
0
 42
0.0000001
 43
0.0000001
 44
0.0000000001
 40
0.0
 40
0.0
 40
0.0
 40
0.0
 40
0.2442664957
 40
1.0
 40
1.0
 40
1.0
 40
1.0
 10
26.1656112241
 20
-2.534075718
 30
0.0
 10
26.1826728387
 20
-2.5431139268
 30
0.0
 10
26.251898025
 20
-2.581285267
 30
0.0
 10
26.3186146163
 20
-2.6239630655
 30
0.0
 10
26.3675037706
 20
-2.6582884618
 30
0.0
  0
SPLINE
  5
308
100
AcDbEntity
  8
ASSI
100
AcDbSpline
 62
7
  6
CONTINUOUS
 70
0
 71
3
 72
9
 73
5
 74
0
 42
0.0000001
 43
0.0000001
 44
0.0000000001
 40
0.0
 40
0.0
 40
0.0
 40
0.0
 40
0.2578142057
 40
1.0
 40
1.0
 40
1.0
 40
1.0
 10
27.4461939394
 20
-4.4114085808
 30
0.0
 10
27.4500492404
 20
-4.4378877668
 30
0.0
 10
27.4630153524
 20
-4.5408646542
 30
0.0
 10
27.4678246653
 20
-4.6449395723
 30
0.0
 10
27.4659158921
 20
-4.7219469188
 30
0.0
  0
SPLINE
  5
309
100
AcDbEntity
  8
RACCORDO
100
AcDbSpline
 62
250
  6
CONTINUOUS
 70
0
 71
3
 72
14
 73
10
 74
0
 42
0.0000001
 43
0.0000001
 44
0.0000000001
 40
0.0
 40
0.0
 40
0.0
 40
0.0
 40
0.116556322
 40
0.2393948807
 40
0.366958279
 40
0.4972266183
 40
0.6279599615
 40
0.7568615749
 40
1.0
 40
1.0
 40
1.0
 40
1.0
 10
48.2283585753
 20
-0.2296901162
 30
0.0
 10
48.23877653
 20
-0.0996029916
 30
0.0
 10
48.2338849168
 20
0.1700708389
 30
0.0
 10
48.1599266742
 20
0.5756790384
 30
0.0
 10
48.0244668617
 20
0.9812301402
 30
0.0
 10
47.8334151679
 20
1.3733487138
 30
0.0
 10
47.5924894415
 20
1.739230887
 30
0.0
 10
47.2224497798
 20
2.1641231822
 30
0.0
 10
46.8784226578
 20
2.4181814716
 30
0.0
 10
46.6306761604
 20
2.5310190651
 30
0.0
  0
SPLINE
  5
30A
100
AcDbEntity
  8
RACCORDO
100
AcDbSpline
 62
250
  6
CONTINUOUS
 70
0
 71
3
 72
14
 73
10
 74
0
 42
0.0000001
 43
0.0000001
 44
0.0000000001
 40
0.0
 40
0.0
 40
0.0
 40
0.0
 40
0.2537615531
 40
0.3857796589
 40
0.5178506944
 40
0.64749216
 40
0.7723593219
 40
0.8903951144
 40
1.0
 40
1.0
 40
1.0
 40
1.0
 10
47.3094222876
 20
-32.109949632
 30
0.0
 10
47.4611758391
 20
-32.1618773993
 30
0.0
 10
47.7016004094
 20
-32.2144673902
 30
0.0
 10
48.0282627657
 20
-32.2387005293
 30
0.0
 10
48.2774972048
 20
-32.2335626256
 30
0.0
 10
48.5205461907
 20
-32.2050084419
 30
0.0
 10
48.7508520912
 20
-32.1538117456
 30
0.0
 10
48.9620608391
 20
-32.0813887412
 30
0.0
 10
49.0916480214
 20
-32.0175942546
 30
0.0
 10
49.1512216368
 20
-31.9822354638
 30
0.0
  0
SPLINE
  5
30B
100
AcDbEntity
  8
RACCORDO
100
AcDbSpline
 62
250
  6
CONTINUOUS
 70
0
 71
3
 72
19
 73
15
 74
0
 42
0.0000001
 43
0.0000001
 44
0.0000000001
 40
0.0
 40
0.0
 40
0.0
 40
0.0
 40
0.1245949824
 40
0.2492399702
 40
0.3738867307
 40
0.4984764536
 40
0.5607388702
 40
0.6229800789
 40
0.6852157725
 40
0.7474816286
 40
0.8098526182
 40
0.8724845342
 40
0.9356806104
 40
1.0
 40
1.0
 40
1.0
 40
1.0
 10
49.1512216368
 20
-31.9822354639
 30
0.0
 10
49.1836937603
 20
-30.6634360635
 30
0.0
 10
49.2501707604
 20
-28.0253453662
 30
0.0
 10
49.3524760807
 20
-24.0679925347
 30
0.0
 10
49.4550771169
 20
-20.1107029979
 30
0.0
 10
49.5378656639
 20
-16.8136226029
 30
0.0
 10
49.6017264951
 20
-14.1770204645
 30
0.0
 10
49.6483902364
 20
-12.2003939923
 30
0.0
 10
49.6946306979
 20
-10.2237215057
 30
0.0
 10
49.7421371285
 20
-8.2457031822
 30
0.0
 10
49.794413439
 20
-6.2636085382
 30
0.0
 10
49.8591232641
 20
-4.2719929207
 30
0.0
 10
49.9511907993
 20
-2.2607735417
 30
0.0
 10
50.0497681696
 20
-0.9138504689
 30
0.0
 10
50.1159464768
 20
-0.2360663921
 30
0.0
  0
SPLINE
  5
30C
100
AcDbEntity
  8
RACCORDO
100
AcDbSpline
 62
250
  6
CONTINUOUS
 70
0
 71
3
 72
17
 73
13
 74
0
 42
0.0000001
 43
0.0000001
 44
0.0000000001
 40
0.0
 40
0.0
 40
0.0
 40
0.0
 40
0.1245074868
 40
0.2490708645
 40
0.3736414517
 40
0.4981608122
 40
0.6226018785
 40
0.7470630554
 40
0.8094401392
 40
0.8721195457
 40
0.9354424855
 40
1.0
 40
1.0
 40
1.0
 40
1.0
 10
47.3094222876
 20
-32.109949632
 30
0.0
 10
47.3426229181
 20
-30.7866385615
 30
0.0
 10
47.4103428389
 20
-28.139455101
 30
0.0
 10
47.5139732743
 20
-24.1683595355
 30
0.0
 10
47.6172887486
 20
-20.1971293511
 30
0.0
 10
47.7166893192
 20
-16.2270988162
 30
0.0
 10
47.8102959849
 20
-12.2580916202
 30
0.0
 10
47.8847925716
 20
-8.9494966886
 30
0.0
 10
47.9507128124
 20
-6.2975155981
 30
0.0
 10
48.0101759399
 20
-4.295581039
 30
0.0
 10
48.0909693486
 20
-2.2711811442
 30
0.0
 10
48.173567492
 20
-0.9138564375
 30
0.0
 10
48.2283585747
 20
-0.2296901167
 30
0.0
  0
SPLINE
  5
30D
100
AcDbEntity
  8
RACCORDO
100
AcDbSpline
 62
250
  6
CONTINUOUS
 70
0
 71
3
 72
15
 73
11
 74
0
 42
0.0000001
 43
0.0000001
 44
0.0000000001
 40
0.0
 40
0.0
 40
0.0
 40
0.0
 40
0.1233180503
 40
0.2519938639
 40
0.3836597198
 40
0.5157659065
 40
0.6457365137
 40
0.7711240832
 40
0.8897725105
 40
1.0
 40
1.0
 40
1.0
 40
1.0
 10
46.4889420382
 20
-63.7461435636
 30
0.0
 10
46.563960918
 20
-63.7735314205
 30
0.0
 10
46.7208046716
 20
-63.8201069191
 30
0.0
 10
46.9656036655
 20
-63.8649630911
 30
0.0
 10
47.2193544905
 20
-63.8854504105
 30
0.0
 10
47.4747166432
 20
-63.8809639957
 30
0.0
 10
47.7243540137
 20
-63.8516403275
 30
0.0
 10
47.9611234836
 20
-63.7983032193
 30
0.0
 10
48.1782062223
 20
-63.7224944521
 30
0.0
 10
48.3111505644
 20
-63.6556061319
 30
0.0
 10
48.3721501916
 20
-63.6185282192
 30
0.0
  0
SPLINE
  5
30E
100
AcDbEntity
  8
RACCORDO
100
AcDbSpline
 62
250
  6
CONTINUOUS
 70
0
 71
3
 72
19
 73
15
 74
0
 42
0.0000001
 43
0.0000001
 44
0.0000000001
 40
0.0
 40
0.0
 40
0.0
 40
0.0
 40
0.031122824
 40
0.0623332796
 40
0.1248628018
 40
0.1874282696
 40
0.2499847969
 40
0.3125217652
 40
0.3750410457
 40
0.5000432862
 40
0.6250237236
 40
0.7500042613
 40
0.8749948976
 40
1.0
 40
1.0
 40
1.0
 40
1.0
 10
48.3721501916
 20
-63.6185282192
 30
0.0
 10
48.3769980514
 20
-63.2902606153
 30
0.0
 10
48.3893277988
 20
-62.6328400124
 30
0.0
 10
48.4195890468
 20
-61.3160542868
 30
0.0
 10
48.4623876526
 20
-59.6677983434
 30
0.0
 10
48.5146753826
 20
-57.689021758
 30
0.0
 10
48.5663372911
 20
-55.7101493283
 30
0.0
 10
48.6168871427
 20
-53.7317357342
 30
0.0
 10
48.6830729218
 20
-51.0947896916
 30
0.0
 10
48.7640763425
 20
-47.7993149575
 30
0.0
 10
48.8602747667
 20
-43.8451338124
 30
0.0
 10
48.9565912521
 20
-39.8910779566
 30
0.0
 10
49.0534557295
 20
-35.9367752194
 30
0.0
 10
49.1185468662
 20
-33.300464126
 30
0.0
 10
49.1512216368
 20
-31.9822354639
 30
0.0
  0
SPLINE
  5
30F
100
AcDbEntity
  8
RACCORDO
100
AcDbSpline
 62
250
  6
CONTINUOUS
 70
0
 71
3
 72
18
 73
14
 74
0
 42
0.0000001
 43
0.0000001
 44
0.0000000001
 40
0.0
 40
0.0
 40
0.0
 40
0.0
 40
0.0310552841
 40
0.0622249496
 40
0.1247131416
 40
0.1872620576
 40
0.2498120883
 40
0.3748710577
 40
0.4998890381
 40
0.6248951766
 40
0.7499106143
 40
0.8749444347
 40
1.0
 40
1.0
 40
1.0
 40
1.0
 10
46.4889420382
 20
-63.7461435636
 30
0.0
 10
46.4967839665
 20
-63.4186354866
 30
0.0
 10
46.5138899395
 20
-62.762446669
 30
0.0
 10
46.5505634932
 20
-61.4473599874
 30
0.0
 10
46.5983020723
 20
-59.8002273482
 30
0.0
 10
46.6546081618
 20
-57.8221732693
 30
0.0
 10
46.7278040239
 20
-55.1842743844
 30
0.0
 10
46.8152080309
 20
-51.8875321366
 30
0.0
 10
46.9161917523
 20
-47.9320722231
 30
0.0
 10
47.0152126025
 20
-43.9770221868
 30
0.0
 10
47.1134373377
 20
-40.0217852281
 30
0.0
 10
47.2114014885
 20
-36.0660202429
 30
0.0
 10
47.2767283907
 20
-33.4286382153
 30
0.0
 10
47.3094173845
 20
-32.1098331055
 30
0.0
  0
SPLINE
  5
310
100
AcDbEntity
  8
RACCORDO
100
AcDbSpline
 62
250
  6
CONTINUOUS
 70
0
 71
3
 72
13
 73
9
 74
0
 42
0.0000001
 43
0.0000001
 44
0.0000000001
 40
0.0
 40
0.0
 40
0.0
 40
0.0
 40
0.3122437842
 40
0.578048937
 40
0.6947413751
 40
0.8022602575
 40
0.9029619756
 40
1.0
 40
1.0
 40
1.0
 40
1.0
 10
44.6319931183
 20
-64.8033174577
 30
0.0
 10
44.6335393591
 20
-64.87746612
 30
0.0
 10
44.645591326
 20
-65.0148379438
 30
0.0
 10
44.6915289999
 20
-65.1751110112
 30
0.0
 10
44.7468052301
 20
-65.2780303164
 30
0.0
 10
44.7943013487
 20
-65.3393917884
 30
0.0
 10
44.8492333464
 20
-65.3874583039
 30
0.0
 10
44.8908093956
 20
-65.4102702779
 30
0.0
 10
44.9121357674
 20
-65.4190125352
 30
0.0
  0
SPLINE
  5
311
100
AcDbEntity
  8
RACCORDO
100
AcDbSpline
 62
250
  6
CONTINUOUS
 70
0
 71
3
 72
18
 73
14
 74
0
 42
0.0000001
 43
0.0000001
 44
0.0000000001
 40
0.0
 40
0.0
 40
0.0
 40
0.0
 40
0.1429860526
 40
0.2753706217
 40
0.3985282476
 40
0.4576079856
 40
0.515546225
 40
0.572857461
 40
0.6300888248
 40
0.6877978995
 40
0.7465268955
 40
0.8687210605
 40
1.0
 40
1.0
 40
1.0
 40
1.0
 10
44.6319931183
 20
-64.8033174577
 30
0.0
 10
44.7459096131
 20
-64.8479654817
 30
0.0
 10
44.9729476968
 20
-64.9164117453
 30
0.0
 10
45.3144990438
 20
-64.9508268563
 30
0.0
 10
45.5845188977
 20
-64.9177321855
 30
0.0
 10
45.7805656051
 20
-64.8543982592
 30
0.0
 10
45.9157302524
 20
-64.7902183204
 30
0.0
 10
46.039645597
 20
-64.7091918599
 30
0.0
 10
46.1510458379
 20
-64.6119510793
 30
0.0
 10
46.248661093
 20
-64.4992518268
 30
0.0
 10
46.360257889
 20
-64.3275638143
 30
0.0
 10
46.4585750823
 20
-64.0757445843
 30
0.0
 10
46.4862530296
 20
-63.8584472009
 30
0.0
 10
46.4889420393
 20
-63.7461435626
 30
0.0
  0
SPLINE
  5
312
100
AcDbEntity
  8
RACCORDO
100
AcDbSpline
 62
250
  6
CONTINUOUS
 70
0
 71
3
 72
11
 73
7
 74
0
 42
0.0000001
 43
0.0000001
 44
0.0000000001
 40
0.0
 40
0.0
 40
0.0
 40
0.0
 40
0.2911844945
 40
0.5505304979
 40
0.7830964003
 40
1.0
 40
1.0
 40
1.0
 40
1.0
 10
21.6592298284
 20
-54.0514550006
 30
0.0
 10
21.6619335914
 20
-54.0955593347
 30
0.0
 10
21.6735504463
 20
-54.1788159286
 30
0.0
 10
21.7134618133
 20
-54.2918015173
 30
0.0
 10
21.7745161162
 20
-54.3820614074
 30
0.0
 10
21.8295850778
 20
-54.4247469984
 30
0.0
 10
21.8586655213
 20
-54.4401654083
 30
0.0
  0
SPLINE
  5
313
100
AcDbEntity
  8
RACCORDO
100
AcDbSpline
 62
250
  6
CONTINUOUS
 70
0
 71
3
 72
17
 73
13
 74
0
 42
0.0000001
 43
0.0000001
 44
0.0000000001
 40
0.0
 40
0.0
 40
0.0
 40
0.0
 40
0.1233346904
 40
0.2468712877
 40
0.370654547
 40
0.4948250435
 40
0.6195549203
 40
0.6821915165
 40
0.7450505893
 40
0.8081749788
 40
0.8716210851
 40
1.0
 40
1.0
 40
1.0
 40
1.0
 10
21.6590518148
 20
-54.0513590434
 30
0.0
 10
22.5808082522
 20
-54.5397473058
 30
0.0
 10
24.4354645921
 20
-55.4991798134
 30
0.0
 10
27.2400048982
 20
-56.9002017046
 30
0.0
 10
30.0663104078
 20
-58.273009219
 30
0.0
 10
32.9137951173
 20
-59.6249739145
 30
0.0
 10
35.3023412539
 20
-60.7375740464
 30
0.0
 10
37.225924979
 20
-61.6201205444
 30
0.0
 10
38.6790450224
 20
-62.2785404129
 30
0.0
 10
40.1424581868
 20
-62.9307913687
 30
0.0
 10
42.1199747661
 20
-63.7905893182
 30
0.0
 10
43.6210557614
 20
-64.4070949512
 30
0.0
 10
44.6319931188
 20
-64.8033174573
 30
0.0
  0
SPLINE
  5
314
100
AcDbEntity
  8
RACCORDO
100
AcDbSpline
 62
250
  6
CONTINUOUS
 70
0
 71
3
 72
11
 73
7
 74
0
 42
0.0000001
 43
0.0000001
 44
0.0000000001
 40
0.0
 40
0.0
 40
0.0
 40
0.0
 40
0.2913175408
 40
0.5506395342
 40
0.7832320063
 40
1.0
 40
1.0
 40
1.0
 40
1.0
 10
-37.7292171955
 20
-22.5910572726
 30
0.0
 10
-37.7263327276
 20
-22.6349123153
 30
0.0
 10
-37.7148245667
 20
-22.717673896
 30
0.0
 10
-37.6754238788
 20
-22.8301084542
 30
0.0
 10
-37.6152018159
 20
-22.920102067
 30
0.0
 10
-37.5608299091
 20
-22.9629548081
 30
0.0
 10
-37.5320777137
 20
-22.9785364252
 30
0.0
  0
SPLINE
  5
315
100
AcDbEntity
  8
0
100
AcDbSpline
 62
250
  6
CONTINUOUS
 70
0
 71
3
 72
21
 73
17
 74
0
 42
0.0000001
 43
0.0000001
 44
0.0000000001
 40
0.0
 40
0.0
 40
0.0
 40
0.0
 40
0.1250081524
 40
0.2499492134
 40
0.3747500898
 40
0.4992893048
 40
0.561438875
 40
0.6235166259
 40
0.6855514827
 40
0.747601221
 40
0.8097837768
 40
0.8409805669
 40
0.8722879087
 40
0.9037650535
 40
0.9354995867
 40
1.0
 40
1.0
 40
1.0
 40
1.0
 10
29.7765994463
 20
-24.5863203115
 30
0.0
 10
29.7949116577
 20
-23.8285973906
 30
0.0
 10
29.8324897117
 20
-22.313581523
 30
0.0
 10
29.8906010992
 20
-20.0421554945
 30
0.0
 10
29.953348177
 20
-17.7736937235
 30
0.0
 10
30.0139346648
 20
-15.8860455383
 30
0.0
 10
30.0685100523
 20
-14.3787208201
 30
0.0
 10
30.1121015605
 20
-13.2502246815
 30
0.0
 10
30.1573814329
 20
-12.122401253
 30
0.0
 10
30.2025502486
 20
-10.9939386655
 30
0.0
 10
30.2365401499
 20
-10.0521517167
 30
0.0
 10
30.258120362
 20
-9.2964601367
 30
0.0
 10
30.2706157194
 20
-8.7267692841
 30
0.0
 10
30.2771568376
 20
-8.153701119
 30
0.0
 10
30.2731861742
 20
-7.3793502653
 30
0.0
 10
30.2514350672
 20
-6.7959914604
 30
0.0
 10
30.2272157519
 20
-6.4056659397
 30
0.0
  0
LINE
  5
316
100
AcDbEntity
  8
0
100
AcDbLine
 62
7
  6
CONTINUOUS
 10
25.4227976682
 20
-47.2149637937
 11
25.8415514082
 21
-47.4354491069
  0
SPLINE
  5
317
100
AcDbEntity
  8
0
100
AcDbSpline
 62
250
  6
CONTINUOUS
 70
0
 71
3
 72
9
 73
5
 74
0
 42
0.0000001
 43
0.0000001
 44
0.0000000001
 40
0.0
 40
0.0
 40
0.0
 40
0.0
 40
0.5032558314
 40
1.0
 40
1.0
 40
1.0
 40
1.0
 10
24.6959139541
 20
1.3393937605
 30
0.0
 10
24.2209068712
 20
1.6352298178
 30
0.0
 10
23.2664438207
 20
2.206150852
 30
0.0
 10
22.2971725195
 20
2.7512445422
 30
0.0
 10
21.8136651508
 20
3.0183025797
 30
0.0
  0
SPLINE
  5
318
100
AcDbEntity
  8
0
100
AcDbSpline
 62
250
  6
CONTINUOUS
 70
0
 71
3
 72
9
 73
5
 74
0
 42
0.0000001
 43
0.0000001
 44
0.0000000001
 40
0.0
 40
0.0
 40
0.0
 40
0.0
 40
0.5013492876
 40
1.0
 40
1.0
 40
1.0
 40
1.0
 10
21.6618407353
 20
3.1020069631
 30
0.0
 10
20.9854783883
 20
3.4742370369
 30
0.0
 10
19.6291540427
 20
4.2035316642
 30
0.0
 10
18.2655211667
 20
4.9189265484
 30
0.0
 10
17.5847064393
 20
5.2740511881
 30
0.0
  0
SPLINE
  5
319
100
AcDbEntity
  8
0
100
AcDbSpline
 62
250
  6
CONTINUOUS
 70
0
 71
3
 72
12
 73
8
 74
0
 42
0.0000001
 43
0.0000001
 44
0.0000000001
 40
0.0
 40
0.0
 40
0.0
 40
0.0
 40
0.1250123915
 40
0.2499551004
 40
0.4998029348
 40
0.7497804795
 40
1.0
 40
1.0
 40
1.0
 40
1.0
 10
16.8390541096
 20
5.6622304304
 30
0.0
 10
16.3977279818
 20
5.8915671105
 30
0.0
 10
15.5147762352
 20
6.349062668
 30
0.0
 10
13.7483414722
 20
7.2620960623
 30
0.0
 10
11.5396718744
 20
8.4023009716
 30
0.0
 10
8.889775669
 20
9.7743307093
 30
0.0
 10
7.1245106203
 20
10.6930291647
 30
0.0
 10
6.2419206882
 20
11.153499782
 30
0.0
  0
SPLINE
  5
31A
100
AcDbEntity
  8
0
100
AcDbSpline
 62
250
  6
CONTINUOUS
 70
0
 71
3
 72
10
 73
6
 74
0
 42
0.0000001
 43
0.0000001
 44
0.0000000001
 40
0.0
 40
0.0
 40
0.0
 40
0.0
 40
0.2497178653
 40
0.6247065204
 40
1.0
 40
1.0
 40
1.0
 40
1.0
 10
5.4968835849
 20
11.5424817259
 30
0.0
 10
4.6224789653
 20
11.9993283216
 30
0.0
 10
2.4361589486
 20
13.1443699652
 30
0.0
 10
-1.0591062567
 20
14.9858457175
 30
0.0
 10
-3.6795091814
 20
16.3713176236
 30
0.0
 10
-4.9899053129
 20
17.0649728002
 30
0.0
  0
SPLINE
  5
31B
100
AcDbEntity
  8
RACCORDO
100
AcDbSpline
 62
250
  6
CONTINUOUS
 70
0
 71
3
 72
11
 73
7
 74
0
 42
0.0000001
 43
0.0000001
 44
0.0000000001
 40
0.0
 40
0.0
 40
0.0
 40
0.0
 40
0.2363166442
 40
0.4824071603
 40
0.7373392547
 40
1.0
 40
1.0
 40
1.0
 40
1.0
 10
-7.09094161
 20
18.1774764332
 30
0.0
 10
-7.0674665801
 20
19.1228549803
 30
0.0
 10
-6.95067809
 20
21.0514873466
 30
0.0
 10
-6.5844799649
 20
23.9810621947
 30
0.0
 10
-6.0254020515
 20
26.9872087664
 30
0.0
 10
-5.5332048552
 20
29.0003638642
 30
0.0
 10
-5.2568821781
 20
30.0144835656
 30
0.0
  0
LINE
  5
31C
100
AcDbEntity
  8
0
100
AcDbLine
 62
7
  6
CONTINUOUS
 10
25.4401499258
 20
-45.7568112807
 11
25.871178029
 21
-45.9849304926
  0
SPLINE
  5
31D
100
AcDbEntity
  8
0
100
AcDbSpline
 62
7
  6
CONTINUOUS
 70
0
 71
3
 72
9
 73
5
 74
0
 42
0.0000001
 43
0.0000001
 44
0.0000000001
 40
0.0
 40
0.0
 40
0.0
 40
0.0
 40
0.2487165642
 40
1.0
 40
1.0
 40
1.0
 40
1.0
 10
24.4494581697
 20
-47.5931909809
 30
0.0
 10
24.4500449996
 20
-47.3969261856
 30
0.0
 10
24.4543357173
 20
-46.607823683
 30
0.0
 10
24.4667275974
 20
-45.8187587071
 30
0.0
 10
24.4811788431
 20
-45.2260867393
 30
0.0
  0
LINE
  5
31E
100
AcDbEntity
  8
0
100
AcDbLine
 62
7
  6
CONTINUOUS
 10
22.3542521654
 20
-44.1220840284
 11
23.0053826215
 21
-44.4671906547
  0
LINE
  5
31F
100
AcDbEntity
  8
0
100
AcDbLine
 62
7
  6
CONTINUOUS
 10
24.4811788431
 20
-45.2260867393
 11
23.8298770629
 21
-44.881085501
  0
SPLINE
  5
320
100
AcDbEntity
  8
0
100
AcDbSpline
 62
7
  6
CONTINUOUS
 70
0
 71
3
 72
17
 73
13
 74
0
 42
0.0000001
 43
0.0000001
 44
0.0000000001
 40
0.0
 40
0.0
 40
0.0
 40
0.0
 40
0.0447611093
 40
0.0909005061
 40
0.1397244539
 40
0.1921340359
 40
0.3088649365
 40
0.4407860134
 40
0.5830577679
 40
0.7286474599
 40
0.8699064838
 40
1.0
 40
1.0
 40
1.0
 40
1.0
 10
28.3507883299
 20
-48.4993922862
 30
0.0
 10
28.3733330281
 20
-48.4855240659
 30
0.0
 10
28.4158698387
 20
-48.4516816844
 30
0.0
 10
28.4671736338
 20
-48.3860721284
 30
0.0
 10
28.5054017709
 20
-48.3071011623
 30
0.0
 10
28.5392873627
 20
-48.1821141516
 30
0.0
 10
28.5428981781
 20
-48.0015294485
 30
0.0
 10
28.4930548323
 20
-47.7742271047
 30
0.0
 10
28.3938517773
 20
-47.545143253
 30
0.0
 10
28.2531558096
 20
-47.3323947963
 30
0.0
 10
28.0823824179
 20
-47.1528342309
 30
0.0
 10
27.9498715168
 20
-47.0595519674
 30
0.0
 10
27.8817692665
 20
-47.023773868
 30
0.0
  0
SPLINE
  5
321
100
AcDbEntity
  8
RACCORDO
100
AcDbSpline
 62
250
  6
CONTINUOUS
 70
0
 71
3
 72
13
 73
9
 74
0
 42
0.0000001
 43
0.0000001
 44
0.0000000001
 40
0.0
 40
0.0
 40
0.0
 40
0.0
 40
0.1153271502
 40
0.2312018561
 40
0.3489674416
 40
0.469832205
 40
0.7241837025
 40
1.0
 40
1.0
 40
1.0
 40
1.0
 10
47.5047025353
 20
-65.3223645478
 30
0.0
 10
47.5709691814
 20
-65.2836009743
 30
0.0
 10
47.698304244
 20
-65.1959777584
 30
0.0
 10
47.8687390104
 20
-65.0369624737
 30
0.0
 10
48.0167394744
 20
-64.8521005225
 30
0.0
 10
48.1848822793
 20
-64.5692022731
 30
0.0
 10
48.3295028121
 20
-64.155677896
 30
0.0
 10
48.3686747528
 20
-63.8021022749
 30
0.0
 10
48.3721501916
 20
-63.6185282192
 30
0.0
  0
LINE
  5
322
100
AcDbEntity
  8
0
100
AcDbLine
 62
7
  6
CONTINUOUS
 10
23.025459836
 20
-44.4548403896
 11
22.3743293869
 21
-44.1097337589
  0
SPLINE
  5
323
100
AcDbEntity
  8
0
100
AcDbSpline
 62
7
  6
CONTINUOUS
 70
0
 71
3
 72
9
 73
5
 74
0
 42
0.0000001
 43
0.0000001
 44
0.0000000001
 40
0.0
 40
0.0
 40
0.0
 40
0.0
 40
0.2513270728
 40
1.0
 40
1.0
 40
1.0
 40
1.0
 10
24.4611016291
 20
-45.2384370041
 30
0.0
 10
24.4562672115
 20
-45.436704242
 30
0.0
 10
24.4393176965
 20
-46.2256404928
 30
0.0
 10
24.4311434308
 20
-47.014758688
 30
0.0
 10
24.4293737354
 20
-47.6055456873
 30
0.0
  0
LINE
  5
324
100
AcDbEntity
  8
0
100
AcDbLine
 62
7
  6
CONTINUOUS
 10
23.809799849
 20
-44.8934357657
 11
24.4611016291
 21
-45.2384370041
  0
SPLINE
  5
325
100
AcDbEntity
  8
0
100
AcDbSpline
 62
250
  6
CONTINUOUS
 70
0
 71
3
 72
11
 73
7
 74
0
 42
0.0000001
 43
0.0000001
 44
0.0000000001
 40
0.0
 40
0.0
 40
0.0
 40
0.0
 40
0.2460106211
 40
0.4955438234
 40
0.7471550482
 40
1.0
 40
1.0
 40
1.0
 40
1.0
 10
-38.8767391994
 20
35.0163295156
 30
0.0
 10
-38.3950605802
 20
34.8057894259
 30
0.0
 10
-37.4335628814
 20
34.3615591216
 30
0.0
 10
-36.0038731585
 20
33.6507644785
 30
0.0
 10
-34.572363201
 20
32.9113844587
 30
0.0
 10
-33.6193299135
 20
32.4077043017
 30
0.0
 10
-33.1423775328
 20
32.1538835036
 30
0.0
  0
SPLINE
  5
326
100
AcDbEntity
  8
0
100
AcDbSpline
 62
250
  6
CONTINUOUS
 70
0
 71
3
 72
10
 73
6
 74
0
 42
0.0000001
 43
0.0000001
 44
0.0000000001
 40
0.0
 40
0.0
 40
0.0
 40
0.0
 40
0.2495624552
 40
0.4995194722
 40
1.0
 40
1.0
 40
1.0
 40
1.0
 10
-33.1423775328
 20
32.1538835036
 30
0.0
 10
-32.7287700674
 20
31.9337731084
 30
0.0
 10
-31.9020321196
 20
31.4910790073
 30
0.0
 10
-30.2496779509
 20
30.5998033789
 30
0.0
 10
-29.0114349805
 20
29.9277291428
 30
0.0
 10
-28.1856715134
 20
29.4794326297
 30
0.0
  0
SPLINE
  5
327
100
AcDbEntity
  8
0
100
AcDbSpline
 62
250
  6
CONTINUOUS
 70
0
 71
3
 72
10
 73
6
 74
0
 42
0.0000001
 43
0.0000001
 44
0.0000000001
 40
0.0
 40
0.0
 40
0.0
 40
0.0
 40
0.2503176636
 40
0.5004583028
 40
1.0
 40
1.0
 40
1.0
 40
1.0
 10
-27.4470327863
 20
29.0783830311
 30
0.0
 10
-26.5718286791
 20
28.60315515
 30
0.0
 10
-24.8219887623
 20
27.6531278623
 30
0.0
 10
-21.3225087226
 20
25.760356892
 30
0.0
 10
-18.6945903628
 20
24.3495629899
 30
0.0
 10
-16.9417486619
 20
23.4127988846
 30
0.0
  0
LINE
  5
328
100
AcDbEntity
  8
0
100
AcDbLine
 62
250
  6
CONTINUOUS
 10
-16.9417486619
 20
23.4127988846
 11
-16.2003277949
 21
23.0168125873
  0
SPLINE
  5
329
100
AcDbEntity
  8
0
100
AcDbSpline
 62
250
  6
CONTINUOUS
 70
0
 71
3
 72
9
 73
5
 74
0
 42
0.0000001
 43
0.0000001
 44
0.0000000001
 40
0.0
 40
0.0
 40
0.0
 40
0.0
 40
0.5001939815
 40
1.0
 40
1.0
 40
1.0
 40
1.0
 10
-16.2003277949
 20
23.0168125873
 30
0.0
 10
-14.6830357498
 20
22.206942172
 30
0.0
 10
-11.6471639533
 20
20.5924487132
 30
0.0
 10
-8.6092978035
 20
18.98171687
 30
0.0
 10
-7.0904136978
 20
18.1776836654
 30
0.0
  0
LINE
  5
32A
100
AcDbEntity
  8
0
100
AcDbLine
 62
7
  6
CONTINUOUS
 10
21.4928905002
 20
-43.6654846952
 11
21.9235738407
 21
-43.8937921732
  0
SPLINE
  5
32B
100
AcDbEntity
  8
0
100
AcDbSpline
 62
250
  6
CONTINUOUS
 70
0
 71
3
 72
20
 73
16
 74
0
 42
0.0000001
 43
0.0000001
 44
0.0000000001
 40
0.0
 40
0.0
 40
0.0
 40
0.0
 40
0.1249990762
 40
0.2500652856
 40
0.3752714373
 40
0.5007380734
 40
0.6265141136
 40
0.6894803398
 40
0.7524318624
 40
0.8152510189
 40
0.8465565408
 40
0.8777545681
 40
0.908781069
 40
0.9395456555
 40
1.0
 40
1.0
 40
1.0
 40
1.0
 10
-45.0943013079
 20
15.0757424973
 30
0.0
 10
-45.0750518584
 20
15.8333928685
 30
0.0
 10
-45.0375090325
 20
17.3491250396
 30
0.0
 10
-44.9829326304
 20
19.623817925
 30
0.0
 10
-44.9330353615
 20
21.9014570743
 30
0.0
 10
-44.8929745326
 20
24.1836024265
 30
0.0
 10
-44.8700614298
 20
26.0885844042
 30
0.0
 10
-44.8553456855
 20
27.6145841266
 30
0.0
 10
-44.8441385125
 20
28.7588787164
 30
0.0
 10
-44.8311983515
 20
29.7111844359
 30
0.0
 10
-44.8152343785
 20
30.4708785872
 30
0.0
 10
-44.799577221
 20
31.0377579545
 30
0.0
 10
-44.7780238157
 20
31.6011824729
 30
0.0
 10
-44.7369614555
 20
32.3412573794
 30
0.0
 10
-44.687418293
 20
32.8924525262
 30
0.0
 10
-44.6436466221
 20
33.2563766244
 30
0.0
  0
SPLINE
  5
32C
100
AcDbEntity
  8
RACCORDO
100
AcDbSpline
 62
250
  6
CONTINUOUS
 70
0
 71
3
 72
11
 73
7
 74
0
 42
0.0000001
 43
0.0000001
 44
0.0000000001
 40
0.0
 40
0.0
 40
0.0
 40
0.0
 40
0.2417319132
 40
0.489102817
 40
0.7419373441
 40
1.0
 40
1.0
 40
1.0
 40
1.0
 10
-59.5431987309
 20
24.4941418599
 30
0.0
 10
-58.4602221106
 20
23.6199206965
 30
0.0
 10
-56.2198849798
 20
21.9111686291
 30
0.0
 10
-52.6945737829
 20
19.4957353622
 30
0.0
 10
-48.9781720023
 20
17.201841943
 30
0.0
 10
-46.4073050439
 20
15.770155004
 30
0.0
 10
-45.0943298414
 20
15.0746203628
 30
0.0
  0
SPLINE
  5
32D
100
AcDbEntity
  8
0
100
AcDbSpline
 62
250
  6
CONTINUOUS
 70
0
 71
3
 72
44
 73
40
 74
0
 42
0.0000001
 43
0.0000001
 44
0.0000000001
 40
0.0
 40
0.0
 40
0.0
 40
0.0
 40
0.0313159755
 40
0.0626086257
 40
0.0938567034
 40
0.1250373275
 40
0.1561809722
 40
0.1717771814
 40
0.187446209
 40
0.2032740093
 40
0.2194179204
 40
0.2361706054
 40
0.2449093703
 40
0.2539380171
 40
0.2585547168
 40
0.2632073722
 40
0.2678733316
 40
0.2725338436
 40
0.2817522654
 40
0.2907214523
 40
0.2994484149
 40
0.3079561064
 40
0.316288433
 40
0.3244848209
 40
0.3405769141
 40
0.3563965744
 40
0.3720395106
 40
0.3875647583
 40
0.4184034104
 40
0.4490868071
 40
0.4796947345
 40
0.5102695225
 40
0.540831933
 40
0.5713952737
 40
0.6325443227
 40
0.6937321203
 40
0.7549544955
 40
0.8774630561
 40
1.0
 40
1.0
 40
1.0
 40
1.0
 10
-37.9380091446
 20
-11.9516655157
 30
0.0
 10
-38.2257798976
 20
-11.7989691736
 30
0.0
 10
-38.8013267868
 20
-11.4941042399
 30
0.0
 10
-39.6646753578
 20
-11.0381114735
 30
0.0
 10
-40.5280310448
 20
-10.5851496258
 30
0.0
 10
-41.3922410919
 20
-10.1371758838
 30
0.0
 10
-42.1131772567
 20
-9.7666281732
 30
0.0
 10
-42.6895954423
 20
-9.4678964262
 30
0.0
 10
-43.1225653911
 20
-9.2386681584
 30
0.0
 10
-43.55618455
 20
-8.9985511985
 30
0.0
 10
-43.9902643382
 20
-8.7365625682
 30
0.0
 10
-44.3443077802
 20
-8.4855424267
 30
0.0
 10
-44.6153631495
 20
-8.249436581
 30
0.0
 10
-44.7761577902
 20
-8.0803730149
 30
0.0
 10
-44.8957321702
 20
-7.932160628
 30
0.0
 10
-44.9803136953
 20
-7.8143216231
 30
0.0
 10
-45.0577452947
 20
-7.691114093
 30
0.0
 10
-45.1503030373
 20
-7.5217420287
 30
0.0
 10
-45.2470611548
 20
-7.3041315021
 30
0.0
 10
-45.335936685
 20
-7.0382686641
 30
0.0
 10
-45.4023113046
 20
-6.7736800492
 30
0.0
 10
-45.4525957934
 20
-6.5123998291
 30
0.0
 10
-45.4900728511
 20
-6.2545932021
 30
0.0
 10
-45.5276952542
 20
-5.9172916967
 30
0.0
 10
-45.5572990411
 20
-5.5009581283
 30
0.0
 10
-45.5761708944
 20
-5.0065732688
 30
0.0
 10
-45.5840840422
 20
-4.5178042728
 30
0.0
 10
-45.5849699147
 20
-3.8727475815
 30
0.0
 10
-45.5744307785
 20
-3.0712795119
 30
0.0
 10
-45.5530176047
 20
-2.113108509
 30
0.0
 10
-45.5272309797
 20
-1.1577912276
 30
0.0
 10
-45.4996607063
 20
-0.2037852846
 30
0.0
 10
-45.471354947
 20
0.7497352979
 30
0.0
 10
-45.4338263888
 20
2.0211793737
 30
0.0
 10
-45.3880340869
 20
3.6111075135
 30
0.0
 10
-45.3356953372
 20
5.5199168466
 30
0.0
 10
-45.2687984983
 20
8.0668745815
 30
0.0
 10
-45.1890044578
 20
11.2519131722
 30
0.0
 10
-45.1258546391
 20
13.8002851858
 30
0.0
 10
-45.0943294874
 20
15.074620167
 30
0.0
  0
SPLINE
  5
32E
100
AcDbEntity
  8
RACCORDO
100
AcDbSpline
 62
250
  6
CONTINUOUS
 70
0
 71
3
 72
22
 73
18
 74
0
 42
0.0000001
 43
0.0000001
 44
0.0000000001
 40
0.0
 40
0.0
 40
0.0
 40
0.0
 40
0.0589963167
 40
0.1193442259
 40
0.1807423774
 40
0.2428639616
 40
0.3053712278
 40
0.3366646238
 40
0.3679479826
 40
0.4305070364
 40
0.4931041847
 40
0.5557948163
 40
0.6186321301
 40
0.6816670619
 40
0.7449263061
 40
0.872078673
 40
1.0
 40
1.0
 40
1.0
 40
1.0
 10
-37.7291008108
 20
-22.5914890631
 30
0.0
 10
-37.7284257957
 20
-22.3821360055
 30
0.0
 10
-37.7346607723
 20
-21.9585978012
 30
0.0
 10
-37.7600843653
 20
-21.3176856294
 30
0.0
 10
-37.7960664675
 20
-20.666192249
 30
0.0
 10
-37.8369625267
 20
-20.007327047
 30
0.0
 10
-37.8704662893
 20
-19.4550333403
 30
0.0
 10
-37.8940854971
 20
-19.0117865884
 30
0.0
 10
-37.914925099
 20
-18.5682169118
 30
0.0
 10
-37.9362106911
 20
-18.0134720875
 30
0.0
 10
-37.9549228615
 20
-17.3471322275
 30
0.0
 10
-37.9677011377
 20
-16.6796666744
 30
0.0
 10
-37.9753952699
 20
-16.0105720457
 30
0.0
 10
-37.9789562882
 20
-15.3394264722
 30
0.0
 10
-37.9789307067
 20
-14.4400432205
 30
0.0
 10
-37.9692307362
 20
-13.3104229609
 30
0.0
 10
-37.9504292241
 20
-12.4054363603
 30
0.0
 10
-37.9380420633
 20
-11.9516641796
 30
0.0
  0
SPLINE
  5
32F
100
AcDbEntity
  8
0
100
AcDbSpline
 62
7
  6
CONTINUOUS
 70
0
 71
3
 72
9
 73
5
 74
0
 42
0.0000001
 43
0.0000001
 44
0.0000000001
 40
0.0
 40
0.0
 40
0.0
 40
0.0
 40
0.2644674108
 40
1.0
 40
1.0
 40
1.0
 40
1.0
 10
-53.1785540546
 20
61.6327343009
 30
0.0
 10
-53.1839475455
 20
61.6359271835
 30
0.0
 10
-53.2043944204
 20
61.6479092063
 30
0.0
 10
-53.2250768878
 20
61.6594963517
 30
0.0
 10
-53.2404805808
 20
61.6676565785
 30
0.0
  0
SPLINE
  5
330
100
AcDbEntity
  8
0
100
AcDbSpline
 62
250
  6
CONTINUOUS
 70
0
 71
3
 72
38
 73
34
 74
0
 42
0.0000001
 43
0.0000001
 44
0.0000000001
 40
0.0
 40
0.0
 40
0.0
 40
0.0
 40
0.131658608
 40
0.1975390839
 40
0.2634814773
 40
0.3295115359
 40
0.3956390689
 40
0.4618242598
 40
0.4949122499
 40
0.5279720872
 40
0.5609607668
 40
0.5938246392
 40
0.6264746739
 40
0.6587891055
 40
0.6905406713
 40
0.7061131471
 40
0.7213962199
 40
0.7363350183
 40
0.7508477717
 40
0.7648038634
 40
0.7781572185
 40
0.7909412552
 40
0.8032632638
 40
0.8153980697
 40
0.8276789711
 40
0.8532457099
 40
0.8667149091
 40
0.8805779351
 40
0.9092324202
 40
0.9239552763
 40
0.9388731229
 40
0.9691926749
 40
1.0
 40
1.0
 40
1.0
 40
1.0
 10
21.4833182073
 20
-43.4294812474
 30
0.0
 10
21.8659287642
 20
-43.6318289532
 30
0.0
 10
22.4397277708
 20
-43.9359316444
 30
0.0
 10
23.2044939857
 20
-44.3426378559
 30
0.0
 10
23.7781854615
 20
-44.649139282
 30
0.0
 10
24.3517607612
 20
-44.9575777821
 30
0.0
 10
24.9250277432
 20
-45.2682671719
 30
0.0
 10
25.4025605611
 20
-45.5283150846
 30
0.0
 10
25.7847444912
 20
-45.7361490866
 30
0.0
 10
26.071271118
 20
-45.8914502888
 30
0.0
 10
26.3578240713
 20
-46.0451522949
 30
0.0
 10
26.6442686232
 20
-46.196196458
 30
0.0
 10
26.9306952771
 20
-46.3424824137
 30
0.0
 10
27.2166325332
 20
-46.4815850033
 30
0.0
 10
27.4559444461
 20
-46.5880040459
 30
0.0
 10
27.6473313176
 20
-46.6638108653
 30
0.0
 10
27.7893872165
 20
-46.713802906
 30
0.0
 10
27.9304162138
 20
-46.7557542135
 30
0.0
 10
28.0696329601
 20
-46.7876876174
 30
0.0
 10
28.2060988088
 20
-46.8063663313
 30
0.0
 10
28.3383182782
 20
-46.8081908788
 30
0.0
 10
28.4640787036
 20
-46.7903807728
 30
0.0
 10
28.5809502906
 20
-46.7510926515
 30
0.0
 10
28.6851089441
 20
-46.6881540528
 30
0.0
 10
28.8072028649
 20
-46.576926711
 30
0.0
 10
28.9013094021
 20
-46.4339285097
 30
0.0
 10
28.9735568883
 20
-46.2757491281
 30
0.0
 10
29.0371517551
 20
-46.1028343165
 30
0.0
 10
29.0864587834
 20
-45.9209037885
 30
0.0
 10
29.1263310753
 20
-45.7334482759
 30
0.0
 10
29.1618722173
 20
-45.5395333042
 30
0.0
 10
29.1979520177
 20
-45.2920825107
 30
0.0
 10
29.220563221
 20
-45.0923834144
 30
0.0
 10
29.2308284047
 20
-44.9916270774
 30
0.0
  0
SPLINE
  5
331
100
AcDbEntity
  8
0
100
AcDbSpline
 62
250
  6
CONTINUOUS
 70
0
 71
3
 72
13
 73
9
 74
0
 42
0.0000001
 43
0.0000001
 44
0.0000000001
 40
0.0
 40
0.0
 40
0.0
 40
0.0
 40
0.1223531022
 40
0.2461418968
 40
0.3708367219
 40
0.4961170598
 40
0.7477002438
 40
1.0
 40
1.0
 40
1.0
 40
1.0
 10
29.2311223868
 20
-44.9887383542
 30
0.0
 10
29.2484945302
 20
-44.8178479184
 30
0.0
 10
29.2767958445
 20
-44.4733856026
 30
0.0
 10
29.307837647
 20
-43.9536782637
 30
0.0
 10
29.331696933
 20
-43.4294816785
 30
0.0
 10
29.3572807748
 20
-42.7258051504
 30
0.0
 10
29.3816926284
 20
-41.8428497951
 30
0.0
 10
29.3975722258
 20
-41.1356283764
 30
0.0
 10
29.4051953352
 20
-40.7815075266
 30
0.0
  0
SPLINE
  5
332
100
AcDbEntity
  8
0
100
AcDbSpline
 62
250
  6
CONTINUOUS
 70
0
 71
3
 72
9
 73
5
 74
0
 42
0.0000001
 43
0.0000001
 44
0.0000000001
 40
0.0
 40
0.0
 40
0.0
 40
0.0
 40
0.2499220815
 40
1.0
 40
1.0
 40
1.0
 40
1.0
 10
29.4066307934
 20
-40.7146195499
 30
0.0
 10
29.4102479905
 20
-40.5455558105
 30
0.0
 10
29.4243867508
 20
-39.8690828502
 30
0.0
 10
29.4377525273
 20
-39.1925941519
 30
0.0
 10
29.447919425
 20
-38.6851778193
 30
0.0
  0
SPLINE
  5
333
100
AcDbEntity
  8
0
100
AcDbSpline
 62
250
  6
CONTINUOUS
 70
0
 71
3
 72
11
 73
7
 74
0
 42
0.0000001
 43
0.0000001
 44
0.0000000001
 40
0.0
 40
0.0
 40
0.0
 40
0.0
 40
0.2502922443
 40
0.5003162675
 40
0.7501802096
 40
1.0
 40
1.0
 40
1.0
 40
1.0
 10
29.448583141
 20
-38.6520620823
 30
0.0
 10
29.4721098191
 20
-37.4785558809
 30
0.0
 10
29.5209120836
 20
-35.1328349466
 30
0.0
 10
29.6030085663
 20
-31.6158307794
 30
0.0
 10
29.6894294389
 20
-28.1011489885
 30
0.0
 10
29.7474857545
 20
-25.7586083371
 30
0.0
 10
29.7765719783
 20
-24.5874430186
 30
0.0
  0
SPLINE
  5
334
100
AcDbEntity
  8
0
100
AcDbSpline
 62
250
  6
CONTINUOUS
 70
0
 71
3
 72
16
 73
12
 74
0
 42
0.0000001
 43
0.0000001
 44
0.0000000001
 40
0.0
 40
0.0
 40
0.0
 40
0.0
 40
0.137791321
 40
0.2806867594
 40
0.4237422439
 40
0.5619969214
 40
0.6910097575
 40
0.8074614136
 40
0.8605218024
 40
0.9101217334
 40
1.0
 40
1.0
 40
1.0
 40
1.0
 10
-42.2908302148
 20
31.9413335879
 30
0.0
 10
-42.3613852329
 20
31.9231215938
 30
0.0
 10
-42.5080995423
 20
31.8970056658
 30
0.0
 10
-42.7325581782
 20
31.88728022
 30
0.0
 10
-42.9567142137
 20
31.9063118302
 30
0.0
 10
-43.1693032957
 20
31.9531737933
 30
0.0
 10
-43.3597169965
 20
32.0255360672
 30
0.0
 10
-43.4964113738
 20
32.106754924
 30
0.0
 10
-43.5847696228
 20
32.1821999759
 30
0.0
 10
-43.653327121
 20
32.2576269805
 30
0.0
 10
-43.6911477771
 20
32.3229820392
 30
0.0
 10
-43.7065703716
 20
32.367940232
 30
0.0
  0
SPLINE
  5
335
100
AcDbEntity
  8
0
100
AcDbSpline
 62
250
  6
CONTINUOUS
 70
0
 71
3
 72
15
 73
11
 74
0
 42
0.0000001
 43
0.0000001
 44
0.0000000001
 40
0.0
 40
0.0
 40
0.0
 40
0.0
 40
0.1467786308
 40
0.2929314722
 40
0.4349539056
 40
0.5696491846
 40
0.6944171978
 40
0.8075998414
 40
0.9089191869
 40
1.0
 40
1.0
 40
1.0
 40
1.0
 10
-43.4881373853
 20
-4.6019094249
 30
0.0
 10
-43.5511384637
 20
-4.6060021552
 30
0.0
 10
-43.6774212298
 20
-4.6072588651
 30
0.0
 10
-43.8639708622
 20
-4.5890767461
 30
0.0
 10
-44.0423434458
 20
-4.5514829247
 30
0.0
 10
-44.2062911654
 20
-4.4957723181
 30
0.0
 10
-44.3501697116
 20
-4.4238339916
 30
0.0
 10
-44.4690908875
 20
-4.3378858725
 30
0.0
 10
-44.5589108868
 20
-4.2405375841
 30
0.0
 10
-44.5985290349
 20
-4.1663844334
 30
0.0
 10
-44.6112373566
 20
-4.1293263306
 30
0.0
  0
SPLINE
  5
336
100
AcDbEntity
  8
0
100
AcDbSpline
 62
250
  6
CONTINUOUS
 70
0
 71
3
 72
15
 73
11
 74
0
 42
0.0000001
 43
0.0000001
 44
0.0000000001
 40
0.0
 40
0.0
 40
0.0
 40
0.0
 40
0.1503461104
 40
0.298927561
 40
0.4422323537
 40
0.5771121043
 40
0.7010619224
 40
0.8125673063
 40
0.9115628349
 40
1.0
 40
1.0
 40
1.0
 40
1.0
 10
-41.6783459612
 20
-7.7107435929
 30
0.0
 10
-41.7099967447
 20
-7.7636850414
 30
0.0
 10
-41.7676672131
 20
-7.8721917845
 30
0.0
 10
-41.8365158814
 20
-8.0403739235
 30
0.0
 10
-41.8856462773
 20
-8.2087911927
 30
0.0
 10
-41.9134094148
 20
-8.3718394936
 30
0.0
 10
-41.9188807298
 20
-8.5242009065
 30
0.0
 10
-41.9016922381
 20
-8.6610875289
 30
0.0
 10
-41.8620677257
 20
-8.7781849517
 30
0.0
 10
-41.8187270783
 20
-8.8432712715
 30
0.0
 10
-41.7939009441
 20
-8.8697301384
 30
0.0
  0
SPLINE
  5
337
100
AcDbEntity
  8
0
100
AcDbSpline
 62
250
  6
CONTINUOUS
 70
0
 71
3
 72
16
 73
12
 74
0
 42
0.0000001
 43
0.0000001
 44
0.0000000001
 40
0.0
 40
0.0
 40
0.0
 40
0.0
 40
0.1434928167
 40
0.2898967238
 40
0.4343834458
 40
0.5722979643
 40
0.6996161047
 40
0.8134819757
 40
0.8650576355
 40
0.91312281
 40
1.0
 40
1.0
 40
1.0
 40
1.0
 10
24.8665493457
 20
-42.6840326345
 30
0.0
 10
24.8220293314
 20
-42.7389638254
 30
0.0
 10
24.7392040396
 20
-42.8558670402
 30
0.0
 10
24.6365350347
 20
-43.0441966303
 30
0.0
 10
24.5574475624
 20
-43.2406754866
 30
0.0
 10
24.5055450436
 20
-43.4363870179
 30
0.0
 10
24.4831691659
 20
-43.622510786
 30
0.0
 10
24.4902408866
 20
-43.7676019953
 30
0.0
 10
24.5130575517
 20
-43.8705958433
 30
0.0
 10
24.5440919584
 20
-43.9572072178
 30
0.0
 10
24.5801402235
 20
-44.0149706228
 30
0.0
 10
24.6094323716
 20
-44.0461892186
 30
0.0
  0
SPLINE
  5
338
100
AcDbEntity
  8
0
100
AcDbSpline
 62
250
  6
CONTINUOUS
 70
0
 71
3
 72
11
 73
7
 74
0
 42
0.0000001
 43
0.0000001
 44
0.0000000001
 40
0.0
 40
0.0
 40
0.0
 40
0.0
 40
0.2320709199
 40
0.478557192
 40
0.7359228156
 40
1.0
 40
1.0
 40
1.0
 40
1.0
 10
30.2272162598
 20
-6.4056454292
 30
0.0
 10
30.1034514044
 20
-6.3400669849
 30
0.0
 10
29.8390251432
 20
-6.2218017168
 30
0.0
 10
29.4151164234
 20
-6.0866458021
 30
0.0
 10
28.9608965429
 20
-5.9909229698
 30
0.0
 10
28.6476765082
 20
-5.9552769661
 30
0.0
 10
28.4886613797
 20
-5.9444622519
 30
0.0
  0
SPLINE
  5
339
100
AcDbEntity
  8
0
100
AcDbSpline
 62
250
  6
CONTINUOUS
 70
0
 71
3
 72
15
 73
11
 74
0
 42
0.0000001
 43
0.0000001
 44
0.0000000001
 40
0.0
 40
0.0
 40
0.0
 40
0.0
 40
0.113947861
 40
0.2363542961
 40
0.3650273309
 40
0.4971818666
 40
0.629731511
 40
0.7595570969
 40
0.8837705663
 40
1.0
 40
1.0
 40
1.0
 40
1.0
 10
28.4902874377
 20
-5.877576787
 30
0.0
 10
28.495702955
 20
-5.6589302066
 30
0.0
 10
28.4647906865
 20
-5.2038489877
 30
0.0
 10
28.3122442143
 20
-4.5178356646
 30
0.0
 10
28.0577091638
 20
-3.8254931155
 30
0.0
 10
27.7107301006
 20
-3.1528061007
 30
0.0
 10
27.2843463026
 20
-2.5247726161
 30
0.0
 10
26.7944365664
 20
-1.964801129
 30
0.0
 10
26.2593210179
 20
-1.4939862706
 30
0.0
 10
25.8701679874
 20
-1.2415896346
 30
0.0
 10
25.6729905832
 20
-1.1372271574
 30
0.0
  0
SPLINE
  5
33A
100
AcDbEntity
  8
0
100
AcDbSpline
 62
250
  6
CONTINUOUS
 70
0
 71
3
 72
15
 73
11
 74
0
 42
0.0000001
 43
0.0000001
 44
0.0000000001
 40
0.0
 40
0.0
 40
0.0
 40
0.0
 40
0.1140273199
 40
0.2364159421
 40
0.3650709772
 40
0.4972290667
 40
0.6297596074
 40
0.7595012417
 40
0.8836369387
 40
1.0
 40
1.0
 40
1.0
 40
1.0
 10
30.2285778466
 20
-6.3387031733
 30
0.0
 10
30.2355622617
 20
-6.0191327825
 30
0.0
 10
30.1898420278
 20
-5.3544889916
 30
0.0
 10
29.9676770393
 20
-4.3523389682
 30
0.0
 10
29.5965149766
 20
-3.3410535269
 30
0.0
 10
29.0894277683
 20
-2.3588365932
 30
0.0
 10
28.4653529064
 20
-1.4428030866
 30
0.0
 10
27.7480792401
 20
-0.6272020975
 30
0.0
 10
26.9652294231
 20
0.0587000027
 30
0.0
 10
26.3973526688
 20
0.4278871835
 30
0.0
 10
26.1098553677
 20
0.5819912582
 30
0.0
  0
SPLINE
  5
33B
100
AcDbEntity
  8
0
100
AcDbSpline
 62
250
  6
CONTINUOUS
 70
0
 71
3
 72
11
 73
7
 74
0
 42
0.0000001
 43
0.0000001
 44
0.0000000001
 40
0.0
 40
0.0
 40
0.0
 40
0.0
 40
0.2320692442
 40
0.4785566132
 40
0.7359223741
 40
1.0
 40
1.0
 40
1.0
 40
1.0
 10
30.2285778466
 20
-6.3387031733
 30
0.0
 10
30.1048224763
 20
-6.2731550225
 30
0.0
 10
29.8404390591
 20
-6.1549092545
 30
0.0
 10
29.4165966947
 20
-6.0197693756
 30
0.0
 10
28.9624486399
 20
-5.9240493509
 30
0.0
 10
28.649277883
 20
-5.8883969535
 30
0.0
 10
28.49028744
 20
-5.8775767728
 30
0.0
  0
SPLINE
  5
33C
100
AcDbEntity
  8
0
100
AcDbSpline
 62
250
  6
CONTINUOUS
 70
0
 71
3
 72
9
 73
5
 74
0
 42
0.0000001
 43
0.0000001
 44
0.0000000001
 40
0.0
 40
0.0
 40
0.0
 40
0.0
 40
0.2500682223
 40
1.0
 40
1.0
 40
1.0
 40
1.0
 10
26.1098553795
 20
0.5819912655
 30
0.0
 10
25.9919807733
 20
0.6451660578
 30
0.0
 10
25.5206180658
 20
0.8978094956
 30
0.0
 10
25.0492125205
 20
1.1503731054
 30
0.0
 10
24.6956014461
 20
1.3396121552
 30
0.0
  0
SPLINE
  5
33D
100
AcDbEntity
  8
0
100
AcDbSpline
 62
250
  6
CONTINUOUS
 70
0
 71
3
 72
11
 73
7
 74
0
 42
0.0000001
 43
0.0000001
 44
0.0000000001
 40
0.0
 40
0.0
 40
0.0
 40
0.0
 40
0.2303234692
 40
0.4763017576
 40
0.734295023
 40
1.0
 40
1.0
 40
1.0
 40
1.0
 10
26.1098553795
 20
0.5819912655
 30
0.0
 10
26.1061928571
 20
0.4450110113
 30
0.0
 10
26.0799548971
 20
0.1620646747
 30
0.0
 10
25.9924319956
 20
-0.2666640183
 30
0.0
 10
25.8574989006
 20
-0.7049297894
 30
0.0
 10
25.7391751477
 20
-0.9936701048
 30
0.0
 10
25.6729905832
 20
-1.1372271574
 30
0.0
  0
SPLINE
  5
33E
100
AcDbEntity
  8
0
100
AcDbSpline
 62
250
  6
CONTINUOUS
 70
0
 71
3
 72
11
 73
7
 74
0
 42
0.0000001
 43
0.0000001
 44
0.0000000001
 40
0.0
 40
0.0
 40
0.0
 40
0.0
 40
0.2301271178
 40
0.4760606535
 40
0.734133415
 40
1.0
 40
1.0
 40
1.0
 40
1.0
 10
24.6959108764
 20
1.3392590328
 30
0.0
 10
24.6925023689
 20
1.2017868248
 30
0.0
 10
24.6665411835
 20
0.9176921165
 30
0.0
 10
24.5788850427
 20
0.4871162325
 30
0.0
 10
24.4432975912
 20
0.046810982
 30
0.0
 10
24.3242402816
 20
-0.2432728329
 30
0.0
 10
24.2576157375
 20
-0.3874987963
 30
0.0
  0
SPLINE
  5
33F
100
AcDbEntity
  8
0
100
AcDbSpline
 62
250
  6
CONTINUOUS
 70
0
 71
3
 72
9
 73
5
 74
0
 42
0.0000001
 43
0.0000001
 44
0.0000000001
 40
0.0
 40
0.0
 40
0.0
 40
0.0
 40
0.2500718438
 40
1.0
 40
1.0
 40
1.0
 40
1.0
 10
-38.8770588724
 20
35.0165522706
 30
0.0
 10
-38.9949178893
 20
35.078347967
 30
0.0
 10
-39.466254042
 20
35.3253919934
 30
0.0
 10
-39.9377200988
 20
35.5721880481
 30
0.0
 10
-40.2912768556
 20
35.7572843462
 30
0.0
  0
SPLINE
  5
340
100
AcDbEntity
  8
0
100
AcDbSpline
 62
250
  6
CONTINUOUS
 70
0
 71
3
 72
11
 73
7
 74
0
 42
0.0000001
 43
0.0000001
 44
0.0000000001
 40
0.0
 40
0.0
 40
0.0
 40
0.0
 40
0.2301256228
 40
0.4760604326
 40
0.7341336934
 40
1.0
 40
1.0
 40
1.0
 40
1.0
 10
-38.8767494739
 20
35.016199237
 30
0.0
 10
-38.8801687576
 20
34.878727587
 30
0.0
 10
-38.9061204885
 20
34.5946323039
 30
0.0
 10
-38.9937636813
 20
34.1640510157
 30
0.0
 10
-39.1293376601
 20
33.7237387727
 30
0.0
 10
-39.2483860229
 20
33.4336496132
 30
0.0
 10
-39.3150060393
 20
33.289420974
 30
0.0
  0
SPLINE
  5
341
100
AcDbEntity
  8
0
100
AcDbSpline
 62
250
  6
CONTINUOUS
 70
0
 71
3
 72
21
 73
17
 74
0
 42
0.0000001
 43
0.0000001
 44
0.0000000001
 40
0.0
 40
0.0
 40
0.0
 40
0.0
 40
0.1433621342
 40
0.2101414218
 40
0.2737480401
 40
0.334480694
 40
0.3927994006
 40
0.4493206325
 40
0.5047930683
 40
0.5600496236
 40
0.6159414036
 40
0.673267413
 40
0.7327161605
 40
0.7948292623
 40
0.8599867685
 40
1.0
 40
1.0
 40
1.0
 40
1.0
 10
-40.7303427326
 20
34.0392319228
 30
0.0
 10
-40.9113206249
 20
34.1351858207
 30
0.0
 10
-41.189347076
 20
34.2548155169
 30
0.0
 10
-41.5690971452
 20
34.3511202481
 30
0.0
 10
-41.8403822709
 20
34.3878017182
 30
0.0
 10
-42.1021047133
 20
34.3901321105
 30
0.0
 10
-42.3517558118
 20
34.3579447896
 30
0.0
 10
-42.5867996892
 20
34.2913773157
 30
0.0
 10
-42.8047530016
 20
34.1909633593
 30
0.0
 10
-43.0032481926
 20
34.0576905151
 30
0.0
 10
-43.1801636369
 20
33.8930132888
 30
0.0
 10
-43.33371558
 20
33.6987600813
 30
0.0
 10
-43.4624789059
 20
33.4770404434
 30
0.0
 10
-43.5653565375
 20
33.2300952102
 30
0.0
 10
-43.6693093622
 20
32.8619042362
 30
0.0
 10
-43.7016120968
 20
32.5679354911
 30
0.0
 10
-43.7065703716
 20
32.367940232
 30
0.0
  0
SPLINE
  5
342
100
AcDbEntity
  8
0
100
AcDbSpline
 62
250
  6
CONTINUOUS
 70
0
 71
3
 72
9
 73
5
 74
0
 42
0.0000001
 43
0.0000001
 44
0.0000000001
 40
0.0
 40
0.0
 40
0.0
 40
0.0
 40
0.2541875672
 40
1.0
 40
1.0
 40
1.0
 40
1.0
 10
-40.2912768621
 20
35.7572843423
 30
0.0
 10
-40.3267095027
 20
35.7758319576
 30
0.0
 10
-40.4668686916
 20
35.8473273971
 30
0.0
 10
-40.6101366746
 20
35.9127662046
 30
0.0
 10
-40.7185545494
 20
35.9576602348
 30
0.0
  0
SPLINE
  5
343
100
AcDbEntity
  8
0
100
AcDbSpline
 62
250
  6
CONTINUOUS
 70
0
 71
3
 72
20
 73
16
 74
0
 42
0.0000001
 43
0.0000001
 44
0.0000000001
 40
0.0
 40
0.0
 40
0.0
 40
0.0
 40
0.1356885969
 40
0.2603708312
 40
0.3194456522
 40
0.3769218724
 40
0.4334259018
 40
0.4896539531
 40
0.5463213864
 40
0.604109953
 40
0.663623226
 40
0.725356449
 40
0.7896822753
 40
0.8568493919
 40
1.0
 40
1.0
 40
1.0
 40
1.0
 10
-40.9708173658
 20
36.0538189274
 30
0.0
 10
-41.2065987376
 20
36.1358776727
 30
0.0
 10
-41.673551717
 20
36.2562956183
 30
0.0
 10
-42.2664851414
 20
36.2812909284
 30
0.0
 10
-42.7065638722
 20
36.2152031282
 30
0.0
 10
-43.0132634233
 20
36.1259284664
 30
0.0
 10
-43.2996295504
 20
35.996558132
 30
0.0
 10
-43.5631629767
 20
35.8281170513
 30
0.0
 10
-43.8015881357
 20
35.6221060114
 30
0.0
 10
-44.0129768848
 20
35.3804377318
 30
0.0
 10
-44.195760236
 20
35.1053178187
 30
0.0
 10
-44.3487115248
 20
34.7991796631
 30
0.0
 10
-44.4709179723
 20
34.4645596915
 30
0.0
 10
-44.5945267987
 20
33.9739108627
 30
0.0
 10
-44.6345912841
 20
33.5864066112
 30
0.0
 10
-44.6418808422
 20
33.3231254457
 30
0.0
  0
SPLINE
  5
344
100
AcDbEntity
  8
0
100
AcDbSpline
 62
250
  6
CONTINUOUS
 70
0
 71
3
 72
11
 73
7
 74
0
 42
0.0000001
 43
0.0000001
 44
0.0000000001
 40
0.0
 40
0.0
 40
0.0
 40
0.0
 40
0.2302756561
 40
0.4762362648
 40
0.7342451301
 40
1.0
 40
1.0
 40
1.0
 40
1.0
 10
-40.2912768621
 20
35.7572843423
 30
0.0
 10
-40.295103448
 20
35.6203816342
 30
0.0
 10
-40.3216907926
 20
35.3375987277
 30
0.0
 10
-40.4097577477
 20
34.9091565147
 30
0.0
 10
-40.5452633381
 20
34.4711934159
 30
0.0
 10
-40.6639674415
 20
34.182676901
 30
0.0
 10
-40.7303427274
 20
34.0392319212
 30
0.0
  0
SPLINE
  5
345
100
AcDbEntity
  8
0
100
AcDbSpline
 62
250
  6
CONTINUOUS
 70
0
 71
3
 72
11
 73
7
 74
0
 42
0.0000001
 43
0.0000001
 44
0.0000000001
 40
0.0
 40
0.0
 40
0.0
 40
0.0
 40
0.2850018474
 40
0.5457386942
 40
0.7828537851
 40
1.0
 40
1.0
 40
1.0
 40
1.0
 10
-44.6418808214
 20
33.3231254584
 30
0.0
 10
-44.5272112203
 20
33.2623712443
 30
0.0
 10
-44.314414365
 20
33.1322805249
 30
0.0
 10
-44.040597867
 20
32.9015340722
 30
0.0
 10
-43.8325304684
 20
32.6484873756
 30
0.0
 10
-43.7386510968
 20
32.4614641059
 30
0.0
 10
-43.7065703716
 20
32.367940232
 30
0.0
  0
SPLINE
  5
346
100
AcDbEntity
  8
0
100
AcDbSpline
 62
250
  6
CONTINUOUS
 70
0
 71
3
 72
11
 73
7
 74
0
 42
0.0000001
 43
0.0000001
 44
0.0000000001
 40
0.0
 40
0.0
 40
0.0
 40
0.0
 40
0.2850094579
 40
0.545748263
 40
0.7828600058
 40
1.0
 40
1.0
 40
1.0
 40
1.0
 10
-44.6436342596
 20
33.2563699859
 30
0.0
 10
-44.5289465905
 20
33.1956110563
 30
0.0
 10
-44.3161181758
 20
33.0655090343
 30
0.0
 10
-44.0422659577
 20
32.8347367845
 30
0.0
 10
-43.8341829165
 20
32.581658344
 30
0.0
 10
-43.7403079422
 20
32.3946100273
 30
0.0
 10
-43.7082343502
 20
32.3010748551
 30
0.0
  0
SPLINE
  5
347
100
AcDbEntity
  8
0
100
AcDbSpline
 62
250
  6
CONTINUOUS
 70
0
 71
3
 72
15
 73
11
 74
0
 42
0.0000001
 43
0.0000001
 44
0.0000000001
 40
0.0
 40
0.0
 40
0.0
 40
0.0
 40
0.1139478026
 40
0.2363539501
 40
0.3650266774
 40
0.4971810662
 40
0.6297304844
 40
0.7595551699
 40
0.8837683798
 40
1.0
 40
1.0
 40
1.0
 40
1.0
 10
-44.6112373566
 20
-4.1293263306
 30
0.0
 10
-44.6166569798
 20
-4.3479749403
 30
0.0
 10
-44.5857397957
 20
-4.8030596684
 30
0.0
 10
-44.4332203561
 20
-5.4890838614
 30
0.0
 10
-44.1787047126
 20
-6.1814406846
 30
0.0
 10
-43.8317406487
 20
-6.8541431271
 30
0.0
 10
-43.4053332583
 20
-7.482171286
 30
0.0
 10
-42.9153227106
 20
-8.0420661729
 30
0.0
 10
-42.380137734
 20
-8.5128045698
 30
0.0
 10
-41.9910467991
 20
-8.7652942232
 30
0.0
 10
-41.7939009441
 20
-8.8697301384
 30
0.0
  0
SPLINE
  5
348
100
AcDbEntity
  8
0
100
AcDbSpline
 62
250
  6
CONTINUOUS
 70
0
 71
3
 72
15
 73
11
 74
0
 42
0.0000001
 43
0.0000001
 44
0.0000000001
 40
0.0
 40
0.0
 40
0.0
 40
0.0
 40
0.1139478174
 40
0.2363539493
 40
0.3650266757
 40
0.4971810662
 40
0.6297304857
 40
0.7595551703
 40
0.8837683646
 40
1.0
 40
1.0
 40
1.0
 40
1.0
 10
-45.5466826455
 20
-3.1740421343
 30
0.0
 10
-45.5546019546
 20
-3.4936074664
 30
0.0
 10
-45.5094174961
 20
-4.1587351729
 30
0.0
 10
-45.2865020732
 20
-5.1613918768
 30
0.0
 10
-44.914515899
 20
-6.1733040103
 30
0.0
 10
-44.4074112859
 20
-7.1564902251
 30
0.0
 10
-43.7841970149
 20
-8.074383161
 30
0.0
 10
-43.0680233031
 20
-8.892695578
 30
0.0
 10
-42.2858256958
 20
-9.5807027717
 30
0.0
 10
-41.7171499356
 20
-9.9497263508
 30
0.0
 10
-41.4290126698
 20
-10.1023657614
 30
0.0
  0
SPLINE
  5
349
100
AcDbEntity
  8
0
100
AcDbSpline
 62
250
  6
CONTINUOUS
 70
0
 71
3
 72
11
 73
7
 74
0
 42
0.0000001
 43
0.0000001
 44
0.0000000001
 40
0.0
 40
0.0
 40
0.0
 40
0.0
 40
0.285010988
 40
0.5457504874
 40
0.7828618623
 40
1.0
 40
1.0
 40
1.0
 40
1.0
 10
-45.5466826455
 20
-3.1740421343
 30
0.0
 10
-45.4319904782
 20
-3.2347990892
 30
0.0
 10
-45.2191533722
 20
-3.3648975426
 30
0.0
 10
-44.9452888232
 20
-3.5956665227
 30
0.0
 10
-44.737194601
 20
-3.8487425738
 30
0.0
 10
-44.643313395
 20
-4.0357909953
 30
0.0
 10
-44.6112373566
 20
-4.1293263306
 30
0.0
  0
SPLINE
  5
34A
100
AcDbEntity
  8
0
100
AcDbSpline
 62
250
  6
CONTINUOUS
 70
0
 71
3
 72
11
 73
7
 74
0
 42
0.0000001
 43
0.0000001
 44
0.0000000001
 40
0.0
 40
0.0
 40
0.0
 40
0.0
 40
0.2884662066
 40
0.5500722419
 40
0.7857766676
 40
1.0
 40
1.0
 40
1.0
 40
1.0
 10
-41.4290126698
 20
-10.1023657614
 30
0.0
 10
-41.4258787544
 20
-9.975931404
 30
0.0
 10
-41.4346004984
 20
-9.7340256715
 30
0.0
 10
-41.4996315036
 20
-9.3940533837
 30
0.0
 10
-41.6150962008
 20
-9.101982487
 30
0.0
 10
-41.7296345324
 20
-8.9382231395
 30
0.0
 10
-41.7939009441
 20
-8.8697301384
 30
0.0
  0
SPLINE
  5
34B
100
AcDbEntity
  8
0
100
AcDbSpline
 62
250
  6
CONTINUOUS
 70
0
 71
3
 72
21
 73
17
 74
0
 42
0.0000001
 43
0.0000001
 44
0.0000000001
 40
0.0
 40
0.0
 40
0.0
 40
0.0
 40
0.1433618275
 40
0.2101410456
 40
0.2737465341
 40
0.3344767681
 40
0.3927925396
 40
0.4493115253
 40
0.5047831231
 40
0.5600401552
 40
0.615933214
 40
0.6732609331
 40
0.7327116794
 40
0.7948268012
 40
0.8599858046
 40
1.0
 40
1.0
 40
1.0
 40
1.0
 10
24.6094323716
 20
-44.0461892186
 30
0.0
 10
24.7904456399
 20
-44.1420790734
 30
0.0
 10
25.0685020913
 20
-44.2616234936
 30
0.0
 10
25.448245897
 20
-44.3579460664
 30
0.0
 10
25.7195199831
 20
-44.3946794685
 30
0.0
 10
25.9812347989
 20
-44.3970727055
 30
0.0
 10
26.2308842524
 20
-44.3649337201
 30
0.0
 10
26.4659291822
 20
-44.2983898702
 30
0.0
 10
26.6838830263
 20
-44.19797939
 30
0.0
 10
26.8823777583
 20
-44.0646994434
 30
0.0
 10
27.0592926627
 20
-43.9000113777
 30
0.0
 10
27.212844053
 20
-43.7057460368
 30
0.0
 10
27.3416061778
 20
-43.4840137987
 30
0.0
 10
27.4444821294
 20
-43.2370569787
 30
0.0
 10
27.5484329234
 20
-42.8688556831
 30
0.0
 10
27.5807378587
 20
-42.5748812643
 30
0.0
 10
27.5856951827
 20
-42.3748829371
 30
0.0
  0
SPLINE
  5
34C
100
AcDbEntity
  8
0
100
AcDbSpline
 62
250
  6
CONTINUOUS
 70
0
 71
3
 72
21
 73
17
 74
0
 42
0.0000001
 43
0.0000001
 44
0.0000000001
 40
0.0
 40
0.0
 40
0.0
 40
0.0
 40
0.1433618298
 40
0.2101410614
 40
0.2737465244
 40
0.3344767684
 40
0.3927925352
 40
0.4493115289
 40
0.5047831224
 40
0.5600401533
 40
0.6159332184
 40
0.6732609338
 40
0.7327116893
 40
0.7948267871
 40
0.8599858033
 40
1.0
 40
1.0
 40
1.0
 40
1.0
 10
24.9743206459
 20
-45.2788248416
 30
0.0
 10
25.2388808013
 20
-45.4189710203
 30
0.0
 10
25.6452726921
 20
-45.5936920188
 30
0.0
 10
26.2002861256
 20
-45.7344726073
 30
0.0
 10
26.5967660556
 20
-45.7881594597
 30
0.0
 10
26.9792745632
 20
-45.791657881
 30
0.0
 10
27.3441489517
 20
-45.7446847217
 30
0.0
 10
27.6876784269
 20
-45.6474284431
 30
0.0
 10
28.0062278224
 20
-45.5006728974
 30
0.0
 10
28.2963377741
 20
-45.305878799
 30
0.0
 10
28.5549067697
 20
-45.0651788642
 30
0.0
 10
28.7793297819
 20
-44.7812512291
 30
0.0
 10
28.9675211592
 20
-44.4571788278
 30
0.0
 10
29.1178799112
 20
-44.0962401232
 30
0.0
 10
29.2698083081
 20
-43.5580962894
 30
0.0
 10
29.3170222042
 20
-43.1284388777
 30
0.0
 10
29.324269045
 20
-42.8361319259
 30
0.0
  0
SPLINE
  5
34D
100
AcDbEntity
  8
0
100
AcDbSpline
 62
250
  6
CONTINUOUS
 70
0
 71
3
 72
11
 73
7
 74
0
 42
0.0000001
 43
0.0000001
 44
0.0000000001
 40
0.0
 40
0.0
 40
0.0
 40
0.0
 40
0.2884662066
 40
0.5500722419
 40
0.7857766676
 40
1.0
 40
1.0
 40
1.0
 40
1.0
 10
24.9743206459
 20
-45.2788248416
 30
0.0
 10
24.9774545613
 20
-45.1523904842
 30
0.0
 10
24.9687328173
 20
-44.9104847517
 30
0.0
 10
24.9037018121
 20
-44.5705124639
 30
0.0
 10
24.7882371149
 20
-44.2784415672
 30
0.0
 10
24.6736987833
 20
-44.1146822197
 30
0.0
 10
24.6094323716
 20
-44.0461892186
 30
0.0
  0
SPLINE
  5
34E
100
AcDbEntity
  8
0
100
AcDbSpline
 62
250
  6
CONTINUOUS
 70
0
 71
3
 72
11
 73
7
 74
0
 42
0.0000001
 43
0.0000001
 44
0.0000000001
 40
0.0
 40
0.0
 40
0.0
 40
0.0
 40
0.2320675281
 40
0.4785551876
 40
0.7359220125
 40
1.0
 40
1.0
 40
1.0
 40
1.0
 10
29.324269045
 20
-42.8361319259
 30
0.0
 10
29.2004974354
 20
-42.7705652331
 30
0.0
 10
28.9360750613
 20
-42.6522860782
 30
0.0
 10
28.5121642632
 20
-42.5171091446
 30
0.0
 10
28.057938652
 20
-42.4213643194
 30
0.0
 10
27.7447132021
 20
-42.3857044457
 30
0.0
 10
27.5856951827
 20
-42.3748829371
 30
0.0
  0
SPLINE
  5
34F
100
AcDbEntity
  8
0
100
AcDbSpline
 62
7
  6
CONTINUOUS
 70
0
 71
3
 72
9
 73
5
 74
0
 42
0.0000001
 43
0.0000001
 44
0.0000000001
 40
0.0
 40
0.0
 40
0.0
 40
0.0
 40
0.2552264899
 40
1.0
 40
1.0
 40
1.0
 40
1.0
 10
25.4124872102
 20
-42.5079985742
 30
0.0
 10
25.4281704554
 20
-42.5138777289
 30
0.0
 10
25.4899314519
 20
-42.5360648079
 30
0.0
 10
25.5529525409
 20
-42.5547854687
 30
0.0
 10
25.6004101406
 20
-42.566470726
 30
0.0
  0
SPLINE
  5
350
100
AcDbEntity
  8
0
100
AcDbSpline
 62
7
  6
CONTINUOUS
 70
0
 71
3
 72
11
 73
7
 74
0
 42
0.0000001
 43
0.0000001
 44
0.0000000001
 40
0.0
 40
0.0
 40
0.0
 40
0.0
 40
0.271351106
 40
0.5253633202
 40
0.76624346
 40
1.0
 40
1.0
 40
1.0
 40
1.0
 10
25.6004101406
 20
-42.566470726
 30
0.0
 10
25.6755797865
 20
-42.5849793875
 30
0.0
 10
25.8241738285
 20
-42.6099882478
 30
0.0
 10
26.0440648215
 20
-42.6073681749
 30
0.0
 10
26.2486606995
 20
-42.5628175379
 30
0.0
 10
26.3725921597
 20
-42.5049480544
 30
0.0
 10
26.4293932894
 20
-42.4700039434
 30
0.0
  0
LINE
  5
351
100
AcDbEntity
  8
0
100
AcDbLine
 62
7
  6
CONTINUOUS
 10
25.8912553486
 20
-45.9725801627
 11
25.4602271802
 21
-45.744460991
  0
SPLINE
  5
352
100
AcDbEntity
  8
RACCORDO
100
AcDbSpline
 62
250
  6
CONTINUOUS
 70
0
 71
3
 72
11
 73
7
 74
0
 42
0.0000001
 43
0.0000001
 44
0.0000000001
 40
0.0
 40
0.0
 40
0.0
 40
0.0
 40
0.2605135504
 40
0.5141281308
 40
0.7606677172
 40
1.0
 40
1.0
 40
1.0
 40
1.0
 10
47.3094158862
 20
-32.10989348
 30
0.0
 10
45.740728336
 20
-31.5720822258
 30
0.0
 10
42.6636979988
 20
-30.4547857456
 30
0.0
 10
38.1767988749
 20
-28.631401253
 30
0.0
 10
33.8873146911
 20
-26.6898111206
 30
0.0
 10
31.1228301379
 20
-25.30060894
 30
0.0
 10
29.7765723327
 20
-24.5874431981
 30
0.0
  0
LINE
  5
353
100
AcDbEntity
  8
0
100
AcDbLine
 62
7
  6
CONTINUOUS
 10
-53.1785540546
 20
61.6327343009
 11
-53.5311616294
 21
61.4032583726
  0
SPLINE
  5
354
100
AcDbEntity
  8
0
100
AcDbSpline
 62
7
  6
CONTINUOUS
 70
0
 71
3
 72
11
 73
7
 74
0
 42
0.0000001
 43
0.0000001
 44
0.0000000001
 40
0.0
 40
0.0
 40
0.0
 40
0.0
 40
0.2222188858
 40
0.4607549471
 40
0.719598809
 40
1.0
 40
1.0
 40
1.0
 40
1.0
 10
27.9695700378
 20
-48.0301025286
 30
0.0
 10
27.9578230934
 20
-48.0336276735
 30
0.0
 10
27.9324380858
 20
-48.0377668107
 30
0.0
 10
27.8925366189
 20
-48.0352362771
 30
0.0
 10
27.8507713301
 20
-48.0244228782
 30
0.0
 10
27.8234135232
 20
-48.0123869269
 30
0.0
 10
27.8096934177
 20
-48.0052277863
 30
0.0
  0
LINE
  5
355
100
AcDbEntity
  8
0
100
AcDbLine
 62
7
  6
CONTINUOUS
 10
25.8350762042
 20
-47.4091241723
 11
25.4428783328
 21
-47.2026114062
  0
SPLINE
  5
356
100
AcDbEntity
  8
0
100
AcDbSpline
 62
250
  6
CONTINUOUS
 70
0
 71
3
 72
15
 73
11
 74
0
 42
0.0000001
 43
0.0000001
 44
0.0000000001
 40
0.0
 40
0.0
 40
0.0
 40
0.0
 40
0.0909511229
 40
0.188021402
 40
0.295561347
 40
0.415573496
 40
0.5480309944
 40
0.6914088363
 40
0.843144297
 40
1.0
 40
1.0
 40
1.0
 40
1.0
 10
26.6757180444
 20
-41.7846785674
 30
0.0
 10
26.6748325244
 20
-41.820387945
 30
0.0
 10
26.6856634669
 20
-41.894996748
 30
0.0
 10
26.7375762214
 20
-42.0004954651
 30
0.0
 10
26.8217327888
 20
-42.0977525844
 30
0.0
 10
26.9346097734
 20
-42.184179323
 30
0.0
 10
27.0723697164
 20
-42.2574737855
 30
0.0
 10
27.2304786185
 20
-42.3154028344
 30
0.0
 10
27.4036408788
 20
-42.3560950752
 30
0.0
 10
27.5242334621
 20
-42.3707003385
 30
0.0
 10
27.5856951827
 20
-42.3748829371
 30
0.0
  0
SPLINE
  5
357
100
AcDbEntity
  8
0
100
AcDbSpline
 62
7
  6
CONTINUOUS
 70
0
 71
3
 72
11
 73
7
 74
0
 42
0.0000001
 43
0.0000001
 44
0.0000000001
 40
0.0
 40
0.0
 40
0.0
 40
0.0
 40
0.2337281432
 40
0.4745947467
 40
0.728615713
 40
1.0
 40
1.0
 40
1.0
 40
1.0
 10
-41.4795094206
 20
33.121769006
 30
0.0
 10
-41.5363642477
 20
33.0867918603
 30
0.0
 10
-41.64399233
 20
33.0021666472
 30
0.0
 10
-41.7760916124
 20
32.8394259183
 30
0.0
 10
-41.8775994999
 20
32.6440734784
 30
0.0
 10
-41.9222500502
 20
32.4999753371
 30
0.0
 10
-41.9396000438
 20
32.424435358
 30
0.0
  0
SPLINE
  5
358
100
AcDbEntity
  8
0
100
AcDbSpline
 62
7
  6
CONTINUOUS
 70
0
 71
3
 72
9
 73
5
 74
0
 42
0.0000001
 43
0.0000001
 44
0.0000000001
 40
0.0
 40
0.0
 40
0.0
 40
0.0
 40
0.2449234306
 40
1.0
 40
1.0
 40
1.0
 40
1.0
 10
-41.9396000438
 20
32.424435358
 30
0.0
 10
-41.9431818445
 20
32.4088405888
 30
0.0
 10
-41.9568188391
 20
32.3449441385
 30
0.0
 10
-41.9665729263
 20
32.2802330231
 30
0.0
 10
-41.9719451579
 20
32.2311973743
 30
0.0
  0
SPLINE
  5
359
100
AcDbEntity
  8
0
100
AcDbSpline
 62
7
  6
CONTINUOUS
 70
0
 71
3
 72
8
 73
4
 74
0
 42
0.0000001
 43
0.0000001
 44
0.0000000001
 40
0.0
 40
0.0
 40
0.0
 40
0.0
 40
1.0
 40
1.0
 40
1.0
 40
1.0
 10
27.8096934325
 20
-48.0052261583
 30
0.0
 10
27.6338342461
 20
-47.9134629698
 30
0.0
 10
27.458050042
 20
-47.8215560055
 30
0.0
 10
27.2823219608
 20
-47.7295419972
 30
0.0
  0
SPLINE
  5
35A
100
AcDbEntity
  8
0
100
AcDbSpline
 62
250
  6
CONTINUOUS
 70
0
 71
3
 72
15
 73
11
 74
0
 42
0.0000001
 43
0.0000001
 44
0.0000000001
 40
0.0
 40
0.0
 40
0.0
 40
0.0
 40
0.088424435
 40
0.1834550284
 40
0.2897222734
 40
0.4093147444
 40
0.5421963743
 40
0.6867988516
 40
0.8405024207
 40
1.0
 40
1.0
 40
1.0
 40
1.0
 10
-40.675273237
 20
32.9917321444
 30
0.0
 10
-40.7048583866
 20
33.0074047952
 30
0.0
 10
-40.7608544817
 20
33.0510711359
 30
0.0
 10
-40.822420989
 20
33.1436259604
 30
0.0
 10
-40.8620837915
 20
33.25958393
 30
0.0
 10
-40.8795382965
 20
33.395005073
 30
0.0
 10
-40.8747357918
 20
33.5457957387
 30
0.0
 10
-40.8479582209
 20
33.7072615805
 30
0.0
 10
-40.8001152199
 20
33.8742064947
 30
0.0
 10
-40.7556651502
 20
33.9844069901
 30
0.0
 10
-40.7303427326
 20
34.0392319228
 30
0.0
  0
SPLINE
  5
35B
100
AcDbEntity
  8
0
100
AcDbSpline
 62
250
  6
CONTINUOUS
 70
0
 71
3
 72
15
 73
11
 74
0
 42
0.0000001
 43
0.0000001
 44
0.0000000001
 40
0.0
 40
0.0
 40
0.0
 40
0.0
 40
0.088424435
 40
0.1834550284
 40
0.2897222734
 40
0.4093147444
 40
0.5421963743
 40
0.6867988516
 40
0.8405024207
 40
1.0
 40
1.0
 40
1.0
 40
1.0
 10
25.7280600788
 20
-2.1847269358
 30
0.0
 10
25.6984749291
 20
-2.169054285
 30
0.0
 10
25.642478834
 20
-2.1253879443
 30
0.0
 10
25.5809123267
 20
-2.0328331198
 30
0.0
 10
25.5412495242
 20
-1.9168751502
 30
0.0
 10
25.5237950192
 20
-1.7814540072
 30
0.0
 10
25.5285975239
 20
-1.6306633415
 30
0.0
 10
25.5553750948
 20
-1.4691974997
 30
0.0
 10
25.6032180958
 20
-1.3022525855
 30
0.0
 10
25.6476681655
 20
-1.1920520901
 30
0.0
 10
25.6729905832
 20
-1.1372271574
 30
0.0
  0
SPLINE
  5
35C
100
AcDbEntity
  8
0
100
AcDbSpline
 62
250
  6
CONTINUOUS
 70
0
 71
3
 72
15
 73
11
 74
0
 42
0.0000001
 43
0.0000001
 44
0.0000000001
 40
0.0
 40
0.0
 40
0.0
 40
0.0
 40
0.0909520713
 40
0.1880228876
 40
0.2955627882
 40
0.4155744013
 40
0.5480311295
 40
0.6914083116
 40
0.8431436021
 40
1.0
 40
1.0
 40
1.0
 40
1.0
 10
27.5803729132
 20
-5.2873766795
 30
0.0
 10
27.579487431
 20
-5.3230845329
 30
0.0
 10
27.590317305
 20
-5.3976899192
 30
0.0
 10
27.6422254835
 20
-5.5031844651
 30
0.0
 10
27.7263751055
 20
-5.6004384904
 30
0.0
 10
27.8392432743
 20
-5.6868634223
 30
0.0
 10
27.9769930966
 20
-5.7601575948
 30
0.0
 10
28.1350912679
 20
-5.8180880755
 30
0.0
 10
28.3082429872
 20
-5.8587835876
 30
0.0
 10
28.4288288594
 20
-5.8733921842
 30
0.0
 10
28.4902874377
 20
-5.877576787
 30
0.0
  0
LINE
  5
35D
100
AcDbEntity
  8
0
100
AcDbLine
 62
7
  6
CONTINUOUS
 10
21.9436510738
 20
-43.8814418966
 11
21.5129677495
 21
-43.6531344086
  0
SPLINE
  5
35E
100
AcDbEntity
  8
RACCORDO
100
AcDbSpline
 62
250
  6
CONTINUOUS
 70
0
 71
3
 72
21
 73
17
 74
0
 42
0.0000001
 43
0.0000001
 44
0.0000000001
 40
0.0
 40
0.0
 40
0.0
 40
0.0
 40
0.1242915331
 40
0.1855049241
 40
0.2465064015
 40
0.3075702042
 40
0.3382064369
 40
0.3689464072
 40
0.4307314205
 40
0.492890783
 40
0.5553857308
 40
0.6181779139
 40
0.6812296849
 40
0.744513283
 40
0.8717780039
 40
1.0
 40
1.0
 40
1.0
 40
1.0
 10
21.6591423433
 20
-54.051406977
 30
0.0
 10
21.6053197236
 20
-53.6242308962
 30
0.0
 10
21.5507022807
 20
-52.9833048473
 30
0.0
 10
21.5129532156
 20
-52.1302268333
 30
0.0
 10
21.4968359705
 20
-51.4955063745
 30
0.0
 10
21.4890554504
 20
-50.9665969942
 30
0.0
 10
21.4835278719
 20
-50.5424931753
 30
0.0
 10
21.4776358446
 20
-50.1158959013
 30
0.0
 10
21.4699646493
 20
-49.5801147932
 30
0.0
 10
21.4610680761
 20
-48.9343387698
 30
0.0
 10
21.4532884828
 20
-48.2850586681
 30
0.0
 10
21.4474328292
 20
-47.6326661544
 30
0.0
 10
21.4443345674
 20
-46.977521323
 30
0.0
 10
21.4448718006
 20
-46.0990316248
 30
0.0
 10
21.4538285162
 20
-44.9948105202
 30
0.0
 10
21.4688908315
 20
-44.1099056374
 30
0.0
 10
21.4781793995
 20
-43.6658339507
 30
0.0
  0
SPLINE
  5
35F
100
AcDbEntity
  8
0
100
AcDbSpline
 62
7
  6
CONTINUOUS
 70
0
 71
3
 72
17
 73
13
 74
0
 42
0.0000001
 43
0.0000001
 44
0.0000000001
 40
0.0
 40
0.0
 40
0.0
 40
0.0
 40
0.1300933009
 40
0.271352119
 40
0.4169416261
 40
0.5592134487
 40
0.6911345572
 40
0.8078655771
 40
0.8602752471
 40
0.9090992965
 40
0.9552388006
 40
1.0
 40
1.0
 40
1.0
 40
1.0
 10
27.8616899807
 20
-47.0361254074
 30
0.0
 10
27.9297921062
 20
-47.0719035922
 30
0.0
 10
28.0623027005
 20
-47.1651860715
 30
0.0
 10
28.2330755805
 20
-47.3447468782
 30
0.0
 10
28.3737710325
 20
-47.557495676
 30
0.0
 10
28.4729735319
 20
-47.7865799187
 30
0.0
 10
28.5228162903
 20
-48.0138827033
 30
0.0
 10
28.5192049512
 20
-48.1944676663
 30
0.0
 10
28.48531899
 20
-48.3194548627
 30
0.0
 10
28.4470906016
 20
-48.398425971
 30
0.0
 10
28.3957865909
 20
-48.4640356564
 30
0.0
 10
28.3532496499
 20
-48.4978781223
 30
0.0
 10
28.3307048898
 20
-48.5117463808
 30
0.0
  0
SPLINE
  5
360
100
AcDbEntity
  8
0
100
AcDbSpline
 62
7
  6
CONTINUOUS
 70
0
 71
3
 72
11
 73
7
 74
0
 42
0.0000001
 43
0.0000001
 44
0.0000000001
 40
0.0
 40
0.0
 40
0.0
 40
0.0
 40
0.2863787387
 40
0.545146139
 40
0.7799283478
 40
1.0
 40
1.0
 40
1.0
 40
1.0
 10
27.7896118488
 20
-48.0175807301
 30
0.0
 10
27.8065872039
 20
-48.0264384923
 30
0.0
 10
27.8404008921
 20
-48.040700732
 30
0.0
 10
27.8920592256
 20
-48.0506436796
 30
0.0
 10
27.9402839631
 20
-48.0473672351
 30
0.0
 10
27.9691066166
 20
-48.0358117751
 30
0.0
 10
27.9816392361
 20
-48.0281022061
 30
0.0
  0
SPLINE
  5
361
100
AcDbEntity
  8
0
100
AcDbSpline
 62
7
  6
CONTINUOUS
 70
0
 71
3
 72
8
 73
4
 74
0
 42
0.0000001
 43
0.0000001
 44
0.0000000001
 40
0.0
 40
0.0
 40
0.0
 40
0.0
 40
1.0
 40
1.0
 40
1.0
 40
1.0
 10
27.2622412641
 20
-47.7418944044
 30
0.0
 10
27.4379690838
 20
-47.8339085574
 30
0.0
 10
27.6137530232
 20
-47.9258156733
 30
0.0
 10
27.7896119154
 20
-48.0175790701
 30
0.0
  0
SPLINE
  5
362
100
AcDbEntity
  8
RACCORDO
100
AcDbSpline
 62
250
  6
CONTINUOUS
 70
0
 71
3
 72
11
 73
7
 74
0
 42
0.0000001
 43
0.0000001
 44
0.0000000001
 40
0.0
 40
0.0
 40
0.0
 40
0.0
 40
0.2786983808
 40
0.5348064559
 40
0.7726649997
 40
1.0
 40
1.0
 40
1.0
 40
1.0
 10
-58.8894420026
 20
-9.9639390042
 30
0.0
 10
-58.8867180902
 20
-10.0294473215
 30
0.0
 10
-58.8714517712
 20
-10.1551282627
 30
0.0
 10
-58.8141819295
 20
-10.3290923805
 30
0.0
 10
-58.7244097469
 20
-10.4751042055
 30
0.0
 10
-58.6432545371
 20
-10.5509448948
 30
0.0
 10
-58.5994308329
 20
-10.5816002657
 30
0.0
  0
SPLINE
  5
363
100
AcDbEntity
  8
RACCORDO
100
AcDbSpline
 62
250
  6
CONTINUOUS
 70
0
 71
3
 72
19
 73
15
 74
0
 42
0.0000001
 43
0.0000001
 44
0.0000000001
 40
0.0
 40
0.0
 40
0.0
 40
0.0
 40
0.060288829
 40
0.1212074422
 40
0.1825489632
 40
0.2441995006
 40
0.3061146328
 40
0.3682628976
 40
0.4931814774
 40
0.618850571
 40
0.7452089678
 40
0.8722341148
 40
0.9360114439
 40
1.0
 40
1.0
 40
1.0
 40
1.0
 10
-58.8894420026
 20
-9.9639390042
 30
0.0
 10
-58.4845050748
 20
-10.249280187
 30
0.0
 10
-57.6638264115
 20
-10.8136628648
 30
0.0
 10
-56.4107104526
 20
-11.6381466002
 30
0.0
 10
-55.1344303529
 20
-12.4473287144
 30
0.0
 10
-53.8421258175
 20
-13.2462861282
 30
0.0
 10
-52.5381364781
 20
-14.0388486059
 30
0.0
 10
-50.7840402083
 20
-15.0916839114
 30
0.0
 10
-48.5724994537
 20
-16.4002206583
 30
0.0
 10
-45.8973467279
 20
-17.9611521608
 30
0.0
 10
-43.1984008461
 20
-19.5155530725
 30
0.0
 10
-40.932610437
 20
-20.8030038544
 30
0.0
 10
-39.1069570163
 20
-21.8276334593
 30
0.0
 10
-38.1893113933
 20
-22.337568395
 30
0.0
 10
-37.7289637947
 20
-22.5915678046
 30
0.0
  0
SPLINE
  5
364
100
AcDbEntity
  8
RACCORDO
100
AcDbSpline
 62
250
  6
CONTINUOUS
 70
0
 71
3
 72
11
 73
7
 74
0
 42
0.0000001
 43
0.0000001
 44
0.0000000001
 40
0.0
 40
0.0
 40
0.0
 40
0.0
 40
0.2825106909
 40
0.5393302168
 40
0.775507742
 40
1.0
 40
1.0
 40
1.0
 40
1.0
 10
-60.2941857753
 20
-7.1789181168
 30
0.0
 10
-60.3424762725
 20
-7.1422367013
 30
0.0
 10
-60.4295383472
 20
-7.0648667275
 30
0.0
 10
-60.5307785244
 20
-6.9311176166
 30
0.0
 10
-60.5928761615
 20
-6.7883815022
 30
0.0
 10
-60.6061087114
 20
-6.6887677099
 30
0.0
 10
-60.6053796792
 20
-6.6405848006
 30
0.0
  0
SPLINE
  5
365
100
AcDbEntity
  8
RACCORDO
100
AcDbSpline
 62
250
  6
CONTINUOUS
 70
0
 71
3
 72
15
 73
11
 74
0
 42
0.0000001
 43
0.0000001
 44
0.0000000001
 40
0.0
 40
0.0
 40
0.0
 40
0.0
 40
0.115457342
 40
0.2403565349
 40
0.3712963967
 40
0.5047902718
 40
0.6375123985
 40
0.7663034373
 40
0.8880975365
 40
1.0
 40
1.0
 40
1.0
 40
1.0
 10
-60.2941857753
 20
-7.1789181168
 30
0.0
 10
-60.2952511909
 20
-7.3028424929
 30
0.0
 10
-60.2764017542
 20
-7.5611895305
 30
0.0
 10
-60.1969641641
 20
-7.9525911852
 30
0.0
 10
-60.068303855
 20
-8.351067137
 30
0.0
 10
-59.8954169043
 20
-8.7415513026
 30
0.0
 10
-59.6846244698
 20
-9.11029652
 30
0.0
 10
-59.443370802
 20
-9.4446219699
 30
0.0
 10
-59.1804718938
 20
-9.7326258578
 30
0.0
 10
-58.9876272688
 20
-9.8947519548
 30
0.0
 10
-58.8894420153
 20
-9.9639389947
 30
0.0
  0
SPLINE
  5
366
100
AcDbEntity
  8
RACCORDO
100
AcDbSpline
 62
250
  6
CONTINUOUS
 70
0
 71
3
 72
11
 73
7
 74
0
 42
0.0000001
 43
0.0000001
 44
0.0000000001
 40
0.0
 40
0.0
 40
0.0
 40
0.0
 40
0.2817261495
 40
0.5382967639
 40
0.7747954967
 40
1.0
 40
1.0
 40
1.0
 40
1.0
 10
-59.5431972353
 20
24.494202236
 30
0.0
 10
-59.587658946
 20
24.5300528115
 30
0.0
 10
-59.6675951985
 20
24.6052951292
 30
0.0
 10
-59.7598457698
 20
24.7338603171
 30
0.0
 10
-59.8157224983
 20
24.8699377675
 30
0.0
 10
-59.8269534752
 20
24.9643116168
 30
0.0
 10
-59.8258291403
 20
25.0099538952
 30
0.0
  0
SPLINE
  5
367
100
AcDbEntity
  8
RACCORDO
100
AcDbSpline
 62
250
  6
CONTINUOUS
 70
0
 71
3
 72
19
 73
15
 74
0
 42
0.0000001
 43
0.0000001
 44
0.0000000001
 40
0.0
 40
0.0
 40
0.0
 40
0.0
 40
0.1249256519
 40
0.2498486315
 40
0.3747747659
 40
0.4997157842
 40
0.6246954035
 40
0.6872116009
 40
0.7497515305
 40
0.8123211974
 40
0.8749153302
 40
0.9375091232
 40
0.9687796949
 40
1.0
 40
1.0
 40
1.0
 40
1.0
 10
-59.5431972353
 20
24.494202236
 30
0.0
 10
-59.5758885941
 20
23.1753051246
 30
0.0
 10
-59.640873236
 20
20.5375292443
 30
0.0
 10
-59.7371202796
 20
16.580816123
 30
0.0
 10
-59.8322891367
 20
12.6239146089
 30
0.0
 10
-59.9267104847
 20
8.6663969061
 30
0.0
 10
-60.0056982262
 20
5.3677910835
 30
0.0
 10
-60.0697360412
 20
2.7280153919
 30
0.0
 10
-60.1184650311
 20
0.7471551635
 30
0.0
 10
-60.167827624
 20
-1.2345130129
 30
0.0
 10
-60.2172554674
 20
-3.2167472141
 30
0.0
 10
-60.256526778
 20
-4.868595781
 30
0.0
 10
-60.282302495
 20
-6.1893280277
 30
0.0
 10
-60.291351277
 20
-6.8492220571
 30
0.0
 10
-60.2941857769
 20
-7.1789181175
 30
0.0
  0
SPLINE
  5
368
100
AcDbEntity
  8
RACCORDO
100
AcDbSpline
 62
250
  6
CONTINUOUS
 70
0
 71
3
 72
12
 73
8
 74
0
 42
0.0000001
 43
0.0000001
 44
0.0000000001
 40
0.0
 40
0.0
 40
0.0
 40
0.0
 40
0.2961155414
 40
0.5565769851
 40
0.7868341338
 40
0.8946033057
 40
1.0
 40
1.0
 40
1.0
 40
1.0
 10
-58.5412816914
 20
56.3303904438
 30
0.0
 10
-58.5934208073
 20
56.3677975414
 30
0.0
 10
-58.6865969481
 20
56.445510034
 30
0.0
 10
-58.7944700077
 20
56.5792603826
 30
0.0
 10
-58.847986496
 20
56.6997272718
 30
0.0
 10
-58.864142438
 20
56.7948708041
 30
0.0
 10
-58.8638926986
 20
56.8413495318
 30
0.0
 10
-58.861739947
 20
56.8640879151
 30
0.0
  0
SPLINE
  5
369
100
AcDbEntity
  8
RACCORDO
100
AcDbSpline
 62
250
  6
CONTINUOUS
 70
0
 71
3
 72
21
 73
17
 74
0
 42
0.0000001
 43
0.0000001
 44
0.0000000001
 40
0.0
 40
0.0
 40
0.0
 40
0.0
 40
0.064036986
 40
0.0956564861
 40
0.1271066907
 40
0.158440034
 40
0.1896940596
 40
0.2520576801
 40
0.314335848
 40
0.3765921513
 40
0.4388605728
 40
0.5011546045
 40
0.6258194614
 40
0.7505548213
 40
0.875298479
 40
1.0
 40
1.0
 40
1.0
 40
1.0
 10
-58.5412816914
 20
56.3303904438
 30
0.0
 10
-58.6143458071
 20
55.6543394111
 30
0.0
 10
-58.6970615814
 20
54.6415713364
 30
0.0
 10
-58.7750102138
 20
53.2941303173
 30
0.0
 10
-58.8215983879
 20
52.2927538004
 30
0.0
 10
-58.8599894393
 20
51.2949334039
 30
0.0
 10
-58.9038089898
 20
49.9688384988
 30
0.0
 10
-58.9494728715
 20
48.3140539414
 30
0.0
 10
-58.9983838594
 20
46.3300474716
 30
0.0
 10
-59.0456662084
 20
44.3470121634
 30
0.0
 10
-59.0929447354
 20
42.3638085045
 30
0.0
 10
-59.1574591853
 20
39.7181316959
 30
0.0
 10
-59.2406053933
 20
36.409396702
 30
0.0
 10
-59.3431365725
 20
32.4378087404
 30
0.0
 10
-59.4450212244
 20
28.4658146871
 30
0.0
 10
-59.5110111071
 20
25.8178596919
 30
0.0
 10
-59.5431933501
 20
24.4940862424
 30
0.0
  0
SPLINE
  5
36A
100
AcDbEntity
  8
RACCORDO
100
AcDbSpline
 62
250
  6
CONTINUOUS
 70
0
 71
3
 72
15
 73
11
 74
0
 42
0.0000001
 43
0.0000001
 44
0.0000000001
 40
0.0
 40
0.0
 40
0.0
 40
0.0
 40
0.120717486
 40
0.2470802255
 40
0.3770119576
 40
0.5082103379
 40
0.6382958055
 40
0.7649565057
 40
0.8860970772
 40
1.0
 40
1.0
 40
1.0
 40
1.0
 10
-56.8312784425
 20
57.3388883499
 30
0.0
 10
-56.8166305448
 20
57.4153092679
 30
0.0
 10
-56.7763804805
 20
57.5698795778
 30
0.0
 10
-56.6886620005
 20
57.7969922769
 30
0.0
 10
-56.5743677828
 20
58.019589447
 30
0.0
 10
-56.4367130723
 20
58.2313882414
 30
0.0
 10
-56.2795589439
 20
58.4264635481
 30
0.0
 10
-56.1072837707
 20
58.5993557294
 30
0.0
 10
-55.9247388328
 20
58.7452001509
 30
0.0
 10
-55.7949686752
 20
58.8244600763
 30
0.0
 10
-55.7296216849
 20
58.8579294511
 30
0.0
  0
SPLINE
  5
36B
100
AcDbEntity
  8
RACCORDO
100
AcDbSpline
 62
250
  6
CONTINUOUS
 70
0
 71
3
 72
14
 73
10
 74
0
 42
0.0000001
 43
0.0000001
 44
0.0000000001
 40
0.0
 40
0.0
 40
0.0
 40
0.0
 40
0.2819176986
 40
0.4130342259
 40
0.5380599213
 40
0.6578817789
 40
0.7737397724
 40
0.8871876699
 40
1.0
 40
1.0
 40
1.0
 40
1.0
 10
-55.7296216849
 20
58.8579294523
 30
0.0
 10
-55.8954418442
 20
58.9573973816
 30
0.0
 10
-56.1536103004
 20
59.0811698289
 30
0.0
 10
-56.5104826923
 20
59.1782178403
 30
0.0
 10
-56.7668233938
 20
59.2130899123
 30
0.0
 10
-57.0151186945
 20
59.2112739628
 30
0.0
 10
-57.2524865968
 20
59.1726868806
 30
0.0
 10
-57.4759233482
 20
59.0977152502
 30
0.0
 10
-57.6135280908
 20
59.0241370582
 30
0.0
 10
-57.6785187209
 20
58.9821435916
 30
0.0
  0
SPLINE
  5
36C
100
AcDbEntity
  8
RACCORDO
100
AcDbSpline
 62
250
  6
CONTINUOUS
 70
0
 71
3
 72
18
 73
14
 74
0
 42
0.0000001
 43
0.0000001
 44
0.0000000001
 40
0.0
 40
0.0
 40
0.0
 40
0.0
 40
0.1346373075
 40
0.2574842038
 40
0.315687646
 40
0.3724300564
 40
0.4283886111
 40
0.4842767492
 40
0.5408079409
 40
0.5986602889
 40
0.7204458983
 40
0.8536256234
 40
1.0
 40
1.0
 40
1.0
 40
1.0
 10
-56.8312784425
 20
57.3388883499
 30
0.0
 10
-56.9249354013
 20
57.3968646339
 30
0.0
 10
-57.1164506454
 20
57.4896818549
 30
0.0
 10
-57.3729641755
 20
57.541202441
 30
0.0
 10
-57.5680990925
 20
57.5376406932
 30
0.0
 10
-57.7065356896
 20
57.5145549573
 30
0.0
 10
-57.8381350869
 20
57.4715447178
 30
0.0
 10
-57.9616130483
 20
57.409326738
 30
0.0
 10
-58.0758072769
 20
57.3286751392
 30
0.0
 10
-58.2166544694
 20
57.195584889
 30
0.0
 10
-58.3645761361
 20
56.9830527616
 30
0.0
 10
-58.4861618147
 20
56.6756346964
 30
0.0
 10
-58.5284144616
 20
56.4494488011
 30
0.0
 10
-58.5412816905
 20
56.3303904442
 30
0.0
  0
SPLINE
  5
36D
100
AcDbEntity
  8
RACCORDO
100
AcDbSpline
 62
250
  6
CONTINUOUS
 70
0
 71
3
 72
14
 73
10
 74
0
 42
0.0000001
 43
0.0000001
 44
0.0000000001
 40
0.0
 40
0.0
 40
0.0
 40
0.0
 40
0.1275297557
 40
0.2583796262
 40
0.5216385986
 40
0.6500897626
 40
0.7737183923
 40
0.8908119757
 40
1.0
 40
1.0
 40
1.0
 40
1.0
 10
-5.2566474381
 20
30.0143584375
 30
0.0
 10
-5.2377650349
 20
30.0843175286
 30
0.0
 10
-5.1925305997
 20
30.22425225
 30
0.0
 10
-5.0778462896
 20
30.4977932391
 30
0.0
 10
-4.9301752747
 20
30.7572303435
 30
0.0
 10
-4.7546679885
 20
30.9919583305
 30
0.0
 10
-4.6144752629
 20
31.1484265765
 30
0.0
 10
-4.4678613017
 20
31.2831825463
 30
0.0
 10
-4.3639376884
 20
31.3595086369
 30
0.0
 10
-4.3115967893
 20
31.3928175656
 30
0.0
  0
SPLINE
  5
36E
100
AcDbEntity
  8
RACCORDO
100
AcDbSpline
 62
250
  6
CONTINUOUS
 70
0
 71
3
 72
20
 73
16
 74
0
 42
0.0000001
 43
0.0000001
 44
0.0000000001
 40
0.0
 40
0.0
 40
0.0
 40
0.0
 40
0.1253173741
 40
0.2507091809
 40
0.3761958234
 40
0.5017860796
 40
0.6274550014
 40
0.6902852846
 40
0.7530627209
 40
0.8157028866
 40
0.8469216054
 40
0.8780278065
 40
0.9089698076
 40
0.9396760615
 40
1.0
 40
1.0
 40
1.0
 40
1.0
 10
-4.3115967893
 20
31.3928175656
 30
0.0
 10
-6.4641500103
 20
32.5320815878
 30
0.0
 10
-10.7717299573
 20
34.809028838
 30
0.0
 10
-17.2386455475
 20
38.2194433378
 30
0.0
 10
-23.7149604655
 20
41.6233908186
 30
0.0
 10
-30.2011467837
 20
45.0201156188
 30
0.0
 10
-35.6123982265
 20
47.8447008432
 30
0.0
 10
-39.9410955333
 20
50.1051656391
 30
0.0
 10
-43.1817253429
 20
51.8029912703
 30
0.0
 10
-45.8733873184
 20
53.224842933
 30
0.0
 10
-48.0137914103
 20
54.3723783469
 30
0.0
 10
-49.6059204233
 20
55.2387361817
 30
0.0
 10
-51.1814830989
 20
56.1146553664
 30
0.0
 10
-53.2379275099
 20
57.293573295
 30
0.0
 10
-54.7487442486
 20
58.2158359722
 30
0.0
 10
-55.7296216849
 20
58.8579294523
 30
0.0
  0
SPLINE
  5
36F
100
AcDbEntity
  8
RACCORDO
100
AcDbSpline
 62
250
  6
CONTINUOUS
 70
0
 71
3
 72
11
 73
7
 74
0
 42
0.0000001
 43
0.0000001
 44
0.0000000001
 40
0.0
 40
0.0
 40
0.0
 40
0.0
 40
0.249766023
 40
0.4996650237
 40
0.7497377558
 40
1.0
 40
1.0
 40
1.0
 40
1.0
 10
-5.2566474381
 20
30.0143584375
 30
0.0
 10
-7.3766560897
 20
31.136571667
 30
0.0
 10
-11.6194296849
 20
33.3785212098
 30
0.0
 10
-17.9894221079
 20
36.7353365438
 30
0.0
 10
-24.3688383453
 20
40.0844752833
 30
0.0
 10
-28.6270827707
 20
42.310823216
 30
0.0
 10
-30.7579731833
 20
43.4225743696
 30
0.0
  0
SPLINE
  5
370
100
AcDbEntity
  8
RACCORDO
100
AcDbSpline
 62
250
  6
CONTINUOUS
 70
0
 71
3
 72
17
 73
13
 74
0
 42
0.0000001
 43
0.0000001
 44
0.0000000001
 40
0.0
 40
0.0
 40
0.0
 40
0.0
 40
0.2527271177
 40
0.3790590852
 40
0.5052536517
 40
0.6311092245
 40
0.6937905007
 40
0.7561993108
 40
0.8182109841
 40
0.8796536027
 40
0.9403194924
 40
1.0
 40
1.0
 40
1.0
 40
1.0
 10
-31.4817523522
 20
43.8001096037
 30
0.0
 10
-33.6286869506
 20
44.919747042
 30
0.0
 10
-36.8500961591
 20
46.596616216
 30
0.0
 10
-41.1446968902
 20
48.8303267167
 30
0.0
 10
-44.3595558632
 20
50.5057290874
 30
0.0
 10
-47.0305357087
 20
51.9052162167
 30
0.0
 10
-49.1554934146
 20
53.0299959264
 30
0.0
 10
-50.7362827091
 20
53.8753010704
 30
0.0
 10
-52.3013661105
 20
54.7247520608
 30
0.0
 10
-53.8441677781
 20
55.5801502337
 30
0.0
 10
-55.3558545377
 20
56.44532625
 30
0.0
 10
-56.3450998725
 20
57.0379304923
 30
0.0
 10
-56.8312784436
 20
57.3388883496
 30
0.0
  0
SPLINE
  5
371
100
AcDbEntity
  8
RACCORDO
100
AcDbSpline
 62
250
  6
CONTINUOUS
 70
0
 71
3
 72
15
 73
11
 74
0
 42
0.0000001
 43
0.0000001
 44
0.0000000001
 40
0.0
 40
0.0
 40
0.0
 40
0.0
 40
0.125043721
 40
0.255751614
 40
0.3893139595
 40
0.5227806712
 40
0.6532062346
 40
0.7777954378
 40
0.8940597659
 40
1.0
 40
1.0
 40
1.0
 40
1.0
 10
46.6306761597
 20
2.5310190647
 30
0.0
 10
46.6423824672
 20
2.6091290557
 30
0.0
 10
46.6743214369
 20
2.7677597167
 30
0.0
 10
46.7435789337
 20
3.0039859129
 30
0.0
 10
46.8336560232
 20
3.238800167
 30
0.0
 10
46.9420145218
 20
3.465554722
 30
0.0
 10
47.0655947979
 20
3.6778710906
 30
0.0
 10
47.2009290084
 20
3.8698100285
 30
0.0
 10
47.3441826789
 20
4.0359935624
 30
0.0
 10
47.4476695781
 20
4.1314893122
 30
0.0
 10
47.5000792571
 20
4.1730940724
 30
0.0
  0
SPLINE
  5
372
100
AcDbEntity
  8
RACCORDO
100
AcDbSpline
 62
250
  6
CONTINUOUS
 70
0
 71
3
 72
22
 73
18
 74
0
 42
0.0000001
 43
0.0000001
 44
0.0000000001
 40
0.0
 40
0.0
 40
0.0
 40
0.0
 40
0.0324645491
 40
0.0645458339
 40
0.0963246336
 40
0.1278796658
 40
0.1592758105
 40
0.1905616
 40
0.2529320571
 40
0.315165471
 40
0.3773458469
 40
0.4395167961
 40
0.5016982464
 40
0.6261297121
 40
0.7506650936
 40
0.8752953766
 40
1.0
 40
1.0
 40
1.0
 40
1.0
 10
47.5000792571
 20
4.1730940724
 30
0.0
 10
46.9175018461
 20
4.4217938705
 30
0.0
 10
45.7654953011
 20
4.9310507221
 30
0.0
 10
44.0632895321
 20
5.7281004036
 30
0.0
 10
42.3908215662
 20
6.5460870559
 30
0.0
 10
40.7406162765
 20
7.3787596827
 30
0.0
 10
39.1063430503
 20
8.221460564
 30
0.0
 10
36.9445459346
 20
9.352947023
 30
0.0
 10
34.2583311309
 20
10.779909914
 30
0.0
 10
31.045656697
 20
12.5006840118
 30
0.0
 10
27.8387470158
 20
14.2239713116
 30
0.0
 10
24.6329709704
 20
15.9472239964
 30
0.0
 10
20.3566175589
 20
18.2442302026
 30
0.0
 10
15.0054270003
 20
21.1117298679
 30
0.0
 10
8.5749954567
 20
24.5449650731
 30
0.0
 10
2.1351058808
 20
27.9717843223
 30
0.0
 10
-2.1618707196
 20
30.2529974349
 30
0.0
 10
-4.3115967893
 20
31.3928175656
 30
0.0
  0
SPLINE
  5
373
100
AcDbEntity
  8
RACCORDO
100
AcDbSpline
 62
250
  6
CONTINUOUS
 70
0
 71
3
 72
23
 73
19
 74
0
 42
0.0000001
 43
0.0000001
 44
0.0000000001
 40
0.0
 40
0.0
 40
0.0
 40
0.0
 40
0.0326321934
 40
0.0648522158
 40
0.09673226
 40
0.1283539889
 40
0.1597905852
 40
0.1910979267
 40
0.2534759196
 40
0.2845958318
 40
0.3156906381
 40
0.3778396198
 40
0.4399719433
 40
0.502110966
 40
0.6264492547
 40
0.7508840892
 40
0.8754080607
 40
1.0
 40
1.0
 40
1.0
 40
1.0
 10
46.6306761597
 20
2.5310190647
 30
0.0
 10
46.0493932799
 20
2.7957680568
 30
0.0
 10
44.9004564313
 20
3.3357737437
 30
0.0
 10
43.2010883772
 20
4.1708649451
 30
0.0
 10
41.5298313399
 20
5.0179400019
 30
0.0
 10
39.8794318021
 20
5.8720561749
 30
0.0
 10
38.2441024965
 20
6.7308165062
 30
0.0
 10
36.0804925043
 20
7.8783937375
 30
0.0
 10
33.9271035536
 20
9.0319742641
 30
0.0
 10
31.779266105
 20
10.1870842919
 30
0.0
 10
29.63625396
 20
11.3417030426
 30
0.0
 10
26.9596449956
 20
12.7857364364
 30
0.0
 10
23.7478048355
 20
14.5174663286
 30
0.0
 10
19.4633506363
 20
16.8247570699
 30
0.0
 10
14.1014989868
 20
19.7033942963
 30
0.0
 10
7.6577177935
 20
23.1483091026
 30
0.0
 10
1.2040602283
 20
26.5852576705
 30
0.0
 10
-3.1024401395
 20
28.8723406811
 30
0.0
 10
-5.2571182233
 20
30.0146087142
 30
0.0
  0
SPLINE
  5
374
100
AcDbEntity
  8
RACCORDO
100
AcDbSpline
 62
250
  6
CONTINUOUS
 70
0
 71
3
 72
15
 73
11
 74
0
 42
0.0000001
 43
0.0000001
 44
0.0000000001
 40
0.0
 40
0.0
 40
0.0
 40
0.0
 40
0.1252549844
 40
0.2560345538
 40
0.389566083
 40
0.5229270719
 40
0.6532041031
 40
0.7776529385
 40
0.8938711002
 40
1.0
 40
1.0
 40
1.0
 40
1.0
 10
48.2283585753
 20
-0.2296901162
 30
0.0
 10
48.3034817707
 20
-0.2591771962
 30
0.0
 10
48.4604097261
 20
-0.3111075237
 30
0.0
 10
48.7054085491
 20
-0.3671440646
 30
0.0
 10
48.9596024045
 20
-0.4019043337
 30
0.0
 10
49.2155293404
 20
-0.414355597
 30
0.0
 10
49.4657188318
 20
-0.4041451917
 30
0.0
 10
49.7029126446
 20
-0.3715697642
 30
0.0
 10
49.9201973575
 20
-0.3176059481
 30
0.0
 10
50.0543584869
 20
-0.2657772191
 30
0.0
 10
50.1159464756
 20
-0.2360663915
 30
0.0
  0
SPLINE
  5
375
100
AcDbEntity
  8
RACCORDO
100
AcDbSpline
 62
250
  6
CONTINUOUS
 70
0
 71
3
 72
15
 73
11
 74
0
 42
0.0000001
 43
0.0000001
 44
0.0000000001
 40
0.0
 40
0.0
 40
0.0
 40
0.0
 40
0.1153441336
 40
0.2379777638
 40
0.3661255376
 40
0.4973570225
 40
0.6289178177
 40
0.7580573465
 40
0.8823494707
 40
1.0
 40
1.0
 40
1.0
 40
1.0
 10
50.1159464768
 20
-0.2360663921
 30
0.0
 10
50.1300886369
 20
-0.0289880906
 30
0.0
 10
50.1177804057
 20
0.4016885855
 30
0.0
 10
49.9927699119
 20
1.0509314982
 30
0.0
 10
49.7666777279
 20
1.7024849192
 30
0.0
 10
49.4484496703
 20
2.3321534718
 30
0.0
 10
49.0498116255
 20
2.9164306997
 30
0.0
 10
48.5846875289
 20
3.4329275584
 30
0.0
 10
48.0693118694
 20
3.8612616645
 30
0.0
 10
47.6918925143
 20
4.0834881769
 30
0.0
 10
47.5000792571
 20
4.1730940724
 30
0.0
  0
ELLIPSE
  5
376
100
AcDbEntity
  8
ASSI
100
AcDbEllipse
 62
7
  6
CONTINUOUS
 10
51.4543547052
 20
-0.2437030347
 30
0.0
 11
2.7401827149
 21
4.9986011507
 31
0.0
 40
0.552454078
 41
-0.8191300495
 42
-0.6445605354
  0
ELLIPSE
  5
377
100
AcDbEntity
  8
0
100
AcDbEllipse
 62
7
  6
CONTINUOUS
 10
49.968595233
 20
0.5433622325
 30
0.0
 11
2.7401827149
 21
4.9986011507
 31
0.0
 40
0.552454078
 41
0.007899015
 42
0.0335227286
  0
ELLIPSE
  5
378
100
AcDbEntity
  8
0
100
AcDbEllipse
 62
7
  6
CONTINUOUS
 10
53.1551379382
 20
4.6633640964
 30
0.0
 11
3.722231772
 21
-2.1413850529
 31
0.0
 40
0.0382321816
 41
1.8388732478
 42
2.310887627
  0
ELLIPSE
  5
379
100
AcDbEntity
  8
0
100
AcDbEllipse
 62
7
  6
CONTINUOUS
 10
-50.0745630039
 20
59.3481994763
 30
0.0
 11
3.722231772
 21
-2.1413850529
 31
0.0
 40
0.0382321816
 41
2.3108876687
 42
2.7829020895
  0
ELLIPSE
  5
37A
100
AcDbEntity
  8
0
100
AcDbEllipse
 62
7
  6
CONTINUOUS
 10
-55.7273900902
 20
56.5346855142
 30
0.0
 11
2.598505163
 21
5.0736806534
 31
0.0
 40
0.530864907
 41
5.9259990658
 42
6.3014659131
  0
ENDSEC
  0
SECTION
  2
OBJECTS
  0
DICTIONARY
  5
C
100
AcDbDictionary
280
0
281
1
  3
ACAD_GROUP
350
D
  3
ACAD_MLINESTYLE
350
17
  3
ACAD_LAYOUT
350
1A
  3
ACAD_PLOTSETTINGS
350
19
  3
ACAD_PLOTSTYLENAME
350
E
  0
DICTIONARY
  5
D
102
{ACAD_REACTORS
330
C
102
}
100
AcDbDictionary
280
0
281
1
  0
ACDBDICTIONARYWDFLT
  5
E
102
{ACAD_REACTORS
330
C
102
}
100
AcDbDictionary
281
1
  3
Normal
350
F
100
AcDbDictionaryWithDefault
340
F
  0
DICTIONARY
  5
17
102
{ACAD_REACTORS
330
C
102
}
100
AcDbDictionary
280
0
281
1
  3
Standard
350
18
  0
DICTIONARY
  5
19
102
{ACAD_REACTORS
330
C
102
}
100
AcDbDictionary
281
1
  0
DICTIONARY
  5
1A
102
{ACAD_REACTORS
330
C
102
}
100
AcDbDictionary
281
1
  3
Model
350
37B
  3
Layout1
350
37C
  0
ACDBPLACEHOLDER
  5
F
102
{ACAD_REACTORS
330
E
102
}
  0
MLINESTYLE
  5
18
102
{ACAD_REACTORS
330
17
102
}
100
AcDbMlineStyle
  2
STANDARD
 70
0
  3

 62
256
 51
90.0
 52
90.0
 71
2
 49
0.5
 62
256
  6
BYLAYER
 49
-0.5
 62
256
  6
BYLAYER
  0
LAYOUT
  5
37B
102
{ACAD_REACTORS
330
1A
102
}
100
AcDbPlotSettings
  1

  2
none_device
  4
ANSI_C_(22.00_x_17.00_Inches)
  6

 40
0.0
 41
0.0
 42
0.0
 43
0.0
 44
558.8
 45
431.8
 46
0.0
 47
0.0
 48
0.0
 49
0.0
140
0.0
141
0.0
142
1.0
143
1.0
 70
1024
 72
1
 73
0
 74
0
  7

 75
0
147
1.0
148
0.0
149
0.0
100
AcDbLayout
  1
Model
 70
0
 71
0
 10
0.0
 20
0.0
 11
558.8
 21
431.8
 12
0.0
 22
0.0
 32
0.0
 14
0.0
 24
0.0
 34
0.0
 15
0.0
 25
0.0
 35
0.0
146
0.0
 13
0.0
 23
0.0
 33
0.0
 16
1.0
 26
0.0
 36
0.0
 17
0.0
 27
1.0
 37
0.0
 76
0
330
215
345
0
346
0
  0
LAYOUT
  5
37C
102
{ACAD_REACTORS
330
1A
102
}
100
AcDbPlotSettings
  1

  2
none_device
  4
ANSI_C_(22.00_x_17.00_Inches)
  6

 40
0.0
 41
0.0
 42
0.0
 43
0.0
 44
558.8
 45
431.8
 46
0.0
 47
0.0
 48
0.0
 49
0.0
140
0.0
141
0.0
142
1.0
143
1.0
 70
0
 72
1
 73
0
 74
0
  7

 75
0
147
1.0
148
0.0
149
0.0
100
AcDbLayout
  1
Layout1
 70
0
 71
1
 10
0.0
 20
0.0
 11
558.8
 21
431.8
 12
0.0
 22
0.0
 32
0.0
 14
0.0
 24
0.0
 34
0.0
 15
0.0
 25
0.0
 35
0.0
146
0.0
 13
0.0
 23
0.0
 33
0.0
 16
1.0
 26
0.0
 36
0.0
 17
0.0
 27
1.0
 37
0.0
 76
0
330
216
345
0
346
0
  0
ENDSEC
  0
EOF
