  0
SECTION
  2
HEADER
  9
$ACADVER
  1
AC1024
  9
$DWGCODEPAGE
  3
ANSI_1252
  9
$EXTMAX
 10
297.0
 20
210.0
 30
0.0
  9
$EXTMIN
 10
0.0
 20
0.0
 30
0.0
  9
$LIMMIN
 10
0.0
 20
0.0
  9
$LIMMAX
 10
297.0
 20
210.0
  9
$VIEWCTR
 10
148.5
 20
105.0
  9
$VIEWSIZE
 40
210.0
  9
$CLAYER
  8
0
  9
$LTSCALE
 40
16.335
  9
$CELTYPE
  6
BYLAYER
  9
$DIMSCALE
 40
1.0
  9
$DIMASZ
 40
3.0
  9
$DIMEXO
 40
0.5
  9
$DIMDLI
 40
11.286
  9
$DIMEXE
 40
1.5
  9
$DIMCEN
 40
2.673
  9
$DIMLFAC
 40
1.0
  9
$DIMBLK
  1
_FILLED
  9
$DIMALT
 70
0
  9
$DIMALTF
 40
0.0393700787
  9
$DIMTXT
 40
3.0
  9
$DIMTOL
 70
1
  9
$DIMLIM
 70
0
  9
$DIMTFAC
 40
1.0
  9
$DIMTP
 40
0.01
  9
$DIMTM
 40
0.01
  9
$DIMGAP
 40
0.625
  9
$DIMDSEP
 70
44
  9
$AUNITS
 70
0
  9
$PDMODE
 70
3
  9
$PDSIZE
 40
3.0
  9
$HANDSEED
  5
25D
  9
$TILEMODE
 70
1
  9
$MEASUREMENT
 70
1
  9
$INSUNITS
 70
4
  0
ENDSEC
  0
SECTION
  2
CLASSES
  0
CLASS
  1
ACDBDICTIONARYWDFLT
  2
AcDbDictionaryWithDefault
  3
AutoCAD 2000
 90
0
 91
1
280
0
281
0
  0
CLASS
  1
ACDBPLACEHOLDER
  2
AcDbPlaceHolder
  3
AutoCAD 2000
 90
0
 91
1
280
0
281
0
  0
CLASS
  1
LAYOUT
  2
AcDbLayout
  3
AutoCAD 2000
 90
0
 91
0
280
0
281
0
  0
ENDSEC
  0
SECTION
  2
TABLES
  0
TABLE
  2
VPORT
  5
8
100
AcDbSymbolTable
 70
2
  0
VPORT
  5
1F4
100
AcDbSymbolTableRecord
100
AcDbViewportTableRecord
  2
*ACTIVE
 70
0
 10
0.0
 20
0.0
 11
1.0
 21
1.0
 12
148.5
 22
105.0
 13
0.0
 23
0.0
 14
1.0
 24
1.0
 15
0.0
 25
0.0
 16
0.0
 26
0.0
 36
1.0
 17
0.0
 27
0.0
 37
0.0
 40
210.0
 41
1.4142857143
 42
50.0
 43
0.0
 44
0.0
 50
0.0
 51
0.0
 71
0
 72
100
 73
1
 74
1
 75
0
 76
0
 77
0
 78
0
  0
ENDTAB
  0
TABLE
  2
LTYPE
  5
5
100
AcDbSymbolTable
 70
6
  0
LTYPE
  5
14
100
AcDbSymbolTableRecord
100
AcDbLinetypeTableRecord
  2
BYBLOCK
 70
0
  3

 72
65
 73
0
 40
0.0
  0
LTYPE
  5
15
100
AcDbSymbolTableRecord
100
AcDbLinetypeTableRecord
  2
BYLAYER
 70
0
  3

 72
65
 73
0
 40
0.0
  0
LTYPE
  5
16
100
AcDbSymbolTableRecord
100
AcDbLinetypeTableRecord
  2
CONTINUOUS
 70
64
  3
Solid line
 72
65
 73
0
 40
0.0
  0
LTYPE
  5
1F5
100
AcDbSymbolTableRecord
100
AcDbLinetypeTableRecord
  2
CENTER
 70
64
  3
____ _ ____ _ ____ _ ____ _ ____ _ ____ _ ____
 72
65
 73
4
 40
0.6
 49
0.375
 74
0
 49
-0.075
 74
0
 49
0.075
 74
0
 49
-0.075
 74
0
  0
LTYPE
  5
1F6
100
AcDbSymbolTableRecord
100
AcDbLinetypeTableRecord
  2
HIDDEN
 70
64
  3
- - - - - - - - - - - - - - - - - - - -
 72
65
 73
2
 40
0.2
 49
0.1
 74
0
 49
-0.1
 74
0
  0
LTYPE
  5
1F7
100
AcDbSymbolTableRecord
100
AcDbLinetypeTableRecord
  2
PHANTOM
 70
64
  3
_____ _ _ _____ _ _ _____ _ _ _____
 72
65
 73
6
 40
0.8
 49
0.45
 74
0
 49
-0.05
 74
0
 49
0.1
 74
0
 49
-0.05
 74
0
 49
0.1
 74
0
 49
-0.05
 74
0
  0
LTYPE
  5
1F8
100
AcDbSymbolTableRecord
100
AcDbLinetypeTableRecord
  2
DOT
 70
64
  3
. . . . . . . . . . . . . . . . . . . .
 72
65
 73
2
 40
0.2
 49
0.1
 74
0
 49
-0.1
 74
0
  0
LTYPE
  5
1F9
100
AcDbSymbolTableRecord
100
AcDbLinetypeTableRecord
  2
DASHED
 70
64
  3
- - - - - - - - - - - - - - - - - - - -
 72
65
 73
2
 40
0.2
 49
0.1
 74
0
 49
-0.1
 74
0
  0
ENDTAB
  0
TABLE
  2
LAYER
  5
2
100
AcDbSymbolTable
 70
36
  0
LAYER
  5
10
100
AcDbSymbolTableRecord
100
AcDbLayerTableRecord
  2
0
 70
0
 62
7
  6
CONTINUOUS
370
-3
390
F
  0
LAYER
  5
1FA
100
AcDbSymbolTableRecord
100
AcDbLayerTableRecord
  2
DEFAULT_1
 70
0
 62
7
  6
CENTER
370
-3
390
F
  0
LAYER
  5
1FB
100
AcDbSymbolTableRecord
100
AcDbLayerTableRecord
  2
DEFAULT_2
 70
0
 62
7
  6
HIDDEN
370
-3
390
F
  0
LAYER
  5
1FC
100
AcDbSymbolTableRecord
100
AcDbLayerTableRecord
  2
DEFAULT_3
 70
0
 62
7
  6
PHANTOM
370
-3
390
F
  0
LAYER
  5
1FD
100
AcDbSymbolTableRecord
100
AcDbLayerTableRecord
  2
ASSI
 70
0
 62
7
  6
CONTINUOUS
370
-3
390
F
  0
LAYER
  5
1FE
100
AcDbSymbolTableRecord
100
AcDbLayerTableRecord
  2
COORDINATE
 70
0
 62
7
  6
CONTINUOUS
370
-3
390
F
  0
LAYER
  5
1FF
100
AcDbSymbolTableRecord
100
AcDbLayerTableRecord
  2
COPY_PUBLISH
 70
0
 62
7
  6
CONTINUOUS
370
-3
390
F
  0
LAYER
  5
200
100
AcDbSymbolTableRecord
100
AcDbLayerTableRecord
  2
COSMETICI
 70
0
 62
7
  6
CONTINUOUS
370
-3
390
F
  0
LAYER
  5
201
100
AcDbSymbolTableRecord
100
AcDbLayerTableRecord
  2
CURVE
 70
0
 62
7
  6
CONTINUOUS
370
-3
390
F
  0
LAYER
  5
202
100
AcDbSymbolTableRecord
100
AcDbLayerTableRecord
  2
IMPORT_IGES
 70
0
 62
7
  6
CONTINUOUS
370
-3
390
F
  0
LAYER
  5
203
100
AcDbSymbolTableRecord
100
AcDbLayerTableRecord
  2
NOTE
 70
0
 62
7
  6
CONTINUOUS
370
-3
390
F
  0
LAYER
  5
204
100
AcDbSymbolTableRecord
100
AcDbLayerTableRecord
  2
PIANI
 70
0
 62
7
  6
CONTINUOUS
370
-3
390
F
  0
LAYER
  5
205
100
AcDbSymbolTableRecord
100
AcDbLayerTableRecord
  2
PUNTI
 70
0
 62
7
  6
CONTINUOUS
370
-3
390
F
  0
LAYER
  5
206
100
AcDbSymbolTableRecord
100
AcDbLayerTableRecord
  2
RACCORDO
 70
0
 62
7
  6
CONTINUOUS
370
-3
390
F
  0
LAYER
  5
207
100
AcDbSymbolTableRecord
100
AcDbLayerTableRecord
  2
SIMBOLI
 70
0
 62
7
  6
CONTINUOUS
370
-3
390
F
  0
LAYER
  5
208
100
AcDbSymbolTableRecord
100
AcDbLayerTableRecord
  2
SMUSSO
 70
0
 62
7
  6
CONTINUOUS
370
-3
390
F
  0
LAYER
  5
209
100
AcDbSymbolTableRecord
100
AcDbLayerTableRecord
  2
SUPERFICI
 70
0
 62
7
  6
CONTINUOUS
370
-3
390
F
  0
LAYER
  5
20A
100
AcDbSymbolTableRecord
100
AcDbLayerTableRecord
  2
TRASH
 70
0
 62
7
  6
CONTINUOUS
370
-3
390
F
  0
ENDTAB
  0
TABLE
  2
STYLE
  5
3
100
AcDbSymbolTable
 70
1
  0
STYLE
  5
11
100
AcDbSymbolTableRecord
100
AcDbTextStyleTableRecord
  2
STANDARD
 70
0
 40
0.0
 41
0.8
 50
0.0
 71
0
 42
0.2
  3
txt
  4

  0
STYLE
  5
20B
100
AcDbSymbolTableRecord
100
AcDbTextStyleTableRecord
  2
TEXTSTYLE_1
 70
0
 40
0.0
 41
0.8
 50
0.0
 71
0
 42
0.2
  3
gdt
  4

  0
ENDTAB
  0
TABLE
  2
VIEW
  5
6
100
AcDbSymbolTable
 70
0
  0
ENDTAB
  0
TABLE
  2
UCS
  5
7
100
AcDbSymbolTable
 70
0
  0
ENDTAB
  0
TABLE
  2
APPID
  5
9
100
AcDbSymbolTable
 70
1
  0
APPID
  5
20C
100
AcDbSymbolTableRecord
100
AcDbRegAppTableRecord
  2
ACAD
 70
0
  0
ENDTAB
  0
TABLE
  2
BLOCK_RECORD
  5
1
100
AcDbSymbolTable
 70
0
  0
BLOCK_RECORD
  5
20D
100
AcDbSymbolTableRecord
100
AcDbBlockTableRecord
  2
*Model_Space
  0
BLOCK_RECORD
  5
20E
100
AcDbSymbolTableRecord
100
AcDbBlockTableRecord
  2
*Paper_Space
  0
BLOCK_RECORD
  5
20F
100
AcDbSymbolTableRecord
100
AcDbBlockTableRecord
  2
_FILLED
  0
ENDTAB
  0
TABLE
  2
DIMSTYLE
  5
A
100
AcDbSymbolTable
 70
1
100
AcDbDimStyleTable
 71
0
  0
DIMSTYLE
105
210
100
AcDbSymbolTableRecord
100
AcDbDimStyleTableRecord
  2
STANDARD
 70
0
  3

  4

 40
1.0
 41
3.0
 42
0.5
 43
0.38
 44
1.5
 45
0.0
 46
0.0
 47
0.01
 48
0.01
140
3.0
141
0.09
142
0.0
143
25.4
144
1.0
145
0.0
146
1.0
147
0.625
 71
1
 72
0
 73
0
 74
0
 75
0
 76
0
 77
1
 78
8
 79
2
170
0
171
1
172
0
173
0
174
0
175
0
176
0
177
0
178
0
270
2
179
2
271
2
272
2
273
2
274
2
275
0
280
0
281
0
282
0
283
1
284
8
285
0
286
0
287
3
288
0
340
11
278
44
341
20F
342
20F
343
20F
344
20F
  0
ENDTAB
  0
ENDSEC
  0
SECTION
  2
BLOCKS
  0
BLOCK
  5
20
100
AcDbEntity
  8
0
100
AcDbBlockBegin
  2
*Model_Space
 70
0
 10
0.0
 20
0.0
 30
0.0
  3
*Model_Space
  1

  0
ENDBLK
  5
21
100
AcDbEntity
  8
0
100
AcDbBlockEnd
  0
BLOCK
  5
1C
100
AcDbEntity
  8
0
100
AcDbBlockBegin
  2
*Paper_Space
 70
0
 10
0.0
 20
0.0
 30
0.0
  3
*Paper_Space
  1

  0
ENDBLK
  5
1D
100
AcDbEntity
  8
0
100
AcDbBlockEnd
  0
BLOCK
  5
211
100
AcDbEntity
  8
0
100
AcDbBlockBegin
  2
_FILLED
 70
64
 10
0.0
 20
0.0
  3
_FILLED
  1

  0
SOLID
  5
212
100
AcDbEntity
  8
0
  6
BYBLOCK
 62
0
100
AcDbTrace
 10
0.0
 20
0.0
 11
-1.0
 21
0.3166666667
 12
-1.0
 22
-0.3166666667
 13
-1.0
 23
-0.3166666667
  0
ENDBLK
  5
213
100
AcDbEntity
  8
0
  6
BYBLOCK
 62
0
100
AcDbBlockEnd
  0
ENDSEC
  0
SECTION
  2
ENTITIES
  0
LINE
  5
214
100
AcDbEntity
  8
0
100
AcDbLine
 62
250
  6
CONTINUOUS
 10
-24.5727519882
 20
28.9879766849
 11
-23.865645207
 21
29.3962512782
  0
LINE
  5
215
100
AcDbEntity
  8
0
100
AcDbLine
 62
250
  6
CONTINUOUS
 10
-22.8112420705
 20
30.9417571796
 11
-22.9848902481
 21
30.3731415256
  0
LWPOLYLINE
  5
216
100
AcDbEntity
  8
0
100
AcDbPolyline
 62
7
  6
CONTINUOUS
 90
15
 70
0
 10
-18.9307784848
 20
19.6295263373
 10
-18.9465413218
 20
19.6198653167
 10
-18.9765947186
 20
19.5982445056
 10
-19.0046161438
 20
19.5734817278
 10
-19.0306259712
 20
19.5456084867
 10
-19.0543616554
 20
19.5149061371
 10
-19.0758001634
 20
19.4813460254
 10
-19.0949645282
 20
19.4449568052
 10
-19.1116613029
 20
19.4061057924
 10
-19.1258654955
 20
19.3647680537
 10
-19.1376020981
 20
19.3209685225
 10
-19.1467526405
 20
19.275149315
 10
-19.1532776324
 20
19.2274578033
 10
-19.1572165641
 20
19.1777466153
 10
-19.1585694354
 20
19.126015751
  0
LWPOLYLINE
  5
217
100
AcDbEntity
  8
0
100
AcDbPolyline
 62
7
  6
CONTINUOUS
 90
17
 70
0
 10
-25.1585384233
 20
-11.8354010144
 10
-25.1568673069
 20
-11.8826547982
 10
-25.1503235261
 20
-11.9398049096
 10
-25.1388692953
 20
-11.9968562279
 10
-25.1226293624
 20
-12.0533000343
 10
-25.1016085031
 20
-12.1090492417
 10
-25.0758019417
 20
-12.1641909373
 10
-25.0453200988
 20
-12.2184776632
 10
-25.0101017498
 20
-12.2719779885
 10
-24.9702081194
 20
-12.3246233442
 10
-24.9259333018
 20
-12.3759605654
 10
-24.8772314643
 20
-12.4259719049
 10
-24.8241484398
 20
-12.47467511
 10
-24.7671158207
 20
-12.5216702575
 10
-24.7062774711
 20
-12.5668240397
 10
-24.6414895269
 20
-12.6102697644
 10
-24.5727519882
 20
-12.6520074315
  0
LWPOLYLINE
  5
218
100
AcDbEntity
  8
0
100
AcDbPolyline
 62
7
  6
CONTINUOUS
 90
17
 70
0
 10
-25.1585384233
 20
29.804583102
 10
-25.1568673069
 20
29.7573293182
 10
-25.1503235261
 20
29.7001792069
 10
-25.1388692953
 20
29.6431278886
 10
-25.1226293624
 20
29.5866840822
 10
-25.1016085031
 20
29.5309348747
 10
-25.0758019417
 20
29.4757931792
 10
-25.0453200988
 20
29.4215064532
 10
-25.0101017498
 20
29.3680061279
 10
-24.9702081194
 20
29.3153607722
 10
-24.9259333018
 20
29.264023551
 10
-24.8772314643
 20
29.2140122115
 10
-24.8241484398
 20
29.1653090065
 10
-24.7671158207
 20
29.118313859
 10
-24.7062774711
 20
29.0731600767
 10
-24.6414895269
 20
29.029714352
 10
-24.5727519882
 20
28.9879766849
  0
LINE
  5
219
100
AcDbEntity
  8
0
100
AcDbLine
 62
7
  6
CONTINUOUS
 10
-25.1585384258
 20
-11.8354582449
 11
-25.1585384258
 21
29.8045258716
  0
LINE
  5
21A
100
AcDbEntity
  8
0
100
AcDbLine
 62
250
  6
CONTINUOUS
 10
-24.5727519882
 20
-12.6520074315
 11
-24.5727519882
 21
28.9879766849
  0
LWPOLYLINE
  5
21B
100
AcDbEntity
  8
0
100
AcDbPolyline
 62
7
  6
CONTINUOUS
 90
15
 70
0
 10
-17.8307254674
 20
17.7243010595
 10
-17.8149626305
 20
17.7339620801
 10
-17.7849092336
 20
17.7555828912
 10
-17.7568878084
 20
17.7803456689
 10
-17.730877981
 20
17.8082189101
 10
-17.7071422968
 20
17.8389212596
 10
-17.6857037888
 20
17.8724813714
 10
-17.6665394241
 20
17.9088705916
 10
-17.6498426493
 20
17.9477216043
 10
-17.6356384567
 20
17.989059343
 10
-17.6239018541
 20
18.0328588743
 10
-17.6147513118
 20
18.0786780818
 10
-17.6082263198
 20
18.1263695935
 10
-17.6042873882
 20
18.1760807815
 10
-17.6029345168
 20
18.2278116457
  0
LWPOLYLINE
  5
21C
100
AcDbEntity
  8
0
100
AcDbPolyline
 62
7
  6
CONTINUOUS
 90
17
 70
0
 10
-24.1585384246
 20
29.8045544868
 10
-24.1577028664
 20
29.7809275949
 10
-24.154430976
 20
29.7523525392
 10
-24.1487038606
 20
29.7238268801
 10
-24.1405838941
 20
29.6956049769
 10
-24.1300734645
 20
29.6677303731
 10
-24.1171701838
 20
29.6401595254
 10
-24.1019292623
 20
29.6130161624
 10
-24.0843200878
 20
29.5862659997
 10
-24.0643732726
 20
29.5599433219
 10
-24.0422358638
 20
29.5342747113
 10
-24.0178849451
 20
29.5092690415
 10
-23.9913434328
 20
29.484917439
 10
-23.9628271232
 20
29.4614198653
 10
-23.9324079485
 20
29.4388429741
 10
-23.9000139764
 20
29.4171201118
 10
-23.865645207
 20
29.3962512782
  0
LINE
  5
21D
100
AcDbEntity
  8
0
100
AcDbLine
 62
250
  6
CONTINUOUS
 10
-22.9848902481
 20
28.8877144034
 11
-22.9848902481
 21
30.3731415256
  0
LWPOLYLINE
  5
21E
100
AcDbEntity
  8
0
100
AcDbPolyline
 62
7
  6
CONTINUOUS
 90
7
 70
0
 10
-9.7148414019
 20
21.2257545124
 10
-9.7136948432
 20
21.2263889931
 10
-9.6709596971
 20
21.2535850397
 10
-9.6303616687
 20
21.2831102262
 10
-9.5923105581
 20
21.3146665227
 10
-9.5568321608
 20
21.3482745006
 10
-9.5355574895
 20
21.3712983641
  0
LINE
  5
21F
100
AcDbEntity
  8
0
100
AcDbLine
 62
7
  6
CONTINUOUS
 10
-24.5727519882
 20
-12.6520074315
 11
6.5495777374
 21
-30.6216505607
  0
LWPOLYLINE
  5
220
100
AcDbEntity
  8
0
100
AcDbPolyline
 62
7
  6
CONTINUOUS
 90
42
 70
0
 10
-19.1585694354
 20
-9.0422087983
 10
-19.1572165641
 20
-9.0955019245
 10
-19.1532776324
 20
-9.149761692
 10
-19.1467526405
 20
-9.2049881009
 10
-19.1376020981
 20
-9.2613741253
 10
-19.1258654955
 20
-9.318726791
 10
-19.1116613029
 20
-9.3764671753
 10
-19.0949645282
 20
-9.434599205
 10
-19.0758001634
 20
-9.4931189533
 10
-19.0543616554
 20
-9.5514357167
 10
-19.0306259712
 20
-9.6095474394
 10
-19.0046161438
 20
-9.6674561773
 10
-18.9765947186
 20
-9.7245773945
 10
-18.9465413218
 20
-9.7809031149
 10
-18.9144763271
 20
-9.8364413147
 10
-18.8807234015
 20
-9.8906313864
 10
-18.8452654493
 20
-9.943459676
 10
-18.8081195662
 20
-9.9949398376
 10
-18.7696607058
 20
-10.0445522259
 10
-18.7298755701
 20
-10.0922779239
 10
-18.6887774572
 20
-10.1381358486
 10
-18.646781215
 20
-10.1816631062
 10
-18.6038777471
 20
-10.2228360913
 10
-18.5600761499
 20
-10.2616784093
 10
-18.5158185605
 20
-10.2977979825
 10
-18.4711003605
 20
-10.3311672345
 10
-18.4259261683
 20
-10.3618137416
 10
-18.3807519761
 20
-10.3894281554
 10
-18.3355777839
 20
-10.4139797664
 10
-18.2904035917
 20
-10.4354992841
 10
-18.2456853917
 20
-10.4537694886
 10
-18.2014278023
 20
-10.4687574703
 10
-18.1576262051
 20
-10.4804961388
 10
-18.1147227372
 20
-10.488867003
 10
-18.072726495
 20
-10.4938359532
 10
-18.0316283821
 20
-10.4954370991
 10
-17.9918432465
 20
-10.4936542786
 10
-17.9533843861
 20
-10.4884532182
 10
-17.9162385029
 20
-10.4798681915
 10
-17.8807805507
 20
-10.4679858563
 10
-17.8470276251
 20
-10.452772817
 10
-17.8307254674
 20
-10.4439234899
  0
LWPOLYLINE
  5
221
100
AcDbEntity
  8
0
100
AcDbPolyline
 62
7
  6
CONTINUOUS
 90
42
 70
0
 10
-19.1585694354
 20
19.126015751
 10
-19.1572165641
 20
19.0727226248
 10
-19.1532776324
 20
19.0184628573
 10
-19.1467526405
 20
18.9632364485
 10
-19.1376020981
 20
18.9068504241
 10
-19.1258654955
 20
18.8494977583
 10
-19.1116613029
 20
18.791757374
 10
-19.0949645282
 20
18.7336253443
 10
-19.0758001634
 20
18.6751055961
 10
-19.0543616554
 20
18.6167888326
 10
-19.0306259712
 20
18.5586771099
 10
-19.0046161438
 20
18.5007683721
 10
-18.9765947186
 20
18.4436471549
 10
-18.9465413218
 20
18.3873214344
 10
-18.9144763271
 20
18.3317832347
 10
-18.8807234015
 20
18.277593163
 10
-18.8452654493
 20
18.2247648733
 10
-18.8081195662
 20
18.1732847118
 10
-18.7696607058
 20
18.1236723235
 10
-18.7298755701
 20
18.0759466255
 10
-18.6887774572
 20
18.0300887008
 10
-18.646781215
 20
17.9865614432
 10
-18.6038777471
 20
17.9453884581
 10
-18.5600761499
 20
17.90654614
 10
-18.5158185605
 20
17.8704265668
 10
-18.4711003605
 20
17.8370573149
 10
-18.4259261683
 20
17.8064108077
 10
-18.3807519761
 20
17.7787963939
 10
-18.3355777839
 20
17.7542447829
 10
-18.2904035917
 20
17.7327252653
 10
-18.2456853917
 20
17.7144550608
 10
-18.2014278023
 20
17.6994670791
 10
-18.1576262051
 20
17.6877284105
 10
-18.1147227372
 20
17.6793575463
 10
-18.072726495
 20
17.6743885961
 10
-18.0316283821
 20
17.6727874503
 10
-17.9918432465
 20
17.6745702708
 10
-17.9533843861
 20
17.6797713311
 10
-17.9162385029
 20
17.6883563579
 10
-17.8807805507
 20
17.7002386931
 10
-17.8470276251
 20
17.7154517324
 10
-17.8307254674
 20
17.7243010595
  0
LWPOLYLINE
  5
222
100
AcDbEntity
  8
0
100
AcDbPolyline
 62
7
  6
CONTINUOUS
 90
30
 70
0
 10
-18.4514626542
 20
-8.633934205
 10
-18.4501097829
 20
-8.6872273312
 10
-18.4461708512
 20
-8.7414870987
 10
-18.4396458593
 20
-8.7967135075
 10
-18.430495317
 20
-8.853099532
 10
-18.4187587144
 20
-8.9104521977
 10
-18.4045545218
 20
-8.968192582
 10
-18.387857747
 20
-9.0263246117
 10
-18.3686933822
 20
-9.08484436
 10
-18.3472548742
 20
-9.1431611234
 10
-18.32351919
 20
-9.2012728461
 10
-18.2975093626
 20
-9.259181584
 10
-18.2694879374
 20
-9.3163028012
 10
-18.2394345406
 20
-9.3726285216
 10
-18.207369546
 20
-9.4281667214
 10
-18.1736166204
 20
-9.4823567931
 10
-18.1381586682
 20
-9.5351850827
 10
-18.101012785
 20
-9.5866652443
 10
-18.0625539246
 20
-9.6362776326
 10
-18.0227687889
 20
-9.6840033305
 10
-17.981670676
 20
-9.7298612552
 10
-17.9396744338
 20
-9.7733885128
 10
-17.8967709659
 20
-9.814561498
 10
-17.8529693687
 20
-9.853403816
 10
-17.8087117793
 20
-9.8895233892
 10
-17.7639935793
 20
-9.9228926411
 10
-17.7188193871
 20
-9.9535391483
 10
-17.6736451949
 20
-9.9811535621
 10
-17.6284710027
 20
-10.0057051731
 10
-17.6062024829
 20
-10.0163131726
  0
LWPOLYLINE
  5
223
100
AcDbEntity
  8
0
100
AcDbPolyline
 62
7
  6
CONTINUOUS
 90
3
 70
0
 10
-18.4481946882
 20
19.6101906133
 10
-18.4501097829
 20
19.5860212086
 10
-18.4514626542
 20
19.5342903444
  0
LINE
  5
224
100
AcDbEntity
  8
0
100
AcDbLine
 62
250
  6
CONTINUOUS
 10
-11.5051729955
 20
25.9385220136
 11
-11.3934952548
 21
26.3042137958
  0
LWPOLYLINE
  5
225
100
AcDbEntity
  8
0
100
AcDbPolyline
 62
7
  6
CONTINUOUS
 90
51
 70
0
 10
-11.4767498813
 20
26.1303700225
 10
-11.4637659878
 20
26.1685201787
 10
-11.4457818209
 20
26.2117247393
 10
-11.4246417538
 20
26.2536556916
 10
-11.4003774296
 20
26.2943258055
 10
-11.3732337744
 20
26.3333245533
 10
-11.3431816259
 20
26.3706350074
 10
-11.3102501464
 20
26.4062740954
 10
-11.2747717492
 20
26.4398820733
 10
-11.2367206386
 20
26.4714383698
 10
-11.1961226102
 20
26.5009635563
 10
-11.153387464
 20
26.5281596029
 10
-11.108493555
 20
26.5530029198
 10
-11.0614625282
 20
26.5755170969
 10
-11.012769119
 20
26.595474874
 10
-10.9623964903
 20
26.6128503597
 10
-10.9103614791
 20
26.6276694455
 10
-10.8571893313
 20
26.6397825462
 10
-10.8028685298
 20
26.6491622553
 10
-10.7474105916
 20
26.6558359794
 10
-10.6913753141
 20
26.6597363533
 10
-10.6347568498
 20
26.6608352881
 10
-10.5775610461
 20
26.6591608728
 10
-10.5203652425
 20
26.654730009
 10
-10.4631694388
 20
26.6475147789
 10
-10.4059736351
 20
26.6375431004
 10
-10.3493551708
 20
26.6249156284
 10
-10.2933198933
 20
26.6096054646
 10
-10.2378619551
 20
26.5916395073
 10
-10.1835411536
 20
26.5711991065
 10
-10.1303690058
 20
26.5482592005
 10
-10.0783339946
 20
26.522844851
 10
-10.027961366
 20
26.4952125926
 10
-9.9792679567
 20
26.4653399619
 10
-9.9322369299
 20
26.4332494223
 10
-9.8873430209
 20
26.3992648984
 10
-9.8446078747
 20
26.3633672078
 10
-9.8040098463
 20
26.3255755329
 10
-9.7659587357
 20
26.2862713462
 10
-9.7304803385
 20
26.2454393287
 10
-9.697548859
 20
26.2030947995
 10
-9.6674967105
 20
26.1596651878
 10
-9.6403530553
 20
26.1151395037
 10
-9.6160887311
 20
26.0695287372
 10
-9.5949486641
 20
26.0232932872
 10
-9.5769644972
 20
25.9764268269
 10
-9.5621045874
 20
25.9289356832
 10
-9.5505189321
 20
25.8812992357
 10
-9.5422575302
 20
25.8336772778
 10
-9.5372703826
 20
25.7859100161
 10
-9.5355574895
 20
25.7379974507
  0
LWPOLYLINE
  5
226
100
AcDbEntity
  8
0
100
AcDbPolyline
 62
7
  6
CONTINUOUS
 90
30
 70
0
 10
-18.4514626542
 20
19.5342903444
 10
-18.4501097829
 20
19.4809972182
 10
-18.4461708512
 20
19.4267374506
 10
-18.4396458593
 20
19.3715110418
 10
-18.430495317
 20
19.3151250174
 10
-18.4187587144
 20
19.2577723517
 10
-18.4045545218
 20
19.2000319674
 10
-18.387857747
 20
19.1418999377
 10
-18.3686933822
 20
19.0833801894
 10
-18.3472548742
 20
19.025063426
 10
-18.32351919
 20
18.9669517033
 10
-18.2975093626
 20
18.9090429654
 10
-18.2694879374
 20
18.8519217482
 10
-18.2394345406
 20
18.7955960278
 10
-18.207369546
 20
18.740057828
 10
-18.1736166204
 20
18.6858677563
 10
-18.1381586682
 20
18.6330394667
 10
-18.101012785
 20
18.5815593051
 10
-18.0625539246
 20
18.5319469168
 10
-18.0227687889
 20
18.4842212188
 10
-17.981670676
 20
18.4383632941
 10
-17.9396744338
 20
18.3948360365
 10
-17.8967709659
 20
18.3536630514
 10
-17.8529693687
 20
18.3148207334
 10
-17.8087117793
 20
18.2787011602
 10
-17.7639935793
 20
18.2453319082
 10
-17.7188193871
 20
18.2146854011
 10
-17.6736451949
 20
18.1870709872
 10
-17.6284710027
 20
18.1625193763
 10
-17.6062024829
 20
18.1519113768
  0
LWPOLYLINE
  5
227
100
AcDbEntity
  8
0
100
AcDbPolyline
 62
7
  6
CONTINUOUS
 90
42
 70
0
 10
-17.6029345168
 20
-9.9404129036
 10
-17.6042873882
 20
-9.8871197774
 10
-17.6082263198
 20
-9.8328600099
 10
-17.6147513118
 20
-9.7776336011
 10
-17.6239018541
 20
-9.7212475767
 10
-17.6356384567
 20
-9.6638949109
 10
-17.6498426493
 20
-9.6061545266
 10
-17.6665394241
 20
-9.5480224969
 10
-17.6857037888
 20
-9.4895027487
 10
-17.7071422968
 20
-9.4311859852
 10
-17.730877981
 20
-9.3730742625
 10
-17.7568878084
 20
-9.3151655247
 10
-17.7849092336
 20
-9.2580443075
 10
-17.8149626305
 20
-9.201718587
 10
-17.8470276251
 20
-9.1461803873
 10
-17.8807805507
 20
-9.0919903156
 10
-17.9162385029
 20
-9.0391620259
 10
-17.9533843861
 20
-8.9876818644
 10
-17.9918432465
 20
-8.9380694761
 10
-18.0316283821
 20
-8.8903437781
 10
-18.072726495
 20
-8.8444858534
 10
-18.1147227372
 20
-8.8009585958
 10
-18.1576262051
 20
-8.7597856107
 10
-18.2014278023
 20
-8.7209432926
 10
-18.2456853917
 20
-8.6848237194
 10
-18.2904035917
 20
-8.6514544675
 10
-18.3355777839
 20
-8.6208079603
 10
-18.3807519761
 20
-8.5931935465
 10
-18.4259261683
 20
-8.5686419355
 10
-18.4711003605
 20
-8.5471224179
 10
-18.5158185605
 20
-8.5288522134
 10
-18.5600761499
 20
-8.5138642317
 10
-18.6038777471
 20
-8.5021255631
 10
-18.646781215
 20
-8.4937546989
 10
-18.6887774572
 20
-8.4887857487
 10
-18.7298755701
 20
-8.4871846029
 10
-18.7696607058
 20
-8.4889674234
 10
-18.8081195662
 20
-8.4941684837
 10
-18.8452654493
 20
-8.5027535105
 10
-18.8807234015
 20
-8.5146358457
 10
-18.9144763271
 20
-8.529848885
 10
-18.9307784848
 20
-8.5386982121
  0
LWPOLYLINE
  5
228
100
AcDbEntity
  8
0
100
AcDbPolyline
 62
7
  6
CONTINUOUS
 90
42
 70
0
 10
-17.6029345168
 20
18.2278116457
 10
-17.6042873882
 20
18.2811047719
 10
-17.6082263198
 20
18.3353645394
 10
-17.6147513118
 20
18.3905909483
 10
-17.6239018541
 20
18.4469769727
 10
-17.6356384567
 20
18.5043296384
 10
-17.6498426493
 20
18.5620700227
 10
-17.6665394241
 20
18.6202020524
 10
-17.6857037888
 20
18.6787218007
 10
-17.7071422968
 20
18.7370385641
 10
-17.730877981
 20
18.7951502868
 10
-17.7568878084
 20
18.8530590247
 10
-17.7849092336
 20
18.9101802419
 10
-17.8149626305
 20
18.9665059623
 10
-17.8470276251
 20
19.0220441621
 10
-17.8807805507
 20
19.0762342338
 10
-17.9162385029
 20
19.1290625234
 10
-17.9533843861
 20
19.180542685
 10
-17.9918432465
 20
19.2301550733
 10
-18.0316283821
 20
19.2778807713
 10
-18.072726495
 20
19.323738696
 10
-18.1147227372
 20
19.3672659536
 10
-18.1576262051
 20
19.4084389387
 10
-18.2014278023
 20
19.4472812567
 10
-18.2456853917
 20
19.4834008299
 10
-18.2904035917
 20
19.5167700819
 10
-18.3355777839
 20
19.547416589
 10
-18.3807519761
 20
19.5750310028
 10
-18.4259261683
 20
19.5995826138
 10
-18.4711003605
 20
19.6211021315
 10
-18.5158185605
 20
19.639372336
 10
-18.5600761499
 20
19.6543603177
 10
-18.6038777471
 20
19.6660989862
 10
-18.646781215
 20
19.6744698504
 10
-18.6887774572
 20
19.6794388006
 10
-18.7298755701
 20
19.6810399465
 10
-18.7696607058
 20
19.679257126
 10
-18.8081195662
 20
19.6740560656
 10
-18.8452654493
 20
19.6654710389
 10
-18.8807234015
 20
19.6535887037
 10
-18.9144763271
 20
19.6383756644
 10
-18.9307784848
 20
19.6295263373
  0
LWPOLYLINE
  5
229
100
AcDbEntity
  8
0
100
AcDbPolyline
 62
7
  6
CONTINUOUS
 90
3
 70
0
 10
-18.4481946882
 20
-8.5580339361
 10
-18.4501097829
 20
-8.5822033407
 10
-18.4514626542
 20
-8.633934205
  0
LINE
  5
22A
100
AcDbEntity
  8
0
100
AcDbLine
 62
7
  6
CONTINUOUS
 10
-11.5051729955
 20
25.9385220136
 11
-11.5051729955
 21
22.2594695364
  0
LINE
  5
22B
100
AcDbEntity
  8
0
100
AcDbLine
 62
7
  6
CONTINUOUS
 10
-11.3315248178
 20
26.383250232
 11
-11.3315248178
 21
22.1592072549
  0
LWPOLYLINE
  5
22C
100
AcDbEntity
  8
0
100
AcDbPolyline
 62
7
  6
CONTINUOUS
 90
6
 70
0
 10
-11.5051729955
 20
25.9385220136
 10
-11.5034601023
 20
25.9860858032
 10
-11.4984729548
 20
26.032837592
 10
-11.4902115529
 20
26.07877738
 10
-11.4786258975
 20
26.1240547797
 10
-11.4767498813
 20
26.1303700225
  0
LWPOLYLINE
  5
22D
100
AcDbEntity
  8
0
100
AcDbPolyline
 62
7
  6
CONTINUOUS
 90
4
 70
0
 10
-9.5355574895
 20
21.2474109283
 10
-9.5372703826
 20
21.1998471388
 10
-9.5422575302
 20
21.15309535
 10
-9.5466543846
 20
21.1286454365
  0
LINE
  5
22E
100
AcDbEntity
  8
0
100
AcDbLine
 62
7
  6
CONTINUOUS
 10
-4.4378705467
 20
29.0711828046
 11
-4.6115187244
 21
28.5025671506
  0
LINE
  5
22F
100
AcDbEntity
  8
0
100
AcDbLine
 62
7
  6
CONTINUOUS
 10
-9.5355574895
 20
21.2474109283
 11
-9.5355574895
 21
25.7379974507
  0
LWPOLYLINE
  5
230
100
AcDbEntity
  8
0
100
AcDbPolyline
 62
7
  6
CONTINUOUS
 90
15
 70
0
 10
-0.1924487833
 20
8.8102496141
 10
-0.2082116203
 20
8.8005885935
 10
-0.2382650171
 20
8.7789677824
 10
-0.2662864423
 20
8.7542050046
 10
-0.2922962698
 20
8.7263317635
 10
-0.3160319539
 20
8.6956294139
 10
-0.337470462
 20
8.6620693022
 10
-0.3566348267
 20
8.625680082
 10
-0.3733316015
 20
8.5868290693
 10
-0.3875357941
 20
8.5454913305
 10
-0.3992723967
 20
8.5016917993
 10
-0.408422939
 20
8.4558725918
 10
-0.414947931
 20
8.4081810801
 10
-0.4188868626
 20
8.3584698921
 10
-0.420239734
 20
8.3067390279
  0
LWPOLYLINE
  5
231
100
AcDbEntity
  8
0
100
AcDbPolyline
 62
7
  6
CONTINUOUS
 90
15
 70
0
 10
0.907604234
 20
6.9050243363
 10
0.923367071
 20
6.9146853569
 10
0.9534204678
 20
6.936306168
 10
0.981441893
 20
6.9610689457
 10
1.0074517204
 20
6.9889421869
 10
1.0311874046
 20
7.0196445365
 10
1.0526259126
 20
7.0532046482
 10
1.0717902774
 20
7.0895938684
 10
1.0884870522
 20
7.1284448811
 10
1.1026912448
 20
7.1697826198
 10
1.1144278474
 20
7.2135821511
 10
1.1235783897
 20
7.2594013586
 10
1.1301033816
 20
7.3070928703
 10
1.1340423133
 20
7.3568040583
 10
1.1353951846
 20
7.4085349225
  0
LINE
  5
232
100
AcDbEntity
  8
0
100
AcDbLine
 62
250
  6
CONTINUOUS
 10
6.5495777374
 20
11.0183335558
 11
7.2566845186
 21
11.4266081491
  0
LINE
  5
233
100
AcDbEntity
  8
0
100
AcDbLine
 62
7
  6
CONTINUOUS
 10
-4.6115187244
 20
28.5025671506
 11
-4.6115187244
 21
18.2791599581
  0
LINE
  5
234
100
AcDbEntity
  8
0
100
AcDbLine
 62
7
  6
CONTINUOUS
 10
-4.4378705467
 20
29.0711828046
 11
-4.4378705467
 21
18.1788976766
  0
LWPOLYLINE
  5
235
100
AcDbEntity
  8
0
100
AcDbPolyline
 62
7
  6
CONTINUOUS
 90
15
 70
0
 10
-18.9307784848
 20
-8.5386982121
 10
-18.9465413218
 20
-8.5483592327
 10
-18.9765947186
 20
-8.5699800438
 10
-19.0046161438
 20
-8.5947428215
 10
-19.0306259712
 20
-8.6226160627
 10
-19.0543616554
 20
-8.6533184122
 10
-19.0758001634
 20
-8.686878524
 10
-19.0949645282
 20
-8.7232677442
 10
-19.1116613029
 20
-8.7621187569
 10
-19.1258654955
 20
-8.8034564956
 10
-19.1376020981
 20
-8.8472560269
 10
-19.1467526405
 20
-8.8930752344
 10
-19.1532776324
 20
-8.9407667461
 10
-19.1572165641
 20
-8.9904779341
 10
-19.1585694354
 20
-9.0422087983
  0
LWPOLYLINE
  5
236
100
AcDbEntity
  8
0
100
AcDbPolyline
 62
7
  6
CONTINUOUS
 90
42
 70
0
 10
-0.420239734
 20
-19.8614855215
 10
-0.4188868626
 20
-19.9147786477
 10
-0.414947931
 20
-19.9690384152
 10
-0.408422939
 20
-20.0242648241
 10
-0.3992723967
 20
-20.0806508485
 10
-0.3875357941
 20
-20.1380035142
 10
-0.3733316015
 20
-20.1957438985
 10
-0.3566348267
 20
-20.2538759282
 10
-0.337470462
 20
-20.3123956765
 10
-0.3160319539
 20
-20.3707124399
 10
-0.2922962698
 20
-20.4288241626
 10
-0.2662864423
 20
-20.4867329005
 10
-0.2382650171
 20
-20.5438541177
 10
-0.2082116203
 20
-20.6001798381
 10
-0.1761466257
 20
-20.6557180379
 10
-0.1423937001
 20
-20.7099081096
 10
-0.1069357479
 20
-20.7627363992
 10
-0.0697898647
 20
-20.8142165608
 10
-0.0313310043
 20
-20.8638289491
 10
0.0084541313
 20
-20.911554647
 10
0.0495522442
 20
-20.9574125717
 10
0.0915484864
 20
-21.0009398294
 10
0.1344519543
 20
-21.0421128145
 10
0.1782535515
 20
-21.0809551325
 10
0.222511141
 20
-21.1170747057
 10
0.267229341
 20
-21.1504439577
 10
0.3124035331
 20
-21.1810904648
 10
0.3575777253
 20
-21.2087048786
 10
0.4027519175
 20
-21.2332564896
 10
0.4479261097
 20
-21.2547760073
 10
0.4926443097
 20
-21.2730462118
 10
0.5369018991
 20
-21.2880341935
 10
0.5807034963
 20
-21.299772862
 10
0.6236069642
 20
-21.3081437262
 10
0.6656032064
 20
-21.3131126764
 10
0.7067013193
 20
-21.3147138223
 10
0.746486455
 20
-21.3129310017
 10
0.7849453154
 20
-21.3077299414
 10
0.8220911986
 20
-21.2991449146
 10
0.8575491508
 20
-21.2872625795
 10
0.8913020764
 20
-21.2720495402
 10
0.907604234
 20
-21.263200213
  0
LWPOLYLINE
  5
237
100
AcDbEntity
  8
0
100
AcDbPolyline
 62
7
  6
CONTINUOUS
 90
42
 70
0
 10
-0.420239734
 20
8.3067390279
 10
-0.4188868626
 20
8.2534459017
 10
-0.414947931
 20
8.1991861341
 10
-0.408422939
 20
8.1439597253
 10
-0.3992723967
 20
8.0875737009
 10
-0.3875357941
 20
8.0302210351
 10
-0.3733316015
 20
7.9724806509
 10
-0.3566348267
 20
7.9143486211
 10
-0.337470462
 20
7.8558288729
 10
-0.3160319539
 20
7.7975121095
 10
-0.2922962698
 20
7.7394003867
 10
-0.2662864423
 20
7.6814916489
 10
-0.2382650171
 20
7.6243704317
 10
-0.2082116203
 20
7.5680447112
 10
-0.1761466257
 20
7.5125065115
 10
-0.1423937001
 20
7.4583164398
 10
-0.1069357479
 20
7.4054881502
 10
-0.0697898647
 20
7.3540079886
 10
-0.0313310043
 20
7.3043956003
 10
0.0084541313
 20
7.2566699023
 10
0.0495522442
 20
7.2108119776
 10
0.0915484864
 20
7.16728472
 10
0.1344519543
 20
7.1261117349
 10
0.1782535515
 20
7.0872694169
 10
0.222511141
 20
7.0511498437
 10
0.267229341
 20
7.0177805917
 10
0.3124035331
 20
6.9871340846
 10
0.3575777253
 20
6.9595196707
 10
0.4027519175
 20
6.9349680597
 10
0.4479261097
 20
6.9134485421
 10
0.4926443097
 20
6.8951783376
 10
0.5369018991
 20
6.8801903559
 10
0.5807034963
 20
6.8684516874
 10
0.6236069642
 20
6.8600808232
 10
0.6656032064
 20
6.855111873
 10
0.7067013193
 20
6.8535107271
 10
0.746486455
 20
6.8552935476
 10
0.7849453154
 20
6.8604946079
 10
0.8220911986
 20
6.8690796347
 10
0.8575491508
 20
6.8809619699
 10
0.8913020764
 20
6.8961750092
 10
0.907604234
 20
6.9050243363
  0
LWPOLYLINE
  5
238
100
AcDbEntity
  8
0
100
AcDbPolyline
 62
7
  6
CONTINUOUS
 90
30
 70
0
 10
0.2868670472
 20
-19.4532109282
 10
0.2882199186
 20
-19.5065040544
 10
0.2921588502
 20
-19.5607638219
 10
0.2986838422
 20
-19.6159902307
 10
0.3078343845
 20
-19.6723762551
 10
0.3195709871
 20
-19.7297289209
 10
0.3337751797
 20
-19.7874693052
 10
0.3504719545
 20
-19.8456013349
 10
0.3696363192
 20
-19.9041210832
 10
0.3910748273
 20
-19.9624378466
 10
0.4148105114
 20
-20.0205495693
 10
0.4408203388
 20
-20.0784583071
 10
0.4688417641
 20
-20.1355795244
 10
0.4988951609
 20
-20.1919052448
 10
0.5309601555
 20
-20.2474434445
 10
0.5647130811
 20
-20.3016335163
 10
0.6001710333
 20
-20.3544618059
 10
0.6373169165
 20
-20.4059419674
 10
0.6757757769
 20
-20.4555543558
 10
0.7155609125
 20
-20.5032800537
 10
0.7566590254
 20
-20.5491379784
 10
0.7986552676
 20
-20.592665236
 10
0.8415587355
 20
-20.6338382211
 10
0.8853603327
 20
-20.6726805392
 10
0.9296179222
 20
-20.7088001124
 10
0.9743361221
 20
-20.7421693643
 10
1.0195103143
 20
-20.7728158715
 10
1.0646845065
 20
-20.8004302853
 10
1.1098586987
 20
-20.8249818963
 10
1.1321272186
 20
-20.8355898957
  0
LWPOLYLINE
  5
239
100
AcDbEntity
  8
0
100
AcDbPolyline
 62
7
  6
CONTINUOUS
 90
3
 70
0
 10
0.2901350133
 20
8.7909138901
 10
0.2882199186
 20
8.7667444854
 10
0.2868670472
 20
8.7150136212
  0
LWPOLYLINE
  5
23A
100
AcDbEntity
  8
0
100
AcDbPolyline
 62
7
  6
CONTINUOUS
 90
15
 70
0
 10
-17.8307254674
 20
-10.4439234899
 10
-17.8149626305
 20
-10.4342624693
 10
-17.7849092336
 20
-10.4126416582
 10
-17.7568878084
 20
-10.3878788804
 10
-17.730877981
 20
-10.3600056393
 10
-17.7071422968
 20
-10.3293032897
 10
-17.6857037888
 20
-10.295743178
 10
-17.6665394241
 20
-10.2593539578
 10
-17.6498426493
 20
-10.220502945
 10
-17.6356384567
 20
-10.1791652063
 10
-17.6239018541
 20
-10.1353656751
 10
-17.6147513118
 20
-10.0895464676
 10
-17.6082263198
 20
-10.0418549559
 10
-17.6042873882
 20
-9.9921437679
 10
-17.6029345168
 20
-9.9404129036
  0
LWPOLYLINE
  5
23B
100
AcDbEntity
  8
0
100
AcDbPolyline
 62
7
  6
CONTINUOUS
 90
30
 70
0
 10
0.2868670472
 20
8.7150136212
 10
0.2882199186
 20
8.661720495
 10
0.2921588502
 20
8.6074607275
 10
0.2986838422
 20
8.5522343186
 10
0.3078343845
 20
8.4958482942
 10
0.3195709871
 20
8.4384956285
 10
0.3337751797
 20
8.3807552442
 10
0.3504719545
 20
8.3226232145
 10
0.3696363192
 20
8.2641034662
 10
0.3910748273
 20
8.2057867028
 10
0.4148105114
 20
8.1476749801
 10
0.4408203388
 20
8.0897662422
 10
0.4688417641
 20
8.032645025
 10
0.4988951609
 20
7.9763193046
 10
0.5309601555
 20
7.9207811048
 10
0.5647130811
 20
7.8665910331
 10
0.6001710333
 20
7.8137627435
 10
0.6373169165
 20
7.7622825819
 10
0.6757757769
 20
7.7126701936
 10
0.7155609125
 20
7.6649444956
 10
0.7566590254
 20
7.6190865709
 10
0.7986552676
 20
7.5755593133
 10
0.8415587355
 20
7.5343863282
 10
0.8853603327
 20
7.4955440102
 10
0.9296179222
 20
7.459424437
 10
0.9743361221
 20
7.426055185
 10
1.0195103143
 20
7.3954086779
 10
1.0646845065
 20
7.367794264
 10
1.1098586987
 20
7.3432426531
 10
1.1321272186
 20
7.3326346536
  0
LWPOLYLINE
  5
23C
100
AcDbEntity
  8
0
100
AcDbPolyline
 62
7
  6
CONTINUOUS
 90
42
 70
0
 10
1.1353951846
 20
-20.7596896268
 10
1.1340423133
 20
-20.7063965006
 10
1.1301033816
 20
-20.6521367331
 10
1.1235783897
 20
-20.5969103243
 10
1.1144278474
 20
-20.5405242998
 10
1.1026912448
 20
-20.4831716341
 10
1.0884870522
 20
-20.4254312498
 10
1.0717902774
 20
-20.3672992201
 10
1.0526259126
 20
-20.3087794718
 10
1.0311874046
 20
-20.2504627084
 10
1.0074517204
 20
-20.1923509857
 10
0.981441893
 20
-20.1344422478
 10
0.9534204678
 20
-20.0773210306
 10
0.923367071
 20
-20.0209953102
 10
0.8913020764
 20
-19.9654571105
 10
0.8575491508
 20
-19.9112670387
 10
0.8220911986
 20
-19.8584387491
 10
0.7849453154
 20
-19.8069585876
 10
0.746486455
 20
-19.7573461992
 10
0.7067013193
 20
-19.7096205013
 10
0.6656032064
 20
-19.6637625766
 10
0.6236069642
 20
-19.620235319
 10
0.5807034963
 20
-19.5790623338
 10
0.5369018991
 20
-19.5402200158
 10
0.4926443097
 20
-19.5041004426
 10
0.4479261097
 20
-19.4707311907
 10
0.4027519175
 20
-19.4400846835
 10
0.3575777253
 20
-19.4124702697
 10
0.3124035331
 20
-19.3879186587
 10
0.267229341
 20
-19.366399141
 10
0.222511141
 20
-19.3481289366
 10
0.1782535515
 20
-19.3331409549
 10
0.1344519543
 20
-19.3214022863
 10
0.0915484864
 20
-19.3130314221
 10
0.0495522442
 20
-19.3080624719
 10
0.0084541313
 20
-19.306461326
 10
-0.0313310043
 20
-19.3082441466
 10
-0.0697898647
 20
-19.3134452069
 10
-0.1069357479
 20
-19.3220302337
 10
-0.1423937001
 20
-19.3339125689
 10
-0.1761466257
 20
-19.3491256082
 10
-0.1924487833
 20
-19.3579749353
  0
LWPOLYLINE
  5
23D
100
AcDbEntity
  8
0
100
AcDbPolyline
 62
7
  6
CONTINUOUS
 90
42
 70
0
 10
1.1353951846
 20
7.4085349225
 10
1.1340423133
 20
7.4618280487
 10
1.1301033816
 20
7.5160878163
 10
1.1235783897
 20
7.5713142251
 10
1.1144278474
 20
7.6277002495
 10
1.1026912448
 20
7.6850529152
 10
1.0884870522
 20
7.7427932995
 10
1.0717902774
 20
7.8009253292
 10
1.0526259126
 20
7.8594450775
 10
1.0311874046
 20
7.9177618409
 10
1.0074517204
 20
7.9758735636
 10
0.981441893
 20
8.0337823015
 10
0.9534204678
 20
8.0909035187
 10
0.923367071
 20
8.1472292391
 10
0.8913020764
 20
8.2027674389
 10
0.8575491508
 20
8.2569575106
 10
0.8220911986
 20
8.3097858002
 10
0.7849453154
 20
8.3612659618
 10
0.746486455
 20
8.4108783501
 10
0.7067013193
 20
8.4586040481
 10
0.6656032064
 20
8.5044619728
 10
0.6236069642
 20
8.5479892304
 10
0.5807034963
 20
8.5891622155
 10
0.5369018991
 20
8.6280045335
 10
0.4926443097
 20
8.6641241067
 10
0.4479261097
 20
8.6974933587
 10
0.4027519175
 20
8.7281398658
 10
0.3575777253
 20
8.7557542797
 10
0.3124035331
 20
8.7803058906
 10
0.267229341
 20
8.8018254083
 10
0.222511141
 20
8.8200956128
 10
0.1782535515
 20
8.8350835945
 10
0.1344519543
 20
8.846822263
 10
0.0915484864
 20
8.8551931272
 10
0.0495522442
 20
8.8601620774
 10
0.0084541313
 20
8.8617632233
 10
-0.0313310043
 20
8.8599804028
 10
-0.0697898647
 20
8.8547793424
 10
-0.1069357479
 20
8.8461943157
 10
-0.1423937001
 20
8.8343119805
 10
-0.1761466257
 20
8.8190989412
 10
-0.1924487833
 20
8.8102496141
  0
LWPOLYLINE
  5
23E
100
AcDbEntity
  8
0
100
AcDbPolyline
 62
7
  6
CONTINUOUS
 90
3
 70
0
 10
0.2901350133
 20
-19.3773106593
 10
0.2882199186
 20
-19.4014800639
 10
0.2868670472
 20
-19.4532109282
  0
LWPOLYLINE
  5
23F
100
AcDbEntity
  8
0
100
AcDbPolyline
 62
7
  6
CONTINUOUS
 90
4
 70
0
 10
6.5790754969
 20
11.8178511058
 10
6.5783002128
 20
11.8452873472
 10
6.5774208442
 20
11.8954263889
 10
6.5771188149
 20
11.9441535695
  0
LINE
  5
240
100
AcDbEntity
  8
0
100
AcDbLine
 62
7
  6
CONTINUOUS
 10
5.7088779266
 20
12.3202922767
 11
5.7088779266
 21
22.5436994693
  0
LINE
  5
241
100
AcDbEntity
  8
0
100
AcDbLine
 62
250
  6
CONTINUOUS
 10
6.5495777374
 20
11.0183335558
 11
6.5495777374
 21
-30.6216505607
  0
LINE
  5
242
100
AcDbEntity
  8
0
100
AcDbLine
 62
7
  6
CONTINUOUS
 10
6.5771188149
 20
16.4347400918
 11
6.5771188149
 21
11.9441535695
  0
LINE
  5
243
100
AcDbEntity
  8
0
100
AcDbLine
 62
7
  6
CONTINUOUS
 10
6.9244151702
 20
11.6184563065
 11
6.9244151702
 21
15.2975087837
  0
LWPOLYLINE
  5
244
100
AcDbEntity
  8
0
100
AcDbPolyline
 62
7
  6
CONTINUOUS
 90
18
 70
0
 10
6.5771188149
 20
16.4347400918
 10
6.5774208442
 20
16.4814892663
 10
6.5783002128
 20
16.525869275
 10
6.5797569209
 20
16.5678801181
 10
6.5817997845
 20
16.6076476295
 10
6.5844199875
 20
16.6450459752
 10
6.5875910814
 20
16.679697653
 10
6.5913186456
 20
16.7115748444
 10
6.5955971006
 20
16.7407053679
 10
6.6003832594
 20
16.7667951776
 10
6.605682264
 20
16.7898134765
 10
6.6114889723
 20
16.8097910617
 10
6.617744771
 20
16.8265262774
 10
6.6244542085
 20
16.8399862847
 10
6.6316127362
 20
16.8502039225
 10
6.6391480955
 20
16.8570760534
 10
6.6470641029
 20
16.8605687933
 10
6.6494857478
 20
16.8609822711
  0
LINE
  5
245
100
AcDbEntity
  8
0
100
AcDbLine
 62
250
  6
CONTINUOUS
 10
8.9485990528
 20
11.9351450239
 11
8.9485990528
 21
11.7348043492
  0
LINE
  5
246
100
AcDbEntity
  8
0
100
AcDbLine
 62
7
  6
CONTINUOUS
 10
9.9637912998
 20
11.8348827424
 11
9.9637912998
 21
-29.805101374
  0
LWPOLYLINE
  5
247
100
AcDbEntity
  8
0
100
AcDbPolyline
 62
7
  6
CONTINUOUS
 90
49
 70
0
 10
8.9637912985
 20
11.8348530938
 10
8.9634999435
 20
11.8212803133
 10
8.9610958807
 20
11.7926131912
 10
8.9562528496
 20
11.7641202109
 10
8.9489442751
 20
11.7358011397
 10
8.9391967323
 20
11.7076562104
 10
8.9271015333
 20
11.6799175029
 10
8.9126678083
 20
11.652621934
 10
8.8958864271
 20
11.6257325869
 10
8.8768213111
 20
11.5993707909
 10
8.8554263237
 20
11.5734960938
 10
8.8317476014
 20
11.5481489478
 10
8.805987475
 20
11.5235720385
 10
8.7781353513
 20
11.4997875828
 10
8.7482018235
 20
11.4767733638
 10
8.716421002
 20
11.4547054158
 10
8.6827801349
 20
11.4335932496
 10
8.6472919741
 20
11.4134273544
 10
8.6102288851
 20
11.3943552326
 10
8.5715824942
 20
11.3763866231
 10
8.5313611751
 20
11.3595117871
 10
8.4898624144
 20
11.3438490093
 10
8.4470788209
 20
11.3294070804
 10
8.4030177858
 20
11.3161772099
 10
8.3579989697
 20
11.3042513106
 10
8.3120165659
 20
11.2936382536
 10
8.2650763811
 20
11.2843291678
 10
8.2175154963
 20
11.2763893531
 10
8.1693309012
 20
11.2698278968
 10
8.120525606
 20
11.2646357116
 10
8.0714457231
 20
11.2608508347
 10
8.0220870726
 20
11.2584824697
 10
7.9724538343
 20
11.257521413
 10
7.9229046598
 20
11.2579780915
 10
7.8734110016
 20
11.2598681017
 10
7.8240014073
 20
11.263175847
 10
7.7751201704
 20
11.2678649651
 10
7.7268445201
 20
11.2739340064
 10
7.6790972274
 20
11.2813844204
 10
7.6320908991
 20
11.2901841935
 10
7.5857662084
 20
11.3003507766
 10
7.5401824823
 20
11.3118667187
 10
7.4957303074
 20
11.3246476536
 10
7.452424194
 20
11.3387069859
 10
7.4102496319
 20
11.3540313109
 10
7.3695536776
 20
11.3704960478
 10
7.3304520168
 20
11.3880596696
 10
7.2928289637
 20
11.4067637034
 10
7.2566845186
 20
11.4266081491
  0
LWPOLYLINE
  5
248
100
AcDbEntity
  8
0
100
AcDbPolyline
 62
7
  6
CONTINUOUS
 90
49
 70
0
 10
9.9637912971
 20
11.8348234453
 10
9.9632085871
 20
11.8076778842
 10
9.9584004616
 20
11.7503436399
 10
9.9487143994
 20
11.6933576794
 10
9.9340972505
 20
11.636719537
 10
9.9146021648
 20
11.5804296785
 10
9.8904117668
 20
11.5249522634
 10
9.8615443168
 20
11.4703611257
 10
9.8279815545
 20
11.4165824314
 10
9.7898513223
 20
11.3638588393
 10
9.7470613475
 20
11.3121094452
 10
9.699703903
 20
11.2614151532
 10
9.6481836502
 20
11.2122613345
 10
9.5924794029
 20
11.1646924232
 10
9.5326123473
 20
11.1186639852
 10
9.4690507042
 20
11.0745280892
 10
9.4017689701
 20
11.0323037568
 10
9.3307926485
 20
10.9919719664
 10
9.2566664704
 20
10.9538277227
 10
9.1793736886
 20
10.9178905039
 10
9.0989310504
 20
10.8841408317
 10
9.015933529
 20
10.8528152762
 10
8.930366342
 20
10.8239314185
 10
8.8422442718
 20
10.7974716774
 10
8.7522066396
 20
10.7736198788
 10
8.660241832
 20
10.7523937647
 10
8.5663614624
 20
10.7337755932
 10
8.4712396928
 20
10.7178959637
 10
8.3748705025
 20
10.7047730512
 10
8.2772599123
 20
10.6943886808
 10
8.1791001464
 20
10.6868189271
 10
8.0803828454
 20
10.682082197
 10
7.9811163689
 20
10.6801600836
 10
7.8820180198
 20
10.6810734407
 10
7.7830307035
 20
10.684853461
 10
7.6842115148
 20
10.6914689517
 10
7.5864490411
 20
10.7008471879
 10
7.4898977405
 20
10.7129852704
 10
7.394403155
 20
10.7278860984
 10
7.3003904983
 20
10.7454856446
 10
7.2077411171
 20
10.7658188108
 10
7.1165736647
 20
10.7888506951
 10
7.027669315
 20
10.8144125647
 10
6.9410570882
 20
10.8425312293
 10
6.856707964
 20
10.8731798793
 10
6.7753160555
 20
10.9061093531
 10
6.6971127338
 20
10.9412365969
 10
6.6218666277
 20
10.9786446644
 10
6.5495777374
 20
11.0183335558
  0
LWPOLYLINE
  5
249
100
AcDbEntity
  8
0
100
AcDbPolyline
 62
7
  6
CONTINUOUS
 90
49
 70
0
 10
9.9637912971
 20
-29.8051606712
 10
9.9632085871
 20
-29.8323062322
 10
9.9584004616
 20
-29.8896404765
 10
9.9487143994
 20
-29.9466264371
 10
9.9340972505
 20
-30.0032645794
 10
9.9146021648
 20
-30.059554438
 10
9.8904117668
 20
-30.115031853
 10
9.8615443168
 20
-30.1696229908
 10
9.8279815545
 20
-30.223401685
 10
9.7898513223
 20
-30.2761252771
 10
9.7470613475
 20
-30.3278746712
 10
9.699703903
 20
-30.3785689632
 10
9.6481836502
 20
-30.4277227819
 10
9.5924794029
 20
-30.4752916932
 10
9.5326123473
 20
-30.5213201313
 10
9.4690507042
 20
-30.5654560272
 10
9.4017689701
 20
-30.6076803597
 10
9.3307926485
 20
-30.64801215
 10
9.2566664704
 20
-30.6861563937
 10
9.1793736886
 20
-30.7220936126
 10
9.0989310504
 20
-30.7558432847
 10
9.015933529
 20
-30.7871688403
 10
8.930366342
 20
-30.8160526979
 10
8.8422442718
 20
-30.842512439
 10
8.7522066396
 20
-30.8663642377
 10
8.660241832
 20
-30.8875903517
 10
8.5663614624
 20
-30.9062085232
 10
8.4712396928
 20
-30.9220881527
 10
8.3748705025
 20
-30.9352110652
 10
8.2772599123
 20
-30.9455954356
 10
8.1791001464
 20
-30.9531651894
 10
8.0803828454
 20
-30.9579019194
 10
7.9811163689
 20
-30.9598240328
 10
7.8820180198
 20
-30.9589106758
 10
7.7830307035
 20
-30.9551306555
 10
7.6842115148
 20
-30.9485151648
 10
7.5864490411
 20
-30.9391369286
 10
7.4898977405
 20
-30.9269988461
 10
7.394403155
 20
-30.912098018
 10
7.3003904983
 20
-30.8944984718
 10
7.2077411171
 20
-30.8741653057
 10
7.1165736647
 20
-30.8511334214
 10
7.027669315
 20
-30.8255715517
 10
6.9410570882
 20
-30.7974528871
 10
6.856707964
 20
-30.7668042371
 10
6.7753160555
 20
-30.7338747633
 10
6.6971127338
 20
-30.6987475196
 10
6.6218666277
 20
-30.661339452
 10
6.5495777374
 20
-30.6216505607
  0
LINE
  5
24A
100
AcDbEntity
  8
0
100
AcDbLine
 62
250
  6
CONTINUOUS
 10
9.9334068058
 20
12.0354073053
 11
8.9485990528
 21
11.9351450239
  0
LINE
  5
24B
100
AcDbEntity
  8
0
100
AcDbLine
 62
250
  6
CONTINUOUS
 10
6.9244151702
 20
11.9795114602
 11
6.5771188149
 21
11.9441535695
  0
LINE
  5
24C
100
AcDbEntity
  8
0
100
AcDbLine
 62
7
  6
CONTINUOUS
 10
6.5495777374
 20
11.0183335558
 11
-24.5727519882
 21
28.9879766849
  0
LINE
  5
24D
100
AcDbEntity
  8
0
100
AcDbLine
 62
7
  6
CONTINUOUS
 10
7.2566845186
 20
11.4266081491
 11
-23.865645207
 21
29.3962512782
  0
LINE
  5
24E
100
AcDbEntity
  8
0
100
AcDbLine
 62
7
  6
CONTINUOUS
 10
5.7088779266
 20
22.5436994693
 11
8.9485990528
 21
11.9351450239
  0
LINE
  5
24F
100
AcDbEntity
  8
0
100
AcDbLine
 62
7
  6
CONTINUOUS
 10
6.6936856796
 20
22.6439617507
 11
9.9334068058
 21
12.0354073053
  0
LWPOLYLINE
  5
250
100
AcDbEntity
  8
0
100
AcDbPolyline
 62
7
  6
CONTINUOUS
 90
5
 70
0
 10
8.9485990528
 20
11.9351450239
 10
8.9560010742
 20
11.9067839875
 10
8.9609525402
 20
11.8783657115
 10
8.9634534507
 20
11.8498901958
 10
8.9637912985
 20
11.8348530938
  0
LWPOLYLINE
  5
251
100
AcDbEntity
  8
0
100
AcDbPolyline
 62
7
  6
CONTINUOUS
 90
5
 70
0
 10
9.9334068058
 20
12.0354073053
 10
9.9482108487
 20
11.9786852326
 10
9.9581137806
 20
11.9218486805
 10
9.9631156017
 20
11.8648976492
 10
9.9637912971
 20
11.8348234453
  0
LINE
  5
252
100
AcDbEntity
  8
0
100
AcDbLine
 62
250
  6
CONTINUOUS
 10
6.5771188149
 20
16.4347400918
 11
6.8061873429
 21
16.458061327
  0
LWPOLYLINE
  5
253
100
AcDbEntity
  8
0
100
AcDbPolyline
 62
7
  6
CONTINUOUS
 90
15
 70
0
 10
-0.1924487833
 20
-19.3579749353
 10
-0.2082116203
 20
-19.3676359559
 10
-0.2382650171
 20
-19.389256767
 10
-0.2662864423
 20
-19.4140195447
 10
-0.2922962698
 20
-19.4418927858
 10
-0.3160319539
 20
-19.4725951354
 10
-0.337470462
 20
-19.5061552472
 10
-0.3566348267
 20
-19.5425444674
 10
-0.3733316015
 20
-19.5813954801
 10
-0.3875357941
 20
-19.6227332188
 10
-0.3992723967
 20
-19.66653275
 10
-0.408422939
 20
-19.7123519576
 10
-0.414947931
 20
-19.7600434693
 10
-0.4188868626
 20
-19.8097546572
 10
-0.420239734
 20
-19.8614855215
  0
LWPOLYLINE
  5
254
100
AcDbEntity
  8
0
100
AcDbPolyline
 62
7
  6
CONTINUOUS
 90
15
 70
0
 10
0.907604234
 20
-21.263200213
 10
0.923367071
 20
-21.2535391924
 10
0.9534204678
 20
-21.2319183814
 10
0.981441893
 20
-21.2071556036
 10
1.0074517204
 20
-21.1792823625
 10
1.0311874046
 20
-21.1485800129
 10
1.0526259126
 20
-21.1150199012
 10
1.0717902774
 20
-21.078630681
 10
1.0884870522
 20
-21.0397796682
 10
1.1026912448
 20
-20.9984419295
 10
1.1144278474
 20
-20.9546423983
 10
1.1235783897
 20
-20.9088231908
 10
1.1301033816
 20
-20.8611316791
 10
1.1340423133
 20
-20.8114204911
 10
1.1353951846
 20
-20.7596896268
  0
LWPOLYLINE
  5
255
100
AcDbEntity
  8
0
100
AcDbPolyline
 62
7
  6
CONTINUOUS
 90
39
 70
0
 10
6.6494857478
 20
16.8609822711
 10
6.6553569419
 20
16.8607160263
 10
6.6639429037
 20
16.8575162659
 10
6.6728249573
 20
16.8509356135
 10
6.6820001337
 20
16.8410079678
 10
6.691375818
 20
16.8278335395
 10
6.7009540409
 20
16.8113794444
 10
6.7107327717
 20
16.7916785667
 10
6.720613303
 20
16.7689297686
 10
6.7305966658
 20
16.7431021803
 10
6.7406818292
 20
16.7142266717
 10
6.7507669926
 20
16.6825947146
 10
6.7608521559
 20
16.6481783912
 10
6.7709373193
 20
16.6110056194
 10
6.7809206822
 20
16.5714516244
 10
6.7908012135
 20
16.5294922885
 10
6.8005799443
 20
16.4851517294
 10
6.8101581672
 20
16.4388775245
 10
6.8195338515
 20
16.3906500894
 10
6.8287090279
 20
16.3404890084
 10
6.8375910814
 20
16.2889006119
 10
6.8461770432
 20
16.2358704437
 10
6.8544698822
 20
16.18141296
 10
6.8623858896
 20
16.1260778592
 10
6.8699212489
 20
16.0698562528
 10
6.8770797767
 20
16.0127570293
 10
6.8837892141
 20
15.9553565533
 10
6.8900450128
 20
15.8976517737
 10
6.8958517211
 20
15.8396457416
 10
6.9011507257
 20
15.7819239748
 10
6.9059368845
 20
15.7244893525
 10
6.9102153395
 20
15.6673389956
 10
6.9139429037
 20
15.6110497847
 10
6.9171139976
 20
15.5556304417
 10
6.9197342006
 20
15.5010722447
 10
6.9217770642
 20
15.4479259089
 10
6.9232337723
 20
15.396375006
 10
6.924113141
 20
15.3462359643
 10
6.9244151702
 20
15.2975087837
  0
LINE
  5
256
100
AcDbEntity
  8
0
100
AcDbLine
 62
7
  6
CONTINUOUS
 10
6.6936856796
 20
22.6439617507
 11
5.7088779266
 21
22.5436994693
  0
LWPOLYLINE
  5
257
100
AcDbEntity
  8
0
100
AcDbPolyline
 62
7
  6
CONTINUOUS
 90
37
 70
0
 10
-22.9848902481
 20
30.3731415256
 10
-23.0340101413
 20
30.377415354
 10
-23.0832289758
 20
30.38027427
 10
-23.1325467516
 20
30.3817182737
 10
-23.18209673
 20
30.3817451688
 10
-23.2317456497
 20
30.3803571516
 10
-23.281093727
 20
30.3775608106
 10
-23.3301422374
 20
30.3733406974
 10
-23.3788899054
 20
30.3677122604
 10
-23.4269331212
 20
30.3607284324
 10
-23.4742076573
 20
30.3523943657
 10
-23.5207777412
 20
30.3427049079
 10
-23.5664324463
 20
30.3316975355
 10
-23.6112403638
 20
30.3193461733
 10
-23.6551329024
 20
30.3056768965
 10
-23.6976933614
 20
30.2908054065
 10
-23.73888501
 20
30.2747251024
 10
-23.7787445791
 20
30.2574425853
 10
-23.8169655607
 20
30.2390933594
 10
-23.8535310075
 20
30.2196701591
 10
-23.8884578668
 20
30.19918025
 10
-23.9214904727
 20
30.1777809344
 10
-23.9526119108
 20
30.1554673871
 10
-23.9818390956
 20
30.1322444331
 10
-24.0089671043
 20
30.1082838497
 10
-24.0339806973
 20
30.083581381
 10
-24.0568951142
 20
30.0581412828
 10
-24.0775511522
 20
30.0321480993
 10
-24.0959334547
 20
30.0055984756
 10
-24.1120573782
 20
29.9784957666
 10
-24.1258097892
 20
29.9510345818
 10
-24.1371749528
 20
29.9232131651
 10
-24.1461686039
 20
29.8950332725
 10
-24.1527248137
 20
29.8666947815
 10
-24.1568275338
 20
29.8381949861
 10
-24.1584928126
 20
29.8095365922
 10
-24.1585384246
 20
29.8045544868
  0
LWPOLYLINE
  5
258
100
AcDbEntity
  8
0
100
AcDbPolyline
 62
7
  6
CONTINUOUS
 90
37
 70
0
 10
-22.8112420705
 20
30.9417571796
 10
-22.9094818568
 20
30.9503048364
 10
-23.0079195257
 20
30.9560226684
 10
-23.1065550774
 20
30.9589106758
 10
-23.2056550341
 20
30.9589644661
 10
-23.3049528735
 20
30.9561884317
 10
-23.4036490282
 20
30.9505957496
 10
-23.5017460489
 20
30.9421555233
 10
-23.5992413849
 20
30.9308986493
 10
-23.6953278166
 20
30.9169309933
 10
-23.7898768888
 20
30.9002628598
 10
-23.8830170567
 20
30.8808839443
 10
-23.9743264668
 20
30.8588691994
 10
-24.0639423018
 20
30.8341664751
 10
-24.1517273789
 20
30.8068279214
 10
-24.236848297
 20
30.7770849414
 10
-24.3192315942
 20
30.7449243333
 10
-24.3989507324
 20
30.710359299
 10
-24.4753926956
 20
30.6736608473
 10
-24.5485235892
 20
30.6348144466
 10
-24.6183773078
 20
30.5938346285
 10
-24.6844425197
 20
30.5510359972
 10
-24.7466853959
 20
30.5064089026
 10
-24.8051397653
 20
30.4599629947
 10
-24.8593957829
 20
30.4120418278
 10
-24.9094229687
 20
30.3626368904
 10
-24.9552518027
 20
30.311756694
 10
-24.9965638787
 20
30.2597703271
 10
-25.0333284836
 20
30.2066710796
 10
-25.0655763305
 20
30.1524656617
 10
-25.0930811525
 20
30.097543292
 10
-25.1158114797
 20
30.0419004586
 10
-25.133798782
 20
29.9855406735
 10
-25.1469112016
 20
29.9288636914
 10
-25.1551166418
 20
29.8718641006
 10
-25.1584471993
 20
29.8145473129
 10
-25.1585384233
 20
29.804583102
  0
LINE
  5
259
100
AcDbEntity
  8
0
100
AcDbLine
 62
7
  6
CONTINUOUS
 10
-22.9848902481
 20
30.3731415256
 11
-4.6115187244
 21
28.5025671506
  0
LINE
  5
25A
100
AcDbEntity
  8
0
100
AcDbLine
 62
7
  6
CONTINUOUS
 10
-22.8112420705
 20
30.9417571796
 11
-4.4378705467
 21
29.0711828046
  0
ENDSEC
  0
SECTION
  2
OBJECTS
  0
DICTIONARY
  5
C
100
AcDbDictionary
280
0
281
1
  3
ACAD_GROUP
350
D
  3
ACAD_MLINESTYLE
350
17
  3
ACAD_LAYOUT
350
1A
  3
ACAD_PLOTSETTINGS
350
19
  3
ACAD_PLOTSTYLENAME
350
E
  0
DICTIONARY
  5
D
102
{ACAD_REACTORS
330
C
102
}
100
AcDbDictionary
280
0
281
1
  0
ACDBDICTIONARYWDFLT
  5
E
102
{ACAD_REACTORS
330
C
102
}
100
AcDbDictionary
281
1
  3
Normal
350
F
100
AcDbDictionaryWithDefault
340
F
  0
DICTIONARY
  5
17
102
{ACAD_REACTORS
330
C
102
}
100
AcDbDictionary
280
0
281
1
  3
Standard
350
18
  0
DICTIONARY
  5
19
102
{ACAD_REACTORS
330
C
102
}
100
AcDbDictionary
281
1
  0
DICTIONARY
  5
1A
102
{ACAD_REACTORS
330
C
102
}
100
AcDbDictionary
281
1
  3
Model
350
25B
  3
Layout1
350
25C
  0
ACDBPLACEHOLDER
  5
F
102
{ACAD_REACTORS
330
E
102
}
  0
MLINESTYLE
  5
18
102
{ACAD_REACTORS
330
17
102
}
100
AcDbMlineStyle
  2
STANDARD
 70
0
  3

 62
256
 51
90.0
 52
90.0
 71
2
 49
0.5
 62
256
  6
BYLAYER
 49
-0.5
 62
256
  6
BYLAYER
  0
LAYOUT
  5
25B
102
{ACAD_REACTORS
330
1A
102
}
100
AcDbPlotSettings
  1

  2
none_device
  4
ISO_A4_(297.00_x_210.00_MM)
  6

 40
0.0
 41
0.0
 42
0.0
 43
0.0
 44
297.0
 45
210.0
 46
0.0
 47
0.0
 48
0.0
 49
0.0
140
0.0
141
0.0
142
1.0
143
1.0
 70
1024
 72
1
 73
0
 74
0
  7

 75
0
147
1.0
148
0.0
149
0.0
100
AcDbLayout
  1
Model
 70
0
 71
0
 10
0.0
 20
0.0
 11
297.0
 21
210.0
 12
0.0
 22
0.0
 32
0.0
 14
0.0
 24
0.0
 34
0.0
 15
0.0
 25
0.0
 35
0.0
146
0.0
 13
0.0
 23
0.0
 33
0.0
 16
1.0
 26
0.0
 36
0.0
 17
0.0
 27
1.0
 37
0.0
 76
0
330
20D
345
0
346
0
  0
LAYOUT
  5
25C
102
{ACAD_REACTORS
330
1A
102
}
100
AcDbPlotSettings
  1

  2
none_device
  4
ISO_A4_(297.00_x_210.00_MM)
  6

 40
0.0
 41
0.0
 42
0.0
 43
0.0
 44
297.0
 45
210.0
 46
0.0
 47
0.0
 48
0.0
 49
0.0
140
0.0
141
0.0
142
1.0
143
1.0
 70
0
 72
1
 73
0
 74
0
  7

 75
0
147
1.0
148
0.0
149
0.0
100
AcDbLayout
  1
Layout1
 70
0
 71
1
 10
0.0
 20
0.0
 11
297.0
 21
210.0
 12
0.0
 22
0.0
 32
0.0
 14
0.0
 24
0.0
 34
0.0
 15
0.0
 25
0.0
 35
0.0
146
0.0
 13
0.0
 23
0.0
 33
0.0
 16
1.0
 26
0.0
 36
0.0
 17
0.0
 27
1.0
 37
0.0
 76
0
330
20E
345
0
346
0
  0
ENDSEC
  0
EOF
