  0
SECTION
  2
HEADER
  9
$ACADVER
  1
AC1024
  9
$DWGCODEPAGE
  3
ANSI_1252
  9
$EXTMAX
 10
297.0
 20
210.0
 30
0.0
  9
$EXTMIN
 10
0.0
 20
0.0
 30
0.0
  9
$LIMMIN
 10
0.0
 20
0.0
  9
$LIMMAX
 10
297.0
 20
210.0
  9
$VIEWCTR
 10
148.5
 20
105.0
  9
$VIEWSIZE
 40
210.0
  9
$CLAYER
  8
0
  9
$LTSCALE
 40
16.335
  9
$CELTYPE
  6
BYLAYER
  9
$DIMSCALE
 40
1.0
  9
$DIMASZ
 40
3.0
  9
$DIMEXO
 40
0.5
  9
$DIMDLI
 40
11.286
  9
$DIMEXE
 40
1.5
  9
$DIMCEN
 40
2.673
  9
$DIMLFAC
 40
1.0
  9
$DIMBLK
  1
_FILLED
  9
$DIMALT
 70
0
  9
$DIMALTF
 40
0.0393700787
  9
$DIMTXT
 40
3.0
  9
$DIMTOL
 70
1
  9
$DIMLIM
 70
0
  9
$DIMTFAC
 40
1.0
  9
$DIMTP
 40
0.01
  9
$DIMTM
 40
0.01
  9
$DIMGAP
 40
0.625
  9
$DIMDSEP
 70
44
  9
$AUNITS
 70
0
  9
$PDMODE
 70
3
  9
$PDSIZE
 40
3.0
  9
$HANDSEED
  5
3D5
  9
$TILEMODE
 70
1
  9
$MEASUREMENT
 70
1
  9
$INSUNITS
 70
4
  0
ENDSEC
  0
SECTION
  2
CLASSES
  0
CLASS
  1
ACDBDICTIONARYWDFLT
  2
AcDbDictionaryWithDefault
  3
AutoCAD 2000
 90
0
 91
1
280
0
281
0
  0
CLASS
  1
ACDBPLACEHOLDER
  2
AcDbPlaceHolder
  3
AutoCAD 2000
 90
0
 91
1
280
0
281
0
  0
CLASS
  1
LAYOUT
  2
AcDbLayout
  3
AutoCAD 2000
 90
0
 91
0
280
0
281
0
  0
ENDSEC
  0
SECTION
  2
TABLES
  0
TABLE
  2
VPORT
  5
8
100
AcDbSymbolTable
 70
2
  0
VPORT
  5
1F4
100
AcDbSymbolTableRecord
100
AcDbViewportTableRecord
  2
*ACTIVE
 70
0
 10
0.0
 20
0.0
 11
1.0
 21
1.0
 12
148.5
 22
105.0
 13
0.0
 23
0.0
 14
1.0
 24
1.0
 15
0.0
 25
0.0
 16
0.0
 26
0.0
 36
1.0
 17
0.0
 27
0.0
 37
0.0
 40
210.0
 41
1.4142857143
 42
50.0
 43
0.0
 44
0.0
 50
0.0
 51
0.0
 71
0
 72
100
 73
1
 74
1
 75
0
 76
0
 77
0
 78
0
  0
ENDTAB
  0
TABLE
  2
LTYPE
  5
5
100
AcDbSymbolTable
 70
6
  0
LTYPE
  5
14
100
AcDbSymbolTableRecord
100
AcDbLinetypeTableRecord
  2
BYBLOCK
 70
0
  3

 72
65
 73
0
 40
0.0
  0
LTYPE
  5
15
100
AcDbSymbolTableRecord
100
AcDbLinetypeTableRecord
  2
BYLAYER
 70
0
  3

 72
65
 73
0
 40
0.0
  0
LTYPE
  5
16
100
AcDbSymbolTableRecord
100
AcDbLinetypeTableRecord
  2
CONTINUOUS
 70
64
  3
Solid line
 72
65
 73
0
 40
0.0
  0
LTYPE
  5
1F5
100
AcDbSymbolTableRecord
100
AcDbLinetypeTableRecord
  2
CENTER
 70
64
  3
____ _ ____ _ ____ _ ____ _ ____ _ ____ _ ____
 72
65
 73
4
 40
0.6
 49
0.375
 74
0
 49
-0.075
 74
0
 49
0.075
 74
0
 49
-0.075
 74
0
  0
LTYPE
  5
1F6
100
AcDbSymbolTableRecord
100
AcDbLinetypeTableRecord
  2
HIDDEN
 70
64
  3
- - - - - - - - - - - - - - - - - - - -
 72
65
 73
2
 40
0.2
 49
0.1
 74
0
 49
-0.1
 74
0
  0
LTYPE
  5
1F7
100
AcDbSymbolTableRecord
100
AcDbLinetypeTableRecord
  2
PHANTOM
 70
64
  3
_____ _ _ _____ _ _ _____ _ _ _____
 72
65
 73
6
 40
0.8
 49
0.45
 74
0
 49
-0.05
 74
0
 49
0.1
 74
0
 49
-0.05
 74
0
 49
0.1
 74
0
 49
-0.05
 74
0
  0
LTYPE
  5
1F8
100
AcDbSymbolTableRecord
100
AcDbLinetypeTableRecord
  2
DOT
 70
64
  3
. . . . . . . . . . . . . . . . . . . .
 72
65
 73
2
 40
0.2
 49
0.1
 74
0
 49
-0.1
 74
0
  0
LTYPE
  5
1F9
100
AcDbSymbolTableRecord
100
AcDbLinetypeTableRecord
  2
DASHED
 70
64
  3
- - - - - - - - - - - - - - - - - - - -
 72
65
 73
2
 40
0.2
 49
0.1
 74
0
 49
-0.1
 74
0
  0
ENDTAB
  0
TABLE
  2
LAYER
  5
2
100
AcDbSymbolTable
 70
36
  0
LAYER
  5
10
100
AcDbSymbolTableRecord
100
AcDbLayerTableRecord
  2
0
 70
0
 62
7
  6
CONTINUOUS
370
-3
390
F
  0
LAYER
  5
1FA
100
AcDbSymbolTableRecord
100
AcDbLayerTableRecord
  2
DEFAULT_1
 70
0
 62
7
  6
CENTER
370
-3
390
F
  0
LAYER
  5
1FB
100
AcDbSymbolTableRecord
100
AcDbLayerTableRecord
  2
DEFAULT_2
 70
0
 62
7
  6
HIDDEN
370
-3
390
F
  0
LAYER
  5
1FC
100
AcDbSymbolTableRecord
100
AcDbLayerTableRecord
  2
DEFAULT_3
 70
0
 62
7
  6
PHANTOM
370
-3
390
F
  0
LAYER
  5
1FD
100
AcDbSymbolTableRecord
100
AcDbLayerTableRecord
  2
218160210_GEN
 70
0
 62
7
  6
CONTINUOUS
370
-3
390
F
  0
LAYER
  5
1FE
100
AcDbSymbolTableRecord
100
AcDbLayerTableRecord
  2
268160210
 70
0
 62
7
  6
CONTINUOUS
370
-3
390
F
  0
LAYER
  5
1FF
100
AcDbSymbolTableRecord
100
AcDbLayerTableRecord
  2
284160010
 70
0
 62
7
  6
CONTINUOUS
370
-3
390
F
  0
LAYER
  5
200
100
AcDbSymbolTableRecord
100
AcDbLayerTableRecord
  2
290160210
 70
0
 62
7
  6
CONTINUOUS
370
-3
390
F
  0
LAYER
  5
201
100
AcDbSymbolTableRecord
100
AcDbLayerTableRecord
  2
320160010
 70
0
 62
7
  6
CONTINUOUS
370
-3
390
F
  0
LAYER
  5
202
100
AcDbSymbolTableRecord
100
AcDbLayerTableRecord
  2
341160050
 70
0
 62
7
  6
CONTINUOUS
370
-3
390
F
  0
LAYER
  5
203
100
AcDbSymbolTableRecord
100
AcDbLayerTableRecord
  2
349160010
 70
0
 62
7
  6
CONTINUOUS
370
-3
390
F
  0
LAYER
  5
204
100
AcDbSymbolTableRecord
100
AcDbLayerTableRecord
  2
712160010
 70
0
 62
7
  6
CONTINUOUS
370
-3
390
F
  0
LAYER
  5
205
100
AcDbSymbolTableRecord
100
AcDbLayerTableRecord
  2
71516000
 70
0
 62
7
  6
CONTINUOUS
370
-3
390
F
  0
LAYER
  5
206
100
AcDbSymbolTableRecord
100
AcDbLayerTableRecord
  2
ASSI
 70
0
 62
7
  6
CONTINUOUS
370
-3
390
F
  0
LAYER
  5
207
100
AcDbSymbolTableRecord
100
AcDbLayerTableRecord
  2
COLOR2
 70
0
 62
7
  6
CONTINUOUS
370
-3
390
F
  0
LAYER
  5
208
100
AcDbSymbolTableRecord
100
AcDbLayerTableRecord
  2
COORDINATE
 70
0
 62
7
  6
CONTINUOUS
370
-3
390
F
  0
LAYER
  5
209
100
AcDbSymbolTableRecord
100
AcDbLayerTableRecord
  2
COORD_ORIGINE
 70
0
 62
7
  6
CONTINUOUS
370
-3
390
F
  0
LAYER
  5
20A
100
AcDbSymbolTableRecord
100
AcDbLayerTableRecord
  2
COSMETICHE
 70
0
 62
7
  6
CONTINUOUS
370
-3
390
F
  0
LAYER
  5
20B
100
AcDbSymbolTableRecord
100
AcDbLayerTableRecord
  2
COSMETICI
 70
0
 62
7
  6
CONTINUOUS
370
-3
390
F
  0
LAYER
  5
20C
100
AcDbSymbolTableRecord
100
AcDbLayerTableRecord
  2
CURVE
 70
0
 62
7
  6
CONTINUOUS
370
-3
390
F
  0
LAYER
  5
20D
100
AcDbSymbolTableRecord
100
AcDbLayerTableRecord
  2
DRAFT
 70
0
 62
7
  6
CONTINUOUS
370
-3
390
F
  0
LAYER
  5
20E
100
AcDbSymbolTableRecord
100
AcDbLayerTableRecord
  2
ESTENSIONE
 70
0
 62
7
  6
CONTINUOUS
370
-3
390
F
  0
LAYER
  5
20F
100
AcDbSymbolTableRecord
100
AcDbLayerTableRecord
  2
IGES
 70
0
 62
7
  6
CONTINUOUS
370
-3
390
F
  0
LAYER
  5
210
100
AcDbSymbolTableRecord
100
AcDbLayerTableRecord
  2
IMPORT
 70
0
 62
7
  6
CONTINUOUS
370
-3
390
F
  0
LAYER
  5
211
100
AcDbSymbolTableRecord
100
AcDbLayerTableRecord
  2
INCISIONI_LASER
 70
0
 62
7
  6
CONTINUOUS
370
-3
390
F
  0
LAYER
  5
212
100
AcDbSymbolTableRecord
100
AcDbLayerTableRecord
  2
INTF_1
 70
0
 62
7
  6
CONTINUOUS
370
-3
390
F
  0
LAYER
  5
213
100
AcDbSymbolTableRecord
100
AcDbLayerTableRecord
  2
INTF_11
 70
0
 62
7
  6
CONTINUOUS
370
-3
390
F
  0
LAYER
  5
214
100
AcDbSymbolTableRecord
100
AcDbLayerTableRecord
  2
INTF_12
 70
0
 62
7
  6
CONTINUOUS
370
-3
390
F
  0
LAYER
  5
215
100
AcDbSymbolTableRecord
100
AcDbLayerTableRecord
  2
INTF_13
 70
0
 62
7
  6
CONTINUOUS
370
-3
390
F
  0
LAYER
  5
216
100
AcDbSymbolTableRecord
100
AcDbLayerTableRecord
  2
INTF_2
 70
0
 62
7
  6
CONTINUOUS
370
-3
390
F
  0
LAYER
  5
217
100
AcDbSymbolTableRecord
100
AcDbLayerTableRecord
  2
INTF_YELLOW
 70
0
 62
7
  6
CONTINUOUS
370
-3
390
F
  0
LAYER
  5
218
100
AcDbSymbolTableRecord
100
AcDbLayerTableRecord
  2
NOTE
 70
0
 62
7
  6
CONTINUOUS
370
-3
390
F
  0
LAYER
  5
219
100
AcDbSymbolTableRecord
100
AcDbLayerTableRecord
  2
PIANI
 70
0
 62
7
  6
CONTINUOUS
370
-3
390
F
  0
LAYER
  5
21A
100
AcDbSymbolTableRecord
100
AcDbLayerTableRecord
  2
PIANI_CENTRAGGIO
 70
0
 62
7
  6
CONTINUOUS
370
-3
390
F
  0
LAYER
  5
21B
100
AcDbSymbolTableRecord
100
AcDbLayerTableRecord
  2
PIANI_DI_RIFERIMENTO
 70
0
 62
7
  6
CONTINUOUS
370
-3
390
F
  0
LAYER
  5
21C
100
AcDbSymbolTableRecord
100
AcDbLayerTableRecord
  2
PIANI_ORIGINE
 70
0
 62
7
  6
CONTINUOUS
370
-3
390
F
  0
LAYER
  5
21D
100
AcDbSymbolTableRecord
100
AcDbLayerTableRecord
  2
PUNTI
 70
0
 62
7
  6
CONTINUOUS
370
-3
390
F
  0
LAYER
  5
21E
100
AcDbSymbolTableRecord
100
AcDbLayerTableRecord
  2
RACCORDO
 70
0
 62
7
  6
CONTINUOUS
370
-3
390
F
  0
LAYER
  5
21F
100
AcDbSymbolTableRecord
100
AcDbLayerTableRecord
  2
RGB__255__255__255__
 70
0
 62
7
  6
CONTINUOUS
370
-3
390
F
  0
LAYER
  5
220
100
AcDbSymbolTableRecord
100
AcDbLayerTableRecord
  2
RGB____0____0____0__
 70
0
 62
7
  6
CONTINUOUS
370
-3
390
F
  0
LAYER
  5
221
100
AcDbSymbolTableRecord
100
AcDbLayerTableRecord
  2
SMUSSO
 70
0
 62
7
  6
CONTINUOUS
370
-3
390
F
  0
LAYER
  5
222
100
AcDbSymbolTableRecord
100
AcDbLayerTableRecord
  2
SNAPLINE
 70
0
 62
7
  6
CONTINUOUS
370
-3
390
F
  0
LAYER
  5
223
100
AcDbSymbolTableRecord
100
AcDbLayerTableRecord
  2
SUPERFICI
 70
0
 62
7
  6
CONTINUOUS
370
-3
390
F
  0
LAYER
  5
224
100
AcDbSymbolTableRecord
100
AcDbLayerTableRecord
  2
TRACCIABILITA
 70
0
 62
7
  6
CONTINUOUS
370
-3
390
F
  0
LAYER
  5
225
100
AcDbSymbolTableRecord
100
AcDbLayerTableRecord
  2
TRASH
 70
0
 62
7
  6
CONTINUOUS
370
-3
390
F
  0
LAYER
  5
226
100
AcDbSymbolTableRecord
100
AcDbLayerTableRecord
  2
XSEC_DATUMS
 70
0
 62
7
  6
CONTINUOUS
370
-3
390
F
  0
ENDTAB
  0
TABLE
  2
STYLE
  5
3
100
AcDbSymbolTable
 70
1
  0
STYLE
  5
11
100
AcDbSymbolTableRecord
100
AcDbTextStyleTableRecord
  2
STANDARD
 70
0
 40
0.0
 41
0.8
 50
0.0
 71
0
 42
0.2
  3
txt
  4

  0
STYLE
  5
227
100
AcDbSymbolTableRecord
100
AcDbTextStyleTableRecord
  2
TEXTSTYLE_1
 70
0
 40
0.0
 41
0.8
 50
0.0
 71
0
 42
0.2
  3
gdt
  4

  0
ENDTAB
  0
TABLE
  2
VIEW
  5
6
100
AcDbSymbolTable
 70
0
  0
ENDTAB
  0
TABLE
  2
UCS
  5
7
100
AcDbSymbolTable
 70
0
  0
ENDTAB
  0
TABLE
  2
APPID
  5
9
100
AcDbSymbolTable
 70
1
  0
APPID
  5
228
100
AcDbSymbolTableRecord
100
AcDbRegAppTableRecord
  2
ACAD
 70
0
  0
ENDTAB
  0
TABLE
  2
BLOCK_RECORD
  5
1
100
AcDbSymbolTable
 70
0
  0
BLOCK_RECORD
  5
229
100
AcDbSymbolTableRecord
100
AcDbBlockTableRecord
  2
*Model_Space
  0
BLOCK_RECORD
  5
22A
100
AcDbSymbolTableRecord
100
AcDbBlockTableRecord
  2
*Paper_Space
  0
BLOCK_RECORD
  5
22B
100
AcDbSymbolTableRecord
100
AcDbBlockTableRecord
  2
_FILLED
  0
ENDTAB
  0
TABLE
  2
DIMSTYLE
  5
A
100
AcDbSymbolTable
 70
1
100
AcDbDimStyleTable
 71
0
  0
DIMSTYLE
105
22C
100
AcDbSymbolTableRecord
100
AcDbDimStyleTableRecord
  2
STANDARD
 70
0
  3

  4

 40
1.0
 41
3.0
 42
0.5
 43
0.38
 44
1.5
 45
0.0
 46
0.0
 47
0.01
 48
0.01
140
3.0
141
0.09
142
0.0
143
25.4
144
1.0
145
0.0
146
1.0
147
0.625
 71
1.0
 72
0.0
 73
0
 74
0
 75
0
 76
0
 77
1
 78
8
 79
2
170
0
171
1
172
0
173
0
174
0
175
0
176
0
177
0
178
0
270
2
179
2
271
2
272
2
273
2
274
2
275
0
280
0
281
0
282
0
283
1
284
8
285
0
286
0
287
3
288
0
340
11
278
44
341
22B
342
22B
343
22B
344
22B
  0
ENDTAB
  0
ENDSEC
  0
SECTION
  2
BLOCKS
  0
BLOCK
  5
20
100
AcDbEntity
  8
0
100
AcDbBlockBegin
  2
*Model_Space
 70
0
 10
0.0
 20
0.0
 30
0.0
  3
*Model_Space
  1

  0
ENDBLK
  5
21
100
AcDbEntity
  8
0
100
AcDbBlockEnd
  0
BLOCK
  5
1C
100
AcDbEntity
  8
0
100
AcDbBlockBegin
  2
*Paper_Space
 70
0
 10
0.0
 20
0.0
 30
0.0
  3
*Paper_Space
  1

  0
ENDBLK
  5
1D
100
AcDbEntity
  8
0
100
AcDbBlockEnd
  0
BLOCK
  5
22D
100
AcDbEntity
  8
0
100
AcDbBlockBegin
  2
_FILLED
 70
64
 10
0.0
 20
0.0
  3
_FILLED
  1

  0
SOLID
  5
22E
100
AcDbEntity
  8
0
  6
BYBLOCK
 62
0
100
AcDbTrace
 10
0.0
 20
0.0
 11
-1.0
 21
0.3166666667
 12
-1.0
 22
-0.3166666667
 13
-1.0
 23
-0.3166666667
  0
ENDBLK
  5
22F
100
AcDbEntity
  8
0
  6
BYBLOCK
 62
0
100
AcDbBlockEnd
  0
ENDSEC
  0
SECTION
  2
ENTITIES
  0
LWPOLYLINE
  5
230
100
AcDbEntity
  8
268160210
100
AcDbPolyline
 62
7
  6
CONTINUOUS
 90
24
 70
0
 10
65.181274041
 20
90.9447011759
 10
65.1621246011
 20
90.9342892372
 10
65.1323793265
 20
90.9168944919
 10
65.1043093696
 20
90.8989515515
 10
65.0779101379
 20
90.8805217132
 10
65.053115071
 20
90.8616252012
 10
65.0298195887
 20
90.8422375363
 10
65.0079987106
 20
90.8223854321
 10
64.9876311591
 20
90.8020986181
 10
64.9686473834
 20
90.781348444
 10
64.9510363197
 20
90.7601549377
 10
64.9347959234
 20
90.738551104
 10
64.9198966684
 20
90.7165285984
 10
64.9063373786
 20
90.6941088956
 10
64.8941295429
 20
90.6713377292
 10
64.8832761543
 20
90.648253439
 10
64.8737790632
 20
90.6248938238
 10
64.8656448923
 20
90.6013136997
 10
64.8588802073
 20
90.5775907937
 10
64.8534770523
 20
90.5537800552
 10
64.8494247668
 20
90.5299393285
 10
64.8467118729
 20
90.5061599056
 10
64.8453141223
 20
90.4825116825
 10
64.845093736
 20
90.4685463053
  0
LINE
  5
231
100
AcDbEntity
  8
268160210
100
AcDbLine
 62
7
  6
CONTINUOUS
 10
66.601183428
 20
91.695326848
 11
65.1812770243
 21
90.9447029535
  0
LINE
  5
232
100
AcDbEntity
  8
268160210
100
AcDbLine
 62
250
  6
CONTINUOUS
 10
66.7148856634
 20
91.6891936094
 11
65.2965736099
 21
90.9394125574
  0
LINE
  5
233
100
AcDbEntity
  8
268160210
100
AcDbLine
 62
7
  6
CONTINUOUS
 10
61.5610330055
 20
87.6857454856
 11
64.8450931595
 21
89.4218416227
  0
LINE
  5
234
100
AcDbEntity
  8
268160210
100
AcDbLine
 62
250
  6
CONTINUOUS
 10
64.8456889846
 20
89.3559154471
 11
61.6763295908
 21
87.6804550894
  0
LINE
  5
235
100
AcDbEntity
  8
268160210
100
AcDbLine
 62
250
  6
CONTINUOUS
 10
66.3239489418
 20
90.4302359202
 11
67.7755525653
 21
91.1588601585
  0
LINE
  5
236
100
AcDbEntity
  8
268160210
100
AcDbLine
 62
250
  6
CONTINUOUS
 10
66.500718906
 20
90.1253528311
 11
67.9523225294
 21
90.8539770693
  0
LINE
  5
237
100
AcDbEntity
  8
RACCORDO
100
AcDbLine
 62
250
  6
CONTINUOUS
 10
73.4447407986
 20
93.8722649492
 11
67.7755458341
 21
91.158863524
  0
LINE
  5
238
100
AcDbEntity
  8
RACCORDO
100
AcDbLine
 62
250
  6
CONTINUOUS
 10
73.5836940118
 20
93.6271414988
 11
67.9431092643
 21
90.9274335528
  0
LINE
  5
239
100
AcDbEntity
  8
RACCORDO
100
AcDbLine
 62
7
  6
CONTINUOUS
 10
72.3613360298
 20
94.3779641324
 11
66.5921706344
 21
91.7135723692
  0
LINE
  5
23A
100
AcDbEntity
  8
RACCORDO
100
AcDbLine
 62
250
  6
CONTINUOUS
 10
72.4476599148
 20
94.3708053911
 11
66.6795087842
 21
91.706882049
  0
LINE
  5
23B
100
AcDbEntity
  8
268160210
100
AcDbLine
 62
7
  6
CONTINUOUS
 10
67.452316275
 20
88.4165810136
 11
69.6491602235
 21
89.5343433352
  0
LINE
  5
23C
100
AcDbEntity
  8
268160210
100
AcDbLine
 62
7
  6
CONTINUOUS
 10
70.876619339
 20
90.1588790704
 11
73.9627301695
 21
91.7291036688
  0
LINE
  5
23D
100
AcDbEntity
  8
268160210
100
AcDbLine
 62
7
  6
CONTINUOUS
 10
72.3033159418
 20
91.9092917298
 11
66.500718906
 21
88.9967109283
  0
LINE
  5
23E
100
AcDbEntity
  8
349160010
100
AcDbLine
 62
7
  6
CONTINUOUS
 10
70.0029321949
 20
89.8938368459
 11
70.3665003275
 21
90.0756209122
  0
LINE
  5
23F
100
AcDbEntity
  8
268160210
100
AcDbLine
 62
7
  6
CONTINUOUS
 10
73.9627301695
 20
91.7291036688
 11
75.4927106399
 21
92.4808574792
  0
LINE
  5
240
100
AcDbEntity
  8
268160210
100
AcDbLine
 62
7
  6
CONTINUOUS
 10
73.6647678405
 20
92.5638136952
 11
72.3033159418
 21
91.9092917298
  0
LWPOLYLINE
  5
241
100
AcDbEntity
  8
290160210
100
AcDbPolyline
 62
7
  6
CONTINUOUS
 90
9
 70
0
 10
73.3566955692
 20
42.705620019
 10
73.4039879333
 20
42.6845709198
 10
73.4580248218
 20
42.6663996797
 10
73.5142382751
 20
42.6534766562
 10
73.5722342093
 20
42.6459883647
 10
73.6316066569
 20
42.6440545536
 10
73.6917428068
 20
42.6477305107
 10
73.7522477971
 20
42.6569877208
 10
73.8148579965
 20
42.6723289705
  0
LINE
  5
242
100
AcDbEntity
  8
290160210
100
AcDbLine
 62
7
  6
CONTINUOUS
 10
56.6099019157
 20
51.0790057736
 11
73.3568464463
 21
42.7055335083
  0
LINE
  5
243
100
AcDbEntity
  8
268160210
100
AcDbLine
 62
7
  6
CONTINUOUS
 10
73.9513278785
 20
42.7121683111
 11
78.5697421425
 21
40.4029611791
  0
LINE
  5
244
100
AcDbEntity
  8
268160210
100
AcDbLine
 62
250
  6
CONTINUOUS
 10
74.0810347188
 20
42.7500466928
 11
78.5047688461
 21
40.5381796292
  0
LINE
  5
245
100
AcDbEntity
  8
290160210
100
AcDbLine
 62
250
  6
CONTINUOUS
 10
56.3564979206
 20
51.6913214333
 11
73.095391304
 21
43.3218747416
  0
LINE
  5
246
100
AcDbEntity
  8
290160210
100
AcDbLine
 62
7
  6
CONTINUOUS
 10
73.3567421638
 20
42.7055856696
 11
73.3568472118
 21
42.7055331256
  0
LINE
  5
247
100
AcDbEntity
  8
268160210
100
AcDbLine
 62
7
  6
CONTINUOUS
 10
76.7615850804
 20
91.846420259
 11
75.6638927681
 21
91.2780734267
  0
LINE
  5
248
100
AcDbEntity
  8
268160210
100
AcDbLine
 62
7
  6
CONTINUOUS
 10
73.1292571343
 20
89.3859605739
 11
72.6764464043
 21
89.158674786
  0
LINE
  5
249
100
AcDbEntity
  8
268160210
100
AcDbLine
 62
7
  6
CONTINUOUS
 10
70.7176597769
 20
88.1754729042
 11
68.6104770653
 21
87.1177844463
  0
LINE
  5
24A
100
AcDbEntity
  8
268160210
100
AcDbLine
 62
7
  6
CONTINUOUS
 10
77.1907083515
 20
90.514665635
 11
76.7911572943
 21
90.3148901064
  0
LINE
  5
24B
100
AcDbEntity
  8
268160210
100
AcDbLine
 62
7
  6
CONTINUOUS
 10
75.2355223757
 20
91.0927075657
 11
73.9794609595
 21
90.4755435077
  0
LINE
  5
24C
100
AcDbEntity
  8
268160210
100
AcDbLine
 62
7
  6
CONTINUOUS
 10
70.0141846988
 20
88.5272104433
 11
68.6104770653
 21
87.8375006184
  0
LINE
  5
24D
100
AcDbEntity
  8
RACCORDO
100
AcDbLine
 62
7
  6
CONTINUOUS
 10
77.257450373
 20
91.6620890961
 11
79.632165626
 21
92.7588112953
  0
LINE
  5
24E
100
AcDbEntity
  8
RACCORDO
100
AcDbLine
 62
250
  6
CONTINUOUS
 10
77.2805850901
 20
91.555208545
 11
79.8479753386
 21
92.7409144421
  0
LWPOLYLINE
  5
24F
100
AcDbEntity
  8
290160210
100
AcDbPolyline
 62
7
  6
CONTINUOUS
 90
19
 70
0
 10
59.8083516897
 20
82.4790377048
 10
59.8003895833
 20
82.4757313076
 10
59.7360387504
 20
82.4452425221
 10
59.6726810675
 20
82.4084704146
 10
59.6101851679
 20
82.3652282
 10
59.5492024708
 20
82.3158573405
 10
59.4911341851
 20
82.2615835287
 10
59.4364282383
 20
82.2031587103
 10
59.3849084443
 20
82.1406754163
 10
59.3369658083
 20
82.0747809284
 10
59.2928282623
 20
82.0060356755
 10
59.2525728021
 20
81.9347212603
 10
59.2163548406
 20
81.861205087
 10
59.1843527995
 20
81.7859038425
 10
59.1567638938
 20
81.7091979068
 10
59.1337481902
 20
81.6313835291
 10
59.1155157091
 20
81.5527701325
 10
59.1023128193
 20
81.4737751383
 10
59.1006960737
 20
81.4612422762
  0
LINE
  5
250
100
AcDbEntity
  8
290160210
100
AcDbLine
 62
7
  6
CONTINUOUS
 10
59.8083074071
 20
82.4790295743
 11
62.9519466489
 21
83.7640301581
  0
LINE
  5
251
100
AcDbEntity
  8
290160210
100
AcDbLine
 62
250
  6
CONTINUOUS
 10
59.9403075625
 20
82.4693967371
 11
63.0219204056
 21
83.7290432797
  0
LINE
  5
252
100
AcDbEntity
  8
268160210
100
AcDbLine
 62
7
  6
CONTINUOUS
 10
78.5047688461
 20
43.4250638772
 11
77.7259492162
 21
43.8144736922
  0
LINE
  5
253
100
AcDbEntity
  8
268160210
100
AcDbLine
 62
250
  6
CONTINUOUS
 10
78.9603734019
 20
43.4743122434
 11
78.0757470774
 21
43.9166254129
  0
LWPOLYLINE
  5
254
100
AcDbEntity
  8
290160210
100
AcDbPolyline
 62
7
  6
CONTINUOUS
 90
14
 70
0
 10
56.2685671176
 20
51.7953688012
 10
56.2672241729
 20
51.7713099175
 10
56.2666692091
 20
51.6886454796
 10
56.2725658261
 20
51.6086364185
 10
56.2849935106
 20
51.5312766472
 10
56.3039520239
 20
51.4572832476
 10
56.3290603649
 20
51.3880652089
 10
56.3598423653
 20
51.3242255314
 10
56.3961060077
 20
51.2656856902
 10
56.437471726
 20
51.212800069
 10
56.4834195652
 20
51.1659222475
 10
56.5334102116
 20
51.1253209627
 10
56.586815341
 20
51.0912470386
 10
56.6101808092
 20
51.0788776551
  0
LWPOLYLINE
  5
255
100
AcDbEntity
  8
290160210
100
AcDbPolyline
 62
7
  6
CONTINUOUS
 90
10
 70
0
 10
59.1006948685
 20
81.4613136242
 10
58.704930609
 20
78.1804370281
 10
58.3235116194
 20
74.8469431768
 10
57.9638534399
 20
71.5207748312
 10
57.6259876626
 20
68.2022125931
 10
57.3099374794
 20
64.8914893847
 10
57.0157236339
 20
61.5888201748
 10
56.7433677932
 20
58.2944375763
 10
56.492892054
 20
55.008618989
 10
56.2685546317
 20
51.7952945573
  0
LINE
  5
256
100
AcDbEntity
  8
268160210
100
AcDbLine
 62
7
  6
CONTINUOUS
 10
75.163751173
 20
88.8342739727
 11
74.4753248685
 21
88.4827027916
  0
LINE
  5
257
100
AcDbEntity
  8
268160210
100
AcDbLine
 62
7
  6
CONTINUOUS
 10
71.1806556268
 20
86.8001541312
 11
70.9221710104
 21
86.6681490912
  0
LINE
  5
258
100
AcDbEntity
  8
268160210
100
AcDbLine
 62
7
  6
CONTINUOUS
 10
61.4278722389
 20
84.5778440584
 11
61.4278722389
 21
87.4647283064
  0
LINE
  5
259
100
AcDbEntity
  8
349160010
100
AcDbLine
 62
250
  6
CONTINUOUS
 10
76.3909541567
 20
85.180716451
 11
76.54906342
 21
85.2597710827
  0
LINE
  5
25A
100
AcDbEntity
  8
349160010
100
AcDbLine
 62
7
  6
CONTINUOUS
 10
78.4882135691
 20
85.6511961588
 11
78.8517817017
 21
85.8329802251
  0
LINE
  5
25B
100
AcDbEntity
  8
268160210
100
AcDbLine
 62
250
  6
CONTINUOUS
 10
83.0417578069
 20
46.409834966
 11
80.4270699435
 21
47.7171788977
  0
LINE
  5
25C
100
AcDbEntity
  8
268160210
100
AcDbLine
 62
250
  6
CONTINUOUS
 10
61.5010955436
 20
84.4894557107
 11
61.5010955436
 21
87.3763399587
  0
LINE
  5
25D
100
AcDbEntity
  8
RACCORDO
100
AcDbLine
 62
250
  6
CONTINUOUS
 10
78.8417669597
 20
85.4016351015
 11
78.5415300151
 21
85.2450981634
  0
LINE
  5
25E
100
AcDbEntity
  8
268160210
100
AcDbLine
 62
7
  6
CONTINUOUS
 10
80.074271887
 20
85.6247031281
 11
78.2760815348
 21
84.706388558
  0
LINE
  5
25F
100
AcDbEntity
  8
268160210
100
AcDbLine
 62
7
  6
CONTINUOUS
 10
77.969234639
 20
84.5496854732
 11
76.5790252599
 21
83.8397219665
  0
LINE
  5
260
100
AcDbEntity
  8
268160210
100
AcDbLine
 62
7
  6
CONTINUOUS
 10
77.4932325679
 20
83.3961228671
 11
84.0036464624
 21
86.7086455223
  0
LINE
  5
261
100
AcDbEntity
  8
268160210
100
AcDbLine
 62
7
  6
CONTINUOUS
 10
82.4480115438
 20
87.4864629816
 11
82.847562601
 21
87.6862385102
  0
LINE
  5
262
100
AcDbEntity
  8
349160010
100
AcDbLine
 62
7
  6
CONTINUOUS
 10
78.4882135691
 20
85.3047859972
 11
78.8517817017
 21
85.4865700635
  0
LINE
  5
263
100
AcDbEntity
  8
349160010
100
AcDbLine
 62
250
  6
CONTINUOUS
 10
78.2760815348
 20
84.9389123589
 11
77.9932388223
 21
84.7974910027
  0
LINE
  5
264
100
AcDbEntity
  8
349160010
100
AcDbLine
 62
7
  6
CONTINUOUS
 10
78.2760815348
 20
84.6791047378
 11
77.9932388223
 21
84.5376833816
  0
LINE
  5
265
100
AcDbEntity
  8
268160210
100
AcDbLine
 62
7
  6
CONTINUOUS
 10
85.511071849
 20
87.4716768747
 11
84.3743781844
 21
86.9228307185
  0
LINE
  5
266
100
AcDbEntity
  8
RACCORDO
100
AcDbLine
 62
250
  6
CONTINUOUS
 10
78.8417669597
 20
85.4016351015
 11
79.1001100989
 21
85.5252838112
  0
LINE
  5
267
100
AcDbEntity
  8
268160210
100
AcDbLine
 62
250
  6
CONTINUOUS
 10
83.3549077645
 20
47.1222291535
 11
80.5062489172
 21
48.5465585772
  0
LINE
  5
268
100
AcDbEntity
  8
268160210
100
AcDbLine
 62
7
  6
CONTINUOUS
 10
83.3549077645
 20
47.7710442791
 11
82.0237474751
 21
48.4366244239
  0
LINE
  5
269
100
AcDbEntity
  8
268160210
100
AcDbLine
 62
7
  6
CONTINUOUS
 10
81.4567626511
 20
49.724270959
 11
81.9118608473
 21
49.4967218609
  0
LINE
  5
26A
100
AcDbEntity
  8
268160210
100
AcDbLine
 62
7
  6
CONTINUOUS
 10
64.8450931595
 20
89.3387040552
 11
64.8450931595
 21
90.4686655006
  0
LWPOLYLINE
  5
26B
100
AcDbEntity
  8
268160210
100
AcDbPolyline
 62
7
  6
CONTINUOUS
 90
24
 70
0
 10
81.2967012036
 20
82.8931107334
 10
81.2771207758
 20
82.8826419742
 10
81.2468969712
 20
82.8652469327
 10
81.2183604455
 20
82.8472804479
 10
81.1915057724
 20
82.8288020033
 10
81.1662698072
 20
82.8098332825
 10
81.1425546329
 20
82.7903549114
 10
81.1203352557
 20
82.7703936134
 10
81.0995909353
 20
82.7499792193
 10
81.0802576089
 20
82.7290891763
 10
81.0623235132
 20
82.707743937
 10
81.0457862534
 20
82.6859769535
 10
81.030620452
 20
82.6637871932
 10
81.0168251808
 20
82.6411996576
 10
81.0044088165
 20
82.6182588921
 10
80.9933732579
 20
82.5950042627
 10
80.9837198338
 20
82.5714759496
 10
80.9754534489
 20
82.5477289917
 10
80.9685783064
 20
82.5238391639
 10
80.9630858412
 20
82.499862876
 10
80.9589646235
 20
82.4758590909
 10
80.9562019315
 20
82.4519166463
 10
80.9547725691
 20
82.4281054563
 10
80.9545418672
 20
82.4138147953
  0
LINE
  5
26C
100
AcDbEntity
  8
268160210
100
AcDbLine
 62
7
  6
CONTINUOUS
 10
82.7238146598
 20
83.6346190737
 11
81.2967034021
 21
82.8931120743
  0
LINE
  5
26D
100
AcDbEntity
  8
268160210
100
AcDbLine
 62
250
  6
CONTINUOUS
 10
82.8369135423
 20
83.62817967
 11
81.4104266344
 21
82.8869970739
  0
LINE
  5
26E
100
AcDbEntity
  8
268160210
100
AcDbLine
 62
7
  6
CONTINUOUS
 10
86.7799462894
 20
86.8372396545
 11
85.2764386685
 21
86.0722494193
  0
LINE
  5
26F
100
AcDbEntity
  8
268160210
100
AcDbLine
 62
7
  6
CONTINUOUS
 10
85.2764386685
 20
85.4227303664
 11
78.6513933581
 21
82.0973262998
  0
LINE
  5
270
100
AcDbEntity
  8
268160210
100
AcDbLine
 62
7
  6
CONTINUOUS
 10
87.3091529345
 20
86.4350656002
 11
85.2764386685
 21
85.4227303664
  0
LINE
  5
271
100
AcDbEntity
  8
268160210
100
AcDbLine
 62
7
  6
CONTINUOUS
 10
85.2764386685
 20
86.0722494193
 11
78.6513933581
 21
82.817042472
  0
LINE
  5
272
100
AcDbEntity
  8
RACCORDO
100
AcDbLine
 62
7
  6
CONTINUOUS
 10
88.4173029785
 20
86.3475664361
 11
82.771716196
 21
83.6454644062
  0
LINE
  5
273
100
AcDbEntity
  8
RACCORDO
100
AcDbLine
 62
250
  6
CONTINUOUS
 10
88.5061152379
 20
86.3415777296
 11
82.8369202734
 21
83.6281763044
  0
LINE
  5
274
100
AcDbEntity
  8
268160210
100
AcDbLine
 62
250
  6
CONTINUOUS
 10
66.500718906
 20
88.9967109283
 11
66.500718906
 21
90.1253528311
  0
LINE
  5
275
100
AcDbEntity
  8
268160210
100
AcDbLine
 62
7
  6
CONTINUOUS
 10
67.2174756956
 20
87.4055287599
 11
67.2174756956
 21
88.129567595
  0
LINE
  5
276
100
AcDbEntity
  8
268160210
100
AcDbLine
 62
7
  6
CONTINUOUS
 10
67.9523225294
 20
89.7253351666
 11
67.9523225294
 21
90.8539770693
  0
LINE
  5
277
100
AcDbEntity
  8
349160010
100
AcDbLine
 62
250
  6
CONTINUOUS
 10
71.9051988502
 20
89.625274952
 11
71.8885138168
 21
89.5540402517
  0
LINE
  5
278
100
AcDbEntity
  8
RACCORDO
100
AcDbLine
 62
250
  6
CONTINUOUS
 10
89.5031961217
 20
85.8430372877
 11
83.9329573234
 21
83.0801577794
  0
LINE
  5
279
100
AcDbEntity
  8
RACCORDO
100
AcDbLine
 62
250
  6
CONTINUOUS
 10
89.6445959387
 20
85.5991586784
 11
84.0743571405
 21
82.8362791701
  0
LINE
  5
27A
100
AcDbEntity
  8
268160210
100
AcDbLine
 62
250
  6
CONTINUOUS
 10
82.4288753184
 20
82.3732617032
 11
83.8975804442
 21
83.097846219
  0
LINE
  5
27B
100
AcDbEntity
  8
268160210
100
AcDbLine
 62
250
  6
CONTINUOUS
 10
82.6040825591
 20
82.0676174451
 11
84.0743571405
 21
82.7929762507
  0
LINE
  5
27C
100
AcDbEntity
  8
268160210
100
AcDbLine
 62
250
  6
CONTINUOUS
 10
81.9619706209
 20
80.797774629
 11
78.6800028933
 21
79.1786184381
  0
LINE
  5
27D
100
AcDbEntity
  8
268160210
100
AcDbLine
 62
250
  6
CONTINUOUS
 10
82.6040825591
 20
80.7224774353
 11
78.855210134
 21
78.8729741801
  0
LINE
  5
27E
100
AcDbEntity
  8
268160210
100
AcDbLine
 62
250
  6
CONTINUOUS
 10
68.6104770653
 20
87.1177844463
 11
68.6104770653
 21
87.8375006184
  0
LINE
  5
27F
100
AcDbEntity
  8
349160010
100
AcDbLine
 62
7
  6
CONTINUOUS
 10
69.5079574481
 20
88.7803240687
 11
69.5079574481
 21
89.0401316898
  0
LINE
  5
280
100
AcDbEntity
  8
349160010
100
AcDbLine
 62
250
  6
CONTINUOUS
 10
73.8554445349
 20
89.8243097491
 11
73.7680413301
 21
89.4511525052
  0
LINE
  5
281
100
AcDbEntity
  8
349160010
100
AcDbLine
 62
250
  6
CONTINUOUS
 10
74.1313655936
 20
89.7673256087
 11
74.0439623887
 21
89.3941683649
  0
LINE
  5
282
100
AcDbEntity
  8
RACCORDO
100
AcDbLine
 62
250
  6
CONTINUOUS
 10
77.8488052854
 20
84.60990015
 11
77.7485492377
 21
84.4369840459
  0
LINE
  5
283
100
AcDbEntity
  8
RACCORDO
100
AcDbLine
 62
250
  6
CONTINUOUS
 10
78.5415300151
 20
85.2450981634
 11
78.2760815348
 21
84.7872672584
  0
LINE
  5
284
100
AcDbEntity
  8
RACCORDO
100
AcDbLine
 62
250
  6
CONTINUOUS
 10
96.2326756067
 20
84.5485643081
 11
90.2468390822
 21
81.5795452638
  0
LINE
  5
285
100
AcDbEntity
  8
268160210
100
AcDbLine
 62
7
  6
CONTINUOUS
 10
78.9603734019
 20
76.0368674257
 11
78.855210134
 21
75.9860899321
  0
LINE
  5
286
100
AcDbEntity
  8
349160010
100
AcDbLine
 62
7
  6
CONTINUOUS
 10
71.1102421136
 20
87.8210724726
 11
71.1993176207
 21
86.5295757861
  0
LINE
  5
287
100
AcDbEntity
  8
349160010
100
AcDbLine
 62
250
  6
CONTINUOUS
 10
76.181975259
 20
88.742020776
 11
76.1615439995
 21
88.6547920239
  0
LINE
  5
288
100
AcDbEntity
  8
349160010
100
AcDbLine
 62
250
  6
CONTINUOUS
 10
75.935707503
 20
87.6100206256
 11
75.9190224695
 21
87.5387859254
  0
LINE
  5
289
100
AcDbEntity
  8
RACCORDO
100
AcDbLine
 62
250
  6
CONTINUOUS
 10
96.5861751494
 20
83.9388677848
 11
90.1907070423
 21
80.7666684556
  0
LINE
  5
28A
100
AcDbEntity
  8
290160210
100
AcDbLine
 62
250
  6
CONTINUOUS
 10
82.9481366073
 20
76.4517448843
 11
76.6958646034
 21
74.0916182167
  0
LINE
  5
28B
100
AcDbEntity
  8
290160210
100
AcDbLine
 62
250
  6
CONTINUOUS
 10
83.1343193361
 20
76.0749300473
 11
76.8858011853
 21
73.7162203956
  0
LINE
  5
28C
100
AcDbEntity
  8
RACCORDO
100
AcDbLine
 62
250
  6
CONTINUOUS
 10
74.1395068648
 20
92.6902126552
 11
74.1395068648
 21
93.2123331222
  0
LINE
  5
28D
100
AcDbEntity
  8
RACCORDO
100
AcDbLine
 62
7
  6
CONTINUOUS
 10
74.1980855086
 20
92.6957484872
 11
74.1980855086
 21
93.2830438003
  0
LINE
  5
28E
100
AcDbEntity
  8
349160010
100
AcDbLine
 62
7
  6
CONTINUOUS
 10
76.3018786496
 20
83.9782952716
 11
76.3909541567
 21
85.180716451
  0
LINE
  5
28F
100
AcDbEntity
  8
349160010
100
AcDbLine
 62
250
  6
CONTINUOUS
 10
77.8859531877
 20
87.8090554227
 11
77.7985499828
 21
87.4358981789
  0
LINE
  5
290
100
AcDbEntity
  8
349160010
100
AcDbLine
 62
250
  6
CONTINUOUS
 10
78.1618742463
 20
87.7520712823
 11
78.0744710414
 21
87.3789140385
  0
LINE
  5
291
100
AcDbEntity
  8
349160010
100
AcDbLine
 62
250
  6
CONTINUOUS
 10
78.9173341054
 20
85.5066303753
 11
79.0047373103
 21
85.8797876192
  0
LINE
  5
292
100
AcDbEntity
  8
268160210
100
AcDbLine
 62
7
  6
CONTINUOUS
 10
81.9160090126
 20
61.1827019004
 11
81.7218599884
 21
61.2797764125
  0
LINE
  5
293
100
AcDbEntity
  8
268160210
100
AcDbLine
 62
7
  6
CONTINUOUS
 10
75.2355223757
 20
91.0927075657
 11
75.2355223757
 21
90.6148886511
  0
LINE
  5
294
100
AcDbEntity
  8
268160210
100
AcDbLine
 62
7
  6
CONTINUOUS
 10
76.7911572943
 20
90.3148901064
 11
76.7911572943
 21
89.8370711918
  0
LINE
  5
295
100
AcDbEntity
  8
268160210
100
AcDbLine
 62
7
  6
CONTINUOUS
 10
77.2583919885
 20
82.3850706135
 11
77.2583919885
 21
83.1091094486
  0
LINE
  5
296
100
AcDbEntity
  8
268160210
100
AcDbLine
 62
7
  6
CONTINUOUS
 10
77.2861320411
 20
91.4641632185
 11
77.2861320411
 21
91.2344388007
  0
LINE
  5
297
100
AcDbEntity
  8
349160010
100
AcDbLine
 62
7
  6
CONTINUOUS
 10
76.5645167207
 20
83.8469762361
 11
76.6648866357
 21
85.2018594748
  0
LINE
  5
298
100
AcDbEntity
  8
349160010
100
AcDbLine
 62
250
  6
CONTINUOUS
 10
80.2124839118
 20
86.7267664496
 11
80.1920526522
 21
86.6395376975
  0
LINE
  5
299
100
AcDbEntity
  8
RACCORDO
100
AcDbLine
 62
250
  6
CONTINUOUS
 10
95.6305356771
 20
56.3575049971
 11
96.4386695972
 21
55.953438037
  0
LINE
  5
29A
100
AcDbEntity
  8
RACCORDO
100
AcDbLine
 62
7
  6
CONTINUOUS
 10
95.8502394037
 20
56.3736574263
 11
96.6144289817
 21
55.9915626373
  0
LINE
  5
29B
100
AcDbEntity
  8
349160010
100
AcDbLine
 62
7
  6
CONTINUOUS
 10
77.9932388223
 20
84.5376833816
 11
77.9932388223
 21
84.7974910027
  0
LINE
  5
29C
100
AcDbEntity
  8
268160210
100
AcDbLine
 62
250
  6
CONTINUOUS
 10
78.1346601785
 20
90.5658555028
 11
78.1346601785
 21
89.9417419769
  0
LINE
  5
29D
100
AcDbEntity
  8
349160010
100
AcDbLine
 62
7
  6
CONTINUOUS
 10
78.2760815348
 20
84.6791047378
 11
78.2760815348
 21
84.9389123589
  0
LINE
  5
29E
100
AcDbEntity
  8
268160210
100
AcDbLine
 62
7
  6
CONTINUOUS
 10
78.4275533973
 20
90.6634416451
 11
78.4275533973
 21
89.9179800678
  0
LINE
  5
29F
100
AcDbEntity
  8
349160010
100
AcDbLine
 62
250
  6
CONTINUOUS
 10
78.4882135691
 20
85.3047859972
 11
78.4882135691
 21
85.6511961588
  0
LINE
  5
2A0
100
AcDbEntity
  8
268160210
100
AcDbLine
 62
250
  6
CONTINUOUS
 10
78.5047688461
 20
78.8745033075
 11
78.5047688461
 21
75.9876190595
  0
LINE
  5
2A1
100
AcDbEntity
  8
268160210
100
AcDbLine
 62
250
  6
CONTINUOUS
 10
78.5047688461
 20
43.4250638772
 11
78.5047688461
 21
40.5381796292
  0
LINE
  5
2A2
100
AcDbEntity
  8
268160210
100
AcDbLine
 62
250
  6
CONTINUOUS
 10
78.6513933581
 20
82.0973262998
 11
78.6513933581
 21
82.817042472
  0
LINE
  5
2A3
100
AcDbEntity
  8
349160010
100
AcDbLine
 62
250
  6
CONTINUOUS
 10
78.8517817017
 20
85.4865700635
 11
78.8517817017
 21
85.8329802251
  0
LINE
  5
2A4
100
AcDbEntity
  8
268160210
100
AcDbLine
 62
250
  6
CONTINUOUS
 10
78.855210134
 20
78.8729741801
 11
78.855210134
 21
75.9860899321
  0
LINE
  5
2A5
100
AcDbEntity
  8
268160210
100
AcDbLine
 62
250
  6
CONTINUOUS
 10
78.855210134
 20
43.4235347498
 11
78.855210134
 21
40.5366505018
  0
LINE
  5
2A6
100
AcDbEntity
  8
349160010
100
AcDbLine
 62
250
  6
CONTINUOUS
 10
82.1936025165
 20
87.1630969603
 11
82.176917483
 21
87.09186226
  0
LINE
  5
2A7
100
AcDbEntity
  8
268160210
100
AcDbLine
 62
7
  6
CONTINUOUS
 10
83.3549077645
 20
47.7710442791
 11
81.9160090126
 21
61.1827019004
  0
LINE
  5
2A8
100
AcDbEntity
  8
268160210
100
AcDbLine
 62
7
  6
CONTINUOUS
 10
82.0237474751
 20
48.4366244239
 11
81.9118608473
 21
49.4967218609
  0
LINE
  5
2A9
100
AcDbEntity
  8
268160210
100
AcDbLine
 62
7
  6
CONTINUOUS
 10
81.8250390516
 20
50.3193363669
 11
81.2214540604
 21
56.0381511609
  0
LWPOLYLINE
  5
2AA
100
AcDbEntity
  8
268160210
100
AcDbPolyline
 62
7
  6
CONTINUOUS
 90
57
 70
0
 10
80.9545418477
 20
41.3162493896
 10
80.9548357286
 20
41.3002691522
 10
80.9564275006
 20
41.2760072606
 10
80.9594332293
 20
41.2515984488
 10
80.9638792774
 20
41.2271313035
 10
80.969770187
 20
41.2027370282
 10
80.9771120869
 20
41.178480835
 10
80.9859089161
 20
41.1544205214
 10
80.996136593
 20
41.1306622559
 10
81.007769482
 20
41.1072803027
 10
81.0208055487
 20
41.0842923816
 10
81.0352553222
 20
41.0617036611
 10
81.0510897731
 20
41.0395789152
 10
81.068322567
 20
41.0179178688
 10
81.0870644439
 20
40.9966256872
 10
81.1073420497
 20
40.9757327991
 10
81.1291750713
 20
40.9552762394
 10
81.1527191203
 20
40.9351832332
 10
81.1781896321
 20
40.9153744873
 10
81.2054883411
 20
40.8960273661
 10
81.2342784607
 20
40.8774298113
 10
81.2646142784
 20
40.8595664992
 10
81.2964511875
 20
40.8424858822
 10
81.3291826173
 20
40.8264934253
 10
81.3625386097
 20
40.8116497901
 10
81.3966549758
 20
40.7978324247
 10
81.4314495375
 20
40.7850301573
 10
81.4668377518
 20
40.7732310418
 10
81.5027833509
 20
40.7624104287
 10
81.5392546938
 20
40.7525460281
 10
81.5761891107
 20
40.7436277832
 10
81.6135340522
 20
40.7356449985
 10
81.6512612658
 20
40.728582779
 10
81.689310447
 20
40.7224361256
 10
81.7276288475
 20
40.7171985548
 10
81.7661939041
 20
40.712860953
 10
81.8049496068
 20
40.7094214479
 10
81.8438401805
 20
40.706876843
 10
81.8828411473
 20
40.7052239309
 10
81.9218971063
 20
40.7044628161
 10
81.9609520579
 20
40.7045925515
 10
81.9999800596
 20
40.7056146398
 10
82.0389267911
 20
40.7075306142
 10
82.0777351345
 20
40.7103419677
 10
82.1163766662
 20
40.7140541663
 10
82.1547962264
 20
40.7186704133
 10
82.1929370103
 20
40.7241950922
 10
82.2307736128
 20
40.7306383691
 10
82.268252042
 20
40.7380073052
 10
82.3053132108
 20
40.7463101143
 10
82.3419332812
 20
40.7555634688
 10
82.3780539946
 20
40.7657794452
 10
82.4136170967
 20
40.7769723851
 10
82.4486114566
 20
40.789174383
 10
82.4829964823
 20
40.8024163615
 10
82.5166887629
 20
40.816714914
 10
82.5372135813
 20
40.8261275616
  0
LINE
  5
2AB
100
AcDbEntity
  8
268160210
100
AcDbLine
 62
250
  6
CONTINUOUS
 10
80.9545430339
 20
41.3153520273
 11
80.9545418142
 21
41.3161159934
  0
LINE
  5
2AC
100
AcDbEntity
  8
268160210
100
AcDbLine
 62
7
  6
CONTINUOUS
 10
80.9545412881
 20
41.4237086391
 11
80.9545412881
 21
41.316116005
  0
LINE
  5
2AD
100
AcDbEntity
  8
268160210
100
AcDbLine
 62
7
  6
CONTINUOUS
 10
80.9545412881
 20
81.2839799909
 11
80.9545412881
 21
82.4139414292
  0
LINE
  5
2AE
100
AcDbEntity
  8
290160210
100
AcDbLine
 62
250
  6
CONTINUOUS
 10
59.189032208
 20
81.3614000985
 11
75.9279255914
 21
72.9919534068
  0
LINE
  5
2AF
100
AcDbEntity
  8
268160210
100
AcDbLine
 62
7
  6
CONTINUOUS
 10
82.4480115438
 20
87.4864629816
 11
82.4480115438
 21
87.0086440671
  0
LINE
  5
2B0
100
AcDbEntity
  8
268160210
100
AcDbLine
 62
250
  6
CONTINUOUS
 10
82.6040825591
 20
42.3073912656
 11
82.6040825591
 21
40.9622512558
  0
LINE
  5
2B1
100
AcDbEntity
  8
268160210
100
AcDbLine
 62
250
  6
CONTINUOUS
 10
82.6040825591
 20
80.7224774353
 11
82.6040825591
 21
82.0676174451
  0
LINE
  5
2B2
100
AcDbEntity
  8
268160210
100
AcDbLine
 62
7
  6
CONTINUOUS
 10
83.3549077645
 20
47.1222291535
 11
83.3549077645
 21
47.7710442791
  0
LINE
  5
2B3
100
AcDbEntity
  8
268160210
100
AcDbLine
 62
7
  6
CONTINUOUS
 10
83.3549077645
 20
75.9838878945
 11
83.3549077645
 21
76.6327030202
  0
LINE
  5
2B4
100
AcDbEntity
  8
268160210
100
AcDbLine
 62
7
  6
CONTINUOUS
 10
84.0743571405
 20
82.7929762507
 11
84.0743571405
 21
41.6567201094
  0
LINE
  5
2B5
100
AcDbEntity
  8
RACCORDO
100
AcDbLine
 62
7
  6
CONTINUOUS
 10
84.0743571405
 20
41.61341719
 11
84.0743571405
 21
82.8362791701
  0
LINE
  5
2B6
100
AcDbEntity
  8
290160210
100
AcDbLine
 62
7
  6
CONTINUOUS
 10
83.1343193361
 20
76.0749300473
 11
80.1354418988
 21
44.6624490517
  0
LINE
  5
2B7
100
AcDbEntity
  8
268160210
100
AcDbLine
 62
7
  6
CONTINUOUS
 10
81.9160090126
 20
61.1827019004
 11
83.3549077645
 21
75.9838878945
  0
LINE
  5
2B8
100
AcDbEntity
  8
290160210
100
AcDbLine
 62
250
  6
CONTINUOUS
 10
59.9403075625
 20
82.4693967371
 11
76.6958646034
 21
74.0916182167
  0
LINE
  5
2B9
100
AcDbEntity
  8
RACCORDO
100
AcDbLine
 62
250
  6
CONTINUOUS
 10
96.7265052492
 20
64.1505375911
 11
97.6920451041
 21
63.6677676636
  0
LINE
  5
2BA
100
AcDbEntity
  8
RACCORDO
100
AcDbLine
 62
7
  6
CONTINUOUS
 10
96.7265052492
 20
64.2120053331
 11
97.802305855
 21
63.6741050302
  0
LINE
  5
2BB
100
AcDbEntity
  8
268160210
100
AcDbLine
 62
7
  6
CONTINUOUS
 10
85.2764386685
 20
86.0722494193
 11
85.2764386685
 21
85.4227303664
  0
LINE
  5
2BC
100
AcDbEntity
  8
268160210
100
AcDbLine
 62
7
  6
CONTINUOUS
 10
78.5047688461
 20
75.9876190595
 11
61.5010955436
 21
84.4894557107
  0
LINE
  5
2BD
100
AcDbEntity
  8
268160210
100
AcDbLine
 62
7
  6
CONTINUOUS
 10
87.3091529345
 20
86.4526527718
 11
87.3091529345
 21
86.4350656002
  0
LINE
  5
2BE
100
AcDbEntity
  8
268160210
100
AcDbLine
 62
7
  6
CONTINUOUS
 10
83.3549077645
 20
75.9838878945
 11
83.1355622663
 21
76.0935606437
  0
LINE
  5
2BF
100
AcDbEntity
  8
290160210
100
AcDbLine
 62
7
  6
CONTINUOUS
 10
82.9481366073
 20
76.4517448843
 11
81.9169282249
 21
76.9673490755
  0
LINE
  5
2C0
100
AcDbEntity
  8
268160210
100
AcDbLine
 62
250
  6
CONTINUOUS
 10
61.5010955436
 20
87.3763399587
 11
78.5047688461
 21
78.8745033075
  0
LINE
  5
2C1
100
AcDbEntity
  8
268160210
100
AcDbLine
 62
250
  6
CONTINUOUS
 10
83.3549077645
 20
76.6327030202
 11
82.5595404855
 21
77.0303866597
  0
LINE
  5
2C2
100
AcDbEntity
  8
268160210
100
AcDbLine
 62
250
  6
CONTINUOUS
 10
61.6763295908
 20
87.6804550894
 11
78.6800028933
 21
79.1786184381
  0
LWPOLYLINE
  5
2C3
100
AcDbEntity
  8
RACCORDO
100
AcDbPolyline
 62
7
  6
CONTINUOUS
 90
36
 70
0
 10
90.2468390552
 20
85.2586653967
 10
90.2466815311
 20
85.2768982392
 10
90.2459405201
 20
85.3019939657
 10
90.2445896859
 20
85.3268481138
 10
90.2426244843
 20
85.351461249
 10
90.240042987
 20
85.3758025907
 10
90.236849202
 20
85.3998103336
 10
90.2330436692
 20
85.4234729972
 10
90.2286272479
 20
85.4467779907
 10
90.2236112515
 20
85.4696661772
 10
90.2180005433
 20
85.4921253275
 10
90.2117991182
 20
85.514147877
 10
90.2050236198
 20
85.5356859476
 10
90.1976819292
 20
85.5567307908
 10
90.1897816632
 20
85.5772751672
 10
90.1813453692
 20
85.5972770212
 10
90.1723843895
 20
85.6167296847
 10
90.162910006
 20
85.6356275972
 10
90.1529511192
 20
85.6539336717
 10
90.1425299838
 20
85.6716317504
 10
90.1316553724
 20
85.6887307846
 10
90.1203393165
 20
85.7052318921
 10
90.1086010452
 20
85.7211260236
 10
90.0964536894
 20
85.7364142905
 10
90.0838992686
 20
85.7511095989
 10
90.0709531969
 20
85.7652066642
 10
90.0576321918
 20
85.7787002613
 10
90.0439387037
 20
85.7915991911
 10
90.029889394
 20
85.8038970757
 10
90.0155007568
 20
85.8155887716
 10
90.0007739656
 20
85.8266815802
 10
89.9857257081
 20
85.8371695901
 10
89.9703734135
 20
85.8470471489
 10
89.9547183394
 20
85.8563191031
 10
89.9387722065
 20
85.8649828818
 10
89.9319433116
 20
85.868463404
  0
LINE
  5
2C4
100
AcDbEntity
  8
RACCORDO
100
AcDbLine
 62
250
  6
CONTINUOUS
 10
90.1907070423
 20
49.2489256765
 11
90.1907070423
 21
45.5941609167
  0
LINE
  5
2C5
100
AcDbEntity
  8
RACCORDO
100
AcDbLine
 62
250
  6
CONTINUOUS
 10
90.1907070423
 20
52.4012999898
 11
90.1907070423
 21
58.8098879778
  0
LINE
  5
2C6
100
AcDbEntity
  8
RACCORDO
100
AcDbLine
 62
250
  6
CONTINUOUS
 10
90.1907070423
 20
80.7666684556
 11
90.1907070423
 21
85.1892011764
  0
LINE
  5
2C7
100
AcDbEntity
  8
RACCORDO
100
AcDbLine
 62
7
  6
CONTINUOUS
 10
90.2468390822
 20
49.1211222822
 11
90.2468390822
 21
45.6636267537
  0
LINE
  5
2C8
100
AcDbEntity
  8
RACCORDO
100
AcDbLine
 62
7
  6
CONTINUOUS
 10
90.2468390822
 20
52.591084186
 11
90.2468390822
 21
58.7590354557
  0
LINE
  5
2C9
100
AcDbEntity
  8
RACCORDO
100
AcDbLine
 62
7
  6
CONTINUOUS
 10
90.2468390822
 20
81.033403524
 11
90.2468390822
 21
85.2586670135
  0
LINE
  5
2CA
100
AcDbEntity
  8
RACCORDO
100
AcDbLine
 62
7
  6
CONTINUOUS
 10
96.5306274995
 20
62.0112153582
 11
96.5372719531
 21
62.0147277582
  0
LINE
  5
2CB
100
AcDbEntity
  8
RACCORDO
100
AcDbLine
 62
250
  6
CONTINUOUS
 10
90.1907070423
 20
58.8098879778
 11
96.5825375573
 21
62.1193551072
  0
LINE
  5
2CC
100
AcDbEntity
  8
RACCORDO
100
AcDbLine
 62
7
  6
CONTINUOUS
 10
90.2473889862
 20
58.7579733836
 11
96.530627564
 21
62.0112153916
  0
LINE
  5
2CD
100
AcDbEntity
  8
RACCORDO
100
AcDbLine
 62
250
  6
CONTINUOUS
 10
97.6920451041
 20
63.6677676636
 11
96.7265052492
 21
63.1783479734
  0
LINE
  5
2CE
100
AcDbEntity
  8
RACCORDO
100
AcDbLine
 62
250
  6
CONTINUOUS
 10
97.8915506097
 20
63.32708154
 11
96.7265052492
 21
62.736535084
  0
LINE
  5
2CF
100
AcDbEntity
  8
268160210
100
AcDbLine
 62
7
  6
CONTINUOUS
 10
78.427303527
 20
90.6638530577
 11
78.4275670747
 21
90.6634350808
  0
LWPOLYLINE
  5
2D0
100
AcDbEntity
  8
RACCORDO
100
AcDbPolyline
 62
7
  6
CONTINUOUS
 90
33
 70
0
 10
96.5372803649
 20
62.0147326363
 10
96.5396633526
 20
62.0160311535
 10
96.5500811129
 20
62.0220107318
 10
96.5602980759
 20
62.0283766464
 10
96.5702838439
 20
62.0351122238
 10
96.5800335386
 20
62.0422162743
 10
96.5895647774
 20
62.0497056633
 10
96.5988593384
 20
62.0575710978
 10
96.6079000337
 20
62.0658027445
 10
96.6167003423
 20
62.0744204747
 10
96.6252398663
 20
62.0834138629
 10
96.6335020029
 20
62.0927725382
 10
96.6414987064
 20
62.1025203162
 10
96.6492091931
 20
62.1126455892
 10
96.6566150914
 20
62.1231369583
 10
96.6637253035
 20
62.1340215014
 10
96.6705217275
 20
62.1452899048
 10
96.6769837334
 20
62.1569259234
 10
96.6831103823
 20
62.1689483202
 10
96.6888840072
 20
62.181344593
 10
96.6942877275
 20
62.1940998595
 10
96.6993178348
 20
62.2072308318
 10
96.7039577904
 20
62.2207231857
 10
96.7081937875
 20
62.2345638933
 10
96.712021591
 20
62.2487728876
 10
96.7154269788
 20
62.2633397685
 10
96.7183964817
 20
62.278249302
 10
96.7209225705
 20
62.2935148885
 10
96.7229924478
 20
62.3091257499
 10
96.724594473
 20
62.3250698833
 10
96.7257194908
 20
62.3413593296
 10
96.7263557628
 20
62.3579911975
 10
96.7265052142
 20
62.3710054945
  0
LINE
  5
2D1
100
AcDbEntity
  8
268160210
100
AcDbLine
 62
7
  6
CONTINUOUS
 10
76.5790252599
 20
83.8397219665
 11
70.9221710104
 21
86.6681490912
  0
LINE
  5
2D2
100
AcDbEntity
  8
349160010
100
AcDbLine
 62
7
  6
CONTINUOUS
 10
76.5679455954
 20
83.8932622653
 11
76.6265181139
 21
83.863976006
  0
LINE
  5
2D3
100
AcDbEntity
  8
349160010
100
AcDbLine
 62
7
  6
CONTINUOUS
 10
77.9932388223
 20
84.5376833816
 11
76.531837362
 21
85.2683841117
  0
LINE
  5
2D4
100
AcDbEntity
  8
349160010
100
AcDbLine
 62
7
  6
CONTINUOUS
 10
70.9693589083
 20
88.0496233385
 11
69.5079574481
 21
88.7803240687
  0
LINE
  5
2D5
100
AcDbEntity
  8
349160010
100
AcDbLine
 62
250
  6
CONTINUOUS
 10
77.9932388223
 20
84.7974910027
 11
69.5079574481
 21
89.0401316898
  0
LWPOLYLINE
  5
2D6
100
AcDbEntity
  8
RACCORDO
100
AcDbPolyline
 62
7
  6
CONTINUOUS
 90
30
 70
0
 10
97.820972228
 20
57.6411565592
 10
97.8274439795
 20
57.644695032
 10
97.8360078045
 20
57.6497530895
 10
97.8443718806
 20
57.6551327382
 10
97.8525249986
 20
57.660826389
 10
97.8604621335
 20
57.6668307824
 10
97.8681689668
 20
57.6731357691
 10
97.8756320697
 20
57.6797306721
 10
97.8828472093
 20
57.6866123326
 10
97.8898012059
 20
57.6937690382
 10
97.8964817166
 20
57.7011885196
 10
97.9028850973
 20
57.7088678284
 10
97.9089989589
 20
57.7167936705
 10
97.9148125077
 20
57.7249526611
 10
97.9203235031
 20
57.7333431926
 10
97.9255205081
 20
57.7419503628
 10
97.9303940556
 20
57.7507602556
 10
97.9349435299
 20
57.7597745604
 10
97.9391599107
 20
57.7689802691
 10
97.9430331757
 20
57.7783600261
 10
97.9465601764
 20
57.7879112905
 10
97.9497338833
 20
57.7976219
 10
97.9525457641
 20
57.8074727623
 10
97.9549910192
 20
57.8174539068
 10
97.9570643067
 20
57.8275504042
 10
97.9587608485
 20
57.8377472289
 10
97.9600777542
 20
57.8480389577
 10
97.9610114837
 20
57.8584173236
 10
97.9615577914
 20
57.8688677726
 10
97.9617155819
 20
57.8782840295
  0
LINE
  5
2D7
100
AcDbEntity
  8
RACCORDO
100
AcDbLine
 62
250
  6
CONTINUOUS
 10
97.8915506097
 20
57.7914557833
 11
95.9779177703
 21
56.7798267557
  0
LINE
  5
2D8
100
AcDbEntity
  8
RACCORDO
100
AcDbLine
 62
7
  6
CONTINUOUS
 10
97.8209859496
 20
57.6411637148
 11
95.9779177703
 21
56.6668382164
  0
LINE
  5
2D9
100
AcDbEntity
  8
RACCORDO
100
AcDbLine
 62
7
  6
CONTINUOUS
 10
90.2468390822
 20
53.570014485
 11
95.6305356771
 21
56.3575049971
  0
LINE
  5
2DA
100
AcDbEntity
  8
268160210
100
AcDbLine
 62
250
  6
CONTINUOUS
 10
80.6178690692
 20
49.7157513757
 11
81.8250390516
 21
50.3193363669
  0
LINE
  5
2DB
100
AcDbEntity
  8
268160210
100
AcDbLine
 62
7
  6
CONTINUOUS
 10
80.5766723123
 20
49.2842257897
 11
81.6323977397
 21
49.8120885033
  0
LINE
  5
2DC
100
AcDbEntity
  8
349160010
100
AcDbLine
 62
7
  6
CONTINUOUS
 10
78.9173341054
 20
85.5066303753
 11
82.3246559127
 21
85.8543689243
  0
LINE
  5
2DD
100
AcDbEntity
  8
349160010
100
AcDbLine
 62
7
  6
CONTINUOUS
 10
79.0047373103
 20
85.8797876192
 11
83.2201433179
 21
86.3099962262
  0
LINE
  5
2DE
100
AcDbEntity
  8
349160010
100
AcDbLine
 62
250
  6
CONTINUOUS
 10
78.4882135691
 20
85.6511961588
 11
70.0029321949
 21
89.8938368459
  0
LINE
  5
2DF
100
AcDbEntity
  8
268160210
100
AcDbLine
 62
7
  6
CONTINUOUS
 10
83.8975804442
 20
83.097846219
 11
82.8369135423
 21
83.62817967
  0
LINE
  5
2E0
100
AcDbEntity
  8
268160210
100
AcDbLine
 62
7
  6
CONTINUOUS
 10
67.7755525653
 20
91.1588601585
 11
66.7148856634
 21
91.6891936094
  0
LINE
  5
2E1
100
AcDbEntity
  8
RACCORDO
100
AcDbLine
 62
7
  6
CONTINUOUS
 10
66.6795087842
 20
91.706882049
 11
67.7755458341
 21
91.158863524
  0
LINE
  5
2E2
100
AcDbEntity
  8
RACCORDO
100
AcDbLine
 62
7
  6
CONTINUOUS
 10
82.8369202734
 20
83.6281763044
 11
83.9329573234
 21
83.0801577794
  0
LINE
  5
2E3
100
AcDbEntity
  8
349160010
100
AcDbLine
 62
250
  6
CONTINUOUS
 10
78.8517817017
 20
85.8329802251
 11
70.3665003275
 21
90.0756209122
  0
LINE
  5
2E4
100
AcDbEntity
  8
349160010
100
AcDbLine
 62
250
  6
CONTINUOUS
 10
79.0047373103
 20
85.8797876192
 11
70.519455936
 21
90.1224283063
  0
LINE
  5
2E5
100
AcDbEntity
  8
349160010
100
AcDbLine
 62
7
  6
CONTINUOUS
 10
77.9932388223
 20
86.5002785771
 11
75.9426291569
 21
87.5255834098
  0
LINE
  5
2E6
100
AcDbEntity
  8
349160010
100
AcDbLine
 62
7
  6
CONTINUOUS
 10
73.9627301695
 20
88.5155329034
 11
71.9121205041
 21
89.5408377362
  0
LINE
  5
2E7
100
AcDbEntity
  8
349160010
100
AcDbLine
 62
7
  6
CONTINUOUS
 10
74.0439623887
 20
89.3941683649
 11
75.6310047772
 21
88.6006471706
  0
LINE
  5
2E8
100
AcDbEntity
  8
349160010
100
AcDbLine
 62
7
  6
CONTINUOUS
 10
78.0744710414
 20
87.3789140385
 11
79.66151343
 21
86.5853928442
  0
LWPOLYLINE
  5
2E9
100
AcDbEntity
  8
RACCORDO
100
AcDbPolyline
 62
7
  6
CONTINUOUS
 90
32
 70
0
 10
97.9617055763
 20
63.4162894345
 10
97.9614261151
 20
63.4267005269
 10
97.960769695
 20
63.4370393224
 10
97.9597431484
 20
63.4473121817
 10
97.9583528342
 20
63.457514376
 10
97.9566062489
 20
63.4676303917
 10
97.9545048086
 20
63.4776760303
 10
97.9520503222
 20
63.4876500216
 10
97.9492538673
 20
63.4975173695
 10
97.9461073456
 20
63.5073094608
 10
97.9426108793
 20
63.5170199944
 10
97.9387956231
 20
63.5265660095
 10
97.9346575198
 20
63.535967155
 10
97.9301900298
 20
63.5452377273
 10
97.9254357197
 20
63.5542950944
 10
97.920397004
 20
63.5631456904
 10
97.9150604675
 20
63.5718172245
 10
97.9094571436
 20
63.5802622677
 10
97.9035892446
 20
63.5884833101
 10
97.8974411687
 20
63.596502298
 10
97.8910253968
 20
63.60430078
 10
97.8843330975
 20
63.6118855772
 10
97.8773562386
 20
63.6192589922
 10
97.8701144187
 20
63.6263931675
 10
97.8626064477
 20
63.6332834955
 10
97.8548224997
 20
63.6399306405
 10
97.8467769189
 20
63.646313803
 10
97.8384779351
 20
63.652418892
 10
97.8299153343
 20
63.6582444844
 10
97.8210802822
 20
63.6637854747
 10
97.8119711566
 20
63.6690297613
 10
97.8023158769
 20
63.6740999165
  0
LWPOLYLINE
  5
2EA
100
AcDbEntity
  8
RACCORDO
100
AcDbPolyline
 62
7
  6
CONTINUOUS
 90
28
 70
0
 10
96.7265054494
 20
55.8102189403
 10
96.7264083673
 20
55.8165075119
 10
96.7260507528
 20
55.823819849
 10
96.7254112707
 20
55.8312970318
 10
96.724464751
 20
55.8389661062
 10
96.7231771883
 20
55.8468669715
 10
96.7215299942
 20
55.8549285607
 10
96.7195317263
 20
55.8630110224
 10
96.7171791565
 20
55.871081072
 10
96.714460557
 20
55.8791387671
 10
96.7113963399
 20
55.8870989326
 10
96.7079973828
 20
55.8949276198
 10
96.7042596172
 20
55.9026290773
 10
96.7001919546
 20
55.9101788462
 10
96.6957999516
 20
55.9175624514
 10
96.6910897678
 20
55.9247656942
 10
96.6860745689
 20
55.9317660908
 10
96.6807629597
 20
55.9385506092
 10
96.6751640202
 20
55.9451067118
 10
96.6692946129
 20
55.9514147926
 10
96.6631652304
 20
55.9574646157
 10
96.6567880281
 20
55.9632452051
 10
96.6501850957
 20
55.9687387317
 10
96.6433698001
 20
55.9739372841
 10
96.6363556616
 20
55.9788336723
 10
96.6291673016
 20
55.9834147331
 10
96.6218230765
 20
55.9876739587
 10
96.6144220184
 20
55.9915660416
  0
LINE
  5
2EB
100
AcDbEntity
  8
RACCORDO
100
AcDbLine
 62
7
  6
CONTINUOUS
 10
95.9779177703
 20
56.7798267557
 11
95.9779177703
 21
56.309818243
  0
LINE
  5
2EC
100
AcDbEntity
  8
RACCORDO
100
AcDbLine
 62
250
  6
CONTINUOUS
 10
96.5861751494
 20
83.9388677848
 11
96.5861751494
 21
62.1212780956
  0
LINE
  5
2ED
100
AcDbEntity
  8
RACCORDO
100
AcDbLine
 62
250
  6
CONTINUOUS
 10
96.5861751494
 20
55.7126109677
 11
96.5861751494
 21
52.6994274431
  0
LINE
  5
2EE
100
AcDbEntity
  8
RACCORDO
100
AcDbLine
 62
7
  6
CONTINUOUS
 10
96.7265052492
 20
84.1125323774
 11
96.7265052492
 21
62.3709988034
  0
LINE
  5
2EF
100
AcDbEntity
  8
RACCORDO
100
AcDbLine
 62
7
  6
CONTINUOUS
 10
96.7265052492
 20
55.8102191929
 11
96.7265052492
 21
52.8730920357
  0
LINE
  5
2F0
100
AcDbEntity
  8
RACCORDO
100
AcDbLine
 62
250
  6
CONTINUOUS
 10
97.8915506097
 20
63.32708154
 11
97.8915506097
 21
57.7914557833
  0
LINE
  5
2F1
100
AcDbEntity
  8
RACCORDO
100
AcDbLine
 62
250
  6
CONTINUOUS
 10
90.2468390822
 20
52.747523939
 11
96.4386695972
 21
55.953438037
  0
LINE
  5
2F2
100
AcDbEntity
  8
RACCORDO
100
AcDbLine
 62
250
  6
CONTINUOUS
 10
90.1907070423
 20
52.4012999898
 11
96.5825375573
 21
55.7107671192
  0
LINE
  5
2F3
100
AcDbEntity
  8
349160010
100
AcDbLine
 62
7
  6
CONTINUOUS
 10
80.2194055656
 20
86.6423292338
 11
78.2691598809
 21
86.4432944367
  0
LINE
  5
2F4
100
AcDbEntity
  8
349160010
100
AcDbLine
 62
7
  6
CONTINUOUS
 10
82.4480115438
 20
87.1890609962
 11
82.1936025165
 21
87.1630969603
  0
LINE
  5
2F5
100
AcDbEntity
  8
349160010
100
AcDbLine
 62
7
  6
CONTINUOUS
 10
76.4061964338
 20
87.2937997713
 11
77.7985499828
 21
87.4358981789
  0
LINE
  5
2F6
100
AcDbEntity
  8
349160010
100
AcDbLine
 62
7
  6
CONTINUOUS
 10
75.935707503
 20
87.6100206256
 11
77.8859531877
 21
87.8090554227
  0
LINE
  5
2F7
100
AcDbEntity
  8
268160210
100
AcDbLine
 62
7
  6
CONTINUOUS
 10
83.791514428
 20
87.7374283781
 11
82.847562601
 21
87.6862385102
  0
LINE
  5
2F8
100
AcDbEntity
  8
349160010
100
AcDbLine
 62
7
  6
CONTINUOUS
 10
74.1313655936
 20
89.7673256087
 11
76.181975259
 21
88.742020776
  0
LINE
  5
2F9
100
AcDbEntity
  8
349160010
100
AcDbLine
 62
7
  6
CONTINUOUS
 10
78.1618742463
 20
87.7520712823
 11
80.2124839118
 21
86.7267664496
  0
LINE
  5
2FA
100
AcDbEntity
  8
268160210
100
AcDbLine
 62
7
  6
CONTINUOUS
 10
85.86752561
 20
85.1271868957
 11
85.2764386685
 21
85.4227303664
  0
LINE
  5
2FB
100
AcDbEntity
  8
268160210
100
AcDbLine
 62
7
  6
CONTINUOUS
 10
73.3188793836
 20
91.4015100089
 11
72.3033159418
 21
91.9092917298
  0
LINE
  5
2FC
100
AcDbEntity
  8
349160010
100
AcDbLine
 62
7
  6
CONTINUOUS
 10
83.4767382782
 20
86.4405526905
 11
82.2005241704
 21
87.0786597444
  0
LINE
  5
2FD
100
AcDbEntity
  8
349160010
100
AcDbLine
 62
7
  6
CONTINUOUS
 10
75.1648116975
 20
90.5965159808
 11
76.614380599
 21
89.8717315301
  0
LINE
  5
2FE
100
AcDbEntity
  8
268160210
100
AcDbLine
 62
250
  6
CONTINUOUS
 10
75.2355223757
 20
90.6148886511
 11
76.7911572943
 21
89.8370711918
  0
LINE
  5
2FF
100
AcDbEntity
  8
268160210
100
AcDbLine
 62
250
  6
CONTINUOUS
 10
82.4480115438
 20
87.0086440671
 11
83.5299974103
 21
86.4676511338
  0
LINE
  5
300
100
AcDbEntity
  8
268160210
100
AcDbLine
 62
7
  6
CONTINUOUS
 10
84.0036464624
 20
86.7086455223
 11
82.4480115438
 21
87.4864629816
  0
LINE
  5
301
100
AcDbEntity
  8
268160210
100
AcDbLine
 62
7
  6
CONTINUOUS
 10
76.7911572943
 20
90.3148901064
 11
75.2355223757
 21
91.0927075657
  0
LINE
  5
302
100
AcDbEntity
  8
349160010
100
AcDbLine
 62
250
  6
CONTINUOUS
 10
82.8011558526
 20
87.663035136
 11
78.2252513724
 21
89.9509873761
  0
LINE
  5
303
100
AcDbEntity
  8
268160210
100
AcDbLine
 62
7
  6
CONTINUOUS
 10
84.3743781844
 20
86.9228307185
 11
82.847562601
 21
87.6862385102
  0
LINE
  5
304
100
AcDbEntity
  8
268160210
100
AcDbLine
 62
7
  6
CONTINUOUS
 10
77.1907083515
 20
90.514665635
 11
75.6638927681
 21
91.2780734267
  0
LINE
  5
305
100
AcDbEntity
  8
349160010
100
AcDbLine
 62
7
  6
CONTINUOUS
 10
78.4310863973
 20
89.9163680493
 11
82.8870614805
 21
87.6883805077
  0
LINE
  5
306
100
AcDbEntity
  8
RACCORDO
100
AcDbLine
 62
7
  6
CONTINUOUS
 10
97.9617055763
 20
63.4162894345
 11
97.9617156596
 21
57.8782880795
  0
LINE
  5
307
100
AcDbEntity
  8
RACCORDO
100
AcDbLine
 62
250
  6
CONTINUOUS
 10
90.1907070423
 20
49.2489256765
 11
96.5861751494
 21
52.6994274431
  0
LINE
  5
308
100
AcDbEntity
  8
RACCORDO
100
AcDbLine
 62
7
  6
CONTINUOUS
 10
96.4639171594
 20
52.4330516002
 11
90.2468390822
 21
49.0787953473
  0
LINE
  5
309
100
AcDbEntity
  8
268160210
100
AcDbLine
 62
7
  6
CONTINUOUS
 10
78.855210134
 20
43.4235347498
 11
78.9603734019
 21
43.4743122434
  0
LINE
  5
30A
100
AcDbEntity
  8
290160210
100
AcDbLine
 62
250
  6
CONTINUOUS
 10
73.9393606831
 20
42.8530030027
 11
80.1354418988
 21
44.6624490517
  0
LINE
  5
30B
100
AcDbEntity
  8
290160210
100
AcDbLine
 62
7
  6
CONTINUOUS
 10
80.015667477
 20
44.4831417609
 11
73.8148617232
 21
42.6723161228
  0
LINE
  5
30C
100
AcDbEntity
  8
349160010
100
AcDbLine
 62
7
  6
CONTINUOUS
 10
76.1888969129
 20
88.6575835601
 11
74.2386512282
 21
88.4585487631
  0
LINE
  5
30D
100
AcDbEntity
  8
349160010
100
AcDbLine
 62
7
  6
CONTINUOUS
 10
72.375687781
 20
89.3090540977
 11
73.7680413301
 21
89.4511525052
  0
LINE
  5
30E
100
AcDbEntity
  8
349160010
100
AcDbLine
 62
7
  6
CONTINUOUS
 10
78.2252513724
 20
89.9509873761
 11
76.8903016576
 21
89.8147473897
  0
LINE
  5
30F
100
AcDbEntity
  8
349160010
100
AcDbLine
 62
7
  6
CONTINUOUS
 10
71.9051988502
 20
89.625274952
 11
73.8554445349
 21
89.8243097491
  0
LWPOLYLINE
  5
310
100
AcDbEntity
  8
RACCORDO
100
AcDbPolyline
 62
7
  6
CONTINUOUS
 90
29
 70
0
 10
72.8863046052
 20
94.3912755602
 10
72.8703450921
 20
94.3988150803
 10
72.8540651788
 20
94.4058278678
 10
72.8374760131
 20
94.4123022851
 10
72.8205883992
 20
94.4182272911
 10
72.8034145433
 20
94.4235918318
 10
72.7859667893
 20
94.4283858497
 10
72.7682560291
 20
94.4326003758
 10
72.7502945285
 20
94.4362263874
 10
72.7320956147
 20
94.4392552077
 10
72.7136712437
 20
94.4416794011
 10
72.6950345647
 20
94.4434918409
 10
72.6761980116
 20
94.4446858226
 10
72.657171467
 20
94.445255321
 10
72.6379682461
 20
94.4451948242
 10
72.6185996166
 20
94.4444990994
 10
72.599071101
 20
94.4431625987
 10
72.5793940996
 20
94.4411804313
 10
72.5595801873
 20
94.4385480402
 10
72.5396338199
 20
94.4352596705
 10
72.5195661729
 20
94.4313106709
 10
72.4993878578
 20
94.4266967851
 10
72.4791014469
 20
94.4214114314
 10
72.4587179449
 20
94.4154497562
 10
72.4382469535
 20
94.4088069977
 10
72.4176882763
 20
94.4014745296
 10
72.3970489865
 20
94.3934453435
 10
72.3763449092
 20
94.3847164102
 10
72.3613367011
 20
94.3779644105
  0
LINE
  5
311
100
AcDbEntity
  8
268160210
100
AcDbLine
 62
250
  6
CONTINUOUS
 10
76.9409907071
 20
91.3599038515
 11
78.3944374302
 21
90.6331804899
  0
LINE
  5
312
100
AcDbEntity
  8
268160210
100
AcDbLine
 62
250
  6
CONTINUOUS
 10
84.2434050908
 20
87.7086966596
 11
85.1073318477
 21
87.2767332811
  0
LINE
  5
313
100
AcDbEntity
  8
268160210
100
AcDbLine
 62
7
  6
CONTINUOUS
 10
77.0933377075
 20
91.3308359675
 11
78.4273109881
 21
90.6638493272
  0
LINE
  5
314
100
AcDbEntity
  8
268160210
100
AcDbLine
 62
7
  6
CONTINUOUS
 10
84.5206384705
 20
87.617185586
 11
85.1552596956
 21
87.2998749735
  0
LINE
  5
315
100
AcDbEntity
  8
268160210
100
AcDbLine
 62
7
  6
CONTINUOUS
 10
87.9405347692
 20
86.1193746829
 11
87.3091529345
 21
86.4350656002
  0
LINE
  5
316
100
AcDbEntity
  8
268160210
100
AcDbLine
 62
7
  6
CONTINUOUS
 10
75.3539393466
 20
92.4126723941
 11
75.0727838859
 21
92.5532501245
  0
LINE
  5
317
100
AcDbEntity
  8
268160210
100
AcDbLine
 62
250
  6
CONTINUOUS
 10
86.7799462894
 20
86.8372396545
 11
85.511071849
 21
87.4716768747
  0
LINE
  5
318
100
AcDbEntity
  8
268160210
100
AcDbLine
 62
250
  6
CONTINUOUS
 10
76.7615850804
 20
91.846420259
 11
75.4927106399
 21
92.4808574792
  0
LINE
  5
319
100
AcDbEntity
  8
268160210
100
AcDbLine
 62
7
  6
CONTINUOUS
 10
87.1146459597
 20
86.860156301
 11
85.854611751
 21
87.4901734053
  0
LINE
  5
31A
100
AcDbEntity
  8
268160210
100
AcDbLine
 62
7
  6
CONTINUOUS
 10
77.0933377075
 20
91.8708104271
 11
75.8333034988
 21
92.5008275314
  0
LINE
  5
31B
100
AcDbEntity
  8
RACCORDO
100
AcDbLine
 62
250
  6
CONTINUOUS
 10
72.4476599148
 20
94.3708053911
 11
73.4447407986
 21
93.8722649492
  0
LINE
  5
31C
100
AcDbEntity
  8
RACCORDO
100
AcDbLine
 62
250
  6
CONTINUOUS
 10
88.5061152379
 20
86.3415777296
 11
89.5031961217
 21
85.8430372877
  0
LINE
  5
31D
100
AcDbEntity
  8
RACCORDO
100
AcDbLine
 62
7
  6
CONTINUOUS
 10
72.8863046052
 20
94.3912755602
 11
73.8796136791
 21
93.8946282788
  0
LINE
  5
31E
100
AcDbEntity
  8
RACCORDO
100
AcDbLine
 62
7
  6
CONTINUOUS
 10
88.9409881184
 20
86.3639410592
 11
89.9319964238
 21
85.8684369065
  0
LINE
  5
31F
100
AcDbEntity
  8
268160210
100
AcDbLine
 62
250
  6
CONTINUOUS
 10
78.855210134
 20
40.5366505018
 11
82.6040825591
 21
42.3073912656
  0
LINE
  5
320
100
AcDbEntity
  8
268160210
100
AcDbLine
 62
7
  6
CONTINUOUS
 10
78.788318806
 20
40.4005160581
 11
82.2374281501
 21
42.0296668592
  0
LINE
  5
321
100
AcDbEntity
  8
349160010
100
AcDbLine
 62
7
  6
CONTINUOUS
 10
70.519455936
 20
90.1224283063
 11
75.1648116975
 21
90.5965159808
  0
LINE
  5
322
100
AcDbEntity
  8
268160210
100
AcDbLine
 62
7
  6
CONTINUOUS
 10
76.9409907071
 20
91.3599038515
 11
75.6638927681
 21
91.2780734267
  0
LINE
  5
323
100
AcDbEntity
  8
268160210
100
AcDbLine
 62
7
  6
CONTINUOUS
 10
78.1346601785
 20
90.5658555028
 11
77.1907083515
 21
90.514665635
  0
LINE
  5
324
100
AcDbEntity
  8
RACCORDO
100
AcDbLine
 62
250
  6
CONTINUOUS
 10
79.8479753386
 20
92.7409144421
 11
96.2326756067
 21
84.5485643081
  0
LINE
  5
325
100
AcDbEntity
  8
RACCORDO
100
AcDbLine
 62
7
  6
CONTINUOUS
 10
80.0654117789
 20
92.7520961069
 11
96.4501120469
 21
84.5597459729
  0
LWPOLYLINE
  5
326
100
AcDbEntity
  8
RACCORDO
100
AcDbPolyline
 62
7
  6
CONTINUOUS
 90
55
 70
0
 10
89.595691018
 20
44.5121375765
 10
89.6107870319
 20
44.520478669
 10
89.6312533275
 20
44.5324185533
 10
89.6515472054
 20
44.5449849058
 10
89.6716603684
 20
44.5581656064
 10
89.6915837675
 20
44.571947495
 10
89.7113053401
 20
44.5863154063
 10
89.7308175772
 20
44.6012573381
 10
89.7501120524
 20
44.6167603737
 10
89.7691742564
 20
44.6328068911
 10
89.7879958069
 20
44.6493838044
 10
89.8065687381
 20
44.6664780793
 10
89.8248783582
 20
44.6840706632
 10
89.8429165747
 20
44.7021479827
 10
89.8606751842
 20
44.7206962089
 10
89.8781388263
 20
44.7396940808
 10
89.8952990228
 20
44.7591265703
 10
89.9121483188
 20
44.7789797737
 10
89.9286727885
 20
44.7992322118
 10
89.9448626791
 20
44.8198660476
 10
89.9607124733
 20
44.8408688919
 10
89.9762145223
 20
44.8622260474
 10
89.9913607847
 20
44.8839215324
 10
90.0061441408
 20
44.9059409546
 10
90.0205581824
 20
44.9282711694
 10
90.0345953515
 20
44.9508967047
 10
90.0482481537
 20
44.9738025888
 10
90.0615103229
 20
44.9969757898
 10
90.0743741751
 20
45.0204003375
 10
90.0868325462
 20
45.0440616551
 10
90.0988801066
 20
45.0679484035
 10
90.1105094776
 20
45.09204512
 10
90.1217132304
 20
45.1163367265
 10
90.1324861236
 20
45.1408123425
 10
90.1428209767
 20
45.1654569916
 10
90.1527101538
 20
45.1902550863
 10
90.1621479391
 20
45.2151949366
 10
90.1711275489
 20
45.2402627172
 10
90.1796409766
 20
45.2654416089
 10
90.1876810897
 20
45.2907157292
 10
90.1952409085
 20
45.3160701123
 10
90.2023131755
 20
45.3414889528
 10
90.2088908797
 20
45.3669556264
 10
90.214967176
 20
45.392454881
 10
90.2205352443
 20
45.4179712327
 10
90.225588447
 20
45.4434885125
 10
90.2301200452
 20
45.4689913663
 10
90.2341235439
 20
45.4944645737
 10
90.2375926377
 20
45.5198930895
 10
90.2405205838
 20
45.5452613299
 10
90.2429009801
 20
45.570554827
 10
90.2447274997
 20
45.5957613759
 10
90.2459932265
 20
45.6208672535
 10
90.2466914799
 20
45.6458547096
 10
90.2468390535
 20
45.6636284243
  0
LINE
  5
327
100
AcDbEntity
  8
RACCORDO
100
AcDbLine
 62
250
  6
CONTINUOUS
 10
89.6445959387
 20
44.6186888124
 11
84.0743571405
 21
41.61341719
  0
LINE
  5
328
100
AcDbEntity
  8
RACCORDO
100
AcDbLine
 62
7
  6
CONTINUOUS
 10
89.5956927428
 20
44.5121384752
 11
84.024461382
 21
41.5063313426
  0
LINE
  5
329
100
AcDbEntity
  8
268160210
100
AcDbLine
 62
250
  6
CONTINUOUS
 10
84.0743571405
 20
41.6567201094
 11
82.6040825591
 21
40.9622512558
  0
LINE
  5
32A
100
AcDbEntity
  8
268160210
100
AcDbLine
 62
7
  6
CONTINUOUS
 10
84.0075076997
 20
41.5206054507
 11
82.5371912308
 21
40.826116812
  0
ARC
  5
32B
100
AcDbEntity
  8
290160210
100
AcDbCircle
 62
250
  6
CONTINUOUS
 10
597.1001495435
 20
7.944905877
 40
525.2157703378
100
AcDbArc
 50
172.8857521704
 51
173.3254044622
  0
ARC
  5
32C
100
AcDbEntity
  8
RACCORDO
100
AcDbCircle
 62
7
  6
CONTINUOUS
 10
96.2265052492
 20
52.8730920357
 40
0.5
100
AcDbArc
 50
298.3477572782
 51
360.0
  0
ARC
  5
32D
100
AcDbEntity
  8
RACCORDO
100
AcDbCircle
 62
7
  6
CONTINUOUS
 10
79.8418049811
 20
92.3048825114
 40
0.5
100
AcDbArc
 50
63.4349488229
 51
114.7889082971
  0
ARC
  5
32E
100
AcDbEntity
  8
RACCORDO
100
AcDbCircle
 62
7
  6
CONTINUOUS
 10
96.2265052492
 20
84.1125323774
 40
0.5
100
AcDbArc
 50
0.0
 51
63.4353698633
  0
ARC
  5
32F
100
AcDbEntity
  8
RACCORDO
100
AcDbCircle
 62
7
  6
CONTINUOUS
 10
78.1392627858
 20
85.0508188814
 40
0.44775524
100
AcDbArc
 50
33.758444169
 51
35.7010745329
  0
ARC
  5
330
100
AcDbEntity
  8
RACCORDO
100
AcDbCircle
 62
250
  6
CONTINUOUS
 10
96.618249629
 20
55.6017558863
 40
0.3948788713
100
AcDbArc
 50
116.0598743655
 51
117.0502942259
  0
ARC
  5
331
100
AcDbEntity
  8
RACCORDO
100
AcDbCircle
 62
250
  6
CONTINUOUS
 10
72.7161295489
 20
94.0451821115
 40
0.3856664583
100
AcDbArc
 50
64.0810986032
 51
64.972282996
  0
ARC
  5
332
100
AcDbEntity
  8
RACCORDO
100
AcDbCircle
 62
250
  6
CONTINUOUS
 10
72.7161893559
 20
94.045306033
 40
0.3855288601
100
AcDbArc
 50
63.4345727177
 51
64.0810429056
  0
ARC
  5
333
100
AcDbEntity
  8
RACCORDO
100
AcDbCircle
 62
250
  6
CONTINUOUS
 10
88.7732923391
 20
86.0285541532
 40
0.3749749663
100
AcDbArc
 50
63.4346308922
 51
65.01733198
  0
ARC
  5
334
100
AcDbEntity
  8
RACCORDO
100
AcDbCircle
 62
250
  6
CONTINUOUS
 10
96.3522956054
 20
62.3709943393
 40
0.374209595
100
AcDbArc
 50
359.4322605865
 51
0.0007070762
  0
ARC
  5
335
100
AcDbEntity
  8
268160210
100
AcDbCircle
 62
7
  6
CONTINUOUS
 10
78.6815455414
 20
40.6265679768
 40
0.25
100
AcDbArc
 50
243.4349488229
 51
295.2851285316
  0
ARC
  5
336
100
AcDbEntity
  8
268160210
100
AcDbCircle
 62
7
  6
CONTINUOUS
 10
61.6778722389
 20
87.4647283064
 40
0.25
100
AcDbArc
 50
117.8640025146
 51
180.0000756668
  0
ARC
  5
337
100
AcDbEntity
  8
RACCORDO
100
AcDbCircle
 62
250
  6
CONTINUOUS
 10
96.471276442
 20
62.3342225155
 40
0.2419649538
100
AcDbArc
 50
297.3757037567
 51
298.3500276911
  0
ARC
  5
338
100
AcDbEntity
  8
RACCORDO
100
AcDbCircle
 62
250
  6
CONTINUOUS
 10
96.6908735928
 20
55.5015490715
 40
0.2356032429
100
AcDbArc
 50
116.383969819
 51
117.3757538579
  0
ARC
  5
339
100
AcDbEntity
  8
268160210
100
AcDbCircle
 62
7
  6
CONTINUOUS
 10
76.5681470188
 20
89.8371668523
 40
0.223010296
100
AcDbArc
 50
355.3907724855
 51
359.9754229284
  0
ARC
  5
33A
100
AcDbEntity
  8
RACCORDO
100
AcDbCircle
 62
250
  6
CONTINUOUS
 10
96.4948275904
 20
62.0803439169
 40
0.0778484392
100
AcDbArc
 50
297.8091708235
 51
301.8130315133
  0
ARC
  5
33B
100
AcDbEntity
  8
RACCORDO
100
AcDbCircle
 62
250
  6
CONTINUOUS
 10
96.4949225301
 20
62.0801709769
 40
0.0776511807
100
AcDbArc
 50
297.3750108801
 51
297.8067407922
  0
SPLINE
  5
33C
100
AcDbEntity
  8
349160010
100
AcDbSpline
 62
7
  6
CONTINUOUS
 70
0
 71
3
 72
10
 73
6
 74
0
 42
0.0000001
 43
0.0000001
 44
0.0000000001
 40
0.0
 40
0.0
 40
0.0
 40
0.0
 40
0.227718362
 40
0.4659068867
 40
1.0
 40
1.0
 40
1.0
 40
1.0
 10
76.4423948279
 20
85.2740640972
 30
0.0
 10
76.4486759562
 20
85.2772041578
 30
0.0
 10
76.4625215258
 20
85.281809251
 30
0.0
 10
76.4936068227
 20
85.2833736456
 30
0.0
 10
76.5171060081
 20
85.2757497887
 30
0.0
 10
76.531837362
 20
85.2683841117
 30
0.0
  0
SPLINE
  5
33D
100
AcDbEntity
  8
349160010
100
AcDbSpline
 62
7
  6
CONTINUOUS
 70
0
 71
3
 72
11
 73
7
 74
0
 42
0.0000001
 43
0.0000001
 44
0.0000000001
 40
0.0
 40
0.0
 40
0.0
 40
0.0
 40
0.1668663968
 40
0.3782782406
 40
0.6547525796
 40
1.0
 40
1.0
 40
1.0
 40
1.0
 10
80.2727132266
 20
86.6674292735
 30
0.0
 10
80.2719286078
 20
86.6640797341
 30
0.0
 10
80.2674792579
 20
86.6571106082
 30
0.0
 10
80.2556804332
 20
86.6500830303
 30
0.0
 10
80.2392067214
 20
86.6449506766
 30
0.0
 10
80.2264865957
 20
86.6430518973
 30
0.0
 10
80.2194055656
 20
86.6423292338
 30
0.0
  0
SPLINE
  5
33E
100
AcDbEntity
  8
349160010
100
AcDbSpline
 62
7
  6
CONTINUOUS
 70
0
 71
3
 72
11
 73
7
 74
0
 42
0.0000001
 43
0.0000001
 44
0.0000000001
 40
0.0
 40
0.0
 40
0.0
 40
0.0
 40
0.1668663968
 40
0.3782782406
 40
0.6547525796
 40
1.0
 40
1.0
 40
1.0
 40
1.0
 10
76.2422045738
 20
88.6826835998
 30
0.0
 10
76.2414199551
 20
88.6793340604
 30
0.0
 10
76.2369706051
 20
88.6723649346
 30
0.0
 10
76.2251717804
 20
88.6653373567
 30
0.0
 10
76.2086980687
 20
88.660205003
 30
0.0
 10
76.1959779429
 20
88.6583062237
 30
0.0
 10
76.1888969129
 20
88.6575835601
 30
0.0
  0
SPLINE
  5
33F
100
AcDbEntity
  8
349160010
100
AcDbSpline
 62
7
  6
CONTINUOUS
 70
0
 71
3
 72
9
 73
5
 74
0
 42
0.0000001
 43
0.0000001
 44
0.0000000001
 40
0.0
 40
0.0
 40
0.0
 40
0.0
 40
0.4951300315
 40
1.0
 40
1.0
 40
1.0
 40
1.0
 10
78.4310866878
 20
89.9163686412
 30
0.0
 10
78.4126248752
 20
89.9256000535
 30
0.0
 10
78.3735285179
 20
89.9408146085
 30
0.0
 10
78.3323631871
 20
89.9487643517
 30
0.0
 10
78.3114368738
 20
89.9510169359
 30
0.0
  0
SPLINE
  5
340
100
AcDbEntity
  8
349160010
100
AcDbSpline
 62
7
  6
CONTINUOUS
 70
0
 71
3
 72
9
 73
5
 74
0
 42
0.0000001
 43
0.0000001
 44
0.0000000001
 40
0.0
 40
0.0
 40
0.0
 40
0.0
 40
0.2447357831
 40
1.0
 40
1.0
 40
1.0
 40
1.0
 10
78.3114368738
 20
89.9510169359
 30
0.0
 10
78.3044390907
 20
89.9517702026
 30
0.0
 10
78.2757632666
 20
89.9540546336
 30
0.0
 10
78.2468593227
 20
89.9531926029
 30
0.0
 10
78.2252513724
 20
89.9509873761
 30
0.0
  0
SPLINE
  5
341
100
AcDbEntity
  8
349160010
100
AcDbSpline
 62
7
  6
CONTINUOUS
 70
0
 71
3
 72
12
 73
8
 74
0
 42
0.0000001
 43
0.0000001
 44
0.0000000001
 40
0.0
 40
0.0
 40
0.0
 40
0.0
 40
0.1019075767
 40
0.2190147433
 40
0.4829783949
 40
0.755955919
 40
1.0
 40
1.0
 40
1.0
 40
1.0
 10
76.8903016576
 20
89.8147473897
 30
0.0
 10
76.8806892544
 20
89.8137663837
 30
0.0
 10
76.8598927199
 20
89.812989761
 30
0.0
 10
76.8141201385
 20
89.8151935288
 30
0.0
 10
76.7526410363
 20
89.8246034256
 30
0.0
 10
76.6809533891
 20
89.843532297
 30
0.0
 10
76.6350767113
 20
89.8613834739
 30
0.0
 10
76.614380599
 20
89.8717315301
 30
0.0
  0
SPLINE
  5
342
100
AcDbEntity
  8
349160010
100
AcDbSpline
 62
7
  6
CONTINUOUS
 70
0
 71
3
 72
9
 73
5
 74
0
 42
0.0000001
 43
0.0000001
 44
0.0000000001
 40
0.0
 40
0.0
 40
0.0
 40
0.0
 40
0.2656286414
 40
1.0
 40
1.0
 40
1.0
 40
1.0
 10
70.3665003275
 20
90.0756209122
 30
0.0
 10
70.3792054071
 20
90.081973452
 30
0.0
 10
70.427877978
 20
90.1040735506
 30
0.0
 10
70.4803877515
 20
90.1184411532
 30
0.0
 10
70.519455936
 20
90.1224283063
 30
0.0
  0
SPLINE
  5
343
100
AcDbEntity
  8
349160010
100
AcDbSpline
 62
7
  6
CONTINUOUS
 70
0
 71
3
 72
11
 73
7
 74
0
 42
0.0000001
 43
0.0000001
 44
0.0000000001
 40
0.0
 40
0.0
 40
0.0
 40
0.0
 40
0.3613457637
 40
0.5147902974
 40
0.6488131342
 40
1.0
 40
1.0
 40
1.0
 40
1.0
 10
82.2005241704
 20
87.0786597444
 30
0.0
 10
82.1910673114
 20
87.0833881739
 30
0.0
 10
82.1778922681
 20
87.0906674314
 30
0.0
 10
82.1623125407
 20
87.1018088224
 30
0.0
 10
82.1484945206
 20
87.1135822929
 30
0.0
 10
82.137951215
 20
87.1279919128
 30
0.0
 10
82.1402948556
 20
87.1379969206
 30
0.0
  0
SPLINE
  5
344
100
AcDbEntity
  8
349160010
100
AcDbSpline
 62
7
  6
CONTINUOUS
 70
0
 71
3
 72
15
 73
11
 74
0
 42
0.0000001
 43
0.0000001
 44
0.0000000001
 40
0.0
 40
0.0
 40
0.0
 40
0.0
 40
0.1197400429
 40
0.2468321982
 40
0.3784575399
 40
0.511666381
 40
0.6432400042
 40
0.7701010525
 40
0.8897103295
 40
1.0
 40
1.0
 40
1.0
 40
1.0
 10
69.5079574481
 20
89.0401316898
 30
0.0
 10
69.5079574481
 20
89.0812495676
 30
0.0
 10
69.5149679567
 20
89.166094023
 30
0.0
 10
69.5433900662
 20
89.2932571162
 30
0.0
 10
69.5890921538
 20
89.4202078042
 30
0.0
 10
69.6502852238
 20
89.5421610158
 30
0.0
 10
69.7247366746
 20
89.6545585004
 30
0.0
 10
69.8096552883
 20
89.7532551047
 30
0.0
 10
69.9019011755
 20
89.8344825306
 30
0.0
 10
69.9690578337
 20
89.8768996653
 30
0.0
 10
70.0029321949
 20
89.8938368459
 30
0.0
  0
SPLINE
  5
345
100
AcDbEntity
  8
349160010
100
AcDbSpline
 62
7
  6
CONTINUOUS
 70
0
 71
3
 72
11
 73
7
 74
0
 42
0.0000001
 43
0.0000001
 44
0.0000000001
 40
0.0
 40
0.0
 40
0.0
 40
0.0
 40
0.2279059286
 40
0.4839745214
 40
0.7487298764
 40
1.0
 40
1.0
 40
1.0
 40
1.0
 10
70.9693589083
 20
88.0496233385
 30
0.0
 10
70.9882770885
 20
88.0401642484
 30
0.0
 10
71.0246315169
 20
88.0123630891
 30
0.0
 10
71.0676135584
 20
87.957058592
 30
0.0
 10
71.0983647469
 20
87.8917293711
 30
0.0
 10
71.1086375605
 20
87.844336724
 30
0.0
 10
71.1102421136
 20
87.8210724726
 30
0.0
  0
SPLINE
  5
346
100
AcDbEntity
  8
349160010
100
AcDbSpline
 62
7
  6
CONTINUOUS
 70
0
 71
3
 72
12
 73
8
 74
0
 42
0.0000001
 43
0.0000001
 44
0.0000000001
 40
0.0
 40
0.0
 40
0.0
 40
0.0
 40
0.1019075767
 40
0.2190147433
 40
0.4829783949
 40
0.755955919
 40
1.0
 40
1.0
 40
1.0
 40
1.0
 10
78.2691598809
 20
86.4432944367
 30
0.0
 10
78.2595474777
 20
86.4423134307
 30
0.0
 10
78.2387509432
 20
86.4415368079
 30
0.0
 10
78.1929783618
 20
86.4437405757
 30
0.0
 10
78.1314992596
 20
86.4531504726
 30
0.0
 10
78.0598116124
 20
86.4720793439
 30
0.0
 10
78.0139349346
 20
86.4899305209
 30
0.0
 10
77.9932388223
 20
86.5002785771
 30
0.0
  0
SPLINE
  5
347
100
AcDbEntity
  8
349160010
100
AcDbSpline
 62
7
  6
CONTINUOUS
 70
0
 71
3
 72
12
 73
8
 74
0
 42
0.0000001
 43
0.0000001
 44
0.0000000001
 40
0.0
 40
0.0
 40
0.0
 40
0.0
 40
0.1019075767
 40
0.2190147433
 40
0.4829783949
 40
0.755955919
 40
1.0
 40
1.0
 40
1.0
 40
1.0
 10
74.2386512282
 20
88.4585487631
 30
0.0
 10
74.229038825
 20
88.4575677571
 30
0.0
 10
74.2082422904
 20
88.4567911343
 30
0.0
 10
74.1624697091
 20
88.4589949021
 30
0.0
 10
74.1009906069
 20
88.4684047989
 30
0.0
 10
74.0293029597
 20
88.4873336703
 30
0.0
 10
73.9834262819
 20
88.5051848473
 30
0.0
 10
73.9627301695
 20
88.5155329034
 30
0.0
  0
SPLINE
  5
348
100
AcDbEntity
  8
349160010
100
AcDbSpline
 62
7
  6
CONTINUOUS
 70
0
 71
3
 72
11
 73
7
 74
0
 42
0.0000001
 43
0.0000001
 44
0.0000000001
 40
0.0
 40
0.0
 40
0.0
 40
0.0
 40
0.3613457637
 40
0.5147902974
 40
0.6488131342
 40
1.0
 40
1.0
 40
1.0
 40
1.0
 10
75.9426291569
 20
87.5255834098
 30
0.0
 10
75.9331722979
 20
87.5303118393
 30
0.0
 10
75.9199972546
 20
87.5375910968
 30
0.0
 10
75.9044175272
 20
87.5487324878
 30
0.0
 10
75.8905995071
 20
87.5605059583
 30
0.0
 10
75.8800562015
 20
87.5749155782
 30
0.0
 10
75.8823998421
 20
87.5849205859
 30
0.0
  0
SPLINE
  5
349
100
AcDbEntity
  8
349160010
100
AcDbSpline
 62
7
  6
CONTINUOUS
 70
0
 71
3
 72
11
 73
7
 74
0
 42
0.0000001
 43
0.0000001
 44
0.0000000001
 40
0.0
 40
0.0
 40
0.0
 40
0.0
 40
0.3613457637
 40
0.5147902974
 40
0.6488131342
 40
1.0
 40
1.0
 40
1.0
 40
1.0
 10
71.9121205041
 20
89.5408377362
 30
0.0
 10
71.9026636451
 20
89.5455661656
 30
0.0
 10
71.8894886018
 20
89.5528454232
 30
0.0
 10
71.8739088744
 20
89.5639868142
 30
0.0
 10
71.8600908543
 20
89.5757602847
 30
0.0
 10
71.8495475488
 20
89.5901699046
 30
0.0
 10
71.8518911893
 20
89.6001749123
 30
0.0
  0
SPLINE
  5
34A
100
AcDbEntity
  8
349160010
100
AcDbSpline
 62
7
  6
CONTINUOUS
 70
0
 71
3
 72
11
 73
7
 74
0
 42
0.0000001
 43
0.0000001
 44
0.0000000001
 40
0.0
 40
0.0
 40
0.0
 40
0.0
 40
0.1668663968
 40
0.3782782406
 40
0.6547525796
 40
1.0
 40
1.0
 40
1.0
 40
1.0
 10
82.1402948556
 20
87.1379969206
 30
0.0
 10
82.1410794743
 20
87.14134646
 30
0.0
 10
82.1455288243
 20
87.1483155858
 30
0.0
 10
82.157327649
 20
87.1553431637
 30
0.0
 10
82.1738013607
 20
87.1604755174
 30
0.0
 10
82.1865214865
 20
87.1623742967
 30
0.0
 10
82.1936025165
 20
87.1630969603
 30
0.0
  0
SPLINE
  5
34B
100
AcDbEntity
  8
349160010
100
AcDbSpline
 62
7
  6
CONTINUOUS
 70
0
 71
3
 72
11
 73
7
 74
0
 42
0.0000001
 43
0.0000001
 44
0.0000000001
 40
0.0
 40
0.0
 40
0.0
 40
0.0
 40
0.1668663968
 40
0.3782782406
 40
0.6547525796
 40
1.0
 40
1.0
 40
1.0
 40
1.0
 10
71.8518911893
 20
89.6001749123
 30
0.0
 10
71.852675808
 20
89.6035244517
 30
0.0
 10
71.857125158
 20
89.6104935776
 30
0.0
 10
71.8689239827
 20
89.6175211555
 30
0.0
 10
71.8853976944
 20
89.6226535092
 30
0.0
 10
71.8981178202
 20
89.6245522885
 30
0.0
 10
71.9051988502
 20
89.625274952
 30
0.0
  0
SPLINE
  5
34C
100
AcDbEntity
  8
349160010
100
AcDbSpline
 62
7
  6
CONTINUOUS
 70
0
 71
3
 72
11
 73
7
 74
0
 42
0.0000001
 43
0.0000001
 44
0.0000000001
 40
0.0
 40
0.0
 40
0.0
 40
0.0
 40
0.3613457637
 40
0.5147902974
 40
0.6488131342
 40
1.0
 40
1.0
 40
1.0
 40
1.0
 10
80.2124839118
 20
86.7267664496
 30
0.0
 10
80.2219407707
 20
86.7220380201
 30
0.0
 10
80.2351158141
 20
86.7147587626
 30
0.0
 10
80.2506955415
 20
86.7036173716
 30
0.0
 10
80.2645135615
 20
86.6918439011
 30
0.0
 10
80.2750568671
 20
86.6774342812
 30
0.0
 10
80.2727132266
 20
86.6674292735
 30
0.0
  0
SPLINE
  5
34D
100
AcDbEntity
  8
349160010
100
AcDbSpline
 62
7
  6
CONTINUOUS
 70
0
 71
3
 72
11
 73
7
 74
0
 42
0.0000001
 43
0.0000001
 44
0.0000000001
 40
0.0
 40
0.0
 40
0.0
 40
0.0
 40
0.3613457637
 40
0.5147902974
 40
0.6488131342
 40
1.0
 40
1.0
 40
1.0
 40
1.0
 10
76.181975259
 20
88.742020776
 30
0.0
 10
76.191432118
 20
88.7372923465
 30
0.0
 10
76.2046071613
 20
88.730013089
 30
0.0
 10
76.2201868887
 20
88.718871698
 30
0.0
 10
76.2340049088
 20
88.7070982275
 30
0.0
 10
76.2445482143
 20
88.6926886076
 30
0.0
 10
76.2422045738
 20
88.6826835998
 30
0.0
  0
SPLINE
  5
34E
100
AcDbEntity
  8
349160010
100
AcDbSpline
 62
7
  6
CONTINUOUS
 70
0
 71
3
 72
12
 73
8
 74
0
 42
0.0000001
 43
0.0000001
 44
0.0000000001
 40
0.0
 40
0.0
 40
0.0
 40
0.0
 40
0.1019075767
 40
0.2190147433
 40
0.4829783949
 40
0.755955919
 40
1.0
 40
1.0
 40
1.0
 40
1.0
 10
77.8859531877
 20
87.8090554227
 30
0.0
 10
77.8955655909
 20
87.8100364287
 30
0.0
 10
77.9163621254
 20
87.8108130515
 30
0.0
 10
77.9621347068
 20
87.8086092837
 30
0.0
 10
78.023613809
 20
87.7991993868
 30
0.0
 10
78.0953014562
 20
87.7802705155
 30
0.0
 10
78.141178134
 20
87.7624193385
 30
0.0
 10
78.1618742463
 20
87.7520712823
 30
0.0
  0
SPLINE
  5
34F
100
AcDbEntity
  8
349160010
100
AcDbSpline
 62
7
  6
CONTINUOUS
 70
0
 71
3
 72
12
 73
8
 74
0
 42
0.0000001
 43
0.0000001
 44
0.0000000001
 40
0.0
 40
0.0
 40
0.0
 40
0.0
 40
0.1019075767
 40
0.2190147433
 40
0.4829783949
 40
0.755955919
 40
1.0
 40
1.0
 40
1.0
 40
1.0
 10
73.8554445349
 20
89.8243097491
 30
0.0
 10
73.8650569381
 20
89.8252907551
 30
0.0
 10
73.8858534727
 20
89.8260673779
 30
0.0
 10
73.931626054
 20
89.82386361
 30
0.0
 10
73.9931051562
 20
89.8144537132
 30
0.0
 10
74.0647928034
 20
89.7955248418
 30
0.0
 10
74.1106694812
 20
89.7776736649
 30
0.0
 10
74.1313655936
 20
89.7673256087
 30
0.0
  0
SPLINE
  5
350
100
AcDbEntity
  8
349160010
100
AcDbSpline
 62
7
  6
CONTINUOUS
 70
0
 71
3
 72
9
 73
5
 74
0
 42
0.0000001
 43
0.0000001
 44
0.0000000001
 40
0.0
 40
0.0
 40
0.0
 40
0.0
 40
0.2656286414
 40
1.0
 40
1.0
 40
1.0
 40
1.0
 10
78.8517817017
 20
85.8329802251
 30
0.0
 10
78.8644867813
 20
85.8393327648
 30
0.0
 10
78.9131593523
 20
85.8614328635
 30
0.0
 10
78.9656691258
 20
85.875800466
 30
0.0
 10
79.0047373103
 20
85.8797876192
 30
0.0
  0
SPLINE
  5
351
100
AcDbEntity
  8
349160010
100
AcDbSpline
 62
7
  6
CONTINUOUS
 70
0
 71
3
 72
11
 73
7
 74
0
 42
0.0000001
 43
0.0000001
 44
0.0000000001
 40
0.0
 40
0.0
 40
0.0
 40
0.0
 40
0.1668663968
 40
0.3782782406
 40
0.6547525796
 40
1.0
 40
1.0
 40
1.0
 40
1.0
 10
75.8823998421
 20
87.5849205859
 30
0.0
 10
75.8831844608
 20
87.5882701253
 30
0.0
 10
75.8876338108
 20
87.5952392512
 30
0.0
 10
75.8994326355
 20
87.6022668291
 30
0.0
 10
75.9159063472
 20
87.6073991828
 30
0.0
 10
75.9286264729
 20
87.6092979621
 30
0.0
 10
75.935707503
 20
87.6100206256
 30
0.0
  0
SPLINE
  5
352
100
AcDbEntity
  8
349160010
100
AcDbSpline
 62
7
  6
CONTINUOUS
 70
0
 71
3
 72
15
 73
11
 74
0
 42
0.0000001
 43
0.0000001
 44
0.0000000001
 40
0.0
 40
0.0
 40
0.0
 40
0.0
 40
0.1197400429
 40
0.2468321982
 40
0.3784575399
 40
0.511666381
 40
0.6432400042
 40
0.7701010525
 40
0.8897103295
 40
1.0
 40
1.0
 40
1.0
 40
1.0
 10
77.9932388223
 20
84.7974910027
 30
0.0
 10
77.9932388223
 20
84.8386088805
 30
0.0
 10
78.0002493309
 20
84.9234533359
 30
0.0
 10
78.0286714405
 20
85.0506164291
 30
0.0
 10
78.0743735281
 20
85.1775671171
 30
0.0
 10
78.1355665981
 20
85.2995203286
 30
0.0
 10
78.2100180488
 20
85.4119178133
 30
0.0
 10
78.2949366625
 20
85.5106144175
 30
0.0
 10
78.3871825498
 20
85.5918418435
 30
0.0
 10
78.4543392079
 20
85.6342589781
 30
0.0
 10
78.4882135691
 20
85.6511961588
 30
0.0
  0
SPLINE
  5
353
100
AcDbEntity
  8
349160010
100
AcDbSpline
 62
7
  6
CONTINUOUS
 70
0
 71
3
 72
11
 73
7
 74
0
 42
0.0000001
 43
0.0000001
 44
0.0000000001
 40
0.0
 40
0.0
 40
0.0
 40
0.0
 40
0.2854725589
 40
0.5436124477
 40
0.7786009019
 40
1.0
 40
1.0
 40
1.0
 40
1.0
 10
76.3909541567
 20
85.180716451
 30
0.0
 10
76.3917358776
 20
85.191268821
 30
0.0
 10
76.3948972678
 20
85.2113113931
 30
0.0
 10
76.4053623642
 20
85.2384848066
 30
0.0
 10
76.4211125938
 20
85.2602084336
 30
0.0
 10
76.4350546122
 20
85.2703945778
 30
0.0
 10
76.4423948279
 20
85.2740640972
 30
0.0
  0
SPLINE
  5
354
100
AcDbEntity
  8
290160210
100
AcDbSpline
 62
250
  6
CONTINUOUS
 70
0
 71
3
 72
11
 73
7
 74
0
 42
0.0000001
 43
0.0000001
 44
0.0000000001
 40
0.0
 40
0.0
 40
0.0
 40
0.0
 40
0.1820281271
 40
0.4002049716
 40
0.6727751937
 40
1.0
 40
1.0
 40
1.0
 40
1.0
 10
59.1006994784
 20
81.4612418556
 30
0.0
 10
59.0996610585
 20
81.4527826695
 30
0.0
 10
59.1029708043
 20
81.4333967912
 30
0.0
 10
59.1213463497
 20
81.4070929357
 30
0.0
 10
59.1509065248
 20
81.3823396245
 30
0.0
 10
59.1753352419
 20
81.3682451355
 30
0.0
 10
59.1890437347
 20
81.3614035696
 30
0.0
  0
SPLINE
  5
355
100
AcDbEntity
  8
290160210
100
AcDbSpline
 62
250
  6
CONTINUOUS
 70
0
 71
3
 72
9
 73
5
 74
0
 42
0.0000001
 43
0.0000001
 44
0.0000000001
 40
0.0
 40
0.0
 40
0.0
 40
0.0
 40
0.4745812475
 40
1.0
 40
1.0
 40
1.0
 40
1.0
 10
59.8083516576
 20
82.4790377913
 30
0.0
 10
59.8281727211
 20
82.4871293118
 30
0.0
 10
59.8747552007
 20
82.4935126875
 30
0.0
 10
59.9189789766
 20
82.4797357494
 30
0.0
 10
59.9403075625
 20
82.4693967371
 30
0.0
  0
SPLINE
  5
356
100
AcDbEntity
  8
290160210
100
AcDbSpline
 62
250
  6
CONTINUOUS
 70
0
 71
3
 72
11
 73
7
 74
0
 42
0.0000001
 43
0.0000001
 44
0.0000000001
 40
0.0
 40
0.0
 40
0.0
 40
0.0
 40
0.2118616436
 40
0.4432619294
 40
0.7053238523
 40
1.0
 40
1.0
 40
1.0
 40
1.0
 10
56.6099060365
 20
51.0790129775
 30
0.0
 10
56.5657558764
 20
51.1010889322
 30
0.0
 10
56.4824793424
 20
51.1673865709
 30
0.0
 10
56.3985935958
 20
51.3119832085
 30
0.0
 10
56.3544129093
 20
51.4921411662
 30
0.0
 10
56.3519499399
 20
51.6228154616
 30
0.0
 10
56.3564979206
 20
51.6913214333
 30
0.0
  0
SPLINE
  5
357
100
AcDbEntity
  8
290160210
100
AcDbSpline
 62
250
  6
CONTINUOUS
 70
0
 71
3
 72
11
 73
7
 74
0
 42
0.0000001
 43
0.0000001
 44
0.0000000001
 40
0.0
 40
0.0
 40
0.0
 40
0.0
 40
0.2852162745
 40
0.5450916627
 40
0.780111496
 40
1.0
 40
1.0
 40
1.0
 40
1.0
 10
73.9393606831
 20
42.8530030027
 30
0.0
 10
73.9366981347
 20
42.8311717088
 30
0.0
 10
73.9275683548
 20
42.78976584
 30
0.0
 10
73.90112803
 20
42.7349955948
 30
0.0
 10
73.8633263793
 20
42.6936211758
 30
0.0
 10
73.8313042758
 20
42.6771315522
 30
0.0
 10
73.8150300711
 20
42.6723730328
 30
0.0
  0
SPLINE
  5
358
100
AcDbEntity
  8
290160210
100
AcDbSpline
 62
250
  6
CONTINUOUS
 70
0
 71
3
 72
9
 73
5
 74
0
 42
0.0000001
 43
0.0000001
 44
0.0000000001
 40
0.0
 40
0.0
 40
0.0
 40
0.0
 40
0.2474635008
 40
1.0
 40
1.0
 40
1.0
 40
1.0
 10
56.3564979206
 20
51.6913214333
 30
0.0
 10
56.5199500215
 20
54.144615991
 30
0.0
 10
57.2527272136
 20
64.0534615707
 30
0.0
 10
58.2711632165
 20
73.9409435084
 30
0.0
 10
59.189032208
 20
81.3614000985
 30
0.0
  0
SPLINE
  5
359
100
AcDbEntity
  8
290160210
100
AcDbSpline
 62
250
  6
CONTINUOUS
 70
0
 71
3
 72
9
 73
5
 74
0
 42
0.0000001
 43
0.0000001
 44
0.0000000001
 40
0.0
 40
0.0
 40
0.0
 40
0.0
 40
0.2508211216
 40
1.0
 40
1.0
 40
1.0
 40
1.0
 10
76.3457443282
 20
72.9477048029
 30
0.0
 10
76.2363294791
 20
72.0710279017
 30
0.0
 10
75.8088937418
 20
68.5747092383
 30
0.0
 10
75.4167345276
 20
65.0740742548
 30
0.0
 10
75.1431840436
 20
62.4494250009
 30
0.0
  0
SPLINE
  5
35A
100
AcDbEntity
  8
290160210
100
AcDbSpline
 62
250
  6
CONTINUOUS
 70
0
 71
3
 72
9
 73
5
 74
0
 42
0.0000001
 43
0.0000001
 44
0.0000000001
 40
0.0
 40
0.0
 40
0.0
 40
0.0
 40
0.2516180684
 40
1.0
 40
1.0
 40
1.0
 40
1.0
 10
75.1431840436
 20
62.4494250009
 30
0.0
 10
74.9760721362
 20
60.8460275707
 30
0.0
 10
74.3419501776
 20
54.470593475
 30
0.0
 10
73.8286963781
 20
48.0830909981
 30
0.0
 10
73.5152094768
 20
43.2985697227
 30
0.0
  0
SPLINE
  5
35B
100
AcDbEntity
  8
290160210
100
AcDbSpline
 62
250
  6
CONTINUOUS
 70
0
 71
3
 72
9
 73
5
 74
0
 42
0.0000001
 43
0.0000001
 44
0.0000000001
 40
0.0
 40
0.0
 40
0.0
 40
0.0
 40
0.2521342232
 40
1.0
 40
1.0
 40
1.0
 40
1.0
 10
75.4441432057
 20
68.9909251025
 30
0.0
 10
75.192351153
 20
66.839114002
 30
0.0
 10
74.2468266826
 20
58.2986132529
 30
0.0
 10
73.5155392159
 20
49.7342487376
 30
0.0
 10
73.095391304
 20
43.3218747416
 30
0.0
  0
SPLINE
  5
35C
100
AcDbEntity
  8
290160210
100
AcDbSpline
 62
250
  6
CONTINUOUS
 70
0
 71
3
 72
11
 73
7
 74
0
 42
0.0000001
 43
0.0000001
 44
0.0000000001
 40
0.0
 40
0.0
 40
0.0
 40
0.0
 40
0.2278951713
 40
0.4922088107
 40
0.7606592201
 40
1.0
 40
1.0
 40
1.0
 40
1.0
 10
76.3457443282
 20
72.9477048029
 30
0.0
 10
76.3145444641
 20
72.9387394615
 30
0.0
 10
76.2443857155
 20
72.9292978382
 30
0.0
 10
76.1357624298
 20
72.9328604725
 30
0.0
 10
76.0271951597
 20
72.9525509696
 30
0.0
 10
75.9584078324
 20
72.9766841157
 30
0.0
 10
75.9279255944
 20
72.9919534077
 30
0.0
  0
SPLINE
  5
35D
100
AcDbEntity
  8
290160210
100
AcDbSpline
 62
250
  6
CONTINUOUS
 70
0
 71
3
 72
11
 73
7
 74
0
 42
0.0000001
 43
0.0000001
 44
0.0000000001
 40
0.0
 40
0.0
 40
0.0
 40
0.0
 40
0.1949102894
 40
0.4180418486
 40
0.6857973689
 40
1.0
 40
1.0
 40
1.0
 40
1.0
 10
56.268556252
 20
51.7952944491
 30
0.0
 10
56.2679326667
 20
51.7860076646
 30
0.0
 10
56.2715931932
 20
51.7656054682
 30
0.0
 10
56.28983824
 20
51.7377147988
 30
0.0
 10
56.3190124452
 20
51.7122047256
 30
0.0
 10
56.3430823472
 20
51.6980410298
 30
0.0
 10
56.3564979226
 20
51.6913214341
 30
0.0
  0
SPLINE
  5
35E
100
AcDbEntity
  8
290160210
100
AcDbSpline
 62
250
  6
CONTINUOUS
 70
0
 71
3
 72
11
 73
7
 74
0
 42
0.0000001
 43
0.0000001
 44
0.0000000001
 40
0.0
 40
0.0
 40
0.0
 40
0.0
 40
0.2523181083
 40
0.5180197689
 40
0.7737970609
 40
1.0
 40
1.0
 40
1.0
 40
1.0
 10
76.8858011853
 20
73.7162203956
 30
0.0
 10
76.8883310041
 20
73.7531626043
 30
0.0
 10
76.8812296721
 20
73.8300345645
 30
0.0
 10
76.8426598176
 20
73.9379788907
 30
0.0
 10
76.7811698806
 20
74.0301814101
 30
0.0
 10
76.725367522
 20
74.0764008954
 30
0.0
 10
76.6958646051
 20
74.0916182173
 30
0.0
  0
SPLINE
  5
35F
100
AcDbEntity
  8
290160210
100
AcDbSpline
 62
250
  6
CONTINUOUS
 70
0
 71
3
 72
11
 73
7
 74
0
 42
0.0000001
 43
0.0000001
 44
0.0000000001
 40
0.0
 40
0.0
 40
0.0
 40
0.0
 40
0.222406672
 40
0.4759791533
 40
0.7426302084
 40
1.0
 40
1.0
 40
1.0
 40
1.0
 10
76.6958646034
 20
74.0916182167
 30
0.0
 10
76.5992524928
 20
74.0546975515
 30
0.0
 10
76.4091262085
 20
73.9319279241
 30
0.0
 10
76.1792165995
 20
73.6701877946
 30
0.0
 10
76.0070537179
 20
73.3488522586
 30
0.0
 10
75.942733537
 20
73.1107193091
 30
0.0
 10
75.9279255914
 20
72.9919534068
 30
0.0
  0
SPLINE
  5
360
100
AcDbEntity
  8
290160210
100
AcDbSpline
 62
250
  6
CONTINUOUS
 70
0
 71
3
 72
11
 73
7
 74
0
 42
0.0000001
 43
0.0000001
 44
0.0000000001
 40
0.0
 40
0.0
 40
0.0
 40
0.0
 40
0.2509413958
 40
0.5121608733
 40
0.7669492848
 40
1.0
 40
1.0
 40
1.0
 40
1.0
 10
59.189032208
 20
81.3614000985
 30
0.0
 10
59.2016040844
 20
81.4628687583
 30
0.0
 10
59.2516739682
 20
81.6673206182
 30
0.0
 10
59.3837333102
 20
81.9524990781
 30
0.0
 10
59.5630133302
 20
82.2017234547
 30
0.0
 10
59.7122856272
 20
82.336523999
 30
0.0
 10
59.7911801585
 20
82.3893644953
 30
0.0
  0
SPLINE
  5
361
100
AcDbEntity
  8
290160210
100
AcDbSpline
 62
250
  6
CONTINUOUS
 70
0
 71
3
 72
9
 73
5
 74
0
 42
0.0000001
 43
0.0000001
 44
0.0000000001
 40
0.0
 40
0.0
 40
0.0
 40
0.0
 40
0.2602359708
 40
1.0
 40
1.0
 40
1.0
 40
1.0
 10
59.7911801585
 20
82.3893644953
 30
0.0
 10
59.8033900299
 20
82.3975421934
 30
0.0
 10
59.8510191728
 20
82.4278746142
 30
0.0
 10
59.9015755586
 20
82.4537469343
 30
0.0
 10
59.9403075625
 20
82.4693967371
 30
0.0
  0
SPLINE
  5
362
100
AcDbEntity
  8
290160210
100
AcDbSpline
 62
250
  6
CONTINUOUS
 70
0
 71
3
 72
11
 73
7
 74
0
 42
0.0000001
 43
0.0000001
 44
0.0000000001
 40
0.0
 40
0.0
 40
0.0
 40
0.0
 40
0.222795489
 40
0.4764108172
 40
0.7428763843
 40
1.0
 40
1.0
 40
1.0
 40
1.0
 10
76.8858011853
 20
73.7162203956
 30
0.0
 10
76.8179015824
 20
73.690572785
 30
0.0
 10
76.6842048167
 20
73.6050866648
 30
0.0
 10
76.5224164726
 20
73.4222189632
 30
0.0
 10
76.4013179544
 20
73.1974912942
 30
0.0
 10
76.3561249329
 20
73.0308245502
 30
0.0
 10
76.3457443282
 20
72.9477048029
 30
0.0
  0
SPLINE
  5
363
100
AcDbEntity
  8
290160210
100
AcDbSpline
 62
250
  6
CONTINUOUS
 70
0
 71
3
 72
14
 73
10
 74
0
 42
0.0000001
 43
0.0000001
 44
0.0000000001
 40
0.0
 40
0.0
 40
0.0
 40
0.0
 40
0.2916837821
 40
0.4198132771
 40
0.5376098386
 40
0.649003534
 40
0.7595499617
 40
0.8750680261
 40
1.0
 40
1.0
 40
1.0
 40
1.0
 10
73.5152094768
 20
43.2985697227
 30
0.0
 10
73.510510572
 20
43.2266800233
 30
0.0
 10
73.5172686136
 20
43.1204041974
 30
0.0
 10
73.5659560995
 20
42.9958406116
 30
0.0
 10
73.6174608112
 20
42.9228889582
 30
0.0
 10
73.6841312949
 20
42.8699059265
 30
0.0
 10
73.7631976304
 20
42.8396887993
 30
0.0
 10
73.8507358516
 20
42.8334177972
 30
0.0
 10
73.9097398018
 20
42.8443567347
 30
0.0
 10
73.9393606831
 20
42.8530030027
 30
0.0
  0
SPLINE
  5
364
100
AcDbEntity
  8
290160210
100
AcDbSpline
 62
250
  6
CONTINUOUS
 70
0
 71
3
 72
11
 73
7
 74
0
 42
0.0000001
 43
0.0000001
 44
0.0000000001
 40
0.0
 40
0.0
 40
0.0
 40
0.0
 40
0.2920414215
 40
0.5530366376
 40
0.7853601364
 40
1.0
 40
1.0
 40
1.0
 40
1.0
 10
73.095391304
 20
43.3218747416
 30
0.0
 10
73.0908896448
 20
43.2532604374
 30
0.0
 10
73.0937867571
 20
43.1220429245
 30
0.0
 10
73.1397312262
 20
42.9409163895
 30
0.0
 10
73.2263798188
 20
42.7951624636
 30
0.0
 10
73.3115506302
 20
42.7282087658
 30
0.0
 10
73.3567454677
 20
42.7055932839
 30
0.0
  0
SPLINE
  5
365
100
AcDbEntity
  8
290160210
100
AcDbSpline
 62
250
  6
CONTINUOUS
 70
0
 71
3
 72
11
 73
7
 74
0
 42
0.0000001
 43
0.0000001
 44
0.0000000001
 40
0.0
 40
0.0
 40
0.0
 40
0.0
 40
0.2320414971
 40
0.4965375254
 40
0.7628822033
 40
1.0
 40
1.0
 40
1.0
 40
1.0
 10
73.5152094767
 20
43.2985697228
 30
0.0
 10
73.484173865
 20
43.2867124929
 30
0.0
 10
73.4139010292
 20
43.271572759
 30
0.0
 10
73.3042677387
 20
43.2686274584
 30
0.0
 10
73.1949128536
 20
43.2838603938
 30
0.0
 10
73.1257765709
 20
43.3067164222
 30
0.0
 10
73.0953997761
 20
43.3218781113
 30
0.0
  0
SPLINE
  5
366
100
AcDbEntity
  8
268160210
100
AcDbSpline
 62
7
  6
CONTINUOUS
 70
0
 71
3
 72
9
 73
5
 74
0
 42
0.0000001
 43
0.0000001
 44
0.0000000001
 40
0.0
 40
0.0
 40
0.0
 40
0.0
 40
0.2586260123
 40
1.0
 40
1.0
 40
1.0
 40
1.0
 10
82.442442308
 20
86.9577314059
 30
0.0
 10
82.4433557112
 20
86.9620556351
 30
0.0
 10
82.4464915717
 20
86.9788541791
 30
0.0
 10
82.4480115438
 20
86.9959747693
 30
0.0
 10
82.4480115438
 20
87.0086440671
 30
0.0
  0
SPLINE
  5
367
100
AcDbEntity
  8
268160210
100
AcDbSpline
 62
7
  6
CONTINUOUS
 70
0
 71
3
 72
9
 73
5
 74
0
 42
0.0000001
 43
0.0000001
 44
0.0000000001
 40
0.0
 40
0.0
 40
0.0
 40
0.0
 40
0.2461412166
 40
1.0
 40
1.0
 40
1.0
 40
1.0
 10
84.2434050908
 20
87.7086966596
 30
0.0
 10
84.2671528686
 20
87.7051406936
 30
0.0
 10
84.362921593
 20
87.6859446806
 30
0.0
 10
84.4548594592
 20
87.6500755323
 30
0.0
 10
84.5206385381
 20
87.6171856611
 30
0.0
  0
SPLINE
  5
368
100
AcDbEntity
  8
268160210
100
AcDbSpline
 62
7
  6
CONTINUOUS
 70
0
 71
3
 72
13
 73
9
 74
0
 42
0.0000001
 43
0.0000001
 44
0.0000000001
 40
0.0
 40
0.0
 40
0.0
 40
0.0
 40
0.3015780643
 40
0.4377189214
 40
0.5643412658
 40
0.7922023709
 40
0.8975093982
 40
1.0
 40
1.0
 40
1.0
 40
1.0
 10
67.452316275
 20
88.4165810136
 30
0.0
 10
67.4174546697
 20
88.3988432999
 30
0.0
 10
67.3684831999
 20
88.369336289
 30
0.0
 10
67.3122949784
 20
88.3221897408
 30
0.0
 10
67.268578934
 20
88.2758571932
 30
0.0
 10
67.2363170615
 20
88.2243194932
 30
0.0
 10
67.2201398556
 20
88.1698834736
 30
0.0
 10
67.2174755179
 20
88.1428606275
 30
0.0
 10
67.2174759443
 20
88.1295675955
 30
0.0
  0
SPLINE
  5
369
100
AcDbEntity
  8
268160210
100
AcDbSpline
 62
7
  6
CONTINUOUS
 70
0
 71
3
 72
13
 73
9
 74
0
 42
0.0000001
 43
0.0000001
 44
0.0000000001
 40
0.0
 40
0.0
 40
0.0
 40
0.0
 40
0.3015780643
 40
0.4377189214
 40
0.5643412658
 40
0.7922023709
 40
0.8975093982
 40
1.0
 40
1.0
 40
1.0
 40
1.0
 10
77.4932325679
 20
83.3961228671
 30
0.0
 10
77.4583709625
 20
83.3783851535
 30
0.0
 10
77.4093994928
 20
83.3488781426
 30
0.0
 10
77.3532112712
 20
83.3017315944
 30
0.0
 10
77.3094952269
 20
83.2553990468
 30
0.0
 10
77.2772333543
 20
83.2038613468
 30
0.0
 10
77.2610561484
 20
83.1494253271
 30
0.0
 10
77.2583918107
 20
83.122402481
 30
0.0
 10
77.2583922371
 20
83.1091094491
 30
0.0
  0
SPLINE
  5
36A
100
AcDbEntity
  8
268160210
100
AcDbSpline
 62
7
  6
CONTINUOUS
 70
0
 71
3
 72
13
 73
9
 74
0
 42
0.0000001
 43
0.0000001
 44
0.0000000001
 40
0.0
 40
0.0
 40
0.0
 40
0.0
 40
0.1133878589
 40
0.2368531878
 40
0.501247003
 40
0.7649676169
 40
0.887638438
 40
1.0
 40
1.0
 40
1.0
 40
1.0
 10
78.855210134
 20
75.9860899321
 30
0.0
 10
78.8429499799
 20
75.9801701855
 30
0.0
 10
78.8163464809
 20
75.9698167014
 30
0.0
 10
78.7579048486
 20
75.9549945858
 30
0.0
 10
78.679434282
 20
75.9480722959
 30
0.0
 10
78.6011120323
 20
75.9556491944
 30
0.0
 10
78.543112186
 20
75.9709914233
 30
0.0
 10
78.5168358125
 20
75.9815855763
 30
0.0
 10
78.5047688461
 20
75.9876190595
 30
0.0
  0
SPLINE
  5
36B
100
AcDbEntity
  8
268160210
100
AcDbSpline
 62
7
  6
CONTINUOUS
 70
0
 71
3
 72
11
 73
7
 74
0
 42
0.0000001
 43
0.0000001
 44
0.0000000001
 40
0.0
 40
0.0
 40
0.0
 40
0.0
 40
0.3025823406
 40
0.565482986
 40
0.7934328049
 40
1.0
 40
1.0
 40
1.0
 40
1.0
 10
61.5010955436
 20
84.4894557107
 30
0.0
 10
61.4902408929
 20
84.4948830361
 30
0.0
 10
61.4706223906
 20
84.5065226954
 30
0.0
 10
61.4468111047
 20
84.5280433106
 30
0.0
 10
61.4315319351
 20
84.5519977345
 30
0.0
 10
61.4278730076
 20
84.5695591323
 30
0.0
 10
61.4278728261
 20
84.5778440584
 30
0.0
  0
SPLINE
  5
36C
100
AcDbEntity
  8
268160210
100
AcDbSpline
 62
7
  6
CONTINUOUS
 70
0
 71
3
 72
14
 73
10
 74
0
 42
0.0000001
 43
0.0000001
 44
0.0000000001
 40
0.0
 40
0.0
 40
0.0
 40
0.0
 40
0.0275249904
 40
0.0796770526
 40
0.1588065191
 40
0.2662685992
 40
0.4031948772
 40
0.5705711927
 40
1.0
 40
1.0
 40
1.0
 40
1.0
 10
78.4275533144
 20
90.6634418065
 30
0.0
 10
78.4275533063
 20
90.663028652
 30
0.0
 10
78.4268646465
 20
90.6619416773
 30
0.0
 10
78.4253781871
 20
90.6601513504
 30
0.0
 10
78.4228266042
 20
90.6575890205
 30
0.0
 10
78.4192820127
 20
90.6542880159
 30
0.0
 10
78.4146496443
 20
90.6501881673
 30
0.0
 10
78.4062933448
 20
90.6430174657
 30
0.0
 10
78.3994047587
 20
90.6372882776
 30
0.0
 10
78.3944374302
 20
90.6331804899
 30
0.0
  0
SPLINE
  5
36D
100
AcDbEntity
  8
268160210
100
AcDbSpline
 62
7
  6
CONTINUOUS
 70
0
 71
3
 72
21
 73
17
 74
0
 42
0.0000001
 43
0.0000001
 44
0.0000000001
 40
0.0
 40
0.0
 40
0.0
 40
0.0
 40
0.0382674497
 40
0.0788533288
 40
0.1235434994
 40
0.1733881555
 40
0.2287720151
 40
0.2895672601
 40
0.3552692877
 40
0.4251007637
 40
0.5730167349
 40
0.7243539366
 40
0.7983275125
 40
0.8695887947
 40
0.9371002409
 40
1.0
 40
1.0
 40
1.0
 40
1.0
 10
67.2174759443
 20
88.1295675955
 30
0.0
 10
67.2174765912
 20
88.1093987594
 30
0.0
 10
67.2238113216
 20
88.0676192923
 30
0.0
 10
67.251364074
 20
88.0078597728
 30
0.0
 10
67.29572264
 20
87.95146957
 30
0.0
 10
67.3556108457
 20
87.8993671032
 30
0.0
 10
67.4297293042
 20
87.852354316
 30
0.0
 10
67.5165695257
 20
87.8112848953
 30
0.0
 10
67.6143586894
 20
87.7769560561
 30
0.0
 10
67.7593936305
 20
87.7404497235
 30
0.0
 10
67.9532664016
 20
87.7165106463
 30
0.0
 10
68.1506594378
 20
87.7206068875
 30
0.0
 10
68.3057254326
 20
87.7413044679
 30
0.0
 10
68.4154730645
 20
87.7649337726
 30
0.0
 10
68.5171864598
 20
87.7962550186
 30
0.0
 10
68.5807234104
 20
87.8228812008
 30
0.0
 10
68.6104770653
 20
87.8375006184
 30
0.0
  0
SPLINE
  5
36E
100
AcDbEntity
  8
268160210
100
AcDbSpline
 62
7
  6
CONTINUOUS
 70
0
 71
3
 72
21
 73
17
 74
0
 42
0.0000001
 43
0.0000001
 44
0.0000000001
 40
0.0
 40
0.0
 40
0.0
 40
0.0
 40
0.0382674497
 40
0.0788533288
 40
0.1235434994
 40
0.1733881555
 40
0.2287720151
 40
0.2895672601
 40
0.3552692877
 40
0.4251007637
 40
0.5730167349
 40
0.7243539366
 40
0.7983275125
 40
0.8695887947
 40
0.9371002409
 40
1.0
 40
1.0
 40
1.0
 40
1.0
 10
77.2583922371
 20
83.1091094491
 30
0.0
 10
77.2583928841
 20
83.088940613
 30
0.0
 10
77.2647276145
 20
83.0471611459
 30
0.0
 10
77.2922803669
 20
82.9874016263
 30
0.0
 10
77.3366389328
 20
82.9310114236
 30
0.0
 10
77.3965271386
 20
82.8789089567
 30
0.0
 10
77.470645597
 20
82.8318961696
 30
0.0
 10
77.5574858185
 20
82.7908267489
 30
0.0
 10
77.6552749822
 20
82.7564979097
 30
0.0
 10
77.8003099234
 20
82.7199915771
 30
0.0
 10
77.9941826944
 20
82.6960524998
 30
0.0
 10
78.1915757306
 20
82.7001487411
 30
0.0
 10
78.3466417255
 20
82.7208463215
 30
0.0
 10
78.4563893573
 20
82.7444756261
 30
0.0
 10
78.5581027526
 20
82.7757968722
 30
0.0
 10
78.6216397032
 20
82.8024230544
 30
0.0
 10
78.6513933581
 20
82.817042472
 30
0.0
  0
SPLINE
  5
36F
100
AcDbEntity
  8
268160210
100
AcDbSpline
 62
7
  6
CONTINUOUS
 70
0
 71
3
 72
9
 73
5
 74
0
 42
0.0000001
 43
0.0000001
 44
0.0000000001
 40
0.0
 40
0.0
 40
0.0
 40
0.0
 40
0.505566678
 40
1.0
 40
1.0
 40
1.0
 40
1.0
 10
82.2374284733
 20
42.0296661635
 30
0.0
 10
82.3078288944
 20
42.0629177312
 30
0.0
 10
82.4389795042
 20
42.1463063206
 30
0.0
 10
82.5524143885
 20
42.2514605783
 30
0.0
 10
82.6040825591
 20
42.3073912656
 30
0.0
  0
SPLINE
  5
370
100
AcDbEntity
  8
268160210
100
AcDbSpline
 62
250
  6
CONTINUOUS
 70
0
 71
3
 72
11
 73
7
 74
0
 42
0.0000001
 43
0.0000001
 44
0.0000000001
 40
0.0
 40
0.0
 40
0.0
 40
0.0
 40
0.227039163
 40
0.4645980686
 40
0.720741422
 40
1.0
 40
1.0
 40
1.0
 40
1.0
 10
61.5610331953
 20
87.6857451265
 30
0.0
 10
61.5690306536
 20
87.6899730559
 30
0.0
 10
61.5867394664
 20
87.6962862422
 30
0.0
 10
61.6156913269
 20
87.6982732024
 30
0.0
 10
61.6462875202
 20
87.6930455747
 30
0.0
 10
61.6663088563
 20
87.6852917204
 30
0.0
 10
61.6763295908
 20
87.6804550894
 30
0.0
  0
SPLINE
  5
371
100
AcDbEntity
  8
268160210
100
AcDbSpline
 62
250
  6
CONTINUOUS
 70
0
 71
3
 72
11
 73
7
 74
0
 42
0.0000001
 43
0.0000001
 44
0.0000000001
 40
0.0
 40
0.0
 40
0.0
 40
0.0
 40
0.2065678725
 40
0.434517721
 40
0.6974186219
 40
1.0
 40
1.0
 40
1.0
 40
1.0
 10
61.4278722571
 20
87.4647279762
 30
0.0
 10
61.4278720469
 20
87.4564430301
 30
0.0
 10
61.4315319771
 20
87.4388816624
 30
0.0
 10
61.4468111529
 20
87.4149274632
 30
0.0
 10
61.4706225418
 20
87.3934069638
 30
0.0
 10
61.4902409367
 20
87.3817672622
 30
0.0
 10
61.5010955436
 20
87.3763399587
 30
0.0
  0
SPLINE
  5
372
100
AcDbEntity
  8
268160210
100
AcDbSpline
 62
250
  6
CONTINUOUS
 70
0
 71
3
 72
11
 73
7
 74
0
 42
0.0000001
 43
0.0000001
 44
0.0000000001
 40
0.0
 40
0.0
 40
0.0
 40
0.0
 40
0.2156427303
 40
0.4482643165
 40
0.7086533831
 40
1.0
 40
1.0
 40
1.0
 40
1.0
 10
82.5372136007
 20
40.8261275207
 30
0.0
 10
82.5475685851
 20
40.8310212964
 30
0.0
 10
82.5672666851
 20
40.8454896969
 30
0.0
 10
82.5884462427
 20
40.8773169718
 30
0.0
 10
82.6012767894
 20
40.9173810634
 30
0.0
 10
82.6039708039
 20
40.9467777422
 30
0.0
 10
82.6040825591
 20
40.9622512558
 30
0.0
  0
SPLINE
  5
373
100
AcDbEntity
  8
268160210
100
AcDbSpline
 62
250
  6
CONTINUOUS
 70
0
 71
3
 72
22
 73
18
 74
0
 42
0.0000001
 43
0.0000001
 44
0.0000000001
 40
0.0
 40
0.0
 40
0.0
 40
0.0
 40
0.0630545762
 40
0.1307031988
 40
0.2020771663
 40
0.2761368197
 40
0.4275732952
 40
0.5026281547
 40
0.5756177123
 40
0.6454384046
 40
0.7111189197
 40
0.7718811258
 40
0.827216328
 40
0.8769871052
 40
0.9215633056
 40
0.96197682
 40
1.0
 40
1.0
 40
1.0
 40
1.0
 10
82.6040825591
 20
40.9622512558
 30
0.0
 10
82.5685804622
 20
40.9453868633
 30
0.0
 10
82.4928933288
 20
40.9147508814
 30
0.0
 10
82.3719726596
 20
40.8789254781
 30
0.0
 10
82.2417140633
 20
40.8521595961
 30
0.0
 10
82.0579621424
 20
40.8291852131
 30
0.0
 10
81.8698409699
 20
40.8265437698
 30
0.0
 10
81.683864113
 20
40.8440601025
 30
0.0
 10
81.5498627831
 20
40.8669896071
 30
0.0
 10
81.4238093668
 20
40.8992384082
 30
0.0
 10
81.3083129287
 20
40.9401401092
 30
0.0
 10
81.2057528464
 20
40.9888573947
 30
0.0
 10
81.1182068704
 20
41.0444431185
 30
0.0
 10
81.0474378186
 20
41.1058955189
 30
0.0
 10
80.9949610035
 20
41.1722771771
 30
0.0
 10
80.9622629627
 20
41.2425270096
 30
0.0
 10
80.954618653
 20
41.291651027
 30
0.0
 10
80.9545430339
 20
41.3153520273
 30
0.0
  0
SPLINE
  5
374
100
AcDbEntity
  8
268160210
100
AcDbSpline
 62
250
  6
CONTINUOUS
 70
0
 71
3
 72
11
 73
7
 74
0
 42
0.0000001
 43
0.0000001
 44
0.0000000001
 40
0.0
 40
0.0
 40
0.0
 40
0.0
 40
0.2796523606
 40
0.5358864062
 40
0.7732721154
 40
1.0
 40
1.0
 40
1.0
 40
1.0
 10
81.4104266344
 20
82.8869970739
 30
0.0
 10
81.4005584135
 20
82.8918449048
 30
0.0
 10
81.3808429133
 20
82.8996477402
 30
0.0
 10
81.3506831636
 20
82.9050470453
 30
0.0
 10
81.3221160729
 20
82.9033144099
 30
0.0
 10
81.3046133594
 20
82.8972219195
 30
0.0
 10
81.2967034017
 20
82.893112075
 30
0.0
  0
SPLINE
  5
375
100
AcDbEntity
  8
268160210
100
AcDbSpline
 62
250
  6
CONTINUOUS
 70
0
 71
3
 72
27
 73
23
 74
0
 42
0.0000001
 43
0.0000001
 44
0.0000000001
 40
0.0
 40
0.0
 40
0.0
 40
0.0
 40
0.0600396775
 40
0.0871822083
 40
0.1124537085
 40
0.158004914
 40
0.1790824171
 40
0.1996008121
 40
0.2201108861
 40
0.2411643904
 40
0.2866309866
 40
0.3118490453
 40
0.3389363827
 40
0.3988627273
 40
0.4661840629
 40
0.539725462
 40
0.6177545481
 40
0.6981962977
 40
0.7788071842
 40
0.8573322892
 40
0.9316609141
 40
1.0
 40
1.0
 40
1.0
 40
1.0
 10
81.4104266344
 20
82.8869970739
 30
0.0
 10
81.3795242165
 20
82.8709396905
 30
0.0
 10
81.3361389047
 20
82.8442660337
 30
0.0
 10
81.2864539993
 20
82.8017959686
 30
0.0
 10
81.2477925705
 20
82.7600680392
 30
0.0
 10
81.2193582156
 20
82.713769596
 30
0.0
 10
81.2052110006
 20
82.6649672556
 30
0.0
 10
81.201834386
 20
82.6288741085
 30
0.0
 10
81.2055184873
 20
82.5928247187
 30
0.0
 10
81.2200785956
 20
82.5442139263
 30
0.0
 10
81.2489147554
 20
82.498267992
 30
0.0
 10
81.2879374636
 20
82.4570340237
 30
0.0
 10
81.338005688
 20
82.4151972359
 30
0.0
 10
81.4152565662
 20
82.3689222834
 30
0.0
 10
81.5235051046
 20
82.3250363271
 30
0.0
 10
81.6465343803
 20
82.2924831362
 30
0.0
 10
81.7798545198
 20
82.2724528283
 30
0.0
 10
81.9185904384
 20
82.2656856423
 30
0.0
 10
82.0576102902
 20
82.2724349465
 30
0.0
 10
82.191790524
 20
82.2924534458
 30
0.0
 10
82.3161602254
 20
82.3249767856
 30
0.0
 10
82.3933264243
 20
82.3557247473
 30
0.0
 10
82.4288753184
 20
82.3732617032
 30
0.0
  0
SPLINE
  5
376
100
AcDbEntity
  8
268160210
100
AcDbSpline
 62
250
  6
CONTINUOUS
 70
0
 71
3
 72
11
 73
7
 74
0
 42
0.0000001
 43
0.0000001
 44
0.0000000001
 40
0.0
 40
0.0
 40
0.0
 40
0.0
 40
0.2287063078
 40
0.4874233026
 40
0.7530110039
 40
1.0
 40
1.0
 40
1.0
 40
1.0
 10
82.4288753184
 20
82.3732617032
 30
0.0
 10
82.4536674836
 20
82.3604205109
 30
0.0
 10
82.50097706
 20
82.3223634347
 30
0.0
 10
82.5556839095
 20
82.2475547944
 30
0.0
 10
82.5931846367
 20
82.1603639532
 30
0.0
 10
82.6038632647
 20
82.0977689724
 30
0.0
 10
82.6040825591
 20
82.0676174451
 30
0.0
  0
SPLINE
  5
377
100
AcDbEntity
  8
268160210
100
AcDbSpline
 62
250
  6
CONTINUOUS
 70
0
 71
3
 72
11
 73
7
 74
0
 42
0.0000001
 43
0.0000001
 44
0.0000000001
 40
0.0
 40
0.0
 40
0.0
 40
0.0
 40
0.279252653
 40
0.5354047149
 40
0.7729603591
 40
1.0
 40
1.0
 40
1.0
 40
1.0
 10
65.2965736099
 20
90.9394125574
 30
0.0
 10
65.286553073
 20
90.944249093
 30
0.0
 10
65.2665315557
 20
90.9520027278
 30
0.0
 10
65.2359354365
 20
90.9572311888
 30
0.0
 10
65.2069833151
 20
90.9552437896
 30
0.0
 10
65.1892745178
 20
90.9489308861
 30
0.0
 10
65.1812770247
 20
90.9447029528
 30
0.0
  0
SPLINE
  5
378
100
AcDbEntity
  8
268160210
100
AcDbSpline
 62
250
  6
CONTINUOUS
 70
0
 71
3
 72
26
 73
22
 74
0
 42
0.0000001
 43
0.0000001
 44
0.0000000001
 40
0.0
 40
0.0
 40
0.0
 40
0.0
 40
0.0596959236
 40
0.0866677303
 40
0.1117789454
 40
0.1570768095
 40
0.1780838944
 40
0.1985795032
 40
0.2191171842
 40
0.2402456423
 40
0.2859732256
 40
0.3385264594
 40
0.3988014412
 40
0.4664347963
 40
0.5402209459
 40
0.61840791
 40
0.6989094888
 40
0.779478245
 40
0.8578622602
 40
0.9319610432
 40
1.0
 40
1.0
 40
1.0
 40
1.0
 10
65.2965736099
 20
90.9394125574
 30
0.0
 10
65.2659637037
 20
90.9232299098
 30
0.0
 10
65.2230372743
 20
90.8963743405
 30
0.0
 10
65.1740666208
 20
90.8536766353
 30
0.0
 10
65.1361060208
 20
90.8117664189
 30
0.0
 10
65.1084614878
 20
90.7653014836
 30
0.0
 10
65.0951737878
 20
90.7164662827
 30
0.0
 10
65.0924285335
 20
90.6803580818
 30
0.0
 10
65.0967427083
 20
90.6443363398
 30
0.0
 10
65.1121636136
 20
90.5957661468
 30
0.0
 10
65.1504868521
 20
90.5365932826
 30
0.0
 10
65.2196297135
 20
90.474850307
 30
0.0
 10
65.3102677075
 20
90.4214574635
 30
0.0
 10
65.4192929559
 20
90.3780481084
 30
0.0
 10
65.5428741829
 20
90.3460343679
 30
0.0
 10
65.6765467276
 20
90.3265858948
 30
0.0
 10
65.8154053857
 20
90.3204229578
 30
0.0
 10
65.9543172686
 20
90.3277759183
 30
0.0
 10
66.088162475
 20
90.3483751239
 30
0.0
 10
66.2119841409
 20
90.3814344431
 30
0.0
 10
66.2886788561
 20
90.4125333727
 30
0.0
 10
66.3239489418
 20
90.4302359202
 30
0.0
  0
SPLINE
  5
379
100
AcDbEntity
  8
268160210
100
AcDbSpline
 62
250
  6
CONTINUOUS
 70
0
 71
3
 72
11
 73
7
 74
0
 42
0.0000001
 43
0.0000001
 44
0.0000000001
 40
0.0
 40
0.0
 40
0.0
 40
0.0
 40
0.2293068725
 40
0.4880679153
 40
0.7533525373
 40
1.0
 40
1.0
 40
1.0
 40
1.0
 10
66.3239489418
 20
90.4302359202
 30
0.0
 10
66.3489219575
 20
90.4175272248
 30
0.0
 10
66.3966293054
 20
90.3797392964
 30
0.0
 10
66.4518707106
 20
90.3051413523
 30
0.0
 10
66.4897320935
 20
90.2180715107
 30
0.0
 10
66.5005015269
 20
90.1554917762
 30
0.0
 10
66.500718906
 20
90.1253528311
 30
0.0
  0
SPLINE
  5
37A
100
AcDbEntity
  8
268160210
100
AcDbSpline
 62
250
  6
CONTINUOUS
 70
0
 71
3
 72
22
 73
18
 74
0
 42
0.0000001
 43
0.0000001
 44
0.0000000001
 40
0.0
 40
0.0
 40
0.0
 40
0.0
 40
0.038492081
 40
0.0792198635
 40
0.1239522895
 40
0.1737449832
 40
0.2290000721
 40
0.2896115641
 40
0.355098612
 40
0.424707235
 40
0.4974870957
 40
0.5723529758
 40
0.7235331485
 40
0.7975552282
 40
0.8689659093
 40
0.9367346452
 40
1.0
 40
1.0
 40
1.0
 40
1.0
 10
80.9545418462
 20
82.4138161042
 30
0.0
 10
80.9545540933
 20
82.3897644968
 30
0.0
 10
80.9620264236
 20
82.3400085766
 30
0.0
 10
80.9945295013
 20
82.2688111262
 30
0.0
 10
81.0468855895
 20
82.2016680809
 30
0.0
 10
81.1175882813
 20
82.1396828796
 30
0.0
 10
81.2051042872
 20
82.0838062288
 30
0.0
 10
81.3076620185
 20
82.0350410454
 30
0.0
 10
81.4231800476
 20
81.9943315808
 30
0.0
 10
81.5492764866
 20
81.9625089493
 30
0.0
 10
81.6833400262
 20
81.9402298134
 30
0.0
 10
81.8694700207
 20
81.9238589723
 30
0.0
 10
82.0577429453
 20
81.9280313927
 30
0.0
 10
82.2415519554
 20
81.9528308893
 30
0.0
 10
82.3719075108
 20
81.9810793601
 30
0.0
 10
82.4929171985
 20
82.0184717991
 30
0.0
 10
82.5685929671
 20
82.0502049373
 30
0.0
 10
82.6040825591
 20
82.0676174451
 30
0.0
  0
SPLINE
  5
37B
100
AcDbEntity
  8
268160210
100
AcDbSpline
 62
7
  6
CONTINUOUS
 70
0
 71
3
 72
12
 73
8
 74
0
 42
0.0000001
 43
0.0000001
 44
0.0000000001
 40
0.0
 40
0.0
 40
0.0
 40
0.0
 40
0.2068730769
 40
0.445148881
 40
0.7118323835
 40
0.8540288186
 40
1.0
 40
1.0
 40
1.0
 40
1.0
 10
82.6040825591
 20
80.7224774353
 30
0.0
 10
82.5597537332
 20
80.7276554477
 30
0.0
 10
82.4647610275
 20
80.7420064673
 30
0.0
 10
82.3132812411
 20
80.7670979316
 30
0.0
 10
82.1749824045
 20
80.7867546782
 30
0.0
 10
82.0556811212
 20
80.7969590353
 30
0.0
 10
81.9934536859
 20
80.7984998035
 30
0.0
 10
81.9619706209
 20
80.797774629
 30
0.0
  0
SPLINE
  5
37C
100
AcDbEntity
  8
268160210
100
AcDbSpline
 62
250
  6
CONTINUOUS
 70
0
 71
3
 72
22
 73
18
 74
0
 42
0.0000001
 43
0.0000001
 44
0.0000000001
 40
0.0
 40
0.0
 40
0.0
 40
0.0
 40
0.0384985066
 40
0.0792488244
 40
0.1240294559
 40
0.1738975286
 40
0.2292506748
 40
0.2899748027
 40
0.3555788941
 40
0.4252976967
 40
0.4981691162
 40
0.5730962858
 40
0.7242651389
 40
0.7981983693
 40
0.8694572143
 40
0.9370102021
 40
1.0
 40
1.0
 40
1.0
 40
1.0
 10
64.8450936837
 20
90.4685449799
 30
0.0
 10
64.8451057498
 20
90.4444023749
 30
0.0
 10
64.8526366732
 20
90.394446614
 30
0.0
 10
64.8853879934
 20
90.3229925851
 30
0.0
 10
64.9381283364
 20
90.2556393578
 30
0.0
 10
65.0093326556
 20
90.1934980964
 30
0.0
 10
65.0974477601
 20
90.1375278792
 30
0.0
 10
65.2006777508
 20
90.0887411789
 30
0.0
 10
65.3169120742
 20
90.0480901663
 30
0.0
 10
65.4437360903
 20
90.0164114621
 30
0.0
 10
65.5785037628
 20
89.9943638273
 30
0.0
 10
65.7654384326
 20
89.9784230381
 30
0.0
 10
65.9543614122
 20
89.9831624994
 30
0.0
 10
66.1385905622
 20
90.0086882393
 30
0.0
 10
66.269021767
 20
90.0375185357
 30
0.0
 10
66.3899005161
 20
90.075523564
 30
0.0
 10
66.465376759
 20
90.1077097282
 30
0.0
 10
66.500718906
 20
90.1253528311
 30
0.0
  0
SPLINE
  5
37D
100
AcDbEntity
  8
268160210
100
AcDbSpline
 62
250
  6
CONTINUOUS
 70
0
 71
3
 72
11
 73
7
 74
0
 42
0.0000001
 43
0.0000001
 44
0.0000000001
 40
0.0
 40
0.0
 40
0.0
 40
0.0
 40
0.2913469377
 40
0.5517415897
 40
0.7843566238
 40
1.0
 40
1.0
 40
1.0
 40
1.0
 10
78.855210134
 20
40.5366505018
 30
0.0
 10
78.8550983673
 20
40.5211753877
 30
0.0
 10
78.8524033354
 20
40.4917754782
 30
0.0
 10
78.8395712453
 20
40.4517072749
 30
0.0
 10
78.8183854013
 20
40.4198787075
 30
0.0
 10
78.798682661
 20
40.4054133841
 30
0.0
 10
78.7883262239
 20
40.4005198592
 30
0.0
  0
SPLINE
  5
37E
100
AcDbEntity
  8
268160210
100
AcDbSpline
 62
7
  6
CONTINUOUS
 70
0
 71
3
 72
13
 73
9
 74
0
 42
0.0000001
 43
0.0000001
 44
0.0000000001
 40
0.0
 40
0.0
 40
0.0
 40
0.0
 40
0.112361562
 40
0.2350323831
 40
0.498752997
 40
0.7631468122
 40
0.8866121411
 40
1.0
 40
1.0
 40
1.0
 40
1.0
 10
78.5047688461
 20
43.4250638772
 30
0.0
 10
78.5168358125
 20
43.419030394
 30
0.0
 10
78.543112186
 20
43.408436241
 30
0.0
 10
78.6011120323
 20
43.3930940121
 30
0.0
 10
78.679434282
 20
43.3855171136
 30
0.0
 10
78.7579048486
 20
43.3924394035
 30
0.0
 10
78.8163464809
 20
43.4072615191
 30
0.0
 10
78.8429499799
 20
43.4176150032
 30
0.0
 10
78.855210134
 20
43.4235347498
 30
0.0
  0
SPLINE
  5
37F
100
AcDbEntity
  8
268160210
100
AcDbSpline
 62
250
  6
CONTINUOUS
 70
0
 71
3
 72
13
 73
9
 74
0
 42
0.0000001
 43
0.0000001
 44
0.0000000001
 40
0.0
 40
0.0
 40
0.0
 40
0.0
 40
0.1133884444
 40
0.2368535278
 40
0.5012472395
 40
0.7649676769
 40
0.8876382345
 40
1.0
 40
1.0
 40
1.0
 40
1.0
 10
78.855210134
 20
40.5366505018
 30
0.0
 10
78.842949915
 20
40.5307307239
 30
0.0
 10
78.8163463486
 20
40.5203772789
 30
0.0
 10
78.7579046945
 20
40.5055551808
 30
0.0
 10
78.6794342031
 20
40.4986323374
 30
0.0
 10
78.6011120358
 20
40.5062098076
 30
0.0
 10
78.5431122312
 20
40.5215520363
 30
0.0
 10
78.5168358359
 20
40.5321461343
 30
0.0
 10
78.5047688461
 20
40.5381796292
 30
0.0
  0
SPLINE
  5
380
100
AcDbEntity
  8
268160210
100
AcDbSpline
 62
250
  6
CONTINUOUS
 70
0
 71
3
 72
11
 73
7
 74
0
 42
0.0000001
 43
0.0000001
 44
0.0000000001
 40
0.0
 40
0.0
 40
0.0
 40
0.0
 40
0.2897508071
 40
0.5495856033
 40
0.7828462093
 40
1.0
 40
1.0
 40
1.0
 40
1.0
 10
78.5047688461
 20
40.5381796292
 30
0.0
 10
78.5047688461
 20
40.522974428
 30
0.0
 10
78.5072225433
 20
40.4940241987
 30
0.0
 10
78.5195964405
 20
40.4544301082
 30
0.0
 10
78.5402620676
 20
40.422730335
 30
0.0
 10
78.5595500069
 20
40.4080581111
 30
0.0
 10
78.5697422853
 20
40.4029614647
 30
0.0
  0
SPLINE
  5
381
100
AcDbEntity
  8
268160210
100
AcDbSpline
 62
250
  6
CONTINUOUS
 70
0
 71
3
 72
11
 73
7
 74
0
 42
0.0000001
 43
0.0000001
 44
0.0000000001
 40
0.0
 40
0.0
 40
0.0
 40
0.0
 40
0.2469894964
 40
0.5125770573
 40
0.7712936395
 40
1.0
 40
1.0
 40
1.0
 40
1.0
 10
78.855210134
 20
78.8729741801
 30
0.0
 10
78.8549908392
 20
78.9031257764
 30
0.0
 10
78.8443120117
 20
78.9657207357
 30
0.0
 10
78.8068120367
 20
79.0529119659
 30
0.0
 10
78.752104481
 20
79.1277200831
 30
0.0
 10
78.7047950707
 20
79.1657772395
 30
0.0
 10
78.6800028933
 20
79.1786184381
 30
0.0
  0
SPLINE
  5
382
100
AcDbEntity
  8
268160210
100
AcDbSpline
 62
250
  6
CONTINUOUS
 70
0
 71
3
 72
13
 73
9
 74
0
 42
0.0000001
 43
0.0000001
 44
0.0000000001
 40
0.0
 40
0.0
 40
0.0
 40
0.0
 40
0.1133884444
 40
0.2368535278
 40
0.5012472395
 40
0.7649676769
 40
0.8876382345
 40
1.0
 40
1.0
 40
1.0
 40
1.0
 10
78.855210134
 20
78.8729741801
 30
0.0
 10
78.842949915
 20
78.8670544021
 30
0.0
 10
78.8163463486
 20
78.8567009572
 30
0.0
 10
78.7579046945
 20
78.8418788591
 30
0.0
 10
78.6794342031
 20
78.8349560157
 30
0.0
 10
78.6011120358
 20
78.8425334858
 30
0.0
 10
78.5431122312
 20
78.8578757145
 30
0.0
 10
78.5168358359
 20
78.8684698126
 30
0.0
 10
78.5047688461
 20
78.8745033075
 30
0.0
  0
SPLINE
  5
383
100
AcDbEntity
  8
268160210
100
AcDbSpline
 62
250
  6
CONTINUOUS
 70
0
 71
3
 72
11
 73
7
 74
0
 42
0.0000001
 43
0.0000001
 44
0.0000000001
 40
0.0
 40
0.0
 40
0.0
 40
0.0
 40
0.2301990371
 40
0.4887792681
 40
0.7534963997
 40
1.0
 40
1.0
 40
1.0
 40
1.0
 10
78.6800028933
 20
79.1786184381
 30
0.0
 10
78.6550358711
 20
79.1658680748
 30
0.0
 10
78.6074103589
 20
79.128175011
 30
0.0
 10
78.5524314343
 20
79.053725678
 30
0.0
 10
78.5150726257
 20
78.9668881633
 30
0.0
 10
78.5047688461
 20
78.9045232619
 30
0.0
 10
78.5047688461
 20
78.8745033075
 30
0.0
  0
SPLINE
  5
384
100
AcDbEntity
  8
268160210
100
AcDbSpline
 62
250
  6
CONTINUOUS
 70
0
 71
3
 72
11
 73
7
 74
0
 42
0.0000001
 43
0.0000001
 44
0.0000000001
 40
0.0
 40
0.0
 40
0.0
 40
0.0
 40
0.2301990371
 40
0.4887792681
 40
0.7534963997
 40
1.0
 40
1.0
 40
1.0
 40
1.0
 10
61.6763295908
 20
87.6804550894
 30
0.0
 10
61.6513625687
 20
87.6677047261
 30
0.0
 10
61.6037370565
 20
87.6300116623
 30
0.0
 10
61.5487581318
 20
87.5555623293
 30
0.0
 10
61.5113993232
 20
87.4687248146
 30
0.0
 10
61.5010955436
 20
87.4063599131
 30
0.0
 10
61.5010955436
 20
87.3763399587
 30
0.0
  0
SPLINE
  5
385
100
AcDbEntity
  8
RACCORDO
100
AcDbSpline
 62
7
  6
CONTINUOUS
 70
0
 71
3
 72
14
 73
10
 74
0
 42
0.0000001
 43
0.0000001
 44
0.0000000001
 40
0.0
 40
0.0
 40
0.0
 40
0.0
 40
0.2656750393
 40
0.3931691443
 40
0.5176769713
 40
0.6399243538
 40
0.7606566986
 40
0.8805196509
 40
1.0
 40
1.0
 40
1.0
 40
1.0
 10
74.1980855086
 20
93.2830438003
 30
0.0
 10
74.1980855086
 20
93.3473342772
 30
0.0
 10
74.189329683
 20
93.4430039384
 30
0.0
 10
74.1564692214
 20
93.5641448074
 30
0.0
 10
74.1217943555
 20
93.64810977
 30
0.0
 10
74.0765519963
 20
93.7250339139
 30
0.0
 10
74.0207923044
 20
93.7933452704
 30
0.0
 10
73.9551233532
 20
93.8512111778
 30
0.0
 10
73.9054742061
 20
93.8816980154
 30
0.0
 10
73.8796136791
 20
93.8946282788
 30
0.0
  0
SPLINE
  5
386
100
AcDbEntity
  8
RACCORDO
100
AcDbSpline
 62
7
  6
CONTINUOUS
 70
0
 71
3
 72
13
 73
9
 74
0
 42
0.0000001
 43
0.0000001
 44
0.0000000001
 40
0.0
 40
0.0
 40
0.0
 40
0.0
 40
0.121986154
 40
0.2441953505
 40
0.3668717958
 40
0.4903504684
 40
0.740976493
 40
1.0
 40
1.0
 40
1.0
 40
1.0
 10
88.9409881184
 20
86.3639410592
 30
0.0
 10
88.9212672816
 20
86.3738014776
 30
0.0
 10
88.8804281352
 20
86.3909409494
 30
0.0
 10
88.8162773047
 20
86.4084135919
 30
0.0
 10
88.7501494828
 20
86.4175912674
 30
0.0
 10
88.6601753356
 20
86.4189755706
 30
0.0
 10
88.5462292916
 20
86.400628016
 30
0.0
 10
88.4595327842
 20
86.3677785502
 30
0.0
 10
88.4173029785
 20
86.3475664361
 30
0.0
  0
SPLINE
  5
387
100
AcDbEntity
  8
RACCORDO
100
AcDbSpline
 62
7
  6
CONTINUOUS
 70
0
 71
3
 72
15
 73
11
 74
0
 42
0.0000001
 43
0.0000001
 44
0.0000000001
 40
0.0
 40
0.0
 40
0.0
 40
0.0
 40
0.0192343643
 40
0.0442354063
 40
0.113162377
 40
0.2071086484
 40
0.3245719434
 40
0.4639438526
 40
0.6237748737
 40
1.0
 40
1.0
 40
1.0
 40
1.0
 10
90.2468390866
 20
58.7590354532
 30
0.0
 10
90.2468390746
 20
58.7595258043
 30
0.0
 10
90.2465777328
 20
58.7606475787
 30
0.0
 10
90.2453048354
 20
58.76324411
 30
0.0
 10
90.2423611722
 20
58.7670669372
 30
0.0
 10
90.2374492377
 20
58.7722539874
 30
0.0
 10
90.2308901065
 20
58.7783437164
 30
0.0
 10
90.2228164762
 20
58.7852475876
 30
0.0
 10
90.2093999292
 20
58.7960443581
 30
0.0
 10
90.1984577616
 20
58.8042382664
 30
0.0
 10
90.1907070423
 20
58.8098879778
 30
0.0
  0
SPLINE
  5
388
100
AcDbEntity
  8
RACCORDO
100
AcDbSpline
 62
7
  6
CONTINUOUS
 70
0
 71
3
 72
10
 73
6
 74
0
 42
0.0000001
 43
0.0000001
 44
0.0000000001
 40
0.0
 40
0.0
 40
0.0
 40
0.0
 40
0.2409940732
 40
0.4895974656
 40
1.0
 40
1.0
 40
1.0
 40
1.0
 10
90.2468390866
 20
52.591084187
 30
0.0
 10
90.2468390435
 20
52.575040975
 30
0.0
 10
90.2437642403
 20
52.5424103661
 30
0.0
 10
90.2281021861
 20
52.4775785596
 30
0.0
 10
90.2074604058
 20
52.4308605909
 30
0.0
 10
90.1907070423
 20
52.4012999898
 30
0.0
  0
SPLINE
  5
389
100
AcDbEntity
  8
RACCORDO
100
AcDbSpline
 62
250
  6
CONTINUOUS
 70
0
 71
3
 72
12
 73
8
 74
0
 42
0.0000001
 43
0.0000001
 44
0.0000000001
 40
0.0
 40
0.0
 40
0.0
 40
0.0
 40
0.1028542955
 40
0.2084742336
 40
0.4366771566
 40
0.6988741739
 40
1.0
 40
1.0
 40
1.0
 40
1.0
 10
97.9617155305
 20
57.8782840295
 30
0.0
 10
97.9617153118
 20
57.874272226
 30
0.0
 10
97.9609205883
 20
57.8661201113
 30
0.0
 10
97.95609592
 20
57.8496948436
 30
0.0
 10
97.9436421234
 20
57.8295638335
 30
0.0
 10
97.9208246383
 20
57.8084077992
 30
0.0
 10
97.9019807886
 20
57.7968561665
 30
0.0
 10
97.8915506097
 20
57.7914557833
 30
0.0
  0
SPLINE
  5
38A
100
AcDbEntity
  8
RACCORDO
100
AcDbSpline
 62
250
  6
CONTINUOUS
 70
0
 71
3
 72
12
 73
8
 74
0
 42
0.0000001
 43
0.0000001
 44
0.0000000001
 40
0.0
 40
0.0
 40
0.0
 40
0.0
 40
0.1028546608
 40
0.2084743165
 40
0.4366759785
 40
0.6988726522
 40
1.0
 40
1.0
 40
1.0
 40
1.0
 10
97.9617155306
 20
63.4139138363
 30
0.0
 10
97.9617155718
 20
63.4099018811
 30
0.0
 10
97.9609213178
 20
63.4017494295
 30
0.0
 10
97.9560973125
 20
63.3853233911
 30
0.0
 10
97.9436437265
 20
63.3651913168
 30
0.0
 10
97.9208257117
 20
63.3440342457
 30
0.0
 10
97.9019811988
 20
63.3324821356
 30
0.0
 10
97.8915506097
 20
63.32708154
 30
0.0
  0
SPLINE
  5
38B
100
AcDbEntity
  8
RACCORDO
100
AcDbSpline
 62
250
  6
CONTINUOUS
 70
0
 71
3
 72
11
 73
7
 74
0
 42
0.0000001
 43
0.0000001
 44
0.0000000001
 40
0.0
 40
0.0
 40
0.0
 40
0.0
 40
0.2275502252
 40
0.4653229788
 40
0.7212680192
 40
1.0
 40
1.0
 40
1.0
 40
1.0
 10
97.8023058025
 20
63.6741049253
 30
0.0
 10
97.7945556528
 20
63.6779798672
 30
0.0
 10
97.7775031983
 20
63.6836903071
 30
0.0
 10
97.7498020817
 20
63.6852177116
 30
0.0
 10
97.7206358547
 20
63.6799540179
 30
0.0
 10
97.701578801
 20
63.6724326141
 30
0.0
 10
97.6920451041
 20
63.6677676636
 30
0.0
  0
SPLINE
  5
38C
100
AcDbEntity
  8
RACCORDO
100
AcDbSpline
 62
250
  6
CONTINUOUS
 70
0
 71
3
 72
11
 73
7
 74
0
 42
0.0000001
 43
0.0000001
 44
0.0000000001
 40
0.0
 40
0.0
 40
0.0
 40
0.0
 40
0.2279890099
 40
0.4659719031
 40
0.7217747367
 40
1.0
 40
1.0
 40
1.0
 40
1.0
 10
96.4501087503
 20
84.5597475954
 30
0.0
 10
96.4348105082
 20
84.5673961433
 30
0.0
 10
96.4012019016
 20
84.5787203058
 30
0.0
 10
96.3466168512
 20
84.5820099013
 30
0.0
 10
96.2891220454
 20
84.5720599031
 30
0.0
 10
96.2515026782
 20
84.5575753587
 30
0.0
 10
96.2326756067
 20
84.5485643081
 30
0.0
  0
SPLINE
  5
38D
100
AcDbEntity
  8
RACCORDO
100
AcDbSpline
 62
250
  6
CONTINUOUS
 70
0
 71
3
 72
13
 73
9
 74
0
 42
0.0000001
 43
0.0000001
 44
0.0000000001
 40
0.0
 40
0.0
 40
0.0
 40
0.0
 40
0.1028084154
 40
0.2083806125
 40
0.4364797171
 40
0.5630370272
 40
0.6990118311
 40
1.0
 40
1.0
 40
1.0
 40
1.0
 10
96.7265052368
 20
84.1125323774
 30
0.0
 10
96.7265051546
 20
84.1045084601
 30
0.0
 10
96.7249166901
 20
84.0882026215
 30
0.0
 10
96.7152695769
 20
84.0553564094
 30
0.0
 10
96.6960198701
 20
84.0242124741
 30
0.0
 10
96.6698948007
 20
83.9961603508
 30
0.0
 10
96.6363267995
 20
83.9676023567
 30
0.0
 10
96.6070360832
 20
83.9496688494
 30
0.0
 10
96.5861751494
 20
83.9388677848
 30
0.0
  0
SPLINE
  5
38E
100
AcDbEntity
  8
RACCORDO
100
AcDbSpline
 62
7
  6
CONTINUOUS
 70
0
 71
3
 72
9
 73
5
 74
0
 42
0.0000001
 43
0.0000001
 44
0.0000000001
 40
0.0
 40
0.0
 40
0.0
 40
0.0
 40
0.4992594125
 40
1.0
 40
1.0
 40
1.0
 40
1.0
 10
90.2468391423
 20
81.0334035208
 30
0.0
 10
90.2468393645
 20
80.9878373892
 30
0.0
 10
90.2355331098
 20
80.8964475726
 30
0.0
 10
90.20787227
 20
80.8090236811
 30
0.0
 10
90.1907070423
 20
80.7666684556
 30
0.0
  0
SPLINE
  5
38F
100
AcDbEntity
  8
RACCORDO
100
AcDbSpline
 62
250
  6
CONTINUOUS
 70
0
 71
3
 72
13
 73
9
 74
0
 42
0.0000001
 43
0.0000001
 44
0.0000000001
 40
0.0
 40
0.0
 40
0.0
 40
0.0
 40
0.1132976895
 40
0.2278443712
 40
0.3449200194
 40
0.4656569058
 40
0.7212685759
 40
1.0
 40
1.0
 40
1.0
 40
1.0
 10
89.931945774
 20
85.8684621887
 30
0.0
 10
89.9169196843
 20
85.8759724477
 30
0.0
 10
89.8856102672
 20
85.8889942952
 30
0.0
 10
89.8360021971
 20
85.9020166515
 30
0.0
 10
89.7840105388
 20
85.9084953576
 30
0.0
 10
89.7106840152
 20
85.9083712692
 30
0.0
 10
89.6143200654
 20
85.8907699503
 30
0.0
 10
89.5402710087
 20
85.8612957636
 30
0.0
 10
89.5031961217
 20
85.8430372877
 30
0.0
  0
SPLINE
  5
390
100
AcDbEntity
  8
RACCORDO
100
AcDbSpline
 62
250
  6
CONTINUOUS
 70
0
 71
3
 72
12
 73
8
 74
0
 42
0.0000001
 43
0.0000001
 44
0.0000000001
 40
0.0
 40
0.0
 40
0.0
 40
0.0
 40
0.102854805
 40
0.2084748191
 40
0.4366760762
 40
0.6988706743
 40
1.0
 40
1.0
 40
1.0
 40
1.0
 10
90.246839073
 20
45.6636267537
 30
0.0
 10
90.2468390101
 20
45.6604171852
 30
0.0
 10
90.2462037144
 20
45.6538952006
 30
0.0
 10
90.2423441509
 20
45.6407544647
 30
0.0
 10
90.2323816761
 20
45.6246487121
 30
0.0
 10
90.2141271325
 20
45.6077231347
 30
0.0
 10
90.1990515681
 20
45.5984814214
 30
0.0
 10
90.1907070423
 20
45.5941609167
 30
0.0
  0
SPLINE
  5
391
100
AcDbEntity
  8
RACCORDO
100
AcDbSpline
 62
250
  6
CONTINUOUS
 70
0
 71
3
 72
12
 73
8
 74
0
 42
0.0000001
 43
0.0000001
 44
0.0000000001
 40
0.0
 40
0.0
 40
0.0
 40
0.0
 40
0.108444953
 40
0.2189424853
 40
0.4524784514
 40
0.7116514367
 40
1.0
 40
1.0
 40
1.0
 40
1.0
 10
89.5956926795
 20
44.5121385924
 30
0.0
 10
89.599604555
 20
44.5142492287
 30
0.0
 10
89.6071390762
 20
44.5192258693
 30
0.0
 10
89.6206683153
 20
44.5320275492
 30
0.0
 10
89.6340388127
 20
44.5533315269
 30
0.0
 10
89.6431709476
 20
44.58431738
 30
0.0
 10
89.6447625818
 20
44.6068711418
 30
0.0
 10
89.6445959387
 20
44.6186888124
 30
0.0
  0
SPLINE
  5
392
100
AcDbEntity
  8
RACCORDO
100
AcDbSpline
 62
250
  6
CONTINUOUS
 70
0
 71
3
 72
13
 73
9
 74
0
 42
0.0000001
 43
0.0000001
 44
0.0000000001
 40
0.0
 40
0.0
 40
0.0
 40
0.0
 40
0.1134934583
 40
0.2282840572
 40
0.345590883
 40
0.4664899681
 40
0.7220461042
 40
1.0
 40
1.0
 40
1.0
 40
1.0
 10
73.8796136638
 20
93.8946282481
 30
0.0
 10
73.864367903
 20
93.9022512588
 30
0.0
 10
73.8326099
 20
93.9155006017
 30
0.0
 10
73.7823091576
 20
93.9288780043
 30
0.0
 10
73.7295890687
 20
93.9357307955
 30
0.0
 10
73.6552683387
 20
93.9361355342
 30
0.0
 10
73.5576097712
 20
93.9192591491
 30
0.0
 10
73.4823953627
 20
93.890287252
 30
0.0
 10
73.4447407986
 20
93.8722649492
 30
0.0
  0
SPLINE
  5
393
100
AcDbEntity
  8
RACCORDO
100
AcDbSpline
 62
250
  6
CONTINUOUS
 70
0
 71
3
 72
13
 73
9
 74
0
 42
0.0000001
 43
0.0000001
 44
0.0000000001
 40
0.0
 40
0.0
 40
0.0
 40
0.0
 40
0.1135638928
 40
0.2286403479
 40
0.3463120568
 40
0.4675264089
 40
0.7231749142
 40
1.0
 40
1.0
 40
1.0
 40
1.0
 10
72.8792883055
 20
94.3946357382
 30
0.0
 10
72.8639908249
 20
94.4017780972
 30
0.0
 10
72.8322069657
 20
94.4141435882
 30
0.0
 10
72.7820926479
 20
94.4264994778
 30
0.0
 10
72.7297000162
 20
94.4326672362
 30
0.0
 10
72.6560331002
 20
94.4326049806
 30
0.0
 10
72.5595099806
 20
94.4160988302
 30
0.0
 10
72.4849743835
 20
94.3881618639
 30
0.0
 10
72.4476599148
 20
94.3708053911
 30
0.0
  0
SPLINE
  5
394
100
AcDbEntity
  8
RACCORDO
100
AcDbSpline
 62
250
  6
CONTINUOUS
 70
0
 71
3
 72
13
 73
9
 74
0
 42
0.0000001
 43
0.0000001
 44
0.0000000001
 40
0.0
 40
0.0
 40
0.0
 40
0.0
 40
0.1133577676
 40
0.2281946952
 40
0.3456476464
 40
0.4667136573
 40
0.7224295896
 40
1.0
 40
1.0
 40
1.0
 40
1.0
 10
88.9316607979
 20
86.3684448071
 30
0.0
 10
88.916582056
 20
86.375470587
 30
0.0
 10
88.8852447694
 20
86.3876014428
 30
0.0
 10
88.8358221749
 20
86.3995952848
 30
0.0
 10
88.7841556549
 20
86.4053870076
 30
0.0
 10
88.7114788815
 20
86.40479966
 30
0.0
 10
88.6162432121
 20
86.3875872746
 30
0.0
 10
88.5428570127
 20
86.3591631513
 30
0.0
 10
88.5061152379
 20
86.3415777296
 30
0.0
  0
SPLINE
  5
395
100
AcDbEntity
  8
RACCORDO
100
AcDbSpline
 62
250
  6
CONTINUOUS
 70
0
 71
3
 72
13
 73
9
 74
0
 42
0.0000001
 43
0.0000001
 44
0.0000000001
 40
0.0
 40
0.0
 40
0.0
 40
0.0
 40
0.1028084154
 40
0.2083806125
 40
0.4364797171
 40
0.5630370272
 40
0.6990118311
 40
1.0
 40
1.0
 40
1.0
 40
1.0
 10
96.7265052368
 20
52.8730920357
 30
0.0
 10
96.7265051546
 20
52.8650681184
 30
0.0
 10
96.7249166901
 20
52.8487622799
 30
0.0
 10
96.7152695769
 20
52.8159160677
 30
0.0
 10
96.6960198701
 20
52.7847721324
 30
0.0
 10
96.6698948007
 20
52.7567200091
 30
0.0
 10
96.6363267995
 20
52.728162015
 30
0.0
 10
96.6070360832
 20
52.7102285077
 30
0.0
 10
96.5861751494
 20
52.6994274431
 30
0.0
  0
SPLINE
  5
396
100
AcDbEntity
  8
RACCORDO
100
AcDbSpline
 62
250
  6
CONTINUOUS
 70
0
 71
3
 72
14
 73
10
 74
0
 42
0.0000001
 43
0.0000001
 44
0.0000000001
 40
0.0
 40
0.0
 40
0.0
 40
0.0
 40
0.1083200469
 40
0.2186902515
 40
0.3329587926
 40
0.4526226562
 40
0.5787530109
 40
0.7119881676
 40
1.0
 40
1.0
 40
1.0
 40
1.0
 10
96.4639171414
 20
52.4330516336
 30
0.0
 10
96.4736968717
 20
52.4383281731
 30
0.0
 10
96.4925331714
 20
52.4507667718
 30
0.0
 10
96.5174499934
 20
52.4743598021
 30
0.0
 10
96.5388621152
 20
52.5026393097
 30
0.0
 10
96.5565259296
 20
52.5352236451
 30
0.0
 10
96.5702712009
 20
52.5717170278
 30
0.0
 10
96.5835284429
 20
52.6263907708
 30
0.0
 10
96.5865917507
 20
52.6698837074
 30
0.0
 10
96.5861751494
 20
52.6994274431
 30
0.0
  0
SPLINE
  5
397
100
AcDbEntity
  8
RACCORDO
100
AcDbSpline
 62
250
  6
CONTINUOUS
 70
0
 71
3
 72
15
 73
11
 74
0
 42
0.0000001
 43
0.0000001
 44
0.0000000001
 40
0.0
 40
0.0
 40
0.0
 40
0.0
 40
0.1109151497
 40
0.2307438206
 40
0.3576365512
 40
0.4890338755
 40
0.6219711547
 40
0.7533522487
 40
0.8802137561
 40
1.0
 40
1.0
 40
1.0
 40
1.0
 10
97.6920451041
 20
63.6677676636
 30
0.0
 10
97.7057800172
 20
63.6611084867
 30
0.0
 10
97.7330023249
 20
63.6443774641
 30
0.0
 10
97.7703929879
 20
63.6121163776
 30
0.0
 10
97.8047589267
 20
63.5728312375
 30
0.0
 10
97.8348157158
 20
63.5279946629
 30
0.0
 10
97.8594540381
 20
63.4792782965
 30
0.0
 10
97.8777513768
 20
63.4284975505
 30
0.0
 10
97.8890222854
 20
63.377563007
 30
0.0
 10
97.8916531631
 20
63.3435661479
 30
0.0
 10
97.8915506097
 20
63.32708154
 30
0.0
  0
SPLINE
  5
398
100
AcDbEntity
  8
RACCORDO
100
AcDbSpline
 62
250
  6
CONTINUOUS
 70
0
 71
3
 72
12
 73
8
 74
0
 42
0.0000001
 43
0.0000001
 44
0.0000000001
 40
0.0
 40
0.0
 40
0.0
 40
0.0
 40
0.2880596124
 40
0.5472208542
 40
0.7808967691
 40
0.8914808623
 40
1.0
 40
1.0
 40
1.0
 40
1.0
 10
97.8915506097
 20
57.7914557833
 30
0.0
 10
97.8916552953
 20
57.7747340713
 30
0.0
 10
97.8891398617
 20
57.7428272592
 30
0.0
 10
97.8758284307
 20
57.6990644022
 30
0.0
 10
97.8566218013
 20
57.6690485804
 30
0.0
 10
97.8372932363
 20
57.6510709532
 30
0.0
 10
97.8265552407
 20
57.6441078764
 30
0.0
 10
97.8209859236
 20
57.6411637789
 30
0.0
  0
SPLINE
  5
399
100
AcDbEntity
  8
RACCORDO
100
AcDbSpline
 62
250
  6
CONTINUOUS
 70
0
 71
3
 72
15
 73
11
 74
0
 42
0.0000001
 43
0.0000001
 44
0.0000000001
 40
0.0
 40
0.0
 40
0.0
 40
0.0
 40
0.1200917835
 40
0.2471041265
 40
0.3785047983
 40
0.5113636303
 40
0.642624791
 40
0.7693702971
 40
0.8890931669
 40
1.0
 40
1.0
 40
1.0
 40
1.0
 10
96.5861751494
 20
83.9388677848
 30
0.0
 10
96.5865854806
 20
83.9683917779
 30
0.0
 10
96.5823384357
 20
84.02927804
 30
0.0
 10
96.5628084642
 20
84.1205323891
 30
0.0
 10
96.530657678
 20
84.2114772005
 30
0.0
 10
96.4870908105
 20
84.2986914199
 30
0.0
 10
96.4337384022
 20
84.3789261132
 30
0.0
 10
96.3725675842
 20
84.4491908729
 30
0.0
 10
96.3058624903
 20
84.5068508755
 30
0.0
 10
96.2572279442
 20
84.5367002217
 30
0.0
 10
96.2326756067
 20
84.5485643081
 30
0.0
  0
SPLINE
  5
39A
100
AcDbEntity
  8
RACCORDO
100
AcDbSpline
 62
250
  6
CONTINUOUS
 70
0
 71
3
 72
14
 73
10
 74
0
 42
0.0000001
 43
0.0000001
 44
0.0000000001
 40
0.0
 40
0.0
 40
0.0
 40
0.0
 40
0.1109792064
 40
0.2307754736
 40
0.357601117
 40
0.488945142
 40
0.6218878885
 40
0.7533715111
 40
1.0
 40
1.0
 40
1.0
 40
1.0
 10
96.4447753295
 20
55.9564893822
 30
0.0
 10
96.4545964422
 20
55.951743653
 30
0.0
 10
96.4740502023
 20
55.9398038142
 30
0.0
 10
96.5007320761
 20
55.9167401188
 30
0.0
 10
96.525200366
 20
55.8886331418
 30
0.0
 10
96.546539977
 20
55.8565438751
 30
0.0
 10
96.5639720941
 20
55.8216414753
 30
0.0
 10
96.5807317882
 20
55.7742366871
 30
0.0
 10
96.5865115131
 20
55.7368488072
 30
0.0
 10
96.5861746678
 20
55.7126112002
 30
0.0
  0
SPLINE
  5
39B
100
AcDbEntity
  8
RACCORDO
100
AcDbSpline
 62
250
  6
CONTINUOUS
 70
0
 71
3
 72
15
 73
11
 74
0
 42
0.0000001
 43
0.0000001
 44
0.0000000001
 40
0.0
 40
0.0
 40
0.0
 40
0.0
 40
0.3995843808
 40
0.5630860128
 40
0.7006369751
 40
0.8118855937
 40
0.8973184336
 40
0.9308431858
 40
0.9586963344
 40
1.0
 40
1.0
 40
1.0
 40
1.0
 10
96.5861751494
 20
55.7126109677
 30
0.0
 10
96.6068302727
 20
55.7230367583
 30
0.0
 10
96.6356927448
 20
55.7382509941
 30
0.0
 10
96.6705742865
 20
55.7589820677
 30
0.0
 10
96.6905589265
 20
55.7720623178
 30
0.0
 10
96.7060861843
 20
55.7836383837
 30
0.0
 10
96.7160443974
 20
55.792545551
 30
0.0
 10
96.7216160089
 20
55.7990077239
 30
0.0
 10
96.7249405473
 20
55.8038986469
 30
0.0
 10
96.7265052194
 20
55.807826951
 30
0.0
 10
96.7265052002
 20
55.8102185667
 30
0.0
  0
SPLINE
  5
39C
100
AcDbEntity
  8
RACCORDO
100
AcDbSpline
 62
250
  6
CONTINUOUS
 70
0
 71
3
 72
13
 73
9
 74
0
 42
0.0000001
 43
0.0000001
 44
0.0000000001
 40
0.0
 40
0.0
 40
0.0
 40
0.0
 40
0.344843
 40
0.4933379185
 40
0.625188026
 40
0.740587441
 40
0.8403916004
 40
1.0
 40
1.0
 40
1.0
 40
1.0
 10
96.4447753323
 20
55.956489577
 30
0.0
 10
96.4631190313
 20
55.9654591824
 30
0.0
 10
96.4899005327
 20
55.9773045346
 30
0.0
 10
96.5250456221
 20
55.9890227399
 30
0.0
 10
96.5477853087
 20
55.994760403
 30
0.0
 10
96.5681570526
 20
55.9979084911
 30
0.0
 10
96.5903048467
 20
55.9986772436
 30
0.0
 10
96.6059684935
 20
55.9957913704
 30
0.0
 10
96.6144222237
 20
55.9915659467
 30
0.0
  0
SPLINE
  5
39D
100
AcDbEntity
  8
RACCORDO
100
AcDbSpline
 62
250
  6
CONTINUOUS
 70
0
 71
3
 72
14
 73
10
 74
0
 42
0.0000001
 43
0.0000001
 44
0.0000000001
 40
0.0
 40
0.0
 40
0.0
 40
0.0
 40
0.1111238496
 40
0.2311818435
 40
0.358288512
 40
0.4898473132
 40
0.7537265085
 40
0.8804559821
 40
1.0
 40
1.0
 40
1.0
 40
1.0
 10
96.4386695972
 20
55.953438037
 30
0.0
 10
96.4485011739
 20
55.9486909154
 30
0.0
 10
96.467997441
 20
55.9367677887
 30
0.0
 10
96.4948148535
 20
55.9137875102
 30
0.0
 10
96.5195134264
 20
55.8857984572
 30
0.0
 10
96.5483641957
 20
55.843223345
 30
0.0
 10
96.5693332433
 20
55.7957080122
 30
0.0
 10
96.5805059502
 20
55.7467382149
 30
0.0
 10
96.5825375573
 20
55.7225120296
 30
0.0
 10
96.5825375573
 20
55.7107671192
 30
0.0
  0
SPLINE
  5
39E
100
AcDbEntity
  8
RACCORDO
100
AcDbSpline
 62
250
  6
CONTINUOUS
 70
0
 71
3
 72
11
 73
7
 74
0
 42
0.0000001
 43
0.0000001
 44
0.0000000001
 40
0.0
 40
0.0
 40
0.0
 40
0.0
 40
0.2813488714
 40
0.5406655649
 40
0.7788720146
 40
1.0
 40
1.0
 40
1.0
 40
1.0
 10
96.5825375573
 20
62.1193551072
 30
0.0
 10
96.5825375573
 20
62.1096536871
 30
0.0
 10
96.5812444587
 20
62.0909693267
 30
0.0
 10
96.5749130777
 20
62.0647185447
 30
0.0
 10
96.5643906295
 20
62.0420815452
 30
0.0
 10
96.5544016191
 20
62.0295301628
 30
0.0
 10
96.5488787829
 20
62.024273044
 30
0.0
  0
SPLINE
  5
39F
100
AcDbEntity
  8
RACCORDO
100
AcDbSpline
 62
250
  6
CONTINUOUS
 70
0
 71
3
 72
9
 73
5
 74
0
 42
0.0000001
 43
0.0000001
 44
0.0000000001
 40
0.0
 40
0.0
 40
0.0
 40
0.0
 40
0.2524953319
 40
1.0
 40
1.0
 40
1.0
 40
1.0
 10
96.5488787829
 20
62.024273044
 30
0.0
 10
96.5478742103
 20
62.0233168039
 30
0.0
 10
96.5438024144
 20
62.0196290078
 30
0.0
 10
96.5393544936
 20
62.0163548028
 30
0.0
 10
96.5358653238
 20
62.0141904293
 30
0.0
  0
SPLINE
  5
3A0
100
AcDbEntity
  8
RACCORDO
100
AcDbSpline
 62
250
  6
CONTINUOUS
 70
0
 71
3
 72
12
 73
8
 74
0
 42
0.0000001
 43
0.0000001
 44
0.0000000001
 40
0.0
 40
0.0
 40
0.0
 40
0.0
 40
0.2883462732
 40
0.5475198637
 40
0.781057797
 40
0.8915557058
 40
1.0
 40
1.0
 40
1.0
 40
1.0
 10
96.5861750555
 20
62.121278141
 30
0.0
 10
96.5863416794
 20
62.1094615058
 30
0.0
 10
96.5847503275
 20
62.086909631
 30
0.0
 10
96.5756198488
 20
62.0559260357
 30
0.0
 10
96.5622518094
 20
62.0346228694
 30
0.0
 10
96.5487248809
 20
62.0218208365
 30
0.0
 10
96.5411915735
 20
62.0168437057
 30
0.0
 10
96.5372803016
 20
62.0147327536
 30
0.0
  0
SPLINE
  5
3A1
100
AcDbEntity
  8
RACCORDO
100
AcDbSpline
 62
250
  6
CONTINUOUS
 70
0
 71
3
 72
14
 73
10
 74
0
 42
0.0000001
 43
0.0000001
 44
0.0000000001
 40
0.0
 40
0.0
 40
0.0
 40
0.0
 40
0.1274968188
 40
0.2521304584
 40
0.3750019819
 40
0.4972801466
 40
0.6200900818
 40
0.7444063548
 40
1.0
 40
1.0
 40
1.0
 40
1.0
 10
96.5861751494
 20
62.1212780956
 30
0.0
 10
96.5973534149
 20
62.127212015
 30
0.0
 10
96.6186963927
 20
62.1404685155
 30
0.0
 10
96.6472600934
 20
62.1645354158
 30
0.0
 10
96.6716424597
 20
62.1921528325
 30
0.0
 10
96.691628335
 20
62.2228743359
 30
0.0
 10
96.7071292907
 20
62.2562392782
 30
0.0
 10
96.721959863
 20
62.3040029821
 30
0.0
 10
96.726235205
 20
62.3419168121
 30
0.0
 10
96.7264868293
 20
62.3672863863
 30
0.0
  0
SPLINE
  5
3A2
100
AcDbEntity
  8
RACCORDO
100
AcDbSpline
 62
250
  6
CONTINUOUS
 70
0
 71
3
 72
15
 73
11
 74
0
 42
0.0000001
 43
0.0000001
 44
0.0000000001
 40
0.0
 40
0.0
 40
0.0
 40
0.0
 40
0.1198125336
 40
0.2468984957
 40
0.3785833133
 40
0.5118054948
 40
0.643380968
 40
0.7702584196
 40
0.8897844576
 40
1.0
 40
1.0
 40
1.0
 40
1.0
 10
90.1907070423
 20
45.5941609167
 30
0.0
 10
90.1907067342
 20
45.5476643971
 30
0.0
 10
90.1830236763
 20
45.45175716
 30
0.0
 10
90.1517797777
 20
45.3078262232
 30
0.0
 10
90.1015717371
 20
45.1638411782
 30
0.0
 10
90.0342405103
 20
45.0251084834
 30
0.0
 10
89.9522568155
 20
44.8966932508
 30
0.0
 10
89.8585884957
 20
44.7832795445
 30
0.0
 10
89.7566677161
 20
44.689021921
 30
0.0
 10
89.6822387289
 20
44.6389983369
 30
0.0
 10
89.6445959387
 20
44.6186888124
 30
0.0
  0
SPLINE
  5
3A3
100
AcDbEntity
  8
RACCORDO
100
AcDbSpline
 62
7
  6
CONTINUOUS
 70
0
 71
3
 72
11
 73
7
 74
0
 42
0.0000001
 43
0.0000001
 44
0.0000000001
 40
0.0
 40
0.0
 40
0.0
 40
0.0
 40
0.3005607875
 40
0.5666126734
 40
0.7985361635
 40
1.0
 40
1.0
 40
1.0
 40
1.0
 10
90.1907070423
 20
49.2489256765
 30
0.0
 10
90.1988152368
 20
49.2373149754
 30
0.0
 10
90.2135099102
 20
49.2149989548
 30
0.0
 10
90.2314784434
 20
49.181859107
 30
0.0
 10
90.2434130233
 20
49.151029475
 30
0.0
 10
90.2468392599
 20
49.1306147323
 30
0.0
 10
90.2468391423
 20
49.1211223022
 30
0.0
  0
SPLINE
  5
3A4
100
AcDbEntity
  8
RACCORDO
100
AcDbSpline
 62
7
  6
CONTINUOUS
 70
0
 71
3
 72
9
 73
5
 74
0
 42
0.0000001
 43
0.0000001
 44
0.0000000001
 40
0.0
 40
0.0
 40
0.0
 40
0.0
 40
0.2384471516
 40
1.0
 40
1.0
 40
1.0
 40
1.0
 10
78.8417669597
 20
85.4016351015
 30
0.0
 10
78.8417669597
 20
85.407612681
 30
0.0
 10
78.8407075708
 20
85.4326781132
 30
0.0
 10
78.8357306309
 20
85.4575116629
 30
0.0
 10
78.8302687469
 20
85.4758048805
 30
0.0
  0
SPLINE
  5
3A5
100
AcDbEntity
  8
RACCORDO
100
AcDbSpline
 62
250
  6
CONTINUOUS
 70
0
 71
3
 72
11
 73
7
 74
0
 42
0.0000001
 43
0.0000001
 44
0.0000000001
 40
0.0
 40
0.0
 40
0.0
 40
0.0
 40
0.2278649909
 40
0.4657801987
 40
0.721614993
 40
1.0
 40
1.0
 40
1.0
 40
1.0
 10
79.6321668345
 20
92.7588117907
 30
0.0
 10
79.6476028288
 20
92.7659402791
 30
0.0
 10
79.6813523775
 20
92.776153315
 30
0.0
 10
79.735708403
 20
92.7777202175
 30
0.0
 10
79.7925642404
 20
92.7660323519
 30
0.0
 10
79.829526202
 20
92.7504596561
 30
0.0
 10
79.8479753386
 20
92.7409144421
 30
0.0
  0
SPLINE
  5
3A6
100
AcDbEntity
  8
RACCORDO
100
AcDbSpline
 62
7
  6
CONTINUOUS
 70
0
 71
3
 72
9
 73
5
 74
0
 42
0.0000001
 43
0.0000001
 44
0.0000000001
 40
0.0
 40
0.0
 40
0.0
 40
0.0
 40
0.4729020338
 40
1.0
 40
1.0
 40
1.0
 40
1.0
 10
78.5415300151
 20
85.2450981634
 30
0.0
 10
78.5377320991
 20
85.2541574012
 30
0.0
 10
78.5285017772
 20
85.2728164512
 30
0.0
 10
78.5176040838
 20
85.2905296979
 30
0.0
 10
78.5115209958
 20
85.29963323
 30
0.0
  0
SPLINE
  5
3A7
100
AcDbEntity
  8
RACCORDO
100
AcDbSpline
 62
250
  6
CONTINUOUS
 70
0
 71
3
 72
12
 73
8
 74
0
 42
0.0000001
 43
0.0000001
 44
0.0000000001
 40
0.0
 40
0.0
 40
0.0
 40
0.0
 40
0.3011285663
 40
0.5633233355
 40
0.7915252222
 40
0.8971453774
 40
1.0
 40
1.0
 40
1.0
 40
1.0
 10
90.1907070423
 20
85.1892011764
 30
0.0
 10
90.1990514043
 20
85.1935215964
 30
0.0
 10
90.214126704
 20
85.2027631191
 30
0.0
 10
90.2323810362
 20
85.2196882827
 30
0.0
 10
90.2423435949
 20
85.2357936104
 30
0.0
 10
90.2462034234
 20
85.2489340386
 30
0.0
 10
90.2468389062
 20
85.2554558888
 30
0.0
 10
90.246839073
 20
85.2586653967
 30
0.0
  0
SPLINE
  5
3A8
100
AcDbEntity
  8
RACCORDO
100
AcDbSpline
 62
250
  6
CONTINUOUS
 70
0
 71
3
 72
19
 73
15
 74
0
 42
0.0000001
 43
0.0000001
 44
0.0000000001
 40
0.0
 40
0.0
 40
0.0
 40
0.0
 40
0.1503960838
 40
0.2204778067
 40
0.2870783835
 40
0.4103772311
 40
0.4681259396
 40
0.5240086811
 40
0.5788188635
 40
0.6334374327
 40
0.6887615106
 40
0.7456291479
 40
0.8664458921
 40
1.0
 40
1.0
 40
1.0
 40
1.0
 10
90.1907070423
 20
85.1892011764
 30
0.0
 10
90.1907067613
 20
85.2321029228
 30
0.0
 10
90.1860586747
 20
85.2952277816
 30
0.0
 10
90.1685208232
 20
85.3753482133
 30
0.0
 10
90.1453136726
 20
85.4458662878
 30
0.0
 10
90.111981578
 20
85.5091736717
 30
0.0
 10
90.0684603467
 20
85.5611596377
 30
0.0
 10
90.0323146181
 20
85.5931140569
 30
0.0
 10
89.9923245863
 20
85.6184860673
 30
0.0
 10
89.9489034262
 20
85.6369994862
 30
0.0
 10
89.9025138148
 20
85.6484597934
 30
0.0
 10
89.8360730489
 20
85.6543423148
 30
0.0
 10
89.7469404251
 20
85.6425385625
 30
0.0
 10
89.6787258043
 20
85.6160869548
 30
0.0
 10
89.6445959387
 20
85.5991586784
 30
0.0
  0
SPLINE
  5
3A9
100
AcDbEntity
  8
RACCORDO
100
AcDbSpline
 62
250
  6
CONTINUOUS
 70
0
 71
3
 72
14
 73
10
 74
0
 42
0.0000001
 43
0.0000001
 44
0.0000000001
 40
0.0
 40
0.0
 40
0.0
 40
0.0
 40
0.2466285265
 40
0.3781121856
 40
0.5110549511
 40
0.6423989687
 40
0.7692245833
 40
0.8890208159
 40
1.0
 40
1.0
 40
1.0
 40
1.0
 10
89.6445959387
 20
85.5991586784
 30
0.0
 10
89.6449327994
 20
85.6233963437
 30
0.0
 10
89.6391530518
 20
85.6607843196
 30
0.0
 10
89.6223932822
 20
85.7081892114
 30
0.0
 10
89.6049610892
 20
85.7430916778
 30
0.0
 10
89.5836213947
 20
85.7751809918
 30
0.0
 10
89.5591530211
 20
85.8032879986
 30
0.0
 10
89.5324710679
 20
85.8263517109
 30
0.0
 10
89.5130172581
 20
85.8382915558
 30
0.0
 10
89.5031961217
 20
85.8430372877
 30
0.0
  0
SPLINE
  5
3AA
100
AcDbEntity
  8
RACCORDO
100
AcDbSpline
 62
250
  6
CONTINUOUS
 70
0
 71
3
 72
11
 73
7
 74
0
 42
0.0000001
 43
0.0000001
 44
0.0000000001
 40
0.0
 40
0.0
 40
0.0
 40
0.0
 40
0.2783897556
 40
0.534217783
 40
0.7721350848
 40
1.0
 40
1.0
 40
1.0
 40
1.0
 10
72.4476599148
 20
94.3708053911
 30
0.0
 10
72.4402801544
 20
94.3746235314
 30
0.0
 10
72.4254954899
 20
94.3808526798
 30
0.0
 10
72.402753135
 20
94.3855274249
 30
0.0
 10
72.3810109973
 20
94.3849008839
 30
0.0
 10
72.3675109907
 20
94.3808159904
 30
0.0
 10
72.3613366949
 20
94.377964424
 30
0.0
  0
SPLINE
  5
3AB
100
AcDbEntity
  8
RACCORDO
100
AcDbSpline
 62
250
  6
CONTINUOUS
 70
0
 71
3
 72
11
 73
7
 74
0
 42
0.0000001
 43
0.0000001
 44
0.0000000001
 40
0.0
 40
0.0
 40
0.0
 40
0.0
 40
0.2279890806
 40
0.4659717416
 40
0.721774464
 40
1.0
 40
1.0
 40
1.0
 40
1.0
 10
80.0654117686
 20
92.7520960864
 30
0.0
 10
80.050113424
 20
92.7597450605
 30
0.0
 10
80.0165044591
 20
92.7710699872
 30
0.0
 10
79.9619185547
 20
92.7743602335
 30
0.0
 10
79.9044227496
 20
92.7644103845
 30
0.0
 10
79.8668027335
 20
92.7499256475
 30
0.0
 10
79.8479753386
 20
92.7409144421
 30
0.0
  0
SPLINE
  5
3AC
100
AcDbEntity
  8
RACCORDO
100
AcDbSpline
 62
250
  6
CONTINUOUS
 70
0
 71
3
 72
12
 73
8
 74
0
 42
0.0000001
 43
0.0000001
 44
0.0000000001
 40
0.0
 40
0.0
 40
0.0
 40
0.0
 40
0.3022938654
 40
0.564955481
 40
0.7926868821
 40
0.897778844
 40
1.0
 40
1.0
 40
1.0
 40
1.0
 10
74.1395068648
 20
93.2123331222
 30
0.0
 10
74.1481904841
 20
93.2166749318
 30
0.0
 10
74.1638843672
 20
93.2259944692
 30
0.0
 10
74.1829372797
 20
93.2431816381
 30
0.0
 10
74.1933754349
 20
93.2596335376
 30
0.0
 10
74.1974199075
 20
93.2730850457
 30
0.0
 10
74.1980855083
 20
93.2797608234
 30
0.0
 10
74.1980855086
 20
93.2830437958
 30
0.0
  0
SPLINE
  5
3AD
100
AcDbEntity
  8
RACCORDO
100
AcDbSpline
 62
250
  6
CONTINUOUS
 70
0
 71
3
 72
19
 73
15
 74
0
 42
0.0000001
 43
0.0000001
 44
0.0000000001
 40
0.0
 40
0.0
 40
0.0
 40
0.0
 40
0.1489099016
 40
0.2184298779
 40
0.2846110985
 40
0.4075424731
 40
0.4653478967
 40
0.5214334798
 40
0.576566517
 40
0.631590379
 40
0.687357456
 40
0.7446600164
 40
0.8661719291
 40
1.0
 40
1.0
 40
1.0
 40
1.0
 10
74.1395068648
 20
93.2123331222
 30
0.0
 10
74.1395068648
 20
93.2552677527
 30
0.0
 10
74.1347608554
 20
93.3184851473
 30
0.0
 10
74.1169163294
 20
93.3987135933
 30
0.0
 10
74.0932648951
 20
93.4695197086
 30
0.0
 10
74.0592943076
 20
93.533121334
 30
0.0
 10
74.0150552009
 20
93.5854107459
 30
0.0
 10
73.9782712461
 20
93.6176743817
 30
0.0
 10
73.9375833239
 20
93.6433881602
 30
0.0
 10
73.8934104114
 20
93.6622775117
 30
0.0
 10
73.8462183305
 20
93.6741468129
 30
0.0
 10
73.7786642167
 20
93.680620101
 30
0.0
 10
73.6880722499
 20
93.6696638721
 30
0.0
 10
73.6184989982
 20
93.643799931
 30
0.0
 10
73.5836940118
 20
93.6271414988
 30
0.0
  0
SPLINE
  5
3AE
100
AcDbEntity
  8
RACCORDO
100
AcDbSpline
 62
250
  6
CONTINUOUS
 70
0
 71
3
 72
14
 73
10
 74
0
 42
0.0000001
 43
0.0000001
 44
0.0000000001
 40
0.0
 40
0.0
 40
0.0
 40
0.0
 40
0.1204457869
 40
0.2478901826
 40
0.5123931036
 40
0.6437985529
 40
0.7704484547
 40
0.8897860517
 40
1.0
 40
1.0
 40
1.0
 40
1.0
 10
73.5836940118
 20
93.6271414988
 30
0.0
 10
73.583861244
 20
93.6389590557
 30
0.0
 10
73.5822002098
 20
93.6633394005
 30
0.0
 10
73.5718583096
 20
93.7126488989
 30
0.0
 10
73.55180849
 20
93.7606092289
 30
0.0
 10
73.5238297765
 20
93.803689301
 30
0.0
 10
73.4997832429
 20
93.832009596
 30
0.0
 10
73.4735647588
 20
93.855300592
 30
0.0
 10
73.4544137971
 20
93.86742845
 30
0.0
 10
73.4447407986
 20
93.8722649492
 30
0.0
  0
SPLINE
  5
3AF
100
AcDbEntity
  8
RACCORDO
100
AcDbSpline
 62
250
  6
CONTINUOUS
 70
0
 71
3
 72
11
 73
7
 74
0
 42
0.0000001
 43
0.0000001
 44
0.0000000001
 40
0.0
 40
0.0
 40
0.0
 40
0.0
 40
0.2776022032
 40
0.5332723123
 40
0.7715233023
 40
1.0
 40
1.0
 40
1.0
 40
1.0
 10
88.5061152379
 20
86.3415777296
 30
0.0
 10
88.4984996248
 20
86.3453855361
 30
0.0
 10
88.4832400107
 20
86.3515537706
 30
0.0
 10
88.4598149845
 20
86.3559910331
 30
0.0
 10
88.4374609644
 20
86.3549990408
 30
0.0
 10
88.4236239612
 20
86.3505919612
 30
0.0
 10
88.417302995
 20
86.3475664017
 30
0.0
  0
SPLINE
  5
3B0
100
AcDbEntity
  8
349160010
100
AcDbSpline
 62
7
  6
CONTINUOUS
 70
0
 71
3
 72
9
 73
5
 74
0
 42
0.0000001
 43
0.0000001
 44
0.0000000001
 40
0.0
 40
0.0
 40
0.0
 40
0.0
 40
0.2656286414
 40
1.0
 40
1.0
 40
1.0
 40
1.0
 10
78.8517817017
 20
85.4865700635
 30
0.0
 10
78.8572267358
 20
85.4892925806
 30
0.0
 10
78.8780864091
 20
85.4987640514
 30
0.0
 10
78.9005905978
 20
85.5049215954
 30
0.0
 10
78.9173341054
 20
85.5066303753
 30
0.0
  0
SPLINE
  5
3B1
100
AcDbEntity
  8
349160010
100
AcDbSpline
 62
7
  6
CONTINUOUS
 70
0
 71
3
 72
11
 73
7
 74
0
 42
0.0000001
 43
0.0000001
 44
0.0000000001
 40
0.0
 40
0.0
 40
0.0
 40
0.0
 40
0.246822998
 40
0.5117832723
 40
0.7702964853
 40
1.0
 40
1.0
 40
1.0
 40
1.0
 10
78.2760815348
 20
84.9389123589
 30
0.0
 10
78.2760815348
 20
84.9751512651
 30
0.0
 10
78.2885809456
 20
85.0504236472
 30
0.0
 10
78.333882444
 20
85.155090763
 30
0.0
 10
78.4004106991
 20
85.2446174301
 30
0.0
 10
78.4580486552
 20
85.2897035403
 30
0.0
 10
78.4882135691
 20
85.3047859972
 30
0.0
  0
SPLINE
  5
3B2
100
AcDbEntity
  8
349160010
100
AcDbSpline
 62
7
  6
CONTINUOUS
 70
0
 71
3
 72
12
 73
8
 74
0
 42
0.0000001
 43
0.0000001
 44
0.0000000001
 40
0.0
 40
0.0
 40
0.0
 40
0.0
 40
0.244044081
 40
0.5170216051
 40
0.7809852567
 40
0.8980924233
 40
1.0
 40
1.0
 40
1.0
 40
1.0
 10
78.0744710414
 20
87.3789140385
 30
0.0
 10
78.0537749291
 20
87.3892620946
 30
0.0
 10
78.0078982513
 20
87.4071132716
 30
0.0
 10
77.9362106041
 20
87.426042143
 30
0.0
 10
77.8747315019
 20
87.4354520398
 30
0.0
 10
77.8289589205
 20
87.4376558076
 30
0.0
 10
77.808162386
 20
87.4368791849
 30
0.0
 10
77.7985499828
 20
87.4358981789
 30
0.0
  0
SPLINE
  5
3B3
100
AcDbEntity
  8
349160010
100
AcDbSpline
 62
7
  6
CONTINUOUS
 70
0
 71
3
 72
12
 73
8
 74
0
 42
0.0000001
 43
0.0000001
 44
0.0000000001
 40
0.0
 40
0.0
 40
0.0
 40
0.0
 40
0.244044081
 40
0.5170216051
 40
0.7809852567
 40
0.8980924233
 40
1.0
 40
1.0
 40
1.0
 40
1.0
 10
74.0439623887
 20
89.3941683649
 30
0.0
 10
74.0232662764
 20
89.404516421
 30
0.0
 10
73.9773895985
 20
89.422367598
 30
0.0
 10
73.9057019514
 20
89.4412964694
 30
0.0
 10
73.8442228491
 20
89.4507063662
 30
0.0
 10
73.7984502678
 20
89.452910134
 30
0.0
 10
73.7776537332
 20
89.4521335112
 30
0.0
 10
73.7680413301
 20
89.4511525052
 30
0.0
  0
ELLIPSE
  5
3B4
100
AcDbEntity
  8
290160210
100
AcDbEllipse
 62
7
  6
CONTINUOUS
 10
79.9232933066
 20
44.7686962635
 30
0.0
 11
-0.0990115319
 21
0.2834276651
 31
0.0
 40
0.6682531592
 41
-3.1763281796
 42
-2.1738209895
  0
ELLIPSE
  5
3B5
100
AcDbEntity
  8
290160210
100
AcDbEllipse
 62
7
  6
CONTINUOUS
 10
82.9221392323
 20
76.1808471836
 30
0.0
 11
-0.0988059152
 21
0.2833186286
 31
0.0
 40
0.669013736
 41
-2.1726415447
 42
-0.6024542982
  0
ELLIPSE
  5
3B6
100
AcDbEntity
  8
268160210
100
AcDbEllipse
 62
7
  6
CONTINUOUS
 10
78.9603734019
 20
63.046486369
 30
0.0
 11
6.8993077073
 21
13.3201938412
 31
0.0
 40
0.6229838795
 41
0.3057595196
 42
0.6936054221
  0
ELLIPSE
  5
3B7
100
AcDbEntity
  8
268160210
100
AcDbEllipse
 62
7
  6
CONTINUOUS
 10
82.8369270048
 20
83.4116583436
 30
0.0
 11
-0.1118151638
 21
0.2236219863
 31
0.0
 40
0.6123267458
 41
-0.6846978779
 42
0.0095104069
  0
ELLIPSE
  5
3B8
100
AcDbEntity
  8
268160210
100
AcDbEllipse
 62
7
  6
CONTINUOUS
 10
66.7149125904
 20
91.4726655508
 30
0.0
 11
-0.1118523001
 21
0.2236266191
 31
0.0
 40
0.6122950388
 41
-0.6847996396
 42
0.0137852339
  0
ELLIPSE
  5
3B9
100
AcDbEntity
  8
268160210
100
AcDbEllipse
 62
7
  6
CONTINUOUS
 10
74.3656771048
 20
92.2072544231
 30
0.0
 11
0.9999938762
 21
-0.0070751823
 31
0.0
 40
0.4946372042
 41
0.7888978189
 42
2.3509674995
  0
ELLIPSE
  5
3BA
100
AcDbEntity
  8
268160210
100
AcDbEllipse
 62
7
  6
CONTINUOUS
 10
83.8975535172
 20
41.745154896
 30
0.0
 11
-0.1118523001
 21
0.2236266191
 31
0.0
 40
0.6122950388
 41
-3.1553778885
 42
-2.2557482655
  0
ELLIPSE
  5
3BB
100
AcDbEntity
  8
268160210
100
AcDbEllipse
 62
7
  6
CONTINUOUS
 10
83.8975535172
 20
82.8813450874
 30
0.0
 11
-0.1118222789
 21
0.2235999171
 31
0.0
 40
0.6124778111
 41
-2.255529033
 42
-0.6848850053
  0
ELLIPSE
  5
3BC
100
AcDbEntity
  8
268160210
100
AcDbEllipse
 62
7
  6
CONTINUOUS
 10
67.7755391028
 20
90.9423522946
 30
0.0
 11
-0.1118001475
 21
0.2236086385
 31
0.0
 40
0.6124181287
 41
-2.2554606976
 42
-0.6847405232
  0
ELLIPSE
  5
3BD
100
AcDbEntity
  8
268160210
100
AcDbEllipse
 62
7
  6
CONTINUOUS
 10
84.4986212092
 20
87.3838749875
 30
0.0
 11
0.9980068092
 21
-0.2399287748
 31
0.0
 40
0.2630210944
 41
1.892015834
 42
2.4193427802
  0
ELLIPSE
  5
3BE
100
AcDbEntity
  8
268160210
100
AcDbEllipse
 62
7
  6
CONTINUOUS
 10
85.511071849
 20
86.8178276948
 30
0.0
 11
0.3472651546
 21
0.6704497567
 31
0.0
 40
0.6229838795
 41
0.0088862197
 42
0.6936054221
  0
ELLIPSE
  5
3BF
100
AcDbEntity
  8
268160210
100
AcDbEllipse
 62
7
  6
CONTINUOUS
 10
75.4927106399
 20
91.8270082993
 30
0.0
 11
0.3424075876
 21
0.6729038513
 31
0.0
 40
0.6176975122
 41
0.004358182
 42
0.6890773845
  0
ELLIPSE
  5
3C0
100
AcDbEntity
  8
268160210
100
AcDbEllipse
 62
7
  6
CONTINUOUS
 10
82.8512932014
 20
76.3895355549
 30
0.0
 11
0.321967693
 21
0.6216090459
 31
0.0
 40
0.6229838795
 41
-0.8771909047
 42
0.3057595196
  0
ELLIPSE
  5
3C1
100
AcDbEntity
  8
268160210
100
AcDbEllipse
 62
7
  6
CONTINUOUS
 10
78.9603734019
 20
56.4646933002
 30
0.0
 11
6.8993077073
 21
13.3201938412
 31
0.0
 40
0.6229838795
 41
3.8351980757
 42
4.2230439782
  0
ELLIPSE
  5
3C2
100
AcDbEntity
  8
268160210
100
AcDbEllipse
 62
7
  6
CONTINUOUS
 10
82.8512932014
 20
46.8790616883
 30
0.0
 11
0.321967693
 21
0.6216090459
 31
0.0
 40
0.6229838795
 41
-2.0601413289
 42
-0.8771909047
  0
ELLIPSE
  5
3C3
100
AcDbEntity
  8
268160210
100
AcDbEllipse
 62
7
  6
CONTINUOUS
 10
75.0928668539
 20
90.5447950558
 30
0.0
 11
0.0907039967
 21
0.1782526758
 31
0.0
 40
0.6176975122
 41
-1.1632922732
 42
-0.8817189423
  0
ELLIPSE
  5
3C4
100
AcDbEntity
  8
268160210
100
AcDbEllipse
 62
7
  6
CONTINUOUS
 10
65.8184700358
 20
89.343905872
 30
0.0
 11
0.9733704753
 21
0.006985661
 31
0.0
 40
0.5053247124
 41
3.1379660677
 42
5.4854339116
  0
ELLIPSE
  5
3C5
100
AcDbEntity
  8
268160210
100
AcDbEllipse
 62
7
  6
CONTINUOUS
 10
81.9279181644
 20
81.2891818077
 30
0.0
 11
0.9733704753
 21
0.006985661
 31
0.0
 40
0.5053247124
 41
3.1379660678
 42
4.7437533698
  0
ELLIPSE
  5
3C6
100
AcDbEntity
  8
268160210
100
AcDbEllipse
 62
7
  6
CONTINUOUS
 10
77.4275533973
 20
90.9194088934
 30
0.0
 11
0.9980068092
 21
-0.2399287748
 31
0.0
 40
0.2630210944
 41
-0.7222498733
 42
-0.1949229271
  0
ELLIPSE
  5
3C7
100
AcDbEntity
  8
268160210
100
AcDbEllipse
 62
7
  6
CONTINUOUS
 10
81.1179322704
 20
50.6728897575
 30
0.0
 11
-0.5425076645
 21
0.8448521158
 31
0.0
 40
0.5465586794
 41
-3.2003291465
 42
-2.3142520245
  0
ELLIPSE
  5
3C8
100
AcDbEntity
  8
268160210
100
AcDbEllipse
 62
7
  6
CONTINUOUS
 10
86.7799462894
 20
86.1833904746
 30
0.0
 11
0.3329775165
 21
0.6776194794
 31
0.0
 40
0.607010042
 41
5.3929141747
 42
6.9637105015
  0
ELLIPSE
  5
3C9
100
AcDbEntity
  8
268160210
100
AcDbEllipse
 62
7
  6
CONTINUOUS
 10
76.7615850804
 20
91.1925710791
 30
0.0
 11
0.3283977615
 21
0.6798881985
 31
0.0
 40
0.6016116119
 41
5.3888788736
 42
6.9596752004
  0
ELLIPSE
  5
3CA
100
AcDbEntity
  8
268160210
100
AcDbEllipse
 62
7
  6
CONTINUOUS
 10
76.7615850804
 20
90.6525966196
 30
0.0
 11
0.3283977615
 21
0.6798881985
 31
0.0
 40
0.6016116119
 41
-0.0082293099
 42
0.3274240428
  0
ELLIPSE
  5
3CB
100
AcDbEntity
  8
268160210
100
AcDbEllipse
 62
7
  6
CONTINUOUS
 10
68.0364502282
 20
87.4099054362
 30
0.0
 11
0.8189691469
 21
0.0058775574
 31
0.0
 40
0.5053247124
 41
3.1379660665
 42
5.4854339116
  0
ELLIPSE
  5
3CC
100
AcDbEntity
  8
268160210
100
AcDbEllipse
 62
7
  6
CONTINUOUS
 10
78.0773665211
 20
82.3894472898
 30
0.0
 11
0.8189691469
 21
0.0058775574
 31
0.0
 40
0.5053247124
 41
3.1379660665
 42
5.4854339116
  0
ELLIPSE
  5
3CD
100
AcDbEntity
  8
RACCORDO
100
AcDbEllipse
 62
7
  6
CONTINUOUS
 10
83.9329142418
 20
41.6841914033
 30
0.0
 11
-0.0894803643
 21
0.1789340454
 31
0.0
 40
0.6121897086
 41
2.6743564489
 42
4.0274505145
  0
ELLIPSE
  5
3CE
100
AcDbEntity
  8
RACCORDO
100
AcDbEllipse
 62
7
  6
CONTINUOUS
 10
95.6305356771
 20
55.9244922952
 30
0.0
 11
0.2174819613
 21
0.4502570851
 31
0.0
 40
0.6016116119
 41
-0.0082293098
 42
0.6764898932
  0
ELLIPSE
  5
3CF
100
AcDbEntity
  8
RACCORDO
100
AcDbEllipse
 62
7
  6
CONTINUOUS
 10
83.9329142418
 20
82.9069478555
 30
0.0
 11
-0.0894323102
 21
0.1788913307
 31
0.0
 40
0.6125552124
 41
-2.255296188
 42
-0.6848044477
  0
ELLIPSE
  5
3D0
100
AcDbEntity
  8
RACCORDO
100
AcDbEllipse
 62
7
  6
CONTINUOUS
 10
66.6795518657
 20
91.5336290435
 30
0.0
 11
-0.0894803643
 21
0.1789340454
 31
0.0
 40
0.6121897086
 41
-0.6846338794
 42
0.4695771695
  0
ELLIPSE
  5
3D1
100
AcDbEntity
  8
RACCORDO
100
AcDbEllipse
 62
7
  6
CONTINUOUS
 10
67.7755458341
 20
90.9856320593
 30
0.0
 11
-0.0894247358
 21
0.1789148665
 31
0.0
 40
0.6123537661
 41
-0.7320348708
 42
-0.6845550499
  0
ELLIPSE
  5
3D2
100
AcDbEntity
  8
RACCORDO
100
AcDbEllipse
 62
7
  6
CONTINUOUS
 10
82.8369202734
 20
83.4549448397
 30
0.0
 11
-0.0894247358
 21
0.1789148665
 31
0.0
 40
0.6123537661
 41
-0.6845550499
 42
-0.6370752291
  0
ENDSEC
  0
SECTION
  2
OBJECTS
  0
DICTIONARY
  5
C
100
AcDbDictionary
280
0
281
1
  3
ACAD_GROUP
350
D
  3
ACAD_MLINESTYLE
350
17
  3
ACAD_LAYOUT
350
1A
  3
ACAD_PLOTSETTINGS
350
19
  3
ACAD_PLOTSTYLENAME
350
E
  0
DICTIONARY
  5
D
102
{ACAD_REACTORS
330
C
102
}
100
AcDbDictionary
280
0
281
1
  0
ACDBDICTIONARYWDFLT
  5
E
102
{ACAD_REACTORS
330
C
102
}
100
AcDbDictionary
281
1
  3
Normal
350
F
100
AcDbDictionaryWithDefault
340
F
  0
DICTIONARY
  5
17
102
{ACAD_REACTORS
330
C
102
}
100
AcDbDictionary
280
0
281
1
  3
Standard
350
18
  0
DICTIONARY
  5
19
102
{ACAD_REACTORS
330
C
102
}
100
AcDbDictionary
281
1
  0
DICTIONARY
  5
1A
102
{ACAD_REACTORS
330
C
102
}
100
AcDbDictionary
281
1
  3
Model
350
3D3
  3
Layout1
350
3D4
  0
ACDBPLACEHOLDER
  5
F
102
{ACAD_REACTORS
330
E
102
}
  0
MLINESTYLE
  5
18
102
{ACAD_REACTORS
330
17
102
}
100
AcDbMlineStyle
  2
STANDARD
 70
0
  3

 62
256
 51
90.0
 52
90.0
 71
2
 49
0.5
 62
256
  6
BYLAYER
 49
-0.5
 62
256
  6
BYLAYER
  0
LAYOUT
  5
3D3
102
{ACAD_REACTORS
330
1A
102
}
100
AcDbPlotSettings
  1

  2
none_device
  4
ISO_A4_(297.00_x_210.00_MM)
  6

 40
0.0
 41
0.0
 42
0.0
 43
0.0
 44
297.0
 45
210.0
 46
0.0
 47
0.0
 48
0.0
 49
0.0
140
0.0
141
0.0
142
1.0
143
1.0
 70
1024
 72
1
 73
0
 74
0
  7

 75
0
147
1.0
148
0.0
149
0.0
100
AcDbLayout
  1
Model
 70
0
 71
0
 10
0.0
 20
0.0
 11
297.0
 21
210.0
 12
0.0
 22
0.0
 32
0.0
 14
0.0
 24
0.0
 34
0.0
 15
0.0
 25
0.0
 35
0.0
146
0.0
 13
0.0
 23
0.0
 33
0.0
 16
1.0
 26
0.0
 36
0.0
 17
0.0
 27
1.0
 37
0.0
 76
0
330
229
345
0
346
0
  0
LAYOUT
  5
3D4
102
{ACAD_REACTORS
330
1A
102
}
100
AcDbPlotSettings
  1

  2
none_device
  4
ISO_A4_(297.00_x_210.00_MM)
  6

 40
0.0
 41
0.0
 42
0.0
 43
0.0
 44
297.0
 45
210.0
 46
0.0
 47
0.0
 48
0.0
 49
0.0
140
0.0
141
0.0
142
1.0
143
1.0
 70
0
 72
1
 73
0
 74
0
  7

 75
0
147
1.0
148
0.0
149
0.0
100
AcDbLayout
  1
Layout1
 70
0
 71
1
 10
0.0
 20
0.0
 11
297.0
 21
210.0
 12
0.0
 22
0.0
 32
0.0
 14
0.0
 24
0.0
 34
0.0
 15
0.0
 25
0.0
 35
0.0
146
0.0
 13
0.0
 23
0.0
 33
0.0
 16
1.0
 26
0.0
 36
0.0
 17
0.0
 27
1.0
 37
0.0
 76
0
330
22A
345
0
346
0
  0
ENDSEC
  0
EOF
