0
SECTION
2
HEADER
9
$ACADVER
1
AC1014
9
$HANDSEED
5
       3DF
9
$EXTMAX
10
297.0000000000
20
210.0000000000
9
$EXTMIN
10
0.0000000000
20
0.0000000000
9
$LIMMIN
10
0.0000000000
20
0.0000000000
9
$LIMMAX
10
297.0000000000
20
210.0000000000
9
$VIEWCTR
10
148.5000000000
20
105.0000000000
9
$VIEWSIZE
40
210.0000000000
9
$CLAYER
8
0
9
$LTSCALE
40
16.3350000000
9
$CELTYPE
6
BYLAYER
9
$DIMSCALE
40
1
9
$DIMASZ
40
3.0000000000
9
$DIMEXO
40
1.8562500000
9
$DIMDLI
40
11.2860000000
9
$DIMEXE
40
5.3460000000
9
$DIMCEN
40
2.6730000000
9
$DIMLFAC
40
1.0000000000
9
$DIMTXT
40
3.0000000000
9
$DIMTOL
70
1
9
$DIMLIM
70
0
9
$DIMTFAC
40
1.0000000000
9
$DIMTP
40
0.0100000000
9
$DIMTM
40
0.0100000000
9
$MEASUREMENT
70
1
0
ENDSEC
0
SECTION
2
CLASSES
0
ENDSEC
0
SECTION
2
TABLES
0
TABLE
2
VPORT
5
8
100
AcDbSymbolTable
70
2
0
VPORT
5
1F4
100
AcDbSymbolTableRecord
100
AcDbViewportTableRecord
2
*ACTIVE
70
0
10
0.0
20
0.0
11
1.0
21
1.0
12
148.5000000000
22
105.0000000000
13
0.0
23
0.0
14
1.0
24
1.0
15
0.0
25
0.0
16
0.0
26
0.0
36
1.0
17
0.0
27
0.0
37
0.0
40
210.0000000000
41
1.4142857143
42
50.0
43
0.0
44
0.0
50
0.0
51
0.0
71
0
72
100
73
1
74
1
75
0
76
0
77
0
78
0
0
ENDTAB
0
TABLE
2
LTYPE
5
5
100
AcDbSymbolTable
70
6
0
LTYPE
5
14
100
AcDbSymbolTableRecord
100
AcDbLinetypeTableRecord
2
BYBLOCK
70
0
3

72
65
73
0
40
0.0
0
LTYPE
5
15
100
AcDbSymbolTableRecord
100
AcDbLinetypeTableRecord
2
BYLAYER
70
0
3

72
65
73
0
40
0.0
0
LTYPE
5
16
100
AcDbSymbolTableRecord
100
AcDbLinetypeTableRecord
2
CONTINUOUS
70
64
3
Solid line
72
65
73
0
40
0
0
LTYPE
5
1F5
100
AcDbSymbolTableRecord
100
AcDbLinetypeTableRecord
2
CENTER
70
64
3
____ _ ____ _ ____ _ ____ _ ____ _ ____ _ ____
72
65
73
4
40
0.6
49
0.375
74
0
49
-0.075
74
0
49
0.075
74
0
49
-0.075
74
0
0
LTYPE
5
1F6
100
AcDbSymbolTableRecord
100
AcDbLinetypeTableRecord
2
HIDDEN
70
64
3
- - - - - - - - - - - - - - - - - - - -
72
65
73
2
40
0.2
49
0.1
74
0
49
-0.1
74
0
0
LTYPE
5
1F7
100
AcDbSymbolTableRecord
100
AcDbLinetypeTableRecord
2
PHANTOM
70
64
3
_____ _ _ _____ _ _ _____ _ _ _____
72
65
73
6
40
0.8
49
0.45
74
0
49
-0.05
74
0
49
0.1
74
0
49
-0.05
74
0
49
0.1
74
0
49
-0.05
74
0
0
LTYPE
5
1F8
100
AcDbSymbolTableRecord
100
AcDbLinetypeTableRecord
2
DOT
70
64
3
. . . . . . . . . . . . . . . . . . . .
72
65
73
2
40
0.2
49
0.1
74
0
49
-0.1
74
0
0
LTYPE
5
1F9
100
AcDbSymbolTableRecord
100
AcDbLinetypeTableRecord
2
DASHED
70
64
3
- - - - - - - - - - - - - - - - - - - -
72
65
73
2
40
0.2
49
0.1
74
0
49
-0.1
74
0
0
ENDTAB
0
TABLE
2
LAYER
5
2
100
AcDbSymbolTable
70
36
0
LAYER
5
10
100
AcDbSymbolTableRecord
100
AcDbLayerTableRecord
2
0
70
0
62
7
6
CONTINUOUS
0
LAYER
5
1FA
100
AcDbSymbolTableRecord
100
AcDbLayerTableRecord
2
DEFAULT_1
70
0
62
7
6
CENTER
0
LAYER
5
1FB
100
AcDbSymbolTableRecord
100
AcDbLayerTableRecord
2
DEFAULT_2
70
0
62
8
6
HIDDEN
0
LAYER
5
1FC
100
AcDbSymbolTableRecord
100
AcDbLayerTableRecord
2
DEFAULT_3
70
0
62
7
6
PHANTOM
0
LAYER
5
1FD
100
AcDbSymbolTableRecord
100
AcDbLayerTableRecord
2
_BLACK_HOLE
70
0
62
7
6
CONTINUOUS
0
LAYER
5
1FE
100
AcDbSymbolTableRecord
100
AcDbLayerTableRecord
2
218160210_GEN
70
0
62
7
6
CONTINUOUS
0
LAYER
5
1FF
100
AcDbSymbolTableRecord
100
AcDbLayerTableRecord
2
224160210_GEN
70
0
62
7
6
CONTINUOUS
0
LAYER
5
200
100
AcDbSymbolTableRecord
100
AcDbLayerTableRecord
2
268160210
70
0
62
7
6
CONTINUOUS
0
LAYER
5
201
100
AcDbSymbolTableRecord
100
AcDbLayerTableRecord
2
284160010
70
0
62
7
6
CONTINUOUS
0
LAYER
5
202
100
AcDbSymbolTableRecord
100
AcDbLayerTableRecord
2
290160210
70
0
62
7
6
CONTINUOUS
0
LAYER
5
203
100
AcDbSymbolTableRecord
100
AcDbLayerTableRecord
2
32016001
70
0
62
7
6
CONTINUOUS
0
LAYER
5
204
100
AcDbSymbolTableRecord
100
AcDbLayerTableRecord
2
341160050
70
0
62
7
6
CONTINUOUS
0
LAYER
5
205
100
AcDbSymbolTableRecord
100
AcDbLayerTableRecord
2
349160010
70
0
62
7
6
CONTINUOUS
0
LAYER
5
206
100
AcDbSymbolTableRecord
100
AcDbLayerTableRecord
2
712160050
70
0
62
7
6
CONTINUOUS
0
LAYER
5
207
100
AcDbSymbolTableRecord
100
AcDbLayerTableRecord
2
715160050
70
0
62
7
6
CONTINUOUS
0
LAYER
5
208
100
AcDbSymbolTableRecord
100
AcDbLayerTableRecord
2
ASSI
70
0
62
7
6
CONTINUOUS
0
LAYER
5
209
100
AcDbSymbolTableRecord
100
AcDbLayerTableRecord
2
COLOR2
70
0
62
7
6
CONTINUOUS
0
LAYER
5
20A
100
AcDbSymbolTableRecord
100
AcDbLayerTableRecord
2
COORDINATE
70
0
62
7
6
CONTINUOUS
0
LAYER
5
20B
100
AcDbSymbolTableRecord
100
AcDbLayerTableRecord
2
COORD_ORIGINE
70
0
62
7
6
CONTINUOUS
0
LAYER
5
20C
100
AcDbSymbolTableRecord
100
AcDbLayerTableRecord
2
COSMETICHE
70
0
62
7
6
CONTINUOUS
0
LAYER
5
20D
100
AcDbSymbolTableRecord
100
AcDbLayerTableRecord
2
COSMETICI
70
0
62
7
6
CONTINUOUS
0
LAYER
5
20E
100
AcDbSymbolTableRecord
100
AcDbLayerTableRecord
2
CURVE
70
0
62
7
6
CONTINUOUS
0
LAYER
5
20F
100
AcDbSymbolTableRecord
100
AcDbLayerTableRecord
2
DRAFT
70
0
62
7
6
CONTINUOUS
0
LAYER
5
210
100
AcDbSymbolTableRecord
100
AcDbLayerTableRecord
2
ESTENSIONE
70
0
62
7
6
CONTINUOUS
0
LAYER
5
211
100
AcDbSymbolTableRecord
100
AcDbLayerTableRecord
2
IMPORT
70
0
62
7
6
CONTINUOUS
0
LAYER
5
212
100
AcDbSymbolTableRecord
100
AcDbLayerTableRecord
2
INCISIONI_LASER
70
0
62
7
6
CONTINUOUS
0
LAYER
5
213
100
AcDbSymbolTableRecord
100
AcDbLayerTableRecord
2
INTF_1
70
0
62
7
6
CONTINUOUS
0
LAYER
5
214
100
AcDbSymbolTableRecord
100
AcDbLayerTableRecord
2
INTF_YELLOW
70
0
62
7
6
CONTINUOUS
0
LAYER
5
215
100
AcDbSymbolTableRecord
100
AcDbLayerTableRecord
2
NOTE
70
0
62
7
6
CONTINUOUS
0
LAYER
5
216
100
AcDbSymbolTableRecord
100
AcDbLayerTableRecord
2
PIANI
70
0
62
7
6
CONTINUOUS
0
LAYER
5
217
100
AcDbSymbolTableRecord
100
AcDbLayerTableRecord
2
PIANI_CENTRAGGIO
70
0
62
7
6
CONTINUOUS
0
LAYER
5
218
100
AcDbSymbolTableRecord
100
AcDbLayerTableRecord
2
PIANI_DI_RIFERIMENTO
70
0
62
7
6
CONTINUOUS
0
LAYER
5
219
100
AcDbSymbolTableRecord
100
AcDbLayerTableRecord
2
PIANI_ORIGINE
70
0
62
7
6
CONTINUOUS
0
LAYER
5
21A
100
AcDbSymbolTableRecord
100
AcDbLayerTableRecord
2
PUNTI
70
0
62
7
6
CONTINUOUS
0
LAYER
5
21B
100
AcDbSymbolTableRecord
100
AcDbLayerTableRecord
2
RACCORDO
70
0
62
7
6
CONTINUOUS
0
LAYER
5
21C
100
AcDbSymbolTableRecord
100
AcDbLayerTableRecord
2
RGB____0____0____0__
70
0
62
7
6
CONTINUOUS
0
LAYER
5
21D
100
AcDbSymbolTableRecord
100
AcDbLayerTableRecord
2
SMUSSO
70
0
62
7
6
CONTINUOUS
0
LAYER
5
21E
100
AcDbSymbolTableRecord
100
AcDbLayerTableRecord
2
SUPERFICI
70
0
62
7
6
CONTINUOUS
0
LAYER
5
21F
100
AcDbSymbolTableRecord
100
AcDbLayerTableRecord
2
TRASH
70
0
62
7
6
CONTINUOUS
0
LAYER
5
220
100
AcDbSymbolTableRecord
100
AcDbLayerTableRecord
2
XSEC_DATUMS
70
0
62
7
6
CONTINUOUS
0
ENDTAB
0
TABLE
2
STYLE
5
3
100
AcDbSymbolTable
70
1
0
STYLE
5
11
100
AcDbSymbolTableRecord
100
AcDbTextStyleTableRecord
2
STANDARD
70
0
40
0.0
41
0.8000000000
50
0.0
71
0
42
0.2
3
txt
4

0
ENDTAB
0
TABLE
2
VIEW
5
6
100
AcDbSymbolTable
70
0
0
ENDTAB
0
TABLE
2
UCS
5
7
100
AcDbSymbolTable
70
0
0
ENDTAB
0
TABLE
2
APPID
5
9
100
AcDbSymbolTable
70
1
0
APPID
5
221
100
AcDbSymbolTableRecord
100
AcDbRegAppTableRecord
2
ACAD
70
0
0
ENDTAB
0
TABLE
2
DIMSTYLE
5
A
100
AcDbSymbolTable
70
1
0
DIMSTYLE
105
222
100
AcDbSymbolTableRecord
100
AcDbDimStyleTableRecord
2
STANDARD
70
0
3

4

5

6

7

40
1.0
41
3.0000000000
42
0.0625
43
0.38
44
0.18
45
0.0
46
0.0
47
0.0100000000
48
0.0100000000
140
3.0000000000
141
0.09
142
0.0
143
25.4
144
1.0000000000
145
0.0
146
1.0000000000
147
0.09
71
1
72
0
73
0
74
0
75
0
76
0
77
1
78
8
170
0
171
2
172
0
173
0
174
0
175
0
176
0
177
0
178
0
270
2
271
2
272
2
273
2
274
2
340
11
275
0
280
0
281
0
282
0
283
1
284
8
285
0
286
0
287
3
288
0
0
ENDTAB
0
TABLE
2
BLOCK_RECORD
5
1
100
AcDbSymbolTable
70
0
0
BLOCK_RECORD
5
1B
100
AcDbSymbolTableRecord
100
AcDbBlockTableRecord
2
*MODEL_SPACE
0
BLOCK_RECORD
5
1C
100
AcDbSymbolTableRecord
100
AcDbBlockTableRecord
2
*PAPER_SPACE
0
ENDTAB
0
ENDSEC
0
SECTION
2
BLOCKS
0
BLOCK
5
1E
100
AcDbEntity
8
0
100
AcDbBlockBegin
2
*MODEL_SPACE
70
0
10
0.0
20
0.0
30
0.0
3
*MODEL_SPACE
1

0
ENDBLK
5
1F
100
AcDbEntity
8
0
100
AcDbBlockEnd
0
BLOCK
5
20
100
AcDbEntity
8
0
100
AcDbBlockBegin
2
*PAPER_SPACE
70
0
10
0.0
20
0.0
30
0.0
3
*PAPER_SPACE
1

0
ENDBLK
5
21
100
AcDbEntity
8
0
100
AcDbBlockEnd
0
ENDSEC
0
SECTION
2
ENTITIES
0
LINE
5
223
100
AcDbEntity
8
0
100
AcDbLine
62
7
6
CONTINUOUS
10
16.4720523035
20
-27.3671563060
11
10.7916885745
21
-27.3994387955
0
LINE
5
224
100
AcDbEntity
8
0
100
AcDbLine
62
9
6
CONTINUOUS
10
16.6116722701
20
-27.1836324086
11
10.9315081846
21
-27.2159137635
0
LINE
5
225
100
AcDbEntity
8
0
100
AcDbLine
62
7
6
CONTINUOUS
10
5.5579308082
20
-27.9365035978
11
5.9277997573
21
-27.9441138229
0
LINE
5
226
100
AcDbEntity
8
0
100
AcDbLine
62
7
6
CONTINUOUS
10
5.5849926713
20
-27.5378985366
11
5.9548616205
21
-27.5455087617
0
LINE
5
227
100
AcDbEntity
8
0
100
AcDbLine
62
9
6
CONTINUOUS
10
5.3894806806
20
-27.2345043830
11
5.1017361632
21
-27.2285839061
0
LINE
5
228
100
AcDbEntity
8
0
100
AcDbLine
62
7
6
CONTINUOUS
10
5.4097770780
20
-26.9355505871
11
5.1220325606
21
-26.9296301102
0
LINE
5
229
100
AcDbEntity
8
0
100
AcDbLine
62
9
6
CONTINUOUS
10
3.6932300212
20
-26.7599129206
11
3.9809745385
21
-26.7658333974
0
LINE
5
22A
100
AcDbEntity
8
0
100
AcDbLine
62
9
6
CONTINUOUS
10
3.5678410766
20
-26.5616195363
11
3.8555855939
21
-26.5675400131
0
LINE
5
22B
100
AcDbEntity
8
0
100
AcDbLine
62
7
6
CONTINUOUS
10
10.7552836315
20
-27.3954306719
11
9.2631505316
21
-27.3445296801
0
LINE
5
22C
100
AcDbEntity
8
0
100
AcDbLine
62
9
6
CONTINUOUS
10
10.9348910464
20
-27.1660862331
11
9.4413422353
21
-27.1151369474
0
LINE
5
22D
100
AcDbEntity
8
0
100
AcDbLine
62
7
6
CONTINUOUS
10
-1.7356958641
20
-26.1145738581
11
-1.7451683630
21
-26.1139246439
0
LINE
5
22E
100
AcDbEntity
8
0
100
AcDbLine
62
7
6
CONTINUOUS
10
5.5222335883
20
-27.9338980048
11
5.5579308082
21
-27.9365035978
0
LINE
5
22F
100
AcDbEntity
8
0
100
AcDbLine
62
7
6
CONTINUOUS
10
5.5695801708
20
-27.5367251241
11
5.5849926713
21
-27.5378985366
0
LINE
5
230
100
AcDbEntity
8
0
100
AcDbLine
62
7
6
CONTINUOUS
10
5.5227215443
20
-27.9340581155
11
-2.7732819188
21
-26.9486354595
0
LINE
5
231
100
AcDbEntity
8
0
100
AcDbLine
62
9
6
CONTINUOUS
10
5.4722478941
20
-27.4881825441
11
5.9548616205
21
-27.5455087617
0
LINE
5
232
100
AcDbEntity
8
0
100
AcDbLine
62
9
6
CONTINUOUS
10
5.4508552032
20
-27.4643423267
11
6.0225434563
21
-27.5322490674
0
LINE
5
233
100
AcDbEntity
8
0
100
AcDbLine
62
9
6
CONTINUOUS
10
-3.1942672998
20
-26.2431612501
11
5.1017361632
21
-27.2285839061
0
LINE
5
234
100
AcDbEntity
8
0
100
AcDbLine
62
7
6
CONTINUOUS
10
-3.1739709025
20
-25.9442074542
11
-1.7451683630
21
-26.1139246439
0
LINE
5
235
100
AcDbEntity
8
0
100
AcDbLine
62
7
6
CONTINUOUS
10
3.6932300212
20
-26.7599129206
11
5.1220325606
21
-26.9296301102
0
LINE
5
236
100
AcDbEntity
8
0
100
AcDbLine
62
7
6
CONTINUOUS
10
-2.8862263851
20
-25.9501279311
11
-1.6726720182
21
-26.0942773366
0
LINE
5
237
100
AcDbEntity
8
0
100
AcDbLine
62
7
6
CONTINUOUS
10
3.9809745385
20
-26.7658333974
11
5.4097770780
21
-26.9355505871
0
LINE
5
238
100
AcDbEntity
8
0
100
AcDbLine
62
7
6
CONTINUOUS
10
10.7797336482
20
-27.3987647298
11
10.7502072578
21
-27.3952575020
0
LINE
5
239
100
AcDbEntity
8
0
100
AcDbLine
62
7
6
CONTINUOUS
10
-1.5383716220
20
-25.5105509516
11
-4.9971179648
21
-25.5229978731
0
LINE
5
23A
100
AcDbEntity
8
0
100
AcDbLine
62
9
6
CONTINUOUS
10
-1.5146479081
20
-25.3273855711
11
-4.8336565699
21
-25.3393296214
0
LINE
5
23B
100
AcDbEntity
8
0
100
AcDbLine
62
7
6
CONTINUOUS
10
-2.8862263851
20
-25.9501279311
11
-3.1739709025
21
-25.9442074542
0
LINE
5
23C
100
AcDbEntity
8
0
100
AcDbLine
62
7
6
CONTINUOUS
10
7.8585892372
20
-26.2478887092
11
5.5828513090
21
-26.1718608246
0
LINE
5
23D
100
AcDbEntity
8
0
100
AcDbLine
62
7
6
CONTINUOUS
10
-5.0070333975
20
-25.5231311152
11
-6.4821803326
21
-25.4738493857
0
LINE
5
23E
100
AcDbEntity
8
0
100
AcDbLine
62
9
6
CONTINUOUS
10
-4.8275142454
20
-25.2937642157
11
-6.3025755444
21
-25.2444853472
0
LINE
5
23F
100
AcDbEntity
8
0
100
AcDbLine
62
7
6
CONTINUOUS
10
-1.4848888364
20
-25.0976225698
11
-4.2340861223
21
-25.0057773483
0
LINE
5
240
100
AcDbEntity
8
0
100
AcDbLine
62
7
6
CONTINUOUS
10
5.5600175168
20
-25.6668031312
11
8.9068056889
21
-25.7809717915
0
LINE
5
241
100
AcDbEntity
8
0
100
AcDbLine
62
9
6
CONTINUOUS
10
5.7382092205
20
-25.4374103985
11
9.5464257429
21
-25.5673197193
0
LINE
5
242
100
AcDbEntity
8
0
100
AcDbLine
62
7
6
CONTINUOUS
10
6.8148159958
20
-26.6466466109
11
5.4320970689
21
-26.4824033625
0
LINE
5
243
100
AcDbEntity
8
0
100
AcDbLine
62
7
6
CONTINUOUS
10
7.3737839878
20
-26.3396217022
11
6.1096009905
21
-26.1894584854
0
LINE
5
244
100
AcDbEntity
8
0
100
AcDbLine
62
7
6
CONTINUOUS
10
-11.0853265124
20
-23.6905126967
11
5.5390523833
21
-25.6652032424
0
LINE
5
245
100
AcDbEntity
8
0
100
AcDbLine
62
9
6
CONTINUOUS
10
-11.2356784342
20
-23.4385576219
11
5.3887004615
21
-25.4132481676
0
LINE
5
246
100
AcDbEntity
8
0
100
AcDbLine
62
7
6
CONTINUOUS
10
23.6798900631
20
-22.6133555482
11
17.5348427046
21
-22.6482789151
0
LINE
5
247
100
AcDbEntity
8
0
100
AcDbLine
62
9
6
CONTINUOUS
10
17.5072611850
20
-22.1916096331
11
24.0289399796
21
-22.1545458046
0
LINE
5
248
100
AcDbEntity
8
0
100
AcDbLine
62
7
6
CONTINUOUS
10
5.9637351290
20
-22.1155486281
11
6.0706494177
21
-22.1179216667
0
LINE
5
249
100
AcDbEntity
8
0
100
AcDbLine
62
9
6
CONTINUOUS
10
-9.2964138867
20
-19.6579621331
11
-15.3285364466
21
-18.4866311159
0
LINE
5
24A
100
AcDbEntity
8
0
100
AcDbLine
62
7
6
CONTINUOUS
10
-15.3396202885
20
-18.4848788981
11
-9.3069882944
21
-19.6563092522
0
LINE
5
24B
100
AcDbEntity
8
0
100
AcDbLine
62
7
6
CONTINUOUS
10
-11.0062579309
20
-20.0998050585
11
-10.9028712919
21
-20.1017590588
0
LINE
5
24C
100
AcDbEntity
8
0
100
AcDbLine
62
7
6
CONTINUOUS
10
5.6142263700
20
-22.0913863972
11
-11.0101525257
21
-20.1166958515
0
LINE
5
24D
100
AcDbEntity
8
0
100
AcDbLine
62
9
6
CONTINUOUS
10
6.0706494177
20
-22.1179216667
11
-10.9028712919
21
-20.1017590588
0
LINE
5
24E
100
AcDbEntity
8
0
100
AcDbLine
62
7
6
CONTINUOUS
10
7.2956562155
20
-21.6288149493
11
-9.2964138867
21
-19.6579621331
0
LINE
5
24F
100
AcDbEntity
8
0
100
AcDbLine
62
9
6
CONTINUOUS
10
-15.3285364466
20
-18.4866311159
11
1.0536984016
21
-20.4325591096
0
LINE
5
250
100
AcDbEntity
8
0
100
AcDbLine
62
9
6
CONTINUOUS
10
10.2953657639
20
-21.0997926888
11
7.6283594870
21
-20.7829981720
0
LINE
5
251
100
AcDbEntity
8
0
100
AcDbLine
62
9
6
CONTINUOUS
10
-15.3392774408
20
-18.4849458869
11
-15.3285364453
21
-18.4866311161
0
LINE
5
252
100
AcDbEntity
8
0
100
AcDbLine
62
7
6
CONTINUOUS
10
-9.2964138867
20
-19.6579621331
11
-9.3070570554
21
-19.6562820093
0
LINE
5
253
100
AcDbEntity
8
0
100
AcDbLine
62
9
6
CONTINUOUS
10
1.0536984016
20
-20.4325591096
11
7.2956562155
21
-21.6288149493
0
LINE
5
254
100
AcDbEntity
8
0
100
AcDbLine
62
9
6
CONTINUOUS
10
1.3038037208
20
-20.1603841839
11
7.5457615347
21
-21.3566400236
0
LINE
5
255
100
AcDbEntity
8
0
100
AcDbLine
62
7
6
CONTINUOUS
10
25.4669089019
20
-18.3751045069
11
23.6983629731
21
-18.3634337626
0
LINE
5
256
100
AcDbEntity
8
0
100
AcDbLine
62
9
6
CONTINUOUS
10
25.6656584695
20
-18.1181715870
11
23.7158877058
21
-18.1053049288
0
LINE
5
257
100
AcDbEntity
8
0
100
AcDbLine
62
9
6
CONTINUOUS
10
17.7535274084
20
-18.5642554277
11
24.2606323939
21
-18.6872392564
0
LINE
5
258
100
AcDbEntity
8
0
100
AcDbLine
62
9
6
CONTINUOUS
10
17.8265052620
20
-18.3522638565
11
24.1334067427
21
-18.4714638530
0
LINE
5
259
100
AcDbEntity
8
0
100
AcDbLine
62
7
6
CONTINUOUS
10
17.8318562635
20
-18.2734468036
11
23.3432995554
21
-18.3776126960
0
LINE
5
25A
100
AcDbEntity
8
0
100
AcDbLine
62
7
6
CONTINUOUS
10
8.0032358739
20
-18.1794858739
11
8.7355398834
21
-18.1945533685
0
LINE
5
25B
100
AcDbEntity
8
0
100
AcDbLine
62
9
6
CONTINUOUS
10
-15.8787945587
20
-17.4201614290
11
0.4868538233
21
-19.3641192356
0
LINE
5
25C
100
AcDbEntity
8
0
100
AcDbLine
62
9
6
CONTINUOUS
10
10.6575705915
20
-20.4611107211
11
7.7248668087
21
-20.1127559062
0
LINE
5
25D
100
AcDbEntity
8
0
100
AcDbLine
62
7
6
CONTINUOUS
10
10.7082565935
20
-19.7145362219
11
9.4067899851
21
-19.5599443527
0
LINE
5
25E
100
AcDbEntity
8
0
100
AcDbLine
62
7
6
CONTINUOUS
10
8.7123076012
20
-18.1940753535
11
9.3801503806
21
-18.2734035998
0
LINE
5
25F
100
AcDbEntity
8
0
100
AcDbLine
62
7
6
CONTINUOUS
10
-11.3052639394
20
-23.4253240466
11
-11.0797380309
21
-20.1034622762
0
LINE
5
260
100
AcDbEntity
8
0
100
AcDbLine
62
7
6
CONTINUOUS
10
-8.5359228963
20
17.3654134785
11
-8.3103969878
21
20.6872752489
0
LINE
5
261
100
AcDbEntity
8
0
100
AcDbLine
62
9
6
CONTINUOUS
10
-11.2356784342
20
-23.4385576219
11
-11.0101525257
21
-20.1166958515
0
LINE
5
262
100
AcDbEntity
8
0
100
AcDbLine
62
9
6
CONTINUOUS
10
-8.4663373912
20
17.3521799032
11
-8.2408114827
21
20.6740416736
0
LINE
5
263
100
AcDbEntity
8
0
100
AcDbLine
62
9
6
CONTINUOUS
10
8.1370825482
20
-17.2499222237
11
9.3594785779
21
-17.2750735888
0
LINE
5
264
100
AcDbEntity
8
0
100
AcDbLine
62
7
6
CONTINUOUS
10
24.1579816177
20
-18.4731423754
11
24.1580293088
21
-18.4731480391
0
LINE
5
265
100
AcDbEntity
8
0
100
AcDbLine
62
9
6
CONTINUOUS
10
23.3432995554
20
-18.3776126960
11
24.1334067427
21
-18.4714638530
0
LINE
5
266
100
AcDbEntity
8
0
100
AcDbLine
62
7
6
CONTINUOUS
10
23.3680260819
20
-18.3793092301
11
24.1578183680
21
-18.4731229822
0
LINE
5
267
100
AcDbEntity
8
0
100
AcDbLine
62
7
6
CONTINUOUS
10
-7.8708246256
20
-24.0723402840
11
-7.9402063294
21
-25.0942912914
0
LINE
5
268
100
AcDbEntity
8
0
100
AcDbLine
62
7
6
CONTINUOUS
10
-4.8178923880
20
20.8955259521
11
-4.7296172835
21
22.1957654537
0
LINE
5
269
100
AcDbEntity
8
0
100
AcDbLine
62
7
6
CONTINUOUS
10
-4.1593775875
20
15.5089737764
11
-4.1579847982
21
15.5294887289
0
LINE
5
26A
100
AcDbEntity
8
0
100
AcDbLine
62
9
6
CONTINUOUS
10
-6.2361792790
20
-24.2665080621
11
-6.3025755444
21
-25.2444853472
0
LINE
5
26B
100
AcDbEntity
8
0
100
AcDbLine
62
9
6
CONTINUOUS
10
-3.1795516170
20
20.7557895662
11
-3.0913811298
21
22.0544881170
0
LINE
5
26C
100
AcDbEntity
8
0
100
AcDbLine
62
7
6
CONTINUOUS
10
-5.5756629743
20
-24.3449660490
11
-5.6118589823
21
-24.8781116025
0
LINE
5
26D
100
AcDbEntity
8
0
100
AcDbLine
62
7
6
CONTINUOUS
10
-2.5283114621
20
20.5406994391
11
-2.4717439309
21
21.3739053466
0
LINE
5
26E
100
AcDbEntity
8
0
100
AcDbLine
62
7
6
CONTINUOUS
10
-4.8275142454
20
-25.2937642157
11
-4.8057390095
21
-24.9730280121
0
LINE
5
26F
100
AcDbEntity
8
0
100
AcDbLine
62
7
6
CONTINUOUS
10
-1.6591330505
20
21.3745961246
11
-1.6139167103
21
22.0406057762
0
LINE
5
270
100
AcDbEntity
8
0
100
AcDbLine
62
7
6
CONTINUOUS
10
18.3000554934
20
-11.3771521266
11
24.6167409680
21
-11.4965370398
0
LINE
5
271
100
AcDbEntity
8
0
100
AcDbLine
62
9
6
CONTINUOUS
10
26.0981063686
20
-11.7484726324
11
24.1515880299
21
-11.6876996994
0
LINE
5
272
100
AcDbEntity
8
0
100
AcDbLine
62
9
6
CONTINUOUS
10
-4.2003139792
20
-24.5083338761
11
-4.2340861223
21
-25.0057773483
0
LINE
5
273
100
AcDbEntity
8
0
100
AcDbLine
62
9
6
CONTINUOUS
10
-1.1498532465
20
20.4231285711
11
-1.0936283931
21
21.2512870397
0
LINE
5
274
100
AcDbEntity
8
0
100
AcDbLine
62
7
6
CONTINUOUS
10
-3.1739709025
20
-25.9442074542
11
-3.1942672998
21
-26.2431612501
0
LINE
5
275
100
AcDbEntity
8
0
100
AcDbLine
62
7
6
CONTINUOUS
10
0.0840409629
20
22.0443590632
11
0.1043373603
21
22.3433128591
0
LINE
5
276
100
AcDbEntity
8
0
100
AcDbLine
62
9
6
CONTINUOUS
10
18.2541718764
20
-11.1900617951
11
24.7612768619
21
-11.3130456238
0
LINE
5
277
100
AcDbEntity
8
0
100
AcDbLine
62
9
6
CONTINUOUS
10
25.9219324426
20
-11.4464396336
11
24.8328624283
21
-11.4124373960
0
LINE
5
278
100
AcDbEntity
8
0
100
AcDbLine
62
9
6
CONTINUOUS
10
24.8922614856
20
-11.3241324174
11
25.9219324426
21
-11.4464396336
0
LINE
5
279
100
AcDbEntity
8
0
100
AcDbLine
62
7
6
CONTINUOUS
10
24.8924582623
20
-11.3236800773
11
25.9329384407
21
-11.4472712433
0
LINE
5
27A
100
AcDbEntity
8
0
100
AcDbLine
62
7
6
CONTINUOUS
10
1.6382324469
20
21.6763484893
11
1.6274826706
21
20.1717026457
0
LINE
5
27B
100
AcDbEntity
8
0
100
AcDbLine
62
7
6
CONTINUOUS
10
-1.4508635809
20
-24.8349213379
11
-1.5950761521
21
-25.9483536871
0
LINE
5
27C
100
AcDbEntity
8
0
100
AcDbLine
62
9
6
CONTINUOUS
10
8.3272216621
20
21.0652108439
11
8.2853790222
21
20.9275301464
0
LINE
5
27D
100
AcDbEntity
8
0
100
AcDbLine
62
9
6
CONTINUOUS
10
8.6192989675
20
21.0540136341
11
8.5562951080
21
20.8467032124
0
LINE
5
27E
100
AcDbEntity
8
0
100
AcDbLine
62
9
6
CONTINUOUS
10
9.3597541583
20
21.6228689532
11
9.4744094654
21
22.0001353661
0
LINE
5
27F
100
AcDbEntity
8
0
100
AcDbLine
62
9
6
CONTINUOUS
10
5.1528184075
20
-26.5247521665
11
5.0896378229
21
-26.1438266976
0
LINE
5
280
100
AcDbEntity
8
0
100
AcDbLine
62
9
6
CONTINUOUS
10
5.4320970689
20
-26.4824033625
11
5.3790911697
21
-26.1628226381
0
LINE
5
281
100
AcDbEntity
8
0
100
AcDbLine
62
9
6
CONTINUOUS
10
6.0225434563
20
-27.5322490674
11
6.0857240409
21
-27.9131745363
0
LINE
5
282
100
AcDbEntity
8
0
100
AcDbLine
62
7
6
CONTINUOUS
10
3.5678410766
20
-26.5616195363
11
3.5759114057
21
-25.4320158281
0
LINE
5
283
100
AcDbEntity
8
0
100
AcDbLine
62
7
6
CONTINUOUS
10
3.8555855939
20
-26.5675400131
11
3.8634542036
21
-25.4661709715
0
LINE
5
284
100
AcDbEntity
8
0
100
AcDbLine
62
7
6
CONTINUOUS
10
6.6090567812
20
19.5799772429
11
6.8011496756
21
21.0630826401
0
LINE
5
285
100
AcDbEntity
8
0
100
AcDbLine
62
7
6
CONTINUOUS
10
6.8963929814
20
19.5709042426
11
7.0888941930
21
21.0571621633
0
LINE
5
286
100
AcDbEntity
8
0
100
AcDbLine
62
9
6
CONTINUOUS
10
10.5749861620
20
20.6540449677
11
10.5611626115
21
20.6085594039
0
LINE
5
287
100
AcDbEntity
8
0
100
AcDbLine
62
7
6
CONTINUOUS
10
10.3474054018
20
-3.4501785355
11
10.1278451152
21
-3.4240985463
0
LINE
5
288
100
AcDbEntity
8
0
100
AcDbLine
62
9
6
CONTINUOUS
10
7.3852006622
20
-26.4084545892
11
7.3737839878
21
-26.3396217022
0
LINE
5
289
100
AcDbEntity
8
0
100
AcDbLine
62
7
6
CONTINUOUS
10
4.2412744570
20
-25.5110495253
11
4.2050784490
21
-26.0441950788
0
LINE
5
28A
100
AcDbEntity
8
0
100
AcDbLine
62
7
6
CONTINUOUS
10
7.2886259692
20
19.3746159629
11
7.3451935004
21
20.2078218704
0
LINE
5
28B
100
AcDbEntity
8
0
100
AcDbLine
62
7
6
CONTINUOUS
10
5.1220325606
20
-26.9296301102
11
5.1017361632
21
-27.2285839061
0
LINE
5
28C
100
AcDbEntity
8
0
100
AcDbLine
62
7
6
CONTINUOUS
10
8.3800444260
20
21.0589364072
11
8.4003408233
21
21.3578902031
0
LINE
5
28D
100
AcDbEntity
8
0
100
AcDbLine
62
9
6
CONTINUOUS
10
8.3835674130
20
18.6993511279
11
8.1580415045
21
15.3774893575
0
LINE
5
28E
100
AcDbEntity
8
0
100
AcDbLine
62
9
6
CONTINUOUS
10
5.6142263700
20
-22.0913863972
11
5.3887004615
21
-25.4132481676
0
LINE
5
28F
100
AcDbEntity
8
0
100
AcDbLine
62
7
6
CONTINUOUS
10
5.4097770780
20
-26.9355505871
11
5.3894806806
21
-27.2345043830
0
LINE
5
290
100
AcDbEntity
8
0
100
AcDbLine
62
7
6
CONTINUOUS
10
8.6677889433
20
21.0530159304
11
8.6880853407
21
21.3519697263
0
LINE
5
291
100
AcDbEntity
8
0
100
AcDbLine
62
9
6
CONTINUOUS
10
5.6170084030
20
-25.6687472558
11
5.5828513090
21
-26.1718608246
0
LINE
5
292
100
AcDbEntity
8
0
100
AcDbLine
62
9
6
CONTINUOUS
10
8.6670841848
20
19.2570450948
11
8.7233090382
21
20.0852035634
0
LINE
5
293
100
AcDbEntity
8
0
100
AcDbLine
62
9
6
CONTINUOUS
10
5.5849926713
20
-27.5378985366
11
5.5579308082
21
-27.9365035978
0
LINE
5
294
100
AcDbEntity
8
0
100
AcDbLine
62
9
6
CONTINUOUS
10
8.9241901260
20
21.6464831645
11
8.9512519892
21
22.0450882258
0
LINE
5
295
100
AcDbEntity
8
0
100
AcDbLine
62
9
6
CONTINUOUS
10
8.7330761721
20
18.6751888970
11
8.5075502636
21
15.3533271266
0
LINE
5
296
100
AcDbEntity
8
0
100
AcDbLine
62
9
6
CONTINUOUS
10
5.9637351290
20
-22.1155486281
11
5.7382092205
21
-25.4374103985
0
LINE
5
297
100
AcDbEntity
8
0
100
AcDbLine
62
9
6
CONTINUOUS
10
5.9548616205
20
-27.5455087617
11
5.9277997573
21
-27.9441138229
0
LINE
5
298
100
AcDbEntity
8
0
100
AcDbLine
62
9
6
CONTINUOUS
10
9.2940590752
20
21.6388729394
11
9.3211209384
21
22.0374780006
0
LINE
5
299
100
AcDbEntity
8
0
100
AcDbLine
62
7
6
CONTINUOUS
10
9.4067899851
20
-19.5599443527
11
9.3801503806
21
-18.2734035998
0
LINE
5
29A
100
AcDbEntity
8
0
100
AcDbLine
62
7
6
CONTINUOUS
10
9.3594785779
20
-17.2750735888
11
9.2053368434
21
-9.8309081374
0
LINE
5
29B
100
AcDbEntity
8
0
100
AcDbLine
62
7
6
CONTINUOUS
10
7.8926376753
20
-25.7463755765
11
7.8098945594
21
-26.9651321933
0
LINE
5
29C
100
AcDbEntity
8
0
100
AcDbLine
62
7
6
CONTINUOUS
10
10.9322083989
20
19.0246835484
11
11.0204835461
21
20.3249236791
0
LINE
5
29D
100
AcDbEntity
8
0
100
AcDbLine
62
7
6
CONTINUOUS
10
10.7082565935
20
-19.7145362219
11
10.3474054018
21
-3.4501785355
0
LINE
5
29E
100
AcDbEntity
8
0
100
AcDbLine
62
9
6
CONTINUOUS
10
9.5464257429
20
-25.5673197193
11
9.4413422353
21
-27.1151369474
0
LINE
5
29F
100
AcDbEntity
8
0
100
AcDbLine
62
9
6
CONTINUOUS
10
12.5474456888
20
18.6359095033
11
12.6525291964
21
20.1837267314
0
LINE
5
2A0
100
AcDbEntity
8
0
100
AcDbLine
62
7
6
CONTINUOUS
10
10.6575705915
20
-20.4611107211
11
10.7082565935
21
-19.7145362219
0
LINE
5
2A1
100
AcDbEntity
8
0
100
AcDbLine
62
7
6
CONTINUOUS
10
12.9122684769
20
12.7492408433
11
12.9629544789
21
13.4958153426
0
LINE
5
2A2
100
AcDbEntity
8
0
100
AcDbLine
62
7
6
CONTINUOUS
10
12.5040009185
20
13.0782768300
11
7.5457615347
21
-21.3566400236
0
LINE
5
2A3
100
AcDbEntity
8
0
100
AcDbLine
62
7
6
CONTINUOUS
10
10.3474054018
20
-3.4501785355
11
12.9122684769
21
12.7492408433
0
LINE
5
2A4
100
AcDbEntity
8
0
100
AcDbLine
62
7
6
CONTINUOUS
10
10.9315081846
20
-27.2159137635
11
14.1518740191
21
20.2181492312
0
LINE
5
2A5
100
AcDbEntity
8
0
100
AcDbLine
62
7
6
CONTINUOUS
10
-8.3584628643
20
7.1880594006
11
-8.3585921022
21
7.1880810976
0
LINE
5
2A6
100
AcDbEntity
8
0
100
AcDbLine
62
7
6
CONTINUOUS
10
-8.0136112305
20
7.1808813402
11
-8.5155827687
21
7.2651285559
0
LINE
5
2A7
100
AcDbEntity
8
0
100
AcDbLine
62
9
6
CONTINUOUS
10
17.5072611850
20
-22.1916096331
11
17.2217477830
21
-26.3970513108
0
LINE
5
2A8
100
AcDbEntity
8
0
100
AcDbLine
62
9
6
CONTINUOUS
10
17.7535274084
20
-18.5642554277
11
18.2541718764
21
-11.1900617951
0
LINE
5
2A9
100
AcDbEntity
8
0
100
AcDbLine
62
9
6
CONTINUOUS
10
19.9694546658
20
14.0750279711
11
20.3149467688
21
19.1639200469
0
LINE
5
2AA
100
AcDbEntity
8
0
100
AcDbLine
62
7
6
CONTINUOUS
10
17.5503452452
20
-22.4199357628
11
17.2805318630
21
-26.3941255367
0
LINE
5
2AB
100
AcDbEntity
8
0
100
AcDbLine
62
7
6
CONTINUOUS
10
17.8218649505
20
-18.4206128702
11
18.3034024943
21
-11.3278528044
0
LINE
5
2AC
100
AcDbEntity
8
0
100
AcDbLine
62
7
6
CONTINUOUS
10
20.0439387656
20
14.3092056490
11
20.3737308488
21
19.1668458211
0
LINE
5
2AD
100
AcDbEntity
8
0
100
AcDbLine
62
7
6
CONTINUOUS
10
-7.0040632443
20
12.4869711323
11
-7.6217871409
21
12.5906453737
0
LINE
5
2AE
100
AcDbEntity
8
0
100
AcDbLine
62
7
6
CONTINUOUS
10
-7.3330665747
20
12.5928879393
11
-7.3329504031
21
12.5928684369
0
LINE
5
2AF
100
AcDbEntity
8
0
100
AcDbLine
62
9
6
CONTINUOUS
10
-11.1521172752
20
15.4065592379
11
5.2135311068
21
13.4626014313
0
LINE
5
2B0
100
AcDbEntity
8
0
100
AcDbLine
62
7
6
CONTINUOUS
10
8.6144645522
20
15.3509540880
11
8.5075502636
21
15.3533271266
0
LINE
5
2B1
100
AcDbEntity
8
0
100
AcDbLine
62
9
6
CONTINUOUS
10
26.4693922319
20
13.7918565049
11
19.9694546658
21
14.0750279711
0
LINE
5
2B2
100
AcDbEntity
8
0
100
AcDbLine
62
9
6
CONTINUOUS
10
26.1576002445
20
14.3310899684
11
20.0634492379
21
14.5965832378
0
LINE
5
2B3
100
AcDbEntity
8
0
100
AcDbLine
62
7
6
CONTINUOUS
10
12.9122684769
20
12.7492408433
11
12.4642854758
21
12.8024535259
0
LINE
5
2B4
100
AcDbEntity
8
0
100
AcDbLine
62
9
6
CONTINUOUS
10
12.9629544789
20
13.4958153426
11
-4.1579847982
21
15.5294887289
0
LINE
5
2B5
100
AcDbEntity
8
0
100
AcDbLine
62
9
6
CONTINUOUS
10
12.6884311856
20
14.1486299435
11
-4.4220032076
21
16.1810555301
0
LINE
5
2B6
100
AcDbEntity
8
0
100
AcDbLine
62
7
6
CONTINUOUS
10
6.0424489149
20
14.2971717793
11
-10.3400660399
21
16.2431333579
0
LINE
5
2B7
100
AcDbEntity
8
0
100
AcDbLine
62
7
6
CONTINUOUS
10
6.0574181112
20
14.2951978661
11
6.0425643028
21
14.2971425726
0
LINE
5
2B8
100
AcDbEntity
8
0
100
AcDbLine
62
9
6
CONTINUOUS
10
12.5040009185
20
13.0782768300
11
6.2187979073
21
13.9741952601
0
LINE
5
2B9
100
AcDbEntity
8
0
100
AcDbLine
62
7
6
CONTINUOUS
10
12.3427315482
20
13.3992761938
11
6.0574734105
21
14.2952024819
0
LINE
5
2BA
100
AcDbEntity
8
0
100
AcDbLine
62
7
6
CONTINUOUS
10
24.4051143207
20
-18.7710439644
11
24.4051112296
21
-18.7710896671
0
LINE
5
2BB
100
AcDbEntity
8
0
100
AcDbLine
62
7
6
CONTINUOUS
10
24.1651457953
20
-11.4880019227
11
24.1515880299
21
-11.6876996994
0
LINE
5
2BC
100
AcDbEntity
8
0
100
AcDbLine
62
7
6
CONTINUOUS
10
23.7158877058
20
-18.1053049288
11
23.6946511514
21
-18.4181066758
0
LINE
5
2BD
100
AcDbEntity
8
0
100
AcDbLine
62
9
6
CONTINUOUS
10
26.4693922319
20
13.7918565049
11
24.7649831479
21
-11.3130700818
0
LINE
5
2BE
100
AcDbEntity
8
0
100
AcDbLine
62
9
6
CONTINUOUS
10
24.2643324975
20
-18.6873547786
11
24.0289399796
21
-22.1545458046
0
LINE
5
2BF
100
AcDbEntity
8
0
100
AcDbLine
62
7
6
CONTINUOUS
10
26.6163524319
20
13.7991709402
11
24.9181411243
21
-11.2144661065
0
LINE
5
2C0
100
AcDbEntity
8
0
100
AcDbLine
62
7
6
CONTINUOUS
10
24.4050948928
20
-18.7713302994
11
24.1759001796
21
-22.1472313693
0
LINE
5
2C1
100
AcDbEntity
8
0
100
AcDbLine
62
7
6
CONTINUOUS
10
24.9181209335
20
-11.2147633299
11
24.9181258385
21
-11.2146912310
0
LINE
5
2C2
100
AcDbEntity
8
0
100
AcDbLine
62
7
6
CONTINUOUS
10
8.1580415045
20
15.3774893575
11
-8.4663373912
21
17.3521799032
0
LINE
5
2C3
100
AcDbEntity
8
0
100
AcDbLine
62
9
6
CONTINUOUS
10
20.0943208330
20
15.0513033734
11
26.1576002445
21
14.3310899684
0
LINE
5
2C4
100
AcDbEntity
8
0
100
AcDbLine
62
7
6
CONTINUOUS
10
20.0943680155
20
15.0519983438
11
26.1764775780
21
14.3295482404
0
LINE
5
2C5
100
AcDbEntity
8
0
100
AcDbLine
62
9
6
CONTINUOUS
10
26.0981063686
20
-11.7484726324
11
25.6656584695
21
-18.1181715870
0
LINE
5
2C6
100
AcDbEntity
8
0
100
AcDbLine
62
7
6
CONTINUOUS
10
26.1715864686
20
-11.7448154148
11
25.7391385694
21
-18.1145143695
0
LINE
5
2C7
100
AcDbEntity
8
0
100
AcDbLine
62
7
6
CONTINUOUS
10
5.0876309734
20
-26.1446631346
11
3.8683247658
21
-26.6528590636
0
LINE
5
2C8
100
AcDbEntity
8
0
100
AcDbLine
62
7
6
CONTINUOUS
10
5.1528184075
20
-26.5247521665
11
4.4427835057
21
-26.8206883672
0
LINE
5
2C9
100
AcDbEntity
8
0
100
AcDbLine
62
7
6
CONTINUOUS
10
7.3017189216
20
19.5674673221
11
6.6692232035
21
19.5728305058
0
LINE
5
2CA
100
AcDbEntity
8
0
100
AcDbLine
62
7
6
CONTINUOUS
10
10.9465296690
20
19.2356272938
11
8.6670841848
21
19.2570450948
0
LINE
5
2CB
100
AcDbEntity
8
0
100
AcDbLine
62
9
6
CONTINUOUS
10
12.5474456888
20
18.6359095033
11
8.7330761721
21
18.6751888970
0
LINE
5
2CC
100
AcDbEntity
8
0
100
AcDbLine
62
9
6
CONTINUOUS
10
11.9180588337
20
18.9104144707
11
8.5787513739
21
18.9448017978
0
LINE
5
2CD
100
AcDbEntity
8
0
100
AcDbLine
62
9
6
CONTINUOUS
10
-8.2408114827
20
20.6740416736
11
8.3835674130
21
18.6993511279
0
LINE
5
2CE
100
AcDbEntity
8
0
100
AcDbLine
62
9
6
CONTINUOUS
10
-8.0456275218
20
20.9194923436
11
8.5787513739
21
18.9448017978
0
LINE
5
2CF
100
AcDbEntity
8
0
100
AcDbLine
62
7
6
CONTINUOUS
10
6.6692232035
20
19.5728305058
11
1.1385542281
21
20.2297789431
0
LINE
5
2D0
100
AcDbEntity
8
0
100
AcDbLine
62
7
6
CONTINUOUS
10
7.3400136043
20
20.1315250985
11
7.3333493185
21
20.1347607076
0
LINE
5
2D1
100
AcDbEntity
8
0
100
AcDbLine
62
7
6
CONTINUOUS
10
7.8964004072
20
21.1163850059
11
8.2853790222
21
20.9275301464
0
LINE
5
2D2
100
AcDbEntity
8
0
100
AcDbLine
62
7
6
CONTINUOUS
10
5.3893089079
20
-27.2407852237
11
7.3710387753
21
-26.4148179280
0
LINE
5
2D3
100
AcDbEntity
8
0
100
AcDbLine
62
7
6
CONTINUOUS
10
6.0225434563
20
-27.5322490674
11
7.8223196222
21
-26.7821184482
0
LINE
5
2D4
100
AcDbEntity
8
0
100
AcDbLine
62
7
6
CONTINUOUS
10
6.0857240409
20
-27.9131745363
11
7.8858794708
21
-27.1628858432
0
LINE
5
2D5
100
AcDbEntity
8
0
100
AcDbLine
62
9
6
CONTINUOUS
10
-4.8178747933
20
20.8981922031
11
-8.0456275218
21
20.9194923436
0
LINE
5
2D6
100
AcDbEntity
8
0
100
AcDbLine
62
7
6
CONTINUOUS
10
-8.0593214297
20
20.9203359323
11
-4.8178698229
21
20.8989453920
0
LINE
5
2D7
100
AcDbEntity
8
0
100
AcDbLine
62
9
6
CONTINUOUS
10
12.9555624706
20
20.5611296594
11
11.5026544977
21
20.5720951163
0
LINE
5
2D8
100
AcDbEntity
8
0
100
AcDbLine
62
7
6
CONTINUOUS
10
12.9422155945
20
20.5619707414
11
11.4891976185
21
20.5729370285
0
LINE
5
2D9
100
AcDbEntity
8
0
100
AcDbLine
62
7
6
CONTINUOUS
10
1.6278679477
20
20.2256298567
11
1.1385542281
21
20.2297789431
0
LINE
5
2DA
100
AcDbEntity
8
0
100
AcDbLine
62
7
6
CONTINUOUS
10
1.6290924073
20
20.3970174377
11
-1.1498532465
21
20.4231285711
0
LINE
5
2DB
100
AcDbEntity
8
0
100
AcDbLine
62
7
6
CONTINUOUS
10
-2.5141331664
20
20.7495372561
11
-3.1795516170
21
20.7557895662
0
LINE
5
2DC
100
AcDbEntity
8
0
100
AcDbLine
62
9
6
CONTINUOUS
10
-3.0913811298
20
22.0544881170
11
-1.6139167103
21
22.0406057762
0
LINE
5
2DD
100
AcDbEntity
8
0
100
AcDbLine
62
9
6
CONTINUOUS
10
12.6525291964
20
20.1837267314
11
14.1484911574
21
20.1683217008
0
LINE
5
2DE
100
AcDbEntity
8
0
100
AcDbLine
62
9
6
CONTINUOUS
10
12.4982043982
20
20.4533396322
11
13.9925694834
21
20.4379510458
0
LINE
5
2DF
100
AcDbEntity
8
0
100
AcDbLine
62
7
6
CONTINUOUS
10
7.5909828957
20
20.2197044517
11
11.0087585159
21
20.1522209956
0
LINE
5
2E0
100
AcDbEntity
8
0
100
AcDbLine
62
7
6
CONTINUOUS
10
-2.2259545356
20
21.3857879280
11
1.6356118376
21
21.3095418914
0
LINE
5
2E1
100
AcDbEntity
8
0
100
AcDbLine
62
9
6
CONTINUOUS
10
6.8011496756
20
21.0630826401
11
7.0888941930
21
21.0571621633
0
LINE
5
2E2
100
AcDbEntity
8
0
100
AcDbLine
62
7
6
CONTINUOUS
10
8.6677889433
20
21.0530159304
11
8.3800444260
21
21.0589364072
0
LINE
5
2E3
100
AcDbEntity
8
0
100
AcDbLine
62
9
6
CONTINUOUS
10
8.6880853407
20
21.3519697263
11
8.4003408233
21
21.3578902031
0
LINE
5
2E4
100
AcDbEntity
8
0
100
AcDbLine
62
7
6
CONTINUOUS
10
8.9241901260
20
21.6464831645
11
9.2940590752
21
21.6388729394
0
LINE
5
2E5
100
AcDbEntity
8
0
100
AcDbLine
62
7
6
CONTINUOUS
10
8.9512519892
20
22.0450882258
11
9.3211209384
21
22.0374780006
0
LINE
5
2E6
100
AcDbEntity
8
0
100
AcDbLine
62
7
6
CONTINUOUS
10
11.0009007444
20
20.0364807206
11
8.7233090382
21
20.0852035634
0
LINE
5
2E7
100
AcDbEntity
8
0
100
AcDbLine
62
7
6
CONTINUOUS
10
1.6347786471
20
21.1929202363
11
-1.0936283931
21
21.2512870397
0
LINE
5
2E8
100
AcDbEntity
8
0
100
AcDbLine
62
9
6
CONTINUOUS
10
19.8131022218
20
19.9715163560
11
14.1518740191
21
20.2181492312
0
LINE
5
2E9
100
AcDbEntity
8
0
100
AcDbLine
62
9
6
CONTINUOUS
10
19.6883854268
20
20.1872097414
11
14.0271572242
21
20.4338426166
0
LINE
5
2EA
100
AcDbEntity
8
0
100
AcDbLine
62
9
6
CONTINUOUS
10
18.7135460432
20
20.3030039089
11
12.9555690515
21
20.5611288777
0
LINE
5
2EB
100
AcDbEntity
8
0
100
AcDbLine
62
7
6
CONTINUOUS
10
18.7064630813
20
20.3035827339
11
12.9555807420
21
20.5613896557
0
LINE
5
2EC
100
AcDbEntity
8
0
100
AcDbLine
62
9
6
CONTINUOUS
10
0.4542396864
20
22.0003858162
11
-1.6142072154
21
22.0931124445
0
LINE
5
2ED
100
AcDbEntity
8
0
100
AcDbLine
62
9
6
CONTINUOUS
10
0.0964129997
20
22.2265917662
11
-1.7698370954
21
22.3102540921
0
LINE
5
2EE
100
AcDbEntity
8
0
100
AcDbLine
62
9
6
CONTINUOUS
10
0.1015334959
20
22.3020136136
11
-2.8414252681
21
22.4375403533
0
LINE
5
2EF
100
AcDbEntity
8
0
100
AcDbLine
62
7
6
CONTINUOUS
10
0.1015506050
20
22.3022656207
11
-2.8414136512
21
22.4377926133
0
LINE
5
2F0
100
AcDbEntity
8
0
100
AcDbLine
62
7
6
CONTINUOUS
10
6.9417693876
20
21.2293028111
11
6.9512418865
21
21.2286535969
0
LINE
5
2F1
100
AcDbEntity
8
0
100
AcDbLine
62
7
6
CONTINUOUS
10
6.9811434759
20
20.2252434678
11
7.0624332328
21
20.2155876416
0
LINE
5
2F2
100
AcDbEntity
8
0
100
AcDbLine
62
7
6
CONTINUOUS
10
8.5562951080
20
20.8467032124
11
10.5611626115
21
20.6085594039
0
LINE
5
2F3
100
AcDbEntity
8
0
100
AcDbLine
62
7
6
CONTINUOUS
10
8.3800444260
20
21.0589364072
11
6.9512418865
21
21.2286535969
0
LINE
5
2F4
100
AcDbEntity
8
0
100
AcDbLine
62
7
6
CONTINUOUS
10
1.5128435023
20
21.8746418735
11
0.0840409629
21
22.0443590632
0
LINE
5
2F5
100
AcDbEntity
8
0
100
AcDbLine
62
7
6
CONTINUOUS
10
-2.8414252681
20
22.4375403533
11
-1.7698370954
21
22.3102540921
0
LINE
5
2F6
100
AcDbEntity
8
0
100
AcDbLine
62
7
6
CONTINUOUS
10
12.9555624706
20
20.5611296594
11
14.0271572242
21
20.4338426166
0
LINE
5
2F7
100
AcDbEntity
8
0
100
AcDbLine
62
7
6
CONTINUOUS
10
8.6793276752
20
21.2229745508
11
9.6335677484
21
21.1096272274
0
LINE
5
2F8
100
AcDbEntity
8
0
100
AcDbLine
62
9
6
CONTINUOUS
10
8.4003408233
20
21.3578902031
11
0.1043373603
21
22.3433128591
0
LINE
5
2F9
100
AcDbEntity
8
0
100
AcDbLine
62
9
6
CONTINUOUS
10
18.7135460432
20
20.3030039089
11
19.6883854268
21
20.1872097414
0
LINE
5
2FA
100
AcDbEntity
8
0
100
AcDbLine
62
7
6
CONTINUOUS
10
18.7513007100
20
20.2999204530
11
19.7256317875
21
20.1841866635
0
LINE
5
2FB
100
AcDbEntity
8
0
100
AcDbLine
62
9
6
CONTINUOUS
10
9.3597541583
20
21.6228689532
11
9.2105567813
21
21.6405910378
0
LINE
5
2FC
100
AcDbEntity
8
0
100
AcDbLine
62
7
6
CONTINUOUS
10
10.5667799746
20
20.6565389160
11
8.7492629178
21
21.5389702763
0
LINE
5
2FD
100
AcDbEntity
8
0
100
AcDbLine
62
7
6
CONTINUOUS
10
9.3597541583
20
21.6228689532
11
11.5227892131
21
20.5726835044
0
LINE
5
2FE
100
AcDbEntity
8
0
100
AcDbLine
62
7
6
CONTINUOUS
10
9.4744094654
20
22.0001353661
11
12.4285688840
21
20.5658473605
0
LINE
5
2FF
100
AcDbEntity
8
0
100
AcDbLine
62
9
6
CONTINUOUS
10
-2.8068375273
20
22.4334319240
11
-4.2519336391
21
22.4429682029
0
LINE
5
300
100
AcDbEntity
8
0
100
AcDbLine
62
7
6
CONTINUOUS
10
-2.8203020172
20
22.4342739988
11
-4.2656275470
21
22.4438117916
0
LINE
5
301
100
AcDbEntity
8
0
100
AcDbLine
62
9
6
CONTINUOUS
10
-3.2472949339
20
22.3241356512
11
-1.7698305144
21
22.3102533104
0
LINE
5
302
100
AcDbEntity
8
0
100
AcDbLine
62
7
6
CONTINUOUS
10
0.6552485261
20
23.0305108818
11
1.0251174753
21
23.0229006566
0
LINE
5
303
100
AcDbEntity
8
0
100
AcDbLine
62
9
6
CONTINUOUS
10
8.9512519892
20
22.0450882258
11
0.6552485261
21
23.0305108818
0
LINE
5
304
100
AcDbEntity
8
0
100
AcDbLine
62
9
6
CONTINUOUS
10
9.3211209384
20
22.0374780006
11
1.0251174753
21
23.0229006566
0
LINE
5
305
100
AcDbEntity
8
0
100
AcDbLine
62
7
6
CONTINUOUS
10
1.0603267392
20
23.0204551744
11
9.3213243669
21
22.0391906101
0
SPLINE
5
306
100
AcDbEntity
8
0
100
AcDbSpline
62
7
6
CONTINUOUS
70
0
71
3
72
10
73
6
74
4
42
0.0000001000
43
0.0000001000
44
0.0000000001
12
-0.0693115109
22
0.0116327349
32
0.0000000000
13
-0.0697902848
23
0.0082898866
33
0.0000000000
40
0.0000000000
40
0.0000000000
40
0.0000000000
40
0.0000000000
40
0.3332573046
40
0.6665730908
40
1.0000000000
40
1.0000000000
40
1.0000000000
40
1.0000000000
10
-7.6217871443
20
12.5906453742
30
0.0000000000
10
-7.6294866667
20
12.5919376055
30
0.0000000000
10
-7.6449080663
20
12.5943989646
30
0.0000000000
10
-7.6680993033
20
12.5977203627
30
0.0000000000
10
-7.6835955759
20
12.5996869559
30
0.0000000000
10
-7.6913522288
20
12.6006083130
30
0.0000000000
11
-7.6217871443
21
12.5906453742
31
0.0000000000
11
-7.6449160254
21
12.5943369084
31
0.0000000000
11
-7.6681051446
21
12.5976580331
31
0.0000000000
11
-7.6913522288
21
12.6006083130
31
0.0000000000
0
SPLINE
5
307
100
AcDbEntity
8
0
100
AcDbSpline
62
7
6
CONTINUOUS
70
0
71
3
72
28
73
24
74
22
42
0.0000001000
43
0.0000001000
44
0.0000000001
12
-7.2590534373
22
0.8622508115
32
0.0000000000
13
7.2092550530
23
-1.2099484079
33
0.0000000000
40
0.0000000000
40
0.0000000000
40
0.0000000000
40
0.0000000000
40
0.0393995640
40
0.0802214917
40
0.1228089887
40
0.1677320993
40
0.2146636606
40
0.2639936418
40
0.3153959632
40
0.3682466513
40
0.4223411574
40
0.4769407646
40
0.5316052965
40
0.5858933499
40
0.6393845506
40
0.6913207554
40
0.7416119060
40
0.7896192310
40
0.8352360769
40
0.8789587242
40
0.9205915213
40
0.9608049022
40
1.0000000000
40
1.0000000000
40
1.0000000000
40
1.0000000000
10
-7.6913522289
20
12.6006083130
30
0.0000000000
10
-7.7866867423
20
12.6119324150
30
0.0000000000
10
-7.9835935350
20
12.6157585511
30
0.0000000000
10
-8.2799796494
20
12.5633009882
30
0.0000000000
10
-8.5740808931
20
12.4520755854
30
0.0000000000
10
-8.8570743200
20
12.2840422390
30
0.0000000000
10
-9.1223092449
20
12.0628913011
30
0.0000000000
10
-9.3633640728
20
11.7942245390
30
0.0000000000
10
-9.5750208699
20
11.4843818845
30
0.0000000000
10
-9.7528540651
20
11.1409679533
30
0.0000000000
10
-9.8932846423
20
10.7723651921
30
0.0000000000
10
-9.9939293622
20
10.3864535285
30
0.0000000000
10
-10.0530636054
20
9.9915790338
30
0.0000000000
10
-10.0696756674
20
9.5953329007
30
0.0000000000
10
-10.0432343663
20
9.2062327735
30
0.0000000000
10
-9.9740115646
20
8.8322562510
30
0.0000000000
10
-9.8633210464
20
8.4822568113
30
0.0000000000
10
-9.7133609109
20
8.1639919803
30
0.0000000000
10
-9.5273162413
20
7.8842217577
30
0.0000000000
10
-9.3092429507
20
7.6491386523
30
0.0000000000
10
-9.0637857201
20
7.4636188308
30
0.0000000000
10
-8.7979350673
20
7.3319439867
30
0.0000000000
10
-8.6097719185
20
7.2809365709
30
0.0000000000
10
-8.5155827662
20
7.2651285555
30
0.0000000000
11
-7.6913522289
21
12.6006083130
31
0.0000000000
11
-7.9793060511
21
12.6065022793
31
0.0000000000
11
-8.2732876302
21
12.5552734297
31
0.0000000000
11
-8.5648575157
21
12.4461587171
31
0.0000000000
11
-8.8478745826
21
12.2795980164
31
0.0000000000
11
-9.1121705613
21
12.0608580334
31
0.0000000000
11
-9.3538370768
21
11.7932123422
31
0.0000000000
11
-9.5665603145
21
11.4834691046
31
0.0000000000
11
-9.7448295239
21
11.1407140989
31
0.0000000000
11
-9.8860289826
21
10.7713472481
31
0.0000000000
11
-9.9869447418
21
10.3851880095
31
0.0000000000
11
-10.0460880218
21
9.9899866657
31
0.0000000000
11
-10.0624338048
21
9.5934731901
31
0.0000000000
11
-10.0354052468
21
9.2033832571
31
0.0000000000
11
-9.9655690734
21
8.8302034952
31
0.0000000000
11
-9.8537851496
21
8.4799777842
31
0.0000000000
11
-9.7031759135
21
8.1630013599
31
0.0000000000
11
-9.5175189013
21
7.8860012867
31
0.0000000000
11
-9.2992743483
21
7.6524978481
31
0.0000000000
11
-9.0558946134
21
7.4697721262
31
0.0000000000
11
-8.7921714866
21
7.3399088175
31
0.0000000000
11
-8.5155827662
21
7.2651285555
31
0.0000000000
0
SPLINE
5
308
100
AcDbEntity
8
0
100
AcDbSpline
62
9
6
CONTINUOUS
70
0
71
3
72
28
73
24
74
22
42
0.0000001000
43
0.0000001000
44
0.0000000001
12
-6.5912626174
22
0.7829287372
32
0.0000000000
13
6.5912626793
23
-0.7829282159
33
0.0000000000
40
0.0000000000
40
0.0000000000
40
0.0000000000
40
0.0000000000
40
0.0390021828
40
0.0790869996
40
0.1209689922
40
0.1651297579
40
0.2117956521
40
0.2609519182
40
0.3123809907
40
0.3657025992
40
0.4204155438
40
0.4759347751
40
0.5316315924
40
0.5868661213
40
0.6410250615
40
0.6935561018
40
0.7440071550
40
0.7920654321
40
0.8375994650
40
0.8806979193
40
0.9217014968
40
0.9612027312
40
1.0000000000
40
1.0000000000
40
1.0000000000
40
1.0000000000
10
-7.9220599874
20
12.4107067847
30
0.0000000000
10
-8.0077511971
20
12.4208854280
30
0.0000000000
10
-8.1842989802
20
12.4225889422
30
0.0000000000
10
-8.4483155917
20
12.3690919292
30
0.0000000000
10
-8.7075272320
20
12.2614643732
30
0.0000000000
10
-8.9560880427
20
12.1026728059
30
0.0000000000
10
-9.1888094572
20
11.8966023154
30
0.0000000000
10
-9.4008177410
20
11.6479587262
30
0.0000000000
10
-9.5876514676
20
11.3622639919
30
0.0000000000
10
-9.7453289287
20
11.0457990696
30
0.0000000000
10
-9.8704546119
20
10.7055098462
30
0.0000000000
10
-9.9603134031
20
10.3488656501
30
0.0000000000
10
-10.0129430343
20
9.9837007759
30
0.0000000000
10
-10.0271847427
20
9.6180331223
30
0.0000000000
10
-10.0027074031
20
9.2598872530
30
0.0000000000
10
-9.9400065737
20
8.9171084267
30
0.0000000000
10
-9.8403753541
20
8.5971936322
30
0.0000000000
10
-9.7058510499
20
8.3071417297
30
0.0000000000
10
-9.5391409504
20
8.0533493056
30
0.0000000000
10
-9.3435905724
20
7.8415594373
30
0.0000000000
10
-9.1231374984
20
7.6768399304
30
0.0000000000
10
-8.8827161163
20
7.5635268513
30
0.0000000000
10
-8.7123455205
20
7.5243048894
30
0.0000000000
10
-8.6271045239
20
7.5141797306
30
0.0000000000
11
-7.9220599874
21
12.4107067847
31
0.0000000000
11
-8.1809241587
21
12.4136452688
31
0.0000000000
11
-8.4418965881
21
12.3618282115
31
0.0000000000
11
-8.6991301475
21
12.2564118912
31
0.0000000000
11
-8.9468766328
21
12.0997534555
31
0.0000000000
11
-9.1796074267
21
11.8953491373
31
0.0000000000
11
-9.3921202819
21
11.6477675298
31
0.0000000000
11
-9.5796692542
21
11.3625380995
31
0.0000000000
11
-9.7380644925
21
11.0460328209
31
0.0000000000
11
-9.8637684983
21
10.7053195003
31
0.0000000000
11
-9.9539712601
21
10.3480152608
31
0.0000000000
11
-10.0066595715
21
9.9820959274
31
0.0000000000
11
-10.0206558540
21
9.6157385332
31
0.0000000000
11
-9.9956474105
21
9.2571241478
31
0.0000000000
11
-9.9321929755
21
8.9142666510
31
0.0000000000
11
-9.8317100256
21
8.5948238886
31
0.0000000000
11
-9.6964433471
21
8.3059319567
31
0.0000000000
11
-9.5294137126
21
8.0540429054
31
0.0000000000
11
-9.3343547474
21
7.8447866225
31
0.0000000000
11
-9.1156195302
21
7.6828333652
31
0.0000000000
11
-8.8780954168
21
7.5718034131
31
0.0000000000
11
-8.6271045239
21
7.5141797306
31
0.0000000000
0
SPLINE
5
309
100
AcDbEntity
8
0
100
AcDbSpline
62
9
6
CONTINUOUS
70
0
71
3
72
18
73
14
74
12
42
0.0000001000
43
0.0000001000
44
0.0000000001
12
3.3209529656
22
-0.3944718800
32
0.0000000000
13
0.4766257956
23
3.3101607990
33
0.0000000000
40
0.0000000000
40
0.0000000000
40
0.0000000000
40
0.0000000000
40
0.0738647974
40
0.1496192190
40
0.2285429858
40
0.3114761801
40
0.3989261593
40
0.4908965660
40
0.5871449716
40
0.6870366510
40
0.7898199357
40
0.8944888084
40
1.0000000000
40
1.0000000000
40
1.0000000000
40
1.0000000000
10
-8.6271045239
20
7.5141797306
30
0.0000000000
10
-8.5453373512
20
7.5044672021
30
0.0000000000
10
-8.3771975308
20
7.5019971950
30
0.0000000000
10
-8.1253145760
20
7.5493208128
30
0.0000000000
10
-7.8772288214
20
7.6461236235
30
0.0000000000
10
-7.6380545699
20
7.7899893936
30
0.0000000000
10
-7.4124237461
20
7.9776616493
30
0.0000000000
10
-7.2046272113
20
8.2052403660
30
0.0000000000
10
-7.0186994039
20
8.4680572286
30
0.0000000000
10
-6.8582235779
20
8.7608712875
30
0.0000000000
10
-6.7263735114
20
9.0777839806
30
0.0000000000
10
-6.6257493894
20
9.4124247618
30
0.0000000000
10
-6.5808292432
20
9.6428436640
30
0.0000000000
10
-6.5640661247
20
9.7592633342
30
0.0000000000
11
-8.6271045239
21
7.5141797306
31
0.0000000000
11
-8.3801109086
21
7.5101812747
31
0.0000000000
11
-8.1309610553
21
7.5560971284
31
0.0000000000
11
-7.8846755937
21
7.6510195597
31
0.0000000000
11
-7.6463974994
21
7.7929648433
31
0.0000000000
11
-7.4208395280
21
7.9791255361
31
0.0000000000
11
-7.2127259175
21
8.2056030398
31
0.0000000000
11
-7.0261745066
21
8.4679149389
31
0.0000000000
11
-6.8650856062
21
8.7605778254
31
0.0000000000
11
-6.7326556979
21
9.0777814918
31
0.0000000000
11
-6.6316391644
21
9.4129329140
31
0.0000000000
11
-6.5640661247
21
9.7592633342
31
0.0000000000
0
SPLINE
5
30A
100
AcDbEntity
8
0
100
AcDbSpline
62
9
6
CONTINUOUS
70
0
71
3
72
18
73
14
74
12
42
0.0000001000
43
0.0000001000
44
0.0000000001
12
-0.5290154359
22
-3.6740062633
32
0.0000000000
13
-3.6678591605
23
0.6147862212
33
0.0000000000
40
0.0000000000
40
0.0000000000
40
0.0000000000
40
0.0000000000
40
0.1086680343
40
0.2163691306
40
0.3219103000
40
0.4242230177
40
0.5224372399
40
0.6159592414
40
0.7045529621
40
0.7884172024
40
0.8682416603
40
0.9452078200
40
1.0000000000
40
1.0000000000
40
1.0000000000
40
1.0000000000
10
-6.2020841773
20
9.7061668675
30
0.0000000000
10
-6.2212465332
20
9.5730845212
30
0.0000000000
10
-6.2731993619
20
9.3098790373
30
0.0000000000
10
-6.3908151761
20
8.9286033681
30
0.0000000000
10
-6.5455389226
20
8.5692669122
30
0.0000000000
10
-6.7340169682
20
8.2398115237
30
0.0000000000
10
-6.9522129576
20
7.9474559647
30
0.0000000000
10
-7.1955043206
20
7.6986541332
30
0.0000000000
10
-7.4587936884
20
7.4989900141
30
0.0000000000
10
-7.7365759266
20
7.3531516414
30
0.0000000000
10
-8.0229108476
20
7.2649023773
30
0.0000000000
10
-8.2853830623
20
7.2394398258
30
0.0000000000
10
-8.4485904944
20
7.2539136181
30
0.0000000000
10
-8.5155804942
20
7.2651421105
30
0.0000000000
11
-6.2020841773
21
9.7061668675
31
0.0000000000
11
-6.2802676256
21
9.3104519330
31
0.0000000000
11
-6.3984013608
21
8.9285294645
31
0.0000000000
11
-6.5538464960
21
8.5689309359
31
0.0000000000
11
-6.7431305722
21
8.2396893308
31
0.0000000000
11
-6.9620254060
21
7.9481591767
31
0.0000000000
11
-7.2056411154
21
7.7008529528
31
0.0000000000
11
-7.4685358705
21
7.5032949249
31
0.0000000000
11
-7.7448368918
21
7.3598983235
31
0.0000000000
11
-8.0283722192
21
7.2738663148
31
0.0000000000
11
-8.3128079990
21
7.2471207579
31
0.0000000000
11
-8.5155804942
21
7.2651421105
31
0.0000000000
0
SPLINE
5
30B
100
AcDbEntity
8
0
100
AcDbSpline
62
9
6
CONTINUOUS
70
0
71
3
72
18
73
14
74
12
42
0.0000001000
43
0.0000001000
44
0.0000000001
12
0.4694358185
22
3.2602264888
32
0.0000000000
13
-3.2708558232
23
0.3885214666
33
0.0000000000
40
0.0000000000
40
0.0000000000
40
0.0000000000
40
0.0000000000
40
0.1068673035
40
0.2123645745
40
0.3154664476
40
0.4152354394
40
0.5109875861
40
0.6022245255
40
0.6888415511
40
0.7710456104
40
0.8495385867
40
0.9253778716
40
1.0000000000
40
1.0000000000
40
1.0000000000
40
1.0000000000
10
-6.5640661247
20
9.7592633342
30
0.0000000000
10
-6.5473436780
20
9.8754005387
30
0.0000000000
10
-6.5255091446
20
10.1080002401
30
0.0000000000
10
-6.5279165048
20
10.4549324753
30
0.0000000000
10
-6.5655296860
20
10.7920659776
30
0.0000000000
10
-6.6376497425
20
11.1126362980
30
0.0000000000
10
-6.7429037551
20
11.4102233685
30
0.0000000000
10
-6.8793346850
20
11.6789073434
30
0.0000000000
10
-7.0444061919
20
11.9132292582
30
0.0000000000
10
-7.2350870199
20
12.1083525419
30
0.0000000000
10
-7.4478034276
20
12.2599739322
30
0.0000000000
10
-7.6781828209
20
12.3644819615
30
0.0000000000
10
-7.8407005796
20
12.4010426851
30
0.0000000000
10
-7.9220599874
20
12.4107067847
30
0.0000000000
11
-6.5640661247
21
9.7592633342
31
0.0000000000
11
-6.5313079631
21
10.1097406049
31
0.0000000000
11
-6.5340355256
21
10.4572220692
31
0.0000000000
11
-6.5721995263
21
10.7946729354
31
0.0000000000
11
-6.6450109740
21
11.1151292932
31
0.0000000000
11
-6.7510132802
21
11.4121753789
31
0.0000000000
11
-6.8880087214
21
11.6796543257
31
0.0000000000
11
-7.0532627060
21
11.9122251618
31
0.0000000000
11
-7.2433430503
21
12.1050584553
31
0.0000000000
11
-7.4544585490
21
12.2543075291
31
0.0000000000
11
-7.6822326817
21
12.3568774626
31
0.0000000000
11
-7.9220599874
21
12.4107067847
31
0.0000000000
0
SPLINE
5
30C
100
AcDbEntity
8
0
100
AcDbSpline
62
9
6
CONTINUOUS
70
0
71
3
72
17
73
13
74
11
42
0.0000001000
43
0.0000001000
44
0.0000000001
12
0.4647339867
22
3.2275723201
32
0.0000000000
13
-3.0434381613
23
1.1863785182
33
0.0000000000
40
0.0000000000
40
0.0000000000
40
0.0000000000
40
0.0000000000
40
0.1177987980
40
0.2340874418
40
0.3477356482
40
0.4577100558
40
0.5632567342
40
0.6638263426
40
0.7593034689
40
0.8499162167
40
0.9364382931
40
1.0000000000
40
1.0000000000
40
1.0000000000
40
1.0000000000
10
-6.2020841773
20
9.7061668675
30
0.0000000000
10
-6.1838358090
20
9.8329015808
30
0.0000000000
10
-6.1600093987
20
10.0867260352
30
0.0000000000
10
-6.1626355891
20
10.4653158290
30
0.0000000000
10
-6.2036813876
20
10.8332127483
30
0.0000000000
10
-6.2823822840
20
11.1830351115
30
0.0000000000
10
-6.3972407244
20
11.5077770245
30
0.0000000000
10
-6.5461210171
20
11.8009783702
30
0.0000000000
10
-6.7262551340
20
12.0566823500
30
0.0000000000
10
-6.9343359126
20
12.2696102059
30
0.0000000000
10
-7.1486249206
20
12.4223540828
30
0.0000000000
10
-7.2962595954
20
12.4934031848
30
0.0000000000
10
-7.3607416369
20
12.5185392660
30
0.0000000000
11
-6.2020841773
21
9.7061668675
31
0.0000000000
11
-6.1663370876
21
10.0886251790
31
0.0000000000
11
-6.1693131791
21
10.4678143592
31
0.0000000000
11
-6.2109597639
21
10.8360575903
31
0.0000000000
11
-6.2904152454
21
11.1857555946
31
0.0000000000
11
-6.4060902505
21
11.5099071439
31
0.0000000000
11
-6.5555865210
21
11.8017935513
31
0.0000000000
11
-6.7359198919
21
12.0555865278
31
0.0000000000
11
-6.9433451184
21
12.2660158001
31
0.0000000000
11
-7.1737246982
21
12.4288842479
31
0.0000000000
11
-7.3607416369
21
12.5185392660
31
0.0000000000
0
SPLINE
5
30D
100
AcDbEntity
8
0
100
AcDbSpline
62
9
6
CONTINUOUS
70
0
71
3
72
9
73
5
74
3
42
0.0000001000
43
0.0000001000
44
0.0000000001
12
-0.2526943119
22
0.0985040889
32
0.0000000000
13
-0.2673251769
23
0.0449390024
33
0.0000000000
40
0.0000000000
40
0.0000000000
40
0.0000000000
40
0.0000000000
40
0.2413031896
40
1.0000000000
40
1.0000000000
40
1.0000000000
40
1.0000000000
10
-7.3607416369
20
12.5185392660
30
0.0000000000
10
-7.3810669514
20
12.5264623830
30
0.0000000000
10
-7.4661044113
20
12.5572573534
30
0.0000000000
10
-7.5541828260
20
12.5792687935
30
0.0000000000
10
-7.6217890790
20
12.5906338195
30
0.0000000000
11
-7.3607416369
21
12.5185392660
31
0.0000000000
11
-7.4222836384
21
12.5408127915
31
0.0000000000
11
-7.6217890790
21
12.5906338195
31
0.0000000000
0
SPLINE
5
30E
100
AcDbEntity
8
0
100
AcDbSpline
62
7
6
CONTINUOUS
70
0
71
3
72
10
73
6
74
4
42
0.0000001000
43
0.0000001000
44
0.0000000001
12
0.1619331197
22
-0.0033318490
32
0.0000000000
13
0.1495017595
23
0.0623109971
33
0.0000000000
40
0.0000000000
40
0.0000000000
40
0.0000000000
40
0.0000000000
40
0.3270156742
40
0.6594206616
40
1.0000000000
40
1.0000000000
40
1.0000000000
40
1.0000000000
10
5.9277997573
20
-27.9441138229
30
0.0000000000
10
5.9454513134
20
-27.9444770119
30
0.0000000000
10
5.9811512715
20
-27.9425993403
30
0.0000000000
10
6.0342740433
20
-27.9321108288
30
0.0000000000
10
6.0687516375
20
-27.9202484824
30
0.0000000000
10
6.0857240409
20
-27.9131745363
30
0.0000000000
11
5.9277997573
21
-27.9441138229
31
0.0000000000
11
5.9806948022
21
-27.9413755246
31
0.0000000000
11
6.0335291849
21
-27.9310246269
31
0.0000000000
11
6.0857240409
21
-27.9131745363
31
0.0000000000
0
SPLINE
5
30F
100
AcDbEntity
8
0
100
AcDbSpline
62
7
6
CONTINUOUS
70
0
71
3
72
13
73
9
74
7
42
0.0000001000
43
0.0000001000
44
0.0000000001
12
-0.0608559083
22
-0.8963711378
32
0.0000000000
13
0.8957368218
23
-0.1090576335
33
0.0000000000
40
0.0000000000
40
0.0000000000
40
0.0000000000
40
0.0000000000
40
0.2014180441
40
0.3947336694
40
0.5751710852
40
0.7407583141
40
0.8935071412
40
1.0000000000
40
1.0000000000
40
1.0000000000
40
1.0000000000
10
-3.1942672998
20
-26.2431612501
30
0.0000000000
10
-3.1983531258
20
-26.3033430239
30
0.0000000000
10
-3.1954293906
20
-26.4223621556
30
0.0000000000
10
-3.1575742857
20
-26.5915925875
30
0.0000000000
10
-3.0883993798
20
-26.7392070928
30
0.0000000000
10
-2.9914166178
20
-26.8554315657
30
0.0000000000
10
-2.8820987679
20
-26.9249412618
30
0.0000000000
10
-2.8055736106
20
-26.9446632885
30
0.0000000000
10
-2.7737770857
20
-26.9485345749
30
0.0000000000
11
-3.1942672998
21
-26.2431612501
31
0.0000000000
11
-3.1893663704
21
-26.4240558043
31
0.0000000000
11
-3.1504831329
21
-26.5933287673
31
0.0000000000
11
-3.0802674156
21
-26.7394444665
31
0.0000000000
11
-2.9835043038
21
-26.8524453583
31
0.0000000000
11
-2.8667880434
21
-26.9246306188
31
0.0000000000
11
-2.7737770857
21
-26.9485345749
31
0.0000000000
0
SPLINE
5
310
100
AcDbEntity
8
0
100
AcDbSpline
62
7
6
CONTINUOUS
70
0
71
3
72
14
73
10
74
8
42
0.0000001000
43
0.0000001000
44
0.0000000001
12
-0.0272352129
22
-0.2102768628
32
0.0000000000
13
-0.2067700162
23
-0.0494792515
33
0.0000000000
40
0.0000000000
40
0.0000000000
40
0.0000000000
40
0.0000000000
40
0.1719225577
40
0.3384258280
40
0.4971525019
40
0.6465303744
40
0.7860789487
40
0.9166948439
40
1.0000000000
40
1.0000000000
40
1.0000000000
40
1.0000000000
10
-1.5950761521
20
-25.9483536871
30
0.0000000000
10
-1.5966369346
20
-25.9604041325
30
0.0000000000
10
-1.6012402505
20
-25.9839600315
30
0.0000000000
10
-1.6126178586
20
-26.0173219636
30
0.0000000000
10
-1.6280368522
20
-26.0472642069
30
0.0000000000
10
-1.6470165697
20
-26.0727791754
30
0.0000000000
10
-1.6689793393
20
-26.0929958921
30
0.0000000000
10
-1.6907528631
20
-26.1056975010
30
0.0000000000
10
-1.7051857984
20
-26.1105108223
30
0.0000000000
10
-1.7109274679
20
-26.1118847812
30
0.0000000000
11
-1.5950761521
21
-25.9483536871
31
0.0000000000
11
-1.6021247568
21
-25.9841190426
31
0.0000000000
11
-1.6136143533
21
-26.0175013472
31
0.0000000000
11
-1.6291509631
21
-26.0473559211
31
0.0000000000
11
-1.6482018356
21
-26.0726590506
31
0.0000000000
11
-1.6701137161
21
-26.0925430908
31
0.0000000000
11
-1.6941352458
21
-26.1063262178
31
0.0000000000
11
-1.7109274679
21
-26.1118847812
31
0.0000000000
0
SPLINE
5
311
100
AcDbEntity
8
0
100
AcDbSpline
62
7
6
CONTINUOUS
70
0
71
3
72
9
73
5
74
3
42
0.0000001000
43
0.0000001000
44
0.0000000001
12
-0.0242782602
22
-0.0058096922
32
0.0000000000
13
-0.0249652701
23
0.0004885869
33
0.0000000000
40
0.0000000000
40
0.0000000000
40
0.0000000000
40
0.0000000000
40
0.3474786085
40
1.0000000000
40
1.0000000000
40
1.0000000000
40
1.0000000000
10
-1.7109274679
20
-26.1118847812
30
0.0000000000
10
-1.7137395265
20
-26.1125576958
30
0.0000000000
10
-1.7219159417
20
-26.1141487975
30
0.0000000000
10
-1.7302657921
20
-26.1146828000
30
0.0000000000
10
-1.7356959163
20
-26.1145765288
30
0.0000000000
11
-1.7109274679
21
-26.1118847812
31
0.0000000000
11
-1.7194427261
21
-26.1135358078
31
0.0000000000
11
-1.7356959163
21
-26.1145765288
31
0.0000000000
0
SPLINE
5
312
100
AcDbEntity
8
0
100
AcDbSpline
62
7
6
CONTINUOUS
70
0
71
3
72
15
73
11
74
9
42
0.0000001000
43
0.0000001000
44
0.0000000001
12
-0.2828010246
22
0.0335919022
32
0.0000000000
13
-0.2628706416
23
-0.1095621339
33
0.0000000000
40
0.0000000000
40
0.0000000000
40
0.0000000000
40
0.0000000000
40
0.1044858338
40
0.2237435446
40
0.3537562809
40
0.4899615498
40
0.6275010485
40
0.7614541101
40
0.8870687504
40
1.0000000000
40
1.0000000000
40
1.0000000000
40
1.0000000000
10
5.4320970689
20
-26.4824033625
30
0.0000000000
10
5.4222475019
20
-26.4812334032
30
0.0000000000
10
5.4010155383
20
-26.4798964645
30
0.0000000000
10
5.3674153848
20
-26.4802753763
30
0.0000000000
10
5.3308962658
20
-26.4829057123
30
0.0000000000
10
5.2928516049
20
-26.4876977971
30
0.0000000000
10
5.2547302303
20
-26.4944746804
30
0.0000000000
10
5.2179849706
20
-26.5029762256
30
0.0000000000
10
5.1840172046
20
-26.5128710845
30
0.0000000000
10
5.1627138442
20
-26.5206278369
30
0.0000000000
10
5.1528184075
20
-26.5247521665
30
0.0000000000
11
5.4320970689
21
-26.4824033625
31
0.0000000000
11
5.4024130643
21
-26.4803285529
31
0.0000000000
11
5.3684507896
21
-26.4805920718
31
0.0000000000
11
5.3315153962
21
-26.4831837923
31
0.0000000000
11
5.2930262903
21
-26.4880041162
31
0.0000000000
11
5.2544625869
21
-26.4948678011
31
0.0000000000
11
5.2173062673
21
-26.5035110793
31
0.0000000000
11
5.1829852281
21
-26.5136017946
31
0.0000000000
11
5.1528184075
21
-26.5247521665
31
0.0000000000
0
SPLINE
5
313
100
AcDbEntity
8
0
100
AcDbSpline
62
7
6
CONTINUOUS
70
0
71
3
72
15
73
11
74
9
42
0.0000001000
43
0.0000001000
44
0.0000000001
12
-0.2528942700
22
0.0300394936
32
0.0000000000
13
0.0018194304
23
0.2546656095
33
0.0000000000
40
0.0000000000
40
0.0000000000
40
0.0000000000
40
0.0000000000
40
0.1023705281
40
0.2094192924
40
0.3234904195
40
0.4456662076
40
0.5758321486
40
0.7128970632
40
0.8550486585
40
1.0000000000
40
1.0000000000
40
1.0000000000
40
1.0000000000
10
3.6932300212
20
-26.7599129206
30
0.0000000000
10
3.6846003812
20
-26.7588878676
30
0.0000000000
10
3.6671588396
20
-26.7543663051
30
0.0000000000
10
3.6429312058
20
-26.7409197453
30
0.0000000000
10
3.6210606820
20
-26.7213353149
30
0.0000000000
10
3.6022360301
20
-26.6963609413
30
0.0000000000
10
3.5870141058
20
-26.6668595456
30
0.0000000000
10
3.5758646321
20
-26.6338160707
30
0.0000000000
10
3.5691386277
20
-26.5983374098
30
0.0000000000
10
3.5677531669
20
-26.5739242435
30
0.0000000000
10
3.5678410766
20
-26.5616195363
30
0.0000000000
11
3.6932300212
21
-26.7599129206
31
0.0000000000
11
3.6679683601
21
-26.7534676696
31
0.0000000000
11
3.6440368977
21
-26.7404093393
31
0.0000000000
11
3.6222562442
21
-26.7211857000
31
0.0000000000
11
3.6033732585
21
-26.6964559306
31
0.0000000000
11
3.5880354386
21
-26.6670680155
31
0.0000000000
11
3.5767687186
21
-26.6340296665
31
0.0000000000
11
3.5699594344
21
-26.5984737693
31
0.0000000000
11
3.5678410766
21
-26.5616195363
31
0.0000000000
0
SPLINE
5
314
100
AcDbEntity
8
0
100
AcDbSpline
62
7
6
CONTINUOUS
70
0
71
3
72
13
73
9
74
7
42
0.0000001000
43
0.0000001000
44
0.0000000001
12
-0.0608559083
22
-0.8963711378
32
0.0000000000
13
0.8957368218
23
-0.1090576335
33
0.0000000000
40
0.0000000000
40
0.0000000000
40
0.0000000000
40
0.0000000000
40
0.2014180441
40
0.3947336694
40
0.5751710852
40
0.7407583141
40
0.8935071412
40
1.0000000000
40
1.0000000000
40
1.0000000000
40
1.0000000000
10
5.1017361632
20
-27.2285839061
30
0.0000000000
10
5.0976503372
20
-27.2887656799
30
0.0000000000
10
5.1005740725
20
-27.4077848116
30
0.0000000000
10
5.1384291774
20
-27.5770152435
30
0.0000000000
10
5.2076040832
20
-27.7246297488
30
0.0000000000
10
5.3045868453
20
-27.8408542217
30
0.0000000000
10
5.4139046952
20
-27.9103639178
30
0.0000000000
10
5.4904298524
20
-27.9300859445
30
0.0000000000
10
5.5222263774
20
-27.9339572309
30
0.0000000000
11
5.1017361632
21
-27.2285839061
31
0.0000000000
11
5.1066370927
21
-27.4094784603
31
0.0000000000
11
5.1455203302
21
-27.5787514233
31
0.0000000000
11
5.2157360474
21
-27.7248671225
31
0.0000000000
11
5.3124991593
21
-27.8378680143
31
0.0000000000
11
5.4292154196
21
-27.9100532748
31
0.0000000000
11
5.5222263774
21
-27.9339572309
31
0.0000000000
0
SPLINE
5
315
100
AcDbEntity
8
0
100
AcDbSpline
62
7
6
CONTINUOUS
70
0
71
3
72
10
73
6
74
4
42
0.0000001000
43
0.0000001000
44
0.0000000001
12
0.1228473754
22
-0.0145939265
32
0.0000000000
13
0.1111570559
23
-0.0539683915
33
0.0000000000
40
0.0000000000
40
0.0000000000
40
0.0000000000
40
0.0000000000
40
0.1399712176
40
0.5671388979
40
1.0000000000
40
1.0000000000
40
1.0000000000
40
1.0000000000
10
9.3563580592
20
22.0350277399
30
0.0000000000
10
9.3620897581
20
22.0343468300
30
0.0000000000
10
9.3852486550
20
22.0310317680
30
0.0000000000
10
9.4253890290
20
22.0212264558
30
0.0000000000
10
9.4583709435
20
22.0079223053
30
0.0000000000
10
9.4744094654
20
22.0001353661
30
0.0000000000
11
9.3563580592
21
22.0350277399
31
0.0000000000
11
9.3734971162
21
22.0325736981
31
0.0000000000
11
9.4247805827
21
22.0200805273
31
0.0000000000
11
9.4744094654
21
22.0001353661
31
0.0000000000
0
SPLINE
5
316
100
AcDbEntity
8
0
100
AcDbSpline
62
7
6
CONTINUOUS
70
0
71
3
72
15
73
11
74
9
42
0.0000001000
43
0.0000001000
44
0.0000000001
12
0.2528942700
22
-0.0300394936
32
0.0000000000
13
-0.0018194304
23
-0.2546656095
33
0.0000000000
40
0.0000000000
40
0.0000000000
40
0.0000000000
40
0.0000000000
40
0.1023705281
40
0.2094192924
40
0.3234904195
40
0.4456662076
40
0.5758321486
40
0.7128970632
40
0.8550486585
40
1.0000000000
40
1.0000000000
40
1.0000000000
40
1.0000000000
10
1.5128435023
20
21.8746418735
30
0.0000000000
10
1.5214731423
20
21.8736168206
30
0.0000000000
10
1.5389146839
20
21.8690952580
30
0.0000000000
10
1.5631423177
20
21.8556486983
30
0.0000000000
10
1.5850128415
20
21.8360642679
30
0.0000000000
10
1.6038374934
20
21.8110898942
30
0.0000000000
10
1.6190594177
20
21.7815884985
30
0.0000000000
10
1.6302088914
20
21.7485450237
30
0.0000000000
10
1.6369348958
20
21.7130663628
30
0.0000000000
10
1.6383203565
20
21.6886531965
30
0.0000000000
10
1.6382324469
20
21.6763484893
30
0.0000000000
11
1.5128435023
21
21.8746418735
31
0.0000000000
11
1.5381051634
21
21.8681966226
31
0.0000000000
11
1.5620366258
21
21.8551382923
31
0.0000000000
11
1.5838172793
21
21.8359146530
31
0.0000000000
11
1.6027002650
21
21.8111848836
31
0.0000000000
11
1.6180380849
21
21.7817969685
31
0.0000000000
11
1.6293048049
21
21.7487586195
31
0.0000000000
11
1.6361140891
21
21.7132027223
31
0.0000000000
11
1.6382324469
21
21.6763484893
31
0.0000000000
0
SPLINE
5
317
100
AcDbEntity
8
0
100
AcDbSpline
62
7
6
CONTINUOUS
70
0
71
3
72
8
73
4
74
2
42
0.0000001000
43
0.0000001000
44
0.0000000001
12
0.0353021756
22
-0.0007263586
32
0.0000000000
13
0.0351043863
23
-0.0041703035
33
0.0000000000
40
0.0000000000
40
0.0000000000
40
0.0000000000
40
0.0000000000
40
1.0000000000
40
1.0000000000
40
1.0000000000
40
1.0000000000
10
1.0251174753
20
23.0229006566
30
0.0000000000
10
1.0368848672
20
23.0226585371
30
0.0000000000
10
1.0486531341
20
23.0218404970
30
0.0000000000
10
1.0603545962
20
23.0204503959
30
0.0000000000
11
1.0251174753
21
23.0229006566
31
0.0000000000
11
1.0603545962
21
23.0204503959
31
0.0000000000
0
SPLINE
5
318
100
AcDbEntity
8
0
100
AcDbSpline
62
7
6
CONTINUOUS
70
0
71
3
72
13
73
9
74
7
42
0.0000001000
43
0.0000001000
44
0.0000000001
12
0.0651649704
22
0.9598410464
32
0.0000000000
13
0.9618469971
23
-0.0197904480
33
0.0000000000
40
0.0000000000
40
0.0000000000
40
0.0000000000
40
0.0000000000
40
0.1897755640
40
0.3750392822
40
0.5504198633
40
0.7125214493
40
0.8611120512
40
1.0000000000
40
1.0000000000
40
1.0000000000
40
1.0000000000
10
0.1043373603
20
22.3433128591
30
0.0000000000
10
0.1084595999
20
22.4040309844
30
0.0000000000
10
0.1278715183
20
22.5235648271
30
0.0000000000
10
0.1887323929
20
22.6903901958
30
0.0000000000
10
0.2775925443
20
22.8340994143
30
0.0000000000
10
0.3893494691
20
22.9452038692
30
0.0000000000
10
0.5175478769
20
23.0157748256
30
0.0000000000
10
0.6107188740
20
23.0314271000
30
0.0000000000
10
0.6552485261
20
23.0305108818
30
0.0000000000
11
0.1043373603
21
22.3433128591
31
0.0000000000
11
0.1337527292
21
22.5235013396
31
0.0000000000
11
0.1954797877
21
22.6907041991
31
0.0000000000
11
0.2853119387
21
22.8335268391
31
0.0000000000
11
0.3971272696
21
22.9422361328
31
0.0000000000
11
0.5233057504
21
23.0094237214
31
0.0000000000
11
0.6552485261
21
23.0305108818
31
0.0000000000
0
SPLINE
5
319
100
AcDbEntity
8
0
100
AcDbSpline
62
7
6
CONTINUOUS
70
0
71
3
72
15
73
11
74
9
42
0.0000001000
43
0.0000001000
44
0.0000000001
12
0.0304330826
22
0.2349668855
32
0.0000000000
13
0.2375863251
23
-0.0046497217
33
0.0000000000
40
0.0000000000
40
0.0000000000
40
0.0000000000
40
0.0000000000
40
0.1538571531
40
0.3028644707
40
0.4449123467
40
0.5785937816
40
0.7034787685
40
0.8203697109
40
0.9314338787
40
1.0000000000
40
1.0000000000
40
1.0000000000
40
1.0000000000
10
6.8011496756
20
21.0630826401
30
0.0000000000
10
6.8027104581
20
21.0751330855
30
0.0000000000
10
6.8073137740
20
21.0986889845
30
0.0000000000
10
6.8186913821
20
21.1320509166
30
0.0000000000
10
6.8341103756
20
21.1619931599
30
0.0000000000
10
6.8530900932
20
21.1875081284
30
0.0000000000
10
6.8750528628
20
21.2077248451
30
0.0000000000
10
6.8993396308
20
21.2218925578
30
0.0000000000
10
6.9220653899
20
21.2284988849
30
0.0000000000
10
6.9363393156
20
21.2294117530
30
0.0000000000
10
6.9417694398
20
21.2293054818
30
0.0000000000
11
6.8011496756
21
21.0630826401
31
0.0000000000
11
6.8081982803
21
21.0988479956
31
0.0000000000
11
6.8196878768
21
21.1322303002
31
0.0000000000
11
6.8352244866
21
21.1620848741
31
0.0000000000
11
6.8542753591
21
21.1873880036
31
0.0000000000
11
6.8761872396
21
21.2072720438
31
0.0000000000
11
6.9002087693
21
21.2210551708
31
0.0000000000
11
6.9255162496
21
21.2282647608
31
0.0000000000
11
6.9417694398
21
21.2293054818
31
0.0000000000
0
SPLINE
5
31A
100
AcDbEntity
8
0
100
AcDbSpline
62
7
6
CONTINUOUS
70
0
71
3
72
8
73
4
74
2
42
0.0000001000
43
0.0000001000
44
0.0000000001
12
0.0353021756
22
-0.0007263586
32
0.0000000000
13
0.0351043863
23
-0.0041703035
33
0.0000000000
40
0.0000000000
40
0.0000000000
40
0.0000000000
40
0.0000000000
40
1.0000000000
40
1.0000000000
40
1.0000000000
40
1.0000000000
10
9.3211209384
20
22.0374780006
30
0.0000000000
10
9.3328883302
20
22.0372358811
30
0.0000000000
10
9.3446565971
20
22.0364178410
30
0.0000000000
10
9.3563580592
20
22.0350277399
30
0.0000000000
11
9.3211209384
21
22.0374780006
31
0.0000000000
11
9.3563580592
21
22.0350277399
31
0.0000000000
0
SPLINE
5
31B
100
AcDbEntity
8
0
100
AcDbSpline
62
7
6
CONTINUOUS
70
0
71
3
72
13
73
9
74
7
42
0.0000001000
43
0.0000001000
44
0.0000000001
12
0.0651649704
22
0.9598410464
32
0.0000000000
13
0.9618469971
23
-0.0197904480
33
0.0000000000
40
0.0000000000
40
0.0000000000
40
0.0000000000
40
0.0000000000
40
0.1897755640
40
0.3750392822
40
0.5504198633
40
0.7125214493
40
0.8611120512
40
1.0000000000
40
1.0000000000
40
1.0000000000
40
1.0000000000
10
8.4003408233
20
21.3578902031
30
0.0000000000
10
8.4044630630
20
21.4186083284
30
0.0000000000
10
8.4238749813
20
21.5381421711
30
0.0000000000
10
8.4847358560
20
21.7049675398
30
0.0000000000
10
8.5735960074
20
21.8486767583
30
0.0000000000
10
8.6853529321
20
21.9597812132
30
0.0000000000
10
8.8135513400
20
22.0303521695
30
0.0000000000
10
8.9067223370
20
22.0460044440
30
0.0000000000
10
8.9512519892
20
22.0450882258
30
0.0000000000
11
8.4003408233
21
21.3578902031
31
0.0000000000
11
8.4297561922
21
21.5380786836
31
0.0000000000
11
8.4914832507
21
21.7052815431
31
0.0000000000
11
8.5813154017
21
21.8481041831
31
0.0000000000
11
8.6931307327
21
21.9568134768
31
0.0000000000
11
8.8193092135
21
22.0240010654
31
0.0000000000
11
8.9512519892
21
22.0450882258
31
0.0000000000
0
SPLINE
5
31C
100
AcDbEntity
8
0
100
AcDbSpline
62
7
6
CONTINUOUS
70
0
71
3
72
15
73
11
74
9
42
0.0000001000
43
0.0000001000
44
0.0000000001
12
3.4485621933
22
-0.5811025486
32
0.0000000000
13
-0.5599905290
23
-3.4498852869
33
0.0000000000
40
0.0000000000
40
0.0000000000
40
0.0000000000
40
0.0000000000
40
0.0963320941
40
0.2031344556
40
0.3175420846
40
0.4416205077
40
0.5753192675
40
0.7175582711
40
0.8666752794
40
1.0000000000
40
1.0000000000
40
1.0000000000
40
1.0000000000
10
-7.3330703218
20
12.5928756697
30
0.0000000000
10
-7.2223345826
20
12.5742160612
30
0.0000000000
10
-6.9931695707
20
12.5012203015
30
0.0000000000
10
-6.6832241258
20
12.2912824574
30
0.0000000000
10
-6.4158174967
20
11.9859371288
30
0.0000000000
10
-6.2051910164
20
11.6038954849
30
0.0000000000
10
-6.0571195834
20
11.1598465252
30
0.0000000000
10
-5.9761832643
20
10.6695869484
30
0.0000000000
10
-5.9657734340
20
10.1736061595
30
0.0000000000
10
-6.0000465476
20
9.8455053265
30
0.0000000000
10
-6.0249334079
20
9.6921869959
30
0.0000000000
11
-7.3330703218
21
12.5928756697
31
0.0000000000
11
-7.0119285152
21
12.4911961090
31
0.0000000000
11
-6.7010446766
21
12.2848019341
31
0.0000000000
11
-6.4347517168
21
11.9866866480
31
0.0000000000
11
-6.2223266251
21
11.6087780587
31
0.0000000000
11
-6.0719251310
21
11.1665201934
31
0.0000000000
11
-5.9890132459
21
10.6765140301
31
0.0000000000
11
-5.9768693353
21
10.1556531549
31
0.0000000000
11
-6.0249334079
21
9.6921869959
31
0.0000000000
0
SPLINE
5
31D
100
AcDbEntity
8
0
100
AcDbSpline
62
7
6
CONTINUOUS
70
0
71
3
72
8
73
4
74
2
42
0.0000001000
43
0.0000001000
44
0.0000000001
12
-0.0010343759
22
-0.0063723905
32
0.0000000000
13
-0.0010444014
23
-0.0063705852
33
0.0000000000
40
0.0000000000
40
0.0000000000
40
0.0000000000
40
0.0000000000
40
1.0000000000
40
1.0000000000
40
1.0000000000
40
1.0000000000
10
-6.0249334079
20
9.6921869959
30
0.0000000000
10
-6.0252781999
20
9.6900628657
30
0.0000000000
10
-6.0256246634
20
9.6879390349
30
0.0000000000
10
-6.0259727972
20
9.6858155065
30
0.0000000000
11
-6.0249334079
21
9.6921869959
31
0.0000000000
11
-6.0259727972
21
9.6858155065
31
0.0000000000
0
SPLINE
5
31E
100
AcDbEntity
8
0
100
AcDbSpline
62
7
6
CONTINUOUS
70
0
71
3
72
15
73
11
74
9
42
0.0000001000
43
0.0000001000
44
0.0000000001
12
-0.6062409880
22
-3.6985056377
32
0.0000000000
13
-3.7108741393
23
0.6199995037
33
0.0000000000
40
0.0000000000
40
0.0000000000
40
0.0000000000
40
0.0000000000
40
0.1359829174
40
0.2872506464
40
0.4322659868
40
0.5688262430
40
0.6952686361
40
0.8111070163
40
0.9175779407
40
1.0000000000
40
1.0000000000
40
1.0000000000
40
1.0000000000
10
-6.0259776280
20
9.6858155080
30
0.0000000000
10
-6.0534571007
20
9.5181709791
30
0.0000000000
10
-6.1335812654
20
9.1672687425
30
0.0000000000
10
-6.3227669132
20
8.6597820596
30
0.0000000000
10
-6.5847692953
20
8.1845131497
30
0.0000000000
10
-6.9007048139
20
7.7815462972
30
0.0000000000
10
-7.2582416332
20
7.4669088371
30
0.0000000000
10
-7.6433002169
20
7.2546912358
30
0.0000000000
10
-8.0178797087
20
7.1623453471
30
0.0000000000
10
-8.2565106295
20
7.1710675261
30
0.0000000000
10
-8.3584632590
20
7.1881014047
30
0.0000000000
11
-6.0259776280
21
9.6858155080
31
0.0000000000
11
-6.1395355371
21
9.1890030215
31
0.0000000000
11
-6.3384505563
21
8.6583110466
31
0.0000000000
11
-6.6025098695
21
8.1834742266
31
0.0000000000
11
-6.9205542268
21
7.7826927358
31
0.0000000000
11
-7.2788299113
21
7.4727526357
31
0.0000000000
11
-7.6611942920
21
7.2674289247
31
0.0000000000
11
-8.0494873518
21
7.1760150873
31
0.0000000000
11
-8.3584632590
21
7.1881014047
31
0.0000000000
0
SPLINE
5
31F
100
AcDbEntity
8
0
100
AcDbSpline
62
7
6
CONTINUOUS
70
0
71
3
72
15
73
11
74
9
42
0.0000001000
43
0.0000001000
44
0.0000000001
12
0.3919270583
22
-0.0561530027
32
0.0000000000
13
-0.0563774670
23
-0.3915408752
33
0.0000000000
40
0.0000000000
40
0.0000000000
40
0.0000000000
40
0.0000000000
40
0.0949778169
40
0.2020115305
40
0.3156780837
40
0.4377984623
40
0.5686902081
40
0.7073977722
40
0.8520134859
40
1.0000000000
40
1.0000000000
40
1.0000000000
40
1.0000000000
10
12.3427746999
20
13.3992691738
30
0.0000000000
10
12.3551828254
20
13.3974914106
30
0.0000000000
10
12.3812005682
20
13.3902299899
30
0.0000000000
10
12.4173095782
20
13.3685949416
30
0.0000000000
10
12.4494163373
20
13.3361839342
30
0.0000000000
10
12.4754177193
20
13.2950360982
30
0.0000000000
10
12.4945055529
20
13.2467581292
30
0.0000000000
10
12.5060593881
20
13.1931484908
30
0.0000000000
10
12.5096991259
20
13.1362065580
30
0.0000000000
10
12.5067819535
20
13.0975910864
30
0.0000000000
10
12.5040009185
20
13.0782768300
30
0.0000000000
11
12.3427746999
21
13.3992691738
31
0.0000000000
11
12.3790044709
21
13.3892080644
31
0.0000000000
11
12.4154747696
21
13.3676995400
31
0.0000000000
11
12.4473783179
21
13.3360146362
31
0.0000000000
11
12.4734882410
21
13.2953703427
31
0.0000000000
11
12.4928006689
21
13.2473287679
31
0.0000000000
11
12.5045734811
21
13.1937368427
31
0.0000000000
11
12.5083549313
21
13.1366550321
31
0.0000000000
11
12.5040009185
21
13.0782768300
31
0.0000000000
0
SPLINE
5
320
100
AcDbEntity
8
0
100
AcDbSpline
62
7
6
CONTINUOUS
70
0
71
3
72
13
73
9
74
7
42
0.0000001000
43
0.0000001000
44
0.0000000001
12
-1.3191969523
22
0.1582002815
32
0.0000000000
13
-0.2443352568
23
-1.3071966253
33
0.0000000000
40
0.0000000000
40
0.0000000000
40
0.0000000000
40
0.0000000000
40
0.1457114340
40
0.3101531550
40
0.4851319718
40
0.6710814149
40
0.8666725910
40
1.0000000000
40
1.0000000000
40
1.0000000000
40
1.0000000000
10
-10.3390087301
20
16.2429893346
30
0.0000000000
10
-10.4030827566
20
16.2506731979
30
0.0000000000
10
-10.5427759102
20
16.2465027951
30
0.0000000000
10
-10.7483250771
20
16.1736139757
30
0.0000000000
10
-10.9372931383
20
16.0327727284
30
0.0000000000
10
-11.0905404259
20
15.8367068231
30
0.0000000000
10
-11.1862960327
20
15.6279833637
30
0.0000000000
10
-11.2229950146
20
15.4863445570
30
0.0000000000
10
-11.2338538768
20
15.4282495106
30
0.0000000000
11
-10.3390087301
21
16.2429893346
31
0.0000000000
11
-10.5325117909
21
16.2373899401
31
0.0000000000
11
-10.7387608261
21
16.1658094212
31
0.0000000000
11
-10.9261944277
21
16.0285687268
31
0.0000000000
11
-11.0797847393
21
15.8352928585
31
0.0000000000
11
-11.1892218551
21
15.5998079577
31
0.0000000000
11
-11.2338538768
21
15.4282495106
31
0.0000000000
0
SPLINE
5
321
100
AcDbEntity
8
0
100
AcDbSpline
62
7
6
CONTINUOUS
70
0
71
3
72
8
73
4
74
2
42
0.0000001000
43
0.0000001000
44
0.0000000001
12
-0.0033582002
22
-0.0179664125
32
0.0000000000
13
-0.0031020807
23
-0.0180076340
33
0.0000000000
40
0.0000000000
40
0.0000000000
40
0.0000000000
40
0.0000000000
40
1.0000000000
40
1.0000000000
40
1.0000000000
40
1.0000000000
10
-11.2338538768
20
15.4282495106
30
0.0000000000
10
-11.2349732769
20
15.4222607064
30
0.0000000000
10
-11.2360499881
20
15.4162646586
30
0.0000000000
10
-11.2370840150
20
15.4102621139
30
0.0000000000
11
-11.2338538768
21
15.4282495106
31
0.0000000000
11
-11.2370840150
21
15.4102621139
31
0.0000000000
0
SPLINE
5
322
100
AcDbEntity
8
0
100
AcDbSpline
62
7
6
CONTINUOUS
70
0
71
3
72
10
73
6
74
4
42
0.0000001000
43
0.0000001000
44
0.0000000001
12
-5.6299706876
22
-32.6807409360
32
0.0000000000
13
-3.8201007982
23
-32.9413765309
33
0.0000000000
40
0.0000000000
40
0.0000000000
40
0.0000000000
40
0.0000000000
40
0.3325697440
40
0.6673137209
40
1.0000000000
40
1.0000000000
40
1.0000000000
40
1.0000000000
10
-11.2370878685
20
15.4102666133
30
0.0000000000
10
-11.8612071720
20
11.7873913974
30
0.0000000000
10
-13.0467155525
20
4.5062579279
30
0.0000000000
10
-14.6221072724
20
-6.4355188124
30
0.0000000000
10
-15.5391547914
20
-13.7566071833
30
0.0000000000
10
-15.9627864983
20
-17.4096551793
30
0.0000000000
11
-11.2370878685
21
15.4102666133
31
0.0000000000
11
-13.0095142907
21
4.5248984353
31
0.0000000000
11
-14.5915372837
21
-6.4626156837
31
0.0000000000
11
-15.9627864983
21
-17.4096551793
31
0.0000000000
0
SPLINE
5
323
100
AcDbEntity
8
0
100
AcDbSpline
62
7
6
CONTINUOUS
70
0
71
3
72
13
73
9
74
7
42
0.0000001000
43
0.0000001000
44
0.0000000001
12
-0.1530331173
22
-1.3203117886
32
0.0000000000
13
1.2944630176
23
-0.3188208650
33
0.0000000000
40
0.0000000000
40
0.0000000000
40
0.0000000000
40
0.0000000000
40
0.1746414426
40
0.3705522705
40
0.5573034530
40
0.7323106985
40
0.8960128577
40
1.0000000000
40
1.0000000000
40
1.0000000000
40
1.0000000000
10
-15.9627801458
20
-17.4096557388
30
0.0000000000
10
-15.9716887873
20
-17.4865161240
30
0.0000000000
10
-15.9760232189
20
-17.6516619737
30
0.0000000000
10
-15.9337044191
20
-17.8966704965
30
0.0000000000
10
-15.8362580937
20
-18.1262525982
30
0.0000000000
10
-15.6909923749
20
-18.3118848688
30
0.0000000000
10
-15.5281867026
20
-18.4262857243
30
0.0000000000
10
-15.4153433599
20
-18.4669805290
30
0.0000000000
10
-15.3704741898
20
-18.4780316192
30
0.0000000000
11
-15.9627801458
21
-17.4096557388
31
0.0000000000
11
-15.9685615476
21
-17.6416853725
31
0.0000000000
11
-15.9230988641
21
-17.8978939132
31
0.0000000000
11
-15.8243998995
21
-18.1254566064
31
0.0000000000
11
-15.6796108535
21
-18.3073012952
31
0.0000000000
11
-15.5008413543
21
-18.4310658915
31
0.0000000000
11
-15.3704741898
21
-18.4780316192
31
0.0000000000
0
SPLINE
5
324
100
AcDbEntity
8
0
100
AcDbSpline
62
7
6
CONTINUOUS
70
0
71
3
72
8
73
4
74
2
42
0.0000001000
43
0.0000001000
44
0.0000000001
12
0.0307121575
22
-0.0075642768
32
0.0000000000
13
0.0309944800
23
-0.0060619919
33
0.0000000000
40
0.0000000000
40
0.0000000000
40
0.0000000000
40
0.0000000000
40
1.0000000000
40
1.0000000000
40
1.0000000000
40
1.0000000000
10
-15.3704741898
20
-18.4780316192
30
0.0000000000
10
-15.3602368040
20
-18.4805530448
30
0.0000000000
10
-15.3499456007
20
-18.4828268181
30
0.0000000000
10
-15.3396141074
20
-18.4848474820
30
0.0000000000
11
-15.3704741898
21
-18.4780316192
31
0.0000000000
11
-15.3396141074
21
-18.4848474820
31
0.0000000000
0
SPLINE
5
325
100
AcDbEntity
8
0
100
AcDbSpline
62
7
6
CONTINUOUS
70
0
71
3
72
15
73
11
74
9
42
0.0000001000
43
0.0000001000
44
0.0000000001
12
-0.0577404370
22
-0.4010066865
32
0.0000000000
13
-0.4023140908
23
0.0477880008
33
0.0000000000
40
0.0000000000
40
0.0000000000
40
0.0000000000
40
0.0000000000
40
0.1449828180
40
0.2876067842
40
0.4252520652
40
0.5558118672
40
0.6780006880
40
0.7916725383
40
0.8980927673
40
1.0000000000
40
1.0000000000
40
1.0000000000
40
1.0000000000
10
7.5457615347
20
-21.3566400236
30
0.0000000000
10
7.5429710776
20
-21.3760197167
30
0.0000000000
10
7.5348124633
20
-21.4141393883
30
0.0000000000
10
7.5151540518
20
-21.4682907214
30
0.0000000000
10
7.4888046553
20
-21.5173565726
30
0.0000000000
10
7.4567096262
20
-21.5594929246
30
0.0000000000
10
7.4199938742
20
-21.5931150600
30
0.0000000000
10
7.3799010383
20
-21.6168862460
30
0.0000000000
10
7.3378801003
20
-21.6297166602
30
0.0000000000
10
7.3093224540
20
-21.6304382636
30
0.0000000000
10
7.2956562155
20
-21.6288149493
30
0.0000000000
11
7.5457615347
21
-21.3566400236
31
0.0000000000
11
7.5334402036
21
-21.4140718720
31
0.0000000000
11
7.5136240521
21
-21.4683507463
31
0.0000000000
11
7.4870733959
21
-21.5173905448
31
0.0000000000
11
7.4548082025
21
-21.5593055842
31
0.0000000000
11
7.4180685859
21
-21.5924843918
31
0.0000000000
11
7.3782669390
21
-21.6156519016
31
0.0000000000
11
7.3369334206
21
-21.6279186417
31
0.0000000000
11
7.2956562155
21
-21.6288149493
31
0.0000000000
0
SPLINE
5
326
100
AcDbEntity
8
0
100
AcDbSpline
62
9
6
CONTINUOUS
70
0
71
3
72
8
73
4
74
2
42
0.0000001000
43
0.0000001000
44
0.0000000001
12
0.0141126847
22
0.0015100725
32
0.0000000000
13
0.0141274704
23
0.0013707213
33
0.0000000000
40
0.0000000000
40
0.0000000000
40
0.0000000000
40
0.0000000000
40
1.0000000000
40
1.0000000000
40
1.0000000000
40
1.0000000000
10
-7.7059079795
20
12.6032278470
30
0.0000000000
10
-7.7012037512
20
12.6037312045
30
0.0000000000
10
-7.6964969327
20
12.6042113879
30
0.0000000000
10
-7.6917877759
20
12.6046682950
30
0.0000000000
11
-7.7059079795
21
12.6032278470
31
0.0000000000
11
-7.6917877759
21
12.6046682950
31
0.0000000000
0
SPLINE
5
327
100
AcDbEntity
8
0
100
AcDbSpline
62
9
6
CONTINUOUS
70
0
71
3
72
8
73
4
74
2
42
0.0000001000
43
0.0000001000
44
0.0000000001
12
0.0433976831
22
0.0042106709
32
0.0000000000
13
0.0435081554
23
0.0028839137
33
0.0000000000
40
0.0000000000
40
0.0000000000
40
0.0000000000
40
0.0000000000
40
1.0000000000
40
1.0000000000
40
1.0000000000
40
1.0000000000
10
-7.6917877759
20
12.6046682950
30
0.0000000000
10
-7.6773218815
20
12.6060718520
30
0.0000000000
10
-7.6628339224
20
12.6072557651
30
0.0000000000
10
-7.6483312039
20
12.6082170697
30
0.0000000000
11
-7.6917877759
21
12.6046682950
31
0.0000000000
11
-7.6483312039
21
12.6082170697
31
0.0000000000
0
SPLINE
5
328
100
AcDbEntity
8
0
100
AcDbSpline
62
9
6
CONTINUOUS
70
0
71
3
72
8
73
4
74
2
42
0.0000001000
43
0.0000001000
44
0.0000000001
12
0.0261064541
22
0.0017304517
32
0.0000000000
13
0.0261336032
23
0.0012476380
33
0.0000000000
40
0.0000000000
40
0.0000000000
40
0.0000000000
40
0.0000000000
40
1.0000000000
40
1.0000000000
40
1.0000000000
40
1.0000000000
10
-7.6483312039
20
12.6082170697
30
0.0000000000
10
-7.6396290526
20
12.6087938869
30
0.0000000000
10
-7.6309215872
20
12.6092905555
30
0.0000000000
10
-7.6222103861
20
12.6097064348
30
0.0000000000
11
-7.6483312039
21
12.6082170697
31
0.0000000000
11
-7.6222103861
21
12.6097064348
31
0.0000000000
0
SPLINE
5
329
100
AcDbEntity
8
0
100
AcDbSpline
62
9
6
CONTINUOUS
70
0
71
3
72
9
73
5
74
3
42
0.0000001000
43
0.0000001000
44
0.0000000001
12
0.2899162180
22
0.0138408195
32
0.0000000000
13
0.2861944985
23
-0.0481990075
33
0.0000000000
40
0.0000000000
40
0.0000000000
40
0.0000000000
40
0.0000000000
40
0.7795526672
40
1.0000000000
40
1.0000000000
40
1.0000000000
40
1.0000000000
10
-7.6222103861
20
12.6097064348
30
0.0000000000
10
-7.5468753991
20
12.6133029841
30
0.0000000000
10
-7.4498782604
20
12.6101658133
30
0.0000000000
10
-7.3541011209
20
12.5964043368
30
0.0000000000
10
-7.3330708496
20
12.5928625559
30
0.0000000000
11
-7.6222103861
21
12.6097064348
31
0.0000000000
11
-7.3963880391
21
12.6019553887
31
0.0000000000
11
-7.3330708496
21
12.5928625559
31
0.0000000000
0
SPLINE
5
32A
100
AcDbEntity
8
0
100
AcDbSpline
62
9
6
CONTINUOUS
70
0
71
3
72
9
73
5
74
3
42
0.0000001000
43
0.0000001000
44
0.0000000001
12
0.0021595390
22
-0.0019969956
32
0.0000000000
13
0.0840686968
23
-0.0100693529
33
0.0000000000
40
0.0000000000
40
0.0000000000
40
0.0000000000
40
0.0000000000
40
0.2553460119
40
1.0000000000
40
1.0000000000
40
1.0000000000
40
1.0000000000
10
-15.9627799490
20
-17.4096480976
30
0.0000000000
10
-15.9625961391
20
-17.4098180726
30
0.0000000000
10
-15.9176037860
20
-17.4156496501
30
0.0000000000
10
-15.8996619201
20
-17.4176620346
30
0.0000000000
10
-15.8787945566
20
-17.4201614292
30
0.0000000000
11
-15.9627799490
21
-17.4096480976
31
0.0000000000
11
-15.9413826379
21
-17.4125471953
31
0.0000000000
11
-15.8787945566
21
-17.4201614292
31
0.0000000000
0
SPLINE
5
32B
100
AcDbEntity
8
0
100
AcDbSpline
62
9
6
CONTINUOUS
70
0
71
3
72
23
73
19
74
17
42
0.0000001000
43
0.0000001000
44
0.0000000001
12
1.3013822539
22
7.9375173653
32
0.0000000000
13
-1.3008461683
23
-7.9376052397
33
0.0000000000
40
0.0000000000
40
0.0000000000
40
0.0000000000
40
0.0000000000
40
0.0731590813
40
0.1452684602
40
0.2151066741
40
0.2815488018
40
0.3438608828
40
0.4017924667
40
0.4558584165
40
0.5073349697
40
0.5581141428
40
0.6102737975
40
0.6655444755
40
0.7249656474
40
0.7887453906
40
0.8564870402
40
0.9272775544
40
1.0000000000
40
1.0000000000
40
1.0000000000
40
1.0000000000
10
-10.1033260165
20
10.1744962844
30
0.0000000000
10
-10.0715900398
20
10.3680634438
30
0.0000000000
10
-9.9821495521
20
10.7486227989
30
0.0000000000
10
-9.7738702746
20
11.2883602342
30
0.0000000000
10
-9.4991615611
20
11.7772930439
30
0.0000000000
10
-9.1678963947
20
12.1972188599
30
0.0000000000
10
-8.7919873289
20
12.5321333849
30
0.0000000000
10
-8.3847066234
20
12.7687383808
30
0.0000000000
10
-7.9606041152
20
12.8963906407
30
0.0000000000
10
-7.5361815191
20
12.9074017449
30
0.0000000000
10
-7.1306113430
20
12.7993117805
30
0.0000000000
10
-6.7629150594
20
12.5775463186
30
0.0000000000
10
-6.4479727685
20
12.2538461071
30
0.0000000000
10
-6.1963476438
20
11.8428734407
30
0.0000000000
10
-6.0157250647
20
11.3609825164
30
0.0000000000
10
-5.9115838991
20
10.8263568202
30
0.0000000000
10
-5.8869596021
20
10.2586310339
30
0.0000000000
10
-5.9237907134
20
9.8741989781
30
0.0000000000
10
-5.9553242850
20
9.6817849564
30
0.0000000000
11
-10.1033260165
21
10.1744962844
31
0.0000000000
11
-9.9685132418
21
10.7473001535
31
0.0000000000
11
-9.7588507112
21
11.2880909661
31
0.0000000000
11
-9.4821648627
21
11.7769675742
31
0.0000000000
11
-9.1491602355
21
12.1949626720
31
0.0000000000
11
-8.7727385950
21
12.5258931552
31
0.0000000000
11
-8.3679500821
21
12.7567100265
31
0.0000000000
11
-7.9505421320
21
12.8787363342
31
0.0000000000
11
-7.5365833014
21
12.8874859981
31
0.0000000000
11
-7.1418114634
21
12.7827005244
31
0.0000000000
11
-6.7812008599
21
12.5682741272
31
0.0000000000
11
-6.4685299821
21
12.2522380697
31
0.0000000000
11
-6.2157889306
21
11.8465759320
31
0.0000000000
11
-6.0328094289
21
11.3673059432
31
0.0000000000
11
-5.9263436254
21
10.8329290392
31
0.0000000000
11
-5.9002165421
21
10.2641257789
31
0.0000000000
11
-5.9553242850
21
9.6817849564
31
0.0000000000
0
SPLINE
5
32C
100
AcDbEntity
8
0
100
AcDbSpline
62
9
6
CONTINUOUS
70
0
71
3
72
9
73
5
74
3
42
0.0000001000
43
0.0000001000
44
0.0000000001
12
0.0112390302
22
0.0223624061
32
0.0000000000
13
0.0843640297
23
-0.0099375261
33
0.0000000000
40
0.0000000000
40
0.0000000000
40
0.0000000000
40
0.0000000000
40
0.2569646032
40
1.0000000000
40
1.0000000000
40
1.0000000000
40
1.0000000000
10
-11.2370460510
20
15.4102492489
30
0.0000000000
10
-11.2360833733
20
15.4121646979
30
0.0000000000
10
-11.1916831942
20
15.4130431795
30
0.0000000000
10
-11.1730004254
20
15.4090178565
30
0.0000000000
10
-11.1521052719
20
15.4065565453
30
0.0000000000
11
-11.2370460510
21
15.4102492489
31
0.0000000000
11
-11.2149629659
21
15.4122923730
31
0.0000000000
11
-11.1521052719
21
15.4065565453
31
0.0000000000
0
SPLINE
5
32D
100
AcDbEntity
8
0
100
AcDbSpline
62
9
6
CONTINUOUS
70
0
71
3
72
8
73
4
74
2
42
0.0000001000
43
0.0000001000
44
0.0000000001
12
-0.0014725305
22
-0.0089787229
32
0.0000000000
13
-0.0014913023
23
-0.0089760000
33
0.0000000000
40
0.0000000000
40
0.0000000000
40
0.0000000000
40
0.0000000000
40
1.0000000000
40
1.0000000000
40
1.0000000000
40
1.0000000000
10
-5.9553242850
20
9.6817849564
30
0.0000000000
10
-5.9558151285
20
9.6787920488
30
0.0000000000
10
-5.9563091011
20
9.6757995910
30
0.0000000000
10
-5.9568062018
20
9.6728075910
30
0.0000000000
11
-5.9553242850
21
9.6817849564
31
0.0000000000
11
-5.9568062018
21
9.6728075910
31
0.0000000000
0
SPLINE
5
32E
100
AcDbEntity
8
0
100
AcDbSpline
62
9
6
CONTINUOUS
70
0
71
3
72
23
73
19
74
17
42
0.0000001000
43
0.0000001000
44
0.0000000001
12
-1.3169316330
22
-7.9264804959
32
0.0000000000
13
1.2988733979
23
7.9291278384
33
0.0000000000
40
0.0000000000
40
0.0000000000
40
0.0000000000
40
0.0000000000
40
0.0724972821
40
0.1449498910
40
0.2147221358
40
0.2808451772
40
0.3427636241
40
0.4003771087
40
0.4542478526
40
0.5056774180
40
0.5565504974
40
0.6088874967
40
0.6643247429
40
0.7238220263
40
0.7876448028
40
0.8555364776
40
0.9267563430
40
1.0000000000
40
1.0000000000
40
1.0000000000
40
1.0000000000
10
-5.9568062018
20
9.6728075910
30
0.0000000000
10
-5.9886308565
20
9.4812581603
30
0.0000000000
10
-6.0778950170
20
9.1020282293
30
0.0000000000
10
-6.2846008397
20
8.5634865142
30
0.0000000000
10
-6.5575537219
20
8.0744261954
30
0.0000000000
10
-6.8856649104
20
7.6554398413
30
0.0000000000
10
-7.2578694800
20
7.3213546792
30
0.0000000000
10
-7.6619416701
20
7.0850350210
30
0.0000000000
10
-8.0840181027
20
6.9573604977
30
0.0000000000
10
-8.5076147249
20
6.9463908912
30
0.0000000000
10
-8.9132957867
20
7.0545258557
30
0.0000000000
10
-9.2819270791
20
7.2759686501
30
0.0000000000
10
-9.5986395314
20
7.5987299399
30
0.0000000000
10
-9.8528984043
20
8.0083201119
30
0.0000000000
10
-10.0368636083
20
8.4891272744
30
0.0000000000
10
-10.1444680121
20
9.0242134665
30
0.0000000000
10
-10.1715581355
20
9.5942415778
30
0.0000000000
10
-10.1350374290
20
9.9809101779
30
0.0000000000
10
-10.1033260165
20
10.1744962844
30
0.0000000000
11
-5.9568062018
21
9.6728075910
31
0.0000000000
11
-6.0904988399
21
9.1058345312
31
0.0000000000
11
-6.3000039108
21
8.5626974662
31
0.0000000000
11
-6.5748225405
21
8.0740723807
31
0.0000000000
11
-6.9044584237
21
7.6574131191
31
0.0000000000
11
-7.2769382164
21
7.3276133690
31
0.0000000000
11
-7.6784205608
21
7.0971776052
31
0.0000000000
11
-8.0936926521
21
6.9751100172
31
0.0000000000
11
-8.5068242843
21
6.9662472387
31
0.0000000000
11
-8.9019374707
21
7.0709686275
31
0.0000000000
11
-9.2637898721
21
7.2852068410
31
0.0000000000
11
-9.5783570423
21
7.6005689677
31
0.0000000000
11
-9.8335338993
21
8.0048162414
31
0.0000000000
11
-10.0195934029
21
8.4826755889
31
0.0000000000
11
-10.1293612304
21
9.0170139995
31
0.0000000000
11
-10.1579446871
21
9.5885376257
31
0.0000000000
11
-10.1033260165
21
10.1744962844
31
0.0000000000
0
SPLINE
5
32F
100
AcDbEntity
8
0
100
AcDbSpline
62
9
6
CONTINUOUS
70
0
71
3
72
8
73
4
74
2
42
0.0000001000
43
0.0000001000
44
0.0000000001
12
-0.1692756116
22
0.0285229606
32
0.0000000000
13
-0.1642812568
23
0.0499324037
33
0.0000000000
40
0.0000000000
40
0.0000000000
40
0.0000000000
40
0.0000000000
40
1.0000000000
40
1.0000000000
40
1.0000000000
40
1.0000000000
10
-8.3585880531
20
7.1881051280
30
0.0000000000
10
-8.4150132570
20
7.1976127816
30
0.0000000000
10
-8.4708362457
20
7.2107749864
30
0.0000000000
10
-8.5255966647
20
7.2274191209
30
0.0000000000
11
-8.3585880531
21
7.1881051280
31
0.0000000000
11
-8.5255966647
21
7.2274191209
31
0.0000000000
0
SPLINE
5
330
100
AcDbEntity
8
0
100
AcDbSpline
62
9
6
CONTINUOUS
70
0
71
3
72
8
73
4
74
2
42
0.0000001000
43
0.0000001000
44
0.0000000001
12
-0.0134997055
22
0.0041031628
32
0.0000000000
13
-0.0134558884
23
0.0042439484
33
0.0000000000
40
0.0000000000
40
0.0000000000
40
0.0000000000
40
0.0000000000
40
1.0000000000
40
1.0000000000
40
1.0000000000
40
1.0000000000
10
-8.5255966647
20
7.2274191209
30
0.0000000000
10
-8.5300965665
20
7.2287868419
30
0.0000000000
10
-8.5345892932
20
7.2301780750
30
0.0000000000
10
-8.5390745894
20
7.2315927245
30
0.0000000000
11
-8.5255966647
21
7.2274191209
31
0.0000000000
11
-8.5390745894
21
7.2315927245
31
0.0000000000
0
SPLINE
5
331
100
AcDbEntity
8
0
100
AcDbSpline
62
9
6
CONTINUOUS
70
0
71
3
72
9
73
5
74
3
42
0.0000001000
43
0.0000001000
44
0.0000000001
12
-0.2560227268
22
0.0807488307
32
0.0000000000
13
-0.2353171617
23
0.1289157225
33
0.0000000000
40
0.0000000000
40
0.0000000000
40
0.0000000000
40
0.0000000000
40
0.4683507387
40
1.0000000000
40
1.0000000000
40
1.0000000000
40
1.0000000000
10
-8.5390745894
20
7.2315927245
30
0.0000000000
10
-8.5790440671
20
7.2441989827
30
0.0000000000
10
-8.6631251044
20
7.2750855582
30
0.0000000000
10
-8.7436920411
20
7.3141403140
30
0.0000000000
10
-8.7853941062
20
7.3369862969
30
0.0000000000
11
-8.5390745894
21
7.2315927245
31
0.0000000000
11
-8.6570320725
21
7.2749221937
31
0.0000000000
11
-8.7853941062
21
7.3369862969
31
0.0000000000
0
SPLINE
5
332
100
AcDbEntity
8
0
100
AcDbSpline
62
9
6
CONTINUOUS
70
0
71
3
72
8
73
4
74
2
42
0.0000001000
43
0.0000001000
44
0.0000000001
12
-0.0396951869
22
0.0046908741
32
0.0000000000
13
-0.0400332697
23
0.0016728491
33
0.0000000000
40
0.0000000000
40
0.0000000000
40
0.0000000000
40
0.0000000000
40
1.0000000000
40
1.0000000000
40
1.0000000000
40
1.0000000000
10
6.0418778934
20
14.2972350762
30
0.0000000000
10
6.0286461644
20
14.2987987009
30
0.0000000000
10
6.0153356157
20
14.2998561806
30
0.0000000000
10
6.0019911925
20
14.3004137969
30
0.0000000000
11
6.0418778934
21
14.2972350762
31
0.0000000000
11
6.0019911925
21
14.3004137969
31
0.0000000000
0
SPLINE
5
333
100
AcDbEntity
8
0
100
AcDbSpline
62
9
6
CONTINUOUS
70
0
71
3
72
14
73
10
74
8
42
0.0000001000
43
0.0000001000
44
0.0000000001
12
-1.2512743648
22
0.0522863425
32
0.0000000000
13
-0.2129544304
23
-1.2299039273
33
0.0000000000
40
0.0000000000
40
0.0000000000
40
0.0000000000
40
0.0000000000
40
0.0842097194
40
0.2148745498
40
0.3538964688
40
0.5028419693
40
0.6616706347
40
0.8283615559
40
1.0000000000
40
1.0000000000
40
1.0000000000
40
1.0000000000
10
6.0019911925
20
14.3004137969
30
0.0000000000
10
5.9668680381
20
14.3018814697
30
0.0000000000
10
5.8766468967
20
14.2967903547
30
0.0000000000
10
5.7343251931
20
14.2524992876
30
0.0000000000
10
5.5854817814
20
14.1587249733
30
0.0000000000
10
5.4534504743
20
14.0259366997
30
0.0000000000
10
5.3436207642
20
13.8605358664
30
0.0000000000
10
5.2605850493
20
13.6700693029
30
0.0000000000
10
5.2257148292
20
13.5329676968
30
0.0000000000
10
5.2135311068
20
13.4626014313
30
0.0000000000
11
6.0019911925
21
14.3004137969
31
0.0000000000
11
5.8967372421
21
14.2945426858
31
0.0000000000
11
5.7406367915
21
14.2472872755
31
0.0000000000
11
5.5930397034
21
14.1560350521
31
0.0000000000
11
5.4609860757
21
14.0251687350
31
0.0000000000
11
5.3504361633
21
13.8606026133
31
0.0000000000
11
5.2666637884
21
13.6701480714
31
0.0000000000
11
5.2135311068
21
13.4626014313
31
0.0000000000
0
SPLINE
5
334
100
AcDbEntity
8
0
100
AcDbSpline
62
9
6
CONTINUOUS
70
0
71
3
72
11
73
7
74
5
42
0.0000001000
43
0.0000001000
44
0.0000000001
12
0.0509977468
22
0.3892770184
32
0.0000000000
13
-0.3889660676
23
0.0562826364
33
0.0000000000
40
0.0000000000
40
0.0000000000
40
0.0000000000
40
0.0000000000
40
0.2945199658
40
0.5656627363
40
0.8010609396
40
1.0000000000
40
1.0000000000
40
1.0000000000
40
1.0000000000
10
6.2187979073
20
13.9741952601
30
0.0000000000
10
6.2238045256
20
14.0124118782
30
0.0000000000
10
6.2239045627
20
14.0875136142
30
0.0000000000
10
6.1942788855
20
14.1897205142
30
0.0000000000
10
6.1378681540
20
14.2662637245
30
0.0000000000
10
6.0832664134
20
14.2914665944
30
0.0000000000
10
6.0574728987
20
14.2951988660
30
0.0000000000
11
6.2187979073
21
13.9741952601
31
0.0000000000
11
6.2182103820
21
14.0898232840
31
0.0000000000
11
6.1867192362
21
14.1915102579
31
0.0000000000
11
6.1291158590
21
14.2637803011
31
0.0000000000
11
6.0574728987
21
14.2951988660
31
0.0000000000
0
SPLINE
5
335
100
AcDbEntity
8
0
100
AcDbSpline
62
9
6
CONTINUOUS
70
0
71
3
72
14
73
10
74
8
42
0.0000001000
43
0.0000001000
44
0.0000000001
12
-0.9031116032
22
0.1284682493
32
0.0000000000
13
-0.1557940698
23
-0.8988007937
33
0.0000000000
40
0.0000000000
40
0.0000000000
40
0.0000000000
40
0.0000000000
40
0.1209709685
40
0.2468078395
40
0.3806114980
40
0.5238071731
40
0.6763104134
40
0.8362086463
40
1.0000000000
40
1.0000000000
40
1.0000000000
40
1.0000000000
10
6.2187979073
20
13.9741952601
30
0.0000000000
10
6.1823811456
20
13.9793755697
30
0.0000000000
10
6.1060468898
20
13.9787780393
30
0.0000000000
10
5.9940921473
20
13.9442685037
30
0.0000000000
10
5.8892325144
20
13.8786184819
30
0.0000000000
10
5.7962576822
20
13.7855395977
30
0.0000000000
10
5.7190054969
20
13.6695814049
30
0.0000000000
10
5.6607713240
20
13.5362957100
30
0.0000000000
10
5.6363712587
20
13.4404400529
30
0.0000000000
10
5.6278653515
20
13.3913681200
30
0.0000000000
11
6.2187979073
21
13.9741952601
31
0.0000000000
11
6.1084496479
21
13.9735573539
31
0.0000000000
11
5.9984994236
21
13.9405813679
31
0.0000000000
11
5.8945103297
21
13.8766754543
31
0.0000000000
11
5.8015253294
21
13.7849350492
31
0.0000000000
11
5.7237786014
21
13.6695741581
31
0.0000000000
11
5.6649527314
21
13.5361029526
31
0.0000000000
11
5.6278653515
21
13.3913681200
31
0.0000000000
0
SPLINE
5
336
100
AcDbEntity
8
0
100
AcDbSpline
62
9
6
CONTINUOUS
70
0
71
3
72
11
73
7
74
5
42
0.0000001000
43
0.0000001000
44
0.0000000001
12
-0.4105029932
22
0.0912934819
32
0.0000000000
13
-0.4175477532
23
0.0500108093
33
0.0000000000
40
0.0000000000
40
0.0000000000
40
0.0000000000
40
0.0000000000
40
0.2337866600
40
0.5051826566
40
0.7738861060
40
1.0000000000
40
1.0000000000
40
1.0000000000
40
1.0000000000
10
5.6278653515
20
13.3913681200
30
0.0000000000
10
5.5958753103
20
13.3984825194
30
0.0000000000
10
5.5264596533
20
13.4125464079
30
0.0000000000
10
5.4197204879
20
13.4319391303
30
0.0000000000
10
5.3136969826
20
13.4491437928
30
0.0000000000
10
5.2450022261
20
13.4588320510
30
0.0000000000
10
5.2135311099
20
13.4626014306
30
0.0000000000
11
5.6278653515
21
13.3913681200
31
0.0000000000
11
5.5315712741
21
13.4111985869
31
0.0000000000
11
5.4192881347
21
13.4316513820
31
0.0000000000
11
5.3077373075
21
13.4496806445
31
0.0000000000
11
5.2135311099
21
13.4626014306
31
0.0000000000
0
SPLINE
5
337
100
AcDbEntity
8
0
100
AcDbSpline
62
9
6
CONTINUOUS
70
0
71
3
72
10
73
6
74
4
42
0.0000001000
43
0.0000001000
44
0.0000000001
12
-5.6621714254
22
-32.6824104726
32
0.0000000000
13
-3.7896768933
23
-32.9520634953
33
0.0000000000
40
0.0000000000
40
0.0000000000
40
0.0000000000
40
0.0000000000
40
0.3331733498
40
0.6665417823
40
1.0000000000
40
1.0000000000
40
1.0000000000
40
1.0000000000
10
5.2135311068
20
13.4626014313
30
0.0000000000
10
4.5847028998
20
9.8329653724
30
0.0000000000
10
3.3958259701
20
2.5593858516
30
0.0000000000
10
1.8200361282
20
-8.3847721370
30
0.0000000000
10
0.9080867908
20
-15.7014071149
30
0.0000000000
10
0.4868538233
20
-19.3641192356
30
0.0000000000
11
5.2135311068
21
13.4626014313
31
0.0000000000
11
3.4307904473
21
2.5562280082
31
0.0000000000
11
1.8548755961
21
-8.3884829416
31
0.0000000000
11
0.4868538233
21
-19.3641192356
31
0.0000000000
0
SPLINE
5
338
100
AcDbEntity
8
0
100
AcDbSpline
62
9
6
CONTINUOUS
70
0
71
3
72
10
73
6
74
4
42
0.0000001000
43
0.0000001000
44
0.0000000001
12
-5.6581848662
22
-32.6593388524
32
0.0000000000
13
-3.7869914182
23
-32.9288045069
33
0.0000000000
40
0.0000000000
40
0.0000000000
40
0.0000000000
40
0.0000000000
40
0.3331729278
40
0.6665419190
40
1.0000000000
40
1.0000000000
40
1.0000000000
40
1.0000000000
10
5.6278653515
20
13.3913681200
30
0.0000000000
10
4.9994806789
20
9.7642989381
30
0.0000000000
10
3.8114408827
20
2.4958524866
30
0.0000000000
10
2.2367632828
20
-8.4405802539
30
0.0000000000
10
1.3254588431
20
-15.7520554240
30
0.0000000000
10
0.9045245461
20
-19.4121807440
30
0.0000000000
11
5.6278653515
21
13.3913681200
31
0.0000000000
11
3.8463827768
21
2.4927075067
31
0.0000000000
11
2.2715776070
21
-8.4442961124
31
0.0000000000
11
0.9045245461
21
-19.4121807440
31
0.0000000000
0
SPLINE
5
339
100
AcDbEntity
8
0
100
AcDbSpline
62
9
6
CONTINUOUS
70
0
71
3
72
11
73
7
74
5
42
0.0000001000
43
0.0000001000
44
0.0000000001
12
-0.4177838767
22
0.0469912185
32
0.0000000000
13
-0.4175317211
23
0.0491813388
33
0.0000000000
40
0.0000000000
40
0.0000000000
40
0.0000000000
40
0.0000000000
40
0.2335317391
40
0.5049214380
40
0.7737552630
40
1.0000000000
40
1.0000000000
40
1.0000000000
40
1.0000000000
10
0.9045245460
20
-19.4121807440
30
0.0000000000
10
0.8720026142
20
-19.4085227637
30
0.0000000000
10
0.8016945207
20
-19.4005434518
30
0.0000000000
10
0.6939655706
20
-19.3882013715
30
0.0000000000
10
0.5872633594
20
-19.3758696978
30
0.0000000000
10
0.5183507772
20
-19.3678292324
30
0.0000000000
10
0.4868626591
20
-19.3641202261
30
0.0000000000
11
0.9045245460
21
-19.4121807440
31
0.0000000000
11
0.8069679004
21
-19.4011257592
31
0.0000000000
11
0.6936118860
21
-19.3881417788
31
0.0000000000
11
0.5813369783
21
-19.3751623195
31
0.0000000000
11
0.4868626591
21
-19.3641202261
31
0.0000000000
0
SPLINE
5
33A
100
AcDbEntity
8
0
100
AcDbSpline
62
9
6
CONTINUOUS
70
0
71
3
72
14
73
10
74
8
42
0.0000001000
43
0.0000001000
44
0.0000000001
12
-0.1508690075
22
-1.3110753948
32
0.0000000000
13
1.2960307709
23
-0.2489666429
33
0.0000000000
40
0.0000000000
40
0.0000000000
40
0.0000000000
40
0.0000000000
40
0.1631344064
40
0.3226339358
40
0.4755362333
40
0.6195062282
40
0.7539715871
40
0.8797985285
40
1.0000000000
40
1.0000000000
40
1.0000000000
40
1.0000000000
10
0.4868538233
20
-19.3641192356
30
0.0000000000
10
0.4786498480
20
-19.4354130710
30
0.0000000000
10
0.4733850303
20
-19.5779376900
30
0.0000000000
10
0.4990576794
20
-19.7864507287
30
0.0000000000
10
0.5572451740
20
-19.9797201811
30
0.0000000000
10
0.6456240093
20
-20.1490631550
30
0.0000000000
10
0.7607787494
20
-20.2867010750
30
0.0000000000
10
0.8980454906
20
-20.3857572659
30
0.0000000000
10
1.0017701330
20
-20.4225837240
30
0.0000000000
10
1.0536984016
20
-20.4325591096
30
0.0000000000
11
0.4868538233
21
-19.3641192356
31
0.0000000000
11
0.4791249029
21
-19.5792733883
31
0.0000000000
11
0.5054003300
21
-19.7881229008
31
0.0000000000
11
0.5644789779
21
-19.9810701724
31
0.0000000000
11
0.6535236224
21
-20.1489137952
31
0.0000000000
11
0.7685122824
21
-20.2840759560
31
0.0000000000
11
0.9039898952
21
-20.3801010914
31
0.0000000000
11
1.0536984016
21
-20.4325591096
31
0.0000000000
0
SPLINE
5
33B
100
AcDbEntity
8
0
100
AcDbSpline
62
9
6
CONTINUOUS
70
0
71
3
72
14
73
10
74
8
42
0.0000001000
43
0.0000001000
44
0.0000000001
12
-0.1056043246
22
-0.9194980953
32
0.0000000000
13
0.9089724395
23
-0.1743505802
33
0.0000000000
40
0.0000000000
40
0.0000000000
40
0.0000000000
40
0.0000000000
40
0.1622630252
40
0.3217536551
40
0.4748004280
40
0.6189936956
40
0.7537329434
40
0.8799141414
40
1.0000000000
40
1.0000000000
40
1.0000000000
40
1.0000000000
10
0.9045245461
20
-19.4121807440
30
0.0000000000
10
0.8988126537
20
-19.4619142582
30
0.0000000000
10
0.8951494307
20
-19.5615971108
30
0.0000000000
10
0.9132557964
20
-19.7075964200
30
0.0000000000
10
0.9543347108
20
-19.8431805832
30
0.0000000000
10
1.0167226147
20
-19.9619642484
30
0.0000000000
10
1.0979665587
20
-20.0584330789
30
0.0000000000
10
1.1945780551
20
-20.1276957702
30
0.0000000000
10
1.2674188089
20
-20.1534051709
30
0.0000000000
10
1.3038037208
20
-20.1603841839
30
0.0000000000
11
0.9045245461
21
-19.4121807440
31
0.0000000000
11
0.8991701060
21
-19.5622665972
31
0.0000000000
11
0.9177180385
21
-19.7087120485
31
0.0000000000
11
0.9594243456
21
-19.8440844056
31
0.0000000000
11
1.0222713926
21
-19.9618172427
31
0.0000000000
11
1.1033721636
21
-20.0565509630
31
0.0000000000
11
1.1988526289
21
-20.1238002494
31
0.0000000000
11
1.3038037208
21
-20.1603841839
31
0.0000000000
0
SPLINE
5
33C
100
AcDbEntity
8
0
100
AcDbSpline
62
9
6
CONTINUOUS
70
0
71
3
72
11
73
7
74
5
42
0.0000001000
43
0.0000001000
44
0.0000000001
12
-0.0623821675
22
-0.3972721502
32
0.0000000000
13
-0.3993953863
23
0.0469043878
33
0.0000000000
40
0.0000000000
40
0.0000000000
40
0.0000000000
40
0.0000000000
40
0.2893478804
40
0.5590678521
40
0.7947114313
40
1.0000000000
40
1.0000000000
40
1.0000000000
40
1.0000000000
10
1.3038037208
20
-20.1603841839
30
0.0000000000
10
1.2977870048
20
-20.1987008021
30
0.0000000000
10
1.2763778195
20
-20.2716276907
30
0.0000000000
10
1.2188078620
20
-20.3630364345
30
0.0000000000
10
1.1424214829
20
-20.4240203447
30
0.0000000000
10
1.0810288373
20
-20.4357687545
30
0.0000000000
10
1.0536984016
20
-20.4325591096
30
0.0000000000
11
1.3038037208
21
-20.1603841839
31
0.0000000000
11
1.2705125719
21
-20.2718784722
31
0.0000000000
11
1.2112942715
21
-20.3627514533
31
0.0000000000
11
1.1351608179
21
-20.4191738353
31
0.0000000000
11
1.0536984016
21
-20.4325591096
31
0.0000000000
0
SPLINE
5
33D
100
AcDbEntity
8
0
100
AcDbSpline
62
9
6
CONTINUOUS
70
0
71
3
72
14
73
10
74
8
42
0.0000001000
43
0.0000001000
44
0.0000000001
12
0.2099652919
22
1.2174743843
32
0.0000000000
13
1.2390496978
23
-0.0450617015
33
0.0000000000
40
0.0000000000
40
0.0000000000
40
0.0000000000
40
0.0000000000
40
0.1733537225
40
0.3414603859
40
0.5011930116
40
0.6503641158
40
0.7888562111
40
0.9183091071
40
1.0000000000
40
1.0000000000
40
1.0000000000
40
1.0000000000
10
-11.1521172752
20
15.4065592379
30
0.0000000000
10
-11.1399845202
20
15.4769104768
30
0.0000000000
10
-11.1055042969
20
15.6139230874
30
0.0000000000
10
-11.0238302699
20
15.8044421643
30
0.0000000000
10
-10.9160959403
20
15.9700120409
30
0.0000000000
10
-10.7867889454
20
16.1031143105
30
0.0000000000
10
-10.6411188259
20
16.1973674688
30
0.0000000000
10
-10.5023136109
20
16.2420215810
30
0.0000000000
10
-10.4145682618
20
16.2474905247
30
0.0000000000
10
-10.3808285698
20
16.2462634812
30
0.0000000000
11
-11.1521172752
21
15.4065592379
31
0.0000000000
11
-11.0995196241
21
15.6141694305
31
0.0000000000
11
-11.0170441620
21
15.8047780233
31
0.0000000000
11
-10.9084930809
21
15.9695815718
31
0.0000000000
11
-10.7790449630
21
16.1007573787
31
0.0000000000
11
-10.6345427373
21
16.1923772186
31
0.0000000000
11
-10.4818780896
21
16.2400407433
31
0.0000000000
11
-10.3808285698
21
16.2462634812
31
0.0000000000
0
SPLINE
5
33E
100
AcDbEntity
8
0
100
AcDbSpline
62
9
6
CONTINUOUS
70
0
71
3
72
8
73
4
74
2
42
0.0000001000
43
0.0000001000
44
0.0000000001
12
0.0409184570
22
-0.0014881205
32
0.0000000000
13
0.0405560953
23
-0.0047908029
33
0.0000000000
40
0.0000000000
40
0.0000000000
40
0.0000000000
40
0.0000000000
40
1.0000000000
40
1.0000000000
40
1.0000000000
40
1.0000000000
10
-10.3808285698
20
16.2462634812
30
0.0000000000
10
-10.3671890841
20
16.2457674410
30
0.0000000000
10
-10.3535837078
20
16.2447250833
30
0.0000000000
10
-10.3400650094
20
16.2431281490
30
0.0000000000
11
-10.3808285698
21
16.2462634812
31
0.0000000000
11
-10.3400650094
21
16.2431281490
31
0.0000000000
0
SPLINE
5
33F
100
AcDbEntity
8
0
100
AcDbSpline
62
9
6
CONTINUOUS
70
0
71
3
72
8
73
4
74
2
42
0.0000001000
43
0.0000001000
44
0.0000000001
12
-0.0503332537
22
0.0097584215
32
0.0000000000
13
-0.0492464823
23
0.0148576121
33
0.0000000000
40
0.0000000000
40
0.0000000000
40
0.0000000000
40
0.0000000000
40
1.0000000000
40
1.0000000000
40
1.0000000000
40
1.0000000000
10
-15.3285364466
20
-18.4866311159
30
0.0000000000
10
-15.3453141979
20
-18.4833783087
30
0.0000000000
10
-15.3619531881
20
-18.4792464686
30
0.0000000000
10
-15.3783686821
20
-18.4742939313
30
0.0000000000
11
-15.3285364466
21
-18.4866311159
31
0.0000000000
11
-15.3783686821
21
-18.4742939313
31
0.0000000000
0
SPLINE
5
340
100
AcDbEntity
8
0
100
AcDbSpline
62
9
6
CONTINUOUS
70
0
71
3
72
8
73
4
74
2
42
0.0000001000
43
0.0000001000
44
0.0000000001
12
-0.0495408506
22
0.0149464227
32
0.0000000000
13
-0.0479250038
23
0.0197514870
33
0.0000000000
40
0.0000000000
40
0.0000000000
40
0.0000000000
40
0.0000000000
40
1.0000000000
40
1.0000000000
40
1.0000000000
40
1.0000000000
10
-15.3783686821
20
-18.4742939313
30
0.0000000000
10
-15.3948822990
20
-18.4693117904
30
0.0000000000
10
-15.4111697399
20
-18.4634991114
30
0.0000000000
10
-15.4271447412
20
-18.4569152824
30
0.0000000000
11
-15.3783686821
21
-18.4742939313
31
0.0000000000
11
-15.4271447412
21
-18.4569152824
31
0.0000000000
0
SPLINE
5
341
100
AcDbEntity
8
0
100
AcDbSpline
62
9
6
CONTINUOUS
70
0
71
3
72
14
73
10
74
8
42
0.0000001000
43
0.0000001000
44
0.0000000001
12
-1.1200321538
22
0.4616024783
32
0.0000000000
13
0.1385989896
23
1.1973853812
33
0.0000000000
40
0.0000000000
40
0.0000000000
40
0.0000000000
40
0.0000000000
40
0.0433306900
40
0.1785796441
40
0.3239157102
40
0.4803136127
40
0.6470538611
40
0.8214262247
40
1.0000000000
40
1.0000000000
40
1.0000000000
40
1.0000000000
10
-15.4271447412
20
-18.4569152824
30
0.0000000000
10
-15.4433219965
20
-18.4502480978
30
0.0000000000
10
-15.5086731688
20
-18.4195113548
30
0.0000000000
10
-15.6145790125
20
-18.3412962282
30
0.0000000000
10
-15.7265283523
20
-18.2039675903
30
0.0000000000
10
-15.8121947121
20
-18.0349760853
30
0.0000000000
10
-15.8683169105
20
-17.8420397573
30
0.0000000000
10
-15.8926622579
20
-17.6337957235
30
0.0000000000
10
-15.8870446070
20
-17.4914353050
30
0.0000000000
10
-15.8787945587
20
-17.4201614290
30
0.0000000000
11
-15.4271447412
21
-18.4569152824
31
0.0000000000
11
-15.4746257222
21
-18.4346030001
31
0.0000000000
11
-15.6066673806
21
-18.3389859970
31
0.0000000000
11
-15.7185614482
21
-18.2041914206
31
0.0000000000
11
-15.8050004851
21
-18.0366572992
31
0.0000000000
11
-15.8620799202
21
-17.8439474997
31
0.0000000000
11
-15.8870585372
21
-17.6352520260
31
0.0000000000
11
-15.8787945587
21
-17.4201614290
31
0.0000000000
0
SPLINE
5
342
100
AcDbEntity
8
0
100
AcDbSpline
62
9
6
CONTINUOUS
70
0
71
3
72
10
73
6
74
4
42
0.0000001000
43
0.0000001000
44
0.0000000001
12
3.8196694185
22
32.9377538657
32
0.0000000000
13
5.6287901824
23
32.6772448506
33
0.0000000000
40
0.0000000000
40
0.0000000000
40
0.0000000000
40
0.0000000000
40
0.3335678532
40
0.6670446083
40
1.0000000000
40
1.0000000000
40
1.0000000000
40
1.0000000000
10
-15.8787945587
20
-17.4201614290
30
0.0000000000
10
-15.4540882494
20
-13.7578361468
30
0.0000000000
10
-14.5375165234
20
-6.4417995750
30
0.0000000000
10
-12.9622442213
20
4.4987646711
30
0.0000000000
10
-11.7786140053
20
11.7695105418
30
0.0000000000
10
-11.1539019919
20
15.3961988282
30
0.0000000000
11
-15.8787945587
21
-17.4201614290
31
0.0000000000
11
-14.5038308902
21
-6.4453497129
31
0.0000000000
11
-12.9279160387
21
4.4993612369
31
0.0000000000
11
-11.1539019919
21
15.3961988282
31
0.0000000000
0
SPLINE
5
343
100
AcDbEntity
8
0
100
AcDbSpline
62
9
6
CONTINUOUS
70
0
71
3
72
8
73
4
74
2
42
0.0000001000
43
0.0000001000
44
0.0000000001
12
0.0017846260
22
0.0103604256
32
0.0000000000
13
0.0017848075
23
0.0103603938
33
0.0000000000
40
0.0000000000
40
0.0000000000
40
0.0000000000
40
0.0000000000
40
1.0000000000
40
1.0000000000
40
1.0000000000
40
1.0000000000
10
-11.1539019919
20
15.3961988282
30
0.0000000000
10
-11.1533071166
20
15.3996523034
30
0.0000000000
10
-11.1527122110
20
15.4031057733
30
0.0000000000
10
-11.1521172752
20
15.4065592379
30
0.0000000000
11
-11.1539019919
21
15.3961988282
31
0.0000000000
11
-11.1521172752
21
15.4065592379
31
0.0000000000
0
SPLINE
5
344
100
AcDbEntity
8
0
100
AcDbSpline
62
7
6
CONTINUOUS
70
0
71
3
72
12
73
8
74
6
42
0.0000001000
43
0.0000001000
44
0.0000000001
12
-2.0728455777
22
1.2824084223
32
0.0000000000
13
-2.3630087280
23
0.6004225345
33
0.0000000000
40
0.0000000000
40
0.0000000000
40
0.0000000000
40
0.0000000000
40
0.2503726736
40
0.4975450697
40
0.7419441632
40
0.9844889732
40
1.0000000000
40
1.0000000000
40
1.0000000000
40
1.0000000000
10
-4.4220032076
20
16.1810555301
30
0.0000000000
10
-4.5949978373
20
16.2880822052
30
0.0000000000
10
-4.9464627156
20
16.4886525604
30
0.0000000000
10
-5.4910527912
20
16.7483809990
30
0.0000000000
10
-6.0477626163
20
16.9641046972
30
0.0000000000
10
-6.4390066049
20
17.0820828700
30
0.0000000000
10
-6.6421399837
20
17.1342384500
30
0.0000000000
10
-6.6543575476
20
17.1373428400
30
0.0000000000
11
-4.4220032076
21
16.1810555301
31
0.0000000000
11
-4.9522015148
21
16.4832581362
31
0.0000000000
11
-5.4961129650
21
16.7423658954
31
0.0000000000
11
-6.0516619263
21
16.9574060492
31
0.0000000000
11
-6.6177283339
21
17.1279381117
31
0.0000000000
11
-6.6543575476
21
17.1373428400
31
0.0000000000
0
SPLINE
5
345
100
AcDbEntity
8
0
100
AcDbSpline
62
7
6
CONTINUOUS
70
0
71
3
72
16
73
12
74
10
42
0.0000001000
43
0.0000001000
44
0.0000000001
12
0.0498483256
22
0.7342360268
32
0.0000000000
13
-0.6258380155
23
0.3871875217
33
0.0000000000
40
0.0000000000
40
0.0000000000
40
0.0000000000
40
0.0000000000
40
0.1243296659
40
0.2471719794
40
0.3671572503
40
0.4839903430
40
0.5963263754
40
0.7043683990
40
0.8073165142
40
0.9057997375
40
1.0000000000
40
1.0000000000
40
1.0000000000
40
1.0000000000
10
-4.1579847982
20
15.5294887289
30
0.0000000000
10
-4.1559189230
20
15.5599178356
30
0.0000000000
10
-4.1546073108
20
15.6206412383
30
0.0000000000
10
-4.1611629657
20
15.7106013135
30
0.0000000000
10
-4.1761427420
20
15.7976984409
30
0.0000000000
10
-4.1992812606
20
15.8803311164
30
0.0000000000
10
-4.2302394275
20
15.9572329917
30
0.0000000000
10
-4.2684587704
20
16.0269632509
30
0.0000000000
10
-4.3133982550
20
16.0884438943
30
0.0000000000
10
-4.3642502731
20
16.1405042989
30
0.0000000000
10
-4.4023518391
20
16.1688978080
30
0.0000000000
10
-4.4220032076
20
16.1810555301
30
0.0000000000
11
-4.1579847982
21
15.5294887289
31
0.0000000000
11
-4.1560479223
21
15.6209656869
31
0.0000000000
11
-4.1626926647
21
15.7111240363
31
0.0000000000
11
-4.1777707332
21
15.7981274616
31
0.0000000000
11
-4.2011002976
21
15.8808824252
31
0.0000000000
11
-4.2321453906
21
15.9575029293
31
0.0000000000
11
-4.2705550181
21
16.0271211233
31
0.0000000000
11
-4.3154566270
21
16.0881437343
31
0.0000000000
11
-4.3662821551
21
16.1398118312
31
0.0000000000
11
-4.4220032076
21
16.1810555301
31
0.0000000000
0
SPLINE
5
346
100
AcDbEntity
8
0
100
AcDbSpline
62
7
6
CONTINUOUS
70
0
71
3
72
12
73
8
74
6
42
0.0000001000
43
0.0000001000
44
0.0000000001
12
2.4685775330
22
-0.0466558958
32
0.0000000000
13
2.3635703623
23
0.7156945766
33
0.0000000000
40
0.0000000000
40
0.0000000000
40
0.0000000000
40
0.0000000000
40
0.2386284494
40
0.4789374179
40
0.7214242884
40
0.9669738535
40
1.0000000000
40
1.0000000000
40
1.0000000000
40
1.0000000000
10
-10.9028712919
20
-20.1017590588
30
0.0000000000
10
-10.7065136823
20
-20.1054702001
30
0.0000000000
10
-10.3119551551
20
-20.0974659621
30
0.0000000000
10
-9.7204978143
20
-20.0394945165
30
0.0000000000
10
-9.1295318235
20
-19.9357218915
30
0.0000000000
10
-8.7134760000
20
-19.8302263067
30
0.0000000000
10
-8.4936777046
20
-19.7648253693
30
0.0000000000
10
-8.4676578309
20
-19.7569464913
30
0.0000000000
11
-10.9028712919
21
-20.1017590588
31
0.0000000000
11
-10.3138120816
21
-20.0899270054
31
0.0000000000
11
-9.7232959059
21
-20.0322391663
31
0.0000000000
11
-9.1335717587
21
-19.9289310858
31
0.0000000000
11
-8.5458305240
21
-19.7802059070
31
0.0000000000
11
-8.4676578309
21
-19.7569464913
31
0.0000000000
0
SPLINE
5
347
100
AcDbEntity
8
0
100
AcDbSpline
62
7
6
CONTINUOUS
70
0
71
3
72
49
73
45
74
43
42
0.0000001000
43
0.0000001000
44
0.0000000001
12
-0.1098315554
22
-1.6192992037
32
0.0000000000
13
1.6200191225
23
-0.0552468106
33
0.0000000000
40
0.0000000000
40
0.0000000000
40
0.0000000000
40
0.0000000000
40
0.0168950448
40
0.0430036591
40
0.0681100933
40
0.0921142572
40
0.1148805507
40
0.1363478353
40
0.1563149819
40
0.1743622006
40
0.1901752054
40
0.2034273750
40
0.2146037293
40
0.2245043488
40
0.2338457349
40
0.2432312197
40
0.2530729449
40
0.2636669542
40
0.2752122205
40
0.2878375387
40
0.3016639696
40
0.3168228437
40
0.3334248110
40
0.3515611971
40
0.3713108260
40
0.3927294048
40
0.4158482310
40
0.4406769569
40
0.4672055573
40
0.4954002297
40
0.5252065685
40
0.5565778114
40
0.5894677607
40
0.6238053467
40
0.6594898857
40
0.6963871677
40
0.7343340653
40
0.7731341411
40
0.8125414293
40
0.8522545877
40
0.8919114296
40
0.9310857600
40
0.9692987891
40
1.0000000000
40
1.0000000000
40
1.0000000000
40
1.0000000000
10
7.8098966184
20
-26.9651246761
30
0.0000000000
10
7.8092780821
20
-26.9742440536
30
0.0000000000
10
7.8089664087
20
-26.9975583700
30
0.0000000000
10
7.8136015443
20
-27.0342335498
30
0.0000000000
10
7.8253089485
20
-27.0733417206
30
0.0000000000
10
7.8422391611
20
-27.1084652606
30
0.0000000000
10
7.8631174451
20
-27.1390141248
30
0.0000000000
10
7.8866120154
20
-27.1646830621
30
0.0000000000
10
7.9113042475
20
-27.1853890176
30
0.0000000000
10
7.9357065302
20
-27.2013250442
30
0.0000000000
10
7.9583774592
20
-27.2129852236
30
0.0000000000
10
7.9784994369
20
-27.2212751791
30
0.0000000000
10
7.9960769925
20
-27.2272269914
30
0.0000000000
10
8.0118818981
20
-27.2317524880
30
0.0000000000
10
8.0268954447
20
-27.2354840172
30
0.0000000000
10
8.0419713666
20
-27.2388058945
30
0.0000000000
10
8.0577764841
20
-27.2419453056
30
0.0000000000
10
8.0747794965
20
-27.2450302312
30
0.0000000000
10
8.0933059251
20
-27.2481330639
30
0.0000000000
10
8.1135915406
20
-27.2512971617
30
0.0000000000
10
8.1358380933
20
-27.2545515262
30
0.0000000000
10
8.1602387790
20
-27.2579188569
30
0.0000000000
10
8.1869718100
20
-27.2614148663
30
0.0000000000
10
8.2161877422
20
-27.2650491523
30
0.0000000000
10
8.2480080547
20
-27.2688253728
30
0.0000000000
10
8.2825221854
20
-27.2727424095
30
0.0000000000
10
8.3197825719
20
-27.2767940006
30
0.0000000000
10
8.3598063539
20
-27.2809700547
30
0.0000000000
10
8.4025757234
20
-27.2852564768
30
0.0000000000
10
8.4480383700
20
-27.2896362381
30
0.0000000000
10
8.4961222287
20
-27.2940901847
30
0.0000000000
10
8.5467485080
20
-27.2985988581
30
0.0000000000
10
8.5998294724
20
-27.3031413208
30
0.0000000000
10
8.6552483579
20
-27.3076935344
30
0.0000000000
10
8.7128409886
20
-27.3122269730
30
0.0000000000
10
8.7723935864
20
-27.3167083313
30
0.0000000000
10
8.8336407213
20
-27.3210998058
30
0.0000000000
10
8.8962566632
20
-27.3253584077
30
0.0000000000
10
8.9598410751
20
-27.3294350065
30
0.0000000000
10
9.0239040876
20
-27.3332737495
30
0.0000000000
10
9.0878583814
20
-27.3368119161
30
0.0000000000
10
9.1510205757
20
-27.3399805798
30
0.0000000000
10
9.2093663047
20
-27.3425607057
30
0.0000000000
10
9.2465759432
20
-27.3439645019
30
0.0000000000
10
9.2631547928
20
-27.3445298832
30
0.0000000000
11
7.8098966184
21
-26.9651246761
31
0.0000000000
11
7.8095330066
21
-26.9925388440
31
0.0000000000
11
7.8148355506
21
-27.0345263440
31
0.0000000000
11
7.8265060342
21
-27.0735135928
31
0.0000000000
11
7.8433982822
21
-27.1085653026
31
0.0000000000
11
7.8642178360
21
-27.1390348765
31
0.0000000000
11
7.8877078641
21
-27.1647076473
31
0.0000000000
11
7.9125020970
21
-27.1855114825
31
0.0000000000
11
7.9369874405
21
-27.2015193922
31
0.0000000000
11
7.9597716740
21
-27.2132620615
31
0.0000000000
11
7.9796236766
21
-27.2214682253
31
0.0000000000
11
7.9967749769
21
-27.2273023835
31
0.0000000000
11
8.0121972282
21
-27.2317418155
31
0.0000000000
11
8.0268875289
21
-27.2354127047
31
0.0000000000
11
8.0417410777
21
-27.2387024359
31
0.0000000000
11
8.0573856642
21
-27.2418243373
31
0.0000000000
11
8.0742800934
21
-27.2449019289
31
0.0000000000
11
8.0927356648
21
-27.2480036864
31
0.0000000000
11
8.1129548925
21
-27.2511666367
31
0.0000000000
11
8.1351297820
21
-27.2544186631
31
0.0000000000
11
8.1594700479
21
-27.2577847587
31
0.0000000000
11
8.1861531270
21
-27.2612806567
31
0.0000000000
11
8.2153259225
21
-27.2649152977
31
0.0000000000
11
8.2471155818
21
-27.2686930989
31
0.0000000000
11
8.2816122471
21
-27.2726128385
31
0.0000000000
11
8.3188668622
21
-27.2766680830
31
0.0000000000
11
8.3588955215
21
-27.2808484470
31
0.0000000000
11
8.4016826095
21
-27.2851401013
31
0.0000000000
11
8.4471741251
21
-27.2895256303
31
0.0000000000
11
8.4952827955
21
-27.2939845215
31
0.0000000000
11
8.5459336409
21
-27.2984975804
31
0.0000000000
11
8.5990526100
21
-27.3030450825
31
0.0000000000
11
8.6545254973
21
-27.3076030800
31
0.0000000000
11
8.7121902460
21
-27.3121429940
31
0.0000000000
11
8.7718306001
21
-27.3166311695
31
0.0000000000
11
8.8331835077
21
-27.3210297067
31
0.0000000000
11
8.8959319941
21
-27.3252958640
31
0.0000000000
11
8.9596788920
21
-27.3293802332
31
0.0000000000
11
9.0239372997
21
-27.3332264483
31
0.0000000000
11
9.0881216291
21
-27.3367709686
31
0.0000000000
11
9.1515423425
21
-27.3399431095
31
0.0000000000
11
9.2134242374
21
-27.3426658482
31
0.0000000000
11
9.2631547928
21
-27.3445298832
31
0.0000000000
0
SPLINE
5
348
100
AcDbEntity
8
0
100
AcDbSpline
62
7
6
CONTINUOUS
70
0
71
3
72
45
73
41
74
39
42
0.0000001000
43
0.0000001000
44
0.0000000001
12
-0.1101538234
22
-1.6240847637
32
0.0000000000
13
1.6248294907
23
-0.0542503998
33
0.0000000000
40
0.0000000000
40
0.0000000000
40
0.0000000000
40
0.0000000000
40
0.0169799008
40
0.0430286871
40
0.0680313039
40
0.0919581841
40
0.1147433705
40
0.1363659906
40
0.1564559100
40
0.1743766874
40
0.1897124172
40
0.2025123939
40
0.2137084966
40
0.2241895833
40
0.2344546942
40
0.2449357181
40
0.2561004109
40
0.2683056303
40
0.2817778271
40
0.2967196948
40
0.3133105462
40
0.3316949991
40
0.3519833283
40
0.3742605284
40
0.3986207556
40
0.4251641255
40
0.4539705771
40
0.4850971909
40
0.5185805468
40
0.5544379922
40
0.5926449110
40
0.6331221716
40
0.6757483225
40
0.7203432773
40
0.7666267546
40
0.8142319205
40
0.8627043265
40
0.9114117564
40
0.9595087053
40
1.0000000000
40
1.0000000000
40
1.0000000000
40
1.0000000000
10
-7.9402040978
20
-25.0942830842
30
0.0000000000
10
-7.9408275648
20
-25.1034753503
30
0.0000000000
10
-7.9411302019
20
-25.1268731529
30
0.0000000000
10
-7.9364526666
20
-25.1636095293
30
0.0000000000
10
-7.9247140489
20
-25.2026964821
30
0.0000000000
10
-7.9077456276
20
-25.2378309520
30
0.0000000000
10
-7.8867445415
20
-25.2684928748
30
0.0000000000
10
-7.8630188761
20
-25.2943111761
30
0.0000000000
10
-7.8381221594
20
-25.3150514728
30
0.0000000000
10
-7.8138115873
20
-25.3308058940
30
0.0000000000
10
-7.7915644179
20
-25.3421962605
30
0.0000000000
10
-7.7718459938
20
-25.3503355226
30
0.0000000000
10
-7.7541491126
20
-25.3563562198
30
0.0000000000
10
-7.7375014478
20
-25.3611175536
30
0.0000000000
10
-7.7210642819
20
-25.3651532256
30
0.0000000000
10
-7.7041575785
20
-25.3687953786
30
0.0000000000
10
-7.6861437040
20
-25.3722667627
30
0.0000000000
10
-7.6664767366
20
-25.3757088626
30
0.0000000000
10
-7.6447436479
20
-25.3792056159
30
0.0000000000
10
-7.6206220828
20
-25.3828080873
30
0.0000000000
10
-7.5938311456
20
-25.3865501252
30
0.0000000000
10
-7.5641382027
20
-25.3904523427
30
0.0000000000
10
-7.5313604864
20
-25.3945245866
30
0.0000000000
10
-7.4953419199
20
-25.3987710073
30
0.0000000000
10
-7.4559315714
20
-25.4031931656
30
0.0000000000
10
-7.4129809207
20
-25.4077899191
30
0.0000000000
10
-7.3663612272
20
-25.4125561537
30
0.0000000000
10
-7.3159777882
20
-25.4174808918
30
0.0000000000
10
-7.2617695465
20
-25.4225481147
30
0.0000000000
10
-7.2037194116
20
-25.4277356228
30
0.0000000000
10
-7.1418726554
20
-25.4330133760
30
0.0000000000
10
-7.0763494532
20
-25.4383428286
30
0.0000000000
10
-7.0073539329
20
-25.4436762032
30
0.0000000000
10
-6.9351989030
20
-25.4489544302
30
0.0000000000
10
-6.8603298471
20
-25.4541054798
30
0.0000000000
10
-6.7833406924
20
-25.4590432154
30
0.0000000000
10
-6.7050159120
20
-25.4636641627
30
0.0000000000
10
-6.6263992636
20
-25.4678432079
30
0.0000000000
10
-6.5520760842
20
-25.4712813290
30
0.0000000000
10
-6.5041034404
20
-25.4731175131
30
0.0000000000
10
-6.4821729571
20
-25.4738497361
30
0.0000000000
11
-7.9402040978
21
-25.0942830842
31
0.0000000000
11
-7.9405585869
21
-25.1219164176
31
0.0000000000
11
-7.9352136996
21
-25.1639261458
31
0.0000000000
11
-7.9235229013
21
-25.2028562292
31
0.0000000000
11
-7.9066087982
21
-25.2378851297
31
0.0000000000
11
-7.8856796552
21
-25.2684486334
31
0.0000000000
11
-7.8618986298
21
-25.2943362552
31
0.0000000000
11
-7.8368107799
21
-25.3152487127
31
0.0000000000
11
-7.8123696326
21
-25.3311056916
31
0.0000000000
11
-7.7901866243
21
-25.3424858966
31
0.0000000000
11
-7.7709602722
21
-25.3504468218
31
0.0000000000
11
-7.7537364949
21
-25.3563332294
31
0.0000000000
11
-7.7373613844
21
-25.3610447731
31
0.0000000000
11
-7.7211604712
21
-25.3650486250
31
0.0000000000
11
-7.7045079079
21
-25.3686585479
31
0.0000000000
11
-7.6866885440
21
-25.3721114096
31
0.0000000000
11
-7.6671459589
21
-25.3755478942
31
0.0000000000
11
-7.6455240287
21
-25.3790405170
31
0.0000000000
11
-7.6215007189
21
-25.3826401160
31
0.0000000000
11
-7.5947891548
21
-25.3863814019
31
0.0000000000
11
-7.5651569155
21
-25.3902847143
31
0.0000000000
11
-7.5324261331
21
-25.3943591820
31
0.0000000000
11
-7.4964592843
21
-25.3986066838
31
0.0000000000
11
-7.4571037465
21
-25.4030290744
31
0.0000000000
11
-7.4141969550
21
-25.4076269206
31
0.0000000000
11
-7.3676087164
21
-25.4123950755
31
0.0000000000
11
-7.3172456101
21
-25.4173224342
31
0.0000000000
11
-7.2630472578
21
-25.4223927709
31
0.0000000000
11
-7.2049842966
21
-25.4275848462
31
0.0000000000
11
-7.1430952105
21
-25.4328689747
31
0.0000000000
11
-7.0775067410
21
-25.4382057000
31
0.0000000000
11
-7.0084141827
21
-25.4435475307
31
0.0000000000
11
-6.9361078580
21
-25.4488364701
31
0.0000000000
11
-6.8610405813
21
-25.4539990158
31
0.0000000000
11
-6.7838056660
21
-25.4589478288
31
0.0000000000
11
-6.7051387554
21
-25.4635805063
31
0.0000000000
11
-6.6260643467
21
-25.4677694950
31
0.0000000000
11
-6.5479539773
21
-25.4713591212
31
0.0000000000
11
-6.4821729571
21
-25.4738497361
31
0.0000000000
0
SPLINE
5
349
100
AcDbEntity
8
0
100
AcDbSpline
62
7
6
CONTINUOUS
70
0
71
3
72
8
73
4
74
2
42
0.0000001000
43
0.0000001000
44
0.0000000001
12
0.0062954574
22
-0.0000455096
32
0.0000000000
13
0.0062790803
23
-0.0003716115
33
0.0000000000
40
0.0000000000
40
0.0000000000
40
0.0000000000
40
0.0000000000
40
1.0000000000
40
1.0000000000
40
1.0000000000
40
1.0000000000
10
12.9421888702
20
20.5619676771
30
0.0000000000
10
12.9442873560
20
20.5619525072
30
0.0000000000
10
12.9463848106
20
20.5618829895
30
0.0000000000
10
12.9484778374
20
20.5617591190
30
0.0000000000
11
12.9421888702
21
20.5619676771
31
0.0000000000
11
12.9484778374
21
20.5617591190
31
0.0000000000
0
SPLINE
5
34A
100
AcDbEntity
8
0
100
AcDbSpline
62
7
6
CONTINUOUS
70
0
71
3
72
8
73
4
74
2
42
0.0000001000
43
0.0000001000
44
0.0000000001
12
0.0071065731
22
-0.0004205846
32
0.0000000000
13
0.0070577688
23
-0.0008383417
33
0.0000000000
40
0.0000000000
40
0.0000000000
40
0.0000000000
40
0.0000000000
40
1.0000000000
40
1.0000000000
40
1.0000000000
40
1.0000000000
10
12.9484778374
20
20.5617591190
30
0.0000000000
10
12.9508466951
20
20.5616189241
30
0.0000000000
10
12.9532098810
20
20.5614091067
30
0.0000000000
10
12.9555624706
20
20.5611296594
30
0.0000000000
11
12.9484778374
21
20.5617591190
31
0.0000000000
11
12.9555624706
21
20.5611296594
31
0.0000000000
0
SPLINE
5
34B
100
AcDbEntity
8
0
100
AcDbSpline
62
7
6
CONTINUOUS
70
0
71
3
72
28
73
24
74
22
42
0.0000001000
43
0.0000001000
44
0.0000000001
12
-0.5973303400
22
0.0045085885
32
0.0000000000
13
-0.0405282859
23
-0.5966535123
33
0.0000000000
40
0.0000000000
40
0.0000000000
40
0.0000000000
40
0.0000000000
40
0.0414566177
40
0.0956597170
40
0.1459598898
40
0.1922805001
40
0.2347026383
40
0.2734951794
40
0.3091427938
40
0.3423213833
40
0.3738987249
40
0.4052176974
40
0.4381147052
40
0.4746788981
40
0.5168193466
40
0.5652933698
40
0.6200306458
40
0.6807811067
40
0.7468904837
40
0.8165919338
40
0.8878262848
40
0.9587596330
40
1.0000000000
40
1.0000000000
40
1.0000000000
40
1.0000000000
10
11.4892000372
20
20.5729370170
30
0.0000000000
10
11.4809456053
20
20.5729993206
30
0.0000000000
10
11.4618984064
20
20.5730962462
30
0.0000000000
10
11.4328352643
20
20.5730570784
30
0.0000000000
10
11.4028049710
20
20.5727569232
30
0.0000000000
10
11.3751243796
20
20.5722032881
30
0.0000000000
10
11.3497422612
20
20.5713966479
30
0.0000000000
10
11.3264966737
20
20.5703309706
30
0.0000000000
10
11.3051092909
20
20.5689829297
30
0.0000000000
10
11.2851863987
20
20.5673009710
30
0.0000000000
10
11.2661717904
20
20.5651766130
30
0.0000000000
10
11.2472963404
20
20.5623983734
30
0.0000000000
10
11.2275889356
20
20.5585700184
30
0.0000000000
10
11.2060531757
20
20.5530229351
30
0.0000000000
10
11.1820675934
20
20.5448013557
30
0.0000000000
10
11.1556846487
20
20.5327687647
30
0.0000000000
10
11.1276820018
20
20.5158193794
30
0.0000000000
10
11.0994189921
20
20.4930729318
30
0.0000000000
10
11.0727847503
20
20.4641794670
30
0.0000000000
10
11.0499247531
20
20.4296482637
30
0.0000000000
10
11.0327135285
20
20.3909101525
30
0.0000000000
10
11.0236465294
20
20.3553634670
30
0.0000000000
10
11.0210413128
20
20.3331151231
30
0.0000000000
10
11.0204841790
20
20.3249130532
30
0.0000000000
11
11.4892000372
21
20.5729370170
31
0.0000000000
11
11.4644363529
21
20.5730603058
31
0.0000000000
11
11.4320583764
21
20.5730076260
31
0.0000000000
11
11.4020133629
21
20.5726968501
31
0.0000000000
11
11.3743497032
21
20.5721311149
31
0.0000000000
11
11.3490222464
21
20.5713117735
31
0.0000000000
11
11.3258747713
21
20.5702334169
31
0.0000000000
11
11.3046242402
21
20.5688739787
31
0.0000000000
11
11.2848773997
21
20.5671830382
31
0.0000000000
11
11.2661344628
21
20.5650616541
31
0.0000000000
11
11.2476301185
21
20.5623069012
31
0.0000000000
11
11.2283462216
21
20.5585267703
31
0.0000000000
11
11.2072034979
21
20.5530462893
31
0.0000000000
11
11.1834009678
21
20.5448553620
31
0.0000000000
11
11.1570656284
21
20.5328184635
31
0.0000000000
11
11.1291020742
21
20.5158732430
31
0.0000000000
11
11.1008387957
21
20.4931118049
31
0.0000000000
11
11.0740788954
21
20.4640707505
31
0.0000000000
11
11.0510997302
21
20.4293503493
31
0.0000000000
11
11.0338240634
21
20.3904634905
31
0.0000000000
11
11.0233543291
21
20.3494055844
31
0.0000000000
11
11.0204841790
21
20.3249130532
31
0.0000000000
0
SPLINE
5
34C
100
AcDbEntity
8
0
100
AcDbSpline
62
7
6
CONTINUOUS
70
0
71
3
72
8
73
4
74
2
42
0.0000001000
43
0.0000001000
44
0.0000000001
12
0.0135380854
22
-0.0000851317
32
0.0000000000
13
0.0134099073
23
-0.0015928666
33
0.0000000000
40
0.0000000000
40
0.0000000000
40
0.0000000000
40
0.0000000000
40
1.0000000000
40
1.0000000000
40
1.0000000000
40
1.0000000000
10
-2.8203284055
20
22.4342709017
30
0.0000000000
10
-2.8158157103
20
22.4342425244
30
0.0000000000
10
-2.8113074964
20
22.4339628795
30
0.0000000000
10
-2.8068375273
20
22.4334319240
30
0.0000000000
11
-2.8203284055
21
22.4342709017
31
0.0000000000
11
-2.8068375273
21
22.4334319240
31
0.0000000000
0
SPLINE
5
34D
100
AcDbEntity
8
0
100
AcDbSpline
62
7
6
CONTINUOUS
70
0
71
3
72
28
73
24
74
22
42
0.0000001000
43
0.0000001000
44
0.0000000001
12
-0.5926083670
22
0.0039109046
32
0.0000000000
13
-0.0402122330
23
-0.5919501455
33
0.0000000000
40
0.0000000000
40
0.0000000000
40
0.0000000000
40
0.0000000000
40
0.0401938449
40
0.0934381792
40
0.1430238196
40
0.1888262603
40
0.2308858619
40
0.2694339099
40
0.3049261714
40
0.3380323665
40
0.3695753263
40
0.4008257719
40
0.4335232782
40
0.4697429179
40
0.5116345600
40
0.5604283733
40
0.6159237364
40
0.6774106755
40
0.7438661267
40
0.8137790925
40
0.8854588104
40
0.9572801166
40
1.0000000000
40
1.0000000000
40
1.0000000000
40
1.0000000000
10
-4.2656250548
20
22.4438117806
30
0.0000000000
10
-4.2735647910
20
22.4438641787
30
0.0000000000
10
-4.2920225282
20
22.4439412430
30
0.0000000000
10
-4.3202756867
20
22.4438790158
30
0.0000000000
10
-4.3496352451
20
22.4435613077
30
0.0000000000
10
-4.3767813180
20
22.4429963900
30
0.0000000000
10
-4.4017398062
20
22.4421831002
30
0.0000000000
10
-4.4246501759
20
22.4411142534
30
0.0000000000
10
-4.4457741493
20
22.4397655506
30
0.0000000000
10
-4.4654864452
20
22.4380851305
30
0.0000000000
10
-4.4843145141
20
22.4359665126
30
0.0000000000
10
-4.5029796189
20
22.4332065043
30
0.0000000000
10
-4.5224112221
20
22.4294273551
30
0.0000000000
10
-4.5436283589
20
22.4239795996
30
0.0000000000
10
-4.5673892655
20
22.4158915892
30
0.0000000000
10
-4.5937484938
20
22.4039654858
30
0.0000000000
10
-4.6218857756
20
22.3870430636
30
0.0000000000
10
-4.6502603550
20
22.3643096463
30
0.0000000000
10
-4.6769187523
20
22.3355136473
30
0.0000000000
10
-4.6998017582
20
22.3011544859
30
0.0000000000
10
-4.7171295735
20
22.2625005844
30
0.0000000000
10
-4.7263739482
20
22.2267216449
30
0.0000000000
10
-4.7290438913
20
22.2041841385
30
0.0000000000
10
-4.7296165120
20
22.1957547914
30
0.0000000000
11
-4.2656250548
21
22.4438117806
31
0.0000000000
11
-4.2894445759
21
22.4439086967
31
0.0000000000
11
-4.3209981470
21
22.4438304882
31
0.0000000000
11
-4.3503817672
21
22.4435023772
31
0.0000000000
11
-4.3775190885
21
22.4429255246
31
0.0000000000
11
-4.4024307724
21
22.4420996621
31
0.0000000000
11
-4.4252495144
21
22.4410182621
31
0.0000000000
11
-4.4462389479
21
22.4396585183
31
0.0000000000
11
-4.4657854534
21
22.4379688497
31
0.0000000000
11
-4.4843582169
21
22.4358521253
31
0.0000000000
11
-4.5026742621
21
22.4331135584
31
0.0000000000
11
-4.5216889336
21
22.4293828407
31
0.0000000000
11
-4.5424710751
21
22.4240137693
31
0.0000000000
11
-4.5659631432
21
22.4159860215
31
0.0000000000
11
-4.5922983429
21
22.4040443364
31
0.0000000000
11
-4.6204726530
21
22.3870794522
31
0.0000000000
11
-4.6489024319
21
22.3642868037
31
0.0000000000
11
-4.6756514338
21
22.3353818008
31
0.0000000000
11
-4.6986134033
21
22.3008949196
31
0.0000000000
11
-4.7159883934
21
22.2621320211
31
0.0000000000
11
-4.7266327494
21
22.2209217559
31
0.0000000000
11
-4.7296165120
21
22.1957547914
31
0.0000000000
0
SPLINE
5
34E
100
AcDbEntity
8
0
100
AcDbSpline
62
7
6
CONTINUOUS
70
0
71
3
72
10
73
6
74
4
42
0.0000001000
43
0.0000001000
44
0.0000000001
12
0.0208845971
22
-0.0024807313
32
0.0000000000
13
0.0210195155
23
-0.0007170527
33
0.0000000000
40
0.0000000000
40
0.0000000000
40
0.0000000000
40
0.0000000000
40
0.3539111326
40
0.7052397673
40
1.0000000000
40
1.0000000000
40
1.0000000000
40
1.0000000000
10
5.5390523833
20
-25.6652032424
30
0.0000000000
10
5.5415161471
20
-25.6654958952
30
0.0000000000
10
5.5464347053
20
-25.6660060062
30
0.0000000000
10
5.5534270798
20
-25.6665221124
30
0.0000000000
10
5.5579521858
20
-25.6667326750
30
0.0000000000
10
5.5600174249
20
-25.6668031278
30
0.0000000000
11
5.5390523833
21
-25.6652032424
31
0.0000000000
11
5.5464559254
21
-25.6659710730
31
0.0000000000
11
5.5538248185
21
-25.6665149705
31
0.0000000000
11
5.5600174249
21
-25.6668031278
31
0.0000000000
0
SPLINE
5
34F
100
AcDbEntity
8
0
100
AcDbSpline
62
7
6
CONTINUOUS
70
0
71
3
72
17
73
13
74
11
42
0.0000001000
43
0.0000001000
44
0.0000000001
12
-0.3769972116
22
0.0447807906
32
0.0000000000
13
0.0257515096
23
0.3792422218
33
0.0000000000
40
0.0000000000
40
0.0000000000
40
0.0000000000
40
0.0000000000
40
0.1061500726
40
0.2102576220
40
0.3155808634
40
0.4221652132
40
0.5307751119
40
0.6417288074
40
0.7550240105
40
0.8704023587
40
0.9870706757
40
1.0000000000
40
1.0000000000
40
1.0000000000
40
1.0000000000
10
-11.0853265124
20
-23.6905126967
30
0.0000000000
10
-11.0986659396
20
-23.6889282019
30
0.0000000000
10
-11.1248841687
20
-23.6836446701
30
0.0000000000
10
-11.1624256092
20
-23.6695660113
30
0.0000000000
10
-11.1973235573
20
-23.6496822615
30
0.0000000000
10
-11.2290261939
20
-23.6240979571
30
0.0000000000
10
-11.2566211762
20
-23.5931528169
30
0.0000000000
10
-11.2791500754
20
-23.5573240203
30
0.0000000000
10
-11.2956051271
20
-23.5173884863
30
0.0000000000
10
-11.3050627833
20
-23.4744915479
30
0.0000000000
10
-11.3063261193
20
-23.4433510768
30
0.0000000000
10
-11.3053748696
20
-23.4269570997
30
0.0000000000
10
-11.3052638864
20
-23.4253226512
30
0.0000000000
11
-11.0853265124
21
-23.6905126967
31
0.0000000000
11
-11.1248314709
21
-23.6825492354
31
0.0000000000
11
-11.1618396240
21
-23.6686727587
31
0.0000000000
11
-11.1965812155
21
-23.6488768409
31
0.0000000000
11
-11.2280708349
21
-23.6234646769
31
0.0000000000
11
-11.2555135309
21
-23.5926897206
31
0.0000000000
11
-11.2779357650
21
-23.5570300073
31
0.0000000000
11
-11.2943218445
21
-23.5172613118
31
0.0000000000
11
-11.3037521901
21
-23.4744853819
31
0.0000000000
11
-11.3055485529
21
-23.4302289903
31
0.0000000000
11
-11.3052638864
21
-23.4253226512
31
0.0000000000
0
SPLINE
5
350
100
AcDbEntity
8
0
100
AcDbSpline
62
7
6
CONTINUOUS
70
0
71
3
72
17
73
13
74
11
42
0.0000001000
43
0.0000001000
44
0.0000000001
12
-0.3770405290
22
0.0025174307
32
0.0000000000
13
-0.0255637175
23
-0.3765697840
33
0.0000000000
40
0.0000000000
40
0.0000000000
40
0.0000000000
40
0.0000000000
40
0.1016858659
40
0.2049100884
40
0.3098904609
40
0.4158701733
40
0.5229374603
40
0.6322040344
40
0.7436267828
40
0.8567407363
40
0.9716402723
40
1.0000000000
40
1.0000000000
40
1.0000000000
40
1.0000000000
10
-8.0592965768
20
20.9203357516
30
0.0000000000
10
-8.0720764744
20
20.9204210806
30
0.0000000000
10
-8.0978867190
20
20.9186115959
30
0.0000000000
10
-8.1359955719
20
20.9098986120
30
0.0000000000
10
-8.1727906132
20
20.8951235154
30
0.0000000000
10
-8.2071925868
20
20.8744499990
30
0.0000000000
10
-8.2382570097
20
20.8481833464
30
0.0000000000
10
-8.2650883309
20
20.8166871721
30
0.0000000000
10
-8.2867210528
20
20.7805157746
30
0.0000000000
10
-8.3022011254
20
20.7405455808
30
0.0000000000
10
-8.3085495745
20
20.7087921631
30
0.0000000000
10
-8.3101552902
20
20.6908360969
30
0.0000000000
10
-8.3103969503
20
20.6872762914
30
0.0000000000
11
-8.0592965768
21
20.9203357516
31
0.0000000000
11
-8.0975423912
21
20.9176520001
31
0.0000000000
11
-8.1354795944
21
20.9089802096
31
0.0000000000
11
-8.1722065423
21
20.8942312806
31
0.0000000000
11
-8.2064531954
21
20.8736514274
31
0.0000000000
11
-8.2372758518
21
20.8475888167
31
0.0000000000
11
-8.2639890567
21
20.8162308314
31
0.0000000000
11
-8.2855497635
21
20.7801796682
31
0.0000000000
11
-8.3009501237
21
20.7404134572
31
0.0000000000
11
-8.3094434584
21
20.6979369655
31
0.0000000000
11
-8.3103969503
21
20.6872762914
31
0.0000000000
0
SPLINE
5
351
100
AcDbEntity
8
0
100
AcDbSpline
62
7
6
CONTINUOUS
70
0
71
3
72
9
73
5
74
3
42
0.0000001000
43
0.0000001000
44
0.0000000001
12
-0.7639735025
22
0.0907484437
32
0.0000000000
13
-0.7689591189
23
0.0170675942
33
0.0000000000
40
0.0000000000
40
0.0000000000
40
0.0000000000
40
0.0000000000
40
0.2107045964
40
1.0000000000
40
1.0000000000
40
1.0000000000
40
1.0000000000
10
9.3816156372
20
15.2970458271
30
0.0000000000
10
9.3279580610
20
15.3034195318
30
0.0000000000
10
9.0729887183
20
15.3310873769
30
0.0000000000
10
8.8167765182
20
15.3464636301
30
0.0000000000
10
8.6144645522
20
15.3509540880
30
0.0000000000
11
9.3816156372
21
15.2970458271
31
0.0000000000
11
9.2204564577
21
15.3145333133
31
0.0000000000
11
8.6144645522
21
15.3509540880
31
0.0000000000
0
SPLINE
5
352
100
AcDbEntity
8
0
100
AcDbSpline
62
7
6
CONTINUOUS
70
0
71
3
72
15
73
11
74
9
42
0.0000001000
43
0.0000001000
44
0.0000000001
12
-0.0186219380
22
-0.2742900110
32
0.0000000000
13
-0.2608053313
23
-0.0884327218
33
0.0000000000
40
0.0000000000
40
0.0000000000
40
0.0000000000
40
0.0000000000
40
0.1417807348
40
0.2814376880
40
0.4161962532
40
0.5461985681
40
0.6693842774
40
0.7857710515
40
0.8959505548
40
1.0000000000
40
1.0000000000
40
1.0000000000
40
1.0000000000
10
10.9348910464
20
-27.1660862331
30
0.0000000000
10
10.9340109690
20
-27.1790492462
30
0.0000000000
10
10.9308659530
20
-27.2047095660
30
0.0000000000
10
10.9220249356
20
-27.2418925918
30
0.0000000000
10
10.9092762770
20
-27.2767881446
30
0.0000000000
10
10.8929446908
20
-27.3084819167
30
0.0000000000
10
10.8733697006
20
-27.3362656607
30
0.0000000000
10
10.8510175476
20
-27.3594341502
30
0.0000000000
10
10.8263989516
20
-27.3773858787
30
0.0000000000
10
10.8084746537
20
-27.3857267583
30
0.0000000000
10
10.7994291037
20
-27.3887938835
30
0.0000000000
11
10.9348910464
21
-27.1660862331
31
0.0000000000
11
10.9301231384
21
-27.2047720866
31
0.0000000000
11
10.9211901564
21
-27.2421131348
31
0.0000000000
11
10.9084010739
21
-27.2768837381
31
0.0000000000
11
10.8919322276
21
-27.3086036813
31
0.0000000000
11
10.8723164901
21
-27.3362108400
31
0.0000000000
11
10.8499898328
21
-27.3591311863
31
0.0000000000
11
10.8254208206
21
-27.3768481408
31
0.0000000000
11
10.7994291037
21
-27.3887938835
31
0.0000000000
0
SPLINE
5
353
100
AcDbEntity
8
0
100
AcDbSpline
62
7
6
CONTINUOUS
70
0
71
3
72
8
73
4
74
2
42
0.0000001000
43
0.0000001000
44
0.0000000001
12
-0.0176122117
22
-0.0059718711
32
0.0000000000
13
-0.0182967580
23
-0.0033637204
33
0.0000000000
40
0.0000000000
40
0.0000000000
40
0.0000000000
40
0.0000000000
40
1.0000000000
40
1.0000000000
40
1.0000000000
40
1.0000000000
10
10.7994291037
20
-27.3887938835
30
0.0000000000
10
10.7935583664
20
-27.3907845072
30
0.0000000000
10
10.7875444761
20
-27.3923606530
30
0.0000000000
10
10.7814455567
20
-27.3934818932
30
0.0000000000
11
10.7994291037
21
-27.3887938835
31
0.0000000000
11
10.7814455567
21
-27.3934818932
31
0.0000000000
0
SPLINE
5
354
100
AcDbEntity
8
0
100
AcDbSpline
62
7
6
CONTINUOUS
70
0
71
3
72
8
73
4
74
2
42
0.0000001000
43
0.0000001000
44
0.0000000001
12
-0.0024178435
22
-0.0004445022
32
0.0000000000
13
-0.0024263501
23
-0.0003965594
33
0.0000000000
40
0.0000000000
40
0.0000000000
40
0.0000000000
40
0.0000000000
40
1.0000000000
40
1.0000000000
40
1.0000000000
40
1.0000000000
10
10.7814455567
20
-27.3934818932
30
0.0000000000
10
10.7806396089
20
-27.3936300606
30
0.0000000000
10
10.7798321762
20
-27.3937702841
30
0.0000000000
10
10.7790233929
20
-27.3939024706
30
0.0000000000
11
10.7814455567
21
-27.3934818932
31
0.0000000000
11
10.7790233929
21
-27.3939024706
31
0.0000000000
0
SPLINE
5
355
100
AcDbEntity
8
0
100
AcDbSpline
62
7
6
CONTINUOUS
70
0
71
3
72
8
73
4
74
2
42
0.0000001000
43
0.0000001000
44
0.0000000001
12
-0.0066220481
22
-0.0010822987
32
0.0000000000
13
-0.0066742333
23
-0.0007174152
33
0.0000000000
40
0.0000000000
40
0.0000000000
40
0.0000000000
40
0.0000000000
40
1.0000000000
40
1.0000000000
40
1.0000000000
40
1.0000000000
10
10.7790233929
20
-27.3939024706
30
0.0000000000
10
10.7768160435
20
-27.3942632369
30
0.0000000000
10
10.7745986333
20
-27.3945641374
30
0.0000000000
10
10.7723738888
20
-27.3948032758
30
0.0000000000
11
10.7790233929
21
-27.3939024706
31
0.0000000000
11
10.7723738888
21
-27.3948032758
31
0.0000000000
0
SPLINE
5
356
100
AcDbEntity
8
0
100
AcDbSpline
62
7
6
CONTINUOUS
70
0
71
3
72
8
73
4
74
2
42
0.0000001000
43
0.0000001000
44
0.0000000001
12
-0.0169773507
22
-0.0018249002
32
0.0000000000
13
-0.0170588642
23
0.0005731475
33
0.0000000000
40
0.0000000000
40
0.0000000000
40
0.0000000000
40
0.0000000000
40
1.0000000000
40
1.0000000000
40
1.0000000000
40
1.0000000000
10
10.7723738888
20
-27.3948032758
30
0.0000000000
10
10.7667147719
20
-27.3954115759
30
0.0000000000
10
10.7610081993
20
-27.3956202444
30
0.0000000000
10
10.7553219112
20
-27.3954291953
30
0.0000000000
11
10.7723738888
21
-27.3948032758
31
0.0000000000
11
10.7553219112
21
-27.3954291953
31
0.0000000000
0
SPLINE
5
357
100
AcDbEntity
8
0
100
AcDbSpline
62
7
6
CONTINUOUS
70
0
71
3
72
16
73
12
74
10
42
0.0000001000
43
0.0000001000
44
0.0000000001
12
-0.0205001635
22
-0.3019551492
32
0.0000000000
13
-0.3016775314
23
-0.0324315551
33
0.0000000000
40
0.0000000000
40
0.0000000000
40
0.0000000000
40
0.0000000000
40
0.1288031612
40
0.2556783070
40
0.3781036985
40
0.4962066156
40
0.6081135241
40
0.7138409187
40
0.8139247375
40
0.9084360122
40
1.0000000000
40
1.0000000000
40
1.0000000000
40
1.0000000000
10
-4.8275142454
20
-25.2937642157
30
0.0000000000
10
-4.8283944074
20
-25.3067284750
30
0.0000000000
10
-4.8315397155
20
-25.3323913982
30
0.0000000000
10
-4.8403814363
20
-25.3695783387
30
0.0000000000
10
-4.8531310240
20
-25.4044776765
30
0.0000000000
10
-4.8694635451
20
-25.4361746332
30
0.0000000000
10
-4.8890391933
20
-25.4639607328
30
0.0000000000
10
-4.9113913859
20
-25.4871306416
30
0.0000000000
10
-4.9360092088
20
-25.5050830434
30
0.0000000000
10
-4.9623663144
20
-25.5173490533
30
0.0000000000
10
-4.9808225058
20
-25.5215109251
30
0.0000000000
10
-4.9900301050
20
-25.5225007792
30
0.0000000000
11
-4.8275142454
21
-25.2937642157
31
0.0000000000
11
-4.8322825503
21
-25.3324537957
31
0.0000000000
11
-4.8412162600
21
-25.3697988914
31
0.0000000000
11
-4.8540063445
21
-25.4045734504
31
0.0000000000
11
-4.8704762363
21
-25.4362967441
31
0.0000000000
11
-4.8900926416
21
-25.4639062043
31
0.0000000000
11
-4.9124194913
21
-25.4868280446
31
0.0000000000
11
-4.9369877056
21
-25.5045455696
31
0.0000000000
11
-4.9629776585
21
-25.5164914125
31
0.0000000000
11
-4.9900301050
21
-25.5225007792
31
0.0000000000
0
SPLINE
5
358
100
AcDbEntity
8
0
100
AcDbSpline
62
7
6
CONTINUOUS
70
0
71
3
72
8
73
4
74
2
42
0.0000001000
43
0.0000001000
44
0.0000000001
12
-0.0070654234
22
-0.0007595616
32
0.0000000000
13
-0.0071001006
23
-0.0003441773
33
0.0000000000
40
0.0000000000
40
0.0000000000
40
0.0000000000
40
0.0000000000
40
1.0000000000
40
1.0000000000
40
1.0000000000
40
1.0000000000
10
-4.9900301050
20
-25.5225007792
30
0.0000000000
10
-4.9923852462
20
-25.5227539664
30
0.0000000000
10
-4.9947486092
20
-25.5229379265
30
0.0000000000
10
-4.9971153094
20
-25.5230526523
30
0.0000000000
11
-4.9900301050
21
-25.5225007792
31
0.0000000000
11
-4.9971153094
21
-25.5230526523
31
0.0000000000
0
SPLINE
5
359
100
AcDbEntity
8
0
100
AcDbSpline
62
7
6
CONTINUOUS
70
0
71
3
72
8
73
4
74
2
42
0.0000001000
43
0.0000001000
44
0.0000000001
12
-0.0083835396
22
-0.0004063920
32
0.0000000000
13
-0.0083873323
23
0.0001728026
33
0.0000000000
40
0.0000000000
40
0.0000000000
40
0.0000000000
40
0.0000000000
40
1.0000000000
40
1.0000000000
40
1.0000000000
40
1.0000000000
10
-4.9971153094
20
-25.5230526523
30
0.0000000000
10
-4.9999098226
20
-25.5231881163
30
0.0000000000
10
-5.0027089886
20
-25.5232270537
30
0.0000000000
10
-5.0055047660
20
-25.5231694528
30
0.0000000000
11
-4.9971153094
21
-25.5230526523
31
0.0000000000
11
-5.0055047660
21
-25.5231694528
31
0.0000000000
0
SPLINE
5
35A
100
AcDbEntity
8
0
100
AcDbSpline
62
7
6
CONTINUOUS
70
0
71
3
72
8
73
4
74
2
42
0.0000001000
43
0.0000001000
44
0.0000000001
12
-0.0014911440
22
0.0000307218
32
0.0000000000
13
-0.0014903658
23
0.0000490300
33
0.0000000000
40
0.0000000000
40
0.0000000000
40
0.0000000000
40
0.0000000000
40
1.0000000000
40
1.0000000000
40
1.0000000000
40
1.0000000000
10
-5.0055047660
20
-25.5231694528
30
0.0000000000
10
-5.0060018140
20
-25.5231592122
30
0.0000000000
10
-5.0064987549
20
-25.5231459203
30
0.0000000000
10
-5.0069955435
20
-25.5231295769
30
0.0000000000
11
-5.0055047660
21
-25.5231694528
31
0.0000000000
11
-5.0069955435
21
-25.5231295769
31
0.0000000000
0
SPLINE
5
35B
100
AcDbEntity
8
0
100
AcDbSpline
62
7
6
CONTINUOUS
70
0
71
3
72
17
73
13
74
11
42
0.0000001000
43
0.0000001000
44
0.0000000001
12
0.3378662175
22
-0.0401327009
32
0.0000000000
13
-0.0230464196
23
-0.3394599787
33
0.0000000000
40
0.0000000000
40
0.0000000000
40
0.0000000000
40
0.0000000000
40
0.0809306851
40
0.1649562946
40
0.2528395352
40
0.3464353844
40
0.4452440315
40
0.5492948193
40
0.6582375543
40
0.7700916918
40
0.8848054289
40
1.0000000000
40
1.0000000000
40
1.0000000000
40
1.0000000000
10
13.9925694834
20
20.4379510458
30
0.0000000000
10
14.0016840649
20
20.4368683902
30
0.0000000000
10
14.0200671147
20
20.4325191607
30
0.0000000000
10
14.0460752676
20
20.4199831343
30
0.0000000000
10
14.0702577287
20
20.4017467637
30
0.0000000000
10
14.0919925454
20
20.3783502904
30
0.0000000000
10
14.1108302465
20
20.3503541478
30
0.0000000000
10
14.1263402334
20
20.3184586128
30
0.0000000000
10
14.1381494785
20
20.2834633779
30
0.0000000000
10
14.1460110129
20
20.2461474460
30
0.0000000000
10
14.1497241000
20
20.2074895972
30
0.0000000000
10
14.1493760982
20
20.1813563497
30
0.0000000000
10
14.1484911574
20
20.1683217008
30
0.0000000000
11
13.9925694834
21
20.4379510458
31
0.0000000000
11
14.0193816239
21
20.4316789832
31
0.0000000000
11
14.0451945203
21
20.4193897677
31
0.0000000000
11
14.0691613282
21
20.4015098107
31
0.0000000000
11
14.0909508314
21
20.3782862612
31
0.0000000000
11
14.1098329776
21
20.3504710172
31
0.0000000000
11
14.1254162800
21
20.3186828174
31
0.0000000000
11
14.1373490621
21
20.2835892488
31
0.0000000000
11
14.1452500419
21
20.2463610216
31
0.0000000000
11
14.1490103871
21
20.2075122242
31
0.0000000000
11
14.1484911574
21
20.1683217008
31
0.0000000000
0
SPLINE
5
35C
100
AcDbEntity
8
0
100
AcDbSpline
62
7
6
CONTINUOUS
70
0
71
3
72
17
73
13
74
11
42
0.0000001000
43
0.0000001000
44
0.0000000001
12
0.3378766266
22
-0.0401339373
32
0.0000000000
13
-0.0230471296
23
-0.3394704369
33
0.0000000000
40
0.0000000000
40
0.0000000000
40
0.0000000000
40
0.0000000000
40
0.0809163721
40
0.1649313177
40
0.2528071727
40
0.3463992053
40
0.4452084736
40
0.5492628965
40
0.6582126814
40
0.7700755186
40
0.8847979226
40
1.0000000000
40
1.0000000000
40
1.0000000000
40
1.0000000000
10
-1.7698305144
20
22.3102533104
30
0.0000000000
10
-1.7607172641
20
22.3091708129
30
0.0000000000
10
-1.7423364520
20
22.3048219268
30
0.0000000000
10
-1.7163310876
20
22.2922865332
30
0.0000000000
10
-1.6921503941
20
22.2740504014
30
0.0000000000
10
-1.6704164224
20
22.2506534500
30
0.0000000000
10
-1.6515788686
20
22.2226559015
30
0.0000000000
10
-1.6360685490
20
22.1907578934
30
0.0000000000
10
-1.6242588119
20
22.1557593058
30
0.0000000000
10
-1.6163968723
20
22.1184394301
30
0.0000000000
10
-1.6126836197
20
22.0797775627
30
0.0000000000
10
-1.6130316846
20
22.0536416761
30
0.0000000000
10
-1.6139167103
20
22.0406057762
30
0.0000000000
11
-1.7698305144
21
22.3102533104
31
0.0000000000
11
-1.7430223373
21
22.3039819612
31
0.0000000000
11
-1.7172121614
21
22.2916934233
31
0.0000000000
11
-1.6932471028
21
22.2738137835
31
0.0000000000
11
-1.6714584616
21
22.2505898606
31
0.0000000000
11
-1.6525763274
21
22.2227731011
31
0.0000000000
11
-1.6369926779
21
22.1909824793
31
0.0000000000
11
-1.6250593183
21
22.1558853674
31
0.0000000000
11
-1.6171578853
21
22.1186530117
31
0.0000000000
11
-1.6133973692
21
22.0798000601
31
0.0000000000
11
-1.6139167103
21
22.0406057762
31
0.0000000000
0
SPLINE
5
35D
100
AcDbEntity
8
0
100
AcDbSpline
62
7
6
CONTINUOUS
70
0
71
3
72
14
73
10
74
8
42
0.0000001000
43
0.0000001000
44
0.0000000001
12
-0.2476074105
22
0.0048889704
32
0.0000000000
13
0.0433239551
23
-0.2409438012
33
0.0000000000
40
0.0000000000
40
0.0000000000
40
0.0000000000
40
0.0000000000
40
0.2760780659
40
0.5118195290
40
0.7036485259
40
0.8486879478
40
0.9452436149
40
0.9932672469
40
1.0000000000
40
1.0000000000
40
1.0000000000
40
1.0000000000
10
-2.2259545356
20
21.3857879280
30
0.0000000000
10
-2.2487408606
20
21.3862378405
30
0.0000000000
10
-2.2909092019
20
21.3868161981
30
0.0000000000
10
-2.3492991363
20
21.3868487873
30
0.0000000000
10
-2.3957587844
20
21.3855407423
30
0.0000000000
10
-2.4334652237
20
21.3841504410
30
0.0000000000
10
-2.4532094277
20
21.3801653001
30
0.0000000000
10
-2.4710675876
20
21.3788142883
30
0.0000000000
10
-2.4709143991
20
21.3746121288
30
0.0000000000
10
-2.4708171693
20
21.3740713905
30
0.0000000000
11
-2.2259545356
21
21.3857879280
31
0.0000000000
11
-2.2943207455
21
21.3867003980
31
0.0000000000
11
-2.3527032567
21
21.3865478890
31
0.0000000000
11
-2.4001952592
21
21.3853329935
31
0.0000000000
11
-2.4360441228
21
21.3830761026
31
0.0000000000
11
-2.4597324485
21
21.3798090418
31
0.0000000000
11
-2.4708520504
21
21.3755893699
31
0.0000000000
11
-2.4708171693
21
21.3740713905
31
0.0000000000
0
SPLINE
5
35E
100
AcDbEntity
8
0
100
AcDbSpline
62
7
6
CONTINUOUS
70
0
71
3
72
14
73
10
74
8
42
0.0000001000
43
0.0000001000
44
0.0000000001
12
-0.2476074105
22
0.0048889704
32
0.0000000000
13
0.0433239551
23
-0.2409438012
33
0.0000000000
40
0.0000000000
40
0.0000000000
40
0.0000000000
40
0.0000000000
40
0.2760780659
40
0.5118195290
40
0.7036485259
40
0.8486879478
40
0.9452436149
40
0.9932672469
40
1.0000000000
40
1.0000000000
40
1.0000000000
40
1.0000000000
10
7.5909828957
20
20.2197044517
30
0.0000000000
10
7.5681965707
20
20.2201543642
30
0.0000000000
10
7.5260282294
20
20.2207327218
30
0.0000000000
10
7.4676382950
20
20.2207653110
30
0.0000000000
10
7.4211786468
20
20.2194572660
30
0.0000000000
10
7.3834722075
20
20.2180669647
30
0.0000000000
10
7.3637280036
20
20.2140818238
30
0.0000000000
10
7.3458698437
20
20.2127308121
30
0.0000000000
10
7.3460230322
20
20.2085286526
30
0.0000000000
10
7.3461202620
20
20.2079879142
30
0.0000000000
11
7.5909828957
21
20.2197044517
31
0.0000000000
11
7.5226166858
21
20.2206169217
31
0.0000000000
11
7.4642341745
21
20.2204644127
31
0.0000000000
11
7.4167421721
21
20.2192495173
31
0.0000000000
11
7.3808933084
21
20.2169926263
31
0.0000000000
11
7.3572049828
21
20.2137255655
31
0.0000000000
11
7.3460853809
21
20.2095058937
31
0.0000000000
11
7.3461202620
21
20.2079879142
31
0.0000000000
0
SPLINE
5
35F
100
AcDbEntity
8
0
100
AcDbSpline
62
7
6
CONTINUOUS
70
0
71
3
72
16
73
12
74
10
42
0.0000001000
43
0.0000001000
44
0.0000000001
12
-0.3503553994
22
0.0077763871
32
0.0000000000
13
-0.3479952940
23
0.0413358611
33
0.0000000000
40
0.0000000000
40
0.0000000000
40
0.0000000000
40
0.0000000000
40
0.0967915724
40
0.2053476309
40
0.3218477842
40
0.4437896315
40
0.5663878388
40
0.6872623131
40
0.8016689699
40
0.9071528093
40
1.0000000000
40
1.0000000000
40
1.0000000000
40
1.0000000000
10
8.5075502636
20
15.3533271266
30
0.0000000000
10
8.4962464469
20
15.3535780229
30
0.0000000000
10
8.4722691796
20
15.3543071586
30
0.0000000000
10
8.4347055464
20
15.3558883700
30
0.0000000000
10
8.3942252687
20
15.3579899453
30
0.0000000000
10
8.3521277945
20
15.3605462550
30
0.0000000000
10
8.3095433893
20
15.3634894313
30
0.0000000000
10
8.2678628531
20
15.3667232096
30
0.0000000000
10
8.2282047480
20
15.3701597172
30
0.0000000000
10
8.1918426213
20
15.3736863860
30
0.0000000000
10
8.1688116330
20
15.3762100513
30
0.0000000000
10
8.1580415045
20
15.3774893575
30
0.0000000000
11
8.5075502636
21
15.3533271266
31
0.0000000000
11
8.4736452172
21
15.3543275329
31
0.0000000000
11
8.4356355435
21
15.3559092189
31
0.0000000000
11
8.3948633899
21
15.3580152722
31
0.0000000000
11
8.3522081732
21
15.3606008308
31
0.0000000000
11
8.3093469500
21
15.3635639118
31
0.0000000000
11
8.2671148979
21
15.3668467778
31
0.0000000000
11
8.2271728180
21
15.3703206589
31
0.0000000000
11
8.1903815664
21
15.3739101086
31
0.0000000000
11
8.1580415045
21
15.3774893575
31
0.0000000000
0
SPLINE
5
360
100
AcDbEntity
8
0
100
AcDbSpline
62
7
6
CONTINUOUS
70
0
71
3
72
26
73
22
74
20
42
0.0000001000
43
0.0000001000
44
0.0000000001
12
-1.3850151103
22
0.0462706042
32
0.0000000000
13
-0.2890574721
23
1.3169332525
33
0.0000000000
40
0.0000000000
40
0.0000000000
40
0.0000000000
40
0.0000000000
40
0.0565955295
40
0.1186450426
40
0.1851849963
40
0.2551467906
40
0.3275341342
40
0.4010831487
40
0.4748361564
40
0.5474296057
40
0.6179704052
40
0.6851139514
40
0.7480614236
40
0.8055915688
40
0.8570356941
40
0.9013920450
40
0.9381531652
40
0.9666224107
40
0.9865035102
40
0.9975519208
40
1.0000000000
40
1.0000000000
40
1.0000000000
40
1.0000000000
10
5.5828513090
20
-26.1718608246
30
0.0000000000
10
5.5567227545
20
-26.1709879215
30
0.0000000000
10
5.5019572024
20
-26.1688689946
30
0.0000000000
10
5.4165076784
20
-26.1648694727
30
0.0000000000
10
5.3249226048
20
-26.1599461404
30
0.0000000000
10
5.2286029389
20
-26.1541728164
30
0.0000000000
10
5.1290869243
20
-26.1476404116
30
0.0000000000
10
5.0278608367
20
-26.1404459278
30
0.0000000000
10
4.9265794872
20
-26.1327065979
30
0.0000000000
10
4.8267260679
20
-26.1245360452
30
0.0000000000
10
4.7299619493
20
-26.1160699658
30
0.0000000000
10
4.6376859709
20
-26.1074343277
30
0.0000000000
10
4.5514547567
20
-26.0987675576
30
0.0000000000
10
4.4724897222
20
-26.0902255558
30
0.0000000000
10
4.4021834926
20
-26.0818667707
30
0.0000000000
10
4.3413599200
20
-26.0740985559
30
0.0000000000
10
4.2915661174
20
-26.0662616212
30
0.0000000000
10
4.2520892351
20
-26.0606676830
30
0.0000000000
10
4.2268696957
20
-26.0523557290
30
0.0000000000
10
4.2095785590
20
-26.0516419199
30
0.0000000000
10
4.2062806473
20
-26.0450496372
30
0.0000000000
10
4.2060447687
20
-26.0439749849
30
0.0000000000
11
5.5828513090
21
-26.1718608246
31
0.0000000000
11
5.5044791340
21
-26.1688654832
31
0.0000000000
11
5.4185845213
21
-26.1648706772
31
0.0000000000
11
5.3265062503
21
-26.1599388080
31
0.0000000000
11
5.2297270335
21
-26.1541498123
31
0.0000000000
11
5.1296285048
21
-26.1475860994
31
0.0000000000
11
5.0279614614
21
-26.1403627436
31
0.0000000000
11
4.9260526707
21
-26.1325737423
31
0.0000000000
11
4.8257891571
21
-26.1243633792
31
0.0000000000
11
4.7284075107
21
-26.1158326872
31
0.0000000000
11
4.6357673160
21
-26.1071445328
31
0.0000000000
11
4.5489746335
21
-26.0984024513
31
0.0000000000
11
4.4697180851
21
-26.0897764939
31
0.0000000000
11
4.3989251163
21
-26.0813675057
31
0.0000000000
11
4.3379830226
21
-26.0733402735
31
0.0000000000
11
4.2876027453
21
-26.0657885645
31
0.0000000000
11
4.2487637041
21
-26.0588592450
31
0.0000000000
11
4.2219250779
21
-26.0526347032
31
0.0000000000
11
4.2075985726
21
-26.0472337411
31
0.0000000000
11
4.2060447687
21
-26.0439749849
31
0.0000000000
0
SPLINE
5
361
100
AcDbEntity
8
0
100
AcDbSpline
62
7
6
CONTINUOUS
70
0
71
3
72
12
73
8
74
6
42
0.0000001000
43
0.0000001000
44
0.0000000001
12
-0.0705155295
22
0.0083760332
32
0.0000000000
13
0.0134132825
23
0.0723220937
33
0.0000000000
40
0.0000000000
40
0.0000000000
40
0.0000000000
40
0.0000000000
40
0.3833537778
40
0.6811239084
40
0.8835066265
40
0.9874942546
40
1.0000000000
40
1.0000000000
40
1.0000000000
40
1.0000000000
10
-8.4663373912
20
17.3521799032
30
0.0000000000
10
-8.4753481894
20
17.3532502312
30
0.0000000000
10
-8.4909573519
20
17.3554666179
30
0.0000000000
10
-8.5129209688
20
17.3579491888
30
0.0000000000
10
-8.5243186012
20
17.3620131014
30
0.0000000000
10
-8.5353958017
20
17.3621977494
30
0.0000000000
10
-8.5352394002
20
17.3649745105
30
0.0000000000
10
-8.5351834859
20
17.3652759910
30
0.0000000000
11
-8.4663373912
21
17.3521799032
31
0.0000000000
11
-8.4933378385
21
17.3556492871
31
0.0000000000
11
-8.5142296932
21
17.3589115993
31
0.0000000000
11
-8.5282968960
21
17.3618530928
31
0.0000000000
11
-8.5352245412
21
17.3644095542
31
0.0000000000
11
-8.5351834859
21
17.3652759910
31
0.0000000000
0
SPLINE
5
362
100
AcDbEntity
8
0
100
AcDbSpline
62
7
6
CONTINUOUS
70
0
71
3
72
26
73
22
74
20
42
0.0000001000
43
0.0000001000
44
0.0000000001
12
-1.3850151103
22
0.0462706042
32
0.0000000000
13
-0.2890574721
23
1.3169332525
33
0.0000000000
40
0.0000000000
40
0.0000000000
40
0.0000000000
40
0.0000000000
40
0.0565955295
40
0.1186450426
40
0.1851849963
40
0.2551467906
40
0.3275341342
40
0.4010831487
40
0.4748361564
40
0.5474296057
40
0.6179704052
40
0.6851139514
40
0.7480614236
40
0.8055915688
40
0.8570356941
40
0.9013920450
40
0.9381531652
40
0.9666224107
40
0.9865035102
40
0.9975519208
40
1.0000000000
40
1.0000000000
40
1.0000000000
40
1.0000000000
10
-4.2340861223
20
-25.0057773483
30
0.0000000000
10
-4.2602146768
20
-25.0049044452
30
0.0000000000
10
-4.3149802289
20
-25.0027855184
30
0.0000000000
10
-4.4004297528
20
-24.9987859964
30
0.0000000000
10
-4.4920148264
20
-24.9938626642
30
0.0000000000
10
-4.5883344924
20
-24.9880893401
30
0.0000000000
10
-4.6878505070
20
-24.9815569353
30
0.0000000000
10
-4.7890765946
20
-24.9743624516
30
0.0000000000
10
-4.8903579441
20
-24.9666231216
30
0.0000000000
10
-4.9902113633
20
-24.9584525690
30
0.0000000000
10
-5.0869754820
20
-24.9499864896
30
0.0000000000
10
-5.1792514604
20
-24.9413508514
30
0.0000000000
10
-5.2654826746
20
-24.9326840813
30
0.0000000000
10
-5.3444477091
20
-24.9241420796
30
0.0000000000
10
-5.4147539387
20
-24.9157832944
30
0.0000000000
10
-5.4755775113
20
-24.9080150796
30
0.0000000000
10
-5.5253713139
20
-24.9001781449
30
0.0000000000
10
-5.5648481961
20
-24.8945842068
30
0.0000000000
10
-5.5900677356
20
-24.8862722528
30
0.0000000000
10
-5.6073588722
20
-24.8855584436
30
0.0000000000
10
-5.6106567840
20
-24.8789661609
30
0.0000000000
10
-5.6108926625
20
-24.8778915086
30
0.0000000000
11
-4.2340861223
21
-25.0057773483
31
0.0000000000
11
-4.3124582972
21
-25.0027820069
31
0.0000000000
11
-4.3983529100
21
-24.9987872009
31
0.0000000000
11
-4.4904311810
21
-24.9938553317
31
0.0000000000
11
-4.5872103977
21
-24.9880663360
31
0.0000000000
11
-4.6873089264
21
-24.9815026231
31
0.0000000000
11
-4.7889759699
21
-24.9742792674
31
0.0000000000
11
-4.8908847606
21
-24.9664902661
31
0.0000000000
11
-4.9911482741
21
-24.9582799029
31
0.0000000000
11
-5.0885299205
21
-24.9497492110
31
0.0000000000
11
-5.1811701153
21
-24.9410610565
31
0.0000000000
11
-5.2679627978
21
-24.9323189750
31
0.0000000000
11
-5.3472193462
21
-24.9236930176
31
0.0000000000
11
-5.4180123149
21
-24.9152840294
31
0.0000000000
11
-5.4789544087
21
-24.9072567972
31
0.0000000000
11
-5.5293346859
21
-24.8997050882
31
0.0000000000
11
-5.5681737272
21
-24.8927757688
31
0.0000000000
11
-5.5950123534
21
-24.8865512269
31
0.0000000000
11
-5.6093388587
21
-24.8811502649
31
0.0000000000
11
-5.6108926625
21
-24.8778915086
31
0.0000000000
0
SPLINE
5
363
100
AcDbEntity
8
0
100
AcDbSpline
62
7
6
CONTINUOUS
70
0
71
3
72
12
73
8
74
6
42
0.0000001000
43
0.0000001000
44
0.0000000001
12
-0.0737138294
22
0.0013931862
32
0.0000000000
13
-0.0139262578
23
-0.0750879677
33
0.0000000000
40
0.0000000000
40
0.0000000000
40
0.0000000000
40
0.0000000000
40
0.3762518001
40
0.6709637598
40
0.8743805943
40
0.9832128681
40
1.0000000000
40
1.0000000000
40
1.0000000000
40
1.0000000000
10
-11.0062579309
20
-20.0998050585
30
0.0000000000
10
-11.0155029179
20
-20.0996303289
30
0.0000000000
10
-11.0317627756
20
-20.0997029760
30
0.0000000000
10
-11.0540204180
20
-20.0990737079
30
0.0000000000
10
-11.0673040509
20
-20.1017061910
30
0.0000000000
10
-11.0777688864
20
-20.0999861377
30
0.0000000000
10
-11.0789206931
20
-20.1031795931
30
0.0000000000
10
-11.0789986204
20
-20.1035997636
30
0.0000000000
11
-11.0062579309
21
-20.0998050585
31
0.0000000000
11
-11.0339965509
21
-20.0995371178
31
0.0000000000
11
-11.0557219164
21
-20.0998897277
31
0.0000000000
11
-11.0706885222
21
-20.1008489301
31
0.0000000000
11
-11.0785620708
21
-20.1023948360
31
0.0000000000
11
-11.0789986204
21
-20.1035997636
31
0.0000000000
0
SPLINE
5
364
100
AcDbEntity
8
0
100
AcDbSpline
62
9
6
CONTINUOUS
70
0
71
3
72
27
73
23
74
21
42
0.0000001000
43
0.0000001000
44
0.0000000001
12
-0.2364625387
22
-1.7084116953
32
0.0000000000
13
1.6486607349
23
-0.0205700719
33
0.0000000000
40
0.0000000000
40
0.0000000000
40
0.0000000000
40
0.0000000000
40
0.0016760062
40
0.0105440763
40
0.0273260936
40
0.0520601731
40
0.0844666326
40
0.1241124721
40
0.1704461794
40
0.2228138088
40
0.2804716092
40
0.3425982952
40
0.4083073411
40
0.4766597383
40
0.5466784673
40
0.6173635597
40
0.6877041630
40
0.7566918973
40
0.8233418756
40
0.8867047309
40
0.9458682613
40
1.0000000000
40
1.0000000000
40
1.0000000000
40
1.0000000000
10
-4.7284722435
20
22.1955966790
30
0.0000000000
10
-4.7286043478
20
22.1946422428
30
0.0000000000
10
-4.7284725208
20
22.1886680528
30
0.0000000000
10
-4.7092182786
20
22.1848344096
30
0.0000000000
10
-4.6859946276
20
22.1762985050
30
0.0000000000
10
-4.6444700031
20
22.1688941923
30
0.0000000000
10
-4.5926580159
20
22.1599707620
30
0.0000000000
10
-4.5279834973
20
22.1509612119
30
0.0000000000
10
-4.4526104386
20
22.1415454364
30
0.0000000000
10
-4.3671758610
20
22.1320390243
30
0.0000000000
10
-4.2730472676
20
22.1225307904
30
0.0000000000
10
-4.1715269619
20
22.1131791985
30
0.0000000000
10
-4.0640840095
20
22.1041158916
30
0.0000000000
10
-3.9522546252
20
22.0954742299
30
0.0000000000
10
-3.8376428979
20
22.0873787099
30
0.0000000000
10
-3.7218912428
20
22.0799460457
30
0.0000000000
10
-3.6066603239
20
22.0732829181
30
0.0000000000
10
-3.4936031434
20
22.0674845312
30
0.0000000000
10
-3.3843398957
20
22.0626330758
30
0.0000000000
10
-3.2804389491
20
22.0587965784
30
0.0000000000
10
-3.1833866118
20
22.0560275950
30
0.0000000000
10
-3.1211294205
20
22.0548592816
30
0.0000000000
10
-3.0913811298
20
22.0544881170
30
0.0000000000
11
-4.7284722435
21
22.1955966790
31
0.0000000000
11
-4.7283780583
21
22.1928565876
31
0.0000000000
11
-4.7155416397
21
22.1858553826
31
0.0000000000
11
-4.6889761792
21
22.1781155141
31
0.0000000000
11
-4.6490625606
21
22.1697479689
31
0.0000000000
11
-4.5963734031
21
22.1608727861
31
0.0000000000
11
-4.5316643519
21
22.1516172346
31
0.0000000000
11
-4.4558632307
21
22.1421140188
31
0.0000000000
11
-4.3700570356
21
22.1324994156
31
0.0000000000
11
-4.2754762401
21
22.1229113001
31
0.0000000000
11
-4.1734768840
21
22.1134871443
31
0.0000000000
11
-4.0655214952
21
22.1043620853
31
0.0000000000
11
-3.9531587368
21
22.0956670284
31
0.0000000000
11
-3.8379999782
21
22.0875266635
31
0.0000000000
11
-3.7216947541
21
22.0800576073
31
0.0000000000
11
-3.6059110855
21
22.0733670097
31
0.0000000000
11
-3.4923136493
21
22.0675510535
31
0.0000000000
11
-3.3825293289
21
22.0626929948
31
0.0000000000
11
-3.2781275994
21
22.0588623339
31
0.0000000000
11
-3.1806181305
21
22.0561143918
31
0.0000000000
11
-3.0913811298
21
22.0544881170
31
0.0000000000
0
SPLINE
5
365
100
AcDbEntity
8
0
100
AcDbSpline
62
7
6
CONTINUOUS
70
0
71
3
72
26
73
22
74
20
42
0.0000001000
43
0.0000001000
44
0.0000000001
12
0.2425371978
22
-1.3488573300
32
0.0000000000
13
1.3861147573
23
-0.0296521327
33
0.0000000000
40
0.0000000000
40
0.0000000000
40
0.0000000000
40
0.0000000000
40
0.0026649334
40
0.0138218211
40
0.0337447810
40
0.0622272611
40
0.0989849060
40
0.1433265862
40
0.1947479506
40
0.2522495544
40
0.3151642249
40
0.3822722766
40
0.4527759852
40
0.5253321091
40
0.5990485716
40
0.6725631792
40
0.7449193083
40
0.8148544881
40
0.8813735982
40
0.9434094956
40
1.0000000000
40
1.0000000000
40
1.0000000000
40
1.0000000000
10
-2.4708171693
20
21.3740713905
30
0.0000000000
10
-2.4706017208
20
21.3728731855
30
0.0000000000
10
-2.4674878754
20
21.3660462181
30
0.0000000000
10
-2.4500591270
20
21.3645552783
30
0.0000000000
10
-2.4248642704
20
21.3560983788
30
0.0000000000
10
-2.3853830349
20
21.3500913165
30
0.0000000000
10
-2.3356021025
20
21.3420946439
30
0.0000000000
10
-2.2747798528
20
21.3342096776
30
0.0000000000
10
-2.2044705488
20
21.3258627380
30
0.0000000000
10
-2.1254946419
20
21.3174339221
30
0.0000000000
10
-2.0392457285
20
21.3089897078
30
0.0000000000
10
-1.9469452282
20
21.3006802882
30
0.0000000000
10
-1.8501503331
20
21.2926397393
30
0.0000000000
10
-1.7502604119
20
21.2849877429
30
0.0000000000
10
-1.6489374733
20
21.2778515063
30
0.0000000000
10
-1.5476653318
20
21.2713358028
30
0.0000000000
10
-1.4480994244
20
21.2655467121
30
0.0000000000
10
-1.3517266451
20
21.2605700382
30
0.0000000000
10
-1.2600857873
20
21.2564837711
30
0.0000000000
10
-1.1745784439
20
21.2533487046
30
0.0000000000
10
-1.1197753708
20
21.2518463827
30
0.0000000000
10
-1.0936283931
20
21.2512870397
30
0.0000000000
11
-2.4708171693
21
21.3740713905
31
0.0000000000
11
-2.4692513587
21
21.3704717071
31
0.0000000000
11
-2.4549611123
21
21.3645508901
31
0.0000000000
11
-2.4281520611
21
21.3578995676
31
0.0000000000
11
-2.3893351915
21
21.3506446914
31
0.0000000000
11
-2.3389693634
21
21.3428725727
31
0.0000000000
11
-2.2780336861
21
21.3347343762
31
0.0000000000
11
-2.2072391504
21
21.3263252019
31
0.0000000000
11
-2.1279731731
21
21.3178098509
31
0.0000000000
11
-2.0411635592
21
21.3092878844
31
0.0000000000
11
-1.9484994172
21
21.3009250757
31
0.0000000000
11
-1.8510873454
21
21.2928210633
31
0.0000000000
11
-1.7507876252
21
21.2851305614
31
0.0000000000
11
-1.6488374584
21
21.2779481616
31
0.0000000000
11
-1.5471245825
21
21.2714069092
31
0.0000000000
11
-1.4469764202
21
21.2655918553
31
0.0000000000
11
-1.3501443841
21
21.2606049933
31
0.0000000000
11
-1.2580108067
21
21.2565172367
31
0.0000000000
11
-1.1720589508
21
21.2533949813
31
0.0000000000
11
-1.0936283931
21
21.2512870397
31
0.0000000000
0
SPLINE
5
366
100
AcDbEntity
8
0
100
AcDbSpline
62
7
6
CONTINUOUS
70
0
71
3
72
26
73
22
74
20
42
0.0000001000
43
0.0000001000
44
0.0000000001
12
0.2425371978
22
-1.3488573300
32
0.0000000000
13
1.3861147573
23
-0.0296521327
33
0.0000000000
40
0.0000000000
40
0.0000000000
40
0.0000000000
40
0.0000000000
40
0.0026649334
40
0.0138218211
40
0.0337447810
40
0.0622272611
40
0.0989849060
40
0.1433265862
40
0.1947479506
40
0.2522495544
40
0.3151642249
40
0.3822722766
40
0.4527759852
40
0.5253321091
40
0.5990485716
40
0.6725631792
40
0.7449193083
40
0.8148544881
40
0.8813735982
40
0.9434094956
40
1.0000000000
40
1.0000000000
40
1.0000000000
40
1.0000000000
10
7.3461202620
20
20.2079879142
30
0.0000000000
10
7.3463357105
20
20.2067897092
30
0.0000000000
10
7.3494495558
20
20.1999627419
30
0.0000000000
10
7.3668783043
20
20.1984718020
30
0.0000000000
10
7.3920731609
20
20.1900149026
30
0.0000000000
10
7.4315543964
20
20.1840078403
30
0.0000000000
10
7.4813353287
20
20.1760111677
30
0.0000000000
10
7.5421575784
20
20.1681262013
30
0.0000000000
10
7.6124668824
20
20.1597792617
30
0.0000000000
10
7.6914427894
20
20.1513504458
30
0.0000000000
10
7.7776917028
20
20.1429062316
30
0.0000000000
10
7.8699922030
20
20.1345968119
30
0.0000000000
10
7.9667870982
20
20.1265562630
30
0.0000000000
10
8.0666770194
20
20.1189042666
30
0.0000000000
10
8.1679999579
20
20.1117680301
30
0.0000000000
10
8.2692720994
20
20.1052523265
30
0.0000000000
10
8.3688380068
20
20.0994632358
30
0.0000000000
10
8.4652107862
20
20.0944865620
30
0.0000000000
10
8.5568516440
20
20.0904002948
30
0.0000000000
10
8.6423589873
20
20.0872652284
30
0.0000000000
10
8.6971620604
20
20.0857629065
30
0.0000000000
10
8.7233090382
20
20.0852035634
30
0.0000000000
11
7.3461202620
21
20.2079879142
31
0.0000000000
11
7.3476860726
21
20.2043882309
31
0.0000000000
11
7.3619763189
21
20.1984674138
31
0.0000000000
11
7.3887853702
21
20.1918160913
31
0.0000000000
11
7.4276022397
21
20.1845612152
31
0.0000000000
11
7.4779680679
21
20.1767890964
31
0.0000000000
11
7.5389037452
21
20.1686508999
31
0.0000000000
11
7.6096982808
21
20.1602417256
31
0.0000000000
11
7.6889642582
21
20.1517263747
31
0.0000000000
11
7.7757738721
21
20.1432044081
31
0.0000000000
11
7.8684380141
21
20.1348415994
31
0.0000000000
11
7.9658500859
21
20.1267375870
31
0.0000000000
11
8.0661498061
21
20.1190470851
31
0.0000000000
11
8.1680999729
21
20.1118646853
31
0.0000000000
11
8.2698128487
21
20.1053234329
31
0.0000000000
11
8.3699610111
21
20.0995083790
31
0.0000000000
11
8.4667930472
21
20.0945215170
31
0.0000000000
11
8.5589266246
21
20.0904337605
31
0.0000000000
11
8.6448784805
21
20.0873115050
31
0.0000000000
11
8.7233090382
21
20.0852035634
31
0.0000000000
0
SPLINE
5
367
100
AcDbEntity
8
0
100
AcDbSpline
62
7
6
CONTINUOUS
70
0
71
3
72
16
73
12
74
10
42
0.0000001000
43
0.0000001000
44
0.0000000001
12
0.6831438953
22
-0.0223064110
32
0.0000000000
13
0.5786381307
23
0.3631479635
33
0.0000000000
40
0.0000000000
40
0.0000000000
40
0.0000000000
40
0.0000000000
40
0.0911531711
40
0.2139583028
40
0.3347186695
40
0.4533045972
40
0.5694261033
40
0.6826888250
40
0.7926079767
40
0.8985979942
40
1.0000000000
40
1.0000000000
40
1.0000000000
40
1.0000000000
10
8.9069738916
20
-25.7809780361
30
0.0000000000
10
8.9277308024
20
-25.7816558028
30
0.0000000000
10
8.9765733350
20
-25.7806608841
30
0.0000000000
10
9.0523402869
20
-25.7713137945
30
0.0000000000
10
9.1329941318
20
-25.7536385527
30
0.0000000000
10
9.2105839541
20
-25.7303505668
30
0.0000000000
10
9.2849169828
20
-25.7027695988
30
0.0000000000
10
9.3558020108
20
-25.6719396812
30
0.0000000000
10
9.4230361746
20
-25.6387392814
30
0.0000000000
10
9.4863911650
20
-25.6039522075
30
0.0000000000
10
9.5268673872
20
-25.5795943633
30
0.0000000000
10
9.5464257429
20
-25.5673197193
30
0.0000000000
11
8.9069738916
21
-25.7809780361
31
0.0000000000
11
8.9692732245
21
-25.7799041955
31
0.0000000000
11
9.0525769792
21
-25.7699637828
31
0.0000000000
11
9.1332083432
21
-25.7525144652
31
0.0000000000
11
9.2108428934
21
-25.7293653455
31
0.0000000000
11
9.2852510600
21
-25.7018611094
31
0.0000000000
11
9.3562326160
21
-25.6710611949
31
0.0000000000
11
9.4235818309
21
-25.6378521974
31
0.0000000000
11
9.4870637706
21
-25.6030257650
31
0.0000000000
11
9.5464257429
21
-25.5673197193
31
0.0000000000
0
SPLINE
5
368
100
AcDbEntity
8
0
100
AcDbSpline
62
7
6
CONTINUOUS
70
0
71
3
72
12
73
8
74
6
42
0.0000001000
43
0.0000001000
44
0.0000000001
12
-0.0134132825
22
-0.0723220937
32
0.0000000000
13
0.0705155295
23
-0.0083760332
33
0.0000000000
40
0.0000000000
40
0.0000000000
40
0.0000000000
40
0.0000000000
40
0.0125057454
40
0.1164933735
40
0.3188760916
40
0.6166462222
40
1.0000000000
40
1.0000000000
40
1.0000000000
40
1.0000000000
10
-11.0789986204
20
-20.1035997636
30
0.0000000000
10
-11.0790545347
20
-20.1039012442
30
0.0000000000
10
-11.0792109362
20
-20.1066780053
30
0.0000000000
10
-11.0681337357
20
-20.1068626533
30
0.0000000000
10
-11.0567361033
20
-20.1109265659
30
0.0000000000
10
-11.0347724864
20
-20.1134091368
30
0.0000000000
10
-11.0191633239
20
-20.1156255235
30
0.0000000000
10
-11.0101525257
20
-20.1166958515
30
0.0000000000
11
-11.0789986204
21
-20.1035997636
31
0.0000000000
11
-11.0790396757
21
-20.1044662005
31
0.0000000000
11
-11.0721120305
21
-20.1070226619
31
0.0000000000
11
-11.0580448278
21
-20.1099641554
31
0.0000000000
11
-11.0371529730
21
-20.1132264676
31
0.0000000000
11
-11.0101525257
21
-20.1166958515
31
0.0000000000
0
SPLINE
5
369
100
AcDbEntity
8
0
100
AcDbSpline
62
9
6
CONTINUOUS
70
0
71
3
72
12
73
8
74
6
42
0.0000001000
43
0.0000001000
44
0.0000000001
12
0.0071198165
22
-0.0425172027
32
0.0000000000
13
0.0706713901
23
-0.0083945468
33
0.0000000000
40
0.0000000000
40
0.0000000000
40
0.0000000000
40
0.0000000000
40
0.0443578153
40
0.1689367650
40
0.3730319417
40
0.6524380380
40
1.0000000000
40
1.0000000000
40
1.0000000000
40
1.0000000000
10
-11.3052434250
20
-23.4253206120
30
0.0000000000
10
-11.3051381519
20
-23.4259492687
30
0.0000000000
10
-11.3002404154
20
-23.4288473128
30
0.0000000000
10
-11.2927476235
20
-23.4298034571
30
0.0000000000
10
-11.2779400365
20
-23.4330601032
30
0.0000000000
10
-11.2587015380
20
-23.4356451453
30
0.0000000000
10
-11.2438659966
20
-23.4375850802
30
0.0000000000
10
-11.2356784342
20
-23.4385576219
30
0.0000000000
11
-11.3052434250
21
-23.4253206120
31
0.0000000000
11
-11.3026698704
21
-23.4273012034
31
0.0000000000
11
-11.2941434012
21
-23.4297315023
31
0.0000000000
11
-11.2798775255
21
-23.4324633461
31
0.0000000000
11
-11.2602154069
21
-23.4354311064
31
0.0000000000
11
-11.2356784342
21
-23.4385576219
31
0.0000000000
0
SPLINE
5
36A
100
AcDbEntity
8
0
100
AcDbSpline
62
9
6
CONTINUOUS
70
0
71
3
72
12
73
8
74
6
42
0.0000001000
43
0.0000001000
44
0.0000000001
12
0.0071198165
22
-0.0425172027
32
0.0000000000
13
0.0706713901
23
-0.0083945468
33
0.0000000000
40
0.0000000000
40
0.0000000000
40
0.0000000000
40
0.0000000000
40
0.0443578153
40
0.1689367650
40
0.3730319417
40
0.6524380380
40
1.0000000000
40
1.0000000000
40
1.0000000000
40
1.0000000000
10
-8.3103764734
20
20.6872786835
30
0.0000000000
10
-8.3102712003
20
20.6866500268
30
0.0000000000
10
-8.3053734638
20
20.6837519826
30
0.0000000000
10
-8.2978806719
20
20.6827958383
30
0.0000000000
10
-8.2830730849
20
20.6795391923
30
0.0000000000
10
-8.2638345865
20
20.6769541502
30
0.0000000000
10
-8.2489990450
20
20.6750142153
30
0.0000000000
10
-8.2408114827
20
20.6740416736
30
0.0000000000
11
-8.3103764734
21
20.6872786835
31
0.0000000000
11
-8.3078029188
21
20.6852980921
31
0.0000000000
11
-8.2992764496
21
20.6828677932
31
0.0000000000
11
-8.2850105739
21
20.6801359494
31
0.0000000000
11
-8.2653484554
21
20.6771681891
31
0.0000000000
11
-8.2408114827
21
20.6740416736
31
0.0000000000
0
SPLINE
5
36B
100
AcDbEntity
8
0
100
AcDbSpline
62
9
6
CONTINUOUS
70
0
71
3
72
8
73
4
74
2
42
0.0000001000
43
0.0000001000
44
0.0000000001
12
0.0137153913
22
-0.0000926276
32
0.0000000000
13
0.0135899558
23
-0.0015874931
33
0.0000000000
40
0.0000000000
40
0.0000000000
40
0.0000000000
40
0.0000000000
40
1.0000000000
40
1.0000000000
40
1.0000000000
40
1.0000000000
10
-8.0592965975
20
20.9203326879
30
0.0000000000
10
-8.0547248004
20
20.9203018120
30
0.0000000000
10
-8.0501575071
20
20.9200215079
30
0.0000000000
10
-8.0456275218
20
20.9194923436
30
0.0000000000
11
-8.0592965975
21
20.9203326879
31
0.0000000000
11
-8.0456275218
21
20.9194923436
31
0.0000000000
0
SPLINE
5
36C
100
AcDbEntity
8
0
100
AcDbSpline
62
7
6
CONTINUOUS
70
0
71
3
72
8
73
4
74
2
42
0.0000001000
43
0.0000001000
44
0.0000000001
12
-0.0054689190
22
-0.0050088766
32
0.0000000000
13
-0.0056894936
23
-0.0047576238
33
0.0000000000
40
0.0000000000
40
0.0000000000
40
0.0000000000
40
0.0000000000
40
1.0000000000
40
1.0000000000
40
1.0000000000
40
1.0000000000
10
7.0568471692
20
20.2162324773
30
0.0000000000
10
7.0550241962
20
20.2145628517
30
0.0000000000
10
7.0531642317
20
20.2129331926
30
0.0000000000
10
7.0512677338
20
20.2113473180
30
0.0000000000
11
7.0568471692
21
20.2162324773
31
0.0000000000
11
7.0512677338
21
20.2113473180
31
0.0000000000
0
SPLINE
5
36D
100
AcDbEntity
8
0
100
AcDbSpline
62
7
6
CONTINUOUS
70
0
71
3
72
8
73
4
74
2
42
0.0000001000
43
0.0000001000
44
0.0000000001
12
-0.0130018891
22
-0.0108723381
32
0.0000000000
13
-0.0141302257
23
-0.0093636918
33
0.0000000000
40
0.0000000000
40
0.0000000000
40
0.0000000000
40
0.0000000000
40
1.0000000000
40
1.0000000000
40
1.0000000000
40
1.0000000000
10
7.0512677338
20
20.2113473180
30
0.0000000000
10
7.0469337708
20
20.2077232053
30
0.0000000000
10
7.0424090179
20
20.2043277505
30
0.0000000000
10
7.0376989426
20
20.2012065199
30
0.0000000000
11
7.0512677338
21
20.2113473180
31
0.0000000000
11
7.0376989426
21
20.2012065199
31
0.0000000000
0
SPLINE
5
36E
100
AcDbEntity
8
0
100
AcDbSpline
62
7
6
CONTINUOUS
70
0
71
3
72
10
73
6
74
4
42
0.0000001000
43
0.0000001000
44
0.0000000001
12
-0.0555041789
22
-0.0367810135
32
0.0000000000
13
-0.0665336811
23
-0.0019555394
33
0.0000000000
40
0.0000000000
40
0.0000000000
40
0.0000000000
40
0.0000000000
40
0.3675949548
40
0.7201059575
40
1.0000000000
40
1.0000000000
40
1.0000000000
40
1.0000000000
10
7.0376989426
20
20.2012065199
30
0.0000000000
10
7.0308979239
20
20.1966996816
30
0.0000000000
10
7.0168180460
20
20.1889909570
30
0.0000000000
10
6.9955657263
20
20.1822072630
30
0.0000000000
10
6.9815479029
20
20.1805433936
30
0.0000000000
10
6.9753404426
20
20.1803609457
30
0.0000000000
11
7.0376989426
21
20.2012065199
31
0.0000000000
11
7.0162041517
21
20.1895653041
31
0.0000000000
11
6.9938429352
21
20.1825306290
31
0.0000000000
11
6.9753404426
21
20.1803609457
31
0.0000000000
0
SPLINE
5
36F
100
AcDbEntity
8
0
100
AcDbSpline
62
7
6
CONTINUOUS
70
0
71
3
72
16
73
12
74
10
42
0.0000001000
43
0.0000001000
44
0.0000000001
12
0.6801607591
22
0.3502466682
32
0.0000000000
13
0.0518205915
23
0.7632863244
33
0.0000000000
40
0.0000000000
40
0.0000000000
40
0.0000000000
40
0.0000000000
40
0.0968954282
40
0.1980317455
40
0.3031995388
40
0.4127300528
40
0.5255881789
40
0.6418282253
40
0.7600257359
40
0.8798580820
40
1.0000000000
40
1.0000000000
40
1.0000000000
40
1.0000000000
10
10.2953657639
20
-21.0997926888
30
0.0000000000
10
10.3173339198
20
-21.0884802552
30
0.0000000000
10
10.3604731671
20
-21.0618060411
30
0.0000000000
10
10.4200118368
20
-21.0121269778
30
0.0000000000
10
10.4747993446
20
-20.9528009920
30
0.0000000000
10
10.5238337477
20
-20.8849470755
30
0.0000000000
10
10.5663928257
20
-20.8096147522
30
0.0000000000
10
10.6016917854
20
-20.7282184881
30
0.0000000000
10
10.6291981939
20
-20.6420085570
30
0.0000000000
10
10.6484122188
20
-20.5525753890
30
0.0000000000
10
10.6554953164
20
-20.4916782821
30
0.0000000000
10
10.6575705915
20
-20.4611107211
30
0.0000000000
11
10.2953657639
21
-21.0997926888
31
0.0000000000
11
10.3585313343
21
-21.0609951373
31
0.0000000000
11
10.4180848536
21
-21.0115981405
31
0.0000000000
11
10.4728179553
21
-20.9526255599
31
0.0000000000
11
10.5220400008
21
-20.8848104282
31
0.0000000000
11
10.5646311897
21
-20.8097050248
31
0.0000000000
11
10.6001097700
21
-20.7281600660
31
0.0000000000
11
10.6276627617
21
-20.6420337945
31
0.0000000000
11
10.6469517805
21
-20.5524090443
31
0.0000000000
11
10.6575705915
21
-20.4611107211
31
0.0000000000
0
SPLINE
5
370
100
AcDbEntity
8
0
100
AcDbSpline
62
9
6
CONTINUOUS
70
0
71
3
72
27
73
23
74
21
42
0.0000001000
43
0.0000001000
44
0.0000000001
12
-1.6406562699
22
0.0509439015
32
0.0000000000
13
0.4618880281
23
1.5882288176
33
0.0000000000
40
0.0000000000
40
0.0000000000
40
0.0000000000
40
0.0000000000
40
0.0547329495
40
0.1144689072
40
0.1783665134
40
0.2455043995
40
0.3149250100
40
0.3856364934
40
0.4566242196
40
0.5268720138
40
0.5953757386
40
0.6611552765
40
0.7232695221
40
0.7808308478
40
0.8330177786
40
0.8790870733
40
0.9183855954
40
0.9503621175
40
0.9745813641
40
0.9907526107
40
0.9988704525
40
1.0000000000
40
1.0000000000
40
1.0000000000
40
1.0000000000
10
9.4413422353
20
-27.1151369474
30
0.0000000000
10
9.4114095831
20
-27.1142075107
30
0.0000000000
10
9.3488180385
20
-27.1119413786
30
0.0000000000
10
9.2513195318
20
-27.1076283668
30
0.0000000000
10
9.1470746982
20
-27.1022951640
30
0.0000000000
10
9.0375745866
20
-27.0960162882
30
0.0000000000
10
8.9243911616
20
-27.0888805179
30
0.0000000000
10
8.8091464683
20
-27.0809894210
30
0.0000000000
10
8.6934937131
20
-27.0724558977
30
0.0000000000
10
8.5790922915
20
-27.0634024477
30
0.0000000000
10
8.4675815584
20
-27.0539594489
30
0.0000000000
10
8.3605615681
20
-27.0442627828
30
0.0000000000
10
8.2595609358
20
-27.0344545177
30
0.0000000000
10
8.1660469659
20
-27.0246729090
30
0.0000000000
10
8.0812956364
20
-27.0150782095
30
0.0000000000
10
8.0067209367
20
-27.0057644703
30
0.0000000000
10
7.9427837500
20
-26.9970286585
30
0.0000000000
10
7.8921034246
20
-26.9885907745
30
0.0000000000
10
7.8509199562
20
-26.9817398120
30
0.0000000000
10
7.8298203579
20
-26.9741625434
30
0.0000000000
10
7.8101264798
20
-26.9708276350
30
0.0000000000
10
7.8108214183
20
-26.9660425432
30
0.0000000000
10
7.8109953265
20
-26.9654445499
30
0.0000000000
11
9.4413422353
21
-27.1151369474
31
0.0000000000
11
9.3515584083
21
-27.1119256999
31
0.0000000000
11
9.2535995790
21
-27.1076200312
31
0.0000000000
11
9.1488510296
21
-27.1022808387
31
0.0000000000
11
9.0388277147
21
-27.0959853181
31
0.0000000000
11
8.9251027449
21
-27.0888235099
31
0.0000000000
11
8.8093045001
21
-27.0808979369
31
0.0000000000
11
8.6930978881
21
-27.0723225373
31
0.0000000000
11
8.5781496735
21
-27.0632203347
31
0.0000000000
11
8.4661063472
21
-27.0537217194
31
0.0000000000
11
8.3585746343
21
-27.0439629006
31
0.0000000000
11
8.2570971286
21
-27.0340838750
31
0.0000000000
11
8.1631288938
21
-27.0242263022
31
0.0000000000
11
8.0780171830
21
-27.0145315166
31
0.0000000000
11
8.0029825063
21
-27.0051385424
31
0.0000000000
11
7.9391008758
21
-26.9961820765
31
0.0000000000
11
7.8872882549
21
-26.9877905360
31
0.0000000000
11
7.8482877135
21
-26.9800842551
31
0.0000000000
11
7.8226587779
21
-26.9731737868
31
0.0000000000
11
7.8107689143
21
-26.9671582272
31
0.0000000000
11
7.8109953265
21
-26.9654445499
31
0.0000000000
0
SPLINE
5
371
100
AcDbEntity
8
0
100
AcDbSpline
62
9
6
CONTINUOUS
70
0
71
3
72
27
73
23
74
21
42
0.0000001000
43
0.0000001000
44
0.0000000001
12
-1.6467447041
22
0.0499304726
32
0.0000000000
13
0.2687736307
23
1.6982622129
33
0.0000000000
40
0.0000000000
40
0.0000000000
40
0.0000000000
40
0.0000000000
40
0.0541369428
40
0.1133177826
40
0.1767090520
40
0.2433967366
40
0.3124297260
40
0.3828217257
40
0.4535626972
40
0.5236399917
40
0.5920518960
40
0.6578195846
40
0.7200020854
40
0.7777107367
40
0.8301218662
40
0.8764888768
40
0.9161541074
40
0.9485605490
40
0.9732654657
40
0.9899667839
40
0.9986231499
40
1.0000000000
40
1.0000000000
40
1.0000000000
40
1.0000000000
10
-6.3025755444
20
-25.2444853472
30
0.0000000000
10
-6.3322921191
20
-25.2435843194
30
0.0000000000
10
-6.3944842390
20
-25.2413726181
30
0.0000000000
10
-6.4914353510
20
-25.2371363945
30
0.0000000000
10
-6.5952381379
20
-25.2318751494
30
0.0000000000
10
-6.7044078682
20
-25.2256623125
30
0.0000000000
10
-6.8173773330
20
-25.2185856626
30
0.0000000000
10
-6.9325275507
20
-25.2107458859
30
0.0000000000
10
-7.0482066625
20
-25.2022551221
30
0.0000000000
10
-7.1627549107
20
-25.1932352144
30
0.0000000000
10
-7.2745307555
20
-25.1838160889
30
0.0000000000
10
-7.3819305830
20
-25.1741330387
30
0.0000000000
10
-7.4834194563
20
-25.1643286081
30
0.0000000000
10
-7.5775259060
20
-25.1545384593
30
0.0000000000
10
-7.6629562059
20
-25.1449308954
30
0.0000000000
10
-7.7383150258
20
-25.1355742637
30
0.0000000000
10
-7.8030461884
20
-25.1268435736
30
0.0000000000
10
-7.8547483865
20
-25.1182332877
30
0.0000000000
10
-7.8965946058
20
-25.1116280794
30
0.0000000000
10
-7.9191569168
20
-25.1032990387
30
0.0000000000
10
-7.9391130430
20
-25.1009074200
30
0.0000000000
10
-7.9390629794
20
-25.0952630864
30
0.0000000000
10
-7.9389396257
20
-25.0944836690
30
0.0000000000
11
-6.3025755444
21
-25.2444853472
31
0.0000000000
11
-6.3917113178
21
-25.2413558361
31
0.0000000000
11
-6.4891201326
21
-25.2371280011
31
0.0000000000
11
-6.5934244780
21
-25.2318616390
31
0.0000000000
11
-6.7031158327
21
-25.2256328918
31
0.0000000000
11
-6.8166258240
21
-25.2185308456
31
0.0000000000
11
-6.9323291540
21
-25.2106571670
31
0.0000000000
11
-7.0485622798
21
-25.2021250483
31
0.0000000000
11
-7.1636580493
21
-25.1930568927
31
0.0000000000
11
-7.2759678537
21
-25.1835826033
31
0.0000000000
11
-7.3838811455
21
-25.1738380404
31
0.0000000000
11
-7.4858498557
21
-25.1639629965
31
0.0000000000
11
-7.5804118758
21
-25.1540990743
31
0.0000000000
11
-7.6662114395
21
-25.1443876994
31
0.0000000000
11
-7.7420181738
21
-25.1349681337
31
0.0000000000
11
-7.8067449973
21
-25.1259754555
31
0.0000000000
11
-7.8594638307
21
-25.1175386009
31
0.0000000000
11
-7.8994186123
21
-25.1097785535
31
0.0000000000
11
-7.9260361290
21
-25.1028066377
31
0.0000000000
11
-7.9389347388
21
-25.0967228303
31
0.0000000000
11
-7.9389396257
21
-25.0944836690
31
0.0000000000
0
SPLINE
5
372
100
AcDbEntity
8
0
100
AcDbSpline
62
9
6
CONTINUOUS
70
0
71
3
72
8
73
4
74
2
42
0.0000001000
43
0.0000001000
44
0.0000000001
12
-0.0133727092
22
0.0015751643
32
0.0000000000
13
-0.0135037898
23
0.0000995924
33
0.0000000000
40
0.0000000000
40
0.0000000000
40
0.0000000000
40
0.0000000000
40
1.0000000000
40
1.0000000000
40
1.0000000000
40
1.0000000000
10
11.5026544977
20
20.5720951163
30
0.0000000000
10
11.4981969280
20
20.5726201711
30
0.0000000000
10
11.4937012655
20
20.5728990792
30
0.0000000000
10
11.4892000022
20
20.5729322767
30
0.0000000000
11
11.5026544977
21
20.5720951163
31
0.0000000000
11
11.4892000022
21
20.5729322767
31
0.0000000000
0
SPLINE
5
373
100
AcDbEntity
8
0
100
AcDbSpline
62
9
6
CONTINUOUS
70
0
71
3
72
8
73
4
74
2
42
0.0000001000
43
0.0000001000
44
0.0000000001
12
-0.0202547036
22
0.0001528041
32
0.0000000000
13
-0.0202511001
23
0.0000568229
33
0.0000000000
40
0.0000000000
40
0.0000000000
40
0.0000000000
40
0.0000000000
40
1.0000000000
40
1.0000000000
40
1.0000000000
40
1.0000000000
10
11.5026544977
20
20.5720951163
30
0.0000000000
10
11.4959029298
20
20.5721460510
30
0.0000000000
10
11.4891526943
20
20.5721811503
30
0.0000000000
10
11.4824023276
20
20.5722000913
30
0.0000000000
11
11.5026544977
21
20.5720951163
31
0.0000000000
11
11.4824023276
21
20.5722000913
31
0.0000000000
0
SPLINE
5
374
100
AcDbEntity
8
0
100
AcDbSpline
62
9
6
CONTINUOUS
70
0
71
3
72
33
73
29
74
27
42
0.0000001000
43
0.0000001000
44
0.0000000001
12
-1.4198392149
22
0.0039839479
32
0.0000000000
13
1.4200569377
23
-0.0146278363
33
0.0000000000
40
0.0000000000
40
0.0000000000
40
0.0000000000
40
0.0000000000
40
0.0266341053
40
0.0618801327
40
0.0909597269
40
0.1134771141
40
0.1291685526
40
0.1380010313
40
0.1414684442
40
0.1486820696
40
0.1626735686
40
0.1835299114
40
0.2110259169
40
0.2447977255
40
0.2843770844
40
0.3292061908
40
0.3786488212
40
0.4320009867
40
0.4885015468
40
0.5473432007
40
0.6076849534
40
0.6686650985
40
0.7294116230
40
0.7890537305
40
0.8467400253
40
0.9016488151
40
0.9529899034
40
1.0000000000
40
1.0000000000
40
1.0000000000
40
1.0000000000
10
11.4824023276
20
20.5722000913
30
0.0000000000
10
11.4697969452
20
20.5722354609
30
0.0000000000
10
11.4405092697
20
20.5721867280
30
0.0000000000
10
11.3973790703
20
20.5716513308
30
0.0000000000
10
11.3565278565
20
20.5698238322
30
0.0000000000
10
11.3241491140
20
20.5683353441
30
0.0000000000
10
11.3033481069
20
20.5637919592
30
0.0000000000
10
11.2882438955
20
20.5633541286
30
0.0000000000
10
11.2841640232
20
20.5528413287
30
0.0000000000
10
11.2994024688
20
20.5488593029
30
0.0000000000
10
11.3157950550
20
20.5429573633
30
0.0000000000
10
11.3460541081
20
20.5371974871
30
0.0000000000
10
11.3838451791
20
20.5306285970
30
0.0000000000
10
11.4313038083
20
20.5238873323
30
0.0000000000
10
11.4867452595
20
20.5169008235
30
0.0000000000
10
11.5497366272
20
20.5098474278
30
0.0000000000
10
11.6192578126
20
20.5028121082
30
0.0000000000
10
11.6943507113
20
20.4959065199
30
0.0000000000
10
11.7739273918
20
20.4892298101
30
0.0000000000
10
11.8568502909
20
20.4828798092
30
0.0000000000
10
11.9419297176
20
20.4769482234
30
0.0000000000
10
12.0279463557
20
20.4715205797
30
0.0000000000
10
12.1136660024
20
20.4666748239
30
0.0000000000
10
12.1978588869
20
20.4624802117
30
0.0000000000
10
12.2793183275
20
20.4589961816
30
0.0000000000
10
12.3568750331
20
20.4562716043
30
0.0000000000
10
12.4294001450
20
20.4543441320
30
0.0000000000
10
12.4759520602
20
20.4535688508
30
0.0000000000
10
12.4982043982
20
20.4533396322
30
0.0000000000
11
11.4824023276
21
20.5722000913
31
0.0000000000
11
11.4445752789
21
20.5721350619
31
0.0000000000
11
11.3945278568
21
20.5713223046
31
0.0000000000
11
11.3532641313
21
20.5696680831
31
0.0000000000
11
11.3213821421
21
20.5671962351
31
0.0000000000
11
11.2993370978
21
20.5639421547
31
0.0000000000
11
11.2874452533
21
20.5599524040
31
0.0000000000
11
11.2858778492
21
20.5552843378
31
0.0000000000
11
11.2946570131
21
20.5500049428
31
0.0000000000
11
11.3136568273
21
20.5441898601
31
0.0000000000
11
11.3426049063
21
20.5379224845
31
0.0000000000
11
11.3810859409
21
20.5312927380
31
0.0000000000
11
11.4285478682
21
20.5243957231
31
0.0000000000
11
11.4843099643
21
20.5173303515
31
0.0000000000
11
11.5475724312
21
20.5101979563
31
0.0000000000
11
11.6174279078
21
20.5031008314
31
0.0000000000
11
11.6928746808
21
20.4961407467
31
0.0000000000
11
11.7728307812
21
20.4894175178
31
0.0000000000
11
11.8561490420
21
20.4830276045
31
0.0000000000
11
11.9416344556
21
20.4770626490
31
0.0000000000
11
12.0280623786
21
20.4716081117
31
0.0000000000
11
12.1141931425
21
20.4667422492
31
0.0000000000
11
12.1987882681
21
20.4625350173
31
0.0000000000
11
12.2806361333
21
20.4590466415
31
0.0000000000
11
12.3585664383
21
20.4563270426
31
0.0000000000
11
12.4314525116
21
20.4544154592
31
0.0000000000
11
12.4982043982
21
20.4533396322
31
0.0000000000
0
SPLINE
5
375
100
AcDbEntity
8
0
100
AcDbSpline
62
9
6
CONTINUOUS
70
0
71
3
72
16
73
12
74
10
42
0.0000001000
43
0.0000001000
44
0.0000000001
12
0.3361859429
22
-0.0406196108
32
0.0000000000
13
-0.0207795333
23
-0.3379928283
33
0.0000000000
40
0.0000000000
40
0.0000000000
40
0.0000000000
40
0.0000000000
40
0.0889902805
40
0.1820307726
40
0.2810851352
40
0.3871306878
40
0.5002027677
40
0.6195552189
40
0.7438482889
40
0.8713293105
40
1.0000000000
40
1.0000000000
40
1.0000000000
40
1.0000000000
10
12.4982043982
20
20.4533396322
30
0.0000000000
10
12.5081768253
20
20.4521347153
30
0.0000000000
10
12.5283317133
20
20.4469896123
30
0.0000000000
10
12.5565302723
20
20.4318839473
30
0.0000000000
10
12.5823121981
20
20.4099008718
30
0.0000000000
10
12.6049518724
20
20.3817895353
30
0.0000000000
10
12.6238516246
20
20.3484149734
30
0.0000000000
10
12.6384920974
20
20.3107705581
30
0.0000000000
10
12.6484626018
20
20.2699661976
30
0.0000000000
10
12.6534780537
20
20.2272171344
30
0.0000000000
10
12.6534204354
20
20.1982233214
30
0.0000000000
10
12.6525291964
20
20.1837267314
30
0.0000000000
11
12.4982043982
21
20.4533396322
31
0.0000000000
11
12.5274307207
21
20.4459957763
31
0.0000000000
11
12.5553030694
21
20.4313061547
31
0.0000000000
11
12.5809747210
21
20.4097170178
31
0.0000000000
11
12.6036658061
21
20.3818842137
31
0.0000000000
11
12.6226870010
21
20.3486532646
31
0.0000000000
11
12.6374604680
21
20.3110336806
31
0.0000000000
11
12.6475374097
21
20.2701682927
31
0.0000000000
11
12.6526117025
21
20.2272985350
31
0.0000000000
11
12.6525291964
21
20.1837267314
31
0.0000000000
0
SPLINE
5
376
100
AcDbEntity
8
0
100
AcDbSpline
62
9
6
CONTINUOUS
70
0
71
3
72
8
73
4
74
2
42
0.0000001000
43
0.0000001000
44
0.0000000001
12
-0.0136092142
22
0.0015897427
32
0.0000000000
13
-0.0137406354
23
0.0000885223
33
0.0000000000
40
0.0000000000
40
0.0000000000
40
0.0000000000
40
0.0000000000
40
1.0000000000
40
1.0000000000
40
1.0000000000
40
1.0000000000
10
-4.2519336391
20
22.4429682029
30
0.0000000000
10
-4.2564700438
20
22.4434981172
30
0.0000000000
10
-4.2610448728
20
22.4437776393
30
0.0000000000
10
-4.2656250846
20
22.4438071467
30
0.0000000000
11
-4.2519336391
21
22.4429682029
31
0.0000000000
11
-4.2656250846
21
22.4438071467
31
0.0000000000
0
SPLINE
5
377
100
AcDbEntity
8
0
100
AcDbSpline
62
9
6
CONTINUOUS
70
0
71
3
72
8
73
4
74
2
42
0.0000001000
43
0.0000001000
44
0.0000000001
12
-0.0200754814
22
0.0001324156
32
0.0000000000
13
-0.0200698916
23
0.0000357202
33
0.0000000000
40
0.0000000000
40
0.0000000000
40
0.0000000000
40
0.0000000000
40
1.0000000000
40
1.0000000000
40
1.0000000000
40
1.0000000000
10
-4.2519336391
20
22.4429682029
30
0.0000000000
10
-4.2586254662
20
22.4430123415
30
0.0000000000
10
-4.2653152823
20
22.4430405773
30
0.0000000000
10
-4.2720052462
20
22.4430524840
30
0.0000000000
11
-4.2519336391
21
22.4429682029
31
0.0000000000
11
-4.2720052462
21
22.4430524840
31
0.0000000000
0
SPLINE
5
378
100
AcDbEntity
8
0
100
AcDbSpline
62
9
6
CONTINUOUS
70
0
71
3
72
33
73
29
74
27
42
0.0000001000
43
0.0000001000
44
0.0000000001
12
-1.4199644624
22
0.0025272360
32
0.0000000000
13
1.4203281031
23
-0.0133500150
33
0.0000000000
40
0.0000000000
40
0.0000000000
40
0.0000000000
40
0.0000000000
40
0.0263608755
40
0.0611667601
40
0.0897752255
40
0.1117986395
40
0.1269845610
40
0.1353302132
40
0.1386986675
40
0.1463827761
40
0.1608747476
40
0.1822203481
40
0.2101819475
40
0.2443874135
40
0.2843616402
40
0.3295408591
40
0.3792836629
40
0.4328816637
40
0.4895701372
40
0.5485390502
40
0.6089455610
40
0.6699270226
40
0.7306113978
40
0.7901287901
40
0.8476296090
40
0.9022948372
40
0.9533378549
40
1.0000000000
40
1.0000000000
40
1.0000000000
40
1.0000000000
10
-4.2720052462
20
22.4430524840
30
0.0000000000
10
-4.2844824150
20
22.4430746908
30
0.0000000000
10
-4.3134351492
20
22.4429944219
30
0.0000000000
10
-4.3560441727
20
22.4424058982
30
0.0000000000
10
-4.3961336253
20
22.4405313853
30
0.0000000000
10
-4.4280675883
20
22.4389641440
30
0.0000000000
10
-4.4476395275
20
22.4344726054
30
0.0000000000
10
-4.4630315985
20
22.4337938471
30
0.0000000000
10
-4.4651263502
20
22.4228894648
30
0.0000000000
10
-4.4497701962
20
22.4196165369
30
0.0000000000
10
-4.4324347895
20
22.4132413530
30
0.0000000000
10
-4.4016107843
20
22.4076378232
30
0.0000000000
10
-4.3630912331
20
22.4009646434
30
0.0000000000
10
-4.3150303738
20
22.3942331050
30
0.0000000000
10
-4.2590095408
20
22.3872274364
30
0.0000000000
10
-4.1955115452
20
22.3801751676
30
0.0000000000
10
-4.1255497322
20
22.3731447493
30
0.0000000000
10
-4.0500931524
20
22.3662527656
30
0.0000000000
10
-3.9702335503
20
22.3595965305
30
0.0000000000
10
-3.8871129911
20
22.3532739934
30
0.0000000000
10
-3.8019238828
20
22.3473762992
30
0.0000000000
10
-3.7158871568
20
22.3419884994
30
0.0000000000
10
-3.6302372970
20
22.3371879330
30
0.0000000000
10
-3.5462030763
20
22.3330431839
30
0.0000000000
10
-3.4649889035
20
22.3296129444
30
0.0000000000
10
-3.3877605344
20
22.3269452665
30
0.0000000000
10
-3.3156419744
20
22.3250769158
30
0.0000000000
10
-3.2693867859
20
22.3243432980
30
0.0000000000
10
-3.2472949339
20
22.3241356512
30
0.0000000000
11
-4.2720052462
21
22.4430524840
31
0.0000000000
11
-4.3094522989
21
22.4429459376
31
0.0000000000
11
-4.3588825224
21
22.4420713684
31
0.0000000000
11
-4.3994815299
21
22.4403566531
31
0.0000000000
11
-4.4306608956
21
22.4378265051
31
0.0000000000
11
-4.4519754601
21
22.4345171520
31
0.0000000000
11
-4.4631194300
21
22.4304759474
31
0.0000000000
11
-4.4639323192
21
22.4257609863
31
0.0000000000
11
-4.4544028238
21
22.4204399277
31
0.0000000000
11
-4.4346676100
21
22.4145890094
31
0.0000000000
11
-4.4050096096
21
22.4082921402
31
0.0000000000
11
-4.3658543165
21
22.4016396650
31
0.0000000000
11
-4.3177634634
21
22.3947270123
31
0.0000000000
11
-4.2614267916
21
22.3876533178
31
0.0000000000
11
-4.1976523380
21
22.3805200340
31
0.0000000000
11
-4.1273548054
21
22.3734294675
31
0.0000000000
11
-4.0515422454
21
22.3664832941
31
0.0000000000
11
-3.9713018731
21
22.3597811302
31
0.0000000000
11
-3.8877849347
21
22.3534191333
31
0.0000000000
11
-3.8021892877
21
22.3474885453
31
0.0000000000
11
-3.7157411570
21
22.3420743346
31
0.0000000000
11
-3.6296805062
21
22.3372541796
31
0.0000000000
11
-3.5452448058
21
22.3330973788
31
0.0000000000
11
-3.4636433907
21
22.3296634350
31
0.0000000000
11
-3.3860430444
21
22.3270014913
31
0.0000000000
11
-3.3135656557
21
22.3251499518
31
0.0000000000
11
-3.2472949339
21
22.3241356512
31
0.0000000000
0
SPLINE
5
379
100
AcDbEntity
8
0
100
AcDbSpline
62
9
6
CONTINUOUS
70
0
71
3
72
16
73
12
74
10
42
0.0000001000
43
0.0000001000
44
0.0000000001
12
0.3372830663
22
-0.0404046169
32
0.0000000000
13
-0.0208622794
23
-0.3390533368
33
0.0000000000
40
0.0000000000
40
0.0000000000
40
0.0000000000
40
0.0000000000
40
0.0895064934
40
0.1829620826
40
0.2822836469
40
0.3884321707
40
0.5014497829
40
0.6206119544
40
0.7446094498
40
0.8717253340
40
1.0000000000
40
1.0000000000
40
1.0000000000
40
1.0000000000
10
-3.2472949339
20
22.3241356512
30
0.0000000000
10
-3.2372319257
20
22.3229301593
30
0.0000000000
10
-3.2169027992
20
22.3177896762
30
0.0000000000
10
-3.1884358313
20
22.3026893467
30
0.0000000000
10
-3.1623972869
20
22.2807072671
30
0.0000000000
10
-3.1395242763
20
22.2525919606
30
0.0000000000
10
-3.1204236855
20
22.2192101198
30
0.0000000000
10
-3.1056213887
20
22.1815568662
30
0.0000000000
10
-3.0955327924
20
22.1407432646
30
0.0000000000
10
-3.0904462350
20
22.0979854287
30
0.0000000000
10
-3.0904890959
20
22.0689854348
30
0.0000000000
10
-3.0913811298
20
22.0544881170
30
0.0000000000
11
-3.2472949339
21
22.3241356512
31
0.0000000000
11
-3.2177911029
21
22.3167885391
31
0.0000000000
11
-3.1896498078
21
22.3020950497
31
0.0000000000
11
-3.1637260248
21
22.2805015942
31
0.0000000000
11
-3.1408073589
21
22.2526642152
31
0.0000000000
11
-3.1215901147
21
22.2194286557
31
0.0000000000
11
-3.1066581420
21
22.1818046636
31
0.0000000000
11
-3.0964650973
21
22.1409353143
31
0.0000000000
11
-3.0913206613
21
22.0980622823
31
0.0000000000
11
-3.0913811298
21
22.0544881170
31
0.0000000000
0
SPLINE
5
37A
100
AcDbEntity
8
0
100
AcDbSpline
62
7
6
CONTINUOUS
70
0
71
3
72
27
73
23
74
21
42
0.0000001000
43
0.0000001000
44
0.0000000001
12
-1.6486143521
22
0.0154904754
32
0.0000000000
13
-0.1432987283
23
1.7493845545
33
0.0000000000
40
0.0000000000
40
0.0000000000
40
0.0000000000
40
0.0000000000
40
0.0538109135
40
0.1126076327
40
0.1755483918
40
0.2417547247
40
0.3102994640
40
0.3801955844
40
0.4504872494
40
0.5201455372
40
0.5882183018
40
0.6537201857
40
0.7157337873
40
0.7733900316
40
0.8258587829
40
0.8724278372
40
0.9124250201
40
0.9453195073
40
0.9706665952
40
0.9881816714
40
0.9978607612
40
1.0000000000
40
1.0000000000
40
1.0000000000
40
1.0000000000
10
-3.1795516170
20
20.7557895662
30
0.0000000000
10
-3.2091227651
20
20.7560674184
30
0.0000000000
10
-3.2710014778
20
20.7570469559
30
0.0000000000
10
-3.3674453250
20
20.7595379619
30
0.0000000000
10
-3.4706721714
20
20.7630919616
30
0.0000000000
10
-3.5792210101
20
20.7676607789
30
0.0000000000
10
-3.6915527153
20
20.7731813061
30
0.0000000000
10
-3.8060866625
20
20.7795767570
30
0.0000000000
10
-3.9211872919
20
20.7867562629
30
0.0000000000
10
-4.0352388496
20
20.7946191073
30
0.0000000000
10
-4.1466101706
20
20.8030521521
30
0.0000000000
10
-4.2537310904
20
20.8119362807
30
0.0000000000
10
-4.3550793934
20
20.8211407684
30
0.0000000000
10
-4.4492108111
20
20.8305406652
30
0.0000000000
10
-4.5348167470
20
20.8399706125
30
0.0000000000
10
-4.6106198789
20
20.8493777969
30
0.0000000000
10
-4.6757362740
20
20.8583456487
30
0.0000000000
10
-4.7287486818
20
20.8675009119
30
0.0000000000
10
-4.7702739128
20
20.8745929851
30
0.0000000000
10
-4.7967393879
20
20.8842765201
30
0.0000000000
10
-4.8140942730
20
20.8867106429
30
0.0000000000
10
-4.8171569756
20
20.8943133317
30
0.0000000000
10
-4.8172591590
20
20.8955607822
30
0.0000000000
11
-3.1795516170
21
20.7557895662
31
0.0000000000
11
-3.2682586257
21
20.7571447871
31
0.0000000000
11
-3.3651645868
21
20.7596131968
31
0.0000000000
11
-3.4688736059
21
20.7631590710
31
0.0000000000
11
-3.5779312829
21
20.7677324606
31
0.0000000000
11
-3.6908043982
21
20.7732691871
31
0.0000000000
11
-3.8058622598
21
20.7796891808
31
0.0000000000
11
-3.9215263901
21
20.7869044940
31
0.0000000000
11
-4.0360987464
21
20.7948092639
31
0.0000000000
11
-4.1480081672
21
20.8032951021
31
0.0000000000
11
-4.2556292835
21
20.8122389124
31
0.0000000000
11
-4.3574486611
21
20.8215147874
31
0.0000000000
11
-4.4520321291
21
20.8309921958
31
0.0000000000
11
-4.5380088700
21
20.8405335806
31
0.0000000000
11
-4.6141998459
21
20.8500080629
31
0.0000000000
11
-4.6794880676
21
20.8592766289
31
0.0000000000
11
-4.7329796034
21
20.8682121338
31
0.0000000000
11
-4.7739009551
21
20.8766855268
31
0.0000000000
11
-4.8016784245
21
20.8845777018
31
0.0000000000
11
-4.8159194647
21
20.8917779699
31
0.0000000000
11
-4.8172591590
21
20.8955607822
31
0.0000000000
0
SPLINE
5
37B
100
AcDbEntity
8
0
100
AcDbSpline
62
7
6
CONTINUOUS
70
0
71
3
72
21
73
17
74
15
42
0.0000001000
43
0.0000001000
44
0.0000000001
12
-0.9943709635
22
0.0602432713
32
0.0000000000
13
0.2683134769
23
0.9558426841
33
0.0000000000
40
0.0000000000
40
0.0000000000
40
0.0000000000
40
0.0000000000
40
0.1162314927
40
0.2310752301
40
0.3428843316
40
0.4500997048
40
0.5512189124
40
0.6447902632
40
0.7295378705
40
0.8042302833
40
0.8678618245
40
0.9195381822
40
0.9585940545
40
0.9846256678
40
0.9978477073
40
1.0000000000
40
1.0000000000
40
1.0000000000
40
1.0000000000
10
11.9180588337
20
18.9104144707
30
0.0000000000
10
11.8795330932
20
18.9127485258
30
0.0000000000
10
11.8029564455
20
18.9176381183
30
0.0000000000
10
11.6893774181
20
18.9256396638
30
0.0000000000
10
11.5788402048
20
18.9341848382
30
0.0000000000
10
11.4729104058
20
18.9431515205
30
0.0000000000
10
11.3730825061
20
18.9524103540
30
0.0000000000
10
11.2807780798
20
18.9618293397
30
0.0000000000
10
11.1972612549
20
18.9712641007
30
0.0000000000
10
11.1238661093
20
18.9805894062
30
0.0000000000
10
11.0611465089
20
18.9896100579
30
0.0000000000
10
11.0113599719
20
18.9983022021
30
0.0000000000
10
10.9715660027
20
19.0061366382
30
0.0000000000
10
10.9503053229
20
19.0136406911
30
0.0000000000
10
10.9322894556
20
19.0189573384
30
0.0000000000
10
10.9328875705
20
19.0237431475
30
0.0000000000
10
10.9330800668
20
19.0244288986
30
0.0000000000
11
11.9180588337
21
18.9104144707
31
0.0000000000
11
11.8025051372
21
18.9177946919
31
0.0000000000
11
11.6883818391
21
18.9258419015
31
0.0000000000
11
11.5773306311
21
18.9344401878
31
0.0000000000
11
11.4709056038
21
18.9434690126
31
0.0000000000
11
11.3706044641
21
18.9528014349
31
0.0000000000
11
11.2778747148
21
18.9623026885
31
0.0000000000
11
11.1939903485
21
18.9718424062
31
0.0000000000
11
11.1201832150
21
18.9812806000
31
0.0000000000
11
11.0574660731
21
18.9904878011
31
0.0000000000
11
11.0067515018
21
18.9993303381
31
0.0000000000
11
10.9687516015
21
19.0076838023
31
0.0000000000
11
10.9440031802
21
19.0154305675
31
0.0000000000
11
10.9328629278
21
19.0224582953
31
0.0000000000
11
10.9330800668
21
19.0244288986
31
0.0000000000
0
SPLINE
5
37C
100
AcDbEntity
8
0
100
AcDbSpline
62
7
6
CONTINUOUS
70
0
71
3
72
16
73
12
74
10
42
0.0000001000
43
0.0000001000
44
0.0000000001
12
-0.5601606771
22
0.4115818553
32
0.0000000000
13
-0.6938390326
23
0.0420357539
33
0.0000000000
40
0.0000000000
40
0.0000000000
40
0.0000000000
40
0.0000000000
40
0.0958755311
40
0.1967757637
40
0.3020652728
40
0.4111720537
40
0.5236134024
40
0.6389832763
40
0.7569589306
40
0.8773412461
40
1.0000000000
40
1.0000000000
40
1.0000000000
40
1.0000000000
10
12.5474456888
20
18.6359095033
30
0.0000000000
10
12.5295437880
20
18.6490630463
30
0.0000000000
10
12.4923850193
20
18.6754980377
30
0.0000000000
10
12.4340223509
20
18.7141543327
30
0.0000000000
10
12.3716307303
20
18.7521965946
30
0.0000000000
10
12.3053332358
20
18.7888506877
30
0.0000000000
10
12.2352161535
20
18.8232519250
30
0.0000000000
10
12.1613330135
20
18.8543758317
30
0.0000000000
10
12.0837057972
20
18.8809298879
30
0.0000000000
10
12.0024255208
20
18.9011627288
30
0.0000000000
10
11.9464273107
20
18.9086957863
30
0.0000000000
10
11.9180588337
20
18.9104144707
30
0.0000000000
11
12.5474456888
21
18.6359095033
31
0.0000000000
11
12.4931295503
21
18.6745255726
31
0.0000000000
11
12.4346398131
21
18.7132312971
31
0.0000000000
11
12.3721294778
21
18.7512961035
31
0.0000000000
11
12.3057265838
21
18.7879371414
31
0.0000000000
11
12.2355174102
21
18.8222815618
31
0.0000000000
11
12.1615596333
21
18.8532891129
31
0.0000000000
11
12.0839018121
21
18.8796383027
31
0.0000000000
11
12.0026241850
21
18.8995415384
31
0.0000000000
11
11.9180588337
21
18.9104144707
31
0.0000000000
0
SPLINE
5
37D
100
AcDbEntity
8
0
100
AcDbSpline
62
7
6
CONTINUOUS
70
0
71
3
72
16
73
12
74
10
42
0.0000001000
43
0.0000001000
44
0.0000000001
12
0.0502918125
22
0.7407683245
32
0.0000000000
13
-0.6362364621
23
0.3827141771
33
0.0000000000
40
0.0000000000
40
0.0000000000
40
0.0000000000
40
0.0000000000
40
0.1232525919
40
0.2451255018
40
0.3643335340
40
0.4806553467
40
0.5928182865
40
0.7010820377
40
0.8046850503
40
0.9042722293
40
1.0000000000
40
1.0000000000
40
1.0000000000
40
1.0000000000
10
12.9629544789
20
13.4958153426
30
0.0000000000
10
12.9650206776
20
13.5262492146
30
0.0000000000
10
12.9662358136
20
13.5870148962
30
0.0000000000
10
12.9592415533
20
13.6770536421
30
0.0000000000
10
12.9435368822
20
13.7642623063
30
0.0000000000
10
12.9193996262
20
13.8470353336
30
0.0000000000
10
12.8871839762
20
13.9241022725
30
0.0000000000
10
12.8474723543
20
13.9940159580
30
0.0000000000
10
12.8008320763
20
14.0556912171
30
0.0000000000
10
12.7481073340
20
14.1079515201
30
0.0000000000
10
12.7087330183
20
14.1364178185
30
0.0000000000
10
12.6884311856
20
14.1486299435
30
0.0000000000
11
12.9629544789
21
13.4958153426
31
0.0000000000
11
12.9647457155
21
13.5873096001
31
0.0000000000
11
12.9576659347
21
13.6775196245
31
0.0000000000
11
12.9418727309
21
13.7646079956
31
0.0000000000
11
12.9175566609
21
13.8474801391
31
0.0000000000
11
12.8852763206
21
13.9242473694
31
0.0000000000
11
12.8453966732
21
13.9940401764
31
0.0000000000
11
12.7988236938
21
14.0552613176
31
0.0000000000
11
12.7461465591
21
14.1071493535
31
0.0000000000
11
12.6884311856
21
14.1486299435
31
0.0000000000
0
SPLINE
5
37E
100
AcDbEntity
8
0
100
AcDbSpline
62
7
6
CONTINUOUS
70
0
71
3
72
13
73
9
74
7
42
0.0000001000
43
0.0000001000
44
0.0000000001
12
-3.0216771047
22
1.8176240052
32
0.0000000000
13
-3.5025035277
23
0.4160441996
33
0.0000000000
40
0.0000000000
40
0.0000000000
40
0.0000000000
40
0.0000000000
40
0.1780167982
40
0.3540572162
40
0.5283759197
40
0.7015718496
40
0.8738874157
40
1.0000000000
40
1.0000000000
40
1.0000000000
40
1.0000000000
10
12.6884311856
20
14.1486299435
30
0.0000000000
10
12.5091280911
20
14.2564858120
30
0.0000000000
10
12.1449128290
20
14.4586748951
30
0.0000000000
10
11.5812207052
20
14.7206127340
30
0.0000000000
10
11.0051193766
20
14.9385869927
30
0.0000000000
10
10.4185857705
20
15.1118276126
30
0.0000000000
10
9.8760979593
20
15.2284777808
30
0.0000000000
10
9.5288522277
20
15.2795563574
30
0.0000000000
10
9.3816156372
20
15.2970458271
30
0.0000000000
11
12.6884311856
21
14.1486299435
31
0.0000000000
11
12.1394652318
21
14.4530618309
31
0.0000000000
11
11.5764185151
21
14.7144425354
31
0.0000000000
11
11.0014396530
21
14.9317906288
31
0.0000000000
11
10.4156878997
21
15.1046609700
31
0.0000000000
11
9.8216267020
21
15.2323259799
31
0.0000000000
11
9.3816156372
21
15.2970458271
31
0.0000000000
0
SPLINE
5
37F
100
AcDbEntity
8
0
100
AcDbSpline
62
7
6
CONTINUOUS
70
0
71
3
72
20
73
16
74
14
42
0.0000001000
43
0.0000001000
44
0.0000000001
12
0.0255729581
22
-1.2350278232
32
0.0000000000
13
-1.2369865426
23
0.0253447656
33
0.0000000000
40
0.0000000000
40
0.0000000000
40
0.0000000000
40
0.0000000000
40
0.0973662698
40
0.1928765381
40
0.2857099475
40
0.3755257880
40
0.4615996571
40
0.5440039799
40
0.6223286163
40
0.6971124142
40
0.7684459091
40
0.8373299261
40
0.9044203438
40
0.9710021821
40
1.0000000000
40
1.0000000000
40
1.0000000000
40
1.0000000000
10
9.3594785779
20
-17.2750735888
30
0.0000000000
10
9.3603085591
20
-17.3151569396
30
0.0000000000
10
9.3586547885
20
-17.3946715778
30
0.0000000000
10
9.3460789474
20
-17.5117888085
30
0.0000000000
10
9.3236126059
20
-17.6242689955
30
0.0000000000
10
9.2916081341
20
-17.7303796374
30
0.0000000000
10
9.2505049904
20
-17.8286931810
30
0.0000000000
10
9.2009473262
20
-17.9176828215
30
0.0000000000
10
9.1435698581
20
-17.9961948139
30
0.0000000000
10
9.0792540156
20
-18.0629930823
30
0.0000000000
10
9.0088009088
20
-18.1171851448
30
0.0000000000
10
8.9333051353
20
-18.1578672330
30
0.0000000000
10
8.8537839873
20
-18.1844227347
30
0.0000000000
10
8.7871626053
20
-18.1941210934
30
0.0000000000
10
8.7477134028
20
-18.1947989426
30
0.0000000000
10
8.7357567660
20
-18.1945539616
30
0.0000000000
11
9.3594785779
21
-17.2750735888
31
0.0000000000
11
9.3568968502
21
-17.3953217055
31
0.0000000000
11
9.3441810948
21
-17.5126176005
31
0.0000000000
11
9.3215603146
21
-17.6250408255
31
0.0000000000
11
9.2893263414
21
-17.7312039825
31
0.0000000000
11
9.2480888346
21
-17.8292079287
31
0.0000000000
11
9.1983186820
21
-17.9180045371
31
0.0000000000
11
9.1409870483
21
-17.9959429064
31
0.0000000000
11
9.0766911354
21
-18.0622759732
31
0.0000000000
11
9.0066742032
21
-18.1157770431
31
0.0000000000
11
8.9316603500
21
-18.1559461301
31
0.0000000000
11
8.8530131945
21
-18.1820824073
31
0.0000000000
11
8.7716222717
21
-18.1939255188
31
0.0000000000
11
8.7357567660
21
-18.1945539616
31
0.0000000000
0
SPLINE
5
380
100
AcDbEntity
8
0
100
AcDbSpline
62
7
6
CONTINUOUS
70
0
71
3
72
14
73
10
74
8
42
0.0000001000
43
0.0000001000
44
0.0000000001
12
4.3891959761
22
-0.0974213241
32
0.0000000000
13
3.9031696605
23
2.0099250813
33
0.0000000000
40
0.0000000000
40
0.0000000000
40
0.0000000000
40
0.0000000000
40
0.1387565079
40
0.2783849068
40
0.4191241849
40
0.5614425197
40
0.7054697010
40
0.8516166172
40
1.0000000000
40
1.0000000000
40
1.0000000000
40
1.0000000000
10
6.0706494177
20
-22.1179216667
30
0.0000000000
10
6.2736592531
20
-22.1224276143
30
0.0000000000
10
6.6814605546
20
-22.1160298310
30
0.0000000000
10
7.2928363490
20
-22.0604678439
30
0.0000000000
10
7.9036113781
20
-21.9591027380
30
0.0000000000
10
8.5116781421
20
-21.8122931957
30
0.0000000000
10
9.1153738399
20
-21.6204624140
30
0.0000000000
10
9.7126426686
20
-21.3842892889
30
0.0000000000
10
10.1023105912
20
-21.1992058498
30
0.0000000000
10
10.2953657639
20
-21.0997926888
30
0.0000000000
11
6.0706494177
21
-22.1179216667
31
0.0000000000
11
6.6797556100
21
-22.1084708579
31
0.0000000000
11
7.2902623255
21
-22.0531575557
31
0.0000000000
11
7.8998444723
21
-21.9522082653
31
0.0000000000
11
8.5072710527
21
-21.8058213652
31
0.0000000000
11
9.1099873887
21
-21.6146130538
31
0.0000000000
11
9.7067773632
21
-21.3789757490
31
0.0000000000
11
10.2953657639
21
-21.0997926888
31
0.0000000000
0
SPLINE
5
381
100
AcDbEntity
8
0
100
AcDbSpline
62
9
6
CONTINUOUS
70
0
71
3
72
16
73
12
74
10
42
0.0000001000
43
0.0000001000
44
0.0000000001
12
0.3187869791
22
-0.0107231344
32
0.0000000000
13
0.0235760029
23
0.3172849782
33
0.0000000000
40
0.0000000000
40
0.0000000000
40
0.0000000000
40
0.0000000000
40
0.0621065687
40
0.1577042056
40
0.2581749749
40
0.3653659737
40
0.4800709142
40
0.6021170176
40
0.7305475531
40
0.8638210774
40
1.0000000000
40
1.0000000000
40
1.0000000000
40
1.0000000000
10
9.2631549330
20
-27.3445257144
30
0.0000000000
10
9.2697545215
20
-27.3447477068
30
0.0000000000
10
9.2865908264
20
-27.3438948635
30
0.0000000000
10
9.3132774394
20
-27.3366743725
30
0.0000000000
10
9.3417462195
20
-27.3211445340
30
0.0000000000
10
9.3678962384
20
-27.2987931586
30
0.0000000000
10
9.3910251530
20
-27.2703641499
30
0.0000000000
10
9.4105050130
20
-27.2367263088
30
0.0000000000
10
9.4257967999
20
-27.1988769590
30
0.0000000000
10
9.4364657730
20
-27.1579428512
30
0.0000000000
10
9.4402720504
20
-27.1295394562
30
0.0000000000
10
9.4413422353
20
-27.1151369474
30
0.0000000000
11
9.2631549330
21
-27.3445257144
31
0.0000000000
11
9.2829323888
21
-27.3435242031
31
0.0000000000
11
9.3123313669
21
-27.3357273181
31
0.0000000000
11
9.3404952303
21
-27.3206076004
31
0.0000000000
11
9.3665683992
21
-27.2986243623
31
0.0000000000
11
9.3897588050
21
-27.2704454214
31
0.0000000000
11
9.4093619535
21
-27.2369268131
31
0.0000000000
11
9.4247823260
21
-27.1990867859
31
0.0000000000
11
9.4355514710
21
-27.1580748683
31
0.0000000000
11
9.4413422353
21
-27.1151369474
31
0.0000000000
0
SPLINE
5
382
100
AcDbEntity
8
0
100
AcDbSpline
62
9
6
CONTINUOUS
70
0
71
3
72
16
73
12
74
10
42
0.0000001000
43
0.0000001000
44
0.0000000001
12
0.3197984306
22
-0.0105301095
32
0.0000000000
13
0.0236345778
23
0.3182953680
33
0.0000000000
40
0.0000000000
40
0.0000000000
40
0.0000000000
40
0.0000000000
40
0.0622169934
40
0.1583189349
40
0.2591572573
40
0.3665433659
40
0.4812664217
40
0.6031706548
40
0.7313292569
40
0.8642379226
40
1.0000000000
40
1.0000000000
40
1.0000000000
40
1.0000000000
10
-6.4821728208
20
-25.4738455965
30
0.0000000000
10
-6.4755405219
20
-25.4740639804
30
0.0000000000
10
-6.4585875270
20
-25.4732122683
30
0.0000000000
10
-6.4316985214
20
-25.4660151655
30
0.0000000000
10
-6.4029764048
20
-25.4505005080
30
0.0000000000
10
-6.3765933754
20
-25.4281583051
30
0.0000000000
10
-6.3532625226
20
-25.3997325143
30
0.0000000000
10
-6.3336194218
20
-25.3660935640
30
0.0000000000
10
-6.3182082322
20
-25.3282401681
30
0.0000000000
10
-6.3074670369
20
-25.2873001319
30
0.0000000000
10
-6.3036451042
20
-25.2588894940
30
0.0000000000
10
-6.3025755444
20
-25.2444853472
30
0.0000000000
11
-6.4821728208
21
-25.4738455965
31
0.0000000000
11
-6.4622972860
21
-25.4728470809
31
0.0000000000
11
-6.4326296491
21
-25.4650582993
31
0.0000000000
11
-6.4042138277
21
-25.4499454538
31
0.0000000000
11
-6.3779131392
21
-25.4279676922
31
0.0000000000
11
-6.3545266411
21
-25.3997927304
31
0.0000000000
11
-6.3347648535
21
-25.3662765656
31
0.0000000000
11
-6.3192281723
21
-25.3284374708
31
0.0000000000
11
-6.3083886281
21
-25.2874250571
31
0.0000000000
11
-6.3025755444
21
-25.2444853472
31
0.0000000000
0
SPLINE
5
383
100
AcDbEntity
8
0
100
AcDbSpline
62
7
6
CONTINUOUS
70
0
71
3
72
26
73
22
74
20
42
0.0000001000
43
0.0000001000
44
0.0000000001
12
-1.3871136882
22
0.0130334001
32
0.0000000000
13
-0.2019595269
23
1.3715263897
33
0.0000000000
40
0.0000000000
40
0.0000000000
40
0.0000000000
40
0.0000000000
40
0.0565913861
40
0.1186185299
40
0.1851205412
40
0.2550313037
40
0.3273568496
40
0.4008358310
40
0.4745128561
40
0.5470271500
40
0.6174880289
40
0.6845539853
40
0.7474289427
40
0.8048952808
40
0.8562879640
40
0.9006103568
40
0.9373618426
40
0.9658575122
40
0.9858263313
40
0.9971034494
40
1.0000000000
40
1.0000000000
40
1.0000000000
40
1.0000000000
10
-1.1498532465
20
20.4231285711
30
0.0000000000
10
-1.1760194752
20
20.4233744305
30
0.0000000000
10
-1.2308620336
20
20.4242602719
30
0.0000000000
10
-1.3164312563
20
20.4265310405
30
0.0000000000
10
-1.4081317657
20
20.4297804580
30
0.0000000000
10
-1.5045609590
20
20.4339607207
30
0.0000000000
10
-1.6041790265
20
20.4390067141
30
0.0000000000
10
-1.7054982586
20
20.4448437995
30
0.0000000000
10
-1.8068624180
20
20.4513770154
30
0.0000000000
10
-1.9067871844
20
20.4585104258
30
0.0000000000
10
-2.0036101072
20
20.4661253038
30
0.0000000000
10
-2.0959316439
20
20.4741082717
30
0.0000000000
10
-2.1821945982
20
20.4823296158
30
0.0000000000
10
-2.2611775649
20
20.4906449253
30
0.0000000000
10
-2.3314879593
20
20.4989796258
30
0.0000000000
10
-2.3923043654
20
20.5069812937
30
0.0000000000
10
-2.4420795054
20
20.5151370716
30
0.0000000000
10
-2.4815473056
20
20.5215592743
30
0.0000000000
10
-2.5067631762
20
20.5301592988
30
0.0000000000
10
-2.5242704061
20
20.5324487052
30
0.0000000000
10
-2.5272372924
20
20.5394953829
30
0.0000000000
10
-2.5274322878
20
20.5408196148
30
0.0000000000
11
-1.1498532465
21
20.4231285711
31
0.0000000000
11
-1.2283459071
21
20.4243492312
31
0.0000000000
11
-1.3143589841
21
20.4265991294
31
0.0000000000
11
-1.4065518541
21
20.4298430228
31
0.0000000000
11
-1.5034399694
21
20.4340280093
31
0.0000000000
11
-1.6036401368
21
20.4390946449
31
0.0000000000
11
-1.7053997866
21
20.4449539641
31
0.0000000000
11
-1.8073909377
21
20.4515298461
31
0.0000000000
11
-1.9077250417
21
20.4587004543
31
0.0000000000
11
-2.0051646336
21
20.4663776438
31
0.0000000000
11
-2.0978490217
21
20.4744148563
31
0.0000000000
11
-2.1846716141
21
20.4827163828
31
0.0000000000
11
-2.2639432063
21
20.4911207529
31
0.0000000000
11
-2.3347361751
21
20.4995297411
31
0.0000000000
11
-2.3956632250
21
20.5077785606
31
0.0000000000
11
-2.4460135923
21
20.5157708245
31
0.0000000000
11
-2.4848084402
21
20.5233510860
31
0.0000000000
11
-2.5115891209
21
20.5304291304
31
0.0000000000
11
-2.5258450358
21
20.5368698473
31
0.0000000000
11
-2.5274322878
21
20.5408196148
31
0.0000000000
0
SPLINE
5
384
100
AcDbEntity
8
0
100
AcDbSpline
62
7
6
CONTINUOUS
70
0
71
3
72
26
73
22
74
20
42
0.0000001000
43
0.0000001000
44
0.0000000001
12
-1.3871136882
22
0.0130334001
32
0.0000000000
13
-0.2019595269
23
1.3715263897
33
0.0000000000
40
0.0000000000
40
0.0000000000
40
0.0000000000
40
0.0000000000
40
0.0565913861
40
0.1186185299
40
0.1851205412
40
0.2550313037
40
0.3273568496
40
0.4008358310
40
0.4745128561
40
0.5470271500
40
0.6174880289
40
0.6845539853
40
0.7474289427
40
0.8048952808
40
0.8562879640
40
0.9006103568
40
0.9373618426
40
0.9658575122
40
0.9858263313
40
0.9971034494
40
1.0000000000
40
1.0000000000
40
1.0000000000
40
1.0000000000
10
8.6670841848
20
19.2570450948
30
0.0000000000
10
8.6409179560
20
19.2572909542
30
0.0000000000
10
8.5860753977
20
19.2581767957
30
0.0000000000
10
8.5005061750
20
19.2604475642
30
0.0000000000
10
8.4088056656
20
19.2636969817
30
0.0000000000
10
8.3123764723
20
19.2678772444
30
0.0000000000
10
8.2127584047
20
19.2729232379
30
0.0000000000
10
8.1114391727
20
19.2787603232
30
0.0000000000
10
8.0100750133
20
19.2852935391
30
0.0000000000
10
7.9101502469
20
19.2924269496
30
0.0000000000
10
7.8133273241
20
19.3000418276
30
0.0000000000
10
7.7210057873
20
19.3080247954
30
0.0000000000
10
7.6347428331
20
19.3162461395
30
0.0000000000
10
7.5557598663
20
19.3245614491
30
0.0000000000
10
7.4854494720
20
19.3328961495
30
0.0000000000
10
7.4246330659
20
19.3408978175
30
0.0000000000
10
7.3748579259
20
19.3490535953
30
0.0000000000
10
7.3353901257
20
19.3554757980
30
0.0000000000
10
7.3101742550
20
19.3640758225
30
0.0000000000
10
7.2926670252
20
19.3663652290
30
0.0000000000
10
7.2897001388
20
19.3734119066
30
0.0000000000
10
7.2895051435
20
19.3747361385
30
0.0000000000
11
8.6670841848
21
19.2570450948
31
0.0000000000
11
8.5885915242
21
19.2582657549
31
0.0000000000
11
8.5025784472
21
19.2605156532
31
0.0000000000
11
8.4103855772
21
19.2637595465
31
0.0000000000
11
8.3134974619
21
19.2679445331
31
0.0000000000
11
8.2132972945
21
19.2730111686
31
0.0000000000
11
8.1115376447
21
19.2788704878
31
0.0000000000
11
8.0095464936
21
19.2854463698
31
0.0000000000
11
7.9092123896
21
19.2926169781
31
0.0000000000
11
7.8117727977
21
19.3002941676
31
0.0000000000
11
7.7190884096
21
19.3083313800
31
0.0000000000
11
7.6322658172
21
19.3166329065
31
0.0000000000
11
7.5529942249
21
19.3250372766
31
0.0000000000
11
7.4822012562
21
19.3334462649
31
0.0000000000
11
7.4212742063
21
19.3416950843
31
0.0000000000
11
7.3709238389
21
19.3496873483
31
0.0000000000
11
7.3321289911
21
19.3572676098
31
0.0000000000
11
7.3053483104
21
19.3643456541
31
0.0000000000
11
7.2910923955
21
19.3707863710
31
0.0000000000
11
7.2895051435
21
19.3747361385
31
0.0000000000
0
SPLINE
5
385
100
AcDbEntity
8
0
100
AcDbSpline
62
9
6
CONTINUOUS
70
0
71
3
72
27
73
23
74
21
42
0.0000001000
43
0.0000001000
44
0.0000000001
12
-0.3936421611
22
-1.6248855113
32
0.0000000000
13
1.6425821013
23
-0.0219338898
33
0.0000000000
40
0.0000000000
40
0.0000000000
40
0.0000000000
40
0.0000000000
40
0.0014016358
40
0.0097502406
40
0.0260080084
40
0.0502592934
40
0.0822375803
40
0.1215178720
40
0.1675546537
40
0.2196986067
40
0.2772093913
40
0.3392679533
40
0.4049888234
40
0.4734328762
40
0.5436218131
40
0.6145532528
40
0.6852128264
40
0.7545875716
40
0.8216870498
40
0.8855554536
40
0.9452732290
40
1.0000000000
40
1.0000000000
40
1.0000000000
40
1.0000000000
10
11.0214901024
20
20.3246696822
30
0.0000000000
10
11.0213061881
20
20.3239105163
30
0.0000000000
10
11.0208515009
20
20.3187351330
30
0.0000000000
10
11.0396503211
20
20.3140878678
30
0.0000000000
10
11.0615794485
20
20.3062032724
30
0.0000000000
10
11.1023567307
20
20.2985845806
30
0.0000000000
10
11.1531830499
20
20.2898057274
30
0.0000000000
10
11.2170494205
20
20.2807844375
30
0.0000000000
10
11.2916423230
20
20.2713969060
30
0.0000000000
10
11.3763955852
20
20.2618911169
30
0.0000000000
10
11.4699313550
20
20.2523785145
30
0.0000000000
10
11.5709624537
20
20.2430107538
30
0.0000000000
10
11.6780248193
20
20.2339219534
30
0.0000000000
10
11.7895883287
20
20.2252452693
30
0.0000000000
10
11.9040525372
20
20.2171059277
30
0.0000000000
10
12.0197772051
20
20.2096212552
30
0.0000000000
10
12.1351020455
20
20.2028987249
30
0.0000000000
10
12.2483727146
20
20.1970344238
30
0.0000000000
10
12.3579659603
20
20.1921115283
30
0.0000000000
10
12.4623086608
20
20.1881991519
30
0.0000000000
10
12.5599081890
20
20.1853510069
30
0.0000000000
10
12.6225647916
20
20.1841268550
30
0.0000000000
10
12.6525291964
20
20.1837267314
30
0.0000000000
11
11.0214901024
21
20.3246696822
31
0.0000000000
11
11.0213304974
21
20.3224934993
31
0.0000000000
11
11.0331574640
21
20.3155501473
31
0.0000000000
11
11.0587335779
21
20.3078604437
31
0.0000000000
11
11.0976921413
21
20.2995346564
31
0.0000000000
11
11.1494742336
21
20.2906922254
31
0.0000000000
11
11.2133372141
21
20.2814599502
31
0.0000000000
11
11.2883653871
21
20.2719702016
31
0.0000000000
11
11.3734828389
21
20.2623590636
31
0.0000000000
11
11.4674689715
21
20.2527643615
31
0.0000000000
11
11.5689762709
21
20.2433236617
31
0.0000000000
11
11.6765492662
21
20.2341723382
31
0.0000000000
11
11.7886447812
21
20.2254416728
31
0.0000000000
11
11.9036552800
21
20.2172568661
31
0.0000000000
11
12.0199333557
21
20.2097351710
31
0.0000000000
11
12.1358113841
21
20.2029844918
31
0.0000000000
11
12.2496233315
21
20.1971018753
31
0.0000000000
11
12.3597392387
21
20.1921715325
31
0.0000000000
11
12.4645848980
21
20.1882639967
31
0.0000000000
11
12.5626442125
21
20.1854357010
31
0.0000000000
11
12.6525291964
21
20.1837267314
31
0.0000000000
0
SPLINE
5
386
100
AcDbEntity
8
0
100
AcDbSpline
62
9
6
CONTINUOUS
70
0
71
3
72
17
73
13
74
11
42
0.0000001000
43
0.0000001000
44
0.0000000001
12
0.0207841849
22
0.3380684907
32
0.0000000000
13
-0.3362612008
23
0.0406287038
33
0.0000000000
40
0.0000000000
40
0.0000000000
40
0.0000000000
40
0.0000000000
40
0.1158358902
40
0.2308754448
40
0.3436414036
40
0.4527972235
40
0.5572438239
40
0.6562222916
40
0.7494291947
40
0.8371109799
40
0.9201720180
40
1.0000000000
40
1.0000000000
40
1.0000000000
40
1.0000000000
10
8.7330761721
20
18.6751888970
30
0.0000000000
10
8.7338786903
20
18.6882423852
30
0.0000000000
10
8.7340840931
20
18.7143666109
30
0.0000000000
10
8.7302417974
20
18.7530459204
30
0.0000000000
10
8.7223417265
20
18.7903431263
30
0.0000000000
10
8.7105695267
20
18.8253525942
30
0.0000000000
10
8.6951994611
20
18.8572326699
30
0.0000000000
10
8.6765826061
20
18.8852145010
30
0.0000000000
10
8.6551386488
20
18.9086143910
30
0.0000000000
10
8.6313382096
20
18.9268384554
30
0.0000000000
10
8.6057573039
20
18.9393701065
30
0.0000000000
10
8.5876990582
20
18.9437206954
30
0.0000000000
10
8.5787513739
20
18.9448017978
30
0.0000000000
11
8.7330761721
21
18.6751888970
31
0.0000000000
11
8.7333832749
21
18.7144220972
31
0.0000000000
11
8.7295039179
21
18.7531931779
31
0.0000000000
11
8.7215336576
21
18.7905469203
31
0.0000000000
11
8.7096688636
21
18.8255632295
31
0.0000000000
11
8.6942018304
21
18.8573796860
31
0.0000000000
11
8.6755138007
21
18.8852124298
31
0.0000000000
11
8.6540646141
21
18.9083767414
31
0.0000000000
11
8.6303848213
21
18.9263005609
31
0.0000000000
11
8.6050557141
21
18.9385447837
31
0.0000000000
11
8.5787513739
21
18.9448017978
31
0.0000000000
0
SPLINE
5
387
100
AcDbEntity
8
0
100
AcDbSpline
62
9
6
CONTINUOUS
70
0
71
3
72
17
73
13
74
11
42
0.0000001000
43
0.0000001000
44
0.0000000001
12
-0.3503557122
22
0.0077763940
32
0.0000000000
13
-0.3479956048
23
0.0413358980
33
0.0000000000
40
0.0000000000
40
0.0000000000
40
0.0000000000
40
0.0000000000
40
0.0865983916
40
0.1828163386
40
0.2863449290
40
0.3946976366
40
0.5052708797
40
0.6154062194
40
0.7224598126
40
0.8238517683
40
0.9171564920
40
1.0000000000
40
1.0000000000
40
1.0000000000
40
1.0000000000
10
8.7330761721
20
18.6751888970
30
0.0000000000
10
8.7229627584
20
18.6754133714
30
0.0000000000
10
8.7016159267
20
18.6760448600
30
0.0000000000
10
8.6681936080
20
18.6773947136
30
0.0000000000
10
8.6322469115
20
18.6791752134
30
0.0000000000
10
8.5946418529
20
18.6813446642
30
0.0000000000
10
8.5562843565
20
18.6838515848
30
0.0000000000
10
8.5180981367
20
18.6866357347
30
0.0000000000
10
8.4810036646
20
18.6896296930
30
0.0000000000
10
8.4458938172
20
18.6927603477
30
0.0000000000
10
8.4136299448
20
18.6959492545
30
0.0000000000
10
8.3931771386
20
18.6982096576
30
0.0000000000
10
8.3835674130
20
18.6993511279
30
0.0000000000
11
8.7330761721
21
18.6751888970
31
0.0000000000
11
8.7027410583
21
18.6760633123
31
0.0000000000
11
8.6690491357
21
18.6774096067
31
0.0000000000
11
8.6328123425
21
18.6791953381
31
0.0000000000
11
8.5949037561
21
18.6813774779
31
0.0000000000
11
8.5562366655
21
18.6839034492
31
0.0000000000
11
8.5177429648
21
18.6867123650
31
0.0000000000
11
8.4803489843
21
18.6897366264
31
0.0000000000
11
8.4449583594
21
18.6929031216
31
0.0000000000
11
8.4124206573
21
18.6961358031
31
0.0000000000
11
8.3835674130
21
18.6993511279
31
0.0000000000
0
SPLINE
5
388
100
AcDbEntity
8
0
100
AcDbSpline
62
9
6
CONTINUOUS
70
0
71
3
72
17
73
13
74
11
42
0.0000001000
43
0.0000001000
44
0.0000000001
12
-0.3426052409
22
0.0029050866
32
0.0000000000
13
-0.0232073693
23
-0.3418306724
33
0.0000000000
40
0.0000000000
40
0.0000000000
40
0.0000000000
40
0.0000000000
40
0.0826731315
40
0.1679834519
40
0.2572430113
40
0.3512449147
40
0.4502448133
40
0.5540125777
40
0.6619156400
40
0.7730111158
40
0.8861370039
40
1.0000000000
40
1.0000000000
40
1.0000000000
40
1.0000000000
10
8.5787513739
20
18.9448017978
30
0.0000000000
10
8.5693099578
20
18.9448818554
30
0.0000000000
10
8.5500510767
20
18.9429273243
30
0.0000000000
10
8.5218930283
20
18.9339132357
30
0.0000000000
10
8.4948460681
20
18.9190840040
30
0.0000000000
10
8.4695626505
20
18.8988552397
30
0.0000000000
10
8.4466144491
20
18.8737458745
30
0.0000000000
10
8.4265255105
20
18.8443710189
30
0.0000000000
10
8.4097571876
20
18.8114377191
30
0.0000000000
10
8.3966992039
20
18.7757320187
30
0.0000000000
10
8.3876582922
20
18.7381135781
30
0.0000000000
10
8.3844482332
20
18.7123250827
30
0.0000000000
10
8.3835674130
20
18.6993511279
30
0.0000000000
11
8.5787513739
21
18.9448017978
31
0.0000000000
11
8.5505644543
21
18.9420056791
31
0.0000000000
11
8.5226902820
21
18.9332105633
31
0.0000000000
11
8.4958076221
21
18.9186306206
31
0.0000000000
11
8.4705710954
21
18.8986208877
31
0.0000000000
11
8.4475952376
21
18.8736686226
31
0.0000000000
11
8.4274395348
21
18.8443814388
31
0.0000000000
11
8.4105947992
21
18.8114725099
31
0.0000000000
11
8.3974712178
21
18.7757432024
31
0.0000000000
11
8.3883883634
21
18.7380635622
31
0.0000000000
11
8.3835674130
21
18.6993511279
31
0.0000000000
0
SPLINE
5
389
100
AcDbEntity
8
0
100
AcDbSpline
62
9
6
CONTINUOUS
70
0
71
3
72
8
73
4
74
2
42
0.0000001000
43
0.0000001000
44
0.0000000001
12
-0.0188156740
22
0.0001595456
32
0.0000000000
13
-0.0186952490
23
-0.0025204977
33
0.0000000000
40
0.0000000000
40
0.0000000000
40
0.0000000000
40
0.0000000000
40
1.0000000000
40
1.0000000000
40
1.0000000000
40
1.0000000000
10
-8.0456275218
20
20.9194923436
30
0.0000000000
10
-8.0518994132
20
20.9195455254
30
0.0000000000
10
-8.0581875664
20
20.9191388930
30
0.0000000000
10
-8.0644193161
20
20.9182987270
30
0.0000000000
11
-8.0456275218
21
20.9194923436
31
0.0000000000
11
-8.0644193161
21
20.9182987270
31
0.0000000000
0
SPLINE
5
38A
100
AcDbEntity
8
0
100
AcDbSpline
62
9
6
CONTINUOUS
70
0
71
3
72
8
73
4
74
2
42
0.0000001000
43
0.0000001000
44
0.0000000001
12
-0.0094477169
22
-0.0012737433
32
0.0000000000
13
-0.0093331556
23
-0.0019278693
33
0.0000000000
40
0.0000000000
40
0.0000000000
40
0.0000000000
40
0.0000000000
40
1.0000000000
40
1.0000000000
40
1.0000000000
40
1.0000000000
10
-8.0644193161
20
20.9182987270
30
0.0000000000
10
-8.0675685550
20
20.9178741459
30
0.0000000000
10
-8.0707033895
20
20.9173388479
30
0.0000000000
10
-8.0738144414
20
20.9166962248
30
0.0000000000
11
-8.0644193161
21
20.9182987270
31
0.0000000000
11
-8.0738144414
21
20.9166962248
31
0.0000000000
0
SPLINE
5
38B
100
AcDbEntity
8
0
100
AcDbSpline
62
9
6
CONTINUOUS
70
0
71
3
72
16
73
12
74
10
42
0.0000001000
43
0.0000001000
44
0.0000000001
12
-0.3084829946
22
-0.0637206650
32
0.0000000000
13
-0.0212887434
23
-0.3135704603
33
0.0000000000
40
0.0000000000
40
0.0000000000
40
0.0000000000
40
0.0000000000
40
0.0929988244
40
0.1903028089
40
0.2927765363
40
0.4006986979
40
0.5138184244
40
0.6314461382
40
0.7525539783
40
0.8758752196
40
1.0000000000
40
1.0000000000
40
1.0000000000
40
1.0000000000
10
-8.0738144414
20
20.9166962248
30
0.0000000000
10
-8.0833772934
20
20.9147209092
30
0.0000000000
10
-8.1024858674
20
20.9086037814
30
0.0000000000
10
-8.1295328276
20
20.8937745497
30
0.0000000000
10
-8.1548162451
20
20.8735457854
30
0.0000000000
10
-8.1777644465
20
20.8484364202
30
0.0000000000
10
-8.1978533852
20
20.8190615647
30
0.0000000000
10
-8.2146217081
20
20.7861282648
30
0.0000000000
10
-8.2276796917
20
20.7504225644
30
0.0000000000
10
-8.2367206035
20
20.7128041239
30
0.0000000000
10
-8.2399306624
20
20.6870156284
30
0.0000000000
10
-8.2408114827
20
20.6740416736
30
0.0000000000
11
-8.0738144414
21
20.9166962248
31
0.0000000000
11
-8.1016886137
21
20.9079011090
31
0.0000000000
11
-8.1285712736
21
20.8933211663
31
0.0000000000
11
-8.1538078003
21
20.8733114334
31
0.0000000000
11
-8.1767836581
21
20.8483591683
31
0.0000000000
11
-8.1969393609
21
20.8190719846
31
0.0000000000
11
-8.2137840965
21
20.7861630556
31
0.0000000000
11
-8.2269076779
21
20.7504337481
31
0.0000000000
11
-8.2359905323
21
20.7127541080
31
0.0000000000
11
-8.2408114827
21
20.6740416736
31
0.0000000000
0
SPLINE
5
38C
100
AcDbEntity
8
0
100
AcDbSpline
62
9
6
CONTINUOUS
70
0
71
3
72
17
73
13
74
11
42
0.0000001000
43
0.0000001000
44
0.0000000001
12
-0.0235824218
22
-0.3173713736
32
0.0000000000
13
-0.3187657409
23
0.0107907166
33
0.0000000000
40
0.0000000000
40
0.0000000000
40
0.0000000000
40
0.0000000000
40
0.1226652391
40
0.2431442639
40
0.3599886626
40
0.4719870320
40
0.5782739078
40
0.6784450573
40
0.7726790003
40
0.8618148656
40
0.9473962621
40
1.0000000000
40
1.0000000000
40
1.0000000000
40
1.0000000000
10
5.7382092205
20
-25.4374103985
30
0.0000000000
10
5.7372449727
20
-25.4503872103
30
0.0000000000
10
5.7339600145
20
-25.4760300939
30
0.0000000000
10
5.7249873208
20
-25.5132273149
30
0.0000000000
10
5.7122031237
20
-25.5481026286
30
0.0000000000
10
5.6959071673
20
-25.5798098162
30
0.0000000000
10
5.6764750871
20
-25.6075853351
30
0.0000000000
10
5.6543459380
20
-25.6307513525
30
0.0000000000
10
5.6300165530
20
-25.6487210044
30
0.0000000000
10
5.6040359986
20
-25.6609973427
30
0.0000000000
10
5.5803439185
20
-25.6664351011
30
0.0000000000
10
5.5656069471
20
-25.6669894133
30
0.0000000000
10
5.5600175239
20
-25.6668002027
30
0.0000000000
11
5.7382092205
21
-25.4374103985
31
0.0000000000
11
5.7332240954
21
-25.4761285505
31
0.0000000000
11
5.7241828283
21
-25.5133893197
31
0.0000000000
11
5.7113081520
21
-25.5482746924
31
0.0000000000
11
5.6949172406
21
-25.5799253855
31
0.0000000000
11
5.6754138615
21
-25.6075618897
31
0.0000000000
11
5.6532786978
21
-25.6305033699
31
0.0000000000
11
5.6290563910
21
-25.6481854594
31
0.0000000000
11
5.6033459625
21
-25.6601716887
31
0.0000000000
11
5.5767784324
21
-25.6661686960
31
0.0000000000
11
5.5600175239
21
-25.6668002027
31
0.0000000000
0
SPLINE
5
38D
100
AcDbEntity
8
0
100
AcDbSpline
62
7
6
CONTINUOUS
70
0
71
3
72
16
73
12
74
10
42
0.0000001000
43
0.0000001000
44
0.0000000001
12
0.3479952940
22
-0.0413358611
32
0.0000000000
13
0.3503553994
23
-0.0077763871
33
0.0000000000
40
0.0000000000
40
0.0000000000
40
0.0000000000
40
0.0000000000
40
0.0928471907
40
0.1983310301
40
0.3127376869
40
0.4336121612
40
0.5562103685
40
0.6781522158
40
0.7946523691
40
0.9032084276
40
1.0000000000
40
1.0000000000
40
1.0000000000
40
1.0000000000
10
5.6142263700
20
-22.0913863972
30
0.0000000000
10
5.6249964985
20
-22.0926657034
30
0.0000000000
10
5.6480274868
20
-22.0951893687
30
0.0000000000
10
5.6843896135
20
-22.0987160375
30
0.0000000000
10
5.7240477186
20
-22.1021525451
30
0.0000000000
10
5.7657282547
20
-22.1053863234
30
0.0000000000
10
5.8083126600
20
-22.1083294997
30
0.0000000000
10
5.8504101341
20
-22.1108858094
30
0.0000000000
10
5.8908904119
20
-22.1129873847
30
0.0000000000
10
5.9284540451
20
-22.1145685961
30
0.0000000000
10
5.9524313124
20
-22.1152977318
30
0.0000000000
10
5.9637351290
20
-22.1155486281
30
0.0000000000
11
5.6142263700
21
-22.0913863972
31
0.0000000000
11
5.6465664319
21
-22.0949656461
31
0.0000000000
11
5.6833576835
21
-22.0985550958
31
0.0000000000
11
5.7232997634
21
-22.1020289769
31
0.0000000000
11
5.7655318155
21
-22.1053118429
31
0.0000000000
11
5.8083930387
21
-22.1082749239
31
0.0000000000
11
5.8510482554
21
-22.1108604825
31
0.0000000000
11
5.8918204090
21
-22.1129665357
31
0.0000000000
11
5.9298300827
21
-22.1145482218
31
0.0000000000
11
5.9637351290
21
-22.1155486281
31
0.0000000000
0
SPLINE
5
38E
100
AcDbEntity
8
0
100
AcDbSpline
62
9
6
CONTINUOUS
70
0
71
3
72
17
73
13
74
11
42
0.0000001000
43
0.0000001000
44
0.0000000001
12
-0.0217896678
22
-0.3209487766
32
0.0000000000
13
0.3200883933
23
-0.0380816517
33
0.0000000000
40
0.0000000000
40
0.0000000000
40
0.0000000000
40
0.0000000000
40
0.1206296258
40
0.2392311035
40
0.3545485094
40
0.4655496734
40
0.5715229859
40
0.6721757089
40
0.7677245079
40
0.8589555140
40
0.9472143212
40
1.0000000000
40
1.0000000000
40
1.0000000000
40
1.0000000000
10
5.3887004615
20
-25.4132481676
30
0.0000000000
10
5.3878243016
20
-25.4261534779
30
0.0000000000
10
5.3875147779
20
-25.4518687127
30
0.0000000000
10
5.3914082261
20
-25.4897696387
30
0.0000000000
10
5.3995720092
20
-25.5259401844
30
0.0000000000
10
5.4118216985
20
-25.5595116549
30
0.0000000000
10
5.4278822982
20
-25.5896835944
30
0.0000000000
10
5.4473981424
20
-25.6157271398
30
0.0000000000
10
5.4699361950
20
-25.6369944979
30
0.0000000000
10
5.4949906446
20
-25.6529235220
30
0.0000000000
10
5.5184738050
20
-25.6617502537
30
0.0000000000
10
5.5334206618
20
-25.6645306131
30
0.0000000000
10
5.5390526895
20
-25.6652006684
30
0.0000000000
11
5.3887004615
21
-25.4132481676
31
0.0000000000
11
5.3882588102
21
-25.4520507081
31
0.0000000000
11
5.3922072128
21
-25.4899984724
31
0.0000000000
11
5.4004495215
21
-25.5261673930
31
0.0000000000
11
5.4127850275
21
-25.5596767189
31
0.0000000000
11
5.4289133484
21
-25.5897104633
31
0.0000000000
11
5.4484417428
21
-25.6155372731
31
0.0000000000
11
5.4708946739
21
-25.6365282387
31
0.0000000000
11
5.4957253895
21
-25.6521722081
31
0.0000000000
11
5.5223292358
21
-25.6620882344
31
0.0000000000
11
5.5390526895
21
-25.6652006684
31
0.0000000000
0
SPLINE
5
38F
100
AcDbEntity
8
0
100
AcDbSpline
62
9
6
CONTINUOUS
70
0
71
3
72
17
73
13
74
11
42
0.0000001000
43
0.0000001000
44
0.0000000001
12
-0.3503557122
22
0.0077763940
32
0.0000000000
13
-0.3479956048
23
0.0413358980
33
0.0000000000
40
0.0000000000
40
0.0000000000
40
0.0000000000
40
0.0000000000
40
0.0865983916
40
0.1828163386
40
0.2863449290
40
0.3946976366
40
0.5052708797
40
0.6154062194
40
0.7224598126
40
0.8238517683
40
0.9171564920
40
1.0000000000
40
1.0000000000
40
1.0000000000
40
1.0000000000
10
5.7382092205
20
-25.4374103985
30
0.0000000000
10
5.7280958068
20
-25.4371859240
30
0.0000000000
10
5.7067489751
20
-25.4365544355
30
0.0000000000
10
5.6733266565
20
-25.4352045819
30
0.0000000000
10
5.6373799599
20
-25.4334240821
30
0.0000000000
10
5.5997749013
20
-25.4312546312
30
0.0000000000
10
5.5614174049
20
-25.4287477107
30
0.0000000000
10
5.5232311851
20
-25.4259635607
30
0.0000000000
10
5.4861367130
20
-25.4229696025
30
0.0000000000
10
5.4510268656
20
-25.4198389478
30
0.0000000000
10
5.4187629932
20
-25.4166500410
30
0.0000000000
10
5.3983101870
20
-25.4143896379
30
0.0000000000
10
5.3887004615
20
-25.4132481676
30
0.0000000000
11
5.7382092205
21
-25.4374103985
31
0.0000000000
11
5.7078741067
21
-25.4365359831
31
0.0000000000
11
5.6741821842
21
-25.4351896887
31
0.0000000000
11
5.6379453909
21
-25.4334039574
31
0.0000000000
11
5.6000368045
21
-25.4312218176
31
0.0000000000
11
5.5613697139
21
-25.4286958462
31
0.0000000000
11
5.5228760132
21
-25.4258869305
31
0.0000000000
11
5.4854820328
21
-25.4228626691
31
0.0000000000
11
5.4500914078
21
-25.4196961738
31
0.0000000000
11
5.4175537057
21
-25.4164634924
31
0.0000000000
11
5.3887004615
21
-25.4132481676
31
0.0000000000
0
SPLINE
5
390
100
AcDbEntity
8
0
100
AcDbSpline
62
9
6
CONTINUOUS
70
0
71
3
72
17
73
13
74
11
42
0.0000001000
43
0.0000001000
44
0.0000000001
12
-0.0217896678
22
-0.3209487766
32
0.0000000000
13
0.3200883933
23
-0.0380816517
33
0.0000000000
40
0.0000000000
40
0.0000000000
40
0.0000000000
40
0.0000000000
40
0.1206296258
40
0.2392311035
40
0.3545485094
40
0.4655496734
40
0.5715229859
40
0.6721757089
40
0.7677245079
40
0.8589555140
40
0.9472143212
40
1.0000000000
40
1.0000000000
40
1.0000000000
40
1.0000000000
10
-11.2356784342
20
-23.4385576219
30
0.0000000000
10
-11.2365545941
20
-23.4514629322
30
0.0000000000
10
-11.2368641178
20
-23.4771781669
30
0.0000000000
10
-11.2329706696
20
-23.5150790930
30
0.0000000000
10
-11.2248068865
20
-23.5512496386
30
0.0000000000
10
-11.2125571971
20
-23.5848211092
30
0.0000000000
10
-11.1964965974
20
-23.6149930487
30
0.0000000000
10
-11.1769807533
20
-23.6410365941
30
0.0000000000
10
-11.1544427007
20
-23.6623039522
30
0.0000000000
10
-11.1293882511
20
-23.6782329763
30
0.0000000000
10
-11.1059050907
20
-23.6870597080
30
0.0000000000
10
-11.0909582339
20
-23.6898400674
30
0.0000000000
10
-11.0853262062
20
-23.6905101227
30
0.0000000000
11
-11.2356784342
21
-23.4385576219
31
0.0000000000
11
-11.2361200855
21
-23.4773601624
31
0.0000000000
11
-11.2321716829
21
-23.5153079267
31
0.0000000000
11
-11.2239293742
21
-23.5514768473
31
0.0000000000
11
-11.2115938682
21
-23.5849861732
31
0.0000000000
11
-11.1954655473
21
-23.6150199176
31
0.0000000000
11
-11.1759371529
21
-23.6408467274
31
0.0000000000
11
-11.1534842218
21
-23.6618376929
31
0.0000000000
11
-11.1286535062
21
-23.6774816624
31
0.0000000000
11
-11.1020496599
21
-23.6873976887
31
0.0000000000
11
-11.0853262062
21
-23.6905101227
31
0.0000000000
0
SPLINE
5
391
100
AcDbEntity
8
0
100
AcDbSpline
62
7
6
CONTINUOUS
70
0
71
3
72
21
73
17
74
15
42
0.0000001000
43
0.0000001000
44
0.0000000001
12
0.0291163141
22
0.4287735865
32
0.0000000000
13
-0.4268159346
23
0.0506662775
33
0.0000000000
40
0.0000000000
40
0.0000000000
40
0.0000000000
40
0.0000000000
40
0.0082578080
40
0.0942047538
40
0.1754800436
40
0.2540943930
40
0.3313926418
40
0.4076487189
40
0.4830129868
40
0.5578059505
40
0.6332863333
40
0.7101450122
40
0.7890145333
40
0.8705607920
40
0.9555055564
40
1.0000000000
40
1.0000000000
40
1.0000000000
40
1.0000000000
10
24.4051116948
20
-18.7710853288
30
0.0000000000
10
24.4051918404
20
-18.7699050855
30
0.0000000000
10
24.4060345800
20
-18.7564359528
30
0.0000000000
10
24.4060679051
20
-18.7312540622
30
0.0000000000
10
24.4019718210
20
-18.6962123008
30
0.0000000000
10
24.3940226891
20
-18.6631117070
30
0.0000000000
10
24.3823792610
20
-18.6318877088
30
0.0000000000
10
24.3672136251
20
-18.6027376757
30
0.0000000000
10
24.3487838703
20
-18.5759690507
30
0.0000000000
10
24.3272862980
20
-18.5517456048
30
0.0000000000
10
24.3028256485
20
-18.5301917887
30
0.0000000000
10
24.2754234989
20
-18.5114693613
30
0.0000000000
10
24.2451605159
20
-18.4958469591
30
0.0000000000
10
24.2121311771
20
-18.4836265259
30
0.0000000000
10
24.1826789155
20
-18.4766081571
30
0.0000000000
10
24.1643233126
20
-18.4738959435
30
0.0000000000
10
24.1579930001
20
-18.4731444876
30
0.0000000000
11
24.4051116948
21
-18.7710853288
31
0.0000000000
11
24.4053332482
21
-18.7675433483
31
0.0000000000
11
24.4053243840
21
-18.7306261616
31
0.0000000000
11
24.4012312517
21
-18.6959563945
31
0.0000000000
11
24.3933191212
21
-18.6631288465
31
0.0000000000
11
24.3817005871
21
-18.6320257823
31
0.0000000000
11
24.3665735181
21
-18.6029734641
31
0.0000000000
11
24.3482124984
21
-18.5763128014
31
0.0000000000
11
24.3268894983
21
-18.5522832314
31
0.0000000000
11
24.3025692976
21
-18.5308431429
31
0.0000000000
11
24.2753193881
21
-18.5122063207
31
0.0000000000
11
24.2452277156
21
-18.4966449849
31
0.0000000000
11
24.2123898325
21
-18.4844564663
31
0.0000000000
11
24.1769088326
21
-18.4759488756
31
0.0000000000
11
24.1579930001
21
-18.4731444876
31
0.0000000000
0
SPLINE
5
392
100
AcDbEntity
8
0
100
AcDbSpline
62
7
6
CONTINUOUS
70
0
71
3
72
9
73
5
74
3
42
0.0000001000
43
0.0000001000
44
0.0000000001
12
0.0086211241
22
-0.0001629416
32
0.0000000000
13
0.0086225393
23
0.0000490065
33
0.0000000000
40
0.0000000000
40
0.0000000000
40
0.0000000000
40
0.0000000000
40
0.9544058143
40
1.0000000000
40
1.0000000000
40
1.0000000000
40
1.0000000000
10
24.6167409438
20
-11.4965370394
30
0.0000000000
10
24.6194836275
20
-11.4965888769
30
0.0000000000
10
24.6223579342
20
-11.4966094503
30
0.0000000000
10
24.6252321215
20
-11.4965947241
30
0.0000000000
10
24.6253631674
20
-11.4965939793
30
0.0000000000
11
24.6167409438
21
-11.4965370394
31
0.0000000000
11
24.6249700288
21
-11.4965959936
31
0.0000000000
11
24.6253631674
21
-11.4965939793
31
0.0000000000
0
SPLINE
5
393
100
AcDbEntity
8
0
100
AcDbSpline
62
7
6
CONTINUOUS
70
0
71
3
72
21
73
17
74
15
42
0.0000001000
43
0.0000001000
44
0.0000000001
12
0.4498360091
22
0.0026065712
32
0.0000000000
13
0.0304555604
23
0.4488399776
33
0.0000000000
40
0.0000000000
40
0.0000000000
40
0.0000000000
40
0.0000000000
40
0.0612972830
40
0.1377069110
40
0.2118801394
40
0.2843328093
40
0.3555943969
40
0.4261198727
40
0.4963572154
40
0.5667161867
40
0.6378235434
40
0.7103103204
40
0.7848334464
40
0.8620019997
40
0.9423894075
40
1.0000000000
40
1.0000000000
40
1.0000000000
40
1.0000000000
10
24.6253861329
20
-11.4965936575
30
0.0000000000
10
24.6345773746
20
-11.4965403989
30
0.0000000000
10
24.6552303823
20
-11.4955804667
30
0.0000000000
10
24.6867276834
20
-11.4910479485
30
0.0000000000
10
24.7191536153
20
-11.4826196495
30
0.0000000000
10
24.7497012928
20
-11.4708672176
30
0.0000000000
10
24.7782339498
20
-11.4559789846
30
0.0000000000
10
24.8046096855
20
-11.4381240564
30
0.0000000000
10
24.8286771003
20
-11.4174696005
30
0.0000000000
10
24.8503012235
20
-11.3941508800
30
0.0000000000
10
24.8693468152
20
-11.3682626631
30
0.0000000000
10
24.8856668084
20
-11.3398523909
30
0.0000000000
10
24.8990679664
20
-11.3089608391
30
0.0000000000
10
24.9093218893
20
-11.2756446237
30
0.0000000000
10
24.9154289704
20
-11.2439153942
30
0.0000000000
10
24.9175407107
20
-11.2233113779
30
0.0000000000
10
24.9181255649
20
-11.2146920655
30
0.0000000000
11
24.6253861329
21
-11.4965936575
31
0.0000000000
11
24.6529277979
21
-11.4952923312
31
0.0000000000
11
24.6869332903
21
-11.4903643540
31
0.0000000000
11
24.7192091968
21
-11.4819486904
31
0.0000000000
11
24.7496119257
21
-11.4702347927
31
0.0000000000
11
24.7780174714
21
-11.4554006812
31
0.0000000000
11
24.8042779842
21
-11.4376185206
31
0.0000000000
11
24.8282472835
21
-11.4170493530
31
0.0000000000
11
24.8497654663
21
-11.3938535802
31
0.0000000000
11
24.8687241689
21
-11.3681037615
31
0.0000000000
11
24.8849767825
21
-11.3398479028
31
0.0000000000
11
24.8983388254
21
-11.3091146204
31
0.0000000000
11
24.9085825002
21
-11.2759589958
31
0.0000000000
11
24.9154629222
21
-11.2404703375
31
0.0000000000
11
24.9181255649
21
-11.2146920655
31
0.0000000000
0
SPLINE
5
394
100
AcDbEntity
8
0
100
AcDbSpline
62
7
6
CONTINUOUS
70
0
71
3
72
26
73
22
74
20
42
0.0000001000
43
0.0000001000
44
0.0000000001
12
0.0899279222
22
1.3245886946
32
0.0000000000
13
-1.3189877130
23
0.1566349666
33
0.0000000000
40
0.0000000000
40
0.0000000000
40
0.0000000000
40
0.0000000000
40
0.0558486571
40
0.1173939780
40
0.1785829694
40
0.2392523392
40
0.2992534148
40
0.3584652704
40
0.4167742956
40
0.4740142133
40
0.5300366214
40
0.5847375822
40
0.6380496847
40
0.6899339607
40
0.7403849850
40
0.7895504776
40
0.8376531882
40
0.8848963034
40
0.9314755097
40
0.9775819095
40
1.0000000000
40
1.0000000000
40
1.0000000000
40
1.0000000000
10
20.3737308422
20
19.1668457960
30
0.0000000000
10
20.3754049601
20
19.1915046293
30
0.0000000000
10
20.3774796150
20
19.2434471098
30
0.0000000000
10
20.3759530878
20
19.3225088682
30
0.0000000000
10
20.3692577330
20
19.4034488791
30
0.0000000000
10
20.3574414102
20
19.4831120509
30
0.0000000000
10
20.3405308036
20
19.5609597215
30
0.0000000000
10
20.3185812935
20
19.6364562598
30
0.0000000000
10
20.2916910584
20
19.7090407011
30
0.0000000000
10
20.2600204998
20
19.7781263087
30
0.0000000000
10
20.2238056382
20
19.8431261254
30
0.0000000000
10
20.1833494377
20
19.9034992738
30
0.0000000000
10
20.1390191323
20
19.9587654061
30
0.0000000000
10
20.0912459532
20
20.0085137688
30
0.0000000000
10
20.0404784796
20
20.0524517236
30
0.0000000000
10
19.9871340757
20
20.0904084196
30
0.0000000000
10
19.9315809414
20
20.1222933396
30
0.0000000000
10
19.8741814865
20
20.1480414632
30
0.0000000000
10
19.8153168835
20
20.1676011748
30
0.0000000000
10
19.7655164102
20
20.1786904456
30
0.0000000000
10
19.7354738037
20
20.1830171421
30
0.0000000000
10
19.7256174084
20
20.1841876277
30
0.0000000000
11
20.3737308422
21
19.1668457960
31
0.0000000000
11
20.3766822784
21
19.2409333047
31
0.0000000000
11
20.3750871987
21
19.3226235501
31
0.0000000000
11
20.3683640572
21
19.4035776189
31
0.0000000000
11
20.3565123651
21
19.4832438025
31
0.0000000000
11
20.3395616689
21
19.5610750795
31
0.0000000000
11
20.3175679538
21
19.6365435508
31
0.0000000000
11
20.2906225728
21
19.7091118774
31
0.0000000000
11
20.2588984068
21
19.7781630936
31
0.0000000000
11
20.2226414683
21
19.8431006775
31
0.0000000000
11
20.1821588981
21
19.9033895189
31
0.0000000000
11
20.1378211245
21
19.9585561000
31
0.0000000000
11
20.0900651484
21
20.0081931156
31
0.0000000000
11
20.0393827827
21
20.0519796710
31
0.0000000000
11
19.9861712374
21
20.0897791005
31
0.0000000000
11
19.9307647822
21
20.1215312260
31
0.0000000000
11
19.8735266356
21
20.1471714147
31
0.0000000000
11
19.8148375098
21
20.1666503613
31
0.0000000000
11
19.7550886731
21
20.1799426465
31
0.0000000000
11
19.7256174084
21
20.1841876277
31
0.0000000000
0
SPLINE
5
395
100
AcDbEntity
8
0
100
AcDbSpline
62
7
6
CONTINUOUS
70
0
71
3
72
10
73
6
74
4
42
0.0000001000
43
0.0000001000
44
0.0000000001
12
-0.0307114008
22
0.0014072537
32
0.0000000000
13
-0.0296484578
23
-0.0081000734
33
0.0000000000
40
0.0000000000
40
0.0000000000
40
0.0000000000
40
0.0000000000
40
0.3183288936
40
0.8686094774
40
1.0000000000
40
1.0000000000
40
1.0000000000
40
1.0000000000
10
-2.8484039255
20
22.4381136941
30
0.0000000000
10
-2.8516627009
20
22.4382630173
30
0.0000000000
10
-2.8605805633
20
22.4382217025
30
0.0000000000
10
-2.8707579763
20
22.4367545162
30
0.0000000000
10
-2.8775307931
20
22.4350463419
30
0.0000000000
10
-2.8788293019
20
22.4346915843
30
0.0000000000
11
-2.8484039255
21
22.4381136941
31
0.0000000000
11
-2.8581887246
21
22.4380671199
31
0.0000000000
11
-2.8749137799
21
22.4356785305
31
0.0000000000
11
-2.8788293019
21
22.4346915843
31
0.0000000000
0
SPLINE
5
396
100
AcDbEntity
8
0
100
AcDbSpline
62
7
6
CONTINUOUS
70
0
71
3
72
9
73
5
74
3
42
0.0000001000
43
0.0000001000
44
0.0000000001
12
-0.0297788507
22
0.0035372158
32
0.0000000000
13
-0.0299171800
23
0.0020755744
33
0.0000000000
40
0.0000000000
40
0.0000000000
40
0.0000000000
40
0.0000000000
40
0.4999068577
40
1.0000000000
40
1.0000000000
40
1.0000000000
40
1.0000000000
10
18.7513007100
20
20.2999204530
30
0.0000000000
10
18.7463384928
20
20.3005098791
30
0.0000000000
10
18.7363973258
20
20.3015674595
30
0.0000000000
10
18.7264335452
20
20.3023813150
30
0.0000000000
10
18.7214464196
20
20.3027273085
30
0.0000000000
11
18.7513007100
21
20.2999204530
31
0.0000000000
11
18.7363935264
21
20.3015063540
31
0.0000000000
11
18.7214464196
21
20.3027273085
31
0.0000000000
0
SPLINE
5
397
100
AcDbEntity
8
0
100
AcDbSpline
62
7
6
CONTINUOUS
70
0
71
3
72
8
73
4
74
2
42
0.0000001000
43
0.0000001000
44
0.0000000001
12
-0.0099800660
22
0.0006923904
32
0.0000000000
13
-0.0099899664
23
0.0005294975
33
0.0000000000
40
0.0000000000
40
0.0000000000
40
0.0000000000
40
0.0000000000
40
1.0000000000
40
1.0000000000
40
1.0000000000
40
1.0000000000
10
18.7214464196
20
20.3027273085
30
0.0000000000
10
18.7181197310
20
20.3029581053
30
0.0000000000
10
18.7147911258
20
20.3031617549
30
0.0000000000
10
18.7114611370
20
20.3033382541
30
0.0000000000
11
18.7214464196
21
20.3027273085
31
0.0000000000
11
18.7114611370
21
20.3033382541
31
0.0000000000
0
SPLINE
5
398
100
AcDbEntity
8
0
100
AcDbSpline
62
7
6
CONTINUOUS
70
0
71
3
72
8
73
4
74
2
42
0.0000001000
43
0.0000001000
44
0.0000000001
12
-0.0049970839
22
0.0002648601
32
0.0000000000
13
-0.0049989610
23
0.0002240990
33
0.0000000000
40
0.0000000000
40
0.0000000000
40
0.0000000000
40
0.0000000000
40
1.0000000000
40
1.0000000000
40
1.0000000000
40
1.0000000000
10
18.7114611370
20
20.3033382541
30
0.0000000000
10
18.7097954424
20
20.3034265408
30
0.0000000000
10
18.7081294016
20
20.3035080342
30
0.0000000000
10
18.7064630813
20
20.3035827339
30
0.0000000000
11
18.7114611370
21
20.3033382541
31
0.0000000000
11
18.7064630813
21
20.3035827339
31
0.0000000000
0
SPLINE
5
399
100
AcDbEntity
8
0
100
AcDbSpline
62
7
6
CONTINUOUS
70
0
71
3
72
26
73
22
74
20
42
0.0000001000
43
0.0000001000
44
0.0000000001
12
1.3853081098
22
0.0079144971
32
0.0000000000
13
0.0938278298
23
1.3820199361
33
0.0000000000
40
0.0000000000
40
0.0000000000
40
0.0000000000
40
0.0000000000
40
0.0394866038
40
0.0843925097
40
0.1301593863
40
0.1769142330
40
0.2247750601
40
0.2738694276
40
0.3243357094
40
0.3762389671
40
0.4294451484
40
0.4837832512
40
0.5391631136
40
0.5955012794
40
0.6526811885
40
0.7105633253
40
0.7690201481
40
0.8279139986
40
0.8870888629
40
0.9463832108
40
1.0000000000
40
1.0000000000
40
1.0000000000
40
1.0000000000
10
16.4720571530
20
-27.3671561922
30
0.0000000000
10
16.4902908572
20
-27.3670520200
30
0.0000000000
10
16.5292725301
20
-27.3650594724
30
0.0000000000
10
16.5888185164
20
-27.3562611136
30
0.0000000000
10
16.6504519569
20
-27.3407405969
30
0.0000000000
10
16.7115430942
20
-27.3187803057
30
0.0000000000
10
16.7716308843
20
-27.2904017098
30
0.0000000000
10
16.8302811295
20
-27.2556712767
30
0.0000000000
10
16.8870689436
20
-27.2147009693
30
0.0000000000
10
16.9415115452
20
-27.1677087197
30
0.0000000000
10
16.9930869837
20
-27.1150608484
30
0.0000000000
10
17.0413179955
20
-27.0572341314
30
0.0000000000
10
17.0858334241
20
-26.9947233842
30
0.0000000000
10
17.1263465508
20
-26.9280130187
30
0.0000000000
10
17.1626139254
20
-26.8576049503
30
0.0000000000
10
17.1944311480
20
-26.7840139592
30
0.0000000000
10
17.2216304662
20
-26.7077561618
30
0.0000000000
10
17.2440745358
20
-26.6293472819
30
0.0000000000
10
17.2616504300
20
-26.5493103588
30
0.0000000000
10
17.2738701742
20
-26.4707531640
30
0.0000000000
10
17.2788549402
20
-26.4188253640
30
0.0000000000
10
17.2805318559
20
-26.3941255402
30
0.0000000000
11
16.4720571530
21
-27.3671561922
31
0.0000000000
11
16.5266875692
21
-27.3643747564
31
0.0000000000
11
16.5882243462
21
-27.3553109816
31
0.0000000000
11
16.6497077027
21
-27.3398674681
31
0.0000000000
11
16.7106676894
21
-27.3180051344
31
0.0000000000
11
16.7706360394
21
-27.2897448008
31
0.0000000000
11
16.8291805980
21
-27.2551493580
31
0.0000000000
11
16.8859086182
21
-27.2143045262
31
0.0000000000
11
16.9403769306
21
-27.1673811638
31
0.0000000000
11
16.9919988108
21
-27.1147833369
31
0.0000000000
11
17.0402571939
21
-27.0570249407
31
0.0000000000
11
17.0848021749
21
-26.9945754121
31
0.0000000000
11
17.1253541302
21
-26.9279035113
31
0.0000000000
11
17.1616631672
21
-26.8575146982
31
0.0000000000
11
17.1935152066
21
-26.7839388807
31
0.0000000000
11
17.2207451083
21
-26.7076843071
31
0.0000000000
11
17.2432148481
21
-26.6292640642
31
0.0000000000
11
17.2608084336
21
-26.5492094177
31
0.0000000000
11
17.2734369130
21
-26.4680554887
31
0.0000000000
11
17.2805318559
21
-26.3941255402
31
0.0000000000
0
SPLINE
5
39A
100
AcDbEntity
8
0
100
AcDbSpline
62
7
6
CONTINUOUS
70
0
71
3
72
23
73
19
74
17
42
0.0000001000
43
0.0000001000
44
0.0000000001
12
-0.0506908577
22
-0.7466460213
32
0.0000000000
13
-0.7487405708
23
-0.0042492076
33
0.0000000000
40
0.0000000000
40
0.0000000000
40
0.0000000000
40
0.0000000000
40
0.0650550179
40
0.1301109802
40
0.1951685731
40
0.2602241224
40
0.3252895031
40
0.3903483290
40
0.4554205609
40
0.5204813142
40
0.5855575406
40
0.6506194627
40
0.7156964908
40
0.7807583989
40
0.8458328366
40
0.9108936386
40
0.9759625584
40
1.0000000000
40
1.0000000000
40
1.0000000000
40
1.0000000000
10
24.1759001796
20
-22.1472313693
30
0.0000000000
10
24.1748009480
20
-22.1634223927
30
0.0000000000
10
24.1710219423
20
-22.1957196248
30
0.0000000000
10
24.1606711624
20
-22.2433673916
30
0.0000000000
10
24.1457346452
20
-22.2897874506
30
0.0000000000
10
24.1263535326
20
-22.3345356562
30
0.0000000000
10
24.1027117766
20
-22.3771872823
30
0.0000000000
10
24.0750312750
20
-22.4173404842
30
0.0000000000
10
24.0435770452
20
-22.4546099736
30
0.0000000000
10
24.0086436356
20
-22.4886461277
30
0.0000000000
10
23.9705670189
20
-22.5191211676
30
0.0000000000
10
23.9297031416
20
-22.5457499582
30
0.0000000000
10
23.8864458750
20
-22.5682757657
30
0.0000000000
10
23.8411995965
20
-22.5864879967
30
0.0000000000
10
23.7944005060
20
-22.6002114741
30
0.0000000000
10
23.7464854713
20
-22.6093177988
30
0.0000000000
10
23.7081270541
20
-22.6127950667
30
0.0000000000
10
23.6858890248
20
-22.6133212532
30
0.0000000000
10
23.6798897556
20
-22.6133552999
30
0.0000000000
11
24.1759001796
21
-22.1472313693
31
0.0000000000
11
24.1702416211
21
-22.1955862932
31
0.0000000000
11
24.1599069784
21
-22.2431623578
31
0.0000000000
11
24.1449938532
21
-22.2895089249
31
0.0000000000
11
24.1256445234
21
-22.3341839750
31
0.0000000000
11
24.1020381623
21
-22.3767716827
31
0.0000000000
11
24.0744042262
21
-22.4168573536
31
0.0000000000
11
24.0429957262
21
-22.4540726541
31
0.0000000000
11
24.0081223363
21
-22.4880503315
31
0.0000000000
11
23.9701001312
21
-22.5184818209
31
0.0000000000
11
23.9293069832
21
-22.5450645249
31
0.0000000000
11
23.8861114161
21
-22.5675581916
31
0.0000000000
11
23.8409431120
21
-22.5857390702
31
0.0000000000
11
23.7942114886
21
-22.5994426690
31
0.0000000000
11
23.7463785128
21
-22.6085336463
31
0.0000000000
11
23.6978820344
21
-22.6129293988
31
0.0000000000
11
23.6798897556
21
-22.6133552999
31
0.0000000000
0
SPLINE
5
39B
100
AcDbEntity
8
0
100
AcDbSpline
62
7
6
CONTINUOUS
70
0
71
3
72
23
73
19
74
17
42
0.0000001000
43
0.0000001000
44
0.0000000001
12
0.0514704261
22
0.7581285978
32
0.0000000000
13
-0.7548696583
23
0.0896737394
33
0.0000000000
40
0.0000000000
40
0.0000000000
40
0.0000000000
40
0.0000000000
40
0.0640394003
40
0.1280779778
40
0.1921309501
40
0.2561750024
40
0.3202335431
40
0.3842785615
40
0.4483389470
40
0.5123845415
40
0.5764436258
40
0.6404884909
40
0.7045431040
40
0.7685862679
40
0.8326339351
40
0.8966746606
40
0.9607140145
40
1.0000000000
40
1.0000000000
40
1.0000000000
40
1.0000000000
10
26.6163524319
20
13.7991709402
30
0.0000000000
10
26.6174511436
20
13.8153543071
30
0.0000000000
10
26.6180725488
20
13.8478500537
30
0.0000000000
10
26.6142618670
20
13.8964391584
30
0.0000000000
10
26.6057452386
20
13.9444336125
30
0.0000000000
10
26.5926014842
20
13.9913762617
30
0.0000000000
10
26.5749566435
20
14.0368170977
30
0.0000000000
10
26.5529754710
20
14.0803306498
30
0.0000000000
10
26.5268694129
20
14.1214981368
30
0.0000000000
10
26.4968822075
20
14.1599350730
30
0.0000000000
10
26.4633026110
20
14.1952714865
30
0.0000000000
10
26.4264447389
20
14.2271770883
30
0.0000000000
10
26.3866627787
20
14.2553457514
30
0.0000000000
10
26.3443299677
20
14.2795135945
30
0.0000000000
10
26.2998516825
20
14.2994500135
30
0.0000000000
10
26.2536456037
20
14.3149677748
30
0.0000000000
10
26.2122753489
20
14.3245085429
30
0.0000000000
10
26.1863629129
20
14.3283736953
30
0.0000000000
10
26.1764776468
20
14.3295480024
30
0.0000000000
11
26.6163524319
21
13.7991709402
31
0.0000000000
11
26.6172821239
21
13.8478239202
31
0.0000000000
11
26.6134780126
21
13.8963362349
31
0.0000000000
11
26.6049737359
21
13.9442596934
31
0.0000000000
11
26.5918523487
21
13.9911227923
31
0.0000000000
11
26.5742328096
21
14.0364983843
31
0.0000000000
11
26.5522896406
21
14.0799367270
31
0.0000000000
11
26.5262207352
21
14.1210456209
31
0.0000000000
11
26.4962852800
21
14.1594162270
31
0.0000000000
11
26.4627538958
21
14.1947019039
31
0.0000000000
11
26.4259588093
21
14.2265531607
31
0.0000000000
11
26.3862352844
21
14.2546804346
31
0.0000000000
11
26.3439728873
21
14.2788081142
31
0.0000000000
11
26.2995619244
21
14.2987142584
31
0.0000000000
11
26.2534311322
21
14.3142069922
31
0.0000000000
11
26.2060137939
21
14.3251417711
31
0.0000000000
11
26.1764776468
21
14.3295480024
31
0.0000000000
0
SPLINE
5
39C
100
AcDbEntity
8
0
100
AcDbSpline
62
7
6
CONTINUOUS
70
0
71
3
72
21
73
17
74
15
42
0.0000001000
43
0.0000001000
44
0.0000000001
12
0.4154072089
22
-0.0027552739
32
0.0000000000
13
0.0281413250
23
0.4143909616
33
0.0000000000
40
0.0000000000
40
0.0000000000
40
0.0000000000
40
0.0000000000
40
0.0460859612
40
0.1187568674
40
0.1915508184
40
0.2645354051
40
0.3377915033
40
0.4113543325
40
0.4853061369
40
0.5597666454
40
0.6349098241
40
0.7106781123
40
0.7869493926
40
0.8638081696
40
0.9410586897
40
1.0000000000
40
1.0000000000
40
1.0000000000
40
1.0000000000
10
25.4668960730
20
-18.3751041239
30
0.0000000000
10
25.4732775531
20
-18.3751464504
30
0.0000000000
10
25.4897309125
20
-18.3746607924
30
0.0000000000
10
25.5160960086
20
-18.3714060596
30
0.0000000000
10
25.5455496838
20
-18.3642963440
30
0.0000000000
10
25.5740783155
20
-18.3538540429
30
0.0000000000
10
25.6013304172
20
-18.3401884768
30
0.0000000000
10
25.6269669591
20
-18.3234442171
30
0.0000000000
10
25.6506700493
20
-18.3037972128
30
0.0000000000
10
25.6721531352
20
-18.2814401271
30
0.0000000000
10
25.6911324355
20
-18.2566043330
30
0.0000000000
10
25.7073311584
20
-18.2295791515
30
0.0000000000
10
25.7205097830
20
-18.2006991335
30
0.0000000000
10
25.7304669148
20
-18.1703395696
30
0.0000000000
10
25.7365216491
20
-18.1414237536
30
0.0000000000
10
25.7385855649
20
-18.1226562057
30
0.0000000000
10
25.7391384604
20
-18.1145146236
30
0.0000000000
11
25.4668960730
21
-18.3751041239
31
0.0000000000
11
25.4860314488
21
-18.3745387657
31
0.0000000000
11
25.5159770712
21
-18.3708434381
31
0.0000000000
11
25.5453573729
21
-18.3637526578
31
0.0000000000
11
25.5738148175
21
-18.3533389209
31
0.0000000000
11
25.6010050559
21
-18.3397077841
31
0.0000000000
11
25.6265791471
21
-18.3230090970
31
0.0000000000
11
25.6502219840
21
-18.3034185855
31
0.0000000000
11
25.6716471030
21
-18.2811306703
31
0.0000000000
11
25.6905967301
21
-18.2563455017
31
0.0000000000
11
25.7067769229
21
-18.2293666801
31
0.0000000000
11
25.7199306681
21
-18.2005601214
31
0.0000000000
11
25.7298826310
21
-18.1702400628
31
0.0000000000
11
25.7364607488
21
-18.1388476558
31
0.0000000000
11
25.7391384604
21
-18.1145146236
31
0.0000000000
0
SPLINE
5
39D
100
AcDbEntity
8
0
100
AcDbSpline
62
7
6
CONTINUOUS
70
0
71
3
72
21
73
17
74
15
42
0.0000001000
43
0.0000001000
44
0.0000000001
12
0.0285006183
22
0.4198805354
32
0.0000000000
13
-0.4180313780
23
0.0496901692
33
0.0000000000
40
0.0000000000
40
0.0000000000
40
0.0000000000
40
0.0000000000
40
0.0608753076
40
0.1385329339
40
0.2159351760
40
0.2928752095
40
0.3693578721
40
0.4451366938
40
0.5202171348
40
0.5947284215
40
0.6687293125
40
0.7423408924
40
0.8156263962
40
0.8886427996
40
0.9614983290
40
1.0000000000
40
1.0000000000
40
1.0000000000
40
1.0000000000
10
26.1715864217
20
-11.7448155545
30
0.0000000000
10
26.1721647497
20
-11.7362954356
30
0.0000000000
10
26.1726336546
20
-11.7168388852
30
0.0000000000
10
26.1703485656
20
-11.6865834486
30
0.0000000000
10
26.1642802983
20
-11.6545494763
30
0.0000000000
10
26.1547049287
20
-11.6235567567
30
0.0000000000
10
26.1417812968
20
-11.5940515741
30
0.0000000000
10
26.1257189094
20
-11.5664319872
30
0.0000000000
10
26.1067747585
20
-11.5410476510
30
0.0000000000
10
26.0852190887
20
-11.5181814521
30
0.0000000000
10
26.0613373369
20
-11.4980752851
30
0.0000000000
10
26.0354431897
20
-11.4809467728
30
0.0000000000
10
26.0078702713
20
-11.4669808672
30
0.0000000000
10
25.9789685251
20
-11.4563264944
30
0.0000000000
10
25.9537850678
20
-11.4502310316
30
0.0000000000
10
25.9383213695
20
-11.4479114333
30
0.0000000000
10
25.9329564006
20
-11.4472737151
30
0.0000000000
11
26.1715864217
21
-11.7448155545
31
0.0000000000
11
26.1722032258
21
-11.7192048372
31
0.0000000000
11
26.1697401454
21
-11.6866268511
31
0.0000000000
11
26.1636732633
21
-11.6546334769
31
0.0000000000
11
26.1541109585
21
-11.6237090689
31
0.0000000000
11
26.1411934787
21
-11.5942391585
31
0.0000000000
11
26.1251593155
21
-11.5666842212
31
0.0000000000
11
26.1062615985
21
-11.5413741880
31
0.0000000000
11
26.0847545686
21
-11.5185684903
31
0.0000000000
11
26.0609353812
21
-11.4985214845
31
0.0000000000
11
26.0351040180
21
-11.4814391684
31
0.0000000000
11
26.0075980663
21
-11.4675104360
31
0.0000000000
11
25.9787750699
21
-11.4568871763
31
0.0000000000
11
25.9489841905
21
-11.4496782388
31
0.0000000000
11
25.9329564006
21
-11.4472737151
31
0.0000000000
0
SPLINE
5
39E
100
AcDbEntity
8
0
100
AcDbSpline
62
7
6
CONTINUOUS
70
0
71
3
72
8
73
4
74
2
42
0.0000001000
43
0.0000001000
44
0.0000000001
12
0.0118906592
22
-0.0014124060
32
0.0000000000
13
0.0119943180
23
0.0000677831
33
0.0000000000
40
0.0000000000
40
0.0000000000
40
0.0000000000
40
0.0000000000
40
1.0000000000
40
1.0000000000
40
1.0000000000
40
1.0000000000
10
10.7797336482
20
-27.3987647298
30
0.0000000000
10
10.7836972013
20
-27.3992355318
30
0.0000000000
10
10.7876963146
20
-27.3994606940
30
0.0000000000
10
10.7916944206
20
-27.3994380997
30
0.0000000000
11
10.7797336482
21
-27.3987647298
31
0.0000000000
11
10.7916944206
21
-27.3994380997
31
0.0000000000
0
SPLINE
5
39F
100
AcDbEntity
8
0
100
AcDbSpline
62
7
6
CONTINUOUS
70
0
71
3
72
20
73
16
74
14
42
0.0000001000
43
0.0000001000
44
0.0000000001
12
0.2524384689
22
0.0014265968
32
0.0000000000
13
0.0170704356
23
0.2514373078
33
0.0000000000
40
0.0000000000
40
0.0000000000
40
0.0000000000
40
0.0000000000
40
0.0190364051
40
0.0860748087
40
0.1544673012
40
0.2252543003
40
0.2988278074
40
0.3759035371
40
0.4563148830
40
0.5403981021
40
0.6275572570
40
0.7177735458
40
0.8102288948
40
0.9045824154
40
1.0000000000
40
1.0000000000
40
1.0000000000
40
1.0000000000
10
10.7916944206
20
-27.3994380997
30
0.0000000000
10
10.7932962609
20
-27.3994290472
30
0.0000000000
10
10.8005383941
20
-27.3992082925
30
0.0000000000
10
10.8134426951
20
-27.3973479954
30
0.0000000000
10
10.8300027681
20
-27.3919971664
30
0.0000000000
10
10.8459788733
20
-27.3838286767
30
0.0000000000
10
10.8611600542
20
-27.3729712517
30
0.0000000000
10
10.8753136294
20
-27.3596086491
30
0.0000000000
10
10.8882640063
20
-27.3439234726
30
0.0000000000
10
10.8998135952
20
-27.3261670726
30
0.0000000000
10
10.9098178846
20
-27.3065721545
30
0.0000000000
10
10.9181239675
20
-27.2854453027
30
0.0000000000
10
10.9246236277
20
-27.2630669730
30
0.0000000000
10
10.9292190169
20
-27.2397793422
30
0.0000000000
10
10.9309652447
20
-27.2239109437
30
0.0000000000
10
10.9315081846
20
-27.2159137635
30
0.0000000000
11
10.7916944206
21
-27.3994380997
31
0.0000000000
11
10.7964971047
21
-27.3992914964
31
0.0000000000
11
10.8132221601
21
-27.3969029070
31
0.0000000000
11
10.8296353327
21
-27.3916409871
31
0.0000000000
11
10.8455428146
21
-27.3835664283
31
0.0000000000
11
10.8606575423
21
-27.3728267830
31
0.0000000000
11
10.8748208994
21
-27.3595337872
31
0.0000000000
11
10.8877639220
21
-27.3439406300
31
0.0000000000
11
10.8993573526
21
-27.3262030351
31
0.0000000000
11
10.9093805168
21
-27.3066577068
31
0.0000000000
11
10.9177288896
21
-27.2855099300
31
0.0000000000
11
10.9242505631
21
-27.2631410043
31
0.0000000000
11
10.9288695116
21
-27.2398153216
31
0.0000000000
11
10.9315081846
21
-27.2159137635
31
0.0000000000
0
SPLINE
5
3A0
100
AcDbEntity
8
0
100
AcDbSpline
62
9
6
CONTINUOUS
70
0
71
3
72
16
73
12
74
10
42
0.0000001000
43
0.0000001000
44
0.0000000001
12
0.0115775624
22
-0.1182525931
32
0.0000000000
13
-0.1482335295
23
0.0028016033
33
0.0000000000
40
0.0000000000
40
0.0000000000
40
0.0000000000
40
0.0000000000
40
0.0016001628
40
0.0259853358
40
0.0784445043
40
0.1610489200
40
0.2735486645
40
0.4150790983
40
0.5844022857
40
0.7799781801
40
1.0000000000
40
1.0000000000
40
1.0000000000
40
1.0000000000
10
24.1758704647
20
-22.1472342786
30
0.0000000000
10
24.1758766400
20
-22.1472973530
30
0.0000000000
10
24.1758873145
20
-22.1483086605
30
0.0000000000
10
24.1711596252
20
-22.1505848970
30
0.0000000000
10
24.1642875496
20
-22.1516300092
30
0.0000000000
10
24.1516672954
20
-22.1532321570
30
0.0000000000
10
24.1352500097
20
-22.1541384600
30
0.0000000000
10
24.1142642670
20
-22.1548496509
30
0.0000000000
10
24.0892624856
20
-22.1551303215
30
0.0000000000
10
24.0603464226
20
-22.1550496903
30
0.0000000000
10
24.0398115166
20
-22.1547512759
30
0.0000000000
10
24.0289399796
20
-22.1545458046
30
0.0000000000
11
24.1758704647
21
-22.1472342786
31
0.0000000000
11
24.1758719755
21
-22.1474209289
31
0.0000000000
11
24.1729844443
21
-22.1495964492
31
0.0000000000
11
24.1654262428
21
-22.1514307328
31
0.0000000000
11
24.1532685533
21
-22.1529065044
31
0.0000000000
11
24.1366258757
21
-22.1540098655
31
0.0000000000
11
24.1156549487
21
-22.1547304248
31
0.0000000000
11
24.0905532745
21
-22.1550613960
31
0.0000000000
11
24.0615572577
21
-22.1549996621
31
0.0000000000
11
24.0289399796
21
-22.1545458046
31
0.0000000000
0
SPLINE
5
3A1
100
AcDbEntity
8
0
100
AcDbSpline
62
9
6
CONTINUOUS
70
0
71
3
72
8
73
4
74
2
42
0.0000001000
43
0.0000001000
44
0.0000000001
12
0.0028142678
22
0.0000157854
32
0.0000000000
13
0.0028137987
23
0.0000476346
33
0.0000000000
40
0.0000000000
40
0.0000000000
40
0.0000000000
40
0.0000000000
40
1.0000000000
40
1.0000000000
40
1.0000000000
40
1.0000000000
10
23.6798900607
20
-22.6133553125
30
0.0000000000
10
23.6808281500
20
-22.6133500508
30
0.0000000000
10
23.6817661962
20
-22.6133394851
30
0.0000000000
10
23.6827041291
20
-22.6133236069
30
0.0000000000
11
23.6798900607
21
-22.6133553125
31
0.0000000000
11
23.6827041291
21
-22.6133236069
31
0.0000000000
0
SPLINE
5
3A2
100
AcDbEntity
8
0
100
AcDbSpline
62
9
6
CONTINUOUS
70
0
71
3
72
9
73
5
74
3
42
0.0000001000
43
0.0000001000
44
0.0000000001
12
0.0022022642
22
0.0000372820
32
0.0000000000
13
0.0022017495
23
0.0000568162
33
0.0000000000
40
0.0000000000
40
0.0000000000
40
0.0000000000
40
0.0000000000
40
0.6441656297
40
1.0000000000
40
1.0000000000
40
1.0000000000
40
1.0000000000
10
23.6827041291
20
-22.6133236069
30
0.0000000000
10
23.6831770034
20
-22.6133156017
30
0.0000000000
10
23.6839110467
20
-22.6133010781
30
0.0000000000
10
23.6846449990
20
-22.6132832974
30
0.0000000000
10
23.6849061518
20
-22.6132765584
30
0.0000000000
11
23.6827041291
21
-22.6133236069
31
0.0000000000
11
23.6841226566
21
-22.6132955390
31
0.0000000000
11
23.6849061518
21
-22.6132765584
31
0.0000000000
0
SPLINE
5
3A3
100
AcDbEntity
8
0
100
AcDbSpline
62
9
6
CONTINUOUS
70
0
71
3
72
22
73
18
74
16
42
0.0000001000
43
0.0000001000
44
0.0000000001
12
0.6268307680
22
0.0161753877
32
0.0000000000
13
0.0347088302
23
0.6254617009
33
0.0000000000
40
0.0000000000
40
0.0000000000
40
0.0000000000
40
0.0000000000
40
0.0541406389
40
0.1101227828
40
0.1671843378
40
0.2257461178
40
0.2861424724
40
0.3486112555
40
0.4132919091
40
0.4802294112
40
0.5493818809
40
0.6206301637
40
0.6937880722
40
0.7686131746
40
0.8448153938
40
0.9220704566
40
1.0000000000
40
1.0000000000
40
1.0000000000
40
1.0000000000
10
23.6849061518
20
-22.6132765584
30
0.0000000000
10
23.6962184912
20
-22.6129846431
30
0.0000000000
10
23.7191793385
20
-22.6108180841
30
0.0000000000
10
23.7532726871
20
-22.6028215867
30
0.0000000000
10
23.7868514937
20
-22.5900249575
30
0.0000000000
10
23.8193346178
20
-22.5726273528
30
0.0000000000
10
23.8504103531
20
-22.5508110216
30
0.0000000000
10
23.8797860885
20
-22.5247972605
30
0.0000000000
10
23.9071875255
20
-22.4948434608
30
0.0000000000
10
23.9323596706
20
-22.4612411439
30
0.0000000000
10
23.9550680828
20
-22.4243140943
30
0.0000000000
10
23.9751006760
20
-22.3844162489
30
0.0000000000
10
23.9922697239
20
-22.3419289289
30
0.0000000000
10
24.0064136836
20
-22.2972583142
30
0.0000000000
10
24.0173992330
20
-22.2508301987
30
0.0000000000
10
24.0251214972
20
-22.2030966053
30
0.0000000000
10
24.0280383652
20
-22.1707931195
30
0.0000000000
10
24.0289399796
20
-22.1545458046
30
0.0000000000
11
23.6849061518
21
-22.6132765584
31
0.0000000000
11
23.7186735901
21
-22.6101048572
31
0.0000000000
11
23.7528237827
21
-22.6021318914
31
0.0000000000
11
23.7862444576
21
-22.5894534023
31
0.0000000000
11
23.8186138584
21
-22.5721914554
31
0.0000000000
11
23.8496203525
21
-22.5505122442
31
0.0000000000
11
23.8789654282
21
-22.5246244921
31
0.0000000000
11
23.9063665702
21
-22.4947774421
31
0.0000000000
11
23.9315599816
21
-22.4612584554
31
0.0000000000
11
23.9543031240
21
-22.4243902429
31
0.0000000000
11
23.9743770628
21
-22.3845277312
31
0.0000000000
11
23.9915885444
21
-22.3420546972
31
0.0000000000
11
24.0057719204
21
-22.2973798855
31
0.0000000000
11
24.0167904770
21
-22.2509340883
31
0.0000000000
11
24.0245383336
21
-22.2031638966
31
0.0000000000
11
24.0289399796
21
-22.1545458046
31
0.0000000000
0
SPLINE
5
3A4
100
AcDbEntity
8
0
100
AcDbSpline
62
9
6
CONTINUOUS
70
0
71
3
72
8
73
4
74
2
42
0.0000001000
43
0.0000001000
44
0.0000000001
12
-0.0188194332
22
0.0022352634
32
0.0000000000
13
-0.0189148762
23
0.0008479370
33
0.0000000000
40
0.0000000000
40
0.0000000000
40
0.0000000000
40
0.0000000000
40
1.0000000000
40
1.0000000000
40
1.0000000000
40
1.0000000000
10
26.1764774749
20
14.3295474031
30
0.0000000000
10
26.1702043305
20
14.3302924909
30
0.0000000000
10
26.1639052033
20
14.3308073228
30
0.0000000000
10
26.1576002445
20
14.3310899684
30
0.0000000000
11
26.1764774749
21
14.3295474031
31
0.0000000000
11
26.1576002445
21
14.3310899684
31
0.0000000000
0
SPLINE
5
3A5
100
AcDbEntity
8
0
100
AcDbSpline
62
9
6
CONTINUOUS
70
0
71
3
72
16
73
12
74
10
42
0.0000001000
43
0.0000001000
44
0.0000000001
12
0.0115775624
22
-0.1182525931
32
0.0000000000
13
-0.1482335295
23
0.0028016033
33
0.0000000000
40
0.0000000000
40
0.0000000000
40
0.0000000000
40
0.0000000000
40
0.0016001628
40
0.0259853358
40
0.0784445043
40
0.1610489200
40
0.2735486645
40
0.4150790983
40
0.5844022857
40
0.7799781801
40
1.0000000000
40
1.0000000000
40
1.0000000000
40
1.0000000000
10
26.6163227169
20
13.7991680310
30
0.0000000000
10
26.6163288923
20
13.7991049565
30
0.0000000000
10
26.6163395668
20
13.7980936491
30
0.0000000000
10
26.6116118775
20
13.7958174125
30
0.0000000000
10
26.6047398018
20
13.7947723003
30
0.0000000000
10
26.5921195477
20
13.7931701525
30
0.0000000000
10
26.5757022620
20
13.7922638495
30
0.0000000000
10
26.5547165193
20
13.7915526586
30
0.0000000000
10
26.5297147379
20
13.7912719880
30
0.0000000000
10
26.5007986748
20
13.7913526192
30
0.0000000000
10
26.4802637689
20
13.7916510337
30
0.0000000000
10
26.4693922319
20
13.7918565049
30
0.0000000000
11
26.6163227169
21
13.7991680310
31
0.0000000000
11
26.6163242278
21
13.7989813806
31
0.0000000000
11
26.6134366966
21
13.7968058603
31
0.0000000000
11
26.6058784951
21
13.7949715768
31
0.0000000000
11
26.5937208056
21
13.7934958051
31
0.0000000000
11
26.5770781279
21
13.7923924440
31
0.0000000000
11
26.5561072010
21
13.7916718848
31
0.0000000000
11
26.5310055268
21
13.7913409136
31
0.0000000000
11
26.5020095099
21
13.7914026474
31
0.0000000000
11
26.4693922319
21
13.7918565049
31
0.0000000000
0
SPLINE
5
3A6
100
AcDbEntity
8
0
100
AcDbSpline
62
7
6
CONTINUOUS
70
0
71
3
72
20
73
16
74
14
42
0.0000001000
43
0.0000001000
44
0.0000000001
12
0.0100148975
22
0.1481987638
32
0.0000000000
13
-0.0794312463
23
0.1254291377
33
0.0000000000
40
0.0000000000
40
0.0000000000
40
0.0000000000
40
0.0000000000
40
0.0259994865
40
0.0909481665
40
0.1593456522
40
0.2311737045
40
0.3063328141
40
0.3846636891
40
0.4659609141
40
0.5499831556
40
0.6364527352
40
0.7250570295
40
0.8154471469
40
0.9072363828
40
1.0000000000
40
1.0000000000
40
1.0000000000
40
1.0000000000
10
18.3033986244
20
-11.3279118276
30
0.0000000000
10
18.3034854184
20
-11.3266274637
30
0.0000000000
10
18.3036887249
20
-11.3221277397
30
0.0000000000
10
18.3034875313
20
-11.3142339174
30
0.0000000000
10
18.3023850579
20
-11.3041302374
30
0.0000000000
10
18.3004767309
20
-11.2936355893
30
0.0000000000
10
18.2978086552
20
-11.2828025826
30
0.0000000000
10
18.2944241012
20
-11.2716820510
30
0.0000000000
10
18.2903646905
20
-11.2603237432
30
0.0000000000
10
18.2856714334
20
-11.2487770821
30
0.0000000000
10
18.2803856840
20
-11.2370918377
30
0.0000000000
10
18.2745501415
20
-11.2253188849
30
0.0000000000
10
18.2682097149
20
-11.2135106339
30
0.0000000000
10
18.2614124582
20
-11.2017215175
30
0.0000000000
10
18.2566279863
20
-11.1939402153
30
0.0000000000
10
18.2541718764
20
-11.1900617951
30
0.0000000000
11
18.3033986244
21
-11.3279118276
31
0.0000000000
11
18.3035756583
21
-11.3240543078
31
0.0000000000
11
18.3033618452
21
-11.3144140870
31
0.0000000000
11
18.3022871668
21
-11.3043164968
31
0.0000000000
11
18.3004016007
21
-11.2938205845
31
0.0000000000
11
18.2977514811
21
-11.2829813705
31
0.0000000000
11
18.2943805547
21
-11.2718512651
31
0.0000000000
11
18.2903309804
21
-11.2604811106
31
0.0000000000
11
18.2856441276
21
-11.2489207187
31
0.0000000000
11
18.2803616832
21
-11.2372202061
31
0.0000000000
11
18.2745265609
21
-11.2254305792
31
0.0000000000
11
18.2681838447
21
-11.2136043534
31
0.0000000000
11
18.2613816619
21
-11.2017959573
31
0.0000000000
11
18.2541718764
21
-11.1900617951
31
0.0000000000
0
SPLINE
5
3A7
100
AcDbEntity
8
0
100
AcDbSpline
62
7
6
CONTINUOUS
70
0
71
3
72
20
73
16
74
14
42
0.0000001000
43
0.0000001000
44
0.0000000001
12
-0.0109676316
22
-0.1609198236
32
0.0000000000
13
-0.0998023812
23
-0.1266329553
33
0.0000000000
40
0.0000000000
40
0.0000000000
40
0.0000000000
40
0.0000000000
40
0.0274430575
40
0.0954971841
40
0.1664369017
40
0.2402050340
40
0.3166860335
40
0.3957192191
40
0.4771074120
40
0.5606241373
40
0.6460115051
40
0.7329808127
40
0.8212109597
40
0.9103469737
40
1.0000000000
40
1.0000000000
40
1.0000000000
40
1.0000000000
10
17.8218688445
20
-18.4205571301
30
0.0000000000
10
17.8217685160
20
-18.4220291740
30
0.0000000000
10
17.8213200163
20
-18.4271449685
30
0.0000000000
10
17.8199876842
20
-18.4359999328
30
0.0000000000
10
17.8174457111
20
-18.4471580786
30
0.0000000000
10
17.8140538620
20
-18.4585593396
30
0.0000000000
10
17.8098652418
20
-18.4701547185
30
0.0000000000
10
17.8049299515
20
-18.4818969523
30
0.0000000000
10
17.7992962916
20
-18.4937398500
30
0.0000000000
10
17.7930118735
20
-18.5056375848
30
0.0000000000
10
17.7861246572
20
-18.5175441059
30
0.0000000000
10
17.7786840549
20
-18.5294124903
30
0.0000000000
10
17.7707418457
20
-18.5411946551
30
0.0000000000
10
17.7623531870
20
-18.5528410081
30
0.0000000000
10
17.7565099369
20
-18.5604710851
30
0.0000000000
10
17.7535274084
20
-18.5642554277
30
0.0000000000
11
17.8218688445
21
-18.4205571301
31
0.0000000000
11
17.8214846527
21
-18.4249665351
31
0.0000000000
11
17.8198794179
21
-18.4358211245
31
0.0000000000
11
17.8173617107
21
-18.4469784839
31
0.0000000000
11
17.8139892074
21
-18.4583842682
31
0.0000000000
11
17.8098154193
21
-18.4699877798
31
0.0000000000
11
17.8048909366
21
-18.4817406292
31
0.0000000000
11
17.7992645618
21
-18.4935958045
31
0.0000000000
11
17.7929841717
21
-18.5055072639
31
0.0000000000
11
17.7860979997
21
-18.5174286986
31
0.0000000000
11
17.7786556140
21
-18.5293130999
31
0.0000000000
11
17.7707089346
21
-18.5411122928
31
0.0000000000
11
17.7623131502
21
-18.5527766967
31
0.0000000000
11
17.7535274084
21
-18.5642554277
31
0.0000000000
0
SPLINE
5
3A8
100
AcDbEntity
8
0
100
AcDbSpline
62
9
6
CONTINUOUS
70
0
71
3
72
14
73
10
74
8
42
0.0000001000
43
0.0000001000
44
0.0000000001
12
-0.0134834301
22
-0.0757216650
32
0.0000000000
13
-0.0739620970
23
0.0013978786
33
0.0000000000
40
0.0000000000
40
0.0000000000
40
0.0000000000
40
0.0000000000
40
0.0116473530
40
0.0664906707
40
0.1669187537
40
0.3126245471
40
0.5018532438
40
0.7320471107
40
1.0000000000
40
1.0000000000
40
1.0000000000
40
1.0000000000
10
25.7388380447
20
-18.1144611198
30
0.0000000000
10
25.7387856960
20
-18.1147551055
30
0.0000000000
10
25.7381258440
20
-18.1164582586
30
0.0000000000
10
25.7331216176
20
-18.1163494465
30
0.0000000000
10
25.7263603705
20
-18.1177886973
30
0.0000000000
10
25.7153467509
20
-18.1180524750
30
0.0000000000
10
25.7015287939
20
-18.1184746378
30
0.0000000000
10
25.6845360875
20
-18.1184512230
30
0.0000000000
10
25.6722645886
20
-18.1182964422
30
0.0000000000
10
25.6656584695
20
-18.1181715870
30
0.0000000000
11
25.7388380447
21
-18.1144611198
31
0.0000000000
11
25.7385135995
21
-18.1152982053
31
0.0000000000
11
25.7346338373
21
-18.1164844219
31
0.0000000000
11
25.7272614051
21
-18.1174010613
31
0.0000000000
11
25.7165014360
21
-18.1180350517
31
0.0000000000
11
25.7025073711
21
-18.1183773521
31
0.0000000000
11
25.6854787708
21
-18.1184230813
31
0.0000000000
11
25.6656584695
21
-18.1181715870
31
0.0000000000
0
SPLINE
5
3A9
100
AcDbEntity
8
0
100
AcDbSpline
62
9
6
CONTINUOUS
70
0
71
3
72
14
73
10
74
8
42
0.0000001000
43
0.0000001000
44
0.0000000001
12
-0.0134798122
22
-0.0757214610
32
0.0000000000
13
-0.0739621959
23
0.0013978803
33
0.0000000000
40
0.0000000000
40
0.0000000000
40
0.0000000000
40
0.0000000000
40
0.0116487078
40
0.0664919923
40
0.1669199714
40
0.3126255824
40
0.5018540150
40
0.7320475359
40
1.0000000000
40
1.0000000000
40
1.0000000000
40
1.0000000000
10
26.1712859624
20
-11.7447620631
30
0.0000000000
10
26.1712336216
20
-11.7450560822
30
0.0000000000
10
26.1705737785
20
-11.7467593063
30
0.0000000000
10
26.1655695136
20
-11.7466504923
30
0.0000000000
10
26.1588082615
20
-11.7480897432
30
0.0000000000
10
26.1477946425
20
-11.7483535206
30
0.0000000000
10
26.1339766858
20
-11.7487756833
30
0.0000000000
10
26.1169839825
20
-11.7487522683
30
0.0000000000
10
26.1047124861
20
-11.7485974876
30
0.0000000000
10
26.0981063686
20
-11.7484726324
30
0.0000000000
11
26.1712859624
21
-11.7447620631
31
0.0000000000
11
26.1709614965
21
-11.7455992519
31
0.0000000000
11
26.1670817312
21
-11.7467854682
31
0.0000000000
11
26.1597092966
21
-11.7477021072
31
0.0000000000
11
26.1489493266
21
-11.7483360973
31
0.0000000000
11
26.1349552625
21
-11.7486783976
31
0.0000000000
11
26.1179266650
21
-11.7487241267
31
0.0000000000
11
26.0981063686
21
-11.7484726324
31
0.0000000000
0
SPLINE
5
3AA
100
AcDbEntity
8
0
100
AcDbSpline
62
9
6
CONTINUOUS
70
0
71
3
72
8
73
4
74
2
42
0.0000001000
43
0.0000001000
44
0.0000000001
12
-0.0109700264
22
0.0013031182
32
0.0000000000
13
-0.0110257655
23
0.0003604477
33
0.0000000000
40
0.0000000000
40
0.0000000000
40
0.0000000000
40
0.0000000000
40
1.0000000000
40
1.0000000000
40
1.0000000000
40
1.0000000000
10
25.9329383226
20
-11.4472722383
30
0.0000000000
10
25.9292816472
20
-11.4468378655
30
0.0000000000
10
25.9256076977
20
-11.4465597828
30
0.0000000000
10
25.9219324426
20
-11.4464396336
30
0.0000000000
11
25.9329383226
21
-11.4472722383
31
0.0000000000
11
25.9219324426
21
-11.4464396336
31
0.0000000000
0
SPLINE
5
3AB
100
AcDbEntity
8
0
100
AcDbSpline
62
7
6
CONTINUOUS
70
0
71
3
72
15
73
11
74
9
42
0.0000001000
43
0.0000001000
44
0.0000000001
12
-0.0168063051
22
-0.2469586125
32
0.0000000000
13
-0.1152333985
23
-0.2190030286
33
0.0000000000
40
0.0000000000
40
0.0000000000
40
0.0000000000
40
0.0000000000
40
0.0977376416
40
0.2203745119
40
0.3452991659
40
0.4724879760
40
0.6018107085
40
0.7330551774
40
0.8659174315
40
1.0000000000
40
1.0000000000
40
1.0000000000
40
1.0000000000
10
20.0439413927
20
14.3092436563
30
0.0000000000
10
20.0433938565
20
14.3011979388
30
0.0000000000
10
20.0415704760
20
14.2830975980
30
0.0000000000
10
20.0368708420
20
14.2549823057
30
0.0000000000
10
20.0298324403
20
14.2248619213
30
0.0000000000
10
20.0209296172
20
14.1946671061
30
0.0000000000
10
20.0103134777
20
14.1644808615
30
0.0000000000
10
19.9981267549
20
14.1343903317
30
0.0000000000
10
19.9845095275
20
14.1044898438
30
0.0000000000
10
19.9746049292
20
14.0848161339
30
0.0000000000
10
19.9694546658
20
14.0750279711
30
0.0000000000
11
20.0439413927
21
14.3092436563
31
0.0000000000
11
20.0415451773
21
14.2851735226
31
0.0000000000
11
20.0365878168
21
14.2552322796
31
0.0000000000
11
20.0295927754
21
14.2251190304
31
0.0000000000
11
20.0207247572
21
14.1949187900
31
0.0000000000
11
20.0101352059
21
14.1647181353
31
0.0000000000
11
19.9979667107
21
14.1346048193
31
0.0000000000
11
19.9843591153
21
14.1046735017
31
0.0000000000
11
19.9694546658
21
14.0750279711
31
0.0000000000
0
SPLINE
5
3AC
100
AcDbEntity
8
0
100
AcDbSpline
62
9
6
CONTINUOUS
70
0
71
3
72
8
73
4
74
2
42
0.0000001000
43
0.0000001000
44
0.0000000001
12
-0.0371062361
22
0.0044049555
32
0.0000000000
13
-0.0373036458
23
0.0016349259
33
0.0000000000
40
0.0000000000
40
0.0000000000
40
0.0000000000
40
0.0000000000
40
1.0000000000
40
1.0000000000
40
1.0000000000
40
1.0000000000
10
19.7256107812
20
20.1841883314
30
0.0000000000
10
19.7132420358
20
20.1856566499
30
0.0000000000
10
19.7008199754
20
20.1866647661
30
0.0000000000
10
19.6883854268
20
20.1872097414
30
0.0000000000
11
19.7256107812
21
20.1841883314
31
0.0000000000
11
19.6883854268
21
20.1872097414
31
0.0000000000
0
SPLINE
5
3AD
100
AcDbEntity
8
0
100
AcDbSpline
62
9
6
CONTINUOUS
70
0
71
3
72
8
73
4
74
2
42
0.0000001000
43
0.0000001000
44
0.0000000001
12
-0.0376346708
22
0.0044693796
32
0.0000000000
13
-0.0378341505
23
0.0016960712
33
0.0000000000
40
0.0000000000
40
0.0000000000
40
0.0000000000
40
0.0000000000
40
1.0000000000
40
1.0000000000
40
1.0000000000
40
1.0000000000
10
18.7513006217
20
20.2999197094
30
0.0000000000
10
18.7387557315
20
20.3014095026
30
0.0000000000
10
18.7261574267
20
20.3024385519
30
0.0000000000
10
18.7135460432
20
20.3030039089
30
0.0000000000
11
18.7513006217
21
20.2999197094
31
0.0000000000
11
18.7135460432
21
20.3030039089
31
0.0000000000
0
SPLINE
5
3AE
100
AcDbEntity
8
0
100
AcDbSpline
62
9
6
CONTINUOUS
70
0
71
3
72
8
73
4
74
2
42
0.0000001000
43
0.0000001000
44
0.0000000001
12
0.0206795662
22
-0.0024282258
32
0.0000000000
13
0.0201269499
23
-0.0054216952
33
0.0000000000
40
0.0000000000
40
0.0000000000
40
0.0000000000
40
0.0000000000
40
1.0000000000
40
1.0000000000
40
1.0000000000
40
1.0000000000
10
25.9219324426
20
-11.4464396336
30
0.0000000000
10
25.9288256313
20
-11.4472490422
30
0.0000000000
10
25.9356686014
20
-11.4485740894
30
0.0000000000
10
25.9423775847
20
-11.4503813212
30
0.0000000000
11
25.9219324426
21
-11.4464396336
31
0.0000000000
11
25.9423775847
21
-11.4503813212
31
0.0000000000
0
SPLINE
5
3AF
100
AcDbEntity
8
0
100
AcDbSpline
62
9
6
CONTINUOUS
70
0
71
3
72
21
73
17
74
15
42
0.0000001000
43
0.0000001000
44
0.0000000001
12
0.3498815931
22
-0.0942493204
32
0.0000000000
13
-0.0265040345
23
-0.3609862509
33
0.0000000000
40
0.0000000000
40
0.0000000000
40
0.0000000000
40
0.0000000000
40
0.0584894569
40
0.1184756901
40
0.1803854926
40
0.2445291310
40
0.3110944461
40
0.3801473394
40
0.4516452816
40
0.5254476666
40
0.6013310309
40
0.6790004588
40
0.7581081045
40
0.8382618505
40
0.9190371734
40
1.0000000000
40
1.0000000000
40
1.0000000000
40
1.0000000000
10
25.9423775847
20
-11.4503813212
30
0.0000000000
10
25.9491990462
20
-11.4522188517
30
0.0000000000
10
25.9627359549
20
-11.4569506685
30
0.0000000000
10
25.9821507220
20
-11.4669335949
30
0.0000000000
10
26.0006519450
20
-11.4797482199
30
0.0000000000
10
26.0180429836
20
-11.4952448937
30
0.0000000000
10
26.0341394294
20
-11.5132479706
30
0.0000000000
10
26.0487720140
20
-11.5335577125
30
0.0000000000
10
26.0617865177
20
-11.5559513620
30
0.0000000000
10
26.0730454398
20
-11.5801850459
30
0.0000000000
10
26.0824292084
20
-11.6059953801
30
0.0000000000
10
26.0898378457
20
-11.6331023494
30
0.0000000000
10
26.0951921329
20
-11.6612116339
30
0.0000000000
10
26.0984346029
20
-11.6900184796
30
0.0000000000
10
26.0995306832
20
-11.7192082204
30
0.0000000000
10
26.0988216491
20
-11.7387304767
30
0.0000000000
10
26.0981063686
20
-11.7484726324
30
0.0000000000
11
25.9423775847
21
-11.4503813212
31
0.0000000000
11
25.9623735022
21
-11.4573356555
31
0.0000000000
11
25.9817021706
21
-11.4672268080
31
0.0000000000
11
26.0001512618
21
-11.4799461955
31
0.0000000000
11
26.0175187150
21
-11.4953544562
31
0.0000000000
11
26.0336145827
21
-11.5132831014
31
0.0000000000
11
26.0482622560
21
-11.5335354541
31
0.0000000000
11
26.0613013907
21
-11.5558897908
31
0.0000000000
11
26.0725891142
21
-11.5801011681
31
0.0000000000
11
26.0820018449
21
-11.6059045357
31
0.0000000000
11
26.0894363301
21
-11.6330167625
31
0.0000000000
11
26.0948112981
21
-11.6611413958
31
0.0000000000
11
26.0980678282
21
-11.6899703326
31
0.0000000000
11
26.0991701901
21
-11.7191868115
31
0.0000000000
11
26.0981063686
21
-11.7484726324
31
0.0000000000
0
SPLINE
5
3B0
100
AcDbEntity
8
0
100
AcDbSpline
62
9
6
CONTINUOUS
70
0
71
3
72
22
73
18
74
16
42
0.0000001000
43
0.0000001000
44
0.0000000001
12
-0.0221549339
22
-0.3552528427
32
0.0000000000
13
-0.3563750867
23
0.0023846209
33
0.0000000000
40
0.0000000000
40
0.0000000000
40
0.0000000000
40
0.0000000000
40
0.0819884797
40
0.1632001003
40
0.2432174266
40
0.3216506316
40
0.3981602570
40
0.4724692789
40
0.5443734023
40
0.6137597982
40
0.6806184443
40
0.7450556856
40
0.8073004002
40
0.8677094810
40
0.9267549678
40
0.9850016510
40
1.0000000000
40
1.0000000000
40
1.0000000000
40
1.0000000000
10
25.6656584695
20
-18.1181715870
30
0.0000000000
10
25.6650529863
20
-18.1278804672
30
0.0000000000
10
25.6631345096
20
-18.1471696982
30
0.0000000000
10
25.6581328817
20
-18.1756168268
30
0.0000000000
10
25.6510693894
20
-18.2031910264
30
0.0000000000
10
25.6420198726
20
-18.2295910869
30
0.0000000000
10
25.6310812089
20
-18.2545308762
30
0.0000000000
10
25.6183700410
20
-18.2777394880
30
0.0000000000
10
25.6040213020
20
-18.2989646178
30
0.0000000000
10
25.5881868086
20
-18.3179744105
30
0.0000000000
10
25.5710335016
20
-18.3345596111
30
0.0000000000
10
25.5527425570
20
-18.3485346571
30
0.0000000000
10
25.5335082936
20
-18.3597392722
30
0.0000000000
10
25.5135389813
20
-18.3680401984
30
0.0000000000
10
25.4930541853
20
-18.3733339368
30
0.0000000000
10
25.4773925648
20
-18.3750074261
30
0.0000000000
10
25.4686904201
20
-18.3751159621
30
0.0000000000
10
25.4669087408
20
-18.3751040403
30
0.0000000000
11
25.6656584695
21
-18.1181715870
31
0.0000000000
11
25.6627625374
21
-18.1472107718
31
0.0000000000
11
25.6577439145
21
-18.1756784940
31
0.0000000000
11
25.6506573096
21
-18.2032643963
31
0.0000000000
11
25.6415805336
21
-18.2296653990
31
0.0000000000
11
25.6306130313
21
-18.2545923679
31
0.0000000000
11
25.6178747323
21
-18.2777726703
31
0.0000000000
11
25.6035053747
21
-18.2989519672
31
0.0000000000
11
25.5876622739
21
-18.3178984106
31
0.0000000000
11
25.5705190278
21
-18.3344043976
31
0.0000000000
11
25.5522633064
21
-18.3482892117
31
0.0000000000
11
25.5330954246
21
-18.3594005404
31
0.0000000000
11
25.5132249610
21
-18.3676169166
31
0.0000000000
11
25.4928696169
21
-18.3728482674
31
0.0000000000
11
25.4722529961
21
-18.3750372123
31
0.0000000000
11
25.4669087408
21
-18.3751040403
31
0.0000000000
0
SPLINE
5
3B1
100
AcDbEntity
8
0
100
AcDbSpline
62
9
6
CONTINUOUS
70
0
71
3
72
23
73
19
74
17
42
0.0000001000
43
0.0000001000
44
0.0000000001
12
0.0546406388
22
0.6804943335
32
0.0000000000
13
-0.6780227585
23
0.0796446878
33
0.0000000000
40
0.0000000000
40
0.0000000000
40
0.0000000000
40
0.0000000000
40
0.0718369085
40
0.1435349520
40
0.2147287401
40
0.2850904729
40
0.3543112542
40
0.4221130815
40
0.4882562648
40
0.5525490030
40
0.6148567939
40
0.6751119886
40
0.7333228476
40
0.7895812890
40
0.8440679800
40
0.8970529191
40
0.9488894522
40
1.0000000000
40
1.0000000000
40
1.0000000000
40
1.0000000000
10
26.4693922319
20
13.7918565049
30
0.0000000000
10
26.4707006368
20
13.8081513747
30
0.0000000000
10
26.4721841008
20
13.8408117402
30
0.0000000000
10
26.4710104138
20
13.8896992406
30
0.0000000000
10
26.4664495478
20
13.9380538031
30
0.0000000000
10
26.4585444037
20
13.9854047229
30
0.0000000000
10
26.4473696288
20
14.0313005261
30
0.0000000000
10
26.4330305641
20
14.0753025395
30
0.0000000000
10
26.4156619969
20
14.1169907238
30
0.0000000000
10
26.3954266839
20
14.1559668204
30
0.0000000000
10
26.3725135883
20
14.1918578905
30
0.0000000000
10
26.3471359774
20
14.2243192072
30
0.0000000000
10
26.3195296991
20
14.2530366733
30
0.0000000000
10
26.2899513891
20
14.2777288599
30
0.0000000000
10
26.2586786997
20
14.2981488007
30
0.0000000000
10
26.2260059348
20
14.3140868888
30
0.0000000000
10
26.1922582232
20
14.3253728865
30
0.0000000000
10
26.1691516161
20
14.3297330739
30
0.0000000000
10
26.1576002445
20
14.3310899684
30
0.0000000000
11
26.4693922319
21
13.7918565049
31
0.0000000000
11
26.4716174352
21
13.8408479408
31
0.0000000000
11
26.4704348857
21
13.8897807973
31
0.0000000000
11
26.4658546350
21
13.9381673948
31
0.0000000000
11
26.4579206582
21
13.9855424965
31
0.0000000000
11
26.4467094081
21
14.0314492842
31
0.0000000000
11
26.4323287888
21
14.0754459655
31
0.0000000000
11
26.4149172418
21
14.1171089637
31
0.0000000000
11
26.3946423749
21
14.1560371959
31
0.0000000000
11
26.3716993725
21
14.1918558766
31
0.0000000000
11
26.3463091098
21
14.2242201543
31
0.0000000000
11
26.3187160259
21
14.2528184345
31
0.0000000000
11
26.2891857691
21
14.2773753814
31
0.0000000000
11
26.2580026377
21
14.2976545697
31
0.0000000000
11
26.2254668456
21
14.3134607585
31
0.0000000000
11
26.1918916270
21
14.3246417739
31
0.0000000000
11
26.1576002445
21
14.3310899684
31
0.0000000000
0
SPLINE
5
3B2
100
AcDbEntity
8
0
100
AcDbSpline
62
7
6
CONTINUOUS
70
0
71
3
72
8
73
4
74
2
42
0.0000001000
43
0.0000001000
44
0.0000000001
12
0.0247872530
22
-0.0004684773
32
0.0000000000
13
0.0246453177
23
-0.0029272262
33
0.0000000000
40
0.0000000000
40
0.0000000000
40
0.0000000000
40
0.0000000000
40
1.0000000000
40
1.0000000000
40
1.0000000000
40
1.0000000000
10
23.3432995554
20
-18.3776126960
30
0.0000000000
10
23.3515619730
20
-18.3777688551
30
0.0000000000
10
23.3598250301
20
-18.3783358365
30
0.0000000000
10
23.3680401359
20
-18.3793115785
30
0.0000000000
11
23.3432995554
21
-18.3776126960
31
0.0000000000
11
23.3680401359
21
-18.3793115785
31
0.0000000000
0
SPLINE
5
3B3
100
AcDbEntity
8
0
100
AcDbSpline
62
9
6
CONTINUOUS
70
0
71
3
72
19
73
15
74
13
42
0.0000001000
43
0.0000001000
44
0.0000000001
12
0.2711276899
22
-0.0318485731
32
0.0000000000
13
-0.0218495569
23
-0.2721160648
33
0.0000000000
40
0.0000000000
40
0.0000000000
40
0.0000000000
40
0.0000000000
40
0.0682637131
40
0.1380764889
40
0.2103603856
40
0.2857886862
40
0.3647543982
40
0.4473753520
40
0.5335212055
40
0.6228504679
40
0.7148504438
40
0.8088767882
40
0.9041915910
40
1.0000000000
40
1.0000000000
40
1.0000000000
40
1.0000000000
10
24.1396156846
20
-18.4716616158
30
0.0000000000
10
24.1457850789
20
-18.4723863164
30
0.0000000000
10
24.1581549696
20
-18.4750230723
30
0.0000000000
10
24.1759440375
20
-18.4823404597
30
0.0000000000
10
24.1927945178
20
-18.4928951648
30
0.0000000000
10
24.2084155257
20
-18.5064824668
30
0.0000000000
10
24.2225558612
20
-18.5228560457
30
0.0000000000
10
24.2349878583
20
-18.5417304791
30
0.0000000000
10
24.2455117232
20
-18.5627837564
30
0.0000000000
10
24.2539568056
20
-18.5856599699
30
0.0000000000
10
24.2601851116
20
-18.6099732394
30
0.0000000000
10
24.2640941086
20
-18.6353144858
30
0.0000000000
10
24.2656194772
20
-18.6612533353
30
0.0000000000
10
24.2650298168
20
-18.6786643877
30
0.0000000000
10
24.2643320264
20
-18.6873547235
30
0.0000000000
11
24.1396156846
21
-18.4716616158
31
0.0000000000
11
24.1578466890
21
-18.4755229666
31
0.0000000000
11
24.1754915375
21
-18.4827256651
31
0.0000000000
11
24.1922484392
21
-18.4931465191
31
0.0000000000
11
24.2078307904
21
-18.5066072942
31
0.0000000000
11
24.2219720764
21
-18.5228777623
31
0.0000000000
11
24.2344304299
21
-18.5416796396
31
0.0000000000
11
24.2449927681
21
-18.5626913458
31
0.0000000000
11
24.2534784365
21
-18.5855535046
31
0.0000000000
11
24.2597422996
21
-18.6098750903
31
0.0000000000
11
24.2636772225
21
-18.6352401156
31
0.0000000000
11
24.2652159038
21
-18.6612147468
31
0.0000000000
11
24.2643320264
21
-18.6873547235
31
0.0000000000
0
SPLINE
5
3B4
100
AcDbEntity
8
0
100
AcDbSpline
62
9
6
CONTINUOUS
70
0
71
3
72
16
73
12
74
10
42
0.0000001000
43
0.0000001000
44
0.0000000001
12
0.1827585189
22
-0.0061562633
32
0.0000000000
13
-0.0123640722
23
-0.1829782383
33
0.0000000000
40
0.0000000000
40
0.0000000000
40
0.0000000000
40
0.0000000000
40
0.1632197858
40
0.3098387101
40
0.4422261933
40
0.5606067127
40
0.6660693112
40
0.7619652222
40
0.8527118026
40
0.9452173178
40
1.0000000000
40
1.0000000000
40
1.0000000000
40
1.0000000000
10
24.2643324975
20
-18.6873547786
30
0.0000000000
10
24.2742757663
20
-18.6876897199
30
0.0000000000
10
24.2931408517
20
-18.6889276562
30
0.0000000000
10
24.3198420321
20
-18.6928649807
30
0.0000000000
10
24.3433802582
20
-18.6987948479
30
0.0000000000
10
24.3636515941
20
-18.7067894397
30
0.0000000000
10
24.3804281638
20
-18.7169390988
30
0.0000000000
10
24.3934093665
20
-18.7293935477
30
0.0000000000
10
24.4021161834
20
-18.7443044386
30
0.0000000000
10
24.4053288679
20
-18.7586824782
30
0.0000000000
10
24.4053397174
20
-18.7677025923
30
0.0000000000
10
24.4051139384
20
-18.7710439386
30
0.0000000000
11
24.2643324975
21
-18.6873547786
31
0.0000000000
11
24.2941079646
21
-18.6894159853
31
0.0000000000
11
24.3206129761
21
-18.6934554253
31
0.0000000000
11
24.3440472601
21
-18.6995294450
31
0.0000000000
11
24.3641089988
21
-18.7076616700
31
0.0000000000
11
24.3804866075
21
-18.7178444888
31
0.0000000000
11
24.3929853903
21
-18.7301441812
31
0.0000000000
11
24.4012661929
21
-18.7445244815
31
0.0000000000
11
24.4050581390
21
-18.7610097500
31
0.0000000000
11
24.4051139384
21
-18.7710439386
31
0.0000000000
0
SPLINE
5
3B5
100
AcDbEntity
8
0
100
AcDbSpline
62
9
6
CONTINUOUS
70
0
71
3
72
8
73
4
74
2
42
0.0000001000
43
0.0000001000
44
0.0000000001
12
0.0184018282
22
-0.0008114009
32
0.0000000000
13
0.0183066646
23
-0.0021717995
33
0.0000000000
40
0.0000000000
40
0.0000000000
40
0.0000000000
40
0.0000000000
40
1.0000000000
40
1.0000000000
40
1.0000000000
40
1.0000000000
10
24.1396157025
20
-18.4716613932
30
0.0000000000
10
24.1457496453
20
-18.4719318602
30
0.0000000000
10
24.1518793848
20
-18.4724185384
30
0.0000000000
10
24.1579816063
20
-18.4731424715
30
0.0000000000
11
24.1396157025
21
-18.4716613932
31
0.0000000000
11
24.1579816063
21
-18.4731424715
31
0.0000000000
0
SPLINE
5
3B6
100
AcDbEntity
8
0
100
AcDbSpline
62
9
6
CONTINUOUS
70
0
71
3
72
19
73
15
74
13
42
0.0000001000
43
0.0000001000
44
0.0000000001
12
0.2720963519
22
-0.0318436872
32
0.0000000000
13
-0.0185563662
23
-0.2733241782
33
0.0000000000
40
0.0000000000
40
0.0000000000
40
0.0000000000
40
0.0000000000
40
0.0681111114
40
0.1379038704
40
0.2102709432
40
0.2858492184
40
0.3649940258
40
0.4477881186
40
0.5340707150
40
0.6234752949
40
0.7154696444
40
0.8093952314
40
0.9045050445
40
1.0000000000
40
1.0000000000
40
1.0000000000
40
1.0000000000
10
24.1334067427
20
-18.4714638530
30
0.0000000000
10
24.1395843376
20
-18.4721868226
30
0.0000000000
10
24.1519829066
20
-18.4748243081
30
0.0000000000
10
24.1698357740
20
-18.4821393382
30
0.0000000000
10
24.1867909612
20
-18.4926921370
30
0.0000000000
10
24.2025566481
20
-18.5062787208
30
0.0000000000
10
24.2168793216
20
-18.5226535894
30
0.0000000000
10
24.2295278932
20
-18.5415318305
30
0.0000000000
10
24.2402984394
20
-18.5625915564
30
0.0000000000
10
24.2490157141
20
-18.5854766963
30
0.0000000000
10
24.2555367977
20
-18.6098010349
30
0.0000000000
10
24.2597539956
20
-18.6351550788
30
0.0000000000
10
24.2615975993
20
-18.6611079951
30
0.0000000000
10
24.2612230737
20
-18.6785388963
30
0.0000000000
10
24.2606323939
20
-18.6872392564
30
0.0000000000
11
24.1334067427
21
-18.4714638530
31
0.0000000000
11
24.1516634045
21
-18.4753190551
31
0.0000000000
11
24.1693761717
21
-18.4825184152
31
0.0000000000
11
24.1862419741
21
-18.4929387503
31
0.0000000000
11
24.2019722330
21
-18.5064017655
31
0.0000000000
11
24.2162977994
21
-18.5226771048
31
0.0000000000
11
24.2289735588
21
-18.5414862928
31
0.0000000000
11
24.2397826255
21
-18.5625074989
31
0.0000000000
11
24.2485400534
21
-18.5853810446
31
0.0000000000
11
24.2550960004
21
-18.6097155571
31
0.0000000000
11
24.2593382925
21
-18.6350946662
31
0.0000000000
11
24.2611943428
21
-18.6610841283
31
0.0000000000
11
24.2606323939
21
-18.6872392564
31
0.0000000000
0
SPLINE
5
3B7
100
AcDbEntity
8
0
100
AcDbSpline
62
9
6
CONTINUOUS
70
0
71
3
72
9
73
5
74
3
42
0.0000001000
43
0.0000001000
44
0.0000000001
12
0.0037013158
22
-0.0000699541
32
0.0000000000
13
0.0036984687
23
-0.0001611248
33
0.0000000000
40
0.0000000000
40
0.0000000000
40
0.0000000000
40
0.0000000000
40
0.5001324872
40
1.0000000000
40
1.0000000000
40
1.0000000000
40
1.0000000000
10
24.2606323939
20
-18.6872392564
30
0.0000000000
10
24.2612494433
20
-18.6872509185
30
0.0000000000
10
24.2624830835
20
-18.6872818267
30
0.0000000000
10
24.2637162494
20
-18.6873279316
30
0.0000000000
10
24.2643324975
20
-18.6873547786
30
0.0000000000
11
24.2606323939
21
-18.6872392564
31
0.0000000000
11
24.2624832918
21
-18.6872856361
31
0.0000000000
11
24.2643324975
21
-18.6873547786
31
0.0000000000
0
SPLINE
5
3B8
100
AcDbEntity
8
0
100
AcDbSpline
62
9
6
CONTINUOUS
70
0
71
3
72
9
73
5
74
3
42
0.0000001000
43
0.0000001000
44
0.0000000001
12
0.0062110277
22
-0.0001215926
32
0.0000000000
13
0.0062061923
23
-0.0002735439
33
0.0000000000
40
0.0000000000
40
0.0000000000
40
0.0000000000
40
0.0000000000
40
0.5001421120
40
1.0000000000
40
1.0000000000
40
1.0000000000
40
1.0000000000
10
24.1334067427
20
-18.4714638530
30
0.0000000000
10
24.1344422082
20
-18.4714841242
30
0.0000000000
10
24.1365123225
20
-18.4715373060
30
0.0000000000
10
24.1385816311
20
-18.4716158155
30
0.0000000000
10
24.1396157025
20
-18.4716613932
30
0.0000000000
11
24.1334067427
21
-18.4714638530
31
0.0000000000
11
24.1365127093
21
-18.4715436566
31
0.0000000000
11
24.1396157025
21
-18.4716613932
31
0.0000000000
0
SPLINE
5
3B9
100
AcDbEntity
8
0
100
AcDbSpline
62
9
6
CONTINUOUS
70
0
71
3
72
18
73
14
74
12
42
0.0000001000
43
0.0000001000
44
0.0000000001
12
-0.0163367951
22
-0.2406312223
32
0.0000000000
13
-0.2394940569
23
-0.0312565253
33
0.0000000000
40
0.0000000000
40
0.0000000000
40
0.0000000000
40
0.0000000000
40
0.1079801825
40
0.2145659152
40
0.3189132054
40
0.4202809147
40
0.5180738391
40
0.6118875185
40
0.7015536952
40
0.7871829321
40
0.8691967179
40
0.9483359167
40
1.0000000000
40
1.0000000000
40
1.0000000000
40
1.0000000000
10
24.7612768619
20
-11.3130456238
30
0.0000000000
10
24.7606888452
20
-11.3217067582
30
0.0000000000
10
24.7587252849
20
-11.3388743753
30
0.0000000000
10
24.7534241290
20
-11.3639974161
30
0.0000000000
10
24.7458654254
20
-11.3879840931
30
0.0000000000
10
24.7361744274
20
-11.4104268869
30
0.0000000000
10
24.7245103496
20
-11.4309478042
30
0.0000000000
10
24.7110633394
20
-11.4491992857
30
0.0000000000
10
24.6960510353
20
-11.4648694964
30
0.0000000000
10
24.6797155912
20
-11.4776846528
30
0.0000000000
10
24.6623240526
20
-11.4874112307
30
0.0000000000
10
24.6461180772
20
-11.4931663185
30
0.0000000000
10
24.6357614125
20
-11.4951693414
30
0.0000000000
10
24.6316369988
20
-11.4957076213
30
0.0000000000
11
24.7612768619
21
-11.3130456238
31
0.0000000000
11
24.7583065288
21
-11.3389188965
31
0.0000000000
11
24.7529786348
21
-11.3640676149
31
0.0000000000
11
24.7453843417
21
-11.3880614775
31
0.0000000000
11
24.7356535898
21
-11.4104899426
31
0.0000000000
11
24.7239528750
21
-11.4309692530
31
0.0000000000
11
24.7104823998
21
-11.4491490020
31
0.0000000000
11
24.6954726478
21
-11.4647181290
31
0.0000000000
11
24.6791804400
21
-11.4774102420
31
0.0000000000
11
24.6618845406
21
-11.4870081753
31
0.0000000000
11
24.6438808872
21
-11.4933477058
31
0.0000000000
11
24.6316369988
21
-11.4957076213
31
0.0000000000
0
SPLINE
5
3BA
100
AcDbEntity
8
0
100
AcDbSpline
62
9
6
CONTINUOUS
70
0
71
3
72
8
73
4
74
2
42
0.0000001000
43
0.0000001000
44
0.0000000001
12
-0.0062386194
22
-0.0008142063
32
0.0000000000
13
-0.0062793865
23
-0.0004233090
33
0.0000000000
40
0.0000000000
40
0.0000000000
40
0.0000000000
40
0.0000000000
40
1.0000000000
40
1.0000000000
40
1.0000000000
40
1.0000000000
10
24.6316369988
20
-11.4957076213
30
0.0000000000
10
24.6295574590
20
-11.4959790234
30
0.0000000000
10
24.6274693299
20
-11.4961861416
30
0.0000000000
10
24.6253762011
20
-11.4963272447
30
0.0000000000
11
24.6316369988
21
-11.4957076213
31
0.0000000000
11
24.6253762011
21
-11.4963272447
31
0.0000000000
0
SPLINE
5
3BB
100
AcDbEntity
8
0
100
AcDbSpline
62
9
6
CONTINUOUS
70
0
71
3
72
8
73
4
74
2
42
0.0000001000
43
0.0000001000
44
0.0000000001
12
-0.0060581513
22
-0.0004083950
32
0.0000000000
13
-0.0060726745
23
-0.0000404585
33
0.0000000000
40
0.0000000000
40
0.0000000000
40
0.0000000000
40
0.0000000000
40
1.0000000000
40
1.0000000000
40
1.0000000000
40
1.0000000000
10
24.6253762011
20
-11.4963272447
30
0.0000000000
10
24.6233568173
20
-11.4964633763
30
0.0000000000
10
24.6213327994
20
-11.4965380908
30
0.0000000000
10
24.6193085746
20
-11.4965515770
30
0.0000000000
11
24.6253762011
21
-11.4963272447
31
0.0000000000
11
24.6193085746
21
-11.4965515770
31
0.0000000000
0
SPLINE
5
3BC
100
AcDbEntity
8
0
100
AcDbSpline
62
9
6
CONTINUOUS
70
0
71
3
72
8
73
4
74
2
42
0.0000001000
43
0.0000001000
44
0.0000000001
12
-0.0025678080
22
-0.0000171077
32
0.0000000000
13
-0.0025670258
23
0.0000485347
33
0.0000000000
40
0.0000000000
40
0.0000000000
40
0.0000000000
40
0.0000000000
40
1.0000000000
40
1.0000000000
40
1.0000000000
40
1.0000000000
10
24.6193085746
20
-11.4965515770
30
0.0000000000
10
24.6184526386
20
-11.4965572795
30
0.0000000000
10
24.6175966656
20
-11.4965520346
30
0.0000000000
10
24.6167409904
20
-11.4965358563
30
0.0000000000
11
24.6193085746
21
-11.4965515770
31
0.0000000000
11
24.6167409904
21
-11.4965358563
31
0.0000000000
0
SPLINE
5
3BD
100
AcDbEntity
8
0
100
AcDbSpline
62
9
6
CONTINUOUS
70
0
71
3
72
9
73
5
74
3
42
0.0000001000
43
0.0000001000
44
0.0000000001
12
0.0037057749
22
-0.0000700395
32
0.0000000000
13
0.0037063769
23
0.0000210642
33
0.0000000000
40
0.0000000000
40
0.0000000000
40
0.0000000000
40
0.0000000000
40
0.4998305490
40
1.0000000000
40
1.0000000000
40
1.0000000000
40
1.0000000000
10
24.7612768619
20
-11.3130456238
30
0.0000000000
10
24.7618942817
20
-11.3130572931
30
0.0000000000
10
24.7631296954
20
-11.3130730362
30
0.0000000000
10
24.7643652091
20
-11.3130735937
30
0.0000000000
10
24.7649831479
20
-11.3130700818
30
0.0000000000
11
24.7612768619
21
-11.3130456238
31
0.0000000000
11
24.7631293017
21
-11.3130692370
31
0.0000000000
11
24.7649831479
21
-11.3130700818
31
0.0000000000
0
SPLINE
5
3BE
100
AcDbEntity
8
0
100
AcDbSpline
62
9
6
CONTINUOUS
70
0
71
3
72
19
73
15
74
13
42
0.0000001000
43
0.0000001000
44
0.0000000001
12
-0.0139887431
22
-0.2520791366
32
0.0000000000
13
-0.2529398707
23
-0.0014646582
33
0.0000000000
40
0.0000000000
40
0.0000000000
40
0.0000000000
40
0.0000000000
40
0.1030054340
40
0.2045643118
40
0.3038792256
40
0.4002564274
40
0.4931472603
40
0.5821912294
40
0.6672594781
40
0.7484949253
40
0.8263410737
40
0.9015462028
40
0.9751267673
40
1.0000000000
40
1.0000000000
40
1.0000000000
40
1.0000000000
10
24.7649830561
20
-11.3130700711
30
0.0000000000
10
24.7645027506
20
-11.3217252447
30
0.0000000000
10
24.7627555175
20
-11.3388812395
30
0.0000000000
10
24.7577737997
20
-11.3640025615
30
0.0000000000
10
24.7505243972
20
-11.3879886563
30
0.0000000000
10
24.7411270748
20
-11.4104322695
30
0.0000000000
10
24.7297357606
20
-11.4309556011
30
0.0000000000
10
24.7165355355
20
-11.4492111455
30
0.0000000000
10
24.7017393361
20
-11.4648868503
30
0.0000000000
10
24.6855852279
20
-11.4777083244
30
0.0000000000
10
24.6683371762
20
-11.4874410675
30
0.0000000000
10
24.6502835796
20
-11.4938943126
30
0.0000000000
10
24.6357836234
20
-11.4962713097
30
0.0000000000
10
24.6274832701
20
-11.4965803284
30
0.0000000000
10
24.6253861260
20
-11.4965924720
30
0.0000000000
11
24.7649830561
21
-11.3130700711
31
0.0000000000
11
24.7623358771
21
-11.3389404587
31
0.0000000000
11
24.7573265262
21
-11.3640866214
31
0.0000000000
11
24.7500406816
21
-11.3880784685
31
0.0000000000
11
24.7406029575
21
-11.4105056520
31
0.0000000000
11
24.7291747734
21
-11.4309845857
31
0.0000000000
11
24.7159515928
21
-11.4491650053
31
0.0000000000
11
24.7011595800
21
-11.4647359596
31
0.0000000000
11
24.6850517324
21
-11.4774311286
31
0.0000000000
11
24.6679035525
21
-11.4870333789
31
0.0000000000
11
24.6500083365
21
-11.4933784771
31
0.0000000000
11
24.6316721578
21
-11.4963578989
31
0.0000000000
11
24.6253861260
21
-11.4965924720
31
0.0000000000
0
SPLINE
5
3BF
100
AcDbEntity
8
0
100
AcDbSpline
62
9
6
CONTINUOUS
70
0
71
3
72
16
73
12
74
10
42
0.0000001000
43
0.0000001000
44
0.0000000001
12
0.2021247166
22
-0.0008339812
32
0.0000000000
13
0.0142429550
23
0.2019884654
33
0.0000000000
40
0.0000000000
40
0.0000000000
40
0.0000000000
40
0.0000000000
40
0.1484053215
40
0.2836973334
40
0.4081514459
40
0.5227532297
40
0.6292976523
40
0.7313485207
40
0.8327574152
40
0.9387584619
40
1.0000000000
40
1.0000000000
40
1.0000000000
40
1.0000000000
10
24.7649831479
20
-11.3130700818
30
0.0000000000
10
24.7749819425
20
-11.3131113376
30
0.0000000000
10
24.7941146918
20
-11.3124220285
30
0.0000000000
10
24.8214130801
20
-11.3086947972
30
0.0000000000
10
24.8458847291
20
-11.3022894338
30
0.0000000000
10
24.8673940669
20
-11.2931067111
30
0.0000000000
10
24.8856846671
20
-11.2810345293
30
0.0000000000
10
24.9004067045
20
-11.2659639948
30
0.0000000000
10
24.9111408841
20
-11.2478497918
30
0.0000000000
10
24.9164098212
20
-11.2303592567
30
0.0000000000
10
24.9178120330
20
-11.2191446252
30
0.0000000000
10
24.9181027865
20
-11.2150212638
30
0.0000000000
11
24.7649831479
21
-11.3130700818
31
0.0000000000
11
24.7949557654
21
-11.3118698543
31
0.0000000000
11
24.8220314322
21
-11.3080335755
31
0.0000000000
11
24.8463257459
21
-11.3015079483
31
0.0000000000
11
24.8675602953
21
-11.2922522941
31
0.0000000000
11
24.8854435908
21
-11.2802538311
31
0.0000000000
11
24.8997818474
21
-11.2654249779
31
0.0000000000
11
24.9102341920
21
-11.2477928294
31
0.0000000000
11
24.9165332976
21
-11.2273141039
31
0.0000000000
11
24.9181027865
21
-11.2150212638
31
0.0000000000
0
SPLINE
5
3C0
100
AcDbEntity
8
0
100
AcDbSpline
62
9
6
CONTINUOUS
70
0
71
3
72
8
73
4
74
2
42
0.0000001000
43
0.0000001000
44
0.0000000001
12
0.0000181875
22
0.0002579293
32
0.0000000000
13
0.0000176074
23
0.0002579722
33
0.0000000000
40
0.0000000000
40
0.0000000000
40
0.0000000000
40
0.0000000000
40
1.0000000000
40
1.0000000000
40
1.0000000000
40
1.0000000000
10
24.9181027865
20
-11.2150212638
30
0.0000000000
10
24.9181088490
20
-11.2149352873
30
0.0000000000
10
24.9181148147
20
-11.2148493036
30
0.0000000000
10
24.9181206839
20
-11.2147633129
30
0.0000000000
11
24.9181027865
21
-11.2150212638
31
0.0000000000
11
24.9181206839
21
-11.2147633129
31
0.0000000000
0
SPLINE
5
3C1
100
AcDbEntity
8
0
100
AcDbSpline
62
9
6
CONTINUOUS
70
0
71
3
72
26
73
22
74
20
42
0.0000001000
43
0.0000001000
44
0.0000000001
12
-0.0735508793
22
-1.0832668056
32
0.0000000000
13
-1.0857432838
23
-0.0061826878
33
0.0000000000
40
0.0000000000
40
0.0000000000
40
0.0000000000
40
0.0000000000
40
0.0601920503
40
0.1203666087
40
0.1803105084
40
0.2398248268
40
0.2987198487
40
0.3568175889
40
0.4139524749
40
0.4699778867
40
0.5247684122
40
0.5782248916
40
0.6302763010
40
0.6808860030
40
0.7300535369
40
0.7778190106
40
0.8242643806
40
0.8695170223
40
0.9137467739
40
0.9571623276
40
1.0000000000
40
1.0000000000
40
1.0000000000
40
1.0000000000
10
17.2217477830
20
-26.3970513108
30
0.0000000000
10
17.2202720569
20
-26.4187859941
30
0.0000000000
10
17.2160637748
20
-26.4621740832
30
0.0000000000
10
17.2060282412
20
-26.5266907176
30
0.0000000000
10
17.1923293729
20
-26.5902818059
30
0.0000000000
10
17.1750585600
20
-26.6525168264
30
0.0000000000
10
17.1543302462
20
-26.7129827258
30
0.0000000000
10
17.1302814127
20
-26.7712775819
30
0.0000000000
10
17.1030707981
20
-26.8270141948
30
0.0000000000
10
17.0728779824
20
-26.8798218359
30
0.0000000000
10
17.0399016799
20
-26.9293495568
30
0.0000000000
10
17.0043587082
20
-26.9752676178
30
0.0000000000
10
16.9664822040
20
-27.0172699412
30
0.0000000000
10
16.9265204554
20
-27.0550754120
30
0.0000000000
10
16.8847350032
20
-27.0884297705
30
0.0000000000
10
16.8413999238
20
-27.1171064513
30
0.0000000000
10
16.7967997533
20
-27.1409082870
30
0.0000000000
10
16.7512298802
20
-27.1596685772
30
0.0000000000
10
16.7049920813
20
-27.1732523102
30
0.0000000000
10
16.6584099138
20
-27.1815585415
30
0.0000000000
10
16.6271758418
20
-27.1835441246
30
0.0000000000
10
16.6116722701
20
-27.1836324086
30
0.0000000000
11
17.2217477830
21
-26.3970513108
31
0.0000000000
11
17.2154402431
21
-26.4621003922
31
0.0000000000
11
17.2053943113
21
-26.5266586236
31
0.0000000000
11
17.1916777385
21
-26.5902815694
31
0.0000000000
11
17.1743823484
21
-26.6525422846
31
0.0000000000
11
17.1536236637
21
-26.7130249811
31
0.0000000000
11
17.1295398624
21
-26.7713266873
31
0.0000000000
11
17.1022920332
21
-26.8270570674
31
0.0000000000
11
17.0720620177
21
-26.8798439928
31
0.0000000000
11
17.0390518109
21
-26.9293345584
31
0.0000000000
11
17.0034815034
21
-26.9751985490
31
0.0000000000
11
16.9655890890
21
-27.0171288912
31
0.0000000000
11
16.9256273002
21
-27.0548457547
31
0.0000000000
11
16.8838632416
21
-27.0880968394
31
0.0000000000
11
16.8405757858
21
-27.1166599465
31
0.0000000000
11
16.7960548055
21
-27.1403437511
31
0.0000000000
11
16.7505970278
21
-27.1589903601
31
0.0000000000
11
16.7045061720
21
-27.1724749894
31
0.0000000000
11
16.6580916664
21
-27.1807072747
31
0.0000000000
11
16.6116722701
21
-27.1836324086
31
0.0000000000
0
SPLINE
5
3C2
100
AcDbEntity
8
0
100
AcDbSpline
62
7
6
CONTINUOUS
70
0
71
3
72
15
73
11
74
9
42
0.0000001000
43
0.0000001000
44
0.0000000001
12
0.0836601154
22
-0.2186643699
32
0.0000000000
13
-0.0158227091
23
-0.2336528415
33
0.0000000000
40
0.0000000000
40
0.0000000000
40
0.0000000000
40
0.0000000000
40
0.1362912546
40
0.2706927303
40
0.4028031981
40
0.5323250881
40
0.6590644013
40
0.7829242510
40
0.9039348594
40
1.0000000000
40
1.0000000000
40
1.0000000000
40
1.0000000000
10
17.5072611850
20
-22.1916096331
30
0.0000000000
10
17.5110618991
20
-22.2015436469
30
0.0000000000
10
17.5182630933
20
-22.2214094558
30
0.0000000000
10
17.5278192238
20
-22.2513656066
30
0.0000000000
10
17.5359410325
20
-22.2811971179
30
0.0000000000
10
17.5425019673
20
-22.3108003346
30
0.0000000000
10
17.5473717972
20
-22.3400787106
30
0.0000000000
10
17.5504112659
20
-22.3689392773
30
0.0000000000
10
17.5514018233
20
-22.3955506834
30
0.0000000000
10
17.5508490532
20
-22.4124967468
30
0.0000000000
10
17.5503423830
20
-22.4199787111
30
0.0000000000
11
17.5072611850
21
-22.1916096331
31
0.0000000000
11
17.5181158218
21
-22.2216154220
31
0.0000000000
11
17.5276555868
21
-22.2516008147
31
0.0000000000
11
17.5357530050
21
-22.2814520268
31
0.0000000000
11
17.5422817380
21
-22.3110647974
31
0.0000000000
11
17.5471117816
21
-22.3403415087
31
0.0000000000
11
17.5501041649
21
-22.3691850196
31
0.0000000000
11
17.5511065275
21
-22.3974985306
31
0.0000000000
11
17.5503423830
21
-22.4199787111
31
0.0000000000
0
SPLINE
5
3C3
100
AcDbEntity
8
0
100
AcDbSpline
62
9
6
CONTINUOUS
70
0
71
3
72
14
73
10
74
8
42
0.0000001000
43
0.0000001000
44
0.0000000001
12
0.0592782882
22
-0.0011203555
32
0.0000000000
13
-0.0058316247
23
0.0401864270
33
0.0000000000
40
0.0000000000
40
0.0000000000
40
0.0000000000
40
0.0000000000
40
0.2880967570
40
0.5316303034
40
0.7266301442
40
0.8700434035
40
0.9600402102
40
0.9981469487
40
1.0000000000
40
1.0000000000
40
1.0000000000
40
1.0000000000
10
20.3149467688
20
19.1639200469
30
0.0000000000
10
20.3206393963
20
19.1638124567
30
0.0000000000
10
20.3311256513
20
19.1636654015
30
0.0000000000
10
20.3455596662
20
19.1637423953
30
0.0000000000
10
20.3568672282
20
19.1639638038
30
0.0000000000
10
20.3657692615
20
19.1647024916
30
0.0000000000
10
20.3702462900
20
19.1650524429
30
0.0000000000
10
20.3737486689
20
19.1662895116
30
0.0000000000
10
20.3737192145
20
19.1668187624
30
0.0000000000
10
20.3737156124
20
19.1668435849
30
0.0000000000
11
20.3149467688
21
19.1639200469
31
0.0000000000
11
20.3320264440
21
19.1637128031
31
0.0000000000
11
20.3464650950
21
19.1637846624
31
0.0000000000
11
20.3580211244
21
19.1641344224
31
0.0000000000
11
20.3665011683
21
19.1647562309
31
0.0000000000
11
20.3717633326
21
19.1656396832
31
0.0000000000
11
20.3737195671
21
19.1667699968
31
0.0000000000
11
20.3737156124
21
19.1668435849
31
0.0000000000
0
SPLINE
5
3C4
100
AcDbEntity
8
0
100
AcDbSpline
62
9
6
CONTINUOUS
70
0
71
3
72
26
73
22
74
20
42
0.0000001000
43
0.0000001000
44
0.0000000001
12
0.0713436292
22
1.0509388228
32
0.0000000000
13
-1.0523588710
23
0.0458598894
33
0.0000000000
40
0.0000000000
40
0.0000000000
40
0.0000000000
40
0.0000000000
40
0.0618693030
40
0.1233723288
40
0.1842987429
40
0.2444582836
40
0.3036762282
40
0.3617961489
40
0.4186808138
40
0.4742190519
40
0.5283281992
40
0.5809594218
40
0.6320996361
40
0.6817773347
40
0.7300635778
40
0.7770748421
40
0.8229718131
40
0.8679593592
40
0.9122790916
40
0.9562003822
40
1.0000000000
40
1.0000000000
40
1.0000000000
40
1.0000000000
10
20.3149467688
20
19.1639200469
30
0.0000000000
10
20.3164180957
20
19.1855936644
30
0.0000000000
10
20.3181067774
20
19.2289078476
30
0.0000000000
10
20.3168565370
20
19.2936420017
30
0.0000000000
10
20.3118263596
20
19.3575936671
30
0.0000000000
10
20.3030486617
20
19.4203303351
30
0.0000000000
10
20.2905811167
20
19.4814358158
30
0.0000000000
10
20.2745052842
20
19.5405042284
30
0.0000000000
10
20.2549262658
20
19.5971435056
30
0.0000000000
10
20.2319720340
20
19.6509770909
30
0.0000000000
10
20.2057921733
20
19.7016472325
30
0.0000000000
10
20.1765570835
20
19.7488163436
30
0.0000000000
10
20.1444566317
20
19.7921693760
30
0.0000000000
10
20.1096993929
20
19.8314149932
30
0.0000000000
10
20.0725113815
20
19.8662874349
30
0.0000000000
10
20.0331359232
20
19.8965474757
30
0.0000000000
10
19.9918323062
20
19.9219845701
30
0.0000000000
10
19.9488765476
20
19.9424186631
30
0.0000000000
10
19.9045570364
20
19.9577024475
30
0.0000000000
10
19.8591903288
20
19.9677238808
30
0.0000000000
10
19.8284665272
20
19.9708468075
30
0.0000000000
10
19.8131022218
20
19.9715163560
30
0.0000000000
11
20.3149467688
21
19.1639200469
31
0.0000000000
11
20.3174766334
21
19.2290414279
31
0.0000000000
11
20.3162110500
21
19.2938137473
31
0.0000000000
11
20.3111573579
21
19.3577917633
31
0.0000000000
11
20.3023492501
21
19.4205461439
31
0.0000000000
11
20.2898455677
21
19.4816577811
31
0.0000000000
11
20.2737294846
21
19.5407195317
31
0.0000000000
11
20.2541087437
21
19.5973359650
31
0.0000000000
11
20.2311142571
21
19.6511290315
31
0.0000000000
11
20.2048996814
21
19.7017390344
31
0.0000000000
11
20.1756397907
21
19.7488282796
31
0.0000000000
11
20.1435303215
21
19.7920815363
31
0.0000000000
11
20.1087854040
21
19.8312101757
31
0.0000000000
11
20.0716372454
21
19.8659524678
31
0.0000000000
11
20.0323338714
21
19.8960762616
31
0.0000000000
11
19.9911384757
21
19.9213797762
31
0.0000000000
11
19.9483256345
21
19.9416943239
31
0.0000000000
11
19.9041813313
21
19.9568839826
31
0.0000000000
11
19.8590019863
21
19.9668469646
31
0.0000000000
11
19.8131022218
21
19.9715163560
31
0.0000000000
0
SPLINE
5
3C5
100
AcDbEntity
8
0
100
AcDbSpline
62
9
6
CONTINUOUS
70
0
71
3
72
19
73
15
74
13
42
0.0000001000
43
0.0000001000
44
0.0000000001
12
0.0218497436
22
0.2721166338
32
0.0000000000
13
-0.2711282984
23
0.0318483833
33
0.0000000000
40
0.0000000000
40
0.0000000000
40
0.0000000000
40
0.0000000000
40
0.0958083303
40
0.1911230618
40
0.2851493452
40
0.3771492729
40
0.4664785022
40
0.5526243398
40
0.6352452966
40
0.7142110318
40
0.7896393762
40
0.8619233365
40
0.9317361931
40
1.0000000000
40
1.0000000000
40
1.0000000000
40
1.0000000000
10
19.8131022218
20
19.9715163560
30
0.0000000000
10
19.8138000176
20
19.9802067028
30
0.0000000000
10
19.8143896852
20
19.9976177787
30
0.0000000000
10
19.8128643166
20
20.0235566647
30
0.0000000000
10
19.8089553091
20
20.0488979484
30
0.0000000000
10
19.8027269822
20
20.0732112546
30
0.0000000000
10
19.7942818690
20
20.0960875029
30
0.0000000000
10
19.7837579641
20
20.1171408118
30
0.0000000000
10
19.7713259189
20
20.1360152726
30
0.0000000000
10
19.7571855282
20
20.1523888734
30
0.0000000000
10
19.7415644593
20
20.1659761909
30
0.0000000000
10
19.7247139141
20
20.1765309044
30
0.0000000000
10
19.7069247788
20
20.1838482927
30
0.0000000000
10
19.6945548434
20
20.1864850441
30
0.0000000000
10
19.6883854268
20
20.1872097414
30
0.0000000000
11
19.8131022218
21
19.9715163560
31
0.0000000000
11
19.8139861100
21
19.9976563667
31
0.0000000000
11
19.8124474289
21
20.0236310340
31
0.0000000000
11
19.8085124955
21
20.0489960962
31
0.0000000000
11
19.8022486117
21
20.0733177183
31
0.0000000000
11
19.7937629126
21
20.0961799115
31
0.0000000000
11
19.7832005348
21
20.1171916490
31
0.0000000000
11
19.7707421334
21
20.1359935533
31
0.0000000000
11
19.7566007927
21
20.1522640432
31
0.0000000000
11
19.7410183811
21
20.1657248338
31
0.0000000000
11
19.7242614149
21
20.1761456966
31
0.0000000000
11
19.7066164993
21
20.1833483966
31
0.0000000000
11
19.6883854268
21
20.1872097414
31
0.0000000000
0
SPLINE
5
3C6
100
AcDbEntity
8
0
100
AcDbSpline
62
7
6
CONTINUOUS
70
0
71
3
72
20
73
16
74
14
42
0.0000001000
43
0.0000001000
44
0.0000000001
12
0.0184430172
22
0.2716546143
32
0.0000000000
13
-0.2703791986
23
0.0321164027
33
0.0000000000
40
0.0000000000
40
0.0000000000
40
0.0000000000
40
0.0000000000
40
0.0886918851
40
0.1771373169
40
0.2645207924
40
0.3504634208
40
0.4341013499
40
0.5153011276
40
0.5933361727
40
0.6683423295
40
0.7399284948
40
0.8085305764
40
0.8742578669
40
0.9378653738
40
1.0000000000
40
1.0000000000
40
1.0000000000
40
1.0000000000
10
14.1518740191
20
20.2181492312
30
0.0000000000
10
14.1524192678
20
20.2261804178
30
0.0000000000
10
14.1528344533
20
20.2422743088
30
0.0000000000
10
14.1514410553
20
20.2662688407
30
0.0000000000
10
14.1480522406
20
20.2898142403
30
0.0000000000
10
14.1427189837
20
20.3125500983
30
0.0000000000
10
14.1355111610
20
20.3341746228
30
0.0000000000
10
14.1265395256
20
20.3543497220
30
0.0000000000
10
14.1159170174
20
20.3728127147
30
0.0000000000
10
14.1038064075
20
20.3892711818
30
0.0000000000
10
14.0903572932
20
20.4035075024
30
0.0000000000
10
14.0757728962
20
20.4152915702
30
0.0000000000
10
14.0602376429
20
20.4244533802
30
0.0000000000
10
14.0439940789
20
20.4308338345
30
0.0000000000
10
14.0327571943
20
20.4331774364
30
0.0000000000
10
14.0271572242
20
20.4338426166
30
0.0000000000
11
14.1518740191
21
20.2181492312
31
0.0000000000
11
14.1524970225
21
20.2422902162
31
0.0000000000
11
14.1510938657
21
20.2663312216
31
0.0000000000
11
14.1476895548
21
20.2898791836
31
0.0000000000
11
14.1423232866
21
20.3126560241
31
0.0000000000
11
14.1350931787
21
20.3342507447
31
0.0000000000
11
14.1260744326
21
20.3544367120
31
0.0000000000
11
14.1154388389
21
20.3728306036
31
0.0000000000
11
14.1032926118
21
20.3892487259
31
0.0000000000
11
14.0898663080
21
20.4033785553
31
0.0000000000
11
14.0753009557
21
20.4150727632
31
0.0000000000
11
14.0598591507
21
20.4241185071
31
0.0000000000
11
14.0437234251
21
20.4304103926
31
0.0000000000
11
14.0271572242
21
20.4338426166
31
0.0000000000
0
SPLINE
5
3C7
100
AcDbEntity
8
0
100
AcDbSpline
62
7
6
CONTINUOUS
70
0
71
3
72
8
73
4
74
2
42
0.0000001000
43
0.0000001000
44
0.0000000001
12
-0.0069495173
22
0.0008254832
32
0.0000000000
13
-0.0070004972
23
0.0003207758
33
0.0000000000
40
0.0000000000
40
0.0000000000
40
0.0000000000
40
0.0000000000
40
1.0000000000
40
1.0000000000
40
1.0000000000
40
1.0000000000
10
-2.8414252681
20
22.4375403533
30
0.0000000000
10
-2.8437417738
20
22.4378155144
30
0.0000000000
10
-2.8460704264
20
22.4380067688
30
0.0000000000
10
-2.8484039255
20
22.4381136941
30
0.0000000000
11
-2.8414252681
21
22.4375403533
31
0.0000000000
11
-2.8484039255
21
22.4381136941
31
0.0000000000
0
SPLINE
5
3C8
100
AcDbEntity
8
0
100
AcDbSpline
62
7
6
CONTINUOUS
70
0
71
3
72
8
73
4
74
2
42
0.0000001000
43
0.0000001000
44
0.0000000001
12
-0.0065162807
22
0.0012268877
32
0.0000000000
13
-0.0065763254
23
0.0007811544
33
0.0000000000
40
0.0000000000
40
0.0000000000
40
0.0000000000
40
0.0000000000
40
1.0000000000
40
1.0000000000
40
1.0000000000
40
1.0000000000
10
-1.7632880414
20
22.3092488090
30
0.0000000000
10
-1.7654601350
20
22.3096577716
30
0.0000000000
10
-1.7676449869
20
22.3099937073
30
0.0000000000
10
-1.7698370954
20
22.3102540921
30
0.0000000000
11
-1.7632880414
21
22.3092488090
31
0.0000000000
11
-1.7698370954
21
22.3102540921
31
0.0000000000
0
SPLINE
5
3C9
100
AcDbEntity
8
0
100
AcDbSpline
62
9
6
CONTINUOUS
70
0
71
3
72
8
73
4
74
2
42
0.0000001000
43
0.0000001000
44
0.0000000001
12
-0.0070525648
22
0.0008377235
32
0.0000000000
13
-0.0071058367
23
0.0003176577
33
0.0000000000
40
0.0000000000
40
0.0000000000
40
0.0000000000
40
0.0000000000
40
1.0000000000
40
1.0000000000
40
1.0000000000
40
1.0000000000
10
18.7135460432
20
20.3030039089
30
0.0000000000
10
18.7111951883
20
20.3032831501
30
0.0000000000
10
18.7088316443
20
20.3034757471
30
0.0000000000
10
18.7064630320
20
20.3035816330
30
0.0000000000
11
18.7135460432
21
20.3030039089
31
0.0000000000
11
18.7064630320
21
20.3035816330
31
0.0000000000
0
SPLINE
5
3CA
100
AcDbEntity
8
0
100
AcDbSpline
62
7
6
CONTINUOUS
70
0
71
3
72
8
73
4
74
2
42
0.0000001000
43
0.0000001000
44
0.0000000001
12
-0.0070641477
22
0.0008390994
32
0.0000000000
13
-0.0071164595
23
0.0003174355
33
0.0000000000
40
0.0000000000
40
0.0000000000
40
0.0000000000
40
0.0000000000
40
1.0000000000
40
1.0000000000
40
1.0000000000
40
1.0000000000
10
12.9555690515
20
20.5611288777
30
0.0000000000
10
12.9532143356
20
20.5614085775
30
0.0000000000
10
12.9508470653
20
20.5616015531
30
0.0000000000
10
12.9484749122
20
20.5617073649
30
0.0000000000
11
12.9555690515
21
20.5611288777
31
0.0000000000
11
12.9484749122
21
20.5617073649
31
0.0000000000
0
SPLINE
5
3CB
100
AcDbEntity
8
0
100
AcDbSpline
62
9
6
CONTINUOUS
70
0
71
3
72
14
73
10
74
8
42
0.0000001000
43
0.0000001000
44
0.0000000001
12
0.0058335809
22
-0.0401866917
32
0.0000000000
13
-0.0592783178
23
0.0011203561
33
0.0000000000
40
0.0000000000
40
0.0000000000
40
0.0000000000
40
0.0000000000
40
0.0018535502
40
0.0399602708
40
0.1299570335
40
0.2733702219
40
0.4683699652
40
0.7119033889
40
1.0000000000
40
1.0000000000
40
1.0000000000
40
1.0000000000
10
17.2805166237
20
-26.3941277528
30
0.0000000000
10
17.2805202280
20
-26.3941525821
30
0.0000000000
10
17.2805496966
20
-26.3946818415
30
0.0000000000
10
17.2770473041
20
-26.3959189149
30
0.0000000000
10
17.2725702756
20
-26.3962688662
30
0.0000000000
10
17.2636682423
20
-26.3970075539
30
0.0000000000
10
17.2523606802
20
-26.3972289625
30
0.0000000000
10
17.2379266654
20
-26.3973059562
30
0.0000000000
10
17.2274404105
20
-26.3971589010
30
0.0000000000
10
17.2217477830
20
-26.3970513108
30
0.0000000000
11
17.2805166237
21
-26.3941277528
31
0.0000000000
11
17.2805205813
21
-26.3942013610
31
0.0000000000
11
17.2785643468
21
-26.3953316746
31
0.0000000000
11
17.2733021823
21
-26.3962151269
31
0.0000000000
11
17.2648221384
21
-26.3968369353
31
0.0000000000
11
17.2532661091
21
-26.3971866954
31
0.0000000000
11
17.2388274581
21
-26.3972585547
31
0.0000000000
11
17.2217477830
21
-26.3970513108
31
0.0000000000
0
SPLINE
5
3CC
100
AcDbEntity
8
0
100
AcDbSpline
62
9
6
CONTINUOUS
70
0
71
3
72
19
73
15
74
13
42
0.0000001000
43
0.0000001000
44
0.0000000001
12
0.2529584546
22
0.0014189472
32
0.0000000000
13
0.0139896837
23
0.2520975581
33
0.0000000000
40
0.0000000000
40
0.0000000000
40
0.0000000000
40
0.0000000000
40
0.0249429489
40
0.0985181992
40
0.1737179048
40
0.2515584517
40
0.3327880686
40
0.4178502274
40
0.5068878362
40
0.5997720461
40
0.6961423855
40
0.7954502341
40
0.8970018903
40
1.0000000000
40
1.0000000000
40
1.0000000000
40
1.0000000000
10
16.4720571479
20
-27.3671552707
30
0.0000000000
10
16.4741603245
20
-27.3671434732
30
0.0000000000
10
16.4824667723
20
-27.3668349872
30
0.0000000000
10
16.4969727132
20
-27.3644570104
30
0.0000000000
10
16.5150263263
20
-27.3580037559
30
0.0000000000
10
16.5322743936
20
-27.3482709953
30
0.0000000000
10
16.5484285161
20
-27.3354494963
30
0.0000000000
10
16.5632247282
20
-27.3197737599
30
0.0000000000
10
16.5764249638
20
-27.3015181782
30
0.0000000000
10
16.5878162862
20
-27.2809948042
30
0.0000000000
10
16.5972136140
20
-27.2585511447
30
0.0000000000
10
16.6044630189
20
-27.2345650008
30
0.0000000000
10
16.6094447360
20
-27.2094436281
30
0.0000000000
10
16.6111919664
20
-27.1922875993
30
0.0000000000
10
16.6116722701
20
-27.1836324086
30
0.0000000000
11
16.4720571479
21
-27.3671552707
31
0.0000000000
11
16.4783612747
21
-27.3669205962
31
0.0000000000
11
16.4966974690
21
-27.3639411739
31
0.0000000000
11
16.5145927007
21
-27.3575960669
31
0.0000000000
11
16.5317408960
21
-27.3479937998
31
0.0000000000
11
16.5478487581
21
-27.3352986064
31
0.0000000000
11
16.5626407837
21
-27.3197276209
31
0.0000000000
11
16.5758639752
21
-27.3015471640
31
0.0000000000
11
16.5872921678
21
-27.2810681879
31
0.0000000000
11
16.5967298975
21
-27.2586409578
31
0.0000000000
11
16.6040157448
21
-27.2346490614
31
0.0000000000
11
16.6090250950
21
-27.2095028476
31
0.0000000000
11
16.6116722701
21
-27.1836324086
31
0.0000000000
0
SPLINE
5
3CD
100
AcDbEntity
8
0
100
AcDbSpline
62
7
6
CONTINUOUS
70
0
71
3
72
12
73
8
74
6
42
0.0000001000
43
0.0000001000
44
0.0000000001
12
0.0154240178
22
-0.0799374282
32
0.0000000000
13
-0.0743530992
23
-0.0309897072
33
0.0000000000
40
0.0000000000
40
0.0000000000
40
0.0000000000
40
0.0000000000
40
0.0343735393
40
0.1798317355
40
0.3841941446
40
0.6585543424
40
1.0000000000
40
1.0000000000
40
1.0000000000
40
1.0000000000
10
7.4299967473
20
-26.3656905182
30
0.0000000000
10
7.4301734733
20
-26.3666064290
30
0.0000000000
10
7.4306413484
20
-26.3714434873
30
0.0000000000
10
7.4257671830
20
-26.3813987408
30
0.0000000000
10
7.4133507209
20
-26.3926742700
30
0.0000000000
10
7.3945314243
20
-26.4043566610
30
0.0000000000
10
7.3795012895
20
-26.4112908277
30
0.0000000000
10
7.3710387753
20
-26.4148179280
30
0.0000000000
11
7.4299967473
21
-26.3656905182
31
0.0000000000
11
7.4302518861
21
-26.3684490906
31
0.0000000000
11
7.4260786652
21
-26.3793977739
31
0.0000000000
11
7.4144767796
21
-26.3910764797
31
0.0000000000
11
7.3958920831
21
-26.4030364022
31
0.0000000000
11
7.3710387753
21
-26.4148179280
31
0.0000000000
0
SPLINE
5
3CE
100
AcDbEntity
8
0
100
AcDbSpline
62
7
6
CONTINUOUS
70
0
71
3
72
12
73
8
74
6
42
0.0000001000
43
0.0000001000
44
0.0000000001
12
-0.0255322170
22
-0.3760742884
32
0.0000000000
13
0.3741456894
23
-0.0647249609
33
0.0000000000
40
0.0000000000
40
0.0000000000
40
0.0000000000
40
0.0000000000
40
0.2459236853
40
0.4783500204
40
0.6901872739
40
0.8813190511
40
1.0000000000
40
1.0000000000
40
1.0000000000
40
1.0000000000
10
5.3894806806
20
-27.2345043830
30
0.0000000000
10
5.3873876883
20
-27.2653329080
30
0.0000000000
10
5.3899498248
20
-27.3259997814
30
0.0000000000
10
5.4141125840
20
-27.4102135077
30
0.0000000000
10
5.4569089242
20
-27.4791060981
30
0.0000000000
10
5.5094530150
20
-27.5208745865
30
0.0000000000
10
5.5473510996
20
-27.5331190408
30
0.0000000000
10
5.5621524214
20
-27.5356795807
30
0.0000000000
11
5.3894806806
21
-27.2345043830
31
0.0000000000
11
5.3937711632
21
-27.3271035131
31
0.0000000000
11
5.4187664922
21
-27.4110730482
31
0.0000000000
11
5.4620199505
21
-27.4781934654
31
0.0000000000
11
5.5192975882
21
-27.5218945504
31
0.0000000000
11
5.5621524214
21
-27.5356795807
31
0.0000000000
0
SPLINE
5
3CF
100
AcDbEntity
8
0
100
AcDbSpline
62
7
6
CONTINUOUS
70
0
71
3
72
8
73
4
74
2
42
0.0000001000
43
0.0000001000
44
0.0000000001
12
0.0074004315
22
-0.0012802303
32
0.0000000000
13
0.0074379933
23
-0.0009212759
33
0.0000000000
40
0.0000000000
40
0.0000000000
40
0.0000000000
40
0.0000000000
40
1.0000000000
40
1.0000000000
40
1.0000000000
40
1.0000000000
10
5.5621524214
20
-27.5356795807
30
0.0000000000
10
5.5646192319
20
-27.5361063241
30
0.0000000000
10
5.5670939192
20
-27.5364739051
30
0.0000000000
10
5.5695732503
20
-27.5367809970
30
0.0000000000
11
5.5621524214
21
-27.5356795807
31
0.0000000000
11
5.5695732503
21
-27.5367809970
31
0.0000000000
0
SPLINE
5
3D0
100
AcDbEntity
8
0
100
AcDbSpline
62
7
6
CONTINUOUS
70
0
71
3
72
15
73
11
74
9
42
0.0000001000
43
0.0000001000
44
0.0000000001
12
-0.0018194304
22
-0.2546656095
32
0.0000000000
13
0.2528942700
23
-0.0300394936
33
0.0000000000
40
0.0000000000
40
0.0000000000
40
0.0000000000
40
0.0000000000
40
0.1449513415
40
0.2871029368
40
0.4241678514
40
0.5543337924
40
0.6765095805
40
0.7905807076
40
0.8976294719
40
1.0000000000
40
1.0000000000
40
1.0000000000
40
1.0000000000
10
3.8555855939
20
-26.5675400131
30
0.0000000000
10
3.8554976843
20
-26.5798447204
30
0.0000000000
10
3.8568831451
20
-26.6042578867
30
0.0000000000
10
3.8636091495
20
-26.6397365476
30
0.0000000000
10
3.8747586232
20
-26.6727800224
30
0.0000000000
10
3.8899805475
20
-26.7022814181
30
0.0000000000
10
3.9088051993
20
-26.7272557918
30
0.0000000000
10
3.9306757232
20
-26.7468402221
30
0.0000000000
10
3.9549033570
20
-26.7602867819
30
0.0000000000
10
3.9723448985
20
-26.7648083445
30
0.0000000000
10
3.9809745385
20
-26.7658333974
30
0.0000000000
11
3.8555855939
21
-26.5675400131
31
0.0000000000
11
3.8577039518
21
-26.6043942462
31
0.0000000000
11
3.8645132359
21
-26.6399501434
31
0.0000000000
11
3.8757799560
21
-26.6729884923
31
0.0000000000
11
3.8911177759
21
-26.7023764075
31
0.0000000000
11
3.9100007615
21
-26.7271061769
31
0.0000000000
11
3.9317814150
21
-26.7463298161
31
0.0000000000
11
3.9557128775
21
-26.7593881464
31
0.0000000000
11
3.9809745385
21
-26.7658333974
31
0.0000000000
0
SPLINE
5
3D1
100
AcDbEntity
8
0
100
AcDbSpline
62
7
6
CONTINUOUS
70
0
71
3
72
10
73
6
74
4
42
0.0000001000
43
0.0000001000
44
0.0000000001
12
0.0693999084
22
-0.0014279353
32
0.0000000000
13
0.0640721827
23
0.0267047130
33
0.0000000000
40
0.0000000000
40
0.0000000000
40
0.0000000000
40
0.0000000000
40
0.3270156742
40
0.6594206616
40
1.0000000000
40
1.0000000000
40
1.0000000000
40
1.0000000000
10
5.9548616205
20
-27.5455087617
30
0.0000000000
10
5.9624265731
20
-27.5456644141
30
0.0000000000
10
5.9777265551
20
-27.5448596977
30
0.0000000000
10
6.0004934573
20
-27.5403646214
30
0.0000000000
10
6.0152695691
20
-27.5352807586
30
0.0000000000
10
6.0225434563
20
-27.5322490674
30
0.0000000000
11
5.9548616205
21
-27.5455087617
31
0.0000000000
11
5.9775309254
21
-27.5443352053
31
0.0000000000
11
6.0001742323
21
-27.5398991063
31
0.0000000000
11
6.0225434563
21
-27.5322490674
31
0.0000000000
0
SPLINE
5
3D2
100
AcDbEntity
8
0
100
AcDbSpline
62
7
6
CONTINUOUS
70
0
71
3
72
11
73
7
74
5
42
0.0000001000
43
0.0000001000
44
0.0000000001
12
0.0644954548
22
-0.0076609518
32
0.0000000000
13
0.0124362275
23
-0.0644527292
33
0.0000000000
40
0.0000000000
40
0.0000000000
40
0.0000000000
40
0.0000000000
40
0.3795124917
40
0.6725280654
40
0.8828712257
40
1.0000000000
40
1.0000000000
40
1.0000000000
40
1.0000000000
10
7.3737839878
20
-26.3396217022
30
0.0000000000
10
7.3819429314
20
-26.3405908445
30
0.0000000000
10
7.3963923127
20
-26.3429441153
30
0.0000000000
10
7.4145293262
20
-26.3489534483
30
0.0000000000
10
7.4263113915
20
-26.3563213305
30
0.0000000000
10
7.4295112006
20
-26.3631740952
30
0.0000000000
10
7.4299967473
20
-26.3656905182
30
0.0000000000
11
7.3737839878
21
-26.3396217022
31
0.0000000000
11
7.3980489828
21
-26.3439551066
31
0.0000000000
11
7.4159624779
21
-26.3503805756
31
0.0000000000
11
7.4268360677
21
-26.3586511818
31
0.0000000000
11
7.4299967473
21
-26.3656905182
31
0.0000000000
0
SPLINE
5
3D3
100
AcDbEntity
8
0
100
AcDbSpline
62
7
6
CONTINUOUS
70
0
71
3
72
13
73
9
74
7
42
0.0000001000
43
0.0000001000
44
0.0000000001
12
-0.1395783210
22
-0.0973012602
32
0.0000000000
13
-0.0218051673
23
-0.1683527206
33
0.0000000000
40
0.0000000000
40
0.0000000000
40
0.0000000000
40
0.0000000000
40
0.0181672464
40
0.1924669922
40
0.3790437835
40
0.5772974672
40
0.7852643191
40
1.0000000000
40
1.0000000000
40
1.0000000000
40
1.0000000000
10
7.1664461006
20
21.2031488711
30
0.0000000000
10
7.1656008493
20
21.2025596391
30
0.0000000000
10
7.1567211511
20
21.1962112029
30
0.0000000000
10
7.1408346105
20
21.1815876515
30
0.0000000000
10
7.1218548930
20
21.1560726830
30
0.0000000000
10
7.1064358995
20
21.1261304397
30
0.0000000000
10
7.0950582913
20
21.0927685076
30
0.0000000000
10
7.0904549754
20
21.0692126086
30
0.0000000000
10
7.0888941930
20
21.0571621633
30
0.0000000000
11
7.1664461006
21
21.2031488711
31
0.0000000000
11
7.1639317570
21
21.2013515669
31
0.0000000000
11
7.1420198765
21
21.1814675267
31
0.0000000000
11
7.1229690040
21
21.1561643972
31
0.0000000000
11
7.1074323942
21
21.1263098233
31
0.0000000000
11
7.0959427977
21
21.0929275187
31
0.0000000000
11
7.0888941930
21
21.0571621633
31
0.0000000000
0
SPLINE
5
3D4
100
AcDbEntity
8
0
100
AcDbSpline
62
7
6
CONTINUOUS
70
0
71
3
72
15
73
11
74
9
42
0.0000001000
43
0.0000001000
44
0.0000000001
12
0.2816991765
22
-0.0334610216
32
0.0000000000
13
0.2551920432
23
-0.1238995040
33
0.0000000000
40
0.0000000000
40
0.0000000000
40
0.0000000000
40
0.0000000000
40
0.1052439617
40
0.2256584510
40
0.3568480022
40
0.4939490819
40
0.6318483828
40
0.7653991711
40
0.8896376498
40
1.0000000000
40
1.0000000000
40
1.0000000000
40
1.0000000000
10
7.0624332328
20
20.2155876416
30
0.0000000000
10
7.0723156119
20
20.2144137847
30
0.0000000000
10
7.0934156024
20
20.2111411649
30
0.0000000000
10
7.1264876021
20
20.2044019367
30
0.0000000000
10
7.1622015151
20
20.1956765163
30
0.0000000000
10
7.1991875213
20
20.1852922320
30
0.0000000000
10
7.2360288904
20
20.1736426877
30
0.0000000000
10
7.2713156436
20
20.1611761509
30
0.0000000000
10
7.3036975010
20
20.1483755707
30
0.0000000000
10
7.3239614539
20
20.1393186544
30
0.0000000000
10
7.3333493185
20
20.1347607076
30
0.0000000000
11
7.0624332328
21
20.2155876416
31
0.0000000000
11
7.0919565528
21
20.2111460446
31
0.0000000000
11
7.1254429488
21
20.2044001560
31
0.0000000000
11
7.1616055574
21
20.1956092165
31
0.0000000000
11
7.1990546696
21
20.1851110569
31
0.0000000000
11
7.2363511372
21
20.1733091156
31
0.0000000000
11
7.2720616779
21
20.1606569346
31
0.0000000000
11
7.3048139555
21
20.1476407301
31
0.0000000000
11
7.3333493185
21
20.1347607076
31
0.0000000000
0
SPLINE
5
3D5
100
AcDbEntity
8
0
100
AcDbSpline
62
7
6
CONTINUOUS
70
0
71
3
72
12
73
8
74
6
42
0.0000001000
43
0.0000001000
44
0.0000000001
12
0.0628766785
22
-0.0305275556
32
0.0000000000
13
-0.0247524998
23
-0.0624417960
33
0.0000000000
40
0.0000000000
40
0.0000000000
40
0.0000000000
40
0.0000000000
40
0.3756213539
40
0.6666552306
40
0.8667637465
40
0.9847390519
40
1.0000000000
40
1.0000000000
40
1.0000000000
40
1.0000000000
10
10.5667799746
20
20.6565389160
30
0.0000000000
10
10.5746525823
20
20.6527166487
30
0.0000000000
10
10.5884200485
20
20.6456563888
30
0.0000000000
10
10.6056439633
20
20.6345499092
30
0.0000000000
10
10.6162185982
20
20.6258909189
30
0.0000000000
10
10.6207595161
20
20.6179825346
30
0.0000000000
10
10.6199230102
20
20.6151578636
30
0.0000000000
10
10.6197970947
20
20.6148402232
30
0.0000000000
11
10.5667799746
21
20.6565389160
31
0.0000000000
11
10.5900018249
21
20.6442900474
31
0.0000000000
11
10.6070177598
21
20.6331430501
31
0.0000000000
11
10.6171738665
21
20.6235262967
31
0.0000000000
11
10.6200798515
21
20.6158093538
31
0.0000000000
11
10.6197970947
21
20.6148402232
31
0.0000000000
0
SPLINE
5
3D6
100
AcDbEntity
8
0
100
AcDbSpline
62
7
6
CONTINUOUS
70
0
71
3
72
8
73
4
74
2
42
0.0000001000
43
0.0000001000
44
0.0000000001
12
0.0151295038
22
-0.0003112966
32
0.0000000000
13
0.0150447370
23
-0.0017872729
33
0.0000000000
40
0.0000000000
40
0.0000000000
40
0.0000000000
40
0.0000000000
40
1.0000000000
40
1.0000000000
40
1.0000000000
40
1.0000000000
10
9.2940590752
20
21.6388729394
30
0.0000000000
10
9.2991022432
20
21.6387691739
30
0.0000000000
10
9.3041457861
20
21.6384185853
30
0.0000000000
10
9.3091606985
20
21.6378228277
30
0.0000000000
11
9.2940590752
21
21.6388729394
31
0.0000000000
11
9.3091606985
21
21.6378228277
31
0.0000000000
0
SPLINE
5
3D7
100
AcDbEntity
8
0
100
AcDbSpline
62
7
6
CONTINUOUS
70
0
71
3
72
12
73
8
74
6
42
0.0000001000
43
0.0000001000
44
0.0000000001
12
0.0278948400
22
0.4108743118
32
0.0000000000
13
0.4117329890
23
-0.0084715972
33
0.0000000000
40
0.0000000000
40
0.0000000000
40
0.0000000000
40
0.0000000000
40
0.2275005473
40
0.4468389862
40
0.6496176969
40
0.8325276782
40
1.0000000000
40
1.0000000000
40
1.0000000000
40
1.0000000000
10
8.6880853407
20
21.3519697263
30
0.0000000000
10
8.6902007045
20
21.3831277699
30
0.0000000000
10
8.7012325398
20
21.4440852366
30
0.0000000000
10
8.7368197667
20
21.5267354095
30
0.0000000000
10
8.7885658237
20
21.5930954222
30
0.0000000000
10
8.8524778503
20
21.6367659972
30
0.0000000000
10
8.9012054995
20
21.6469560839
30
0.0000000000
10
8.9241901260
20
21.6464831645
30
0.0000000000
11
8.6880853407
21
21.3519697263
31
0.0000000000
11
8.7049196867
21
21.4441342032
31
0.0000000000
11
8.7412309983
21
21.5268423258
31
0.0000000000
11
8.7934648713
21
21.5919980468
31
0.0000000000
11
8.8565082902
21
21.6332234703
31
0.0000000000
11
8.9241901260
21
21.6464831645
31
0.0000000000
0
SPLINE
5
3D8
100
AcDbEntity
8
0
100
AcDbSpline
62
7
6
CONTINUOUS
70
0
71
3
72
15
73
11
74
9
42
0.0000001000
43
0.0000001000
44
0.0000000001
12
-0.2816991765
22
0.0334610216
32
0.0000000000
13
-0.2551920432
23
0.1238995040
33
0.0000000000
40
0.0000000000
40
0.0000000000
40
0.0000000000
40
0.0000000000
40
0.1052439617
40
0.2256584510
40
0.3568480022
40
0.4939490819
40
0.6318483828
40
0.7653991711
40
0.8896376498
40
1.0000000000
40
1.0000000000
40
1.0000000000
40
1.0000000000
10
8.5562951080
20
20.8467032124
30
0.0000000000
10
8.5464127288
20
20.8478770692
30
0.0000000000
10
8.5253127383
20
20.8511496890
30
0.0000000000
10
8.4922407387
20
20.8578889173
30
0.0000000000
10
8.4565268256
20
20.8666143376
30
0.0000000000
10
8.4195408194
20
20.8769986220
30
0.0000000000
10
8.3826994503
20
20.8886481662
30
0.0000000000
10
8.3474126972
20
20.9011147031
30
0.0000000000
10
8.3150308398
20
20.9139152832
30
0.0000000000
10
8.2947668868
20
20.9229721996
30
0.0000000000
10
8.2853790222
20
20.9275301464
30
0.0000000000
11
8.5562951080
21
20.8467032124
31
0.0000000000
11
8.5267717879
21
20.8511448093
31
0.0000000000
11
8.4932853919
21
20.8578906979
31
0.0000000000
11
8.4571227834
21
20.8666816375
31
0.0000000000
11
8.4196736711
21
20.8771797971
31
0.0000000000
11
8.3823772035
21
20.8889817384
31
0.0000000000
11
8.3466666628
21
20.9016339194
31
0.0000000000
11
8.3139143852
21
20.9146501238
31
0.0000000000
11
8.2853790222
21
20.9275301464
31
0.0000000000
0
SPLINE
5
3D9
100
AcDbEntity
8
0
100
AcDbSpline
62
7
6
CONTINUOUS
70
0
71
3
72
10
73
6
74
4
42
0.0000001000
43
0.0000001000
44
0.0000000001
12
0.0526488752
22
-0.0062545399
32
0.0000000000
13
0.0476387383
23
-0.0231293106
33
0.0000000000
40
0.0000000000
40
0.0000000000
40
0.0000000000
40
0.0000000000
40
0.1399712176
40
0.5671388979
40
1.0000000000
40
1.0000000000
40
1.0000000000
40
1.0000000000
10
9.3091606985
20
21.6378228277
30
0.0000000000
10
9.3116171408
20
21.6375310091
30
0.0000000000
10
9.3215423823
20
21.6361102683
30
0.0000000000
10
9.3387453998
20
21.6319079916
30
0.0000000000
10
9.3528805060
20
21.6262062128
30
0.0000000000
10
9.3597541583
20
21.6228689532
30
0.0000000000
11
9.3091606985
21
21.6378228277
31
0.0000000000
11
9.3165060086
21
21.6367710955
31
0.0000000000
11
9.3384846371
21
21.6314168794
31
0.0000000000
11
9.3597541583
21
21.6228689532
31
0.0000000000
0
SPLINE
5
3DA
100
AcDbEntity
8
0
100
AcDbSpline
62
7
6
CONTINUOUS
70
0
71
3
72
11
73
7
74
5
42
0.0000001000
43
0.0000001000
44
0.0000000001
12
-0.0215973089
22
-0.0544823661
32
0.0000000000
13
-0.0605603831
23
0.0071935329
33
0.0000000000
40
0.0000000000
40
0.0000000000
40
0.0000000000
40
0.0000000000
40
0.0988382303
40
0.2965060871
40
0.5981918223
40
1.0000000000
40
1.0000000000
40
1.0000000000
40
1.0000000000
10
10.6197970947
20
20.6148402232
30
0.0000000000
10
10.6190855481
20
20.6130452430
30
0.0000000000
10
10.6140672830
20
20.6082255636
30
0.0000000000
10
10.6018387633
20
20.6067948197
30
0.0000000000
10
10.5835609689
20
20.6061725509
30
0.0000000000
10
10.5692738306
20
20.6075959304
30
0.0000000000
10
10.5611626115
20
20.6085594039
30
0.0000000000
11
10.6197970947
21
20.6148402232
31
0.0000000000
11
10.6156240395
21
20.6102887791
31
0.0000000000
11
10.6039776648
21
20.6071767252
31
0.0000000000
11
10.5855882910
21
20.6065927867
31
0.0000000000
11
10.5611626115
21
20.6085594039
31
0.0000000000
0
ENDSEC
0
SECTION
2
OBJECTS
0
DICTIONARY
5
3DB
100
AcDbDictionary
3
ACAD_GROUP
350
3DC
3
ACAD_MLINESTYLE
350
3DD
0
DICTIONARY
5
3DC
102
{ACAD_REACTORS
330
3DB
102
}
100
AcDbDictionary
0
DICTIONARY
5
3DD
102
{ACAD_REACTORS
330
3DB
102
}
100
AcDbDictionary
3
STANDARD
350
3DE
0
MLINESTYLE
5
3DE
102
{ACAD_REACTORS
330
3DD
102
}
100
AcDbMlineStyle
2
STANDARD
70
0
3

62
256
51
90.0
52
90.0
71
2
49
0.5
62
256
6
BYLAYER
49
-0.5
62
256
6
BYLAYER
0
ENDSEC
0
EOF
