  0
SECTION
  2
HEADER
  9
$ACADVER
  1
AC1024
  9
$DWGCODEPAGE
  3
ANSI_1252
  9
$EXTMAX
 10
297.0
 20
210.0
 30
0.0
  9
$EXTMIN
 10
0.0
 20
0.0
 30
0.0
  9
$LIMMIN
 10
0.0
 20
0.0
  9
$LIMMAX
 10
297.0
 20
210.0
  9
$VIEWCTR
 10
148.5
 20
105.0
  9
$VIEWSIZE
 40
210.0
  9
$CLAYER
  8
0
  9
$LTSCALE
 40
16.335
  9
$CELTYPE
  6
BYLAYER
  9
$DIMSCALE
 40
1.0
  9
$DIMASZ
 40
3.0
  9
$DIMEXO
 40
0.5
  9
$DIMDLI
 40
11.286
  9
$DIMEXE
 40
1.5
  9
$DIMCEN
 40
2.673
  9
$DIMLFAC
 40
1.0
  9
$DIMBLK
  1
_FILLED
  9
$DIMALT
 70
0
  9
$DIMALTF
 40
0.0393700787
  9
$DIMTXT
 40
3.0
  9
$DIMTOL
 70
1
  9
$DIMLIM
 70
0
  9
$DIMTFAC
 40
1.0
  9
$DIMTP
 40
0.01
  9
$DIMTM
 40
0.01
  9
$DIMGAP
 40
0.625
  9
$DIMDSEP
 70
44
  9
$AUNITS
 70
0
  9
$PDMODE
 70
3
  9
$PDSIZE
 40
3.0
  9
$HANDSEED
  5
3D4
  9
$TILEMODE
 70
1
  9
$MEASUREMENT
 70
1
  9
$INSUNITS
 70
4
  0
ENDSEC
  0
SECTION
  2
CLASSES
  0
CLASS
  1
ACDBDICTIONARYWDFLT
  2
AcDbDictionaryWithDefault
  3
AutoCAD 2000
 90
0
 91
1
280
0
281
0
  0
CLASS
  1
ACDBPLACEHOLDER
  2
AcDbPlaceHolder
  3
AutoCAD 2000
 90
0
 91
1
280
0
281
0
  0
CLASS
  1
LAYOUT
  2
AcDbLayout
  3
AutoCAD 2000
 90
0
 91
0
280
0
281
0
  0
ENDSEC
  0
SECTION
  2
TABLES
  0
TABLE
  2
VPORT
  5
8
100
AcDbSymbolTable
 70
2
  0
VPORT
  5
1F4
100
AcDbSymbolTableRecord
100
AcDbViewportTableRecord
  2
*ACTIVE
 70
0
 10
0.0
 20
0.0
 11
1.0
 21
1.0
 12
148.5
 22
105.0
 13
0.0
 23
0.0
 14
1.0
 24
1.0
 15
0.0
 25
0.0
 16
0.0
 26
0.0
 36
1.0
 17
0.0
 27
0.0
 37
0.0
 40
210.0
 41
1.4142857143
 42
50.0
 43
0.0
 44
0.0
 50
0.0
 51
0.0
 71
0
 72
100
 73
1
 74
1
 75
0
 76
0
 77
0
 78
0
  0
ENDTAB
  0
TABLE
  2
LTYPE
  5
5
100
AcDbSymbolTable
 70
6
  0
LTYPE
  5
14
100
AcDbSymbolTableRecord
100
AcDbLinetypeTableRecord
  2
BYBLOCK
 70
0
  3

 72
65
 73
0
 40
0.0
  0
LTYPE
  5
15
100
AcDbSymbolTableRecord
100
AcDbLinetypeTableRecord
  2
BYLAYER
 70
0
  3

 72
65
 73
0
 40
0.0
  0
LTYPE
  5
16
100
AcDbSymbolTableRecord
100
AcDbLinetypeTableRecord
  2
CONTINUOUS
 70
64
  3
Solid line
 72
65
 73
0
 40
0.0
  0
LTYPE
  5
1F5
100
AcDbSymbolTableRecord
100
AcDbLinetypeTableRecord
  2
CENTER
 70
64
  3
____ _ ____ _ ____ _ ____ _ ____ _ ____ _ ____
 72
65
 73
4
 40
0.6
 49
0.375
 74
0
 49
-0.075
 74
0
 49
0.075
 74
0
 49
-0.075
 74
0
  0
LTYPE
  5
1F6
100
AcDbSymbolTableRecord
100
AcDbLinetypeTableRecord
  2
HIDDEN
 70
64
  3
- - - - - - - - - - - - - - - - - - - -
 72
65
 73
2
 40
0.2
 49
0.1
 74
0
 49
-0.1
 74
0
  0
LTYPE
  5
1F7
100
AcDbSymbolTableRecord
100
AcDbLinetypeTableRecord
  2
PHANTOM
 70
64
  3
_____ _ _ _____ _ _ _____ _ _ _____
 72
65
 73
6
 40
0.8
 49
0.45
 74
0
 49
-0.05
 74
0
 49
0.1
 74
0
 49
-0.05
 74
0
 49
0.1
 74
0
 49
-0.05
 74
0
  0
LTYPE
  5
1F8
100
AcDbSymbolTableRecord
100
AcDbLinetypeTableRecord
  2
DOT
 70
64
  3
. . . . . . . . . . . . . . . . . . . .
 72
65
 73
2
 40
0.2
 49
0.1
 74
0
 49
-0.1
 74
0
  0
LTYPE
  5
1F9
100
AcDbSymbolTableRecord
100
AcDbLinetypeTableRecord
  2
DASHED
 70
64
  3
- - - - - - - - - - - - - - - - - - - -
 72
65
 73
2
 40
0.2
 49
0.1
 74
0
 49
-0.1
 74
0
  0
ENDTAB
  0
TABLE
  2
LAYER
  5
2
100
AcDbSymbolTable
 70
36
  0
LAYER
  5
10
100
AcDbSymbolTableRecord
100
AcDbLayerTableRecord
  2
0
 70
0
 62
7
  6
CONTINUOUS
370
-3
390
F
  0
LAYER
  5
1FA
100
AcDbSymbolTableRecord
100
AcDbLayerTableRecord
  2
DEFAULT_1
 70
0
 62
7
  6
CENTER
370
-3
390
F
  0
LAYER
  5
1FB
100
AcDbSymbolTableRecord
100
AcDbLayerTableRecord
  2
DEFAULT_2
 70
0
 62
7
  6
HIDDEN
370
-3
390
F
  0
LAYER
  5
1FC
100
AcDbSymbolTableRecord
100
AcDbLayerTableRecord
  2
DEFAULT_3
 70
0
 62
7
  6
PHANTOM
370
-3
390
F
  0
LAYER
  5
1FD
100
AcDbSymbolTableRecord
100
AcDbLayerTableRecord
  2
218160210_GEN
 70
0
 62
7
  6
CONTINUOUS
370
-3
390
F
  0
LAYER
  5
1FE
100
AcDbSymbolTableRecord
100
AcDbLayerTableRecord
  2
224160210_GEN
 70
0
 62
7
  6
CONTINUOUS
370
-3
390
F
  0
LAYER
  5
1FF
100
AcDbSymbolTableRecord
100
AcDbLayerTableRecord
  2
268160210
 70
0
 62
7
  6
CONTINUOUS
370
-3
390
F
  0
LAYER
  5
200
100
AcDbSymbolTableRecord
100
AcDbLayerTableRecord
  2
284160010
 70
0
 62
7
  6
CONTINUOUS
370
-3
390
F
  0
LAYER
  5
201
100
AcDbSymbolTableRecord
100
AcDbLayerTableRecord
  2
290160210
 70
0
 62
7
  6
CONTINUOUS
370
-3
390
F
  0
LAYER
  5
202
100
AcDbSymbolTableRecord
100
AcDbLayerTableRecord
  2
32016001
 70
0
 62
7
  6
CONTINUOUS
370
-3
390
F
  0
LAYER
  5
203
100
AcDbSymbolTableRecord
100
AcDbLayerTableRecord
  2
341160050
 70
0
 62
7
  6
CONTINUOUS
370
-3
390
F
  0
LAYER
  5
204
100
AcDbSymbolTableRecord
100
AcDbLayerTableRecord
  2
349160010
 70
0
 62
7
  6
CONTINUOUS
370
-3
390
F
  0
LAYER
  5
205
100
AcDbSymbolTableRecord
100
AcDbLayerTableRecord
  2
712160050
 70
0
 62
7
  6
CONTINUOUS
370
-3
390
F
  0
LAYER
  5
206
100
AcDbSymbolTableRecord
100
AcDbLayerTableRecord
  2
715160050
 70
0
 62
7
  6
CONTINUOUS
370
-3
390
F
  0
LAYER
  5
207
100
AcDbSymbolTableRecord
100
AcDbLayerTableRecord
  2
ASSI
 70
0
 62
7
  6
CONTINUOUS
370
-3
390
F
  0
LAYER
  5
208
100
AcDbSymbolTableRecord
100
AcDbLayerTableRecord
  2
COLOR2
 70
0
 62
7
  6
CONTINUOUS
370
-3
390
F
  0
LAYER
  5
209
100
AcDbSymbolTableRecord
100
AcDbLayerTableRecord
  2
COORDINATE
 70
0
 62
7
  6
CONTINUOUS
370
-3
390
F
  0
LAYER
  5
20A
100
AcDbSymbolTableRecord
100
AcDbLayerTableRecord
  2
COORD_ORIGINE
 70
0
 62
7
  6
CONTINUOUS
370
-3
390
F
  0
LAYER
  5
20B
100
AcDbSymbolTableRecord
100
AcDbLayerTableRecord
  2
COSMETICHE
 70
0
 62
7
  6
CONTINUOUS
370
-3
390
F
  0
LAYER
  5
20C
100
AcDbSymbolTableRecord
100
AcDbLayerTableRecord
  2
COSMETICI
 70
0
 62
7
  6
CONTINUOUS
370
-3
390
F
  0
LAYER
  5
20D
100
AcDbSymbolTableRecord
100
AcDbLayerTableRecord
  2
CURVE
 70
0
 62
7
  6
CONTINUOUS
370
-3
390
F
  0
LAYER
  5
20E
100
AcDbSymbolTableRecord
100
AcDbLayerTableRecord
  2
DRAFT
 70
0
 62
7
  6
CONTINUOUS
370
-3
390
F
  0
LAYER
  5
20F
100
AcDbSymbolTableRecord
100
AcDbLayerTableRecord
  2
ESTENSIONE
 70
0
 62
7
  6
CONTINUOUS
370
-3
390
F
  0
LAYER
  5
210
100
AcDbSymbolTableRecord
100
AcDbLayerTableRecord
  2
IGES
 70
0
 62
7
  6
CONTINUOUS
370
-3
390
F
  0
LAYER
  5
211
100
AcDbSymbolTableRecord
100
AcDbLayerTableRecord
  2
IMPORT
 70
0
 62
7
  6
CONTINUOUS
370
-3
390
F
  0
LAYER
  5
212
100
AcDbSymbolTableRecord
100
AcDbLayerTableRecord
  2
INCISIONI_LASER
 70
0
 62
7
  6
CONTINUOUS
370
-3
390
F
  0
LAYER
  5
213
100
AcDbSymbolTableRecord
100
AcDbLayerTableRecord
  2
INTF_1
 70
0
 62
7
  6
CONTINUOUS
370
-3
390
F
  0
LAYER
  5
214
100
AcDbSymbolTableRecord
100
AcDbLayerTableRecord
  2
INTF_11
 70
0
 62
7
  6
CONTINUOUS
370
-3
390
F
  0
LAYER
  5
215
100
AcDbSymbolTableRecord
100
AcDbLayerTableRecord
  2
INTF_12
 70
0
 62
7
  6
CONTINUOUS
370
-3
390
F
  0
LAYER
  5
216
100
AcDbSymbolTableRecord
100
AcDbLayerTableRecord
  2
INTF_13
 70
0
 62
7
  6
CONTINUOUS
370
-3
390
F
  0
LAYER
  5
217
100
AcDbSymbolTableRecord
100
AcDbLayerTableRecord
  2
INTF_2
 70
0
 62
7
  6
CONTINUOUS
370
-3
390
F
  0
LAYER
  5
218
100
AcDbSymbolTableRecord
100
AcDbLayerTableRecord
  2
INTF_YELLOW
 70
0
 62
7
  6
CONTINUOUS
370
-3
390
F
  0
LAYER
  5
219
100
AcDbSymbolTableRecord
100
AcDbLayerTableRecord
  2
NOTE
 70
0
 62
7
  6
CONTINUOUS
370
-3
390
F
  0
LAYER
  5
21A
100
AcDbSymbolTableRecord
100
AcDbLayerTableRecord
  2
PIANI
 70
0
 62
7
  6
CONTINUOUS
370
-3
390
F
  0
LAYER
  5
21B
100
AcDbSymbolTableRecord
100
AcDbLayerTableRecord
  2
PIANI_CENTRAGGIO
 70
0
 62
7
  6
CONTINUOUS
370
-3
390
F
  0
LAYER
  5
21C
100
AcDbSymbolTableRecord
100
AcDbLayerTableRecord
  2
PIANI_DI_RIFERIMENTO
 70
0
 62
7
  6
CONTINUOUS
370
-3
390
F
  0
LAYER
  5
21D
100
AcDbSymbolTableRecord
100
AcDbLayerTableRecord
  2
PIANI_ORIGINE
 70
0
 62
7
  6
CONTINUOUS
370
-3
390
F
  0
LAYER
  5
21E
100
AcDbSymbolTableRecord
100
AcDbLayerTableRecord
  2
PUNTI
 70
0
 62
7
  6
CONTINUOUS
370
-3
390
F
  0
LAYER
  5
21F
100
AcDbSymbolTableRecord
100
AcDbLayerTableRecord
  2
RACCORDO
 70
0
 62
7
  6
CONTINUOUS
370
-3
390
F
  0
LAYER
  5
220
100
AcDbSymbolTableRecord
100
AcDbLayerTableRecord
  2
RGB__255__255__255__
 70
0
 62
7
  6
CONTINUOUS
370
-3
390
F
  0
LAYER
  5
221
100
AcDbSymbolTableRecord
100
AcDbLayerTableRecord
  2
RGB____0____0____0__
 70
0
 62
7
  6
CONTINUOUS
370
-3
390
F
  0
LAYER
  5
222
100
AcDbSymbolTableRecord
100
AcDbLayerTableRecord
  2
SMUSSO
 70
0
 62
7
  6
CONTINUOUS
370
-3
390
F
  0
LAYER
  5
223
100
AcDbSymbolTableRecord
100
AcDbLayerTableRecord
  2
SNAPLINE
 70
0
 62
7
  6
CONTINUOUS
370
-3
390
F
  0
LAYER
  5
224
100
AcDbSymbolTableRecord
100
AcDbLayerTableRecord
  2
SUPERFICI
 70
0
 62
7
  6
CONTINUOUS
370
-3
390
F
  0
LAYER
  5
225
100
AcDbSymbolTableRecord
100
AcDbLayerTableRecord
  2
TRACCIABILITA
 70
0
 62
7
  6
CONTINUOUS
370
-3
390
F
  0
LAYER
  5
226
100
AcDbSymbolTableRecord
100
AcDbLayerTableRecord
  2
TRASH
 70
0
 62
7
  6
CONTINUOUS
370
-3
390
F
  0
LAYER
  5
227
100
AcDbSymbolTableRecord
100
AcDbLayerTableRecord
  2
XSEC_DATUMS
 70
0
 62
7
  6
CONTINUOUS
370
-3
390
F
  0
ENDTAB
  0
TABLE
  2
STYLE
  5
3
100
AcDbSymbolTable
 70
1
  0
STYLE
  5
11
100
AcDbSymbolTableRecord
100
AcDbTextStyleTableRecord
  2
STANDARD
 70
0
 40
0.0
 41
0.8
 50
0.0
 71
0
 42
0.2
  3
txt
  4

  0
STYLE
  5
228
100
AcDbSymbolTableRecord
100
AcDbTextStyleTableRecord
  2
TEXTSTYLE_1
 70
0
 40
0.0
 41
0.8
 50
0.0
 71
0
 42
0.2
  3
gdt
  4

  0
ENDTAB
  0
TABLE
  2
VIEW
  5
6
100
AcDbSymbolTable
 70
0
  0
ENDTAB
  0
TABLE
  2
UCS
  5
7
100
AcDbSymbolTable
 70
0
  0
ENDTAB
  0
TABLE
  2
APPID
  5
9
100
AcDbSymbolTable
 70
1
  0
APPID
  5
229
100
AcDbSymbolTableRecord
100
AcDbRegAppTableRecord
  2
ACAD
 70
0
  0
ENDTAB
  0
TABLE
  2
BLOCK_RECORD
  5
1
100
AcDbSymbolTable
 70
0
  0
BLOCK_RECORD
  5
22A
100
AcDbSymbolTableRecord
100
AcDbBlockTableRecord
  2
*Model_Space
  0
BLOCK_RECORD
  5
22B
100
AcDbSymbolTableRecord
100
AcDbBlockTableRecord
  2
*Paper_Space
  0
BLOCK_RECORD
  5
22C
100
AcDbSymbolTableRecord
100
AcDbBlockTableRecord
  2
_FILLED
  0
ENDTAB
  0
TABLE
  2
DIMSTYLE
  5
A
100
AcDbSymbolTable
 70
1
100
AcDbDimStyleTable
 71
0
  0
DIMSTYLE
105
22D
100
AcDbSymbolTableRecord
100
AcDbDimStyleTableRecord
  2
STANDARD
 70
0
  3

  4

 40
1.0
 41
3.0
 42
0.5
 43
0.38
 44
1.5
 45
0.0
 46
0.0
 47
0.01
 48
0.01
140
3.0
141
0.09
142
0.0
143
25.4
144
1.0
145
0.0
146
1.0
147
0.625
 71
1.0
 72
0.0
 73
0
 74
0
 75
0
 76
0
 77
1
 78
8
 79
2
170
0
171
1
172
0
173
0
174
0
175
0
176
0
177
0
178
0
270
2
179
2
271
2
272
2
273
2
274
2
275
0
280
0
281
0
282
0
283
1
284
8
285
0
286
0
287
3
288
0
340
11
278
44
341
22C
342
22C
343
22C
344
22C
  0
ENDTAB
  0
ENDSEC
  0
SECTION
  2
BLOCKS
  0
BLOCK
  5
20
100
AcDbEntity
  8
0
100
AcDbBlockBegin
  2
*Model_Space
 70
0
 10
0.0
 20
0.0
 30
0.0
  3
*Model_Space
  1

  0
ENDBLK
  5
21
100
AcDbEntity
  8
0
100
AcDbBlockEnd
  0
BLOCK
  5
1C
100
AcDbEntity
  8
0
100
AcDbBlockBegin
  2
*Paper_Space
 70
0
 10
0.0
 20
0.0
 30
0.0
  3
*Paper_Space
  1

  0
ENDBLK
  5
1D
100
AcDbEntity
  8
0
100
AcDbBlockEnd
  0
BLOCK
  5
22E
100
AcDbEntity
  8
0
100
AcDbBlockBegin
  2
_FILLED
 70
64
 10
0.0
 20
0.0
  3
_FILLED
  1

  0
SOLID
  5
22F
100
AcDbEntity
  8
0
  6
BYBLOCK
 62
0
100
AcDbTrace
 10
0.0
 20
0.0
 11
-1.0
 21
0.3166666667
 12
-1.0
 22
-0.3166666667
 13
-1.0
 23
-0.3166666667
  0
ENDBLK
  5
230
100
AcDbEntity
  8
0
  6
BYBLOCK
 62
0
100
AcDbBlockEnd
  0
ENDSEC
  0
SECTION
  2
ENTITIES
  0
LWPOLYLINE
  5
231
100
AcDbEntity
  8
268160210
100
AcDbPolyline
 62
7
  6
CONTINUOUS
 90
24
 70
0
 10
108.5519189644
 20
111.1257071176
 10
108.5327695245
 20
111.1152951789
 10
108.5030242499
 20
111.0979004335
 10
108.474954293
 20
111.0799574932
 10
108.4485550613
 20
111.0615276549
 10
108.4237599944
 20
111.0426311428
 10
108.4004645121
 20
111.023243478
 10
108.378643634
 20
111.0033913737
 10
108.3582760825
 20
110.9831045598
 10
108.3392923068
 20
110.9623543856
 10
108.3216812431
 20
110.9411608793
 10
108.3054408468
 20
110.9195570457
 10
108.2905415918
 20
110.8975345401
 10
108.276982302
 20
110.8751148373
 10
108.2647744663
 20
110.8523436708
 10
108.2539210777
 20
110.8292593807
 10
108.2444239866
 20
110.8058997655
 10
108.2362898157
 20
110.7823196413
 10
108.2295251307
 20
110.7585967354
 10
108.2241219757
 20
110.7347859969
 10
108.2200696902
 20
110.7109452702
 10
108.2173567963
 20
110.6871658473
 10
108.2159590457
 20
110.6635176241
 10
108.2157386594
 20
110.649552247
  0
LINE
  5
232
100
AcDbEntity
  8
268160210
100
AcDbLine
 62
7
  6
CONTINUOUS
 10
109.9718283514
 20
111.8763327896
 11
108.5519219477
 21
111.1257088952
  0
LINE
  5
233
100
AcDbEntity
  8
268160210
100
AcDbLine
 62
250
  6
CONTINUOUS
 10
110.0855305868
 20
111.8701995511
 11
108.6672185333
 21
111.1204184991
  0
LINE
  5
234
100
AcDbEntity
  8
268160210
100
AcDbLine
 62
7
  6
CONTINUOUS
 10
104.9316779289
 20
107.8667514273
 11
108.2157380829
 21
109.6028475643
  0
LINE
  5
235
100
AcDbEntity
  8
268160210
100
AcDbLine
 62
250
  6
CONTINUOUS
 10
108.216333908
 20
109.5369213887
 11
105.0469745142
 21
107.861461031
  0
LINE
  5
236
100
AcDbEntity
  8
268160210
100
AcDbLine
 62
250
  6
CONTINUOUS
 10
109.6945938652
 20
110.6112418619
 11
111.1461974887
 21
111.3398661001
  0
LINE
  5
237
100
AcDbEntity
  8
268160210
100
AcDbLine
 62
250
  6
CONTINUOUS
 10
109.8713638294
 20
110.3063587728
 11
111.3229674528
 21
111.034983011
  0
LINE
  5
238
100
AcDbEntity
  8
218160210_GEN
100
AcDbLine
 62
250
  6
CONTINUOUS
 10
116.815385722
 20
114.0532708909
 11
111.1461907575
 21
111.3398694657
  0
LINE
  5
239
100
AcDbEntity
  8
218160210_GEN
100
AcDbLine
 62
250
  6
CONTINUOUS
 10
116.9543389352
 20
113.8081474405
 11
111.3137541877
 21
111.1084394945
  0
LINE
  5
23A
100
AcDbEntity
  8
218160210_GEN
100
AcDbLine
 62
7
  6
CONTINUOUS
 10
115.7319809532
 20
114.558970074
 11
109.9628155578
 21
111.8945783109
  0
LINE
  5
23B
100
AcDbEntity
  8
218160210_GEN
100
AcDbLine
 62
250
  6
CONTINUOUS
 10
115.8183048382
 20
114.5518113328
 11
110.0501537076
 21
111.8878879907
  0
LINE
  5
23C
100
AcDbEntity
  8
268160210
100
AcDbLine
 62
7
  6
CONTINUOUS
 10
110.8229611984
 20
108.5975869552
 11
113.2085081391
 21
109.8113620568
  0
LINE
  5
23D
100
AcDbEntity
  8
268160210
100
AcDbLine
 62
7
  6
CONTINUOUS
 10
114.5360134861
 20
110.4868016844
 11
117.3333750929
 21
111.9101096104
  0
LINE
  5
23E
100
AcDbEntity
  8
268160210
100
AcDbLine
 62
7
  6
CONTINUOUS
 10
115.6739608652
 20
112.0902976714
 11
109.8713638294
 21
109.17771687
  0
LINE
  5
23F
100
AcDbEntity
  8
349160010
100
AcDbLine
 62
7
  6
CONTINUOUS
 10
113.5857091526
 20
110.2139401955
 11
113.9492772852
 21
110.3957242618
  0
LINE
  5
240
100
AcDbEntity
  8
268160210
100
AcDbLine
 62
7
  6
CONTINUOUS
 10
117.3333750929
 20
111.9101096104
 11
118.8633555633
 21
112.6618634208
  0
LINE
  5
241
100
AcDbEntity
  8
268160210
100
AcDbLine
 62
7
  6
CONTINUOUS
 10
117.0354127639
 20
112.7448196369
 11
115.6739608652
 21
112.0902976714
  0
LWPOLYLINE
  5
242
100
AcDbEntity
  8
290160210
100
AcDbPolyline
 62
7
  6
CONTINUOUS
 90
9
 70
0
 10
116.9253823618
 20
62.9280478764
 10
116.9765658091
 20
62.9054800183
 10
117.0318428302
 20
62.8873856622
 10
117.0893461471
 20
62.8747617458
 10
117.1486603099
 20
62.8678046081
 10
117.2093558162
 20
62.866634218
 10
117.2707894849
 20
62.8712974393
 10
117.3325521949
 20
62.8817594062
 10
117.3979851925
 20
62.8990593343
  0
LINE
  5
243
100
AcDbEntity
  8
290160210
100
AcDbLine
 62
7
  6
CONTINUOUS
 10
100.1789515464
 20
71.3012542677
 11
116.9256417757
 21
62.9279091531
  0
LINE
  5
244
100
AcDbEntity
  8
268160210
100
AcDbLine
 62
7
  6
CONTINUOUS
 10
117.3405653009
 20
62.8838780033
 11
121.9403870659
 21
60.5839671207
  0
LINE
  5
245
100
AcDbEntity
  8
268160210
100
AcDbLine
 62
250
  6
CONTINUOUS
 10
117.4703287369
 20
62.9217280872
 11
121.8754137695
 21
60.7191855708
  0
LINE
  5
246
100
AcDbEntity
  8
290160210
100
AcDbLine
 62
250
  6
CONTINUOUS
 10
99.9244983626
 20
71.8981000972
 11
116.663391746
 21
63.5286534055
  0
LINE
  5
247
100
AcDbEntity
  8
290160210
100
AcDbLine
 62
7
  6
CONTINUOUS
 10
116.925448191
 20
62.9280060137
 11
116.9256421674
 21
62.9279089572
  0
LINE
  5
248
100
AcDbEntity
  8
268160210
100
AcDbLine
 62
7
  6
CONTINUOUS
 10
120.1322300038
 20
112.0274262006
 11
119.0345376915
 21
111.4590793683
  0
LINE
  5
249
100
AcDbEntity
  8
268160210
100
AcDbLine
 62
7
  6
CONTINUOUS
 10
116.7936042441
 20
109.7143886688
 11
116.2917789942
 21
109.4625003196
  0
LINE
  5
24A
100
AcDbEntity
  8
268160210
100
AcDbLine
 62
7
  6
CONTINUOUS
 10
114.3329923668
 20
108.4792984378
 11
111.9811219887
 21
107.2987903879
  0
LINE
  5
24B
100
AcDbEntity
  8
268160210
100
AcDbLine
 62
7
  6
CONTINUOUS
 10
120.5613532749
 20
110.6956715766
 11
120.1618022177
 21
110.495896048
  0
LINE
  5
24C
100
AcDbEntity
  8
268160210
100
AcDbLine
 62
7
  6
CONTINUOUS
 10
118.6061672991
 20
111.2737135073
 11
117.651802025
 21
110.8047874359
  0
LINE
  5
24D
100
AcDbEntity
  8
268160210
100
AcDbLine
 62
7
  6
CONTINUOUS
 10
113.6321325562
 20
108.8297283431
 11
111.9811219887
 21
108.0185065601
  0
LINE
  5
24E
100
AcDbEntity
  8
218160210_GEN
100
AcDbLine
 62
7
  6
CONTINUOUS
 10
120.6280952964
 20
111.8430950377
 11
123.0028105494
 21
112.9398172369
  0
LINE
  5
24F
100
AcDbEntity
  8
218160210_GEN
100
AcDbLine
 62
250
  6
CONTINUOUS
 10
120.6512300135
 20
111.7362144866
 11
123.218620262
 21
112.9219203838
  0
LWPOLYLINE
  5
250
100
AcDbEntity
  8
290160210
100
AcDbPolyline
 62
7
  6
CONTINUOUS
 90
19
 70
0
 10
102.9614433195
 20
102.5507866866
 10
102.9528765221
 20
102.5470375655
 10
102.8886382521
 20
102.5151090085
 10
102.8255864064
 20
102.476996614
 10
102.7636167428
 20
102.4325688683
 10
102.7033281262
 20
102.3821863174
 10
102.646004259
 20
102.3270276743
 10
102.5920669262
 20
102.2678266815
 10
102.5413666216
 20
102.2046935051
 10
102.4942680513
 20
102.1382507389
 10
102.4509903367
 20
102.0690440403
 10
102.4116209692
 20
101.9973625638
 10
102.3763150494
 20
101.9235721661
 10
102.3452497331
 20
101.8480856255
 10
102.3186219019
 20
101.7712816395
 10
102.2965911954
 20
101.6934509726
 10
102.2793685702
 20
101.6148981375
 10
102.2672011743
 20
101.5360395657
 10
102.2657694297
 20
101.5237011313
  0
LINE
  5
251
100
AcDbEntity
  8
290160210
100
AcDbLine
 62
7
  6
CONTINUOUS
 10
102.9613788897
 20
102.5507688949
 11
106.2654510459
 21
103.973606363
  0
LINE
  5
252
100
AcDbEntity
  8
290160210
100
AcDbLine
 62
250
  6
CONTINUOUS
 10
103.094831624
 20
102.5418048546
 11
106.3368358959
 21
103.937913938
  0
LINE
  5
253
100
AcDbEntity
  8
268160210
100
AcDbLine
 62
7
  6
CONTINUOUS
 10
121.8754137695
 20
63.6060698188
 11
121.0188658157
 21
64.0343437957
  0
LINE
  5
254
100
AcDbEntity
  8
268160210
100
AcDbLine
 62
250
  6
CONTINUOUS
 10
122.3310183253
 20
63.6553181851
 11
121.3594144582
 21
64.1411201266
  0
LWPOLYLINE
  5
255
100
AcDbEntity
  8
290160210
100
AcDbPolyline
 62
7
  6
CONTINUOUS
 90
14
 70
0
 10
99.8366017514
 20
72.0027751222
 10
99.8356263973
 20
71.9799602995
 10
99.8360984484
 20
71.8986213099
 10
99.8428636569
 20
71.8199950538
 10
99.8559838322
 20
71.7441057864
 10
99.8754383881
 20
71.6716033095
 10
99.9008676017
 20
71.6037546903
 10
99.9318339484
 20
71.5411168085
 10
99.968144382
 20
71.4836575477
 10
100.0094208778
 20
71.4317473837
 10
100.0551570808
 20
71.3857329911
 10
100.1048266387
 20
71.3458703215
 10
100.1578066432
 20
71.3124097085
 10
100.1791219635
 20
71.3011782179
  0
LWPOLYLINE
  5
256
100
AcDbEntity
  8
290160210
100
AcDbPolyline
 62
7
  6
CONTINUOUS
 90
10
 70
0
 10
102.26576787
 20
101.5237781394
 10
101.9139709883
 20
98.2568320124
 10
101.5773743471
 20
94.9380184476
 10
101.2625915295
 20
91.6270303712
 10
100.9696503575
 20
88.3241471349
 10
100.6985708719
 20
85.0296005369
 10
100.449370903
 20
81.7436044824
 10
100.222068961
 20
78.4663904237
 10
100.0166833499
 20
75.1982342923
 10
99.8365905464
 20
72.002706948
  0
LINE
  5
257
100
AcDbEntity
  8
268160210
100
AcDbLine
 62
7
  6
CONTINUOUS
 10
118.7769668798
 20
109.1391579478
 11
118.1333873892
 21
108.8104895048
  0
LINE
  5
258
100
AcDbEntity
  8
268160210
100
AcDbLine
 62
7
  6
CONTINUOUS
 10
114.7654822136
 20
107.0905401182
 11
114.2928159338
 21
106.8491550329
  0
LINE
  5
259
100
AcDbEntity
  8
268160210
100
AcDbLine
 62
7
  6
CONTINUOUS
 10
104.7985171623
 20
104.75885
 11
104.7985171623
 21
107.645734248
  0
LINE
  5
25A
100
AcDbEntity
  8
268160210
100
AcDbLine
 62
250
  6
CONTINUOUS
 10
104.8717404671
 20
104.6704616524
 11
104.8717404671
 21
107.5573459004
  0
LINE
  5
25B
100
AcDbEntity
  8
349160010
100
AcDbLine
 62
250
  6
CONTINUOUS
 10
119.9737311145
 20
105.5008198006
 11
120.1318403778
 21
105.5798744323
  0
LINE
  5
25C
100
AcDbEntity
  8
349160010
100
AcDbLine
 62
7
  6
CONTINUOUS
 10
122.0709905269
 20
105.9712995083
 11
122.4345586595
 21
106.1530835746
  0
LINE
  5
25D
100
AcDbEntity
  8
268160210
100
AcDbLine
 62
7
  6
CONTINUOUS
 10
125.8186564672
 20
107.6674689233
 11
126.2182075244
 21
107.8672444519
  0
LINE
  5
25E
100
AcDbEntity
  8
268160210
100
AcDbLine
 62
250
  6
CONTINUOUS
 10
126.4124027303
 20
66.5908409077
 11
123.9585558082
 21
67.8177643688
  0
LINE
  5
25F
100
AcDbEntity
  8
218160210_GEN
100
AcDbLine
 62
250
  6
CONTINUOUS
 10
122.2124118831
 20
105.5826410432
 11
121.9121749385
 21
105.4261041051
  0
LINE
  5
260
100
AcDbEntity
  8
268160210
100
AcDbLine
 62
7
  6
CONTINUOUS
 10
123.7323344077
 20
105.9524898413
 11
119.9496701833
 21
104.0207279081
  0
LINE
  5
261
100
AcDbEntity
  8
268160210
100
AcDbLine
 62
7
  6
CONTINUOUS
 10
120.8638774913
 20
103.5771288088
 11
127.3742913858
 21
106.889651464
  0
LINE
  5
262
100
AcDbEntity
  8
349160010
100
AcDbLine
 62
7
  6
CONTINUOUS
 10
122.0709905269
 20
105.6248893468
 11
122.4345586595
 21
105.8066734131
  0
LINE
  5
263
100
AcDbEntity
  8
349160010
100
AcDbLine
 62
250
  6
CONTINUOUS
 10
121.8588584925
 20
105.2590157085
 11
121.5760157801
 21
105.1175943523
  0
LINE
  5
264
100
AcDbEntity
  8
349160010
100
AcDbLine
 62
7
  6
CONTINUOUS
 10
121.8588584925
 20
104.9992080874
 11
121.5760157801
 21
104.8577867311
  0
LINE
  5
265
100
AcDbEntity
  8
268160210
100
AcDbLine
 62
7
  6
CONTINUOUS
 10
128.8817167724
 20
107.6526828163
 11
127.7450231078
 21
107.1038366602
  0
LINE
  5
266
100
AcDbEntity
  8
218160210_GEN
100
AcDbLine
 62
250
  6
CONTINUOUS
 10
122.2124118831
 20
105.5826410432
 11
122.7826474613
 21
105.8555683354
  0
LINE
  5
267
100
AcDbEntity
  8
268160210
100
AcDbLine
 62
250
  6
CONTINUOUS
 10
126.7255526879
 20
67.3032350952
 11
124.0272345321
 21
68.6523941731
  0
LINE
  5
268
100
AcDbEntity
  8
268160210
100
AcDbLine
 62
7
  6
CONTINUOUS
 10
126.7255526879
 20
67.9520502208
 11
125.3943923985
 21
68.6176303655
  0
LINE
  5
269
100
AcDbEntity
  8
268160210
100
AcDbLine
 62
7
  6
CONTINUOUS
 10
124.8274075745
 20
69.9052769007
 11
125.2825057707
 21
69.6777278026
  0
LINE
  5
26A
100
AcDbEntity
  8
268160210
100
AcDbLine
 62
7
  6
CONTINUOUS
 10
108.2157380829
 20
109.5197099968
 11
108.2157380829
 21
110.6496714423
  0
LWPOLYLINE
  5
26B
100
AcDbEntity
  8
268160210
100
AcDbPolyline
 62
7
  6
CONTINUOUS
 90
24
 70
0
 10
124.667346127
 20
103.074116675
 10
124.6477656992
 20
103.0636479158
 10
124.6175418946
 20
103.0462528744
 10
124.5890053689
 20
103.0282863896
 10
124.5621506958
 20
103.009807945
 10
124.5369147306
 20
102.9908392241
 10
124.5131995563
 20
102.971360853
 10
124.4909801791
 20
102.951399555
 10
124.4702358587
 20
102.930985161
 10
124.4509025323
 20
102.9100951179
 10
124.4329684366
 20
102.8887498786
 10
124.4164311768
 20
102.8669828951
 10
124.4012653754
 20
102.8447931349
 10
124.3874701042
 20
102.8222055992
 10
124.3750537399
 20
102.7992648338
 10
124.3640181813
 20
102.7760102044
 10
124.3543647572
 20
102.7524818913
 10
124.3460983723
 20
102.7287349333
 10
124.3392232298
 20
102.7048451055
 10
124.3337307646
 20
102.6808688177
 10
124.3296095469
 20
102.6568650326
 10
124.3268468549
 20
102.632922588
 10
124.3254174925
 20
102.609111398
 10
124.3251867906
 20
102.594820737
  0
LINE
  5
26C
100
AcDbEntity
  8
268160210
100
AcDbLine
 62
7
  6
CONTINUOUS
 10
126.0944595832
 20
103.8156250153
 11
124.6673483255
 21
103.0741180159
  0
LINE
  5
26D
100
AcDbEntity
  8
268160210
100
AcDbLine
 62
250
  6
CONTINUOUS
 10
126.2075584657
 20
103.8091856116
 11
124.7810715578
 21
103.0680030156
  0
LINE
  5
26E
100
AcDbEntity
  8
268160210
100
AcDbLine
 62
7
  6
CONTINUOUS
 10
130.1505912128
 20
107.0182455961
 11
128.6470835919
 21
106.2532553609
  0
LINE
  5
26F
100
AcDbEntity
  8
268160210
100
AcDbLine
 62
7
  6
CONTINUOUS
 10
128.6470835919
 20
105.6037363081
 11
122.0220382815
 21
102.2783322415
  0
LINE
  5
270
100
AcDbEntity
  8
268160210
100
AcDbLine
 62
7
  6
CONTINUOUS
 10
130.6797978579
 20
106.6160715418
 11
128.6470835919
 21
105.6037363081
  0
LINE
  5
271
100
AcDbEntity
  8
268160210
100
AcDbLine
 62
250
  6
CONTINUOUS
 10
125.7995202418
 20
102.5542676448
 11
127.2682253676
 21
103.2788521607
  0
LINE
  5
272
100
AcDbEntity
  8
268160210
100
AcDbLine
 62
7
  6
CONTINUOUS
 10
128.6470835919
 20
106.2532553609
 11
122.0220382815
 21
102.9980484137
  0
LINE
  5
273
100
AcDbEntity
  8
218160210_GEN
100
AcDbLine
 62
7
  6
CONTINUOUS
 10
131.7879479019
 20
106.5285723778
 11
126.1423611194
 21
103.8264703479
  0
LINE
  5
274
100
AcDbEntity
  8
218160210_GEN
100
AcDbLine
 62
250
  6
CONTINUOUS
 10
131.8767601613
 20
106.5225836712
 11
126.2075651968
 21
103.8091822461
  0
LINE
  5
275
100
AcDbEntity
  8
268160210
100
AcDbLine
 62
250
  6
CONTINUOUS
 10
109.8713638294
 20
109.17771687
 11
109.8713638294
 21
110.3063587728
  0
LINE
  5
276
100
AcDbEntity
  8
268160210
100
AcDbLine
 62
7
  6
CONTINUOUS
 10
110.588120619
 20
107.5865347016
 11
110.588120619
 21
108.3105735367
  0
LINE
  5
277
100
AcDbEntity
  8
268160210
100
AcDbLine
 62
7
  6
CONTINUOUS
 10
111.3229674528
 20
109.9063411082
 11
111.3229674528
 21
111.034983011
  0
LINE
  5
278
100
AcDbEntity
  8
349160010
100
AcDbLine
 62
250
  6
CONTINUOUS
 10
115.487975808
 20
109.9453783016
 11
115.4712907745
 21
109.8741436013
  0
LINE
  5
279
100
AcDbEntity
  8
218160210_GEN
100
AcDbLine
 62
250
  6
CONTINUOUS
 10
132.8738410451
 20
106.0240432293
 11
127.3036022468
 21
103.2611637211
  0
LINE
  5
27A
100
AcDbEntity
  8
218160210_GEN
100
AcDbLine
 62
250
  6
CONTINUOUS
 10
133.0152408621
 20
105.78016462
 11
127.4450020639
 21
103.0172851117
  0
LINE
  5
27B
100
AcDbEntity
  8
268160210
100
AcDbLine
 62
250
  6
CONTINUOUS
 10
125.9747274825
 20
102.2486233868
 11
127.4450020639
 21
102.9739821923
  0
LINE
  5
27C
100
AcDbEntity
  8
268160210
100
AcDbLine
 62
250
  6
CONTINUOUS
 10
125.3326155443
 20
100.9787805706
 11
122.0506478167
 21
99.3596243798
  0
LINE
  5
27D
100
AcDbEntity
  8
268160210
100
AcDbLine
 62
250
  6
CONTINUOUS
 10
125.9747274825
 20
100.903483377
 11
122.2258550574
 21
99.0539801217
  0
LINE
  5
27E
100
AcDbEntity
  8
268160210
100
AcDbLine
 62
250
  6
CONTINUOUS
 10
111.9811219887
 20
107.2987903879
 11
111.9811219887
 21
108.0185065601
  0
LINE
  5
27F
100
AcDbEntity
  8
349160010
100
AcDbLine
 62
7
  6
CONTINUOUS
 10
113.0907344058
 20
109.1004274183
 11
113.0907344058
 21
109.3602350394
  0
LINE
  5
280
100
AcDbEntity
  8
349160010
100
AcDbLine
 62
250
  6
CONTINUOUS
 10
117.4382214927
 20
110.1444130987
 11
117.3508182878
 21
109.7712558548
  0
LINE
  5
281
100
AcDbEntity
  8
349160010
100
AcDbLine
 62
250
  6
CONTINUOUS
 10
117.7141425513
 20
110.0874289583
 11
117.6267393464
 21
109.7142717144
  0
LINE
  5
282
100
AcDbEntity
  8
218160210_GEN
100
AcDbLine
 62
250
  6
CONTINUOUS
 10
121.3296486537
 20
104.9809702943
 11
121.1191941611
 21
104.6179899875
  0
LINE
  5
283
100
AcDbEntity
  8
218160210_GEN
100
AcDbLine
 62
250
  6
CONTINUOUS
 10
121.9121749385
 20
105.4261041051
 11
121.8731161701
 21
105.3587376947
  0
LINE
  5
284
100
AcDbEntity
  8
218160210_GEN
100
AcDbLine
 62
250
  6
CONTINUOUS
 10
121.5853821475
 20
104.8624699149
 11
121.5809935226
 21
104.8549006565
  0
LINE
  5
285
100
AcDbEntity
  8
218160210_GEN
100
AcDbLine
 62
250
  6
CONTINUOUS
 10
139.6033205301
 20
104.7295702497
 11
133.6174840056
 21
101.7605512054
  0
LINE
  5
286
100
AcDbEntity
  8
268160210
100
AcDbLine
 62
7
  6
CONTINUOUS
 10
122.3310183253
 20
96.2178733674
 11
122.2258550574
 21
96.1670958737
  0
LINE
  5
287
100
AcDbEntity
  8
349160010
100
AcDbLine
 62
7
  6
CONTINUOUS
 10
114.6930190714
 20
108.1411758222
 11
114.7996076303
 21
106.5957591846
  0
LINE
  5
288
100
AcDbEntity
  8
349160010
100
AcDbLine
 62
250
  6
CONTINUOUS
 10
119.7647522168
 20
109.0621241256
 11
119.7443209572
 21
108.9748953735
  0
LINE
  5
289
100
AcDbEntity
  8
349160010
100
AcDbLine
 62
250
  6
CONTINUOUS
 10
119.5184844608
 20
107.9301239752
 11
119.5017994273
 21
107.8588892749
  0
LINE
  5
28A
100
AcDbEntity
  8
218160210_GEN
100
AcDbLine
 62
250
  6
CONTINUOUS
 10
139.9568200728
 20
104.1198737264
 11
133.5613519657
 21
100.9476743973
  0
LINE
  5
28B
100
AcDbEntity
  8
290160210
100
AcDbLine
 62
250
  6
CONTINUOUS
 10
126.11110703
 20
96.6598172653
 11
119.8503886649
 21
94.1640263341
  0
LINE
  5
28C
100
AcDbEntity
  8
290160210
100
AcDbLine
 62
250
  6
CONTINUOUS
 10
126.3009683153
 20
96.2843283932
 11
120.0440088745
 21
93.7900359305
  0
LINE
  5
28D
100
AcDbEntity
  8
218160210_GEN
100
AcDbLine
 62
250
  6
CONTINUOUS
 10
117.5101517882
 20
112.8712185969
 11
117.5101517882
 21
113.3933390638
  0
LINE
  5
28E
100
AcDbEntity
  8
218160210_GEN
100
AcDbLine
 62
7
  6
CONTINUOUS
 10
117.568730432
 20
112.8767544289
 11
117.568730432
 21
113.464049742
  0
LINE
  5
28F
100
AcDbEntity
  8
268160210
100
AcDbLine
 62
7
  6
CONTINUOUS
 10
118.6061672991
 20
111.2737135073
 11
118.6061672991
 21
110.9021863945
  0
LINE
  5
290
100
AcDbEntity
  8
349160010
100
AcDbLine
 62
250
  6
CONTINUOUS
 10
121.4687301455
 20
108.1291587723
 11
121.3813269406
 21
107.7560015284
  0
LINE
  5
291
100
AcDbEntity
  8
349160010
100
AcDbLine
 62
250
  6
CONTINUOUS
 10
121.7446512041
 20
108.0721746319
 11
121.6572479992
 21
107.6990173881
  0
LINE
  5
292
100
AcDbEntity
  8
349160010
100
AcDbLine
 62
250
  6
CONTINUOUS
 10
122.5001110632
 20
105.8267337249
 11
122.587514268
 21
106.1998909687
  0
LINE
  5
293
100
AcDbEntity
  8
268160210
100
AcDbLine
 62
7
  6
CONTINUOUS
 10
125.286653936
 20
81.3637078421
 11
125.081638413
 21
81.4662156036
  0
LINE
  5
294
100
AcDbEntity
  8
268160210
100
AcDbLine
 62
7
  6
CONTINUOUS
 10
120.1618022177
 20
110.495896048
 11
120.1618022177
 21
110.2095125492
  0
LINE
  5
295
100
AcDbEntity
  8
268160210
100
AcDbLine
 62
7
  6
CONTINUOUS
 10
120.6290369119
 20
102.5660765551
 11
120.6290369119
 21
103.2901153902
  0
LINE
  5
296
100
AcDbEntity
  8
268160210
100
AcDbLine
 62
7
  6
CONTINUOUS
 10
120.6567769645
 20
111.6451691602
 11
120.6567769645
 21
111.4154447424
  0
LINE
  5
297
100
AcDbEntity
  8
349160010
100
AcDbLine
 62
7
  6
CONTINUOUS
 10
119.8671425555
 20
104.061991722
 11
119.9737311145
 21
105.5008198006
  0
LINE
  5
298
100
AcDbEntity
  8
349160010
100
AcDbLine
 62
7
  6
CONTINUOUS
 10
120.1437960684
 20
104.1198657044
 11
120.2476635935
 21
105.5219628244
  0
LINE
  5
299
100
AcDbEntity
  8
349160010
100
AcDbLine
 62
250
  6
CONTINUOUS
 10
123.7952608695
 20
107.0468697992
 11
123.77482961
 21
106.9596410471
  0
LINE
  5
29A
100
AcDbEntity
  8
218160210_GEN
100
AcDbLine
 62
250
  6
CONTINUOUS
 10
139.0011806005
 20
76.5385109388
 11
139.8093145206
 21
76.1344439787
  0
LINE
  5
29B
100
AcDbEntity
  8
218160210_GEN
100
AcDbLine
 62
7
  6
CONTINUOUS
 10
139.2208843271
 20
76.5546633679
 11
139.9850739051
 21
76.1725685789
  0
LINE
  5
29C
100
AcDbEntity
  8
268160210
100
AcDbLine
 62
250
  6
CONTINUOUS
 10
121.5053051019
 20
110.7468614444
 11
121.5053051019
 21
110.2401959227
  0
LINE
  5
29D
100
AcDbEntity
  8
349160010
100
AcDbLine
 62
7
  6
CONTINUOUS
 10
121.5760157801
 20
104.8577867311
 11
121.5760157801
 21
105.1175943523
  0
LINE
  5
29E
100
AcDbEntity
  8
268160210
100
AcDbLine
 62
7
  6
CONTINUOUS
 10
121.7981983207
 20
110.8444475868
 11
121.7981983207
 21
110.2710907257
  0
LINE
  5
29F
100
AcDbEntity
  8
349160010
100
AcDbLine
 62
7
  6
CONTINUOUS
 10
121.8588584925
 20
104.9992080874
 11
121.8588584925
 21
105.2590157085
  0
LINE
  5
2A0
100
AcDbEntity
  8
268160210
100
AcDbLine
 62
250
  6
CONTINUOUS
 10
121.8754137695
 20
99.0555092491
 11
121.8754137695
 21
96.1686250011
  0
LINE
  5
2A1
100
AcDbEntity
  8
268160210
100
AcDbLine
 62
250
  6
CONTINUOUS
 10
121.8754137695
 20
63.6060698188
 11
121.8754137695
 21
60.7191855708
  0
LINE
  5
2A2
100
AcDbEntity
  8
268160210
100
AcDbLine
 62
250
  6
CONTINUOUS
 10
122.0220382815
 20
102.2783322415
 11
122.0220382815
 21
102.9980484137
  0
LINE
  5
2A3
100
AcDbEntity
  8
349160010
100
AcDbLine
 62
250
  6
CONTINUOUS
 10
122.0709905269
 20
105.6248893468
 11
122.0709905269
 21
105.9712995083
  0
LINE
  5
2A4
100
AcDbEntity
  8
268160210
100
AcDbLine
 62
250
  6
CONTINUOUS
 10
122.2258550574
 20
99.0539801217
 11
122.2258550574
 21
96.1670958737
  0
LINE
  5
2A5
100
AcDbEntity
  8
268160210
100
AcDbLine
 62
250
  6
CONTINUOUS
 10
122.2258550574
 20
63.6045406914
 11
122.2258550574
 21
60.7176564434
  0
LINE
  5
2A6
100
AcDbEntity
  8
349160010
100
AcDbLine
 62
250
  6
CONTINUOUS
 10
122.4345586595
 20
105.8066734131
 11
122.4345586595
 21
106.1530835746
  0
LINE
  5
2A7
100
AcDbEntity
  8
349160010
100
AcDbLine
 62
250
  6
CONTINUOUS
 10
125.7763794743
 20
107.4832003098
 11
125.7596944408
 21
107.4119656096
  0
LINE
  5
2A8
100
AcDbEntity
  8
268160210
100
AcDbLine
 62
7
  6
CONTINUOUS
 10
126.7255526879
 20
67.9520502208
 11
125.286653936
 21
81.3637078421
  0
LINE
  5
2A9
100
AcDbEntity
  8
268160210
100
AcDbLine
 62
7
  6
CONTINUOUS
 10
125.3943923985
 20
68.6176303655
 11
125.2825057707
 21
69.6777278026
  0
LINE
  5
2AA
100
AcDbEntity
  8
268160210
100
AcDbLine
 62
7
  6
CONTINUOUS
 10
125.195683975
 20
70.5003423085
 11
124.6245648222
 21
75.9115515138
  0
LWPOLYLINE
  5
2AB
100
AcDbEntity
  8
268160210
100
AcDbPolyline
 62
7
  6
CONTINUOUS
 90
57
 70
0
 10
124.3251867711
 20
61.4972553312
 10
124.325480652
 20
61.4812750938
 10
124.327072424
 20
61.4570132022
 10
124.3300781527
 20
61.4326043905
 10
124.3345242008
 20
61.4081372452
 10
124.3404151104
 20
61.3837429699
 10
124.3477570103
 20
61.3594867766
 10
124.3565538395
 20
61.335426463
 10
124.3667815164
 20
61.3116681975
 10
124.3784144054
 20
61.2882862443
 10
124.3914504721
 20
61.2652983232
 10
124.4059002456
 20
61.2427096027
 10
124.4217346965
 20
61.2205848569
 10
124.4389674904
 20
61.1989238104
 10
124.4577093673
 20
61.1776316288
 10
124.4779869731
 20
61.1567387408
 10
124.4998199948
 20
61.1362821811
 10
124.5233640437
 20
61.1161891749
 10
124.5488345555
 20
61.0963804289
 10
124.5761332645
 20
61.0770333078
 10
124.6049233841
 20
61.058435753
 10
124.6352592018
 20
61.0405724408
 10
124.6670961109
 20
61.0234918239
 10
124.6998275407
 20
61.0074993669
 10
124.7331835331
 20
60.9926557318
 10
124.7672998993
 20
60.9788383663
 10
124.8020944609
 20
60.9660360989
 10
124.8374826752
 20
60.9542369834
 10
124.8734282744
 20
60.9434163703
 10
124.9098996172
 20
60.9335519697
 10
124.9468340341
 20
60.9246337249
 10
124.9841789756
 20
60.9166509402
 10
125.0219061892
 20
60.9095887207
 10
125.0599553704
 20
60.9034420673
 10
125.0982737709
 20
60.8982044964
 10
125.1368388275
 20
60.8938668946
 10
125.1755945302
 20
60.8904273895
 10
125.2144851039
 20
60.8878827847
 10
125.2534860707
 20
60.8862298725
 10
125.2925420298
 20
60.8854687578
 10
125.3315969813
 20
60.8855984932
 10
125.370624983
 20
60.8866205814
 10
125.4095717145
 20
60.8885365558
 10
125.4483800579
 20
60.8913479094
 10
125.4870215896
 20
60.8950601079
 10
125.5254411498
 20
60.8996763549
 10
125.5635819337
 20
60.9052010338
 10
125.6014185362
 20
60.9116443107
 10
125.6388969655
 20
60.9190132469
 10
125.6759581342
 20
60.927316056
 10
125.7125782046
 20
60.9365694105
 10
125.748698918
 20
60.9467853868
 10
125.7842620201
 20
60.9579783268
 10
125.81925638
 20
60.9701803247
 10
125.8536414057
 20
60.9834223032
 10
125.8873336863
 20
60.9977208556
 10
125.9078585047
 20
61.0071335033
  0
LINE
  5
2AC
100
AcDbEntity
  8
268160210
100
AcDbLine
 62
250
  6
CONTINUOUS
 10
124.3251879573
 20
61.4963579689
 11
124.3251867376
 21
61.497121935
  0
LINE
  5
2AD
100
AcDbEntity
  8
218160210_GEN
100
AcDbLine
 62
250
  6
CONTINUOUS
 10
123.6266254455
 20
105.9417015791
 11
123.6266254455
 21
105.8985055231
  0
LINE
  5
2AE
100
AcDbEntity
  8
268160210
100
AcDbLine
 62
7
  6
CONTINUOUS
 10
124.3251862115
 20
61.6047145808
 11
124.3251862115
 21
61.4971219467
  0
LINE
  5
2AF
100
AcDbEntity
  8
268160210
100
AcDbLine
 62
7
  6
CONTINUOUS
 10
124.3251862115
 20
101.4649859325
 11
124.3251862115
 21
102.5949473708
  0
LINE
  5
2B0
100
AcDbEntity
  8
290160210
100
AcDbLine
 62
250
  6
CONTINUOUS
 10
102.353989225
 20
101.4228985565
 11
119.0928826084
 21
93.0534518648
  0
LINE
  5
2B1
100
AcDbEntity
  8
268160210
100
AcDbLine
 62
7
  6
CONTINUOUS
 10
125.8186564672
 20
107.6674689233
 11
125.8186564672
 21
107.3810854245
  0
LINE
  5
2B2
100
AcDbEntity
  8
268160210
100
AcDbLine
 62
250
  6
CONTINUOUS
 10
125.9747274825
 20
62.4883972073
 11
125.9747274825
 21
61.1432571975
  0
LINE
  5
2B3
100
AcDbEntity
  8
268160210
100
AcDbLine
 62
250
  6
CONTINUOUS
 10
125.9747274825
 20
100.903483377
 11
125.9747274825
 21
102.2486233868
  0
LINE
  5
2B4
100
AcDbEntity
  8
268160210
100
AcDbLine
 62
7
  6
CONTINUOUS
 10
126.7255526879
 20
67.3032350952
 11
126.7255526879
 21
67.9520502208
  0
LINE
  5
2B5
100
AcDbEntity
  8
268160210
100
AcDbLine
 62
7
  6
CONTINUOUS
 10
126.7255526879
 20
96.1648938362
 11
126.7255526879
 21
96.8137089618
  0
LINE
  5
2B6
100
AcDbEntity
  8
268160210
100
AcDbLine
 62
7
  6
CONTINUOUS
 10
127.4450020639
 20
102.9739821923
 11
127.4450020639
 21
61.8377260511
  0
LINE
  5
2B7
100
AcDbEntity
  8
218160210_GEN
100
AcDbLine
 62
7
  6
CONTINUOUS
 10
127.4450020639
 20
61.7944231317
 11
127.4450020639
 21
103.0172851117
  0
LINE
  5
2B8
100
AcDbEntity
  8
290160210
100
AcDbLine
 62
7
  6
CONTINUOUS
 10
126.3009683153
 20
96.2843283932
 11
123.7288033943
 21
65.0256593156
  0
LINE
  5
2B9
100
AcDbEntity
  8
268160210
100
AcDbLine
 62
7
  6
CONTINUOUS
 10
125.286653936
 20
81.3637078421
 11
126.7255526879
 21
96.1648938362
  0
LINE
  5
2BA
100
AcDbEntity
  8
290160210
100
AcDbLine
 62
250
  6
CONTINUOUS
 10
103.094831624
 20
102.5418048546
 11
119.8503886649
 21
94.1640263341
  0
LINE
  5
2BB
100
AcDbEntity
  8
218160210_GEN
100
AcDbLine
 62
250
  6
CONTINUOUS
 10
140.0971501726
 20
84.3315435327
 11
141.0626900275
 21
83.8487736053
  0
LINE
  5
2BC
100
AcDbEntity
  8
218160210_GEN
100
AcDbLine
 62
7
  6
CONTINUOUS
 10
140.0971501726
 20
84.3930112748
 11
141.1729507784
 21
83.8551109719
  0
LINE
  5
2BD
100
AcDbEntity
  8
268160210
100
AcDbLine
 62
7
  6
CONTINUOUS
 10
128.6470835919
 20
106.2532553609
 11
128.6470835919
 21
105.6037363081
  0
LINE
  5
2BE
100
AcDbEntity
  8
268160210
100
AcDbLine
 62
7
  6
CONTINUOUS
 10
121.8754137695
 20
96.1686250011
 11
104.8717404671
 21
104.6704616524
  0
LINE
  5
2BF
100
AcDbEntity
  8
268160210
100
AcDbLine
 62
7
  6
CONTINUOUS
 10
130.6797978579
 20
106.6336587135
 11
130.6797978579
 21
106.6160715418
  0
LINE
  5
2C0
100
AcDbEntity
  8
268160210
100
AcDbLine
 62
7
  6
CONTINUOUS
 10
126.7255526879
 20
96.1648938362
 11
126.2962939616
 21
96.3795231994
  0
LINE
  5
2C1
100
AcDbEntity
  8
290160210
100
AcDbLine
 62
7
  6
CONTINUOUS
 10
126.11110703
 20
96.6598172653
 11
125.1697398343
 21
97.1305008631
  0
LINE
  5
2C2
100
AcDbEntity
  8
268160210
100
AcDbLine
 62
250
  6
CONTINUOUS
 10
104.8717404671
 20
107.5573459004
 11
121.8754137695
 21
99.0555092491
  0
LINE
  5
2C3
100
AcDbEntity
  8
268160210
100
AcDbLine
 62
250
  6
CONTINUOUS
 10
126.7255526879
 20
96.8137089618
 11
125.9301854089
 21
97.2113926013
  0
LINE
  5
2C4
100
AcDbEntity
  8
268160210
100
AcDbLine
 62
250
  6
CONTINUOUS
 10
105.0469745142
 20
107.861461031
 11
122.0506478167
 21
99.3596243798
  0
LWPOLYLINE
  5
2C5
100
AcDbEntity
  8
218160210_GEN
100
AcDbPolyline
 62
7
  6
CONTINUOUS
 90
36
 70
0
 10
133.6174839786
 20
105.4396713383
 10
133.6173264545
 20
105.4579041809
 10
133.6165854435
 20
105.4829999074
 10
133.6152346093
 20
105.5078540555
 10
133.6132694077
 20
105.5324671907
 10
133.6106879104
 20
105.5568085324
 10
133.6074941254
 20
105.5808162753
 10
133.6036885926
 20
105.6044789388
 10
133.5992721713
 20
105.6277839324
 10
133.5942561749
 20
105.6506721188
 10
133.5886454667
 20
105.6731312691
 10
133.5824440416
 20
105.6951538187
 10
133.5756685432
 20
105.7166918893
 10
133.5683268527
 20
105.7377367324
 10
133.5604265866
 20
105.7582811089
 10
133.5519902926
 20
105.7782829629
 10
133.5430293129
 20
105.7977356263
 10
133.5335549294
 20
105.8166335389
 10
133.5235960426
 20
105.8349396133
 10
133.5131749072
 20
105.8526376921
 10
133.5023002958
 20
105.8697367263
 10
133.4909842399
 20
105.8862378338
 10
133.4792459686
 20
105.9021319653
 10
133.4670986128
 20
105.9174202322
 10
133.454544192
 20
105.9321155405
 10
133.4415981203
 20
105.9462126059
 10
133.4282771152
 20
105.959706203
 10
133.4145836271
 20
105.9726051327
 10
133.4005343175
 20
105.9849030174
 10
133.3861456802
 20
105.9965947132
 10
133.371418889
 20
106.0076875219
 10
133.3563706315
 20
106.0181755317
 10
133.3410183369
 20
106.0280530905
 10
133.3253632628
 20
106.0373250448
 10
133.3094171299
 20
106.0459888235
 10
133.302588235
 20
106.0494693456
  0
LINE
  5
2C6
100
AcDbEntity
  8
218160210_GEN
100
AcDbLine
 62
250
  6
CONTINUOUS
 10
133.5613519657
 20
69.4299316181
 11
133.5613519657
 21
65.7751668584
  0
LINE
  5
2C7
100
AcDbEntity
  8
218160210_GEN
100
AcDbLine
 62
250
  6
CONTINUOUS
 10
133.5613519657
 20
72.5823059315
 11
133.5613519657
 21
78.9908939195
  0
LINE
  5
2C8
100
AcDbEntity
  8
218160210_GEN
100
AcDbLine
 62
250
  6
CONTINUOUS
 10
133.5613519657
 20
100.9476743973
 11
133.5613519657
 21
105.3702071181
  0
LINE
  5
2C9
100
AcDbEntity
  8
218160210_GEN
100
AcDbLine
 62
7
  6
CONTINUOUS
 10
133.6174840056
 20
69.3021282239
 11
133.6174840056
 21
65.8446326954
  0
LINE
  5
2CA
100
AcDbEntity
  8
218160210_GEN
100
AcDbLine
 62
7
  6
CONTINUOUS
 10
133.6174840056
 20
72.7720901277
 11
133.6174840056
 21
78.9400413974
  0
LINE
  5
2CB
100
AcDbEntity
  8
218160210_GEN
100
AcDbLine
 62
7
  6
CONTINUOUS
 10
133.6174840056
 20
101.2144094656
 11
133.6174840056
 21
105.4396729552
  0
LINE
  5
2CC
100
AcDbEntity
  8
218160210_GEN
100
AcDbLine
 62
7
  6
CONTINUOUS
 10
139.9012724229
 20
82.1922212999
 11
139.9079168765
 21
82.1957336999
  0
LINE
  5
2CD
100
AcDbEntity
  8
218160210_GEN
100
AcDbLine
 62
250
  6
CONTINUOUS
 10
133.5613519657
 20
78.9908939195
 11
139.9531824807
 21
82.3003610489
  0
LINE
  5
2CE
100
AcDbEntity
  8
218160210_GEN
100
AcDbLine
 62
7
  6
CONTINUOUS
 10
133.6180339096
 20
78.9389793252
 11
139.9012724874
 21
82.1922213333
  0
LINE
  5
2CF
100
AcDbEntity
  8
218160210_GEN
100
AcDbLine
 62
250
  6
CONTINUOUS
 10
141.0626900275
 20
83.8487736053
 11
140.0971501726
 21
83.359353915
  0
LINE
  5
2D0
100
AcDbEntity
  8
218160210_GEN
100
AcDbLine
 62
250
  6
CONTINUOUS
 10
141.2621955331
 20
83.5080874817
 11
140.0971501726
 21
82.9175410257
  0
LINE
  5
2D1
100
AcDbEntity
  8
268160210
100
AcDbLine
 62
7
  6
CONTINUOUS
 10
121.7979484504
 20
110.8448589994
 11
121.7982119981
 21
110.8444410224
  0
LWPOLYLINE
  5
2D2
100
AcDbEntity
  8
218160210_GEN
100
AcDbPolyline
 62
7
  6
CONTINUOUS
 90
33
 70
0
 10
139.9079252883
 20
82.1957385779
 10
139.9103082761
 20
82.1970370951
 10
139.9207260363
 20
82.2030166735
 10
139.9309429993
 20
82.2093825881
 10
139.9409287673
 20
82.2161181654
 10
139.950678462
 20
82.2232222159
 10
139.9602097008
 20
82.230711605
 10
139.9695042618
 20
82.2385770394
 10
139.9785449571
 20
82.2468086861
 10
139.9873452657
 20
82.2554264164
 10
139.9958847897
 20
82.2644198046
 10
140.0041469263
 20
82.2737784798
 10
140.0121436298
 20
82.2835262579
 10
140.0198541165
 20
82.2936515308
 10
140.0272600148
 20
82.3041428999
 10
140.0343702269
 20
82.3150274431
 10
140.0411666509
 20
82.3262958464
 10
140.0476286568
 20
82.3379318651
 10
140.0537553057
 20
82.3499542619
 10
140.0595289306
 20
82.3623505346
 10
140.0649326509
 20
82.3751058012
 10
140.0699627582
 20
82.3882367735
 10
140.0746027138
 20
82.4017291274
 10
140.0788387109
 20
82.415569835
 10
140.0826665144
 20
82.4297788293
 10
140.0860719022
 20
82.4443457102
 10
140.0890414051
 20
82.4592552437
 10
140.0915674939
 20
82.4745208302
 10
140.0936373712
 20
82.4901316916
 10
140.0952393964
 20
82.5060758249
 10
140.0963644142
 20
82.5223652712
 10
140.0970006862
 20
82.5389971391
 10
140.0971501376
 20
82.5520114361
  0
LINE
  5
2D3
100
AcDbEntity
  8
268160210
100
AcDbLine
 62
7
  6
CONTINUOUS
 10
119.9496701833
 20
104.0207279081
 11
114.2928159338
 21
106.8491550329
  0
LINE
  5
2D4
100
AcDbEntity
  8
349160010
100
AcDbLine
 62
7
  6
CONTINUOUS
 10
120.1507225531
 20
104.2133656149
 11
120.2397338207
 21
104.1688599811
  0
LINE
  5
2D5
100
AcDbEntity
  8
349160010
100
AcDbLine
 62
7
  6
CONTINUOUS
 10
121.5760157801
 20
104.8577867311
 11
120.1146143198
 21
105.5884874613
  0
LINE
  5
2D6
100
AcDbEntity
  8
349160010
100
AcDbLine
 62
7
  6
CONTINUOUS
 10
114.5521358661
 20
108.3697266881
 11
113.0907344058
 21
109.1004274183
  0
LINE
  5
2D7
100
AcDbEntity
  8
349160010
100
AcDbLine
 62
250
  6
CONTINUOUS
 10
121.5760157801
 20
105.1175943523
 11
113.0907344058
 21
109.3602350394
  0
LWPOLYLINE
  5
2D8
100
AcDbEntity
  8
218160210_GEN
100
AcDbPolyline
 62
7
  6
CONTINUOUS
 90
30
 70
0
 10
141.1916171514
 20
77.8221625008
 10
141.1980889029
 20
77.8257009737
 10
141.2066527279
 20
77.8307590312
 10
141.215016804
 20
77.8361386799
 10
141.223169922
 20
77.8418323306
 10
141.2311070569
 20
77.8478367241
 10
141.2388138902
 20
77.8541417108
 10
141.2462769932
 20
77.8607366138
 10
141.2534921327
 20
77.8676182743
 10
141.2604461293
 20
77.8747749799
 10
141.26712664
 20
77.8821944613
 10
141.2735300207
 20
77.8898737701
 10
141.2796438823
 20
77.8977996122
 10
141.2854574311
 20
77.9059586027
 10
141.2909684265
 20
77.9143491343
 10
141.2961654315
 20
77.9229563044
 10
141.301038979
 20
77.9317661973
 10
141.3055884533
 20
77.940780502
 10
141.3098048341
 20
77.9499862108
 10
141.3136780991
 20
77.9593659678
 10
141.3172050998
 20
77.9689172322
 10
141.3203788067
 20
77.9786278416
 10
141.3231906875
 20
77.988478704
 10
141.3256359426
 20
77.9984598485
 10
141.3277092301
 20
78.0085563459
 10
141.3294057719
 20
78.0187531706
 10
141.3307226776
 20
78.0290448993
 10
141.3316564071
 20
78.0394232653
 10
141.3322027148
 20
78.0498737143
 10
141.3323605053
 20
78.0592899711
  0
LINE
  5
2D9
100
AcDbEntity
  8
218160210_GEN
100
AcDbLine
 62
250
  6
CONTINUOUS
 10
141.2621955331
 20
77.9724617249
 11
139.3485626937
 21
76.9608326974
  0
LINE
  5
2DA
100
AcDbEntity
  8
218160210_GEN
100
AcDbLine
 62
7
  6
CONTINUOUS
 10
141.191630873
 20
77.8221696564
 11
139.3485626937
 21
76.847844158
  0
LINE
  5
2DB
100
AcDbEntity
  8
218160210_GEN
100
AcDbLine
 62
7
  6
CONTINUOUS
 10
133.6174840056
 20
73.7510204266
 11
139.0011806005
 21
76.5385109388
  0
LINE
  5
2DC
100
AcDbEntity
  8
268160210
100
AcDbLine
 62
250
  6
CONTINUOUS
 10
124.1356837987
 20
69.9703422203
 11
125.195683975
 21
70.5003423085
  0
LINE
  5
2DD
100
AcDbEntity
  8
268160210
100
AcDbLine
 62
7
  6
CONTINUOUS
 10
124.1004191563
 20
69.5417826916
 11
125.0030426631
 21
69.993094445
  0
LINE
  5
2DE
100
AcDbEntity
  8
349160010
100
AcDbLine
 62
7
  6
CONTINUOUS
 10
122.5001110632
 20
105.8267337249
 11
125.9840500598
 21
106.1822915383
  0
LINE
  5
2DF
100
AcDbEntity
  8
349160010
100
AcDbLine
 62
7
  6
CONTINUOUS
 10
122.587514268
 20
106.1998909687
 11
126.879537465
 21
106.6379188402
  0
LINE
  5
2E0
100
AcDbEntity
  8
268160210
100
AcDbLine
 62
7
  6
CONTINUOUS
 10
127.2682253676
 20
103.2788521607
 11
126.2075584657
 21
103.8091856116
  0
LINE
  5
2E1
100
AcDbEntity
  8
268160210
100
AcDbLine
 62
7
  6
CONTINUOUS
 10
111.1461974887
 20
111.3398661001
 11
110.0855305868
 21
111.8701995511
  0
LINE
  5
2E2
100
AcDbEntity
  8
218160210_GEN
100
AcDbLine
 62
7
  6
CONTINUOUS
 10
110.0501537076
 20
111.8878879907
 11
111.1461907575
 21
111.3398694657
  0
LINE
  5
2E3
100
AcDbEntity
  8
218160210_GEN
100
AcDbLine
 62
7
  6
CONTINUOUS
 10
126.2075651968
 20
103.8091822461
 11
127.3036022468
 21
103.2611637211
  0
LINE
  5
2E4
100
AcDbEntity
  8
349160010
100
AcDbLine
 62
250
  6
CONTINUOUS
 10
122.0709905269
 20
105.9712995083
 11
113.5857091526
 21
110.2139401955
  0
LINE
  5
2E5
100
AcDbEntity
  8
349160010
100
AcDbLine
 62
250
  6
CONTINUOUS
 10
122.4345586595
 20
106.1530835746
 11
113.9492772852
 21
110.3957242618
  0
LINE
  5
2E6
100
AcDbEntity
  8
349160010
100
AcDbLine
 62
250
  6
CONTINUOUS
 10
122.587514268
 20
106.1998909687
 11
114.1022328938
 21
110.4425316559
  0
LINE
  5
2E7
100
AcDbEntity
  8
349160010
100
AcDbLine
 62
7
  6
CONTINUOUS
 10
121.5760157801
 20
106.8203819266
 11
119.5254061146
 21
107.8456867594
  0
LINE
  5
2E8
100
AcDbEntity
  8
349160010
100
AcDbLine
 62
7
  6
CONTINUOUS
 10
117.5455071273
 20
108.835636253
 11
115.4948974618
 21
109.8609410857
  0
LINE
  5
2E9
100
AcDbEntity
  8
218160210_GEN
100
AcDbLine
 62
250
  6
CONTINUOUS
 10
123.125414488
 20
106.8933641631
 11
121.3979648837
 21
107.7570889652
  0
LINE
  5
2EA
100
AcDbEntity
  8
218160210_GEN
100
AcDbLine
 62
7
  6
CONTINUOUS
 10
123.2050747398
 20
106.9014939911
 11
121.5182327822
 21
107.7449149699
  0
LINE
  5
2EB
100
AcDbEntity
  8
349160010
100
AcDbLine
 62
7
  6
CONTINUOUS
 10
117.6267393464
 20
109.7142717144
 11
119.2137817349
 21
108.9207505202
  0
LINE
  5
2EC
100
AcDbEntity
  8
349160010
100
AcDbLine
 62
7
  6
CONTINUOUS
 10
121.6572479992
 20
107.6990173881
 11
123.2442903877
 21
106.9054961938
  0
LWPOLYLINE
  5
2ED
100
AcDbEntity
  8
218160210_GEN
100
AcDbPolyline
 62
7
  6
CONTINUOUS
 90
32
 70
0
 10
141.3323504997
 20
83.5972953761
 10
141.3320710385
 20
83.6077064686
 10
141.3314146184
 20
83.6180452641
 10
141.3303880718
 20
83.6283181233
 10
141.3289977576
 20
83.6385203176
 10
141.3272511723
 20
83.6486363333
 10
141.325149732
 20
83.658681972
 10
141.3226952456
 20
83.6686559632
 10
141.3198987907
 20
83.6785233111
 10
141.316752269
 20
83.6883154024
 10
141.3132558027
 20
83.6980259361
 10
141.3094405465
 20
83.7075719511
 10
141.3053024432
 20
83.7169730967
 10
141.3008349532
 20
83.726243669
 10
141.2960806431
 20
83.7353010361
 10
141.2910419274
 20
83.7441516321
 10
141.2857053909
 20
83.7528231661
 10
141.280102067
 20
83.7612682093
 10
141.274234168
 20
83.7694892518
 10
141.2680860921
 20
83.7775082396
 10
141.2616703202
 20
83.7853067217
 10
141.2549780209
 20
83.7928915189
 10
141.248001162
 20
83.8002649339
 10
141.2407593421
 20
83.8073991091
 10
141.2332513711
 20
83.8142894371
 10
141.2254674231
 20
83.8209365822
 10
141.2174218423
 20
83.8273197446
 10
141.2091228585
 20
83.8334248336
 10
141.2005602577
 20
83.8392504261
 10
141.1917252056
 20
83.8447914163
 10
141.18261608
 20
83.850035703
 10
141.1729608003
 20
83.8551058582
  0
LWPOLYLINE
  5
2EE
100
AcDbEntity
  8
218160210_GEN
100
AcDbPolyline
 62
7
  6
CONTINUOUS
 90
28
 70
0
 10
140.0971503728
 20
75.9912248819
 10
140.0970532907
 20
75.9975134536
 10
140.0966956762
 20
76.0048257906
 10
140.0960561941
 20
76.0123029735
 10
140.0951096744
 20
76.0199720479
 10
140.0938221117
 20
76.0278729131
 10
140.0921749176
 20
76.0359345024
 10
140.0901766497
 20
76.044016964
 10
140.0878240799
 20
76.0520870136
 10
140.0851054804
 20
76.0601447088
 10
140.0820412633
 20
76.0681048743
 10
140.0786423062
 20
76.0759335614
 10
140.0749045406
 20
76.083635019
 10
140.070836878
 20
76.0911847878
 10
140.066444875
 20
76.098568393
 10
140.0617346912
 20
76.1057716359
 10
140.0567194923
 20
76.1127720324
 10
140.0514078831
 20
76.1195565509
 10
140.0458089436
 20
76.1261126535
 10
140.0399395363
 20
76.1324207342
 10
140.0338101538
 20
76.1384705574
 10
140.0274329515
 20
76.1442511468
 10
140.0208300191
 20
76.1497446733
 10
140.0140147235
 20
76.1549432258
 10
140.007000585
 20
76.1598396139
 10
139.999812225
 20
76.1644206748
 10
139.9924679999
 20
76.1686799003
 10
139.9850669418
 20
76.1725719832
  0
LINE
  5
2EF
100
AcDbEntity
  8
218160210_GEN
100
AcDbLine
 62
7
  6
CONTINUOUS
 10
139.3485626937
 20
76.9608326974
 11
139.3485626937
 21
76.4908241846
  0
LINE
  5
2F0
100
AcDbEntity
  8
218160210_GEN
100
AcDbLine
 62
250
  6
CONTINUOUS
 10
139.9568200728
 20
104.1198737264
 11
139.9568200728
 21
82.3022840373
  0
LINE
  5
2F1
100
AcDbEntity
  8
218160210_GEN
100
AcDbLine
 62
250
  6
CONTINUOUS
 10
139.9568200728
 20
75.8936169094
 11
139.9568200728
 21
72.8804333847
  0
LINE
  5
2F2
100
AcDbEntity
  8
218160210_GEN
100
AcDbLine
 62
7
  6
CONTINUOUS
 10
140.0971501726
 20
104.293538319
 11
140.0971501726
 21
82.552004745
  0
LINE
  5
2F3
100
AcDbEntity
  8
218160210_GEN
100
AcDbLine
 62
7
  6
CONTINUOUS
 10
140.0971501726
 20
75.9912251346
 11
140.0971501726
 21
73.0540979773
  0
LINE
  5
2F4
100
AcDbEntity
  8
218160210_GEN
100
AcDbLine
 62
250
  6
CONTINUOUS
 10
141.2621955331
 20
83.5080874817
 11
141.2621955331
 21
77.9724617249
  0
LINE
  5
2F5
100
AcDbEntity
  8
218160210_GEN
100
AcDbLine
 62
7
  6
CONTINUOUS
 10
141.3323504997
 20
83.5972953761
 11
141.332360583
 21
78.0592940211
  0
LINE
  5
2F6
100
AcDbEntity
  8
218160210_GEN
100
AcDbLine
 62
250
  6
CONTINUOUS
 10
133.6174840056
 20
72.9285298806
 11
139.8093145206
 21
76.1344439787
  0
LINE
  5
2F7
100
AcDbEntity
  8
218160210_GEN
100
AcDbLine
 62
250
  6
CONTINUOUS
 10
133.5613519657
 20
72.5823059315
 11
139.9531824807
 21
75.8917730609
  0
LINE
  5
2F8
100
AcDbEntity
  8
349160010
100
AcDbLine
 62
7
  6
CONTINUOUS
 10
123.8021825234
 20
106.9624325833
 11
121.8519368387
 21
106.7633977863
  0
LINE
  5
2F9
100
AcDbEntity
  8
349160010
100
AcDbLine
 62
7
  6
CONTINUOUS
 10
125.8186564672
 20
107.487514942
 11
125.7763794743
 21
107.4832003098
  0
LINE
  5
2FA
100
AcDbEntity
  8
349160010
100
AcDbLine
 62
7
  6
CONTINUOUS
 10
119.9889733915
 20
107.6139031209
 11
121.3813269406
 21
107.7560015284
  0
LINE
  5
2FB
100
AcDbEntity
  8
349160010
100
AcDbLine
 62
7
  6
CONTINUOUS
 10
119.5184844608
 20
107.9301239752
 11
121.4687301455
 21
108.1291587723
  0
LINE
  5
2FC
100
AcDbEntity
  8
268160210
100
AcDbLine
 62
7
  6
CONTINUOUS
 10
127.1621593514
 20
107.9184343197
 11
126.2182075244
 21
107.8672444519
  0
LINE
  5
2FD
100
AcDbEntity
  8
349160010
100
AcDbLine
 62
7
  6
CONTINUOUS
 10
117.7141425513
 20
110.0874289583
 11
119.7647522168
 21
109.0621241256
  0
LINE
  5
2FE
100
AcDbEntity
  8
349160010
100
AcDbLine
 62
7
  6
CONTINUOUS
 10
121.7446512041
 20
108.0721746319
 11
123.7952608695
 21
107.0468697992
  0
LINE
  5
2FF
100
AcDbEntity
  8
268160210
100
AcDbLine
 62
7
  6
CONTINUOUS
 10
129.2381705334
 20
105.3081928373
 11
128.6470835919
 21
105.6037363081
  0
LINE
  5
300
100
AcDbEntity
  8
268160210
100
AcDbLine
 62
7
  6
CONTINUOUS
 10
116.689524307
 20
111.5825159505
 11
115.6739608652
 21
112.0902976714
  0
LINE
  5
301
100
AcDbEntity
  8
349160010
100
AcDbLine
 62
7
  6
CONTINUOUS
 10
127.0904071179
 20
106.7452100991
 11
125.7833011281
 21
107.398763094
  0
LINE
  5
302
100
AcDbEntity
  8
349160010
100
AcDbLine
 62
7
  6
CONTINUOUS
 10
118.7475886553
 20
110.9166193304
 11
120.1971575567
 21
110.1918348797
  0
LINE
  5
303
100
AcDbEntity
  8
268160210
100
AcDbLine
 62
7
  6
CONTINUOUS
 10
127.3742913858
 20
106.889651464
 11
125.8186564672
 21
107.6674689233
  0
LINE
  5
304
100
AcDbEntity
  8
268160210
100
AcDbLine
 62
7
  6
CONTINUOUS
 10
120.1618022177
 20
110.495896048
 11
118.6061672991
 21
111.2737135073
  0
LINE
  5
305
100
AcDbEntity
  8
268160210
100
AcDbLine
 62
7
  6
CONTINUOUS
 10
127.7450231078
 20
107.1038366602
 11
126.2182075244
 21
107.8672444519
  0
LINE
  5
306
100
AcDbEntity
  8
268160210
100
AcDbLine
 62
7
  6
CONTINUOUS
 10
120.5613532749
 20
110.6956715766
 11
119.0345376915
 21
111.4590793683
  0
LINE
  5
307
100
AcDbEntity
  8
218160210_GEN
100
AcDbLine
 62
250
  6
CONTINUOUS
 10
133.5613519657
 20
69.4299316181
 11
139.9568200728
 21
72.8804333847
  0
LINE
  5
308
100
AcDbEntity
  8
218160210_GEN
100
AcDbLine
 62
7
  6
CONTINUOUS
 10
139.8345620828
 20
72.6140575418
 11
133.6174840056
 21
69.2598012889
  0
LINE
  5
309
100
AcDbEntity
  8
268160210
100
AcDbLine
 62
7
  6
CONTINUOUS
 10
122.2258550574
 20
63.6045406914
 11
122.3310183253
 21
63.6553181851
  0
LINE
  5
30A
100
AcDbEntity
  8
290160210
100
AcDbLine
 62
250
  6
CONTINUOUS
 10
117.5168195978
 20
63.0779409742
 11
123.7288033943
 21
65.0256593156
  0
LINE
  5
30B
100
AcDbEntity
  8
290160210
100
AcDbLine
 62
7
  6
CONTINUOUS
 10
123.6146931024
 20
64.8482448913
 11
117.3979891315
 21
62.8990466973
  0
LINE
  5
30C
100
AcDbEntity
  8
349160010
100
AcDbLine
 62
7
  6
CONTINUOUS
 10
119.7716738706
 20
108.9776869097
 11
117.8214281859
 21
108.7786521126
  0
LINE
  5
30D
100
AcDbEntity
  8
349160010
100
AcDbLine
 62
7
  6
CONTINUOUS
 10
115.9584647388
 20
109.6291574473
 11
117.3508182878
 21
109.7712558548
  0
LINE
  5
30E
100
AcDbEntity
  8
349160010
100
AcDbLine
 62
7
  6
CONTINUOUS
 10
121.8080283301
 20
110.2710907257
 11
120.4730786154
 21
110.1348507393
  0
LINE
  5
30F
100
AcDbEntity
  8
349160010
100
AcDbLine
 62
7
  6
CONTINUOUS
 10
115.487975808
 20
109.9453783016
 11
117.4382214927
 21
110.1444130987
  0
LWPOLYLINE
  5
310
100
AcDbEntity
  8
218160210_GEN
100
AcDbPolyline
 62
7
  6
CONTINUOUS
 90
29
 70
0
 10
116.2569495286
 20
114.5722815018
 10
116.2409900155
 20
114.5798210219
 10
116.2247101022
 20
114.5868338095
 10
116.2081209365
 20
114.5933082267
 10
116.1912333226
 20
114.5992332328
 10
116.1740594667
 20
114.6045977735
 10
116.1566117127
 20
114.6093917913
 10
116.1389009525
 20
114.6136063175
 10
116.1209394519
 20
114.617232329
 10
116.1027405381
 20
114.6202611494
 10
116.0843161672
 20
114.6226853427
 10
116.0656794881
 20
114.6244977826
 10
116.046842935
 20
114.6256917642
 10
116.0278163904
 20
114.6262612626
 10
116.0086131695
 20
114.6262007659
 10
115.98924454
 20
114.625505041
 10
115.9697160244
 20
114.6241685404
 10
115.950039023
 20
114.622186373
 10
115.9302251107
 20
114.6195539818
 10
115.9102787433
 20
114.6162656122
 10
115.8902110963
 20
114.6123166126
 10
115.8700327812
 20
114.6077027267
 10
115.8497463703
 20
114.6024173731
 10
115.8293628683
 20
114.5964556979
 10
115.8088918769
 20
114.5898129394
 10
115.7883331997
 20
114.5824804713
 10
115.7676939099
 20
114.5744512852
 10
115.7469898326
 20
114.5657223519
 10
115.7319816245
 20
114.5589703522
  0
LINE
  5
311
100
AcDbEntity
  8
349160010
100
AcDbLine
 62
250
  6
CONTINUOUS
 10
126.5768256427
 20
107.8866920694
 11
121.8080283301
 21
110.2710907257
  0
LINE
  5
312
100
AcDbEntity
  8
349160010
100
AcDbLine
 62
7
  6
CONTINUOUS
 10
122.0138633551
 20
110.2364713989
 11
126.7000565563
 21
107.8933747983
  0
LINE
  5
313
100
AcDbEntity
  8
268160210
100
AcDbLine
 62
250
  6
CONTINUOUS
 10
120.3116356305
 20
111.5409097931
 11
121.7650823536
 21
110.8141864316
  0
LINE
  5
314
100
AcDbEntity
  8
268160210
100
AcDbLine
 62
250
  6
CONTINUOUS
 10
127.6140500142
 20
107.8897026012
 11
128.4779767711
 21
107.4577392228
  0
LINE
  5
315
100
AcDbEntity
  8
268160210
100
AcDbLine
 62
7
  6
CONTINUOUS
 10
120.4639826309
 20
111.5118419092
 11
121.7979559115
 21
110.8448552689
  0
LINE
  5
316
100
AcDbEntity
  8
268160210
100
AcDbLine
 62
7
  6
CONTINUOUS
 10
127.8912833939
 20
107.7981915277
 11
128.525904619
 21
107.4808809151
  0
LINE
  5
317
100
AcDbEntity
  8
268160210
100
AcDbLine
 62
7
  6
CONTINUOUS
 10
131.3111796926
 20
106.3003806245
 11
130.6797978579
 21
106.6160715418
  0
LINE
  5
318
100
AcDbEntity
  8
268160210
100
AcDbLine
 62
7
  6
CONTINUOUS
 10
118.72458427
 20
112.5936783358
 11
118.4434288093
 21
112.7342560661
  0
LINE
  5
319
100
AcDbEntity
  8
268160210
100
AcDbLine
 62
250
  6
CONTINUOUS
 10
130.1505912128
 20
107.0182455961
 11
128.8817167724
 21
107.6526828163
  0
LINE
  5
31A
100
AcDbEntity
  8
268160210
100
AcDbLine
 62
250
  6
CONTINUOUS
 10
120.1322300038
 20
112.0274262006
 11
118.8633555633
 21
112.6618634208
  0
LINE
  5
31B
100
AcDbEntity
  8
268160210
100
AcDbLine
 62
7
  6
CONTINUOUS
 10
130.4852908831
 20
107.0411622426
 11
129.2252566744
 21
107.6711793469
  0
LINE
  5
31C
100
AcDbEntity
  8
268160210
100
AcDbLine
 62
7
  6
CONTINUOUS
 10
120.4639826309
 20
112.0518163687
 11
119.2039484222
 21
112.681833473
  0
LINE
  5
31D
100
AcDbEntity
  8
218160210_GEN
100
AcDbLine
 62
250
  6
CONTINUOUS
 10
115.8183048382
 20
114.5518113328
 11
116.815385722
 21
114.0532708909
  0
LINE
  5
31E
100
AcDbEntity
  8
218160210_GEN
100
AcDbLine
 62
250
  6
CONTINUOUS
 10
131.8767601613
 20
106.5225836712
 11
132.8738410451
 21
106.0240432293
  0
LINE
  5
31F
100
AcDbEntity
  8
218160210_GEN
100
AcDbLine
 62
7
  6
CONTINUOUS
 10
116.2569495286
 20
114.5722815018
 11
117.2502586025
 21
114.0756342205
  0
LINE
  5
320
100
AcDbEntity
  8
218160210_GEN
100
AcDbLine
 62
7
  6
CONTINUOUS
 10
132.3116330418
 20
106.5449470008
 11
133.3026413472
 21
106.0494428481
  0
LINE
  5
321
100
AcDbEntity
  8
268160210
100
AcDbLine
 62
250
  6
CONTINUOUS
 10
122.2258550574
 20
60.7176564434
 11
125.9747274825
 21
62.4883972073
  0
LINE
  5
322
100
AcDbEntity
  8
268160210
100
AcDbLine
 62
7
  6
CONTINUOUS
 10
122.1589637294
 20
60.5815219997
 11
125.6080730735
 21
62.2106728009
  0
LINE
  5
323
100
AcDbEntity
  8
349160010
100
AcDbLine
 62
7
  6
CONTINUOUS
 10
114.1022328938
 20
110.4425316559
 11
118.7475886553
 21
110.9166193304
  0
LINE
  5
324
100
AcDbEntity
  8
268160210
100
AcDbLine
 62
7
  6
CONTINUOUS
 10
120.3116356305
 20
111.5409097931
 11
119.0345376915
 21
111.4590793683
  0
LINE
  5
325
100
AcDbEntity
  8
268160210
100
AcDbLine
 62
7
  6
CONTINUOUS
 10
121.5053051019
 20
110.7468614444
 11
120.5613532749
 21
110.6956715766
  0
LINE
  5
326
100
AcDbEntity
  8
218160210_GEN
100
AcDbLine
 62
250
  6
CONTINUOUS
 10
123.218620262
 20
112.9219203838
 11
139.6033205301
 21
104.7295702497
  0
LINE
  5
327
100
AcDbEntity
  8
218160210_GEN
100
AcDbLine
 62
7
  6
CONTINUOUS
 10
123.4360567023
 20
112.9331020486
 11
139.8207569703
 21
104.7407519145
  0
LWPOLYLINE
  5
328
100
AcDbEntity
  8
218160210_GEN
100
AcDbPolyline
 62
7
  6
CONTINUOUS
 90
55
 70
0
 10
132.9663359414
 20
64.6931435182
 10
132.9814319553
 20
64.7014846106
 10
133.0018982509
 20
64.713424495
 10
133.0221921288
 20
64.7259908474
 10
133.0423052918
 20
64.739171548
 10
133.0622286909
 20
64.7529534366
 10
133.0819502635
 20
64.7673213479
 10
133.1014625006
 20
64.7822632798
 10
133.1207569758
 20
64.7977663154
 10
133.1398191798
 20
64.8138128328
 10
133.1586407303
 20
64.8303897461
 10
133.1772136615
 20
64.847484021
 10
133.1955232816
 20
64.8650766049
 10
133.2135614981
 20
64.8831539244
 10
133.2313201076
 20
64.9017021506
 10
133.2487837497
 20
64.9207000225
 10
133.2659439462
 20
64.9401325119
 10
133.2827932422
 20
64.9599857154
 10
133.2993177119
 20
64.9802381535
 10
133.3155076025
 20
65.0008719892
 10
133.3313573967
 20
65.0218748335
 10
133.3468594457
 20
65.0432319891
 10
133.3620057081
 20
65.0649274741
 10
133.3767890642
 20
65.0869468962
 10
133.3912031058
 20
65.109277111
 10
133.4052402749
 20
65.1319026464
 10
133.4188930771
 20
65.1548085305
 10
133.4321552463
 20
65.1779817314
 10
133.4450190985
 20
65.2014062792
 10
133.4574774696
 20
65.2250675968
 10
133.46952503
 20
65.2489543452
 10
133.481154401
 20
65.2730510616
 10
133.4923581538
 20
65.2973426681
 10
133.503131047
 20
65.3218182841
 10
133.5134659001
 20
65.3464629332
 10
133.5233550772
 20
65.3712610279
 10
133.5327928625
 20
65.3962008783
 10
133.5417724723
 20
65.4212686589
 10
133.5502859
 20
65.4464475505
 10
133.5583260131
 20
65.4717216708
 10
133.5658858319
 20
65.497076054
 10
133.5729580989
 20
65.5224948945
 10
133.5795358031
 20
65.547961568
 10
133.5856120994
 20
65.5734608227
 10
133.5911801677
 20
65.5989771743
 10
133.5962333704
 20
65.6244944541
 10
133.6007649686
 20
65.649997308
 10
133.6047684673
 20
65.6754705154
 10
133.6082375611
 20
65.7008990312
 10
133.6111655072
 20
65.7262672716
 10
133.6135459035
 20
65.7515607686
 10
133.6153724231
 20
65.7767673175
 10
133.6166381499
 20
65.8018731951
 10
133.6173364033
 20
65.8268606513
 10
133.6174839769
 20
65.8446343659
  0
LINE
  5
329
100
AcDbEntity
  8
218160210_GEN
100
AcDbLine
 62
250
  6
CONTINUOUS
 10
133.0152408621
 20
64.799694754
 11
127.4450020639
 21
61.7944231317
  0
LINE
  5
32A
100
AcDbEntity
  8
218160210_GEN
100
AcDbLine
 62
7
  6
CONTINUOUS
 10
132.9663376662
 20
64.6931444168
 11
127.3951063054
 21
61.6873372843
  0
LINE
  5
32B
100
AcDbEntity
  8
268160210
100
AcDbLine
 62
250
  6
CONTINUOUS
 10
127.4450020639
 20
61.8377260511
 11
125.9747274825
 21
61.1432571975
  0
LINE
  5
32C
100
AcDbEntity
  8
268160210
100
AcDbLine
 62
7
  6
CONTINUOUS
 10
127.3781526231
 20
61.7016113924
 11
125.9078361542
 21
61.0071227536
  0
ARC
  5
32D
100
AcDbEntity
  8
290160210
100
AcDbCircle
 62
250
  6
CONTINUOUS
 10
632.2587712679
 20
35.6353696482
 40
516.3681491427
100
AcDbArc
 50
173.6157346277
 51
174.0584465118
  0
ARC
  5
32E
100
AcDbEntity
  8
218160210_GEN
100
AcDbCircle
 62
7
  6
CONTINUOUS
 10
139.5971501726
 20
73.0540979773
 40
0.5
100
AcDbArc
 50
298.3477572782
 51
360.0
  0
ARC
  5
32F
100
AcDbEntity
  8
218160210_GEN
100
AcDbCircle
 62
7
  6
CONTINUOUS
 10
123.2124499045
 20
112.4858884531
 40
0.5
100
AcDbArc
 50
63.4349488229
 51
114.7889082971
  0
ARC
  5
330
100
AcDbEntity
  8
218160210_GEN
100
AcDbCircle
 62
7
  6
CONTINUOUS
 10
139.5971501726
 20
104.293538319
 40
0.5
100
AcDbArc
 50
0.0
 51
63.4353698633
  0
ARC
  5
331
100
AcDbEntity
  8
218160210_GEN
100
AcDbCircle
 62
250
  6
CONTINUOUS
 10
139.9888945524
 20
75.782761828
 40
0.3948788713
100
AcDbArc
 50
116.0598743655
 51
117.0502942259
  0
ARC
  5
332
100
AcDbEntity
  8
218160210_GEN
100
AcDbCircle
 62
250
  6
CONTINUOUS
 10
116.0867744725
 20
114.2261880534
 40
0.385666458
100
AcDbArc
 50
64.0810986029
 51
64.9722829963
  0
ARC
  5
333
100
AcDbEntity
  8
218160210_GEN
100
AcDbCircle
 62
250
  6
CONTINUOUS
 10
116.086834279
 20
114.2263119742
 40
0.3855288606
100
AcDbArc
 50
63.4345727182
 51
64.0810429053
  0
ARC
  5
334
100
AcDbEntity
  8
218160210_GEN
100
AcDbCircle
 62
250
  6
CONTINUOUS
 10
132.1439372626
 20
106.209560095
 40
0.3749749662
100
AcDbArc
 50
63.4346308918
 51
65.0173319803
  0
ARC
  5
335
100
AcDbEntity
  8
218160210_GEN
100
AcDbCircle
 62
250
  6
CONTINUOUS
 10
139.7229405285
 20
82.552000281
 40
0.3742095952
100
AcDbArc
 50
359.4322605862
 51
0.0007070757
  0
ARC
  5
336
100
AcDbEntity
  8
290160210
100
AcDbCircle
 62
250
  6
CONTINUOUS
 10
100.3427490038
 20
71.6288874638
 40
0.366288411
100
AcDbArc
 50
241.0080913793
 51
243.4376150392
  0
ARC
  5
337
100
AcDbEntity
  8
268160210
100
AcDbCircle
 62
7
  6
CONTINUOUS
 10
122.0521904648
 20
60.8075739185
 40
0.25
100
AcDbArc
 50
243.4349488229
 51
295.2851285316
  0
ARC
  5
338
100
AcDbEntity
  8
268160210
100
AcDbCircle
 62
7
  6
CONTINUOUS
 10
105.0485171623
 20
107.645734248
 40
0.25
100
AcDbArc
 50
117.8640025146
 51
180.0000756668
  0
ARC
  5
339
100
AcDbEntity
  8
218160210_GEN
100
AcDbCircle
 62
250
  6
CONTINUOUS
 10
139.8419213654
 20
82.515228457
 40
0.2419649537
100
AcDbArc
 50
297.3757037566
 51
298.3500276914
  0
ARC
  5
33A
100
AcDbEntity
  8
218160210_GEN
100
AcDbCircle
 62
250
  6
CONTINUOUS
 10
140.0615185162
 20
75.6825550133
 40
0.2356032428
100
AcDbArc
 50
116.3839698189
 51
117.3757538582
  0
ARC
  5
33B
100
AcDbEntity
  8
218160210_GEN
100
AcDbCircle
 62
250
  6
CONTINUOUS
 10
139.8654725138
 20
82.2613498585
 40
0.0778484391
100
AcDbArc
 50
297.8091708231
 51
301.8130315137
  0
ARC
  5
33C
100
AcDbEntity
  8
218160210_GEN
100
AcDbCircle
 62
250
  6
CONTINUOUS
 10
139.8655674537
 20
82.2611769181
 40
0.0776511802
100
AcDbArc
 50
297.3750108778
 51
297.806740793
  0
SPLINE
  5
33D
100
AcDbEntity
  8
349160010
100
AcDbSpline
 62
7
  6
CONTINUOUS
 70
0
 71
3
 72
10
 73
6
 74
0
 42
0.0000001
 43
0.0000001
 44
0.0000000001
 40
0.0
 40
0.0
 40
0.0
 40
0.0
 40
0.227718362
 40
0.4659068867
 40
1.0
 40
1.0
 40
1.0
 40
1.0
 10
120.0251717857
 20
105.5941674468
 30
0.0
 10
120.0314529139
 20
105.5973075074
 30
0.0
 10
120.0452984836
 20
105.6019126006
 30
0.0
 10
120.0763837804
 20
105.6034769952
 30
0.0
 10
120.0998829658
 20
105.5958531382
 30
0.0
 10
120.1146143198
 20
105.5884874613
 30
0.0
  0
SPLINE
  5
33E
100
AcDbEntity
  8
349160010
100
AcDbSpline
 62
7
  6
CONTINUOUS
 70
0
 71
3
 72
11
 73
7
 74
0
 42
0.0000001
 43
0.0000001
 44
0.0000000001
 40
0.0
 40
0.0
 40
0.0
 40
0.0
 40
0.1668663968
 40
0.3782782406
 40
0.6547525796
 40
1.0
 40
1.0
 40
1.0
 40
1.0
 10
123.8554901843
 20
106.987532623
 30
0.0
 10
123.8547055656
 20
106.9841830836
 30
0.0
 10
123.8502562156
 20
106.9772139578
 30
0.0
 10
123.8384573909
 20
106.9701863799
 30
0.0
 10
123.8219836792
 20
106.9650540262
 30
0.0
 10
123.8092635534
 20
106.9631552469
 30
0.0
 10
123.8021825234
 20
106.9624325833
 30
0.0
  0
SPLINE
  5
33F
100
AcDbEntity
  8
349160010
100
AcDbSpline
 62
7
  6
CONTINUOUS
 70
0
 71
3
 72
11
 73
7
 74
0
 42
0.0000001
 43
0.0000001
 44
0.0000000001
 40
0.0
 40
0.0
 40
0.0
 40
0.0
 40
0.1668663968
 40
0.3782782406
 40
0.6547525796
 40
1.0
 40
1.0
 40
1.0
 40
1.0
 10
119.8249815316
 20
109.0027869494
 30
0.0
 10
119.8241969128
 20
108.99943741
 30
0.0
 10
119.8197475629
 20
108.9924682842
 30
0.0
 10
119.8079487382
 20
108.9854407063
 30
0.0
 10
119.7914750264
 20
108.9803083526
 30
0.0
 10
119.7787549007
 20
108.9784095732
 30
0.0
 10
119.7716738706
 20
108.9776869097
 30
0.0
  0
SPLINE
  5
340
100
AcDbEntity
  8
349160010
100
AcDbSpline
 62
7
  6
CONTINUOUS
 70
0
 71
3
 72
9
 73
5
 74
0
 42
0.0000001
 43
0.0000001
 44
0.0000000001
 40
0.0
 40
0.0
 40
0.0
 40
0.0
 40
0.4951300315
 40
1.0
 40
1.0
 40
1.0
 40
1.0
 10
122.0138636455
 20
110.2364719908
 30
0.0
 10
121.995401833
 20
110.2457034031
 30
0.0
 10
121.9563054757
 20
110.2609179581
 30
0.0
 10
121.9151401449
 20
110.2688677013
 30
0.0
 10
121.8942138316
 20
110.2711202854
 30
0.0
  0
SPLINE
  5
341
100
AcDbEntity
  8
349160010
100
AcDbSpline
 62
7
  6
CONTINUOUS
 70
0
 71
3
 72
9
 73
5
 74
0
 42
0.0000001
 43
0.0000001
 44
0.0000000001
 40
0.0
 40
0.0
 40
0.0
 40
0.0
 40
0.2447357831
 40
1.0
 40
1.0
 40
1.0
 40
1.0
 10
121.8942138316
 20
110.2711202854
 30
0.0
 10
121.8872160484
 20
110.2718735522
 30
0.0
 10
121.8585402244
 20
110.2741579831
 30
0.0
 10
121.8296362805
 20
110.2732959525
 30
0.0
 10
121.8080283301
 20
110.2710907257
 30
0.0
  0
SPLINE
  5
342
100
AcDbEntity
  8
349160010
100
AcDbSpline
 62
7
  6
CONTINUOUS
 70
0
 71
3
 72
12
 73
8
 74
0
 42
0.0000001
 43
0.0000001
 44
0.0000000001
 40
0.0
 40
0.0
 40
0.0
 40
0.0
 40
0.1019075767
 40
0.2190147433
 40
0.4829783949
 40
0.755955919
 40
1.0
 40
1.0
 40
1.0
 40
1.0
 10
120.4730786154
 20
110.1348507393
 30
0.0
 10
120.4634662122
 20
110.1338697333
 30
0.0
 10
120.4426696777
 20
110.1330931105
 30
0.0
 10
120.3968970963
 20
110.1352968783
 30
0.0
 10
120.3354179941
 20
110.1447067752
 30
0.0
 10
120.2637303469
 20
110.1636356466
 30
0.0
 10
120.2178536691
 20
110.1814868235
 30
0.0
 10
120.1971575567
 20
110.1918348797
 30
0.0
  0
SPLINE
  5
343
100
AcDbEntity
  8
349160010
100
AcDbSpline
 62
7
  6
CONTINUOUS
 70
0
 71
3
 72
9
 73
5
 74
0
 42
0.0000001
 43
0.0000001
 44
0.0000000001
 40
0.0
 40
0.0
 40
0.0
 40
0.0
 40
0.2656286414
 40
1.0
 40
1.0
 40
1.0
 40
1.0
 10
113.9492772852
 20
110.3957242618
 30
0.0
 10
113.9619823648
 20
110.4020768016
 30
0.0
 10
114.0106549358
 20
110.4241769002
 30
0.0
 10
114.0631647093
 20
110.4385445027
 30
0.0
 10
114.1022328938
 20
110.4425316559
 30
0.0
  0
SPLINE
  5
344
100
AcDbEntity
  8
349160010
100
AcDbSpline
 62
7
  6
CONTINUOUS
 70
0
 71
3
 72
11
 73
7
 74
0
 42
0.0000001
 43
0.0000001
 44
0.0000000001
 40
0.0
 40
0.0
 40
0.0
 40
0.0
 40
0.3613457637
 40
0.5147902974
 40
0.6488131342
 40
1.0
 40
1.0
 40
1.0
 40
1.0
 10
125.7833011281
 20
107.398763094
 30
0.0
 10
125.7738442692
 20
107.4034915235
 30
0.0
 10
125.7606692258
 20
107.410770781
 30
0.0
 10
125.7450894984
 20
107.421912172
 30
0.0
 10
125.7312714783
 20
107.4336856425
 30
0.0
 10
125.7207281728
 20
107.4480952624
 30
0.0
 10
125.7230718133
 20
107.4581002701
 30
0.0
  0
SPLINE
  5
345
100
AcDbEntity
  8
349160010
100
AcDbSpline
 62
7
  6
CONTINUOUS
 70
0
 71
3
 72
15
 73
11
 74
0
 42
0.0000001
 43
0.0000001
 44
0.0000000001
 40
0.0
 40
0.0
 40
0.0
 40
0.0
 40
0.1197400429
 40
0.2468321982
 40
0.3784575399
 40
0.511666381
 40
0.6432400042
 40
0.7701010525
 40
0.8897103295
 40
1.0
 40
1.0
 40
1.0
 40
1.0
 10
113.0907344058
 20
109.3602350394
 30
0.0
 10
113.0907344058
 20
109.4013529172
 30
0.0
 10
113.0977449144
 20
109.4861973726
 30
0.0
 10
113.126167024
 20
109.6133604658
 30
0.0
 10
113.1718691116
 20
109.7403111538
 30
0.0
 10
113.2330621816
 20
109.8622643654
 30
0.0
 10
113.3075136323
 20
109.97466185
 30
0.0
 10
113.3924322461
 20
110.0733584542
 30
0.0
 10
113.4846781333
 20
110.1545858802
 30
0.0
 10
113.5518347914
 20
110.1970030148
 30
0.0
 10
113.5857091526
 20
110.2139401955
 30
0.0
  0
SPLINE
  5
346
100
AcDbEntity
  8
349160010
100
AcDbSpline
 62
7
  6
CONTINUOUS
 70
0
 71
3
 72
11
 73
7
 74
0
 42
0.0000001
 43
0.0000001
 44
0.0000000001
 40
0.0
 40
0.0
 40
0.0
 40
0.0
 40
0.2279059286
 40
0.4839745214
 40
0.7487298764
 40
1.0
 40
1.0
 40
1.0
 40
1.0
 10
114.5521358661
 20
108.3697266881
 30
0.0
 10
114.5710540463
 20
108.360267598
 30
0.0
 10
114.6074084747
 20
108.3324664386
 30
0.0
 10
114.6503905162
 20
108.2771619416
 30
0.0
 10
114.6811417047
 20
108.2118327207
 30
0.0
 10
114.6914145183
 20
108.1644400735
 30
0.0
 10
114.6930190714
 20
108.1411758222
 30
0.0
  0
SPLINE
  5
347
100
AcDbEntity
  8
349160010
100
AcDbSpline
 62
7
  6
CONTINUOUS
 70
0
 71
3
 72
12
 73
8
 74
0
 42
0.0000001
 43
0.0000001
 44
0.0000000001
 40
0.0
 40
0.0
 40
0.0
 40
0.0
 40
0.1019075767
 40
0.2190147433
 40
0.4829783949
 40
0.755955919
 40
1.0
 40
1.0
 40
1.0
 40
1.0
 10
121.8519368387
 20
106.7633977863
 30
0.0
 10
121.8423244355
 20
106.7624167803
 30
0.0
 10
121.821527901
 20
106.7616401575
 30
0.0
 10
121.7757553196
 20
106.7638439253
 30
0.0
 10
121.7142762174
 20
106.7732538221
 30
0.0
 10
121.6425885702
 20
106.7921826935
 30
0.0
 10
121.5967118924
 20
106.8100338705
 30
0.0
 10
121.5760157801
 20
106.8203819266
 30
0.0
  0
SPLINE
  5
348
100
AcDbEntity
  8
349160010
100
AcDbSpline
 62
7
  6
CONTINUOUS
 70
0
 71
3
 72
12
 73
8
 74
0
 42
0.0000001
 43
0.0000001
 44
0.0000000001
 40
0.0
 40
0.0
 40
0.0
 40
0.0
 40
0.1019075767
 40
0.2190147433
 40
0.4829783949
 40
0.755955919
 40
1.0
 40
1.0
 40
1.0
 40
1.0
 10
117.8214281859
 20
108.7786521126
 30
0.0
 10
117.8118157827
 20
108.7776711066
 30
0.0
 10
117.7910192482
 20
108.7768944839
 30
0.0
 10
117.7452466668
 20
108.7790982517
 30
0.0
 10
117.6837675646
 20
108.7885081485
 30
0.0
 10
117.6120799174
 20
108.8074370199
 30
0.0
 10
117.5662032396
 20
108.8252881969
 30
0.0
 10
117.5455071273
 20
108.835636253
 30
0.0
  0
SPLINE
  5
349
100
AcDbEntity
  8
349160010
100
AcDbSpline
 62
7
  6
CONTINUOUS
 70
0
 71
3
 72
11
 73
7
 74
0
 42
0.0000001
 43
0.0000001
 44
0.0000000001
 40
0.0
 40
0.0
 40
0.0
 40
0.0
 40
0.3613457637
 40
0.5147902974
 40
0.6488131342
 40
1.0
 40
1.0
 40
1.0
 40
1.0
 10
119.5254061146
 20
107.8456867594
 30
0.0
 10
119.5159492557
 20
107.8504151888
 30
0.0
 10
119.5027742123
 20
107.8576944464
 30
0.0
 10
119.4871944849
 20
107.8688358374
 30
0.0
 10
119.4733764648
 20
107.8806093079
 30
0.0
 10
119.4628331593
 20
107.8950189278
 30
0.0
 10
119.4651767998
 20
107.9050239355
 30
0.0
  0
SPLINE
  5
34A
100
AcDbEntity
  8
349160010
100
AcDbSpline
 62
7
  6
CONTINUOUS
 70
0
 71
3
 72
11
 73
7
 74
0
 42
0.0000001
 43
0.0000001
 44
0.0000000001
 40
0.0
 40
0.0
 40
0.0
 40
0.0
 40
0.3613457637
 40
0.5147902974
 40
0.6488131342
 40
1.0
 40
1.0
 40
1.0
 40
1.0
 10
115.4948974618
 20
109.8609410857
 30
0.0
 10
115.4854406029
 20
109.8656695152
 30
0.0
 10
115.4722655596
 20
109.8729487727
 30
0.0
 10
115.4566858322
 20
109.8840901638
 30
0.0
 10
115.4428678121
 20
109.8958636342
 30
0.0
 10
115.4323245065
 20
109.9102732542
 30
0.0
 10
115.4346681471
 20
109.9202782619
 30
0.0
  0
SPLINE
  5
34B
100
AcDbEntity
  8
349160010
100
AcDbSpline
 62
7
  6
CONTINUOUS
 70
0
 71
3
 72
11
 73
7
 74
0
 42
0.0000001
 43
0.0000001
 44
0.0000000001
 40
0.0
 40
0.0
 40
0.0
 40
0.0
 40
0.1668663968
 40
0.3782782406
 40
0.6547525796
 40
1.0
 40
1.0
 40
1.0
 40
1.0
 10
125.7230718133
 20
107.4581002701
 30
0.0
 10
125.723856432
 20
107.4614498096
 30
0.0
 10
125.728305782
 20
107.4684189354
 30
0.0
 10
125.7401046067
 20
107.4754465133
 30
0.0
 10
125.7565783185
 20
107.480578867
 30
0.0
 10
125.7692984442
 20
107.4824776463
 30
0.0
 10
125.7763794743
 20
107.4832003098
 30
0.0
  0
SPLINE
  5
34C
100
AcDbEntity
  8
349160010
100
AcDbSpline
 62
7
  6
CONTINUOUS
 70
0
 71
3
 72
11
 73
7
 74
0
 42
0.0000001
 43
0.0000001
 44
0.0000000001
 40
0.0
 40
0.0
 40
0.0
 40
0.0
 40
0.1668663968
 40
0.3782782406
 40
0.6547525796
 40
1.0
 40
1.0
 40
1.0
 40
1.0
 10
115.4346681471
 20
109.9202782619
 30
0.0
 10
115.4354527658
 20
109.9236278013
 30
0.0
 10
115.4399021158
 20
109.9305969272
 30
0.0
 10
115.4517009405
 20
109.937624505
 30
0.0
 10
115.4681746522
 20
109.9427568587
 30
0.0
 10
115.4808947779
 20
109.9446556381
 30
0.0
 10
115.487975808
 20
109.9453783016
 30
0.0
  0
SPLINE
  5
34D
100
AcDbEntity
  8
349160010
100
AcDbSpline
 62
7
  6
CONTINUOUS
 70
0
 71
3
 72
11
 73
7
 74
0
 42
0.0000001
 43
0.0000001
 44
0.0000000001
 40
0.0
 40
0.0
 40
0.0
 40
0.0
 40
0.3613457637
 40
0.5147902974
 40
0.6488131342
 40
1.0
 40
1.0
 40
1.0
 40
1.0
 10
123.7952608695
 20
107.0468697992
 30
0.0
 10
123.8047177285
 20
107.0421413697
 30
0.0
 10
123.8178927718
 20
107.0348621122
 30
0.0
 10
123.8334724992
 20
107.0237207212
 30
0.0
 10
123.8472905193
 20
107.0119472507
 30
0.0
 10
123.8578338249
 20
106.9975376308
 30
0.0
 10
123.8554901843
 20
106.987532623
 30
0.0
  0
SPLINE
  5
34E
100
AcDbEntity
  8
349160010
100
AcDbSpline
 62
7
  6
CONTINUOUS
 70
0
 71
3
 72
11
 73
7
 74
0
 42
0.0000001
 43
0.0000001
 44
0.0000000001
 40
0.0
 40
0.0
 40
0.0
 40
0.0
 40
0.3613457637
 40
0.5147902974
 40
0.6488131342
 40
1.0
 40
1.0
 40
1.0
 40
1.0
 10
119.7647522168
 20
109.0621241256
 30
0.0
 10
119.7742090757
 20
109.0573956961
 30
0.0
 10
119.7873841191
 20
109.0501164386
 30
0.0
 10
119.8029638465
 20
109.0389750476
 30
0.0
 10
119.8167818665
 20
109.0272015771
 30
0.0
 10
119.8273251721
 20
109.0127919571
 30
0.0
 10
119.8249815316
 20
109.0027869494
 30
0.0
  0
SPLINE
  5
34F
100
AcDbEntity
  8
349160010
100
AcDbSpline
 62
7
  6
CONTINUOUS
 70
0
 71
3
 72
12
 73
8
 74
0
 42
0.0000001
 43
0.0000001
 44
0.0000000001
 40
0.0
 40
0.0
 40
0.0
 40
0.0
 40
0.1019075767
 40
0.2190147433
 40
0.4829783949
 40
0.755955919
 40
1.0
 40
1.0
 40
1.0
 40
1.0
 10
121.4687301455
 20
108.1291587723
 30
0.0
 10
121.4783425486
 20
108.1301397783
 30
0.0
 10
121.4991390832
 20
108.1309164011
 30
0.0
 10
121.5449116645
 20
108.1287126332
 30
0.0
 10
121.6063907668
 20
108.1193027364
 30
0.0
 10
121.6780784139
 20
108.100373865
 30
0.0
 10
121.7239550918
 20
108.0825226881
 30
0.0
 10
121.7446512041
 20
108.0721746319
 30
0.0
  0
SPLINE
  5
350
100
AcDbEntity
  8
349160010
100
AcDbSpline
 62
7
  6
CONTINUOUS
 70
0
 71
3
 72
12
 73
8
 74
0
 42
0.0000001
 43
0.0000001
 44
0.0000000001
 40
0.0
 40
0.0
 40
0.0
 40
0.0
 40
0.1019075767
 40
0.2190147433
 40
0.4829783949
 40
0.755955919
 40
1.0
 40
1.0
 40
1.0
 40
1.0
 10
117.4382214927
 20
110.1444130987
 30
0.0
 10
117.4478338959
 20
110.1453941047
 30
0.0
 10
117.4686304304
 20
110.1461707274
 30
0.0
 10
117.5144030118
 20
110.1439669596
 30
0.0
 10
117.575882114
 20
110.1345570628
 30
0.0
 10
117.6475697612
 20
110.1156281914
 30
0.0
 10
117.693446439
 20
110.0977770145
 30
0.0
 10
117.7141425513
 20
110.0874289583
 30
0.0
  0
SPLINE
  5
351
100
AcDbEntity
  8
349160010
100
AcDbSpline
 62
7
  6
CONTINUOUS
 70
0
 71
3
 72
9
 73
5
 74
0
 42
0.0000001
 43
0.0000001
 44
0.0000000001
 40
0.0
 40
0.0
 40
0.0
 40
0.0
 40
0.2656286414
 40
1.0
 40
1.0
 40
1.0
 40
1.0
 10
122.4345586595
 20
106.1530835746
 30
0.0
 10
122.4472637391
 20
106.1594361144
 30
0.0
 10
122.49593631
 20
106.1815362131
 30
0.0
 10
122.5484460835
 20
106.1959038156
 30
0.0
 10
122.587514268
 20
106.1998909687
 30
0.0
  0
SPLINE
  5
352
100
AcDbEntity
  8
349160010
100
AcDbSpline
 62
7
  6
CONTINUOUS
 70
0
 71
3
 72
11
 73
7
 74
0
 42
0.0000001
 43
0.0000001
 44
0.0000000001
 40
0.0
 40
0.0
 40
0.0
 40
0.0
 40
0.1668663968
 40
0.3782782406
 40
0.6547525796
 40
1.0
 40
1.0
 40
1.0
 40
1.0
 10
119.4651767998
 20
107.9050239355
 30
0.0
 10
119.4659614185
 20
107.9083734749
 30
0.0
 10
119.4704107685
 20
107.9153426008
 30
0.0
 10
119.4822095932
 20
107.9223701787
 30
0.0
 10
119.498683305
 20
107.9275025324
 30
0.0
 10
119.5114034307
 20
107.9294013117
 30
0.0
 10
119.5184844608
 20
107.9301239752
 30
0.0
  0
SPLINE
  5
353
100
AcDbEntity
  8
349160010
100
AcDbSpline
 62
7
  6
CONTINUOUS
 70
0
 71
3
 72
15
 73
11
 74
0
 42
0.0000001
 43
0.0000001
 44
0.0000000001
 40
0.0
 40
0.0
 40
0.0
 40
0.0
 40
0.1197400429
 40
0.2468321982
 40
0.3784575399
 40
0.511666381
 40
0.6432400042
 40
0.7701010525
 40
0.8897103295
 40
1.0
 40
1.0
 40
1.0
 40
1.0
 10
121.5760157801
 20
105.1175943523
 30
0.0
 10
121.5760157801
 20
105.15871223
 30
0.0
 10
121.5830262886
 20
105.2435566855
 30
0.0
 10
121.6114483982
 20
105.3707197787
 30
0.0
 10
121.6571504858
 20
105.4976704667
 30
0.0
 10
121.7183435558
 20
105.6196236782
 30
0.0
 10
121.7927950066
 20
105.7320211629
 30
0.0
 10
121.8777136203
 20
105.8307177671
 30
0.0
 10
121.9699595075
 20
105.911945193
 30
0.0
 10
122.0371161656
 20
105.9543623277
 30
0.0
 10
122.0709905269
 20
105.9712995083
 30
0.0
  0
SPLINE
  5
354
100
AcDbEntity
  8
349160010
100
AcDbSpline
 62
7
  6
CONTINUOUS
 70
0
 71
3
 72
11
 73
7
 74
0
 42
0.0000001
 43
0.0000001
 44
0.0000000001
 40
0.0
 40
0.0
 40
0.0
 40
0.0
 40
0.2854725589
 40
0.5436124477
 40
0.7786009019
 40
1.0
 40
1.0
 40
1.0
 40
1.0
 10
119.9737311145
 20
105.5008198006
 30
0.0
 10
119.9745128353
 20
105.5113721706
 30
0.0
 10
119.9776742255
 20
105.5314147426
 30
0.0
 10
119.988139322
 20
105.5585881562
 30
0.0
 10
120.0038895516
 20
105.5803117832
 30
0.0
 10
120.0178315699
 20
105.5904979274
 30
0.0
 10
120.0251717857
 20
105.5941674468
 30
0.0
  0
SPLINE
  5
355
100
AcDbEntity
  8
290160210
100
AcDbSpline
 62
250
  6
CONTINUOUS
 70
0
 71
3
 72
10
 73
6
 74
0
 42
0.0000001
 43
0.0000001
 44
0.0000000001
 40
0.0
 40
0.0
 40
0.0
 40
0.0
 40
0.1855483381
 40
0.5327603681
 40
1.0
 40
1.0
 40
1.0
 40
1.0
 10
102.2657724188
 20
101.5237008007
 30
0.0
 10
102.264822341
 20
101.515046813
 30
0.0
 10
102.2693344384
 20
101.48927532
 30
0.0
 10
102.3015723045
 20
101.4525825765
 30
0.0
 10
102.3343850554
 20
101.4326921935
 30
0.0
 10
102.3540007826
 20
101.4229022898
 30
0.0
  0
SPLINE
  5
356
100
AcDbEntity
  8
290160210
100
AcDbSpline
 62
250
  6
CONTINUOUS
 70
0
 71
3
 72
9
 73
5
 74
0
 42
0.0000001
 43
0.0000001
 44
0.0000000001
 40
0.0
 40
0.0
 40
0.0
 40
0.0
 40
0.4727924626
 40
1.0
 40
1.0
 40
1.0
 40
1.0
 10
102.9614431703
 20
102.5507870371
 30
0.0
 10
102.981262932
 20
102.5593052408
 30
0.0
 10
103.028420536
 20
102.5662430861
 30
0.0
 10
103.0731819102
 20
102.5522911224
 30
0.0
 10
103.094831624
 20
102.5418048546
 30
0.0
  0
SPLINE
  5
357
100
AcDbEntity
  8
290160210
100
AcDbSpline
 62
250
  6
CONTINUOUS
 70
0
 71
3
 72
11
 73
7
 74
0
 42
0.0000001
 43
0.0000001
 44
0.0000000001
 40
0.0
 40
0.0
 40
0.0
 40
0.0
 40
0.2127782469
 40
0.4451704448
 40
0.7069808949
 40
1.0
 40
1.0
 40
1.0
 40
1.0
 10
100.1652141022
 20
71.3084993262
 30
0.0
 10
100.1237530337
 20
71.3314737336
 30
0.0
 10
100.0461643838
 20
71.3975262609
 30
0.0
 10
99.9674143292
 20
71.5366960481
 30
0.0
 10
99.9247608173
 20
71.7084956537
 30
0.0
 10
99.9210504766
 20
71.8329149791
 30
0.0
 10
99.9244983626
 20
71.8981000972
 30
0.0
  0
SPLINE
  5
358
100
AcDbEntity
  8
290160210
100
AcDbSpline
 62
250
  6
CONTINUOUS
 70
0
 71
3
 72
11
 73
7
 74
0
 42
0.0000001
 43
0.0000001
 44
0.0000000001
 40
0.0
 40
0.0
 40
0.0
 40
0.0
 40
0.2857591981
 40
0.5457224967
 40
0.7805108269
 40
1.0
 40
1.0
 40
1.0
 40
1.0
 10
117.5168195978
 20
63.0779409742
 30
0.0
 10
117.5144838168
 20
63.056515193
 30
0.0
 10
117.5061143772
 20
63.0158554702
 30
0.0
 10
117.4811184583
 20
62.9618510993
 30
0.0
 10
117.4449054212
 20
62.9207666616
 30
0.0
 10
117.4139484515
 20
62.9040637574
 30
0.0
 10
117.398153527
 20
62.8991068849
 30
0.0
  0
SPLINE
  5
359
100
AcDbEntity
  8
290160210
100
AcDbSpline
 62
250
  6
CONTINUOUS
 70
0
 71
3
 72
9
 73
5
 74
0
 42
0.0000001
 43
0.0000001
 44
0.0000000001
 40
0.0
 40
0.0
 40
0.0
 40
0.0
 40
0.2473920479
 40
1.0
 40
1.0
 40
1.0
 40
1.0
 10
99.9244983626
 20
71.8981000972
 30
0.0
 10
100.0541248563
 20
74.3378101114
 30
0.0
 10
100.6509423269
 20
84.195551237
 30
0.0
 10
101.5356462666
 20
94.0356128677
 30
0.0
 10
102.353989225
 20
101.4228985565
 30
0.0
  0
SPLINE
  5
35A
100
AcDbEntity
  8
290160210
100
AcDbSpline
 62
250
  6
CONTINUOUS
 70
0
 71
3
 72
9
 73
5
 74
0
 42
0.0000001
 43
0.0000001
 44
0.0000000001
 40
0.0
 40
0.0
 40
0.0
 40
0.0
 40
0.2508385694
 40
1.0
 40
1.0
 40
1.0
 40
1.0
 10
119.5112550863
 20
93.0138835763
 30
0.0
 10
119.4144166838
 20
92.1483820648
 30
0.0
 10
119.0370582614
 20
88.6969822982
 30
0.0
 10
118.694614432
 20
85.2417614553
 30
0.0
 10
118.458109861
 20
82.6514755009
 30
0.0
  0
SPLINE
  5
35B
100
AcDbEntity
  8
290160210
100
AcDbSpline
 62
250
  6
CONTINUOUS
 70
0
 71
3
 72
9
 73
5
 74
0
 42
0.0000001
 43
0.0000001
 44
0.0000000001
 40
0.0
 40
0.0
 40
0.0
 40
0.0
 40
0.2516703426
 40
1.0
 40
1.0
 40
1.0
 40
1.0
 10
118.458109861
 20
82.6514755009
 30
0.0
 10
118.3117205297
 20
81.0481651419
 30
0.0
 10
117.7605565093
 20
74.674746176
 30
0.0
 10
117.3322130816
 20
68.2906564588
 30
0.0
 10
117.0834791586
 20
63.5099261513
 30
0.0
  0
SPLINE
  5
35C
100
AcDbEntity
  8
290160210
100
AcDbSpline
 62
250
  6
CONTINUOUS
 70
0
 71
3
 72
9
 73
5
 74
0
 42
0.0000001
 43
0.0000001
 44
0.0000000001
 40
0.0
 40
0.0
 40
0.0
 40
0.0
 40
0.2521960601
 40
1.0
 40
1.0
 40
1.0
 40
1.0
 10
118.6645488613
 20
89.0866573755
 30
0.0
 10
118.4414709802
 20
86.9429804221
 30
0.0
 10
117.6104683039
 20
78.437472013
 30
0.0
 10
116.9954425295
 20
69.9107099279
 30
0.0
 10
116.663391746
 20
63.5286534055
 30
0.0
  0
SPLINE
  5
35D
100
AcDbEntity
  8
290160210
100
AcDbSpline
 62
250
  6
CONTINUOUS
 70
0
 71
3
 72
11
 73
7
 74
0
 42
0.0000001
 43
0.0000001
 44
0.0000000001
 40
0.0
 40
0.0
 40
0.0
 40
0.0
 40
0.2288043563
 40
0.4931500572
 40
0.7611373959
 40
1.0
 40
1.0
 40
1.0
 40
1.0
 10
119.5112550863
 20
93.0138835763
 30
0.0
 10
119.4800777721
 20
93.0042532622
 30
0.0
 10
119.4098574186
 20
92.9935179423
 30
0.0
 10
119.3009737811
 20
92.9956251822
 30
0.0
 10
119.1922091284
 20
93.014331523
 30
0.0
 10
119.1233403276
 20
93.0381951457
 30
0.0
 10
119.0928826114
 20
93.0534518657
 30
0.0
  0
SPLINE
  5
35E
100
AcDbEntity
  8
290160210
100
AcDbSpline
 62
250
  6
CONTINUOUS
 70
0
 71
3
 72
11
 73
7
 74
0
 42
0.0000001
 43
0.0000001
 44
0.0000000001
 40
0.0
 40
0.0
 40
0.0
 40
0.0
 40
0.1975117978
 40
0.4217110929
 40
0.6885145041
 40
1.0
 40
1.0
 40
1.0
 40
1.0
 10
99.8365917633
 20
72.0027068832
 30
0.0
 10
99.8360856023
 20
71.9932624017
 30
0.0
 10
99.8398770807
 20
71.9726840604
 30
0.0
 10
99.8581217071
 20
71.9445387337
 30
0.0
 10
99.8871940118
 20
71.918928906
 30
0.0
 10
99.9111619348
 20
71.9047799088
 30
0.0
 10
99.9244983646
 20
71.8981000981
 30
0.0
  0
SPLINE
  5
35F
100
AcDbEntity
  8
290160210
100
AcDbSpline
 62
250
  6
CONTINUOUS
 70
0
 71
3
 72
11
 73
7
 74
0
 42
0.0000001
 43
0.0000001
 44
0.0000000001
 40
0.0
 40
0.0
 40
0.0
 40
0.0
 40
0.2513716055
 40
0.5170593731
 40
0.7733657606
 40
1.0
 40
1.0
 40
1.0
 40
1.0
 10
120.0440088745
 20
93.7900359305
 30
0.0
 10
120.04603508
 20
93.8268622559
 30
0.0
 10
120.0379010218
 20
93.9034622443
 30
0.0
 10
119.9981562673
 20
94.0108546971
 30
0.0
 10
119.9359117002
 20
94.1026432023
 30
0.0
 10
119.8799367328
 20
94.148773817
 30
0.0
 10
119.8503886666
 20
94.1640263348
 30
0.0
  0
SPLINE
  5
360
100
AcDbEntity
  8
290160210
100
AcDbSpline
 62
250
  6
CONTINUOUS
 70
0
 71
3
 72
11
 73
7
 74
0
 42
0.0000001
 43
0.0000001
 44
0.0000000001
 40
0.0
 40
0.0
 40
0.0
 40
0.0
 40
0.223697688
 40
0.4778686095
 40
0.7440837378
 40
1.0
 40
1.0
 40
1.0
 40
1.0
 10
119.8503886649
 20
94.1640263341
 30
0.0
 10
119.753733455
 20
94.1250340239
 30
0.0
 10
119.5644459424
 20
93.9988455371
 30
0.0
 10
119.3366315324
 20
93.7335549556
 30
0.0
 10
119.1677395786
 20
93.4104093591
 30
0.0
 10
119.1061262328
 20
93.1719491208
 30
0.0
 10
119.0928826084
 20
93.0534518648
 30
0.0
  0
SPLINE
  5
361
100
AcDbEntity
  8
290160210
100
AcDbSpline
 62
250
  6
CONTINUOUS
 70
0
 71
3
 72
11
 73
7
 74
0
 42
0.0000001
 43
0.0000001
 44
0.0000000001
 40
0.0
 40
0.0
 40
0.0
 40
0.0
 40
0.2496566547
 40
0.5104486526
 40
0.765717733
 40
1.0
 40
1.0
 40
1.0
 40
1.0
 10
102.353989225
 20
101.4228985565
 30
0.0
 10
102.3652222148
 20
101.524113129
 30
0.0
 10
102.4128926124
 20
101.7286916063
 30
0.0
 10
102.5419241117
 20
102.0150858417
 30
0.0
 10
102.7190009813
 20
102.2669339173
 30
0.0
 10
102.8671890111
 20
102.4042129691
 30
0.0
 10
102.9457791133
 20
102.4585840187
 30
0.0
  0
SPLINE
  5
362
100
AcDbEntity
  8
290160210
100
AcDbSpline
 62
250
  6
CONTINUOUS
 70
0
 71
3
 72
9
 73
5
 74
0
 42
0.0000001
 43
0.0000001
 44
0.0000000001
 40
0.0
 40
0.0
 40
0.0
 40
0.0
 40
0.2601016582
 40
1.0
 40
1.0
 40
1.0
 40
1.0
 10
102.9457791133
 20
102.4585840187
 30
0.0
 10
102.9579622446
 20
102.4670126837
 30
0.0
 10
103.0055246976
 20
102.4983444233
 30
0.0
 10
103.0560581799
 20
102.5252946099
 30
0.0
 10
103.094831624
 20
102.5418048546
 30
0.0
  0
SPLINE
  5
363
100
AcDbEntity
  8
290160210
100
AcDbSpline
 62
250
  6
CONTINUOUS
 70
0
 71
3
 72
11
 73
7
 74
0
 42
0.0000001
 43
0.0000001
 44
0.0000000001
 40
0.0
 40
0.0
 40
0.0
 40
0.0
 40
0.2240782076
 40
0.4782896862
 40
0.7443223902
 40
1.0
 40
1.0
 40
1.0
 40
1.0
 10
120.0440088745
 20
93.7900359305
 30
0.0
 10
119.976078081
 20
93.7629391809
 30
0.0
 10
119.8429668024
 20
93.6750572881
 30
0.0
 10
119.6826470229
 20
93.4897040784
 30
0.0
 10
119.5638386147
 20
93.2637093777
 30
0.0
 10
119.5205407618
 20
93.0968145729
 30
0.0
 10
119.5112550863
 20
93.0138835763
 30
0.0
  0
SPLINE
  5
364
100
AcDbEntity
  8
290160210
100
AcDbSpline
 62
250
  6
CONTINUOUS
 70
0
 71
3
 72
14
 73
10
 74
0
 42
0.0000001
 43
0.0000001
 44
0.0000000001
 40
0.0
 40
0.0
 40
0.0
 40
0.0
 40
0.2901407189
 40
0.4175042817
 40
0.5347867927
 40
0.6461193799
 40
0.7571665216
 40
0.8737009814
 40
1.0
 40
1.0
 40
1.0
 40
1.0
 10
117.0834791586
 20
63.5099261513
 30
0.0
 10
117.0797769729
 20
63.4385495134
 30
0.0
 10
117.0880568308
 20
63.3331585084
 30
0.0
 10
117.1389032879
 20
63.2105603122
 30
0.0
 10
117.1918745834
 20
63.1393360787
 30
0.0
 10
117.2598270221
 20
63.0883835479
 30
0.0
 10
117.3398443275
 20
63.0603904677
 30
0.0
 10
117.4279720371
 20
63.056346665
 30
0.0
 10
117.4871313211
 20
63.0686363772
 30
0.0
 10
117.5168195978
 20
63.0779409742
 30
0.0
  0
SPLINE
  5
365
100
AcDbEntity
  8
290160210
100
AcDbSpline
 62
250
  6
CONTINUOUS
 70
0
 71
3
 72
11
 73
7
 74
0
 42
0.0000001
 43
0.0000001
 44
0.0000000001
 40
0.0
 40
0.0
 40
0.0
 40
0.0
 40
0.2913410868
 40
0.5519881584
 40
0.7845826974
 40
1.0
 40
1.0
 40
1.0
 40
1.0
 10
116.663391746
 20
63.5286534055
 30
0.0
 10
116.6599007678
 20
63.4616667707
 30
0.0
 10
116.6643911127
 20
63.3336569868
 30
0.0
 10
116.7113552699
 20
63.1572811542
 30
0.0
 10
116.7974680062
 20
63.0154764135
 30
0.0
 10
116.8811022043
 20
62.9502162399
 30
0.0
 10
116.9254518753
 20
62.9280131906
 30
0.0
  0
SPLINE
  5
366
100
AcDbEntity
  8
290160210
100
AcDbSpline
 62
250
  6
CONTINUOUS
 70
0
 71
3
 72
11
 73
7
 74
0
 42
0.0000001
 43
0.0000001
 44
0.0000000001
 40
0.0
 40
0.0
 40
0.0
 40
0.0
 40
0.2329921278
 40
0.4975227005
 40
0.7633776451
 40
1.0
 40
1.0
 40
1.0
 40
1.0
 10
117.0834791585
 20
63.5099261513
 30
0.0
 10
117.0525042109
 20
63.4974370961
 30
0.0
 10
116.9822602741
 20
63.4810398686
 30
0.0
 10
116.8724508845
 20
63.4766529882
 30
0.0
 10
116.7629505586
 20
63.4909138576
 30
0.0
 10
116.6937482443
 20
63.5135093133
 30
0.0
 10
116.6634002292
 20
63.528656962
 30
0.0
  0
SPLINE
  5
367
100
AcDbEntity
  8
268160210
100
AcDbSpline
 62
7
  6
CONTINUOUS
 70
0
 71
3
 72
9
 73
5
 74
0
 42
0.0000001
 43
0.0000001
 44
0.0000000001
 40
0.0
 40
0.0
 40
0.0
 40
0.0
 40
0.2461412166
 40
1.0
 40
1.0
 40
1.0
 40
1.0
 10
127.6140500142
 20
107.8897026012
 30
0.0
 10
127.637797792
 20
107.8861466352
 30
0.0
 10
127.7335665164
 20
107.8669506222
 30
0.0
 10
127.8255043826
 20
107.8310814739
 30
0.0
 10
127.8912834615
 20
107.7981916028
 30
0.0
  0
SPLINE
  5
368
100
AcDbEntity
  8
268160210
100
AcDbSpline
 62
7
  6
CONTINUOUS
 70
0
 71
3
 72
13
 73
9
 74
0
 42
0.0000001
 43
0.0000001
 44
0.0000000001
 40
0.0
 40
0.0
 40
0.0
 40
0.0
 40
0.3015780643
 40
0.4377189214
 40
0.5643412658
 40
0.7922023709
 40
0.8975093982
 40
1.0
 40
1.0
 40
1.0
 40
1.0
 10
110.8229611984
 20
108.5975869552
 30
0.0
 10
110.7880995931
 20
108.5798492416
 30
0.0
 10
110.7391281233
 20
108.5503422307
 30
0.0
 10
110.6829399018
 20
108.5031956825
 30
0.0
 10
110.6392238574
 20
108.4568631348
 30
0.0
 10
110.6069619849
 20
108.4053254349
 30
0.0
 10
110.590784779
 20
108.3508894152
 30
0.0
 10
110.5881204413
 20
108.3238665691
 30
0.0
 10
110.5881208677
 20
108.3105735371
 30
0.0
  0
SPLINE
  5
369
100
AcDbEntity
  8
268160210
100
AcDbSpline
 62
7
  6
CONTINUOUS
 70
0
 71
3
 72
13
 73
9
 74
0
 42
0.0000001
 43
0.0000001
 44
0.0000000001
 40
0.0
 40
0.0
 40
0.0
 40
0.0
 40
0.3015780643
 40
0.4377189214
 40
0.5643412658
 40
0.7922023709
 40
0.8975093982
 40
1.0
 40
1.0
 40
1.0
 40
1.0
 10
120.8638774913
 20
103.5771288088
 30
0.0
 10
120.8290158859
 20
103.5593910951
 30
0.0
 10
120.7800444162
 20
103.5298840842
 30
0.0
 10
120.7238561946
 20
103.4827375361
 30
0.0
 10
120.6801401503
 20
103.4364049884
 30
0.0
 10
120.6478782777
 20
103.3848672885
 30
0.0
 10
120.6317010718
 20
103.3304312688
 30
0.0
 10
120.6290367341
 20
103.3034084227
 30
0.0
 10
120.6290371605
 20
103.2901153907
 30
0.0
  0
SPLINE
  5
36A
100
AcDbEntity
  8
268160210
100
AcDbSpline
 62
7
  6
CONTINUOUS
 70
0
 71
3
 72
13
 73
9
 74
0
 42
0.0000001
 43
0.0000001
 44
0.0000000001
 40
0.0
 40
0.0
 40
0.0
 40
0.0
 40
0.1133878589
 40
0.2368531878
 40
0.501247003
 40
0.7649676169
 40
0.887638438
 40
1.0
 40
1.0
 40
1.0
 40
1.0
 10
122.2258550574
 20
96.1670958737
 30
0.0
 10
122.2135949033
 20
96.1611761271
 30
0.0
 10
122.1869914043
 20
96.1508226431
 30
0.0
 10
122.128549772
 20
96.1360005274
 30
0.0
 10
122.0500792054
 20
96.1290782376
 30
0.0
 10
121.9717569557
 20
96.1366551361
 30
0.0
 10
121.9137571094
 20
96.151997365
 30
0.0
 10
121.8874807359
 20
96.162591518
 30
0.0
 10
121.8754137695
 20
96.1686250011
 30
0.0
  0
SPLINE
  5
36B
100
AcDbEntity
  8
268160210
100
AcDbSpline
 62
7
  6
CONTINUOUS
 70
0
 71
3
 72
11
 73
7
 74
0
 42
0.0000001
 43
0.0000001
 44
0.0000000001
 40
0.0
 40
0.0
 40
0.0
 40
0.0
 40
0.3025823406
 40
0.565482986
 40
0.7934328049
 40
1.0
 40
1.0
 40
1.0
 40
1.0
 10
104.8717404671
 20
104.6704616524
 30
0.0
 10
104.8608858163
 20
104.6758889777
 30
0.0
 10
104.841267314
 20
104.687528637
 30
0.0
 10
104.8174560281
 20
104.7090492523
 30
0.0
 10
104.8021768585
 20
104.7330036762
 30
0.0
 10
104.798517931
 20
104.750565074
 30
0.0
 10
104.7985177495
 20
104.75885
 30
0.0
  0
SPLINE
  5
36C
100
AcDbEntity
  8
268160210
100
AcDbSpline
 62
7
  6
CONTINUOUS
 70
0
 71
3
 72
14
 73
10
 74
0
 42
0.0000001
 43
0.0000001
 44
0.0000000001
 40
0.0
 40
0.0
 40
0.0
 40
0.0
 40
0.0275249904
 40
0.0796770526
 40
0.1588065191
 40
0.2662685992
 40
0.4031948772
 40
0.5705711927
 40
1.0
 40
1.0
 40
1.0
 40
1.0
 10
121.7981982378
 20
110.8444477482
 30
0.0
 10
121.7981982297
 20
110.8440345937
 30
0.0
 10
121.7975095699
 20
110.8429476189
 30
0.0
 10
121.7960231105
 20
110.8411572921
 30
0.0
 10
121.7934715276
 20
110.8385949621
 30
0.0
 10
121.7899269361
 20
110.8352939575
 30
0.0
 10
121.7852945677
 20
110.8311941089
 30
0.0
 10
121.7769382682
 20
110.8240234073
 30
0.0
 10
121.7700496821
 20
110.8182942192
 30
0.0
 10
121.7650823536
 20
110.8141864316
 30
0.0
  0
SPLINE
  5
36D
100
AcDbEntity
  8
268160210
100
AcDbSpline
 62
7
  6
CONTINUOUS
 70
0
 71
3
 72
21
 73
17
 74
0
 42
0.0000001
 43
0.0000001
 44
0.0000000001
 40
0.0
 40
0.0
 40
0.0
 40
0.0
 40
0.0382674497
 40
0.0788533288
 40
0.1235434994
 40
0.1733881555
 40
0.2287720151
 40
0.2895672601
 40
0.3552692877
 40
0.4251007637
 40
0.5730167349
 40
0.7243539366
 40
0.7983275125
 40
0.8695887947
 40
0.9371002409
 40
1.0
 40
1.0
 40
1.0
 40
1.0
 10
110.5881208677
 20
108.3105735371
 30
0.0
 10
110.5881215146
 20
108.2904047011
 30
0.0
 10
110.594456245
 20
108.2486252339
 30
0.0
 10
110.6220089974
 20
108.1888657144
 30
0.0
 10
110.6663675634
 20
108.1324755117
 30
0.0
 10
110.7262557691
 20
108.0803730448
 30
0.0
 10
110.8003742276
 20
108.0333602576
 30
0.0
 10
110.8872144491
 20
107.9922908369
 30
0.0
 10
110.9850036128
 20
107.9579619978
 30
0.0
 10
111.1300385539
 20
107.9214556652
 30
0.0
 10
111.323911325
 20
107.8975165879
 30
0.0
 10
111.5213043612
 20
107.9016128291
 30
0.0
 10
111.676370356
 20
107.9223104096
 30
0.0
 10
111.7861179879
 20
107.9459397142
 30
0.0
 10
111.8878313832
 20
107.9772609602
 30
0.0
 10
111.9513683338
 20
108.0038871425
 30
0.0
 10
111.9811219887
 20
108.0185065601
 30
0.0
  0
SPLINE
  5
36E
100
AcDbEntity
  8
268160210
100
AcDbSpline
 62
7
  6
CONTINUOUS
 70
0
 71
3
 72
21
 73
17
 74
0
 42
0.0000001
 43
0.0000001
 44
0.0000000001
 40
0.0
 40
0.0
 40
0.0
 40
0.0
 40
0.0382674497
 40
0.0788533288
 40
0.1235434994
 40
0.1733881555
 40
0.2287720151
 40
0.2895672601
 40
0.3552692877
 40
0.4251007637
 40
0.5730167349
 40
0.7243539366
 40
0.7983275125
 40
0.8695887947
 40
0.9371002409
 40
1.0
 40
1.0
 40
1.0
 40
1.0
 10
120.6290371605
 20
103.2901153907
 30
0.0
 10
120.6290378075
 20
103.2699465546
 30
0.0
 10
120.6353725379
 20
103.2281670875
 30
0.0
 10
120.6629252903
 20
103.168407568
 30
0.0
 10
120.7072838562
 20
103.1120173652
 30
0.0
 10
120.767172062
 20
103.0599148984
 30
0.0
 10
120.8412905204
 20
103.0129021112
 30
0.0
 10
120.9281307419
 20
102.9718326905
 30
0.0
 10
121.0259199056
 20
102.9375038513
 30
0.0
 10
121.1709548468
 20
102.9009975187
 30
0.0
 10
121.3648276178
 20
102.8770584415
 30
0.0
 10
121.562220654
 20
102.8811546827
 30
0.0
 10
121.7172866489
 20
102.9018522632
 30
0.0
 10
121.8270342807
 20
102.9254815678
 30
0.0
 10
121.928747676
 20
102.9568028138
 30
0.0
 10
121.9922846266
 20
102.983428996
 30
0.0
 10
122.0220382815
 20
102.9980484137
 30
0.0
  0
SPLINE
  5
36F
100
AcDbEntity
  8
268160210
100
AcDbSpline
 62
7
  6
CONTINUOUS
 70
0
 71
3
 72
9
 73
5
 74
0
 42
0.0000001
 43
0.0000001
 44
0.0000000001
 40
0.0
 40
0.0
 40
0.0
 40
0.0
 40
0.505566678
 40
1.0
 40
1.0
 40
1.0
 40
1.0
 10
125.6080733967
 20
62.2106721051
 30
0.0
 10
125.6784738178
 20
62.2439236728
 30
0.0
 10
125.8096244276
 20
62.3273122622
 30
0.0
 10
125.9230593119
 20
62.43246652
 30
0.0
 10
125.9747274825
 20
62.4883972073
 30
0.0
  0
SPLINE
  5
370
100
AcDbEntity
  8
268160210
100
AcDbSpline
 62
250
  6
CONTINUOUS
 70
0
 71
3
 72
11
 73
7
 74
0
 42
0.0000001
 43
0.0000001
 44
0.0000000001
 40
0.0
 40
0.0
 40
0.0
 40
0.0
 40
0.227039163
 40
0.4645980686
 40
0.720741422
 40
1.0
 40
1.0
 40
1.0
 40
1.0
 10
104.9316781187
 20
107.8667510681
 30
0.0
 10
104.939675577
 20
107.8709789976
 30
0.0
 10
104.9573843898
 20
107.8772921839
 30
0.0
 10
104.9863362503
 20
107.8792791441
 30
0.0
 10
105.0169324436
 20
107.8740515164
 30
0.0
 10
105.0369537797
 20
107.866297662
 30
0.0
 10
105.0469745142
 20
107.861461031
 30
0.0
  0
SPLINE
  5
371
100
AcDbEntity
  8
268160210
100
AcDbSpline
 62
250
  6
CONTINUOUS
 70
0
 71
3
 72
11
 73
7
 74
0
 42
0.0000001
 43
0.0000001
 44
0.0000000001
 40
0.0
 40
0.0
 40
0.0
 40
0.0
 40
0.2065678725
 40
0.434517721
 40
0.6974186219
 40
1.0
 40
1.0
 40
1.0
 40
1.0
 10
104.7985171805
 20
107.6457339179
 30
0.0
 10
104.7985169703
 20
107.6374489718
 30
0.0
 10
104.8021769005
 20
107.6198876041
 30
0.0
 10
104.8174560763
 20
107.5959334049
 30
0.0
 10
104.8412674652
 20
107.5744129055
 30
0.0
 10
104.8608858602
 20
107.5627732038
 30
0.0
 10
104.8717404671
 20
107.5573459004
 30
0.0
  0
SPLINE
  5
372
100
AcDbEntity
  8
268160210
100
AcDbSpline
 62
250
  6
CONTINUOUS
 70
0
 71
3
 72
11
 73
7
 74
0
 42
0.0000001
 43
0.0000001
 44
0.0000000001
 40
0.0
 40
0.0
 40
0.0
 40
0.0
 40
0.2156427303
 40
0.4482643165
 40
0.7086533831
 40
1.0
 40
1.0
 40
1.0
 40
1.0
 10
125.9078585241
 20
61.0071334624
 30
0.0
 10
125.9182135085
 20
61.012027238
 30
0.0
 10
125.9379116085
 20
61.0264956386
 30
0.0
 10
125.9590911661
 20
61.0583229135
 30
0.0
 10
125.9719217128
 20
61.0983870051
 30
0.0
 10
125.9746157273
 20
61.1277836839
 30
0.0
 10
125.9747274825
 20
61.1432571975
 30
0.0
  0
SPLINE
  5
373
100
AcDbEntity
  8
268160210
100
AcDbSpline
 62
250
  6
CONTINUOUS
 70
0
 71
3
 72
22
 73
18
 74
0
 42
0.0000001
 43
0.0000001
 44
0.0000000001
 40
0.0
 40
0.0
 40
0.0
 40
0.0
 40
0.0630545762
 40
0.1307031988
 40
0.2020771663
 40
0.2761368197
 40
0.4275732952
 40
0.5026281547
 40
0.5756177123
 40
0.6454384046
 40
0.7111189197
 40
0.7718811258
 40
0.827216328
 40
0.8769871052
 40
0.9215633056
 40
0.96197682
 40
1.0
 40
1.0
 40
1.0
 40
1.0
 10
125.9747274825
 20
61.1432571975
 30
0.0
 10
125.9392253856
 20
61.126392805
 30
0.0
 10
125.8635382522
 20
61.0957568231
 30
0.0
 10
125.742617583
 20
61.0599314198
 30
0.0
 10
125.6123589867
 20
61.0331655378
 30
0.0
 10
125.4286070658
 20
61.0101911547
 30
0.0
 10
125.2404858933
 20
61.0075497115
 30
0.0
 10
125.0545090364
 20
61.0250660441
 30
0.0
 10
124.9205077065
 20
61.0479955488
 30
0.0
 10
124.7944542902
 20
61.0802443498
 30
0.0
 10
124.6789578521
 20
61.1211460508
 30
0.0
 10
124.5763977698
 20
61.1698633364
 30
0.0
 10
124.4888517938
 20
61.2254490601
 30
0.0
 10
124.418082742
 20
61.2869014605
 30
0.0
 10
124.3656059269
 20
61.3532831188
 30
0.0
 10
124.3329078861
 20
61.4235329512
 30
0.0
 10
124.3252635765
 20
61.4726569687
 30
0.0
 10
124.3251879573
 20
61.4963579689
 30
0.0
  0
SPLINE
  5
374
100
AcDbEntity
  8
268160210
100
AcDbSpline
 62
250
  6
CONTINUOUS
 70
0
 71
3
 72
11
 73
7
 74
0
 42
0.0000001
 43
0.0000001
 44
0.0000000001
 40
0.0
 40
0.0
 40
0.0
 40
0.0
 40
0.2796523606
 40
0.5358864062
 40
0.7732721154
 40
1.0
 40
1.0
 40
1.0
 40
1.0
 10
124.7810715578
 20
103.0680030156
 30
0.0
 10
124.7712033369
 20
103.0728508464
 30
0.0
 10
124.7514878367
 20
103.0806536818
 30
0.0
 10
124.721328087
 20
103.086052987
 30
0.0
 10
124.6927609963
 20
103.0843203516
 30
0.0
 10
124.6752582828
 20
103.0782278612
 30
0.0
 10
124.6673483251
 20
103.0741180167
 30
0.0
  0
SPLINE
  5
375
100
AcDbEntity
  8
268160210
100
AcDbSpline
 62
250
  6
CONTINUOUS
 70
0
 71
3
 72
27
 73
23
 74
0
 42
0.0000001
 43
0.0000001
 44
0.0000000001
 40
0.0
 40
0.0
 40
0.0
 40
0.0
 40
0.0600396775
 40
0.0871822083
 40
0.1124537085
 40
0.158004914
 40
0.1790824171
 40
0.1996008121
 40
0.2201108861
 40
0.2411643904
 40
0.2866309866
 40
0.3118490453
 40
0.3389363827
 40
0.3988627273
 40
0.4661840629
 40
0.539725462
 40
0.6177545481
 40
0.6981962977
 40
0.7788071842
 40
0.8573322892
 40
0.9316609141
 40
1.0
 40
1.0
 40
1.0
 40
1.0
 10
124.7810715578
 20
103.0680030156
 30
0.0
 10
124.7501691399
 20
103.0519456321
 30
0.0
 10
124.7067838281
 20
103.0252719754
 30
0.0
 10
124.6570989227
 20
102.9828019103
 30
0.0
 10
124.6184374939
 20
102.9410739809
 30
0.0
 10
124.590003139
 20
102.8947755376
 30
0.0
 10
124.575855924
 20
102.8459731973
 30
0.0
 10
124.5724793094
 20
102.8098800502
 30
0.0
 10
124.5761634107
 20
102.7738306604
 30
0.0
 10
124.590723519
 20
102.725219868
 30
0.0
 10
124.6195596788
 20
102.6792739337
 30
0.0
 10
124.658582387
 20
102.6380399653
 30
0.0
 10
124.7086506114
 20
102.5962031776
 30
0.0
 10
124.7859014896
 20
102.549928225
 30
0.0
 10
124.894150028
 20
102.5060422687
 30
0.0
 10
125.0171793037
 20
102.4734890778
 30
0.0
 10
125.1504994432
 20
102.45345877
 30
0.0
 10
125.2892353618
 20
102.4466915839
 30
0.0
 10
125.4282552136
 20
102.4534408881
 30
0.0
 10
125.5624354474
 20
102.4734593875
 30
0.0
 10
125.6868051488
 20
102.5059827273
 30
0.0
 10
125.7639713477
 20
102.5367306889
 30
0.0
 10
125.7995202418
 20
102.5542676448
 30
0.0
  0
SPLINE
  5
376
100
AcDbEntity
  8
268160210
100
AcDbSpline
 62
250
  6
CONTINUOUS
 70
0
 71
3
 72
11
 73
7
 74
0
 42
0.0000001
 43
0.0000001
 44
0.0000000001
 40
0.0
 40
0.0
 40
0.0
 40
0.0
 40
0.2287063078
 40
0.4874233026
 40
0.7530110039
 40
1.0
 40
1.0
 40
1.0
 40
1.0
 10
125.7995202418
 20
102.5542676448
 30
0.0
 10
125.824312407
 20
102.5414264526
 30
0.0
 10
125.8716219834
 20
102.5033693763
 30
0.0
 10
125.9263288329
 20
102.4285607361
 30
0.0
 10
125.9638295601
 20
102.3413698948
 30
0.0
 10
125.9745081881
 20
102.2787749141
 30
0.0
 10
125.9747274825
 20
102.2486233868
 30
0.0
  0
SPLINE
  5
377
100
AcDbEntity
  8
268160210
100
AcDbSpline
 62
250
  6
CONTINUOUS
 70
0
 71
3
 72
11
 73
7
 74
0
 42
0.0000001
 43
0.0000001
 44
0.0000000001
 40
0.0
 40
0.0
 40
0.0
 40
0.0
 40
0.279252653
 40
0.5354047149
 40
0.7729603591
 40
1.0
 40
1.0
 40
1.0
 40
1.0
 10
108.6672185333
 20
111.1204184991
 30
0.0
 10
108.6571979964
 20
111.1252550347
 30
0.0
 10
108.6371764791
 20
111.1330086695
 30
0.0
 10
108.6065803599
 20
111.1382371305
 30
0.0
 10
108.5776282385
 20
111.1362497312
 30
0.0
 10
108.5599194412
 20
111.1299368277
 30
0.0
 10
108.5519219481
 20
111.1257088945
 30
0.0
  0
SPLINE
  5
378
100
AcDbEntity
  8
268160210
100
AcDbSpline
 62
250
  6
CONTINUOUS
 70
0
 71
3
 72
26
 73
22
 74
0
 42
0.0000001
 43
0.0000001
 44
0.0000000001
 40
0.0
 40
0.0
 40
0.0
 40
0.0
 40
0.0596959236
 40
0.0866677303
 40
0.1117789454
 40
0.1570768095
 40
0.1780838944
 40
0.1985795032
 40
0.2191171842
 40
0.2402456423
 40
0.2859732256
 40
0.3385264594
 40
0.3988014412
 40
0.4664347963
 40
0.5402209459
 40
0.61840791
 40
0.6989094888
 40
0.779478245
 40
0.8578622602
 40
0.9319610432
 40
1.0
 40
1.0
 40
1.0
 40
1.0
 10
108.6672185333
 20
111.1204184991
 30
0.0
 10
108.6366086271
 20
111.1042358514
 30
0.0
 10
108.5936821977
 20
111.0773802822
 30
0.0
 10
108.5447115442
 20
111.0346825769
 30
0.0
 10
108.5067509442
 20
110.9927723605
 30
0.0
 10
108.4791064112
 20
110.9463074253
 30
0.0
 10
108.4658187112
 20
110.8974722244
 30
0.0
 10
108.4630734569
 20
110.8613640235
 30
0.0
 10
108.4673876317
 20
110.8253422815
 30
0.0
 10
108.482808537
 20
110.7767720885
 30
0.0
 10
108.5211317755
 20
110.7175992243
 30
0.0
 10
108.5902746369
 20
110.6558562486
 30
0.0
 10
108.6809126309
 20
110.6024634051
 30
0.0
 10
108.7899378793
 20
110.5590540501
 30
0.0
 10
108.9135191063
 20
110.5270403095
 30
0.0
 10
109.047191651
 20
110.5075918365
 30
0.0
 10
109.1860503091
 20
110.5014288994
 30
0.0
 10
109.324962192
 20
110.5087818599
 30
0.0
 10
109.4588073984
 20
110.5293810655
 30
0.0
 10
109.5826290643
 20
110.5624403847
 30
0.0
 10
109.6593237795
 20
110.5935393144
 30
0.0
 10
109.6945938652
 20
110.6112418619
 30
0.0
  0
SPLINE
  5
379
100
AcDbEntity
  8
268160210
100
AcDbSpline
 62
250
  6
CONTINUOUS
 70
0
 71
3
 72
11
 73
7
 74
0
 42
0.0000001
 43
0.0000001
 44
0.0000000001
 40
0.0
 40
0.0
 40
0.0
 40
0.0
 40
0.2293068725
 40
0.4880679153
 40
0.7533525373
 40
1.0
 40
1.0
 40
1.0
 40
1.0
 10
109.6945938652
 20
110.6112418619
 30
0.0
 10
109.7195668809
 20
110.5985331664
 30
0.0
 10
109.7672742288
 20
110.5607452381
 30
0.0
 10
109.822515634
 20
110.4861472939
 30
0.0
 10
109.8603770169
 20
110.3990774523
 30
0.0
 10
109.8711464503
 20
110.3364977178
 30
0.0
 10
109.8713638294
 20
110.3063587728
 30
0.0
  0
SPLINE
  5
37A
100
AcDbEntity
  8
268160210
100
AcDbSpline
 62
250
  6
CONTINUOUS
 70
0
 71
3
 72
22
 73
18
 74
0
 42
0.0000001
 43
0.0000001
 44
0.0000000001
 40
0.0
 40
0.0
 40
0.0
 40
0.0
 40
0.038492081
 40
0.0792198635
 40
0.1239522895
 40
0.1737449832
 40
0.2290000721
 40
0.2896115641
 40
0.355098612
 40
0.424707235
 40
0.4974870957
 40
0.5723529758
 40
0.7235331485
 40
0.7975552282
 40
0.8689659093
 40
0.9367346452
 40
1.0
 40
1.0
 40
1.0
 40
1.0
 10
124.3251867696
 20
102.5948220458
 30
0.0
 10
124.3251990167
 20
102.5707704385
 30
0.0
 10
124.332671347
 20
102.5210145183
 30
0.0
 10
124.3651744247
 20
102.4498170678
 30
0.0
 10
124.4175305129
 20
102.3826740225
 30
0.0
 10
124.4882332047
 20
102.3206888212
 30
0.0
 10
124.5757492106
 20
102.2648121705
 30
0.0
 10
124.6783069419
 20
102.2160469871
 30
0.0
 10
124.793824971
 20
102.1753375224
 30
0.0
 10
124.91992141
 20
102.1435148909
 30
0.0
 10
125.0539849496
 20
102.1212357551
 30
0.0
 10
125.2401149441
 20
102.1048649139
 30
0.0
 10
125.4283878687
 20
102.1090373344
 30
0.0
 10
125.6121968788
 20
102.133836831
 30
0.0
 10
125.7425524342
 20
102.1620853018
 30
0.0
 10
125.8635621219
 20
102.1994777408
 30
0.0
 10
125.9392378905
 20
102.231210879
 30
0.0
 10
125.9747274825
 20
102.2486233868
 30
0.0
  0
SPLINE
  5
37B
100
AcDbEntity
  8
268160210
100
AcDbSpline
 62
7
  6
CONTINUOUS
 70
0
 71
3
 72
12
 73
8
 74
0
 42
0.0000001
 43
0.0000001
 44
0.0000000001
 40
0.0
 40
0.0
 40
0.0
 40
0.0
 40
0.2068730769
 40
0.445148881
 40
0.7118323835
 40
0.8540288186
 40
1.0
 40
1.0
 40
1.0
 40
1.0
 10
125.9747274825
 20
100.903483377
 30
0.0
 10
125.9303986566
 20
100.9086613893
 30
0.0
 10
125.8354059509
 20
100.9230124089
 30
0.0
 10
125.6839261645
 20
100.9481038732
 30
0.0
 10
125.5456273279
 20
100.9677606198
 30
0.0
 10
125.4263260446
 20
100.9779649769
 30
0.0
 10
125.3640986093
 20
100.9795057451
 30
0.0
 10
125.3326155443
 20
100.9787805706
 30
0.0
  0
SPLINE
  5
37C
100
AcDbEntity
  8
268160210
100
AcDbSpline
 62
250
  6
CONTINUOUS
 70
0
 71
3
 72
22
 73
18
 74
0
 42
0.0000001
 43
0.0000001
 44
0.0000000001
 40
0.0
 40
0.0
 40
0.0
 40
0.0
 40
0.0384985066
 40
0.0792488244
 40
0.1240294559
 40
0.1738975286
 40
0.2292506748
 40
0.2899748027
 40
0.3555788941
 40
0.4252976967
 40
0.4981691162
 40
0.5730962858
 40
0.7242651389
 40
0.7981983693
 40
0.8694572143
 40
0.9370102021
 40
1.0
 40
1.0
 40
1.0
 40
1.0
 10
108.2157386071
 20
110.6495509216
 30
0.0
 10
108.2157506732
 20
110.6254083165
 30
0.0
 10
108.2232815966
 20
110.5754525556
 30
0.0
 10
108.2560329168
 20
110.5039985268
 30
0.0
 10
108.3087732598
 20
110.4366452995
 30
0.0
 10
108.379977579
 20
110.374504038
 30
0.0
 10
108.4680926835
 20
110.3185338209
 30
0.0
 10
108.5713226742
 20
110.2697471205
 30
0.0
 10
108.6875569976
 20
110.2290961079
 30
0.0
 10
108.8143810137
 20
110.1974174037
 30
0.0
 10
108.9491486862
 20
110.1753697689
 30
0.0
 10
109.136083356
 20
110.1594289798
 30
0.0
 10
109.3250063356
 20
110.1641684411
 30
0.0
 10
109.5092354856
 20
110.189694181
 30
0.0
 10
109.6396666904
 20
110.2185244774
 30
0.0
 10
109.7605454395
 20
110.2565295057
 30
0.0
 10
109.8360216824
 20
110.2887156698
 30
0.0
 10
109.8713638294
 20
110.3063587728
 30
0.0
  0
SPLINE
  5
37D
100
AcDbEntity
  8
268160210
100
AcDbSpline
 62
250
  6
CONTINUOUS
 70
0
 71
3
 72
11
 73
7
 74
0
 42
0.0000001
 43
0.0000001
 44
0.0000000001
 40
0.0
 40
0.0
 40
0.0
 40
0.0
 40
0.2913469377
 40
0.5517415897
 40
0.7843566238
 40
1.0
 40
1.0
 40
1.0
 40
1.0
 10
122.2258550574
 20
60.7176564434
 30
0.0
 10
122.2257432907
 20
60.7021813293
 30
0.0
 10
122.2230482588
 20
60.6727814198
 30
0.0
 10
122.2102161687
 20
60.6327132166
 30
0.0
 10
122.1890303247
 20
60.6008846492
 30
0.0
 10
122.1693275844
 20
60.5864193258
 30
0.0
 10
122.1589711473
 20
60.5815258008
 30
0.0
  0
SPLINE
  5
37E
100
AcDbEntity
  8
268160210
100
AcDbSpline
 62
7
  6
CONTINUOUS
 70
0
 71
3
 72
13
 73
9
 74
0
 42
0.0000001
 43
0.0000001
 44
0.0000000001
 40
0.0
 40
0.0
 40
0.0
 40
0.0
 40
0.112361562
 40
0.2350323831
 40
0.498752997
 40
0.7631468122
 40
0.8866121411
 40
1.0
 40
1.0
 40
1.0
 40
1.0
 10
121.8754137695
 20
63.6060698188
 30
0.0
 10
121.8874807359
 20
63.6000363357
 30
0.0
 10
121.9137571094
 20
63.5894421827
 30
0.0
 10
121.9717569557
 20
63.5740999538
 30
0.0
 10
122.0500792054
 20
63.5665230553
 30
0.0
 10
122.128549772
 20
63.5734453451
 30
0.0
 10
122.1869914043
 20
63.5882674608
 30
0.0
 10
122.2135949033
 20
63.5986209448
 30
0.0
 10
122.2258550574
 20
63.6045406914
 30
0.0
  0
SPLINE
  5
37F
100
AcDbEntity
  8
268160210
100
AcDbSpline
 62
250
  6
CONTINUOUS
 70
0
 71
3
 72
13
 73
9
 74
0
 42
0.0000001
 43
0.0000001
 44
0.0000000001
 40
0.0
 40
0.0
 40
0.0
 40
0.0
 40
0.1133884444
 40
0.2368535278
 40
0.5012472395
 40
0.7649676769
 40
0.8876382345
 40
1.0
 40
1.0
 40
1.0
 40
1.0
 10
122.2258550574
 20
60.7176564434
 30
0.0
 10
122.2135948384
 20
60.7117366655
 30
0.0
 10
122.186991272
 20
60.7013832206
 30
0.0
 10
122.1285496179
 20
60.6865611224
 30
0.0
 10
122.0500791265
 20
60.679638279
 30
0.0
 10
121.9717569592
 20
60.6872157492
 30
0.0
 10
121.9137571546
 20
60.7025579779
 30
0.0
 10
121.8874807593
 20
60.713152076
 30
0.0
 10
121.8754137695
 20
60.7191855708
 30
0.0
  0
SPLINE
  5
380
100
AcDbEntity
  8
268160210
100
AcDbSpline
 62
250
  6
CONTINUOUS
 70
0
 71
3
 72
11
 73
7
 74
0
 42
0.0000001
 43
0.0000001
 44
0.0000000001
 40
0.0
 40
0.0
 40
0.0
 40
0.0
 40
0.2897508071
 40
0.5495856033
 40
0.7828462093
 40
1.0
 40
1.0
 40
1.0
 40
1.0
 10
121.8754137695
 20
60.7191855708
 30
0.0
 10
121.8754137695
 20
60.7039803696
 30
0.0
 10
121.8778674667
 20
60.6750301403
 30
0.0
 10
121.8902413639
 20
60.6354360498
 30
0.0
 10
121.910906991
 20
60.6037362767
 30
0.0
 10
121.9301949303
 20
60.5890640528
 30
0.0
 10
121.9403872087
 20
60.5839674063
 30
0.0
  0
SPLINE
  5
381
100
AcDbEntity
  8
268160210
100
AcDbSpline
 62
250
  6
CONTINUOUS
 70
0
 71
3
 72
11
 73
7
 74
0
 42
0.0000001
 43
0.0000001
 44
0.0000000001
 40
0.0
 40
0.0
 40
0.0
 40
0.0
 40
0.2469894964
 40
0.5125770573
 40
0.7712936395
 40
1.0
 40
1.0
 40
1.0
 40
1.0
 10
122.2258550574
 20
99.0539801217
 30
0.0
 10
122.2256357626
 20
99.084131718
 30
0.0
 10
122.2149569351
 20
99.1467266773
 30
0.0
 10
122.1774569601
 20
99.2339179076
 30
0.0
 10
122.1227494044
 20
99.3087260247
 30
0.0
 10
122.0754399941
 20
99.3467831812
 30
0.0
 10
122.0506478167
 20
99.3596243798
 30
0.0
  0
SPLINE
  5
382
100
AcDbEntity
  8
268160210
100
AcDbSpline
 62
250
  6
CONTINUOUS
 70
0
 71
3
 72
13
 73
9
 74
0
 42
0.0000001
 43
0.0000001
 44
0.0000000001
 40
0.0
 40
0.0
 40
0.0
 40
0.0
 40
0.1133884444
 40
0.2368535278
 40
0.5012472395
 40
0.7649676769
 40
0.8876382345
 40
1.0
 40
1.0
 40
1.0
 40
1.0
 10
122.2258550574
 20
99.0539801217
 30
0.0
 10
122.2135948384
 20
99.0480603438
 30
0.0
 10
122.186991272
 20
99.0377068988
 30
0.0
 10
122.1285496179
 20
99.0228848007
 30
0.0
 10
122.0500791265
 20
99.0159619573
 30
0.0
 10
121.9717569592
 20
99.0235394275
 30
0.0
 10
121.9137571546
 20
99.0388816562
 30
0.0
 10
121.8874807593
 20
99.0494757542
 30
0.0
 10
121.8754137695
 20
99.0555092491
 30
0.0
  0
SPLINE
  5
383
100
AcDbEntity
  8
268160210
100
AcDbSpline
 62
250
  6
CONTINUOUS
 70
0
 71
3
 72
11
 73
7
 74
0
 42
0.0000001
 43
0.0000001
 44
0.0000000001
 40
0.0
 40
0.0
 40
0.0
 40
0.0
 40
0.2301990371
 40
0.4887792681
 40
0.7534963997
 40
1.0
 40
1.0
 40
1.0
 40
1.0
 10
122.0506478167
 20
99.3596243798
 30
0.0
 10
122.0256807945
 20
99.3468740165
 30
0.0
 10
121.9780552823
 20
99.3091809527
 30
0.0
 10
121.9230763577
 20
99.2347316197
 30
0.0
 10
121.8857175491
 20
99.147894105
 30
0.0
 10
121.8754137695
 20
99.0855292036
 30
0.0
 10
121.8754137695
 20
99.0555092491
 30
0.0
  0
SPLINE
  5
384
100
AcDbEntity
  8
268160210
100
AcDbSpline
 62
250
  6
CONTINUOUS
 70
0
 71
3
 72
11
 73
7
 74
0
 42
0.0000001
 43
0.0000001
 44
0.0000000001
 40
0.0
 40
0.0
 40
0.0
 40
0.0
 40
0.2301990371
 40
0.4887792681
 40
0.7534963997
 40
1.0
 40
1.0
 40
1.0
 40
1.0
 10
105.0469745142
 20
107.861461031
 30
0.0
 10
105.0220074921
 20
107.8487106677
 30
0.0
 10
104.9743819799
 20
107.8110176039
 30
0.0
 10
104.9194030552
 20
107.7365682709
 30
0.0
 10
104.8820442466
 20
107.6497307562
 30
0.0
 10
104.8717404671
 20
107.5873658548
 30
0.0
 10
104.8717404671
 20
107.5573459004
 30
0.0
  0
SPLINE
  5
385
100
AcDbEntity
  8
218160210_GEN
100
AcDbSpline
 62
7
  6
CONTINUOUS
 70
0
 71
3
 72
14
 73
10
 74
0
 42
0.0000001
 43
0.0000001
 44
0.0000000001
 40
0.0
 40
0.0
 40
0.0
 40
0.0
 40
0.2656750393
 40
0.3931691443
 40
0.5176769713
 40
0.6399243538
 40
0.7606566986
 40
0.8805196509
 40
1.0
 40
1.0
 40
1.0
 40
1.0
 10
117.568730432
 20
113.464049742
 30
0.0
 10
117.568730432
 20
113.5283402189
 30
0.0
 10
117.5599746064
 20
113.62400988
 30
0.0
 10
117.5271141448
 20
113.7451507491
 30
0.0
 10
117.4924392789
 20
113.8291157116
 30
0.0
 10
117.4471969197
 20
113.9060398556
 30
0.0
 10
117.3914372278
 20
113.9743512121
 30
0.0
 10
117.3257682766
 20
114.0322171195
 30
0.0
 10
117.2761191295
 20
114.062703957
 30
0.0
 10
117.2502586025
 20
114.0756342205
 30
0.0
  0
SPLINE
  5
386
100
AcDbEntity
  8
218160210_GEN
100
AcDbSpline
 62
7
  6
CONTINUOUS
 70
0
 71
3
 72
13
 73
9
 74
0
 42
0.0000001
 43
0.0000001
 44
0.0000000001
 40
0.0
 40
0.0
 40
0.0
 40
0.0
 40
0.121986154
 40
0.2441953505
 40
0.3668717958
 40
0.4903504684
 40
0.740976493
 40
1.0
 40
1.0
 40
1.0
 40
1.0
 10
132.3116330418
 20
106.5449470008
 30
0.0
 10
132.291912205
 20
106.5548074193
 30
0.0
 10
132.2510730586
 20
106.5719468911
 30
0.0
 10
132.1869222281
 20
106.5894195336
 30
0.0
 10
132.1207944062
 20
106.5985972091
 30
0.0
 10
132.030820259
 20
106.5999815122
 30
0.0
 10
131.916874215
 20
106.5816339576
 30
0.0
 10
131.8301777077
 20
106.5487844918
 30
0.0
 10
131.7879479019
 20
106.5285723778
 30
0.0
  0
SPLINE
  5
387
100
AcDbEntity
  8
218160210_GEN
100
AcDbSpline
 62
7
  6
CONTINUOUS
 70
0
 71
3
 72
15
 73
11
 74
0
 42
0.0000001
 43
0.0000001
 44
0.0000000001
 40
0.0
 40
0.0
 40
0.0
 40
0.0
 40
0.0192343643
 40
0.0442354063
 40
0.113162377
 40
0.2071086484
 40
0.3245719434
 40
0.4639438526
 40
0.6237748737
 40
1.0
 40
1.0
 40
1.0
 40
1.0
 10
133.6174840101
 20
78.9400413949
 30
0.0
 10
133.617483998
 20
78.940531746
 30
0.0
 10
133.6172226562
 20
78.9416535204
 30
0.0
 10
133.6159497588
 20
78.9442500516
 30
0.0
 10
133.6130060956
 20
78.9480728788
 30
0.0
 10
133.6080941611
 20
78.9532599291
 30
0.0
 10
133.6015350299
 20
78.9593496581
 30
0.0
 10
133.5934613996
 20
78.9662535292
 30
0.0
 10
133.5800448526
 20
78.9770502998
 30
0.0
 10
133.569102685
 20
78.985244208
 30
0.0
 10
133.5613519657
 20
78.9908939195
 30
0.0
  0
SPLINE
  5
388
100
AcDbEntity
  8
218160210_GEN
100
AcDbSpline
 62
7
  6
CONTINUOUS
 70
0
 71
3
 72
10
 73
6
 74
0
 42
0.0000001
 43
0.0000001
 44
0.0000000001
 40
0.0
 40
0.0
 40
0.0
 40
0.0
 40
0.2409940732
 40
0.4895974656
 40
1.0
 40
1.0
 40
1.0
 40
1.0
 10
133.6174840101
 20
72.7720901286
 30
0.0
 10
133.6174839669
 20
72.7560469166
 30
0.0
 10
133.6144091637
 20
72.7234163077
 30
0.0
 10
133.5987471095
 20
72.6585845012
 30
0.0
 10
133.5781053292
 20
72.6118665326
 30
0.0
 10
133.5613519657
 20
72.5823059315
 30
0.0
  0
SPLINE
  5
389
100
AcDbEntity
  8
218160210_GEN
100
AcDbSpline
 62
250
  6
CONTINUOUS
 70
0
 71
3
 72
12
 73
8
 74
0
 42
0.0000001
 43
0.0000001
 44
0.0000000001
 40
0.0
 40
0.0
 40
0.0
 40
0.0
 40
0.1028542955
 40
0.2084742336
 40
0.4366771566
 40
0.6988741739
 40
1.0
 40
1.0
 40
1.0
 40
1.0
 10
141.3323604539
 20
78.0592899711
 30
0.0
 10
141.3323602352
 20
78.0552781677
 30
0.0
 10
141.3315655117
 20
78.047126053
 30
0.0
 10
141.3267408434
 20
78.0307007852
 30
0.0
 10
141.3142870468
 20
78.0105697751
 30
0.0
 10
141.2914695617
 20
77.9894137409
 30
0.0
 10
141.272625712
 20
77.9778621082
 30
0.0
 10
141.2621955331
 20
77.9724617249
 30
0.0
  0
SPLINE
  5
38A
100
AcDbEntity
  8
218160210_GEN
100
AcDbSpline
 62
250
  6
CONTINUOUS
 70
0
 71
3
 72
12
 73
8
 74
0
 42
0.0000001
 43
0.0000001
 44
0.0000000001
 40
0.0
 40
0.0
 40
0.0
 40
0.0
 40
0.1028546608
 40
0.2084743165
 40
0.4366759785
 40
0.6988726522
 40
1.0
 40
1.0
 40
1.0
 40
1.0
 10
141.332360454
 20
83.594919778
 30
0.0
 10
141.3323604952
 20
83.5909078228
 30
0.0
 10
141.3315662412
 20
83.5827553711
 30
0.0
 10
141.3267422359
 20
83.5663293328
 30
0.0
 10
141.3142886499
 20
83.5461972584
 30
0.0
 10
141.2914706351
 20
83.5250401874
 30
0.0
 10
141.2726261222
 20
83.5134880773
 30
0.0
 10
141.2621955331
 20
83.5080874817
 30
0.0
  0
SPLINE
  5
38B
100
AcDbEntity
  8
218160210_GEN
100
AcDbSpline
 62
250
  6
CONTINUOUS
 70
0
 71
3
 72
11
 73
7
 74
0
 42
0.0000001
 43
0.0000001
 44
0.0000000001
 40
0.0
 40
0.0
 40
0.0
 40
0.0
 40
0.2275502252
 40
0.4653229788
 40
0.7212680192
 40
1.0
 40
1.0
 40
1.0
 40
1.0
 10
141.1729507259
 20
83.855110867
 30
0.0
 10
141.1652005762
 20
83.8589858089
 30
0.0
 10
141.1481481217
 20
83.8646962487
 30
0.0
 10
141.1204470051
 20
83.8662236532
 30
0.0
 10
141.0912807781
 20
83.8609599595
 30
0.0
 10
141.0722237244
 20
83.8534385558
 30
0.0
 10
141.0626900275
 20
83.8487736053
 30
0.0
  0
SPLINE
  5
38C
100
AcDbEntity
  8
218160210_GEN
100
AcDbSpline
 62
7
  6
CONTINUOUS
 70
0
 71
3
 72
9
 73
5
 74
0
 42
0.0000001
 43
0.0000001
 44
0.0000000001
 40
0.0
 40
0.0
 40
0.0
 40
0.0
 40
0.4992594125
 40
1.0
 40
1.0
 40
1.0
 40
1.0
 10
133.6174840657
 20
101.2144094625
 30
0.0
 10
133.6174842879
 20
101.1688433309
 30
0.0
 10
133.6061780332
 20
101.0774535142
 30
0.0
 10
133.5785171934
 20
100.9900296227
 30
0.0
 10
133.5613519657
 20
100.9476743973
 30
0.0
  0
SPLINE
  5
38D
100
AcDbEntity
  8
218160210_GEN
100
AcDbSpline
 62
250
  6
CONTINUOUS
 70
0
 71
3
 72
13
 73
9
 74
0
 42
0.0000001
 43
0.0000001
 44
0.0000000001
 40
0.0
 40
0.0
 40
0.0
 40
0.0
 40
0.1132976895
 40
0.2278443712
 40
0.3449200194
 40
0.4656569058
 40
0.7212685759
 40
1.0
 40
1.0
 40
1.0
 40
1.0
 10
133.3025906974
 20
106.0494681303
 30
0.0
 10
133.2875646077
 20
106.0569783894
 30
0.0
 10
133.2562551906
 20
106.0700002369
 30
0.0
 10
133.2066471205
 20
106.0830225932
 30
0.0
 10
133.1546554622
 20
106.0895012993
 30
0.0
 10
133.0813289386
 20
106.0893772108
 30
0.0
 10
132.9849649888
 20
106.071775892
 30
0.0
 10
132.9109159321
 20
106.0423017053
 30
0.0
 10
132.8738410451
 20
106.0240432293
 30
0.0
  0
SPLINE
  5
38E
100
AcDbEntity
  8
218160210_GEN
100
AcDbSpline
 62
250
  6
CONTINUOUS
 70
0
 71
3
 72
12
 73
8
 74
0
 42
0.0000001
 43
0.0000001
 44
0.0000000001
 40
0.0
 40
0.0
 40
0.0
 40
0.0
 40
0.102854805
 40
0.2084748191
 40
0.4366760762
 40
0.6988706743
 40
1.0
 40
1.0
 40
1.0
 40
1.0
 10
133.6174839964
 20
65.8446326954
 30
0.0
 10
133.6174839335
 20
65.8414231269
 30
0.0
 10
133.6168486378
 20
65.8349011422
 30
0.0
 10
133.6129890743
 20
65.8217604064
 30
0.0
 10
133.6030265995
 20
65.8056546538
 30
0.0
 10
133.5847720559
 20
65.7887290763
 30
0.0
 10
133.5696964915
 20
65.7794873631
 30
0.0
 10
133.5613519657
 20
65.7751668584
 30
0.0
  0
SPLINE
  5
38F
100
AcDbEntity
  8
218160210_GEN
100
AcDbSpline
 62
250
  6
CONTINUOUS
 70
0
 71
3
 72
12
 73
8
 74
0
 42
0.0000001
 43
0.0000001
 44
0.0000000001
 40
0.0
 40
0.0
 40
0.0
 40
0.0
 40
0.108444953
 40
0.2189424853
 40
0.4524784514
 40
0.7116514367
 40
1.0
 40
1.0
 40
1.0
 40
1.0
 10
132.9663376029
 20
64.693144534
 30
0.0
 10
132.9702494784
 20
64.6952551704
 30
0.0
 10
132.9777839996
 20
64.7002318109
 30
0.0
 10
132.9913132387
 20
64.7130334909
 30
0.0
 10
133.0046837361
 20
64.7343374686
 30
0.0
 10
133.013815871
 20
64.7653233217
 30
0.0
 10
133.0154075052
 20
64.7878770834
 30
0.0
 10
133.0152408621
 20
64.799694754
 30
0.0
  0
SPLINE
  5
390
100
AcDbEntity
  8
218160210_GEN
100
AcDbSpline
 62
250
  6
CONTINUOUS
 70
0
 71
3
 72
13
 73
9
 74
0
 42
0.0000001
 43
0.0000001
 44
0.0000000001
 40
0.0
 40
0.0
 40
0.0
 40
0.0
 40
0.1134934583
 40
0.2282840572
 40
0.345590883
 40
0.4664899681
 40
0.7220461042
 40
1.0
 40
1.0
 40
1.0
 40
1.0
 10
117.2502585872
 20
114.0756341898
 30
0.0
 10
117.2350128264
 20
114.0832572004
 30
0.0
 10
117.2032548234
 20
114.0965065434
 30
0.0
 10
117.152954081
 20
114.109883946
 30
0.0
 10
117.1002339921
 20
114.1167367372
 30
0.0
 10
117.0259132621
 20
114.1171414759
 30
0.0
 10
116.9282546946
 20
114.1002650908
 30
0.0
 10
116.8530402861
 20
114.0712931936
 30
0.0
 10
116.815385722
 20
114.0532708909
 30
0.0
  0
SPLINE
  5
391
100
AcDbEntity
  8
218160210_GEN
100
AcDbSpline
 62
250
  6
CONTINUOUS
 70
0
 71
3
 72
13
 73
9
 74
0
 42
0.0000001
 43
0.0000001
 44
0.0000000001
 40
0.0
 40
0.0
 40
0.0
 40
0.0
 40
0.1135638928
 40
0.2286403479
 40
0.3463120568
 40
0.4675264089
 40
0.7231749142
 40
1.0
 40
1.0
 40
1.0
 40
1.0
 10
116.2499332289
 20
114.5756416799
 30
0.0
 10
116.2346357483
 20
114.5827840388
 30
0.0
 10
116.2028518891
 20
114.5951495299
 30
0.0
 10
116.1527375713
 20
114.6075054195
 30
0.0
 10
116.1003449396
 20
114.6136731779
 30
0.0
 10
116.0266780236
 20
114.6136109222
 30
0.0
 10
115.930154904
 20
114.5971047719
 30
0.0
 10
115.8556193069
 20
114.5691678055
 30
0.0
 10
115.8183048382
 20
114.5518113328
 30
0.0
  0
SPLINE
  5
392
100
AcDbEntity
  8
218160210_GEN
100
AcDbSpline
 62
250
  6
CONTINUOUS
 70
0
 71
3
 72
13
 73
9
 74
0
 42
0.0000001
 43
0.0000001
 44
0.0000000001
 40
0.0
 40
0.0
 40
0.0
 40
0.0
 40
0.1133577676
 40
0.2281946952
 40
0.3456476464
 40
0.4667136573
 40
0.7224295896
 40
1.0
 40
1.0
 40
1.0
 40
1.0
 10
132.3023057213
 20
106.5494507488
 30
0.0
 10
132.2872269794
 20
106.5564765287
 30
0.0
 10
132.2558896928
 20
106.5686073844
 30
0.0
 10
132.2064670983
 20
106.5806012264
 30
0.0
 10
132.1548005783
 20
106.5863929493
 30
0.0
 10
132.0821238049
 20
106.5858056017
 30
0.0
 10
131.9868881355
 20
106.5685932162
 30
0.0
 10
131.9135019361
 20
106.540169093
 30
0.0
 10
131.8767601613
 20
106.5225836712
 30
0.0
  0
SPLINE
  5
393
100
AcDbEntity
  8
218160210_GEN
100
AcDbSpline
 62
250
  6
CONTINUOUS
 70
0
 71
3
 72
13
 73
9
 74
0
 42
0.0000001
 43
0.0000001
 44
0.0000000001
 40
0.0
 40
0.0
 40
0.0
 40
0.0
 40
0.1028084154
 40
0.2083806125
 40
0.4364797171
 40
0.5630370272
 40
0.6990118311
 40
1.0
 40
1.0
 40
1.0
 40
1.0
 10
140.0971501602
 20
73.0540979773
 30
0.0
 10
140.097150078
 20
73.0460740601
 30
0.0
 10
140.0955616135
 20
73.0297682215
 30
0.0
 10
140.0859145003
 20
72.9969220094
 30
0.0
 10
140.0666647935
 20
72.9657780741
 30
0.0
 10
140.0405397241
 20
72.9377259508
 30
0.0
 10
140.0069717229
 20
72.9091679567
 30
0.0
 10
139.9776810066
 20
72.8912344494
 30
0.0
 10
139.9568200728
 20
72.8804333847
 30
0.0
  0
SPLINE
  5
394
100
AcDbEntity
  8
218160210_GEN
100
AcDbSpline
 62
250
  6
CONTINUOUS
 70
0
 71
3
 72
14
 73
10
 74
0
 42
0.0000001
 43
0.0000001
 44
0.0000000001
 40
0.0
 40
0.0
 40
0.0
 40
0.0
 40
0.1083200469
 40
0.2186902515
 40
0.3329587926
 40
0.4526226562
 40
0.5787530109
 40
0.7119881676
 40
1.0
 40
1.0
 40
1.0
 40
1.0
 10
139.8345620648
 20
72.6140575752
 30
0.0
 10
139.8443417951
 20
72.6193341147
 30
0.0
 10
139.8631780948
 20
72.6317727135
 30
0.0
 10
139.8880949168
 20
72.6553657437
 30
0.0
 10
139.9095070386
 20
72.6836452513
 30
0.0
 10
139.927170853
 20
72.7162295867
 30
0.0
 10
139.9409161243
 20
72.7527229694
 30
0.0
 10
139.9541733663
 20
72.8073967125
 30
0.0
 10
139.9572366741
 20
72.8508896491
 30
0.0
 10
139.9568200728
 20
72.8804333847
 30
0.0
  0
SPLINE
  5
395
100
AcDbEntity
  8
218160210_GEN
100
AcDbSpline
 62
250
  6
CONTINUOUS
 70
0
 71
3
 72
15
 73
11
 74
0
 42
0.0000001
 43
0.0000001
 44
0.0000000001
 40
0.0
 40
0.0
 40
0.0
 40
0.0
 40
0.1109151497
 40
0.2307438206
 40
0.3576365512
 40
0.4890338755
 40
0.6219711547
 40
0.7533522487
 40
0.8802137561
 40
1.0
 40
1.0
 40
1.0
 40
1.0
 10
141.0626900275
 20
83.8487736053
 30
0.0
 10
141.0764249406
 20
83.8421144283
 30
0.0
 10
141.1036472483
 20
83.8253834057
 30
0.0
 10
141.1410379113
 20
83.7931223192
 30
0.0
 10
141.1754038501
 20
83.7538371792
 30
0.0
 10
141.2054606392
 20
83.7090006046
 30
0.0
 10
141.2300989615
 20
83.6602842382
 30
0.0
 10
141.2483963002
 20
83.6095034921
 30
0.0
 10
141.2596672088
 20
83.5585689486
 30
0.0
 10
141.2622980865
 20
83.5245720895
 30
0.0
 10
141.2621955331
 20
83.5080874817
 30
0.0
  0
SPLINE
  5
396
100
AcDbEntity
  8
218160210_GEN
100
AcDbSpline
 62
250
  6
CONTINUOUS
 70
0
 71
3
 72
12
 73
8
 74
0
 42
0.0000001
 43
0.0000001
 44
0.0000000001
 40
0.0
 40
0.0
 40
0.0
 40
0.0
 40
0.2880596124
 40
0.5472208542
 40
0.7808967691
 40
0.8914808623
 40
1.0
 40
1.0
 40
1.0
 40
1.0
 10
141.2621955331
 20
77.9724617249
 30
0.0
 10
141.2623002187
 20
77.9557400129
 30
0.0
 10
141.2597847851
 20
77.9238332009
 30
0.0
 10
141.2464733541
 20
77.8800703438
 30
0.0
 10
141.2272667247
 20
77.850054522
 30
0.0
 10
141.2079381597
 20
77.8320768949
 30
0.0
 10
141.1972001641
 20
77.8251138181
 30
0.0
 10
141.191630847
 20
77.8221697205
 30
0.0
  0
SPLINE
  5
397
100
AcDbEntity
  8
218160210_GEN
100
AcDbSpline
 62
250
  6
CONTINUOUS
 70
0
 71
3
 72
15
 73
11
 74
0
 42
0.0000001
 43
0.0000001
 44
0.0000000001
 40
0.0
 40
0.0
 40
0.0
 40
0.0
 40
0.1200917835
 40
0.2471041265
 40
0.3785047983
 40
0.5113636303
 40
0.642624791
 40
0.7693702971
 40
0.8890931669
 40
1.0
 40
1.0
 40
1.0
 40
1.0
 10
139.9568200728
 20
104.1198737264
 30
0.0
 10
139.957230404
 20
104.1493977196
 30
0.0
 10
139.9529833591
 20
104.2102839817
 30
0.0
 10
139.9334533876
 20
104.3015383307
 30
0.0
 10
139.9013026014
 20
104.3924831422
 30
0.0
 10
139.8577357339
 20
104.4796973615
 30
0.0
 10
139.8043833256
 20
104.5599320549
 30
0.0
 10
139.7432125076
 20
104.6301968145
 30
0.0
 10
139.6765074137
 20
104.6878568172
 30
0.0
 10
139.6278728676
 20
104.7177061633
 30
0.0
 10
139.6033205301
 20
104.7295702497
 30
0.0
  0
SPLINE
  5
398
100
AcDbEntity
  8
218160210_GEN
100
AcDbSpline
 62
250
  6
CONTINUOUS
 70
0
 71
3
 72
11
 73
7
 74
0
 42
0.0000001
 43
0.0000001
 44
0.0000000001
 40
0.0
 40
0.0
 40
0.0
 40
0.0
 40
0.2278649909
 40
0.4657801987
 40
0.721614993
 40
1.0
 40
1.0
 40
1.0
 40
1.0
 10
123.0028117579
 20
112.9398177324
 30
0.0
 10
123.0182477522
 20
112.9469462208
 30
0.0
 10
123.0519973009
 20
112.9571592566
 30
0.0
 10
123.1063533264
 20
112.9587261591
 30
0.0
 10
123.1632091638
 20
112.9470382935
 30
0.0
 10
123.2001711254
 20
112.9314655978
 30
0.0
 10
123.218620262
 20
112.9219203838
 30
0.0
  0
SPLINE
  5
399
100
AcDbEntity
  8
218160210_GEN
100
AcDbSpline
 62
250
  6
CONTINUOUS
 70
0
 71
3
 72
14
 73
10
 74
0
 42
0.0000001
 43
0.0000001
 44
0.0000000001
 40
0.0
 40
0.0
 40
0.0
 40
0.0
 40
0.1109792064
 40
0.2307754736
 40
0.357601117
 40
0.488945142
 40
0.6218878885
 40
0.7533715111
 40
1.0
 40
1.0
 40
1.0
 40
1.0
 10
139.8154202529
 20
76.1374953239
 30
0.0
 10
139.8252413656
 20
76.1327495946
 30
0.0
 10
139.8446951257
 20
76.1208097558
 30
0.0
 10
139.8713769995
 20
76.0977460605
 30
0.0
 10
139.8958452895
 20
76.0696390835
 30
0.0
 10
139.9171849004
 20
76.0375498167
 30
0.0
 10
139.9346170175
 20
76.002647417
 30
0.0
 10
139.9513767116
 20
75.9552426288
 30
0.0
 10
139.9571564365
 20
75.9178547489
 30
0.0
 10
139.9568195912
 20
75.8936171418
 30
0.0
  0
SPLINE
  5
39A
100
AcDbEntity
  8
218160210_GEN
100
AcDbSpline
 62
250
  6
CONTINUOUS
 70
0
 71
3
 72
15
 73
11
 74
0
 42
0.0000001
 43
0.0000001
 44
0.0000000001
 40
0.0
 40
0.0
 40
0.0
 40
0.0
 40
0.3995843808
 40
0.5630860128
 40
0.7006369751
 40
0.8118855937
 40
0.8973184336
 40
0.9308431858
 40
0.9586963344
 40
1.0
 40
1.0
 40
1.0
 40
1.0
 10
139.9568200728
 20
75.8936169094
 30
0.0
 10
139.9774751961
 20
75.9040427
 30
0.0
 10
140.0063376682
 20
75.9192569357
 30
0.0
 10
140.0412192099
 20
75.9399880093
 30
0.0
 10
140.0612038499
 20
75.9530682595
 30
0.0
 10
140.0767311077
 20
75.9646443254
 30
0.0
 10
140.0866893208
 20
75.9735514926
 30
0.0
 10
140.0922609323
 20
75.9800136655
 30
0.0
 10
140.0955854707
 20
75.9849045886
 30
0.0
 10
140.0971501428
 20
75.9888328927
 30
0.0
 10
140.0971501236
 20
75.9912245083
 30
0.0
  0
SPLINE
  5
39B
100
AcDbEntity
  8
218160210_GEN
100
AcDbSpline
 62
250
  6
CONTINUOUS
 70
0
 71
3
 72
13
 73
9
 74
0
 42
0.0000001
 43
0.0000001
 44
0.0000000001
 40
0.0
 40
0.0
 40
0.0
 40
0.0
 40
0.344843
 40
0.4933379185
 40
0.625188026
 40
0.740587441
 40
0.8403916004
 40
1.0
 40
1.0
 40
1.0
 40
1.0
 10
139.8154202557
 20
76.1374955187
 30
0.0
 10
139.8337639547
 20
76.146465124
 30
0.0
 10
139.8605454561
 20
76.1583104762
 30
0.0
 10
139.8956905455
 20
76.1700286816
 30
0.0
 10
139.9184302321
 20
76.1757663446
 30
0.0
 10
139.938801976
 20
76.1789144327
 30
0.0
 10
139.9609497701
 20
76.1796831853
 30
0.0
 10
139.9766134169
 20
76.1767973121
 30
0.0
 10
139.9850671471
 20
76.1725718884
 30
0.0
  0
SPLINE
  5
39C
100
AcDbEntity
  8
218160210_GEN
100
AcDbSpline
 62
250
  6
CONTINUOUS
 70
0
 71
3
 72
14
 73
10
 74
0
 42
0.0000001
 43
0.0000001
 44
0.0000000001
 40
0.0
 40
0.0
 40
0.0
 40
0.0
 40
0.1111238496
 40
0.2311818435
 40
0.358288512
 40
0.4898473132
 40
0.7537265085
 40
0.8804559821
 40
1.0
 40
1.0
 40
1.0
 40
1.0
 10
139.8093145206
 20
76.1344439787
 30
0.0
 10
139.8191460973
 20
76.1296968571
 30
0.0
 10
139.8386423644
 20
76.1177737304
 30
0.0
 10
139.8654597769
 20
76.0947934519
 30
0.0
 10
139.8901583498
 20
76.0668043989
 30
0.0
 10
139.9190091191
 20
76.0242292866
 30
0.0
 10
139.9399781667
 20
75.9767139539
 30
0.0
 10
139.9511508736
 20
75.9277441565
 30
0.0
 10
139.9531824807
 20
75.9035179712
 30
0.0
 10
139.9531824807
 20
75.8917730609
 30
0.0
  0
SPLINE
  5
39D
100
AcDbEntity
  8
218160210_GEN
100
AcDbSpline
 62
250
  6
CONTINUOUS
 70
0
 71
3
 72
11
 73
7
 74
0
 42
0.0000001
 43
0.0000001
 44
0.0000000001
 40
0.0
 40
0.0
 40
0.0
 40
0.0
 40
0.2813488714
 40
0.5406655649
 40
0.7788720146
 40
1.0
 40
1.0
 40
1.0
 40
1.0
 10
139.9531824807
 20
82.3003610489
 30
0.0
 10
139.9531824807
 20
82.2906596288
 30
0.0
 10
139.9518893821
 20
82.2719752683
 30
0.0
 10
139.9455580011
 20
82.2457244863
 30
0.0
 10
139.9350355529
 20
82.2230874869
 30
0.0
 10
139.9250465425
 20
82.2105361044
 30
0.0
 10
139.9195237063
 20
82.2052789857
 30
0.0
  0
SPLINE
  5
39E
100
AcDbEntity
  8
218160210_GEN
100
AcDbSpline
 62
250
  6
CONTINUOUS
 70
0
 71
3
 72
9
 73
5
 74
0
 42
0.0000001
 43
0.0000001
 44
0.0000000001
 40
0.0
 40
0.0
 40
0.0
 40
0.0
 40
0.2524953319
 40
1.0
 40
1.0
 40
1.0
 40
1.0
 10
139.9195237063
 20
82.2052789857
 30
0.0
 10
139.9185191337
 20
82.2043227456
 30
0.0
 10
139.9144473378
 20
82.2006349494
 30
0.0
 10
139.909999417
 20
82.1973607444
 30
0.0
 10
139.9065102472
 20
82.195196371
 30
0.0
  0
SPLINE
  5
39F
100
AcDbEntity
  8
218160210_GEN
100
AcDbSpline
 62
250
  6
CONTINUOUS
 70
0
 71
3
 72
12
 73
8
 74
0
 42
0.0000001
 43
0.0000001
 44
0.0000000001
 40
0.0
 40
0.0
 40
0.0
 40
0.0
 40
0.2883462732
 40
0.5475198637
 40
0.781057797
 40
0.8915557058
 40
1.0
 40
1.0
 40
1.0
 40
1.0
 10
139.9568199789
 20
82.3022840826
 30
0.0
 10
139.9569866028
 20
82.2904674475
 30
0.0
 10
139.9553952509
 20
82.2679155727
 30
0.0
 10
139.9462647722
 20
82.2369319774
 30
0.0
 10
139.9328967328
 20
82.2156288111
 30
0.0
 10
139.9193698043
 20
82.2028267782
 30
0.0
 10
139.9118364969
 20
82.1978496474
 30
0.0
 10
139.907925225
 20
82.1957386953
 30
0.0
  0
SPLINE
  5
3A0
100
AcDbEntity
  8
218160210_GEN
100
AcDbSpline
 62
250
  6
CONTINUOUS
 70
0
 71
3
 72
14
 73
10
 74
0
 42
0.0000001
 43
0.0000001
 44
0.0000000001
 40
0.0
 40
0.0
 40
0.0
 40
0.0
 40
0.1274968188
 40
0.2521304584
 40
0.3750019819
 40
0.4972801466
 40
0.6200900818
 40
0.7444063548
 40
1.0
 40
1.0
 40
1.0
 40
1.0
 10
139.9568200728
 20
82.3022840373
 30
0.0
 10
139.9679983383
 20
82.3082179567
 30
0.0
 10
139.9893413161
 20
82.3214744572
 30
0.0
 10
140.0179050168
 20
82.3455413574
 30
0.0
 10
140.0422873831
 20
82.3731587742
 30
0.0
 10
140.0622732584
 20
82.4038802776
 30
0.0
 10
140.0777742141
 20
82.4372452199
 30
0.0
 10
140.0926047864
 20
82.4850089238
 30
0.0
 10
140.0968801284
 20
82.5229227538
 30
0.0
 10
140.0971317527
 20
82.548292328
 30
0.0
  0
SPLINE
  5
3A1
100
AcDbEntity
  8
218160210_GEN
100
AcDbSpline
 62
250
  6
CONTINUOUS
 70
0
 71
3
 72
15
 73
11
 74
0
 42
0.0000001
 43
0.0000001
 44
0.0000000001
 40
0.0
 40
0.0
 40
0.0
 40
0.0
 40
0.1198125336
 40
0.2468984957
 40
0.3785833133
 40
0.5118054948
 40
0.643380968
 40
0.7702584196
 40
0.8897844576
 40
1.0
 40
1.0
 40
1.0
 40
1.0
 10
133.5613519657
 20
65.7751668584
 30
0.0
 10
133.5613516576
 20
65.7286703387
 30
0.0
 10
133.5536685997
 20
65.6327631017
 30
0.0
 10
133.5224247011
 20
65.4888321649
 30
0.0
 10
133.4722166605
 20
65.3448471199
 30
0.0
 10
133.4048854337
 20
65.2061144251
 30
0.0
 10
133.3229017389
 20
65.0776991924
 30
0.0
 10
133.2292334191
 20
64.9642854862
 30
0.0
 10
133.1273126395
 20
64.8700278627
 30
0.0
 10
133.0528836523
 20
64.8200042785
 30
0.0
 10
133.0152408621
 20
64.799694754
 30
0.0
  0
SPLINE
  5
3A2
100
AcDbEntity
  8
218160210_GEN
100
AcDbSpline
 62
7
  6
CONTINUOUS
 70
0
 71
3
 72
11
 73
7
 74
0
 42
0.0000001
 43
0.0000001
 44
0.0000000001
 40
0.0
 40
0.0
 40
0.0
 40
0.0
 40
0.3005607875
 40
0.5666126734
 40
0.7985361635
 40
1.0
 40
1.0
 40
1.0
 40
1.0
 10
133.5613519657
 20
69.4299316181
 30
0.0
 10
133.5694601602
 20
69.4183209171
 30
0.0
 10
133.5841548336
 20
69.3960048965
 30
0.0
 10
133.6021233668
 20
69.3628650487
 30
0.0
 10
133.6140579467
 20
69.3320354167
 30
0.0
 10
133.6174841833
 20
69.311620674
 30
0.0
 10
133.6174840657
 20
69.3021282439
 30
0.0
  0
SPLINE
  5
3A3
100
AcDbEntity
  8
218160210_GEN
100
AcDbSpline
 62
7
  6
CONTINUOUS
 70
0
 71
3
 72
9
 73
5
 74
0
 42
0.0000001
 43
0.0000001
 44
0.0000000001
 40
0.0
 40
0.0
 40
0.0
 40
0.0
 40
0.4825405139
 40
1.0
 40
1.0
 40
1.0
 40
1.0
 10
122.2124118831
 20
105.5826410432
 30
0.0
 10
122.2124118831
 20
105.5995222044
 30
0.0
 10
122.2082963972
 20
105.6345497481
 30
0.0
 10
122.197834912
 20
105.6681336853
 30
0.0
 10
122.1910338436
 20
105.6849103218
 30
0.0
  0
SPLINE
  5
3A4
100
AcDbEntity
  8
218160210_GEN
100
AcDbSpline
 62
250
  6
CONTINUOUS
 70
0
 71
3
 72
11
 73
7
 74
0
 42
0.0000001
 43
0.0000001
 44
0.0000000001
 40
0.0
 40
0.0
 40
0.0
 40
0.0
 40
0.2279890806
 40
0.4659717416
 40
0.721774464
 40
1.0
 40
1.0
 40
1.0
 40
1.0
 10
123.436056692
 20
112.9331020281
 30
0.0
 10
123.4207583474
 20
112.9407510021
 30
0.0
 10
123.3871493825
 20
112.9520759288
 30
0.0
 10
123.3325634781
 20
112.9553661751
 30
0.0
 10
123.275067673
 20
112.9454163261
 30
0.0
 10
123.2374476569
 20
112.9309315892
 30
0.0
 10
123.218620262
 20
112.9219203838
 30
0.0
  0
SPLINE
  5
3A5
100
AcDbEntity
  8
218160210_GEN
100
AcDbSpline
 62
7
  6
CONTINUOUS
 70
0
 71
3
 72
9
 73
5
 74
0
 42
0.0000001
 43
0.0000001
 44
0.0000000001
 40
0.0
 40
0.0
 40
0.0
 40
0.0
 40
0.2423234034
 40
1.0
 40
1.0
 40
1.0
 40
1.0
 10
121.9121749385
 20
105.4261041051
 30
0.0
 10
121.9116117243
 20
105.42744755
 30
0.0
 10
121.9092348582
 20
105.4329694322
 30
0.0
 10
121.9066564959
 20
105.4384039027
 30
0.0
 10
121.904609289
 20
105.4424726745
 30
0.0
  0
SPLINE
  5
3A6
100
AcDbEntity
  8
218160210_GEN
100
AcDbSpline
 62
250
  6
CONTINUOUS
 70
0
 71
3
 72
12
 73
8
 74
0
 42
0.0000001
 43
0.0000001
 44
0.0000000001
 40
0.0
 40
0.0
 40
0.0
 40
0.0
 40
0.3011285663
 40
0.5633233355
 40
0.7915252222
 40
0.8971453774
 40
1.0
 40
1.0
 40
1.0
 40
1.0
 10
133.5613519657
 20
105.3702071181
 30
0.0
 10
133.5696963277
 20
105.374527538
 30
0.0
 10
133.5847716274
 20
105.3837690607
 30
0.0
 10
133.6030259596
 20
105.4006942244
 30
0.0
 10
133.6129885183
 20
105.4167995521
 30
0.0
 10
133.6168483468
 20
105.4299399803
 30
0.0
 10
133.6174838296
 20
105.4364618304
 30
0.0
 10
133.6174839964
 20
105.4396713383
 30
0.0
  0
SPLINE
  5
3A7
100
AcDbEntity
  8
218160210_GEN
100
AcDbSpline
 62
250
  6
CONTINUOUS
 70
0
 71
3
 72
19
 73
15
 74
0
 42
0.0000001
 43
0.0000001
 44
0.0000000001
 40
0.0
 40
0.0
 40
0.0
 40
0.0
 40
0.1503960838
 40
0.2204778067
 40
0.2870783835
 40
0.4103772311
 40
0.4681259396
 40
0.5240086811
 40
0.5788188635
 40
0.6334374327
 40
0.6887615106
 40
0.7456291479
 40
0.8664458921
 40
1.0
 40
1.0
 40
1.0
 40
1.0
 10
133.5613519657
 20
105.3702071181
 30
0.0
 10
133.5613516847
 20
105.4131088644
 30
0.0
 10
133.5567035981
 20
105.4762337232
 30
0.0
 10
133.5391657466
 20
105.556354155
 30
0.0
 10
133.515958596
 20
105.6268722294
 30
0.0
 10
133.4826265014
 20
105.6901796133
 30
0.0
 10
133.4391052701
 20
105.7421655794
 30
0.0
 10
133.4029595415
 20
105.7741199985
 30
0.0
 10
133.3629695097
 20
105.799492009
 30
0.0
 10
133.3195483496
 20
105.8180054279
 30
0.0
 10
133.2731587382
 20
105.829465735
 30
0.0
 10
133.2067179723
 20
105.8353482565
 30
0.0
 10
133.1175853485
 20
105.8235445041
 30
0.0
 10
133.0493707277
 20
105.7970928964
 30
0.0
 10
133.0152408621
 20
105.78016462
 30
0.0
  0
SPLINE
  5
3A8
100
AcDbEntity
  8
218160210_GEN
100
AcDbSpline
 62
250
  6
CONTINUOUS
 70
0
 71
3
 72
14
 73
10
 74
0
 42
0.0000001
 43
0.0000001
 44
0.0000000001
 40
0.0
 40
0.0
 40
0.0
 40
0.0
 40
0.2466285265
 40
0.3781121856
 40
0.5110549511
 40
0.6423989687
 40
0.7692245833
 40
0.8890208159
 40
1.0
 40
1.0
 40
1.0
 40
1.0
 10
133.0152408621
 20
105.78016462
 30
0.0
 10
133.0155777228
 20
105.8044022854
 30
0.0
 10
133.0097979752
 20
105.8417902613
 30
0.0
 10
132.9930382056
 20
105.8891951531
 30
0.0
 10
132.9756060126
 20
105.9240976194
 30
0.0
 10
132.9542663181
 20
105.9561869335
 30
0.0
 10
132.9297979445
 20
105.9842939402
 30
0.0
 10
132.9031159913
 20
106.0073576526
 30
0.0
 10
132.8836621815
 20
106.0192974974
 30
0.0
 10
132.8738410451
 20
106.0240432293
 30
0.0
  0
SPLINE
  5
3A9
100
AcDbEntity
  8
218160210_GEN
100
AcDbSpline
 62
250
  6
CONTINUOUS
 70
0
 71
3
 72
11
 73
7
 74
0
 42
0.0000001
 43
0.0000001
 44
0.0000000001
 40
0.0
 40
0.0
 40
0.0
 40
0.0
 40
0.2783897556
 40
0.534217783
 40
0.7721350848
 40
1.0
 40
1.0
 40
1.0
 40
1.0
 10
115.8183048382
 20
114.5518113328
 30
0.0
 10
115.8109250778
 20
114.5556294731
 30
0.0
 10
115.7961404133
 20
114.5618586215
 30
0.0
 10
115.7733980584
 20
114.5665333666
 30
0.0
 10
115.7516559207
 20
114.5659068255
 30
0.0
 10
115.7381559141
 20
114.5618219321
 30
0.0
 10
115.7319816183
 20
114.5589703657
 30
0.0
  0
SPLINE
  5
3AA
100
AcDbEntity
  8
218160210_GEN
100
AcDbSpline
 62
250
  6
CONTINUOUS
 70
0
 71
3
 72
11
 73
7
 74
0
 42
0.0000001
 43
0.0000001
 44
0.0000000001
 40
0.0
 40
0.0
 40
0.0
 40
0.0
 40
0.2279890099
 40
0.4659719031
 40
0.7217747367
 40
1.0
 40
1.0
 40
1.0
 40
1.0
 10
139.8207536737
 20
104.7407535371
 30
0.0
 10
139.8054554316
 20
104.7484020849
 30
0.0
 10
139.771846825
 20
104.7597262474
 30
0.0
 10
139.7172617746
 20
104.7630158429
 30
0.0
 10
139.6597669688
 20
104.7530658447
 30
0.0
 10
139.6221476016
 20
104.7385813003
 30
0.0
 10
139.6033205301
 20
104.7295702497
 30
0.0
  0
SPLINE
  5
3AB
100
AcDbEntity
  8
218160210_GEN
100
AcDbSpline
 62
250
  6
CONTINUOUS
 70
0
 71
3
 72
12
 73
8
 74
0
 42
0.0000001
 43
0.0000001
 44
0.0000000001
 40
0.0
 40
0.0
 40
0.0
 40
0.0
 40
0.3022938654
 40
0.564955481
 40
0.7926868821
 40
0.897778844
 40
1.0
 40
1.0
 40
1.0
 40
1.0
 10
117.5101517882
 20
113.3933390638
 30
0.0
 10
117.5188354075
 20
113.3976808735
 30
0.0
 10
117.5345292906
 20
113.4070004109
 30
0.0
 10
117.5535822031
 20
113.4241875798
 30
0.0
 10
117.5640203583
 20
113.4406394793
 30
0.0
 10
117.5680648309
 20
113.4540909874
 30
0.0
 10
117.5687304317
 20
113.460766765
 30
0.0
 10
117.568730432
 20
113.4640497374
 30
0.0
  0
SPLINE
  5
3AC
100
AcDbEntity
  8
218160210_GEN
100
AcDbSpline
 62
250
  6
CONTINUOUS
 70
0
 71
3
 72
19
 73
15
 74
0
 42
0.0000001
 43
0.0000001
 44
0.0000000001
 40
0.0
 40
0.0
 40
0.0
 40
0.0
 40
0.1489099016
 40
0.2184298779
 40
0.2846110985
 40
0.4075424731
 40
0.4653478967
 40
0.5214334798
 40
0.576566517
 40
0.631590379
 40
0.687357456
 40
0.7446600164
 40
0.8661719291
 40
1.0
 40
1.0
 40
1.0
 40
1.0
 10
117.5101517882
 20
113.3933390638
 30
0.0
 10
117.5101517882
 20
113.4362736943
 30
0.0
 10
117.5054057788
 20
113.4994910889
 30
0.0
 10
117.4875612528
 20
113.579719535
 30
0.0
 10
117.4639098185
 20
113.6505256503
 30
0.0
 10
117.429939231
 20
113.7141272756
 30
0.0
 10
117.3857001243
 20
113.7664166876
 30
0.0
 10
117.3489161695
 20
113.7986803233
 30
0.0
 10
117.3082282473
 20
113.8243941019
 30
0.0
 10
117.2640553348
 20
113.8432834533
 30
0.0
 10
117.2168632539
 20
113.8551527545
 30
0.0
 10
117.1493091401
 20
113.8616260426
 30
0.0
 10
117.0587171733
 20
113.8506698137
 30
0.0
 10
116.9891439216
 20
113.8248058726
 30
0.0
 10
116.9543389352
 20
113.8081474405
 30
0.0
  0
SPLINE
  5
3AD
100
AcDbEntity
  8
218160210_GEN
100
AcDbSpline
 62
250
  6
CONTINUOUS
 70
0
 71
3
 72
14
 73
10
 74
0
 42
0.0000001
 43
0.0000001
 44
0.0000000001
 40
0.0
 40
0.0
 40
0.0
 40
0.0
 40
0.1204457869
 40
0.2478901826
 40
0.5123931036
 40
0.6437985529
 40
0.7704484547
 40
0.8897860517
 40
1.0
 40
1.0
 40
1.0
 40
1.0
 10
116.9543389352
 20
113.8081474405
 30
0.0
 10
116.9545061674
 20
113.8199649973
 30
0.0
 10
116.9528451332
 20
113.8443453422
 30
0.0
 10
116.942503233
 20
113.8936548406
 30
0.0
 10
116.9224534134
 20
113.9416151706
 30
0.0
 10
116.8944746999
 20
113.9846952427
 30
0.0
 10
116.8704281663
 20
114.0130155377
 30
0.0
 10
116.8442096822
 20
114.0363065336
 30
0.0
 10
116.8250587205
 20
114.0484343916
 30
0.0
 10
116.815385722
 20
114.0532708909
 30
0.0
  0
SPLINE
  5
3AE
100
AcDbEntity
  8
218160210_GEN
100
AcDbSpline
 62
250
  6
CONTINUOUS
 70
0
 71
3
 72
13
 73
9
 74
0
 42
0.0000001
 43
0.0000001
 44
0.0000000001
 40
0.0
 40
0.0
 40
0.0
 40
0.0
 40
0.1028084154
 40
0.2083806125
 40
0.4364797171
 40
0.5630370272
 40
0.6990118311
 40
1.0
 40
1.0
 40
1.0
 40
1.0
 10
140.0971501602
 20
104.293538319
 30
0.0
 10
140.097150078
 20
104.2855144018
 30
0.0
 10
140.0955616135
 20
104.2692085632
 30
0.0
 10
140.0859145003
 20
104.2363623511
 30
0.0
 10
140.0666647935
 20
104.2052184158
 30
0.0
 10
140.0405397241
 20
104.1771662925
 30
0.0
 10
140.0069717229
 20
104.1486082983
 30
0.0
 10
139.9776810066
 20
104.1306747911
 30
0.0
 10
139.9568200728
 20
104.1198737264
 30
0.0
  0
SPLINE
  5
3AF
100
AcDbEntity
  8
218160210_GEN
100
AcDbSpline
 62
250
  6
CONTINUOUS
 70
0
 71
3
 72
11
 73
7
 74
0
 42
0.0000001
 43
0.0000001
 44
0.0000000001
 40
0.0
 40
0.0
 40
0.0
 40
0.0
 40
0.2776022032
 40
0.5332723123
 40
0.7715233023
 40
1.0
 40
1.0
 40
1.0
 40
1.0
 10
131.8767601613
 20
106.5225836712
 30
0.0
 10
131.8691445482
 20
106.5263914778
 30
0.0
 10
131.8538849341
 20
106.5325597122
 30
0.0
 10
131.8304599079
 20
106.5369969747
 30
0.0
 10
131.8081058878
 20
106.5360049824
 30
0.0
 10
131.7942688846
 20
106.5315979028
 30
0.0
 10
131.7879479184
 20
106.5285723434
 30
0.0
  0
SPLINE
  5
3B0
100
AcDbEntity
  8
349160010
100
AcDbSpline
 62
7
  6
CONTINUOUS
 70
0
 71
3
 72
9
 73
5
 74
0
 42
0.0000001
 43
0.0000001
 44
0.0000000001
 40
0.0
 40
0.0
 40
0.0
 40
0.0
 40
0.2656286414
 40
1.0
 40
1.0
 40
1.0
 40
1.0
 10
122.4345586595
 20
105.8066734131
 30
0.0
 10
122.4400036936
 20
105.8093959302
 30
0.0
 10
122.4608633669
 20
105.818867401
 30
0.0
 10
122.4833675555
 20
105.825024945
 30
0.0
 10
122.5001110632
 20
105.8267337249
 30
0.0
  0
SPLINE
  5
3B1
100
AcDbEntity
  8
349160010
100
AcDbSpline
 62
7
  6
CONTINUOUS
 70
0
 71
3
 72
11
 73
7
 74
0
 42
0.0000001
 43
0.0000001
 44
0.0000000001
 40
0.0
 40
0.0
 40
0.0
 40
0.0
 40
0.246822998
 40
0.5117832723
 40
0.7702964853
 40
1.0
 40
1.0
 40
1.0
 40
1.0
 10
121.8588584925
 20
105.2590157085
 30
0.0
 10
121.8588584925
 20
105.2952546146
 30
0.0
 10
121.8713579034
 20
105.3705269968
 30
0.0
 10
121.9166594017
 20
105.4751941126
 30
0.0
 10
121.9831876568
 20
105.5647207797
 30
0.0
 10
122.0408256129
 20
105.6098068898
 30
0.0
 10
122.0709905269
 20
105.6248893468
 30
0.0
  0
SPLINE
  5
3B2
100
AcDbEntity
  8
349160010
100
AcDbSpline
 62
7
  6
CONTINUOUS
 70
0
 71
3
 72
12
 73
8
 74
0
 42
0.0000001
 43
0.0000001
 44
0.0000000001
 40
0.0
 40
0.0
 40
0.0
 40
0.0
 40
0.244044081
 40
0.5170216051
 40
0.7809852567
 40
0.8980924233
 40
1.0
 40
1.0
 40
1.0
 40
1.0
 10
121.6572479992
 20
107.6990173881
 30
0.0
 10
121.6365518869
 20
107.7093654442
 30
0.0
 10
121.5906752091
 20
107.7272166212
 30
0.0
 10
121.5189875619
 20
107.7461454926
 30
0.0
 10
121.4575084597
 20
107.7555553894
 30
0.0
 10
121.4117358783
 20
107.7577591572
 30
0.0
 10
121.3909393438
 20
107.7569825344
 30
0.0
 10
121.3813269406
 20
107.7560015284
 30
0.0
  0
SPLINE
  5
3B3
100
AcDbEntity
  8
349160010
100
AcDbSpline
 62
7
  6
CONTINUOUS
 70
0
 71
3
 72
12
 73
8
 74
0
 42
0.0000001
 43
0.0000001
 44
0.0000000001
 40
0.0
 40
0.0
 40
0.0
 40
0.0
 40
0.244044081
 40
0.5170216051
 40
0.7809852567
 40
0.8980924233
 40
1.0
 40
1.0
 40
1.0
 40
1.0
 10
117.6267393464
 20
109.7142717144
 30
0.0
 10
117.6060432341
 20
109.7246197706
 30
0.0
 10
117.5601665563
 20
109.7424709476
 30
0.0
 10
117.4884789091
 20
109.7613998189
 30
0.0
 10
117.4269998069
 20
109.7708097158
 30
0.0
 10
117.3812272255
 20
109.7730134836
 30
0.0
 10
117.360430691
 20
109.7722368608
 30
0.0
 10
117.3508182878
 20
109.7712558548
 30
0.0
  0
ELLIPSE
  5
3B4
100
AcDbEntity
  8
290160210
100
AcDbEllipse
 62
7
  6
CONTINUOUS
 10
123.5166525602
 20
65.1319057193
 30
0.0
 11
-0.104420145
 21
0.2814790505
 31
0.0
 40
0.6608017523
 41
-3.1755736989
 42
-2.1865485768
  0
ELLIPSE
  5
3B5
100
AcDbEntity
  8
290160210
100
AcDbEllipse
 62
7
  6
CONTINUOUS
 10
126.0887904534
 20
96.3902463375
 30
0.0
 11
-0.1042257897
 21
0.2813673218
 31
0.0
 40
0.6615609576
 41
-2.1854202306
 42
-0.615232984
  0
ELLIPSE
  5
3B6
100
AcDbEntity
  8
268160210
100
AcDbEllipse
 62
7
  6
CONTINUOUS
 10
122.3310183253
 20
83.2274923106
 30
0.0
 11
6.8993077073
 21
13.3201938412
 31
0.0
 40
0.6229838795
 41
0.3057595196
 42
0.6936054221
  0
ELLIPSE
  5
3B7
100
AcDbEntity
  8
268160210
100
AcDbEllipse
 62
7
  6
CONTINUOUS
 10
126.2075719282
 20
103.5926642852
 30
0.0
 11
-0.1118151638
 21
0.2236219863
 31
0.0
 40
0.6123267458
 41
-0.6846978779
 42
0.0095104069
  0
ELLIPSE
  5
3B8
100
AcDbEntity
  8
268160210
100
AcDbEllipse
 62
7
  6
CONTINUOUS
 10
110.0855575138
 20
111.6536714924
 30
0.0
 11
-0.1118523001
 21
0.2236266191
 31
0.0
 40
0.6122950388
 41
-0.6847996396
 42
0.0137852339
  0
ELLIPSE
  5
3B9
100
AcDbEntity
  8
268160210
100
AcDbEllipse
 62
7
  6
CONTINUOUS
 10
117.7363220282
 20
112.3882603647
 30
0.0
 11
0.9999938762
 21
-0.0070751823
 31
0.0
 40
0.4946372042
 41
0.7888978189
 42
2.3509674995
  0
ELLIPSE
  5
3BA
100
AcDbEntity
  8
268160210
100
AcDbEllipse
 62
7
  6
CONTINUOUS
 10
127.2681984406
 20
61.9261608377
 30
0.0
 11
-0.1118523001
 21
0.2236266191
 31
0.0
 40
0.6122950388
 41
-3.1553778885
 42
-2.2557482655
  0
ELLIPSE
  5
3BB
100
AcDbEntity
  8
268160210
100
AcDbEllipse
 62
7
  6
CONTINUOUS
 10
127.2681984406
 20
103.062351029
 30
0.0
 11
-0.1118222789
 21
0.2235999171
 31
0.0
 40
0.6124778111
 41
-2.255529033
 42
-0.6848850053
  0
ELLIPSE
  5
3BC
100
AcDbEntity
  8
268160210
100
AcDbEllipse
 62
7
  6
CONTINUOUS
 10
111.1461840262
 20
111.1233582362
 30
0.0
 11
-0.1118001475
 21
0.2236086385
 31
0.0
 40
0.6124181287
 41
-2.2554606976
 42
-0.6847405232
  0
ELLIPSE
  5
3BD
100
AcDbEntity
  8
268160210
100
AcDbEllipse
 62
7
  6
CONTINUOUS
 10
127.8692661326
 20
107.5648809291
 30
0.0
 11
0.9980068092
 21
-0.2399287748
 31
0.0
 40
0.2630210944
 41
1.892015834
 42
2.4193427802
  0
ELLIPSE
  5
3BE
100
AcDbEntity
  8
268160210
100
AcDbEllipse
 62
7
  6
CONTINUOUS
 10
128.8817167724
 20
106.9988336365
 30
0.0
 11
0.3472651546
 21
0.6704497567
 31
0.0
 40
0.6229838795
 41
0.0088862197
 42
0.6936054221
  0
ELLIPSE
  5
3BF
100
AcDbEntity
  8
268160210
100
AcDbEllipse
 62
7
  6
CONTINUOUS
 10
118.8633555633
 20
112.008014241
 30
0.0
 11
0.3424075876
 21
0.6729038513
 31
0.0
 40
0.6176975122
 41
0.004358182
 42
0.6890773845
  0
ELLIPSE
  5
3C0
100
AcDbEntity
  8
268160210
100
AcDbEllipse
 62
7
  6
CONTINUOUS
 10
126.2219381248
 20
96.5705414966
 30
0.0
 11
0.321967693
 21
0.6216090459
 31
0.0
 40
0.6229838795
 41
-0.8771909047
 42
0.3057595196
  0
ELLIPSE
  5
3C1
100
AcDbEntity
  8
268160210
100
AcDbEllipse
 62
7
  6
CONTINUOUS
 10
122.3310183253
 20
76.6456992418
 30
0.0
 11
6.8993077073
 21
13.3201938412
 31
0.0
 40
0.6229838795
 41
3.8351980757
 42
4.2230439782
  0
ELLIPSE
  5
3C2
100
AcDbEntity
  8
268160210
100
AcDbEllipse
 62
7
  6
CONTINUOUS
 10
126.2219381248
 20
67.0600676299
 30
0.0
 11
0.321967693
 21
0.6216090459
 31
0.0
 40
0.6229838795
 41
-2.0601413289
 42
-0.8771909047
  0
ELLIPSE
  5
3C3
100
AcDbEntity
  8
268160210
100
AcDbEllipse
 62
7
  6
CONTINUOUS
 10
109.1891149592
 20
109.5249118137
 30
0.0
 11
0.9733704753
 21
0.006985661
 31
0.0
 40
0.5053247124
 41
3.1379660677
 42
5.4854339116
  0
ELLIPSE
  5
3C4
100
AcDbEntity
  8
268160210
100
AcDbEllipse
 62
7
  6
CONTINUOUS
 10
125.2985630878
 20
101.4701877494
 30
0.0
 11
0.9733704753
 21
0.006985661
 31
0.0
 40
0.5053247124
 41
3.1379660678
 42
4.7437533698
  0
ELLIPSE
  5
3C5
100
AcDbEntity
  8
268160210
100
AcDbEllipse
 62
7
  6
CONTINUOUS
 10
120.7981983207
 20
111.100414835
 30
0.0
 11
0.9980068092
 21
-0.2399287748
 31
0.0
 40
0.2630210944
 41
-0.7222498733
 42
-0.1949229271
  0
ELLIPSE
  5
3C6
100
AcDbEntity
  8
268160210
100
AcDbEllipse
 62
7
  6
CONTINUOUS
 10
124.4885771939
 20
70.8538956991
 30
0.0
 11
-0.5425076645
 21
0.8448521158
 31
0.0
 40
0.5465586794
 41
-3.2003291465
 42
-2.3142520245
  0
ELLIPSE
  5
3C7
100
AcDbEntity
  8
268160210
100
AcDbEllipse
 62
7
  6
CONTINUOUS
 10
130.1505912128
 20
106.3643964163
 30
0.0
 11
0.3329775165
 21
0.6776194794
 31
0.0
 40
0.607010042
 41
5.3929141747
 42
6.9637105015
  0
ELLIPSE
  5
3C8
100
AcDbEntity
  8
268160210
100
AcDbEllipse
 62
7
  6
CONTINUOUS
 10
120.1322300038
 20
111.3735770208
 30
0.0
 11
0.3283977615
 21
0.6798881985
 31
0.0
 40
0.6016116119
 41
5.3888788736
 42
6.9596752004
  0
ELLIPSE
  5
3C9
100
AcDbEntity
  8
268160210
100
AcDbEllipse
 62
7
  6
CONTINUOUS
 10
120.1322300038
 20
110.8336025612
 30
0.0
 11
0.3283977615
 21
0.6798881985
 31
0.0
 40
0.6016116119
 41
-0.0082293099
 42
0.3274240428
  0
ELLIPSE
  5
3CA
100
AcDbEntity
  8
268160210
100
AcDbEllipse
 62
7
  6
CONTINUOUS
 10
111.4070951516
 20
107.5909113779
 30
0.0
 11
0.8189691469
 21
0.0058775574
 31
0.0
 40
0.5053247124
 41
3.1379660665
 42
5.4854339116
  0
ELLIPSE
  5
3CB
100
AcDbEntity
  8
268160210
100
AcDbEllipse
 62
7
  6
CONTINUOUS
 10
121.4480114445
 20
102.5704532314
 30
0.0
 11
0.8189691469
 21
0.0058775574
 31
0.0
 40
0.5053247124
 41
3.1379660665
 42
5.4854339116
  0
ELLIPSE
  5
3CC
100
AcDbEntity
  8
218160210_GEN
100
AcDbEllipse
 62
7
  6
CONTINUOUS
 10
127.3035591652
 20
61.865197345
 30
0.0
 11
-0.0894803643
 21
0.1789340454
 31
0.0
 40
0.6121897086
 41
2.6743564489
 42
4.0274505145
  0
ELLIPSE
  5
3CD
100
AcDbEntity
  8
218160210_GEN
100
AcDbEllipse
 62
7
  6
CONTINUOUS
 10
139.0011806005
 20
76.1054982369
 30
0.0
 11
0.2174819613
 21
0.4502570851
 31
0.0
 40
0.6016116119
 41
-0.0082293098
 42
0.6764898932
  0
ELLIPSE
  5
3CE
100
AcDbEntity
  8
218160210_GEN
100
AcDbEllipse
 62
7
  6
CONTINUOUS
 10
127.3035591652
 20
103.0879537971
 30
0.0
 11
-0.0894323102
 21
0.1788913307
 31
0.0
 40
0.6125552124
 41
-2.255296188
 42
-0.6848044477
  0
ELLIPSE
  5
3CF
100
AcDbEntity
  8
218160210_GEN
100
AcDbEllipse
 62
7
  6
CONTINUOUS
 10
110.0501967891
 20
111.7146349851
 30
0.0
 11
-0.0894803643
 21
0.1789340454
 31
0.0
 40
0.6121897086
 41
-0.6846338794
 42
0.4695771695
  0
ELLIPSE
  5
3D0
100
AcDbEntity
  8
218160210_GEN
100
AcDbEllipse
 62
7
  6
CONTINUOUS
 10
111.1461907575
 20
111.1666380009
 30
0.0
 11
-0.0894247358
 21
0.1789148665
 31
0.0
 40
0.6123537661
 41
-0.7320348708
 42
-0.6845550499
  0
ELLIPSE
  5
3D1
100
AcDbEntity
  8
218160210_GEN
100
AcDbEllipse
 62
7
  6
CONTINUOUS
 10
126.2075651968
 20
103.6359507813
 30
0.0
 11
-0.0894247358
 21
0.1789148665
 31
0.0
 40
0.6123537661
 41
-0.6845550499
 42
-0.6370752291
  0
ENDSEC
  0
SECTION
  2
OBJECTS
  0
DICTIONARY
  5
C
100
AcDbDictionary
280
0
281
1
  3
ACAD_GROUP
350
D
  3
ACAD_MLINESTYLE
350
17
  3
ACAD_LAYOUT
350
1A
  3
ACAD_PLOTSETTINGS
350
19
  3
ACAD_PLOTSTYLENAME
350
E
  0
DICTIONARY
  5
D
102
{ACAD_REACTORS
330
C
102
}
100
AcDbDictionary
280
0
281
1
  0
ACDBDICTIONARYWDFLT
  5
E
102
{ACAD_REACTORS
330
C
102
}
100
AcDbDictionary
281
1
  3
Normal
350
F
100
AcDbDictionaryWithDefault
340
F
  0
DICTIONARY
  5
17
102
{ACAD_REACTORS
330
C
102
}
100
AcDbDictionary
280
0
281
1
  3
Standard
350
18
  0
DICTIONARY
  5
19
102
{ACAD_REACTORS
330
C
102
}
100
AcDbDictionary
281
1
  0
DICTIONARY
  5
1A
102
{ACAD_REACTORS
330
C
102
}
100
AcDbDictionary
281
1
  3
Model
350
3D2
  3
Layout1
350
3D3
  0
ACDBPLACEHOLDER
  5
F
102
{ACAD_REACTORS
330
E
102
}
  0
MLINESTYLE
  5
18
102
{ACAD_REACTORS
330
17
102
}
100
AcDbMlineStyle
  2
STANDARD
 70
0
  3

 62
256
 51
90.0
 52
90.0
 71
2
 49
0.5
 62
256
  6
BYLAYER
 49
-0.5
 62
256
  6
BYLAYER
  0
LAYOUT
  5
3D2
102
{ACAD_REACTORS
330
1A
102
}
100
AcDbPlotSettings
  1

  2
none_device
  4
ISO_A4_(297.00_x_210.00_MM)
  6

 40
0.0
 41
0.0
 42
0.0
 43
0.0
 44
297.0
 45
210.0
 46
0.0
 47
0.0
 48
0.0
 49
0.0
140
0.0
141
0.0
142
1.0
143
1.0
 70
1024
 72
1
 73
0
 74
0
  7

 75
0
147
1.0
148
0.0
149
0.0
100
AcDbLayout
  1
Model
 70
0
 71
0
 10
0.0
 20
0.0
 11
297.0
 21
210.0
 12
0.0
 22
0.0
 32
0.0
 14
0.0
 24
0.0
 34
0.0
 15
0.0
 25
0.0
 35
0.0
146
0.0
 13
0.0
 23
0.0
 33
0.0
 16
1.0
 26
0.0
 36
0.0
 17
0.0
 27
1.0
 37
0.0
 76
0
330
22A
345
0
346
0
  0
LAYOUT
  5
3D3
102
{ACAD_REACTORS
330
1A
102
}
100
AcDbPlotSettings
  1

  2
none_device
  4
ISO_A4_(297.00_x_210.00_MM)
  6

 40
0.0
 41
0.0
 42
0.0
 43
0.0
 44
297.0
 45
210.0
 46
0.0
 47
0.0
 48
0.0
 49
0.0
140
0.0
141
0.0
142
1.0
143
1.0
 70
0
 72
1
 73
0
 74
0
  7

 75
0
147
1.0
148
0.0
149
0.0
100
AcDbLayout
  1
Layout1
 70
0
 71
1
 10
0.0
 20
0.0
 11
297.0
 21
210.0
 12
0.0
 22
0.0
 32
0.0
 14
0.0
 24
0.0
 34
0.0
 15
0.0
 25
0.0
 35
0.0
146
0.0
 13
0.0
 23
0.0
 33
0.0
 16
1.0
 26
0.0
 36
0.0
 17
0.0
 27
1.0
 37
0.0
 76
0
330
22B
345
0
346
0
  0
ENDSEC
  0
EOF
