  0
SECTION
  2
HEADER
  9
$ACADVER
  1
AC1024
  9
$DWGCODEPAGE
  3
ANSI_1252
  9
$EXTMAX
 10
297.0
 20
210.0
 30
0.0
  9
$EXTMIN
 10
0.0
 20
0.0
 30
0.0
  9
$LIMMIN
 10
0.0
 20
0.0
  9
$LIMMAX
 10
297.0
 20
210.0
  9
$VIEWCTR
 10
148.5
 20
105.0
  9
$VIEWSIZE
 40
210.0
  9
$CLAYER
  8
0
  9
$LTSCALE
 40
16.335
  9
$CELTYPE
  6
BYLAYER
  9
$DIMSCALE
 40
1.0
  9
$DIMASZ
 40
3.0
  9
$DIMEXO
 40
0.5
  9
$DIMDLI
 40
11.286
  9
$DIMEXE
 40
1.5
  9
$DIMCEN
 40
2.673
  9
$DIMLFAC
 40
1.0
  9
$DIMBLK
  1
_FILLED
  9
$DIMALT
 70
0
  9
$DIMALTF
 40
0.0393700787
  9
$DIMTXT
 40
3.0
  9
$DIMTOL
 70
1
  9
$DIMLIM
 70
0
  9
$DIMTFAC
 40
1.0
  9
$DIMTP
 40
0.01
  9
$DIMTM
 40
0.01
  9
$DIMGAP
 40
0.625
  9
$DIMDSEP
 70
44
  9
$AUNITS
 70
0
  9
$PDMODE
 70
3
  9
$PDSIZE
 40
3.0
  9
$HANDSEED
  5
40F
  9
$TILEMODE
 70
1
  9
$MEASUREMENT
 70
1
  9
$INSUNITS
 70
4
  0
ENDSEC
  0
SECTION
  2
CLASSES
  0
CLASS
  1
ACDBDICTIONARYWDFLT
  2
AcDbDictionaryWithDefault
  3
AutoCAD 2000
 90
0
 91
1
280
0
281
0
  0
CLASS
  1
ACDBPLACEHOLDER
  2
AcDbPlaceHolder
  3
AutoCAD 2000
 90
0
 91
1
280
0
281
0
  0
CLASS
  1
LAYOUT
  2
AcDbLayout
  3
AutoCAD 2000
 90
0
 91
0
280
0
281
0
  0
ENDSEC
  0
SECTION
  2
TABLES
  0
TABLE
  2
VPORT
  5
8
100
AcDbSymbolTable
 70
2
  0
VPORT
  5
1F4
100
AcDbSymbolTableRecord
100
AcDbViewportTableRecord
  2
*ACTIVE
 70
0
 10
0.0
 20
0.0
 11
1.0
 21
1.0
 12
148.5
 22
105.0
 13
0.0
 23
0.0
 14
1.0
 24
1.0
 15
0.0
 25
0.0
 16
0.0
 26
0.0
 36
1.0
 17
0.0
 27
0.0
 37
0.0
 40
210.0
 41
1.4142857143
 42
50.0
 43
0.0
 44
0.0
 50
0.0
 51
0.0
 71
0
 72
100
 73
1
 74
1
 75
0
 76
0
 77
0
 78
0
  0
ENDTAB
  0
TABLE
  2
LTYPE
  5
5
100
AcDbSymbolTable
 70
6
  0
LTYPE
  5
14
100
AcDbSymbolTableRecord
100
AcDbLinetypeTableRecord
  2
BYBLOCK
 70
0
  3

 72
65
 73
0
 40
0.0
  0
LTYPE
  5
15
100
AcDbSymbolTableRecord
100
AcDbLinetypeTableRecord
  2
BYLAYER
 70
0
  3

 72
65
 73
0
 40
0.0
  0
LTYPE
  5
16
100
AcDbSymbolTableRecord
100
AcDbLinetypeTableRecord
  2
CONTINUOUS
 70
64
  3
Solid line
 72
65
 73
0
 40
0.0
  0
LTYPE
  5
1F5
100
AcDbSymbolTableRecord
100
AcDbLinetypeTableRecord
  2
CENTER
 70
64
  3
____ _ ____ _ ____ _ ____ _ ____ _ ____ _ ____
 72
65
 73
4
 40
0.6
 49
0.375
 74
0
 49
-0.075
 74
0
 49
0.075
 74
0
 49
-0.075
 74
0
  0
LTYPE
  5
1F6
100
AcDbSymbolTableRecord
100
AcDbLinetypeTableRecord
  2
HIDDEN
 70
64
  3
- - - - - - - - - - - - - - - - - - - -
 72
65
 73
2
 40
0.2
 49
0.1
 74
0
 49
-0.1
 74
0
  0
LTYPE
  5
1F7
100
AcDbSymbolTableRecord
100
AcDbLinetypeTableRecord
  2
PHANTOM
 70
64
  3
_____ _ _ _____ _ _ _____ _ _ _____
 72
65
 73
6
 40
0.8
 49
0.45
 74
0
 49
-0.05
 74
0
 49
0.1
 74
0
 49
-0.05
 74
0
 49
0.1
 74
0
 49
-0.05
 74
0
  0
LTYPE
  5
1F8
100
AcDbSymbolTableRecord
100
AcDbLinetypeTableRecord
  2
DOT
 70
64
  3
. . . . . . . . . . . . . . . . . . . .
 72
65
 73
2
 40
0.2
 49
0.1
 74
0
 49
-0.1
 74
0
  0
LTYPE
  5
1F9
100
AcDbSymbolTableRecord
100
AcDbLinetypeTableRecord
  2
DASHED
 70
64
  3
- - - - - - - - - - - - - - - - - - - -
 72
65
 73
2
 40
0.2
 49
0.1
 74
0
 49
-0.1
 74
0
  0
ENDTAB
  0
TABLE
  2
LAYER
  5
2
100
AcDbSymbolTable
 70
36
  0
LAYER
  5
10
100
AcDbSymbolTableRecord
100
AcDbLayerTableRecord
  2
0
 70
0
 62
7
  6
CONTINUOUS
370
-3
390
F
  0
LAYER
  5
1FA
100
AcDbSymbolTableRecord
100
AcDbLayerTableRecord
  2
DEFAULT_1
 70
0
 62
7
  6
CENTER
370
-3
390
F
  0
LAYER
  5
1FB
100
AcDbSymbolTableRecord
100
AcDbLayerTableRecord
  2
DEFAULT_2
 70
0
 62
7
  6
HIDDEN
370
-3
390
F
  0
LAYER
  5
1FC
100
AcDbSymbolTableRecord
100
AcDbLayerTableRecord
  2
DEFAULT_3
 70
0
 62
7
  6
PHANTOM
370
-3
390
F
  0
LAYER
  5
1FD
100
AcDbSymbolTableRecord
100
AcDbLayerTableRecord
  2
218160040
 70
0
 62
7
  6
CONTINUOUS
370
-3
390
F
  0
LAYER
  5
1FE
100
AcDbSymbolTableRecord
100
AcDbLayerTableRecord
  2
218160250
 70
0
 62
7
  6
CONTINUOUS
370
-3
390
F
  0
LAYER
  5
1FF
100
AcDbSymbolTableRecord
100
AcDbLayerTableRecord
  2
268160210
 70
0
 62
7
  6
CONTINUOUS
370
-3
390
F
  0
LAYER
  5
200
100
AcDbSymbolTableRecord
100
AcDbLayerTableRecord
  2
284160010
 70
0
 62
7
  6
CONTINUOUS
370
-3
390
F
  0
LAYER
  5
201
100
AcDbSymbolTableRecord
100
AcDbLayerTableRecord
  2
290160010
 70
0
 62
7
  6
CONTINUOUS
370
-3
390
F
  0
LAYER
  5
202
100
AcDbSymbolTableRecord
100
AcDbLayerTableRecord
  2
320160050
 70
0
 62
7
  6
CONTINUOUS
370
-3
390
F
  0
LAYER
  5
203
100
AcDbSymbolTableRecord
100
AcDbLayerTableRecord
  2
341160050
 70
0
 62
7
  6
CONTINUOUS
370
-3
390
F
  0
LAYER
  5
204
100
AcDbSymbolTableRecord
100
AcDbLayerTableRecord
  2
349160010
 70
0
 62
7
  6
CONTINUOUS
370
-3
390
F
  0
LAYER
  5
205
100
AcDbSymbolTableRecord
100
AcDbLayerTableRecord
  2
349160010_
 70
0
 62
7
  6
CONTINUOUS
370
-3
390
F
  0
LAYER
  5
206
100
AcDbSymbolTableRecord
100
AcDbLayerTableRecord
  2
712160010
 70
0
 62
7
  6
CONTINUOUS
370
-3
390
F
  0
LAYER
  5
207
100
AcDbSymbolTableRecord
100
AcDbLayerTableRecord
  2
715160050
 70
0
 62
7
  6
CONTINUOUS
370
-3
390
F
  0
LAYER
  5
208
100
AcDbSymbolTableRecord
100
AcDbLayerTableRecord
  2
715160050_
 70
0
 62
7
  6
CONTINUOUS
370
-3
390
F
  0
LAYER
  5
209
100
AcDbSymbolTableRecord
100
AcDbLayerTableRecord
  2
ASSI
 70
0
 62
7
  6
CONTINUOUS
370
-3
390
F
  0
LAYER
  5
20A
100
AcDbSymbolTableRecord
100
AcDbLayerTableRecord
  2
COLOR2
 70
0
 62
7
  6
CONTINUOUS
370
-3
390
F
  0
LAYER
  5
20B
100
AcDbSymbolTableRecord
100
AcDbLayerTableRecord
  2
COORDINATE
 70
0
 62
7
  6
CONTINUOUS
370
-3
390
F
  0
LAYER
  5
20C
100
AcDbSymbolTableRecord
100
AcDbLayerTableRecord
  2
COORD_ORIGINE
 70
0
 62
7
  6
CONTINUOUS
370
-3
390
F
  0
LAYER
  5
20D
100
AcDbSymbolTableRecord
100
AcDbLayerTableRecord
  2
COSMETICHE
 70
0
 62
7
  6
CONTINUOUS
370
-3
390
F
  0
LAYER
  5
20E
100
AcDbSymbolTableRecord
100
AcDbLayerTableRecord
  2
COSMETICI
 70
0
 62
7
  6
CONTINUOUS
370
-3
390
F
  0
LAYER
  5
20F
100
AcDbSymbolTableRecord
100
AcDbLayerTableRecord
  2
CURVE
 70
0
 62
7
  6
CONTINUOUS
370
-3
390
F
  0
LAYER
  5
210
100
AcDbSymbolTableRecord
100
AcDbLayerTableRecord
  2
DRAFT
 70
0
 62
7
  6
CONTINUOUS
370
-3
390
F
  0
LAYER
  5
211
100
AcDbSymbolTableRecord
100
AcDbLayerTableRecord
  2
ESTENSIONE
 70
0
 62
7
  6
CONTINUOUS
370
-3
390
F
  0
LAYER
  5
212
100
AcDbSymbolTableRecord
100
AcDbLayerTableRecord
  2
IGES
 70
0
 62
7
  6
CONTINUOUS
370
-3
390
F
  0
LAYER
  5
213
100
AcDbSymbolTableRecord
100
AcDbLayerTableRecord
  2
IGES_LASER
 70
0
 62
7
  6
CONTINUOUS
370
-3
390
F
  0
LAYER
  5
214
100
AcDbSymbolTableRecord
100
AcDbLayerTableRecord
  2
IMPORT
 70
0
 62
7
  6
CONTINUOUS
370
-3
390
F
  0
LAYER
  5
215
100
AcDbSymbolTableRecord
100
AcDbLayerTableRecord
  2
INCISIONI_LASER
 70
0
 62
7
  6
CONTINUOUS
370
-3
390
F
  0
LAYER
  5
216
100
AcDbSymbolTableRecord
100
AcDbLayerTableRecord
  2
INTF_1
 70
0
 62
7
  6
CONTINUOUS
370
-3
390
F
  0
LAYER
  5
217
100
AcDbSymbolTableRecord
100
AcDbLayerTableRecord
  2
INTF_12
 70
0
 62
7
  6
CONTINUOUS
370
-3
390
F
  0
LAYER
  5
218
100
AcDbSymbolTableRecord
100
AcDbLayerTableRecord
  2
INTF_13
 70
0
 62
7
  6
CONTINUOUS
370
-3
390
F
  0
LAYER
  5
219
100
AcDbSymbolTableRecord
100
AcDbLayerTableRecord
  2
INTF_2
 70
0
 62
7
  6
CONTINUOUS
370
-3
390
F
  0
LAYER
  5
21A
100
AcDbSymbolTableRecord
100
AcDbLayerTableRecord
  2
INTF_YELLOW
 70
0
 62
7
  6
CONTINUOUS
370
-3
390
F
  0
LAYER
  5
21B
100
AcDbSymbolTableRecord
100
AcDbLayerTableRecord
  2
NOTE
 70
0
 62
7
  6
CONTINUOUS
370
-3
390
F
  0
LAYER
  5
21C
100
AcDbSymbolTableRecord
100
AcDbLayerTableRecord
  2
PIANI
 70
0
 62
7
  6
CONTINUOUS
370
-3
390
F
  0
LAYER
  5
21D
100
AcDbSymbolTableRecord
100
AcDbLayerTableRecord
  2
PIANI_CENTRAGGIO
 70
0
 62
7
  6
CONTINUOUS
370
-3
390
F
  0
LAYER
  5
21E
100
AcDbSymbolTableRecord
100
AcDbLayerTableRecord
  2
PIANI_COSTRUZIONE_RAGGI1
 70
0
 62
7
  6
CONTINUOUS
370
-3
390
F
  0
LAYER
  5
21F
100
AcDbSymbolTableRecord
100
AcDbLayerTableRecord
  2
PIANI_DI_RIFERIMENTO
 70
0
 62
7
  6
CONTINUOUS
370
-3
390
F
  0
LAYER
  5
220
100
AcDbSymbolTableRecord
100
AcDbLayerTableRecord
  2
PIANI_ORIGINE
 70
0
 62
7
  6
CONTINUOUS
370
-3
390
F
  0
LAYER
  5
221
100
AcDbSymbolTableRecord
100
AcDbLayerTableRecord
  2
PUNTI
 70
0
 62
7
  6
CONTINUOUS
370
-3
390
F
  0
LAYER
  5
222
100
AcDbSymbolTableRecord
100
AcDbLayerTableRecord
  2
RACCORDO
 70
0
 62
7
  6
CONTINUOUS
370
-3
390
F
  0
LAYER
  5
223
100
AcDbSymbolTableRecord
100
AcDbLayerTableRecord
  2
RGB__255__255__255__
 70
0
 62
7
  6
CONTINUOUS
370
-3
390
F
  0
LAYER
  5
224
100
AcDbSymbolTableRecord
100
AcDbLayerTableRecord
  2
RGB____0____0____0__
 70
0
 62
7
  6
CONTINUOUS
370
-3
390
F
  0
LAYER
  5
225
100
AcDbSymbolTableRecord
100
AcDbLayerTableRecord
  2
SMUSSO
 70
0
 62
7
  6
CONTINUOUS
370
-3
390
F
  0
LAYER
  5
226
100
AcDbSymbolTableRecord
100
AcDbLayerTableRecord
  2
SNAPLINE
 70
0
 62
7
  6
CONTINUOUS
370
-3
390
F
  0
LAYER
  5
227
100
AcDbSymbolTableRecord
100
AcDbLayerTableRecord
  2
SUPERFICI
 70
0
 62
7
  6
CONTINUOUS
370
-3
390
F
  0
LAYER
  5
228
100
AcDbSymbolTableRecord
100
AcDbLayerTableRecord
  2
TRACCIABILITA
 70
0
 62
7
  6
CONTINUOUS
370
-3
390
F
  0
LAYER
  5
229
100
AcDbSymbolTableRecord
100
AcDbLayerTableRecord
  2
TRASH
 70
0
 62
7
  6
CONTINUOUS
370
-3
390
F
  0
LAYER
  5
22A
100
AcDbSymbolTableRecord
100
AcDbLayerTableRecord
  2
XSEC_DATUMS
 70
0
 62
7
  6
CONTINUOUS
370
-3
390
F
  0
ENDTAB
  0
TABLE
  2
STYLE
  5
3
100
AcDbSymbolTable
 70
1
  0
STYLE
  5
11
100
AcDbSymbolTableRecord
100
AcDbTextStyleTableRecord
  2
STANDARD
 70
0
 40
0.0
 41
0.8
 50
0.0
 71
0
 42
0.2
  3
txt
  4

  0
STYLE
  5
22B
100
AcDbSymbolTableRecord
100
AcDbTextStyleTableRecord
  2
TEXTSTYLE_1
 70
0
 40
0.0
 41
0.8
 50
0.0
 71
0
 42
0.2
  3
gdt
  4

  0
ENDTAB
  0
TABLE
  2
VIEW
  5
6
100
AcDbSymbolTable
 70
0
  0
ENDTAB
  0
TABLE
  2
UCS
  5
7
100
AcDbSymbolTable
 70
0
  0
ENDTAB
  0
TABLE
  2
APPID
  5
9
100
AcDbSymbolTable
 70
1
  0
APPID
  5
22C
100
AcDbSymbolTableRecord
100
AcDbRegAppTableRecord
  2
ACAD
 70
0
  0
ENDTAB
  0
TABLE
  2
BLOCK_RECORD
  5
1
100
AcDbSymbolTable
 70
0
  0
BLOCK_RECORD
  5
22D
100
AcDbSymbolTableRecord
100
AcDbBlockTableRecord
  2
*Model_Space
  0
BLOCK_RECORD
  5
22E
100
AcDbSymbolTableRecord
100
AcDbBlockTableRecord
  2
*Paper_Space
  0
BLOCK_RECORD
  5
22F
100
AcDbSymbolTableRecord
100
AcDbBlockTableRecord
  2
_FILLED
  0
ENDTAB
  0
TABLE
  2
DIMSTYLE
  5
A
100
AcDbSymbolTable
 70
1
100
AcDbDimStyleTable
 71
0
  0
DIMSTYLE
105
230
100
AcDbSymbolTableRecord
100
AcDbDimStyleTableRecord
  2
STANDARD
 70
0
  3

  4

 40
1.0
 41
3.0
 42
0.5
 43
0.38
 44
1.5
 45
0.0
 46
0.0
 47
0.01
 48
0.01
140
3.0
141
0.09
142
0.0
143
25.4
144
1.0
145
0.0
146
1.0
147
0.625
 71
1.0
 72
0.0
 73
0
 74
0
 75
0
 76
0
 77
1
 78
8
 79
2
170
0
171
1
172
0
173
0
174
0
175
0
176
0
177
0
178
0
270
2
179
2
271
2
272
2
273
2
274
2
275
0
280
0
281
0
282
0
283
1
284
8
285
0
286
0
287
3
288
0
340
11
278
44
341
22F
342
22F
343
22F
344
22F
  0
ENDTAB
  0
ENDSEC
  0
SECTION
  2
BLOCKS
  0
BLOCK
  5
20
100
AcDbEntity
  8
0
100
AcDbBlockBegin
  2
*Model_Space
 70
0
 10
0.0
 20
0.0
 30
0.0
  3
*Model_Space
  1

  0
ENDBLK
  5
21
100
AcDbEntity
  8
0
100
AcDbBlockEnd
  0
BLOCK
  5
1C
100
AcDbEntity
  8
0
100
AcDbBlockBegin
  2
*Paper_Space
 70
0
 10
0.0
 20
0.0
 30
0.0
  3
*Paper_Space
  1

  0
ENDBLK
  5
1D
100
AcDbEntity
  8
0
100
AcDbBlockEnd
  0
BLOCK
  5
231
100
AcDbEntity
  8
0
100
AcDbBlockBegin
  2
_FILLED
 70
64
 10
0.0
 20
0.0
  3
_FILLED
  1

  0
SOLID
  5
232
100
AcDbEntity
  8
0
  6
BYBLOCK
 62
0
100
AcDbTrace
 10
0.0
 20
0.0
 11
-1.0
 21
0.3166666667
 12
-1.0
 22
-0.3166666667
 13
-1.0
 23
-0.3166666667
  0
ENDBLK
  5
233
100
AcDbEntity
  8
0
  6
BYBLOCK
 62
0
100
AcDbBlockEnd
  0
ENDSEC
  0
SECTION
  2
ENTITIES
  0
LWPOLYLINE
  5
234
100
AcDbEntity
  8
290160010
100
AcDbPolyline
 62
7
  6
CONTINUOUS
 90
9
 70
0
 10
128.4179147562
 20
44.5580978725
 10
128.4690982035
 20
44.5355300145
 10
128.5243752246
 20
44.5174356583
 10
128.5818785415
 20
44.5048117419
 10
128.6411927043
 20
44.4978546042
 10
128.7018882106
 20
44.4966842141
 10
128.7633218793
 20
44.5013474354
 10
128.8250845893
 20
44.5118094023
 10
128.8905175868
 20
44.5291093305
  0
LINE
  5
235
100
AcDbEntity
  8
290160010
100
AcDbLine
 62
7
  6
CONTINUOUS
 10
111.6714839407
 20
52.9313042638
 11
128.41817417
 21
44.5579591492
  0
LINE
  5
236
100
AcDbEntity
  8
268160210
100
AcDbLine
 62
7
  6
CONTINUOUS
 10
128.8330976952
 20
44.5139279994
 11
133.4329194603
 21
42.2140171169
  0
LINE
  5
237
100
AcDbEntity
  8
268160210
100
AcDbLine
 62
250
  6
CONTINUOUS
 10
128.9628611312
 20
44.5517780833
 11
133.3679461639
 21
42.349235567
  0
LINE
  5
238
100
AcDbEntity
  8
290160010
100
AcDbLine
 62
250
  6
CONTINUOUS
 10
111.4170307569
 20
53.5281500933
 11
128.1559241403
 21
45.1587034016
  0
LINE
  5
239
100
AcDbEntity
  8
290160010
100
AcDbLine
 62
7
  6
CONTINUOUS
 10
128.4179805854
 20
44.5580560098
 11
128.4181745617
 21
44.5579589533
  0
LWPOLYLINE
  5
23A
100
AcDbEntity
  8
268160210
100
AcDbPolyline
 62
7
  6
CONTINUOUS
 90
24
 70
0
 10
120.0444513587
 20
92.7557571137
 10
120.0253019189
 20
92.745345175
 10
119.9955566443
 20
92.7279504296
 10
119.9674866873
 20
92.7100074893
 10
119.9410874557
 20
92.691577651
 10
119.9162923887
 20
92.6726811389
 10
119.8929969065
 20
92.6532934741
 10
119.8711760283
 20
92.6334413698
 10
119.8508084769
 20
92.6131545559
 10
119.8318247011
 20
92.5924043818
 10
119.8142136374
 20
92.5712108755
 10
119.7979732411
 20
92.5496070418
 10
119.7830739861
 20
92.5275845362
 10
119.7695146963
 20
92.5051648334
 10
119.7573068606
 20
92.4823936669
 10
119.746453472
 20
92.4593093768
 10
119.7369563809
 20
92.4359497616
 10
119.72882221
 20
92.4123696374
 10
119.7220575251
 20
92.3886467315
 10
119.71665437
 20
92.364835993
 10
119.7126020845
 20
92.3409952663
 10
119.7098891907
 20
92.3172158434
 10
119.70849144
 20
92.2935676202
 10
119.7082710538
 20
92.2796022431
  0
LINE
  5
23B
100
AcDbEntity
  8
268160210
100
AcDbLine
 62
7
  6
CONTINUOUS
 10
121.4643607457
 20
93.5063827857
 11
120.0444543421
 21
92.7557588913
  0
LINE
  5
23C
100
AcDbEntity
  8
268160210
100
AcDbLine
 62
250
  6
CONTINUOUS
 10
121.5780629811
 20
93.5002495472
 11
120.1597509277
 21
92.7504684952
  0
LINE
  5
23D
100
AcDbEntity
  8
268160210
100
AcDbLine
 62
7
  6
CONTINUOUS
 10
116.4242103232
 20
89.4968014234
 11
119.7082704772
 21
91.2328975604
  0
LINE
  5
23E
100
AcDbEntity
  8
268160210
100
AcDbLine
 62
250
  6
CONTINUOUS
 10
119.7088663024
 20
91.1669713848
 11
116.5395069086
 21
89.4915110271
  0
LINE
  5
23F
100
AcDbEntity
  8
268160210
100
AcDbLine
 62
250
  6
CONTINUOUS
 10
121.1871262595
 20
92.241291858
 11
122.638729883
 21
92.9699160963
  0
LINE
  5
240
100
AcDbEntity
  8
268160210
100
AcDbLine
 62
250
  6
CONTINUOUS
 10
121.3638962237
 20
91.9364087689
 11
122.8154998472
 21
92.6650330071
  0
LINE
  5
241
100
AcDbEntity
  8
218160250
100
AcDbLine
 62
7
  6
CONTINUOUS
 10
124.5479114611
 20
93.745300936
 11
128.3812397933
 21
95.6466600485
  0
LINE
  5
242
100
AcDbEntity
  8
268160210
100
AcDbLine
 62
7
  6
CONTINUOUS
 10
128.5279451582
 20
94.374869633
 11
127.1664932595
 21
93.7203476676
  0
LINE
  5
243
100
AcDbEntity
  8
218160250
100
AcDbLine
 62
7
  6
CONTINUOUS
 10
121.4012862848
 20
93.5886378954
 11
127.1694374154
 21
96.2525612374
  0
LINE
  5
244
100
AcDbEntity
  8
218160250
100
AcDbLine
 62
7
  6
CONTINUOUS
 10
122.7492880212
 20
92.9146370272
 11
124.5479114611
 21
93.745300936
  0
LINE
  5
245
100
AcDbEntity
  8
268160210
100
AcDbLine
 62
7
  6
CONTINUOUS
 10
133.3679461639
 20
45.236119815
 11
132.51139821
 21
45.6643937919
  0
LINE
  5
246
100
AcDbEntity
  8
268160210
100
AcDbLine
 62
250
  6
CONTINUOUS
 10
133.8235507196
 20
45.2853681812
 11
132.8519468525
 21
45.7711701227
  0
LINE
  5
247
100
AcDbEntity
  8
218160250
100
AcDbLine
 62
7
  6
CONTINUOUS
 10
138.9375344582
 20
43.251294427
 11
138.8224073963
 21
43.308857958
  0
LWPOLYLINE
  5
248
100
AcDbEntity
  8
290160010
100
AcDbPolyline
 62
7
  6
CONTINUOUS
 90
14
 70
0
 10
111.3291341458
 20
53.6328251183
 10
111.3281587916
 20
53.6100102956
 10
111.3286308428
 20
53.5286713061
 10
111.3353960513
 20
53.4500450499
 10
111.3485162266
 20
53.3741557825
 10
111.3679707824
 20
53.3016533057
 10
111.3933999961
 20
53.2338046864
 10
111.4243663427
 20
53.1711668046
 10
111.4606767763
 20
53.1137075438
 10
111.5019532721
 20
53.0617973798
 10
111.5476894751
 20
53.0157829872
 10
111.597359033
 20
52.9759203176
 10
111.6503390376
 20
52.9424597046
 10
111.6716543578
 20
52.931228214
  0
LWPOLYLINE
  5
249
100
AcDbEntity
  8
290160010
100
AcDbPolyline
 62
7
  6
CONTINUOUS
 90
10
 70
0
 10
113.7583002644
 20
83.1538281355
 10
113.4065033826
 20
79.8868820086
 10
113.0699067414
 20
76.5680684437
 10
112.7551239239
 20
73.2570803673
 10
112.4621827519
 20
69.954197131
 10
112.1911032662
 20
66.6596505331
 10
111.9419032974
 20
63.3736544785
 10
111.7146013554
 20
60.0964404199
 10
111.5092157442
 20
56.8282842884
 10
111.3291229408
 20
53.6327569441
  0
LINE
  5
24A
100
AcDbEntity
  8
268160210
100
AcDbLine
 62
7
  6
CONTINUOUS
 10
131.6247623981
 20
93.6574761967
 11
130.5270700858
 21
93.0891293645
  0
LINE
  5
24B
100
AcDbEntity
  8
268160210
100
AcDbLine
 62
7
  6
CONTINUOUS
 10
122.3154935928
 20
90.2276369513
 11
124.7010405335
 21
91.4414120529
  0
LINE
  5
24C
100
AcDbEntity
  8
268160210
100
AcDbLine
 62
7
  6
CONTINUOUS
 10
126.0285458804
 20
92.1168516805
 11
128.8259074873
 21
93.5401596065
  0
LINE
  5
24D
100
AcDbEntity
  8
268160210
100
AcDbLine
 62
7
  6
CONTINUOUS
 10
127.1664932595
 20
93.7203476676
 11
121.3638962237
 21
90.8077668661
  0
LINE
  5
24E
100
AcDbEntity
  8
349160010_
100
AcDbLine
 62
7
  6
CONTINUOUS
 10
125.078241547
 20
91.8439901916
 11
125.4418096796
 21
92.0257742579
  0
LINE
  5
24F
100
AcDbEntity
  8
268160210
100
AcDbLine
 62
7
  6
CONTINUOUS
 10
128.8259074873
 20
93.5401596065
 11
130.3558879577
 21
94.291913417
  0
LINE
  5
250
100
AcDbEntity
  8
268160210
100
AcDbLine
 62
7
  6
CONTINUOUS
 10
130.0986996934
 20
92.9037635035
 11
129.1443344193
 21
92.434837432
  0
LINE
  5
251
100
AcDbEntity
  8
268160210
100
AcDbLine
 62
7
  6
CONTINUOUS
 10
125.1246649505
 20
90.4597783392
 11
123.473654383
 21
89.6485565562
  0
LINE
  5
252
100
AcDbEntity
  8
218160250
100
AcDbLine
 62
7
  6
CONTINUOUS
 10
132.1206276907
 20
93.4731450338
 11
134.4953429438
 21
94.569867233
  0
LINE
  5
253
100
AcDbEntity
  8
218160250
100
AcDbLine
 62
250
  6
CONTINUOUS
 10
132.1437624078
 20
93.3662644828
 11
134.7111526563
 21
94.5519703799
  0
LINE
  5
254
100
AcDbEntity
  8
268160210
100
AcDbLine
 62
7
  6
CONTINUOUS
 10
116.2910495567
 20
86.3888999961
 11
116.2910495567
 21
89.2757842441
  0
LINE
  5
255
100
AcDbEntity
  8
268160210
100
AcDbLine
 62
250
  6
CONTINUOUS
 10
116.3642728614
 20
86.3005116485
 11
116.3642728614
 21
89.1873958965
  0
LINE
  5
256
100
AcDbEntity
  8
268160210
100
AcDbLine
 62
7
  6
CONTINUOUS
 10
130.2694992741
 20
90.7692079439
 11
129.6259197835
 21
90.4405395009
  0
LINE
  5
257
100
AcDbEntity
  8
268160210
100
AcDbLine
 62
7
  6
CONTINUOUS
 10
126.258014608
 20
88.7205901143
 11
125.7853483282
 21
88.479205029
  0
LINE
  5
258
100
AcDbEntity
  8
268160210
100
AcDbLine
 62
7
  6
CONTINUOUS
 10
128.2861366385
 20
91.3444386649
 11
127.7843113885
 21
91.0925503157
  0
LINE
  5
259
100
AcDbEntity
  8
268160210
100
AcDbLine
 62
7
  6
CONTINUOUS
 10
125.8255247612
 20
90.1093484339
 11
123.473654383
 21
88.928840384
  0
LINE
  5
25A
100
AcDbEntity
  8
268160210
100
AcDbLine
 62
7
  6
CONTINUOUS
 10
132.0538856692
 20
92.3257215728
 11
131.654334612
 21
92.1259460441
  0
LWPOLYLINE
  5
25B
100
AcDbEntity
  8
290160010
100
AcDbPolyline
 62
7
  6
CONTINUOUS
 90
19
 70
0
 10
114.4539757138
 20
84.1808366828
 10
114.4454089164
 20
84.1770875616
 10
114.3811706464
 20
84.1451590046
 10
114.3181188008
 20
84.1070466101
 10
114.2561491371
 20
84.0626188645
 10
114.1958605206
 20
84.0122363135
 10
114.1385366533
 20
83.9570776704
 10
114.0845993205
 20
83.8978766777
 10
114.0338990159
 20
83.8347435012
 10
113.9868004456
 20
83.768300735
 10
113.9435227311
 20
83.6990940364
 10
113.9041533636
 20
83.6274125599
 10
113.8688474437
 20
83.5536221622
 10
113.8377821274
 20
83.4781356216
 10
113.8111542962
 20
83.4013316356
 10
113.7891235897
 20
83.3235009687
 10
113.7719009646
 20
83.2449481336
 10
113.7597335687
 20
83.1660895618
 10
113.7583018241
 20
83.1537511274
  0
LINE
  5
25C
100
AcDbEntity
  8
290160010
100
AcDbLine
 62
7
  6
CONTINUOUS
 10
114.453911284
 20
84.180818891
 11
117.7579834402
 21
85.6036563591
  0
LINE
  5
25D
100
AcDbEntity
  8
290160010
100
AcDbLine
 62
250
  6
CONTINUOUS
 10
114.5873640184
 20
84.1718548507
 11
117.8293682902
 21
85.5679639341
  0
LINE
  5
25E
100
AcDbEntity
  8
268160210
100
AcDbLine
 62
250
  6
CONTINUOUS
 10
137.9049351247
 20
48.2208909038
 11
135.4510882025
 21
49.4478143649
  0
LINE
  5
25F
100
AcDbEntity
  8
268160210
100
AcDbLine
 62
250
  6
CONTINUOUS
 10
138.2180850823
 20
48.9332850913
 11
135.5197669264
 21
50.2824441692
  0
LINE
  5
260
100
AcDbEntity
  8
268160210
100
AcDbLine
 62
7
  6
CONTINUOUS
 10
138.2180850823
 20
49.5821002169
 11
136.8869247928
 21
50.2476803617
  0
LINE
  5
261
100
AcDbEntity
  8
268160210
100
AcDbLine
 62
7
  6
CONTINUOUS
 10
136.3199399688
 20
51.5353268968
 11
136.775038165
 21
51.3077777987
  0
LINE
  5
262
100
AcDbEntity
  8
268160210
100
AcDbLine
 62
7
  6
CONTINUOUS
 10
119.7082704772
 20
91.149759993
 11
119.7082704772
 21
92.2797214384
  0
LINE
  5
263
100
AcDbEntity
  8
268160210
100
AcDbLine
 62
250
  6
CONTINUOUS
 10
121.3638962237
 20
90.8077668661
 11
121.3638962237
 21
91.9364087689
  0
LINE
  5
264
100
AcDbEntity
  8
218160250
100
AcDbLine
 62
7
  6
CONTINUOUS
 10
121.4012862848
 20
93.5886378954
 11
121.4012862848
 21
93.4730388996
  0
LINE
  5
265
100
AcDbEntity
  8
268160210
100
AcDbLine
 62
7
  6
CONTINUOUS
 10
135.224866802
 20
87.5825398374
 11
131.4422025777
 21
85.6507779043
  0
LINE
  5
266
100
AcDbEntity
  8
268160210
100
AcDbLine
 62
7
  6
CONTINUOUS
 10
132.3564098856
 20
85.2071788049
 11
138.8668237801
 21
88.5197014601
  0
LINE
  5
267
100
AcDbEntity
  8
349160010_
100
AcDbLine
 62
250
  6
CONTINUOUS
 10
131.4662635088
 20
87.1308697967
 11
131.6243727721
 21
87.2099244284
  0
LINE
  5
268
100
AcDbEntity
  8
349160010_
100
AcDbLine
 62
7
  6
CONTINUOUS
 10
133.5635229212
 20
87.6013495044
 11
133.9270910538
 21
87.7831335708
  0
LINE
  5
269
100
AcDbEntity
  8
268160210
100
AcDbLine
 62
7
  6
CONTINUOUS
 10
137.3111888615
 20
89.2975189194
 11
137.7107399187
 21
89.497294448
  0
LINE
  5
26A
100
AcDbEntity
  8
349160010_
100
AcDbLine
 62
7
  6
CONTINUOUS
 10
133.5635229212
 20
87.2549393429
 11
133.9270910538
 21
87.4367234092
  0
LINE
  5
26B
100
AcDbEntity
  8
349160010_
100
AcDbLine
 62
250
  6
CONTINUOUS
 10
133.3513908869
 20
86.8890657046
 11
133.0685481744
 21
86.7476443484
  0
LINE
  5
26C
100
AcDbEntity
  8
349160010_
100
AcDbLine
 62
7
  6
CONTINUOUS
 10
133.3513908869
 20
86.6292580835
 11
133.0685481744
 21
86.4878367273
  0
LINE
  5
26D
100
AcDbEntity
  8
268160210
100
AcDbLine
 62
7
  6
CONTINUOUS
 10
140.3742491667
 20
89.2827328124
 11
139.2375555021
 21
88.7338866563
  0
LINE
  5
26E
100
AcDbEntity
  8
268160210
100
AcDbLine
 62
7
  6
CONTINUOUS
 10
122.0806530134
 20
89.2165846977
 11
122.0806530134
 21
89.9406235328
  0
LINE
  5
26F
100
AcDbEntity
  8
218160250
100
AcDbLine
 62
7
  6
CONTINUOUS
 10
122.7492880212
 20
92.9146370272
 11
122.7492880212
 21
92.8670354302
  0
LINE
  5
270
100
AcDbEntity
  8
268160210
100
AcDbLine
 62
7
  6
CONTINUOUS
 10
122.8154998472
 20
91.5363911044
 11
122.8154998472
 21
92.6650330071
  0
LINE
  5
271
100
AcDbEntity
  8
268160210
100
AcDbLine
 62
250
  6
CONTINUOUS
 10
123.473654383
 20
88.928840384
 11
123.473654383
 21
89.6485565562
  0
LINE
  5
272
100
AcDbEntity
  8
349160010_
100
AcDbLine
 62
250
  6
CONTINUOUS
 10
126.9805082023
 20
91.5754282977
 11
126.9638231689
 21
91.5041935974
  0
LWPOLYLINE
  5
273
100
AcDbEntity
  8
268160210
100
AcDbPolyline
 62
7
  6
CONTINUOUS
 90
24
 70
0
 10
136.1598785214
 20
84.7041666712
 10
136.1402980935
 20
84.6936979119
 10
136.1100742889
 20
84.6763028705
 10
136.0815377632
 20
84.6583363857
 10
136.0546830901
 20
84.6398579411
 10
136.0294471249
 20
84.6208892202
 10
136.0057319506
 20
84.6014108492
 10
135.9835125734
 20
84.5814495511
 10
135.9627682531
 20
84.5610351571
 10
135.9434349266
 20
84.540145114
 10
135.9255008309
 20
84.5187998747
 10
135.9089635711
 20
84.4970328913
 10
135.8937977697
 20
84.474843131
 10
135.8800024985
 20
84.4522555953
 10
135.8675861343
 20
84.4293148299
 10
135.8565505756
 20
84.4060602005
 10
135.8468971515
 20
84.3825318874
 10
135.8386307667
 20
84.3587849294
 10
135.8317556241
 20
84.3348951016
 10
135.826263159
 20
84.3109188138
 10
135.8221419413
 20
84.2869150287
 10
135.8193792493
 20
84.2629725841
 10
135.8179498868
 20
84.2391613941
 10
135.817719185
 20
84.2248707331
  0
LINE
  5
274
100
AcDbEntity
  8
268160210
100
AcDbLine
 62
7
  6
CONTINUOUS
 10
137.5869919775
 20
85.4456750114
 11
136.1598807199
 21
84.704168012
  0
LINE
  5
275
100
AcDbEntity
  8
268160210
100
AcDbLine
 62
250
  6
CONTINUOUS
 10
137.7000908601
 20
85.4392356077
 11
136.2736039521
 21
84.6980530117
  0
LINE
  5
276
100
AcDbEntity
  8
268160210
100
AcDbLine
 62
7
  6
CONTINUOUS
 10
141.6431236071
 20
88.6482955922
 11
140.1396159863
 21
87.883305357
  0
LINE
  5
277
100
AcDbEntity
  8
268160210
100
AcDbLine
 62
7
  6
CONTINUOUS
 10
140.1396159863
 20
87.2337863042
 11
133.5145706759
 21
83.9083822376
  0
LINE
  5
278
100
AcDbEntity
  8
218160250
100
AcDbLine
 62
7
  6
CONTINUOUS
 10
144.0433898349
 20
88.0553847976
 11
144.7004547249
 21
88.3839172426
  0
LINE
  5
279
100
AcDbEntity
  8
268160210
100
AcDbLine
 62
7
  6
CONTINUOUS
 10
142.1723302523
 20
88.2461215379
 11
140.1396159863
 21
87.2337863042
  0
LINE
  5
27A
100
AcDbEntity
  8
218160250
100
AcDbLine
 62
7
  6
CONTINUOUS
 10
137.5895327219
 20
85.4945146768
 11
139.3264431879
 21
86.3560350726
  0
LINE
  5
27B
100
AcDbEntity
  8
268160210
100
AcDbLine
 62
7
  6
CONTINUOUS
 10
140.1396159863
 20
87.883305357
 11
133.5145706759
 21
84.6280984098
  0
LINE
  5
27C
100
AcDbEntity
  8
218160250
100
AcDbLine
 62
250
  6
CONTINUOUS
 10
143.9025330269
 20
89.9562801946
 11
141.6060156185
 21
88.8571160682
  0
LINE
  5
27D
100
AcDbEntity
  8
218160250
100
AcDbLine
 62
250
  6
CONTINUOUS
 10
144.0237734425
 20
89.8078365649
 11
141.8169975766
 21
88.7516250892
  0
LINE
  5
27E
100
AcDbEntity
  8
218160250
100
AcDbLine
 62
7
  6
CONTINUOUS
 10
144.7004547249
 20
88.6761813188
 11
143.7302447618
 21
88.2118174871
  0
LINE
  5
27F
100
AcDbEntity
  8
218160250
100
AcDbLine
 62
7
  6
CONTINUOUS
 10
139.3264431879
 20
86.3560350726
 11
143.2959708786
 21
88.1892945058
  0
LINE
  5
280
100
AcDbEntity
  8
218160250
100
AcDbLine
 62
250
  6
CONTINUOUS
 10
145.069818532
 20
54.9074294444
 11
145.1831040741
 21
54.8507866733
  0
LINE
  5
281
100
AcDbEntity
  8
218160250
100
AcDbLine
 62
7
  6
CONTINUOUS
 10
124.5479114611
 20
93.745300936
 11
124.5479114611
 21
92.405965327
  0
LINE
  5
282
100
AcDbEntity
  8
349160010_
100
AcDbLine
 62
7
  6
CONTINUOUS
 10
124.5832668002
 20
90.7304774144
 11
124.5832668002
 21
90.9902850355
  0
LINE
  5
283
100
AcDbEntity
  8
349160010_
100
AcDbLine
 62
250
  6
CONTINUOUS
 10
128.930753887
 20
91.7744630948
 11
128.8433506822
 21
91.4013058509
  0
LINE
  5
284
100
AcDbEntity
  8
349160010_
100
AcDbLine
 62
250
  6
CONTINUOUS
 10
129.2066749457
 20
91.7174789544
 11
129.1192717408
 21
91.3443217106
  0
LINE
  5
285
100
AcDbEntity
  8
218160250
100
AcDbLine
 62
7
  6
CONTINUOUS
 10
132.8438076081
 20
86.3665610355
 11
132.9506622338
 21
86.5467796976
  0
LINE
  5
286
100
AcDbEntity
  8
218160250
100
AcDbLine
 62
7
  6
CONTINUOUS
 10
138.9375344582
 20
84.8205138086
 11
144.5077732565
 21
87.5833933169
  0
LINE
  5
287
100
AcDbEntity
  8
268160210
100
AcDbLine
 62
250
  6
CONTINUOUS
 10
137.2920526361
 20
84.1843176409
 11
138.7607577619
 21
84.9089021568
  0
LINE
  5
288
100
AcDbEntity
  8
268160210
100
AcDbLine
 62
250
  6
CONTINUOUS
 10
137.4672598768
 20
83.8786733829
 11
138.9375344582
 21
84.6040321884
  0
LINE
  5
289
100
AcDbEntity
  8
268160210
100
AcDbLine
 62
250
  6
CONTINUOUS
 10
136.8251479386
 20
82.6088305667
 11
133.5431802111
 21
80.9896743759
  0
LINE
  5
28A
100
AcDbEntity
  8
268160210
100
AcDbLine
 62
250
  6
CONTINUOUS
 10
137.4672598768
 20
82.5335333731
 11
133.7183874518
 21
80.6840301178
  0
LINE
  5
28B
100
AcDbEntity
  8
218160250
100
AcDbLine
 62
250
  6
CONTINUOUS
 10
147.1064689587
 20
87.4808946148
 11
146.8588059673
 21
87.3597101874
  0
LINE
  5
28C
100
AcDbEntity
  8
218160250
100
AcDbLine
 62
7
  6
CONTINUOUS
 10
145.1904121359
 20
85.656627094
 11
148.8867281058
 21
87.4257652315
  0
LINE
  5
28D
100
AcDbEntity
  8
218160250
100
AcDbLine
 62
250
  6
CONTINUOUS
 10
145.1904121359
 20
85.6081297625
 11
148.9755403657
 21
87.4197765252
  0
LINE
  5
28E
100
AcDbEntity
  8
349160010_
100
AcDbLine
 62
7
  6
CONTINUOUS
 10
126.1855514657
 20
89.7712258183
 11
126.2921400247
 21
88.2258091808
  0
LINE
  5
28F
100
AcDbEntity
  8
218160250
100
AcDbLine
 62
7
  6
CONTINUOUS
 10
129.0638786728
 20
95.1342131711
 11
129.0638786728
 21
94.5069936261
  0
LINE
  5
290
100
AcDbEntity
  8
349160010_
100
AcDbLine
 62
250
  6
CONTINUOUS
 10
131.2572846111
 20
90.6921741217
 11
131.2368533516
 21
90.6049453696
  0
LINE
  5
291
100
AcDbEntity
  8
349160010_
100
AcDbLine
 62
250
  6
CONTINUOUS
 10
131.0110168551
 20
89.5601739713
 11
130.9943318216
 21
89.4889392711
  0
LINE
  5
292
100
AcDbEntity
  8
349160010_
100
AcDbLine
 62
250
  6
CONTINUOUS
 10
132.9612625398
 20
89.7592087684
 11
132.8738593349
 21
89.3860515246
  0
LINE
  5
293
100
AcDbEntity
  8
349160010_
100
AcDbLine
 62
250
  6
CONTINUOUS
 10
133.2371835984
 20
89.702224628
 11
133.1497803935
 21
89.3290673842
  0
LINE
  5
294
100
AcDbEntity
  8
218160250
100
AcDbLine
 62
250
  6
CONTINUOUS
 10
151.0958529244
 20
86.3596202458
 11
145.1904121359
 21
83.4304780793
  0
LINE
  5
295
100
AcDbEntity
  8
268160210
100
AcDbLine
 62
7
  6
CONTINUOUS
 10
133.8235507196
 20
77.8479233635
 11
133.7183874518
 21
77.7971458699
  0
LINE
  5
296
100
AcDbEntity
  8
268160210
100
AcDbLine
 62
7
  6
CONTINUOUS
 10
136.7791863304
 20
62.9937578382
 11
136.5741708073
 21
63.0962655997
  0
LINE
  5
297
100
AcDbEntity
  8
218160250
100
AcDbLine
 62
250
  6
CONTINUOUS
 10
151.2348061376
 20
57.9908950173
 11
150.8484031498
 21
58.1840965112
  0
LINE
  5
298
100
AcDbEntity
  8
268160210
100
AcDbLine
 62
7
  6
CONTINUOUS
 10
130.0986996934
 20
92.9037635035
 11
130.0986996934
 21
92.5322363906
  0
LINE
  5
299
100
AcDbEntity
  8
268160210
100
AcDbLine
 62
7
  6
CONTINUOUS
 10
131.654334612
 20
92.1259460441
 11
131.654334612
 21
91.8395625453
  0
LINE
  5
29A
100
AcDbEntity
  8
349160010_
100
AcDbLine
 62
7
  6
CONTINUOUS
 10
131.3596749499
 20
85.6920417182
 11
131.4662635088
 21
87.1308697967
  0
LINE
  5
29B
100
AcDbEntity
  8
349160010_
100
AcDbLine
 62
7
  6
CONTINUOUS
 10
131.6363284627
 20
85.7499157005
 11
131.7401959878
 21
87.1520128205
  0
LINE
  5
29C
100
AcDbEntity
  8
349160010_
100
AcDbLine
 62
250
  6
CONTINUOUS
 10
133.9926434575
 20
87.456783721
 11
134.0800466624
 21
87.8299409649
  0
LINE
  5
29D
100
AcDbEntity
  8
349160010_
100
AcDbLine
 62
250
  6
CONTINUOUS
 10
135.2877932639
 20
88.6769197953
 11
135.2673620043
 21
88.5896910432
  0
LINE
  5
29E
100
AcDbEntity
  8
218160250
100
AcDbLine
 62
250
  6
CONTINUOUS
 10
151.5896825669
 20
84.3160099494
 11
152.5066452211
 21
84.7808064836
  0
LINE
  5
29F
100
AcDbEntity
  8
218160250
100
AcDbLine
 62
250
  6
CONTINUOUS
 10
151.5896825669
 20
83.8426389966
 11
152.7205959834
 21
84.4158844107
  0
LINE
  5
2A0
100
AcDbEntity
  8
218160250
100
AcDbLine
 62
250
  6
CONTINUOUS
 10
151.4493524671
 20
85.7499237225
 11
145.1904121359
 21
82.6454431768
  0
LINE
  5
2A1
100
AcDbEntity
  8
290160010
100
AcDbLine
 62
250
  6
CONTINUOUS
 10
137.6036394243
 20
78.2898672614
 11
131.3429210593
 21
75.7940763302
  0
LINE
  5
2A2
100
AcDbEntity
  8
290160010
100
AcDbLine
 62
250
  6
CONTINUOUS
 10
137.7935007096
 20
77.9143783893
 11
131.5365412688
 21
75.4200859266
  0
LWPOLYLINE
  5
2A3
100
AcDbEntity
  8
218160250
100
AcDbPolyline
 62
7
  6
CONTINUOUS
 90
42
 70
0
 10
151.3652680018
 20
57.9976040162
 10
150.978123645
 20
58.1911783069
 10
150.9739812045
 20
58.193335908
 10
150.9695910068
 20
58.1957557885
 10
150.9649601898
 20
58.1984501479
 10
150.9601014877
 20
58.2014274941
 10
150.955033032
 20
58.2046919614
 10
150.9497652768
 20
58.208251554
 10
150.9443100663
 20
58.2121128196
 10
150.9386880879
 20
58.2162750284
 10
150.9329126338
 20
58.2207415689
 10
150.9269952882
 20
58.225516473
 10
150.9209540175
 20
58.2305977739
 10
150.9148022049
 20
58.2359862547
 10
150.908552304
 20
58.2416828209
 10
150.9022203575
 20
58.2476842754
 10
150.8958195008
 20
58.2539892135
 10
150.8893627503
 20
58.2605956912
 10
150.8828652489
 20
58.2674987328
 10
150.8763396789
 20
58.2746950268
 10
150.8697994163
 20
58.2821798459
 10
150.8632599231
 20
58.2899451458
 10
150.8567325619
 20
58.297986742
 10
150.8502315959
 20
58.3062961588
 10
150.8437760843
 20
58.3148574509
 10
150.8373781073
 20
58.3236622576
 10
150.8310499465
 20
58.3327009999
 10
150.8248099293
 20
58.3419541234
 10
150.8186694838
 20
58.3514104667
 10
150.8126394797
 20
58.3610586346
 10
150.8067361426
 20
58.3708771746
 10
150.800969517
 20
58.3808530891
 10
150.7953490947
 20
58.3909731476
 10
150.7898888475
 20
58.4012143158
 10
150.7845970858
 20
58.4115622604
 10
150.7794816284
 20
58.4220023848
 10
150.7745541072
 20
58.4325103268
 10
150.7698208401
 20
58.4430708328
 10
150.7652876734
 20
58.4536684968
 10
150.7609637208
 20
58.4642780498
 10
150.7568532564
 20
58.474883395
 10
150.7534579948
 20
58.4841145887
  0
LINE
  5
2A4
100
AcDbEntity
  8
268160210
100
AcDbLine
 62
7
  6
CONTINUOUS
 10
132.1215693062
 20
84.1961265513
 11
132.1215693062
 21
84.9201653864
  0
LINE
  5
2A5
100
AcDbEntity
  8
268160210
100
AcDbLine
 62
7
  6
CONTINUOUS
 10
132.1493093589
 20
93.2752191563
 11
132.1493093589
 21
93.0454947385
  0
LINE
  5
2A6
100
AcDbEntity
  8
268160210
100
AcDbLine
 62
250
  6
CONTINUOUS
 10
132.9978374963
 20
92.3769114406
 11
132.9978374963
 21
91.8702459188
  0
LINE
  5
2A7
100
AcDbEntity
  8
349160010_
100
AcDbLine
 62
7
  6
CONTINUOUS
 10
133.0685481744
 20
86.4878367273
 11
133.0685481744
 21
86.7476443484
  0
LINE
  5
2A8
100
AcDbEntity
  8
268160210
100
AcDbLine
 62
7
  6
CONTINUOUS
 10
133.2907307151
 20
92.4744975829
 11
133.2907307151
 21
91.9011407218
  0
LINE
  5
2A9
100
AcDbEntity
  8
349160010_
100
AcDbLine
 62
7
  6
CONTINUOUS
 10
133.3513908869
 20
86.6292580835
 11
133.3513908869
 21
86.8890657046
  0
LINE
  5
2AA
100
AcDbEntity
  8
268160210
100
AcDbLine
 62
250
  6
CONTINUOUS
 10
133.3679461639
 20
80.6855592452
 11
133.3679461639
 21
77.7986749972
  0
LINE
  5
2AB
100
AcDbEntity
  8
268160210
100
AcDbLine
 62
250
  6
CONTINUOUS
 10
133.3679461639
 20
45.236119815
 11
133.3679461639
 21
42.349235567
  0
LINE
  5
2AC
100
AcDbEntity
  8
268160210
100
AcDbLine
 62
250
  6
CONTINUOUS
 10
133.5145706759
 20
83.9083822376
 11
133.5145706759
 21
84.6280984098
  0
LINE
  5
2AD
100
AcDbEntity
  8
349160010_
100
AcDbLine
 62
250
  6
CONTINUOUS
 10
133.5635229212
 20
87.2549393429
 11
133.5635229212
 21
87.6013495044
  0
LINE
  5
2AE
100
AcDbEntity
  8
218160250
100
AcDbLine
 62
7
  6
CONTINUOUS
 10
133.7049442775
 20
87.3256500211
 11
133.7049442775
 21
86.8063333596
  0
LINE
  5
2AF
100
AcDbEntity
  8
268160210
100
AcDbLine
 62
250
  6
CONTINUOUS
 10
133.7183874518
 20
80.6840301178
 11
133.7183874518
 21
77.7971458699
  0
LINE
  5
2B0
100
AcDbEntity
  8
268160210
100
AcDbLine
 62
250
  6
CONTINUOUS
 10
133.7183874518
 20
45.2345906876
 11
133.7183874518
 21
42.3477064396
  0
LINE
  5
2B1
100
AcDbEntity
  8
349160010_
100
AcDbLine
 62
250
  6
CONTINUOUS
 10
133.9270910538
 20
87.4367234092
 11
133.9270910538
 21
87.7831335708
  0
LINE
  5
2B2
100
AcDbEntity
  8
349160010_
100
AcDbLine
 62
250
  6
CONTINUOUS
 10
137.2689118686
 20
89.113250306
 11
137.2522268351
 21
89.0420156057
  0
LWPOLYLINE
  5
2B3
100
AcDbEntity
  8
218160250
100
AcDbPolyline
 62
7
  6
CONTINUOUS
 90
33
 70
0
 10
151.3760104924
 20
83.1639790625
 10
151.3836957421
 20
83.1682150735
 10
151.3970872997
 20
83.1760410154
 10
151.4099987489
 20
83.1841610468
 10
151.4224294161
 20
83.1925601634
 10
151.4343868971
 20
83.201228605
 10
151.4458810064
 20
83.2101597421
 10
151.4569104496
 20
83.2193387809
 10
151.467477774
 20
83.2287535335
 10
151.477592016
 20
83.2383985758
 10
151.4872494705
 20
83.2482567735
 10
151.4964522597
 20
83.2583155519
 10
151.505212579
 20
83.2685746376
 10
151.5135255526
 20
83.2790151816
 10
151.5213928807
 20
83.2896248629
 10
151.5288310198
 20
83.3004131878
 10
151.5358369527
 20
83.3113649528
 10
151.5424083372
 20
83.3224646994
 10
151.5485571853
 20
83.3337224733
 10
151.5542811181
 20
83.345125539
 10
151.5595760128
 20
83.3566562155
 10
151.5644472256
 20
83.3683176897
 10
151.568891721
 20
83.3800958236
 10
151.572906448
 20
83.3919738508
 10
151.576494
 20
83.4039511298
 10
151.5796516953
 20
83.4160114473
 10
151.5823779009
 20
83.4281394723
 10
151.5846744311
 20
83.440335951
 10
151.5865393307
 20
83.4525846997
 10
151.5879716946
 20
83.4648701124
 10
151.588972453
 20
83.4771939112
 10
151.5895404807
 20
83.4895460412
 10
151.5896825602
 20
83.4995654118
  0
LINE
  5
2B4
100
AcDbEntity
  8
218160250
100
AcDbLine
 62
250
  6
CONTINUOUS
 10
151.4493524671
 20
83.3237975833
 11
145.3952037998
 21
80.0574454849
  0
LINE
  5
2B5
100
AcDbEntity
  8
218160250
100
AcDbLine
 62
7
  6
CONTINUOUS
 10
151.3759976731
 20
83.1639720776
 11
145.3211874477
 21
79.8972613456
  0
LINE
  5
2B6
100
AcDbEntity
  8
268160210
100
AcDbLine
 62
7
  6
CONTINUOUS
 10
138.2180850823
 20
49.5821002169
 11
136.7791863304
 21
62.9937578382
  0
LINE
  5
2B7
100
AcDbEntity
  8
268160210
100
AcDbLine
 62
7
  6
CONTINUOUS
 10
136.8869247928
 20
50.2476803617
 11
136.775038165
 21
51.3077777987
  0
LINE
  5
2B8
100
AcDbEntity
  8
268160210
100
AcDbLine
 62
7
  6
CONTINUOUS
 10
136.6882163694
 20
52.1303923047
 11
136.1170972165
 21
57.5416015099
  0
LWPOLYLINE
  5
2B9
100
AcDbEntity
  8
268160210
100
AcDbPolyline
 62
7
  6
CONTINUOUS
 90
57
 70
0
 10
135.8177191654
 20
43.1273053273
 10
135.8180130464
 20
43.1113250899
 10
135.8196048184
 20
43.0870631983
 10
135.8226105471
 20
43.0626543866
 10
135.8270565952
 20
43.0381872413
 10
135.8329475047
 20
43.013792966
 10
135.8402894047
 20
42.9895367727
 10
135.8490862339
 20
42.9654764592
 10
135.8593139108
 20
42.9417181937
 10
135.8709467997
 20
42.9183362404
 10
135.8839828665
 20
42.8953483193
 10
135.8984326399
 20
42.8727595988
 10
135.9142670908
 20
42.850634853
 10
135.9314998847
 20
42.8289738065
 10
135.9502417617
 20
42.807681625
 10
135.9705193675
 20
42.7867887369
 10
135.9923523891
 20
42.7663321772
 10
136.0158964381
 20
42.746239171
 10
136.0413669498
 20
42.726430425
 10
136.0686656588
 20
42.7070833039
 10
136.0974557785
 20
42.6884857491
 10
136.1277915961
 20
42.6706224369
 10
136.1596285053
 20
42.65354182
 10
136.192359935
 20
42.637549363
 10
136.2257159274
 20
42.6227057279
 10
136.2598322936
 20
42.6088883624
 10
136.2946268552
 20
42.5960860951
 10
136.3300150696
 20
42.5842869796
 10
136.3659606687
 20
42.5734663664
 10
136.4024320115
 20
42.5636019659
 10
136.4393664285
 20
42.554683721
 10
136.47671137
 20
42.5467009363
 10
136.5144385836
 20
42.5396387168
 10
136.5524877647
 20
42.5334920634
 10
136.5908061653
 20
42.5282544925
 10
136.6293712218
 20
42.5239168908
 10
136.6681269245
 20
42.5204773856
 10
136.7070174982
 20
42.5179327808
 10
136.746018465
 20
42.5162798687
 10
136.7850744241
 20
42.5155187539
 10
136.8241293757
 20
42.5156484893
 10
136.8631573773
 20
42.5166705776
 10
136.9021041089
 20
42.5185865519
 10
136.9409124522
 20
42.5213979055
 10
136.9795539839
 20
42.5251101041
 10
137.0179735442
 20
42.5297263511
 10
137.0561143281
 20
42.5352510299
 10
137.0939509305
 20
42.5416943068
 10
137.1314293598
 20
42.549063243
 10
137.1684905285
 20
42.5573660521
 10
137.2051105989
 20
42.5666194066
 10
137.2412313124
 20
42.5768353829
 10
137.2767944145
 20
42.5880283229
 10
137.3117887743
 20
42.6002303208
 10
137.3461738001
 20
42.6134722993
 10
137.3798660807
 20
42.6277708517
 10
137.4003908991
 20
42.6371834994
  0
LINE
  5
2BA
100
AcDbEntity
  8
268160210
100
AcDbLine
 62
250
  6
CONTINUOUS
 10
135.8177203516
 20
43.1264079651
 11
135.8177191319
 21
43.1271719311
  0
LINE
  5
2BB
100
AcDbEntity
  8
218160250
100
AcDbLine
 62
250
  6
CONTINUOUS
 10
135.1005353038
 20
87.5698510286
 11
135.1005353038
 21
87.51904521
  0
LINE
  5
2BC
100
AcDbEntity
  8
268160210
100
AcDbLine
 62
7
  6
CONTINUOUS
 10
135.8177186059
 20
43.2347645769
 11
135.8177186059
 21
43.1271719428
  0
LINE
  5
2BD
100
AcDbEntity
  8
268160210
100
AcDbLine
 62
7
  6
CONTINUOUS
 10
135.8177186059
 20
83.0950359286
 11
135.8177186059
 21
84.2249973669
  0
LINE
  5
2BE
100
AcDbEntity
  8
218160250
100
AcDbLine
 62
250
  6
CONTINUOUS
 10
150.6416092631
 20
77.8151108985
 11
152.7205959834
 21
78.9141531343
  0
LINE
  5
2BF
100
AcDbEntity
  8
218160250
100
AcDbLine
 62
7
  6
CONTINUOUS
 10
152.6450011235
 20
78.7531312748
 11
150.7534579948
 21
77.7531798229
  0
LINE
  5
2C0
100
AcDbEntity
  8
218160250
100
AcDbLine
 62
250
  6
CONTINUOUS
 10
145.069818532
 20
75.0579621162
 11
150.6363034242
 21
77.8189796594
  0
LINE
  5
2C1
100
AcDbEntity
  8
218160250
100
AcDbLine
 62
250
  6
CONTINUOUS
 10
145.069818532
 20
74.5869411747
 11
150.8484031498
 21
77.4531617454
  0
LINE
  5
2C2
100
AcDbEntity
  8
290160010
100
AcDbLine
 62
250
  6
CONTINUOUS
 10
113.8465216193
 20
83.0529485526
 11
130.5854150027
 21
74.6835018609
  0
LINE
  5
2C3
100
AcDbEntity
  8
290160010
100
AcDbLine
 62
250
  6
CONTINUOUS
 10
114.5873640184
 20
84.1718548507
 11
131.3429210593
 21
75.7940763302
  0
LINE
  5
2C4
100
AcDbEntity
  8
218160250
100
AcDbLine
 62
250
  6
CONTINUOUS
 10
151.5896825669
 20
65.9702225764
 11
152.5066452211
 21
65.5117412494
  0
LINE
  5
2C5
100
AcDbEntity
  8
218160250
100
AcDbLine
 62
7
  6
CONTINUOUS
 10
151.5896825669
 20
66.0439838669
 11
152.638958122
 21
65.5193460894
  0
LWPOLYLINE
  5
2C6
100
AcDbEntity
  8
218160250
100
AcDbPolyline
 62
7
  6
CONTINUOUS
 90
23
 70
0
 10
145.081863297
 20
54.8218324693
 10
145.0818576585
 20
54.8218421397
 10
145.0817178584
 20
54.8220936068
 10
145.0814138964
 20
54.8226813811
 10
145.0809694091
 20
54.8236102267
 10
145.080413544
 20
54.8248676189
 10
145.0797658054
 20
54.8264559758
 10
145.0790448324
 20
54.8283767842
 10
145.0782722606
 20
54.8306190682
 10
145.0774646069
 20
54.8331807901
 10
145.0766368374
 20
54.8360615327
 10
145.0758044956
 20
54.8392555879
 10
145.0749816432
 20
54.8427586387
 10
145.0741806642
 20
54.8465701086
 10
145.0734127047
 20
54.8506938858
 10
145.0726903181
 20
54.8551248771
 10
145.07202466
 20
54.8598630859
 10
145.0714248785
 20
54.8649249913
 10
145.0709030502
 20
54.8703073807
 10
145.0704706164
 20
54.8760100447
 10
145.070137698
 20
54.8820590014
 10
145.0699168793
 20
54.888462965
 10
145.0698214713
 20
54.8952099954
  0
LINE
  5
2C7
100
AcDbEntity
  8
268160210
100
AcDbLine
 62
7
  6
CONTINUOUS
 10
137.3111888615
 20
89.2975189194
 11
137.3111888615
 21
89.0111354206
  0
LINE
  5
2C8
100
AcDbEntity
  8
268160210
100
AcDbLine
 62
250
  6
CONTINUOUS
 10
137.4672598768
 20
44.1184472034
 11
137.4672598768
 21
42.7733071936
  0
LINE
  5
2C9
100
AcDbEntity
  8
268160210
100
AcDbLine
 62
250
  6
CONTINUOUS
 10
137.4672598768
 20
82.5335333731
 11
137.4672598768
 21
83.8786733829
  0
LINE
  5
2CA
100
AcDbEntity
  8
218160250
100
AcDbLine
 62
7
  6
CONTINUOUS
 10
137.5895327219
 20
85.4469130799
 11
137.5895327219
 21
85.4945146768
  0
LINE
  5
2CB
100
AcDbEntity
  8
268160210
100
AcDbLine
 62
7
  6
CONTINUOUS
 10
138.2180850823
 20
48.9332850913
 11
138.2180850823
 21
49.5821002169
  0
LINE
  5
2CC
100
AcDbEntity
  8
268160210
100
AcDbLine
 62
7
  6
CONTINUOUS
 10
138.2180850823
 20
77.7949438323
 11
138.2180850823
 21
78.4437589579
  0
LINE
  5
2CD
100
AcDbEntity
  8
268160210
100
AcDbLine
 62
7
  6
CONTINUOUS
 10
138.9375344582
 20
84.6040321884
 11
138.9375344582
 21
43.4677760472
  0
LINE
  5
2CE
100
AcDbEntity
  8
218160250
100
AcDbLine
 62
7
  6
CONTINUOUS
 10
138.9375344582
 20
43.251294427
 11
138.9375344582
 21
84.8205138086
  0
LINE
  5
2CF
100
AcDbEntity
  8
290160010
100
AcDbLine
 62
7
  6
CONTINUOUS
 10
137.7935007096
 20
77.9143783893
 11
135.2213357887
 21
46.6557093117
  0
LINE
  5
2D0
100
AcDbEntity
  8
268160210
100
AcDbLine
 62
7
  6
CONTINUOUS
 10
136.7791863304
 20
62.9937578382
 11
138.2180850823
 21
77.7949438323
  0
LINE
  5
2D1
100
AcDbEntity
  8
218160250
100
AcDbLine
 62
250
  6
CONTINUOUS
 10
145.1831040741
 20
74.1198519075
 11
151.2372527415
 21
77.1227542783
  0
LINE
  5
2D2
100
AcDbEntity
  8
218160250
100
AcDbLine
 62
250
  6
CONTINUOUS
 10
145.3952037998
 20
73.7540339936
 11
151.4493524671
 21
76.7569363643
  0
LINE
  5
2D3
100
AcDbEntity
  8
268160210
100
AcDbLine
 62
7
  6
CONTINUOUS
 10
133.3679461639
 20
77.7986749972
 11
116.3642728614
 21
86.3005116485
  0
LINE
  5
2D4
100
AcDbEntity
  8
268160210
100
AcDbLine
 62
7
  6
CONTINUOUS
 10
140.1396159863
 20
87.883305357
 11
140.1396159863
 21
87.2337863042
  0
LINE
  5
2D5
100
AcDbEntity
  8
218160250
100
AcDbLine
 62
250
  6
CONTINUOUS
 10
145.069818532
 20
74.1764946786
 11
145.1831040741
 21
74.1198519075
  0
LINE
  5
2D6
100
AcDbEntity
  8
268160210
100
AcDbLine
 62
7
  6
CONTINUOUS
 10
138.2180850823
 20
77.7949438323
 11
137.7888263559
 21
78.0095731955
  0
LINE
  5
2D7
100
AcDbEntity
  8
290160010
100
AcDbLine
 62
7
  6
CONTINUOUS
 10
137.6036394243
 20
78.2898672614
 11
136.6622722286
 21
78.7605508592
  0
LINE
  5
2D8
100
AcDbEntity
  8
268160210
100
AcDbLine
 62
250
  6
CONTINUOUS
 10
116.3642728614
 20
89.1873958965
 11
133.3679461639
 21
80.6855592452
  0
LINE
  5
2D9
100
AcDbEntity
  8
268160210
100
AcDbLine
 62
250
  6
CONTINUOUS
 10
138.2180850823
 20
78.4437589579
 11
137.4227178033
 21
78.8414425974
  0
LINE
  5
2DA
100
AcDbEntity
  8
268160210
100
AcDbLine
 62
250
  6
CONTINUOUS
 10
116.5395069086
 20
89.4915110271
 11
133.5431802111
 21
80.9896743759
  0
LINE
  5
2DB
100
AcDbEntity
  8
268160210
100
AcDbLine
 62
7
  6
CONTINUOUS
 10
142.1723302523
 20
88.2637087096
 11
142.1723302523
 21
88.2461215379
  0
LINE
  5
2DC
100
AcDbEntity
  8
268160210
100
AcDbLine
 62
7
  6
CONTINUOUS
 10
133.2904808448
 20
92.4749089955
 11
133.2907443924
 21
92.4744910185
  0
LINE
  5
2DD
100
AcDbEntity
  8
218160250
100
AcDbLine
 62
250
  6
CONTINUOUS
 10
144.7004547249
 20
88.6761813188
 11
144.7004547249
 21
88.3839172426
  0
LINE
  5
2DE
100
AcDbEntity
  8
218160250
100
AcDbLine
 62
7
  6
CONTINUOUS
 10
144.7590333687
 20
88.7332873771
 11
144.7590333687
 21
88.4055360224
  0
LINE
  5
2DF
100
AcDbEntity
  8
218160250
100
AcDbLine
 62
250
  6
CONTINUOUS
 10
144.9856204721
 20
79.3258414066
 11
144.9856204721
 21
74.06150212
  0
LINE
  5
2E0
100
AcDbEntity
  8
218160250
100
AcDbLine
 62
250
  6
CONTINUOUS
 10
144.9856204721
 20
60.0567761724
 11
144.9856204721
 21
54.7924368858
  0
LINE
  5
2E1
100
AcDbEntity
  8
218160250
100
AcDbLine
 62
7
  6
CONTINUOUS
 10
145.069818532
 20
79.4300401622
 11
145.0698214713
 21
74.1642752296
  0
LINE
  5
2E2
100
AcDbEntity
  8
218160250
100
AcDbLine
 62
7
  6
CONTINUOUS
 10
145.069818532
 20
60.160974928
 11
145.0698214713
 21
54.8952099954
  0
LINE
  5
2E3
100
AcDbEntity
  8
218160250
100
AcDbLine
 62
7
  6
CONTINUOUS
 10
145.1904121359
 20
47.4759061798
 11
145.1904121359
 21
51.1336414815
  0
LINE
  5
2E4
100
AcDbEntity
  8
218160250
100
AcDbLine
 62
7
  6
CONTINUOUS
 10
145.1904121359
 20
82.6454431768
 11
145.1904121359
 21
87.0709464395
  0
LWPOLYLINE
  5
2E5
100
AcDbEntity
  8
218160250
100
AcDbPolyline
 62
7
  6
CONTINUOUS
 90
60
 70
0
 10
145.0698185377
 20
79.4300414314
 10
145.069823777
 20
79.4319543762
 10
145.0699370006
 20
79.4392283079
 10
145.070205821
 20
79.4468083725
 10
145.0706404839
 20
79.4546910842
 10
145.0712504274
 20
79.4628643149
 10
145.0720434622
 20
79.4713069345
 10
145.0730274543
 20
79.4800094275
 10
145.074209762
 20
79.488961653
 10
145.0755952016
 20
79.4981398976
 10
145.0771891486
 20
79.5075314308
 10
145.0789966278
 20
79.5171246435
 10
145.081019814
 20
79.5268965342
 10
145.0832618105
 20
79.5368330937
 10
145.0857253332
 20
79.5469210541
 10
145.0884101356
 20
79.5571380417
 10
145.0913171408
 20
79.5674692571
 10
145.0944468023
 20
79.5779001442
 10
145.097796498
 20
79.5884084763
 10
145.1013651609
 20
79.5989794609
 10
145.1051509446
 20
79.6095973879
 10
145.1091483753
 20
79.6202387527
 10
145.1133543906
 20
79.6308889575
 10
145.1177648483
 20
79.6415317637
 10
145.122370803
 20
79.6521415787
 10
145.1271667157
 20
79.6627032653
 10
145.1321465903
 20
79.6732017628
 10
145.1372989427
 20
79.6836122248
 10
145.1426162758
 20
79.6939202298
 10
145.1480906595
 20
79.7041116445
 10
145.1537083184
 20
79.7141629514
 10
145.1594600965
 20
79.7240610135
 10
145.1653363767
 20
79.7337930253
 10
145.1713212579
 20
79.7433371652
 10
145.1774042628
 20
79.7526821131
 10
145.183574396
 20
79.7618168014
 10
145.1898137178
 20
79.7707213018
 10
145.1961104011
 20
79.7793860739
 10
145.2024527846
 20
79.7878027521
 10
145.2088221465
 20
79.7959549248
 10
145.2152047563
 20
79.8038341056
 10
145.2215896157
 20
79.8114360263
 10
145.2279613752
 20
79.8187520819
 10
145.2343071191
 20
79.8257774689
 10
145.2406146033
 20
79.8325087853
 10
145.2468688083
 20
79.8389405276
 10
145.2530571449
 20
79.8450706359
 10
145.2591669422
 20
79.8508975743
 10
145.2651823365
 20
79.8564176179
 10
145.2710914279
 20
79.8616316349
 10
145.2768811241
 20
79.8665400604
 10
145.2825332793
 20
79.8711399993
 10
145.2880365236
 20
79.8754351737
 10
145.2933781642
 20
79.8794288712
 10
145.2985379939
 20
79.8831198188
 10
145.303504468
 20
79.8865142012
 10
145.3082675477
 20
79.8896197633
 10
145.3128097402
 20
79.8924401718
 10
145.317118707
 20
79.8949834539
 10
145.3211874477
 20
79.8972613456
  0
LWPOLYLINE
  5
2E6
100
AcDbEntity
  8
218160250
100
AcDbPolyline
 62
7
  6
CONTINUOUS
 90
60
 70
0
 10
145.0698185377
 20
60.1609761972
 10
145.069823777
 20
60.162889142
 10
145.0699370006
 20
60.1701630737
 10
145.070205821
 20
60.1777431383
 10
145.0706404839
 20
60.18562585
 10
145.0712504274
 20
60.1937990807
 10
145.0720434622
 20
60.2022417003
 10
145.0730274543
 20
60.2109441933
 10
145.074209762
 20
60.2198964188
 10
145.0755952016
 20
60.2290746634
 10
145.0771891486
 20
60.2384661966
 10
145.0789966278
 20
60.2480594093
 10
145.081019814
 20
60.2578313
 10
145.0832618105
 20
60.2677678595
 10
145.0857253332
 20
60.2778558199
 10
145.0884101356
 20
60.2880728075
 10
145.0913171408
 20
60.2984040229
 10
145.0944468023
 20
60.30883491
 10
145.097796498
 20
60.3193432421
 10
145.1013651609
 20
60.3299142267
 10
145.1051509446
 20
60.3405321537
 10
145.1091483753
 20
60.3511735185
 10
145.1133543906
 20
60.3618237233
 10
145.1177648483
 20
60.3724665295
 10
145.122370803
 20
60.3830763445
 10
145.1271667157
 20
60.3936380311
 10
145.1321465903
 20
60.4041365286
 10
145.1372989427
 20
60.4145469906
 10
145.1426162758
 20
60.4248549956
 10
145.1480906595
 20
60.4350464103
 10
145.1537083184
 20
60.4450977172
 10
145.1594600965
 20
60.4549957793
 10
145.1653363767
 20
60.4647277911
 10
145.1713212579
 20
60.474271931
 10
145.1774042628
 20
60.4836168789
 10
145.183574396
 20
60.4927515672
 10
145.1898137178
 20
60.5016560676
 10
145.1961104011
 20
60.5103208397
 10
145.2024527846
 20
60.5187375179
 10
145.2088221465
 20
60.5268896905
 10
145.2152047563
 20
60.5347688714
 10
145.2215896157
 20
60.5423707921
 10
145.2279613752
 20
60.5496868477
 10
145.2343071191
 20
60.5567122347
 10
145.2406146033
 20
60.563443551
 10
145.2468688083
 20
60.5698752933
 10
145.2530571449
 20
60.5760054017
 10
145.2591669422
 20
60.5818323401
 10
145.2651823365
 20
60.5873523837
 10
145.2710914279
 20
60.5925664007
 10
145.2768811241
 20
60.5974748261
 10
145.2825332793
 20
60.6020747651
 10
145.2880365236
 20
60.6063699395
 10
145.2933781642
 20
60.610363637
 10
145.2985379939
 20
60.6140545846
 10
145.303504468
 20
60.617448967
 10
145.3082675477
 20
60.6205545291
 10
145.3128097402
 20
60.6233749376
 10
145.317118707
 20
60.6259182197
 10
145.3211874477
 20
60.6281961114
  0
LINE
  5
2E7
100
AcDbEntity
  8
268160210
100
AcDbLine
 62
7
  6
CONTINUOUS
 10
131.4422025777
 20
85.6507779043
 11
125.7853483282
 21
88.479205029
  0
LINE
  5
2E8
100
AcDbEntity
  8
349160010_
100
AcDbLine
 62
7
  6
CONTINUOUS
 10
131.6432549475
 20
85.843415611
 11
131.732266215
 21
85.7989099772
  0
LINE
  5
2E9
100
AcDbEntity
  8
218160250
100
AcDbLine
 62
250
  6
CONTINUOUS
 10
151.2348061376
 20
77.2599602515
 11
150.8484031498
 21
77.4531617454
  0
LINE
  5
2EA
100
AcDbEntity
  8
349160010_
100
AcDbLine
 62
7
  6
CONTINUOUS
 10
133.0685481744
 20
86.4878367273
 11
131.6071467141
 21
87.2185374574
  0
LINE
  5
2EB
100
AcDbEntity
  8
349160010_
100
AcDbLine
 62
7
  6
CONTINUOUS
 10
126.0446682604
 20
89.9997766842
 11
124.5832668002
 21
90.7304774144
  0
LINE
  5
2EC
100
AcDbEntity
  8
349160010_
100
AcDbLine
 62
250
  6
CONTINUOUS
 10
133.0685481744
 20
86.7476443484
 11
124.5832668002
 21
90.9902850355
  0
LWPOLYLINE
  5
2ED
100
AcDbEntity
  8
218160250
100
AcDbPolyline
 62
7
  6
CONTINUOUS
 90
42
 70
0
 10
151.3652680018
 20
77.2666692504
 10
150.978123645
 20
77.4602435411
 10
150.9739812045
 20
77.4624011422
 10
150.9695910068
 20
77.4648210227
 10
150.9649601898
 20
77.4675153821
 10
150.9601014877
 20
77.4704927284
 10
150.955033032
 20
77.4737571956
 10
150.9497652768
 20
77.4773167882
 10
150.9443100663
 20
77.4811780538
 10
150.9386880879
 20
77.4853402626
 10
150.9329126338
 20
77.4898068031
 10
150.9269952882
 20
77.4945817072
 10
150.9209540175
 20
77.4996630081
 10
150.9148022049
 20
77.5050514889
 10
150.908552304
 20
77.5107480551
 10
150.9022203575
 20
77.5167495096
 10
150.8958195008
 20
77.5230544477
 10
150.8893627503
 20
77.5296609254
 10
150.8828652489
 20
77.536563967
 10
150.8763396789
 20
77.543760261
 10
150.8697994163
 20
77.5512450801
 10
150.8632599231
 20
77.55901038
 10
150.8567325619
 20
77.5670519762
 10
150.8502315959
 20
77.575361393
 10
150.8437760843
 20
77.5839226851
 10
150.8373781073
 20
77.5927274918
 10
150.8310499465
 20
77.6017662341
 10
150.8248099293
 20
77.6110193576
 10
150.8186694838
 20
77.6204757009
 10
150.8126394797
 20
77.6301238689
 10
150.8067361426
 20
77.6399424088
 10
150.800969517
 20
77.6499183233
 10
150.7953490947
 20
77.6600383818
 10
150.7898888475
 20
77.67027955
 10
150.7845970858
 20
77.6806274946
 10
150.7794816284
 20
77.691067619
 10
150.7745541072
 20
77.701575561
 10
150.7698208401
 20
77.712136067
 10
150.7652876734
 20
77.722733731
 10
150.7609637208
 20
77.733343284
 10
150.7568532564
 20
77.7439486292
 10
150.7534579948
 20
77.7531798229
  0
LWPOLYLINE
  5
2EE
100
AcDbEntity
  8
218160250
100
AcDbPolyline
 62
7
  6
CONTINUOUS
 90
23
 70
0
 10
145.081863297
 20
74.0908977035
 10
145.0818576585
 20
74.0909073739
 10
145.0817178584
 20
74.091158841
 10
145.0814138964
 20
74.0917466153
 10
145.0809694091
 20
74.0926754609
 10
145.080413544
 20
74.0939328531
 10
145.0797658054
 20
74.09552121
 10
145.0790448324
 20
74.0974420184
 10
145.0782722606
 20
74.0996843024
 10
145.0774646069
 20
74.1022460243
 10
145.0766368374
 20
74.1051267669
 10
145.0758044956
 20
74.1083208221
 10
145.0749816432
 20
74.1118238729
 10
145.0741806642
 20
74.1156353428
 10
145.0734127047
 20
74.11975912
 10
145.0726903181
 20
74.1241901113
 10
145.07202466
 20
74.1289283201
 10
145.0714248785
 20
74.1339902255
 10
145.0709030502
 20
74.1393726149
 10
145.0704706164
 20
74.1450752789
 10
145.070137698
 20
74.1511242356
 10
145.0699168793
 20
74.1575281992
 10
145.0698214713
 20
74.1642752296
  0
LINE
  5
2EF
100
AcDbEntity
  8
218160250
100
AcDbLine
 62
7
  6
CONTINUOUS
 10
150.7534579948
 20
58.4841145887
 11
150.7512286072
 21
58.490367529
  0
LWPOLYLINE
  5
2F0
100
AcDbEntity
  8
218160250
100
AcDbPolyline
 62
7
  6
CONTINUOUS
 90
33
 70
0
 10
151.3760104924
 20
63.8949138283
 10
151.3836957421
 20
63.8991498393
 10
151.3970872997
 20
63.9069757812
 10
151.4099987489
 20
63.9150958126
 10
151.4224294161
 20
63.9234949292
 10
151.4343868971
 20
63.9321633708
 10
151.4458810064
 20
63.9410945079
 10
151.4569104496
 20
63.9502735467
 10
151.467477774
 20
63.9596882993
 10
151.477592016
 20
63.9693333416
 10
151.4872494705
 20
63.9791915393
 10
151.4964522597
 20
63.9892503177
 10
151.505212579
 20
63.9995094034
 10
151.5135255526
 20
64.0099499474
 10
151.5213928807
 20
64.0205596287
 10
151.5288310198
 20
64.0313479536
 10
151.5358369527
 20
64.0422997186
 10
151.5424083372
 20
64.0533994652
 10
151.5485571853
 20
64.0646572391
 10
151.5542811181
 20
64.0760603048
 10
151.5595760128
 20
64.0875909813
 10
151.5644472256
 20
64.0992524555
 10
151.568891721
 20
64.1110305894
 10
151.572906448
 20
64.1229086165
 10
151.576494
 20
64.1348858956
 10
151.5796516953
 20
64.1469462131
 10
151.5823779009
 20
64.1590742381
 10
151.5846744311
 20
64.1712707168
 10
151.5865393307
 20
64.1835194655
 10
151.5879716946
 20
64.1958048782
 10
151.588972453
 20
64.208128677
 10
151.5895404807
 20
64.220480807
 10
151.5896825602
 20
64.2305001776
  0
LINE
  5
2F1
100
AcDbEntity
  8
218160250
100
AcDbLine
 62
250
  6
CONTINUOUS
 10
151.4493524671
 20
64.0547323491
 11
145.3952037998
 21
60.7883802507
  0
LINE
  5
2F2
100
AcDbEntity
  8
218160250
100
AcDbLine
 62
7
  6
CONTINUOUS
 10
151.3759976731
 20
63.8949068434
 11
145.3211874477
 21
60.6281961114
  0
LINE
  5
2F3
100
AcDbEntity
  8
218160250
100
AcDbLine
 62
250
  6
CONTINUOUS
 10
151.5896825669
 20
65.0469447152
 11
152.5066452211
 21
65.5117412494
  0
LINE
  5
2F4
100
AcDbEntity
  8
218160250
100
AcDbLine
 62
250
  6
CONTINUOUS
 10
151.5896825669
 20
64.5735737623
 11
152.7205959834
 21
65.1468191765
  0
LINE
  5
2F5
100
AcDbEntity
  8
349160010_
100
AcDbLine
 62
7
  6
CONTINUOUS
 10
133.9926434575
 20
87.456783721
 11
137.4765824541
 21
87.8123415344
  0
LINE
  5
2F6
100
AcDbEntity
  8
268160210
100
AcDbLine
 62
7
  6
CONTINUOUS
 10
138.7607577619
 20
84.9089021568
 11
137.7000908601
 21
85.4392356077
  0
LINE
  5
2F7
100
AcDbEntity
  8
268160210
100
AcDbLine
 62
7
  6
CONTINUOUS
 10
122.638729883
 20
92.9699160963
 11
121.5780629811
 21
93.5002495472
  0
LINE
  5
2F8
100
AcDbEntity
  8
218160250
100
AcDbLine
 62
7
  6
CONTINUOUS
 10
121.4012862848
 20
93.5886378954
 11
122.7492880212
 21
92.9146370272
  0
LINE
  5
2F9
100
AcDbEntity
  8
218160250
100
AcDbLine
 62
7
  6
CONTINUOUS
 10
137.5895327219
 20
85.4945146768
 11
138.9375344582
 21
84.8205138086
  0
LINE
  5
2FA
100
AcDbEntity
  8
349160010_
100
AcDbLine
 62
250
  6
CONTINUOUS
 10
133.5635229212
 20
87.6013495044
 11
125.078241547
 21
91.8439901916
  0
LINE
  5
2FB
100
AcDbEntity
  8
349160010_
100
AcDbLine
 62
250
  6
CONTINUOUS
 10
133.9270910538
 20
87.7831335708
 11
125.4418096796
 21
92.0257742579
  0
LINE
  5
2FC
100
AcDbEntity
  8
349160010_
100
AcDbLine
 62
250
  6
CONTINUOUS
 10
134.0800466624
 20
87.8299409649
 11
125.5947652881
 21
92.072581652
  0
LINE
  5
2FD
100
AcDbEntity
  8
349160010_
100
AcDbLine
 62
7
  6
CONTINUOUS
 10
133.0685481744
 20
88.4504319228
 11
131.017938509
 21
89.4757367555
  0
LINE
  5
2FE
100
AcDbEntity
  8
349160010_
100
AcDbLine
 62
7
  6
CONTINUOUS
 10
129.0380395216
 20
90.4656862491
 11
126.9874298562
 21
91.4909910819
  0
LINE
  5
2FF
100
AcDbEntity
  8
349160010_
100
AcDbLine
 62
7
  6
CONTINUOUS
 10
129.1192717408
 20
91.3443217106
 11
130.7063141293
 21
90.5508005163
  0
LINE
  5
300
100
AcDbEntity
  8
349160010_
100
AcDbLine
 62
7
  6
CONTINUOUS
 10
133.1497803935
 20
89.3290673842
 11
134.7368227821
 21
88.5355461899
  0
LINE
  5
301
100
AcDbEntity
  8
349160010_
100
AcDbLine
 62
7
  6
CONTINUOUS
 10
129.2066749457
 20
91.7174789544
 11
131.2572846111
 21
90.6921741217
  0
LINE
  5
302
100
AcDbEntity
  8
349160010_
100
AcDbLine
 62
7
  6
CONTINUOUS
 10
133.2371835984
 20
89.702224628
 11
135.2877932639
 21
88.6769197953
  0
LWPOLYLINE
  5
303
100
AcDbEntity
  8
218160250
100
AcDbPolyline
 62
7
  6
CONTINUOUS
 90
33
 70
0
 10
151.5896825598
 20
57.6594342769
 10
151.5895181976
 20
57.6701433694
 10
151.5889075939
 20
57.6826598017
 10
151.5878459912
 20
57.6951567625
 10
151.5863339149
 20
57.7076198055
 10
151.5843714137
 20
57.7200398509
 10
151.5819603512
 20
57.7323978346
 10
151.5791027299
 20
57.744679009
 10
151.5757977555
 20
57.7568809077
 10
151.5720495923
 20
57.7689821622
 10
151.5678604684
 20
57.7809710913
 10
151.5632231814
 20
57.7928593361
 10
151.5581399827
 20
57.804629375
 10
151.5526136564
 20
57.816265166
 10
151.5466324094
 20
57.8277793685
 10
151.5401959663
 20
57.8391575363
 10
151.5333081625
 20
57.8503793919
 10
151.5259583994
 20
57.8614480579
 10
151.5181465952
 20
57.8723486791
 10
151.5098769891
 20
57.8830616765
 10
151.5011414638
 20
57.8935837194
 10
151.4919414197
 20
57.9038988309
 10
151.4822799703
 20
57.9139906961
 10
151.4721464467
 20
57.9238571532
 10
151.4615409414
 20
57.9334839125
 10
151.4504656359
 20
57.9428557212
 10
151.4389062116
 20
57.9519711141
 10
151.426856226
 20
57.9608200378
 10
151.4143190254
 20
57.9693852695
 10
151.401286845
 20
57.9776579007
 10
151.3877513497
 20
57.9856280384
 10
151.3737105858
 20
57.9932818178
 10
151.3652808275
 20
57.9975975646
  0
LWPOLYLINE
  5
304
100
AcDbEntity
  8
218160250
100
AcDbPolyline
 62
7
  6
CONTINUOUS
 90
33
 70
0
 10
151.5896825598
 20
76.9284995111
 10
151.5895181976
 20
76.9392086036
 10
151.5889075939
 20
76.9517250359
 10
151.5878459912
 20
76.9642219967
 10
151.5863339149
 20
76.9766850397
 10
151.5843714137
 20
76.9891050851
 10
151.5819603512
 20
77.0014630688
 10
151.5791027299
 20
77.0137442432
 10
151.5757977555
 20
77.0259461419
 10
151.5720495923
 20
77.0380473964
 10
151.5678604684
 20
77.0500363255
 10
151.5632231814
 20
77.0619245703
 10
151.5581399827
 20
77.0736946092
 10
151.5526136564
 20
77.0853304002
 10
151.5466324094
 20
77.0968446027
 10
151.5401959663
 20
77.1082227705
 10
151.5333081625
 20
77.1194446261
 10
151.5259583994
 20
77.1305132921
 10
151.5181465952
 20
77.1414139133
 10
151.5098769891
 20
77.1521269107
 10
151.5011414638
 20
77.1626489536
 10
151.4919414197
 20
77.1729640651
 10
151.4822799703
 20
77.1830559303
 10
151.4721464467
 20
77.1929223874
 10
151.4615409414
 20
77.2025491467
 10
151.4504656359
 20
77.2119209554
 10
151.4389062116
 20
77.2210363483
 10
151.426856226
 20
77.229885272
 10
151.4143190254
 20
77.2384505037
 10
151.401286845
 20
77.2467231349
 10
151.3877513497
 20
77.2546932726
 10
151.3737105858
 20
77.262347052
 10
151.3652808275
 20
77.2666627988
  0
LINE
  5
305
100
AcDbEntity
  8
218160250
100
AcDbLine
 62
250
  6
CONTINUOUS
 10
151.4493524671
 20
85.7499237225
 11
151.4493524671
 21
83.3237975833
  0
LINE
  5
306
100
AcDbEntity
  8
218160250
100
AcDbLine
 62
250
  6
CONTINUOUS
 10
151.4493524671
 20
76.7569363643
 11
151.4493524671
 21
64.0547323491
  0
LINE
  5
307
100
AcDbEntity
  8
218160250
100
AcDbLine
 62
250
  6
CONTINUOUS
 10
151.4493524671
 20
57.4878711301
 11
151.4493524671
 21
54.5104833808
  0
LINE
  5
308
100
AcDbEntity
  8
218160250
100
AcDbLine
 62
7
  6
CONTINUOUS
 10
151.5896825669
 20
85.9235883151
 11
151.5896825669
 21
83.4995472244
  0
LINE
  5
309
100
AcDbEntity
  8
218160250
100
AcDbLine
 62
7
  6
CONTINUOUS
 10
151.5896825669
 20
76.9285159085
 11
151.5896825669
 21
64.2304819902
  0
LINE
  5
30A
100
AcDbEntity
  8
218160250
100
AcDbLine
 62
7
  6
CONTINUOUS
 10
151.5896825669
 20
57.6594506743
 11
151.5896825669
 21
54.6841479735
  0
LINE
  5
30B
100
AcDbEntity
  8
349160010_
100
AcDbLine
 62
7
  6
CONTINUOUS
 10
134.0800466624
 20
87.8299409649
 11
138.3720698593
 21
88.2679688363
  0
LINE
  5
30C
100
AcDbEntity
  8
349160010_
100
AcDbLine
 62
7
  6
CONTINUOUS
 10
135.2947149177
 20
88.5924825795
 11
133.344469233
 21
88.3934477824
  0
LINE
  5
30D
100
AcDbEntity
  8
349160010_
100
AcDbLine
 62
7
  6
CONTINUOUS
 10
137.3111888615
 20
89.1175649381
 11
137.2689118686
 21
89.113250306
  0
LINE
  5
30E
100
AcDbEntity
  8
349160010_
100
AcDbLine
 62
7
  6
CONTINUOUS
 10
131.4815057859
 20
89.243953117
 11
132.8738593349
 21
89.3860515246
  0
LINE
  5
30F
100
AcDbEntity
  8
349160010_
100
AcDbLine
 62
7
  6
CONTINUOUS
 10
131.0110168551
 20
89.5601739713
 11
132.9612625398
 21
89.7592087684
  0
LINE
  5
310
100
AcDbEntity
  8
268160210
100
AcDbLine
 62
7
  6
CONTINUOUS
 10
138.6546917458
 20
89.5484843158
 11
137.7107399187
 21
89.497294448
  0
LINE
  5
311
100
AcDbEntity
  8
268160210
100
AcDbLine
 62
7
  6
CONTINUOUS
 10
140.6617451013
 20
86.9727217467
 11
140.1396159863
 21
87.2337863042
  0
LINE
  5
312
100
AcDbEntity
  8
268160210
100
AcDbLine
 62
7
  6
CONTINUOUS
 10
128.1820567013
 20
93.2125659467
 11
127.1664932595
 21
93.7203476676
  0
LINE
  5
313
100
AcDbEntity
  8
349160010_
100
AcDbLine
 62
7
  6
CONTINUOUS
 10
138.5829395122
 20
88.3752600952
 11
137.2758335225
 21
89.0288130901
  0
LINE
  5
314
100
AcDbEntity
  8
349160010_
100
AcDbLine
 62
7
  6
CONTINUOUS
 10
130.2401210496
 20
92.5466693265
 11
131.6896899511
 21
91.8218848758
  0
LINE
  5
315
100
AcDbEntity
  8
268160210
100
AcDbLine
 62
7
  6
CONTINUOUS
 10
138.8668237801
 20
88.5197014601
 11
137.3111888615
 21
89.2975189194
  0
LINE
  5
316
100
AcDbEntity
  8
268160210
100
AcDbLine
 62
7
  6
CONTINUOUS
 10
131.654334612
 20
92.1259460441
 11
130.0986996934
 21
92.9037635035
  0
LINE
  5
317
100
AcDbEntity
  8
268160210
100
AcDbLine
 62
7
  6
CONTINUOUS
 10
139.2375555021
 20
88.7338866563
 11
137.7107399187
 21
89.497294448
  0
LINE
  5
318
100
AcDbEntity
  8
268160210
100
AcDbLine
 62
7
  6
CONTINUOUS
 10
132.0538856692
 20
92.3257215728
 11
130.5270700858
 21
93.0891293645
  0
LINE
  5
319
100
AcDbEntity
  8
349160010_
100
AcDbLine
 62
250
  6
CONTINUOUS
 10
138.0693580371
 20
89.5167420655
 11
133.3005607245
 21
91.9011407218
  0
LINE
  5
31A
100
AcDbEntity
  8
349160010_
100
AcDbLine
 62
7
  6
CONTINUOUS
 10
133.5063957494
 20
91.866521395
 11
138.1925889506
 21
89.5234247944
  0
LINE
  5
31B
100
AcDbEntity
  8
268160210
100
AcDbLine
 62
250
  6
CONTINUOUS
 10
131.8041680248
 20
93.1709597892
 11
133.2576147479
 21
92.4442364277
  0
LINE
  5
31C
100
AcDbEntity
  8
268160210
100
AcDbLine
 62
250
  6
CONTINUOUS
 10
139.1065824085
 20
89.5197525974
 11
139.9705091655
 21
89.0877892189
  0
LINE
  5
31D
100
AcDbEntity
  8
268160210
100
AcDbLine
 62
7
  6
CONTINUOUS
 10
131.9565150252
 20
93.1418919053
 11
133.2904883058
 21
92.474905265
  0
LINE
  5
31E
100
AcDbEntity
  8
268160210
100
AcDbLine
 62
7
  6
CONTINUOUS
 10
139.3838157882
 20
89.4282415238
 11
140.0184370134
 21
89.1109309112
  0
LWPOLYLINE
  5
31F
100
AcDbEntity
  8
218160250
100
AcDbPolyline
 62
7
  6
CONTINUOUS
 90
26
 70
0
 10
144.4156989968
 20
89.6374241816
 10
144.4116773028
 20
89.6477235173
 10
144.4044907198
 20
89.6650317736
 10
144.3968639876
 20
89.6820888994
 10
144.3887935773
 20
89.6988996998
 10
144.3802895216
 20
89.7154379695
 10
144.3713803645
 20
89.7316476759
 10
144.3620716721
 20
89.7475201735
 10
144.3523685795
 20
89.7630459749
 10
144.3423054175
 20
89.7781720601
 10
144.331890565
 20
89.7928898968
 10
144.3211305721
 20
89.8071928003
 10
144.310063257
 20
89.8210351159
 10
144.2987011029
 20
89.8344079947
 10
144.2870513362
 20
89.8473086008
 10
144.275149692
 20
89.8597041961
 10
144.2630107822
 20
89.8715880596
 10
144.2506439594
 20
89.8829587901
 10
144.2380819643
 20
89.8937948541
 10
144.2253408386
 20
89.904092194
 10
144.2124326745
 20
89.9138503891
 10
144.1993885414
 20
89.9230561649
 10
144.1862323769
 20
89.931704268
 10
144.1729729681
 20
89.9398003785
 10
144.1596213149
 20
89.9473485283
 10
144.146232825
 20
89.9543301836
  0
LINE
  5
320
100
AcDbEntity
  8
218160250
100
AcDbLine
 62
250
  6
CONTINUOUS
 10
144.7016834119
 20
88.6767860888
 11
144.352540275
 21
89.5921149174
  0
LINE
  5
321
100
AcDbEntity
  8
218160250
100
AcDbLine
 62
7
  6
CONTINUOUS
 10
144.7575947714
 20
88.7410954109
 11
144.4156989256
 21
89.6374244258
  0
LINE
  5
322
100
AcDbEntity
  8
218160250
100
AcDbLine
 62
7
  6
CONTINUOUS
 10
150.7534579948
 20
77.7531798229
 11
150.7512286072
 21
77.7594327632
  0
LINE
  5
323
100
AcDbEntity
  8
218160250
100
AcDbLine
 62
250
  6
CONTINUOUS
 10
152.7205959834
 20
84.4158844107
 11
152.7205959834
 21
78.9141531343
  0
LINE
  5
324
100
AcDbEntity
  8
218160250
100
AcDbLine
 62
250
  6
CONTINUOUS
 10
152.7205959834
 20
65.1468191765
 11
152.7205959834
 21
59.6450879001
  0
LINE
  5
325
100
AcDbEntity
  8
218160250
100
AcDbLine
 62
7
  6
CONTINUOUS
 10
152.8047940433
 20
84.5200831663
 11
152.8047940433
 21
79.0183518898
  0
LINE
  5
326
100
AcDbEntity
  8
218160250
100
AcDbLine
 62
7
  6
CONTINUOUS
 10
152.8047940433
 20
65.2510179321
 11
152.8047940433
 21
59.7492866556
  0
LINE
  5
327
100
AcDbEntity
  8
218160250
100
AcDbLine
 62
250
  6
CONTINUOUS
 10
150.6416092631
 20
58.5460456643
 11
152.7205959834
 21
59.6450879001
  0
LINE
  5
328
100
AcDbEntity
  8
218160250
100
AcDbLine
 62
7
  6
CONTINUOUS
 10
152.6450011235
 20
59.4840660406
 11
150.7534579948
 21
58.4841145887
  0
LINE
  5
329
100
AcDbEntity
  8
268160210
100
AcDbLine
 62
250
  6
CONTINUOUS
 10
135.628216193
 20
51.6003922165
 11
136.6882163694
 21
52.1303923047
  0
LINE
  5
32A
100
AcDbEntity
  8
268160210
100
AcDbLine
 62
7
  6
CONTINUOUS
 10
135.5929515506
 20
51.1718326877
 11
136.4955750574
 21
51.6231444411
  0
LINE
  5
32B
100
AcDbEntity
  8
218160250
100
AcDbLine
 62
250
  6
CONTINUOUS
 10
145.069818532
 20
55.788896882
 11
150.6363034242
 21
58.5499144252
  0
LINE
  5
32C
100
AcDbEntity
  8
218160250
100
AcDbLine
 62
250
  6
CONTINUOUS
 10
145.069818532
 20
55.3178759405
 11
150.8484031498
 21
58.1840965112
  0
LINE
  5
32D
100
AcDbEntity
  8
218160250
100
AcDbLine
 62
250
  6
CONTINUOUS
 10
145.1831040741
 20
54.8507866733
 11
151.2372527415
 21
57.8536890441
  0
LINE
  5
32E
100
AcDbEntity
  8
349160010_
100
AcDbLine
 62
7
  6
CONTINUOUS
 10
131.264206265
 20
90.6077369058
 11
129.3139605803
 21
90.4087021088
  0
LINE
  5
32F
100
AcDbEntity
  8
349160010_
100
AcDbLine
 62
7
  6
CONTINUOUS
 10
127.4509971331
 20
91.2592074434
 11
128.8433506822
 21
91.4013058509
  0
LINE
  5
330
100
AcDbEntity
  8
349160010_
100
AcDbLine
 62
7
  6
CONTINUOUS
 10
133.3005607245
 20
91.9011407218
 11
131.9656110097
 21
91.7649007354
  0
LINE
  5
331
100
AcDbEntity
  8
349160010_
100
AcDbLine
 62
7
  6
CONTINUOUS
 10
126.9805082023
 20
91.5754282977
 11
128.930753887
 21
91.7744630948
  0
LINE
  5
332
100
AcDbEntity
  8
268160210
100
AcDbLine
 62
7
  6
CONTINUOUS
 10
132.9978374963
 20
92.3769114406
 11
132.0538856692
 21
92.3257215728
  0
LWPOLYLINE
  5
333
100
AcDbEntity
  8
218160250
100
AcDbPolyline
 62
7
  6
CONTINUOUS
 90
29
 70
0
 10
149.1651540801
 20
87.4448623341
 10
149.1568196323
 20
87.4487503933
 10
149.1482892106
 20
87.4523283899
 10
149.139575344
 20
87.4555872839
 10
149.1306778035
 20
87.4585231044
 10
149.1216018087
 20
87.4611293572
 10
149.1123585045
 20
87.4633981503
 10
149.1029529553
 20
87.4653236578
 10
149.093376955
 20
87.4669019945
 10
149.0836502724
 20
87.4681244583
 10
149.0738154865
 20
87.4689832918
 10
149.0638721128
 20
87.4694779237
 10
149.0538251809
 20
87.4696072129
 10
149.0437195058
 20
87.4693720543
 10
149.033559154
 20
87.4687766198
 10
149.0233329022
 20
87.4678238332
 10
149.0130553918
 20
87.4665186784
 10
149.0027202383
 20
87.464864404
 10
148.992312751
 20
87.4628622415
 10
148.9818285638
 20
87.4605144192
 10
148.9712559286
 20
87.4578207575
 10
148.960575347
 20
87.4547778638
 10
148.9497682953
 20
87.4513812756
 10
148.9388211252
 20
87.4476262462
 10
148.9277135795
 20
87.4435043597
 10
148.9164186211
 20
87.439003103
 10
148.9049176132
 20
87.434110655
 10
148.8932009783
 20
87.4288180755
 10
148.8867240399
 20
87.4257632089
  0
LINE
  5
334
100
AcDbEntity
  8
268160210
100
AcDbLine
 62
7
  6
CONTINUOUS
 10
142.77093877
 20
87.9468172791
 11
142.1723302523
 21
88.2461215379
  0
LINE
  5
335
100
AcDbEntity
  8
268160210
100
AcDbLine
 62
7
  6
CONTINUOUS
 10
130.2171166644
 20
94.2237283319
 11
129.9359612037
 21
94.3643060622
  0
LINE
  5
336
100
AcDbEntity
  8
268160210
100
AcDbLine
 62
250
  6
CONTINUOUS
 10
141.6431236071
 20
88.6482955922
 11
140.3742491667
 21
89.2827328124
  0
LINE
  5
337
100
AcDbEntity
  8
268160210
100
AcDbLine
 62
250
  6
CONTINUOUS
 10
131.6247623981
 20
93.6574761967
 11
130.3558879577
 21
94.291913417
  0
LINE
  5
338
100
AcDbEntity
  8
268160210
100
AcDbLine
 62
7
  6
CONTINUOUS
 10
141.9778232774
 20
88.6712122387
 11
140.7177890688
 21
89.3012293431
  0
LINE
  5
339
100
AcDbEntity
  8
268160210
100
AcDbLine
 62
7
  6
CONTINUOUS
 10
131.9565150252
 20
93.6818663648
 11
130.6964808166
 21
94.3118834692
  0
LINE
  5
33A
100
AcDbEntity
  8
218160250
100
AcDbLine
 62
250
  6
CONTINUOUS
 10
127.1694374154
 20
96.2525612374
 11
128.3812397933
 21
95.6466600485
  0
LINE
  5
33B
100
AcDbEntity
  8
218160250
100
AcDbLine
 62
250
  6
CONTINUOUS
 10
143.2959708786
 20
88.1892945058
 11
144.5077732565
 21
87.5833933169
  0
LINE
  5
33C
100
AcDbEntity
  8
218160250
100
AcDbLine
 62
7
  6
CONTINUOUS
 10
127.6119010304
 20
96.2711291999
 11
128.8085219395
 21
95.6728187453
  0
LINE
  5
33D
100
AcDbEntity
  8
218160250
100
AcDbLine
 62
7
  6
CONTINUOUS
 10
143.7384344935
 20
88.2078624683
 11
144.9350554027
 21
87.6095520137
  0
LINE
  5
33E
100
AcDbEntity
  8
218160250
100
AcDbLine
 62
250
  6
CONTINUOUS
 10
144.7004547249
 20
88.3839172426
 11
147.7269496819
 21
86.8706697641
  0
LINE
  5
33F
100
AcDbEntity
  8
218160250
100
AcDbLine
 62
7
  6
CONTINUOUS
 10
144.7580205993
 20
88.4055360224
 11
147.7784524246
 21
86.8953201098
  0
LINE
  5
340
100
AcDbEntity
  8
218160250
100
AcDbLine
 62
250
  6
CONTINUOUS
 10
147.1064689587
 20
87.4808946148
 11
148.0334873332
 21
87.0173854275
  0
LINE
  5
341
100
AcDbEntity
  8
218160250
100
AcDbLine
 62
250
  6
CONTINUOUS
 10
151.5896825669
 20
85.2392878106
 11
152.5066452211
 21
84.7808064836
  0
LINE
  5
342
100
AcDbEntity
  8
218160250
100
AcDbLine
 62
7
  6
CONTINUOUS
 10
147.2387818596
 20
87.4884994548
 11
148.1088599393
 21
87.0534604149
  0
LINE
  5
343
100
AcDbEntity
  8
218160250
100
AcDbLine
 62
7
  6
CONTINUOUS
 10
151.5896825669
 20
85.3130491011
 11
152.638958122
 21
84.7884113236
  0
LINE
  5
344
100
AcDbEntity
  8
218160250
100
AcDbLine
 62
250
  6
CONTINUOUS
 10
134.7111526563
 20
94.5519703799
 11
143.9025330269
 21
89.9562801946
  0
LINE
  5
345
100
AcDbEntity
  8
218160250
100
AcDbLine
 62
250
  6
CONTINUOUS
 10
148.9755403657
 20
87.4197765252
 11
151.0958529244
 21
86.3596202458
  0
LINE
  5
346
100
AcDbEntity
  8
218160250
100
AcDbLine
 62
7
  6
CONTINUOUS
 10
134.9285890966
 20
94.5631520447
 11
144.1462381317
 21
89.9543275271
  0
LINE
  5
347
100
AcDbEntity
  8
218160250
100
AcDbLine
 62
7
  6
CONTINUOUS
 10
149.1651540801
 20
87.4448623341
 11
151.3132893647
 21
86.3708019106
  0
LINE
  5
348
100
AcDbEntity
  8
218160250
100
AcDbLine
 62
250
  6
CONTINUOUS
 10
145.3952037998
 20
54.4849687594
 11
151.4493524671
 21
57.4878711301
  0
LINE
  5
349
100
AcDbEntity
  8
349160010_
100
AcDbLine
 62
7
  6
CONTINUOUS
 10
125.5947652881
 20
92.072581652
 11
130.2401210496
 21
92.5466693265
  0
LINE
  5
34A
100
AcDbEntity
  8
268160210
100
AcDbLine
 62
7
  6
CONTINUOUS
 10
131.8041680248
 20
93.1709597892
 11
130.5270700858
 21
93.0891293645
  0
LINE
  5
34B
100
AcDbEntity
  8
218160250
100
AcDbLine
 62
250
  6
CONTINUOUS
 10
151.4493524671
 20
54.5104833808
 11
145.1904121359
 21
51.1336414815
  0
LINE
  5
34C
100
AcDbEntity
  8
218160250
100
AcDbLine
 62
7
  6
CONTINUOUS
 10
151.3270944772
 20
54.244107538
 11
145.1904121359
 21
50.933226629
  0
LINE
  5
34D
100
AcDbEntity
  8
268160210
100
AcDbLine
 62
7
  6
CONTINUOUS
 10
133.7183874518
 20
45.2345906876
 11
133.8235507196
 21
45.2853681812
  0
LINE
  5
34E
100
AcDbEntity
  8
290160010
100
AcDbLine
 62
250
  6
CONTINUOUS
 10
129.0093519922
 20
44.7079909703
 11
135.2213357887
 21
46.6557093117
  0
LINE
  5
34F
100
AcDbEntity
  8
290160010
100
AcDbLine
 62
7
  6
CONTINUOUS
 10
135.1072254968
 20
46.4782948874
 11
128.8905215258
 21
44.5290966934
  0
LINE
  5
350
100
AcDbEntity
  8
218160250
100
AcDbLine
 62
7
  6
CONTINUOUS
 10
138.9375344582
 20
43.251294427
 11
144.5077732565
 21
46.2565660493
  0
LINE
  5
351
100
AcDbEntity
  8
268160210
100
AcDbLine
 62
250
  6
CONTINUOUS
 10
133.7183874518
 20
42.3477064396
 11
137.4672598768
 21
44.1184472034
  0
LINE
  5
352
100
AcDbEntity
  8
268160210
100
AcDbLine
 62
7
  6
CONTINUOUS
 10
133.6514961237
 20
42.2115719959
 11
137.1006054679
 21
43.840722797
  0
LINE
  5
353
100
AcDbEntity
  8
268160210
100
AcDbLine
 62
250
  6
CONTINUOUS
 10
138.9375344582
 20
43.4677760472
 11
137.4672598768
 21
42.7733071936
  0
LINE
  5
354
100
AcDbEntity
  8
268160210
100
AcDbLine
 62
7
  6
CONTINUOUS
 10
138.8706850175
 20
43.3316613885
 11
137.4003685486
 21
42.6371727498
  0
ARC
  5
355
100
AcDbEntity
  8
290160010
100
AcDbCircle
 62
250
  6
CONTINUOUS
 10
643.7513036652
 20
17.265419644
 40
516.3681491457
100
AcDbArc
 50
173.6157346277
 51
174.0584465118
  0
ARC
  5
356
100
AcDbEntity
  8
218160250
100
AcDbCircle
 62
7
  6
CONTINUOUS
 10
134.7049822988
 20
94.1159384492
 40
0.5
100
AcDbArc
 50
63.4349488229
 51
114.7889082971
  0
ARC
  5
357
100
AcDbEntity
  8
218160250
100
AcDbCircle
 62
7
  6
CONTINUOUS
 10
151.0896825669
 20
54.6841479735
 40
0.5
100
AcDbArc
 50
298.3481508913
 51
359.9999884355
  0
ARC
  5
358
100
AcDbEntity
  8
218160250
100
AcDbCircle
 62
7
  6
CONTINUOUS
 10
151.0896825669
 20
85.9235883151
 40
0.5
100
AcDbArc
 50
0.0005538606
 51
63.4349488229
  0
ARC
  5
359
100
AcDbEntity
  8
290160010
100
AcDbCircle
 62
250
  6
CONTINUOUS
 10
111.8352813982
 20
53.2589374599
 40
0.366288411
100
AcDbArc
 50
241.0080913793
 51
243.4376150391
  0
ARC
  5
35A
100
AcDbEntity
  8
218160250
100
AcDbCircle
 62
7
  6
CONTINUOUS
 10
152.5047940433
 20
65.2510179321
 40
0.3
100
AcDbArc
 50
359.9996265402
 51
63.4352506507
  0
ARC
  5
35B
100
AcDbEntity
  8
218160250
100
AcDbCircle
 62
7
  6
CONTINUOUS
 10
152.5047940433
 20
59.7492866556
 40
0.3
100
AcDbArc
 50
297.8636684579
 51
0.0004779859
  0
ARC
  5
35C
100
AcDbEntity
  8
218160250
100
AcDbCircle
 62
7
  6
CONTINUOUS
 10
152.5047940433
 20
84.5200831663
 40
0.3
100
AcDbArc
 50
359.9996265402
 51
63.4352506506
  0
ARC
  5
35D
100
AcDbEntity
  8
218160250
100
AcDbCircle
 62
7
  6
CONTINUOUS
 10
152.5047940433
 20
79.0183518898
 40
0.3
100
AcDbArc
 50
297.8636684579
 51
0.0004779859
  0
ARC
  5
35E
100
AcDbEntity
  8
268160210
100
AcDbCircle
 62
7
  6
CONTINUOUS
 10
133.5447228592
 20
42.4376239146
 40
0.25
100
AcDbArc
 50
243.4349488229
 51
295.2851285316
  0
ARC
  5
35F
100
AcDbEntity
  8
268160210
100
AcDbCircle
 62
7
  6
CONTINUOUS
 10
116.5410495567
 20
89.2757842441
 40
0.25
100
AcDbArc
 50
117.8640025146
 51
180.0000756668
  0
ARC
  5
360
100
AcDbEntity
  8
218160250
100
AcDbCircle
 62
7
  6
CONTINUOUS
 10
144.7372451561
 20
88.733309564
 40
0.0217881302
100
AcDbArc
 50
359.9416123178
 51
20.9370910337
  0
SPLINE
  5
361
100
AcDbEntity
  8
349160010_
100
AcDbSpline
 62
7
  6
CONTINUOUS
 70
0
 71
3
 72
10
 73
6
 74
0
 42
0.0000001
 43
0.0000001
 44
0.0000000001
 40
0.0
 40
0.0
 40
0.0
 40
0.0
 40
0.227718362
 40
0.4659068867
 40
1.0
 40
1.0
 40
1.0
 40
1.0
 10
131.51770418
 20
87.2242174429
 30
0.0
 10
131.5239853083
 20
87.2273575035
 30
0.0
 10
131.5378308779
 20
87.2319625967
 30
0.0
 10
131.5689161748
 20
87.2335269913
 30
0.0
 10
131.5924153602
 20
87.2259031344
 30
0.0
 10
131.6071467141
 20
87.2185374574
 30
0.0
  0
SPLINE
  5
362
100
AcDbEntity
  8
349160010_
100
AcDbSpline
 62
7
  6
CONTINUOUS
 70
0
 71
3
 72
11
 73
7
 74
0
 42
0.0000001
 43
0.0000001
 44
0.0000000001
 40
0.0
 40
0.0
 40
0.0
 40
0.0
 40
0.1668663968
 40
0.3782782406
 40
0.6547525796
 40
1.0
 40
1.0
 40
1.0
 40
1.0
 10
135.3480225787
 20
88.6175826192
 30
0.0
 10
135.3472379599
 20
88.6142330798
 30
0.0
 10
135.34278861
 20
88.6072639539
 30
0.0
 10
135.3309897853
 20
88.600236376
 30
0.0
 10
135.3145160735
 20
88.5951040223
 30
0.0
 10
135.3017959478
 20
88.593205243
 30
0.0
 10
135.2947149177
 20
88.5924825795
 30
0.0
  0
SPLINE
  5
363
100
AcDbEntity
  8
349160010_
100
AcDbSpline
 62
7
  6
CONTINUOUS
 70
0
 71
3
 72
11
 73
7
 74
0
 42
0.0000001
 43
0.0000001
 44
0.0000000001
 40
0.0
 40
0.0
 40
0.0
 40
0.0
 40
0.1668663968
 40
0.3782782406
 40
0.6547525796
 40
1.0
 40
1.0
 40
1.0
 40
1.0
 10
131.3175139259
 20
90.6328369455
 30
0.0
 10
131.3167293072
 20
90.6294874061
 30
0.0
 10
131.3122799572
 20
90.6225182803
 30
0.0
 10
131.3004811325
 20
90.6154907024
 30
0.0
 10
131.2840074208
 20
90.6103583487
 30
0.0
 10
131.271287295
 20
90.6084595694
 30
0.0
 10
131.264206265
 20
90.6077369058
 30
0.0
  0
SPLINE
  5
364
100
AcDbEntity
  8
349160010_
100
AcDbSpline
 62
7
  6
CONTINUOUS
 70
0
 71
3
 72
9
 73
5
 74
0
 42
0.0000001
 43
0.0000001
 44
0.0000000001
 40
0.0
 40
0.0
 40
0.0
 40
0.0
 40
0.4951300315
 40
1.0
 40
1.0
 40
1.0
 40
1.0
 10
133.5063960399
 20
91.8665219869
 30
0.0
 10
133.4879342273
 20
91.8757533992
 30
0.0
 10
133.44883787
 20
91.8909679542
 30
0.0
 10
133.4076725392
 20
91.8989176974
 30
0.0
 10
133.3867462259
 20
91.9011702816
 30
0.0
  0
SPLINE
  5
365
100
AcDbEntity
  8
349160010_
100
AcDbSpline
 62
7
  6
CONTINUOUS
 70
0
 71
3
 72
9
 73
5
 74
0
 42
0.0000001
 43
0.0000001
 44
0.0000000001
 40
0.0
 40
0.0
 40
0.0
 40
0.0
 40
0.2447357831
 40
1.0
 40
1.0
 40
1.0
 40
1.0
 10
133.3867462259
 20
91.9011702816
 30
0.0
 10
133.3797484428
 20
91.9019235483
 30
0.0
 10
133.3510726187
 20
91.9042079793
 30
0.0
 10
133.3221686748
 20
91.9033459486
 30
0.0
 10
133.3005607245
 20
91.9011407218
 30
0.0
  0
SPLINE
  5
366
100
AcDbEntity
  8
349160010_
100
AcDbSpline
 62
7
  6
CONTINUOUS
 70
0
 71
3
 72
12
 73
8
 74
0
 42
0.0000001
 43
0.0000001
 44
0.0000000001
 40
0.0
 40
0.0
 40
0.0
 40
0.0
 40
0.1019075767
 40
0.2190147433
 40
0.4829783949
 40
0.755955919
 40
1.0
 40
1.0
 40
1.0
 40
1.0
 10
131.9656110097
 20
91.7649007354
 30
0.0
 10
131.9559986065
 20
91.7639197294
 30
0.0
 10
131.935202072
 20
91.7631431067
 30
0.0
 10
131.8894294906
 20
91.7653468745
 30
0.0
 10
131.8279503884
 20
91.7747567713
 30
0.0
 10
131.7562627412
 20
91.7936856427
 30
0.0
 10
131.7103860634
 20
91.8115368196
 30
0.0
 10
131.6896899511
 20
91.8218848758
 30
0.0
  0
SPLINE
  5
367
100
AcDbEntity
  8
349160010_
100
AcDbSpline
 62
7
  6
CONTINUOUS
 70
0
 71
3
 72
9
 73
5
 74
0
 42
0.0000001
 43
0.0000001
 44
0.0000000001
 40
0.0
 40
0.0
 40
0.0
 40
0.0
 40
0.2656286414
 40
1.0
 40
1.0
 40
1.0
 40
1.0
 10
125.4418096796
 20
92.0257742579
 30
0.0
 10
125.4545147592
 20
92.0321267977
 30
0.0
 10
125.5031873301
 20
92.0542268963
 30
0.0
 10
125.5556971036
 20
92.0685944989
 30
0.0
 10
125.5947652881
 20
92.072581652
 30
0.0
  0
SPLINE
  5
368
100
AcDbEntity
  8
349160010_
100
AcDbSpline
 62
7
  6
CONTINUOUS
 70
0
 71
3
 72
11
 73
7
 74
0
 42
0.0000001
 43
0.0000001
 44
0.0000000001
 40
0.0
 40
0.0
 40
0.0
 40
0.0
 40
0.3613457637
 40
0.5147902974
 40
0.6488131342
 40
1.0
 40
1.0
 40
1.0
 40
1.0
 10
137.2758335225
 20
89.0288130901
 30
0.0
 10
137.2663766635
 20
89.0335415196
 30
0.0
 10
137.2532016202
 20
89.0408207771
 30
0.0
 10
137.2376218928
 20
89.0519621681
 30
0.0
 10
137.2238038727
 20
89.0637356386
 30
0.0
 10
137.2132605671
 20
89.0781452585
 30
0.0
 10
137.2156042077
 20
89.0881502663
 30
0.0
  0
SPLINE
  5
369
100
AcDbEntity
  8
349160010_
100
AcDbSpline
 62
7
  6
CONTINUOUS
 70
0
 71
3
 72
15
 73
11
 74
0
 42
0.0000001
 43
0.0000001
 44
0.0000000001
 40
0.0
 40
0.0
 40
0.0
 40
0.0
 40
0.1197400429
 40
0.2468321982
 40
0.3784575399
 40
0.511666381
 40
0.6432400042
 40
0.7701010525
 40
0.8897103295
 40
1.0
 40
1.0
 40
1.0
 40
1.0
 10
124.5832668002
 20
90.9902850355
 30
0.0
 10
124.5832668002
 20
91.0314029133
 30
0.0
 10
124.5902773088
 20
91.1162473687
 30
0.0
 10
124.6186994183
 20
91.2434104619
 30
0.0
 10
124.6644015059
 20
91.3703611499
 30
0.0
 10
124.7255945759
 20
91.4923143615
 30
0.0
 10
124.8000460267
 20
91.6047118461
 30
0.0
 10
124.8849646404
 20
91.7034084504
 30
0.0
 10
124.9772105276
 20
91.7846358763
 30
0.0
 10
125.0443671858
 20
91.827053011
 30
0.0
 10
125.078241547
 20
91.8439901916
 30
0.0
  0
SPLINE
  5
36A
100
AcDbEntity
  8
349160010_
100
AcDbSpline
 62
7
  6
CONTINUOUS
 70
0
 71
3
 72
11
 73
7
 74
0
 42
0.0000001
 43
0.0000001
 44
0.0000000001
 40
0.0
 40
0.0
 40
0.0
 40
0.0
 40
0.2279059286
 40
0.4839745214
 40
0.7487298764
 40
1.0
 40
1.0
 40
1.0
 40
1.0
 10
126.0446682604
 20
89.9997766842
 30
0.0
 10
126.0635864406
 20
89.9903175941
 30
0.0
 10
126.099940869
 20
89.9625164348
 30
0.0
 10
126.1429229105
 20
89.9072119377
 30
0.0
 10
126.173674099
 20
89.8418827168
 30
0.0
 10
126.1839469126
 20
89.7944900697
 30
0.0
 10
126.1855514657
 20
89.7712258183
 30
0.0
  0
SPLINE
  5
36B
100
AcDbEntity
  8
349160010_
100
AcDbSpline
 62
7
  6
CONTINUOUS
 70
0
 71
3
 72
12
 73
8
 74
0
 42
0.0000001
 43
0.0000001
 44
0.0000000001
 40
0.0
 40
0.0
 40
0.0
 40
0.0
 40
0.1019075767
 40
0.2190147433
 40
0.4829783949
 40
0.755955919
 40
1.0
 40
1.0
 40
1.0
 40
1.0
 10
133.344469233
 20
88.3934477824
 30
0.0
 10
133.3348568298
 20
88.3924667764
 30
0.0
 10
133.3140602953
 20
88.3916901536
 30
0.0
 10
133.2682877139
 20
88.3938939214
 30
0.0
 10
133.2068086117
 20
88.4033038183
 30
0.0
 10
133.1351209645
 20
88.4222326896
 30
0.0
 10
133.0892442867
 20
88.4400838666
 30
0.0
 10
133.0685481744
 20
88.4504319228
 30
0.0
  0
SPLINE
  5
36C
100
AcDbEntity
  8
349160010_
100
AcDbSpline
 62
7
  6
CONTINUOUS
 70
0
 71
3
 72
12
 73
8
 74
0
 42
0.0000001
 43
0.0000001
 44
0.0000000001
 40
0.0
 40
0.0
 40
0.0
 40
0.0
 40
0.1019075767
 40
0.2190147433
 40
0.4829783949
 40
0.755955919
 40
1.0
 40
1.0
 40
1.0
 40
1.0
 10
129.3139605803
 20
90.4087021088
 30
0.0
 10
129.3043481771
 20
90.4077211028
 30
0.0
 10
129.2835516425
 20
90.40694448
 30
0.0
 10
129.2377790612
 20
90.4091482478
 30
0.0
 10
129.176299959
 20
90.4185581446
 30
0.0
 10
129.1046123118
 20
90.437487016
 30
0.0
 10
129.058735634
 20
90.455338193
 30
0.0
 10
129.0380395216
 20
90.4656862491
 30
0.0
  0
SPLINE
  5
36D
100
AcDbEntity
  8
349160010_
100
AcDbSpline
 62
7
  6
CONTINUOUS
 70
0
 71
3
 72
11
 73
7
 74
0
 42
0.0000001
 43
0.0000001
 44
0.0000000001
 40
0.0
 40
0.0
 40
0.0
 40
0.0
 40
0.3613457637
 40
0.5147902974
 40
0.6488131342
 40
1.0
 40
1.0
 40
1.0
 40
1.0
 10
131.017938509
 20
89.4757367555
 30
0.0
 10
131.00848165
 20
89.480465185
 30
0.0
 10
130.9953066067
 20
89.4877444425
 30
0.0
 10
130.9797268793
 20
89.4988858335
 30
0.0
 10
130.9659088592
 20
89.510659304
 30
0.0
 10
130.9553655536
 20
89.5250689239
 30
0.0
 10
130.9577091942
 20
89.5350739316
 30
0.0
  0
SPLINE
  5
36E
100
AcDbEntity
  8
349160010_
100
AcDbSpline
 62
7
  6
CONTINUOUS
 70
0
 71
3
 72
11
 73
7
 74
0
 42
0.0000001
 43
0.0000001
 44
0.0000000001
 40
0.0
 40
0.0
 40
0.0
 40
0.0
 40
0.3613457637
 40
0.5147902974
 40
0.6488131342
 40
1.0
 40
1.0
 40
1.0
 40
1.0
 10
126.9874298562
 20
91.4909910819
 30
0.0
 10
126.9779729972
 20
91.4957195113
 30
0.0
 10
126.9647979539
 20
91.5029987689
 30
0.0
 10
126.9492182265
 20
91.5141401599
 30
0.0
 10
126.9354002064
 20
91.5259136304
 30
0.0
 10
126.9248569009
 20
91.5403232503
 30
0.0
 10
126.9272005414
 20
91.550328258
 30
0.0
  0
SPLINE
  5
36F
100
AcDbEntity
  8
349160010_
100
AcDbSpline
 62
7
  6
CONTINUOUS
 70
0
 71
3
 72
11
 73
7
 74
0
 42
0.0000001
 43
0.0000001
 44
0.0000000001
 40
0.0
 40
0.0
 40
0.0
 40
0.0
 40
0.1668663968
 40
0.3782782406
 40
0.6547525796
 40
1.0
 40
1.0
 40
1.0
 40
1.0
 10
137.2156042077
 20
89.0881502663
 30
0.0
 10
137.2163888264
 20
89.0914998057
 30
0.0
 10
137.2208381764
 20
89.0984689315
 30
0.0
 10
137.2326370011
 20
89.1054965094
 30
0.0
 10
137.2491107128
 20
89.1106288631
 30
0.0
 10
137.2618308386
 20
89.1125276424
 30
0.0
 10
137.2689118686
 20
89.113250306
 30
0.0
  0
SPLINE
  5
370
100
AcDbEntity
  8
349160010_
100
AcDbSpline
 62
7
  6
CONTINUOUS
 70
0
 71
3
 72
11
 73
7
 74
0
 42
0.0000001
 43
0.0000001
 44
0.0000000001
 40
0.0
 40
0.0
 40
0.0
 40
0.0
 40
0.1668663968
 40
0.3782782406
 40
0.6547525796
 40
1.0
 40
1.0
 40
1.0
 40
1.0
 10
126.9272005414
 20
91.550328258
 30
0.0
 10
126.9279851601
 20
91.5536777974
 30
0.0
 10
126.9324345101
 20
91.5606469233
 30
0.0
 10
126.9442333348
 20
91.5676745012
 30
0.0
 10
126.9607070465
 20
91.5728068548
 30
0.0
 10
126.9734271723
 20
91.5747056342
 30
0.0
 10
126.9805082023
 20
91.5754282977
 30
0.0
  0
SPLINE
  5
371
100
AcDbEntity
  8
349160010_
100
AcDbSpline
 62
7
  6
CONTINUOUS
 70
0
 71
3
 72
11
 73
7
 74
0
 42
0.0000001
 43
0.0000001
 44
0.0000000001
 40
0.0
 40
0.0
 40
0.0
 40
0.0
 40
0.3613457637
 40
0.5147902974
 40
0.6488131342
 40
1.0
 40
1.0
 40
1.0
 40
1.0
 10
135.2877932639
 20
88.6769197953
 30
0.0
 10
135.2972501228
 20
88.6721913658
 30
0.0
 10
135.3104251662
 20
88.6649121083
 30
0.0
 10
135.3260048936
 20
88.6537707173
 30
0.0
 10
135.3398229136
 20
88.6419972468
 30
0.0
 10
135.3503662192
 20
88.6275876269
 30
0.0
 10
135.3480225787
 20
88.6175826192
 30
0.0
  0
SPLINE
  5
372
100
AcDbEntity
  8
349160010_
100
AcDbSpline
 62
7
  6
CONTINUOUS
 70
0
 71
3
 72
11
 73
7
 74
0
 42
0.0000001
 43
0.0000001
 44
0.0000000001
 40
0.0
 40
0.0
 40
0.0
 40
0.0
 40
0.3613457637
 40
0.5147902974
 40
0.6488131342
 40
1.0
 40
1.0
 40
1.0
 40
1.0
 10
131.2572846111
 20
90.6921741217
 30
0.0
 10
131.2667414701
 20
90.6874456922
 30
0.0
 10
131.2799165134
 20
90.6801664347
 30
0.0
 10
131.2954962408
 20
90.6690250437
 30
0.0
 10
131.3093142609
 20
90.6572515732
 30
0.0
 10
131.3198575664
 20
90.6428419533
 30
0.0
 10
131.3175139259
 20
90.6328369455
 30
0.0
  0
SPLINE
  5
373
100
AcDbEntity
  8
349160010_
100
AcDbSpline
 62
7
  6
CONTINUOUS
 70
0
 71
3
 72
12
 73
8
 74
0
 42
0.0000001
 43
0.0000001
 44
0.0000000001
 40
0.0
 40
0.0
 40
0.0
 40
0.0
 40
0.1019075767
 40
0.2190147433
 40
0.4829783949
 40
0.755955919
 40
1.0
 40
1.0
 40
1.0
 40
1.0
 10
132.9612625398
 20
89.7592087684
 30
0.0
 10
132.970874943
 20
89.7601897744
 30
0.0
 10
132.9916714775
 20
89.7609663972
 30
0.0
 10
133.0374440589
 20
89.7587626294
 30
0.0
 10
133.0989231611
 20
89.7493527325
 30
0.0
 10
133.1706108083
 20
89.7304238612
 30
0.0
 10
133.2164874861
 20
89.7125726842
 30
0.0
 10
133.2371835984
 20
89.702224628
 30
0.0
  0
SPLINE
  5
374
100
AcDbEntity
  8
349160010_
100
AcDbSpline
 62
7
  6
CONTINUOUS
 70
0
 71
3
 72
12
 73
8
 74
0
 42
0.0000001
 43
0.0000001
 44
0.0000000001
 40
0.0
 40
0.0
 40
0.0
 40
0.0
 40
0.1019075767
 40
0.2190147433
 40
0.4829783949
 40
0.755955919
 40
1.0
 40
1.0
 40
1.0
 40
1.0
 10
128.930753887
 20
91.7744630948
 30
0.0
 10
128.9403662902
 20
91.7754441008
 30
0.0
 10
128.9611628248
 20
91.7762207236
 30
0.0
 10
129.0069354061
 20
91.7740169557
 30
0.0
 10
129.0684145083
 20
91.7646070589
 30
0.0
 10
129.1401021555
 20
91.7456781875
 30
0.0
 10
129.1859788334
 20
91.7278270106
 30
0.0
 10
129.2066749457
 20
91.7174789544
 30
0.0
  0
SPLINE
  5
375
100
AcDbEntity
  8
349160010_
100
AcDbSpline
 62
7
  6
CONTINUOUS
 70
0
 71
3
 72
9
 73
5
 74
0
 42
0.0000001
 43
0.0000001
 44
0.0000000001
 40
0.0
 40
0.0
 40
0.0
 40
0.0
 40
0.2656286414
 40
1.0
 40
1.0
 40
1.0
 40
1.0
 10
133.9270910538
 20
87.7831335708
 30
0.0
 10
133.9397961334
 20
87.7894861105
 30
0.0
 10
133.9884687044
 20
87.8115862092
 30
0.0
 10
134.0409784779
 20
87.8259538117
 30
0.0
 10
134.0800466624
 20
87.8299409649
 30
0.0
  0
SPLINE
  5
376
100
AcDbEntity
  8
349160010_
100
AcDbSpline
 62
7
  6
CONTINUOUS
 70
0
 71
3
 72
11
 73
7
 74
0
 42
0.0000001
 43
0.0000001
 44
0.0000000001
 40
0.0
 40
0.0
 40
0.0
 40
0.0
 40
0.1668663968
 40
0.3782782406
 40
0.6547525796
 40
1.0
 40
1.0
 40
1.0
 40
1.0
 10
130.9577091942
 20
89.5350739316
 30
0.0
 10
130.9584938129
 20
89.538423471
 30
0.0
 10
130.9629431629
 20
89.5453925969
 30
0.0
 10
130.9747419876
 20
89.5524201748
 30
0.0
 10
130.9912156993
 20
89.5575525285
 30
0.0
 10
131.0039358251
 20
89.5594513078
 30
0.0
 10
131.0110168551
 20
89.5601739713
 30
0.0
  0
SPLINE
  5
377
100
AcDbEntity
  8
349160010_
100
AcDbSpline
 62
7
  6
CONTINUOUS
 70
0
 71
3
 72
15
 73
11
 74
0
 42
0.0000001
 43
0.0000001
 44
0.0000000001
 40
0.0
 40
0.0
 40
0.0
 40
0.0
 40
0.1197400429
 40
0.2468321982
 40
0.3784575399
 40
0.511666381
 40
0.6432400042
 40
0.7701010525
 40
0.8897103295
 40
1.0
 40
1.0
 40
1.0
 40
1.0
 10
133.0685481744
 20
86.7476443484
 30
0.0
 10
133.0685481744
 20
86.7887622262
 30
0.0
 10
133.075558683
 20
86.8736066816
 30
0.0
 10
133.1039807926
 20
87.0007697748
 30
0.0
 10
133.1496828802
 20
87.1277204628
 30
0.0
 10
133.2108759502
 20
87.2496736743
 30
0.0
 10
133.2853274009
 20
87.362071159
 30
0.0
 10
133.3702460146
 20
87.4607677632
 30
0.0
 10
133.4624919019
 20
87.5419951892
 30
0.0
 10
133.52964856
 20
87.5844123238
 30
0.0
 10
133.5635229212
 20
87.6013495044
 30
0.0
  0
SPLINE
  5
378
100
AcDbEntity
  8
349160010_
100
AcDbSpline
 62
7
  6
CONTINUOUS
 70
0
 71
3
 72
11
 73
7
 74
0
 42
0.0000001
 43
0.0000001
 44
0.0000000001
 40
0.0
 40
0.0
 40
0.0
 40
0.0
 40
0.2854725589
 40
0.5436124477
 40
0.7786009019
 40
1.0
 40
1.0
 40
1.0
 40
1.0
 10
131.4662635088
 20
87.1308697967
 30
0.0
 10
131.4670452297
 20
87.1414221667
 30
0.0
 10
131.4702066199
 20
87.1614647388
 30
0.0
 10
131.4806717163
 20
87.1886381523
 30
0.0
 10
131.496421946
 20
87.2103617793
 30
0.0
 10
131.5103639643
 20
87.2205479235
 30
0.0
 10
131.51770418
 20
87.2242174429
 30
0.0
  0
SPLINE
  5
379
100
AcDbEntity
  8
290160010
100
AcDbSpline
 62
250
  6
CONTINUOUS
 70
0
 71
3
 72
10
 73
6
 74
0
 42
0.0000001
 43
0.0000001
 44
0.0000000001
 40
0.0
 40
0.0
 40
0.0
 40
0.0
 40
0.1855483381
 40
0.5327603681
 40
1.0
 40
1.0
 40
1.0
 40
1.0
 10
113.7583048132
 20
83.1537507968
 30
0.0
 10
113.7573547353
 20
83.1450968091
 30
0.0
 10
113.7618668327
 20
83.1193253161
 30
0.0
 10
113.7941046989
 20
83.0826325726
 30
0.0
 10
113.8269174497
 20
83.0627421896
 30
0.0
 10
113.846533177
 20
83.0529522859
 30
0.0
  0
SPLINE
  5
37A
100
AcDbEntity
  8
290160010
100
AcDbSpline
 62
250
  6
CONTINUOUS
 70
0
 71
3
 72
9
 73
5
 74
0
 42
0.0000001
 43
0.0000001
 44
0.0000000001
 40
0.0
 40
0.0
 40
0.0
 40
0.0
 40
0.4727924626
 40
1.0
 40
1.0
 40
1.0
 40
1.0
 10
114.4539755646
 20
84.1808370332
 30
0.0
 10
114.4737953263
 20
84.189355237
 30
0.0
 10
114.5209529303
 20
84.1962930822
 30
0.0
 10
114.5657143045
 20
84.1823411186
 30
0.0
 10
114.5873640184
 20
84.1718548507
 30
0.0
  0
SPLINE
  5
37B
100
AcDbEntity
  8
290160010
100
AcDbSpline
 62
250
  6
CONTINUOUS
 70
0
 71
3
 72
11
 73
7
 74
0
 42
0.0000001
 43
0.0000001
 44
0.0000000001
 40
0.0
 40
0.0
 40
0.0
 40
0.0
 40
0.2127782469
 40
0.4451704448
 40
0.7069808949
 40
1.0
 40
1.0
 40
1.0
 40
1.0
 10
111.6577464966
 20
52.9385493223
 30
0.0
 10
111.6162854281
 20
52.9615237297
 30
0.0
 10
111.5386967782
 20
53.027576257
 30
0.0
 10
111.4599467235
 20
53.1667460442
 30
0.0
 10
111.4172932117
 20
53.3385456498
 30
0.0
 10
111.413582871
 20
53.4629649752
 30
0.0
 10
111.4170307569
 20
53.5281500933
 30
0.0
  0
SPLINE
  5
37C
100
AcDbEntity
  8
290160010
100
AcDbSpline
 62
250
  6
CONTINUOUS
 70
0
 71
3
 72
11
 73
7
 74
0
 42
0.0000001
 43
0.0000001
 44
0.0000000001
 40
0.0
 40
0.0
 40
0.0
 40
0.0
 40
0.2857591981
 40
0.5457224967
 40
0.7805108269
 40
1.0
 40
1.0
 40
1.0
 40
1.0
 10
129.0093519922
 20
44.7079909703
 30
0.0
 10
129.0070162111
 20
44.6865651891
 30
0.0
 10
128.9986467716
 20
44.6459054664
 30
0.0
 10
128.9736508527
 20
44.5919010954
 30
0.0
 10
128.9374378156
 20
44.5508166577
 30
0.0
 10
128.9064808458
 20
44.5341137535
 30
0.0
 10
128.8906859214
 20
44.529156881
 30
0.0
  0
SPLINE
  5
37D
100
AcDbEntity
  8
290160010
100
AcDbSpline
 62
250
  6
CONTINUOUS
 70
0
 71
3
 72
9
 73
5
 74
0
 42
0.0000001
 43
0.0000001
 44
0.0000000001
 40
0.0
 40
0.0
 40
0.0
 40
0.0
 40
0.2473920479
 40
1.0
 40
1.0
 40
1.0
 40
1.0
 10
111.4170307569
 20
53.5281500933
 30
0.0
 10
111.5466572506
 20
55.9678601075
 30
0.0
 10
112.1434747212
 20
65.8256012331
 30
0.0
 10
113.028178661
 20
75.6656628638
 30
0.0
 10
113.8465216193
 20
83.0529485526
 30
0.0
  0
SPLINE
  5
37E
100
AcDbEntity
  8
290160010
100
AcDbSpline
 62
250
  6
CONTINUOUS
 70
0
 71
3
 72
9
 73
5
 74
0
 42
0.0000001
 43
0.0000001
 44
0.0000000001
 40
0.0
 40
0.0
 40
0.0
 40
0.0
 40
0.2508385694
 40
1.0
 40
1.0
 40
1.0
 40
1.0
 10
131.0037874806
 20
74.6439335724
 30
0.0
 10
130.9069490781
 20
73.7784320609
 30
0.0
 10
130.5295906557
 20
70.3270322943
 30
0.0
 10
130.1871468264
 20
66.8718114514
 30
0.0
 10
129.9506422553
 20
64.2815254971
 30
0.0
  0
SPLINE
  5
37F
100
AcDbEntity
  8
290160010
100
AcDbSpline
 62
250
  6
CONTINUOUS
 70
0
 71
3
 72
9
 73
5
 74
0
 42
0.0000001
 43
0.0000001
 44
0.0000000001
 40
0.0
 40
0.0
 40
0.0
 40
0.0
 40
0.2516703426
 40
1.0
 40
1.0
 40
1.0
 40
1.0
 10
129.9506422553
 20
64.2815254971
 30
0.0
 10
129.8042529241
 20
62.678215138
 30
0.0
 10
129.2530889037
 20
56.3047961721
 30
0.0
 10
128.8247454759
 20
49.9207064549
 30
0.0
 10
128.5760115529
 20
45.1399761474
 30
0.0
  0
SPLINE
  5
380
100
AcDbEntity
  8
290160010
100
AcDbSpline
 62
250
  6
CONTINUOUS
 70
0
 71
3
 72
9
 73
5
 74
0
 42
0.0000001
 43
0.0000001
 44
0.0000000001
 40
0.0
 40
0.0
 40
0.0
 40
0.0
 40
0.2521960601
 40
1.0
 40
1.0
 40
1.0
 40
1.0
 10
130.1570812557
 20
70.7167073716
 30
0.0
 10
129.9340033745
 20
68.5730304182
 30
0.0
 10
129.1030006982
 20
60.0675220091
 30
0.0
 10
128.4879749239
 20
51.540759924
 30
0.0
 10
128.1559241403
 20
45.1587034016
 30
0.0
  0
SPLINE
  5
381
100
AcDbEntity
  8
290160010
100
AcDbSpline
 62
250
  6
CONTINUOUS
 70
0
 71
3
 72
11
 73
7
 74
0
 42
0.0000001
 43
0.0000001
 44
0.0000000001
 40
0.0
 40
0.0
 40
0.0
 40
0.0
 40
0.2288043563
 40
0.4931500572
 40
0.7611373959
 40
1.0
 40
1.0
 40
1.0
 40
1.0
 10
131.0037874806
 20
74.6439335724
 30
0.0
 10
130.9726101665
 20
74.6343032584
 30
0.0
 10
130.9023898129
 20
74.6235679384
 30
0.0
 10
130.7935061755
 20
74.6256751783
 30
0.0
 10
130.6847415227
 20
74.6443815191
 30
0.0
 10
130.615872722
 20
74.6682451419
 30
0.0
 10
130.5854150058
 20
74.6835018619
 30
0.0
  0
SPLINE
  5
382
100
AcDbEntity
  8
290160010
100
AcDbSpline
 62
250
  6
CONTINUOUS
 70
0
 71
3
 72
11
 73
7
 74
0
 42
0.0000001
 43
0.0000001
 44
0.0000000001
 40
0.0
 40
0.0
 40
0.0
 40
0.0
 40
0.1975117978
 40
0.4217110929
 40
0.6885145041
 40
1.0
 40
1.0
 40
1.0
 40
1.0
 10
111.3291241576
 20
53.6327568793
 30
0.0
 10
111.3286179967
 20
53.6233123978
 30
0.0
 10
111.3324094751
 20
53.6027340565
 30
0.0
 10
111.3506541015
 20
53.5745887298
 30
0.0
 10
111.3797264061
 20
53.5489789021
 30
0.0
 10
111.4036943292
 20
53.534829905
 30
0.0
 10
111.4170307589
 20
53.5281500942
 30
0.0
  0
SPLINE
  5
383
100
AcDbEntity
  8
290160010
100
AcDbSpline
 62
250
  6
CONTINUOUS
 70
0
 71
3
 72
11
 73
7
 74
0
 42
0.0000001
 43
0.0000001
 44
0.0000000001
 40
0.0
 40
0.0
 40
0.0
 40
0.0
 40
0.2513716055
 40
0.5170593731
 40
0.7733657606
 40
1.0
 40
1.0
 40
1.0
 40
1.0
 10
131.5365412688
 20
75.4200859266
 30
0.0
 10
131.5385674743
 20
75.456912252
 30
0.0
 10
131.5304334161
 20
75.5335122404
 30
0.0
 10
131.4906886617
 20
75.6409046932
 30
0.0
 10
131.4284440946
 20
75.7326931984
 30
0.0
 10
131.3724691271
 20
75.7788238131
 30
0.0
 10
131.342921061
 20
75.7940763309
 30
0.0
  0
SPLINE
  5
384
100
AcDbEntity
  8
290160010
100
AcDbSpline
 62
250
  6
CONTINUOUS
 70
0
 71
3
 72
11
 73
7
 74
0
 42
0.0000001
 43
0.0000001
 44
0.0000000001
 40
0.0
 40
0.0
 40
0.0
 40
0.0
 40
0.223697688
 40
0.4778686095
 40
0.7440837378
 40
1.0
 40
1.0
 40
1.0
 40
1.0
 10
131.3429210593
 20
75.7940763302
 30
0.0
 10
131.2462658494
 20
75.75508402
 30
0.0
 10
131.0569783368
 20
75.6288955332
 30
0.0
 10
130.8291639268
 20
75.3636049517
 30
0.0
 10
130.6602719729
 20
75.0404593552
 30
0.0
 10
130.5986586271
 20
74.8019991169
 30
0.0
 10
130.5854150027
 20
74.6835018609
 30
0.0
  0
SPLINE
  5
385
100
AcDbEntity
  8
290160010
100
AcDbSpline
 62
250
  6
CONTINUOUS
 70
0
 71
3
 72
11
 73
7
 74
0
 42
0.0000001
 43
0.0000001
 44
0.0000000001
 40
0.0
 40
0.0
 40
0.0
 40
0.0
 40
0.2496566547
 40
0.5104486526
 40
0.765717733
 40
1.0
 40
1.0
 40
1.0
 40
1.0
 10
113.8465216193
 20
83.0529485526
 30
0.0
 10
113.8577546092
 20
83.1541631251
 30
0.0
 10
113.9054250068
 20
83.3587416024
 30
0.0
 10
114.034456506
 20
83.6451358378
 30
0.0
 10
114.2115333757
 20
83.8969839134
 30
0.0
 10
114.3597214054
 20
84.0342629652
 30
0.0
 10
114.4383115076
 20
84.0886340148
 30
0.0
  0
SPLINE
  5
386
100
AcDbEntity
  8
290160010
100
AcDbSpline
 62
250
  6
CONTINUOUS
 70
0
 71
3
 72
9
 73
5
 74
0
 42
0.0000001
 43
0.0000001
 44
0.0000000001
 40
0.0
 40
0.0
 40
0.0
 40
0.0
 40
0.2601016582
 40
1.0
 40
1.0
 40
1.0
 40
1.0
 10
114.4383115076
 20
84.0886340148
 30
0.0
 10
114.450494639
 20
84.0970626798
 30
0.0
 10
114.498057092
 20
84.1283944194
 30
0.0
 10
114.5485905742
 20
84.155344606
 30
0.0
 10
114.5873640184
 20
84.1718548507
 30
0.0
  0
SPLINE
  5
387
100
AcDbEntity
  8
290160010
100
AcDbSpline
 62
250
  6
CONTINUOUS
 70
0
 71
3
 72
11
 73
7
 74
0
 42
0.0000001
 43
0.0000001
 44
0.0000000001
 40
0.0
 40
0.0
 40
0.0
 40
0.0
 40
0.2240782076
 40
0.4782896862
 40
0.7443223902
 40
1.0
 40
1.0
 40
1.0
 40
1.0
 10
131.5365412688
 20
75.4200859266
 30
0.0
 10
131.4686104754
 20
75.392989177
 30
0.0
 10
131.3354991967
 20
75.3051072842
 30
0.0
 10
131.1751794172
 20
75.1197540745
 30
0.0
 10
131.056371009
 20
74.8937593738
 30
0.0
 10
131.0130731561
 20
74.726864569
 30
0.0
 10
131.0037874806
 20
74.6439335724
 30
0.0
  0
SPLINE
  5
388
100
AcDbEntity
  8
290160010
100
AcDbSpline
 62
250
  6
CONTINUOUS
 70
0
 71
3
 72
14
 73
10
 74
0
 42
0.0000001
 43
0.0000001
 44
0.0000000001
 40
0.0
 40
0.0
 40
0.0
 40
0.0
 40
0.2901407189
 40
0.4175042817
 40
0.5347867927
 40
0.6461193799
 40
0.7571665216
 40
0.8737009814
 40
1.0
 40
1.0
 40
1.0
 40
1.0
 10
128.5760115529
 20
45.1399761474
 30
0.0
 10
128.5723093672
 20
45.0685995095
 30
0.0
 10
128.5805892251
 20
44.9632085045
 30
0.0
 10
128.6314356822
 20
44.8406103083
 30
0.0
 10
128.6844069777
 20
44.7693860748
 30
0.0
 10
128.7523594165
 20
44.7184335441
 30
0.0
 10
128.8323767219
 20
44.6904404638
 30
0.0
 10
128.9205044314
 20
44.6863966611
 30
0.0
 10
128.9796637154
 20
44.6986863733
 30
0.0
 10
129.0093519922
 20
44.7079909703
 30
0.0
  0
SPLINE
  5
389
100
AcDbEntity
  8
290160010
100
AcDbSpline
 62
250
  6
CONTINUOUS
 70
0
 71
3
 72
11
 73
7
 74
0
 42
0.0000001
 43
0.0000001
 44
0.0000000001
 40
0.0
 40
0.0
 40
0.0
 40
0.0
 40
0.2913410868
 40
0.5519881584
 40
0.7845826974
 40
1.0
 40
1.0
 40
1.0
 40
1.0
 10
128.1559241403
 20
45.1587034016
 30
0.0
 10
128.1524331622
 20
45.0917167669
 30
0.0
 10
128.1569235071
 20
44.9637069829
 30
0.0
 10
128.2038876643
 20
44.7873311503
 30
0.0
 10
128.2900004006
 20
44.6455264096
 30
0.0
 10
128.3736345986
 20
44.580266236
 30
0.0
 10
128.4179842696
 20
44.5580631867
 30
0.0
  0
SPLINE
  5
38A
100
AcDbEntity
  8
290160010
100
AcDbSpline
 62
250
  6
CONTINUOUS
 70
0
 71
3
 72
11
 73
7
 74
0
 42
0.0000001
 43
0.0000001
 44
0.0000000001
 40
0.0
 40
0.0
 40
0.0
 40
0.0
 40
0.2329921278
 40
0.4975227005
 40
0.7633776451
 40
1.0
 40
1.0
 40
1.0
 40
1.0
 10
128.5760115528
 20
45.1399761474
 30
0.0
 10
128.5450366052
 20
45.1274870922
 30
0.0
 10
128.4747926685
 20
45.1110898647
 30
0.0
 10
128.3649832789
 20
45.1067029843
 30
0.0
 10
128.2554829529
 20
45.1209638537
 30
0.0
 10
128.1862806386
 20
45.1435593094
 30
0.0
 10
128.1559326235
 20
45.1587069581
 30
0.0
  0
SPLINE
  5
38B
100
AcDbEntity
  8
268160210
100
AcDbSpline
 62
7
  6
CONTINUOUS
 70
0
 71
3
 72
9
 73
5
 74
0
 42
0.0000001
 43
0.0000001
 44
0.0000000001
 40
0.0
 40
0.0
 40
0.0
 40
0.0
 40
0.2461412166
 40
1.0
 40
1.0
 40
1.0
 40
1.0
 10
139.1065824085
 20
89.5197525974
 30
0.0
 10
139.1303301863
 20
89.5161966313
 30
0.0
 10
139.2260989108
 20
89.4970006183
 30
0.0
 10
139.3180367769
 20
89.46113147
 30
0.0
 10
139.3838158558
 20
89.4282415989
 30
0.0
  0
SPLINE
  5
38C
100
AcDbEntity
  8
268160210
100
AcDbSpline
 62
7
  6
CONTINUOUS
 70
0
 71
3
 72
13
 73
9
 74
0
 42
0.0000001
 43
0.0000001
 44
0.0000000001
 40
0.0
 40
0.0
 40
0.0
 40
0.0
 40
0.3015780643
 40
0.4377189214
 40
0.5643412658
 40
0.7922023709
 40
0.8975093982
 40
1.0
 40
1.0
 40
1.0
 40
1.0
 10
122.3154935928
 20
90.2276369513
 30
0.0
 10
122.2806319874
 20
90.2098992377
 30
0.0
 10
122.2316605177
 20
90.1803922268
 30
0.0
 10
122.1754722961
 20
90.1332456786
 30
0.0
 10
122.1317562518
 20
90.086913131
 30
0.0
 10
122.0994943792
 20
90.035375431
 30
0.0
 10
122.0833171733
 20
89.9809394113
 30
0.0
 10
122.0806528356
 20
89.9539165652
 30
0.0
 10
122.080653262
 20
89.9406235332
 30
0.0
  0
SPLINE
  5
38D
100
AcDbEntity
  8
268160210
100
AcDbSpline
 62
7
  6
CONTINUOUS
 70
0
 71
3
 72
13
 73
9
 74
0
 42
0.0000001
 43
0.0000001
 44
0.0000000001
 40
0.0
 40
0.0
 40
0.0
 40
0.0
 40
0.3015780643
 40
0.4377189214
 40
0.5643412658
 40
0.7922023709
 40
0.8975093982
 40
1.0
 40
1.0
 40
1.0
 40
1.0
 10
132.3564098856
 20
85.2071788049
 30
0.0
 10
132.3215482803
 20
85.1894410912
 30
0.0
 10
132.2725768105
 20
85.1599340804
 30
0.0
 10
132.216388589
 20
85.1127875322
 30
0.0
 10
132.1726725446
 20
85.0664549845
 30
0.0
 10
132.1404106721
 20
85.0149172846
 30
0.0
 10
132.1242334662
 20
84.9604812649
 30
0.0
 10
132.1215691285
 20
84.9334584188
 30
0.0
 10
132.1215695549
 20
84.9201653868
 30
0.0
  0
SPLINE
  5
38E
100
AcDbEntity
  8
268160210
100
AcDbSpline
 62
7
  6
CONTINUOUS
 70
0
 71
3
 72
13
 73
9
 74
0
 42
0.0000001
 43
0.0000001
 44
0.0000000001
 40
0.0
 40
0.0
 40
0.0
 40
0.0
 40
0.1133878589
 40
0.2368531878
 40
0.501247003
 40
0.7649676169
 40
0.887638438
 40
1.0
 40
1.0
 40
1.0
 40
1.0
 10
133.7183874518
 20
77.7971458699
 30
0.0
 10
133.7061272976
 20
77.7912261232
 30
0.0
 10
133.6795237986
 20
77.7808726392
 30
0.0
 10
133.6210821663
 20
77.7660505235
 30
0.0
 10
133.5426115997
 20
77.7591282337
 30
0.0
 10
133.46428935
 20
77.7667051322
 30
0.0
 10
133.4062895038
 20
77.7820473611
 30
0.0
 10
133.3800131302
 20
77.7926415141
 30
0.0
 10
133.3679461639
 20
77.7986749972
 30
0.0
  0
SPLINE
  5
38F
100
AcDbEntity
  8
268160210
100
AcDbSpline
 62
7
  6
CONTINUOUS
 70
0
 71
3
 72
11
 73
7
 74
0
 42
0.0000001
 43
0.0000001
 44
0.0000000001
 40
0.0
 40
0.0
 40
0.0
 40
0.0
 40
0.3025823406
 40
0.565482986
 40
0.7934328049
 40
1.0
 40
1.0
 40
1.0
 40
1.0
 10
116.3642728614
 20
86.3005116485
 30
0.0
 10
116.3534182106
 20
86.3059389739
 30
0.0
 10
116.3337997083
 20
86.3175786331
 30
0.0
 10
116.3099884224
 20
86.3390992484
 30
0.0
 10
116.2947092528
 20
86.3630536723
 30
0.0
 10
116.2910503253
 20
86.3806150701
 30
0.0
 10
116.2910501438
 20
86.3888999961
 30
0.0
  0
SPLINE
  5
390
100
AcDbEntity
  8
268160210
100
AcDbSpline
 62
7
  6
CONTINUOUS
 70
0
 71
3
 72
14
 73
10
 74
0
 42
0.0000001
 43
0.0000001
 44
0.0000000001
 40
0.0
 40
0.0
 40
0.0
 40
0.0
 40
0.0275249904
 40
0.0796770526
 40
0.1588065191
 40
0.2662685992
 40
0.4031948772
 40
0.5705711927
 40
1.0
 40
1.0
 40
1.0
 40
1.0
 10
133.2907306321
 20
92.4744977443
 30
0.0
 10
133.290730624
 20
92.4740845898
 30
0.0
 10
133.2900419642
 20
92.472997615
 30
0.0
 10
133.2885555048
 20
92.4712072882
 30
0.0
 10
133.286003922
 20
92.4686449582
 30
0.0
 10
133.2824593304
 20
92.4653439536
 30
0.0
 10
133.277826962
 20
92.461244105
 30
0.0
 10
133.2694706625
 20
92.4540734034
 30
0.0
 10
133.2625820765
 20
92.4483442153
 30
0.0
 10
133.2576147479
 20
92.4442364277
 30
0.0
  0
SPLINE
  5
391
100
AcDbEntity
  8
268160210
100
AcDbSpline
 62
7
  6
CONTINUOUS
 70
0
 71
3
 72
21
 73
17
 74
0
 42
0.0000001
 43
0.0000001
 44
0.0000000001
 40
0.0
 40
0.0
 40
0.0
 40
0.0
 40
0.0382674497
 40
0.0788533288
 40
0.1235434994
 40
0.1733881555
 40
0.2287720151
 40
0.2895672601
 40
0.3552692877
 40
0.4251007637
 40
0.5730167349
 40
0.7243539366
 40
0.7983275125
 40
0.8695887947
 40
0.9371002409
 40
1.0
 40
1.0
 40
1.0
 40
1.0
 10
122.080653262
 20
89.9406235332
 30
0.0
 10
122.080653909
 20
89.9204546972
 30
0.0
 10
122.0869886394
 20
89.8786752301
 30
0.0
 10
122.1145413918
 20
89.8189157105
 30
0.0
 10
122.1588999577
 20
89.7625255078
 30
0.0
 10
122.2187881635
 20
89.7104230409
 30
0.0
 10
122.2929066219
 20
89.6634102537
 30
0.0
 10
122.3797468434
 20
89.622340833
 30
0.0
 10
122.4775360071
 20
89.5880119939
 30
0.0
 10
122.6225709483
 20
89.5515056613
 30
0.0
 10
122.8164437193
 20
89.527566584
 30
0.0
 10
123.0138367555
 20
89.5316628253
 30
0.0
 10
123.1689027504
 20
89.5523604057
 30
0.0
 10
123.2786503822
 20
89.5759897103
 30
0.0
 10
123.3803637775
 20
89.6073109563
 30
0.0
 10
123.4439007281
 20
89.6339371386
 30
0.0
 10
123.473654383
 20
89.6485565562
 30
0.0
  0
SPLINE
  5
392
100
AcDbEntity
  8
268160210
100
AcDbSpline
 62
7
  6
CONTINUOUS
 70
0
 71
3
 72
21
 73
17
 74
0
 42
0.0000001
 43
0.0000001
 44
0.0000000001
 40
0.0
 40
0.0
 40
0.0
 40
0.0
 40
0.0382674497
 40
0.0788533288
 40
0.1235434994
 40
0.1733881555
 40
0.2287720151
 40
0.2895672601
 40
0.3552692877
 40
0.4251007637
 40
0.5730167349
 40
0.7243539366
 40
0.7983275125
 40
0.8695887947
 40
0.9371002409
 40
1.0
 40
1.0
 40
1.0
 40
1.0
 10
132.1215695549
 20
84.9201653868
 30
0.0
 10
132.1215702018
 20
84.8999965507
 30
0.0
 10
132.1279049322
 20
84.8582170836
 30
0.0
 10
132.1554576846
 20
84.7984575641
 30
0.0
 10
132.1998162506
 20
84.7420673614
 30
0.0
 10
132.2597044563
 20
84.6899648945
 30
0.0
 10
132.3338229148
 20
84.6429521073
 30
0.0
 10
132.4206631363
 20
84.6018826866
 30
0.0
 10
132.5184523
 20
84.5675538475
 30
0.0
 10
132.6634872411
 20
84.5310475148
 30
0.0
 10
132.8573600122
 20
84.5071084376
 30
0.0
 10
133.0547530484
 20
84.5112046788
 30
0.0
 10
133.2098190432
 20
84.5319022593
 30
0.0
 10
133.3195666751
 20
84.5555315639
 30
0.0
 10
133.4212800704
 20
84.5868528099
 30
0.0
 10
133.484817021
 20
84.6134789922
 30
0.0
 10
133.5145706759
 20
84.6280984098
 30
0.0
  0
SPLINE
  5
393
100
AcDbEntity
  8
268160210
100
AcDbSpline
 62
7
  6
CONTINUOUS
 70
0
 71
3
 72
9
 73
5
 74
0
 42
0.0000001
 43
0.0000001
 44
0.0000000001
 40
0.0
 40
0.0
 40
0.0
 40
0.0
 40
0.505566678
 40
1.0
 40
1.0
 40
1.0
 40
1.0
 10
137.1006057911
 20
43.8407221012
 30
0.0
 10
137.1710062121
 20
43.8739736689
 30
0.0
 10
137.3021568219
 20
43.9573622584
 30
0.0
 10
137.4155917063
 20
44.0625165161
 30
0.0
 10
137.4672598768
 20
44.1184472034
 30
0.0
  0
SPLINE
  5
394
100
AcDbEntity
  8
268160210
100
AcDbSpline
 62
250
  6
CONTINUOUS
 70
0
 71
3
 72
11
 73
7
 74
0
 42
0.0000001
 43
0.0000001
 44
0.0000000001
 40
0.0
 40
0.0
 40
0.0
 40
0.0
 40
0.227039163
 40
0.4645980686
 40
0.720741422
 40
1.0
 40
1.0
 40
1.0
 40
1.0
 10
116.4242105131
 20
89.4968010642
 30
0.0
 10
116.4322079714
 20
89.5010289937
 30
0.0
 10
116.4499167841
 20
89.50734218
 30
0.0
 10
116.4788686447
 20
89.5093291402
 30
0.0
 10
116.5094648379
 20
89.5041015125
 30
0.0
 10
116.5294861741
 20
89.4963476581
 30
0.0
 10
116.5395069086
 20
89.4915110271
 30
0.0
  0
SPLINE
  5
395
100
AcDbEntity
  8
268160210
100
AcDbSpline
 62
250
  6
CONTINUOUS
 70
0
 71
3
 72
11
 73
7
 74
0
 42
0.0000001
 43
0.0000001
 44
0.0000000001
 40
0.0
 40
0.0
 40
0.0
 40
0.0
 40
0.2065678725
 40
0.434517721
 40
0.6974186219
 40
1.0
 40
1.0
 40
1.0
 40
1.0
 10
116.2910495748
 20
89.275783914
 30
0.0
 10
116.2910493647
 20
89.2674989679
 30
0.0
 10
116.2947092948
 20
89.2499376002
 30
0.0
 10
116.3099884707
 20
89.225983401
 30
0.0
 10
116.3337998596
 20
89.2044629016
 30
0.0
 10
116.3534182545
 20
89.1928231999
 30
0.0
 10
116.3642728614
 20
89.1873958965
 30
0.0
  0
SPLINE
  5
396
100
AcDbEntity
  8
268160210
100
AcDbSpline
 62
250
  6
CONTINUOUS
 70
0
 71
3
 72
11
 73
7
 74
0
 42
0.0000001
 43
0.0000001
 44
0.0000000001
 40
0.0
 40
0.0
 40
0.0
 40
0.0
 40
0.2156427303
 40
0.4482643165
 40
0.7086533831
 40
1.0
 40
1.0
 40
1.0
 40
1.0
 10
137.4003909184
 20
42.6371834585
 30
0.0
 10
137.4107459028
 20
42.6420772341
 30
0.0
 10
137.4304440029
 20
42.6565456347
 30
0.0
 10
137.4516235605
 20
42.6883729096
 30
0.0
 10
137.4644541071
 20
42.7284370012
 30
0.0
 10
137.4671481217
 20
42.75783368
 30
0.0
 10
137.4672598769
 20
42.7733071936
 30
0.0
  0
SPLINE
  5
397
100
AcDbEntity
  8
268160210
100
AcDbSpline
 62
250
  6
CONTINUOUS
 70
0
 71
3
 72
22
 73
18
 74
0
 42
0.0000001
 43
0.0000001
 44
0.0000000001
 40
0.0
 40
0.0
 40
0.0
 40
0.0
 40
0.0630545762
 40
0.1307031988
 40
0.2020771663
 40
0.2761368197
 40
0.4275732952
 40
0.5026281547
 40
0.5756177123
 40
0.6454384046
 40
0.7111189197
 40
0.7718811258
 40
0.827216328
 40
0.8769871052
 40
0.9215633056
 40
0.96197682
 40
1.0
 40
1.0
 40
1.0
 40
1.0
 10
137.4672598768
 20
42.7733071936
 30
0.0
 10
137.4317577799
 20
42.7564428011
 30
0.0
 10
137.3560706465
 20
42.7258068192
 30
0.0
 10
137.2351499773
 20
42.6899814159
 30
0.0
 10
137.1048913811
 20
42.6632155339
 30
0.0
 10
136.9211394602
 20
42.6402411508
 30
0.0
 10
136.7330182877
 20
42.6375997076
 30
0.0
 10
136.5470414307
 20
42.6551160403
 30
0.0
 10
136.4130401009
 20
42.6780455449
 30
0.0
 10
136.2869866846
 20
42.7102943459
 30
0.0
 10
136.1714902465
 20
42.751196047
 30
0.0
 10
136.0689301641
 20
42.7999133325
 30
0.0
 10
135.9813841881
 20
42.8554990562
 30
0.0
 10
135.9106151364
 20
42.9169514566
 30
0.0
 10
135.8581383212
 20
42.9833331149
 30
0.0
 10
135.8254402805
 20
43.0535829473
 30
0.0
 10
135.8177959708
 20
43.1027069648
 30
0.0
 10
135.8177203516
 20
43.1264079651
 30
0.0
  0
SPLINE
  5
398
100
AcDbEntity
  8
268160210
100
AcDbSpline
 62
250
  6
CONTINUOUS
 70
0
 71
3
 72
11
 73
7
 74
0
 42
0.0000001
 43
0.0000001
 44
0.0000000001
 40
0.0
 40
0.0
 40
0.0
 40
0.0
 40
0.2796523606
 40
0.5358864062
 40
0.7732721154
 40
1.0
 40
1.0
 40
1.0
 40
1.0
 10
136.2736039521
 20
84.6980530117
 30
0.0
 10
136.2637357313
 20
84.7029008425
 30
0.0
 10
136.2440202311
 20
84.710703678
 30
0.0
 10
136.2138604813
 20
84.7161029831
 30
0.0
 10
136.1852933906
 20
84.7143703477
 30
0.0
 10
136.1677906772
 20
84.7082778573
 30
0.0
 10
136.1598807195
 20
84.7041680128
 30
0.0
  0
SPLINE
  5
399
100
AcDbEntity
  8
268160210
100
AcDbSpline
 62
250
  6
CONTINUOUS
 70
0
 71
3
 72
27
 73
23
 74
0
 42
0.0000001
 43
0.0000001
 44
0.0000000001
 40
0.0
 40
0.0
 40
0.0
 40
0.0
 40
0.0600396775
 40
0.0871822083
 40
0.1124537085
 40
0.158004914
 40
0.1790824171
 40
0.1996008121
 40
0.2201108861
 40
0.2411643904
 40
0.2866309866
 40
0.3118490453
 40
0.3389363827
 40
0.3988627273
 40
0.4661840629
 40
0.539725462
 40
0.6177545481
 40
0.6981962977
 40
0.7788071842
 40
0.8573322892
 40
0.9316609141
 40
1.0
 40
1.0
 40
1.0
 40
1.0
 10
136.2736039521
 20
84.6980530117
 30
0.0
 10
136.2427015343
 20
84.6819956282
 30
0.0
 10
136.1993162225
 20
84.6553219715
 30
0.0
 10
136.1496313171
 20
84.6128519064
 30
0.0
 10
136.1109698883
 20
84.571123977
 30
0.0
 10
136.0825355333
 20
84.5248255337
 30
0.0
 10
136.0683883183
 20
84.4760231934
 30
0.0
 10
136.0650117037
 20
84.4399300463
 30
0.0
 10
136.0686958051
 20
84.4038806565
 30
0.0
 10
136.0832559133
 20
84.3552698641
 30
0.0
 10
136.1120920731
 20
84.3093239298
 30
0.0
 10
136.1511147814
 20
84.2680899615
 30
0.0
 10
136.2011830057
 20
84.2262531737
 30
0.0
 10
136.2784338839
 20
84.1799782211
 30
0.0
 10
136.3866824223
 20
84.1360922648
 30
0.0
 10
136.509711698
 20
84.1035390739
 30
0.0
 10
136.6430318375
 20
84.0835087661
 30
0.0
 10
136.7817677561
 20
84.0767415801
 30
0.0
 10
136.920787608
 20
84.0834908842
 30
0.0
 10
137.0549678418
 20
84.1035093836
 30
0.0
 10
137.1793375431
 20
84.1360327234
 30
0.0
 10
137.256503742
 20
84.1667806851
 30
0.0
 10
137.2920526361
 20
84.1843176409
 30
0.0
  0
SPLINE
  5
39A
100
AcDbEntity
  8
268160210
100
AcDbSpline
 62
250
  6
CONTINUOUS
 70
0
 71
3
 72
11
 73
7
 74
0
 42
0.0000001
 43
0.0000001
 44
0.0000000001
 40
0.0
 40
0.0
 40
0.0
 40
0.0
 40
0.2287063078
 40
0.4874233026
 40
0.7530110039
 40
1.0
 40
1.0
 40
1.0
 40
1.0
 10
137.2920526361
 20
84.1843176409
 30
0.0
 10
137.3168448013
 20
84.1714764487
 30
0.0
 10
137.3641543777
 20
84.1334193725
 30
0.0
 10
137.4188612272
 20
84.0586107322
 30
0.0
 10
137.4563619545
 20
83.9714198909
 30
0.0
 10
137.4670405825
 20
83.9088249102
 30
0.0
 10
137.4672598768
 20
83.8786733829
 30
0.0
  0
SPLINE
  5
39B
100
AcDbEntity
  8
268160210
100
AcDbSpline
 62
250
  6
CONTINUOUS
 70
0
 71
3
 72
11
 73
7
 74
0
 42
0.0000001
 43
0.0000001
 44
0.0000000001
 40
0.0
 40
0.0
 40
0.0
 40
0.0
 40
0.279252653
 40
0.5354047149
 40
0.7729603591
 40
1.0
 40
1.0
 40
1.0
 40
1.0
 10
120.1597509277
 20
92.7504684952
 30
0.0
 10
120.1497303907
 20
92.7553050308
 30
0.0
 10
120.1297088734
 20
92.7630586656
 30
0.0
 10
120.0991127542
 20
92.7682871266
 30
0.0
 10
120.0701606328
 20
92.7662997273
 30
0.0
 10
120.0524518356
 20
92.7599868239
 30
0.0
 10
120.0444543424
 20
92.7557588906
 30
0.0
  0
SPLINE
  5
39C
100
AcDbEntity
  8
268160210
100
AcDbSpline
 62
250
  6
CONTINUOUS
 70
0
 71
3
 72
26
 73
22
 74
0
 42
0.0000001
 43
0.0000001
 44
0.0000000001
 40
0.0
 40
0.0
 40
0.0
 40
0.0
 40
0.0596959236
 40
0.0866677303
 40
0.1117789454
 40
0.1570768095
 40
0.1780838944
 40
0.1985795032
 40
0.2191171842
 40
0.2402456423
 40
0.2859732256
 40
0.3385264594
 40
0.3988014412
 40
0.4664347963
 40
0.5402209459
 40
0.61840791
 40
0.6989094888
 40
0.779478245
 40
0.8578622602
 40
0.9319610432
 40
1.0
 40
1.0
 40
1.0
 40
1.0
 10
120.1597509277
 20
92.7504684952
 30
0.0
 10
120.1291410215
 20
92.7342858475
 30
0.0
 10
120.086214592
 20
92.7074302783
 30
0.0
 10
120.0372439386
 20
92.664732573
 30
0.0
 10
119.9992833385
 20
92.6228223566
 30
0.0
 10
119.9716388056
 20
92.5763574214
 30
0.0
 10
119.9583511055
 20
92.5275222205
 30
0.0
 10
119.9556058512
 20
92.4914140196
 30
0.0
 10
119.959920026
 20
92.4553922776
 30
0.0
 10
119.9753409314
 20
92.4068220846
 30
0.0
 10
120.0136641699
 20
92.3476492204
 30
0.0
 10
120.0828070312
 20
92.2859062447
 30
0.0
 10
120.1734450252
 20
92.2325134012
 30
0.0
 10
120.2824702736
 20
92.1891040462
 30
0.0
 10
120.4060515006
 20
92.1570903057
 30
0.0
 10
120.5397240454
 20
92.1376418326
 30
0.0
 10
120.6785827034
 20
92.1314788956
 30
0.0
 10
120.8174945863
 20
92.1388318561
 30
0.0
 10
120.9513397927
 20
92.1594310616
 30
0.0
 10
121.0751614587
 20
92.1924903808
 30
0.0
 10
121.1518561739
 20
92.2235893105
 30
0.0
 10
121.1871262595
 20
92.241291858
 30
0.0
  0
SPLINE
  5
39D
100
AcDbEntity
  8
268160210
100
AcDbSpline
 62
250
  6
CONTINUOUS
 70
0
 71
3
 72
11
 73
7
 74
0
 42
0.0000001
 43
0.0000001
 44
0.0000000001
 40
0.0
 40
0.0
 40
0.0
 40
0.0
 40
0.2293068725
 40
0.4880679153
 40
0.7533525373
 40
1.0
 40
1.0
 40
1.0
 40
1.0
 10
121.1871262595
 20
92.241291858
 30
0.0
 10
121.2120992752
 20
92.2285831625
 30
0.0
 10
121.2598066232
 20
92.1907952342
 30
0.0
 10
121.3150480284
 20
92.11619729
 30
0.0
 10
121.3529094113
 20
92.0291274484
 30
0.0
 10
121.3636788447
 20
91.9665477139
 30
0.0
 10
121.3638962237
 20
91.9364087689
 30
0.0
  0
SPLINE
  5
39E
100
AcDbEntity
  8
268160210
100
AcDbSpline
 62
250
  6
CONTINUOUS
 70
0
 71
3
 72
22
 73
18
 74
0
 42
0.0000001
 43
0.0000001
 44
0.0000000001
 40
0.0
 40
0.0
 40
0.0
 40
0.0
 40
0.038492081
 40
0.0792198635
 40
0.1239522895
 40
0.1737449832
 40
0.2290000721
 40
0.2896115641
 40
0.355098612
 40
0.424707235
 40
0.4974870957
 40
0.5723529758
 40
0.7235331485
 40
0.7975552282
 40
0.8689659093
 40
0.9367346452
 40
1.0
 40
1.0
 40
1.0
 40
1.0
 10
135.817719164
 20
84.2248720419
 30
0.0
 10
135.8177314111
 20
84.2008204346
 30
0.0
 10
135.8252037414
 20
84.1510645144
 30
0.0
 10
135.857706819
 20
84.0798670639
 30
0.0
 10
135.9100629073
 20
84.0127240186
 30
0.0
 10
135.980765599
 20
83.9507388173
 30
0.0
 10
136.068281605
 20
83.8948621666
 30
0.0
 10
136.1708393363
 20
83.8460969832
 30
0.0
 10
136.2863573654
 20
83.8053875185
 30
0.0
 10
136.4124538043
 20
83.773564887
 30
0.0
 10
136.5465173439
 20
83.7512857512
 30
0.0
 10
136.7326473385
 20
83.7349149101
 30
0.0
 10
136.920920263
 20
83.7390873305
 30
0.0
 10
137.1047292731
 20
83.7638868271
 30
0.0
 10
137.2350848285
 20
83.7921352979
 30
0.0
 10
137.3560945163
 20
83.8295277369
 30
0.0
 10
137.4317702849
 20
83.8612608751
 30
0.0
 10
137.4672598768
 20
83.8786733829
 30
0.0
  0
SPLINE
  5
39F
100
AcDbEntity
  8
268160210
100
AcDbSpline
 62
7
  6
CONTINUOUS
 70
0
 71
3
 72
12
 73
8
 74
0
 42
0.0000001
 43
0.0000001
 44
0.0000000001
 40
0.0
 40
0.0
 40
0.0
 40
0.0
 40
0.2068730769
 40
0.445148881
 40
0.7118323835
 40
0.8540288186
 40
1.0
 40
1.0
 40
1.0
 40
1.0
 10
137.4672598768
 20
82.5335333731
 30
0.0
 10
137.422931051
 20
82.5387113855
 30
0.0
 10
137.3279383453
 20
82.553062405
 30
0.0
 10
137.1764585589
 20
82.5781538694
 30
0.0
 10
137.0381597222
 20
82.5978106159
 30
0.0
 10
136.918858439
 20
82.608014973
 30
0.0
 10
136.8566310037
 20
82.6095557412
 30
0.0
 10
136.8251479386
 20
82.6088305667
 30
0.0
  0
SPLINE
  5
3A0
100
AcDbEntity
  8
268160210
100
AcDbSpline
 62
250
  6
CONTINUOUS
 70
0
 71
3
 72
22
 73
18
 74
0
 42
0.0000001
 43
0.0000001
 44
0.0000000001
 40
0.0
 40
0.0
 40
0.0
 40
0.0
 40
0.0384985066
 40
0.0792488244
 40
0.1240294559
 40
0.1738975286
 40
0.2292506748
 40
0.2899748027
 40
0.3555788941
 40
0.4252976967
 40
0.4981691162
 40
0.5730962858
 40
0.7242651389
 40
0.7981983693
 40
0.8694572143
 40
0.9370102021
 40
1.0
 40
1.0
 40
1.0
 40
1.0
 10
119.7082710014
 20
92.2796009177
 30
0.0
 10
119.7082830675
 20
92.2554583127
 30
0.0
 10
119.715813991
 20
92.2055025517
 30
0.0
 10
119.7485653112
 20
92.1340485229
 30
0.0
 10
119.8013056541
 20
92.0666952956
 30
0.0
 10
119.8725099733
 20
92.0045540341
 30
0.0
 10
119.9606250779
 20
91.948583817
 30
0.0
 10
120.0638550686
 20
91.8997971166
 30
0.0
 10
120.1800893919
 20
91.8591461041
 30
0.0
 10
120.306913408
 20
91.8274673998
 30
0.0
 10
120.4416810805
 20
91.805419765
 30
0.0
 10
120.6286157503
 20
91.7894789759
 30
0.0
 10
120.81753873
 20
91.7942184372
 30
0.0
 10
121.0017678799
 20
91.8197441771
 30
0.0
 10
121.1321990848
 20
91.8485744735
 30
0.0
 10
121.2530778338
 20
91.8865795018
 30
0.0
 10
121.3285540768
 20
91.9187656659
 30
0.0
 10
121.3638962237
 20
91.9364087689
 30
0.0
  0
SPLINE
  5
3A1
100
AcDbEntity
  8
268160210
100
AcDbSpline
 62
250
  6
CONTINUOUS
 70
0
 71
3
 72
11
 73
7
 74
0
 42
0.0000001
 43
0.0000001
 44
0.0000000001
 40
0.0
 40
0.0
 40
0.0
 40
0.0
 40
0.2913469377
 40
0.5517415897
 40
0.7843566238
 40
1.0
 40
1.0
 40
1.0
 40
1.0
 10
133.7183874518
 20
42.3477064396
 30
0.0
 10
133.7182756851
 20
42.3322313255
 30
0.0
 10
133.7155806531
 20
42.3028314159
 30
0.0
 10
133.7027485631
 20
42.2627632127
 30
0.0
 10
133.681562719
 20
42.2309346453
 30
0.0
 10
133.6618599788
 20
42.2164693219
 30
0.0
 10
133.6515035416
 20
42.2115757969
 30
0.0
  0
SPLINE
  5
3A2
100
AcDbEntity
  8
268160210
100
AcDbSpline
 62
7
  6
CONTINUOUS
 70
0
 71
3
 72
13
 73
9
 74
0
 42
0.0000001
 43
0.0000001
 44
0.0000000001
 40
0.0
 40
0.0
 40
0.0
 40
0.0
 40
0.112361562
 40
0.2350323831
 40
0.498752997
 40
0.7631468122
 40
0.8866121411
 40
1.0
 40
1.0
 40
1.0
 40
1.0
 10
133.3679461639
 20
45.236119815
 30
0.0
 10
133.3800131302
 20
45.2300863318
 30
0.0
 10
133.4062895038
 20
45.2194921788
 30
0.0
 10
133.46428935
 20
45.2041499499
 30
0.0
 10
133.5426115997
 20
45.1965730514
 30
0.0
 10
133.6210821663
 20
45.2034953412
 30
0.0
 10
133.6795237986
 20
45.2183174569
 30
0.0
 10
133.7061272976
 20
45.2286709409
 30
0.0
 10
133.7183874518
 20
45.2345906876
 30
0.0
  0
SPLINE
  5
3A3
100
AcDbEntity
  8
268160210
100
AcDbSpline
 62
250
  6
CONTINUOUS
 70
0
 71
3
 72
13
 73
9
 74
0
 42
0.0000001
 43
0.0000001
 44
0.0000000001
 40
0.0
 40
0.0
 40
0.0
 40
0.0
 40
0.1133884444
 40
0.2368535278
 40
0.5012472395
 40
0.7649676769
 40
0.8876382345
 40
1.0
 40
1.0
 40
1.0
 40
1.0
 10
133.7183874518
 20
42.3477064396
 30
0.0
 10
133.7061272328
 20
42.3417866616
 30
0.0
 10
133.6795236663
 20
42.3314332167
 30
0.0
 10
133.6210820122
 20
42.3166111186
 30
0.0
 10
133.5426115208
 20
42.3096882752
 30
0.0
 10
133.4642893536
 20
42.3172657453
 30
0.0
 10
133.406289549
 20
42.332607974
 30
0.0
 10
133.3800131536
 20
42.3432020721
 30
0.0
 10
133.3679461639
 20
42.349235567
 30
0.0
  0
SPLINE
  5
3A4
100
AcDbEntity
  8
268160210
100
AcDbSpline
 62
250
  6
CONTINUOUS
 70
0
 71
3
 72
11
 73
7
 74
0
 42
0.0000001
 43
0.0000001
 44
0.0000000001
 40
0.0
 40
0.0
 40
0.0
 40
0.0
 40
0.2897508071
 40
0.5495856033
 40
0.7828462093
 40
1.0
 40
1.0
 40
1.0
 40
1.0
 10
133.3679461639
 20
42.349235567
 30
0.0
 10
133.3679461639
 20
42.3340303658
 30
0.0
 10
133.3703998611
 20
42.3050801365
 30
0.0
 10
133.3827737582
 20
42.2654860459
 30
0.0
 10
133.4034393854
 20
42.2337862728
 30
0.0
 10
133.4227273246
 20
42.2191140489
 30
0.0
 10
133.4329196031
 20
42.2140174024
 30
0.0
  0
SPLINE
  5
3A5
100
AcDbEntity
  8
268160210
100
AcDbSpline
 62
250
  6
CONTINUOUS
 70
0
 71
3
 72
11
 73
7
 74
0
 42
0.0000001
 43
0.0000001
 44
0.0000000001
 40
0.0
 40
0.0
 40
0.0
 40
0.0
 40
0.2469894964
 40
0.5125770573
 40
0.7712936395
 40
1.0
 40
1.0
 40
1.0
 40
1.0
 10
133.7183874518
 20
80.6840301178
 30
0.0
 10
133.7181681569
 20
80.7141817141
 30
0.0
 10
133.7074893295
 20
80.7767766734
 30
0.0
 10
133.6699893545
 20
80.8639679037
 30
0.0
 10
133.6152817988
 20
80.9387760208
 30
0.0
 10
133.5679723885
 20
80.9768331773
 30
0.0
 10
133.5431802111
 20
80.9896743759
 30
0.0
  0
SPLINE
  5
3A6
100
AcDbEntity
  8
268160210
100
AcDbSpline
 62
250
  6
CONTINUOUS
 70
0
 71
3
 72
13
 73
9
 74
0
 42
0.0000001
 43
0.0000001
 44
0.0000000001
 40
0.0
 40
0.0
 40
0.0
 40
0.0
 40
0.1133884444
 40
0.2368535278
 40
0.5012472395
 40
0.7649676769
 40
0.8876382345
 40
1.0
 40
1.0
 40
1.0
 40
1.0
 10
133.7183874518
 20
80.6840301178
 30
0.0
 10
133.7061272328
 20
80.6781103399
 30
0.0
 10
133.6795236663
 20
80.667756895
 30
0.0
 10
133.6210820122
 20
80.6529347968
 30
0.0
 10
133.5426115208
 20
80.6460119534
 30
0.0
 10
133.4642893536
 20
80.6535894236
 30
0.0
 10
133.406289549
 20
80.6689316523
 30
0.0
 10
133.3800131536
 20
80.6795257504
 30
0.0
 10
133.3679461639
 20
80.6855592452
 30
0.0
  0
SPLINE
  5
3A7
100
AcDbEntity
  8
268160210
100
AcDbSpline
 62
250
  6
CONTINUOUS
 70
0
 71
3
 72
11
 73
7
 74
0
 42
0.0000001
 43
0.0000001
 44
0.0000000001
 40
0.0
 40
0.0
 40
0.0
 40
0.0
 40
0.2301990371
 40
0.4887792681
 40
0.7534963997
 40
1.0
 40
1.0
 40
1.0
 40
1.0
 10
133.5431802111
 20
80.9896743759
 30
0.0
 10
133.5182131889
 20
80.9769240126
 30
0.0
 10
133.4705876767
 20
80.9392309488
 30
0.0
 10
133.4156087521
 20
80.8647816158
 30
0.0
 10
133.3782499435
 20
80.7779441011
 30
0.0
 10
133.3679461639
 20
80.7155791997
 30
0.0
 10
133.3679461639
 20
80.6855592452
 30
0.0
  0
SPLINE
  5
3A8
100
AcDbEntity
  8
268160210
100
AcDbSpline
 62
250
  6
CONTINUOUS
 70
0
 71
3
 72
11
 73
7
 74
0
 42
0.0000001
 43
0.0000001
 44
0.0000000001
 40
0.0
 40
0.0
 40
0.0
 40
0.0
 40
0.2301990371
 40
0.4887792681
 40
0.7534963997
 40
1.0
 40
1.0
 40
1.0
 40
1.0
 10
116.5395069086
 20
89.4915110271
 30
0.0
 10
116.5145398864
 20
89.4787606638
 30
0.0
 10
116.4669143742
 20
89.4410676
 30
0.0
 10
116.4119354496
 20
89.366618267
 30
0.0
 10
116.374576641
 20
89.2797807523
 30
0.0
 10
116.3642728614
 20
89.2174158509
 30
0.0
 10
116.3642728614
 20
89.1873958965
 30
0.0
  0
SPLINE
  5
3A9
100
AcDbEntity
  8
218160250
100
AcDbSpline
 62
7
  6
CONTINUOUS
 70
0
 71
3
 72
11
 73
7
 74
0
 42
0.0000001
 43
0.0000001
 44
0.0000000001
 40
0.0
 40
0.0
 40
0.0
 40
0.0
 40
0.2280471718
 40
0.4715120548
 40
0.7286298993
 40
1.0
 40
1.0
 40
1.0
 40
1.0
 10
146.8429753833
 20
87.3630689953
 30
0.0
 10
146.8621296751
 20
87.3595704272
 30
0.0
 10
146.9010659794
 20
87.3485004583
 30
0.0
 10
146.9580546936
 20
87.3232476289
 30
0.0
 10
147.0153885015
 20
87.2905163248
 30
0.0
 10
147.0520640251
 20
87.2640477861
 30
0.0
 10
147.0701049844
 20
87.2495088219
 30
0.0
  0
SPLINE
  5
3AA
100
AcDbEntity
  8
218160250
100
AcDbSpline
 62
7
  6
CONTINUOUS
 70
0
 71
3
 72
11
 73
7
 74
0
 42
0.0000001
 43
0.0000001
 44
0.0000000001
 40
0.0
 40
0.0
 40
0.0
 40
0.0
 40
0.264533382
 40
0.5183645411
 40
0.762880181
 40
1.0
 40
1.0
 40
1.0
 40
1.0
 10
147.2387818596
 20
87.4884994548
 30
0.0
 10
147.1459486069
 20
87.5349160811
 30
0.0
 10
146.9588830672
 20
87.6160954251
 30
0.0
 10
146.6708862797
 20
87.7006694764
 30
0.0
 10
146.3845021101
 20
87.7432244859
 30
0.0
 10
146.1945679216
 20
87.7420902707
 30
0.0
 10
146.1019126688
 20
87.7336939188
 30
0.0
  0
SPLINE
  5
3AB
100
AcDbEntity
  8
218160250
100
AcDbSpline
 62
250
  6
CONTINUOUS
 70
0
 71
3
 72
18
 73
14
 74
0
 42
0.0000001
 43
0.0000001
 44
0.0000000001
 40
0.0
 40
0.0
 40
0.0
 40
0.0
 40
0.1504227352
 40
0.2869488882
 40
0.4102702278
 40
0.4680294448
 40
0.5239223945
 40
0.5787425817
 40
0.6333710755
 40
0.6887051962
 40
0.7455832579
 40
0.8664222147
 40
1.0
 40
1.0
 40
1.0
 40
1.0
 10
144.9856204721
 20
54.7924368858
 30
0.0
 10
144.9856205646
 20
54.7602607122
 30
0.0
 10
144.9901644965
 20
54.6987073379
 30
0.0
 10
145.0126365753
 20
54.6133040847
 30
0.0
 10
145.0446615908
 20
54.5524616296
 30
0.0
 10
145.0773060219
 20
54.5134674174
 30
0.0
 10
145.1044146703
 20
54.4895024331
 30
0.0
 10
145.1344074034
 20
54.4704731951
 30
0.0
 10
145.1669732653
 20
54.4565882381
 30
0.0
 10
145.2017655098
 20
54.4479929838
 30
0.0
 10
145.2515961609
 20
54.4435810673
 30
0.0
 10
145.3184456317
 20
54.4524338603
 30
0.0
 10
145.3696064353
 20
54.4722727491
 30
0.0
 10
145.3952037998
 20
54.4849687594
 30
0.0
  0
SPLINE
  5
3AC
100
AcDbEntity
  8
218160250
100
AcDbSpline
 62
250
  6
CONTINUOUS
 70
0
 71
3
 72
12
 73
8
 74
0
 42
0.0000001
 43
0.0000001
 44
0.0000000001
 40
0.0
 40
0.0
 40
0.0
 40
0.0
 40
0.10861362
 40
0.2192604266
 40
0.4529676048
 40
0.7120612308
 40
1.0
 40
1.0
 40
1.0
 40
1.0
 10
152.6450048105
 20
59.4840680595
 30
0.0
 10
152.6509770478
 20
59.4872256621
 30
0.0
 10
152.662491105
 20
59.4946904543
 30
0.0
 10
152.6832123822
 20
59.5139572728
 30
0.0
 10
152.7037974057
 20
59.5461167885
 30
0.0
 10
152.7180476634
 20
59.5930016741
 30
0.0
 10
152.7207217828
 20
59.6271790051
 30
0.0
 10
152.7205959834
 20
59.6450879001
 30
0.0
  0
SPLINE
  5
3AD
100
AcDbEntity
  8
218160250
100
AcDbSpline
 62
7
  6
CONTINUOUS
 70
0
 71
3
 72
9
 73
5
 74
0
 42
0.0000001
 43
0.0000001
 44
0.0000000001
 40
0.0
 40
0.0
 40
0.0
 40
0.0
 40
0.4109105663
 40
1.0
 40
1.0
 40
1.0
 40
1.0
 10
144.7580206067
 20
88.4055360268
 30
0.0
 10
144.7575604435
 20
88.4057661179
 30
0.0
 10
144.7562951812
 20
88.406003131
 30
0.0
 10
144.7550444971
 20
88.405937131
 30
0.0
 10
144.754310918
 20
88.4058604883
 30
0.0
  0
SPLINE
  5
3AE
100
AcDbEntity
  8
218160250
100
AcDbSpline
 62
7
  6
CONTINUOUS
 70
0
 71
3
 72
12
 73
8
 74
0
 42
0.0000001
 43
0.0000001
 44
0.0000000001
 40
0.0
 40
0.0
 40
0.0
 40
0.0
 40
0.0572506572
 40
0.1325377645
 40
0.3415850174
 40
0.6318969216
 40
1.0
 40
1.0
 40
1.0
 40
1.0
 10
144.754310918
 20
88.4058604883
 30
0.0
 10
144.7532039875
 20
88.4057448387
 30
0.0
 10
144.7506654761
 20
88.4052624296
 30
0.0
 10
144.744267847
 20
88.4034722835
 30
0.0
 10
144.7338028144
 20
88.3995145943
 30
0.0
 10
144.7183716645
 20
88.3927116364
 30
0.0
 10
144.7068551935
 20
88.3871174769
 30
0.0
 10
144.7004547249
 20
88.3839172426
 30
0.0
  0
SPLINE
  5
3AF
100
AcDbEntity
  8
218160250
100
AcDbSpline
 62
250
  6
CONTINUOUS
 70
0
 71
3
 72
12
 73
8
 74
0
 42
0.0000001
 43
0.0000001
 44
0.0000000001
 40
0.0
 40
0.0
 40
0.0
 40
0.0
 40
0.1028547361
 40
0.2084745393
 40
0.4366762855
 40
0.6988743095
 40
1.0
 40
1.0
 40
1.0
 40
1.0
 10
152.8047940333
 20
59.7492866556
 30
0.0
 10
152.8047939661
 20
59.7444723048
 30
0.0
 10
152.8038410483
 20
59.734689342
 30
0.0
 10
152.7980519271
 20
59.7149781399
 30
0.0
 10
152.7831076675
 20
59.6908196005
 30
0.0
 10
152.7557260431
 20
59.6654310768
 30
0.0
 10
152.7331126244
 20
59.6515685806
 30
0.0
 10
152.7205959834
 20
59.6450879001
 30
0.0
  0
SPLINE
  5
3B0
100
AcDbEntity
  8
218160250
100
AcDbSpline
 62
250
  6
CONTINUOUS
 70
0
 71
3
 72
11
 73
7
 74
0
 42
0.0000001
 43
0.0000001
 44
0.0000000001
 40
0.0
 40
0.0
 40
0.0
 40
0.0
 40
0.2505543148
 40
0.4967766963
 40
0.7446116933
 40
1.0
 40
1.0
 40
1.0
 40
1.0
 10
144.14623333
 20
89.9543299258
 30
0.0
 10
144.1273977116
 20
89.9637473856
 30
0.0
 10
144.0879488374
 20
89.9785951277
 30
0.0
 10
144.0253277627
 20
89.9867514889
 30
0.0
 10
143.9621373663
 20
89.9798528659
 30
0.0
 10
143.9218949195
 20
89.9655464301
 30
0.0
 10
143.9025330269
 20
89.9562801946
 30
0.0
  0
SPLINE
  5
3B1
100
AcDbEntity
  8
218160250
100
AcDbSpline
 62
250
  6
CONTINUOUS
 70
0
 71
3
 72
11
 73
7
 74
0
 42
0.0000001
 43
0.0000001
 44
0.0000000001
 40
0.0
 40
0.0
 40
0.0
 40
0.0
 40
0.2284769193
 40
0.466727892
 40
0.7223978997
 40
1.0
 40
1.0
 40
1.0
 40
1.0
 10
148.8867281323
 20
87.4257651761
 30
0.0
 10
148.8930490737
 20
87.4287908025
 30
0.0
 10
148.9068861211
 20
87.4331978087
 30
0.0
 10
148.9292401273
 20
87.4341898397
 30
0.0
 10
148.9526651491
 20
87.4297525572
 30
0.0
 10
148.9679247557
 20
87.4235843301
 30
0.0
 10
148.9755403657
 20
87.4197765252
 30
0.0
  0
SPLINE
  5
3B2
100
AcDbEntity
  8
218160250
100
AcDbSpline
 62
250
  6
CONTINUOUS
 70
0
 71
3
 72
12
 73
8
 74
0
 42
0.0000001
 43
0.0000001
 44
0.0000000001
 40
0.0
 40
0.0
 40
0.0
 40
0.0
 40
0.10861362
 40
0.2192604266
 40
0.4529676048
 40
0.7120612308
 40
1.0
 40
1.0
 40
1.0
 40
1.0
 10
152.6450048105
 20
78.7531332937
 30
0.0
 10
152.6509770478
 20
78.7562908963
 30
0.0
 10
152.662491105
 20
78.7637556885
 30
0.0
 10
152.6832123822
 20
78.783022507
 30
0.0
 10
152.7037974057
 20
78.8151820227
 30
0.0
 10
152.7180476634
 20
78.8620669083
 30
0.0
 10
152.7207217828
 20
78.8962442393
 30
0.0
 10
152.7205959834
 20
78.9141531343
 30
0.0
  0
SPLINE
  5
3B3
100
AcDbEntity
  8
218160250
100
AcDbSpline
 62
250
  6
CONTINUOUS
 70
0
 71
3
 72
12
 73
8
 74
0
 42
0.0000001
 43
0.0000001
 44
0.0000000001
 40
0.0
 40
0.0
 40
0.0
 40
0.0
 40
0.1028547361
 40
0.2084745393
 40
0.4366762855
 40
0.6988743095
 40
1.0
 40
1.0
 40
1.0
 40
1.0
 10
152.8047940333
 20
79.0183518898
 30
0.0
 10
152.8047939661
 20
79.013537539
 30
0.0
 10
152.8038410483
 20
79.0037545762
 30
0.0
 10
152.7980519271
 20
78.9840433741
 30
0.0
 10
152.7831076675
 20
78.9598848347
 30
0.0
 10
152.7557260431
 20
78.934496311
 30
0.0
 10
152.7331126244
 20
78.9206338148
 30
0.0
 10
152.7205959834
 20
78.9141531343
 30
0.0
  0
SPLINE
  5
3B4
100
AcDbEntity
  8
218160250
100
AcDbSpline
 62
250
  6
CONTINUOUS
 70
0
 71
3
 72
11
 73
7
 74
0
 42
0.0000001
 43
0.0000001
 44
0.0000000001
 40
0.0
 40
0.0
 40
0.0
 40
0.0
 40
0.2275502542
 40
0.4653223584
 40
0.7212694256
 40
1.0
 40
1.0
 40
1.0
 40
1.0
 10
147.2387818569
 20
87.4884994493
 30
0.0
 10
147.2294817817
 20
87.4931495957
 30
0.0
 10
147.2090186164
 20
87.5000014978
 30
0.0
 10
147.1757773175
 20
87.5018349043
 30
0.0
 10
147.1407778326
 20
87.4955181429
 30
0.0
 10
147.1179093393
 20
87.4864925282
 30
0.0
 10
147.1064689587
 20
87.4808946148
 30
0.0
  0
SPLINE
  5
3B5
100
AcDbEntity
  8
218160250
100
AcDbSpline
 62
250
  6
CONTINUOUS
 70
0
 71
3
 72
12
 73
8
 74
0
 42
0.0000001
 43
0.0000001
 44
0.0000000001
 40
0.0
 40
0.0
 40
0.0
 40
0.0
 40
0.108444347
 40
0.2189422515
 40
0.452480177
 40
0.7116570168
 40
1.0
 40
1.0
 40
1.0
 40
1.0
 10
151.3760104832
 20
63.8949138454
 30
0.0
 10
151.3818773974
 20
63.8980802889
 30
0.0
 10
151.3931773108
 20
63.9055461108
 30
0.0
 10
151.4134675944
 20
63.9247493081
 30
0.0
 10
151.4335199975
 20
63.9567041386
 30
0.0
 10
151.4472153787
 20
64.0031797478
 30
0.0
 10
151.4496024072
 20
64.0370075733
 30
0.0
 10
151.4493524671
 20
64.0547323491
 30
0.0
  0
SPLINE
  5
3B6
100
AcDbEntity
  8
218160250
100
AcDbSpline
 62
250
  6
CONTINUOUS
 70
0
 71
3
 72
12
 73
8
 74
0
 42
0.0000001
 43
0.0000001
 44
0.0000000001
 40
0.0
 40
0.0
 40
0.0
 40
0.0
 40
0.1084450293
 40
0.2189425607
 40
0.4524784888
 40
0.7116546986
 40
1.0
 40
1.0
 40
1.0
 40
1.0
 10
145.3218489685
 20
60.6285548141
 30
0.0
 10
145.3277167882
 20
60.631720769
 30
0.0
 10
145.3390185238
 20
60.6391858255
 30
0.0
 10
145.3593122849
 20
60.65838843
 30
0.0
 10
145.3793684001
 20
60.6903444046
 30
0.0
 10
145.3930662946
 20
60.7368233288
 30
0.0
 10
145.3954537615
 20
60.7706539422
 30
0.0
 10
145.3952037998
 20
60.7883802507
 30
0.0
  0
SPLINE
  5
3B7
100
AcDbEntity
  8
218160250
100
AcDbSpline
 62
250
  6
CONTINUOUS
 70
0
 71
3
 72
12
 73
8
 74
0
 42
0.0000001
 43
0.0000001
 44
0.0000000001
 40
0.0
 40
0.0
 40
0.0
 40
0.0
 40
0.102854736
 40
0.2084745393
 40
0.4366762854
 40
0.6988743095
 40
1.0
 40
1.0
 40
1.0
 40
1.0
 10
145.069818522
 20
54.8966356414
 30
0.0
 10
145.0698184548
 20
54.8918212905
 30
0.0
 10
145.068865537
 20
54.8820383278
 30
0.0
 10
145.0630764157
 20
54.8623271257
 30
0.0
 10
145.0481321561
 20
54.8381685862
 30
0.0
 10
145.0207505317
 20
54.8127800625
 30
0.0
 10
144.998137113
 20
54.7989175664
 30
0.0
 10
144.9856204721
 20
54.7924368858
 30
0.0
  0
SPLINE
  5
3B8
100
AcDbEntity
  8
218160250
100
AcDbSpline
 62
250
  6
CONTINUOUS
 70
0
 71
3
 72
12
 73
8
 74
0
 42
0.0000001
 43
0.0000001
 44
0.0000000001
 40
0.0
 40
0.0
 40
0.0
 40
0.0
 40
0.1028547361
 40
0.2084745393
 40
0.4366762855
 40
0.6988743095
 40
1.0
 40
1.0
 40
1.0
 40
1.0
 10
145.069818522
 20
60.160974928
 30
0.0
 10
145.0698184548
 20
60.1561605772
 30
0.0
 10
145.068865537
 20
60.1463776144
 30
0.0
 10
145.0630764157
 20
60.1266664123
 30
0.0
 10
145.0481321561
 20
60.1025078728
 30
0.0
 10
145.0207505317
 20
60.0771193492
 30
0.0
 10
144.998137113
 20
60.063256853
 30
0.0
 10
144.9856204721
 20
60.0567761724
 30
0.0
  0
SPLINE
  5
3B9
100
AcDbEntity
  8
218160250
100
AcDbSpline
 62
250
  6
CONTINUOUS
 70
0
 71
3
 72
11
 73
7
 74
0
 42
0.0000001
 43
0.0000001
 44
0.0000000001
 40
0.0
 40
0.0
 40
0.0
 40
0.0
 40
0.2271551604
 40
0.4666596847
 40
0.7233414926
 40
1.0
 40
1.0
 40
1.0
 40
1.0
 10
145.0771564755
 20
54.8342429828
 30
0.0
 10
145.0851691308
 20
54.8321006952
 30
0.0
 10
145.1021914457
 20
54.8296129496
 30
0.0
 10
145.128708234
 20
54.8313645805
 30
0.0
 10
145.1561792601
 20
54.8383885934
 30
0.0
 10
145.1741198599
 20
54.8461686237
 30
0.0
 10
145.1831040741
 20
54.8507866733
 30
0.0
  0
SPLINE
  5
3BA
100
AcDbEntity
  8
218160250
100
AcDbSpline
 62
250
  6
CONTINUOUS
 70
0
 71
3
 72
11
 73
7
 74
0
 42
0.0000001
 43
0.0000001
 44
0.0000000001
 40
0.0
 40
0.0
 40
0.0
 40
0.0
 40
0.2317015514
 40
0.4746849494
 40
0.7305048976
 40
1.0
 40
1.0
 40
1.0
 40
1.0
 10
146.1265259883
 20
87.7213005246
 30
0.0
 10
146.2051629607
 20
87.7238455267
 30
0.0
 10
146.3668513323
 20
87.7167577161
 30
0.0
 10
146.6115222806
 20
87.6720996369
 30
0.0
 10
146.8610213166
 20
87.5938757342
 30
0.0
 10
147.0246185147
 20
87.5218198367
 30
0.0
 10
147.1064689587
 20
87.4808946148
 30
0.0
  0
SPLINE
  5
3BB
100
AcDbEntity
  8
218160250
100
AcDbSpline
 62
250
  6
CONTINUOUS
 70
0
 71
3
 72
12
 73
8
 74
0
 42
0.0000001
 43
0.0000001
 44
0.0000000001
 40
0.0
 40
0.0
 40
0.0
 40
0.0
 40
0.108444347
 40
0.2189422515
 40
0.452480177
 40
0.7116570168
 40
1.0
 40
1.0
 40
1.0
 40
1.0
 10
151.3760104832
 20
83.1639790796
 30
0.0
 10
151.3818773974
 20
83.1671455231
 30
0.0
 10
151.3931773108
 20
83.174611345
 30
0.0
 10
151.4134675944
 20
83.1938145423
 30
0.0
 10
151.4335199975
 20
83.2257693728
 30
0.0
 10
151.4472153787
 20
83.272244982
 30
0.0
 10
151.4496024072
 20
83.3060728075
 30
0.0
 10
151.4493524671
 20
83.3237975833
 30
0.0
  0
SPLINE
  5
3BC
100
AcDbEntity
  8
218160250
100
AcDbSpline
 62
250
  6
CONTINUOUS
 70
0
 71
3
 72
12
 73
8
 74
0
 42
0.0000001
 43
0.0000001
 44
0.0000000001
 40
0.0
 40
0.0
 40
0.0
 40
0.0
 40
0.1084450293
 40
0.2189425607
 40
0.4524784888
 40
0.7116546986
 40
1.0
 40
1.0
 40
1.0
 40
1.0
 10
145.3218489685
 20
79.8976200484
 30
0.0
 10
145.3277167882
 20
79.9007860032
 30
0.0
 10
145.3390185238
 20
79.9082510597
 30
0.0
 10
145.3593122849
 20
79.9274536642
 30
0.0
 10
145.3793684001
 20
79.9594096388
 30
0.0
 10
145.3930662946
 20
80.005888563
 30
0.0
 10
145.3954537615
 20
80.0397191764
 30
0.0
 10
145.3952037998
 20
80.0574454849
 30
0.0
  0
SPLINE
  5
3BD
100
AcDbEntity
  8
218160250
100
AcDbSpline
 62
250
  6
CONTINUOUS
 70
0
 71
3
 72
12
 73
8
 74
0
 42
0.0000001
 43
0.0000001
 44
0.0000000001
 40
0.0
 40
0.0
 40
0.0
 40
0.0
 40
0.102854736
 40
0.2084745393
 40
0.4366762854
 40
0.6988743095
 40
1.0
 40
1.0
 40
1.0
 40
1.0
 10
145.069818522
 20
74.1657008756
 30
0.0
 10
145.0698184548
 20
74.1608865247
 30
0.0
 10
145.068865537
 20
74.151103562
 30
0.0
 10
145.0630764157
 20
74.1313923599
 30
0.0
 10
145.0481321561
 20
74.1072338204
 30
0.0
 10
145.0207505317
 20
74.0818452967
 30
0.0
 10
144.998137113
 20
74.0679828006
 30
0.0
 10
144.9856204721
 20
74.06150212
 30
0.0
  0
SPLINE
  5
3BE
100
AcDbEntity
  8
218160250
100
AcDbSpline
 62
250
  6
CONTINUOUS
 70
0
 71
3
 72
12
 73
8
 74
0
 42
0.0000001
 43
0.0000001
 44
0.0000000001
 40
0.0
 40
0.0
 40
0.0
 40
0.0
 40
0.1028547361
 40
0.2084745393
 40
0.4366762855
 40
0.6988743095
 40
1.0
 40
1.0
 40
1.0
 40
1.0
 10
145.069818522
 20
79.4300401622
 30
0.0
 10
145.0698184548
 20
79.4252258114
 30
0.0
 10
145.068865537
 20
79.4154428486
 30
0.0
 10
145.0630764157
 20
79.3957316465
 30
0.0
 10
145.0481321561
 20
79.371573107
 30
0.0
 10
145.0207505317
 20
79.3461845834
 30
0.0
 10
144.998137113
 20
79.3323220872
 30
0.0
 10
144.9856204721
 20
79.3258414066
 30
0.0
  0
SPLINE
  5
3BF
100
AcDbEntity
  8
218160250
100
AcDbSpline
 62
250
  6
CONTINUOUS
 70
0
 71
3
 72
11
 73
7
 74
0
 42
0.0000001
 43
0.0000001
 44
0.0000000001
 40
0.0
 40
0.0
 40
0.0
 40
0.0
 40
0.2271551604
 40
0.4666596847
 40
0.7233414926
 40
1.0
 40
1.0
 40
1.0
 40
1.0
 10
145.0771564755
 20
74.103308217
 30
0.0
 10
145.0851691308
 20
74.1011659294
 30
0.0
 10
145.1021914457
 20
74.0986781838
 30
0.0
 10
145.128708234
 20
74.1004298147
 30
0.0
 10
145.1561792601
 20
74.1074538276
 30
0.0
 10
145.1741198599
 20
74.1152338579
 30
0.0
 10
145.1831040741
 20
74.1198519075
 30
0.0
  0
SPLINE
  5
3C0
100
AcDbEntity
  8
218160250
100
AcDbSpline
 62
250
  6
CONTINUOUS
 70
0
 71
3
 72
11
 73
7
 74
0
 42
0.0000001
 43
0.0000001
 44
0.0000000001
 40
0.0
 40
0.0
 40
0.0
 40
0.0
 40
0.2278649909
 40
0.4657801987
 40
0.721614993
 40
1.0
 40
1.0
 40
1.0
 40
1.0
 10
134.4953441522
 20
94.5698677285
 30
0.0
 10
134.5107801466
 20
94.5769962169
 30
0.0
 10
134.5445296953
 20
94.5872092527
 30
0.0
 10
134.5988857207
 20
94.5887761552
 30
0.0
 10
134.6557415582
 20
94.5770882897
 30
0.0
 10
134.6927035197
 20
94.5615155939
 30
0.0
 10
134.7111526563
 20
94.5519703799
 30
0.0
  0
SPLINE
  5
3C1
100
AcDbEntity
  8
218160250
100
AcDbSpline
 62
250
  6
CONTINUOUS
 70
0
 71
3
 72
11
 73
7
 74
0
 42
0.0000001
 43
0.0000001
 44
0.0000000001
 40
0.0
 40
0.0
 40
0.0
 40
0.0
 40
0.2279890806
 40
0.4659717416
 40
0.721774464
 40
1.0
 40
1.0
 40
1.0
 40
1.0
 10
134.9285890863
 20
94.5631520242
 30
0.0
 10
134.9132907418
 20
94.5708009982
 30
0.0
 10
134.8796817768
 20
94.5821259249
 30
0.0
 10
134.8250958725
 20
94.5854161712
 30
0.0
 10
134.7676000673
 20
94.5754663222
 30
0.0
 10
134.7299800512
 20
94.5609815853
 30
0.0
 10
134.7111526563
 20
94.5519703799
 30
0.0
  0
SPLINE
  5
3C2
100
AcDbEntity
  8
218160250
100
AcDbSpline
 62
250
  6
CONTINUOUS
 70
0
 71
3
 72
17
 73
13
 74
0
 42
0.0000001
 43
0.0000001
 44
0.0000000001
 40
0.0
 40
0.0
 40
0.0
 40
0.0
 40
0.1501682326
 40
0.2800701747
 40
0.3924308194
 40
0.4443702626
 40
0.4950628791
 40
0.545997845
 40
0.5986351721
 40
0.7134540238
 40
0.8465480487
 40
1.0
 40
1.0
 40
1.0
 40
1.0
 10
151.2372527415
 20
57.8536890441
 30
0.0
 10
151.2456676847
 20
57.8578630604
 30
0.0
 10
151.2608493017
 20
57.8668158889
 30
0.0
 10
151.2792297864
 20
57.8833907334
 30
0.0
 10
151.2891798974
 20
57.8992990598
 30
0.0
 10
151.2929008671
 20
57.9123040071
 30
0.0
 10
151.2936978748
 20
57.9219414165
 30
0.0
 10
151.2925499801
 20
57.9315863261
 30
0.0
 10
151.2883473958
 20
57.9446640105
 30
0.0
 10
151.2778350941
 20
57.9606573441
 30
0.0
 10
151.258911095
 20
57.9774361318
 30
0.0
 10
151.2433914035
 20
57.9866022464
 30
0.0
 10
151.2348061376
 20
57.9908950173
 30
0.0
  0
SPLINE
  5
3C3
100
AcDbEntity
  8
218160250
100
AcDbSpline
 62
250
  6
CONTINUOUS
 70
0
 71
3
 72
17
 73
13
 74
0
 42
0.0000001
 43
0.0000001
 44
0.0000000001
 40
0.0
 40
0.0
 40
0.0
 40
0.0
 40
0.1501682326
 40
0.2800701747
 40
0.3924308194
 40
0.4443702626
 40
0.4950628791
 40
0.545997845
 40
0.5986351721
 40
0.7134540238
 40
0.8465480487
 40
1.0
 40
1.0
 40
1.0
 40
1.0
 10
151.2372527415
 20
77.1227542783
 30
0.0
 10
151.2456676847
 20
77.1269282946
 30
0.0
 10
151.2608493017
 20
77.1358811231
 30
0.0
 10
151.2792297864
 20
77.1524559676
 30
0.0
 10
151.2891798974
 20
77.168364294
 30
0.0
 10
151.2929008671
 20
77.1813692413
 30
0.0
 10
151.2936978748
 20
77.1910066507
 30
0.0
 10
151.2925499801
 20
77.2006515603
 30
0.0
 10
151.2883473958
 20
77.2137292447
 30
0.0
 10
151.2778350941
 20
77.2297225783
 30
0.0
 10
151.258911095
 20
77.246501366
 30
0.0
 10
151.2433914035
 20
77.2556674806
 30
0.0
 10
151.2348061376
 20
77.2599602515
 30
0.0
  0
SPLINE
  5
3C4
100
AcDbEntity
  8
218160250
100
AcDbSpline
 62
7
  6
CONTINUOUS
 70
0
 71
3
 72
14
 73
10
 74
0
 42
0.0000001
 43
0.0000001
 44
0.0000000001
 40
0.0
 40
0.0
 40
0.0
 40
0.0
 40
0.2891225093
 40
0.4236737334
 40
0.5514397487
 40
0.6725519428
 40
0.7873140152
 40
0.8962252113
 40
1.0
 40
1.0
 40
1.0
 40
1.0
 10
145.1905224692
 20
86.7242684767
 30
0.0
 10
145.2831853813
 20
86.6797659457
 30
0.0
 10
145.4157746005
 20
86.6071978495
 30
0.0
 10
145.5772961232
 20
86.4958308758
 30
0.0
 10
145.6835707081
 20
86.4102152099
 30
0.0
 10
145.7773204785
 20
86.3209482992
 30
0.0
 10
145.8580626888
 20
86.2284467578
 30
0.0
 10
145.9253477881
 20
86.1331776685
 30
0.0
 10
145.9617694531
 20
86.0666628025
 30
0.0
 10
145.9773946809
 20
86.0332383525
 30
0.0
  0
SPLINE
  5
3C5
100
AcDbEntity
  8
218160250
100
AcDbSpline
 62
7
  6
CONTINUOUS
 70
0
 71
3
 72
14
 73
10
 74
0
 42
0.0000001
 43
0.0000001
 44
0.0000000001
 40
0.0
 40
0.0
 40
0.0
 40
0.0
 40
0.3382188739
 40
0.4848208715
 40
0.6157079331
 40
0.731071413
 40
0.8319238246
 40
0.9203836488
 40
1.0
 40
1.0
 40
1.0
 40
1.0
 10
144.7016834119
 20
88.6767860888
 30
0.0
 10
144.7101078938
 20
88.6810481584
 30
0.0
 10
144.721929598
 20
88.6877371971
 30
0.0
 10
144.7358436712
 20
88.6978550132
 30
0.0
 10
144.7441064752
 20
88.7050939955
 30
0.0
 10
144.7506385955
 20
88.7122857199
 30
0.0
 10
144.7553925165
 20
88.7193867696
 30
0.0
 10
144.7583235532
 20
88.72635826
 30
0.0
 10
144.7590333294
 20
88.7310649016
 30
0.0
 10
144.759033275
 20
88.7332873607
 30
0.0
  0
SPLINE
  5
3C6
100
AcDbEntity
  8
218160250
100
AcDbSpline
 62
250
  6
CONTINUOUS
 70
0
 71
3
 72
17
 73
13
 74
0
 42
0.0000001
 43
0.0000001
 44
0.0000000001
 40
0.0
 40
0.0
 40
0.0
 40
0.0
 40
0.2107313208
 40
0.3997386203
 40
0.5648010462
 40
0.7041625534
 40
0.8165467475
 40
0.9014918613
 40
0.9339976761
 40
0.9604059335
 40
0.9817407908
 40
1.0
 40
1.0
 40
1.0
 40
1.0
 10
144.352540275
 20
89.5921149174
 30
0.0
 10
144.3575446323
 20
89.5946282622
 30
0.0
 10
144.3669861722
 20
89.5994992331
 30
0.0
 10
144.3801330092
 20
89.6067458819
 30
0.0
 10
144.3913911824
 20
89.6134735366
 30
0.0
 10
144.4006327702
 20
89.6195933656
 30
0.0
 10
144.4077446973
 20
89.6250284313
 30
0.0
 10
144.4122151238
 20
89.6292334786
 30
0.0
 10
144.4145408898
 20
89.6322803997
 30
0.0
 10
144.4155590953
 20
89.6341681469
 30
0.0
 10
144.4160093197
 20
89.6358900541
 30
0.0
 10
144.4158718411
 20
89.636970784
 30
0.0
 10
144.4156989951
 20
89.6374241809
 30
0.0
  0
SPLINE
  5
3C7
100
AcDbEntity
  8
218160250
100
AcDbSpline
 62
250
  6
CONTINUOUS
 70
0
 71
3
 72
11
 73
7
 74
0
 42
0.0000001
 43
0.0000001
 44
0.0000000001
 40
0.0
 40
0.0
 40
0.0
 40
0.0
 40
0.2668350144
 40
0.5289430065
 40
0.7759510455
 40
1.0
 40
1.0
 40
1.0
 40
1.0
 10
144.0237734425
 20
89.8078365649
 30
0.0
 10
144.0177654577
 20
89.8241679552
 30
0.0
 10
144.0031738898
 20
89.8556188149
 30
0.0
 10
143.9746586277
 20
89.8976985227
 30
0.0
 10
143.9412464317
 20
89.9322452225
 30
0.0
 10
143.9156016652
 20
89.9497458754
 30
0.0
 10
143.9025330269
 20
89.9562801946
 30
0.0
  0
SPLINE
  5
3C8
100
AcDbEntity
  8
218160250
100
AcDbSpline
 62
250
  6
CONTINUOUS
 70
0
 71
3
 72
13
 73
9
 74
0
 42
0.0000001
 43
0.0000001
 44
0.0000000001
 40
0.0
 40
0.0
 40
0.0
 40
0.0
 40
0.1028084108
 40
0.2083806114
 40
0.4364797318
 40
0.5630370464
 40
0.6990118494
 40
1.0
 40
1.0
 40
1.0
 40
1.0
 10
151.5896825545
 20
54.6841478725
 30
0.0
 10
151.5896824657
 20
54.6761239591
 30
0.0
 10
151.5880939897
 20
54.6598181289
 30
0.0
 10
151.5784468599
 20
54.626971936
 30
0.0
 10
151.5591971489
 20
54.5958280209
 30
0.0
 10
151.5330720834
 20
54.5677759144
 30
0.0
 10
151.4995040935
 20
54.5392179379
 30
0.0
 10
151.4702133907
 20
54.5212844402
 30
0.0
 10
151.4493524671
 20
54.5104833808
 30
0.0
  0
SPLINE
  5
3C9
100
AcDbEntity
  8
218160250
100
AcDbSpline
 62
250
  6
CONTINUOUS
 70
0
 71
3
 72
15
 73
11
 74
0
 42
0.0000001
 43
0.0000001
 44
0.0000000001
 40
0.0
 40
0.0
 40
0.0
 40
0.0
 40
0.1109076071
 40
0.2306298697
 40
0.3573752202
 40
0.4886363564
 40
0.6214951828
 40
0.7528957027
 40
0.8799073651
 40
1.0
 40
1.0
 40
1.0
 40
1.0
 10
145.1831040741
 20
54.8507866733
 30
0.0
 10
145.1978355785
 20
54.8436681723
 30
0.0
 10
145.2270163389
 20
54.8257585606
 30
0.0
 10
145.26703928
 20
54.7911624315
 30
0.0
 10
145.3037417293
 20
54.749003711
 30
0.0
 10
145.3357532146
 20
54.700862953
 30
0.0
 10
145.3618932641
 20
54.6485344153
 30
0.0
 10
145.3811836433
 20
54.5939676397
 30
0.0
 10
145.3929017858
 20
54.5392150671
 30
0.0
 10
145.3954500002
 20
54.5026832797
 30
0.0
 10
145.3952037998
 20
54.4849687594
 30
0.0
  0
SPLINE
  5
3CA
100
AcDbEntity
  8
218160250
100
AcDbSpline
 62
250
  6
CONTINUOUS
 70
0
 71
3
 72
14
 73
10
 74
0
 42
0.0000001
 43
0.0000001
 44
0.0000000001
 40
0.0
 40
0.0
 40
0.0
 40
0.0
 40
0.1083199795
 40
0.2186902195
 40
0.3329588466
 40
0.4526227992
 40
0.5787532069
 40
0.711988358
 40
1.0
 40
1.0
 40
1.0
 40
1.0
 10
151.3270965425
 20
54.2441086955
 30
0.0
 10
151.3368761255
 20
54.2493853142
 30
0.0
 10
151.355712129
 20
54.2618240366
 30
0.0
 10
151.3806285304
 20
54.2854171313
 30
0.0
 10
151.4020402819
 20
54.3136966008
 30
0.0
 10
151.4197037857
 20
54.3462808046
 30
0.0
 10
151.4334488122
 20
54.3827739725
 30
0.0
 10
151.4467058122
 20
54.4374473132
 30
0.0
 10
151.449769065
 20
54.480939891
 30
0.0
 10
151.4493524671
 20
54.5104833808
 30
0.0
  0
SPLINE
  5
3CB
100
AcDbEntity
  8
218160250
100
AcDbSpline
 62
250
  6
CONTINUOUS
 70
0
 71
3
 72
15
 73
11
 74
0
 42
0.0000001
 43
0.0000001
 44
0.0000000001
 40
0.0
 40
0.0
 40
0.0
 40
0.0
 40
0.1109076071
 40
0.2306298697
 40
0.3573752202
 40
0.4886363563
 40
0.6214951827
 40
0.7528957027
 40
0.8799073651
 40
1.0
 40
1.0
 40
1.0
 40
1.0
 10
151.2372527415
 20
57.8536890441
 30
0.0
 10
151.2519842459
 20
57.8465705431
 30
0.0
 10
151.2811650063
 20
57.8286609315
 30
0.0
 10
151.3211879474
 20
57.7940648024
 30
0.0
 10
151.3578903967
 20
57.7519060819
 30
0.0
 10
151.389901882
 20
57.7037653239
 30
0.0
 10
151.4160419315
 20
57.6514367862
 30
0.0
 10
151.4353323107
 20
57.5968700106
 30
0.0
 10
151.4470504532
 20
57.5421174379
 30
0.0
 10
151.4495986676
 20
57.5055856505
 30
0.0
 10
151.4493524671
 20
57.4878711301
 30
0.0
  0
SPLINE
  5
3CC
100
AcDbEntity
  8
218160250
100
AcDbSpline
 62
250
  6
CONTINUOUS
 70
0
 71
3
 72
11
 73
7
 74
0
 42
0.0000001
 43
0.0000001
 44
0.0000000001
 40
0.0
 40
0.0
 40
0.0
 40
0.0
 40
0.2782277857
 40
0.5340283213
 40
0.7720108104
 40
1.0
 40
1.0
 40
1.0
 40
1.0
 10
151.2348061376
 20
57.9908950173
 30
0.0
 10
151.2461026648
 20
57.9963017837
 30
0.0
 10
151.2686746828
 20
58.004992557
 30
0.0
 10
151.303172167
 20
58.0109626497
 30
0.0
 10
151.335923528
 20
58.0089880698
 30
0.0
 10
151.3560890512
 20
58.0021935215
 30
0.0
 10
151.3652680016
 20
57.9976040158
 30
0.0
  0
SPLINE
  5
3CD
100
AcDbEntity
  8
218160250
100
AcDbSpline
 62
7
  6
CONTINUOUS
 70
0
 71
3
 72
21
 73
17
 74
0
 42
0.0000001
 43
0.0000001
 44
0.0000000001
 40
0.0
 40
0.0
 40
0.0
 40
0.0
 40
0.0224959809
 40
0.0447861614
 40
0.0889216636
 40
0.1324384312
 40
0.1753042458
 40
0.2589953866
 40
0.3398320732
 40
0.4176405098
 40
0.4922205561
 40
0.6307436964
 40
0.753214649
 40
0.8570446068
 40
0.9396388056
 40
1.0
 40
1.0
 40
1.0
 40
1.0
 10
150.6416092631
 20
58.5460456643
 30
0.0
 10
150.6423628867
 20
58.5454940441
 30
0.0
 10
150.6440197869
 20
58.5446224772
 30
0.0
 10
150.6473891536
 20
58.5431238076
 30
0.0
 10
150.6516386962
 20
58.5414487295
 30
0.0
 10
150.6567033205
 20
58.5395252434
 30
0.0
 10
150.663318905
 20
58.5370569668
 30
0.0
 10
150.6713910152
 20
58.5340616554
 30
0.0
 10
150.6808085742
 20
58.5305219485
 30
0.0
 10
150.6898438699
 20
58.5270406784
 30
0.0
 10
150.7010596924
 20
58.5225613122
 30
0.0
 10
150.7138789034
 20
58.5170918357
 30
0.0
 10
150.727494588
 20
58.5104516493
 30
0.0
 10
150.7385639946
 20
58.5038942561
 30
0.0
 10
150.7466244945
 20
58.4975888104
 30
0.0
 10
150.7504031396
 20
58.4927335762
 30
0.0
 10
150.7512286188
 20
58.4903675082
 30
0.0
  0
LINE
  5
3CE
100
AcDbEntity
  8
218160250
100
AcDbLine
 62
7
  6
CONTINUOUS
 10
150.6363034242
 20
58.5499144252
 11
150.6416092631
 21
58.5460456643
  0
SPLINE
  5
3CF
100
AcDbEntity
  8
218160250
100
AcDbSpline
 62
250
  6
CONTINUOUS
 70
0
 71
3
 72
11
 73
7
 74
0
 42
0.0000001
 43
0.0000001
 44
0.0000000001
 40
0.0
 40
0.0
 40
0.0
 40
0.0
 40
0.278227583
 40
0.5340282011
 40
0.7720108627
 40
1.0
 40
1.0
 40
1.0
 40
1.0
 10
150.8484031498
 20
58.1840965112
 30
0.0
 10
150.8596995329
 20
58.1895032087
 30
0.0
 10
150.8822712619
 20
58.1981938962
 30
0.0
 10
150.9167683009
 20
58.2041640553
 30
0.0
 10
150.9495192816
 20
58.2021897653
 30
0.0
 10
150.9696846452
 20
58.1953955574
 30
0.0
 10
150.97886355
 20
58.1908062416
 30
0.0
  0
SPLINE
  5
3D0
100
AcDbEntity
  8
218160250
100
AcDbSpline
 62
250
  6
CONTINUOUS
 70
0
 71
3
 72
15
 73
11
 74
0
 42
0.0000001
 43
0.0000001
 44
0.0000000001
 40
0.0
 40
0.0
 40
0.0
 40
0.0
 40
0.1109076071
 40
0.2306298697
 40
0.3573752202
 40
0.4886363564
 40
0.6214951828
 40
0.7528957027
 40
0.8799073651
 40
1.0
 40
1.0
 40
1.0
 40
1.0
 10
145.1831040741
 20
74.1198519075
 30
0.0
 10
145.1978355785
 20
74.1127334065
 30
0.0
 10
145.2270163389
 20
74.0948237949
 30
0.0
 10
145.26703928
 20
74.0602276657
 30
0.0
 10
145.3037417293
 20
74.0180689452
 30
0.0
 10
145.3357532146
 20
73.9699281872
 30
0.0
 10
145.3618932641
 20
73.9175996495
 30
0.0
 10
145.3811836433
 20
73.8630328739
 30
0.0
 10
145.3929017858
 20
73.8082803013
 30
0.0
 10
145.3954500002
 20
73.7717485139
 30
0.0
 10
145.3952037998
 20
73.7540339936
 30
0.0
  0
SPLINE
  5
3D1
100
AcDbEntity
  8
218160250
100
AcDbSpline
 62
250
  6
CONTINUOUS
 70
0
 71
3
 72
15
 73
11
 74
0
 42
0.0000001
 43
0.0000001
 44
0.0000000001
 40
0.0
 40
0.0
 40
0.0
 40
0.0
 40
0.1109076071
 40
0.2306298697
 40
0.3573752202
 40
0.4886363563
 40
0.6214951827
 40
0.7528957027
 40
0.8799073651
 40
1.0
 40
1.0
 40
1.0
 40
1.0
 10
151.2372527415
 20
77.1227542783
 30
0.0
 10
151.2519842459
 20
77.1156357773
 30
0.0
 10
151.2811650063
 20
77.0977261657
 30
0.0
 10
151.3211879474
 20
77.0631300366
 30
0.0
 10
151.3578903967
 20
77.0209713161
 30
0.0
 10
151.389901882
 20
76.9728305581
 30
0.0
 10
151.4160419315
 20
76.9205020204
 30
0.0
 10
151.4353323107
 20
76.8659352448
 30
0.0
 10
151.4470504532
 20
76.8111826721
 30
0.0
 10
151.4495986676
 20
76.7746508847
 30
0.0
 10
151.4493524671
 20
76.7569363643
 30
0.0
  0
SPLINE
  5
3D2
100
AcDbEntity
  8
218160250
100
AcDbSpline
 62
250
  6
CONTINUOUS
 70
0
 71
3
 72
11
 73
7
 74
0
 42
0.0000001
 43
0.0000001
 44
0.0000000001
 40
0.0
 40
0.0
 40
0.0
 40
0.0
 40
0.2782277857
 40
0.5340283213
 40
0.7720108104
 40
1.0
 40
1.0
 40
1.0
 40
1.0
 10
151.2348061376
 20
77.2599602515
 30
0.0
 10
151.2461026648
 20
77.2653670179
 30
0.0
 10
151.2686746828
 20
77.2740577912
 30
0.0
 10
151.303172167
 20
77.2800278839
 30
0.0
 10
151.335923528
 20
77.278053304
 30
0.0
 10
151.3560890512
 20
77.2712587557
 30
0.0
 10
151.3652680016
 20
77.26666925
 30
0.0
  0
SPLINE
  5
3D3
100
AcDbEntity
  8
218160250
100
AcDbSpline
 62
7
  6
CONTINUOUS
 70
0
 71
3
 72
21
 73
17
 74
0
 42
0.0000001
 43
0.0000001
 44
0.0000000001
 40
0.0
 40
0.0
 40
0.0
 40
0.0
 40
0.02249569
 40
0.0447858692
 40
0.0889215076
 40
0.132438417
 40
0.1753043776
 40
0.2589958272
 40
0.3398328029
 40
0.4176415098
 40
0.4922218453
 40
0.6307454852
 40
0.7532162783
 40
0.8570455313
 40
0.9396390316
 40
1.0
 40
1.0
 40
1.0
 40
1.0
 10
150.6416092631
 20
77.8151108985
 30
0.0
 10
150.6423628769
 20
77.8145592855
 30
0.0
 10
150.6440197926
 20
77.813687773
 30
0.0
 10
150.6473891119
 20
77.8121890198
 30
0.0
 10
150.6516386859
 20
77.8105139823
 30
0.0
 10
150.656703319
 20
77.8085904743
 30
0.0
 10
150.6633189279
 20
77.8061221933
 30
0.0
 10
150.671391066
 20
77.8031268711
 30
0.0
 10
150.6808086573
 20
77.7995871501
 30
0.0
 10
150.6898439852
 20
77.796105868
 30
0.0
 10
150.7010598461
 20
77.7916264825
 30
0.0
 10
150.7138790796
 20
77.7861569924
 30
0.0
 10
150.7274947389
 20
77.7795167996
 30
0.0
 10
150.7385640936
 20
77.7729594303
 30
0.0
 10
150.7466244968
 20
77.7666540065
 30
0.0
 10
150.750403183
 20
77.761798827
 30
0.0
 10
150.7512286183
 20
77.7594327538
 30
0.0
  0
LINE
  5
3D4
100
AcDbEntity
  8
218160250
100
AcDbLine
 62
7
  6
CONTINUOUS
 10
150.6363034242
 20
77.8189796594
 11
150.6416092631
 21
77.8151108985
  0
SPLINE
  5
3D5
100
AcDbEntity
  8
218160250
100
AcDbSpline
 62
250
  6
CONTINUOUS
 70
0
 71
3
 72
13
 73
9
 74
0
 42
0.0000001
 43
0.0000001
 44
0.0000000001
 40
0.0
 40
0.0
 40
0.0
 40
0.0
 40
0.1030320899
 40
0.2088499773
 40
0.437293795
 40
0.5638604552
 40
0.6997081342
 40
1.0
 40
1.0
 40
1.0
 40
1.0
 10
151.5896825545
 20
64.2304819731
 30
0.0
 10
151.5896824722
 20
64.2223867466
 30
0.0
 10
151.5880933095
 20
64.2059355873
 30
0.0
 10
151.578452132
 20
64.1727855861
 30
0.0
 10
151.5592175106
 20
64.1413011449
 30
0.0
 10
151.5330830261
 20
64.1128832061
 30
0.0
 10
151.4995333096
 20
64.0839500662
 30
0.0
 10
151.4702297777
 20
64.0657237487
 30
0.0
 10
151.4493524671
 20
64.0547323491
 30
0.0
  0
SPLINE
  5
3D6
100
AcDbEntity
  8
218160250
100
AcDbSpline
 62
250
  6
CONTINUOUS
 70
0
 71
3
 72
11
 73
7
 74
0
 42
0.0000001
 43
0.0000001
 44
0.0000000001
 40
0.0
 40
0.0
 40
0.0
 40
0.0
 40
0.278227583
 40
0.5340282011
 40
0.7720108627
 40
1.0
 40
1.0
 40
1.0
 40
1.0
 10
150.8484031498
 20
77.4531617454
 30
0.0
 10
150.8596995329
 20
77.4585684429
 30
0.0
 10
150.8822712619
 20
77.4672591304
 30
0.0
 10
150.9167683009
 20
77.4732292895
 30
0.0
 10
150.9495192816
 20
77.4712549995
 30
0.0
 10
150.9696846452
 20
77.4644607916
 30
0.0
 10
150.97886355
 20
77.4598714758
 30
0.0
  0
SPLINE
  5
3D7
100
AcDbEntity
  8
218160250
100
AcDbSpline
 62
250
  6
CONTINUOUS
 70
0
 71
3
 72
13
 73
9
 74
0
 42
0.0000001
 43
0.0000001
 44
0.0000000001
 40
0.0
 40
0.0
 40
0.0
 40
0.0
 40
0.3016931434
 40
0.4377978815
 40
0.5643472233
 40
0.7920987803
 40
0.8974209347
 40
1.0
 40
1.0
 40
1.0
 40
1.0
 10
151.4493524671
 20
57.4878711301
 30
0.0
 10
151.4701948595
 20
57.4984813631
 30
0.0
 10
151.4994701065
 20
57.5161201042
 30
0.0
 10
151.5330544324
 20
57.544299476
 30
0.0
 10
151.5591691756
 20
57.5719827183
 30
0.0
 10
151.5784351859
 20
57.6027823938
 30
0.0
 10
151.588091515
 20
57.6353219395
 30
0.0
 10
151.5896813466
 20
57.6514812609
 30
0.0
 10
151.5896825531
 20
57.6594333265
 30
0.0
  0
SPLINE
  5
3D8
100
AcDbEntity
  8
218160250
100
AcDbSpline
 62
250
  6
CONTINUOUS
 70
0
 71
3
 72
13
 73
9
 74
0
 42
0.0000001
 43
0.0000001
 44
0.0000000001
 40
0.0
 40
0.0
 40
0.0
 40
0.0
 40
0.1030320899
 40
0.2088499773
 40
0.437293795
 40
0.5638604552
 40
0.6997081342
 40
1.0
 40
1.0
 40
1.0
 40
1.0
 10
151.5896825545
 20
83.4995472073
 30
0.0
 10
151.5896824722
 20
83.4914519808
 30
0.0
 10
151.5880933095
 20
83.4750008215
 30
0.0
 10
151.578452132
 20
83.4418508203
 30
0.0
 10
151.5592175106
 20
83.4103663791
 30
0.0
 10
151.5330830261
 20
83.3819484403
 30
0.0
 10
151.4995333096
 20
83.3530153004
 30
0.0
 10
151.4702297777
 20
83.3347889829
 30
0.0
 10
151.4493524671
 20
83.3237975833
 30
0.0
  0
SPLINE
  5
3D9
100
AcDbEntity
  8
218160250
100
AcDbSpline
 62
250
  6
CONTINUOUS
 70
0
 71
3
 72
13
 73
9
 74
0
 42
0.0000001
 43
0.0000001
 44
0.0000000001
 40
0.0
 40
0.0
 40
0.0
 40
0.0
 40
0.3016931434
 40
0.4377978815
 40
0.5643472233
 40
0.7920987803
 40
0.8974209347
 40
1.0
 40
1.0
 40
1.0
 40
1.0
 10
151.4493524671
 20
76.7569363643
 30
0.0
 10
151.4701948595
 20
76.7675465973
 30
0.0
 10
151.4994701065
 20
76.7851853384
 30
0.0
 10
151.5330544324
 20
76.8133647102
 30
0.0
 10
151.5591691756
 20
76.8410479525
 30
0.0
 10
151.5784351859
 20
76.871847628
 30
0.0
 10
151.588091515
 20
76.9043871737
 30
0.0
 10
151.5896813466
 20
76.9205464951
 30
0.0
 10
151.5896825531
 20
76.9284985607
 30
0.0
  0
SPLINE
  5
3DA
100
AcDbEntity
  8
218160250
100
AcDbSpline
 62
250
  6
CONTINUOUS
 70
0
 71
3
 72
13
 73
9
 74
0
 42
0.0000001
 43
0.0000001
 44
0.0000000001
 40
0.0
 40
0.0
 40
0.0
 40
0.0
 40
0.3108360025
 40
0.5787506005
 40
0.6970256194
 40
0.8056873539
 40
0.9060572608
 40
1.0
 40
1.0
 40
1.0
 40
1.0
 10
148.9755403657
 20
87.4197765252
 30
0.0
 10
148.9941132338
 20
87.4286659908
 30
0.0
 10
149.0296641957
 20
87.4433195541
 30
0.0
 10
149.0748237408
 20
87.4542538262
 30
0.0
 10
149.1075862957
 20
87.4566582208
 30
0.0
 10
149.1293063125
 20
87.4555184482
 30
0.0
 10
149.1490563311
 20
87.4515361409
 30
0.0
 10
149.1611420188
 20
87.446875618
 30
0.0
 10
149.1667080468
 20
87.4440925674
 30
0.0
  0
SPLINE
  5
3DB
100
AcDbEntity
  8
218160250
100
AcDbSpline
 62
250
  6
CONTINUOUS
 70
0
 71
3
 72
15
 73
11
 74
0
 42
0.0000001
 43
0.0000001
 44
0.0000000001
 40
0.0
 40
0.0
 40
0.0
 40
0.0
 40
0.1200918025
 40
0.2471041467
 40
0.3785048195
 40
0.5113636517
 40
0.6426248117
 40
0.7693703165
 40
0.8890931846
 40
1.0
 40
1.0
 40
1.0
 40
1.0
 10
151.4493524671
 20
85.7499237225
 30
0.0
 10
151.4497627984
 20
85.7794477204
 30
0.0
 10
151.4455157524
 20
85.8403339875
 30
0.0
 10
151.4259857778
 20
85.9315883412
 30
0.0
 10
151.3938349897
 20
86.0225331526
 30
0.0
 10
151.3502681204
 20
86.1097473712
 30
0.0
 10
151.2969157108
 20
86.1899820631
 30
0.0
 10
151.2357448918
 20
86.2602468208
 30
0.0
 10
151.1690398004
 20
86.3179068184
 30
0.0
 10
151.120405258
 20
86.3477561613
 30
0.0
 10
151.0958529244
 20
86.3596202458
 30
0.0
  0
SPLINE
  5
3DC
100
AcDbEntity
  8
218160250
100
AcDbSpline
 62
250
  6
CONTINUOUS
 70
0
 71
3
 72
13
 73
9
 74
0
 42
0.0000001
 43
0.0000001
 44
0.0000000001
 40
0.0
 40
0.0
 40
0.0
 40
0.0
 40
0.1028084152
 40
0.2083806123
 40
0.4364797168
 40
0.5630370271
 40
0.6990118307
 40
1.0
 40
1.0
 40
1.0
 40
1.0
 10
151.5896825545
 20
85.9235883151
 30
0.0
 10
151.5896824722
 20
85.9155643979
 30
0.0
 10
151.5880940079
 20
85.8992585593
 30
0.0
 10
151.5784468946
 20
85.8664123472
 30
0.0
 10
151.5591971878
 20
85.8352684119
 30
0.0
 10
151.5330721185
 20
85.8072162886
 30
0.0
 10
151.4995041172
 20
85.7786582945
 30
0.0
 10
151.4702134009
 20
85.7607247872
 30
0.0
 10
151.4493524671
 20
85.7499237225
 30
0.0
  0
SPLINE
  5
3DD
100
AcDbEntity
  8
218160250
100
AcDbSpline
 62
250
  6
CONTINUOUS
 70
0
 71
3
 72
11
 73
7
 74
0
 42
0.0000001
 43
0.0000001
 44
0.0000000001
 40
0.0
 40
0.0
 40
0.0
 40
0.0
 40
0.2279890806
 40
0.4659717416
 40
0.721774464
 40
1.0
 40
1.0
 40
1.0
 40
1.0
 10
151.3132893544
 20
86.3708018901
 30
0.0
 10
151.2979910099
 20
86.3784508642
 30
0.0
 10
151.2643820449
 20
86.3897757909
 30
0.0
 10
151.2097961406
 20
86.3930660372
 30
0.0
 10
151.1523003354
 20
86.3831161882
 30
0.0
 10
151.1146803193
 20
86.3686314512
 30
0.0
 10
151.0958529244
 20
86.3596202458
 30
0.0
  0
SPLINE
  5
3DE
100
AcDbEntity
  8
218160250
100
AcDbSpline
 62
250
  6
CONTINUOUS
 70
0
 71
3
 72
15
 73
11
 74
0
 42
0.0000001
 43
0.0000001
 44
0.0000000001
 40
0.0
 40
0.0
 40
0.0
 40
0.0
 40
0.1109863841
 40
0.2308467643
 40
0.3577405363
 40
0.4891174226
 40
0.6220229962
 40
0.7533719086
 40
0.8802118821
 40
1.0
 40
1.0
 40
1.0
 40
1.0
 10
152.5066452211
 20
65.5117412494
 30
0.0
 10
152.5213845953
 20
65.5046217039
 30
0.0
 10
152.5505970716
 20
65.4867246329
 30
0.0
 10
152.5907225118
 20
65.4521896724
 30
0.0
 10
152.6275940928
 20
65.4101219895
 30
0.0
 10
152.659833942
 20
65.3620986951
 30
0.0
 10
152.6862520516
 20
65.3099101887
 30
0.0
 10
152.7058594586
 20
65.2555013223
 30
0.0
 10
152.7179216184
 20
65.2009189927
 30
0.0
 10
152.7207191837
 20
65.164485651
 30
0.0
 10
152.7205959834
 20
65.1468191765
 30
0.0
  0
SPLINE
  5
3DF
100
AcDbEntity
  8
218160250
100
AcDbSpline
 62
250
  6
CONTINUOUS
 70
0
 71
3
 72
15
 73
11
 74
0
 42
0.0000001
 43
0.0000001
 44
0.0000000001
 40
0.0
 40
0.0
 40
0.0
 40
0.0
 40
0.1097251512
 40
0.2291181404
 40
0.3561423608
 40
0.4880275058
 40
0.6215843468
 40
0.7534879202
 40
0.880550167
 40
1.0
 40
1.0
 40
1.0
 40
1.0
 10
150.8484031498
 20
58.1840965112
 30
0.0
 10
150.8340985087
 20
58.191497483
 30
0.0
 10
150.8057246645
 20
58.2099219738
 30
0.0
 10
150.7667013355
 20
58.2449501684
 30
0.0
 10
150.7306163225
 20
58.2873585337
 30
0.0
 10
150.6988248705
 20
58.335559346
 30
0.0
 10
150.6725066131
 20
58.3877520861
 30
0.0
 10
150.6526494315
 20
58.4419844073
 30
0.0
 10
150.639994998
 20
58.4962100756
 30
0.0
 10
150.6365510623
 20
58.5323831465
 30
0.0
 10
150.636303846
 20
58.5499146344
 30
0.0
  0
SPLINE
  5
3E0
100
AcDbEntity
  8
218160250
100
AcDbSpline
 62
250
  6
CONTINUOUS
 70
0
 71
3
 72
12
 73
8
 74
0
 42
0.0000001
 43
0.0000001
 44
0.0000000001
 40
0.0
 40
0.0
 40
0.0
 40
0.0
 40
0.3011250782
 40
0.5633232404
 40
0.7915254941
 40
0.897145411
 40
1.0
 40
1.0
 40
1.0
 40
1.0
 10
152.7205959834
 20
65.1468191765
 30
0.0
 10
152.7331124263
 20
65.1532997545
 30
0.0
 10
152.7557255248
 20
65.1671620202
 30
0.0
 10
152.7831068935
 20
65.1925500433
 30
0.0
 10
152.7980512548
 20
65.2167080689
 30
0.0
 10
152.8038406963
 20
65.236418899
 30
0.0
 10
152.8047938404
 20
65.2462016991
 30
0.0
 10
152.8047940333
 20
65.2510159766
 30
0.0
  0
SPLINE
  5
3E1
100
AcDbEntity
  8
218160250
100
AcDbSpline
 62
250
  6
CONTINUOUS
 70
0
 71
3
 72
11
 73
7
 74
0
 42
0.0000001
 43
0.0000001
 44
0.0000000001
 40
0.0
 40
0.0
 40
0.0
 40
0.0
 40
0.2787303757
 40
0.5346775223
 40
0.7724497951
 40
1.0
 40
1.0
 40
1.0
 40
1.0
 10
152.5066452211
 20
65.5117412494
 30
0.0
 10
152.5180854627
 20
65.5173390948
 30
0.0
 10
152.540953677
 20
65.5263646243
 30
0.0
 10
152.575952731
 20
65.5326814479
 30
0.0
 10
152.6091936616
 20
65.5308483223
 30
0.0
 10
152.6296566735
 20
65.5239967522
 30
0.0
 10
152.6389567057
 20
65.5193467907
 30
0.0
  0
SPLINE
  5
3E2
100
AcDbEntity
  8
218160250
100
AcDbSpline
 62
250
  6
CONTINUOUS
 70
0
 71
3
 72
15
 73
11
 74
0
 42
0.0000001
 43
0.0000001
 44
0.0000000001
 40
0.0
 40
0.0
 40
0.0
 40
0.0
 40
0.1109863841
 40
0.2308467643
 40
0.3577405363
 40
0.4891174226
 40
0.6220229962
 40
0.7533719086
 40
0.8802118821
 40
1.0
 40
1.0
 40
1.0
 40
1.0
 10
152.5066452211
 20
84.7808064836
 30
0.0
 10
152.5213845953
 20
84.7736869381
 30
0.0
 10
152.5505970716
 20
84.7557898671
 30
0.0
 10
152.5907225118
 20
84.7212549066
 30
0.0
 10
152.6275940928
 20
84.6791872237
 30
0.0
 10
152.659833942
 20
84.6311639293
 30
0.0
 10
152.6862520516
 20
84.5789754229
 30
0.0
 10
152.7058594586
 20
84.5245665565
 30
0.0
 10
152.7179216184
 20
84.469984227
 30
0.0
 10
152.7207191837
 20
84.4335508852
 30
0.0
 10
152.7205959834
 20
84.4158844107
 30
0.0
  0
SPLINE
  5
3E3
100
AcDbEntity
  8
218160250
100
AcDbSpline
 62
250
  6
CONTINUOUS
 70
0
 71
3
 72
15
 73
11
 74
0
 42
0.0000001
 43
0.0000001
 44
0.0000000001
 40
0.0
 40
0.0
 40
0.0
 40
0.0
 40
0.1097251512
 40
0.2291181404
 40
0.3561423608
 40
0.4880275058
 40
0.6215843468
 40
0.7534879202
 40
0.880550167
 40
1.0
 40
1.0
 40
1.0
 40
1.0
 10
150.8484031498
 20
77.4531617454
 30
0.0
 10
150.8340985087
 20
77.4605627172
 30
0.0
 10
150.8057246645
 20
77.478987208
 30
0.0
 10
150.7667013355
 20
77.5140154026
 30
0.0
 10
150.7306163225
 20
77.5564237679
 30
0.0
 10
150.6988248705
 20
77.6046245802
 30
0.0
 10
150.6725066131
 20
77.6568173203
 30
0.0
 10
150.6526494315
 20
77.7110496415
 30
0.0
 10
150.639994998
 20
77.7652753098
 30
0.0
 10
150.6365510623
 20
77.8014483807
 30
0.0
 10
150.636303846
 20
77.8189798686
 30
0.0
  0
SPLINE
  5
3E4
100
AcDbEntity
  8
218160250
100
AcDbSpline
 62
250
  6
CONTINUOUS
 70
0
 71
3
 72
12
 73
8
 74
0
 42
0.0000001
 43
0.0000001
 44
0.0000000001
 40
0.0
 40
0.0
 40
0.0
 40
0.0
 40
0.3011250782
 40
0.5633232404
 40
0.7915254941
 40
0.897145411
 40
1.0
 40
1.0
 40
1.0
 40
1.0
 10
152.7205959834
 20
84.4158844107
 30
0.0
 10
152.7331124263
 20
84.4223649887
 30
0.0
 10
152.7557255248
 20
84.4362272544
 30
0.0
 10
152.7831068935
 20
84.4616152775
 30
0.0
 10
152.7980512548
 20
84.4857733031
 30
0.0
 10
152.8038406963
 20
84.5054841332
 30
0.0
 10
152.8047938404
 20
84.5152669333
 30
0.0
 10
152.8047940333
 20
84.5200812108
 30
0.0
  0
SPLINE
  5
3E5
100
AcDbEntity
  8
218160250
100
AcDbSpline
 62
250
  6
CONTINUOUS
 70
0
 71
3
 72
11
 73
7
 74
0
 42
0.0000001
 43
0.0000001
 44
0.0000000001
 40
0.0
 40
0.0
 40
0.0
 40
0.0
 40
0.2787303757
 40
0.5346775223
 40
0.7724497951
 40
1.0
 40
1.0
 40
1.0
 40
1.0
 10
152.5066452211
 20
84.7808064836
 30
0.0
 10
152.5180854627
 20
84.786404329
 30
0.0
 10
152.540953677
 20
84.7954298585
 30
0.0
 10
152.575952731
 20
84.8017466821
 30
0.0
 10
152.6091936616
 20
84.7999135565
 30
0.0
 10
152.6296566735
 20
84.7930619864
 30
0.0
 10
152.6389567057
 20
84.7884120249
 30
0.0
  0
SPLINE
  5
3E6
100
AcDbEntity
  8
218160250
100
AcDbSpline
 62
250
  6
CONTINUOUS
 70
0
 71
3
 72
15
 73
11
 74
0
 42
0.0000001
 43
0.0000001
 44
0.0000000001
 40
0.0
 40
0.0
 40
0.0
 40
0.0
 40
0.110215063
 40
0.2297413576
 40
0.3566189447
 40
0.4881945028
 40
0.6214167791
 40
0.7531017307
 40
0.8801879721
 40
1.0
 40
1.0
 40
1.0
 40
1.0
 10
145.3952037998
 20
80.0574454849
 30
0.0
 10
145.3669717841
 20
80.0422134951
 30
0.0
 10
145.3111501713
 20
80.0046957184
 30
0.0
 10
145.234709549
 20
79.9340026028
 30
0.0
 10
145.1644582571
 20
79.848942185
 30
0.0
 10
145.1029703648
 20
79.752630734
 30
0.0
 10
145.0524719884
 20
79.6485810949
 30
0.0
 10
145.0148158592
 20
79.5405921875
 30
0.0
 10
144.9913830647
 20
79.4326440038
 30
0.0
 10
144.9856205724
 20
79.3607136479
 30
0.0
 10
144.9856204721
 20
79.3258414066
 30
0.0
  0
SPLINE
  5
3E7
100
AcDbEntity
  8
218160250
100
AcDbSpline
 62
250
  6
CONTINUOUS
 70
0
 71
3
 72
18
 73
14
 74
0
 42
0.0000001
 43
0.0000001
 44
0.0000000001
 40
0.0
 40
0.0
 40
0.0
 40
0.0
 40
0.1504227352
 40
0.2869488882
 40
0.4102702278
 40
0.4680294448
 40
0.5239223945
 40
0.5787425817
 40
0.6333710755
 40
0.6887051962
 40
0.7455832579
 40
0.8664222147
 40
1.0
 40
1.0
 40
1.0
 40
1.0
 10
144.9856204721
 20
74.06150212
 30
0.0
 10
144.9856205646
 20
74.0293259464
 30
0.0
 10
144.9901644965
 20
73.9677725721
 30
0.0
 10
145.0126365753
 20
73.8823693189
 30
0.0
 10
145.0446615908
 20
73.8215268638
 30
0.0
 10
145.0773060219
 20
73.7825326516
 30
0.0
 10
145.1044146703
 20
73.7585676673
 30
0.0
 10
145.1344074034
 20
73.7395384294
 30
0.0
 10
145.1669732653
 20
73.7256534723
 30
0.0
 10
145.2017655098
 20
73.717058218
 30
0.0
 10
145.2515961609
 20
73.7126463015
 30
0.0
 10
145.3184456317
 20
73.7214990945
 30
0.0
 10
145.3696064353
 20
73.7413379833
 30
0.0
 10
145.3952037998
 20
73.7540339936
 30
0.0
  0
SPLINE
  5
3E8
100
AcDbEntity
  8
218160250
100
AcDbSpline
 62
250
  6
CONTINUOUS
 70
0
 71
3
 72
15
 73
11
 74
0
 42
0.0000001
 43
0.0000001
 44
0.0000000001
 40
0.0
 40
0.0
 40
0.0
 40
0.0
 40
0.110215063
 40
0.2297413576
 40
0.3566189447
 40
0.4881945028
 40
0.6214167791
 40
0.7531017307
 40
0.8801879721
 40
1.0
 40
1.0
 40
1.0
 40
1.0
 10
145.3952037998
 20
60.7883802507
 30
0.0
 10
145.3669717841
 20
60.7731482609
 30
0.0
 10
145.3111501713
 20
60.7356304842
 30
0.0
 10
145.234709549
 20
60.6649373686
 30
0.0
 10
145.1644582571
 20
60.5798769508
 30
0.0
 10
145.1029703648
 20
60.4835654998
 30
0.0
 10
145.0524719884
 20
60.3795158607
 30
0.0
 10
145.0148158592
 20
60.2715269533
 30
0.0
 10
144.9913830647
 20
60.1635787696
 30
0.0
 10
144.9856205724
 20
60.0916484137
 30
0.0
 10
144.9856204721
 20
60.0567761724
 30
0.0
  0
SPLINE
  5
3E9
100
AcDbEntity
  8
218160250
100
AcDbSpline
 62
250
  6
CONTINUOUS
 70
0
 71
3
 72
16
 73
12
 74
0
 42
0.0000001
 43
0.0000001
 44
0.0000000001
 40
0.0
 40
0.0
 40
0.0
 40
0.0
 40
0.2777969207
 40
0.4111310164
 40
0.5390673769
 40
0.6609189055
 40
0.7768645207
 40
0.8332130598
 40
0.8888639059
 40
0.9442852497
 40
1.0
 40
1.0
 40
1.0
 40
1.0
 10
144.352540275
 20
89.5921149174
 30
0.0
 10
144.3380604938
 20
89.6300749002
 30
0.0
 10
144.309708512
 20
89.6841368981
 30
0.0
 10
144.25902903
 20
89.7448314654
 30
0.0
 10
144.2164507043
 20
89.781712324
 30
0.0
 10
144.1698069319
 20
89.808637246
 30
0.0
 10
144.1281209849
 20
89.8211888359
 30
0.0
 10
144.0948009188
 20
89.8240099334
 30
0.0
 10
144.0702675996
 20
89.822489052
 30
0.0
 10
144.0463456379
 20
89.8172663383
 30
0.0
 10
144.0311233824
 20
89.8113541122
 30
0.0
 10
144.0237734425
 20
89.8078365649
 30
0.0
  0
SPLINE
  5
3EA
100
AcDbEntity
  8
349160010_
100
AcDbSpline
 62
7
  6
CONTINUOUS
 70
0
 71
3
 72
9
 73
5
 74
0
 42
0.0000001
 43
0.0000001
 44
0.0000000001
 40
0.0
 40
0.0
 40
0.0
 40
0.0
 40
0.2656286414
 40
1.0
 40
1.0
 40
1.0
 40
1.0
 10
133.9270910538
 20
87.4367234092
 30
0.0
 10
133.9325360879
 20
87.4394459263
 30
0.0
 10
133.9533957612
 20
87.4489173971
 30
0.0
 10
133.9758999499
 20
87.4550749411
 30
0.0
 10
133.9926434575
 20
87.456783721
 30
0.0
  0
SPLINE
  5
3EB
100
AcDbEntity
  8
349160010_
100
AcDbSpline
 62
7
  6
CONTINUOUS
 70
0
 71
3
 72
11
 73
7
 74
0
 42
0.0000001
 43
0.0000001
 44
0.0000000001
 40
0.0
 40
0.0
 40
0.0
 40
0.0
 40
0.246822998
 40
0.5117832723
 40
0.7702964853
 40
1.0
 40
1.0
 40
1.0
 40
1.0
 10
133.3513908869
 20
86.8890657046
 30
0.0
 10
133.3513908869
 20
86.9253046108
 30
0.0
 10
133.3638902977
 20
87.0005769929
 30
0.0
 10
133.4091917961
 20
87.1052441087
 30
0.0
 10
133.4757200512
 20
87.1947707758
 30
0.0
 10
133.5333580073
 20
87.239856886
 30
0.0
 10
133.5635229212
 20
87.2549393429
 30
0.0
  0
SPLINE
  5
3EC
100
AcDbEntity
  8
349160010_
100
AcDbSpline
 62
7
  6
CONTINUOUS
 70
0
 71
3
 72
12
 73
8
 74
0
 42
0.0000001
 43
0.0000001
 44
0.0000000001
 40
0.0
 40
0.0
 40
0.0
 40
0.0
 40
0.244044081
 40
0.5170216051
 40
0.7809852567
 40
0.8980924233
 40
1.0
 40
1.0
 40
1.0
 40
1.0
 10
133.1497803935
 20
89.3290673842
 30
0.0
 10
133.1290842812
 20
89.3394154403
 30
0.0
 10
133.0832076034
 20
89.3572666173
 30
0.0
 10
133.0115199562
 20
89.3761954887
 30
0.0
 10
132.950040854
 20
89.3856053855
 30
0.0
 10
132.9042682726
 20
89.3878091533
 30
0.0
 10
132.8834717381
 20
89.3870325306
 30
0.0
 10
132.8738593349
 20
89.3860515246
 30
0.0
  0
SPLINE
  5
3ED
100
AcDbEntity
  8
349160010_
100
AcDbSpline
 62
7
  6
CONTINUOUS
 70
0
 71
3
 72
12
 73
8
 74
0
 42
0.0000001
 43
0.0000001
 44
0.0000000001
 40
0.0
 40
0.0
 40
0.0
 40
0.0
 40
0.244044081
 40
0.5170216051
 40
0.7809852567
 40
0.8980924233
 40
1.0
 40
1.0
 40
1.0
 40
1.0
 10
129.1192717408
 20
91.3443217106
 30
0.0
 10
129.0985756285
 20
91.3546697667
 30
0.0
 10
129.0526989506
 20
91.3725209437
 30
0.0
 10
128.9810113035
 20
91.3914498151
 30
0.0
 10
128.9195322012
 20
91.4008597119
 30
0.0
 10
128.8737596199
 20
91.4030634797
 30
0.0
 10
128.8529630853
 20
91.4022868569
 30
0.0
 10
128.8433506822
 20
91.4013058509
 30
0.0
  0
ELLIPSE
  5
3EE
100
AcDbEntity
  8
290160010
100
AcDbEllipse
 62
7
  6
CONTINUOUS
 10
135.0091849545
 20
46.7619557154
 30
0.0
 11
-0.104420145
 21
0.2814790505
 31
0.0
 40
0.6608017523
 41
-3.1755736989
 42
-2.1865485768
  0
ELLIPSE
  5
3EF
100
AcDbEntity
  8
290160010
100
AcDbEllipse
 62
7
  6
CONTINUOUS
 10
137.5813228477
 20
78.0202963337
 30
0.0
 11
-0.1042257897
 21
0.2813673218
 31
0.0
 40
0.6615609576
 41
-2.1854202306
 42
-0.615232984
  0
ELLIPSE
  5
3F0
100
AcDbEntity
  8
268160210
100
AcDbEllipse
 62
7
  6
CONTINUOUS
 10
133.8235507196
 20
64.8575423067
 30
0.0
 11
6.8993077073
 21
13.3201938412
 31
0.0
 40
0.6229838795
 41
0.3057595196
 42
0.6936054221
  0
ELLIPSE
  5
3F1
100
AcDbEntity
  8
268160210
100
AcDbEllipse
 62
7
  6
CONTINUOUS
 10
137.7001043225
 20
85.2227142813
 30
0.0
 11
-0.1118151638
 21
0.2236219863
 31
0.0
 40
0.6123267458
 41
-0.6846978779
 42
0.0095104069
  0
ELLIPSE
  5
3F2
100
AcDbEntity
  8
268160210
100
AcDbEllipse
 62
7
  6
CONTINUOUS
 10
121.5780899082
 20
93.2837214885
 30
0.0
 11
-0.1118523001
 21
0.2236266191
 31
0.0
 40
0.6122950388
 41
-0.6847996396
 42
0.0137852339
  0
ELLIPSE
  5
3F3
100
AcDbEntity
  8
268160210
100
AcDbEllipse
 62
7
  6
CONTINUOUS
 10
129.2288544225
 20
94.0183103608
 30
0.0
 11
0.9999938762
 21
-0.0070751823
 31
0.0
 40
0.4946372042
 41
0.7888978189
 42
2.3509674995
  0
ELLIPSE
  5
3F4
100
AcDbEntity
  8
268160210
100
AcDbEllipse
 62
7
  6
CONTINUOUS
 10
138.7607308349
 20
43.5562108338
 30
0.0
 11
-0.1118523001
 21
0.2236266191
 31
0.0
 40
0.6122950388
 41
-3.1553778885
 42
-2.2557482655
  0
ELLIPSE
  5
3F5
100
AcDbEntity
  8
268160210
100
AcDbEllipse
 62
7
  6
CONTINUOUS
 10
138.7607308349
 20
84.6924010252
 30
0.0
 11
-0.1118222789
 21
0.2235999171
 31
0.0
 40
0.6124778111
 41
-2.255529033
 42
-0.6848850053
  0
ELLIPSE
  5
3F6
100
AcDbEntity
  8
268160210
100
AcDbEllipse
 62
7
  6
CONTINUOUS
 10
122.6387164205
 20
92.7534082323
 30
0.0
 11
-0.1118001475
 21
0.2236086385
 31
0.0
 40
0.6124181287
 41
-2.2554606976
 42
-0.6847405232
  0
ELLIPSE
  5
3F7
100
AcDbEntity
  8
268160210
100
AcDbEllipse
 62
7
  6
CONTINUOUS
 10
139.361798527
 20
89.1949309252
 30
0.0
 11
0.9980068092
 21
-0.2399287748
 31
0.0
 40
0.2630210944
 41
1.892015834
 42
2.4193427802
  0
ELLIPSE
  5
3F8
100
AcDbEntity
  8
268160210
100
AcDbEllipse
 62
7
  6
CONTINUOUS
 10
140.3742491667
 20
88.6288836326
 30
0.0
 11
0.3472651546
 21
0.6704497567
 31
0.0
 40
0.6229838795
 41
0.0088862197
 42
0.6936054221
  0
ELLIPSE
  5
3F9
100
AcDbEntity
  8
268160210
100
AcDbEllipse
 62
7
  6
CONTINUOUS
 10
130.3558879577
 20
93.6380642371
 30
0.0
 11
0.3424075876
 21
0.6729038513
 31
0.0
 40
0.6176975122
 41
0.004358182
 42
0.6890773845
  0
ELLIPSE
  5
3FA
100
AcDbEntity
  8
268160210
100
AcDbEllipse
 62
7
  6
CONTINUOUS
 10
137.7144705191
 20
78.2005914927
 30
0.0
 11
0.321967693
 21
0.6216090459
 31
0.0
 40
0.6229838795
 41
-0.8771909047
 42
0.3057595196
  0
ELLIPSE
  5
3FB
100
AcDbEntity
  8
268160210
100
AcDbEllipse
 62
7
  6
CONTINUOUS
 10
133.8235507196
 20
58.275749238
 30
0.0
 11
6.8993077073
 21
13.3201938412
 31
0.0
 40
0.6229838795
 41
3.8351980757
 42
4.2230439782
  0
ELLIPSE
  5
3FC
100
AcDbEntity
  8
268160210
100
AcDbEllipse
 62
7
  6
CONTINUOUS
 10
137.7144705191
 20
48.690117626
 30
0.0
 11
0.321967693
 21
0.6216090459
 31
0.0
 40
0.6229838795
 41
-2.0601413289
 42
-0.8771909047
  0
ELLIPSE
  5
3FD
100
AcDbEntity
  8
268160210
100
AcDbEllipse
 62
7
  6
CONTINUOUS
 10
120.6816473535
 20
91.1549618098
 30
0.0
 11
0.9733704753
 21
0.006985661
 31
0.0
 40
0.5053247124
 41
3.1379660677
 42
5.4854339116
  0
ELLIPSE
  5
3FE
100
AcDbEntity
  8
268160210
100
AcDbEllipse
 62
7
  6
CONTINUOUS
 10
136.7910954821
 20
83.1002377455
 30
0.0
 11
0.9733704753
 21
0.006985661
 31
0.0
 40
0.5053247124
 41
3.1379660678
 42
4.7437533698
  0
ELLIPSE
  5
3FF
100
AcDbEntity
  8
268160210
100
AcDbEllipse
 62
7
  6
CONTINUOUS
 10
132.2907307151
 20
92.7304648312
 30
0.0
 11
0.9980068092
 21
-0.2399287748
 31
0.0
 40
0.2630210944
 41
-0.7222498733
 42
-0.1949229271
  0
ELLIPSE
  5
400
100
AcDbEntity
  8
268160210
100
AcDbEllipse
 62
7
  6
CONTINUOUS
 10
135.9811095882
 20
52.4839456952
 30
0.0
 11
-0.5425076645
 21
0.8448521158
 31
0.0
 40
0.5465586794
 41
-3.2003291465
 42
-2.3142520245
  0
ELLIPSE
  5
401
100
AcDbEntity
  8
268160210
100
AcDbEllipse
 62
7
  6
CONTINUOUS
 10
141.6431236071
 20
87.9944464124
 30
0.0
 11
0.3329775165
 21
0.6776194794
 31
0.0
 40
0.607010042
 41
5.3929141747
 42
6.9637105015
  0
ELLIPSE
  5
402
100
AcDbEntity
  8
268160210
100
AcDbEllipse
 62
7
  6
CONTINUOUS
 10
131.6247623981
 20
93.0036270169
 30
0.0
 11
0.3283977615
 21
0.6798881985
 31
0.0
 40
0.6016116119
 41
5.3888788736
 42
6.9596752004
  0
ELLIPSE
  5
403
100
AcDbEntity
  8
268160210
100
AcDbEllipse
 62
7
  6
CONTINUOUS
 10
131.6247623981
 20
92.4636525574
 30
0.0
 11
0.3283977615
 21
0.6798881985
 31
0.0
 40
0.6016116119
 41
-0.0082293099
 42
0.3274240428
  0
ELLIPSE
  5
404
100
AcDbEntity
  8
268160210
100
AcDbEllipse
 62
7
  6
CONTINUOUS
 10
122.8996275459
 20
89.220961374
 30
0.0
 11
0.8189691469
 21
0.0058775574
 31
0.0
 40
0.5053247124
 41
3.1379660665
 42
5.4854339116
  0
ELLIPSE
  5
405
100
AcDbEntity
  8
268160210
100
AcDbEllipse
 62
7
  6
CONTINUOUS
 10
132.9405438388
 20
84.2005032276
 30
0.0
 11
0.8189691469
 21
0.0058775574
 31
0.0
 40
0.5053247124
 41
3.1379660665
 42
5.4854339116
  0
ELLIPSE
  5
406
100
AcDbEntity
  8
218160250
100
AcDbEllipse
 62
7
  6
CONTINUOUS
 10
143.2508858235
 20
84.8750156521
 30
0.0
 11
2.7999828534
 21
-0.0198105105
 31
0.0
 40
0.4946372042
 41
0.702199234
 42
0.8090728409
  0
ELLIPSE
  5
407
100
AcDbEntity
  8
218160250
100
AcDbEllipse
 62
7
  6
CONTINUOUS
 10
144.4956479495
 20
47.1161814918
 30
0.0
 11
0.4349639225
 21
0.9005141702
 31
0.0
 40
0.6016116119
 41
-2.4476494678
 42
-0.8943064336
  0
ELLIPSE
  5
408
100
AcDbEntity
  8
218160250
100
AcDbEllipse
 62
7
  6
CONTINUOUS
 10
127.1568812925
 20
95.38060508
 30
0.0
 11
0.4599538472
 21
0.8880129227
 31
0.0
 40
0.6229838795
 41
0.0088862191
 42
0.6761521296
  0
ELLIPSE
  5
409
100
AcDbEntity
  8
218160250
100
AcDbEllipse
 62
7
  6
CONTINUOUS
 10
143.2834147557
 20
87.3173383484
 30
0.0
 11
0.4599538472
 21
0.8880129227
 31
0.0
 40
0.6229838795
 41
0.0088862191
 42
0.6761521296
  0
ELLIPSE
  5
40A
100
AcDbEntity
  8
218160250
100
AcDbEllipse
 62
7
  6
CONTINUOUS
 10
128.3691144863
 20
94.7744884831
 30
0.0
 11
0.4349639225
 21
0.9005141702
 31
0.0
 40
0.6016116119
 41
5.3888788736
 42
6.9422219079
  0
ELLIPSE
  5
40B
100
AcDbEntity
  8
218160250
100
AcDbEllipse
 62
7
  6
CONTINUOUS
 10
144.4956479495
 20
86.7112217515
 30
0.0
 11
0.4349639225
 21
0.9005141702
 31
0.0
 40
0.6016116119
 41
5.3888788736
 42
6.9422219079
  0
ELLIPSE
  5
40C
100
AcDbEntity
  8
218160250
100
AcDbEllipse
 62
7
  6
CONTINUOUS
 10
144.5590333687
 20
89.0469376953
 30
0.0
 11
-0.1359065998
 21
0.3730747907
 31
0.0
 40
0.3932964445
 41
-3.103320388
 42
-3.0945940741
  0
ENDSEC
  0
SECTION
  2
OBJECTS
  0
DICTIONARY
  5
C
100
AcDbDictionary
280
0
281
1
  3
ACAD_GROUP
350
D
  3
ACAD_MLINESTYLE
350
17
  3
ACAD_LAYOUT
350
1A
  3
ACAD_PLOTSETTINGS
350
19
  3
ACAD_PLOTSTYLENAME
350
E
  0
DICTIONARY
  5
D
102
{ACAD_REACTORS
330
C
102
}
100
AcDbDictionary
280
0
281
1
  0
ACDBDICTIONARYWDFLT
  5
E
102
{ACAD_REACTORS
330
C
102
}
100
AcDbDictionary
281
1
  3
Normal
350
F
100
AcDbDictionaryWithDefault
340
F
  0
DICTIONARY
  5
17
102
{ACAD_REACTORS
330
C
102
}
100
AcDbDictionary
280
0
281
1
  3
Standard
350
18
  0
DICTIONARY
  5
19
102
{ACAD_REACTORS
330
C
102
}
100
AcDbDictionary
281
1
  0
DICTIONARY
  5
1A
102
{ACAD_REACTORS
330
C
102
}
100
AcDbDictionary
281
1
  3
Model
350
40D
  3
Layout1
350
40E
  0
ACDBPLACEHOLDER
  5
F
102
{ACAD_REACTORS
330
E
102
}
  0
MLINESTYLE
  5
18
102
{ACAD_REACTORS
330
17
102
}
100
AcDbMlineStyle
  2
STANDARD
 70
0
  3

 62
256
 51
90.0
 52
90.0
 71
2
 49
0.5
 62
256
  6
BYLAYER
 49
-0.5
 62
256
  6
BYLAYER
  0
LAYOUT
  5
40D
102
{ACAD_REACTORS
330
1A
102
}
100
AcDbPlotSettings
  1

  2
none_device
  4
ISO_A4_(297.00_x_210.00_MM)
  6

 40
0.0
 41
0.0
 42
0.0
 43
0.0
 44
297.0
 45
210.0
 46
0.0
 47
0.0
 48
0.0
 49
0.0
140
0.0
141
0.0
142
1.0
143
1.0
 70
1024
 72
1
 73
0
 74
0
  7

 75
0
147
1.0
148
0.0
149
0.0
100
AcDbLayout
  1
Model
 70
0
 71
0
 10
0.0
 20
0.0
 11
297.0
 21
210.0
 12
0.0
 22
0.0
 32
0.0
 14
0.0
 24
0.0
 34
0.0
 15
0.0
 25
0.0
 35
0.0
146
0.0
 13
0.0
 23
0.0
 33
0.0
 16
1.0
 26
0.0
 36
0.0
 17
0.0
 27
1.0
 37
0.0
 76
0
330
22D
345
0
346
0
  0
LAYOUT
  5
40E
102
{ACAD_REACTORS
330
1A
102
}
100
AcDbPlotSettings
  1

  2
none_device
  4
ISO_A4_(297.00_x_210.00_MM)
  6

 40
0.0
 41
0.0
 42
0.0
 43
0.0
 44
297.0
 45
210.0
 46
0.0
 47
0.0
 48
0.0
 49
0.0
140
0.0
141
0.0
142
1.0
143
1.0
 70
0
 72
1
 73
0
 74
0
  7

 75
0
147
1.0
148
0.0
149
0.0
100
AcDbLayout
  1
Layout1
 70
0
 71
1
 10
0.0
 20
0.0
 11
297.0
 21
210.0
 12
0.0
 22
0.0
 32
0.0
 14
0.0
 24
0.0
 34
0.0
 15
0.0
 25
0.0
 35
0.0
146
0.0
 13
0.0
 23
0.0
 33
0.0
 16
1.0
 26
0.0
 36
0.0
 17
0.0
 27
1.0
 37
0.0
 76
0
330
22E
345
0
346
0
  0
ENDSEC
  0
EOF
