  0
SECTION
  2
HEADER
  9
$ACADVER
  1
AC1024
  9
$DWGCODEPAGE
  3
ANSI_1252
  9
$EXTMAX
 10
297.0
 20
210.0
 30
0.0
  9
$EXTMIN
 10
0.0
 20
0.0
 30
0.0
  9
$LIMMIN
 10
0.0
 20
0.0
  9
$LIMMAX
 10
297.0
 20
210.0
  9
$VIEWCTR
 10
148.5
 20
105.0
  9
$VIEWSIZE
 40
210.0
  9
$CLAYER
  8
0
  9
$LTSCALE
 40
16.335
  9
$CELTYPE
  6
BYLAYER
  9
$DIMSCALE
 40
1.0
  9
$DIMASZ
 40
3.0
  9
$DIMEXO
 40
0.5
  9
$DIMDLI
 40
11.286
  9
$DIMEXE
 40
1.5
  9
$DIMCEN
 40
2.673
  9
$DIMLFAC
 40
1.0
  9
$DIMBLK
  1
_FILLED
  9
$DIMALT
 70
0
  9
$DIMALTF
 40
0.0393700787
  9
$DIMTXT
 40
3.0
  9
$DIMTOL
 70
1
  9
$DIMLIM
 70
0
  9
$DIMTFAC
 40
1.0
  9
$DIMTP
 40
0.01
  9
$DIMTM
 40
0.01
  9
$DIMGAP
 40
0.625
  9
$DIMDSEP
 70
44
  9
$AUNITS
 70
0
  9
$PDMODE
 70
3
  9
$PDSIZE
 40
3.0
  9
$HANDSEED
  5
490
  9
$TILEMODE
 70
1
  9
$MEASUREMENT
 70
1
  9
$INSUNITS
 70
4
  0
ENDSEC
  0
SECTION
  2
CLASSES
  0
CLASS
  1
ACDBDICTIONARYWDFLT
  2
AcDbDictionaryWithDefault
  3
AutoCAD 2000
 90
0
 91
1
280
0
281
0
  0
CLASS
  1
ACDBPLACEHOLDER
  2
AcDbPlaceHolder
  3
AutoCAD 2000
 90
0
 91
1
280
0
281
0
  0
CLASS
  1
LAYOUT
  2
AcDbLayout
  3
AutoCAD 2000
 90
0
 91
0
280
0
281
0
  0
ENDSEC
  0
SECTION
  2
TABLES
  0
TABLE
  2
VPORT
  5
8
100
AcDbSymbolTable
 70
2
  0
VPORT
  5
1F4
100
AcDbSymbolTableRecord
100
AcDbViewportTableRecord
  2
*ACTIVE
 70
0
 10
0.0
 20
0.0
 11
1.0
 21
1.0
 12
148.5
 22
105.0
 13
0.0
 23
0.0
 14
1.0
 24
1.0
 15
0.0
 25
0.0
 16
0.0
 26
0.0
 36
1.0
 17
0.0
 27
0.0
 37
0.0
 40
210.0
 41
1.4142857143
 42
50.0
 43
0.0
 44
0.0
 50
0.0
 51
0.0
 71
0
 72
100
 73
1
 74
1
 75
0
 76
0
 77
0
 78
0
  0
ENDTAB
  0
TABLE
  2
LTYPE
  5
5
100
AcDbSymbolTable
 70
6
  0
LTYPE
  5
14
100
AcDbSymbolTableRecord
100
AcDbLinetypeTableRecord
  2
BYBLOCK
 70
0
  3

 72
65
 73
0
 40
0.0
  0
LTYPE
  5
15
100
AcDbSymbolTableRecord
100
AcDbLinetypeTableRecord
  2
BYLAYER
 70
0
  3

 72
65
 73
0
 40
0.0
  0
LTYPE
  5
16
100
AcDbSymbolTableRecord
100
AcDbLinetypeTableRecord
  2
CONTINUOUS
 70
64
  3
Solid line
 72
65
 73
0
 40
0.0
  0
LTYPE
  5
1F5
100
AcDbSymbolTableRecord
100
AcDbLinetypeTableRecord
  2
CENTER
 70
64
  3
____ _ ____ _ ____ _ ____ _ ____ _ ____ _ ____
 72
65
 73
4
 40
0.6
 49
0.375
 74
0
 49
-0.075
 74
0
 49
0.075
 74
0
 49
-0.075
 74
0
  0
LTYPE
  5
1F6
100
AcDbSymbolTableRecord
100
AcDbLinetypeTableRecord
  2
HIDDEN
 70
64
  3
- - - - - - - - - - - - - - - - - - - -
 72
65
 73
2
 40
0.2
 49
0.1
 74
0
 49
-0.1
 74
0
  0
LTYPE
  5
1F7
100
AcDbSymbolTableRecord
100
AcDbLinetypeTableRecord
  2
PHANTOM
 70
64
  3
_____ _ _ _____ _ _ _____ _ _ _____
 72
65
 73
6
 40
0.8
 49
0.45
 74
0
 49
-0.05
 74
0
 49
0.1
 74
0
 49
-0.05
 74
0
 49
0.1
 74
0
 49
-0.05
 74
0
  0
LTYPE
  5
1F8
100
AcDbSymbolTableRecord
100
AcDbLinetypeTableRecord
  2
DOT
 70
64
  3
. . . . . . . . . . . . . . . . . . . .
 72
65
 73
2
 40
0.2
 49
0.1
 74
0
 49
-0.1
 74
0
  0
LTYPE
  5
1F9
100
AcDbSymbolTableRecord
100
AcDbLinetypeTableRecord
  2
DASHED
 70
64
  3
- - - - - - - - - - - - - - - - - - - -
 72
65
 73
2
 40
0.2
 49
0.1
 74
0
 49
-0.1
 74
0
  0
ENDTAB
  0
TABLE
  2
LAYER
  5
2
100
AcDbSymbolTable
 70
36
  0
LAYER
  5
10
100
AcDbSymbolTableRecord
100
AcDbLayerTableRecord
  2
0
 70
0
 62
7
  6
CONTINUOUS
370
-3
390
F
  0
LAYER
  5
1FA
100
AcDbSymbolTableRecord
100
AcDbLayerTableRecord
  2
DEFAULT_1
 70
0
 62
7
  6
CENTER
370
-3
390
F
  0
LAYER
  5
1FB
100
AcDbSymbolTableRecord
100
AcDbLayerTableRecord
  2
DEFAULT_2
 70
0
 62
7
  6
HIDDEN
370
-3
390
F
  0
LAYER
  5
1FC
100
AcDbSymbolTableRecord
100
AcDbLayerTableRecord
  2
DEFAULT_3
 70
0
 62
7
  6
PHANTOM
370
-3
390
F
  0
LAYER
  5
1FD
100
AcDbSymbolTableRecord
100
AcDbLayerTableRecord
  2
ASSI
 70
0
 62
7
  6
CONTINUOUS
370
-3
390
F
  0
LAYER
  5
1FE
100
AcDbSymbolTableRecord
100
AcDbLayerTableRecord
  2
COORDINATE
 70
0
 62
7
  6
CONTINUOUS
370
-3
390
F
  0
LAYER
  5
1FF
100
AcDbSymbolTableRecord
100
AcDbLayerTableRecord
  2
COORD_ORIGINE
 70
0
 62
7
  6
CONTINUOUS
370
-3
390
F
  0
LAYER
  5
200
100
AcDbSymbolTableRecord
100
AcDbLayerTableRecord
  2
COSMETICHE
 70
0
 62
7
  6
CONTINUOUS
370
-3
390
F
  0
LAYER
  5
201
100
AcDbSymbolTableRecord
100
AcDbLayerTableRecord
  2
COSMETICI
 70
0
 62
7
  6
CONTINUOUS
370
-3
390
F
  0
LAYER
  5
202
100
AcDbSymbolTableRecord
100
AcDbLayerTableRecord
  2
CURVE
 70
0
 62
7
  6
CONTINUOUS
370
-3
390
F
  0
LAYER
  5
203
100
AcDbSymbolTableRecord
100
AcDbLayerTableRecord
  2
DRAFT
 70
0
 62
7
  6
CONTINUOUS
370
-3
390
F
  0
LAYER
  5
204
100
AcDbSymbolTableRecord
100
AcDbLayerTableRecord
  2
IMPORT
 70
0
 62
7
  6
CONTINUOUS
370
-3
390
F
  0
LAYER
  5
205
100
AcDbSymbolTableRecord
100
AcDbLayerTableRecord
  2
INCISIONI
 70
0
 62
7
  6
CONTINUOUS
370
-3
390
F
  0
LAYER
  5
206
100
AcDbSymbolTableRecord
100
AcDbLayerTableRecord
  2
INTF_1
 70
0
 62
7
  6
CONTINUOUS
370
-3
390
F
  0
LAYER
  5
207
100
AcDbSymbolTableRecord
100
AcDbLayerTableRecord
  2
INTF_11
 70
0
 62
7
  6
CONTINUOUS
370
-3
390
F
  0
LAYER
  5
208
100
AcDbSymbolTableRecord
100
AcDbLayerTableRecord
  2
INTF_13
 70
0
 62
7
  6
CONTINUOUS
370
-3
390
F
  0
LAYER
  5
209
100
AcDbSymbolTableRecord
100
AcDbLayerTableRecord
  2
INTF_2
 70
0
 62
7
  6
CONTINUOUS
370
-3
390
F
  0
LAYER
  5
20A
100
AcDbSymbolTableRecord
100
AcDbLayerTableRecord
  2
LAY0001
 70
0
 62
7
  6
CONTINUOUS
370
-3
390
F
  0
LAYER
  5
20B
100
AcDbSymbolTableRecord
100
AcDbLayerTableRecord
  2
NOTE
 70
0
 62
7
  6
CONTINUOUS
370
-3
390
F
  0
LAYER
  5
20C
100
AcDbSymbolTableRecord
100
AcDbLayerTableRecord
  2
PIANI
 70
0
 62
7
  6
CONTINUOUS
370
-3
390
F
  0
LAYER
  5
20D
100
AcDbSymbolTableRecord
100
AcDbLayerTableRecord
  2
PIANI_DI_RIFERIMENTO
 70
0
 62
7
  6
CONTINUOUS
370
-3
390
F
  0
LAYER
  5
20E
100
AcDbSymbolTableRecord
100
AcDbLayerTableRecord
  2
PIANI_ORIGINE
 70
0
 62
7
  6
CONTINUOUS
370
-3
390
F
  0
LAYER
  5
20F
100
AcDbSymbolTableRecord
100
AcDbLayerTableRecord
  2
PUNTI
 70
0
 62
7
  6
CONTINUOUS
370
-3
390
F
  0
LAYER
  5
210
100
AcDbSymbolTableRecord
100
AcDbLayerTableRecord
  2
RACCORDO
 70
0
 62
7
  6
CONTINUOUS
370
-3
390
F
  0
LAYER
  5
211
100
AcDbSymbolTableRecord
100
AcDbLayerTableRecord
  2
RGB__255__255__255__
 70
0
 62
7
  6
CONTINUOUS
370
-3
390
F
  0
LAYER
  5
212
100
AcDbSymbolTableRecord
100
AcDbLayerTableRecord
  2
RIFERIMENTI
 70
0
 62
7
  6
CONTINUOUS
370
-3
390
F
  0
LAYER
  5
213
100
AcDbSymbolTableRecord
100
AcDbLayerTableRecord
  2
SMUSSO
 70
0
 62
7
  6
CONTINUOUS
370
-3
390
F
  0
LAYER
  5
214
100
AcDbSymbolTableRecord
100
AcDbLayerTableRecord
  2
SNAPLINE
 70
0
 62
7
  6
CONTINUOUS
370
-3
390
F
  0
LAYER
  5
215
100
AcDbSymbolTableRecord
100
AcDbLayerTableRecord
  2
SUPERFICI
 70
0
 62
7
  6
CONTINUOUS
370
-3
390
F
  0
LAYER
  5
216
100
AcDbSymbolTableRecord
100
AcDbLayerTableRecord
  2
TRACCIABILITA
 70
0
 62
7
  6
CONTINUOUS
370
-3
390
F
  0
LAYER
  5
217
100
AcDbSymbolTableRecord
100
AcDbLayerTableRecord
  2
TRASH
 70
0
 62
7
  6
CONTINUOUS
370
-3
390
F
  0
LAYER
  5
218
100
AcDbSymbolTableRecord
100
AcDbLayerTableRecord
  2
XSEC_DATUMS
 70
0
 62
7
  6
CONTINUOUS
370
-3
390
F
  0
ENDTAB
  0
TABLE
  2
STYLE
  5
3
100
AcDbSymbolTable
 70
1
  0
STYLE
  5
11
100
AcDbSymbolTableRecord
100
AcDbTextStyleTableRecord
  2
STANDARD
 70
0
 40
0.0
 41
0.8
 50
0.0
 71
0
 42
0.2
  3
txt
  4

  0
STYLE
  5
219
100
AcDbSymbolTableRecord
100
AcDbTextStyleTableRecord
  2
TEXTSTYLE_1
 70
0
 40
0.0
 41
0.8
 50
0.0
 71
0
 42
0.2
  3
gdt
  4

  0
ENDTAB
  0
TABLE
  2
VIEW
  5
6
100
AcDbSymbolTable
 70
0
  0
ENDTAB
  0
TABLE
  2
UCS
  5
7
100
AcDbSymbolTable
 70
0
  0
ENDTAB
  0
TABLE
  2
APPID
  5
9
100
AcDbSymbolTable
 70
1
  0
APPID
  5
21A
100
AcDbSymbolTableRecord
100
AcDbRegAppTableRecord
  2
ACAD
 70
0
  0
ENDTAB
  0
TABLE
  2
BLOCK_RECORD
  5
1
100
AcDbSymbolTable
 70
0
  0
BLOCK_RECORD
  5
21B
100
AcDbSymbolTableRecord
100
AcDbBlockTableRecord
  2
*Model_Space
  0
BLOCK_RECORD
  5
21C
100
AcDbSymbolTableRecord
100
AcDbBlockTableRecord
  2
*Paper_Space
  0
BLOCK_RECORD
  5
21D
100
AcDbSymbolTableRecord
100
AcDbBlockTableRecord
  2
_FILLED
  0
ENDTAB
  0
TABLE
  2
DIMSTYLE
  5
A
100
AcDbSymbolTable
 70
1
100
AcDbDimStyleTable
 71
0
  0
DIMSTYLE
105
21E
100
AcDbSymbolTableRecord
100
AcDbDimStyleTableRecord
  2
STANDARD
 70
0
  3

  4

 40
1.0
 41
3.0
 42
0.5
 43
0.38
 44
1.5
 45
0.0
 46
0.0
 47
0.01
 48
0.01
140
3.0
141
0.09
142
0.0
143
25.4
144
1.0
145
0.0
146
1.0
147
0.625
 71
1
 72
0
 73
0
 74
0
 75
0
 76
0
 77
1
 78
8
 79
2
170
0
171
1
172
0
173
0
174
0
175
0
176
0
177
0
178
0
270
2
179
2
271
2
272
2
273
2
274
2
275
0
280
0
281
0
282
0
283
1
284
8
285
0
286
0
287
3
288
0
340
11
278
44
341
21D
342
21D
343
21D
344
21D
  0
ENDTAB
  0
ENDSEC
  0
SECTION
  2
BLOCKS
  0
BLOCK
  5
20
100
AcDbEntity
  8
0
100
AcDbBlockBegin
  2
*Model_Space
 70
0
 10
0.0
 20
0.0
 30
0.0
  3
*Model_Space
  1

  0
ENDBLK
  5
21
100
AcDbEntity
  8
0
100
AcDbBlockEnd
  0
BLOCK
  5
1C
100
AcDbEntity
  8
0
100
AcDbBlockBegin
  2
*Paper_Space
 70
0
 10
0.0
 20
0.0
 30
0.0
  3
*Paper_Space
  1

  0
ENDBLK
  5
1D
100
AcDbEntity
  8
0
100
AcDbBlockEnd
  0
BLOCK
  5
21F
100
AcDbEntity
  8
0
100
AcDbBlockBegin
  2
_FILLED
 70
64
 10
0.0
 20
0.0
  3
_FILLED
  1

  0
SOLID
  5
220
100
AcDbEntity
  8
0
  6
BYBLOCK
 62
0
100
AcDbTrace
 10
0.0
 20
0.0
 11
-1.0
 21
0.3166666667
 12
-1.0
 22
-0.3166666667
 13
-1.0
 23
-0.3166666667
  0
ENDBLK
  5
221
100
AcDbEntity
  8
0
  6
BYBLOCK
 62
0
100
AcDbBlockEnd
  0
ENDSEC
  0
SECTION
  2
ENTITIES
  0
LWPOLYLINE
  5
222
100
AcDbEntity
  8
ASSI
100
AcDbPolyline
 62
7
  6
CONTINUOUS
 90
13
 70
0
 10
-6.1051805821
 20
-27.8487976166
 10
-6.0576376098
 20
-27.8784331603
 10
-6.0106037497
 20
-27.9009123391
 10
-5.9604924626
 20
-27.9185777269
 10
-5.9076262591
 20
-27.9311222117
 10
-5.8524118662
 20
-27.9382813841
 10
-5.7949184143
 20
-27.9398507186
 10
-5.7351513877
 20
-27.9355560624
 10
-5.673547078
 20
-27.9251749585
 10
-5.6105725462
 20
-27.9085987454
 10
-5.5463837055
 20
-27.8856858883
 10
-5.4810025755
 20
-27.8562489875
 10
-5.4720789377
 20
-27.8517598107
  0
LINE
  5
223
100
AcDbEntity
  8
ASSI
100
AcDbLine
 62
7
  6
CONTINUOUS
 10
-22.9339724757
 20
-15.9490619348
 11
-6.105203963
 21
-27.8487982691
  0
LINE
  5
224
100
AcDbEntity
  8
ASSI
100
AcDbLine
 62
250
  6
CONTINUOUS
 10
-23.0615990571
 20
-15.6611864925
 11
-6.2359891044
 21
-27.5586893876
  0
LINE
  5
225
100
AcDbEntity
  8
RACCORDO
100
AcDbLine
 62
7
  6
CONTINUOUS
 10
-5.0036686491
 20
-27.613099979
 11
-2.8128927452
 21
-29.1622124767
  0
LINE
  5
226
100
AcDbEntity
  8
RACCORDO
100
AcDbLine
 62
250
  6
CONTINUOUS
 10
-4.9574875589
 20
-27.5895687232
 11
-2.8453318732
 21
-29.0830883315
  0
LWPOLYLINE
  5
227
100
AcDbEntity
  8
ASSI
100
AcDbPolyline
 62
250
  6
CONTINUOUS
 90
9
 70
0
 10
-22.9339724757
 20
-15.9490619348
 10
-22.9530659719
 20
-15.9340864348
 10
-22.9796718495
 20
-15.9072503005
 10
-23.0027060824
 20
-15.8760583629
 10
-23.0220839684
 20
-15.840685051
 10
-23.037738819
 20
-15.8012843146
 10
-23.0495887912
 20
-15.7580564546
 10
-23.0575569468
 20
-15.7112684461
 10
-23.0615990571
 20
-15.6611864925
  0
LWPOLYLINE
  5
228
100
AcDbEntity
  8
ASSI
100
AcDbPolyline
 62
250
  6
CONTINUOUS
 90
7
 70
0
 10
-23.1493907312
 20
-15.5149676165
 10
-23.146644923
 20
-15.5386485153
 10
-23.1388129717
 20
-15.5661287175
 10
-23.1261421627
 20
-15.5925515044
 10
-23.1088445165
 20
-15.6174747439
 10
-23.0872094742
 20
-15.6404813959
 10
-23.0615990547
 20
-15.6611864906
  0
LWPOLYLINE
  5
229
100
AcDbEntity
  8
ASSI
100
AcDbPolyline
 62
7
  6
CONTINUOUS
 90
12
 70
0
 10
-23.1493789344
 20
-15.5149671447
 10
-23.1460322056
 20
-15.5616148426
 10
-23.138446038
 20
-15.61441992
 10
-23.126903977
 20
-15.6651045313
 10
-23.1113665294
 20
-15.7136397802
 10
-23.0918846047
 20
-15.7597623855
 10
-23.06871907
 20
-15.8029225897
 10
-23.0420610186
 20
-15.842923839
 10
-23.012146902
 20
-15.8795532425
 10
-22.9796101299
 20
-15.9123000884
 10
-22.9450040125
 20
-15.9409997172
 10
-22.9334144845
 20
-15.9494383477
  0
LINE
  5
22A
100
AcDbEntity
  8
ASSI
100
AcDbLine
 62
7
  6
CONTINUOUS
 10
-23.1493933427
 20
-15.5149025402
 11
-23.1493907312
 21
-15.5149676165
  0
LWPOLYLINE
  5
22B
100
AcDbEntity
  8
ASSI
100
AcDbPolyline
 62
250
  6
CONTINUOUS
 90
10
 70
0
 10
-23.0615990571
 20
-15.6611864925
 10
-23.1523882132
 20
-13.0942326697
 10
-23.2204862955
 20
-10.5099550445
 10
-23.2658879765
 20
-7.9085523703
 10
-23.2885897044
 20
-5.2902247193
 10
-23.2885897044
 20
-2.6551733952
 10
-23.2658879764
 20
-0.0036009165
 10
-23.2204862955
 20
2.6642889028
 10
-23.1523882132
 20
5.3482909679
 10
-23.0615990571
 20
8.0481989908
  0
LWPOLYLINE
  5
22C
100
AcDbEntity
  8
ASSI
100
AcDbPolyline
 62
250
  6
CONTINUOUS
 90
8
 70
0
 10
-23.1494161056
 20
8.2006981569
 10
-23.1494917317
 20
8.1938152479
 10
-23.1466283724
 20
8.167181673
 10
-23.1387955443
 20
8.1409252502
 10
-23.126124304
 20
8.1154852951
 10
-23.1088266635
 20
8.0912874623
 10
-23.0871920422
 20
8.0687366234
 10
-23.0615824249
 20
8.0482100932
  0
LWPOLYLINE
  5
22D
100
AcDbEntity
  8
ASSI
100
AcDbPolyline
 62
7
  6
CONTINUOUS
 90
10
 70
0
 10
-23.1494189654
 20
8.2010214674
 10
-23.2389980492
 20
5.5420459278
 10
-23.3077265636
 20
2.844691733
 10
-23.3535429061
 20
0.1635578411
 10
-23.3764412183
 20
-2.5011194652
 10
-23.3764199993
 20
-5.1491462083
 10
-23.3534785483
 20
-7.7803443624
 10
-23.3076169965
 20
-10.3945209525
 10
-23.2388398301
 20
-12.9914470263
 10
-23.1493933427
 20
-15.5149025402
  0
LWPOLYLINE
  5
22E
100
AcDbEntity
  8
ASSI
100
AcDbPolyline
 62
250
  6
CONTINUOUS
 90
18
 70
0
 10
-23.0615990571
 20
8.0481989908
 10
-23.057559146
 20
8.1041211289
 10
-23.0495936302
 20
8.1624482949
 10
-23.0377436575
 20
8.222853549
 10
-23.0220808422
 20
8.2849738971
 10
-23.0026855211
 20
8.3484828527
 10
-22.979631688
 20
8.4130969309
 10
-22.9530094677
 20
8.4785155846
 10
-22.9229755755
 20
8.5443081956
 10
-22.889739023
 20
8.6099896919
 10
-22.8534941583
 20
8.6751861237
 10
-22.8144506276
 20
8.7395258731
 10
-22.7728955812
 20
8.8025367774
 10
-22.7291295488
 20
8.8638048349
 10
-22.683372051
 20
8.9230606472
 10
-22.6358089066
 20
8.9800629481
 10
-22.5866834488
 20
9.0345181928
 10
-22.5363052806
 20
9.0860933653
  0
LWPOLYLINE
  5
22F
100
AcDbEntity
  8
RACCORDO
100
AcDbPolyline
 62
250
  6
CONTINUOUS
 90
30
 70
0
 10
-19.6829691126
 20
14.5356569034
 10
-19.6921379836
 20
14.5283753915
 10
-19.7012528885
 20
14.5206559228
 10
-19.7102891208
 20
14.5125194217
 10
-19.7192221872
 20
14.5039879425
 10
-19.728027874
 20
14.4950846104
 10
-19.7366823127
 20
14.4858335585
 10
-19.7451620451
 20
14.4762598625
 10
-19.7534440861
 20
14.4663894724
 10
-19.7615059868
 20
14.4562491427
 10
-19.7693258947
 20
14.4458663593
 10
-19.7768826137
 20
14.4352692655
 10
-19.7841556605
 20
14.4244865854
 10
-19.7911253212
 20
14.4135475462
 10
-19.7977727041
 20
14.4024817989
 10
-19.8040797909
 20
14.391319338
 10
-19.8100294859
 20
14.38009042
 10
-19.8156056619
 20
14.3688254817
 10
-19.8207932045
 20
14.3575550575
 10
-19.8255780525
 20
14.3463096966
 10
-19.8299472361
 20
14.3351198803
 10
-19.8338889124
 20
14.3240159394
 10
-19.8373923973
 20
14.3130279718
 10
-19.8404481943
 20
14.3021857611
 10
-19.8430480205
 20
14.291518696
 10
-19.8451848288
 20
14.2810556901
 10
-19.8468528273
 20
14.2708251043
 10
-19.8480474948
 20
14.2608546691
 10
-19.8487655931
 20
14.2511714101
 10
-19.8490051756
 20
14.2418015744
  0
LWPOLYLINE
  5
230
100
AcDbEntity
  8
RACCORDO
100
AcDbPolyline
 62
250
  6
CONTINUOUS
 90
79
 70
0
 10
-16.0535271094
 20
18.3237907066
 10
-16.0732100439
 20
18.3086069533
 10
-16.0919782008
 20
18.2929290476
 10
-16.1098315798
 20
18.2767569896
 10
-16.1267969487
 20
18.2600625986
 10
-16.1428475398
 20
18.2428740553
 10
-16.1579030504
 20
18.2252759009
 10
-16.1719577121
 20
18.2072667688
 10
-16.1850172934
 20
18.1888480256
 10
-16.1970187964
 20
18.1701083137
 10
-16.2079568692
 20
18.1510464309
 10
-16.2178368638
 20
18.1316635794
 10
-16.2266118388
 20
18.112052007
 10
-16.2342765888
 20
18.0922105802
 10
-16.2408363193
 20
18.0721404325
 10
-16.2462597048
 20
18.0519372127
 10
-16.2505413299
 20
18.0316001503
 10
-16.2536866101
 20
18.0111300157
 10
-16.2556804668
 20
17.9906247685
 10
-16.2565173599
 20
17.9700843189
 10
-16.2562028294
 20
17.9495087567
 10
-16.2547384167
 20
17.9289963116
 10
-16.2521186392
 20
17.9085473287
 10
-16.2483489794
 20
17.8881614628
 10
-16.2434474264
 20
17.8679359073
 10
-16.2374085717
 20
17.8478713913
 10
-16.2302378239
 20
17.8279671856
 10
-16.221969397
 20
17.8083182969
 10
-16.2125980339
 20
17.788925934
 10
-16.2021289918
 20
17.7697888881
 10
-16.1906122565
 20
17.7509985394
 10
-16.1780428186
 20
17.7325565541
 10
-16.1644256876
 20
17.7144612661
 10
-16.1498258777
 20
17.6967990571
 10
-16.1342386968
 20
17.6795720047
 10
-16.1176688371
 20
17.6627780313
 10
-16.1001953898
 20
17.6464972855
 10
-16.0818140337
 20
17.6307322183
 10
-16.06252909
 20
17.6154803787
 10
-16.0424326131
 20
17.6008145618
 10
-16.0215207234
 20
17.5867375692
 10
-15.9997973005
 20
17.5732465994
 10
-15.9773660369
 20
17.5604060424
 10
-15.9542235565
 20
17.5482190103
 10
-15.9303732354
 20
17.536682391
 10
-15.9059288951
 20
17.5258512392
 10
-15.8808876932
 20
17.5157289241
 10
-15.8552524722
 20
17.5063120765
 10
-15.8291455805
 20
17.4976456433
 10
-15.8025647437
 20
17.4897332084
 10
-15.7755122363
 20
17.4825711878
 10
-15.7481172306
 20
17.4761937774
 10
-15.7203781037
 20
17.4706047342
 10
-15.6922964785
 20
17.4658003011
 10
-15.6640063965
 20
17.4618034021
 10
-15.6355069148
 20
17.4586178957
 10
-15.6067989763
 20
17.4562399233
 10
-15.5780194514
 20
17.4546808337
 10
-15.5491679415
 20
17.4539445316
 10
-15.5202448452
 20
17.4540271122
 10
-15.4913882288
 20
17.4549282104
 10
-15.4625982972
 20
17.4566517646
 10
-15.4338748456
 20
17.4591938362
 10
-15.4053553259
 20
17.4625422452
 10
-15.377040892
 20
17.4667008359
 10
-15.3489303901
 20
17.4716657638
 10
-15.3211578103
 20
17.4774133156
 10
-15.2937248368
 20
17.4839471721
 10
-15.2666297854
 20
17.4912636524
 10
-15.2400015931
 20
17.4993280011
 10
-15.2138420345
 20
17.5081440098
 10
-15.1881493349
 20
17.5177078868
 10
-15.163047108
 20
17.527973502
 10
-15.1385368961
 20
17.538945247
 10
-15.1146171568
 20
17.5506187301
 10
-15.0914068766
 20
17.5629346461
 10
-15.0689457178
 20
17.5758732267
 10
-15.0471940181
 20
17.5894542402
 10
-15.0261517775
 20
17.6036776867
  0
LWPOLYLINE
  5
231
100
AcDbEntity
  8
RACCORDO
100
AcDbPolyline
 62
7
  6
CONTINUOUS
 90
23
 70
0
 10
-16.2008411356
 20
18.3489636799
 10
-16.2158796499
 20
18.3375723616
 10
-16.2422671768
 20
18.3163249681
 10
-16.2674778374
 20
18.2943621382
 10
-16.2914843432
 20
18.2717250305
 10
-16.3142744987
 20
18.2484457033
 10
-16.3358435449
 20
18.2245479095
 10
-16.3561755713
 20
18.2000648991
 10
-16.3752542348
 20
18.1750340776
 10
-16.3930696214
 20
18.1494863277
 10
-16.4096054901
 20
18.1234602056
 10
-16.4248475302
 20
18.0969954273
 10
-16.4387871419
 20
18.0701277472
 10
-16.451411678
 20
18.0429013984
 10
-16.4627110941
 20
18.0153587873
 10
-16.4726811052
 20
17.9875371257
 10
-16.4813157008
 20
17.9594817906
 10
-16.4886091302
 20
17.9312421873
 10
-16.494559819
 20
17.9028652453
 10
-16.4991697208
 20
17.8744003969
 10
-16.502442652
 20
17.8458980669
 10
-16.5043847008
 20
17.8174087788
 10
-16.5050070067
 20
17.7896353836
  0
LINE
  5
232
100
AcDbEntity
  8
RACCORDO
100
AcDbLine
 62
7
  6
CONTINUOUS
 10
-14.7806877489
 20
19.4014572667
 11
-16.2008395473
 21
18.3489651463
  0
LINE
  5
233
100
AcDbEntity
  8
RACCORDO
100
AcDbLine
 62
250
  6
CONTINUOUS
 10
-14.6352150559
 20
19.3749193692
 11
-16.0535271094
 21
18.3237907066
  0
LINE
  5
234
100
AcDbEntity
  8
RACCORDO
100
AcDbLine
 62
7
  6
CONTINUOUS
 10
-19.8210835661
 20
14.5676551615
 11
-16.5050075598
 21
17.0252402389
  0
LINE
  5
235
100
AcDbEntity
  8
RACCORDO
100
AcDbLine
 62
250
  6
CONTINUOUS
 10
-16.5044117347
 20
16.8913322969
 11
-19.6829691126
 21
14.5356569034
  0
LWPOLYLINE
  5
236
100
AcDbEntity
  8
RACCORDO
100
AcDbPolyline
 62
250
  6
CONTINUOUS
 90
20
 70
0
 10
-19.8210792264
 20
14.5676583774
 10
-19.8186001696
 20
14.569404686
 10
-19.8129302465
 20
14.5727865361
 10
-19.8068745866
 20
14.5756036516
 10
-19.8004498209
 20
14.5778483045
 10
-19.7936735986
 20
14.5795143457
 10
-19.7865644767
 20
14.5805972284
 10
-19.7791418866
 20
14.5810939961
 10
-19.7714260697
 20
14.5810032775
 10
-19.7634382746
 20
14.5803253062
 10
-19.7552006637
 20
14.5790619858
 10
-19.7467360164
 20
14.5772168746
 10
-19.7380673881
 20
14.574795061
 10
-19.7292182905
 20
14.5718031359
 10
-19.720210983
 20
14.5682484568
 10
-19.7110720923
 20
14.5641413658
 10
-19.7018325305
 20
14.5594962199
 10
-19.6925197444
 20
14.5543278909
 10
-19.6831573949
 20
14.5486505725
 10
-19.6737711284
 20
14.5424807217
  0
LINE
  5
237
100
AcDbEntity
  8
RACCORDO
100
AcDbLine
 62
250
  6
CONTINUOUS
 10
-15.0261517775
 20
17.6036776867
 11
-13.574548154
 21
18.6249146103
  0
LINE
  5
238
100
AcDbEntity
  8
RACCORDO
100
AcDbLine
 62
250
  6
CONTINUOUS
 10
-14.8493818133
 20
17.3019124821
 11
-13.3977781898
 21
18.3231494058
  0
LINE
  5
239
100
AcDbEntity
  8
RACCORDO
100
AcDbLine
 62
250
  6
CONTINUOUS
 10
-7.9407152598
 20
22.559689407
 11
-13.6099102242
 21
18.6499193699
  0
LINE
  5
23A
100
AcDbEntity
  8
RACCORDO
100
AcDbLine
 62
250
  6
CONTINUOUS
 10
-7.7670237432
 20
22.2557580848
 11
-13.4029398984
 21
18.3689388357
  0
LINE
  5
23B
100
AcDbEntity
  8
RACCORDO
100
AcDbLine
 62
7
  6
CONTINUOUS
 10
-9.0087102578
 20
23.2439109317
 11
-14.7781071857
 21
19.4032841567
  0
LINE
  5
23C
100
AcDbEntity
  8
RACCORDO
100
AcDbLine
 62
250
  6
CONTINUOUS
 10
-8.8670908502
 20
23.2147358689
 11
-14.6352419809
 21
19.3749384081
  0
LWPOLYLINE
  5
23D
100
AcDbEntity
  8
RACCORDO
100
AcDbPolyline
 62
7
  6
CONTINUOUS
 90
31
 70
0
 10
-2.8453318732
 20
-26.7259572135
 10
-2.8359192988
 20
-26.7322749502
 10
-2.8261015088
 20
-26.7382153779
 10
-2.8158785033
 20
-26.7437784965
 10
-2.8052102973
 20
-26.7489811061
 10
-2.7941368758
 20
-26.7538064067
 10
-2.7827781931
 20
-26.7582039985
 10
-2.7711563768
 20
-26.7621623884
 10
-2.7592492993
 20
-26.7656930694
 10
-2.7471105326
 20
-26.7687801205
 10
-2.7347128519
 20
-26.7714266488
 10
-2.722083482
 20
-26.7736295471
 10
-2.7093576684
 20
-26.7753635734
 10
-2.696550288
 20
-26.7766214391
 10
-2.6836464641
 20
-26.7774104328
 10
-2.6707368117
 20
-26.7777271776
 10
-2.6578213079
 20
-26.7775697954
 10
-2.6448999758
 20
-26.7769401643
 10
-2.6320635001
 20
-26.7758405424
 10
-2.6192968265
 20
-26.7742638258
 10
-2.6066150094
 20
-26.7722171184
 10
-2.5941538968
 20
-26.7697239895
 10
-2.581940786
 20
-26.7667872096
 10
-2.5699483798
 20
-26.7634040082
 10
-2.5582306348
 20
-26.7595896427
 10
-2.5467651433
 20
-26.755332895
 10
-2.535574313
 20
-26.7506449833
 10
-2.524779324
 20
-26.7455748193
 10
-2.5144205697
 20
-26.7401387071
 10
-2.5044576568
 20
-26.7343203427
 10
-2.4948905853
 20
-26.7281197262
  0
LINE
  5
23E
100
AcDbEntity
  8
ASSI
100
AcDbLine
 62
7
  6
CONTINUOUS
 10
-3.240158044
 20
-26.8053515945
 11
-3.314819024
 21
-26.7525583092
  0
LINE
  5
23F
100
AcDbEntity
  8
RACCORDO
100
AcDbLine
 62
7
  6
CONTINUOUS
 10
-2.8453318732
 20
-26.7259572135
 11
-2.8734428726
 21
-26.7060797351
  0
LWPOLYLINE
  5
240
100
AcDbEntity
  8
RACCORDO
100
AcDbPolyline
 62
250
  6
CONTINUOUS
 90
17
 70
0
 10
-19.9222284803
 20
14.3667988023
 10
-19.9222186042
 20
14.3652302726
 10
-19.9217684164
 20
14.3560819594
 10
-19.9206491267
 20
14.3469624405
 10
-19.9188637296
 20
14.3378960921
 10
-19.916416974
 20
14.3289071185
 10
-19.9133154324
 20
14.3200197322
 10
-19.9095675273
 20
14.3112580023
 10
-19.905183437
 20
14.3026455608
 10
-19.9001749024
 20
14.2942053326
 10
-19.8945552484
 20
14.2859597282
 10
-19.8883381979
 20
14.2779292222
 10
-19.881541521
 20
14.2701370747
 10
-19.8741879764
 20
14.2626085758
 10
-19.8662998589
 20
14.255364821
 10
-19.8578978087
 20
14.2484231547
 10
-19.8490051756
 20
14.2418015744
  0
LINE
  5
241
100
AcDbEntity
  8
ASSI
100
AcDbLine
 62
7
  6
CONTINUOUS
 10
-20.373450134
 20
11.2490633259
 11
-20.373450134
 21
11.4019556523
  0
LINE
  5
242
100
AcDbEntity
  8
RACCORDO
100
AcDbLine
 62
7
  6
CONTINUOUS
 10
-19.9222284803
 20
12.0096704564
 11
-19.9222284803
 21
14.3668015744
  0
LINE
  5
243
100
AcDbEntity
  8
RACCORDO
100
AcDbLine
 62
250
  6
CONTINUOUS
 10
-19.8490051756
 20
11.8846704564
 11
-19.8490051756
 21
14.2418015744
  0
LINE
  5
244
100
AcDbEntity
  8
ASSI
100
AcDbLine
 62
250
  6
CONTINUOUS
 10
-22.5363052806
 20
9.0860933653
 11
-22.4849632557
 21
9.134500229
  0
LWPOLYLINE
  5
245
100
AcDbEntity
  8
ASSI
100
AcDbPolyline
 62
7
  6
CONTINUOUS
 90
16
 70
0
 10
-22.650181716
 20
9.1733785745
 10
-22.6605542851
 20
9.1638272829
 10
-22.7190920084
 20
9.106318807
 10
-22.7751017578
 20
9.0451266401
 10
-22.8282974522
 20
8.9807022272
 10
-22.8784640017
 20
8.9134390466
 10
-22.9253514819
 20
8.8437046414
 10
-22.968691769
 20
8.7719038344
 10
-23.0081786436
 20
8.6984646688
 10
-23.0435148939
 20
8.6237556112
 10
-23.0744255912
 20
8.5481278286
 10
-23.100562784
 20
8.4719768713
 10
-23.1216285355
 20
8.3954605446
 10
-23.1372496005
 20
8.3186810983
 10
-23.1468882534
 20
8.2419880789
 10
-23.1494161056
 20
8.2006981569
  0
LINE
  5
246
100
AcDbEntity
  8
ASSI
100
AcDbLine
 62
7
  6
CONTINUOUS
 10
-22.6502440225
 20
9.1733331872
 11
-20.3411211983
 21
11.2785372922
  0
LINE
  5
247
100
AcDbEntity
  8
ASSI
100
AcDbLine
 62
250
  6
CONTINUOUS
 10
-22.4849632557
 20
9.134500229
 11
-20.1619287667
 21
11.2523874591
  0
LWPOLYLINE
  5
248
100
AcDbEntity
  8
RACCORDO
100
AcDbPolyline
 62
7
  6
CONTINUOUS
 90
20
 70
0
 10
-13.8977844443
 20
15.1349748194
 10
-13.9212472808
 20
15.1173644775
 10
-13.9435809598
 20
15.0991458693
 10
-13.9647854812
 20
15.0803189948
 10
-13.9848935391
 20
15.0608491436
 10
-14.0038724395
 20
15.0407710262
 10
-14.0216241002
 20
15.0201887742
 10
-14.0381426883
 20
14.9990985333
 10
-14.0534340367
 20
14.9775041578
 10
-14.067417562
 20
14.9555213425
 10
-14.0800846012
 20
14.9331526154
 10
-14.0914438174
 20
14.9103954486
 10
-14.1014406159
 20
14.887357952
 10
-14.1100706677
 20
14.864030375
 10
-14.1173383019
 20
14.8404224684
 10
-14.1232019109
 20
14.8166715947
 10
-14.1276522759
 20
14.7927887562
 10
-14.1306986156
 20
14.7687629507
 10
-14.1323269792
 20
14.7446985344
 10
-14.1326207607
 20
14.729076551
  0
LWPOLYLINE
  5
249
100
AcDbEntity
  8
RACCORDO
100
AcDbPolyline
 62
250
  6
CONTINUOUS
 90
21
 70
0
 10
-7.2459491935
 20
22.0939641184
 10
-7.2389744807
 20
22.0990987355
 10
-7.2322978132
 20
22.1044277747
 10
-7.2259300206
 20
22.1099425923
 10
-7.2198814316
 20
22.1156342433
 10
-7.2141618569
 20
22.1214934956
 10
-7.2087805738
 20
22.1275108457
 10
-7.2037463106
 20
22.1336765333
 10
-7.199067233
 20
22.1399805578
 10
-7.1947509305
 20
22.1464126939
 10
-7.1908044042
 20
22.1529625087
 10
-7.1872340553
 20
22.1596193783
 10
-7.1840456749
 20
22.1663725054
 10
-7.1812444347
 20
22.1732109364
 10
-7.1788348783
 20
22.1801235792
 10
-7.1768209139
 20
22.1870992215
 10
-7.1752058083
 20
22.1941265489
 10
-7.1739921811
 20
22.2011941629
 10
-7.1731820009
 20
22.2082905999
 10
-7.1727765818
 20
22.2154043494
 10
-7.1727258888
 20
22.2189641184
  0
LINE
  5
24A
100
AcDbEntity
  8
ASSI
100
AcDbLine
 62
7
  6
CONTINUOUS
 10
-20.3355337433
 20
11.496169082
 11
-19.826598812
 21
11.8688267648
  0
LINE
  5
24B
100
AcDbEntity
  8
ASSI
100
AcDbLine
 62
250
  6
CONTINUOUS
 10
-20.161285786
 20
11.4640648374
 11
-19.7156491993
 21
11.7903735412
  0
LINE
  5
24C
100
AcDbEntity
  8
RACCORDO
100
AcDbLine
 62
7
  6
CONTINUOUS
 10
-13.8977844443
 20
15.1349748194
 11
-7.3873705498
 21
19.8195892841
  0
LINE
  5
24D
100
AcDbEntity
  8
0
100
AcDbLine
 62
7
  6
CONTINUOUS
 10
-11.13503649
 20
16.4440511155
 11
-10.7714683574
 21
16.7011326075
  0
LWPOLYLINE
  5
24E
100
AcDbEntity
  8
ASSI
100
AcDbPolyline
 62
250
  6
CONTINUOUS
 90
9
 70
0
 10
-22.6501873471
 20
9.1733847651
 10
-22.6414901025
 20
9.1795245292
 10
-22.6264990738
 20
9.1847869127
 10
-22.6084677963
 20
9.1860754135
 10
-22.5877036026
 20
9.1833680696
 10
-22.5645604068
 20
9.1767110255
 10
-22.5394326713
 20
9.1662177465
 10
-22.5127486833
 20
9.1520670844
 10
-22.4849632557
 20
9.134500229
  0
LINE
  5
24F
100
AcDbEntity
  8
DRAFT
100
AcDbLine
 62
7
  6
CONTINUOUS
 10
-9.0467847775
 20
20.4626422514
 11
-13.3977781898
 21
17.4016171511
  0
LINE
  5
250
100
AcDbEntity
  8
RACCORDO
100
AcDbLine
 62
7
  6
CONTINUOUS
 10
-13.3977781898
 20
17.4016171511
 11
-14.8493818133
 21
16.3803802274
  0
LINE
  5
251
100
AcDbEntity
  8
RACCORDO
100
AcDbLine
 62
7
  6
CONTINUOUS
 10
-7.3873705498
 20
19.8195892841
 11
-5.8573900794
 21
20.8827297184
  0
LWPOLYLINE
  5
252
100
AcDbEntity
  8
0
100
AcDbPolyline
 62
7
  6
CONTINUOUS
 90
10
 70
0
 10
-10.7714683574
 20
16.7011326075
 10
-10.7541590561
 20
16.7130675505
 10
-10.7369127396
 20
16.7243586968
 10
-10.7197294078
 20
16.7350060462
 10
-10.7025882959
 20
16.7450209929
 10
-10.6855101687
 20
16.7543921428
 10
-10.6685573209
 20
16.7630853135
 10
-10.6517505175
 20
16.7710891106
 10
-10.6350689935
 20
16.7784149285
 10
-10.6185127489
 20
16.7850627671
  0
LINE
  5
253
100
AcDbEntity
  8
ASSI
100
AcDbLine
 62
7
  6
CONTINUOUS
 10
-7.6853328788
 20
21.3968984951
 11
-9.0467847775
 21
20.4626422514
  0
LINE
  5
254
100
AcDbEntity
  8
RACCORDO
100
AcDbLine
 62
7
  6
CONTINUOUS
 10
5.0494048759
 20
29.1243011014
 11
-6.4367256246
 21
21.4781049924
  0
LINE
  5
255
100
AcDbEntity
  8
RACCORDO
100
AcDbLine
 62
250
  6
CONTINUOUS
 10
5.3326436909
 20
29.0659509758
 11
-6.2415396637
 21
21.3611390091
  0
LINE
  5
256
100
AcDbEntity
  8
RACCORDO
100
AcDbLine
 62
7
  6
CONTINUOUS
 10
-4.4449035371
 20
19.6259527528
 11
-5.8384588373
 21
19.1217724101
  0
LINE
  5
257
100
AcDbEntity
  8
RACCORDO
100
AcDbLine
 62
7
  6
CONTINUOUS
 10
-4.6243091638
 20
20.0108098412
 11
-5.8384588373
 21
19.1217724101
  0
LINE
  5
258
100
AcDbEntity
  8
RACCORDO
100
AcDbLine
 62
7
  6
CONTINUOUS
 10
-11.0076506786
 20
14.9468689632
 11
-12.739623654
 21
13.7283856771
  0
LINE
  5
259
100
AcDbEntity
  8
RACCORDO
100
AcDbLine
 62
7
  6
CONTINUOUS
 10
-6.1145783436
 20
18.9195892841
 11
-7.4359759229
 21
18.0013872393
  0
LINE
  5
25A
100
AcDbEntity
  8
RACCORDO
100
AcDbLine
 62
7
  6
CONTINUOUS
 10
-11.4161175588
 20
15.2356986641
 11
-12.739623654
 21
14.3160314709
  0
LWPOLYLINE
  5
25B
100
AcDbEntity
  8
RACCORDO
100
AcDbPolyline
 62
7
  6
CONTINUOUS
 90
10
 70
0
 10
13.2601474609
 20
23.5658478734
 10
13.1493288402
 20
23.5227490298
 10
13.0408851291
 20
23.4797004266
 10
12.9348163275
 20
23.4367020636
 10
12.8314421826
 20
23.393890742
 10
12.7304429473
 20
23.3511296606
 10
12.6308593799
 20
23.3080084165
 10
12.5323717331
 20
23.2643902087
 10
12.4352997541
 20
23.220411838
 10
12.3396434431
 20
23.1760733047
  0
LINE
  5
25C
100
AcDbEntity
  8
0
100
AcDbLine
 62
7
  6
CONTINUOUS
 10
-10.6185127489
 20
16.7850627671
 11
-5.9731569874
 21
18.5604577441
  0
LINE
  5
25D
100
AcDbEntity
  8
RACCORDO
100
AcDbLine
 62
7
  6
CONTINUOUS
 10
-9.2327698347
 20
16.1593051928
 11
-7.28252415
 21
16.9046639059
  0
LINE
  5
25E
100
AcDbEntity
  8
RACCORDO
100
AcDbLine
 62
7
  6
CONTINUOUS
 10
-9.094250073
 20
15.9148472291
 11
-7.3699273549
 21
16.5738611023
  0
LINE
  5
25F
100
AcDbEntity
  8
RACCORDO
100
AcDbLine
 62
7
  6
CONTINUOUS
 10
-2.9127173126
 20
17.9970623333
 11
-4.2476670273
 21
17.4868617933
  0
LINE
  5
260
100
AcDbEntity
  8
ASSI
100
AcDbLine
 62
7
  6
CONTINUOUS
 10
-3.2021218749
 20
18.379941796
 11
-4.2614445834
 21
18.0066549371
  0
LWPOLYLINE
  5
261
100
AcDbEntity
  8
0
100
AcDbPolyline
 62
7
  6
CONTINUOUS
 90
19
 70
0
 10
13.2601474609
 20
23.5658478734
 10
13.2734047465
 20
23.5704977754
 10
13.2875769854
 20
23.5746697346
 10
13.3025283964
 20
23.5783247993
 10
13.3181024472
 20
23.5814242835
 10
13.3341801214
 20
23.5839604483
 10
13.3506881762
 20
23.5859440102
 10
13.3674921039
 20
23.5873641892
 10
13.3844681615
 20
23.5882144902
 10
13.4015691279
 20
23.5884989244
 10
13.4186693355
 20
23.5882144203
 10
13.435643957
 20
23.5873642252
 10
13.4524470142
 20
23.5859442596
 10
13.4689553313
 20
23.5839607924
 10
13.4850337527
 20
23.5814245678
 10
13.5006084414
 20
23.578324975
 10
13.51556021
 20
23.5746698435
 10
13.5297327123
 20
23.570497821
 10
13.5429901734
 20
23.5658478734
  0
LWPOLYLINE
  5
262
100
AcDbEntity
  8
RACCORDO
100
AcDbPolyline
 62
7
  6
CONTINUOUS
 90
25
 70
0
 10
-7.28252415
 20
16.9046639059
 10
-7.2733520453
 20
16.9078278361
 10
-7.2636997246
 20
16.9105301563
 10
-7.253567188
 20
16.9127708665
 10
-7.2429070692
 20
16.9145555923
 10
-7.2317667344
 20
16.9158787081
 10
-7.2202882825
 20
16.9167233372
 10
-7.2084673822
 20
16.9170833501
 10
-7.1963083649
 20
16.9169648762
 10
-7.183966323
 20
16.9163694267
 10
-7.171438912
 20
16.9152908917
 10
-7.1587284763
 20
16.913735381
 10
-7.1459971421
 20
16.9117227358
 10
-7.1332446417
 20
16.9092471003
 10
-7.1204712426
 20
16.9063143302
 10
-7.1078398742
 20
16.9029618341
 10
-7.0953523557
 20
16.8991842353
 10
-7.0830068679
 20
16.8949869106
 10
-7.0709608816
 20
16.8904233981
 10
-7.0592182335
 20
16.8854890071
 10
-7.047775087
 20
16.8801884285
 10
-7.0367774034
 20
16.8745892729
 10
-7.0262738364
 20
16.8687140773
 10
-7.0162157324
 20
16.8625403047
 10
-7.0066030914
 20
16.8560679551
  0
LWPOLYLINE
  5
263
100
AcDbEntity
  8
RACCORDO
100
AcDbPolyline
 62
7
  6
CONTINUOUS
 90
25
 70
0
 10
-4.2476670273
 20
17.4868617933
 10
-4.256839132
 20
17.4836978631
 10
-4.2664914527
 20
17.480995543
 10
-4.2766239893
 20
17.4787548328
 10
-4.2872841081
 20
17.4769701069
 10
-4.2984244429
 20
17.4756469911
 10
-4.3099028948
 20
17.4748023621
 10
-4.3217237951
 20
17.4744423491
 10
-4.3338828124
 20
17.474560823
 10
-4.3462248543
 20
17.4751562725
 10
-4.3587522654
 20
17.4762348075
 10
-4.371462701
 20
17.4777903182
 10
-4.3841940352
 20
17.4798029634
 10
-4.3969465357
 20
17.482278599
 10
-4.4097199347
 20
17.485211369
 10
-4.4223513031
 20
17.4885638652
 10
-4.4348388216
 20
17.4923414639
 10
-4.4471843094
 20
17.4965387887
 10
-4.4592302957
 20
17.5011023011
 10
-4.4709729438
 20
17.5060366921
 10
-4.4824160903
 20
17.5113372707
 10
-4.493413774
 20
17.5169364263
 10
-4.5039173409
 20
17.522811622
 10
-4.5139754449
 20
17.5289853946
 10
-4.5235880859
 20
17.5354577441
  0
LINE
  5
264
100
AcDbEntity
  8
DRAFT
100
AcDbLine
 62
7
  6
CONTINUOUS
 10
1.6450823573
 20
-23.9011595661
 11
-1.0941201972
 21
-21.9642508648
  0
LWPOLYLINE
  5
265
100
AcDbEntity
  8
CURVE
100
AcDbPolyline
 62
7
  6
CONTINUOUS
 90
89
 70
0
 10
-14.8693918903
 20
-12.7396585301
 10
-14.9744465212
 20
-12.6634802265
 10
-15.0788483061
 20
-12.5839736963
 10
-15.182678073
 20
-12.5010773837
 10
-15.2860166495
 20
-12.4147297327
 10
-15.3889448636
 20
-12.3248691872
 10
-15.4914892259
 20
-12.2314825079
 10
-15.5934589787
 20
-12.1347497216
 10
-15.6946090472
 20
-12.0348991716
 10
-15.7946943565
 20
-11.9321592013
 10
-15.8934698318
 20
-11.8267581542
 10
-15.9907200513
 20
-11.7188996236
 10
-16.0863482056
 20
-11.6086882036
 10
-16.1802871386
 20
-11.4962037385
 10
-16.2724696939
 20
-11.3815260724
 10
-16.3628287152
 20
-11.2647350494
 10
-16.4512780308
 20
-11.1459415945
 10
-16.5376554067
 20
-11.0253809547
 10
-16.6217795935
 20
-10.9033194578
 10
-16.7034693416
 20
-10.7800234315
 10
-16.7825434015
 20
-10.6557592036
 10
-16.8588463773
 20
-10.5307557228
 10
-16.9323262868
 20
-10.4050924215
 10
-17.0029570012
 20
-10.2788113531
 10
-17.0707123918
 20
-10.151954571
 10
-17.1355663301
 20
-10.0245641285
 10
-17.1974752893
 20
-9.8967197591
 10
-17.2563261513
 20
-9.7686519156
 10
-17.3119884001
 20
-9.6406287313
 10
-17.3643315195
 20
-9.512918339
 10
-17.4132249936
 20
-9.3857888718
 10
-17.4585550633
 20
-9.2594810644
 10
-17.5002749976
 20
-9.134126059
 10
-17.5383548223
 20
-9.0098275994
 10
-17.5727645637
 20
-8.8866894293
 10
-17.6034742475
 20
-8.7648152927
 10
-17.6262125838
 20
-8.6643116466
 10
-17.6463132184
 20
-8.5649241261
 10
-17.6637287493
 20
-8.4668190116
 10
-17.678419666
 20
-8.3701876062
 10
-17.6903780238
 20
-8.2753213043
 10
-17.6996037694
 20
-8.1825365231
 10
-17.7061058494
 20
-8.0920634032
 10
-17.70992921
 20
-8.0037869788
 10
-17.7111277973
 20
-7.9175060078
 10
-17.709737798
 20
-7.8330318635
 10
-17.705724361
 20
-7.7502263833
 10
-17.6990348761
 20
-7.6689640203
 10
-17.6896258076
 20
-7.5891924148
 10
-17.6774899183
 20
-7.5111519548
 10
-17.6626290459
 20
-7.4351562158
 10
-17.6450530538
 20
-7.3614833529
 10
-17.6248039076
 20
-7.2902698412
 10
-17.6019315987
 20
-7.2216167358
 10
-17.5710830419
 20
-7.1427359126
 10
-17.5365579072
 20
-7.0677475051
 10
-17.4983849838
 20
-6.9967114247
 10
-17.4565930603
 20
-6.9296875828
 10
-17.4112109258
 20
-6.8667358905
 10
-17.3622844166
 20
-6.8079214806
 10
-17.3099275587
 20
-6.75333037
 10
-17.2542714255
 20
-6.7030537969
 10
-17.1954470905
 20
-6.6571829997
 10
-17.1335856271
 20
-6.6158092164
 10
-17.0688001506
 20
-6.5790102266
 10
-17.0011319429
 20
-6.5468099741
 10
-16.9306043282
 20
-6.5192189442
 10
-16.8572406301
 20
-6.496247622
 10
-16.7810641727
 20
-6.4779064926
 10
-16.7021247136
 20
-6.4642074243
 10
-16.6205777457
 20
-6.4551678181
 10
-16.5366051957
 20
-6.450806458
 10
-16.4503889903
 20
-6.4511421281
 10
-16.3621110561
 20
-6.4561936125
 10
-16.271933191
 20
-6.4659753498
 10
-16.179936677
 20
-6.4804843977
 10
-16.0861826671
 20
-6.4997134682
 10
-15.9907323145
 20
-6.5236552734
 10
-15.8936467723
 20
-6.5523025256
 10
-15.7950169078
 20
-6.5856313454
 10
-15.6950524459
 20
-6.6235514877
 10
-15.5939928257
 20
-6.6659561161
 10
-15.4920774862
 20
-6.7127383941
 10
-15.3895458665
 20
-6.7637914852
 10
-15.2865843494
 20
-6.8190359483
 10
-15.1831670923
 20
-6.8785019236
 10
-15.079215196
 20
-6.942246947
 10
-14.9746497617
 20
-7.0103285541
 10
-14.8693918903
 20
-7.0828042806
  0
LWPOLYLINE
  5
266
100
AcDbEntity
  8
RACCORDO
100
AcDbPolyline
 62
7
  6
CONTINUOUS
 90
44
 70
0
 10
-0.2130952234
 20
-27.6039712927
 10
-0.2128296057
 20
-27.6042725681
 10
-0.1894893754
 20
-27.6285768999
 10
-0.1648140018
 20
-27.6522034752
 10
-0.1389012192
 20
-27.6750430729
 10
-0.1117825243
 20
-27.6970635264
 10
-0.0834850736
 20
-27.718236066
 10
-0.0541211066
 20
-27.738474642
 10
-0.0237428779
 20
-27.7577504091
 10
0.0076238987
 20
-27.7760511204
 10
0.039891206
 20
-27.7933294193
 10
0.0730140659
 20
-27.8095693957
 10
0.1069514271
 20
-27.8247557377
 10
0.1416096571
 20
-27.8388522863
 10
0.1769375078
 20
-27.8518474068
 10
0.2128927259
 20
-27.8637312511
 10
0.2493852913
 20
-27.8744805571
 10
0.2863560798
 20
-27.8840868953
 10
0.3237657206
 20
-27.8925455698
 10
0.3615471893
 20
-27.8998468647
 10
0.3996488502
 20
-27.9059862858
 10
0.4380221368
 20
-27.9109583472
 10
0.4766009172
 20
-27.9147577014
 10
0.5153354377
 20
-27.9173817847
 10
0.5541738066
 20
-27.9188267305
 10
0.5930450195
 20
-27.9190910952
 10
0.6319008421
 20
-27.9181742669
 10
0.6706871276
 20
-27.9160751808
 10
0.7093243807
 20
-27.9127977549
 10
0.7477621445
 20
-27.9083443611
 10
0.7859493509
 20
-27.9027176946
 10
0.8238077533
 20
-27.895927493
 10
0.8612879914
 20
-27.8879789771
 10
0.8983405295
 20
-27.8788783542
 10
0.9348902164
 20
-27.8686404713
 10
0.9708876204
 20
-27.8572737138
 10
1.0062869499
 20
-27.844787161
 10
1.0410219301
 20
-27.8311983693
 10
1.0750451618
 20
-27.8165177529
 10
1.1083133257
 20
-27.8007557116
 10
1.140768894
 20
-27.7839295755
 10
1.1723629258
 20
-27.766052957
 10
1.2030505043
 20
-27.7471407049
 10
1.2200838813
 20
-27.7359265305
  0
LWPOLYLINE
  5
267
100
AcDbEntity
  8
RACCORDO
100
AcDbPolyline
 62
250
  6
CONTINUOUS
 90
60
 70
0
 10
-16.5050075535
 20
17.7896335137
 10
-16.5045433538
 20
17.7683618568
 10
-16.5025671773
 20
17.7407889453
 10
-16.4990422965
 20
17.7132993199
 10
-16.4939743544
 20
17.6859365611
 10
-16.4873714173
 20
17.6587445087
 10
-16.4792439991
 20
17.6317663521
 10
-16.4696050716
 20
17.6050449896
 10
-16.4584700062
 20
17.5786233307
 10
-16.4458565533
 20
17.5525433993
 10
-16.4317848359
 20
17.5268466568
 10
-16.4162773257
 20
17.5015743651
 10
-16.3993587754
 20
17.4767667784
 10
-16.3810561658
 20
17.4524633218
 10
-16.3613986894
 20
17.4287029168
 10
-16.3404177087
 20
17.4055234266
 10
-16.3181466893
 20
17.3829617241
 10
-16.2946211372
 20
17.361053875
 10
-16.2698785701
 20
17.3398348131
 10
-16.24395846
 20
17.3193383291
 10
-16.2169021499
 20
17.2995971467
 10
-16.1887527958
 20
17.2806427835
 10
-16.1595552974
 20
17.262505446
 10
-16.1293562259
 20
17.2452140274
 10
-16.0982037591
 20
17.2287961762
 10
-16.0661475783
 20
17.2132780821
 10
-16.0332387867
 20
17.1986843815
 10
-15.999529868
 20
17.1850384486
 10
-15.9650745929
 20
17.1723620956
 10
-15.9299279051
 20
17.1606753709
 10
-15.894145838
 20
17.1499970396
 10
-15.8577854886
 20
17.1403442214
 10
-15.8209049173
 20
17.1317320981
 10
-15.7835629729
 20
17.124174566
 10
-15.7458191986
 20
17.1176837804
 10
-15.7077338026
 20
17.1122697999
 10
-15.6693676045
 20
17.1079414498
 10
-15.6307817316
 20
17.1047057591
 10
-15.5920375212
 20
17.1025675292
 10
-15.5531966961
 20
17.1015303948
 10
-15.5143212847
 20
17.1015961981
 10
-15.4754733128
 20
17.1027644492
 10
-15.4367145937
 20
17.1050335416
 10
-15.3981071103
 20
17.1084000609
 10
-15.3597129242
 20
17.1128581442
 10
-15.3215935063
 20
17.1184008667
 10
-15.2838094172
 20
17.1250196024
 10
-15.2464206932
 20
17.1327033332
 10
-15.2094870876
 20
17.1414400308
 10
-15.1730673867
 20
17.1512160148
 10
-15.137219119
 20
17.1620153487
 10
-15.101998825
 20
17.1738213589
 10
-15.067463404
 20
17.1866153117
 10
-15.0336693622
 20
17.2003757058
 10
-15.000671681
 20
17.2150802633
 10
-14.9685217273
 20
17.2307061877
 10
-14.9372687518
 20
17.2472290019
 10
-14.9069620708
 20
17.2646228259
 10
-14.8776508019
 20
17.2828602264
 10
-14.8493818133
 20
17.3019124821
  0
LINE
  5
268
100
AcDbEntity
  8
RACCORDO
100
AcDbLine
 62
7
  6
CONTINUOUS
 10
-16.5050075598
 20
16.8671023885
 11
-16.5050075598
 21
17.7897120453
  0
LINE
  5
269
100
AcDbEntity
  8
RACCORDO
100
AcDbLine
 62
7
  6
CONTINUOUS
 10
-16.5050075598
 20
17.7897120951
 11
-16.5050075535
 21
17.7896335137
  0
LINE
  5
26A
100
AcDbEntity
  8
RACCORDO
100
AcDbLine
 62
250
  6
CONTINUOUS
 10
-14.8493818133
 20
16.3803802274
 11
-14.8493818133
 21
17.3019124821
  0
LINE
  5
26B
100
AcDbEntity
  8
RACCORDO
100
AcDbLine
 62
7
  6
CONTINUOUS
 10
-6.3210074964
 20
15.9786724582
 11
-7.7315610395
 21
14.9512805729
  0
LINE
  5
26C
100
AcDbEntity
  8
RACCORDO
100
AcDbLine
 62
7
  6
CONTINUOUS
 10
-9.9619679643
 20
13.326739635
 11
-10.3577853461
 21
13.0384417762
  0
LINE
  5
26D
100
AcDbEntity
  8
ASSI
100
AcDbLine
 62
7
  6
CONTINUOUS
 10
-6.9939213224
 20
14.4974089106
 11
-5.6298429573
 21
15.4899453257
  0
LINE
  5
26E
100
AcDbEntity
  8
DRAFT
100
AcDbLine
 62
7
  6
CONTINUOUS
 10
-4.2614445834
 20
18.0066549371
 11
-4.5400169296
 21
17.8062062308
  0
LINE
  5
26F
100
AcDbEntity
  8
RACCORDO
100
AcDbLine
 62
7
  6
CONTINUOUS
 10
-4.9490717721
 20
15.2546639059
 11
-6.8993174568
 21
14.5093051928
  0
LWPOLYLINE
  5
270
100
AcDbEntity
  8
RACCORDO
100
AcDbPolyline
 62
7
  6
CONTINUOUS
 90
25
 70
0
 10
-6.8993174568
 20
14.5093051928
 10
-6.9084895615
 20
14.5061412626
 10
-6.9181418821
 20
14.5034389424
 10
-6.9282744187
 20
14.5011982322
 10
-6.9389345376
 20
14.4994135064
 10
-6.9500748724
 20
14.4980903906
 10
-6.9615533243
 20
14.4972457615
 10
-6.9733742245
 20
14.4968857486
 10
-6.9855332418
 20
14.4970042225
 10
-6.9978752838
 20
14.4975996719
 10
-7.0104026948
 20
14.498678207
 10
-7.0231131304
 20
14.5002337177
 10
-7.0358444646
 20
14.5022463629
 10
-7.0485969651
 20
14.5047219984
 10
-7.0613703641
 20
14.5076547685
 10
-7.0740017326
 20
14.5110072646
 10
-7.086489251
 20
14.5147848633
 10
-7.0988347389
 20
14.5189821881
 10
-7.1108807252
 20
14.5235457006
 10
-7.1226233733
 20
14.5284800915
 10
-7.1340665198
 20
14.5337806702
 10
-7.1450642034
 20
14.5393798258
 10
-7.1555677703
 20
14.5452550214
 10
-7.1656258743
 20
14.551428794
 10
-7.1752385154
 20
14.5579011436
  0
LWPOLYLINE
  5
271
100
AcDbEntity
  8
RACCORDO
100
AcDbPolyline
 62
250
  6
CONTINUOUS
 90
18
 70
0
 10
8.856540495
 20
-15.7895827542
 10
8.8574895434
 20
-15.7895658643
 10
8.8638589434
 20
-15.7890906053
 10
8.8703809605
 20
-15.7882509055
 10
8.8770462361
 20
-15.7870476462
 10
8.883846151
 20
-15.7854829119
 10
8.8907709246
 20
-15.7835585576
 10
8.8978106179
 20
-15.7812769643
 10
8.9049560939
 20
-15.7786417686
 10
8.9121970893
 20
-15.7756563052
 10
8.9195231718
 20
-15.7723244394
 10
8.926924732
 20
-15.7686513639
 10
8.9343910954
 20
-15.7646418955
 10
8.9419115233
 20
-15.7603013226
 10
8.9494761595
 20
-15.7556362876
 10
8.9570744294
 20
-15.7506533063
 10
8.9646950588
 20
-15.7453587371
 10
8.9723270664
 20
-15.7397596681
  0
LWPOLYLINE
  5
272
100
AcDbEntity
  8
RACCORDO
100
AcDbPolyline
 62
7
  6
CONTINUOUS
 90
58
 70
0
 10
-14.1326207607
 20
14.729076551
 10
-14.1325301815
 20
14.7205806958
 10
-14.1313154077
 20
14.6964242465
 10
-14.1286902624
 20
14.672377978
 10
-14.124650025
 20
14.6484589033
 10
-14.1191994162
 20
14.6246500094
 10
-14.1123602021
 20
14.6010490483
 10
-14.1041192849
 20
14.5776394772
 10
-14.0944897623
 20
14.554437839
 10
-14.0835326933
 20
14.5315915133
 10
-14.0712505702
 20
14.5091203228
 10
-14.0576409007
 20
14.4870044449
 10
-14.0427572664
 20
14.4653317919
 10
-14.0265799132
 20
14.4440867926
 10
-14.0091285953
 20
14.4232850182
 10
-13.9905161566
 20
14.4030610937
 10
-13.9707531178
 20
14.3834351547
 10
-13.9498289583
 20
14.3643870658
 10
-13.9278249593
 20
14.3459910458
 10
-13.9047156565
 20
14.3282346703
 10
-13.8805265142
 20
14.3111303637
 10
-13.8554152071
 20
14.294789619
 10
-13.8293993062
 20
14.2792304421
 10
-13.8024612404
 20
14.264434827
 10
-13.7747059713
 20
14.2504602483
 10
-13.7461050231
 20
14.2372992667
 10
-13.7166868716
 20
14.2249593214
 10
-13.6866419055
 20
14.2135202053
 10
-13.6559921456
 20
14.2029958866
 10
-13.6247155712
 20
14.193372397
 10
-13.5929365088
 20
14.1846876244
 10
-13.5606269252
 20
14.1769398066
 10
-13.5278148537
 20
14.1701307059
 10
-13.4947087208
 20
14.1643034975
 10
-13.4613319215
 20
14.1594674428
 10
-13.4276610608
 20
14.1556132803
 10
-13.3938343811
 20
14.1527564011
 10
-13.359827822
 20
14.1509001431
 10
-13.3256654437
 20
14.1500411683
 10
-13.2915576693
 20
14.150184854
 10
-13.2575254455
 20
14.1513362809
 10
-13.2235478255
 20
14.1534903684
 10
-13.1897723913
 20
14.1566372516
 10
-13.1561835837
 20
14.1607834493
 10
-13.1227969619
 20
14.1659224428
 10
-13.0898067861
 20
14.1720248109
 10
-13.0572268461
 20
14.1790936149
 10
-13.025043352
 20
14.1871257937
 10
-12.9934091949
 20
14.1960827431
 10
-12.9623207993
 20
14.2059705886
 10
-12.9317817407
 20
14.2167832048
 10
-12.9019556359
 20
14.2284636104
 10
-12.872847936
 20
14.2410159301
 10
-12.84445319
 20
14.2544360392
 10
-12.8169186624
 20
14.2686545834
 10
-12.7902934413
 20
14.2836484443
 10
-12.7645284384
 20
14.2994407401
 10
-12.739623654
 20
14.3160314709
  0
LINE
  5
273
100
AcDbEntity
  8
RACCORDO
100
AcDbLine
 62
7
  6
CONTINUOUS
 10
-14.1326250236
 20
14.137901317
 11
-14.1326250236
 21
14.7290765503
  0
LINE
  5
274
100
AcDbEntity
  8
RACCORDO
100
AcDbLine
 62
7
  6
CONTINUOUS
 10
-13.3977781898
 20
17.4016171511
 11
-13.3977781898
 21
18.3231494058
  0
LINE
  5
275
100
AcDbEntity
  8
RACCORDO
100
AcDbLine
 62
250
  6
CONTINUOUS
 10
-12.739623654
 20
13.7283856771
 11
-12.739623654
 21
14.3160314709
  0
LWPOLYLINE
  5
276
100
AcDbEntity
  8
0
100
AcDbPolyline
 62
7
  6
CONTINUOUS
 90
19
 70
0
 10
-11.6300112369
 20
15.5990763687
 10
-11.628009544
 20
15.6441647885
 10
-11.6223875922
 20
15.6908430725
 10
-11.6131453814
 20
15.7391112208
 10
-11.6001581037
 20
15.7893587985
 10
-11.5835505671
 20
15.8411962405
 10
-11.563697195
 20
15.8934548508
 10
-11.5405242548
 20
15.9461441966
 10
-11.5141054792
 20
15.9992547107
 10
-11.48503649
 20
16.0515889952
 10
-11.4532570848
 20
16.1031294173
 10
-11.4188274661
 20
16.1538936098
 10
-11.3825238635
 20
16.2027370737
 10
-11.3443037072
 20
16.2496161774
 10
-11.304209567
 20
16.2945745524
 10
-11.2631453814
 20
16.3365985942
 10
-11.2214124631
 20
16.3753504346
 10
-11.1787094993
 20
16.4111679416
 10
-11.13503649
 20
16.4440511155
  0
LINE
  5
277
100
AcDbEntity
  8
RACCORDO
100
AcDbLine
 62
250
  6
CONTINUOUS
 10
-9.2327698347
 20
16.1593051928
 11
-9.2636999577
 21
16.0422411625
  0
LWPOLYLINE
  5
278
100
AcDbEntity
  8
RACCORDO
100
AcDbPolyline
 62
7
  6
CONTINUOUS
 90
11
 70
0
 10
-9.2847106229
 20
16.1103944555
 10
-9.2836600697
 20
16.1138935944
 10
-9.2810719035
 20
16.1201951766
 10
-9.2776625788
 20
16.1262636697
 10
-9.2734755827
 20
16.132021668
 10
-9.2685009534
 20
16.1374651941
 10
-9.2627486527
 20
16.1425982254
 10
-9.2562920532
 20
16.1473552883
 10
-9.2491556125
 20
16.1517145582
 10
-9.241314873
 20
16.1556978597
 10
-9.2327698347
 20
16.1593051928
  0
LINE
  5
279
100
AcDbEntity
  8
RACCORDO
100
AcDbLine
 62
7
  6
CONTINUOUS
 10
-5.2022611819
 20
13.3093051928
 11
-3.2520154972
 21
14.0546639059
  0
LINE
  5
27A
100
AcDbEntity
  8
RACCORDO
100
AcDbLine
 62
7
  6
CONTINUOUS
 10
-5.0637414202
 20
13.0648472291
 11
-3.3394187021
 21
13.7238611023
  0
LINE
  5
27B
100
AcDbEntity
  8
RACCORDO
100
AcDbLine
 62
7
  6
CONTINUOUS
 10
1.0789843291
 20
13.7457860519
 11
1.0556338316
 21
13.7368617933
  0
LWPOLYLINE
  5
27C
100
AcDbEntity
  8
RACCORDO
100
AcDbPolyline
 62
7
  6
CONTINUOUS
 90
25
 70
0
 10
-3.2520154972
 20
14.0546639059
 10
-3.2428433925
 20
14.0578278361
 10
-3.2331910719
 20
14.0605301563
 10
-3.2230585353
 20
14.0627708665
 10
-3.2123984164
 20
14.0645555923
 10
-3.2012580816
 20
14.0658787081
 10
-3.1897796297
 20
14.0667233372
 10
-3.1779587295
 20
14.0670833501
 10
-3.1657997122
 20
14.0669648762
 10
-3.1534576702
 20
14.0663694267
 10
-3.1409302592
 20
14.0652908917
 10
-3.1282198236
 20
14.063735381
 10
-3.1154884894
 20
14.0617227358
 10
-3.1027359889
 20
14.0592471003
 10
-3.0899625899
 20
14.0563143302
 10
-3.0773312214
 20
14.0529618341
 10
-3.064843703
 20
14.0491842353
 10
-3.0524982151
 20
14.0449869106
 10
-3.0404522288
 20
14.0404233981
 10
-3.0287095807
 20
14.0354890071
 10
-3.0172664342
 20
14.0301884285
 10
-3.0062687506
 20
14.0245892729
 10
-2.9957651837
 20
14.0187140773
 10
-2.9857070797
 20
14.0125403047
 10
-2.9760944386
 20
14.0060679551
  0
LINE
  5
27D
100
AcDbEntity
  8
ASSI
100
AcDbLine
 62
7
  6
CONTINUOUS
 10
2.4404362278
 20
14.3900506984
 11
1.3624616081
 21
14.0299527324
  0
LWPOLYLINE
  5
27E
100
AcDbEntity
  8
CURVE
100
AcDbPolyline
 62
7
  6
CONTINUOUS
 90
89
 70
0
 10
-14.8693918903
 20
-7.0828042806
 10
-14.7643249715
 20
-7.1590444456
 10
-14.6599839861
 20
-7.2386668343
 10
-14.5562873603
 20
-7.3217325295
 10
-14.4531535203
 20
-7.4083026141
 10
-14.3505008924
 20
-7.498438171
 10
-14.2483018458
 20
-7.5921516558
 10
-14.1467445218
 20
-7.689261015
 10
-14.0460710048
 20
-7.7895355682
 10
-13.9465233793
 20
-7.8927446345
 10
-13.8483437295
 20
-7.9986575333
 10
-13.7517444083
 20
-8.1070681559
 10
-13.6568188417
 20
-8.2178686809
 10
-13.5636307243
 20
-8.3309758591
 10
-13.4722437504
 20
-8.4463064409
 10
-13.3827216146
 20
-8.5637771771
 10
-13.2951465818
 20
-8.6832736325
 10
-13.2096751988
 20
-8.8045566299
 10
-13.1264825829
 20
-8.927355806
 10
-13.0457438516
 20
-9.0514007979
 10
-12.9676341221
 20
-9.1764212424
 10
-12.8923029867
 20
-9.3021842064
 10
-12.8197979384
 20
-9.428606476
 10
-12.7501409449
 20
-9.5556422669
 10
-12.683353974
 20
-9.6832457951
 10
-12.6194589937
 20
-9.8113712765
 10
-12.5584950924
 20
-9.9399353681
 10
-12.5005698419
 20
-10.0687044915
 10
-12.4458079346
 20
-10.1974075096
 10
-12.3943340627
 20
-10.325773285
 10
-12.3462729187
 20
-10.4535306806
 10
-12.3017330024
 20
-10.5804354493
 10
-12.2607580428
 20
-10.7063509049
 10
-12.2233755764
 20
-10.8311672511
 10
-12.1896131396
 20
-10.9547746919
 10
-12.1594982689
 20
-11.0770634313
 10
-12.1372135452
 20
-11.177866972
 10
-12.117525714
 20
-11.2775118324
 10
-12.1004795135
 20
-11.3758313442
 10
-12.0861119899
 20
-11.4726327439
 10
-12.074429423
 20
-11.567618886
 10
-12.0654304008
 20
-11.6604665294
 10
-12.0591045743
 20
-11.7509414341
 10
-12.0554058476
 20
-11.8391653635
 10
-12.0542791878
 20
-11.9253490817
 10
-12.0556875289
 20
-12.0096897941
 10
-12.059665671
 20
-12.09233047
 10
-12.0662663811
 20
-12.1734005199
 10
-12.0755334082
 20
-12.252955054
 10
-12.0874744299
 20
-12.3307519814
 10
-12.102088106
 20
-12.406474911
 10
-12.1193654306
 20
-12.4798437759
 10
-12.1392667349
 20
-12.5507238056
 10
-12.1617446846
 20
-12.6190165538
 10
-12.192061976
 20
-12.6974324894
 10
-12.2259950425
 20
-12.7719216301
 10
-12.2635174511
 20
-12.8424246291
 10
-12.3046027691
 20
-12.9088821394
 10
-12.3492245639
 20
-12.9712348139
 10
-12.3973399366
 20
-13.0294188404
 10
-12.4488401243
 20
-13.0833525453
 10
-12.5035998981
 20
-13.1329497899
 10
-12.5614940292
 20
-13.1781244352
 10
-12.6223972885
 20
-13.2187903424
 10
-12.686202156
 20
-13.2548745148
 10
-12.7528719473
 20
-13.2863565239
 10
-12.8223876868
 20
-13.3132290835
 10
-12.8947303988
 20
-13.3354849074
 10
-12.9698811077
 20
-13.3531167091
 10
-13.0477949031
 20
-13.3661159591
 10
-13.1283231344
 20
-13.3744691537
 10
-13.2112912163
 20
-13.3781615461
 10
-13.2965245635
 20
-13.3771783894
 10
-13.3838485905
 20
-13.3715049367
 10
-13.4731084635
 20
-13.3611303755
 10
-13.5642283539
 20
-13.3460596318
 10
-13.6571521848
 20
-13.326301566
 10
-13.7518238793
 20
-13.3018650386
 10
-13.8481873602
 20
-13.2727589099
 10
-13.9461568873
 20
-13.2390083192
 10
-14.0455280669
 20
-13.2007035205
 10
-14.1460668418
 20
-13.157951047
 10
-14.247539155
 20
-13.1108574314
 10
-14.3497109495
 20
-13.0595292068
 10
-14.4524003421
 20
-13.0040453934
 10
-14.5556341457
 20
-12.9443749615
 10
-14.659491347
 20
-12.8804593685
 10
-14.7640509329
 20
-12.8122400722
 10
-14.8693918903
 20
-12.7396585301
  0
LINE
  5
27F
100
AcDbEntity
  8
0
100
AcDbLine
 62
7
  6
CONTINUOUS
 10
-11.6300112369
 20
15.3869443343
 11
-11.6300112369
 21
15.5990763687
  0
LINE
  5
280
100
AcDbEntity
  8
RACCORDO
100
AcDbLine
 62
250
  6
CONTINUOUS
 10
-7.28252415
 20
16.9046639059
 11
-7.3699273549
 21
16.5738611023
  0
LINE
  5
281
100
AcDbEntity
  8
RACCORDO
100
AcDbLine
 62
250
  6
CONTINUOUS
 10
-7.0066030914
 20
16.8560679551
 11
-7.0940062962
 21
16.5252651515
  0
LINE
  5
282
100
AcDbEntity
  8
RACCORDO
100
AcDbLine
 62
7
  6
CONTINUOUS
 10
9.624550166
 20
21.2896811874
 11
12.0167079656
 21
22.9811921891
  0
LINE
  5
283
100
AcDbEntity
  8
RACCORDO
100
AcDbLine
 62
250
  6
CONTINUOUS
 10
-1.6119275104
 20
12.648850067
 11
-3.0178910611
 21
11.6546837061
  0
LINE
  5
284
100
AcDbEntity
  8
RACCORDO
100
AcDbLine
 62
250
  6
CONTINUOUS
 10
-4.7470145282
 20
10.3908350138
 11
-4.6647403281
 21
10.4490116586
  0
LINE
  5
285
100
AcDbEntity
  8
RACCORDO
100
AcDbLine
 62
250
  6
CONTINUOUS
 10
-1.3705061541
 20
12.4781393888
 11
-2.1282388395
 21
11.9423414687
  0
LINE
  5
286
100
AcDbEntity
  8
0
100
AcDbLine
 62
7
  6
CONTINUOUS
 10
-2.6497551158
 20
10.4440511155
 11
-2.2861869832
 21
10.7011326075
  0
LINE
  5
287
100
AcDbEntity
  8
0
100
AcDbLine
 62
7
  6
CONTINUOUS
 10
-2.6497551158
 20
10.161208403
 11
-2.2861869832
 21
10.418289895
  0
LINE
  5
288
100
AcDbEntity
  8
0
100
AcDbLine
 62
250
  6
CONTINUOUS
 10
-2.8618871502
 20
9.7990763687
 11
-3.1447298626
 21
9.5990763687
  0
LINE
  5
289
100
AcDbEntity
  8
RACCORDO
100
AcDbLine
 62
7
  6
CONTINUOUS
 10
-3.8140880059
 20
9.8602520164
 11
-4.8412198221
 21
9.1376408854
  0
LWPOLYLINE
  5
28A
100
AcDbEntity
  8
RACCORDO
100
AcDbPolyline
 62
7
  6
CONTINUOUS
 90
10
 70
0
 10
12.0167079656
 20
22.9811921891
 10
12.0561528671
 20
23.0087016579
 10
12.0947204623
 20
23.0347620969
 10
12.1324107511
 20
23.0593735059
 10
12.1692417189
 20
23.0825558489
 10
12.2051953804
 20
23.1042891619
 10
12.2402177791
 20
23.1245135532
 10
12.2742909298
 20
23.1432090588
 10
12.3074328178
 20
23.1603956426
 10
12.3396434431
 20
23.1760733047
  0
LINE
  5
28B
100
AcDbEntity
  8
DRAFT
100
AcDbLine
 62
7
  6
CONTINUOUS
 10
1.0789843291
 20
13.8329723373
 11
1.3624616081
 21
14.0299527324
  0
LWPOLYLINE
  5
28C
100
AcDbEntity
  8
0
100
AcDbPolyline
 62
7
  6
CONTINUOUS
 90
10
 70
0
 10
-2.2861869832
 20
10.7011326075
 10
-2.2688776819
 20
10.7130675505
 10
-2.2516313654
 20
10.7243586968
 10
-2.2344480336
 20
10.7350060462
 10
-2.2173069216
 20
10.7450209929
 10
-2.2002287944
 20
10.7543921428
 10
-2.1832759467
 20
10.7630853135
 10
-2.1664691432
 20
10.7710891106
 10
-2.1497876192
 20
10.7784149285
 10
-2.1332313746
 20
10.7850627671
  0
LWPOLYLINE
  5
28D
100
AcDbEntity
  8
0
100
AcDbPolyline
 62
7
  6
CONTINUOUS
 90
10
 70
0
 10
-2.2861869832
 20
10.418289895
 10
-2.2787687112
 20
10.4234048706
 10
-2.2713774327
 20
10.4282439333
 10
-2.2640131476
 20
10.432807083
 10
-2.2566669568
 20
10.4370992031
 10
-2.2493477594
 20
10.4411154102
 10
-2.2420822533
 20
10.4448410547
 10
-2.2348793375
 20
10.4482712535
 10
-2.2277301129
 20
10.4514108897
 10
-2.2206345795
 20
10.4542599634
  0
LWPOLYLINE
  5
28E
100
AcDbEntity
  8
ASSI
100
AcDbPolyline
 62
7
  6
CONTINUOUS
 90
44
 70
0
 10
12.2595913655
 20
21.1179366882
 10
12.3245932559
 20
21.161385819
 10
12.3924393874
 20
21.2020181137
 10
12.4631297603
 20
21.2398335724
 10
12.536895865
 20
21.2749297323
 10
12.613506211
 20
21.3072090562
 10
12.6922663261
 20
21.3363789323
 10
12.7731957572
 20
21.3624110881
 10
12.8562749576
 20
21.3853337961
 10
12.940750815
 20
21.4049392622
 10
13.0266360285
 20
21.4211973245
 10
13.1139178992
 20
21.4341381449
 10
13.2018052176
 20
21.4436444151
 10
13.2903034889
 20
21.4496849064
 10
13.379407208
 20
21.4522908473
 10
13.4683086505
 20
21.4514386152
 10
13.5570059774
 20
21.4470967666
 10
13.6455010277
 20
21.4392967449
 10
13.7329915948
 20
21.4281092571
 10
13.8194685453
 20
21.4135035029
 10
13.9049410126
 20
21.3955102827
 10
13.9886341896
 20
21.3742927049
 10
14.0705318981
 20
21.3498214521
 10
14.1506503162
 20
21.3221258416
 10
14.2282631714
 20
21.2914569338
 10
14.3033476818
 20
21.2577876943
 10
14.3759266293
 20
21.2211451575
 10
14.4453420863
 20
21.1818614878
 10
14.5115652889
 20
21.1399126707
 10
14.5746250011
 20
21.0953227205
 10
14.6339495873
 20
21.0484958449
 10
14.6895050858
 20
20.9994117045
 10
14.7413254582
 20
20.9480906386
 10
14.7889409534
 20
20.8949978721
 10
14.8323133387
 20
20.8401172959
 10
14.8714808467
 20
20.7834650191
 10
14.9060884243
 20
20.7255545941
 10
14.9360946107
 20
20.6663745811
 10
14.9615408667
 20
20.6059364199
 10
14.9821965223
 20
20.5447879817
 10
14.9980180192
 20
20.4829228085
 10
15.0090489158
 20
20.4203473583
 10
15.0151892169
 20
20.357628877
 10
15.0165529118
 20
20.3104366918
  0
LWPOLYLINE
  5
28F
100
AcDbEntity
  8
RACCORDO
100
AcDbPolyline
 62
7
  6
CONTINUOUS
 90
17
 70
0
 10
-4.7216005284
 20
10.4421879777
 10
-4.7192608511
 20
10.4437474058
 10
-4.7138073248
 20
10.4467071085
 10
-4.7079227749
 20
10.4490387037
 10
-4.7016742063
 20
10.4507156423
 10
-4.6950574585
 20
10.4517304417
 10
-4.6880766921
 20
10.4520905845
 10
-4.6808113945
 20
10.45179197
 10
-4.6732583135
 20
10.4508270685
 10
-4.6654207013
 20
10.4492034096
 10
-4.6573878018
 20
10.4469394814
 10
-4.6491573829
 20
10.4440279655
 10
-4.6407316768
 20
10.4404761803
 10
-4.6322066236
 20
10.4363245685
 10
-4.6236142037
 20
10.4315866112
 10
-4.6149224368
 20
10.4262488273
 10
-4.6061313229
 20
10.4203112169
  0
LWPOLYLINE
  5
290
100
AcDbEntity
  8
RACCORDO
100
AcDbPolyline
 62
7
  6
CONTINUOUS
 90
10
 70
0
 10
17.5015229457
 20
19.5260733047
 10
17.4693123204
 20
19.5103956426
 10
17.4361704325
 20
19.4932090588
 10
17.4020972818
 20
19.4745135532
 10
17.367074883
 20
19.4542891619
 10
17.3311212216
 20
19.4325558489
 10
17.2942902537
 20
19.4093735059
 10
17.256599965
 20
19.3847620969
 10
17.2180323698
 20
19.3587016579
 10
17.1785874682
 20
19.3311921891
  0
LWPOLYLINE
  5
291
100
AcDbEntity
  8
RACCORDO
100
AcDbPolyline
 62
7
  6
CONTINUOUS
 90
10
 70
0
 10
17.5015229457
 20
19.5260733047
 10
17.5971864231
 20
19.5704150158
 10
17.6942635795
 20
19.6143956527
 10
17.7927544147
 20
19.6580152155
 10
17.8923389186
 20
19.7011367471
 10
17.9933371014
 20
19.7438972045
 10
18.0967089942
 20
19.7867074588
 10
18.2027746073
 20
19.8297044668
 10
18.3112139304
 20
19.8727512717
 10
18.4220269636
 20
19.9158478734
  0
LWPOLYLINE
  5
292
100
AcDbEntity
  8
0
100
AcDbPolyline
 62
7
  6
CONTINUOUS
 90
10
 70
0
 10
18.4220269636
 20
19.9158478734
 10
18.4341439281
 20
19.9213042738
 10
18.4449405165
 20
19.927863428
 10
18.4543616225
 20
19.9354293284
 10
18.4623570985
 20
19.943888234
 10
18.4689113632
 20
19.9531590543
 10
18.4740258986
 20
19.9631991419
 10
18.4776814426
 20
19.9739158033
 10
18.4798731969
 20
19.9852190639
 10
18.4806056073
 20
19.9970775682
  0
LINE
  5
293
100
AcDbEntity
  8
RACCORDO
100
AcDbLine
 62
7
  6
CONTINUOUS
 10
-0.9185631193
 20
12.4046639059
 11
-2.868808804
 21
11.6593051928
  0
LINE
  5
294
100
AcDbEntity
  8
0
100
AcDbLine
 62
7
  6
CONTINUOUS
 10
-2.1332313746
 20
10.7850627671
 11
2.3420713291
 21
12.4954656617
  0
LINE
  5
295
100
AcDbEntity
  8
0
100
AcDbLine
 62
7
  6
CONTINUOUS
 10
-2.2206345795
 20
10.4542599634
 11
1.4605512629
 21
11.8611616497
  0
LWPOLYLINE
  5
296
100
AcDbEntity
  8
RACCORDO
100
AcDbPolyline
 62
7
  6
CONTINUOUS
 90
25
 70
0
 10
-2.868808804
 20
11.6593051928
 10
-2.8779809087
 20
11.6561412626
 10
-2.8876332294
 20
11.6534389424
 10
-2.897765766
 20
11.6511982322
 10
-2.9084258848
 20
11.6494135064
 10
-2.9195662196
 20
11.6480903906
 10
-2.9310446715
 20
11.6472457615
 10
-2.9428655717
 20
11.6468857486
 10
-2.9550245891
 20
11.6470042225
 10
-2.967366631
 20
11.6475996719
 10
-2.979894042
 20
11.648678207
 10
-2.9926044777
 20
11.6502337177
 10
-3.0053358119
 20
11.6522463629
 10
-3.0180883123
 20
11.6547219984
 10
-3.0308617114
 20
11.6576547685
 10
-3.0434930798
 20
11.6610072646
 10
-3.0559805983
 20
11.6647848633
 10
-3.0683260861
 20
11.6689821881
 10
-3.0803720724
 20
11.6735457006
 10
-3.0921147205
 20
11.6784800915
 10
-3.103557867
 20
11.6837806702
 10
-3.1145555506
 20
11.6893798258
 10
-3.1250591176
 20
11.6952550214
 10
-3.1351172216
 20
11.701428794
 10
-3.1447298626
 20
11.7079011436
  0
LINE
  5
297
100
AcDbEntity
  8
RACCORDO
100
AcDbLine
 62
7
  6
CONTINUOUS
 10
8.8257253307
 20
-18.5806276526
 11
8.806474379
 21
-18.5673122784
  0
LINE
  5
298
100
AcDbEntity
  8
RACCORDO
100
AcDbLine
 62
7
  6
CONTINUOUS
 10
8.8344098584
 20
-18.5866897071
 11
8.8257253307
 21
-18.5806276526
  0
LWPOLYLINE
  5
299
100
AcDbEntity
  8
ASSI
100
AcDbPolyline
 62
250
  6
CONTINUOUS
 90
19
 70
0
 10
-5.8156246707
 20
-27.5530331361
 10
-5.8126864946
 20
-27.5882560289
 10
-5.8069924044
 20
-27.6209458248
 10
-5.7985424
 20
-27.6511025237
 10
-5.7872722245
 20
-27.6788870635
 10
-5.773246135
 20
-27.7041385064
 10
-5.7566569017
 20
-27.7263740386
 10
-5.7374369614
 20
-27.7455436727
 10
-5.7156538774
 20
-27.7616973962
 10
-5.6917031108
 20
-27.7745023572
 10
-5.6655353535
 20
-27.7838748171
 10
-5.6371999136
 20
-27.7898985145
 10
-5.6072401769
 20
-27.7924918135
 10
-5.5756374368
 20
-27.7915828468
 10
-5.5424103999
 20
-27.7872434817
 10
-5.5081585716
 20
-27.7796076843
 10
-5.4730817872
 20
-27.7687201099
 10
-5.4369802114
 20
-27.7545361033
 10
-5.3998538442
 20
-27.7370556643
  0
LWPOLYLINE
  5
29A
100
AcDbEntity
  8
ASSI
100
AcDbPolyline
 62
250
  6
CONTINUOUS
 90
9
 70
0
 10
-6.2359891044
 20
-27.5586893876
 10
-6.2318442902
 20
-27.6088439638
 10
-6.2236793967
 20
-27.6557710871
 10
-6.2115386523
 20
-27.699204554
 10
-6.1954967843
 20
-27.7388789531
 10
-6.1756378466
 20
-27.7745924199
 10
-6.1520351614
 20
-27.8061863141
 10
-6.1247712514
 20
-27.8334877474
 10
-6.1052094557
 20
-27.848794385
  0
LINE
  5
29B
100
AcDbEntity
  8
RACCORDO
100
AcDbLine
 62
7
  6
CONTINUOUS
 10
-10.0277265713
 20
14.124862309
 11
-9.9122583918
 21
12.7234066457
  0
LWPOLYLINE
  5
29C
100
AcDbEntity
  8
RACCORDO
100
AcDbPolyline
 62
250
  6
CONTINUOUS
 90
40
 70
0
 10
-7.7670237432
 20
22.2557580848
 10
-7.7670428818
 20
22.2630642979
 10
-7.7673487218
 20
22.2705614108
 10
-7.7679407671
 20
22.2782372631
 10
-7.7688180575
 20
22.2860794046
 10
-7.7699791699
 20
22.2940751152
 10
-7.7714222211
 20
22.3022114259
 10
-7.7731448703
 20
22.3104751395
 10
-7.7751443236
 20
22.3188528524
 10
-7.7774173376
 20
22.3273309758
 10
-7.7799602257
 20
22.3358957581
 10
-7.7827688631
 20
22.3445333073
 10
-7.7858386944
 20
22.3532296132
 10
-7.7891647402
 20
22.3619705704
 10
-7.7927416057
 20
22.370742001
 10
-7.7965634891
 20
22.3795296778
 10
-7.8006241914
 20
22.388319347
 10
-7.8049171262
 20
22.3970967518
 10
-7.8094353301
 20
22.4058476553
 10
-7.8141714748
 20
22.4145578634
 10
-7.8191178781
 20
22.4232132481
 10
-7.824266517
 20
22.4317997704
 10
-7.8296090403
 20
22.4403035028
 10
-7.8351367825
 20
22.4487106524
 10
-7.8408407775
 20
22.4570075827
 10
-7.8467117735
 20
22.465180836
 10
-7.8527402477
 20
22.4732171553
 10
-7.8589164218
 20
22.4811035057
 10
-7.8652302781
 20
22.4888270954
 10
-7.8716715755
 20
22.4963753968
 10
-7.8782298662
 20
22.5037361665
 10
-7.8848945126
 20
22.5108974653
 10
-7.8916547046
 20
22.5178476775
 10
-7.8984994772
 20
22.5245755299
 10
-7.9054177281
 20
22.5310701099
 10
-7.9123982359
 20
22.5373208832
 10
-7.9194296782
 20
22.5433177111
 10
-7.9265006499
 20
22.5490508667
 10
-7.933599682
 20
22.5545110508
 10
-7.9407152598
 20
22.559689407
  0
LINE
  5
29D
100
AcDbEntity
  8
RACCORDO
100
AcDbLine
 62
250
  6
CONTINUOUS
 10
-7.2459491935
 20
21.5719337176
 11
-7.2459491935
 21
22.0939641184
  0
LINE
  5
29E
100
AcDbEntity
  8
RACCORDO
100
AcDbLine
 62
7
  6
CONTINUOUS
 10
-7.1727258888
 20
21.5834722546
 11
-7.1727258888
 21
22.2189641184
  0
LINE
  5
29F
100
AcDbEntity
  8
RACCORDO
100
AcDbLine
 62
250
  6
CONTINUOUS
 10
-4.9559934259
 20
15.4060679551
 11
-5.0012674133
 21
15.234715406
  0
LINE
  5
2A0
100
AcDbEntity
  8
RACCORDO
100
AcDbLine
 62
250
  6
CONTINUOUS
 10
-5.2022611819
 20
13.3093051928
 11
-5.233191305
 21
13.1922411625
  0
LWPOLYLINE
  5
2A1
100
AcDbEntity
  8
RACCORDO
100
AcDbPolyline
 62
7
  6
CONTINUOUS
 90
11
 70
0
 10
-4.8971309838
 20
15.3035746432
 10
-4.8981815371
 20
15.3000755043
 10
-4.9007697033
 20
15.2937739221
 10
-4.904179028
 20
15.287705429
 10
-4.9083660241
 20
15.2819474307
 10
-4.9133406534
 20
15.2765039046
 10
-4.9190929541
 20
15.2713708733
 10
-4.9255495535
 20
15.2666138104
 10
-4.9326859943
 20
15.2622545405
 10
-4.9405267338
 20
15.258271239
 10
-4.9490717721
 20
15.2546639059
  0
LWPOLYLINE
  5
2A2
100
AcDbEntity
  8
RACCORDO
100
AcDbPolyline
 62
7
  6
CONTINUOUS
 90
11
 70
0
 10
-5.2542019702
 20
13.2603944555
 10
-5.2531514169
 20
13.2638935944
 10
-5.2505632507
 20
13.2701951766
 10
-5.247153926
 20
13.2762636697
 10
-5.2429669299
 20
13.282021668
 10
-5.2379923006
 20
13.2874651941
 10
-5.2322399999
 20
13.2925982254
 10
-5.2257834005
 20
13.2973552883
 10
-5.2186469597
 20
13.3017145582
 10
-5.2108062202
 20
13.3056978597
 10
-5.2022611819
 20
13.3093051928
  0
LINE
  5
2A3
100
AcDbEntity
  8
RACCORDO
100
AcDbLine
 62
250
  6
CONTINUOUS
 10
-4.0176187196
 20
10.0041699643
 11
-4.0800271918
 21
9.8976320383
  0
LWPOLYLINE
  5
2A4
100
AcDbEntity
  8
0
100
AcDbPolyline
 62
7
  6
CONTINUOUS
 90
10
 70
0
 10
8.3811106707
 20
20.1158478734
 10
8.3689937061
 20
20.1025553926
 10
8.3581971178
 20
20.0890716017
 10
8.3487760117
 20
20.0754925083
 10
8.3407805358
 20
20.0619254779
 10
8.334226271
 20
20.0484579766
 10
8.3291117357
 20
20.0351517782
 10
8.3254561917
 20
20.0221053281
 10
8.3232644373
 20
20.009402849
 10
8.3225320269
 20
19.9970775682
  0
LWPOLYLINE
  5
2A5
100
AcDbEntity
  8
RACCORDO
100
AcDbPolyline
 62
7
  6
CONTINUOUS
 90
10
 70
0
 10
9.3016146885
 20
21.0278625709
 10
9.2059512111
 20
20.9369156949
 10
9.1088740548
 20
20.8436085007
 10
9.0103832195
 20
20.7479409885
 10
8.9107987157
 20
20.6502287641
 10
8.8098005329
 20
20.5501562217
 10
8.7064286401
 20
20.4467765431
 10
8.6003630269
 20
20.3397741226
 10
8.4919237038
 20
20.229464566
 10
8.3811106707
 20
20.1158478734
  0
LWPOLYLINE
  5
2A6
100
AcDbEntity
  8
RACCORDO
100
AcDbPolyline
 62
7
  6
CONTINUOUS
 90
10
 70
0
 10
9.3016146885
 20
21.0278625709
 10
9.3338253138
 20
21.057737612
 10
9.3669672018
 20
21.0874207356
 10
9.4010403525
 20
21.1169119418
 10
9.4360627512
 20
21.1462167019
 10
9.4720164127
 20
21.1753295444
 10
9.5088473805
 20
21.2042340556
 10
9.5465376693
 20
21.2329247642
 10
9.5851052645
 20
21.2614071415
 10
9.624550166
 20
21.2896811874
  0
LWPOLYLINE
  5
2A7
100
AcDbEntity
  8
ASSI
100
AcDbPolyline
 62
7
  6
CONTINUOUS
 90
3
 70
0
 10
10.830858139
 20
20.2897260101
 10
10.8220695775
 20
20.2825370129
 10
10.8150827772
 20
20.275143161
  0
LWPOLYLINE
  5
2A8
100
AcDbEntity
  8
ASSI
100
AcDbPolyline
 62
7
  6
CONTINUOUS
 90
8
 70
0
 10
10.830858139
 20
20.3604366882
 10
10.8230035044
 20
20.3541317191
 10
10.8163634709
 20
20.3474262604
 10
10.8109380384
 20
20.3403203121
 10
10.8066870526
 20
20.3327079085
 10
10.8036506678
 20
20.3246950153
 10
10.8019493473
 20
20.3165995299
 10
10.8015883405
 20
20.3104367289
  0
LWPOLYLINE
  5
2A9
100
AcDbEntity
  8
ASSI
100
AcDbPolyline
 62
7
  6
CONTINUOUS
 90
8
 70
0
 10
10.9722794952
 20
20.2604366882
 10
10.9801341298
 20
20.2667416574
 10
10.9867741634
 20
20.2734471161
 10
10.9921995958
 20
20.2805530644
 10
10.9964505817
 20
20.288165468
 10
10.9994869664
 20
20.2961783612
 10
11.0011882869
 20
20.3042738466
 10
11.0015492937
 20
20.3104366475
  0
LWPOLYLINE
  5
2AA
100
AcDbEntity
  8
RACCORDO
100
AcDbPolyline
 62
7
  6
CONTINUOUS
 90
20
 70
0
 10
-3.8568681514
 20
8.0349748194
 10
-3.8803309879
 20
8.0173644775
 10
-3.9026646669
 20
7.9991458693
 10
-3.9238691883
 20
7.9803189948
 10
-3.9439772463
 20
7.9608491436
 10
-3.9629561467
 20
7.9407710262
 10
-3.9807078074
 20
7.9201887742
 10
-3.9972263955
 20
7.8990985333
 10
-4.0125177439
 20
7.8775041578
 10
-4.0265012692
 20
7.8555213425
 10
-4.0391683084
 20
7.8331526154
 10
-4.0505275245
 20
7.8103954486
 10
-4.060524323
 20
7.787357952
 10
-4.0691543749
 20
7.764030375
 10
-4.0764220091
 20
7.7404224684
 10
-4.0822856181
 20
7.7166715947
 10
-4.086735983
 20
7.6927887562
 10
-4.0897823227
 20
7.6687629507
 10
-4.0914106864
 20
7.6446985344
 10
-4.0917044679
 20
7.629076551
  0
LINE
  5
2AB
100
AcDbEntity
  8
RACCORDO
100
AcDbLine
 62
7
  6
CONTINUOUS
 10
-3.8568681514
 20
8.0349748194
 11
2.6535457431
 21
12.7195892841
  0
LINE
  5
2AC
100
AcDbEntity
  8
RACCORDO
100
AcDbLine
 62
7
  6
CONTINUOUS
 10
5.4298455701
 20
12.9014488498
 11
3.9263379492
 21
11.8195892841
  0
LINE
  5
2AD
100
AcDbEntity
  8
0
100
AcDbLine
 62
7
  6
CONTINUOUS
 10
-2.8618871502
 20
9.5869443343
 11
-3.1447298626
 21
9.3869443343
  0
LINE
  5
2AE
100
AcDbEntity
  8
0
100
AcDbLine
 62
7
  6
CONTINUOUS
 10
10.7329324391
 20
17.4867873959
 11
10.3160595907
 21
17.1941965389
  0
LINE
  5
2AF
100
AcDbEntity
  8
SMUSSO
100
AcDbLine
 62
7
  6
CONTINUOUS
 10
10.3651424818
 20
16.9890940985
 11
10.9029509677
 21
17.3665661414
  0
LINE
  5
2B0
100
AcDbEntity
  8
RACCORDO
100
AcDbLine
 62
250
  6
CONTINUOUS
 10
17.4954478146
 20
21.0334971958
 11
17.6099648808
 21
21.1138733745
  0
LWPOLYLINE
  5
2B1
100
AcDbEntity
  8
RACCORDO
100
AcDbPolyline
 62
7
  6
CONTINUOUS
 90
7
 70
0
 10
10.9899102201
 20
17.3050766643
 10
10.9081273804
 20
17.2480013047
 10
10.7908802788
 20
17.1577051103
 10
10.6798097968
 20
17.0632469824
 10
10.5752614622
 20
16.9649018775
 10
10.4776873971
 20
16.8631170033
 10
10.4339750833
 20
16.8123685928
  0
LINE
  5
2B2
100
AcDbEntity
  8
RACCORDO
100
AcDbLine
 62
7
  6
CONTINUOUS
 10
3.9263379492
 20
11.8195892841
 11
-2.6987073611
 21
7.2160314709
  0
LINE
  5
2B3
100
AcDbEntity
  8
RACCORDO
100
AcDbLine
 62
7
  6
CONTINUOUS
 10
4.1967646545
 20
13.7733687269
 11
2.9394758621
 21
12.9148352594
  0
LWPOLYLINE
  5
2B4
100
AcDbEntity
  8
ASSI
100
AcDbPolyline
 62
7
  6
CONTINUOUS
 90
44
 70
0
 10
14.5435462687
 20
19.5029366882
 10
14.4785443784
 20
19.4594875575
 10
14.4106982468
 20
19.4188552628
 10
14.340007874
 20
19.3810398041
 10
14.2662417693
 20
19.3459436442
 10
14.1896314233
 20
19.3136643203
 10
14.1108713081
 20
19.2844944442
 10
14.029941877
 20
19.2584622884
 10
13.9468626767
 20
19.2355395804
 10
13.8623868193
 20
19.2159341143
 10
13.7765016057
 20
19.1996760519
 10
13.6892197351
 20
19.1867352315
 10
13.6013324166
 20
19.1772289614
 10
13.5128341454
 20
19.1711884701
 10
13.4237304263
 20
19.1685825291
 10
13.3348289837
 20
19.1694347613
 10
13.2461316569
 20
19.1737766099
 10
13.1576366065
 20
19.1815766316
 10
13.0701460395
 20
19.1927641193
 10
12.9836690889
 20
19.2073698735
 10
12.8981966216
 20
19.2253630937
 10
12.8145034447
 20
19.2465806715
 10
12.7326057362
 20
19.2710519244
 10
12.652487318
 20
19.2987475349
 10
12.5748744629
 20
19.3294164426
 10
12.4997899524
 20
19.3630856822
 10
12.427211005
 20
19.3997282189
 10
12.357795548
 20
19.4390118887
 10
12.2915723453
 20
19.4809607058
 10
12.2285126331
 20
19.5255506559
 10
12.169188047
 20
19.5723775316
 10
12.1136325485
 20
19.621461672
 10
12.061812176
 20
19.6727827379
 10
12.0141966808
 20
19.7258755043
 10
11.9708242956
 20
19.7807560805
 10
11.9316567876
 20
19.8374083573
 10
11.8970492099
 20
19.8953187824
 10
11.8670430236
 20
19.9544987953
 10
11.8415967676
 20
20.0149369566
 10
11.8209411119
 20
20.0760853947
 10
11.805119615
 20
20.137950568
 10
11.7940887185
 20
20.2005260182
 10
11.7879484173
 20
20.2632444994
 10
11.7865847225
 20
20.3104366847
  0
LWPOLYLINE
  5
2B5
100
AcDbEntity
  8
0
100
AcDbPolyline
 62
7
  6
CONTINUOUS
 90
16
 70
0
 10
16.7300043878
 20
17.9533358792
 10
16.8364141838
 20
18.0136865372
 10
16.9429796798
 20
18.0724852348
 10
17.0497008757
 20
18.1297319722
 10
17.1563377047
 20
18.1852529711
 10
17.2631302337
 20
18.2392220097
 10
17.3707986634
 20
18.2921604226
 10
17.4792464024
 20
18.3440586685
 10
17.588570042
 20
18.3949262887
 10
17.6997795577
 20
18.4453132415
 10
17.8127165349
 20
18.4951938874
 10
17.9275393882
 20
18.5445938659
 10
18.0457333358
 20
18.594140054
 10
18.1677934506
 20
18.6440414107
 10
18.2932246599
 20
18.694088977
 10
18.4220269636
 20
18.7442827529
  0
LWPOLYLINE
  5
2B6
100
AcDbEntity
  8
0
100
AcDbPolyline
 62
7
  6
CONTINUOUS
 90
10
 70
0
 10
18.4220269636
 20
18.7442827529
 10
18.4341439281
 20
18.7497391533
 10
18.4449405165
 20
18.7562983075
 10
18.4543616225
 20
18.7638642079
 10
18.4623570989
 20
18.7723231142
 10
18.4689113639
 20
18.7815939352
 10
18.4740258986
 20
18.7916340215
 10
18.4776814411
 20
18.8023506766
 10
18.4798731952
 20
18.8136539288
 10
18.4806056073
 20
18.8255124477
  0
LINE
  5
2B7
100
AcDbEntity
  8
RACCORDO
100
AcDbLine
 62
250
  6
CONTINUOUS
 10
8.856540495
 20
-15.6578861983
 11
8.9803949051
 21
-15.7454188851
  0
LWPOLYLINE
  5
2B8
100
AcDbEntity
  8
RACCORDO
100
AcDbPolyline
 62
7
  6
CONTINUOUS
 90
28
 70
0
 10
-7.1727258888
 20
22.2189641184
 10
-7.1730791259
 20
22.2422722845
 10
-7.1741286075
 20
22.2650668037
 10
-7.1758592879
 20
22.2873489862
 10
-7.1782591413
 20
22.3091410922
 10
-7.1813125871
 20
22.3304234728
 10
-7.1849935681
 20
22.351135437
 10
-7.1892781782
 20
22.3712624957
 10
-7.194149377
 20
22.3908246385
 10
-7.1995837594
 20
22.4098122997
 10
-7.2055566998
 20
22.4282174485
 10
-7.2120492426
 20
22.4460510905
 10
-7.2190454113
 20
22.4633280012
 10
-7.2265186486
 20
22.4800358385
 10
-7.2344521998
 20
22.496186242
 10
-7.2428490137
 20
22.5118229841
 10
-7.2516934468
 20
22.5269459897
 10
-7.2609646722
 20
22.5415471821
 10
-7.2706634515
 20
22.5556509239
 10
-7.2807682627
 20
22.5692455066
 10
-7.2912653384
 20
22.5823313611
 10
-7.3021726168
 20
22.594943798
 10
-7.3134792877
 20
22.607077954
 10
-7.3251661267
 20
22.618720888
 10
-7.3372438931
 20
22.629888678
 10
-7.3497074839
 20
22.6405784716
 10
-7.3625332708
 20
22.6507721668
 10
-7.3757057055
 20
22.6604606993
  0
LWPOLYLINE
  5
2B9
100
AcDbEntity
  8
RACCORDO
100
AcDbPolyline
 62
250
  6
CONTINUOUS
 90
58
 70
0
 10
-7.2459491935
 20
22.0939641184
 10
-7.246147038
 20
22.1082882132
 10
-7.2467372128
 20
22.1223038976
 10
-7.2477197179
 20
22.1360111714
 10
-7.2490958577
 20
22.1494200987
 10
-7.2508643278
 20
22.1625206155
 10
-7.2530212148
 20
22.1752825295
 10
-7.255567395
 20
22.1877047858
 10
-7.258501992
 20
22.1997884394
 10
-7.2618184636
 20
22.2115064635
 10
-7.2655176583
 20
22.2228579949
 10
-7.2695987275
 20
22.2338438967
 10
-7.2740525833
 20
22.2444397321
 10
-7.2788800423
 20
22.2546446186
 10
-7.2840802881
 20
22.2644594387
 10
-7.2896417834
 20
22.2738624026
 10
-7.2955653527
 20
22.2828526261
 10
-7.3018501717
 20
22.2914309935
 10
-7.3084822299
 20
22.2995783675
 10
-7.3154622897
 20
22.3072937694
 10
-7.3227895888
 20
22.314578178
 10
-7.3304478291
 20
22.321415392
 10
-7.3384377559
 20
22.3278044211
 10
-7.3467586241
 20
22.3337462557
 10
-7.3553919004
 20
22.339227665
 10
-7.3643382649
 20
22.3442476161
 10
-7.3735970376
 20
22.3488071419
 10
-7.3831476445
 20
22.3528961106
 10
-7.3929907586
 20
22.3565134827
 10
-7.4031257069
 20
22.3596602977
 10
-7.4135298972
 20
22.3623295426
 10
-7.424203904
 20
22.3645201475
 10
-7.4351471528
 20
22.3662331823
 10
-7.4463353273
 20
22.3674648434
 10
-7.4577689897
 20
22.3682140622
 10
-7.4694475778
 20
22.3684819073
 10
-7.4813450892
 20
22.3682677806
 10
-7.4934620017
 20
22.3675706089
 10
-7.5057978373
 20
22.3663914653
 10
-7.5183251601
 20
22.3647329716
 10
-7.5310444228
 20
22.362594053
 10
-7.5439551726
 20
22.3599757842
 10
-7.5570286145
 20
22.3568840111
 10
-7.5702650651
 20
22.3533176907
 10
-7.5836642079
 20
22.3492778661
 10
-7.5971962981
 20
22.3447735114
 10
-7.6108616527
 20
22.3398035915
 10
-7.6246599547
 20
22.3343691415
 10
-7.6385605095
 20
22.3284822416
 10
-7.6525635974
 20
22.322141849
 10
-7.666668938
 20
22.3153490063
 10
-7.6808449954
 20
22.3081189212
 10
-7.6950923531
 20
22.3004503167
 10
-7.7094104276
 20
22.2923444697
 10
-7.7237659325
 20
22.2838204192
 10
-7.7381477723
 20
22.2748845113
 10
-7.7525670426
 20
22.2655303999
 10
-7.7670237432
 20
22.2557580848
  0
LINE
  5
2BA
100
AcDbEntity
  8
RACCORDO
100
AcDbLine
 62
7
  6
CONTINUOUS
 10
-6.1145783436
 20
18.9195892841
 11
-6.1145783436
 21
18.529451774
  0
LWPOLYLINE
  5
2BB
100
AcDbEntity
  8
ASSI
100
AcDbPolyline
 62
250
  6
CONTINUOUS
 90
10
 70
0
 10
-6.2359891044
 20
-3.8493039043
 10
-6.3300019205
 20
-6.5469324554
 10
-6.4005177479
 20
-9.2292249165
 10
-6.4475312589
 20
-11.895975
 10
-6.4710389018
 20
-14.5469776107
 10
-6.4710389017
 20
-17.1820289348
 10
-6.4475312587
 20
-19.8009264538
 10
-6.4005177477
 20
-22.4034688639
 10
-6.3300019205
 20
-24.989456093
 10
-6.2359891044
 20
-27.5586893876
  0
LWPOLYLINE
  5
2BC
100
AcDbEntity
  8
ASSI
100
AcDbPolyline
 62
250
  6
CONTINUOUS
 90
10
 70
0
 10
-5.8156246707
 20
-3.8603836896
 10
-5.9095781011
 20
-6.5564418472
 10
-5.9800431823
 20
-9.2367677048
 10
-6.0270199142
 20
-11.9013612624
 10
-6.0505083079
 20
-14.5504266376
 10
-6.0505083523
 20
-17.1837597127
 10
-6.0270200141
 20
-19.8007481354
 10
-5.9800432823
 20
-22.4011877882
 10
-5.9095781678
 20
-24.9852827884
 10
-5.8156246707
 20
-27.5530331361
  0
LINE
  5
2BD
100
AcDbEntity
  8
RACCORDO
100
AcDbLine
 62
7
  6
CONTINUOUS
 10
-4.8624827077
 20
9.1526760159
 11
-4.7470145282
 21
10.3908350138
  0
LINE
  5
2BE
100
AcDbEntity
  8
RACCORDO
100
AcDbLine
 62
7
  6
CONTINUOUS
 10
-4.5827347481
 20
9.3194911491
 11
-4.4878728732
 21
10.3366898652
  0
LWPOLYLINE
  5
2BF
100
AcDbEntity
  8
RACCORDO
100
AcDbPolyline
 62
7
  6
CONTINUOUS
 90
10
 70
0
 10
-4.7470145282
 20
10.3908350138
 10
-4.7459707467
 20
10.3988303242
 10
-4.7444080613
 20
10.4063135897
 10
-4.7423264723
 20
10.4132848101
 10
-4.7397140945
 20
10.419766644
 10
-4.736582813
 20
10.425736433
 10
-4.7329682824
 20
10.4311262012
 10
-4.7288649792
 20
10.4359293191
 10
-4.724278427
 20
10.4401524162
 10
-4.7216005284
 20
10.4421879777
  0
LINE
  5
2C0
100
AcDbEntity
  8
RACCORDO
100
AcDbLine
 62
250
  6
CONTINUOUS
 10
-3.2520154972
 20
14.0546639059
 11
-3.3394187021
 21
13.7238611023
  0
LINE
  5
2C1
100
AcDbEntity
  8
RACCORDO
100
AcDbLine
 62
250
  6
CONTINUOUS
 10
-2.9760944386
 20
14.0060679551
 11
-3.0634976435
 21
13.6752651515
  0
LINE
  5
2C2
100
AcDbEntity
  8
0
100
AcDbLine
 62
250
  6
CONTINUOUS
 10
-2.2206345795
 20
10.4542599634
 11
-2.1332313746
 21
10.7850627671
  0
LWPOLYLINE
  5
2C3
100
AcDbEntity
  8
ASSI
100
AcDbPolyline
 62
7
  6
CONTINUOUS
 90
3
 70
0
 10
15.830858139
 20
20.2897260101
 10
15.8220695775
 20
20.2825370129
 10
15.8150827772
 20
20.275143161
  0
LWPOLYLINE
  5
2C4
100
AcDbEntity
  8
ASSI
100
AcDbPolyline
 62
7
  6
CONTINUOUS
 90
8
 70
0
 10
15.830858139
 20
20.3604366882
 10
15.8230035044
 20
20.3541317191
 10
15.8163634709
 20
20.3474262604
 10
15.8109380384
 20
20.3403203121
 10
15.8066870526
 20
20.3327079085
 10
15.8036506678
 20
20.3246950153
 10
15.8019493473
 20
20.3165995299
 10
15.8015883405
 20
20.3104367289
  0
LWPOLYLINE
  5
2C5
100
AcDbEntity
  8
ASSI
100
AcDbPolyline
 62
7
  6
CONTINUOUS
 90
8
 70
0
 10
15.9722794952
 20
20.2604366882
 10
15.9801341298
 20
20.2667416574
 10
15.9867741634
 20
20.2734471161
 10
15.9921995958
 20
20.2805530644
 10
15.9964505817
 20
20.288165468
 10
15.9994869664
 20
20.2961783612
 10
16.0011882869
 20
20.3042738466
 10
16.0015492937
 20
20.3104366475
  0
LWPOLYLINE
  5
2C6
100
AcDbEntity
  8
RACCORDO
100
AcDbPolyline
 62
250
  6
CONTINUOUS
 90
79
 70
0
 10
0.0603259151
 20
6.935927006
 10
0.0404585468
 20
6.9208652276
 10
0.0214998113
 20
6.905303609
 10
0.0034497085
 20
6.8892421503
 10
-0.0137188724
 20
6.8726528367
 10
-0.0299788205
 20
6.855563683
 10
-0.0452488034
 20
6.8380587333
 10
-0.0595230699
 20
6.8201365848
 10
-0.0728073712
 20
6.8017986403
 10
-0.0850376279
 20
6.7831331523
 10
-0.0962085031
 20
6.7641388854
 10
-0.1063253337
 20
6.7448170749
 10
-0.115340051
 20
6.7252596788
 10
-0.1232474639
 20
6.7054655313
 10
-0.1300527635
 20
6.6854357982
 10
-0.135723454
 20
6.6652659353
 10
-0.1402541299
 20
6.6449551385
 10
-0.1436501967
 20
6.6245042119
 10
-0.1458953755
 20
6.6040110232
 10
-0.146984128
 20
6.583475448
 10
-0.1469219926
 20
6.5628976106
 10
-0.1457093057
 20
6.5423757519
 10
-0.1433405808
 20
6.5219101831
 10
-0.1398213043
 20
6.5015005929
 10
-0.1351682716
 20
6.4812442881
 10
-0.1293760659
 20
6.4611419642
 10
-0.1224501039
 20
6.4411929256
 10
-0.1144234316
 20
6.4214923929
 10
-0.1052907774
 20
6.4020415424
 10
-0.0950574129
 20
6.3828391979
 10
-0.0837721987
 20
6.3639770514
 10
-0.0714301054
 20
6.3454567381
 10
-0.0580361625
 20
6.3272766229
 10
-0.043654319
 20
6.3095234924
 10
-0.0282798577
 20
6.2921993954
 10
-0.0119174957
 20
6.2753022832
 10
0.0053546657
 20
6.2589127967
 10
0.0235409774
 20
6.2430333601
 10
0.0426370886
 20
6.2276615492
 10
0.062551846
 20
6.2128707317
 10
0.0832891631
 20
6.1986636853
 10
0.1048451265
 20
6.1850376323
 10
0.1271168427
 20
6.1720576075
 10
0.1501077257
 20
6.159726702
 10
0.1738143615
 20
6.1480418247
 10
0.1981236143
 20
6.1370587378
 10
0.2230383675
 20
6.1267807927
 10
0.2485557377
 20
6.117204638
 10
0.2745539389
 20
6.1083759806
 10
0.3010352892
 20
6.1002983904
 10
0.3279974704
 20
6.0929682976
 10
0.3553117416
 20
6.0864207003
 10
0.3829797716
 20
6.0806593457
 10
0.4109998915
 20
6.0756804865
 10
0.4392383535
 20
6.0715078794
 10
0.4676961477
 20
6.0681453769
 10
0.4963722841
 20
6.0655891263
 10
0.525130044
 20
6.0638513264
 10
0.5539698739
 20
6.0629358793
 10
0.5828913275
 20
6.0628388828
 10
0.6117563466
 20
6.0635608289
 10
0.640564775
 20
6.0651056573
 10
0.6693167689
 20
6.0674694284
 10
0.6978747399
 20
6.070640815
 10
0.7262375813
 20
6.0746236688
 10
0.7544063997
 20
6.0794141383
 10
0.7822469266
 20
6.0849893416
 10
0.809757523
 20
6.09135297
 10
0.8369398279
 20
6.0985013323
 10
0.8636644898
 20
6.1064004731
 10
0.889929781
 20
6.1150541949
 10
0.9157374293
 20
6.1244586953
 10
0.9409632667
 20
6.1345686108
 10
0.9656058049
 20
6.1453883429
 10
0.9896665322
 20
6.15691349
 10
1.0130257455
 20
6.1690854852
 10
1.0356435439
 20
6.1818848059
 10
1.0575598285
 20
6.1953309746
 10
1.0787745991
 20
6.2094239912
  0
LWPOLYLINE
  5
2C7
100
AcDbEntity
  8
RACCORDO
100
AcDbPolyline
 62
7
  6
CONTINUOUS
 90
23
 70
0
 10
-0.0853196816
 20
6.9623258259
 10
-0.1007752725
 20
6.9508149442
 10
-0.1276434749
 20
6.9295259328
 10
-0.1533164975
 20
6.9075018894
 10
-0.177766221
 20
6.8847849819
 10
-0.200980208
 20
6.8614080994
 10
-0.222953448
 20
6.8373956583
 10
-0.2436694969
 20
6.8127817259
 10
-0.2631115474
 20
6.7876047184
 10
-0.2812692216
 20
6.76189624
 10
-0.298125557
 20
6.7356958141
 10
-0.3136661166
 20
6.7090440103
 10
-0.3278820816
 20
6.6819770436
 10
-0.340760126
 20
6.6545400177
 10
-0.352289832
 20
6.6267764766
 10
-0.3624667845
 20
6.5987245663
 10
-0.3712843967
 20
6.5704306895
 10
-0.3787363847
 20
6.5419455506
 10
-0.3848213057
 20
6.513317582
 10
-0.3895408717
 20
6.4845976887
 10
-0.3928986496
 20
6.4558375032
 10
-0.39490089
 20
6.4270887462
 10
-0.3955588741
 20
6.3985140167
  0
LINE
  5
2C8
100
AcDbEntity
  8
RACCORDO
100
AcDbLine
 62
7
  6
CONTINUOUS
 10
1.3417683458
 20
8.0017610678
 11
-0.0853181337
 21
6.9623272399
  0
LINE
  5
2C9
100
AcDbEntity
  8
RACCORDO
100
AcDbLine
 62
250
  6
CONTINUOUS
 10
1.486812823
 20
7.9749241296
 11
0.0603259151
 21
6.935927006
  0
LWPOLYLINE
  5
2CA
100
AcDbEntity
  8
RACCORDO
100
AcDbPolyline
 62
7
  6
CONTINUOUS
 90
10
 70
0
 10
14.7864296687
 20
17.6396811874
 10
14.7469847671
 20
17.6114071415
 10
14.708417172
 20
17.5829247642
 10
14.6707268832
 20
17.5542340556
 10
14.6338959153
 20
17.5253295444
 10
14.5979422539
 20
17.4962167019
 10
14.5629198551
 20
17.4669119418
 10
14.5288467045
 20
17.4374207356
 10
14.4957048165
 20
17.407737612
 10
14.4634941912
 20
17.3778625709
  0
LINE
  5
2CB
100
AcDbEntity
  8
DRAFT
100
AcDbLine
 62
7
  6
CONTINUOUS
 10
5.9590522152
 20
12.734017757
 11
3.9263379492
 21
11.2892591982
  0
LINE
  5
2CC
100
AcDbEntity
  8
RACCORDO
100
AcDbLine
 62
7
  6
CONTINUOUS
 10
17.1785874682
 20
19.3311921891
 11
14.7864296687
 21
17.6396811874
  0
LINE
  5
2CD
100
AcDbEntity
  8
0
100
AcDbLine
 62
7
  6
CONTINUOUS
 10
15.2350127491
 20
16.8962171537
 11
16.7300043878
 21
17.9533358792
  0
LINE
  5
2CE
100
AcDbEntity
  8
RACCORDO
100
AcDbLine
 62
7
  6
CONTINUOUS
 10
3.9263379492
 20
11.2892591982
 11
-2.6987073611
 21
6.6283856771
  0
LINE
  5
2CF
100
AcDbEntity
  8
RACCORDO
100
AcDbLine
 62
7
  6
CONTINUOUS
 10
7.046351922
 20
11.8865616137
 11
1.4227038287
 21
8.0082030546
  0
LINE
  5
2D0
100
AcDbEntity
  8
RACCORDO
100
AcDbLine
 62
250
  6
CONTINUOUS
 10
7.1913698576
 20
11.859689407
 11
1.5221748932
 21
7.9499193699
  0
LINE
  5
2D1
100
AcDbEntity
  8
ASSI
100
AcDbLine
 62
250
  6
CONTINUOUS
 10
-23.0615990571
 20
8.0481989908
 11
-6.2359891044
 21
-3.8493039043
  0
LINE
  5
2D2
100
AcDbEntity
  8
ASSI
100
AcDbLine
 62
250
  6
CONTINUOUS
 10
-22.4849632557
 20
9.134500229
 11
-5.6450876966
 21
-2.7730899732
  0
LWPOLYLINE
  5
2D3
100
AcDbEntity
  8
ASSI
100
AcDbPolyline
 62
250
  6
CONTINUOUS
 90
13
 70
0
 10
-5.3998538442
 20
-3.1085470339
 10
-5.406510701
 20
-3.0833647813
 10
-5.4166059263
 20
-3.0560108064
 10
-5.4299675417
 20
-3.0269512667
 10
-5.4463678922
 20
-2.9966814043
 10
-5.4655275186
 20
-2.965717115
 10
-5.4871199154
 20
-2.934586157
 10
-5.5107771246
 20
-2.9038191142
 10
-5.5360959415
 20
-2.8739404406
 10
-5.5626447648
 20
-2.8454595197
 10
-5.5899710558
 20
-2.8188618573
 10
-5.6176090648
 20
-2.7946008168
 10
-5.6450876936
 20
-2.7730899707
  0
LWPOLYLINE
  5
2D4
100
AcDbEntity
  8
RACCORDO
100
AcDbPolyline
 62
250
  6
CONTINUOUS
 90
31
 70
0
 10
-2.4948905853
 20
2.2162263645
 10
-2.4952107769
 20
2.2255971847
 10
-2.4960062147
 20
2.2352909628
 10
-2.4972747207
 20
2.2452811239
 10
-2.4990128211
 20
2.2555402888
 10
-2.5012157525
 20
2.2660403235
 10
-2.5038774703
 20
2.2767524142
 10
-2.5069906742
 20
2.2876471856
 10
-2.5105468293
 20
2.2986947733
 10
-2.5145361808
 20
2.3098648781
 10
-2.5189477884
 20
2.3211268725
 10
-2.5237695558
 20
2.3324498823
 10
-2.52898826
 20
2.3438028607
 10
-2.5345895982
 20
2.3551546961
 10
-2.5405582054
 20
2.3664742523
 10
-2.5468776898
 20
2.377730451
 10
-2.5535306919
 20
2.3888923877
 10
-2.5604989921
 20
2.399929511
 10
-2.5677635443
 20
2.4108116567
 10
-2.5753045376
 20
2.4215091321
 10
-2.5831012045
 20
2.4319924609
 10
-2.5911319134
 20
2.4422325797
 10
-2.5993744581
 20
2.4522012373
 10
-2.6078063893
 20
2.4618713452
 10
-2.6164048376
 20
2.4712166982
 10
-2.6251481714
 20
2.4802136179
 10
-2.6340105411
 20
2.4888353402
 10
-2.6429619783
 20
2.4970531731
 10
-2.6519759105
 20
2.5048437909
 10
-2.6610294547
 20
2.5121884758
 10
-2.670097826
 20
2.5190680244
  0
LWPOLYLINE
  5
2D5
100
AcDbEntity
  8
RACCORDO
100
AcDbPolyline
 62
250
  6
CONTINUOUS
 90
13
 70
0
 10
-2.8453318732
 20
-29.0830883315
 10
-2.8450922906
 20
-29.0921193463
 10
-2.8443741924
 20
-29.100787061
 10
-2.8431795249
 20
-29.1090679812
 10
-2.8415115263
 20
-29.1169396609
 10
-2.839374718
 20
-29.1243807634
 10
-2.8367748918
 20
-29.1313711191
 10
-2.8337190949
 20
-29.1378917802
 10
-2.83021561
 20
-29.143925072
 10
-2.8262739336
 20
-29.1494546408
 10
-2.82190475
 20
-29.1544654984
 10
-2.8171199021
 20
-29.1589440624
 10
-2.8128927452
 20
-29.1622124767
  0
LWPOLYLINE
  5
2D6
100
AcDbEntity
  8
RACCORDO
100
AcDbPolyline
 62
7
  6
CONTINUOUS
 90
58
 70
0
 10
-4.0917044679
 20
7.629076551
 10
-4.0916138887
 20
7.6205806958
 10
-4.0903991148
 20
7.5964242465
 10
-4.0877739695
 20
7.572377978
 10
-4.0837337322
 20
7.5484589033
 10
-4.0782831234
 20
7.5246500094
 10
-4.0714439092
 20
7.5010490483
 10
-4.063202992
 20
7.4776394772
 10
-4.0535734695
 20
7.454437839
 10
-4.0426164004
 20
7.4315915133
 10
-4.0303342774
 20
7.4091203228
 10
-4.0167246078
 20
7.3870044449
 10
-4.0018409735
 20
7.3653317919
 10
-3.9856636204
 20
7.3440867926
 10
-3.9682123024
 20
7.3232850182
 10
-3.9495998637
 20
7.3030610937
 10
-3.929836825
 20
7.2834351547
 10
-3.9089126655
 20
7.2643870658
 10
-3.8869086665
 20
7.2459910458
 10
-3.8637993636
 20
7.2282346703
 10
-3.8396102214
 20
7.2111303637
 10
-3.8144989143
 20
7.194789619
 10
-3.7884830133
 20
7.1792304421
 10
-3.7615449476
 20
7.164434827
 10
-3.7337896785
 20
7.1504602483
 10
-3.7051887303
 20
7.1372992667
 10
-3.6757705787
 20
7.1249593214
 10
-3.6457256126
 20
7.1135202053
 10
-3.6150758528
 20
7.1029958866
 10
-3.5837992783
 20
7.093372397
 10
-3.552020216
 20
7.0846876244
 10
-3.5197106324
 20
7.0769398066
 10
-3.4868985608
 20
7.0701307059
 10
-3.453792428
 20
7.0643034975
 10
-3.4204156287
 20
7.0594674428
 10
-3.386744768
 20
7.0556132803
 10
-3.3529180882
 20
7.0527564011
 10
-3.3189115291
 20
7.0509001431
 10
-3.2847491509
 20
7.0500411683
 10
-3.2506413764
 20
7.050184854
 10
-3.2166091527
 20
7.0513362809
 10
-3.1826315326
 20
7.0534903684
 10
-3.1488560985
 20
7.0566372516
 10
-3.1152672908
 20
7.0607834493
 10
-3.0818806691
 20
7.0659224428
 10
-3.0488904933
 20
7.0720248109
 10
-3.0163105532
 20
7.0790936149
 10
-2.9841270592
 20
7.0871257937
 10
-2.9524929021
 20
7.0960827431
 10
-2.9214045065
 20
7.1059705886
 10
-2.8908654478
 20
7.1167832048
 10
-2.8610393431
 20
7.1284636104
 10
-2.8319316432
 20
7.1410159301
 10
-2.8035368972
 20
7.1544360392
 10
-2.7760023696
 20
7.1686545834
 10
-2.7493771484
 20
7.1836484443
 10
-2.7236121456
 20
7.1994407401
 10
-2.6987073611
 20
7.2160314709
  0
LINE
  5
2D7
100
AcDbEntity
  8
RACCORDO
100
AcDbLine
 62
7
  6
CONTINUOUS
 10
-4.5400169296
 20
17.8062062308
 11
-4.5400169296
 21
17.5470746909
  0
LINE
  5
2D8
100
AcDbEntity
  8
RACCORDO
100
AcDbLine
 62
7
  6
CONTINUOUS
 10
-4.099762203
 20
19.8610335084
 11
-4.099762203
 21
19.5466885613
  0
LINE
  5
2D9
100
AcDbEntity
  8
RACCORDO
100
AcDbLine
 62
7
  6
CONTINUOUS
 10
-4.0917087308
 20
7.037901317
 11
-4.0917087308
 21
7.6290765503
  0
LINE
  5
2DA
100
AcDbEntity
  8
ASSI
100
AcDbLine
 62
250
  6
CONTINUOUS
 10
-3.2021218749
 20
18.379941796
 11
-3.2021218749
 21
17.8864556473
  0
LINE
  5
2DB
100
AcDbEntity
  8
0
100
AcDbLine
 62
7
  6
CONTINUOUS
 10
-3.1447298626
 20
9.3869443343
 11
-3.1447298626
 21
9.5990763687
  0
LINE
  5
2DC
100
AcDbEntity
  8
ASSI
100
AcDbLine
 62
7
  6
CONTINUOUS
 10
-3.027993696
 20
-26.7432424093
 11
-3.027993696
 21
-26.5284906967
  0
LINE
  5
2DD
100
AcDbEntity
  8
ASSI
100
AcDbLine
 62
7
  6
CONTINUOUS
 10
-3.027993696
 20
-1.0778859305
 11
-3.027993696
 21
-0.8631342179
  0
LINE
  5
2DE
100
AcDbEntity
  8
ASSI
100
AcDbLine
 62
7
  6
CONTINUOUS
 10
-2.9153723241
 20
18.6688090187
 11
-2.9153723241
 21
17.9970623333
  0
LINE
  5
2DF
100
AcDbEntity
  8
0
100
AcDbLine
 62
7
  6
CONTINUOUS
 10
-2.8618871502
 20
9.5869443343
 11
-2.8618871502
 21
9.7990763687
  0
LINE
  5
2E0
100
AcDbEntity
  8
RACCORDO
100
AcDbLine
 62
250
  6
CONTINUOUS
 10
-2.8453318732
 20
2.2183888772
 11
-2.8453318732
 21
-0.1387422409
  0
LINE
  5
2E1
100
AcDbEntity
  8
RACCORDO
100
AcDbLine
 62
250
  6
CONTINUOUS
 10
-2.8453318732
 20
-26.7259572135
 11
-2.8453318732
 21
-29.0830883315
  0
LINE
  5
2E2
100
AcDbEntity
  8
RACCORDO
100
AcDbLine
 62
250
  6
CONTINUOUS
 10
-2.6987073611
 20
6.6283856771
 11
-2.6987073611
 21
7.2160314709
  0
LINE
  5
2E3
100
AcDbEntity
  8
0
100
AcDbLine
 62
250
  6
CONTINUOUS
 10
-2.6497551158
 20
10.161208403
 11
-2.6497551158
 21
10.4440511155
  0
LINE
  5
2E4
100
AcDbEntity
  8
RACCORDO
100
AcDbLine
 62
250
  6
CONTINUOUS
 10
-2.4948905853
 20
2.2162263645
 11
-2.4948905853
 21
-0.1409047536
  0
LINE
  5
2E5
100
AcDbEntity
  8
RACCORDO
100
AcDbLine
 62
250
  6
CONTINUOUS
 10
-2.4948905853
 20
-26.7281197262
 11
-2.4948905853
 21
-29.0852508442
  0
LINE
  5
2E6
100
AcDbEntity
  8
0
100
AcDbLine
 62
250
  6
CONTINUOUS
 10
-2.2861869832
 20
10.418289895
 11
-2.2861869832
 21
10.7011326075
  0
LWPOLYLINE
  5
2E7
100
AcDbEntity
  8
RACCORDO
100
AcDbPolyline
 62
7
  6
CONTINUOUS
 90
9
 70
0
 10
-2.9153586467
 20
18.6688027203
 10
-2.9153926352
 20
18.6658846194
 10
-2.9163029922
 20
18.6544768372
 10
-2.918402315
 20
18.6422544186
 10
-2.9216945184
 20
18.6291714253
 10
-2.9263436068
 20
18.6152417425
 10
-2.9323982987
 20
18.6004248595
 10
-2.9397863475
 20
18.5846389983
 10
-2.9484882913
 20
18.567827385
  0
LWPOLYLINE
  5
2E8
100
AcDbEntity
  8
0
100
AcDbPolyline
 62
7
  6
CONTINUOUS
 90
19
 70
0
 10
-3.1447298626
 20
9.5990763687
 10
-3.1427281698
 20
9.6441647885
 10
-3.1371062179
 20
9.6908430725
 10
-3.1278640071
 20
9.7391112208
 10
-3.1148767295
 20
9.7893587985
 10
-3.0982691928
 20
9.8411962405
 10
-3.0784158208
 20
9.8934548508
 10
-3.0552428806
 20
9.9461441966
 10
-3.0288241049
 20
9.9992547107
 10
-2.9997551158
 20
10.0515889952
 10
-2.9679757106
 20
10.1031294173
 10
-2.9335460919
 20
10.1538936098
 10
-2.8972424892
 20
10.2027370737
 10
-2.859022333
 20
10.2496161774
 10
-2.8189281928
 20
10.2945745524
 10
-2.7778640071
 20
10.3365985942
 10
-2.7361310888
 20
10.3753504346
 10
-2.6934281251
 20
10.4111679416
 10
-2.6497551158
 20
10.4440511155
  0
LWPOLYLINE
  5
2E9
100
AcDbEntity
  8
0
100
AcDbPolyline
 62
7
  6
CONTINUOUS
 90
16
 70
0
 10
-2.8618871502
 20
9.7990763687
 10
-2.8606206179
 20
9.822535713
 10
-2.857159791
 20
9.8468336884
 10
-2.8515046694
 20
9.8719702949
 10
-2.8435460144
 20
9.8982371689
 10
-2.8333930648
 20
9.9253426741
 10
-2.8213735367
 20
9.9524119008
 10
-2.8074265254
 20
9.9794436655
 10
-2.7916129356
 20
10.0064391519
 10
-2.7744431971
 20
10.0325270017
 10
-2.7558730602
 20
10.0576775996
 10
-2.7359467746
 20
10.0819205609
 10
-2.7153075195
 20
10.1044733731
 10
-2.6941696878
 20
10.1250751988
 10
-2.6723188866
 20
10.1439868754
 10
-2.6497551158
 20
10.161208403
  0
LINE
  5
2EA
100
AcDbEntity
  8
RACCORDO
100
AcDbLine
 62
250
  6
CONTINUOUS
 10
-0.9254847732
 20
12.5560679551
 11
-0.9707587605
 21
12.384715406
  0
LINE
  5
2EB
100
AcDbEntity
  8
RACCORDO
100
AcDbLine
 62
250
  6
CONTINUOUS
 10
1.0556338316
 20
13.7368617933
 11
1.0247037085
 21
13.619797763
  0
LWPOLYLINE
  5
2EC
100
AcDbEntity
  8
RACCORDO
100
AcDbPolyline
 62
7
  6
CONTINUOUS
 90
11
 70
0
 10
-0.8666223311
 20
12.4535746432
 10
-0.8676728843
 20
12.4500755043
 10
-0.8702610505
 20
12.4437739221
 10
-0.8736703752
 20
12.437705429
 10
-0.8778573713
 20
12.4319474307
 10
-0.8828320006
 20
12.4265039046
 10
-0.8885843013
 20
12.4213708733
 10
-0.8950409008
 20
12.4166138104
 10
-0.9021773415
 20
12.4122545405
 10
-0.910018081
 20
12.408271239
 10
-0.9185631193
 20
12.4046639059
  0
LWPOLYLINE
  5
2ED
100
AcDbEntity
  8
RACCORDO
100
AcDbPolyline
 62
7
  6
CONTINUOUS
 90
11
 70
0
 10
1.0036930433
 20
13.6879510561
 10
1.0047435966
 20
13.6914501949
 10
1.0073317628
 20
13.6977517771
 10
1.0107410875
 20
13.7038202703
 10
1.0149280836
 20
13.7095782686
 10
1.0199027129
 20
13.7150217947
 10
1.0256550136
 20
13.720154826
 10
1.032111613
 20
13.7249118888
 10
1.0392480538
 20
13.7292711587
 10
1.0470887933
 20
13.7332544602
 10
1.0556338316
 20
13.7368617933
  0
LWPOLYLINE
  5
2EE
100
AcDbEntity
  8
0
100
AcDbPolyline
 62
7
  6
CONTINUOUS
 90
19
 70
0
 10
13.5429901734
 20
16.4658478734
 10
13.5297328878
 20
16.4533620069
 10
13.5155606488
 20
16.4422655079
 10
13.5006092379
 20
16.4325973281
 10
13.485035187
 20
16.4243897913
 10
13.4689575128
 20
16.4176569985
 10
13.452449458
 20
16.4124073202
 10
13.4356455303
 20
16.4086572549
 10
13.4186694727
 20
16.4064075791
 10
13.4015685063
 20
16.405656212
 10
13.3844682987
 20
16.4064074926
 10
13.3674936773
 20
16.4086569062
 10
13.3506906201
 20
16.4124066605
 10
13.334182303
 20
16.4176562385
 10
13.3181038816
 20
16.4243891441
 10
13.3025291929
 20
16.4325968617
 10
13.2875774243
 20
16.4422651862
 10
13.2734049219
 20
16.4533618453
 10
13.2601474609
 20
16.4658478734
  0
LWPOLYLINE
  5
2EF
100
AcDbEntity
  8
RACCORDO
100
AcDbPolyline
 62
250
  6
CONTINUOUS
 90
21
 70
0
 10
8.806474379
 20
10.7475496573
 10
8.8132468665
 20
10.7527105028
 10
8.819723364
 20
10.7580579422
 10
8.8258935988
 20
10.7635834939
 10
8.8317477839
 20
10.7692783933
 10
8.8372766335
 20
10.7751336073
 10
8.8424713781
 20
10.7811398488
 10
8.8473237778
 20
10.7872875907
 10
8.851826136
 20
10.7935670818
 10
8.8559713113
 20
10.7999683617
 10
8.8597527285
 20
10.806481277
 10
8.8631643899
 20
10.8130954972
 10
8.8662008839
 20
10.8198005309
 10
8.8688573942
 20
10.8265857429
 10
8.871129707
 20
10.8334403709
 10
8.8730142182
 20
10.840353542
 10
8.8745079386
 20
10.8473142911
 10
8.8756084988
 20
10.8543115771
 10
8.8763141532
 20
10.8613343013
 10
8.8766237826
 20
10.8683713244
 10
8.876639429
 20
10.8703490685
  0
LWPOLYLINE
  5
2F0
100
AcDbEntity
  8
RACCORDO
100
AcDbPolyline
 62
250
  6
CONTINUOUS
 90
31
 70
0
 10
-2.670097826
 20
2.5190680244
 10
-2.6792958101
 20
2.5122442062
 10
-2.6884646811
 20
2.5049626942
 10
-2.697579586
 20
2.4972432256
 10
-2.7066158183
 20
2.4891067244
 10
-2.7155488847
 20
2.4805752452
 10
-2.7243545715
 20
2.4716719131
 10
-2.7330090103
 20
2.4624208613
 10
-2.7414887426
 20
2.4528471653
 10
-2.7497707836
 20
2.4429767752
 10
-2.7578326843
 20
2.4328364454
 10
-2.7656525923
 20
2.422453662
 10
-2.7732093112
 20
2.4118565682
 10
-2.780482358
 20
2.4010738881
 10
-2.7874520188
 20
2.3901348489
 10
-2.7940994016
 20
2.3790691016
 10
-2.8004064884
 20
2.3679066407
 10
-2.8063561834
 20
2.3566777227
 10
-2.8119323595
 20
2.3454127845
 10
-2.8171199021
 20
2.3341423603
 10
-2.82190475
 20
2.3228969993
 10
-2.8262739336
 20
2.311707183
 10
-2.83021561
 20
2.3006032421
 10
-2.8337190949
 20
2.2896152745
 10
-2.8367748918
 20
2.2787730639
 10
-2.839374718
 20
2.2681059987
 10
-2.8415115263
 20
2.2576429929
 10
-2.8431795249
 20
2.247412407
 10
-2.8443741924
 20
2.2374419718
 10
-2.8450922906
 20
2.2277587128
 10
-2.8453318732
 20
2.2183888772
  0
LINE
  5
2F1
100
AcDbEntity
  8
RACCORDO
100
AcDbLine
 62
250
  6
CONTINUOUS
 10
8.1177454481
 20
11.204642945
 11
2.5475066499
 21
7.2249003318
  0
LINE
  5
2F2
100
AcDbEntity
  8
RACCORDO
100
AcDbLine
 62
250
  6
CONTINUOUS
 10
8.2944952195
 20
10.9029122118
 11
2.7242564212
 21
6.9231695986
  0
LINE
  5
2F3
100
AcDbEntity
  8
RACCORDO
100
AcDbLine
 62
7
  6
CONTINUOUS
 10
19.2837495556
 20
19.2010294139
 11
15.4277470868
 21
16.4869006798
  0
LINE
  5
2F4
100
AcDbEntity
  8
RACCORDO
100
AcDbLine
 62
250
  6
CONTINUOUS
 10
1.0787745991
 20
6.2094239912
 11
2.5474797249
 21
7.2249193707
  0
LINE
  5
2F5
100
AcDbEntity
  8
RACCORDO
100
AcDbLine
 62
250
  6
CONTINUOUS
 10
1.2539818398
 20
5.9065823313
 11
2.7242564212
 21
6.9231628672
  0
LINE
  5
2F6
100
AcDbEntity
  8
RACCORDO
100
AcDbLine
 62
250
  6
CONTINUOUS
 10
0.6118699016
 20
4.7882934832
 11
-2.670097826
 21
2.5190680244
  0
LINE
  5
2F7
100
AcDbEntity
  8
RACCORDO
100
AcDbLine
 62
250
  6
CONTINUOUS
 10
1.2539818398
 20
4.8082801124
 11
-2.4948905853
 21
2.2162263645
  0
LWPOLYLINE
  5
2F8
100
AcDbEntity
  8
RACCORDO
100
AcDbPolyline
 62
250
  6
CONTINUOUS
 90
31
 70
0
 10
-2.4948905853
 20
2.2162263645
 10
-2.5044326926
 20
2.210040068
 10
-2.5144149129
 20
2.204211331
 10
-2.5248104819
 20
2.1987557856
 10
-2.5355915374
 20
2.1936880584
 10
-2.5467291619
 20
2.1890217469
 10
-2.5581934568
 20
2.1847693788
 10
-2.569953671
 20
2.1809423585
 10
-2.5819782766
 20
2.177550944
 10
-2.5942350182
 20
2.1746042306
 10
-2.6066910261
 20
2.1721101179
 10
-2.6193129005
 20
2.1700752913
 10
-2.6320667907
 20
2.168505205
 10
-2.6449185102
 20
2.1674040654
 10
-2.6578335837
 20
2.1667748242
 10
-2.6707773342
 20
2.1666191654
 10
-2.6837150028
 20
2.1669374962
 10
-2.6966119501
 20
2.1677289536
 10
-2.709433703
 20
2.1689914199
 10
-2.7221460313
 20
2.1707215374
 10
-2.7347146937
 20
2.1729146585
 10
-2.7471056508
 20
2.1755648276
 10
-2.7592854824
 20
2.1786648476
 10
-2.7712217677
 20
2.1822064164
 10
-2.7828828132
 20
2.1861801118
 10
-2.7942396637
 20
2.1905762304
 10
-2.8052594243
 20
2.1953822067
 10
-2.8159063297
 20
2.200581948
 10
-2.8261505459
 20
2.2061596894
 10
-2.8359675445
 20
2.212100836
 10
-2.8453318732
 20
2.2183888772
  0
LINE
  5
2F9
100
AcDbEntity
  8
RACCORDO
100
AcDbLine
 62
250
  6
CONTINUOUS
 10
9.4263164589
 20
-9.4654559949
 11
8.6652802158
 21
-9.0000436597
  0
LINE
  5
2FA
100
AcDbEntity
  8
ASSI
100
AcDbLine
 62
7
  6
CONTINUOUS
 10
-3.2395150632
 20
-0.7135660247
 11
-20.1619287667
 21
11.2523874591
  0
LINE
  5
2FB
100
AcDbEntity
  8
ASSI
100
AcDbLine
 62
7
  6
CONTINUOUS
 10
-3.240158044
 20
-0.5009793343
 11
-20.161285786
 21
11.4640648374
  0
LWPOLYLINE
  5
2FC
100
AcDbEntity
  8
RACCORDO
100
AcDbPolyline
 62
7
  6
CONTINUOUS
 90
17
 70
0
 10
-19.8490051756
 20
11.8846704564
 10
-19.8579398046
 20
11.8913261516
 10
-19.866340838
 20
11.8982683774
 10
-19.8742082758
 20
11.905497134
 10
-19.8815658769
 20
11.9130406947
 10
-19.8883898825
 20
11.9208707862
 10
-19.8946090163
 20
11.9289025878
 10
-19.900207025
 20
11.9371204529
 10
-19.905200162
 20
11.9455400281
 10
-19.9095659115
 20
11.9541234324
 10
-19.9133086677
 20
11.9628899165
 10
-19.9164240364
 20
11.9718202296
 10
-19.9188763199
 20
11.9808187387
 10
-19.9206552107
 20
11.9898749242
 10
-19.9217710163
 20
11.9989993056
 10
-19.9222189611
 20
12.0081278083
 10
-19.9222283799
 20
12.0096704564
  0
LWPOLYLINE
  5
2FD
100
AcDbEntity
  8
RACCORDO
100
AcDbPolyline
 62
250
  6
CONTINUOUS
 90
60
 70
0
 10
-0.3955594217
 20
6.3985158309
 10
-0.3953204787
 20
6.3832928246
 10
-0.3936831808
 20
6.355707609
 10
-0.3904962757
 20
6.3281960793
 10
-0.3857648681
 20
6.3008018493
 10
-0.3794964893
 20
6.2735688132
 10
-0.3717011201
 20
6.2465402231
 10
-0.3623912024
 20
6.2197590561
 10
-0.3515815827
 20
6.1932683214
 10
-0.3392894925
 20
6.1671101508
 10
-0.3255345422
 20
6.1413261283
 10
-0.3103386976
 20
6.1159576598
 10
-0.2937262142
 20
6.0910451507
 10
-0.2757235851
 20
6.066628191
 10
-0.2563595243
 20
6.0427458882
 10
-0.2356649264
 20
6.0194362975
 10
-0.2136728003
 20
5.9967364967
 10
-0.1904182076
 20
5.9746827768
 10
-0.1659382339
 20
5.9533103016
 10
-0.1402719323
 20
5.932653104
 10
-0.113460241
 20
5.9127441692
 10
-0.085545926
 20
5.8936152797
 10
-0.0565735122
 20
5.8752969177
 10
-0.0265892116
 20
5.8578182703
 10
0.0043591404
 20
5.8412072821
 10
0.036222188
 20
5.8254904482
 10
0.0689491359
 20
5.8106927268
 10
0.1024877906
 20
5.7968378149
 10
0.1367846527
 20
5.7839478557
 10
0.1717850315
 20
5.7720432426
 10
0.2074331269
 20
5.7611430861
 10
0.2436720556
 20
5.7512648573
 10
0.2804439513
 20
5.7424241022
 10
0.3176901385
 20
5.7346350802
 10
0.3553512267
 20
5.727910313
 10
0.3933671399
 20
5.7222602368
 10
0.4316771691
 20
5.717694052
 10
0.4702202766
 20
5.7142191642
 10
0.5089351935
 20
5.7118407591
 10
0.5477602437
 20
5.7105628521
 10
0.5866334243
 20
5.710387668
 10
0.6254927136
 20
5.7113151049
 10
0.6642762804
 20
5.713343938
 10
0.7029221024
 20
5.7164711353
 10
0.7413680565
 20
5.7206912218
 10
0.7795525885
 20
5.7259976524
 10
0.8174150338
 20
5.7323821749
 10
0.8548952317
 20
5.7398341461
 10
0.8919332824
 20
5.7483419071
 10
0.9284702334
 20
5.7578921406
 10
0.9644483714
 20
5.7684692687
 10
0.9998109518
 20
5.7800569678
 10
1.0345008467
 20
5.7926368558
 10
1.0684612968
 20
5.8061877831
 10
1.1016370479
 20
5.8206878124
 10
1.1339764537
 20
5.8361144646
 10
1.1654299735
 20
5.8524435691
 10
1.1959479767
 20
5.8696495517
 10
1.2254810058
 20
5.8877052827
 10
1.2539818398
 20
5.9065823313
  0
LINE
  5
2FE
100
AcDbEntity
  8
ASSI
100
AcDbLine
 62
7
  6
CONTINUOUS
 10
-1.589094944
 20
0.1194107172
 11
-1.589094944
 21
-25.7606974742
  0
LINE
  5
2FF
100
AcDbEntity
  8
ASSI
100
AcDbLine
 62
7
  6
CONTINUOUS
 10
-1.0941201972
 20
-21.9642508648
 11
-1.0941201972
 21
-21.4664954628
  0
LINE
  5
300
100
AcDbEntity
  8
RACCORDO
100
AcDbLine
 62
7
  6
CONTINUOUS
 10
-0.3955594311
 20
5.4760023756
 11
-0.3955594311
 21
6.3986120265
  0
LINE
  5
301
100
AcDbEntity
  8
RACCORDO
100
AcDbLine
 62
7
  6
CONTINUOUS
 10
-0.3955594311
 20
6.3986120516
 11
-0.3955594217
 21
6.3985158309
  0
LWPOLYLINE
  5
302
100
AcDbEntity
  8
RACCORDO
100
AcDbPolyline
 62
250
  6
CONTINUOUS
 90
13
 70
0
 10
-2.4948905853
 20
-29.0852508442
 10
-2.4952107769
 20
-29.094385198
 10
-2.4960062147
 20
-29.1031458933
 10
-2.4972747207
 20
-29.1115089094
 10
-2.4990128211
 20
-29.1194513223
 10
-2.5012157525
 20
-29.1269513469
 10
-2.5038774703
 20
-29.133988401
 10
-2.5069906742
 20
-29.1405431889
 10
-2.5105468293
 20
-29.1465977447
 10
-2.5145361808
 20
-29.152135465
 10
-2.5189477884
 20
-29.1571411691
 10
-2.5237695558
 20
-29.1616011371
 10
-2.5287875916
 20
-29.1653683878
  0
LWPOLYLINE
  5
303
100
AcDbEntity
  8
RACCORDO
100
AcDbPolyline
 62
250
  6
CONTINUOUS
 90
25
 70
0
 10
9.624550166
 20
21.2896811874
 10
9.57578011
 20
21.1890984152
 10
9.532558777
 20
21.0889504035
 10
9.494886167
 20
20.9892371522
 10
9.4629237651
 20
20.8896838814
 10
9.4365100862
 20
20.790565371
 10
9.4151606752
 20
20.6927059615
 10
9.3989563187
 20
20.5961472895
 10
9.3878162301
 20
20.5008477184
 10
9.381013594
 20
20.4075066793
 10
9.3786044806
 20
20.3161667686
 10
9.3805328195
 20
20.22678539
 10
9.3859035843
 20
20.1399341854
 10
9.3947500673
 20
20.0556590175
 10
9.407038976
 20
19.9739140236
 10
9.4217754068
 20
19.8951332572
 10
9.4389708672
 20
19.8193590887
 10
9.4586138496
 20
19.7465491477
 10
9.479674927
 20
19.677010377
 10
9.502152156
 20
19.6107670921
 10
9.52604748
 20
19.5477949776
 10
9.5503373026
 20
19.4883280304
 10
9.5746804251
 20
19.4324442493
 10
9.5994180463
 20
19.3800656356
 10
9.624550166
 20
19.3311921891
  0
LWPOLYLINE
  5
304
100
AcDbEntity
  8
RACCORDO
100
AcDbPolyline
 62
250
  6
CONTINUOUS
 90
8
 70
0
 10
10.4889258748
 20
16.7041556817
 10
10.5041871807
 20
16.7251321972
 10
10.582776549
 20
16.8214867669
 10
10.6679488422
 20
16.9153021742
 10
10.7591260325
 20
17.0059419758
 10
10.8563496254
 20
17.0933852597
 10
10.9595781153
 20
17.1776529379
 10
11.0623191078
 20
17.2538758488
  0
LWPOLYLINE
  5
305
100
AcDbEntity
  8
RACCORDO
100
AcDbPolyline
 62
7
  6
CONTINUOUS
 90
10
 70
0
 10
13.5429901734
 20
16.4658478734
 10
13.6538087941
 20
16.5794702262
 10
13.7622525052
 20
16.68978419
 10
13.8683213068
 20
16.7967897648
 10
13.9716954516
 20
16.9001715608
 10
14.0726946869
 20
17.0002449678
 10
14.1722782544
 20
17.0979561553
 10
14.2707659012
 20
17.1936205133
 10
14.3678378801
 20
17.2869226518
 10
14.4634941912
 20
17.3778625709
  0
LWPOLYLINE
  5
306
100
AcDbEntity
  8
0
100
AcDbPolyline
 62
7
  6
CONTINUOUS
 90
16
 70
0
 10
13.5429901734
 20
15.2942827529
 10
13.6718647838
 20
15.4263162145
 10
13.7973568923
 20
15.5537160655
 10
13.919466499
 20
15.676482306
 10
14.0376980169
 20
15.7941229422
 10
14.152547033
 20
15.9071299678
 10
14.2655003075
 20
16.0169793642
 10
14.3767164824
 20
16.123869712
 10
14.4860369157
 20
16.2276024306
 10
14.594472443
 20
16.329057759
 10
14.7021196945
 20
16.4283627347
 10
14.8088820399
 20
16.5253903202
 10
14.9154804237
 20
16.6206396422
 10
15.0221551605
 20
16.7142770762
 10
15.1286659356
 20
16.8061362467
 10
15.2350127491
 20
16.8962171537
  0
LWPOLYLINE
  5
307
100
AcDbEntity
  8
ASSI
100
AcDbPolyline
 62
250
  6
CONTINUOUS
 90
19
 70
0
 10
-5.6450876966
 20
-2.7730899732
 10
-5.6977114771
 20
-2.8205904989
 10
-5.7493335655
 20
-2.8712860869
 10
-5.7996651083
 20
-2.9248885007
 10
-5.8484024178
 20
-2.9810605415
 10
-5.8952962453
 20
-3.0395128473
 10
-5.9401430254
 20
-3.1000167008
 10
-5.9827235066
 20
-3.1623025132
 10
-6.02273689
 20
-3.2259564732
 10
-6.0598774702
 20
-3.2905195385
 10
-6.0939338176
 20
-3.3556213523
 10
-6.1247133675
 20
-3.4208867036
 10
-6.1519939034
 20
-3.4858398579
 10
-6.175616585
 20
-3.5500516995
 10
-6.1954934126
 20
-3.6132201787
 10
-6.2115435623
 20
-3.6750666399
 10
-6.2236844211
 20
-3.7352662065
 10
-6.231846651
 20
-3.7934542746
 10
-6.2359891044
 20
-3.8493039043
  0
LWPOLYLINE
  5
308
100
AcDbEntity
  8
ASSI
100
AcDbPolyline
 62
250
  6
CONTINUOUS
 90
19
 70
0
 10
-5.3998538442
 20
-3.1085470339
 10
-5.4369952476
 20
-3.1417846702
 10
-5.4731085425
 20
-3.1769167554
 10
-5.508193729
 20
-3.2139432893
 10
-5.542448688
 20
-3.2530896693
 10
-5.5756755386
 20
-3.2941304981
 10
-5.6072806376
 20
-3.3363895839
 10
-5.6372509152
 20
-3.3799232806
 10
-5.6655994412
 20
-3.4246752343
 10
-5.6917717815
 20
-3.4698001913
 10
-5.715710744
 20
-3.5153002942
 10
-5.7374735207
 20
-3.5611734004
 10
-5.7566772539
 20
-3.6065678283
 10
-5.7732598561
 20
-3.6514513546
 10
-5.7872834147
 20
-3.6958562026
 10
-5.798551335
 20
-3.7390273612
 10
-5.8069980853
 20
-3.7807131601
 10
-5.8126891972
 20
-3.8211652695
 10
-5.8156246707
 20
-3.8603836896
  0
LINE
  5
309
100
AcDbEntity
  8
ASSI
100
AcDbLine
 62
250
  6
CONTINUOUS
 10
-3.2395150632
 20
-0.7135660247
 11
-5.6450876966
 21
-2.7730899732
  0
LINE
  5
30A
100
AcDbEntity
  8
ASSI
100
AcDbLine
 62
250
  6
CONTINUOUS
 10
-3.027993696
 20
-1.0778859305
 11
-5.3998538442
 21
-3.1085470339
  0
LINE
  5
30B
100
AcDbEntity
  8
RACCORDO
100
AcDbLine
 62
250
  6
CONTINUOUS
 10
8.876639429
 20
8.6393517373
 11
21.4828346583
 21
17.6460414253
  0
LINE
  5
30C
100
AcDbEntity
  8
RACCORDO
100
AcDbLine
 62
250
  6
CONTINUOUS
 10
8.806474379
 20
7.7331965993
 11
21.836334201
 21
17.0425799589
  0
LINE
  5
30D
100
AcDbEntity
  8
RACCORDO
100
AcDbLine
 62
250
  6
CONTINUOUS
 10
23.0804073379
 20
17.245686417
 11
21.9766643008
 21
16.4628157919
  0
LINE
  5
30E
100
AcDbEntity
  8
RACCORDO
100
AcDbLine
 62
250
  6
CONTINUOUS
 10
23.2925364644
 20
16.8835593444
 11
21.9766643008
 21
15.9502282819
  0
LINE
  5
30F
100
AcDbEntity
  8
RACCORDO
100
AcDbLine
 62
250
  6
CONTINUOUS
 10
-1.589094944
 20
-1.1098396491
 11
0.5675807386
 21
0.4074318731
  0
LINE
  5
310
100
AcDbEntity
  8
ASSI
100
AcDbLine
 62
250
  6
CONTINUOUS
 10
-2.7652582291
 20
-0.1766963317
 11
-3.240158044
 21
-0.5009793343
  0
LINE
  5
311
100
AcDbEntity
  8
RACCORDO
100
AcDbLine
 62
7
  6
CONTINUOUS
 10
1.6450823573
 20
2.6860554065
 11
-2.4948905853
 21
-0.1409047536
  0
LINE
  5
312
100
AcDbEntity
  8
ASSI
100
AcDbLine
 62
250
  6
CONTINUOUS
 10
-1.589094944
 20
0.1194107172
 11
-3.027993696
 21
-0.8631342179
  0
LWPOLYLINE
  5
313
100
AcDbEntity
  8
RACCORDO
100
AcDbPolyline
 62
7
  6
CONTINUOUS
 90
31
 70
0
 10
-2.4948905853
 20
-0.1409047536
 10
-2.5044576568
 20
-0.1471053701
 10
-2.5144205697
 20
-0.1529237345
 10
-2.524779324
 20
-0.1583598467
 10
-2.535574313
 20
-0.1634300106
 10
-2.5467651433
 20
-0.1681179224
 10
-2.5582306348
 20
-0.1723746701
 10
-2.5699483798
 20
-0.1761890356
 10
-2.581940786
 20
-0.179572237
 10
-2.5941538968
 20
-0.1825090169
 10
-2.6066150094
 20
-0.1850021458
 10
-2.6192968265
 20
-0.1870488532
 10
-2.6320635001
 20
-0.1886255698
 10
-2.6448999758
 20
-0.1897251917
 10
-2.6578213079
 20
-0.1903548228
 10
-2.6707368117
 20
-0.190512205
 10
-2.6836464641
 20
-0.1901954602
 10
-2.696550288
 20
-0.1894064665
 10
-2.7093576684
 20
-0.1881486008
 10
-2.722083482
 20
-0.1864145745
 10
-2.7347128519
 20
-0.1842116761
 10
-2.7471105326
 20
-0.1815651479
 10
-2.7592492993
 20
-0.1784780968
 10
-2.7711563768
 20
-0.1749474157
 10
-2.7827781931
 20
-0.1709890259
 10
-2.7941368758
 20
-0.1665914341
 10
-2.8052102973
 20
-0.1617661335
 10
-2.8158785033
 20
-0.1565635239
 10
-2.8261015088
 20
-0.1510004052
 10
-2.8359192988
 20
-0.1450599776
 10
-2.8453318732
 20
-0.1387422409
  0
LINE
  5
314
100
AcDbEntity
  8
RACCORDO
100
AcDbLine
 62
7
  6
CONTINUOUS
 10
-2.8453318732
 20
-0.1387422409
 11
-19.8490051756
 21
11.8846704564
  0
LINE
  5
315
100
AcDbEntity
  8
RACCORDO
100
AcDbLine
 62
250
  6
CONTINUOUS
 10
-19.8490051756
 20
14.2418015744
 11
-2.8453318732
 21
2.2183888772
  0
LWPOLYLINE
  5
316
100
AcDbEntity
  8
RACCORDO
100
AcDbPolyline
 62
7
  6
CONTINUOUS
 90
80
 70
0
 10
8.7589896305
 20
-9.5946071545
 10
8.7556500834
 20
-9.5919375195
 10
8.7441629472
 20
-9.5820566611
 10
8.7331887927
 20
-9.571502415
 10
8.7227447806
 20
-9.560300343
 10
8.7128305143
 20
-9.5484475984
 10
8.7034463905
 20
-9.535947028
 10
8.6946107598
 20
-9.5228327338
 10
8.6863261956
 20
-9.5091062327
 10
8.6785901244
 20
-9.4947660078
 10
8.6714131763
 20
-9.4798416108
 10
8.6647951235
 20
-9.4643295619
 10
8.6587361938
 20
-9.4482333408
 10
8.6532477006
 20
-9.4315929377
 10
8.6483314848
 20
-9.4144102749
 10
8.6439857054
 20
-9.3966834301
 10
8.6402161538
 20
-9.3784466273
 10
8.6370232492
 20
-9.3596970221
 10
8.6344065723
 20
-9.3404374587
 10
8.6323706561
 20
-9.3207106945
 10
8.6309166247
 20
-9.300517282
 10
8.630043354
 20
-9.2798566685
 10
8.6297520057
 20
-9.2587699538
 10
8.630043354
 20
-9.2372565708
 10
8.6309166247
 20
-9.2153170866
 10
8.6323706561
 20
-9.1929943016
 10
8.6344065723
 20
-9.1702860176
 10
8.6370232492
 20
-9.1471944329
 10
8.6402161538
 20
-9.1237689433
 10
8.6439857054
 20
-9.1000117791
 10
8.6483314848
 20
-9.07592071
 10
8.6532477006
 20
-9.0515384407
 10
8.6587361938
 20
-9.0268603534
 10
8.6647951235
 20
-9.0018910659
 10
8.6714131763
 20
-8.9766871367
 10
8.6785901244
 20
-8.951252379
 10
8.6863261956
 20
-8.9255829795
 10
8.6946107598
 20
-8.8997240571
 10
8.7034463905
 20
-8.8736703261
 10
8.7128305143
 20
-8.8474270722
 10
8.7227447806
 20
-8.8210552712
 10
8.7331887927
 20
-8.7945583507
 10
8.7441629472
 20
-8.767932883
 10
8.7556500834
 20
-8.7412295616
 10
8.7676526809
 20
-8.7144446805
 10
8.7801682601
 20
-8.6875819456
 10
8.7931722209
 20
-8.6607031673
 10
8.8066651862
 20
-8.6338092731
 10
8.8206465331
 20
-8.6068993356
 10
8.8350897942
 20
-8.5800323828
 10
8.8499958496
 20
-8.5532084992
 10
8.8653638192
 20
-8.5264276004
 10
8.8811645941
 20
-8.499748461
 10
8.897401203
 20
-8.4731681106
 10
8.9140706173
 20
-8.4466895196
 10
8.931134643
 20
-8.4203803744
 10
8.948591591
 20
-8.3942449501
 10
8.9664431503
 20
-8.3682789716
 10
8.9846561942
 20
-8.3425372997
 10
9.0032360785
 20
-8.3170144027
 10
9.0221774474
 20
-8.2917158124
 10
9.0414311053
 20
-8.2667129846
 10
9.0609934835
 20
-8.2420123102
 10
9.0808681509
 20
-8.2176073984
 10
9.1010166188
 20
-8.1935505325
 10
9.1214448101
 20
-8.1698365503
 10
9.142146802
 20
-8.146470614
 10
9.1630663367
 20
-8.123520493
 10
9.1841999603
 20
-8.1009918609
 10
9.2055511268
 20
-8.0788790441
 10
9.2270739399
 20
-8.0572327922
 10
9.2487725279
 20
-8.0360507687
 10
9.2706427626
 20
-8.0153353102
 10
9.2926263627
 20
-7.9951441751
 10
9.314721517
 20
-7.9754809629
 10
9.3369300367
 20
-7.9563420742
 10
9.3591990754
 20
-7.9377744701
 10
9.3815110176
 20
-7.9197938041
 10
9.4038834788
 20
-7.9023844227
 10
9.4263164589
 20
-7.8855463257
  0
LINE
  5
317
100
AcDbEntity
  8
RACCORDO
100
AcDbLine
 62
7
  6
CONTINUOUS
 10
0.5675807386
 20
-20.0987186302
 11
0.5675807386
 21
0.4074318731
  0
LINE
  5
318
100
AcDbEntity
  8
RACCORDO
100
AcDbLine
 62
7
  6
CONTINUOUS
 10
1.0789843291
 20
13.8329723373
 11
1.0789843291
 21
13.5738407974
  0
LINE
  5
319
100
AcDbEntity
  8
RACCORDO
100
AcDbLine
 62
250
  6
CONTINUOUS
 10
1.2539818398
 20
-26.5575064012
 11
1.2539818398
 21
-27.6558086201
  0
LINE
  5
31A
100
AcDbEntity
  8
RACCORDO
100
AcDbLine
 62
250
  6
CONTINUOUS
 10
1.2539818398
 20
4.8082801124
 11
1.2539818398
 21
5.9065823313
  0
LINE
  5
31B
100
AcDbEntity
  8
DRAFT
100
AcDbLine
 62
7
  6
CONTINUOUS
 10
1.6450823573
 20
-23.9011595661
 11
1.6450823573
 21
2.6860554065
  0
LINE
  5
31C
100
AcDbEntity
  8
RACCORDO
100
AcDbLine
 62
7
  6
CONTINUOUS
 10
2.7242564212
 20
6.9231628672
 11
2.7242564212
 21
-26.6644496243
  0
LWPOLYLINE
  5
31D
100
AcDbEntity
  8
ASSI
100
AcDbPolyline
 62
250
  6
CONTINUOUS
 90
7
 70
0
 10
-5.3998538442
 20
-27.7370556643
 10
-5.4065110345
 20
-27.7663042579
 10
-5.4166067699
 20
-27.7924534341
 10
-5.4299689744
 20
-27.8150574955
 10
-5.4463698972
 20
-27.8337311693
 10
-5.4655299941
 20
-27.8481561737
 10
-5.4720504593
 20
-27.8517606975
  0
LWPOLYLINE
  5
31E
100
AcDbEntity
  8
RACCORDO
100
AcDbPolyline
 62
250
  6
CONTINUOUS
 90
19
 70
0
 10
9.3016146885
 20
21.0278625709
 10
9.2685447528
 20
20.9309639011
 10
9.2404478964
 20
20.8348129161
 10
9.2171502989
 20
20.7395428078
 10
9.1984585843
 20
20.6451891534
 10
9.1842149442
 20
20.5519549079
 10
9.1742586302
 20
20.4602135924
 10
9.168369704
 20
20.3700663408
 10
9.1663278042
 20
20.281600392
 10
9.1679033563
 20
20.1951568067
 10
9.1728465715
 20
20.1108090893
 10
9.1809113385
 20
20.0286135491
 10
9.1918167547
 20
19.9488696828
 10
9.2052970169
 20
19.8716209661
 10
9.2210942865
 20
19.7968939562
 10
9.238895275
 20
19.7249451402
 10
9.25840967
 20
19.6558634222
 10
9.2793984924
 20
19.5895738839
 10
9.3016146885
 20
19.5260733047
  0
LWPOLYLINE
  5
31F
100
AcDbEntity
  8
RACCORDO
100
AcDbPolyline
 62
250
  6
CONTINUOUS
 90
22
 70
0
 10
8.7723424351
 20
5.0953129612
 10
8.7799005545
 20
5.1010560764
 10
8.7871531871
 20
5.1069928784
 10
8.7940904135
 20
5.1131152474
 10
8.8007027457
 20
5.1194148099
 10
8.8069811402
 20
5.1258829502
 10
8.81291701
 20
5.1325108218
 10
8.8185022368
 20
5.1392893598
 10
8.8237291816
 20
5.1462092934
 10
8.8285906957
 20
5.1532611582
 10
8.83308013
 20
5.1604353095
 10
8.8371913444
 20
5.1677219354
 10
8.840918716
 20
5.1751110697
 10
8.8442571469
 20
5.1825926066
 10
8.8472020712
 20
5.1901563135
 10
8.849749461
 20
5.1977918456
 10
8.8518958325
 20
5.2054887597
 10
8.8536382501
 20
5.2132365289
 10
8.8549743308
 20
5.2210245566
 10
8.8559022472
 20
5.2288421913
 10
8.8564207304
 20
5.2366787407
 10
8.856540495
 20
5.2426722545
  0
LWPOLYLINE
  5
320
100
AcDbEntity
  8
RACCORDO
100
AcDbPolyline
 62
250
  6
CONTINUOUS
 90
24
 70
0
 10
21.836334201
 20
15.1528334236
 10
21.8473842962
 20
15.1612151308
 10
21.8580460227
 20
15.169845078
 10
21.8683082314
 20
15.1787142432
 10
21.8781601164
 20
15.1878133062
 10
21.8875914602
 20
15.1971327995
 10
21.8965926116
 20
15.2066631355
 10
21.9051542392
 20
15.2163944925
 10
21.9132672452
 20
15.2263165889
 10
21.9209230085
 20
15.2364188375
 10
21.9281134716
 20
15.2466906091
 10
21.9348311649
 20
15.2571212385
 10
21.9410690931
 20
15.2676998118
 10
21.9468207278
 20
15.2784152836
 10
21.9520800399
 20
15.2892564481
 10
21.9568415338
 20
15.3002119388
 10
21.9611002279
 20
15.3112703324
 10
21.9648516453
 20
15.3224200466
 10
21.9680918392
 20
15.3336493144
 10
21.9708174155
 20
15.3449463837
 10
21.9730255251
 20
15.3562994584
 10
21.9747138559
 20
15.3676965969
 10
21.975880642
 20
15.3791258706
 10
21.976524667
 20
15.3905753432
  0
LWPOLYLINE
  5
321
100
AcDbEntity
  8
RACCORDO
100
AcDbPolyline
 62
250
  6
CONTINUOUS
 90
52
 70
0
 10
9.1870182908
 20
5.8232095263
 10
9.1743907935
 20
5.8137062922
 10
9.161762476
 20
5.8038066064
 10
9.1491333383
 20
5.7935104689
 10
9.1364858549
 20
5.7828053304
 10
9.1238375514
 20
5.7717037402
 10
9.1112410043
 20
5.7602433462
 10
9.098697213
 20
5.7484220613
 10
9.0862051783
 20
5.7362419726
 10
9.0738144787
 20
5.7237469883
 10
9.0615258878
 20
5.7109349606
 10
9.0493386321
 20
5.6978080373
 10
9.0372999703
 20
5.6844165702
 10
9.025412928
 20
5.6707614444
 10
9.0136744794
 20
5.6568417749
 10
9.0021228062
 20
5.6427052584
 10
8.9907626563
 20
5.6283566248
 10
8.9795892818
 20
5.6137911443
 10
8.9686266199
 20
5.5990423238
 10
8.9578749012
 20
5.5841103122
 10
8.9473338951
 20
5.5689949607
 10
8.9370268471
 20
5.5537293305
 10
8.9269516214
 20
5.5383093118
 10
8.9171103538
 20
5.5227390144
 10
8.9075326969
 20
5.5070638299
 10
8.8982183507
 20
5.4912810043
 10
8.8891676153
 20
5.4753932917
 10
8.8804110438
 20
5.459454345
 10
8.8719511069
 20
5.4434662628
 10
8.863785334
 20
5.4274269465
 10
8.8559368664
 20
5.4113837541
 10
8.848408205
 20
5.3953406949
 10
8.8411968491
 20
5.3792937595
 10
8.8343184372
 20
5.3632782777
 10
8.8277730386
 20
5.3472941495
 10
8.8215605842
 20
5.3313414749
 10
8.8156965053
 20
5.3154558832
 10
8.8101795964
 20
5.2996317242
 10
8.8050110631
 20
5.2838746481
 10
8.800209954
 20
5.2682372345
 10
8.7957775366
 20
5.2527172713
 10
8.7917125434
 20
5.2373169706
 10
8.7880302203
 20
5.2220955474
 10
8.7847332214
 20
5.2070541267
 10
8.7818188926
 20
5.1921915835
 10
8.7792945175
 20
5.1775637586
 10
8.7771628728
 20
5.1631716585
 10
8.7754211818
 20
5.1490142766
 10
8.7740683972
 20
5.1351444339
 10
8.77310417
 20
5.1215797372
 10
8.7725288493
 20
5.1083025797
 10
8.7723424351
 20
5.0953129612
  0
LWPOLYLINE
  5
322
100
AcDbEntity
  8
RACCORDO
100
AcDbPolyline
 62
7
  6
CONTINUOUS
 90
28
 70
0
 10
21.7986095142
 20
15.058762685
 10
21.8042568967
 20
15.062992588
 10
21.8170772934
 20
15.0730943298
 10
21.8294391675
 20
15.0835438092
 10
21.8413318871
 20
15.0943236026
 10
21.8527516424
 20
15.1054208956
 10
21.8636976491
 20
15.1168265228
 10
21.8741620751
 20
15.1285244478
 10
21.8841390256
 20
15.1404992796
 10
21.8936276103
 20
15.1527419586
 10
21.9026194952
 20
15.1652341905
 10
21.9111097104
 20
15.1779600795
 10
21.9190995833
 20
15.1909134884
 10
21.926582432
 20
15.2040764868
 10
21.9335527618
 20
15.2174307915
 10
21.9400112579
 20
15.2309691482
 10
21.9459521702
 20
15.2446717461
 10
21.9513714082
 20
15.2585200609
 10
21.9562704195
 20
15.27250824
 10
21.9606450987
 20
15.2866156986
 10
21.9644926869
 20
15.3008232262
 10
21.967814829
 20
15.315126796
 10
21.9706092287
 20
15.3295062367
 10
21.9728744606
 20
15.3439411352
 10
21.9746116701
 20
15.3584270198
 10
21.9758203813
 20
15.3729487872
 10
21.9765002613
 20
15.3874807142
 10
21.9766642856
 20
15.3989590732
  0
LINE
  5
323
100
AcDbEntity
  8
RACCORDO
100
AcDbLine
 62
250
  6
CONTINUOUS
 10
9.1870182908
 20
5.8232095263
 11
21.836334201
 21
15.1528334236
  0
LINE
  5
324
100
AcDbEntity
  8
RACCORDO
100
AcDbLine
 62
7
  6
CONTINUOUS
 10
9.1482647737
 20
5.7283778762
 11
21.7986042186
 21
15.0587587138
  0
LWPOLYLINE
  5
325
100
AcDbEntity
  8
ASSI
100
AcDbPolyline
 62
250
  6
CONTINUOUS
 90
13
 70
0
 10
-5.8156246707
 20
-3.8603836896
 10
-5.8452033699
 20
-3.8770337435
 10
-5.8777742409
 20
-3.8908518228
 10
-5.9127922759
 20
-3.9016067099
 10
-5.9496715187
 20
-3.9091184434
 10
-5.9877948697
 20
-3.9132613296
 10
-6.0265244116
 20
-3.9139660457
 10
-6.0652120837
 20
-3.9112207998
 10
-6.103210526
 20
-3.9050715278
 10
-6.1398839111
 20
-3.8956211254
 10
-6.174618584
 20
-3.8830277259
 10
-6.2068333301
 20
-3.8675020544
 10
-6.2359891006
 20
-3.8493039017
  0
LWPOLYLINE
  5
326
100
AcDbEntity
  8
RACCORDO
100
AcDbPolyline
 62
250
  6
CONTINUOUS
 90
18
 70
0
 10
8.856540495
 20
0.8981372818
 10
8.8574895434
 20
0.8981541717
 10
8.8638589434
 20
0.8986294307
 10
8.8703809605
 20
0.8994691305
 10
8.8770462361
 20
0.9006723898
 10
8.883846151
 20
0.9022371241
 10
8.8907709246
 20
0.9041614784
 10
8.8978106179
 20
0.9064430717
 10
8.9049560939
 20
0.9090782674
 10
8.9121970893
 20
0.9120637308
 10
8.9195231718
 20
0.9153955966
 10
8.926924732
 20
0.9190686721
 10
8.9343910954
 20
0.9230781405
 10
8.9419115233
 20
0.9274187134
 10
8.9494761595
 20
0.9320837484
 10
8.9570744294
 20
0.9370667297
 10
8.9646950588
 20
0.9423612989
 10
8.9723270664
 20
0.9479603679
  0
LINE
  5
327
100
AcDbEntity
  8
RACCORDO
100
AcDbLine
 62
250
  6
CONTINUOUS
 10
-19.6737711284
 20
14.5424807217
 11
-2.670097826
 21
2.5190680244
  0
LINE
  5
328
100
AcDbEntity
  8
DRAFT
100
AcDbLine
 62
7
  6
CONTINUOUS
 10
3.9263379492
 20
11.8195892841
 11
3.9263379492
 21
11.2892591982
  0
LWPOLYLINE
  5
329
100
AcDbEntity
  8
RACCORDO
100
AcDbPolyline
 62
7
  6
CONTINUOUS
 90
26
 70
0
 10
8.806474379
 20
7.7331965993
 10
8.8115163933
 20
7.7442703435
 10
8.8164058144
 20
7.7554743425
 10
8.8211412069
 20
7.7668062316
 10
8.8257253307
 20
7.7782664735
 10
8.8301527552
 20
7.7898495611
 10
8.8344098584
 20
7.801544019
 10
8.8384954881
 20
7.8133465551
 10
8.8424085639
 20
7.8252547784
 10
8.8461355934
 20
7.8372584526
 10
8.8496756591
 20
7.8493540651
 10
8.8530277379
 20
7.8615388909
 10
8.8561780481
 20
7.8738038304
 10
8.8591259347
 20
7.8861454576
 10
8.8618702798
 20
7.898560435
 10
8.864396366
 20
7.9110397766
 10
8.8667036941
 20
7.9235796729
 10
8.868791134
 20
7.9361765951
 10
8.8706426897
 20
7.9488219523
 10
8.8722580722
 20
7.9615117756
 10
8.8736360154
 20
7.9742420592
 10
8.874758628
 20
7.9870041053
 10
8.8756258495
 20
7.9997937562
 10
8.8762362275
 20
8.0126064448
 10
8.8765692758
 20
8.0254327531
 10
8.8766366391
 20
8.034492937
  0
LWPOLYLINE
  5
32A
100
AcDbEntity
  8
0
100
AcDbPolyline
 62
250
  6
CONTINUOUS
 90
5
 70
0
 10
11.5103260846
 20
16.0669069446
 10
11.5383361634
 20
16.1221630124
 10
11.581194445
 20
16.193892656
 10
11.6297017417
 20
16.2640639825
 10
11.6515688171
 20
16.2917361678
  0
LWPOLYLINE
  5
32B
100
AcDbEntity
  8
RACCORDO
100
AcDbPolyline
 62
250
  6
CONTINUOUS
 90
17
 70
0
 10
23.2561588865
 20
12.2849933769
 10
23.2604461499
 20
12.2885117581
 10
23.2645262389
 20
12.2924020094
 10
23.2683472535
 20
12.296620779
 10
23.2719038582
 20
12.3011621768
 10
23.2751910881
 20
12.3060198691
 10
23.2782043318
 20
12.3111870483
 10
23.2809393535
 20
12.3166564455
 10
23.2833923224
 20
12.3224203778
 10
23.2855598264
 20
12.328470803
 10
23.2874388501
 20
12.3347992942
 10
23.2890268598
 20
12.3413974409
 10
23.2903215019
 20
12.3482556085
 10
23.2913208032
 20
12.3553628289
 10
23.2920235002
 20
12.3627085514
 10
23.2924288528
 20
12.3702828186
 10
23.2925364644
 20
12.378074921
  0
LWPOLYLINE
  5
32C
100
AcDbEntity
  8
RACCORDO
100
AcDbPolyline
 62
250
  6
CONTINUOUS
 90
21
 70
0
 10
8.7723424351
 20
0.7083064944
 10
8.7799005545
 20
0.7140496096
 10
8.7871531871
 20
0.7199864116
 10
8.7940904135
 20
0.7261087805
 10
8.8007027457
 20
0.7324083431
 10
8.8069811402
 20
0.7388764834
 10
8.81291701
 20
0.7455043549
 10
8.8185022367
 20
0.752282893
 10
8.8237291816
 20
0.7592028266
 10
8.8285906957
 20
0.7662546914
 10
8.83308013
 20
0.7734288427
 10
8.8371913444
 20
0.7807154685
 10
8.840918716
 20
0.7881046029
 10
8.8442571469
 20
0.7955861397
 10
8.8472020712
 20
0.8031498467
 10
8.849749461
 20
0.8107853788
 10
8.8518958325
 20
0.8184822929
 10
8.8536382501
 20
0.8262300621
 10
8.8549743308
 20
0.8340180898
 10
8.8559022472
 20
0.8418357244
 10
8.8564207304
 20
0.8496722739
  0
LINE
  5
32D
100
AcDbEntity
  8
RACCORDO
100
AcDbLine
 62
250
  6
CONTINUOUS
 10
23.2545582491
 20
12.2838057189
 11
23.2561588865
 21
12.2849933769
  0
LINE
  5
32E
100
AcDbEntity
  8
RACCORDO
100
AcDbLine
 62
250
  6
CONTINUOUS
 10
21.6216429765
 20
10.1427664749
 11
8.9723270664
 21
0.9479603679
  0
LINE
  5
32F
100
AcDbEntity
  8
RACCORDO
100
AcDbLine
 62
250
  6
CONTINUOUS
 10
21.836334201
 20
9.7824926605
 11
9.1870182908
 21
0.5876865535
  0
LINE
  5
330
100
AcDbEntity
  8
RACCORDO
100
AcDbLine
 62
250
  6
CONTINUOUS
 10
23.2925364644
 20
12.378074921
 11
21.3922398333
 21
11.0102143701
  0
LINE
  5
331
100
AcDbEntity
  8
RACCORDO
100
AcDbLine
 62
7
  6
CONTINUOUS
 10
23.2545582491
 20
12.2838057189
 11
21.3924229845
 21
10.9434142648
  0
LINE
  5
332
100
AcDbEntity
  8
RACCORDO
100
AcDbLine
 62
250
  6
CONTINUOUS
 10
8.856540495
 20
2.1188053669
 11
21.1823234297
 21
10.8613233868
  0
LINE
  5
333
100
AcDbEntity
  8
RACCORDO
100
AcDbLine
 62
250
  6
CONTINUOUS
 10
8.856540495
 20
1.6062178576
 11
21.3944525562
 21
10.4991963165
  0
LWPOLYLINE
  5
334
100
AcDbEntity
  8
RACCORDO
100
AcDbPolyline
 62
250
  6
CONTINUOUS
 90
32
 70
0
 10
21.3944525562
 20
10.4991963165
 10
21.4008060356
 20
10.5036533107
 10
21.407170684
 20
10.5079226926
 10
21.4135404893
 20
10.5119988658
 10
21.4199115202
 20
10.5158777247
 10
21.426275404
 20
10.5195523997
 10
21.4326194316
 20
10.5230140253
 10
21.438937436
 20
10.5262582629
 10
21.4452231303
 20
10.5292809005
 10
21.4514638212
 20
10.5320749409
 10
21.457653337
 20
10.534637282
 10
21.4637857017
 20
10.536965114
 10
21.4698489084
 20
10.539053652
 10
21.4758361512
 20
10.5409009036
 10
21.4817428505
 20
10.5425058172
 10
21.4875607804
 20
10.5438664479
 10
21.4932825393
 20
10.5449818077
 10
21.4989050206
 20
10.5458520462
 10
21.5044265546
 20
10.5464771946
 10
21.5098419145
 20
10.5468568885
 10
21.515146072
 20
10.5469910041
 10
21.5203374286
 20
10.5468793831
 10
21.5254120863
 20
10.5465217841
 10
21.5303638334
 20
10.54591831
 10
21.5351875744
 20
10.5450692667
 10
21.5398792891
 20
10.5439750943
 10
21.5444336317
 20
10.5426367654
 10
21.5488439561
 20
10.5410561778
 10
21.5531056284
 20
10.5392352768
 10
21.557215251
 20
10.5371758086
 10
21.5611685486
 20
10.5348802021
 10
21.5647318526
 20
10.532514215
  0
LWPOLYLINE
  5
335
100
AcDbEntity
  8
RACCORDO
100
AcDbPolyline
 62
250
  6
CONTINUOUS
 90
22
 70
0
 10
21.1823234297
 20
10.8613233868
 10
21.1926597624
 20
10.8685304101
 10
21.2030021798
 20
10.875483304
 10
21.2133506821
 20
10.8821820684
 10
21.2237143365
 20
10.8886338092
 10
21.2340840757
 20
10.8948314205
 10
21.2444326979
 20
10.9007535853
 10
21.2547602385
 20
10.9063990541
 10
21.2650666621
 20
10.9117690762
 10
21.2753246615
 20
10.9168460834
 10
21.2855339379
 20
10.9216286698
 10
21.2956947901
 20
10.9261182412
 10
21.3057808065
 20
10.9303014465
 10
21.3157915458
 20
10.934176837
 10
21.3257274493
 20
10.9377458614
 10
21.3355634298
 20
10.9409995148
 10
21.3452981958
 20
10.9439363009
 10
21.3549330388
 20
10.9465577159
 10
21.3644467453
 20
10.9488592434
 10
21.3738322443
 20
10.950839378
 10
21.3830966069
 20
10.9524996251
 10
21.3922398331
 20
10.9538399847
  0
LWPOLYLINE
  5
336
100
AcDbEntity
  8
RACCORDO
100
AcDbPolyline
 62
7
  6
CONTINUOUS
 90
17
 70
0
 10
1.2539818398
 20
4.8082801124
 10
1.2358055617
 20
4.8050038724
 10
1.217140505
 20
4.8019954823
 10
1.1979951931
 20
4.799265772
 10
1.1783811492
 20
4.7968461738
 10
1.1583054791
 20
4.7947265653
 10
1.1377703711
 20
4.792855722
 10
1.116787562
 20
4.7912466879
 10
1.095366052
 20
4.7899079874
 10
1.0735036003
 20
4.7887825968
 10
1.0512133427
 20
4.787885029
 10
1.0285048703
 20
4.7872230926
 10
1.0053699756
 20
4.7867313787
 10
0.9818221813
 20
4.7864268725
 10
0.9578726793
 20
4.7863164585
 10
0.9335090064
 20
4.786321963
 10
0.9087452642
 20
4.7864641554
  0
LWPOLYLINE
  5
337
100
AcDbEntity
  8
RACCORDO
100
AcDbPolyline
 62
7
  6
CONTINUOUS
 90
5
 70
0
 10
0.7246219016
 20
4.7890933444
 10
0.6968780622
 20
4.7892323486
 10
0.6688230407
 20
4.7891016327
 10
0.6404794153
 20
4.7887838508
 10
0.6118699016
 20
4.7882934832
  0
LINE
  5
338
100
AcDbEntity
  8
RACCORDO
100
AcDbLine
 62
7
  6
CONTINUOUS
 10
0.9087452642
 20
4.7864641554
 11
0.8580424785
 21
4.7870758886
  0
LINE
  5
339
100
AcDbEntity
  8
RACCORDO
100
AcDbLine
 62
7
  6
CONTINUOUS
 10
0.8580424785
 20
4.7870758886
 11
0.7246219016
 21
4.7890933444
  0
LINE
  5
33A
100
AcDbEntity
  8
RACCORDO
100
AcDbLine
 62
250
  6
CONTINUOUS
 10
9.4263164589
 20
-2.0408347925
 11
8.6652802158
 21
-1.5754224573
  0
LINE
  5
33B
100
AcDbEntity
  8
DRAFT
100
AcDbLine
 62
7
  6
CONTINUOUS
 10
-4.8412198221
 20
9.1376408854
 11
-10.3577853461
 21
13.0384417762
  0
LWPOLYLINE
  5
33C
100
AcDbEntity
  8
RACCORDO
100
AcDbPolyline
 62
250
  6
CONTINUOUS
 90
28
 70
0
 10
-15.0261517775
 20
17.6036776867
 10
-15.015961092
 20
17.5960488191
 10
-15.005799666
 20
17.5878513777
 10
-14.995701879
 20
17.5791130973
 10
-14.9857018955
 20
17.5698635426
 10
-14.9758335491
 20
17.5601340083
 10
-14.9661302278
 20
17.5499574126
 10
-14.9566247613
 20
17.5393681867
 10
-14.9473493102
 20
17.5284021577
 10
-14.9383352565
 20
17.5170964276
 10
-14.929613098
 20
17.5054892477
 10
-14.9212123448
 20
17.4936198891
 10
-14.9131614197
 20
17.4815285102
 10
-14.9054875618
 20
17.4692560204
 10
-14.8982167345
 20
17.4568439419
 10
-14.8913735376
 20
17.4443342691
 10
-14.8849811241
 20
17.4317693267
 10
-14.8790611218
 20
17.4191916264
 10
-14.8736335601
 20
17.406643723
 10
-14.8687168025
 20
17.3941680706
 10
-14.8643274839
 20
17.3818068786
 10
-14.8604804552
 20
17.3696019695
 10
-14.8571887321
 20
17.3575946367
 10
-14.8544634518
 20
17.3458255054
 10
-14.8523138347
 20
17.3343343946
 10
-14.8507471539
 20
17.3231601829
 10
-14.84976871
 20
17.3123406767
 10
-14.8493818133
 20
17.3019124821
  0
LWPOLYLINE
  5
33D
100
AcDbEntity
  8
RACCORDO
100
AcDbPolyline
 62
7
  6
CONTINUOUS
 90
80
 70
0
 10
8.7589896305
 20
-2.169985952
 10
8.7556500834
 20
-2.1673163171
 10
8.7441629472
 20
-2.1574354587
 10
8.7331887927
 20
-2.1468812126
 10
8.7227447806
 20
-2.1356791406
 10
8.7128305143
 20
-2.123826396
 10
8.7034463905
 20
-2.1113258255
 10
8.6946107598
 20
-2.0982115313
 10
8.6863261956
 20
-2.0844850302
 10
8.6785901244
 20
-2.0701448054
 10
8.6714131763
 20
-2.0552204083
 10
8.6647951235
 20
-2.0397083594
 10
8.6587361938
 20
-2.0236121383
 10
8.6532477006
 20
-2.0069717353
 10
8.6483314848
 20
-1.9897890725
 10
8.6439857054
 20
-1.9720622277
 10
8.6402161538
 20
-1.9538254249
 10
8.6370232492
 20
-1.9350758196
 10
8.6344065723
 20
-1.9158162563
 10
8.6323706561
 20
-1.8960894921
 10
8.6309166247
 20
-1.8758960795
 10
8.630043354
 20
-1.8552354661
 10
8.6297520057
 20
-1.8341487514
 10
8.630043354
 20
-1.8126353684
 10
8.6309166247
 20
-1.7906958841
 10
8.6323706561
 20
-1.7683730992
 10
8.6344065723
 20
-1.7456648152
 10
8.6370232492
 20
-1.7225732305
 10
8.6402161538
 20
-1.6991477409
 10
8.6439857054
 20
-1.6753905767
 10
8.6483314848
 20
-1.6512995075
 10
8.6532477006
 20
-1.6269172382
 10
8.6587361938
 20
-1.6022391509
 10
8.6647951235
 20
-1.5772698634
 10
8.6714131763
 20
-1.5520659342
 10
8.6785901244
 20
-1.5266311765
 10
8.6863261956
 20
-1.500961777
 10
8.6946107598
 20
-1.4751028546
 10
8.7034463905
 20
-1.4490491236
 10
8.7128305143
 20
-1.4228058697
 10
8.7227447806
 20
-1.3964340687
 10
8.7331887927
 20
-1.3699371482
 10
8.7441629472
 20
-1.3433116806
 10
8.7556500834
 20
-1.3166083591
 10
8.7676526809
 20
-1.289823478
 10
8.7801682601
 20
-1.2629607431
 10
8.7931722209
 20
-1.2360819648
 10
8.8066651862
 20
-1.2091880706
 10
8.8206465331
 20
-1.1822781331
 10
8.8350897942
 20
-1.1554111803
 10
8.8499958496
 20
-1.1285872968
 10
8.8653638192
 20
-1.1018063979
 10
8.8811645941
 20
-1.0751272586
 10
8.897401203
 20
-1.0485469081
 10
8.9140706173
 20
-1.0220683171
 10
8.931134643
 20
-0.9957591719
 10
8.948591591
 20
-0.9696237476
 10
8.9664431503
 20
-0.9436577691
 10
8.9846561942
 20
-0.9179160972
 10
9.0032360785
 20
-0.8923932002
 10
9.0221774474
 20
-0.8670946099
 10
9.0414311053
 20
-0.8420917821
 10
9.0609934835
 20
-0.8173911077
 10
9.0808681509
 20
-0.792986196
 10
9.1010166188
 20
-0.76892933
 10
9.1214448101
 20
-0.7452153478
 10
9.142146802
 20
-0.7218494115
 10
9.1630663367
 20
-0.6988992906
 10
9.1841999603
 20
-0.6763706584
 10
9.2055511268
 20
-0.6542578416
 10
9.2270739399
 20
-0.6326115897
 10
9.2487725279
 20
-0.6114295663
 10
9.2706427626
 20
-0.5907141077
 10
9.2926263627
 20
-0.5705229727
 10
9.314721517
 20
-0.5508597604
 10
9.3369300367
 20
-0.5317208718
 10
9.3591990754
 20
-0.5131532676
 10
9.3815110176
 20
-0.4951726017
 10
9.4038834788
 20
-0.4777632202
 10
9.4263164589
 20
-0.4609251233
  0
LWPOLYLINE
  5
33E
100
AcDbEntity
  8
RACCORDO
100
AcDbPolyline
 62
7
  6
CONTINUOUS
 90
9
 70
0
 10
8.857139607
 20
-15.8427162289
 10
8.8571450368
 20
-15.8427411516
 10
8.8570879401
 20
-15.8423682453
 10
8.8569911199
 20
-15.8416128907
 10
8.8568734502
 20
-15.840476023
 10
8.8567525492
 20
-15.8389542004
 10
8.8566460104
 20
-15.83705333
 10
8.8565701036
 20
-15.8347738053
 10
8.8565405003
 20
-15.8320597558
  0
LWPOLYLINE
  5
33F
100
AcDbEntity
  8
RACCORDO
100
AcDbPolyline
 62
7
  6
CONTINUOUS
 90
19
 70
0
 10
8.8766366391
 20
-18.6230121804
 10
8.8765692758
 20
-18.6223247729
 10
8.8762362275
 20
-18.6212590751
 10
8.8756258495
 20
-18.6200902044
 10
8.874758628
 20
-18.61880752
 10
8.8736360154
 20
-18.6174155417
 10
8.8722580722
 20
-18.6159200784
 10
8.8706426897
 20
-18.6143116452
 10
8.868791134
 20
-18.612594552
 10
8.8667036941
 20
-18.6107741597
 10
8.864396366
 20
-18.6088419382
 10
8.8618702798
 20
-18.6068020283
 10
8.8591259347
 20
-18.6046594524
 10
8.8561780481
 20
-18.6024065348
 10
8.8530277379
 20
-18.6000473334
 10
8.8496756591
 20
-18.5975865975
 10
8.8461355934
 20
-18.595017348
 10
8.8424085639
 20
-18.5923434868
 10
8.8344098584
 20
-18.5866897071
  0
LINE
  5
340
100
AcDbEntity
  8
RACCORDO
100
AcDbLine
 62
7
  6
CONTINUOUS
 10
5.9590522152
 20
12.7483776226
 11
5.9590522152
 21
12.734017757
  0
LWPOLYLINE
  5
341
100
AcDbEntity
  8
RACCORDO
100
AcDbPolyline
 62
250
  6
CONTINUOUS
 90
25
 70
0
 10
17.1785874682
 20
19.3311921891
 10
17.2042701342
 20
19.3813319639
 10
17.2293582867
 20
19.4345329693
 10
17.2538519256
 20
19.4907952052
 10
17.2780326143
 20
19.5501392146
 10
17.3016187894
 20
19.6125444546
 10
17.323765761
 20
19.6779492961
 10
17.3444950258
 20
19.7463761389
 10
17.363785087
 20
19.8178025832
 10
17.380726764
 20
19.8920998006
 10
17.3953350159
 20
19.969303641
 10
17.4075948836
 20
20.0493782545
 10
17.4165523082
 20
20.1320872628
 10
17.422209463
 20
20.2174739822
 10
17.4245641748
 20
20.3054950964
 10
17.422655865
 20
20.3957842782
 10
17.4164706832
 20
20.4883885867
 10
17.4060224798
 20
20.5832609627
 10
17.3903922281
 20
20.6798939018
 10
17.369546259
 20
20.7783392416
 10
17.3435182416
 20
20.8785451443
 10
17.3114901558
 20
20.9798485921
 10
17.2731893283
 20
21.0820285789
 10
17.2288884325
 20
21.1853061106
 10
17.1785874682
 20
21.2896811874
  0
LINE
  5
342
100
AcDbEntity
  8
RACCORDO
100
AcDbLine
 62
7
  6
CONTINUOUS
 10
21.836334201
 20
8.6811076592
 11
9.4263164589
 21
-0.4609251233
  0
LINE
  5
343
100
AcDbEntity
  8
RACCORDO
100
AcDbLine
 62
7
  6
CONTINUOUS
 10
21.836334201
 20
6.9911195914
 11
9.4263164589
 21
-2.0408347925
  0
LWPOLYLINE
  5
344
100
AcDbEntity
  8
RACCORDO
100
AcDbPolyline
 62
7
  6
CONTINUOUS
 90
37
 70
0
 10
9.4263164589
 20
-2.0408347925
 10
9.4038834788
 20
-2.0568489204
 10
9.3815110176
 20
-2.0722031362
 10
9.3591990754
 20
-2.0868974397
 10
9.3369300367
 20
-2.1009419746
 10
9.314721517
 20
-2.1143265972
 10
9.2926263627
 20
-2.127020877
 10
9.2706427626
 20
-2.1390238673
 10
9.2487725279
 20
-2.1503365147
 10
9.2270739399
 20
-2.1609312275
 10
9.2055511268
 20
-2.1708042963
 10
9.1841999603
 20
-2.1799594304
 10
9.1630663367
 20
-2.1883801662
 10
9.142146802
 20
-2.1960658882
 10
9.1214448101
 20
-2.2030172119
 10
9.1010166188
 20
-2.2092195196
 10
9.0808681509
 20
-2.2146692993
 10
9.0609934835
 20
-2.219370063
 10
9.0414311053
 20
-2.2233177289
 10
9.0221774474
 20
-2.2265111326
 10
9.0032360785
 20
-2.2289514384
 10
8.9846561942
 20
-2.2306380578
 10
8.9664431503
 20
-2.2315686785
 10
8.948591591
 20
-2.2317456127
 10
8.931134643
 20
-2.2311752082
 10
8.9140706173
 20
-2.2298556633
 10
8.897401203
 20
-2.2277887797
 10
8.8811645941
 20
-2.2249863099
 10
8.8653638192
 20
-2.2214467895
 10
8.8499958496
 20
-2.2171716829
 10
8.8350897942
 20
-2.2121771364
 10
8.8206465331
 20
-2.2064617763
 10
8.8066651862
 20
-2.2000269764
 10
8.7931722209
 20
-2.1928930038
 10
8.7801682601
 20
-2.1850580192
 10
8.7676526809
 20
-2.176523862
 10
8.7589896305
 20
-2.169985952
  0
LINE
  5
345
100
AcDbEntity
  8
RACCORDO
100
AcDbLine
 62
7
  6
CONTINUOUS
 10
9.0557235921
 20
-0.8240452002
 11
20.4019259509
 21
7.1963439458
  0
LINE
  5
346
100
AcDbEntity
  8
DRAFT
100
AcDbLine
 62
7
  6
CONTINUOUS
 10
21.4625861227
 20
7.9367611798
 11
20.4019259509
 21
7.1963439458
  0
LWPOLYLINE
  5
347
100
AcDbEntity
  8
RACCORDO
100
AcDbPolyline
 62
250
  6
CONTINUOUS
 90
18
 70
0
 10
-16.0535271094
 20
18.3237907066
 10
-16.063979939
 20
18.3306314422
 10
-16.0743921884
 20
18.3368547092
 10
-16.0847286325
 20
18.342439454
 10
-16.094954303
 20
18.3473667833
 10
-16.105034606
 20
18.3516200276
 10
-16.1149354397
 20
18.3551847979
 10
-16.1246233093
 20
18.3580490344
 10
-16.1340654403
 20
18.3602030472
 10
-16.1432298898
 20
18.3616395491
 10
-16.1520856541
 20
18.3623536802
 10
-16.1606027739
 20
18.3623430245
 10
-16.1687524354
 20
18.361607618
 10
-16.176507068
 20
18.3601499483
 10
-16.1838404375
 20
18.3579749468
 10
-16.1907277349
 20
18.3550899714
 10
-16.1971456602
 20
18.351504782
 10
-16.2008395473
 20
18.3489651463
  0
LWPOLYLINE
  5
348
100
AcDbEntity
  8
RACCORDO
100
AcDbPolyline
 62
250
  6
CONTINUOUS
 90
18
 70
0
 10
0.0603259151
 20
6.935927006
 10
0.0499610844
 20
6.9428330838
 10
0.0396365401
 20
6.9491214121
 10
0.029387214
 20
6.9547707151
 10
0.0192477831
 20
6.9597618792
 10
0.0092525527
 20
6.9640780173
 10
-0.0005646598
 20
6.9677045264
 10
-0.0101706393
 20
6.9706291364
 10
-0.0195328852
 20
6.9728419524
 10
-0.0286197217
 20
6.9743354875
 10
-0.0374004048
 20
6.9751046883
 10
-0.0458452263
 20
6.9751469522
 10
-0.0539256141
 20
6.9744621362
 10
-0.0616142296
 20
6.9730525571
 10
-0.0688850591
 20
6.9709229838
 10
-0.0757135029
 20
6.9680806216
 10
-0.0820764579
 20
6.9645350868
 10
-0.0853181337
 20
6.9623272399
  0
LWPOLYLINE
  5
349
100
AcDbEntity
  8
RACCORDO
100
AcDbPolyline
 62
250
  6
CONTINUOUS
 90
25
 70
0
 10
21.7912907379
 20
-6.3154071431
 10
21.7879464213
 20
-6.3131743105
 10
21.7827099488
 20
-6.3101626083
 10
21.7772082322
 20
-6.3075540204
 10
21.7714501358
 20
-6.3053527498
 10
21.765444937
 20
-6.3035623431
 10
21.7592023117
 20
-6.3021856851
 10
21.7527323179
 20
-6.3012249938
 10
21.7460453802
 20
-6.3006818171
 10
21.7391522727
 20
-6.3005570301
 10
21.7320641015
 20
-6.300850834
 10
21.7247922873
 20
-6.3015627552
 10
21.7173485464
 20
-6.3026916467
 10
21.7097448723
 20
-6.3042356897
 10
21.7019935162
 20
-6.3061923963
 10
21.694106967
 20
-6.3085586138
 10
21.6860979316
 20
-6.3113305298
 10
21.6779793143
 20
-6.3145036781
 10
21.6697641959
 20
-6.3180729461
 10
21.6614658126
 20
-6.322032583
 10
21.6530975349
 20
-6.3263762088
 10
21.6446728458
 20
-6.3310968253
 10
21.6362053193
 20
-6.3361868264
 10
21.6277085982
 20
-6.341638011
 10
21.6191963727
 20
-6.3474415962
  0
LINE
  5
34A
100
AcDbEntity
  8
ASSI
100
AcDbLine
 62
7
  6
CONTINUOUS
 10
-4.5108597934
 20
10.0902023725
 11
-4.3821667297
 21
9.9992026345
  0
LINE
  5
34B
100
AcDbEntity
  8
RACCORDO
100
AcDbLine
 62
7
  6
CONTINUOUS
 10
-3.1447298626
 20
9.3869443343
 11
-4.6061313229
 21
10.4203112169
  0
LINE
  5
34C
100
AcDbEntity
  8
RACCORDO
100
AcDbLine
 62
7
  6
CONTINUOUS
 10
-10.1686097766
 20
14.3535774517
 11
-11.6300112369
 21
15.3869443343
  0
LINE
  5
34D
100
AcDbEntity
  8
RACCORDO
100
AcDbLine
 62
250
  6
CONTINUOUS
 10
8.856540495
 20
1.0298338377
 11
8.9803949051
 21
0.9423011509
  0
LINE
  5
34E
100
AcDbEntity
  8
0
100
AcDbLine
 62
250
  6
CONTINUOUS
 10
-3.1447298626
 20
9.5990763687
 11
-11.6300112369
 21
15.5990763687
  0
LINE
  5
34F
100
AcDbEntity
  8
0
100
AcDbLine
 62
250
  6
CONTINUOUS
 10
-2.6497551158
 20
10.4440511155
 11
-11.13503649
 21
16.4440511155
  0
LINE
  5
350
100
AcDbEntity
  8
RACCORDO
100
AcDbLine
 62
250
  6
CONTINUOUS
 10
21.3944525562
 20
-6.1885237195
 11
21.6191963727
 21
-6.3474415962
  0
LINE
  5
351
100
AcDbEntity
  8
RACCORDO
100
AcDbLine
 62
7
  6
CONTINUOUS
 10
2.5475066499
 20
7.2249003318
 11
1.486812823
 21
7.9749241296
  0
LINE
  5
352
100
AcDbEntity
  8
RACCORDO
100
AcDbLine
 62
7
  6
CONTINUOUS
 10
-13.574548154
 20
18.6249146103
 11
-14.6352150559
 21
19.3749193692
  0
LINE
  5
353
100
AcDbEntity
  8
0
100
AcDbLine
 62
250
  6
CONTINUOUS
 10
-2.2861869832
 20
10.7011326075
 11
-10.7714683574
 21
16.7011326075
  0
LINE
  5
354
100
AcDbEntity
  8
RACCORDO
100
AcDbLine
 62
7
  6
CONTINUOUS
 10
21.5647447339
 20
-6.1552149274
 11
21.7912907379
 21
-6.3154071431
  0
LINE
  5
355
100
AcDbEntity
  8
0
100
AcDbLine
 62
250
  6
CONTINUOUS
 10
-2.1332313746
 20
10.7850627671
 11
-10.6185127489
 21
16.7850627671
  0
LINE
  5
356
100
AcDbEntity
  8
RACCORDO
100
AcDbLine
 62
7
  6
CONTINUOUS
 10
-3.1447298626
 20
11.7079011436
 11
-5.1953395281
 21
13.1579011436
  0
LINE
  5
357
100
AcDbEntity
  8
RACCORDO
100
AcDbLine
 62
7
  6
CONTINUOUS
 10
-7.1752385154
 20
14.5579011436
 11
-9.2258481808
 21
16.0079011436
  0
LWPOLYLINE
  5
358
100
AcDbEntity
  8
RACCORDO
100
AcDbPolyline
 62
7
  6
CONTINUOUS
 90
13
 70
0
 10
21.5647311767
 20
-6.1552054037
 10
21.5629420345
 20
-6.1539203998
 10
21.5573956503
 20
-6.1496759257
 10
21.5521967391
 20
-6.1453068309
 10
21.5473417974
 20
-6.1408410187
 10
21.5428435853
 20
-6.1363223302
 10
21.5387278343
 20
-6.131814903
 10
21.5349893303
 20
-6.1273569231
 10
21.5316173445
 20
-6.122981316
 10
21.5286192875
 20
-6.1187483097
 10
21.5259815108
 20
-6.1146950917
 10
21.523682645
 20
-6.1108476033
 10
21.522598668
 20
-6.1089082009
  0
LWPOLYLINE
  5
359
100
AcDbEntity
  8
RACCORDO
100
AcDbPolyline
 62
250
  6
CONTINUOUS
 90
40
 70
0
 10
21.3944525562
 20
-6.1885237195
 10
21.3858673089
 20
-6.1823427404
 10
21.3772977879
 20
-6.1758264506
 10
21.3687578924
 20
-6.1689854193
 10
21.3602614737
 20
-6.1618307422
 10
21.3518223126
 20
-6.1543740238
 10
21.3434540969
 20
-6.1466273585
 10
21.3351703992
 20
-6.1386033109
 10
21.3269846555
 20
-6.1303148955
 10
21.3189101424
 20
-6.1217755557
 10
21.3109599564
 20
-6.1129991418
 10
21.3031469922
 20
-6.1039998886
 10
21.2954839221
 20
-6.0947923925
 10
21.2879831751
 20
-6.0853915874
 10
21.2806569171
 20
-6.0758127209
 10
21.2735170308
 20
-6.0660713294
 10
21.2665750967
 20
-6.0561832129
 10
21.2598423744
 20
-6.0461644093
 10
21.2533297839
 20
-6.0360311687
 10
21.2470478884
 20
-6.0257999264
 10
21.2410068767
 20
-6.0154872772
 10
21.2352165471
 20
-6.0051099475
 10
21.2296862912
 20
-5.9946847688
 10
21.2244250789
 20
-5.9842286501
 10
21.2194414434
 20
-5.9737585508
 10
21.2147434682
 20
-5.9632914528
 10
21.210338773
 20
-5.9528443331
 10
21.2062345021
 20
-5.9424341365
 10
21.2024373125
 20
-5.9320777478
 10
21.1989533629
 20
-5.9217919644
 10
21.1957883043
 20
-5.9115934694
 10
21.1929472702
 20
-5.9014988043
 10
21.1904348687
 20
-5.8915243421
 10
21.1882551748
 20
-5.8816862608
 10
21.1864117238
 20
-5.8720005174
 10
21.1849075059
 20
-5.8624828217
 10
21.1837449607
 20
-5.8531486108
 10
21.1829259739
 20
-5.8440130245
 10
21.1824518739
 20
-5.8350908802
 10
21.1823234297
 20
-5.8263966492
  0
LWPOLYLINE
  5
35A
100
AcDbEntity
  8
RACCORDO
100
AcDbPolyline
 62
250
  6
CONTINUOUS
 90
49
 70
0
 10
21.6191963727
 20
-6.3474415962
 10
21.6237024812
 20
-6.3507327877
 10
21.6280477858
 20
-6.3541178249
 10
21.6322322866
 20
-6.3575967077
 10
21.6362602924
 20
-6.3611734578
 10
21.6401274944
 20
-6.3648440535
 10
21.6438209662
 20
-6.3685964299
 10
21.6473399169
 20
-6.3724306768
 10
21.6506851374
 20
-6.3763467043
 10
21.6538460745
 20
-6.3803321781
 10
21.6568221228
 20
-6.3843872919
 10
21.6596138876
 20
-6.3885118519
 10
21.6622126316
 20
-6.392692943
 10
21.6646177553
 20
-6.3969307453
 10
21.6668298582
 20
-6.4012250786
 10
21.6688420016
 20
-6.4055624879
 10
21.6706535616
 20
-6.409943119
 10
21.6722651622
 20
-6.414366826
 10
21.6736717372
 20
-6.4188197157
 10
21.6748726393
 20
-6.4233018751
 10
21.6758685157
 20
-6.4278132172
 10
21.676656242
 20
-6.4323395875
 10
21.6772351643
 20
-6.4368810295
 10
21.6776059364
 20
-6.4414374996
 10
21.6777673957
 20
-6.445994713
 10
21.6777188856
 20
-6.4505526743
 10
21.6774610628
 20
-6.4551113789
 10
21.6769947341
 20
-6.4596565281
 10
21.6763192442
 20
-6.4641880815
 10
21.6754352485
 20
-6.4687060795
 10
21.6743455204
 20
-6.4731963458
 10
21.6730494103
 20
-6.4776587976
 10
21.6715475678
 20
-6.4820935176
 10
21.6698447143
 20
-6.4864865778
 10
21.6679402222
 20
-6.4908378367
 10
21.6658347191
 20
-6.4951474359
 10
21.6635348092
 20
-6.4994018723
 10
21.6610398883
 20
-6.5036009703
 10
21.6583505606
 20
-6.5077449055
 10
21.6554752431
 20
-6.5118207016
 10
21.6524133259
 20
-6.5158281695
 10
21.6491654189
 20
-6.5197674984
 10
21.6457417688
 20
-6.5236262796
 10
21.6421415977
 20
-6.5274044173
 10
21.6383656834
 20
-6.5311020074
 10
21.6344266061
 20
-6.5347069289
 10
21.6303285593
 20
-6.5382151415
 10
21.6260673494
 20
-6.5416306856
 10
21.6216429765
 20
-6.5449535611
  0
LWPOLYLINE
  5
35B
100
AcDbEntity
  8
RACCORDO
100
AcDbPolyline
 62
7
  6
CONTINUOUS
 90
25
 70
0
 10
-10.1686097766
 20
14.3535774517
 10
-10.1598186627
 20
14.3470825497
 10
-10.1511268958
 20
14.3401283189
 10
-10.1425344759
 20
14.3327147594
 10
-10.1340094228
 20
14.3248101254
 10
-10.1255837166
 20
14.3164461627
 10
-10.1173532977
 20
14.3077181085
 10
-10.1093203982
 20
14.2986218014
 10
-10.101482786
 20
14.2891614027
 10
-10.093929705
 20
14.2794446346
 10
-10.0866644074
 20
14.2694685668
 10
-10.079683641
 20
14.2592361295
 10
-10.0730668932
 20
14.2488638356
 10
-10.0668183247
 20
14.2383500866
 10
-10.0609337747
 20
14.2276964811
 10
-10.0554802484
 20
14.2170243276
 10
-10.0504626725
 20
14.2063334141
 10
-10.0458761203
 20
14.1956239526
 10
-10.0417728171
 20
14.1850178877
 10
-10.0381582865
 20
14.1745164013
 10
-10.035027005
 20
14.1641183116
 10
-10.0324146272
 20
14.1539420175
 10
-10.0303330382
 20
14.1440269856
 10
-10.0287703529
 20
14.1343337494
 10
-10.0277265713
 20
14.124862309
  0
LWPOLYLINE
  5
35C
100
AcDbEntity
  8
RACCORDO
100
AcDbPolyline
 62
7
  6
CONTINUOUS
 90
16
 70
0
 10
-9.2258481808
 20
16.0079011436
 10
-9.2348644463
 20
16.0146014202
 10
-9.2431996343
 20
16.021433669
 10
-9.2508537447
 20
16.0283978902
 10
-9.2578536438
 20
16.0355249474
 10
-9.2641724654
 20
16.0427839768
 10
-9.2697296106
 20
16.0500823871
 10
-9.2745153226
 20
16.0574206826
 10
-9.2785393583
 20
16.0647983589
 10
-9.2817503897
 20
16.0721213112
 10
-9.2841380023
 20
16.0793888385
 10
-9.2857126107
 20
16.0866016417
 10
-9.2864541301
 20
16.0936677191
 10
-9.2863518888
 20
16.1005851911
 10
-9.2854165585
 20
16.1073559373
 10
-9.2847106229
 20
16.1103944555
  0
LWPOLYLINE
  5
35D
100
AcDbEntity
  8
RACCORDO
100
AcDbPolyline
 62
7
  6
CONTINUOUS
 90
16
 70
0
 10
-5.1953395281
 20
13.1579011436
 10
-5.2043557936
 20
13.1646014202
 10
-5.2126909815
 20
13.171433669
 10
-5.2203450919
 20
13.1783978902
 10
-5.2273449911
 20
13.1855249474
 10
-5.2336638126
 20
13.1927839768
 10
-5.2392209579
 20
13.2000823871
 10
-5.2440066699
 20
13.2074206826
 10
-5.2480307055
 20
13.2147983589
 10
-5.2512417369
 20
13.2221213112
 10
-5.2536293496
 20
13.2293888385
 10
-5.2552039579
 20
13.2366016417
 10
-5.2559454773
 20
13.2436677191
 10
-5.255843236
 20
13.2505851911
 10
-5.2549079057
 20
13.2573559373
 10
-5.2542019702
 20
13.2603944555
  0
LWPOLYLINE
  5
35E
100
AcDbEntity
  8
RACCORDO
100
AcDbPolyline
 62
250
  6
CONTINUOUS
 90
28
 70
0
 10
1.0787745991
 20
6.2094239912
 10
1.0888739424
 20
6.2017321454
 10
1.0989443381
 20
6.1934719939
 10
1.1089517179
 20
6.1846714811
 10
1.1188622265
 20
6.1753603793
 10
1.1286423363
 20
6.1655701882
 10
1.1382589611
 20
6.1553340284
 10
1.1476795674
 20
6.144686529
 10
1.1568722852
 20
6.1336637109
 10
1.1658060151
 20
6.1223028645
 10
1.1744505342
 20
6.1106424238
 10
1.1827765978
 20
6.0987218365
 10
1.1907560386
 20
6.0865814303
 10
1.1983618619
 20
6.0742622764
 10
1.205568337
 20
6.061806051
 10
1.2123510843
 20
6.0492548937
 10
1.2186871574
 20
6.0366512655
 10
1.2245551213
 20
6.0240378048
 10
1.2299351246
 20
6.0114571832
 10
1.2348089664
 20
5.9989519615
 10
1.2391601585
 20
5.986564445
 10
1.2429739806
 20
5.9743365411
 10
1.2462375306
 20
5.9623096171
 10
1.2489397676
 20
5.9505243605
 10
1.25107155
 20
5.939020641
 10
1.2526256659
 20
5.9278373761
 10
1.2535968577
 20
5.9170123992
 10
1.2539818398
 20
5.9065823313
  0
LWPOLYLINE
  5
35F
100
AcDbEntity
  8
0
100
AcDbPolyline
 62
7
  6
CONTINUOUS
 90
10
 70
0
 10
8.3225320269
 20
18.8255124477
 10
8.3232644473
 20
18.8136539393
 10
8.3254564622
 20
18.8023497327
 10
8.3291123786
 20
18.7916324984
 10
8.3342270525
 20
18.7815925978
 10
8.340781195
 20
18.77232228
 10
8.3487764658
 20
18.7638637901
 10
8.3581974223
 20
18.7562981036
 10
8.3689938526
 20
18.7497390872
 10
8.3811106707
 20
18.7442827529
  0
LWPOLYLINE
  5
360
100
AcDbEntity
  8
0
100
AcDbPolyline
 62
7
  6
CONTINUOUS
 90
10
 70
0
 10
8.3225320269
 20
19.9970775682
 10
8.3232644491
 20
19.9852190451
 10
8.3254564637
 20
19.9739148471
 10
8.3291123786
 20
19.963197619
 10
8.3342270517
 20
19.9531577197
 10
8.3407811945
 20
19.9438874012
 10
8.3487764657
 20
19.9354289106
 10
8.3581974222
 20
19.9278632241
 10
8.3689938526
 20
19.9213042077
 10
8.3811106707
 20
19.9158478734
  0
LWPOLYLINE
  5
361
100
AcDbEntity
  8
RACCORDO
100
AcDbPolyline
 62
250
  6
CONTINUOUS
 90
52
 70
0
 10
8.7723424351
 20
-15.9794135416
 10
8.7725288493
 20
-15.9921301637
 10
8.7731041699
 20
-16.0045647865
 10
8.7740683971
 20
-16.0167174101
 10
8.7754211817
 20
-16.0286061525
 10
8.7771628728
 20
-16.0402128957
 10
8.7792945175
 20
-16.0514832852
 10
8.7818188927
 20
-16.0624142612
 10
8.7847332214
 20
-16.0730088835
 10
8.7880302203
 20
-16.0832219779
 10
8.7917125434
 20
-16.0930507824
 10
8.7957775366
 20
-16.1024980591
 10
8.800209954
 20
-16.1115269198
 10
8.8050110631
 20
-16.1201332964
 10
8.8101795964
 20
-16.1283212569
 10
8.8156965053
 20
-16.1360661178
 10
8.8215605842
 20
-16.1433639947
 10
8.8277730386
 20
-16.150218772
 10
8.8343184372
 20
-16.1566174191
 10
8.8411968491
 20
-16.162559735
 10
8.848408205
 20
-16.1680459207
 10
8.8559368664
 20
-16.1730635489
 10
8.863785334
 20
-16.1776129665
 10
8.8719511069
 20
-16.1816938266
 10
8.8804110438
 20
-16.1852926611
 10
8.8891676153
 20
-16.1884079502
 10
8.8982183507
 20
-16.1910412137
 10
8.9075326969
 20
-16.1931835423
 10
8.9171103538
 20
-16.1948326217
 10
8.9269516214
 20
-16.1959907664
 10
8.9370268471
 20
-16.1966560099
 10
8.9473338951
 20
-16.1968273701
 10
8.9578749012
 20
-16.1965058291
 10
8.9686266199
 20
-16.1956923679
 10
8.9795892818
 20
-16.1943867973
 10
8.9907626563
 20
-16.1925893065
 10
9.0021228062
 20
-16.1903014435
 10
9.0136744794
 20
-16.1875209849
 10
9.025412928
 20
-16.1842501542
 10
9.0372999703
 20
-16.1804971699
 10
9.0493386322
 20
-16.176258486
 10
9.0615258878
 20
-16.1715376485
 10
9.0738144787
 20
-16.1663535139
 10
9.0862051783
 20
-16.1607028018
 10
9.098697213
 20
-16.1545887927
 10
9.1112410043
 20
-16.1480401842
 10
9.1238375514
 20
-16.1410534262
 10
9.136485855
 20
-16.1336320688
 10
9.1491333383
 20
-16.1258154609
 10
9.161762476
 20
-16.1176167186
 10
9.1743907935
 20
-16.1090227259
 10
9.1870182908
 20
-16.1000334825
  0
LWPOLYLINE
  5
362
100
AcDbEntity
  8
RACCORDO
100
AcDbPolyline
 62
250
  6
CONTINUOUS
 90
52
 70
0
 10
8.7723424351
 20
0.7083064944
 10
8.7725288493
 20
0.6955898723
 10
8.7731041699
 20
0.6831552495
 10
8.7740683971
 20
0.6710026259
 10
8.7754211817
 20
0.6591138835
 10
8.7771628728
 20
0.6475071403
 10
8.7792945175
 20
0.6362367508
 10
8.7818188927
 20
0.6253057748
 10
8.7847332214
 20
0.6147111525
 10
8.7880302203
 20
0.6044980581
 10
8.7917125434
 20
0.5946692536
 10
8.7957775366
 20
0.5852219769
 10
8.800209954
 20
0.5761931162
 10
8.8050110631
 20
0.5675867396
 10
8.8101795964
 20
0.5593987791
 10
8.8156965053
 20
0.5516539182
 10
8.8215605842
 20
0.5443560413
 10
8.8277730386
 20
0.537501264
 10
8.8343184372
 20
0.5311026169
 10
8.8411968491
 20
0.525160301
 10
8.848408205
 20
0.5196741153
 10
8.8559368664
 20
0.5146564871
 10
8.863785334
 20
0.5101070695
 10
8.8719511069
 20
0.5060262094
 10
8.8804110438
 20
0.5024273749
 10
8.8891676153
 20
0.4993120858
 10
8.8982183507
 20
0.4966788223
 10
8.9075326969
 20
0.4945364937
 10
8.9171103538
 20
0.4928874143
 10
8.9269516214
 20
0.4917292696
 10
8.9370268471
 20
0.4910640261
 10
8.9473338951
 20
0.4908926659
 10
8.9578749012
 20
0.4912142069
 10
8.9686266199
 20
0.4920276681
 10
8.9795892818
 20
0.4933332387
 10
8.9907626563
 20
0.4951307295
 10
9.0021228062
 20
0.4974185925
 10
9.0136744794
 20
0.5001990511
 10
9.025412928
 20
0.5034698818
 10
9.0372999703
 20
0.5072228661
 10
9.0493386322
 20
0.51146155
 10
9.0615258878
 20
0.5161823875
 10
9.0738144787
 20
0.5213665221
 10
9.0862051783
 20
0.5270172342
 10
9.098697213
 20
0.5331312433
 10
9.1112410043
 20
0.5396798518
 10
9.1238375514
 20
0.5466666098
 10
9.136485855
 20
0.5540879672
 10
9.1491333383
 20
0.5619045751
 10
9.161762476
 20
0.5701033174
 10
9.1743907935
 20
0.5786973102
 10
9.1870182908
 20
0.5876865535
  0
LWPOLYLINE
  5
363
100
AcDbEntity
  8
RACCORDO
100
AcDbPolyline
 62
250
  6
CONTINUOUS
 90
58
 70
0
 10
8.806474379
 20
10.7475496573
 10
8.8062800104
 20
10.7618705476
 10
8.8057001986
 20
10.7758782296
 10
8.8047349435
 20
10.7895727033
 10
8.803382965
 20
10.8029640146
 10
8.8016455433
 20
10.8160421176
 10
8.7995265188
 20
10.8287768744
 10
8.7970250311
 20
10.8411672202
 10
8.7941419405
 20
10.8532142199
 10
8.790883669
 20
10.8648909299
 10
8.7872493834
 20
10.8761964774
 10
8.7832399169
 20
10.8871317352
 10
8.778864191
 20
10.8976723789
 10
8.7741214042
 20
10.9078175166
 10
8.769012358
 20
10.9175680402
 10
8.7635483785
 20
10.9269023013
 10
8.757728656
 20
10.9358194066
 10
8.7515540002
 20
10.9443202493
 10
8.7450381658
 20
10.952385861
 10
8.7381804037
 20
10.9600152548
 10
8.7309814629
 20
10.9672094176
 10
8.723457346
 20
10.9739523414
 10
8.7156073204
 20
10.9802430276
 10
8.7074321185
 20
10.9860824747
 10
8.6989499399
 20
10.9914576702
 10
8.6901601161
 20
10.9963675733
 10
8.6810633155
 20
11.0008132248
 10
8.6716797436
 20
11.0047847347
 10
8.6620087389
 20
11.0082810553
 10
8.6520509629
 20
11.0113032343
 10
8.6418286058
 20
11.0138445244
 10
8.6313411022
 20
11.0159038487
 10
8.6205890176
 20
11.0174822839
 10
8.6095962378
 20
11.0185763134
 10
8.59836221
 20
11.0191848613
 10
8.586887487
 20
11.0193090033
 10
8.5751976147
 20
11.0189484495
 10
8.5632921224
 20
11.0181021202
 10
8.5511714806
 20
11.0167710952
 10
8.5388626462
 20
11.0149583231
 10
8.5263651733
 20
11.0126627231
 10
8.5136795078
 20
11.0098853761
 10
8.5008339443
 20
11.006632474
 10
8.4878281709
 20
11.0029029693
 10
8.4746624994
 20
10.9986979095
 10
8.4613661604
 20
10.9940266296
 10
8.447938842
 20
10.9888880894
 10
8.434380856
 20
10.983283329
 10
8.4207223687
 20
10.9772248038
 10
8.4069631039
 20
10.9707114667
 10
8.3931033378
 20
10.9637443648
 10
8.3791740647
 20
10.9563390945
 10
8.3651747105
 20
10.9484943704
 10
8.3511058495
 20
10.9402114779
 10
8.3370001981
 20
10.9315098705
 10
8.3228686622
 20
10.9223960326
 10
8.3087003359
 20
10.9128634797
 10
8.2944952195
 20
10.9029122118
  0
LWPOLYLINE
  5
364
100
AcDbEntity
  8
RACCORDO
100
AcDbPolyline
 62
250
  6
CONTINUOUS
 90
42
 70
0
 10
9.1870182908
 20
-16.1000334825
 10
9.1869081903
 20
-16.091969275
 10
9.1864964601
 20
-16.0837102733
 10
9.185783676
 20
-16.0752680269
 10
9.1847708347
 20
-16.0666543418
 10
9.1834593528
 20
-16.0578812636
 10
9.1818510641
 20
-16.0489610608
 10
9.1799482178
 20
-16.0399062077
 10
9.1777534748
 20
-16.0307293667
 10
9.1752699044
 20
-16.0214433712
 10
9.1725009796
 20
-16.0120612069
 10
9.1694505726
 20
-16.002595994
 10
9.1661229492
 20
-15.9930609691
 10
9.1625227629
 20
-15.9834694664
 10
9.1586550483
 20
-15.9738348988
 10
9.1545252141
 20
-15.9641707398
 10
9.1501390358
 20
-15.9544905041
 10
9.1455026471
 20
-15.9448077287
 10
9.1406225317
 20
-15.9351359545
 10
9.1355055142
 20
-15.9254887066
 10
9.1301587503
 20
-15.9158794761
 10
9.1245897172
 20
-15.9063217007
 10
9.1188062027
 20
-15.8968287463
 10
9.1128162947
 20
-15.8874138881
 10
9.1066283696
 20
-15.8780902921
 10
9.100251081
 20
-15.8688709966
 10
9.0936933469
 20
-15.8597688942
 10
9.0869643378
 20
-15.8507967133
 10
9.0800734638
 20
-15.841967001
 10
9.0730303614
 20
-15.833292105
 10
9.0658448797
 20
-15.8247841563
 10
9.0585270671
 20
-15.8164550527
 10
9.0510871571
 20
-15.8083164418
 10
9.0435355539
 20
-15.8003797049
 10
9.0358828176
 20
-15.7926559408
 10
9.0281396503
 20
-15.7851559507
 10
9.02031688
 20
-15.7778902226
 10
9.0124254464
 20
-15.7708689172
 10
9.004476385
 20
-15.7641018532
 10
8.9964808119
 20
-15.7575984938
 10
8.9884499084
 20
-15.7513679335
 10
8.9803949051
 20
-15.7454188851
  0
LWPOLYLINE
  5
365
100
AcDbEntity
  8
RACCORDO
100
AcDbPolyline
 62
250
  6
CONTINUOUS
 90
42
 70
0
 10
9.1870182908
 20
0.5876865535
 10
9.1869081903
 20
0.595750761
 10
9.1864964601
 20
0.6040097627
 10
9.185783676
 20
0.6124520091
 10
9.1847708347
 20
0.6210656942
 10
9.1834593528
 20
0.6298387724
 10
9.1818510641
 20
0.6387589752
 10
9.1799482178
 20
0.6478138284
 10
9.1777534748
 20
0.6569906693
 10
9.1752699044
 20
0.6662766648
 10
9.1725009796
 20
0.6756588291
 10
9.1694505726
 20
0.685124042
 10
9.1661229492
 20
0.6946590669
 10
9.1625227629
 20
0.7042505696
 10
9.1586550483
 20
0.7138851372
 10
9.1545252141
 20
0.7235492962
 10
9.1501390358
 20
0.7332295319
 10
9.1455026471
 20
0.7429123073
 10
9.1406225317
 20
0.7525840815
 10
9.1355055142
 20
0.7622313294
 10
9.1301587503
 20
0.7718405599
 10
9.1245897172
 20
0.7813983353
 10
9.1188062027
 20
0.7908912897
 10
9.1128162947
 20
0.8003061479
 10
9.1066283696
 20
0.8096297439
 10
9.100251081
 20
0.8188490394
 10
9.0936933469
 20
0.8279511418
 10
9.0869643378
 20
0.8369233227
 10
9.0800734638
 20
0.845753035
 10
9.0730303614
 20
0.854427931
 10
9.0658448797
 20
0.8629358797
 10
9.0585270671
 20
0.8712649833
 10
9.0510871571
 20
0.8794035942
 10
9.0435355539
 20
0.8873403311
 10
9.0358828176
 20
0.8950640952
 10
9.0281396503
 20
0.9025640853
 10
9.02031688
 20
0.9098298134
 10
9.0124254464
 20
0.9168511188
 10
9.004476385
 20
0.9236181828
 10
8.9964808119
 20
0.9301215422
 10
8.9884499084
 20
0.9363521025
 10
8.9803949051
 20
0.9423011509
  0
LWPOLYLINE
  5
366
100
AcDbEntity
  8
RACCORDO
100
AcDbPolyline
 62
7
  6
CONTINUOUS
 90
30
 70
0
 10
8.8766393999
 20
10.8703540092
 10
8.876489761
 20
10.8856419065
 10
8.8757465481
 20
10.9074473074
 10
8.8744005267
 20
10.9286726591
 10
8.8724758285
 20
10.9493018839
 10
8.8699931707
 20
10.9693636948
 10
8.8669635313
 20
10.9889251907
 10
8.8634024095
 20
11.0079900502
 10
8.8593255049
 20
11.0265612267
 10
8.8547335014
 20
11.0446963812
 10
8.8496350763
 20
11.0624003947
 10
8.8440423963
 20
11.0796657944
 10
8.8379539257
 20
11.0965242437
 10
8.8313740112
 20
11.1129806099
 10
8.8243147033
 20
11.1290197384
 10
8.8167841653
 20
11.1446384032
 10
8.8087911494
 20
11.1598322999
 10
8.8003472311
 20
11.1745921511
 10
8.7914670948
 20
11.1889051547
 10
8.7821632508
 20
11.2027645537
 10
8.7724494172
 20
11.2161630108
 10
8.7623454616
 20
11.2290864962
 10
8.7518677644
 20
11.2415278295
 10
8.7410318988
 20
11.2534821893
 10
8.7298594739
 20
11.2649398145
 10
8.7183689663
 20
11.2758960167
 10
8.7065781287
 20
11.2863477587
 10
8.6945093923
 20
11.2962891184
 10
8.6821833593
 20
11.305717651
 10
8.6753295417
 20
11.3106646793
  0
LWPOLYLINE
  5
367
100
AcDbEntity
  8
RACCORDO
100
AcDbPolyline
 62
250
  6
CONTINUOUS
 90
39
 70
0
 10
8.2944952195
 20
10.9029122118
 10
8.2944714279
 20
10.9102167114
 10
8.2941560951
 20
10.9177084716
 10
8.2935497323
 20
10.9253753454
 10
8.2926533227
 20
10.9332049018
 10
8.2914683195
 20
10.9411844464
 10
8.2899966443
 20
10.9493010411
 10
8.2882406831
 20
10.9575415261
 10
8.286203283
 20
10.9658925403
 10
8.2838877474
 20
10.9743405437
 10
8.2812978306
 20
10.9828718389
 10
8.2784377319
 20
10.9914725934
 10
8.2753120885
 20
11.0001288621
 10
8.2719259684
 20
11.0088266102
 10
8.2682848616
 20
11.0175517352
 10
8.2643946717
 20
11.0262900904
 10
8.2602617063
 20
11.0350275077
 10
8.2558926664
 20
11.0437498204
 10
8.2512946358
 20
11.0524428865
 10
8.2464750697
 20
11.0610926112
 10
8.2414417824
 20
11.06968497
 10
8.2362029348
 20
11.0782060316
 10
8.230767021
 20
11.08664198
 10
8.2251428546
 20
11.0949791376
 10
8.2193395545
 20
11.1032039865
 10
8.2133665301
 20
11.1113031912
 10
8.2072334658
 20
11.1192636199
 10
8.2009503057
 20
11.1270723658
 10
8.1945272371
 20
11.134716768
 10
8.1879746743
 20
11.1421844319
 10
8.1813032413
 20
11.1494632498
 10
8.174523755
 20
11.1565414199
 10
8.1676472076
 20
11.1634074659
 10
8.1606847486
 20
11.1700502553
 10
8.1536476666
 20
11.1764590177
 10
8.1465473714
 20
11.182623362
 10
8.1393953753
 20
11.1885332937
 10
8.1322032743
 20
11.1941792303
 10
8.1249827295
 20
11.1995520179
  0
LINE
  5
368
100
AcDbEntity
  8
RACCORDO
100
AcDbLine
 62
7
  6
CONTINUOUS
 10
8.3225320269
 20
18.8255124477
 11
8.3225320269
 21
19.9970775682
  0
LINE
  5
369
100
AcDbEntity
  8
0
100
AcDbLine
 62
250
  6
CONTINUOUS
 10
8.3811106707
 20
18.7442827529
 11
8.3811106707
 21
19.9158478734
  0
LINE
  5
36A
100
AcDbEntity
  8
RACCORDO
100
AcDbLine
 62
250
  6
CONTINUOUS
 10
8.7723424351
 20
-15.9794135416
 11
8.7723424351
 21
-11.5924070748
  0
LINE
  5
36B
100
AcDbEntity
  8
RACCORDO
100
AcDbLine
 62
250
  6
CONTINUOUS
 10
8.7723424351
 20
0.7083064944
 11
8.7723424351
 21
5.0953129612
  0
LINE
  5
36C
100
AcDbEntity
  8
RACCORDO
100
AcDbLine
 62
250
  6
CONTINUOUS
 10
8.806474379
 20
-21.5816653364
 11
8.806474379
 21
-18.5673122784
  0
LINE
  5
36D
100
AcDbEntity
  8
RACCORDO
100
AcDbLine
 62
250
  6
CONTINUOUS
 10
8.806474379
 20
7.7331965993
 11
8.806474379
 21
10.7475496573
  0
LINE
  5
36E
100
AcDbEntity
  8
RACCORDO
100
AcDbLine
 62
7
  6
CONTINUOUS
 10
8.856540495
 20
-15.8320542483
 11
8.856540495
 21
-11.4450477815
  0
LINE
  5
36F
100
AcDbEntity
  8
RACCORDO
100
AcDbLine
 62
7
  6
CONTINUOUS
 10
8.856540495
 20
0.8556657877
 11
8.856540495
 21
5.2426722545
  0
LINE
  5
370
100
AcDbEntity
  8
RACCORDO
100
AcDbLine
 62
7
  6
CONTINUOUS
 10
8.876639429
 20
-21.4588659253
 11
8.876639429
 21
-18.623009955
  0
LINE
  5
371
100
AcDbEntity
  8
RACCORDO
100
AcDbLine
 62
7
  6
CONTINUOUS
 10
8.876639429
 20
8.0344930981
 11
8.876639429
 21
10.8703490685
  0
LWPOLYLINE
  5
372
100
AcDbEntity
  8
RACCORDO
100
AcDbPolyline
 62
250
  6
CONTINUOUS
 90
16
 70
0
 10
8.2944952195
 20
-22.4868014101
 10
8.294471428
 20
-22.4937281428
 10
8.2941560953
 20
-22.500444541
 10
8.2935497327
 20
-22.5069397148
 10
8.2926533233
 20
-22.5132031331
 10
8.2914683205
 20
-22.5192246406
 10
8.2899966457
 20
-22.5249944742
 10
8.288240685
 20
-22.5305032787
 10
8.2862032853
 20
-22.5357421224
 10
8.2838877502
 20
-22.540702511
 10
8.281297834
 20
-22.545376402
 10
8.2784377358
 20
-22.5497562172
 10
8.2753120929
 20
-22.5538348553
 10
8.2719259733
 20
-22.5576057033
 10
8.2682848669
 20
-22.5610626472
 10
8.2646597144
 20
-22.5640024152
  0
LWPOLYLINE
  5
373
100
AcDbEntity
  8
RACCORDO
100
AcDbPolyline
 62
7
  6
CONTINUOUS
 90
59
 70
0
 10
8.8565405005
 20
5.2426745512
 10
8.8565814091
 20
5.2460507056
 10
8.8567012721
 20
5.2495393495
 10
8.8569155151
 20
5.2534189707
 10
8.8572388157
 20
5.2576881981
 10
8.8576852706
 20
5.2623433958
 10
8.8582688363
 20
5.2673837702
 10
8.8590030025
 20
5.2728069487
 10
8.8599003434
 20
5.2786067739
 10
8.8609735022
 20
5.2847800428
 10
8.8622345449
 20
5.2913220035
 10
8.8636942245
 20
5.2982236193
 10
8.8653640966
 20
5.3054816649
 10
8.8672541918
 20
5.31308708
 10
8.8693713953
 20
5.3210212981
 10
8.8717246561
 20
5.3292768471
 10
8.8743218811
 20
5.3378436396
 10
8.8771660988
 20
5.3466978686
 10
8.8802633136
 20
5.355828401
 10
8.8836189474
 20
5.3652238013
 10
8.887232764
 20
5.374858568
 10
8.8911084138
 20
5.3847202667
 10
8.895248241
 20
5.3947945432
 10
8.8996475809
 20
5.4050520829
 10
8.9043070384
 20
5.4154782414
 10
8.9092261835
 20
5.4260573947
 10
8.914396206
 20
5.436758097
 10
8.919814474
 20
5.4475638745
 10
8.9254779856
 20
5.4584586607
 10
8.9313748947
 20
5.4694114238
 10
8.937500021
 20
5.4804055531
 10
8.9438475751
 20
5.4914241764
 10
8.9504024572
 20
5.5024362257
 10
8.9571569601
 20
5.513425171
 10
8.964102939
 20
5.5243743763
 10
8.9712223943
 20
5.5352534571
 10
8.9785053869
 20
5.5460464993
 10
8.9859417607
 20
5.556737814
 10
8.9935111515
 20
5.5672985725
 10
9.0012017517
 20
5.5777139808
 10
9.0090018255
 20
5.5879699792
 10
9.0168894297
 20
5.5980403266
 10
9.0248514848
 20
5.6079120487
 10
9.0328749968
 20
5.6175730459
 10
9.0409368907
 20
5.6270000932
 10
9.0490236226
 20
5.6361828621
 10
9.0571210887
 20
5.6451112443
 10
9.0652045008
 20
5.653764362
 10
9.0732601552
 20
5.6621347937
 10
9.0812735356
 20
5.6702151143
 10
9.0892180244
 20
5.6779868436
 10
9.0970800492
 20
5.6854457008
 10
9.1048452754
 20
5.6925874522
 10
9.1124857174
 20
5.6993966324
 10
9.1199884388
 20
5.7058725868
 10
9.1273403637
 20
5.7120151095
 10
9.1345136619
 20
5.7178129163
 10
9.1414908173
 20
5.7232646951
 10
9.1482647737
 20
5.7283778762
  0
LWPOLYLINE
  5
374
100
AcDbEntity
  8
RACCORDO
100
AcDbPolyline
 62
7
  6
CONTINUOUS
 90
59
 70
0
 10
8.8565405005
 20
-11.4450454848
 10
8.8565814091
 20
-11.4416693304
 10
8.8567012721
 20
-11.4381806865
 10
8.8569155151
 20
-11.4343010653
 10
8.8572388157
 20
-11.4300318379
 10
8.8576852706
 20
-11.4253766402
 10
8.8582688363
 20
-11.4203362658
 10
8.8590030025
 20
-11.4149130873
 10
8.8599003434
 20
-11.4091132621
 10
8.8609735022
 20
-11.4029399932
 10
8.8622345449
 20
-11.3963980325
 10
8.8636942245
 20
-11.3894964167
 10
8.8653640966
 20
-11.3822383711
 10
8.8672541918
 20
-11.374632956
 10
8.8693713953
 20
-11.3666987379
 10
8.8717246561
 20
-11.3584431889
 10
8.8743218811
 20
-11.3498763964
 10
8.8771660988
 20
-11.3410221674
 10
8.8802633136
 20
-11.331891635
 10
8.8836189474
 20
-11.3224962347
 10
8.887232764
 20
-11.3128614681
 10
8.8911084138
 20
-11.3029997693
 10
8.895248241
 20
-11.2929254928
 10
8.8996475809
 20
-11.2826679531
 10
8.9043070384
 20
-11.2722417946
 10
8.9092261835
 20
-11.2616626413
 10
8.914396206
 20
-11.250961939
 10
8.919814474
 20
-11.2401561615
 10
8.9254779856
 20
-11.2292613753
 10
8.9313748947
 20
-11.2183086122
 10
8.937500021
 20
-11.2073144829
 10
8.9438475751
 20
-11.1962958596
 10
8.9504024572
 20
-11.1852838103
 10
8.9571569601
 20
-11.174294865
 10
8.964102939
 20
-11.1633456597
 10
8.9712223943
 20
-11.1524665789
 10
8.9785053869
 20
-11.1416735367
 10
8.9859417607
 20
-11.130982222
 10
8.9935111515
 20
-11.1204214635
 10
9.0012017517
 20
-11.1100060552
 10
9.0090018255
 20
-11.0997500568
 10
9.0168894297
 20
-11.0896797094
 10
9.0248514848
 20
-11.0798079873
 10
9.0328749968
 20
-11.0701469901
 10
9.0409368907
 20
-11.0607199428
 10
9.0490236226
 20
-11.0515371739
 10
9.0571210887
 20
-11.0426087917
 10
9.0652045008
 20
-11.033955674
 10
9.0732601552
 20
-11.0255852423
 10
9.0812735356
 20
-11.0175049217
 10
9.0892180244
 20
-11.0097331924
 10
9.0970800492
 20
-11.0022743352
 10
9.1048452754
 20
-10.9951325838
 10
9.1124857174
 20
-10.9883234036
 10
9.1199884388
 20
-10.9818474492
 10
9.1273403637
 20
-10.9757049265
 10
9.1345136619
 20
-10.9699071197
 10
9.1414908173
 20
-10.9644553409
 10
9.1482647737
 20
-10.9593421598
  0
LWPOLYLINE
  5
375
100
AcDbEntity
  8
RACCORDO
100
AcDbPolyline
 62
250
  6
CONTINUOUS
 90
18
 70
0
 10
9.1870182908
 20
5.8232095263
 10
9.1869081903
 20
5.8154111276
 10
9.1864964601
 20
5.8078297058
 10
9.185783676
 20
5.800475863
 10
9.1847708347
 20
5.7933598832
 10
9.1834593528
 20
5.7864917174
 10
9.1818510641
 20
5.7798809703
 10
9.1799482178
 20
5.7735368866
 10
9.1777534748
 20
5.767468338
 10
9.1752699044
 20
5.761683811
 10
9.1725009796
 20
5.7561913948
 10
9.1694505726
 20
5.7509987701
 10
9.1661229493
 20
5.7461131985
 10
9.1625227629
 20
5.7415415122
 10
9.1586550483
 20
5.7372901043
 10
9.1545252142
 20
5.7333649202
 10
9.1501390359
 20
5.7297714489
 10
9.1492883083
 20
5.7291348164
  0
LWPOLYLINE
  5
376
100
AcDbEntity
  8
RACCORDO
100
AcDbPolyline
 62
250
  6
CONTINUOUS
 90
18
 70
0
 10
9.1870182908
 20
-10.8645105097
 10
9.1869081903
 20
-10.8723089084
 10
9.1864964601
 20
-10.8798903302
 10
9.185783676
 20
-10.887244173
 10
9.1847708347
 20
-10.8943601528
 10
9.1834593528
 20
-10.9012283186
 10
9.1818510641
 20
-10.9078390657
 10
9.1799482178
 20
-10.9141831494
 10
9.1777534748
 20
-10.920251698
 10
9.1752699044
 20
-10.926036225
 10
9.1725009796
 20
-10.9315286412
 10
9.1694505726
 20
-10.9367212659
 10
9.1661229493
 20
-10.9416068375
 10
9.1625227629
 20
-10.9461785238
 10
9.1586550483
 20
-10.9504299317
 10
9.1545252142
 20
-10.9543551158
 10
9.1501390359
 20
-10.9579485871
 10
9.1492883083
 20
-10.9585852196
  0
LWPOLYLINE
  5
377
100
AcDbEntity
  8
DRAFT
100
AcDbPolyline
 62
7
  6
CONTINUOUS
 90
10
 70
0
 10
10.2980154265
 20
17.4158573266
 10
10.2986699816
 20
17.4582815186
 10
10.300633314
 20
17.5006851745
 10
10.3039042135
 20
17.5430454759
 10
10.308480388
 20
17.585338554
 10
10.3143596154
 20
17.6275480281
 10
10.3215403409
 20
17.6696619832
 10
10.3300211178
 20
17.7116671791
 10
10.3397973223
 20
17.7535366864
 10
10.3423081907
 20
17.7630004508
  0
LINE
  5
378
100
AcDbEntity
  8
RACCORDO
100
AcDbLine
 62
250
  6
CONTINUOUS
 10
8.8564207304
 20
0.8496722739
 11
8.8565404949
 21
0.8556602802
  0
LINE
  5
379
100
AcDbEntity
  8
RACCORDO
100
AcDbLine
 62
250
  6
CONTINUOUS
 10
8.8564207304
 20
-15.8380477621
 11
8.8565404949
 21
-15.8320597558
  0
LWPOLYLINE
  5
37A
100
AcDbEntity
  8
0
100
AcDbPolyline
 62
7
  6
CONTINUOUS
 90
8
 70
0
 10
12.0284484525
 20
19.7099843332
 10
12.0342310819
 20
19.7448881459
 10
12.0482213999
 20
19.8009921446
 10
12.0667182467
 20
19.8562422973
 10
12.0897672651
 20
19.9106299559
 10
12.1173228123
 20
19.9641637685
 10
12.1491067402
 20
20.01630336
 10
12.1515688171
 20
20.0197676166
  0
LWPOLYLINE
  5
37B
100
AcDbEntity
  8
RACCORDO
100
AcDbPolyline
 62
250
  6
CONTINUOUS
 90
19
 70
0
 10
17.5015229457
 20
19.5260733047
 10
17.5235765023
 20
19.5890864074
 10
17.5443987841
 20
19.6547665148
 10
17.5637563193
 20
19.7231157223
 10
17.581413355
 20
19.7941589715
 10
17.5971098109
 20
19.8678560176
 10
17.6105718725
 20
19.9440996181
 10
17.6215418216
 20
20.0228644175
 10
17.6297539932
 20
20.104110376
 10
17.6349326623
 20
20.1876933308
 10
17.6368121532
 20
20.2735590625
 10
17.6351218995
 20
20.361636867
 10
17.6295964506
 20
20.4517416308
 10
17.6199721496
 20
20.5437849927
 10
17.6059839767
 20
20.6376634624
 10
17.587390137
 20
20.7331527878
 10
17.5639501695
 20
20.8300912667
 10
17.5354095262
 20
20.9283780808
 10
17.5015229457
 20
21.0278625709
  0
LWPOLYLINE
  5
37C
100
AcDbEntity
  8
RACCORDO
100
AcDbPolyline
 62
7
  6
CONTINUOUS
 90
25
 70
0
 10
-3.0634976435
 20
13.6752651515
 10
-3.0731102846
 20
13.681737501
 10
-3.0831683886
 20
13.6879112736
 10
-3.0936719555
 20
13.6937864693
 10
-3.1046696391
 20
13.6993856249
 10
-3.1161127856
 20
13.7046862035
 10
-3.1278554337
 20
13.7096205944
 10
-3.13990142
 20
13.7141841069
 10
-3.1522469079
 20
13.7183814317
 10
-3.1647344263
 20
13.7221590304
 10
-3.1773657947
 20
13.7255115265
 10
-3.1901391938
 20
13.7284442966
 10
-3.2028916942
 20
13.7309199321
 10
-3.2156230284
 20
13.7329325774
 10
-3.2283334641
 20
13.734488088
 10
-3.2408608751
 20
13.7355666231
 10
-3.253202917
 20
13.7361620726
 10
-3.2653619344
 20
13.7362805464
 10
-3.2771828346
 20
13.7359205335
 10
-3.2886612865
 20
13.7350759045
 10
-3.2998016213
 20
13.7337527886
 10
-3.3104617402
 20
13.7319680628
 10
-3.3205942768
 20
13.7297273526
 10
-3.3302465974
 20
13.7270250324
 10
-3.3394187021
 20
13.7238611023
  0
LWPOLYLINE
  5
37D
100
AcDbEntity
  8
RACCORDO
100
AcDbPolyline
 62
7
  6
CONTINUOUS
 90
25
 70
0
 10
-7.0940062962
 20
16.5252651515
 10
-7.1036189373
 20
16.531737501
 10
-7.1136770413
 20
16.5379112736
 10
-7.1241806082
 20
16.5437864693
 10
-7.1351782918
 20
16.5493856249
 10
-7.1466214384
 20
16.5546862035
 10
-7.1583640865
 20
16.5596205944
 10
-7.1704100728
 20
16.5641841069
 10
-7.1827555606
 20
16.5683814317
 10
-7.1952430791
 20
16.5721590304
 10
-7.2078744475
 20
16.5755115265
 10
-7.2206478465
 20
16.5784442966
 10
-7.233400347
 20
16.5809199321
 10
-7.2461316812
 20
16.5829325774
 10
-7.2588421168
 20
16.584488088
 10
-7.2713695279
 20
16.5855666231
 10
-7.2837115698
 20
16.5861620726
 10
-7.2958705871
 20
16.5862805464
 10
-7.3076914874
 20
16.5859205335
 10
-7.3191699393
 20
16.5850759045
 10
-7.3303102741
 20
16.5837527886
 10
-7.3409703929
 20
16.5819680628
 10
-7.3511029295
 20
16.5797273526
 10
-7.3607552502
 20
16.5770250324
 10
-7.3699273549
 20
16.5738611023
  0
LINE
  5
37E
100
AcDbEntity
  8
RACCORDO
100
AcDbLine
 62
7
  6
CONTINUOUS
 10
-7.0940062962
 20
16.5252651515
 11
-5.1749947387
 21
15.1683190659
  0
LINE
  5
37F
100
AcDbEntity
  8
RACCORDO
100
AcDbLine
 62
7
  6
CONTINUOUS
 10
-3.0634976435
 20
13.6752651515
 11
-1.1444860859
 21
12.3183190659
  0
LINE
  5
380
100
AcDbEntity
  8
RACCORDO
100
AcDbLine
 62
7
  6
CONTINUOUS
 10
-7.0066030914
 20
16.8560679551
 11
-4.9559934259
 21
15.4060679551
  0
LINE
  5
381
100
AcDbEntity
  8
RACCORDO
100
AcDbLine
 62
7
  6
CONTINUOUS
 10
-2.9760944386
 20
14.0060679551
 11
-0.9254847732
 21
12.5560679551
  0
LWPOLYLINE
  5
382
100
AcDbEntity
  8
RACCORDO
100
AcDbPolyline
 62
7
  6
CONTINUOUS
 90
16
 70
0
 10
-4.9559934259
 20
15.4060679551
 10
-4.9469771604
 20
15.3993676785
 10
-4.9386419725
 20
15.3925354296
 10
-4.9309878621
 20
15.3855712085
 10
-4.9239879629
 20
15.3784441513
 10
-4.9176691414
 20
15.3711851219
 10
-4.9121119961
 20
15.3638867116
 10
-4.9073262841
 20
15.3565484161
 10
-4.9033022485
 20
15.3491707398
 10
-4.9000912171
 20
15.3418477875
 10
-4.8977036044
 20
15.3345802602
 10
-4.8961289961
 20
15.327367457
 10
-4.8953874767
 20
15.3203013796
 10
-4.895489718
 20
15.3133839076
 10
-4.8964250483
 20
15.3066131614
 10
-4.8971309838
 20
15.3035746432
  0
LWPOLYLINE
  5
383
100
AcDbEntity
  8
RACCORDO
100
AcDbPolyline
 62
7
  6
CONTINUOUS
 90
16
 70
0
 10
-0.9254847732
 20
12.5560679551
 10
-0.9164685077
 20
12.5493676785
 10
-0.9081333197
 20
12.5425354296
 10
-0.9004792093
 20
12.5355712085
 10
-0.8934793102
 20
12.5284441513
 10
-0.8871604886
 20
12.5211851219
 10
-0.8816033434
 20
12.5138867116
 10
-0.8768176314
 20
12.5065484161
 10
-0.8727935957
 20
12.4991707398
 10
-0.8695825643
 20
12.4918477875
 10
-0.8671949517
 20
12.4845802602
 10
-0.8656203433
 20
12.477367457
 10
-0.8648788239
 20
12.4703013796
 10
-0.8649810652
 20
12.4633839076
 10
-0.8659163955
 20
12.4566131614
 10
-0.8666223311
 20
12.4535746432
  0
LWPOLYLINE
  5
384
100
AcDbEntity
  8
RACCORDO
100
AcDbPolyline
 62
7
  6
CONTINUOUS
 90
9
 70
0
 10
8.857139607
 20
0.8450038071
 10
8.8571450368
 20
0.8449788844
 10
8.8570879401
 20
0.8453517907
 10
8.8569911199
 20
0.8461071453
 10
8.8568734502
 20
0.847244013
 10
8.8567525492
 20
0.8487658357
 10
8.8566460104
 20
0.850666706
 10
8.8565701036
 20
0.8529462307
 10
8.8565405003
 20
0.8556602802
  0
LINE
  5
385
100
AcDbEntity
  8
0
100
AcDbLine
 62
7
  6
CONTINUOUS
 10
12.1515880232
 20
19.603329901
 11
12.1520985641
 21
19.5874763535
  0
LWPOLYLINE
  5
386
100
AcDbEntity
  8
ASSI
100
AcDbPolyline
 62
7
  6
CONTINUOUS
 90
22
 70
0
 10
10.8015883405
 20
20.3104367289
 10
10.8016367672
 20
20.3084181317
 10
10.8026592514
 20
20.3001541414
 10
10.8049762345
 20
20.292135418
 10
10.8086397619
 20
20.2843718227
 10
10.8135977883
 20
20.2768534944
 10
10.8196536127
 20
20.2698787095
 10
10.8268513721
 20
20.2634693211
 10
10.8351469296
 20
20.2576034762
 10
10.8442111735
 20
20.2525138917
 10
10.8540750089
 20
20.2482317772
 10
10.8647075308
 20
20.2447259231
 10
10.8756869126
 20
20.242135418
 10
10.8870270999
 20
20.2404970635
 10
10.8987141471
 20
20.2397740581
 10
10.9102843914
 20
20.2399950856
 10
10.9217331366
 20
20.2411981009
 10
10.9330650788
 20
20.2433451491
 10
10.9438306433
 20
20.24635105
 10
10.9538799717
 20
20.2501874101
 10
10.9633629224
 20
20.2548826229
 10
10.9722794952
 20
20.2604366882
  0
LWPOLYLINE
  5
387
100
AcDbEntity
  8
ASSI
100
AcDbPolyline
 62
7
  6
CONTINUOUS
 90
22
 70
0
 10
11.0015492937
 20
20.3104366475
 10
11.001500867
 20
20.3124552447
 10
11.0004783829
 20
20.3207192351
 10
10.9981613998
 20
20.3287379584
 10
10.9944978724
 20
20.3365015538
 10
10.989539846
 20
20.3440198821
 10
10.9834840216
 20
20.350994667
 10
10.9762862622
 20
20.3574040554
 10
10.9679907047
 20
20.3632699003
 10
10.9589264608
 20
20.3683594848
 10
10.9490626254
 20
20.3726415993
 10
10.9384301035
 20
20.3761474534
 10
10.9274507216
 20
20.3787379584
 10
10.9161105344
 20
20.3803763129
 10
10.9044234871
 20
20.3810993184
 10
10.8928532429
 20
20.3808782909
 10
10.8814044976
 20
20.3796752756
 10
10.8700725554
 20
20.3775282273
 10
10.859306991
 20
20.3745223264
 10
10.8492576625
 20
20.3706859663
 10
10.8397747119
 20
20.3659907536
 10
10.830858139
 20
20.3604366882
  0
LINE
  5
388
100
AcDbEntity
  8
0
100
AcDbLine
 62
7
  6
CONTINUOUS
 10
11.6515688171
 20
16.0189096445
 11
11.6515688171
 21
16.8255351077
  0
LINE
  5
389
100
AcDbEntity
  8
0
100
AcDbLine
 62
7
  6
CONTINUOUS
 10
12.1515688171
 20
20.2043706711
 11
12.1515688171
 21
19.603329907
  0
LWPOLYLINE
  5
38A
100
AcDbEntity
  8
ASSI
100
AcDbPolyline
 62
7
  6
CONTINUOUS
 90
16
 70
0
 10
11.7865847225
 20
20.3104366847
 10
11.7867431791
 20
20.3261073123
 10
11.7904285362
 20
20.3891131563
 10
11.7989710809
 20
20.4516908841
 10
11.812414977
 20
20.5138366029
 10
11.8307160607
 20
20.5755542055
 10
11.853708433
 20
20.6362842225
 10
11.881434749
 20
20.6960176741
 10
11.9138523536
 20
20.75476354
 10
11.9506673814
 20
20.8119892895
 10
11.9919198158
 20
20.8676811011
 10
12.0375696734
 20
20.9218527962
 10
12.0872031387
 20
20.9740133091
 10
12.1406822733
 20
21.0239989511
 10
12.1981450155
 20
21.0719734108
 10
12.2595913655
 20
21.1179366882
  0
LWPOLYLINE
  5
38B
100
AcDbEntity
  8
RACCORDO
100
AcDbPolyline
 62
7
  6
CONTINUOUS
 90
40
 70
0
 10
12.1515688171
 20
20.2043706711
 10
12.1536209468
 20
20.2588943744
 10
12.1598217437
 20
20.3135644863
 10
12.1702225569
 20
20.3681583051
 10
12.1848508872
 20
20.4224414218
 10
12.2037175413
 20
20.4761983177
 10
12.2268283775
 20
20.5292416997
 10
12.2541929665
 20
20.5814071661
 10
12.2857574906
 20
20.6324363913
 10
12.3214000852
 20
20.6820325011
 10
12.3610502944
 20
20.7300263208
 10
12.4046112482
 20
20.7762334732
 10
12.4518627978
 20
20.8203795726
 10
12.5026840831
 20
20.8623282652
 10
12.5569295242
 20
20.9019319983
 10
12.6142767777
 20
20.9389471628
 10
12.6745783637
 20
20.9732820145
 10
12.7376226484
 20
21.0048131158
 10
12.802912995
 20
21.0333148863
 10
12.8701181069
 20
21.0586950828
 10
12.939108129
 20
21.0809491536
 10
13.0096406137
 20
21.1000287657
 10
13.0815003402
 20
21.1158989994
 10
13.1544342595
 20
21.1285216104
 10
13.2281271533
 20
21.1378610539
 10
13.302308637
 20
21.143904257
 10
13.3767668905
 20
21.1466502316
 10
13.4512672253
 20
21.1460995407
 10
13.5255863036
 20
21.1422570006
 10
13.599468946
 20
21.1351343952
 10
13.6726358558
 20
21.1247565651
 10
13.7448710317
 20
21.1111489652
 10
13.8159246458
 20
21.0943485737
 10
13.8854819376
 20
21.0744224114
 10
13.9532917247
 20
21.0514390001
 10
14.0191740873
 20
21.0254504943
 10
14.0829398468
 20
20.9965123113
 10
14.1443905521
 20
20.9646859502
 10
14.2033128282
 20
20.9300458689
 10
14.2595009898
 20
20.8926699882
  0
LWPOLYLINE
  5
38C
100
AcDbEntity
  8
DRAFT
100
AcDbPolyline
 62
7
  6
CONTINUOUS
 90
9
 70
0
 10
16.5215100563
 20
17.2567688342
 10
16.5294075364
 20
17.2945905491
 10
16.5370406721
 20
17.3376730787
 10
16.5433416895
 20
17.3808922243
 10
16.5482991864
 20
17.4241692807
 10
16.5519101645
 20
17.4674930875
 10
16.554177622
 20
17.510874805
 10
16.5550991516
 20
17.5542692091
 10
16.5551219022
 20
17.562303936
  0
LINE
  5
38D
100
AcDbEntity
  8
RACCORDO
100
AcDbLine
 62
7
  6
CONTINUOUS
 10
21.836334201
 20
1.2564864568
 11
9.4263164589
 21
-7.8855463257
  0
LINE
  5
38E
100
AcDbEntity
  8
DRAFT
100
AcDbLine
 62
7
  6
CONTINUOUS
 10
20.4019259509
 20
-0.1132840656
 11
11.5121843912
 21
-6.5122465057
  0
LINE
  5
38F
100
AcDbEntity
  8
RACCORDO
100
AcDbLine
 62
7
  6
CONTINUOUS
 10
9.0557235921
 20
-8.2486664027
 11
11.5121843912
 21
-6.5122465057
  0
LINE
  5
390
100
AcDbEntity
  8
DRAFT
100
AcDbLine
 62
7
  6
CONTINUOUS
 10
11.5121843912
 20
-6.5122465057
 11
20.4019259509
 21
-0.2282772567
  0
LINE
  5
391
100
AcDbEntity
  8
DRAFT
100
AcDbLine
 62
7
  6
CONTINUOUS
 10
21.4625861227
 20
0.5121399774
 11
20.4019259509
 21
-0.2282772567
  0
LWPOLYLINE
  5
392
100
AcDbEntity
  8
ASSI
100
AcDbPolyline
 62
7
  6
CONTINUOUS
 90
16
 70
0
 10
-3.8854425022
 20
9.9107072647
 10
-3.8991422112
 20
9.9077250666
 10
-3.9357307015
 20
9.9018199584
 10
-3.9726311011
 20
9.8978723134
 10
-4.0098486234
 20
9.8959148502
 10
-4.0473780549
 20
9.8959148502
 10
-4.0845955772
 20
9.8978723134
 10
-4.1214959767
 20
9.9018199584
 10
-4.1580844671
 20
9.9077250666
 10
-4.1937528701
 20
9.9154894828
 10
-4.2284858068
 20
9.9251442846
 10
-4.2622986563
 20
9.9366583943
 10
-4.2946293774
 20
9.949840423
 10
-4.3252906231
 20
9.9646265745
 10
-4.3544697406
 20
9.981080645
 10
-4.3821667297
 20
9.9992026345
  0
LINE
  5
393
100
AcDbEntity
  8
DRAFT
100
AcDbLine
 62
7
  6
CONTINUOUS
 10
5.0392150703
 20
10.5023362392
 11
3.9263379492
 21
11.2892591982
  0
LINE
  5
394
100
AcDbEntity
  8
DRAFT
100
AcDbLine
 62
7
  6
CONTINUOUS
 10
-7.7590979743
 20
19.5521101808
 11
-9.0467847775
 21
20.4626422514
  0
LINE
  5
395
100
AcDbEntity
  8
RACCORDO
100
AcDbLine
 62
250
  6
CONTINUOUS
 10
-6.1145783436
 20
18.529451774
 11
-6.0934238632
 21
18.5144932974
  0
LINE
  5
396
100
AcDbEntity
  8
DRAFT
100
AcDbLine
 62
7
  6
CONTINUOUS
 10
20.1850694967
 20
0.0400566037
 11
20.4019259509
 21
-0.1132840656
  0
LINE
  5
397
100
AcDbEntity
  8
RACCORDO
100
AcDbLine
 62
7
  6
CONTINUOUS
 10
-5.9731569874
 20
18.5604577441
 11
-4.5235880859
 21
17.5354577441
  0
LINE
  5
398
100
AcDbEntity
  8
RACCORDO
100
AcDbLine
 62
7
  6
CONTINUOUS
 10
2.47191113
 20
12.5888928107
 11
1.0625554854
 21
13.5854577441
  0
LINE
  5
399
100
AcDbEntity
  8
DRAFT
100
AcDbLine
 62
7
  6
CONTINUOUS
 10
2.6535457431
 20
12.7195892841
 11
1.0789843291
 21
13.8329723373
  0
LINE
  5
39A
100
AcDbEntity
  8
DRAFT
100
AcDbLine
 62
7
  6
CONTINUOUS
 10
-4.5400169296
 20
17.8062062308
 11
-6.1145783436
 21
18.9195892841
  0
LINE
  5
39B
100
AcDbEntity
  8
DRAFT
100
AcDbLine
 62
7
  6
CONTINUOUS
 10
2.9394758621
 20
12.9148352594
 11
1.3624616081
 21
14.0299527324
  0
LINE
  5
39C
100
AcDbEntity
  8
DRAFT
100
AcDbLine
 62
7
  6
CONTINUOUS
 10
-4.2614445834
 20
18.0066549371
 11
-5.8384588373
 21
19.1217724101
  0
LWPOLYLINE
  5
39D
100
AcDbEntity
  8
RACCORDO
100
AcDbPolyline
 62
7
  6
CONTINUOUS
 90
16
 70
0
 10
1.0625554854
 20
13.5854577441
 10
1.0535392199
 20
13.5921580207
 10
1.045204032
 20
13.5989902696
 10
1.0375499216
 20
13.6059544907
 10
1.0305500224
 20
13.6130815479
 10
1.0242312009
 20
13.6203405774
 10
1.0186740556
 20
13.6276389876
 10
1.0138883436
 20
13.6349772831
 10
1.009864308
 20
13.6423549595
 10
1.0066532766
 20
13.6496779118
 10
1.0042656639
 20
13.656945439
 10
1.0026910556
 20
13.6641582423
 10
1.0019495362
 20
13.6712243197
 10
1.0020517775
 20
13.6781417917
 10
1.0029871078
 20
13.6849125379
 10
1.0036930433
 20
13.6879510561
  0
LWPOLYLINE
  5
39E
100
AcDbEntity
  8
RACCORDO
100
AcDbPolyline
 62
250
  6
CONTINUOUS
 90
14
 70
0
 10
12.1515688171
 20
20.2043706711
 10
12.1529788862
 20
20.162399345
 10
12.1590183458
 20
20.1080163086
 10
12.1697930148
 20
20.0539905316
 10
12.1852569122
 20
20.0005504685
 10
12.205352248
 20
19.947888781
 10
12.2299965863
 20
19.8962160768
 10
12.2590610357
 20
19.8457790025
 10
12.2924142956
 20
19.796770225
 10
12.32991727
 20
19.7493635493
 10
12.3713843669
 20
19.7037610434
 10
12.4166265585
 20
19.6601332471
 10
12.4654611973
 20
19.6186222079
 10
12.5176853406
 20
19.5793706711
  0
LINE
  5
39F
100
AcDbEntity
  8
0
100
AcDbLine
 62
250
  6
CONTINUOUS
 10
13.2601474609
 20
15.2942827529
 11
13.2601474609
 21
16.4658478734
  0
LINE
  5
3A0
100
AcDbEntity
  8
0
100
AcDbLine
 62
250
  6
CONTINUOUS
 10
13.5429901734
 20
15.2942827529
 11
13.5429901734
 21
16.4658478734
  0
LINE
  5
3A1
100
AcDbEntity
  8
0
100
AcDbLine
 62
7
  6
CONTINUOUS
 10
14.6515688171
 20
20.2043706711
 11
14.6515688171
 21
19.603329907
  0
LINE
  5
3A2
100
AcDbEntity
  8
0
100
AcDbLine
 62
7
  6
CONTINUOUS
 10
15.1515688171
 20
16.3133669327
 11
15.1515688171
 21
16.8255360977
  0
LWPOLYLINE
  5
3A3
100
AcDbEntity
  8
ASSI
100
AcDbPolyline
 62
7
  6
CONTINUOUS
 90
16
 70
0
 10
15.0165529118
 20
20.3104366918
 10
15.0163944552
 20
20.2947660641
 10
15.0127090981
 20
20.2317602201
 10
15.0041665534
 20
20.1691824924
 10
14.9907226573
 20
20.1070367735
 10
14.9724215735
 20
20.0453191709
 10
14.9494292013
 20
19.984589154
 10
14.9217028852
 20
19.9248557024
 10
14.8892852807
 20
19.8661098365
 10
14.8524702529
 20
19.8088840869
 10
14.8112178185
 20
19.7531922754
 10
14.7655679609
 20
19.6990205803
 10
14.7159344955
 20
19.6468600674
 10
14.662455361
 20
19.5968744254
 10
14.6049926187
 20
19.5488999657
 10
14.5435462687
 20
19.5029366882
  0
LWPOLYLINE
  5
3A4
100
AcDbEntity
  8
0
100
AcDbPolyline
 62
7
  6
CONTINUOUS
 90
3
 70
0
 10
14.6512466697
 20
19.5875165199
 10
14.6513951871
 20
19.5897880185
 10
14.6515496111
 20
19.603329913
  0
LWPOLYLINE
  5
3A5
100
AcDbEntity
  8
RACCORDO
100
AcDbPolyline
 62
250
  6
CONTINUOUS
 90
22
 70
0
 10
8.7723424351
 20
-11.5924070748
 10
8.7799005545
 20
-11.5866639596
 10
8.7871531871
 20
-11.5807271576
 10
8.7940904135
 20
-11.5746047886
 10
8.8007027457
 20
-11.5683052261
 10
8.8069811402
 20
-11.5618370858
 10
8.81291701
 20
-11.5552092142
 10
8.8185022368
 20
-11.5484306762
 10
8.8237291816
 20
-11.5415107426
 10
8.8285906957
 20
-11.5344588778
 10
8.83308013
 20
-11.5272847265
 10
8.8371913444
 20
-11.5199981006
 10
8.840918716
 20
-11.5126089663
 10
8.8442571469
 20
-11.5051274294
 10
8.8472020712
 20
-11.4975637225
 10
8.849749461
 20
-11.4899281904
 10
8.8518958325
 20
-11.4822312763
 10
8.8536382501
 20
-11.4744835071
 10
8.8549743308
 20
-11.4666954794
 10
8.8559022472
 20
-11.4588778447
 10
8.8564207304
 20
-11.4510412953
 10
8.856540495
 20
-11.4450477815
  0
LWPOLYLINE
  5
3A6
100
AcDbEntity
  8
RACCORDO
100
AcDbPolyline
 62
250
  6
CONTINUOUS
 90
24
 70
0
 10
21.836334201
 20
-1.5348866124
 10
21.8473842962
 20
-1.5265049052
 10
21.8580460227
 20
-1.517874958
 10
21.8683082314
 20
-1.5090057928
 10
21.8781601164
 20
-1.4999067298
 10
21.8875914602
 20
-1.4905872365
 10
21.8965926116
 20
-1.4810569005
 10
21.9051542392
 20
-1.4713255435
 10
21.9132672452
 20
-1.4614034471
 10
21.9209230086
 20
-1.4513011985
 10
21.9281134716
 20
-1.4410294269
 10
21.9348311649
 20
-1.4305987975
 10
21.9410690931
 20
-1.4200202242
 10
21.9468207278
 20
-1.4093047524
 10
21.9520800399
 20
-1.3984635879
 10
21.9568415338
 20
-1.3875080972
 10
21.9611002279
 20
-1.3764497036
 10
21.9648516453
 20
-1.3652999894
 10
21.9680918392
 20
-1.3540707216
 10
21.9708174155
 20
-1.3427736523
 10
21.9730255251
 20
-1.3314205776
 10
21.9747138559
 20
-1.3200234391
 10
21.975880642
 20
-1.3085941654
 10
21.976524667
 20
-1.2971446928
  0
LWPOLYLINE
  5
3A7
100
AcDbEntity
  8
RACCORDO
100
AcDbPolyline
 62
250
  6
CONTINUOUS
 90
52
 70
0
 10
9.1870182908
 20
-10.8645105097
 10
9.1743907935
 20
-10.8740137438
 10
9.161762476
 20
-10.8839134296
 10
9.1491333383
 20
-10.8942095671
 10
9.1364858549
 20
-10.9049147056
 10
9.1238375514
 20
-10.9160162958
 10
9.1112410043
 20
-10.9274766898
 10
9.098697213
 20
-10.9392979747
 10
9.0862051783
 20
-10.9514780634
 10
9.0738144787
 20
-10.9639730477
 10
9.0615258878
 20
-10.9767850754
 10
9.0493386321
 20
-10.9899119987
 10
9.0372999703
 20
-11.0033034658
 10
9.025412928
 20
-11.0169585916
 10
9.0136744794
 20
-11.0308782611
 10
9.0021228062
 20
-11.0450147776
 10
8.9907626563
 20
-11.0593634112
 10
8.9795892818
 20
-11.0739288917
 10
8.9686266199
 20
-11.0886777122
 10
8.9578749012
 20
-11.1036097238
 10
8.9473338951
 20
-11.1187250753
 10
8.9370268471
 20
-11.1339907055
 10
8.9269516214
 20
-11.1494107242
 10
8.9171103538
 20
-11.1649810216
 10
8.9075326969
 20
-11.1806562061
 10
8.8982183507
 20
-11.1964390317
 10
8.8891676153
 20
-11.2123267443
 10
8.8804110438
 20
-11.228265691
 10
8.8719511069
 20
-11.2442537732
 10
8.863785334
 20
-11.2602930895
 10
8.8559368664
 20
-11.2763362819
 10
8.848408205
 20
-11.2923793411
 10
8.8411968491
 20
-11.3084262765
 10
8.8343184372
 20
-11.3244417584
 10
8.8277730386
 20
-11.3404258865
 10
8.8215605842
 20
-11.3563785611
 10
8.8156965053
 20
-11.3722641528
 10
8.8101795964
 20
-11.3880883118
 10
8.8050110631
 20
-11.4038453879
 10
8.800209954
 20
-11.4194828015
 10
8.7957775366
 20
-11.4350027647
 10
8.7917125434
 20
-11.4504030654
 10
8.7880302203
 20
-11.4656244886
 10
8.7847332214
 20
-11.4806659093
 10
8.7818188926
 20
-11.4955284525
 10
8.7792945175
 20
-11.5101562774
 10
8.7771628728
 20
-11.5245483775
 10
8.7754211818
 20
-11.5387057594
 10
8.7740683972
 20
-11.5525756021
 10
8.77310417
 20
-11.5661402988
 10
8.7725288493
 20
-11.5794174563
 10
8.7723424351
 20
-11.5924070748
  0
LWPOLYLINE
  5
3A8
100
AcDbEntity
  8
RACCORDO
100
AcDbPolyline
 62
7
  6
CONTINUOUS
 90
28
 70
0
 10
21.7986095142
 20
-1.628957351
 10
21.8042568967
 20
-1.624727448
 10
21.8170772934
 20
-1.6146257062
 10
21.8294391675
 20
-1.6041762268
 10
21.8413318871
 20
-1.5933964334
 10
21.8527516424
 20
-1.5822991404
 10
21.8636976491
 20
-1.5708935132
 10
21.8741620751
 20
-1.5591955883
 10
21.8841390256
 20
-1.5472207564
 10
21.8936276103
 20
-1.5349780774
 10
21.9026194952
 20
-1.5224858455
 10
21.9111097104
 20
-1.5097599565
 10
21.9190995833
 20
-1.4968065476
 10
21.926582432
 20
-1.4836435492
 10
21.9335527618
 20
-1.4702892445
 10
21.9400112579
 20
-1.4567508878
 10
21.9459521702
 20
-1.4430482899
 10
21.9513714082
 20
-1.4291999751
 10
21.9562704195
 20
-1.415211796
 10
21.9606450987
 20
-1.4011043374
 10
21.9644926869
 20
-1.3868968098
 10
21.967814829
 20
-1.37259324
 10
21.9706092287
 20
-1.3582137993
 10
21.9728744606
 20
-1.3437789008
 10
21.9746116701
 20
-1.3292930162
 10
21.9758203813
 20
-1.3147712488
 10
21.9765002613
 20
-1.3002393218
 10
21.9766642856
 20
-1.2887609628
  0
LINE
  5
3A9
100
AcDbEntity
  8
RACCORDO
100
AcDbLine
 62
250
  6
CONTINUOUS
 10
9.1870182908
 20
-10.8645105097
 11
21.836334201
 21
-1.5348866124
  0
LINE
  5
3AA
100
AcDbEntity
  8
RACCORDO
100
AcDbLine
 62
7
  6
CONTINUOUS
 10
9.1482647737
 20
-10.9593421598
 11
21.7986042186
 21
-1.6289613222
  0
LINE
  5
3AB
100
AcDbEntity
  8
RACCORDO
100
AcDbLine
 62
7
  6
CONTINUOUS
 10
21.836334201
 20
-0.4335016111
 11
9.4263164589
 21
-9.4654559949
  0
LWPOLYLINE
  5
3AC
100
AcDbEntity
  8
RACCORDO
100
AcDbPolyline
 62
7
  6
CONTINUOUS
 90
37
 70
0
 10
9.4263164589
 20
-9.4654559949
 10
9.4038834788
 20
-9.4814701229
 10
9.3815110176
 20
-9.4968243386
 10
9.3591990754
 20
-9.5115186421
 10
9.3369300367
 20
-9.525563177
 10
9.314721517
 20
-9.5389477997
 10
9.2926263627
 20
-9.5516420794
 10
9.2706427626
 20
-9.5636450698
 10
9.2487725279
 20
-9.5749577172
 10
9.2270739399
 20
-9.58555243
 10
9.2055511268
 20
-9.5954254987
 10
9.1841999603
 20
-9.6045806329
 10
9.1630663367
 20
-9.6130013686
 10
9.142146802
 20
-9.6206870907
 10
9.1214448101
 20
-9.6276384144
 10
9.1010166188
 20
-9.633840722
 10
9.0808681509
 20
-9.6392905018
 10
9.0609934835
 20
-9.6439912655
 10
9.0414311053
 20
-9.6479389314
 10
9.0221774474
 20
-9.6511323351
 10
9.0032360785
 20
-9.6535726409
 10
8.9846561942
 20
-9.6552592602
 10
8.9664431503
 20
-9.656189881
 10
8.948591591
 20
-9.6563668152
 10
8.931134643
 20
-9.6557964106
 10
8.9140706173
 20
-9.6544768658
 10
8.897401203
 20
-9.6524099822
 10
8.8811645941
 20
-9.6496075124
 10
8.8653638192
 20
-9.646067992
 10
8.8499958496
 20
-9.6417928854
 10
8.8350897942
 20
-9.6367983389
 10
8.8206465331
 20
-9.6310829788
 10
8.8066651862
 20
-9.6246481788
 10
8.7931722209
 20
-9.6175142062
 10
8.7801682601
 20
-9.6096792217
 10
8.7676526809
 20
-9.6011450645
 10
8.7589896305
 20
-9.5946071545
  0
LINE
  5
3AD
100
AcDbEntity
  8
RACCORDO
100
AcDbLine
 62
250
  6
CONTINUOUS
 10
23.0804073379
 20
0.557966381
 11
21.9766643008
 21
-0.2249042441
  0
LINE
  5
3AE
100
AcDbEntity
  8
RACCORDO
100
AcDbLine
 62
250
  6
CONTINUOUS
 10
23.2925364644
 20
0.1958393084
 11
21.9766643008
 21
-0.7374917541
  0
LWPOLYLINE
  5
3AF
100
AcDbEntity
  8
RACCORDO
100
AcDbPolyline
 62
250
  6
CONTINUOUS
 90
25
 70
0
 10
14.7864296687
 20
17.6396811874
 10
14.6453934496
 20
17.6054397202
 10
14.5047483274
 20
17.5750491459
 10
14.3644943021
 20
17.5485094644
 10
14.2242211515
 20
17.525916301
 10
14.0843390977
 20
17.5071740304
 10
13.9460788073
 20
17.4919957771
 10
13.809498757
 20
17.480447126
 10
13.6745404701
 20
17.4724624922
 10
13.5422591826
 20
17.4675582446
 10
13.4127154556
 20
17.4657809525
 10
13.2858487281
 20
17.4670840465
 10
13.1625325528
 20
17.4708441881
 10
13.0428317909
 20
17.4770907126
 10
12.9266815811
 20
17.4857942846
 10
12.814760893
 20
17.4962435597
 10
12.707130957
 20
17.5084512472
 10
12.6037305427
 20
17.5224046378
 10
12.505054928
 20
17.5373542593
 10
12.4111397473
 20
17.5533018691
 10
12.3219493661
 20
17.5702457098
 10
12.2378721599
 20
17.5874310365
 10
12.1590375869
 20
17.6046062675
 10
12.0853161888
 20
17.6220229845
 10
12.0167079656
 20
17.6396811874
  0
LWPOLYLINE
  5
3B0
100
AcDbEntity
  8
RACCORDO
100
AcDbPolyline
 62
250
  6
CONTINUOUS
 90
19
 70
0
 10
14.4634941912
 20
17.3778625709
 10
14.3272462296
 20
17.3546032545
 10
14.1919195477
 20
17.3348041865
 10
14.0576973188
 20
17.3183529961
 10
13.9246106675
 20
17.305121998
 10
13.7929585716
 20
17.2950119173
 10
13.6633128398
 20
17.2879213153
 10
13.5358154483
 20
17.2837015615
 10
13.4105896722
 20
17.2822035079
 10
13.2881643161
 20
17.2832704935
 10
13.1686434176
 20
17.2867292253
 10
13.0521080154
 20
17.2924087991
 10
12.9390302805
 20
17.300109908
 10
12.8294722066
 20
17.3096446638
 10
12.7234723077
 20
17.3208307217
 10
12.621441732
 20
17.3334401999
 10
12.5235219805
 20
17.3472629092
 10
12.4295908635
 20
17.3621293304
 10
12.3396434431
 20
17.3778625709
  0
LWPOLYLINE
  5
3B1
100
AcDbEntity
  8
RACCORDO
100
AcDbPolyline
 62
7
  6
CONTINUOUS
 90
16
 70
0
 10
2.8861293736
 20
14.4421296685
 10
2.9222582762
 20
14.4395474933
 10
2.9580956771
 20
14.4352166247
 10
2.9936221144
 20
14.4291938367
 10
3.0288376153
 20
14.4215098018
 10
3.0637186247
 20
14.4122561363
 10
3.098212325
 20
14.4015722709
 10
3.132306081
 20
14.3895158466
 10
3.1660018448
 20
14.376133745
 10
3.199264046
 20
14.3615298639
 10
3.2320863258
 20
14.3457528426
 10
3.2644720803
 20
14.3288442509
 10
3.2963948133
 20
14.310881139
 10
3.3278525464
 20
14.2919039277
 10
3.3588483061
 20
14.2719499124
 10
3.3913925731
 20
14.2496422202
  0
LWPOLYLINE
  5
3B2
100
AcDbEntity
  8
0
100
AcDbPolyline
 62
7
  6
CONTINUOUS
 90
9
 70
0
 10
-2.5897693693
 20
17.9875886757
 10
-2.6141642806
 20
18.0026094
 10
-2.6396946263
 20
18.0142890011
 10
-2.6670304235
 20
18.0230465577
 10
-2.6961446524
 20
18.0289152801
 10
-2.7266869426
 20
18.0318353419
 10
-2.7585405041
 20
18.0317868011
 10
-2.7918221269
 20
18.0287895996
 10
-2.8265318111
 20
18.0228437377
  0
LWPOLYLINE
  5
3B3
100
AcDbEntity
  8
RACCORDO
100
AcDbPolyline
 62
250
  6
CONTINUOUS
 90
35
 70
0
 10
7.7517261681
 20
11.9636727371
 10
7.7402122835
 20
11.9709821992
 10
7.728281697
 20
11.9776774933
 10
7.7159432521
 20
11.9837536621
 10
7.7032060701
 20
11.9892062131
 10
7.6900795755
 20
11.9940311046
 10
7.6765735439
 20
11.998224736
 10
7.6626980569
 20
12.0017839771
 10
7.6484634552
 20
12.0047061821
 10
7.6338802788
 20
12.006989194
 10
7.6189593085
 20
12.0086313254
 10
7.6037115988
 20
12.0096313554
 10
7.5881484949
 20
12.0099885354
 10
7.5722815753
 20
12.0097025983
 10
7.5561226365
 20
12.0087737575
 10
7.5396836652
 20
12.0072027027
 10
7.5229768515
 20
12.0049905979
 10
7.5060145675
 20
12.0021390777
 10
7.4888094416
 20
11.9986502612
 10
7.4713743355
 20
11.9945267591
 10
7.4537222615
 20
11.9897716585
 10
7.4358662696
 20
11.9843884845
 10
7.41781952
 20
11.9783812062
 10
7.3995953799
 20
11.9717542689
 10
7.3812074142
 20
11.9645126005
 10
7.3626692736
 20
11.9566615741
 10
7.3439946595
 20
11.9482069862
 10
7.3251975024
 20
11.9391551376
 10
7.3062919529
 20
11.9295128477
 10
7.2872922476
 20
11.9192873986
 10
7.2682123045
 20
11.9084863023
 10
7.2490658992
 20
11.8971173535
 10
7.2298671155
 20
11.88518889
 10
7.2106303401
 20
11.8727098255
 10
7.1913698576
 20
11.859689407
  0
LWPOLYLINE
  5
3B4
100
AcDbEntity
  8
RACCORDO
100
AcDbPolyline
 62
250
  6
CONTINUOUS
 90
35
 70
0
 10
-8.2993884323
 20
23.3135250578
 10
-8.3110524501
 20
23.3209415209
 10
-8.3231386643
 20
23.3277477203
 10
-8.3356382235
 20
23.333938685
 10
-8.3485416525
 20
23.3395096636
 10
-8.3618395424
 20
23.3444566171
 10
-8.3755221094
 20
23.3487759308
 10
-8.3895788813
 20
23.3524641899
 10
-8.4039995313
 20
23.35551875
 10
-8.4187735121
 20
23.3579374409
 10
-8.4338896204
 20
23.3597182692
 10
-8.4493368146
 20
23.360860015
 10
-8.4651037418
 20
23.3613619169
 10
-8.4811783694
 20
23.3612233813
 10
-8.4975489119
 20
23.3604446219
 10
-8.5142033753
 20
23.359026317
 10
-8.5311290884
 20
23.3569692873
 10
-8.5483136886
 20
23.3542751678
 10
-8.5657445399
 20
23.3509460674
 10
-8.5834082741
 20
23.3469842378
 10
-8.601291885
 20
23.342392766
 10
-8.6193823165
 20
23.337175169
 10
-8.6376658829
 20
23.3313350472
 10
-8.6561292219
 20
23.3248768462
 10
-8.6747587624
 20
23.3178054875
 10
-8.6935403103
 20
23.3101259655
 10
-8.7124601687
 20
23.3018440786
 10
-8.7315044001
 20
23.2929661219
 10
-8.7506582933
 20
23.2834985269
 10
-8.7699076097
 20
23.273448574
 10
-8.7892384296
 20
23.2628237751
 10
-8.8086364165
 20
23.2516315415
 10
-8.8280872979
 20
23.2398800838
 10
-8.8475768714
 20
23.2275784438
 10
-8.8670908502
 20
23.2147358689
  0
LWPOLYLINE
  5
3B5
100
AcDbEntity
  8
RACCORDO
100
AcDbPolyline
 62
7
  6
CONTINUOUS
 90
37
 70
0
 10
7.7563794119
 20
11.9604606993
 10
7.7424787897
 20
11.969894926
 10
7.7281689863
 20
11.9788233454
 10
7.7134629095
 20
11.9872300502
 10
7.6983854114
 20
11.9950943212
 10
7.6829401147
 20
12.0024082367
 10
7.6671065861
 20
12.0091726729
 10
7.6508987388
 20
12.0153710207
 10
7.6343294194
 20
12.0209881647
 10
7.6173721557
 20
12.0260207274
 10
7.6000391268
 20
12.0304506587
 10
7.5823425776
 20
12.0342607873
 10
7.5642509913
 20
12.037441634
 10
7.545771326
 20
12.0399732619
 10
7.5269175432
 20
12.0418353197
 10
7.5076630123
 20
12.0430103601
 10
7.4880058075
 20
12.043475934
 10
7.4679645751
 20
12.043209127
 10
7.4475380583
 20
12.0421875767
 10
7.4267217429
 20
12.0403875635
 10
7.4055327521
 20
12.0377869387
 10
7.38399745
 20
12.0343668355
 10
7.3620810091
 20
12.0300983185
 10
7.339826976
 20
12.0249660589
 10
7.3173767829
 20
12.018987862
 10
7.2947323531
 20
12.0121560635
 10
7.2718995955
 20
12.0044635737
 10
7.2490262429
 20
11.9959581982
 10
7.2261276023
 20
11.9866508855
 10
7.2031964235
 20
11.976542953
 10
7.1803491485
 20
11.9656941356
 10
7.1575989403
 20
11.9541241472
 10
7.1349422395
 20
11.9418435107
 10
7.1124742489
 20
11.9289191161
 10
7.0902314887
 20
11.9153921253
 10
7.0681891412
 20
11.9012664826
 10
7.046351922
 20
11.8865616137
  0
LWPOLYLINE
  5
3B6
100
AcDbEntity
  8
RACCORDO
100
AcDbPolyline
 62
250
  6
CONTINUOUS
 90
27
 70
0
 10
23.2524935201
 20
0.5900066196
 10
23.2502494641
 20
0.5915328416
 10
23.2454498649
 20
0.594422847
 10
23.2404194111
 20
0.5969663789
 10
23.235165091
 20
0.5991599031
 10
23.2296942035
 20
0.6010003716
 10
23.2240143487
 20
0.6024852268
 10
23.2181334185
 20
0.6036124044
 10
23.2120595845
 20
0.6043803374
 10
23.2058012856
 20
0.6047879582
 10
23.1993672167
 20
0.6048347
 10
23.1927663179
 20
0.6045204972
 10
23.1860077606
 20
0.603845786
 10
23.1791009347
 20
0.6028115033
 10
23.1720554376
 20
0.6014190859
 10
23.164881058
 20
0.5996704683
 10
23.1575877642
 20
0.5975680795
 10
23.1501856905
 20
0.5951148408
 10
23.1426851217
 20
0.5923141607
 10
23.1350964788
 20
0.5891699303
 10
23.1274303061
 20
0.5856865182
 10
23.1196972534
 20
0.5818687635
 10
23.1119080668
 20
0.5777219712
 10
23.1040735736
 20
0.5732519058
 10
23.096204661
 20
0.5684647797
 10
23.0883122605
 20
0.5633672437
 10
23.0804073379
 20
0.557966381
  0
LWPOLYLINE
  5
3B7
100
AcDbEntity
  8
RACCORDO
100
AcDbPolyline
 62
250
  6
CONTINUOUS
 90
25
 70
0
 10
7.1913698576
 20
11.859689407
 10
7.1842492757
 20
11.8645775359
 10
7.1771352392
 20
11.8691675089
 10
7.1700392872
 20
11.8734518812
 10
7.1629729293
 20
11.8774237035
 10
7.1559476271
 20
11.8810765333
 10
7.1489747757
 20
11.884404446
 10
7.1420656851
 20
11.8874020435
 10
7.1352315619
 20
11.8900644637
 10
7.1284834911
 20
11.8923873882
 10
7.121832418
 20
11.8943670493
 10
7.1152891307
 20
11.8960002358
 10
7.1088642424
 20
11.8972842987
 10
7.1025681744
 20
11.8982171553
 10
7.0964111389
 20
11.8987972926
 10
7.0904031226
 20
11.8990237694
 10
7.0845538705
 20
11.8988962185
 10
7.0788728702
 20
11.8984148467
 10
7.0733693362
 20
11.8975804349
 10
7.0680521954
 20
11.8963943365
 10
7.0629300721
 20
11.8948584752
 10
7.0580112744
 20
11.8929753423
 10
7.0533037806
 20
11.8907479923
 10
7.0488152264
 20
11.8881800379
 10
7.046351922
 20
11.8865616137
  0
LWPOLYLINE
  5
3B8
100
AcDbEntity
  8
RACCORDO
100
AcDbPolyline
 62
250
  6
CONTINUOUS
 90
36
 70
0
 10
8.6753299425
 20
11.3106645445
 10
8.6707760724
 20
11.3138066577
 10
8.6594134156
 20
11.321010024
 10
8.6476394931
 20
11.3275953974
 10
8.6354631323
 20
11.3335578238
 10
8.62289309
 20
11.33889306
 10
8.6099387979
 20
11.3435970502
 10
8.5966100169
 20
11.3476661962
 10
8.5829164311
 20
11.3510976406
 10
8.5688683877
 20
11.3538887246
 10
8.5544764136
 20
11.3560372923
 10
8.539750864
 20
11.3575419505
 10
8.5247028004
 20
11.3584014652
 10
8.5093435558
 20
11.3586150891
 10
8.4936842546
 20
11.3581828703
 10
8.4777366992
 20
11.3571050105
 10
8.4615128668
 20
11.3553822002
 10
8.4450244702
 20
11.3530159368
 10
8.4282838874
 20
11.3500078441
 10
8.4113037388
 20
11.3463600421
 10
8.3940963886
 20
11.3420754933
 10
8.3766748535
 20
11.3371572767
 10
8.3590521789
 20
11.3316089173
 10
8.3412410145
 20
11.3254347508
 10
8.3232547359
 20
11.3186392166
 10
8.3051069009
 20
11.3112272431
 10
8.2868106273
 20
11.3032045798
 10
8.2683796194
 20
11.2945770157
 10
8.2498278072
 20
11.2853508545
 10
8.2311688027
 20
11.2755333096
 10
8.212416841
 20
11.2651316614
 10
8.1935858453
 20
11.254153422
 10
8.1746890641
 20
11.2426067874
 10
8.1557404071
 20
11.2305002309
 10
8.1367544394
 20
11.2178425339
 10
8.1177454481
 20
11.204642945
  0
LINE
  5
3B9
100
AcDbEntity
  8
RACCORDO
100
AcDbLine
 62
250
  6
CONTINUOUS
 10
7.7563794119
 20
11.9604606993
 11
7.7517261681
 21
11.9636727371
  0
LWPOLYLINE
  5
3BA
100
AcDbEntity
  8
RACCORDO
100
AcDbPolyline
 62
250
  6
CONTINUOUS
 90
36
 70
0
 10
-7.3757057055
 20
22.6604606993
 10
-7.3803589763
 20
22.6636727553
 10
-7.3918728633
 20
22.6709822168
 10
-7.4038034515
 20
22.6776775096
 10
-7.4161418975
 20
22.6837536769
 10
-7.4288790809
 20
22.6892062265
 10
-7.4420055777
 20
22.6940311168
 10
-7.4555116119
 20
22.6982247469
 10
-7.4693871014
 20
22.7017839866
 10
-7.4836217055
 20
22.7047061899
 10
-7.4982048844
 20
22.7069892001
 10
-7.5131258567
 20
22.7086313296
 10
-7.5283735678
 20
22.7096313576
 10
-7.5439366728
 20
22.7099885356
 10
-7.5598035936
 20
22.7097025964
 10
-7.5759625338
 20
22.7087737534
 10
-7.5924015067
 20
22.7072026965
 10
-7.6091083228
 20
22.7049905893
 10
-7.6260706107
 20
22.7021390664
 10
-7.6432757413
 20
22.6986502468
 10
-7.6607108523
 20
22.6945267413
 10
-7.6783629319
 20
22.6897716368
 10
-7.6962189294
 20
22.6843884586
 10
-7.7142656822
 20
22.6783811767
 10
-7.7324898204
 20
22.6717542375
 10
-7.7508777816
 20
22.6645125685
 10
-7.7694159205
 20
22.6566615404
 10
-7.7880905393
 20
22.6482069481
 10
-7.806887704
 20
22.6391550935
 10
-7.8257932601
 20
22.6295127975
 10
-7.8447929731
 20
22.6192873416
 10
-7.8638729228
 20
22.6084862385
 10
-7.8830193223
 20
22.5971172902
 10
-7.9022180838
 20
22.585188838
 10
-7.9214548246
 20
22.5727097942
 10
-7.9407152598
 20
22.559689407
  0
LWPOLYLINE
  5
3BB
100
AcDbEntity
  8
RACCORDO
100
AcDbPolyline
 62
7
  6
CONTINUOUS
 90
39
 70
0
 10
-8.2946533065
 20
23.3102546304
 10
-8.3017382924
 20
23.3151629918
 10
-8.3157127947
 20
23.3242669596
 10
-8.3300418445
 20
23.3328545114
 10
-8.3447200279
 20
23.3409203199
 10
-8.3597621427
 20
23.3484681338
 10
-8.3751550333
 20
23.355485149
 10
-8.3908850186
 20
23.3619591737
 10
-8.4069698304
 20
23.3678900154
 10
-8.423397619
 20
23.3732643932
 10
-8.440155251
 20
23.3780693319
 10
-8.4572625347
 20
23.3823001363
 10
-8.4747104236
 20
23.3859425722
 10
-8.492485914
 20
23.3889824703
 10
-8.5106073285
 20
23.3914101209
 10
-8.5290654993
 20
23.39320986
 10
-8.5478511819
 20
23.3943666795
 10
-8.5669873865
 20
23.394866531
 10
-8.5864731182
 20
23.3946917694
 10
-8.6062955058
 20
23.3938247663
 10
-8.626464427
 20
23.3922471617
 10
-8.6470084918
 20
23.3899359928
 10
-8.6678893576
 20
23.3868743841
 10
-8.6890191475
 20
23.3830600848
 10
-8.7104005925
 20
23.3784810127
 10
-8.7320223044
 20
23.3731272731
 10
-8.753775585
 20
23.3670189205
 10
-8.7756537544
 20
23.3601557394
 10
-8.7976553615
 20
23.352535113
 10
-8.8196782924
 20
23.344193735
 10
-8.8417158373
 20
23.3351394292
 10
-8.8637660251
 20
23.3253772791
 10
-8.8857311344
 20
23.3149587956
 10
-8.907605252
 20
23.3038982331
 10
-8.9293841855
 20
23.2922082664
 10
-8.9509701091
 20
23.2799555768
 10
-8.9723263778
 20
23.2671795999
 10
-8.9934776673
 20
23.2538838231
 10
-9.0087138639
 20
23.2439085036
  0
LINE
  5
3BC
100
AcDbEntity
  8
0
100
AcDbLine
 62
250
  6
CONTINUOUS
 10
2.2692425604
 20
14.3328633673
 11
-2.9127173126
 21
17.9970623333
  0
LINE
  5
3BD
100
AcDbEntity
  8
0
100
AcDbLine
 62
7
  6
CONTINUOUS
 10
-2.5897592813
 20
17.9876029479
 11
2.4806671188
 21
14.4022700569
  0
LINE
  5
3BE
100
AcDbEntity
  8
RACCORDO
100
AcDbLine
 62
250
  6
CONTINUOUS
 10
-4.4449035371
 20
19.6259527528
 11
-2.9484882913
 21
18.567827385
  0
LINE
  5
3BF
100
AcDbEntity
  8
RACCORDO
100
AcDbLine
 62
250
  6
CONTINUOUS
 10
2.8861293736
 20
14.4421296685
 11
4.0111480442
 21
13.6466213376
  0
LINE
  5
3C0
100
AcDbEntity
  8
RACCORDO
100
AcDbLine
 62
7
  6
CONTINUOUS
 10
-4.1960183638
 20
19.6147519453
 11
-2.9471388084
 21
18.7316607428
  0
LINE
  5
3C1
100
AcDbEntity
  8
RACCORDO
100
AcDbLine
 62
7
  6
CONTINUOUS
 10
3.3913932056
 20
14.2496417729
 11
4.1297043703
 21
13.7275769417
  0
LINE
  5
3C2
100
AcDbEntity
  8
RACCORDO
100
AcDbLine
 62
250
  6
CONTINUOUS
 10
5.4298455701
 20
12.9014488498
 11
4.1967646545
 21
13.7733687269
  0
LINE
  5
3C3
100
AcDbEntity
  8
RACCORDO
100
AcDbLine
 62
250
  6
CONTINUOUS
 10
-4.6243091638
 20
20.0108098412
 11
-5.8573900794
 21
20.8827297184
  0
LINE
  5
3C4
100
AcDbEntity
  8
RACCORDO
100
AcDbLine
 62
250
  6
CONTINUOUS
 10
21.9406100661
 20
1.3639247611
 11
23.0804073379
 21
0.557966381
  0
LINE
  5
3C5
100
AcDbEntity
  8
RACCORDO
100
AcDbLine
 62
250
  6
CONTINUOUS
 10
7.1913698576
 20
11.859689407
 11
8.1249827295
 21
11.1995520179
  0
LINE
  5
3C6
100
AcDbEntity
  8
ASSI
100
AcDbLine
 62
7
  6
CONTINUOUS
 10
6.9175035637
 20
12.0562903091
 11
5.9590522152
 21
12.734017757
  0
LINE
  5
3C7
100
AcDbEntity
  8
ASSI
100
AcDbLine
 62
7
  6
CONTINUOUS
 10
-5.6912797518
 20
20.972046494
 11
-6.2773168333
 21
21.3864372884
  0
LINE
  5
3C8
100
AcDbEntity
  8
RACCORDO
100
AcDbLine
 62
7
  6
CONTINUOUS
 10
21.9766643008
 20
1.492154113
 11
23.252501703
 21
0.5900008342
  0
LINE
  5
3C9
100
AcDbEntity
  8
RACCORDO
100
AcDbLine
 62
7
  6
CONTINUOUS
 10
5.8619409865
 20
12.9867280089
 11
4.640272761
 21
13.8505778954
  0
LINE
  5
3CA
100
AcDbEntity
  8
RACCORDO
100
AcDbLine
 62
7
  6
CONTINUOUS
 10
-4.1960183638
 20
20.0987792703
 11
-5.4176865892
 21
20.9626291569
  0
LINE
  5
3CB
100
AcDbEntity
  8
RACCORDO
100
AcDbLine
 62
7
  6
CONTINUOUS
 10
-8.2946527472
 20
23.3102543804
 11
-8.2946846015
 21
23.3102769084
  0
LINE
  5
3CC
100
AcDbEntity
  8
RACCORDO
100
AcDbLine
 62
7
  6
CONTINUOUS
 10
-8.2946845908
 20
23.3102769009
 11
-7.3757057055
 21
22.6604606993
  0
LINE
  5
3CD
100
AcDbEntity
  8
RACCORDO
100
AcDbLine
 62
7
  6
CONTINUOUS
 10
7.7563794119
 20
11.9604606993
 11
8.6753582964
 21
11.3106444983
  0
LWPOLYLINE
  5
3CE
100
AcDbEntity
  8
RACCORDO
100
AcDbPolyline
 62
250
  6
CONTINUOUS
 90
25
 70
0
 10
-7.9407152598
 20
22.559689407
 10
-8.8740848024
 20
23.2197079435
 10
-8.881072417
 20
23.2243818418
 10
-8.8880423644
 20
23.2287499856
 10
-8.8949833438
 20
23.2328052925
 10
-8.9018841013
 20
23.2365411874
 10
-8.908733448
 20
23.239951613
 10
-8.9155202788
 20
23.2430310397
 10
-8.9222335895
 20
23.2457744745
 10
-8.9288624955
 20
23.2481774694
 10
-8.9353962486
 20
23.2502361283
 10
-8.9418242554
 20
23.2519471131
 10
-8.9481360935
 20
23.2533076499
 10
-8.9543215291
 20
23.2543155326
 10
-8.9603705334
 20
23.2549691271
 10
-8.9662732985
 20
23.2552673737
 10
-8.972020254
 20
23.2552097888
 10
-8.9776020818
 20
23.2547964658
 10
-8.9830097317
 20
23.2540280748
 10
-8.9882344359
 20
23.2529058617
 10
-8.9932677232
 20
23.251431646
 10
-8.9981014327
 20
23.2496078179
 10
-9.0027277272
 20
23.2474373346
 10
-9.0071391057
 20
23.2449237153
 10
-9.0087102578
 20
23.2439109317
  0
LWPOLYLINE
  5
3CF
100
AcDbEntity
  8
RACCORDO
100
AcDbPolyline
 62
7
  6
CONTINUOUS
 90
9
 70
0
 10
-2.9471365377
 20
18.7316591372
 10
-2.9393185646
 20
18.7254264157
 10
-2.9329073631
 20
18.7189297151
 10
-2.9274655937
 20
18.711815038
 10
-2.9229887711
 20
18.7040397773
 10
-2.9194824288
 20
18.6955688239
 10
-2.9170510125
 20
18.6864177177
 10
-2.9156858422
 20
18.6765363495
 10
-2.9153586467
 20
18.6688027203
  0
LWPOLYLINE
  5
3D0
100
AcDbEntity
  8
ASSI
100
AcDbPolyline
 62
7
  6
CONTINUOUS
 90
22
 70
0
 10
15.8015883405
 20
20.3104367289
 10
15.8016367672
 20
20.3084181317
 10
15.8026592514
 20
20.3001541414
 10
15.8049762345
 20
20.292135418
 10
15.8086397619
 20
20.2843718227
 10
15.8135977883
 20
20.2768534944
 10
15.8196536127
 20
20.2698787095
 10
15.8268513721
 20
20.2634693211
 10
15.8351469296
 20
20.2576034762
 10
15.8442111735
 20
20.2525138917
 10
15.8540750089
 20
20.2482317772
 10
15.8647075308
 20
20.2447259231
 10
15.8756869126
 20
20.242135418
 10
15.8870270999
 20
20.2404970635
 10
15.8987141471
 20
20.2397740581
 10
15.9102843914
 20
20.2399950856
 10
15.9217331366
 20
20.2411981009
 10
15.9330650788
 20
20.2433451491
 10
15.9438306433
 20
20.24635105
 10
15.9538799717
 20
20.2501874101
 10
15.9633629224
 20
20.2548826229
 10
15.9722794952
 20
20.2604366882
  0
LWPOLYLINE
  5
3D1
100
AcDbEntity
  8
ASSI
100
AcDbPolyline
 62
7
  6
CONTINUOUS
 90
22
 70
0
 10
16.0015492937
 20
20.3104366475
 10
16.001500867
 20
20.3124552447
 10
16.0004783829
 20
20.3207192351
 10
15.9981613998
 20
20.3287379584
 10
15.9944978724
 20
20.3365015538
 10
15.989539846
 20
20.3440198821
 10
15.9834840216
 20
20.350994667
 10
15.9762862622
 20
20.3574040554
 10
15.9679907047
 20
20.3632699003
 10
15.9589264608
 20
20.3683594848
 10
15.9490626254
 20
20.3726415993
 10
15.9384301035
 20
20.3761474534
 10
15.9274507216
 20
20.3787379584
 10
15.9161105344
 20
20.3803763129
 10
15.9044234871
 20
20.3810993184
 10
15.8928532429
 20
20.3808782909
 10
15.8814044976
 20
20.3796752756
 10
15.8700725554
 20
20.3775282273
 10
15.859306991
 20
20.3745223264
 10
15.8492576625
 20
20.3706859663
 10
15.8397747119
 20
20.3659907536
 10
15.830858139
 20
20.3604366882
  0
LWPOLYLINE
  5
3D2
100
AcDbEntity
  8
DRAFT
100
AcDbPolyline
 62
7
  6
CONTINUOUS
 90
7
 70
0
 10
16.5551219022
 20
17.562303936
 10
16.5546728492
 20
17.5976880242
 10
16.5529006187
 20
17.6411195258
 10
16.549785765
 20
17.684483316
 10
16.5453274029
 20
17.7277673952
 10
16.5395264175
 20
17.770983763
 10
16.5324610303
 20
17.8136516315
  0
LINE
  5
3D3
100
AcDbEntity
  8
RACCORDO
100
AcDbLine
 62
250
  6
CONTINUOUS
 10
23.2545582491
 20
-4.4039143171
 11
23.2561588865
 21
-4.4027266591
  0
LINE
  5
3D4
100
AcDbEntity
  8
RACCORDO
100
AcDbLine
 62
250
  6
CONTINUOUS
 10
23.2925364644
 20
-4.309645115
 11
21.3922398333
 21
-5.6775056659
  0
LINE
  5
3D5
100
AcDbEntity
  8
RACCORDO
100
AcDbLine
 62
7
  6
CONTINUOUS
 10
23.2545582491
 20
-4.4039143171
 11
21.3924229845
 21
-5.7443057712
  0
LINE
  5
3D6
100
AcDbEntity
  8
RACCORDO
100
AcDbLine
 62
250
  6
CONTINUOUS
 10
8.856540495
 20
-14.5689146691
 11
21.1823234297
 21
-5.8263966492
  0
LINE
  5
3D7
100
AcDbEntity
  8
RACCORDO
100
AcDbLine
 62
250
  6
CONTINUOUS
 10
8.856540495
 20
-15.0815021784
 11
21.3944525562
 21
-6.1885237195
  0
LINE
  5
3D8
100
AcDbEntity
  8
0
100
AcDbLine
 62
7
  6
CONTINUOUS
 10
-1.589094944
 20
-21.8092256117
 11
-1.4421889386
 21
-21.705347379
  0
LINE
  5
3D9
100
AcDbEntity
  8
ASSI
100
AcDbLine
 62
7
  6
CONTINUOUS
 10
-1.0941201972
 20
-21.9642508648
 11
-1.589094944
 21
-22.3142508648
  0
LWPOLYLINE
  5
3DA
100
AcDbEntity
  8
RACCORDO
100
AcDbPolyline
 62
250
  6
CONTINUOUS
 90
32
 70
0
 10
21.3944525562
 20
-6.1885237195
 10
21.4008060356
 20
-6.1840667253
 10
21.407170684
 20
-6.1797973434
 10
21.4135404893
 20
-6.1757211702
 10
21.4199115202
 20
-6.1718423113
 10
21.426275404
 20
-6.1681676363
 10
21.4326194316
 20
-6.1647060107
 10
21.438937436
 20
-6.1614617731
 10
21.4452231303
 20
-6.1584391355
 10
21.4514638212
 20
-6.1556450952
 10
21.457653337
 20
-6.153082754
 10
21.4637857017
 20
-6.150754922
 10
21.4698489084
 20
-6.148666384
 10
21.4758361512
 20
-6.1468191324
 10
21.4817428505
 20
-6.1452142188
 10
21.4875607804
 20
-6.1438535881
 10
21.4932825393
 20
-6.1427382283
 10
21.4989050206
 20
-6.1418679898
 10
21.5044265546
 20
-6.1412428414
 10
21.5098419145
 20
-6.1408631475
 10
21.515146072
 20
-6.1407290319
 10
21.5203374286
 20
-6.1408406529
 10
21.5254120863
 20
-6.1411982519
 10
21.5303638334
 20
-6.141801726
 10
21.5351875744
 20
-6.1426507693
 10
21.5398792891
 20
-6.1437449417
 10
21.5444336317
 20
-6.1450832706
 10
21.5488439561
 20
-6.1466638582
 10
21.5531056284
 20
-6.1484847592
 10
21.557215251
 20
-6.1505442274
 10
21.5611685486
 20
-6.1528398339
 10
21.5647318526
 20
-6.155205821
  0
LWPOLYLINE
  5
3DB
100
AcDbEntity
  8
RACCORDO
100
AcDbPolyline
 62
250
  6
CONTINUOUS
 90
22
 70
0
 10
21.1823234297
 20
-5.8263966492
 10
21.1926597624
 20
-5.8191896259
 10
21.2030021798
 20
-5.812236732
 10
21.2133506821
 20
-5.8055379676
 10
21.2237143365
 20
-5.7990862268
 10
21.2340840757
 20
-5.7928886155
 10
21.2444326979
 20
-5.7869664507
 10
21.2547602385
 20
-5.7813209819
 10
21.2650666621
 20
-5.7759509598
 10
21.2753246615
 20
-5.7708739526
 10
21.2855339379
 20
-5.7660913662
 10
21.2956947901
 20
-5.7616017948
 10
21.3057808065
 20
-5.7574185895
 10
21.3157915458
 20
-5.753543199
 10
21.3257274493
 20
-5.7499741746
 10
21.3355634298
 20
-5.7467205212
 10
21.3452981958
 20
-5.7437837351
 10
21.3549330388
 20
-5.7411623201
 10
21.3644467453
 20
-5.7388607926
 10
21.3738322443
 20
-5.736880658
 10
21.3830966069
 20
-5.7352204109
 10
21.3922398331
 20
-5.7338800513
  0
LINE
  5
3DC
100
AcDbEntity
  8
RACCORDO
100
AcDbLine
 62
250
  6
CONTINUOUS
 10
-1.589094944
 20
-21.5786737605
 11
0.5675807386
 21
-20.0987186302
  0
LINE
  5
3DD
100
AcDbEntity
  8
RACCORDO
100
AcDbLine
 62
7
  6
CONTINUOUS
 10
-1.589094944
 20
-21.806157296
 11
0.4349451287
 21
-20.4172194442
  0
LWPOLYLINE
  5
3DE
100
AcDbEntity
  8
ASSI
100
AcDbPolyline
 62
7
  6
CONTINUOUS
 90
8
 70
0
 10
20.1897939165
 20
7.3552711196
 10
20.1763103815
 20
7.36459003
 10
20.1628674269
 20
7.3734552675
 10
20.1494650528
 20
7.3818668321
 10
20.1360898549
 20
7.3898322748
 10
20.1227552375
 20
7.3973440447
 10
20.1095014136
 20
7.4043794885
 10
20.105750935
 20
7.4062465527
  0
LINE
  5
3DF
100
AcDbEntity
  8
RACCORDO
100
AcDbLine
 62
7
  6
CONTINUOUS
 10
21.8302176914
 20
0.1536786202
 11
21.4625861227
 21
0.5121399774
  0
LWPOLYLINE
  5
3E0
100
AcDbEntity
  8
RACCORDO
100
AcDbPolyline
 62
7
  6
CONTINUOUS
 90
25
 70
0
 10
21.5225995548
 20
-6.1089080376
 10
21.5154278776
 20
-6.0956858028
 10
21.503306649
 20
-6.0728528885
 10
21.4919575224
 20
-6.0508695697
 10
21.4813757788
 20
-6.0297317285
 10
21.4715849034
 20
-6.0094560081
 10
21.4625614109
 20
-5.9900257652
 10
21.4542301268
 20
-5.9713869522
 10
21.4466061015
 20
-5.95356894
 10
21.4396742846
 20
-5.9365423577
 10
21.4333143495
 20
-5.9201650443
 10
21.4275196742
 20
-5.9044359829
 10
21.4222968807
 20
-5.8893561904
 10
21.4175455085
 20
-5.8747865557
 10
21.4132522926
 20
-5.8607053475
 10
21.4094304981
 20
-5.8471342972
 10
21.4060194595
 20
-5.8339994884
 10
21.4030126205
 20
-5.8212899233
 10
21.4004165374
 20
-5.8090165997
 10
21.3981902142
 20
-5.7971385947
 10
21.3963301857
 20
-5.7856500843
 10
21.3948399171
 20
-5.7745568924
 10
21.3936888076
 20
-5.763835568
 10
21.392866657
 20
-5.753478294
 10
21.3924229845
 20
-5.7443057712
  0
LWPOLYLINE
  5
3E1
100
AcDbEntity
  8
0
100
AcDbPolyline
 62
7
  6
CONTINUOUS
 90
10
 70
0
 10
18.4806056073
 20
19.9970775682
 10
18.4798731852
 20
20.0094030242
 10
18.4776811705
 20
20.022106597
 10
18.4740252557
 20
20.0351537114
 10
18.4689105825
 20
20.0484597271
 10
18.4623564398
 20
20.0619266736
 10
18.4543611686
 20
20.0754932168
 10
18.444940212
 20
20.0890720185
 10
18.4341437817
 20
20.1025555746
 10
18.4220269636
 20
20.1158478734
  0
LINE
  5
3E2
100
AcDbEntity
  8
0
100
AcDbLine
 62
250
  6
CONTINUOUS
 10
18.4220269636
 20
18.7442827529
 11
18.4220269636
 21
19.9158478734
  0
LINE
  5
3E3
100
AcDbEntity
  8
RACCORDO
100
AcDbLine
 62
7
  6
CONTINUOUS
 10
18.4806056073
 20
18.8255124477
 11
18.4806056073
 21
19.9970775682
  0
LWPOLYLINE
  5
3E4
100
AcDbEntity
  8
RACCORDO
100
AcDbPolyline
 62
250
  6
CONTINUOUS
 90
17
 70
0
 10
23.2561588865
 20
-4.4027266591
 10
23.2604461499
 20
-4.3992082779
 10
23.2645262389
 20
-4.3953180266
 10
23.2683472535
 20
-4.391099257
 10
23.2719038582
 20
-4.3865578592
 10
23.2751910881
 20
-4.3817001669
 10
23.2782043318
 20
-4.3765329877
 10
23.2809393535
 20
-4.3710635905
 10
23.2833923224
 20
-4.3652996582
 10
23.2855598264
 20
-4.359249233
 10
23.2874388501
 20
-4.3529207418
 10
23.2890268598
 20
-4.3463225951
 10
23.2903215019
 20
-4.3394644275
 10
23.2913208032
 20
-4.3323572071
 10
23.2920235002
 20
-4.3250114846
 10
23.2924288528
 20
-4.3174372174
 10
23.2925364644
 20
-4.309645115
  0
LWPOLYLINE
  5
3E5
100
AcDbEntity
  8
RACCORDO
100
AcDbPolyline
 62
250
  6
CONTINUOUS
 90
21
 70
0
 10
8.7723424351
 20
-15.9794135416
 10
8.7799005545
 20
-15.9736704264
 10
8.7871531871
 20
-15.9677336244
 10
8.7940904135
 20
-15.9616112555
 10
8.8007027457
 20
-15.9553116929
 10
8.8069811402
 20
-15.9488435526
 10
8.81291701
 20
-15.9422156811
 10
8.8185022367
 20
-15.935437143
 10
8.8237291816
 20
-15.9285172094
 10
8.8285906957
 20
-15.9214653446
 10
8.83308013
 20
-15.9142911933
 10
8.8371913444
 20
-15.9070045675
 10
8.840918716
 20
-15.8996154331
 10
8.8442571469
 20
-15.8921338963
 10
8.8472020712
 20
-15.8845701893
 10
8.849749461
 20
-15.8769346572
 10
8.8518958325
 20
-15.8692377431
 10
8.8536382501
 20
-15.8614899739
 10
8.8549743308
 20
-15.8537019462
 10
8.8559022472
 20
-15.8458843116
 10
8.8564207304
 20
-15.8380477621
  0
LINE
  5
3E6
100
AcDbEntity
  8
RACCORDO
100
AcDbLine
 62
250
  6
CONTINUOUS
 10
21.8473839512
 20
-8.7866164644
 11
8.806474379
 21
-18.5673122784
  0
LINE
  5
3E7
100
AcDbEntity
  8
RACCORDO
100
AcDbLine
 62
7
  6
CONTINUOUS
 10
21.7766631907
 20
-8.9493759211
 11
8.8772767967
 21
-18.6238597836
  0
LINE
  5
3E8
100
AcDbEntity
  8
RACCORDO
100
AcDbLine
 62
250
  6
CONTINUOUS
 10
21.6216429765
 20
-6.5449535611
 11
8.9723270664
 21
-15.7397596681
  0
LINE
  5
3E9
100
AcDbEntity
  8
RACCORDO
100
AcDbLine
 62
250
  6
CONTINUOUS
 10
21.836334201
 20
-6.9052273755
 11
9.1870182908
 21
-16.1000334825
  0
LWPOLYLINE
  5
3EA
100
AcDbEntity
  8
ASSI
100
AcDbPolyline
 62
250
  6
CONTINUOUS
 90
13
 70
0
 10
-5.8156246709
 20
-27.553033136
 10
-5.8452032495
 20
-27.5718421701
 10
-5.8777736664
 20
-27.587783149
 10
-5.9127909525
 20
-27.6005893476
 10
-5.9496691979
 20
-27.6100464925
 10
-5.9877913547
 20
-27.6159963463
 10
-6.0265195623
 20
-27.6183393561
 10
-6.0652058193
 20
-27.6170363185
 10
-6.1032028264
 20
-27.6121090359
 10
-6.1398748167
 20
-27.603639952
 10
-6.1746081937
 20
-27.5917707717
 10
-6.2068217976
 20
-27.5767000904
 10
-6.2359766296
 20
-27.5586800711
  0
LWPOLYLINE
  5
3EB
100
AcDbEntity
  8
RACCORDO
100
AcDbPolyline
 62
250
  6
CONTINUOUS
 90
25
 70
0
 10
12.0167079656
 20
22.9811921891
 10
12.0879347656
 20
22.9994231368
 10
12.1633963487
 20
23.0172107843
 10
12.2430927147
 20
23.0345551318
 10
12.3270412915
 20
23.0516490986
 10
12.4152246513
 20
23.0682997652
 10
12.5075905107
 20
23.0839283735
 10
12.6041702023
 20
23.0985520643
 10
12.7049323935
 20
23.1121536967
 10
12.8097308031
 20
23.1241030894
 10
12.9186150671
 20
23.1344133924
 10
13.0315355494
 20
23.1430714557
 10
13.1481970603
 20
23.1494076481
 10
13.2686604475
 20
23.15342691
 10
13.3928648631
 20
23.1551243009
 10
13.520332574
 20
23.1538153685
 10
13.6511311964
 20
23.1494943823
 10
13.7851931141
 20
23.1421670727
 10
13.9218377438
 20
23.1311661783
 10
14.0611401373
 20
23.1164725685
 10
14.203025243
 20
23.0981053739
 10
14.3465873228
 20
23.0754547255
 10
14.491524464
 20
23.0483173338
 10
14.6381385793
 20
23.0168964883
 10
14.7864296687
 20
22.9811921891
  0
LWPOLYLINE
  5
3EC
100
AcDbEntity
  8
0
100
AcDbPolyline
 62
7
  6
CONTINUOUS
 90
7
 70
0
 10
-2.8265318111
 20
18.0228437377
 10
-2.8404803537
 20
18.0196936604
 10
-2.8545951794
 20
18.0160848537
 10
-2.8688762882
 20
18.0120173177
 10
-2.8833236799
 20
18.0074910523
 10
-2.8979373547
 20
18.0025060575
 10
-2.9127173126
 20
17.9970623333
  0
LWPOLYLINE
  5
3ED
100
AcDbEntity
  8
0
100
AcDbPolyline
 62
7
  6
CONTINUOUS
 90
19
 70
0
 10
13.2601474609
 20
15.2942827529
 10
13.2734049219
 20
15.2817967249
 10
13.2875774243
 20
15.2707000657
 10
13.3025291929
 20
15.2610317412
 10
13.3181038823
 20
15.2528240234
 10
13.3341823045
 20
15.2460911177
 10
13.3506906201
 20
15.2408415401
 10
13.3674936701
 20
15.2370917866
 10
13.3844682818
 20
15.2348423731
 10
13.4015684845
 20
15.2340910915
 10
13.4186694559
 20
15.2348424576
 10
13.4356455233
 20
15.2370921336
 10
13.4524494582
 20
15.2408421998
 10
13.4689575145
 20
15.2460918785
 10
13.4850351879
 20
15.2528246711
 10
13.500609238
 20
15.2610322077
 10
13.5155606489
 20
15.2707003875
 10
13.5297328878
 20
15.2817968864
 10
13.5429901734
 20
15.2942827529
  0
LWPOLYLINE
  5
3EE
100
AcDbEntity
  8
DRAFT
100
AcDbPolyline
 62
7
  6
CONTINUOUS
 90
22
 70
0
 10
20.3773329542
 20
7.1789596795
 10
20.3690972514
 20
7.188733375
 10
20.3606638685
 20
7.1985178029
 10
20.3521532371
 20
7.2081703606
 10
20.3435652468
 20
7.2176908602
 10
20.334900008
 20
7.2270794897
 10
20.3261698839
 20
7.2363228538
 10
20.3173747837
 20
7.2454207436
 10
20.3085147982
 20
7.2543733679
 10
20.2996025635
 20
7.2631679583
 10
20.2906380093
 20
7.271804286
 10
20.2816212058
 20
7.2802825798
 10
20.2725649994
 20
7.2885907581
 10
20.2634693355
 20
7.2967285783
 10
20.2543342685
 20
7.3046962829
 10
20.2451728083
 20
7.3124825182
 10
20.235984917
 20
7.3200870273
 10
20.2267706324
 20
7.327510067
 10
20.2175430777
 20
7.3347410545
 10
20.2083066274
 20
7.3417764619
 10
20.199056907
 20
7.3486198169
 10
20.1897939165
 20
7.3552711196
  0
LWPOLYLINE
  5
3EF
100
AcDbEntity
  8
DRAFT
100
AcDbPolyline
 62
7
  6
CONTINUOUS
 90
22
 70
0
 10
10.5796742545
 20
16.5586697164
 10
10.5556742008
 20
16.5940498021
 10
10.5309021111
 20
16.632709653
 10
10.5073344445
 20
16.6717336313
 10
10.4849881385
 20
16.7110910105
 10
10.4638657205
 20
16.7507745134
 10
10.4439676805
 20
16.7907831965
 10
10.4252990367
 20
16.8311100571
 10
10.407875507
 20
16.8717244359
 10
10.3917128273
 20
16.9125897531
 10
10.3768217291
 20
16.9536754192
 10
10.3632040563
 20
16.9949726
 10
10.3508611305
 20
17.0364771061
 10
10.3397971578
 20
17.0781786264
 10
10.3300209726
 20
17.1200481414
 10
10.3215402159
 20
17.1620533415
 10
10.314359512
 20
17.2041672928
 10
10.3084803064
 20
17.2463767594
 10
10.3039041527
 20
17.2886698339
 10
10.3006332731
 20
17.3310301411
 10
10.2986699608
 20
17.3734338068
 10
10.2980154265
 20
17.4158573266
  0
LINE
  5
3F0
100
AcDbEntity
  8
RACCORDO
100
AcDbLine
 62
7
  6
CONTINUOUS
 10
21.3924229845
 20
-5.7443057712
 11
21.3922398333
 21
-5.7338793485
  0
LINE
  5
3F1
100
AcDbEntity
  8
RACCORDO
100
AcDbLine
 62
7
  6
CONTINUOUS
 10
21.3924229845
 20
10.9434142648
 11
21.3922398333
 21
10.9538406875
  0
LWPOLYLINE
  5
3F2
100
AcDbEntity
  8
RACCORDO
100
AcDbPolyline
 62
250
  6
CONTINUOUS
 90
40
 70
0
 10
21.836334201
 20
-6.9052273755
 10
21.836203133
 20
-6.8965346336
 10
21.8357222867
 20
-6.8876170003
 10
21.8348924421
 20
-6.8784889382
 10
21.8337149449
 20
-6.8691652514
 10
21.8321917048
 20
-6.8596610612
 10
21.8303251923
 20
-6.8499917816
 10
21.8281184344
 20
-6.8401730945
 10
21.8255750102
 20
-6.8302209238
 10
21.8226990446
 20
-6.8201514102
 10
21.8194952019
 20
-6.8099808846
 10
21.8159686781
 20
-6.7997258416
 10
21.8121251926
 20
-6.7894029131
 10
21.8079709788
 20
-6.779028841
 10
21.8035127741
 20
-6.76862045
 10
21.7987578088
 20
-6.7581946206
 10
21.7937137947
 20
-6.7477682617
 10
21.7883889122
 20
-6.7373582828
 10
21.7827917973
 20
-6.726981567
 10
21.7769315274
 20
-6.7166549435
 10
21.7708176068
 20
-6.70639516
 10
21.7644599513
 20
-6.696218856
 10
21.7578688716
 20
-6.6861425357
 10
21.7510550574
 20
-6.676182541
 10
21.7440295593
 20
-6.6663550251
 10
21.7368037715
 20
-6.6566759265
 10
21.7293894128
 20
-6.6471609428
 10
21.7217985079
 20
-6.6378255056
 10
21.7140433679
 20
-6.6286847552
 10
21.7061365702
 20
-6.6197535163
 10
21.6980909382
 20
-6.6110462737
 10
21.6899195203
 20
-6.6025771488
 10
21.6816355692
 20
-6.5943598772
 10
21.6732525198
 20
-6.5864077856
 10
21.6647839678
 20
-6.5787337708
 10
21.6562436478
 20
-6.5713502788
 10
21.6476454106
 20
-6.5642692841
 10
21.6390032008
 20
-6.5575022709
 10
21.6303310345
 20
-6.551060214
 10
21.6216429765
 20
-6.5449535611
  0
LWPOLYLINE
  5
3F3
100
AcDbEntity
  8
RACCORDO
100
AcDbPolyline
 62
250
  6
CONTINUOUS
 90
40
 70
0
 10
21.836334201
 20
9.7824926605
 10
21.836203133
 20
9.7911854024
 10
21.8357222867
 20
9.8001030357
 10
21.8348924421
 20
9.8092310978
 10
21.8337149449
 20
9.8185547846
 10
21.8321917048
 20
9.8280589748
 10
21.8303251923
 20
9.8377282544
 10
21.8281184344
 20
9.8475469415
 10
21.8255750102
 20
9.8574991122
 10
21.8226990446
 20
9.8675686258
 10
21.8194952019
 20
9.8777391514
 10
21.8159686781
 20
9.8879941944
 10
21.8121251926
 20
9.8983171229
 10
21.8079709788
 20
9.908691195
 10
21.8035127741
 20
9.919099586
 10
21.7987578088
 20
9.9295254154
 10
21.7937137947
 20
9.9399517743
 10
21.7883889122
 20
9.9503617532
 10
21.7827917973
 20
9.960738469
 10
21.7769315274
 20
9.9710650925
 10
21.7708176068
 20
9.981324876
 10
21.7644599513
 20
9.99150118
 10
21.7578688716
 20
10.0015775003
 10
21.7510550574
 20
10.011537495
 10
21.7440295593
 20
10.0213650109
 10
21.7368037715
 20
10.0310441095
 10
21.7293894128
 20
10.0405590932
 10
21.7217985079
 20
10.0498945304
 10
21.7140433679
 20
10.0590352808
 10
21.7061365702
 20
10.0679665197
 10
21.6980909382
 20
10.0766737623
 10
21.6899195203
 20
10.0851428872
 10
21.6816355692
 20
10.0933601588
 10
21.6732525198
 20
10.1013122504
 10
21.6647839678
 20
10.1089862652
 10
21.6562436478
 20
10.1163697572
 10
21.6476454106
 20
10.1234507519
 10
21.6390032008
 20
10.1302177651
 10
21.6303310345
 20
10.136659822
 10
21.6216429765
 20
10.1427664749
  0
LWPOLYLINE
  5
3F4
100
AcDbEntity
  8
RACCORDO
100
AcDbPolyline
 62
7
  6
CONTINUOUS
 90
30
 70
0
 10
21.9766642845
 20
-6.6601617059
 10
21.9765475266
 20
-6.6504837724
 10
21.9759743846
 20
-6.6366777537
 10
21.9749231913
 20
-6.6228880465
 10
21.973394045
 20
-6.6091274528
 10
21.9713855611
 20
-6.595399195
 10
21.9688982079
 20
-6.5817210112
 10
21.9659336126
 20
-6.5681103412
 10
21.9624902164
 20
-6.5545700058
 10
21.9585695339
 20
-6.5411172958
 10
21.9541741841
 20
-6.5277698068
 10
21.9493025063
 20
-6.5145307705
 10
21.943956811
 20
-6.50141599
 10
21.9381411318
 20
-6.4884438392
 10
21.93185496
 20
-6.475621075
 10
21.925102503
 20
-6.4629638699
 10
21.917888777
 20
-6.4504886457
 10
21.9102131881
 20
-6.4382019134
 10
21.9020807731
 20
-6.4261188988
 10
21.8934975502
 20
-6.4142550231
 10
21.8844626738
 20
-6.4026163848
 10
21.8749804807
 20
-6.3912161435
 10
21.8650585069
 20
-6.3800699814
 10
21.8546985889
 20
-6.3691869877
 10
21.8439060743
 20
-6.3585802096
 10
21.8326875789
 20
-6.3482628571
 10
21.8210443839
 20
-6.3382433763
 10
21.8089800734
 20
-6.3285327825
 10
21.7965036819
 20
-6.3191455301
 10
21.7912953725
 20
-6.3154104925
  0
LWPOLYLINE
  5
3F5
100
AcDbEntity
  8
RACCORDO
100
AcDbPolyline
 62
7
  6
CONTINUOUS
 90
30
 70
0
 10
21.9766642845
 20
10.0275583301
 10
21.9765475266
 20
10.0372362636
 10
21.9759743846
 20
10.0510422823
 10
21.9749231913
 20
10.0648319895
 10
21.973394045
 20
10.0785925832
 10
21.9713855611
 20
10.092320841
 10
21.9688982079
 20
10.1059990248
 10
21.9659336126
 20
10.1196096948
 10
21.9624902164
 20
10.1331500302
 10
21.9585695339
 20
10.1466027402
 10
21.9541741841
 20
10.1599502292
 10
21.9493025063
 20
10.1731892655
 10
21.943956811
 20
10.186304046
 10
21.9381411318
 20
10.1992761968
 10
21.93185496
 20
10.212098961
 10
21.925102503
 20
10.2247561661
 10
21.917888777
 20
10.2372313903
 10
21.9102131881
 20
10.2495181226
 10
21.9020807731
 20
10.2616011372
 10
21.8934975502
 20
10.2734650129
 10
21.8844626738
 20
10.2851036512
 10
21.8749804807
 20
10.2965038925
 10
21.8650585069
 20
10.3076500546
 10
21.8546985889
 20
10.3185330483
 10
21.8439060743
 20
10.3291398264
 10
21.8326875789
 20
10.3394571789
 10
21.8210443839
 20
10.3494766597
 10
21.8089800734
 20
10.3591872535
 10
21.7965036819
 20
10.3685745059
 10
21.7912953725
 20
10.3723095435
  0
LINE
  5
3F6
100
AcDbEntity
  8
RACCORDO
100
AcDbLine
 62
7
  6
CONTINUOUS
 10
20.4019259509
 20
7.6244284894
 11
20.4019259509
 21
7.1963439458
  0
LINE
  5
3F7
100
AcDbEntity
  8
RACCORDO
100
AcDbLine
 62
7
  6
CONTINUOUS
 10
20.4019259509
 20
0.1998072869
 11
20.4019259509
 21
-0.1132840656
  0
LINE
  5
3F8
100
AcDbEntity
  8
DRAFT
100
AcDbLine
 62
7
  6
CONTINUOUS
 10
20.4019259509
 20
-0.1132840656
 11
20.4019259509
 21
-0.2282772567
  0
LINE
  5
3F9
100
AcDbEntity
  8
RACCORDO
100
AcDbLine
 62
7
  6
CONTINUOUS
 10
21.3922398331
 20
-5.7338800513
 11
21.3922398333
 21
-5.6775056659
  0
LINE
  5
3FA
100
AcDbEntity
  8
RACCORDO
100
AcDbLine
 62
7
  6
CONTINUOUS
 10
21.3922398331
 20
10.9538399847
 11
21.3922398333
 21
11.0102143701
  0
LINE
  5
3FB
100
AcDbEntity
  8
DRAFT
100
AcDbLine
 62
7
  6
CONTINUOUS
 10
21.4625861227
 20
0.5121399774
 11
21.4625861227
 21
0.981159116
  0
LINE
  5
3FC
100
AcDbEntity
  8
DRAFT
100
AcDbLine
 62
7
  6
CONTINUOUS
 10
21.4625861227
 20
7.9367611798
 11
21.4625861227
 21
8.4057803184
  0
LINE
  5
3FD
100
AcDbEntity
  8
RACCORDO
100
AcDbLine
 62
250
  6
CONTINUOUS
 10
21.836334201
 20
9.7824926605
 11
21.836334201
 21
8.6811076592
  0
LINE
  5
3FE
100
AcDbEntity
  8
RACCORDO
100
AcDbLine
 62
250
  6
CONTINUOUS
 10
21.836334201
 20
6.9911195914
 11
21.836334201
 21
1.2564864568
  0
LINE
  5
3FF
100
AcDbEntity
  8
RACCORDO
100
AcDbLine
 62
250
  6
CONTINUOUS
 10
21.836334201
 20
-0.4335016111
 11
21.836334201
 21
-1.5348866124
  0
LINE
  5
400
100
AcDbEntity
  8
RACCORDO
100
AcDbLine
 62
250
  6
CONTINUOUS
 10
21.836334201
 20
-6.9052273755
 11
21.8363400542
 21
-8.8062561638
  0
LINE
  5
401
100
AcDbEntity
  8
RACCORDO
100
AcDbLine
 62
7
  6
CONTINUOUS
 10
21.9766643008
 20
17.288178781
 11
21.9766643008
 21
15.3989429305
  0
LINE
  5
402
100
AcDbEntity
  8
RACCORDO
100
AcDbLine
 62
7
  6
CONTINUOUS
 10
21.9766643008
 20
10.027580798
 11
21.9766643008
 21
8.9011767947
  0
LINE
  5
403
100
AcDbEntity
  8
RACCORDO
100
AcDbLine
 62
7
  6
CONTINUOUS
 10
21.9766643008
 20
7.2622481003
 11
21.9766643008
 21
1.4765555922
  0
LINE
  5
404
100
AcDbEntity
  8
RACCORDO
100
AcDbLine
 62
7
  6
CONTINUOUS
 10
21.9766643008
 20
-0.1623731022
 11
21.9766643008
 21
-1.2887771055
  0
LINE
  5
405
100
AcDbEntity
  8
RACCORDO
100
AcDbLine
 62
7
  6
CONTINUOUS
 10
21.9766643008
 20
-6.660139238
 11
21.9766643008
 21
-8.5493750885
  0
LWPOLYLINE
  5
406
100
AcDbEntity
  8
RACCORDO
100
AcDbPolyline
 62
250
  6
CONTINUOUS
 90
16
 70
0
 10
21.836334201
 20
15.1528334236
 10
21.8362031329
 20
15.144444
 10
21.8357222865
 20
15.1363071722
 10
21.8348924417
 20
15.1284361364
 10
21.8337149441
 20
15.1208436582
 10
21.8321917036
 20
15.113542051
 10
21.8303251906
 20
15.1065431568
 10
21.8281184322
 20
15.0998583264
 10
21.8255750073
 20
15.0934984015
 10
21.822699041
 20
15.0874736966
 10
21.8194951975
 20
15.0817939828
 10
21.8159686729
 20
15.0764684714
 10
21.8121251866
 20
15.0715057994
 10
21.807970972
 20
15.0669140155
 10
21.8035127665
 20
15.0627005665
 10
21.7986095452
 20
15.0587626429
  0
LWPOLYLINE
  5
407
100
AcDbEntity
  8
RACCORDO
100
AcDbPolyline
 62
250
  6
CONTINUOUS
 90
16
 70
0
 10
21.836334201
 20
-1.5348866124
 10
21.8362031329
 20
-1.543276036
 10
21.8357222865
 20
-1.5514128638
 10
21.8348924417
 20
-1.5592838996
 10
21.8337149441
 20
-1.5668763779
 10
21.8321917036
 20
-1.574177985
 10
21.8303251906
 20
-1.5811768792
 10
21.8281184322
 20
-1.5878617096
 10
21.8255750073
 20
-1.5942216345
 10
21.822699041
 20
-1.6002463394
 10
21.8194951975
 20
-1.6059260532
 10
21.8159686729
 20
-1.6112515646
 10
21.8121251866
 20
-1.6162142366
 10
21.807970972
 20
-1.6208060205
 10
21.8035127665
 20
-1.6250194695
 10
21.7986095452
 20
-1.6289573931
  0
LWPOLYLINE
  5
408
100
AcDbEntity
  8
RACCORDO
100
AcDbPolyline
 62
250
  6
CONTINUOUS
 90
25
 70
0
 10
21.9766643008
 20
17.288178781
 10
21.9765248578
 20
17.279829422
 10
21.9758810726
 20
17.2683972898
 10
21.9747145036
 20
17.2569858696
 10
21.9730263722
 20
17.2456071115
 10
21.9708184456
 20
17.2342729316
 10
21.9680930357
 20
17.2229951999
 10
21.9648529963
 20
17.2117857266
 10
21.9611017201
 20
17.2006562503
 10
21.9568431353
 20
17.1896184268
 10
21.9520817014
 20
17.178683815
 10
21.9468224044
 20
17.1678638658
 10
21.9410707517
 20
17.1571699104
 10
21.9348327665
 20
17.1466131477
 10
21.928114981
 20
17.136204633
 10
21.9209244305
 20
17.1259552668
 10
21.913268645
 20
17.1158757825
 10
21.9051556417
 20
17.1059767355
 10
21.8965939166
 20
17.0962684924
 10
21.8875924346
 20
17.0867612187
 10
21.8781606231
 20
17.0774648717
 10
21.8683083623
 20
17.0683891895
 10
21.858045971
 20
17.0595436769
 10
21.8473841954
 20
17.050937596
 10
21.836334201
 20
17.0425799589
  0
LWPOLYLINE
  5
409
100
AcDbEntity
  8
RACCORDO
100
AcDbPolyline
 62
250
  6
CONTINUOUS
 90
25
 70
0
 10
21.9766642996
 20
10.027556317
 10
21.976524667
 20
10.0192382488
 10
21.975880642
 20
10.0078240107
 10
21.9747138559
 20
9.9964309665
 10
21.9730255251
 20
9.9850710555
 10
21.9708174155
 20
9.9737562034
 10
21.9680918392
 20
9.9624982317
 10
21.9648516453
 20
9.9513089392
 10
21.9611002279
 20
9.9402000752
 10
21.9568415338
 20
9.9291832788
 10
21.9520800399
 20
9.9182701344
 10
21.9468207278
 20
9.9074720632
 10
21.9410690931
 20
9.896800296
 10
21.9348311649
 20
9.8862660401
 10
21.9281134716
 20
9.8758803394
 10
21.9209230085
 20
9.8656539684
 10
21.9132672452
 20
9.8555975955
 10
21.9051542392
 20
9.8457218467
 10
21.8965926116
 20
9.8360371602
 10
21.8875914602
 20
9.8265538163
 10
21.8781601164
 20
9.8172816381
 10
21.8683082314
 20
9.808230069
 10
21.8580460227
 20
9.7994085286
 10
21.8473842962
 20
9.7908263851
 10
21.836334201
 20
9.7824926605
  0
LWPOLYLINE
  5
40A
100
AcDbEntity
  8
RACCORDO
100
AcDbPolyline
 62
250
  6
CONTINUOUS
 90
25
 70
0
 10
21.9766642996
 20
-6.660163719
 10
21.976524667
 20
-6.6684817872
 10
21.975880642
 20
-6.6798960253
 10
21.9747138559
 20
-6.6912890695
 10
21.9730255251
 20
-6.7026489805
 10
21.9708174155
 20
-6.7139638326
 10
21.9680918392
 20
-6.7252218043
 10
21.9648516453
 20
-6.7364110968
 10
21.9611002279
 20
-6.7475199608
 10
21.9568415338
 20
-6.7585367572
 10
21.9520800399
 20
-6.7694499016
 10
21.9468207278
 20
-6.7802479728
 10
21.9410690931
 20
-6.79091974
 10
21.9348311649
 20
-6.8014539959
 10
21.9281134716
 20
-6.8118396966
 10
21.9209230086
 20
-6.8220660676
 10
21.9132672452
 20
-6.8321224405
 10
21.9051542392
 20
-6.8419981893
 10
21.8965926116
 20
-6.8516828758
 10
21.8875914602
 20
-6.8611662197
 10
21.8781601164
 20
-6.8704383979
 10
21.8683082314
 20
-6.879489967
 10
21.8580460227
 20
-6.8883115074
 10
21.8473842962
 20
-6.8968936509
 10
21.836334201
 20
-6.9052273755
  0
LWPOLYLINE
  5
40B
100
AcDbEntity
  8
RACCORDO
100
AcDbPolyline
 62
250
  6
CONTINUOUS
 90
24
 70
0
 10
21.9766643008
 20
-8.5493750885
 10
21.9765246579
 20
-8.5577304273
 10
21.9758806181
 20
-8.5691623128
 10
21.9747138174
 20
-8.5805734778
 10
21.9730254776
 20
-8.5919519731
 10
21.9708173665
 20
-8.6032858834
 10
21.9680917966
 20
-8.6145633403
 10
21.9648516219
 20
-8.6257725345
 10
21.9611002354
 20
-8.6369017281
 10
21.9568415654
 20
-8.647939267
 10
21.9520800715
 20
-8.6588735931
 10
21.9468207396
 20
-8.6696932564
 10
21.9410690772
 20
-8.680386927
 10
21.9348311073
 20
-8.6909434068
 10
21.9281133619
 20
-8.7013516414
 10
21.9209228756
 20
-8.7116007318
 10
21.9132671782
 20
-8.7216799455
 10
21.9051542862
 20
-8.7315787279
 10
21.8965926954
 20
-8.7412867133
 10
21.8875913709
 20
-8.7507937359
 10
21.8781597388
 20
-8.7600898404
 10
21.8683076754
 20
-8.7691652921
 10
21.8580454975
 20
-8.7780105875
 10
21.8473839512
 20
-8.7866164644
  0
LWPOLYLINE
  5
40C
100
AcDbEntity
  8
RACCORDO
100
AcDbPolyline
 62
250
  6
CONTINUOUS
 90
19
 70
0
 10
21.7766631907
 20
-8.9493759211
 10
21.7791131383
 20
-8.947489953
 10
21.7853218926
 20
-8.9422441678
 10
21.7912002416
 20
-8.9365778345
 10
21.7967418923
 20
-8.9304970196
 10
21.801940911
 20
-8.9240082354
 10
21.8067917349
 20
-8.9171184257
 10
21.8112891766
 20
-8.9098349576
 10
21.815428429
 20
-8.9021656108
 10
21.8192050506
 20
-8.8941186084
 10
21.8226149821
 20
-8.8857026056
 10
21.8256545692
 20
-8.8769266428
 10
21.8283205733
 20
-8.8678000935
 10
21.8306101539
 20
-8.8583326923
 10
21.8325209292
 20
-8.8485341735
 10
21.8340507542
 20
-8.8384153997
 10
21.8351978799
 20
-8.8279884338
 10
21.8359611902
 20
-8.8172649628
 10
21.8363400542
 20
-8.8062561638
  0
LWPOLYLINE
  5
40D
100
AcDbEntity
  8
RACCORDO
100
AcDbPolyline
 62
250
  6
CONTINUOUS
 90
20
 70
0
 10
8.806474379
 20
-21.5816653364
 10
8.8132468671
 20
-21.5765044905
 10
8.8197233652
 20
-21.5711570504
 10
8.8258936005
 20
-21.5656314983
 10
8.831747786
 20
-21.5599365983
 10
8.8372766359
 20
-21.5540813838
 10
8.8424713807
 20
-21.5480751418
 10
8.8473237805
 20
-21.5419273994
 10
8.8518261388
 20
-21.5356479079
 10
8.855971314
 20
-21.5292466276
 10
8.8597527312
 20
-21.5227337119
 10
8.8631643924
 20
-21.5161194914
 10
8.8662008862
 20
-21.5094144574
 10
8.8688573963
 20
-21.5026292451
 10
8.8711297088
 20
-21.495774617
 10
8.8730142197
 20
-21.4888614457
 10
8.8745079397
 20
-21.4819006965
 10
8.8756084996
 20
-21.4749034104
 10
8.8763141537
 20
-21.4678806862
 10
8.8766138149
 20
-21.4610702033
  0
LWPOLYLINE
  5
40E
100
AcDbEntity
  8
RACCORDO
100
AcDbPolyline
 62
7
  6
CONTINUOUS
 90
13
 70
0
 10
1.0049916568
 20
-26.7826537216
 10
1.0285048703
 20
-26.7663505118
 10
1.0512133427
 20
-26.749690722
 10
1.0735036003
 20
-26.7324931099
 10
1.095366052
 20
-26.7147703442
 10
1.116787562
 20
-26.6965320776
 10
1.1377703711
 20
-26.6778454236
 10
1.1583054791
 20
-26.6587216948
 10
1.1783811492
 20
-26.639171147
 10
1.1979951931
 20
-26.6192583273
 10
1.217140505
 20
-26.5990117039
 10
1.2358055617
 20
-26.5784241186
 10
1.2539818398
 20
-26.5575064012
  0
LINE
  5
40F
100
AcDbEntity
  8
ASSI
100
AcDbLine
 62
250
  6
CONTINUOUS
 10
-3.027993696
 20
-26.7432424093
 11
-1.589094944
 21
-25.7606974742
  0
LINE
  5
410
100
AcDbEntity
  8
ASSI
100
AcDbLine
 62
7
  6
CONTINUOUS
 10
-3.0679254874
 20
-26.838881232
 11
-1.6290267355
 21
-25.8563362969
  0
LINE
  5
411
100
AcDbEntity
  8
RACCORDO
100
AcDbLine
 62
7
  6
CONTINUOUS
 10
-2.4948905853
 20
-26.7281197262
 11
1.6450823573
 21
-23.9011595661
  0
LINE
  5
412
100
AcDbEntity
  8
RACCORDO
100
AcDbLine
 62
250
  6
CONTINUOUS
 10
-2.4948905853
 20
-29.0852508442
 11
1.2539818398
 21
-26.5575064012
  0
LINE
  5
413
100
AcDbEntity
  8
RACCORDO
100
AcDbLine
 62
7
  6
CONTINUOUS
 10
-2.5287912296
 20
-29.165370841
 11
1.0049919512
 21
-26.7826541771
  0
LINE
  5
414
100
AcDbEntity
  8
ASSI
100
AcDbLine
 62
250
  6
CONTINUOUS
 10
-5.3998538442
 20
-27.7370556643
 11
-3.027993696
 21
-26.5284906967
  0
LINE
  5
415
100
AcDbEntity
  8
ASSI
100
AcDbLine
 62
7
  6
CONTINUOUS
 10
-5.4720504593
 20
-27.8517606975
 11
-3.0770918675
 21
-26.6314260774
  0
LWPOLYLINE
  5
416
100
AcDbEntity
  8
RACCORDO
100
AcDbPolyline
 62
250
  6
CONTINUOUS
 90
19
 70
0
 10
12.3396434431
 20
23.1760733047
 10
12.4286947314
 20
23.191657061
 10
12.5214889095
 20
23.2063679372
 10
12.6180286124
 20
23.2200423596
 10
12.7183386834
 20
23.2325140752
 10
12.8223721751
 20
23.2436024457
 10
12.9300081902
 20
23.2531181299
 10
13.0412112484
 20
23.260879111
 10
13.1559251434
 20
23.2666977368
 10
13.2739774067
 20
23.270379853
 10
13.3952919253
 20
23.2717358718
 10
13.5197690972
 20
23.2705726253
 10
13.6471782322
 20
23.2666991441
 10
13.7773943073
 20
23.2599249068
 10
13.9102704545
 20
23.2500582493
 10
14.0455190446
 20
23.2369204257
 10
14.182919618
 20
23.2203333825
 10
14.3223168136
 20
23.2001111505
 10
14.4634941912
 20
23.1760733047
  0
LWPOLYLINE
  5
417
100
AcDbEntity
  8
RACCORDO
100
AcDbPolyline
 62
7
  6
CONTINUOUS
 90
10
 70
0
 10
8.3811106707
 20
19.9158478734
 10
8.4919292914
 20
19.8727490298
 10
8.6003730025
 20
19.8297004266
 10
8.7064418041
 20
19.7867020636
 10
8.809815949
 20
19.743890742
 10
8.9108151843
 20
19.7011296606
 10
9.0103987517
 20
19.6580084165
 10
9.1088863985
 20
19.6143902087
 10
9.2059583775
 20
19.570411838
 10
9.3016146885
 20
19.5260733047
  0
LWPOLYLINE
  5
418
100
AcDbEntity
  8
0
100
AcDbPolyline
 62
7
  6
CONTINUOUS
 90
16
 70
0
 10
8.3811106707
 20
18.7442827529
 10
8.5099852811
 20
18.6940599926
 10
8.6354773896
 20
18.6439872017
 10
8.7575869963
 20
18.5940643804
 10
8.8758185142
 20
18.5445004004
 10
8.9906675303
 20
18.4950863899
 10
9.1036208049
 20
18.4451957335
 10
9.2148369797
 20
18.3948026585
 10
9.3241574131
 20
18.3439329376
 10
9.4325929404
 20
18.2920372727
 10
9.5402401919
 20
18.2391060453
 10
9.6470025373
 20
18.185148874
 10
9.753600921
 20
18.129645316
 10
9.8602756578
 20
18.0724218905
 10
9.966786433
 20
18.0136520782
 10
10.0731332464
 20
17.9533358792
  0
LWPOLYLINE
  5
419
100
AcDbEntity
  8
RACCORDO
100
AcDbPolyline
 62
250
  6
CONTINUOUS
 90
25
 70
0
 10
21.7912907379
 20
10.3723128929
 10
21.7879464213
 20
10.3745457255
 10
21.7827099488
 20
10.3775574277
 10
21.7772082322
 20
10.3801660156
 10
21.7714501358
 20
10.3823672862
 10
21.765444937
 20
10.3841576929
 10
21.7592023117
 20
10.3855343509
 10
21.7527323179
 20
10.3864950422
 10
21.7460453802
 20
10.3870382189
 10
21.7391522727
 20
10.3871630059
 10
21.7320641015
 20
10.386869202
 10
21.7247922873
 20
10.3861572808
 10
21.7173485464
 20
10.3850283893
 10
21.7097448723
 20
10.3834843463
 10
21.7019935162
 20
10.3815276397
 10
21.694106967
 20
10.3791614222
 10
21.6860979316
 20
10.3763895062
 10
21.6779793143
 20
10.3732163579
 10
21.6697641959
 20
10.3696470899
 10
21.6614658126
 20
10.365687453
 10
21.6530975349
 20
10.3613438272
 10
21.6446728458
 20
10.3566232107
 10
21.6362053193
 20
10.3515332096
 10
21.6277085982
 20
10.346082025
 10
21.6191963727
 20
10.3402784398
  0
LWPOLYLINE
  5
41A
100
AcDbEntity
  8
RACCORDO
100
AcDbPolyline
 62
7
  6
CONTINUOUS
 90
10
 70
0
 10
9.624550166
 20
19.3311921891
 10
9.5851052645
 20
19.3587016579
 10
9.5465376693
 20
19.3847620969
 10
9.5088473805
 20
19.4093735059
 10
9.4720164127
 20
19.4325558489
 10
9.4360627512
 20
19.4542891619
 10
9.4010403525
 20
19.4745135532
 10
9.3669672018
 20
19.4932090588
 10
9.3338253138
 20
19.5103956426
 10
9.3016146885
 20
19.5260733047
  0
LINE
  5
41B
100
AcDbEntity
  8
0
100
AcDbLine
 62
7
  6
CONTINUOUS
 10
11.5681248852
 20
16.8962171537
 11
10.0731332464
 21
17.9533358792
  0
LINE
  5
41C
100
AcDbEntity
  8
RACCORDO
100
AcDbLine
 62
250
  6
CONTINUOUS
 10
21.3944525562
 20
10.4991963165
 11
21.6191963727
 21
10.3402784398
  0
LINE
  5
41D
100
AcDbEntity
  8
RACCORDO
100
AcDbLine
 62
7
  6
CONTINUOUS
 10
21.5647447339
 20
10.5325051086
 11
21.7912907379
 21
10.3723128929
  0
LINE
  5
41E
100
AcDbEntity
  8
RACCORDO
100
AcDbLine
 62
7
  6
CONTINUOUS
 10
12.0167079656
 20
17.6396811874
 11
9.624550166
 21
19.3311921891
  0
LWPOLYLINE
  5
41F
100
AcDbEntity
  8
RACCORDO
100
AcDbPolyline
 62
7
  6
CONTINUOUS
 90
13
 70
0
 10
21.5647311767
 20
10.5325146323
 10
21.5629420345
 20
10.5337996362
 10
21.5573956503
 20
10.5380441103
 10
21.5521967391
 20
10.5424132051
 10
21.5473417974
 20
10.5468790173
 10
21.5428435853
 20
10.5513977058
 10
21.5387278343
 20
10.555905133
 10
21.5349893303
 20
10.5603631129
 10
21.5316173445
 20
10.56473872
 10
21.5286192875
 20
10.5689717263
 10
21.5259815108
 20
10.5730249443
 10
21.523682645
 20
10.5768724327
 10
21.522598668
 20
10.5788118351
  0
LWPOLYLINE
  5
420
100
AcDbEntity
  8
RACCORDO
100
AcDbPolyline
 62
250
  6
CONTINUOUS
 90
40
 70
0
 10
21.3944525562
 20
10.4991963165
 10
21.3858673089
 20
10.5053772956
 10
21.3772977879
 20
10.5118935854
 10
21.3687578924
 20
10.5187346167
 10
21.3602614737
 20
10.5258892938
 10
21.3518223126
 20
10.5333460122
 10
21.3434540969
 20
10.5410926775
 10
21.3351703992
 20
10.5491167252
 10
21.3269846555
 20
10.5574051405
 10
21.3189101424
 20
10.5659444803
 10
21.3109599564
 20
10.5747208942
 10
21.3031469922
 20
10.5837201474
 10
21.2954839221
 20
10.5929276435
 10
21.2879831751
 20
10.6023284486
 10
21.2806569171
 20
10.6119073151
 10
21.2735170308
 20
10.6216487066
 10
21.2665750967
 20
10.6315368231
 10
21.2598423744
 20
10.6415556267
 10
21.2533297839
 20
10.6516888673
 10
21.2470478884
 20
10.6619201096
 10
21.2410068767
 20
10.6722327588
 10
21.2352165471
 20
10.6826100885
 10
21.2296862912
 20
10.6930352672
 10
21.2244250789
 20
10.7034913859
 10
21.2194414434
 20
10.7139614852
 10
21.2147434682
 20
10.7244285832
 10
21.210338773
 20
10.7348757029
 10
21.2062345021
 20
10.7452858995
 10
21.2024373125
 20
10.7556422882
 10
21.1989533629
 20
10.7659280716
 10
21.1957883043
 20
10.7761265666
 10
21.1929472702
 20
10.7862212317
 10
21.1904348687
 20
10.7961956939
 10
21.1882551748
 20
10.8060337752
 10
21.1864117238
 20
10.8157195186
 10
21.1849075059
 20
10.8252372143
 10
21.1837449607
 20
10.8345714252
 10
21.1829259739
 20
10.8437070115
 10
21.1824518739
 20
10.8526291558
 10
21.1823234297
 20
10.8613233868
  0
LWPOLYLINE
  5
421
100
AcDbEntity
  8
RACCORDO
100
AcDbPolyline
 62
250
  6
CONTINUOUS
 90
49
 70
0
 10
21.6191963727
 20
10.3402784398
 10
21.6237024812
 20
10.3369872483
 10
21.6280477858
 20
10.3336022111
 10
21.6322322866
 20
10.3301233283
 10
21.6362602924
 20
10.3265465782
 10
21.6401274944
 20
10.3228759825
 10
21.6438209662
 20
10.3191236061
 10
21.6473399169
 20
10.3152893592
 10
21.6506851374
 20
10.3113733317
 10
21.6538460745
 20
10.3073878579
 10
21.6568221228
 20
10.3033327441
 10
21.6596138876
 20
10.2992081841
 10
21.6622126316
 20
10.295027093
 10
21.6646177553
 20
10.2907892907
 10
21.6668298582
 20
10.2864949574
 10
21.6688420016
 20
10.2821575481
 10
21.6706535616
 20
10.277776917
 10
21.6722651622
 20
10.27335321
 10
21.6736717372
 20
10.2689003203
 10
21.6748726393
 20
10.2644181609
 10
21.6758685157
 20
10.2599068188
 10
21.676656242
 20
10.2553804485
 10
21.6772351643
 20
10.2508390065
 10
21.6776059364
 20
10.2462825364
 10
21.6777673957
 20
10.241725323
 10
21.6777188856
 20
10.2371673617
 10
21.6774610628
 20
10.2326086571
 10
21.6769947341
 20
10.2280635079
 10
21.6763192442
 20
10.2235319545
 10
21.6754352485
 20
10.2190139565
 10
21.6743455204
 20
10.2145236902
 10
21.6730494103
 20
10.2100612384
 10
21.6715475678
 20
10.2056265184
 10
21.6698447143
 20
10.2012334582
 10
21.6679402222
 20
10.1968821993
 10
21.6658347191
 20
10.1925726001
 10
21.6635348092
 20
10.1883181637
 10
21.6610398883
 20
10.1841190657
 10
21.6583505606
 20
10.1799751305
 10
21.6554752431
 20
10.1758993344
 10
21.6524133259
 20
10.1718918665
 10
21.6491654189
 20
10.1679525376
 10
21.6457417688
 20
10.1640937564
 10
21.6421415977
 20
10.1603156187
 10
21.6383656834
 20
10.1566180286
 10
21.6344266061
 20
10.1530131071
 10
21.6303285593
 20
10.1495048945
 10
21.6260673494
 20
10.1460893504
 10
21.6216429765
 20
10.1427664749
  0
LWPOLYLINE
  5
422
100
AcDbEntity
  8
0
100
AcDbPolyline
 62
7
  6
CONTINUOUS
 90
16
 70
0
 10
11.5681248852
 20
16.8962171537
 10
11.6745346812
 20
16.806081635
 10
11.7811001771
 20
16.7141739629
 10
11.8878213731
 20
16.6204941376
 10
11.9944582021
 20
16.5252078867
 10
12.1012507311
 20
16.4281494824
 10
12.2089191608
 20
16.3288217418
 10
12.3173668997
 20
16.2273517245
 10
12.4266905394
 20
16.1236123708
 10
12.537900055
 20
16.0167253183
 10
12.6508370323
 20
15.9068889592
 10
12.7656598855
 20
15.7939049014
 10
12.8838538331
 20
15.6762996058
 10
13.005913948
 20
15.5535818926
 10
13.1313451572
 20
15.4262429417
 10
13.2601474609
 20
15.2942827529
  0
LWPOLYLINE
  5
423
100
AcDbEntity
  8
RACCORDO
100
AcDbPolyline
 62
7
  6
CONTINUOUS
 90
10
 70
0
 10
12.3396434431
 20
17.3778625709
 10
12.3074328178
 20
17.407737612
 10
12.2742909298
 20
17.4374207356
 10
12.2402177791
 20
17.4669119418
 10
12.2051953804
 20
17.4962167019
 10
12.1692417189
 20
17.5253295444
 10
12.1324107511
 20
17.5542340556
 10
12.0947204623
 20
17.5829247642
 10
12.0561528671
 20
17.6114071415
 10
12.0167079656
 20
17.6396811874
  0
LWPOLYLINE
  5
424
100
AcDbEntity
  8
RACCORDO
100
AcDbPolyline
 62
7
  6
CONTINUOUS
 90
10
 70
0
 10
12.3396434431
 20
17.3778625709
 10
12.4353069205
 20
17.2869156949
 10
12.5323840768
 20
17.1936085007
 10
12.6308749121
 20
17.0979409885
 10
12.7304594159
 20
17.0002287641
 10
12.8314575987
 20
16.9001562217
 10
12.9348294915
 20
16.7967765431
 10
13.0408951047
 20
16.6897741226
 10
13.1493344278
 20
16.579464566
 10
13.2601474609
 20
16.4658478734
  0
LINE
  5
425
100
AcDbEntity
  8
RACCORDO
100
AcDbLine
 62
7
  6
CONTINUOUS
 10
21.8302176914
 20
7.5782998227
 11
21.4625861227
 21
7.9367611798
  0
LWPOLYLINE
  5
426
100
AcDbEntity
  8
ASSI
100
AcDbPolyline
 62
7
  6
CONTINUOUS
 90
3
 70
0
 10
10.9881715867
 20
20.2750196307
 10
10.9808235998
 20
20.2827957119
 10
10.9722794952
 20
20.2897260101
  0
LWPOLYLINE
  5
427
100
AcDbEntity
  8
RACCORDO
100
AcDbPolyline
 62
250
  6
CONTINUOUS
 90
43
 70
0
 10
23.2925364644
 20
0.1958393084
 10
23.2924288528
 20
0.2038987786
 10
23.2920235002
 20
0.2121569556
 10
23.2913208032
 20
0.2206024118
 10
23.2903215019
 20
0.2292239987
 10
23.2890268598
 20
0.2380092271
 10
23.2874388501
 20
0.2469441848
 10
23.2855598264
 20
0.2560157755
 10
23.2833923224
 20
0.2652118919
 10
23.2809393535
 20
0.2745197307
 10
23.2782043318
 20
0.2839263197
 10
23.2751910881
 20
0.293418461
 10
23.2719038582
 20
0.302982806
 10
23.2683472535
 20
0.3126059447
 10
23.2645262389
 20
0.3222744493
 10
23.2604461499
 20
0.33197482
 10
23.2561126885
 20
0.3416934982
 10
23.2515319185
 20
0.3514168822
 10
23.2467102477
 20
0.3611313694
 10
23.2416544203
 20
0.3708233709
 10
23.2363715066
 20
0.3804793326
 10
23.2308688941
 20
0.3900857505
 10
23.2251542781
 20
0.3996291897
 10
23.2192356515
 20
0.4090963006
 10
23.2131212933
 20
0.4184738397
 10
23.2068197553
 20
0.4277486907
 10
23.200339851
 20
0.4369078811
 10
23.1936906441
 20
0.4459385988
 10
23.1868814345
 20
0.4548282125
 10
23.179921746
 20
0.4635642885
 10
23.1728213136
 20
0.4721346064
 10
23.1655900683
 20
0.4805271792
 10
23.1582381242
 20
0.4887302682
 10
23.1507757654
 20
0.4967323985
 10
23.1432134294
 20
0.5045223774
 10
23.1355616932
 20
0.5120893094
 10
23.1278312595
 20
0.5194226103
 10
23.1200329395
 20
0.5265120244
 10
23.1121776417
 20
0.5333476343
 10
23.1042763578
 20
0.5399198755
 10
23.096340141
 20
0.5462195546
 10
23.0883800899
 20
0.5522378622
 10
23.0804073379
 20
0.557966381
  0
LWPOLYLINE
  5
428
100
AcDbEntity
  8
RACCORDO
100
AcDbPolyline
 62
250
  6
CONTINUOUS
 90
43
 70
0
 10
23.2925364644
 20
16.8835593444
 10
23.2924288528
 20
16.8916188146
 10
23.2920235002
 20
16.8998769916
 10
23.2913208032
 20
16.9083224478
 10
23.2903215019
 20
16.9169440347
 10
23.2890268598
 20
16.9257292631
 10
23.2874388501
 20
16.9346642208
 10
23.2855598264
 20
16.9437358115
 10
23.2833923224
 20
16.9529319279
 10
23.2809393535
 20
16.9622397667
 10
23.2782043318
 20
16.9716463557
 10
23.2751910881
 20
16.981138497
 10
23.2719038582
 20
16.990702842
 10
23.2683472535
 20
17.0003259807
 10
23.2645262389
 20
17.0099944853
 10
23.2604461499
 20
17.019694856
 10
23.2561126885
 20
17.0294135342
 10
23.2515319185
 20
17.0391369182
 10
23.2467102477
 20
17.0488514054
 10
23.2416544203
 20
17.0585434069
 10
23.2363715066
 20
17.0681993686
 10
23.2308688941
 20
17.0778057865
 10
23.2251542781
 20
17.0873492257
 10
23.2192356515
 20
17.0968163366
 10
23.2131212933
 20
17.1061938757
 10
23.2068197553
 20
17.1154687267
 10
23.200339851
 20
17.1246279171
 10
23.1936906441
 20
17.1336586348
 10
23.1868814345
 20
17.1425482485
 10
23.179921746
 20
17.1512843245
 10
23.1728213136
 20
17.1598546424
 10
23.1655900683
 20
17.1682472152
 10
23.1582381242
 20
17.1764503042
 10
23.1507757654
 20
17.1844524345
 10
23.1432134294
 20
17.1922424134
 10
23.1355616932
 20
17.1998093454
 10
23.1278312595
 20
17.2071426463
 10
23.1200329395
 20
17.2142320604
 10
23.1121776417
 20
17.2210676703
 10
23.1042763578
 20
17.2276399115
 10
23.096340141
 20
17.2339395906
 10
23.0883800899
 20
17.2399578982
 10
23.0804073379
 20
17.245686417
  0
LINE
  5
429
100
AcDbEntity
  8
RACCORDO
100
AcDbLine
 62
250
  6
CONTINUOUS
 10
23.2925364644
 20
16.8835593444
 11
23.2925364644
 21
12.378074921
  0
LINE
  5
42A
100
AcDbEntity
  8
RACCORDO
100
AcDbLine
 62
250
  6
CONTINUOUS
 10
23.2925364644
 20
0.1958393084
 11
23.2925364644
 21
-4.309645115
  0
LINE
  5
42B
100
AcDbEntity
  8
RACCORDO
100
AcDbLine
 62
7
  6
CONTINUOUS
 10
23.3792966223
 20
17.0327718959
 11
23.3792966223
 21
12.527287468
  0
LINE
  5
42C
100
AcDbEntity
  8
RACCORDO
100
AcDbLine
 62
7
  6
CONTINUOUS
 10
23.3792966223
 20
0.3450518599
 11
23.3792966223
 21
-4.160432568
  0
LWPOLYLINE
  5
42D
100
AcDbEntity
  8
RACCORDO
100
AcDbPolyline
 62
250
  6
CONTINUOUS
 90
22
 70
0
 10
23.3792966223
 20
17.0327718959
 10
23.3791164715
 20
17.0254214542
 10
23.3785208142
 20
17.0175258645
 10
23.3775094498
 20
17.0096514559
 10
23.3760837833
 20
17.0018091682
 10
23.3742457955
 20
16.9940098964
 10
23.3719980397
 20
16.986264476
 10
23.3693436388
 20
16.9785836676
 10
23.3662862805
 20
16.970978142
 10
23.3628302123
 20
16.9634584654
 10
23.3589802357
 20
16.9560350848
 10
23.3547416994
 20
16.9487183134
 10
23.3501204919
 20
16.9415183161
 10
23.3451230333
 20
16.9344450959
 10
23.3397562666
 20
16.9275084795
 10
23.3340276477
 20
16.9207181038
 10
23.3279451353
 20
16.9140834025
 10
23.3215171798
 20
16.9076135931
 10
23.3147527113
 20
16.9013176641
 10
23.3076611276
 20
16.8952043622
 10
23.300252281
 20
16.8892821805
 10
23.2925364644
 20
16.8835593467
  0
LWPOLYLINE
  5
42E
100
AcDbEntity
  8
RACCORDO
100
AcDbPolyline
 62
250
  6
CONTINUOUS
 90
22
 70
0
 10
23.3792966223
 20
12.527287468
 10
23.3791164715
 20
12.5199370263
 10
23.3785208142
 20
12.5120414366
 10
23.3775094498
 20
12.504167028
 10
23.3760837833
 20
12.4963247403
 10
23.3742457955
 20
12.4885254685
 10
23.3719980397
 20
12.4807800481
 10
23.3693436388
 20
12.4730992397
 10
23.3662862805
 20
12.4654937141
 10
23.3628302123
 20
12.4579740375
 10
23.3589802357
 20
12.4505506569
 10
23.3547416994
 20
12.4432338855
 10
23.3501204919
 20
12.4360338882
 10
23.3451230333
 20
12.4289606681
 10
23.3397562666
 20
12.4220240516
 10
23.3340276477
 20
12.4152336759
 10
23.3279451353
 20
12.4085989746
 10
23.3215171798
 20
12.4021291652
 10
23.3147527113
 20
12.3958332362
 10
23.3076611276
 20
12.3897199343
 10
23.300252281
 20
12.3837977526
 10
23.2925364644
 20
12.3780749188
  0
LWPOLYLINE
  5
42F
100
AcDbEntity
  8
RACCORDO
100
AcDbPolyline
 62
250
  6
CONTINUOUS
 90
22
 70
0
 10
23.3792966223
 20
0.3450518599
 10
23.3791164715
 20
0.3377014182
 10
23.3785208142
 20
0.3298058285
 10
23.3775094498
 20
0.3219314199
 10
23.3760837833
 20
0.3140891322
 10
23.3742457955
 20
0.3062898604
 10
23.3719980397
 20
0.29854444
 10
23.3693436388
 20
0.2908636316
 10
23.3662862805
 20
0.283258106
 10
23.3628302123
 20
0.2757384294
 10
23.3589802357
 20
0.2683150488
 10
23.3547416994
 20
0.2609982773
 10
23.3501204919
 20
0.2537982801
 10
23.3451230333
 20
0.2467250599
 10
23.3397562666
 20
0.2397884435
 10
23.3340276477
 20
0.2329980678
 10
23.3279451353
 20
0.2263633665
 10
23.3215171798
 20
0.2198935571
 10
23.3147527113
 20
0.2135976281
 10
23.3076611276
 20
0.2074843261
 10
23.300252281
 20
0.2015621445
 10
23.2925364644
 20
0.1958393107
  0
LWPOLYLINE
  5
430
100
AcDbEntity
  8
RACCORDO
100
AcDbPolyline
 62
250
  6
CONTINUOUS
 90
22
 70
0
 10
23.3792966223
 20
-4.160432568
 10
23.3791164715
 20
-4.1677830097
 10
23.3785208142
 20
-4.1756785994
 10
23.3775094498
 20
-4.183553008
 10
23.3760837833
 20
-4.1913952957
 10
23.3742457955
 20
-4.1991945675
 10
23.3719980397
 20
-4.2069399879
 10
23.3693436388
 20
-4.2146207963
 10
23.3662862805
 20
-4.2222263219
 10
23.3628302123
 20
-4.2297459985
 10
23.3589802357
 20
-4.2371693791
 10
23.3547416994
 20
-4.2444861505
 10
23.3501204919
 20
-4.2516861478
 10
23.3451230333
 20
-4.2587593679
 10
23.3397562666
 20
-4.2656959844
 10
23.3340276477
 20
-4.2724863601
 10
23.3279451353
 20
-4.2791210614
 10
23.3215171798
 20
-4.2855908708
 10
23.3147527113
 20
-4.2918867998
 10
23.3076611276
 20
-4.2980001017
 10
23.300252281
 20
-4.3039222834
 10
23.2925364644
 20
-4.3096451172
  0
LWPOLYLINE
  5
431
100
AcDbEntity
  8
RACCORDO
100
AcDbPolyline
 62
250
  6
CONTINUOUS
 90
58
 70
0
 10
8.2944952195
 20
-22.4868014101
 10
8.3087003359
 20
-22.4759498387
 10
8.3228686622
 20
-22.4647334302
 10
8.3370001981
 20
-22.4531521846
 10
8.3511058495
 20
-22.4411966156
 10
8.3651747105
 20
-22.4288762095
 10
8.3791740647
 20
-22.4162194253
 10
8.3931033378
 20
-22.4032258181
 10
8.4069631039
 20
-22.3898958329
 10
8.4207223687
 20
-22.3762592632
 10
8.434380856
 20
-22.3623154661
 10
8.447938842
 20
-22.3480650846
 10
8.4613661604
 20
-22.3335398404
 10
8.4746624994
 20
-22.3187391503
 10
8.4878281709
 20
-22.3036635975
 10
8.5008339443
 20
-22.288346654
 10
8.5136795078
 20
-22.2727877292
 10
8.5263651733
 20
-22.2569874136
 10
8.5388626462
 20
-22.2409809518
 10
8.5511714806
 20
-22.2247679158
 10
8.5632921224
 20
-22.2083487335
 10
8.5751976147
 20
-22.1917599334
 10
8.586887487
 20
-22.1750011249
 10
8.59836221
 20
-22.1580726985
 10
8.6095962378
 20
-22.1410123548
 10
8.6205890176
 20
-22.123819828
 10
8.6313411022
 20
-22.1064953839
 10
8.6418286058
 20
-22.0890775195
 10
8.6520509629
 20
-22.071565986
 10
8.6620087389
 20
-22.0539610322
 10
8.6716797436
 20
-22.0363019022
 10
8.6810633155
 20
-22.0185885172
 10
8.6901601161
 20
-22.0008209559
 10
8.6989499399
 20
-21.9830386984
 10
8.7074321185
 20
-21.9652416831
 10
8.7156073204
 20
-21.9474299716
 10
8.723457346
 20
-21.9296432289
 10
8.7309814629
 20
-21.9118815292
 10
8.7381804037
 20
-21.8941447983
 10
8.7450381658
 20
-21.8764724792
 10
8.7515540002
 20
-21.858864682
 10
8.757728656
 20
-21.8413212966
 10
8.7635483785
 20
-21.8238814347
 10
8.769012358
 20
-21.8065453886
 10
8.7741214042
 20
-21.7893128661
 10
8.778864191
 20
-21.7722221021
 10
8.7832399169
 20
-21.7552733783
 10
8.7872493834
 20
-21.7384664131
 10
8.790883669
 20
-21.721838596
 10
8.7941419405
 20
-21.7053902744
 10
8.7970250311
 20
-21.689121101
 10
8.7995265188
 20
-21.6730674239
 10
8.8016455433
 20
-21.6572294383
 10
8.803382965
 20
-21.641606949
 10
8.8047349435
 20
-21.6262357179
 10
8.8057001986
 20
-21.6111276658
 10
8.8062800104
 20
-21.596270872
 10
8.806474379
 20
-21.5816653364
  0
LWPOLYLINE
  5
432
100
AcDbEntity
  8
RACCORDO
100
AcDbPolyline
 62
7
  6
CONTINUOUS
 90
49
 70
0
 10
8.2646566524
 20
-22.5640046645
 10
8.28027882
 20
-22.5520967884
 10
8.301606949
 20
-22.5352176904
 10
8.3226698172
 20
-22.5178344205
 10
8.3434536808
 20
-22.4999740371
 10
8.3639570469
 20
-22.4816529786
 10
8.3841863928
 20
-22.4628785128
 10
8.4041328788
 20
-22.4436708788
 10
8.4237872859
 20
-22.4240499073
 10
8.4431519842
 20
-22.404023222
 10
8.462217137
 20
-22.3836099793
 10
8.4809733643
 20
-22.3628283061
 10
8.4994215778
 20
-22.3416846622
 10
8.5175513908
 20
-22.3201969342
 10
8.5353526384
 20
-22.2983828179
 10
8.5528245802
 20
-22.2762480385
 10
8.5699565111
 20
-22.2538094443
 10
8.5867376119
 20
-22.231084565
 10
8.6031650856
 20
-22.2080791919
 10
8.6192278514
 20
-22.1848097714
 10
8.6349146028
 20
-22.1612934588
 10
8.6502207951
 20
-22.1375362189
 10
8.6651345253
 20
-22.1135550999
 10
8.6796444342
 20
-22.0893660713
 10
8.6937460969
 20
-22.0649726348
 10
8.7074261612
 20
-22.0403931892
 10
8.7206733825
 20
-22.0156417355
 10
8.7334858505
 20
-21.9907138683
 10
8.7458498565
 20
-21.9656258324
 10
8.7577518231
 20
-21.9403930818
 10
8.7691885404
 20
-21.9150080156
 10
8.7801474013
 20
-21.8894795502
 10
8.7906099249
 20
-21.8638300495
 10
8.8005626225
 20
-21.8380695481
 10
8.8099930996
 20
-21.8122021875
 10
8.8188805005
 20
-21.7862548099
 10
8.8271999737
 20
-21.7602680761
 10
8.834936476
 20
-21.7342557623
 10
8.842073949
 20
-21.7082335181
 10
8.8485902449
 20
-21.6822396509
 10
8.8544708779
 20
-21.6562867893
 10
8.8597000457
 20
-21.630388728
 10
8.8642583889
 20
-21.6045787265
 10
8.8681308996
 20
-21.5788685831
 10
8.8713014006
 20
-21.5532699418
 10
8.8737520574
 20
-21.5278078967
 10
8.8754659032
 20
-21.5024955532
 10
8.8764256617
 20
-21.4773406564
 10
8.8766393998
 20
-21.458857765
  0
LINE
  5
433
100
AcDbEntity
  8
RACCORDO
100
AcDbLine
 62
250
  6
CONTINUOUS
 10
2.7242564212
 20
-26.6644563557
 11
8.2944952195
 21
-22.4868014101
  0
LINE
  5
434
100
AcDbEntity
  8
RACCORDO
100
AcDbLine
 62
7
  6
CONTINUOUS
 10
2.6932382086
 20
-26.7425443863
 11
8.2646597144
 21
-22.5640024152
  0
LWPOLYLINE
  5
435
100
AcDbEntity
  8
RACCORDO
100
AcDbPolyline
 62
250
  6
CONTINUOUS
 90
12
 70
0
 10
1.2200840089
 20
-27.7359267198
 10
1.2245551009
 20
-27.7326098685
 10
1.2299351071
 20
-27.7276882086
 10
1.234808952
 20
-27.7220931832
 10
1.239160147
 20
-27.7158437205
 10
1.2429739718
 20
-27.7089609625
 10
1.2462375242
 20
-27.7014681938
 10
1.2489397634
 20
-27.6933907626
 10
1.2510715476
 20
-27.6847559951
 10
1.2526256648
 20
-27.675593103
 10
1.2535968574
 20
-27.6659330847
 10
1.2539818398
 20
-27.6558086201
  0
LINE
  5
436
100
AcDbEntity
  8
RACCORDO
100
AcDbLine
 62
250
  6
CONTINUOUS
 10
2.7242564212
 20
-26.6644496243
 11
1.2539818398
 21
-27.6558086201
  0
LINE
  5
437
100
AcDbEntity
  8
RACCORDO
100
AcDbLine
 62
7
  6
CONTINUOUS
 10
2.6906796137
 20
-26.7443512684
 11
1.2200811952
 21
-27.7359286171
  0
LWPOLYLINE
  5
438
100
AcDbEntity
  8
RACCORDO
100
AcDbPolyline
 62
250
  6
CONTINUOUS
 90
43
 70
0
 10
1.2539818398
 20
-27.6558086201
 10
1.2254806396
 20
-27.6743286149
 10
1.195947332
 20
-27.6920291668
 10
1.1654291507
 20
-27.7088818534
 10
1.1339756155
 20
-27.7248589818
 10
1.1016363196
 20
-27.7399355634
 10
1.0684606538
 20
-27.7540891476
 10
1.0345001965
 20
-27.7672972798
 10
0.9998102616
 20
-27.7795379892
 10
0.9644476403
 20
-27.7907917498
 10
0.9284694641
 20
-27.8010402112
 10
0.891932474
 20
-27.8102670179
 10
0.854894408
 20
-27.8184581238
 10
0.8174142399
 20
-27.8256002403
 10
0.7795518502
 20
-27.831681685
 10
0.741367362
 20
-27.8366932663
 10
0.7029214256
 20
-27.8406267701
 10
0.6642756083
 20
-27.8434756102
 10
0.625492036
 20
-27.8452356423
 10
0.5866327258
 20
-27.8459038803
 10
0.547759514
 20
-27.8454790512
 10
0.5089344408
 20
-27.8439622444
 10
0.4702195164
 20
-27.8413557375
 10
0.4316764095
 20
-27.8376634947
 10
0.3933663866
 20
-27.8328917378
 10
0.355350487
 20
-27.8270479289
 10
0.3176894178
 20
-27.8201412129
 10
0.280443248
 20
-27.812182893
 10
0.2436713658
 20
-27.8031855507
 10
0.2074324493
 20
-27.7931633851
 10
0.1717843655
 20
-27.7821326295
 10
0.1367839975
 20
-27.7701108187
 10
0.1024871459
 20
-27.7571169991
 10
0.0689485036
 20
-27.7431720607
 10
0.0362215707
 20
-27.7282982129
 10
0.0043585399
 20
-27.7125190867
 10
-0.0265897941
 20
-27.695859937
 10
-0.0565740753
 20
-27.6783473267
 10
-0.0855464686
 20
-27.6600091329
 10
-0.1134607627
 20
-27.6408746367
 10
-0.1402724328
 20
-27.6209743882
 10
-0.1659387129
 20
-27.6003401022
 10
-0.1841588226
 20
-27.5844604057
  0
LWPOLYLINE
  5
439
100
AcDbEntity
  8
RACCORDO
100
AcDbPolyline
 62
250
  6
CONTINUOUS
 90
31
 70
0
 10
-2.4948905853
 20
-29.0852508442
 10
-2.5044326926
 20
-29.0914371407
 10
-2.5144149129
 20
-29.0972658777
 10
-2.5248104819
 20
-29.1027214231
 10
-2.5355915374
 20
-29.1077891503
 10
-2.5467291619
 20
-29.1124554618
 10
-2.5581934568
 20
-29.1167078299
 10
-2.569953671
 20
-29.1205348501
 10
-2.5819782766
 20
-29.1239262647
 10
-2.5942350182
 20
-29.1268729781
 10
-2.6066910261
 20
-29.1293670907
 10
-2.6193129005
 20
-29.1314019174
 10
-2.6320667907
 20
-29.1329720037
 10
-2.6449185102
 20
-29.1340731432
 10
-2.6578335837
 20
-29.1347023845
 10
-2.6707773342
 20
-29.1348580433
 10
-2.6837150028
 20
-29.1345397125
 10
-2.6966119501
 20
-29.1337482551
 10
-2.709433703
 20
-29.1324857887
 10
-2.7221460313
 20
-29.1307556712
 10
-2.7347146937
 20
-29.1285625502
 10
-2.7471056508
 20
-29.125912381
 10
-2.7592854824
 20
-29.1228123611
 10
-2.7712217677
 20
-29.1192707923
 10
-2.7828828132
 20
-29.1152970968
 10
-2.7942396637
 20
-29.1109009782
 10
-2.8052594243
 20
-29.1060950019
 10
-2.8159063297
 20
-29.1008952607
 10
-2.8261505459
 20
-29.0953175193
 10
-2.8359675445
 20
-29.0893763726
 10
-2.8453318732
 20
-29.0830883315
  0
LWPOLYLINE
  5
43A
100
AcDbEntity
  8
RACCORDO
100
AcDbPolyline
 62
7
  6
CONTINUOUS
 90
24
 70
0
 10
16.6340174932
 20
21.6747503095
 10
16.6561833106
 20
21.6705203374
 10
16.705531153
 20
21.6598183137
 10
16.7552580402
 20
21.6477598595
 10
16.8053565676
 20
21.6343466976
 10
16.8557410741
 20
21.6196038811
 10
16.9063905523
 20
21.6035422742
 10
16.95729818
 20
21.586168366
 10
17.0083956928
 20
21.5675110709
 10
17.0596607595
 20
21.5475859461
 10
17.1110851812
 20
21.5264031919
 10
17.1626187153
 20
21.5039910886
 10
17.2142394042
 20
21.4803677893
 10
17.2659367391
 20
21.4555463457
 10
17.3176751607
 20
21.4295521698
 10
17.3694336315
 20
21.4024046138
 10
17.42119941
 20
21.3741188244
 10
17.4729474532
 20
21.3447167671
 10
17.5246578191
 20
21.3142181132
 10
17.5763158164
 20
21.2826395945
 10
17.6279027707
 20
21.2500003883
 10
17.6794003928
 20
21.2163196463
 10
17.7307916572
 20
21.1816158589
 10
17.7820592459
 20
21.1459078277
  0
LWPOLYLINE
  5
43B
100
AcDbEntity
  8
ASSI
100
AcDbPolyline
 62
7
  6
CONTINUOUS
 90
12
 70
0
 10
10.9624785735
 20
20.2957676044
 10
10.9514815341
 20
20.3009634157
 10
10.9398371604
 20
20.3050541584
 10
10.9275126021
 20
20.3079837534
 10
10.9145407096
 20
20.3098082797
 10
10.9015688171
 20
20.3104366882
 10
10.8885969246
 20
20.3098082797
 10
10.8756250321
 20
20.3079837534
 10
10.8633004739
 20
20.3050541584
 10
10.851839028
 20
20.3010498443
 10
10.8410249164
 20
20.2959404616
 10
10.830858139
 20
20.2897260101
  0
LWPOLYLINE
  5
43C
100
AcDbEntity
  8
ASSI
100
AcDbPolyline
 62
7
  6
CONTINUOUS
 90
12
 70
0
 10
15.9624785735
 20
20.2957676044
 10
15.9514815341
 20
20.3009634157
 10
15.9398371604
 20
20.3050541584
 10
15.9275126021
 20
20.3079837534
 10
15.9145407096
 20
20.3098082797
 10
15.9015688171
 20
20.3104366882
 10
15.8885969246
 20
20.3098082797
 10
15.8756250321
 20
20.3079837534
 10
15.8633004739
 20
20.3050541584
 10
15.851839028
 20
20.3010498443
 10
15.8410249164
 20
20.2959404616
 10
15.830858139
 20
20.2897260101
  0
LINE
  5
43D
100
AcDbEntity
  8
ASSI
100
AcDbLine
 62
7
  6
CONTINUOUS
 10
10.9722794952
 20
20.2897260101
 11
10.9624785735
 21
20.2957676044
  0
LWPOLYLINE
  5
43E
100
AcDbEntity
  8
RACCORDO
100
AcDbPolyline
 62
250
  6
CONTINUOUS
 90
52
 70
0
 10
12.6591066969
 20
19.8207920273
 10
12.7060163659
 20
19.7895927333
 10
12.7552603935
 20
19.7606322802
 10
12.8068387795
 20
19.7339106681
 10
12.8609689951
 20
19.7093264012
 10
12.9174335692
 20
19.6869809754
 10
12.9755800888
 20
19.6671788772
 10
13.0354407704
 20
19.6499556132
 10
13.0969833974
 20
19.635275677
 10
13.1594589079
 20
19.6233370355
 10
13.2228693724
 20
19.614180464
 10
13.2872127203
 20
19.6077651871
 10
13.3517336775
 20
19.6041668459
 10
13.4164228731
 20
19.6034193343
 10
13.4812896778
 20
19.6054887582
 10
13.54560693
 20
19.610349077
 10
13.6093691236
 20
19.6180308042
 10
13.6725817645
 20
19.6285034261
 10
13.734534209
 20
19.6416493611
 10
13.7952157688
 20
19.6574997251
 10
13.8546371321
 20
19.6760234022
 10
13.91211972
 20
19.6970094623
 10
13.9676394763
 20
19.7204854545
 10
14.0212204573
 20
19.7464238297
 10
14.0722562526
 20
19.7745310108
 10
14.120718718
 20
19.8048321546
 10
14.1666359977
 20
19.8373021042
 10
14.2094861135
 20
19.8715718114
 10
14.2492335131
 20
19.9076612222
 10
14.285913749
 20
19.9455503906
 10
14.3191114997
 20
19.984810431
 10
14.3487877653
 20
20.0254583453
 10
14.3749815457
 20
20.0674771315
 10
14.39739452
 20
20.1103868983
 10
14.4159826686
 20
20.1541951285
 10
14.430790011
 20
20.1988943393
 10
14.4416502841
 20
20.243982191
 10
14.4485203464
 20
20.289462759
 10
14.4514433394
 20
20.335331968
 10
14.4503824256
 20
20.3810752516
 10
14.4452894057
 20
20.4266994061
 10
14.4362124788
 20
20.4721976354
 10
14.4232594054
 20
20.5170349849
 10
14.4063724283
 20
20.5612097186
 10
14.3856093046
 20
20.6047235726
 10
14.3612510656
 20
20.6470467999
 10
14.3332482529
 20
20.6881558361
 10
14.3016503249
 20
20.7280742456
 10
14.2668866886
 20
20.7663429748
 10
14.2291004798
 20
20.8028090059
 10
14.1881485627
 20
20.8376253567
 10
14.1440309374
 20
20.8707920273
  0
LWPOLYLINE
  5
43F
100
AcDbEntity
  8
RACCORDO
100
AcDbPolyline
 62
250
  6
CONTINUOUS
 90
52
 70
0
 10
14.1440309374
 20
20.8707920273
 10
14.0971212683
 20
20.9019913213
 10
14.0478772408
 20
20.9309517744
 10
13.9962988547
 20
20.9576733865
 10
13.9421686391
 20
20.9822576533
 10
13.8857040651
 20
21.0046030792
 10
13.8275575454
 20
21.0244051774
 10
13.7676968639
 20
21.0416284413
 10
13.7061542369
 20
21.0563083776
 10
13.6436787264
 20
21.0682470191
 10
13.5802682619
 20
21.0774035906
 10
13.5159249139
 20
21.0838188674
 10
13.4514039568
 20
21.0874172086
 10
13.3867147612
 20
21.0881647203
 10
13.3218479564
 20
21.0860952963
 10
13.2575307042
 20
21.0812349776
 10
13.1937685107
 20
21.0735532504
 10
13.1305558697
 20
21.0630806285
 10
13.0686034252
 20
21.0499346935
 10
13.0079218655
 20
21.0340843294
 10
12.9485005022
 20
21.0155606524
 10
12.8910179143
 20
20.9945745923
 10
12.8354981579
 20
20.9710986001
 10
12.7819171769
 20
20.9451602248
 10
12.7308813817
 20
20.9170530438
 10
12.6824189163
 20
20.8867519
 10
12.6365016366
 20
20.8542819504
 10
12.5936515208
 20
20.8200122432
 10
12.5539041211
 20
20.7839228324
 10
12.5172238853
 20
20.746033664
 10
12.4840261346
 20
20.7067736236
 10
12.454349869
 20
20.6661257093
 10
12.4281560885
 20
20.6241069231
 10
12.4057431143
 20
20.5811971563
 10
12.3871549657
 20
20.5373889261
 10
12.3723476233
 20
20.4926897153
 10
12.3614873501
 20
20.4476018636
 10
12.3546172879
 20
20.4021212956
 10
12.3516942948
 20
20.3562520866
 10
12.3527552086
 20
20.310508803
 10
12.3578482286
 20
20.2648846484
 10
12.3669251554
 20
20.2193864192
 10
12.3798782289
 20
20.1745490697
 10
12.396765206
 20
20.1303743359
 10
12.4175283297
 20
20.086860482
 10
12.4418865686
 20
20.0445372547
 10
12.4698893814
 20
20.0034282185
 10
12.5014873094
 20
19.963509809
 10
12.5362509456
 20
19.9252410798
 10
12.5740371545
 20
19.8887750487
 10
12.6149890716
 20
19.8539586978
 10
12.6591066969
 20
19.8207920273
  0
LWPOLYLINE
  5
440
100
AcDbEntity
  8
RACCORDO
100
AcDbPolyline
 62
250
  6
CONTINUOUS
 90
40
 70
0
 10
12.5176853406
 20
19.5793706711
 10
12.5732090387
 20
19.5424340889
 10
12.6319286909
 20
19.5078959493
 10
12.6936421455
 20
19.4758997287
 10
12.7581486803
 20
19.4465743503
 10
12.825206454
 20
19.4200536349
 10
12.8945280645
 20
19.3964691687
 10
12.965866688
 20
19.3759192076
 10
13.0389502242
 20
19.3584960479
 10
13.1134303041
 20
19.3442903849
 10
13.1890086174
 20
19.3333602918
 10
13.2654129229
 20
19.3257462995
 10
13.3423217652
 20
19.321480591
 10
13.4194281997
 20
19.320577414
 10
13.4964524293
 20
19.3230372778
 10
13.5731120348
 20
19.3288499904
 10
13.6491162935
 20
19.3379930839
 10
13.7241753356
 20
19.3504312604
 10
13.798011432
 20
19.3661185452
 10
13.8703476833
 20
19.3849970156
 10
13.940904176
 20
19.4069945457
 10
14.0094071847
 20
19.4320260204
 10
14.0755939699
 20
19.4599950624
 10
14.1392151337
 20
19.4907958986
 10
14.2000303644
 20
19.5243121598
 10
14.2578091077
 20
19.5604170373
 10
14.3123303556
 20
19.5989726945
 10
14.3633853994
 20
19.6398315395
 10
14.410779337
 20
19.6828372941
 10
14.4543328418
 20
19.7278269121
 10
14.4938813383
 20
19.7746304262
 10
14.5292752537
 20
19.8230714494
 10
14.5603783414
 20
19.8729642088
 10
14.5870702824
 20
19.9241151843
 10
14.6092490752
 20
19.9763263833
 10
14.626832859
 20
20.0294020628
 10
14.639756682
 20
20.0831460628
 10
14.6479706122
 20
20.1373536385
 10
14.6514427752
 20
20.1918189975
 10
14.6515688171
 20
20.2043706711
  0
LINE
  5
441
100
AcDbEntity
  8
RACCORDO
100
AcDbLine
 62
7
  6
CONTINUOUS
 10
15.850491249
 20
17.2800545532
 11
15.8132675439
 21
17.3051050403
  0
LWPOLYLINE
  5
442
100
AcDbEntity
  8
0
100
AcDbPolyline
 62
7
  6
CONTINUOUS
 90
5
 70
0
 10
16.0603628968
 20
17.47982784
 10
16.1670414434
 20
17.4066855092
 10
16.2806322937
 20
17.3236464558
 10
16.3930423107
 20
17.2363673524
 10
16.4389321494
 20
17.1986446313
  0
LWPOLYLINE
  5
443
100
AcDbEntity
  8
0
100
AcDbPolyline
 62
250
  6
CONTINUOUS
 90
5
 70
0
 10
15.8752175419
 20
17.348910304
 10
15.9870933906
 20
17.2672664495
 10
16.1045735226
 20
17.1761963764
 10
16.2215706009
 20
17.0801534119
 10
16.2435339198
 20
17.0611094627
  0
LWPOLYLINE
  5
444
100
AcDbEntity
  8
RACCORDO
100
AcDbPolyline
 62
250
  6
CONTINUOUS
 90
5
 70
0
 10
15.7408250902
 20
17.2538804901
 10
15.8418464181
 20
17.1791034587
 10
15.943153459
 20
17.0966183622
 10
16.0389423177
 20
17.0107213039
 10
16.0942508601
 20
16.9560334299
  0
LWPOLYLINE
  5
445
100
AcDbEntity
  8
RACCORDO
100
AcDbPolyline
 62
7
  6
CONTINUOUS
 90
16
 70
0
 10
14.2595009898
 20
20.8926699882
 10
14.3088705821
 20
20.8557294155
 10
14.3552338272
 20
20.8168862857
 10
14.3984986911
 20
20.7762610296
 10
14.4386043855
 20
20.7339485621
 10
14.475443081
 20
20.6900996061
 10
14.5088771311
 20
20.6449361287
 10
14.5388414398
 20
20.5986300507
 10
14.5653155034
 20
20.5513048179
 10
14.5882580127
 20
20.5031356307
 10
14.6076289938
 20
20.4543442209
 10
14.6234512654
 20
20.4050385733
 10
14.6357627387
 20
20.3552338788
 10
14.6445568519
 20
20.3050482873
 10
14.6498202969
 20
20.2547032084
 10
14.6515688171
 20
20.2043706711
  0
LWPOLYLINE
  5
446
100
AcDbEntity
  8
0
100
AcDbPolyline
 62
7
  6
CONTINUOUS
 90
8
 70
0
 10
14.6515688171
 20
20.0197676166
 10
14.654030894
 20
20.01630336
 10
14.685814822
 20
19.9641637685
 10
14.7133703692
 20
19.9106299559
 10
14.7364193876
 20
19.8562422973
 10
14.7549162343
 20
19.8009921446
 10
14.7689065523
 20
19.7448881459
 10
14.7747085373
 20
19.7098675039
  0
LWPOLYLINE
  5
447
100
AcDbEntity
  8
RACCORDO
100
AcDbPolyline
 62
7
  6
CONTINUOUS
 90
25
 70
0
 10
21.5225995548
 20
10.5788119984
 10
21.5154278776
 20
10.5920342332
 10
21.503306649
 20
10.6148671475
 10
21.4919575224
 20
10.6368504663
 10
21.4813757788
 20
10.6579883075
 10
21.4715849034
 20
10.6782640279
 10
21.4625614109
 20
10.6976942708
 10
21.4542301268
 20
10.7163330838
 10
21.4466061015
 20
10.734151096
 10
21.4396742846
 20
10.7511776783
 10
21.4333143495
 20
10.7675549917
 10
21.4275196742
 20
10.7832840531
 10
21.4222968807
 20
10.7983638456
 10
21.4175455085
 20
10.8129334803
 10
21.4132522926
 20
10.8270146885
 10
21.4094304981
 20
10.8405857388
 10
21.4060194595
 20
10.8537205476
 10
21.4030126205
 20
10.8664301127
 10
21.4004165374
 20
10.8787034363
 10
21.3981902142
 20
10.8905814413
 10
21.3963301857
 20
10.9020699517
 10
21.3948399171
 20
10.9131631436
 10
21.3936888076
 20
10.923884468
 10
21.392866657
 20
10.934241742
 10
21.3924229845
 20
10.9434142648
  0
LWPOLYLINE
  5
448
100
AcDbEntity
  8
RACCORDO
100
AcDbPolyline
 62
250
  6
CONTINUOUS
 90
17
 70
0
 10
16.822774799
 20
21.5412787386
 10
16.8482780666
 20
21.5318279993
 10
16.8975389353
 20
21.512432719
 10
16.9471122356
 20
21.4917814732
 10
16.9969763052
 20
21.4698832874
 10
17.0471092945
 20
21.4467477547
 10
17.0974891923
 20
21.4223850308
 10
17.1480939178
 20
21.3968057915
 10
17.1989013399
 20
21.3700212187
 10
17.2498891085
 20
21.3420430904
 10
17.3010346796
 20
21.3128837799
 10
17.3523154384
 20
21.2825561953
 10
17.4037090692
 20
21.2510735485
 10
17.4551933885
 20
21.2184494264
 10
17.5067459348
 20
21.1846980446
 10
17.5583439764
 20
21.1498342678
 10
17.6099648808
 20
21.1138733745
  0
LWPOLYLINE
  5
449
100
AcDbEntity
  8
RACCORDO
100
AcDbPolyline
 62
7
  6
CONTINUOUS
 90
10
 70
0
 10
14.4634941912
 20
23.1760733047
 10
14.3678307138
 20
23.2204150158
 10
14.2707535575
 20
23.2643956527
 10
14.1722627222
 20
23.3080152155
 10
14.0726782183
 20
23.3511367471
 10
13.9716800355
 20
23.3938972045
 10
13.8683081427
 20
23.4367074588
 10
13.7622425296
 20
23.4797044668
 10
13.6538032065
 20
23.5227512717
 10
13.5429901734
 20
23.5658478734
  0
LWPOLYLINE
  5
44A
100
AcDbEntity
  8
RACCORDO
100
AcDbPolyline
 62
7
  6
CONTINUOUS
 90
10
 70
0
 10
14.4634941912
 20
23.1760733047
 10
14.4957048165
 20
23.1603956426
 10
14.5288467045
 20
23.1432090588
 10
14.5629198551
 20
23.1245135532
 10
14.5979422539
 20
23.1042891619
 10
14.6338959153
 20
23.0825558489
 10
14.6707268832
 20
23.0593735059
 10
14.708417172
 20
23.0347620969
 10
14.7469847671
 20
23.0087016579
 10
14.7864296687
 20
22.9811921891
  0
LINE
  5
44B
100
AcDbEntity
  8
ASSI
100
AcDbLine
 62
7
  6
CONTINUOUS
 10
15.9722794952
 20
20.2897260101
 11
15.9624785735
 21
20.2957676044
  0
LWPOLYLINE
  5
44C
100
AcDbEntity
  8
RACCORDO
100
AcDbPolyline
 62
250
  6
CONTINUOUS
 90
30
 70
0
 10
21.7653394354
 20
17.6964270715
 10
21.7587148278
 20
17.7008028145
 10
21.751669435
 20
17.7048352825
 10
21.7443360669
 20
17.7084314432
 10
21.7367224028
 20
17.7115875307
 10
21.7288364154
 20
17.7143002402
 10
21.7206863627
 20
17.716566731
 10
21.712280779
 20
17.7183846297
 10
21.7036284665
 20
17.7197520326
 10
21.6947384854
 20
17.7206675079
 10
21.685620145
 20
17.721130097
 10
21.6762829938
 20
17.7211393153
 10
21.6667368093
 20
17.7206951533
 10
21.6569915878
 20
17.7197980761
 10
21.6470575341
 20
17.7184490231
 10
21.636945051
 20
17.7166494069
 10
21.6266647278
 20
17.714401112
 10
21.6162273296
 20
17.7117064927
 10
21.6056437862
 20
17.7085683709
 10
21.5949251802
 20
17.7049900325
 10
21.5840827358
 20
17.7009752247
 10
21.5731278067
 20
17.6965281517
 10
21.5620718646
 20
17.6916534702
 10
21.5509264868
 20
17.6863562849
 10
21.5397033444
 20
17.6806421428
 10
21.5284141899
 20
17.6745170274
 10
21.5170708448
 20
17.6679873529
 10
21.5056851874
 20
17.6610599568
 10
21.4942691404
 20
17.6537420933
 10
21.4828346583
 20
17.6460414253
  0
LWPOLYLINE
  5
44D
100
AcDbEntity
  8
RACCORDO
100
AcDbPolyline
 62
250
  6
CONTINUOUS
 90
30
 70
0
 10
5.6151484681
 20
29.116336622
 10
5.6085238605
 20
29.1207123649
 10
5.6014784677
 20
29.124744833
 10
5.5941450996
 20
29.1283409936
 10
5.5865314355
 20
29.1314970812
 10
5.5786454481
 20
29.1342097907
 10
5.5704953954
 20
29.1364762814
 10
5.5620898117
 20
29.1382941801
 10
5.5534374992
 20
29.1396615831
 10
5.5445475181
 20
29.1405770584
 10
5.5354291777
 20
29.1410396474
 10
5.5260920265
 20
29.1410488658
 10
5.5165458419
 20
29.1406047038
 10
5.5068006204
 20
29.1397076266
 10
5.4968665668
 20
29.1383585735
 10
5.4867540837
 20
29.1365589573
 10
5.4764737605
 20
29.1343106624
 10
5.4660363623
 20
29.1316160432
 10
5.4554528189
 20
29.1284779213
 10
5.4447342129
 20
29.1248995829
 10
5.4338917684
 20
29.1208847752
 10
5.4229368394
 20
29.1164377021
 10
5.4118808973
 20
29.1115630207
 10
5.4007355195
 20
29.1062658354
 10
5.3895123771
 20
29.1005516932
 10
5.3782232226
 20
29.0944265779
 10
5.3668798774
 20
29.0878969034
 10
5.3554942201
 20
29.0809695073
 10
5.3440781731
 20
29.0736516438
 10
5.3326436909
 20
29.0659509758
  0
LWPOLYLINE
  5
44E
100
AcDbEntity
  8
RACCORDO
100
AcDbPolyline
 62
250
  6
CONTINUOUS
 90
25
 70
0
 10
17.7820592459
 20
21.1459078277
 10
17.7787149399
 20
21.1481406536
 10
17.7734784683
 20
21.1511523565
 10
17.7679767524
 20
21.1537609452
 10
17.7622186566
 20
21.1559622167
 10
17.7562134585
 20
21.1577526242
 10
17.7499708336
 20
21.1591292831
 10
17.7435008402
 20
21.1600899754
 10
17.7368139028
 20
21.160633153
 10
17.7299207953
 20
21.1607579408
 10
17.7228326242
 20
21.1604641378
 10
17.7155608098
 20
21.1597522174
 10
17.7081170686
 20
21.1586233266
 10
17.7005133941
 20
21.1570792842
 10
17.6927620373
 20
21.1551225781
 10
17.6848754874
 20
21.152756361
 10
17.6768664511
 20
21.1499844452
 10
17.6687478328
 20
21.1468112969
 10
17.6605327132
 20
21.1432420288
 10
17.6522343287
 20
21.1392823917
 10
17.6438660496
 20
21.1349387654
 10
17.635441359
 20
21.1302181484
 10
17.6269738309
 20
21.1251281465
 10
17.6184771081
 20
21.1196769609
 10
17.6099648808
 20
21.1138733745
  0
LWPOLYLINE
  5
44F
100
AcDbEntity
  8
RACCORDO
100
AcDbPolyline
 62
250
  6
CONTINUOUS
 90
27
 70
0
 10
23.2524935201
 20
17.2777266556
 10
23.2502494641
 20
17.2792528776
 10
23.2454498649
 20
17.282142883
 10
23.2404194111
 20
17.2846864149
 10
23.235165091
 20
17.2868799391
 10
23.2296942035
 20
17.2887204076
 10
23.2240143487
 20
17.2902052628
 10
23.2181334185
 20
17.2913324404
 10
23.2120595845
 20
17.2921003734
 10
23.2058012856
 20
17.2925079942
 10
23.1993672167
 20
17.292554736
 10
23.1927663179
 20
17.2922405332
 10
23.1860077606
 20
17.291565822
 10
23.1791009347
 20
17.2905315393
 10
23.1720554376
 20
17.2891391219
 10
23.164881058
 20
17.2873905043
 10
23.1575877642
 20
17.2852881155
 10
23.1501856905
 20
17.2828348768
 10
23.1426851217
 20
17.2800341967
 10
23.1350964788
 20
17.2768899663
 10
23.1274303061
 20
17.2734065542
 10
23.1196972534
 20
17.2695887995
 10
23.1119080668
 20
17.2654420072
 10
23.1040735736
 20
17.2609719418
 10
23.096204661
 20
17.2561848157
 10
23.0883122605
 20
17.2510872797
 10
23.0804073379
 20
17.245686417
  0
LWPOLYLINE
  5
450
100
AcDbEntity
  8
RACCORDO
100
AcDbPolyline
 62
250
  6
CONTINUOUS
 90
49
 70
0
 10
21.4828346583
 20
17.6460414253
 10
21.4945917448
 20
17.6378159417
 10
21.506331023
 20
17.6292155209
 10
21.5180399269
 20
17.6202492338
 10
21.5297063666
 20
17.6109261798
 10
21.5413173835
 20
17.6012565556
 10
21.552859188
 20
17.5912517767
 10
21.5643189663
 20
17.5809229743
 10
21.5756849162
 20
17.5702808098
 10
21.5869449167
 20
17.5593366298
 10
21.5980869465
 20
17.5481021117
 10
21.6090990433
 20
17.5365893104
 10
21.6199693643
 20
17.5248106052
 10
21.630686252
 20
17.51277863
 10
21.6412382572
 20
17.5005062414
 10
21.6516140965
 20
17.4880065629
 10
21.661802667
 20
17.4752929694
 10
21.6717930579
 20
17.462379075
 10
21.6815745738
 20
17.4492787046
 10
21.691136743
 20
17.4360058828
 10
21.7004693305
 20
17.4225748162
 10
21.709562348
 20
17.4089998792
 10
21.7184060622
 20
17.3952956018
 10
21.7269910052
 20
17.3814766549
 10
21.7353079864
 20
17.3675578317
 10
21.7433481026
 20
17.3535540318
 10
21.7511027468
 20
17.3394802455
 10
21.7585636174
 20
17.3253515389
 10
21.7657227275
 20
17.3111830361
 10
21.7725724133
 20
17.2969899041
 10
21.7791053418
 20
17.282787337
 10
21.7853145194
 20
17.2685905383
 10
21.7911932992
 20
17.2544147051
 10
21.7967353877
 20
17.2402750129
 10
21.8019348521
 20
17.2261865979
 10
21.8067861264
 20
17.2121645412
 10
21.8112840172
 20
17.1982238535
 10
21.8154237095
 20
17.184379458
 10
21.8192007717
 20
17.1706461745
 10
21.8226111604
 20
17.157038705
 10
21.8256512247
 20
17.1435716159
 10
21.8283177103
 20
17.1302593231
 10
21.8306077628
 20
17.1171160775
 10
21.8325189308
 20
17.1041559475
 10
21.8340491682
 20
17.0913928074
 10
21.8351968367
 20
17.0788403227
 10
21.835960708
 20
17.0665119312
 10
21.8363399647
 20
17.0544208289
 10
21.836334201
 20
15.1528334236
  0
LINE
  5
451
100
AcDbEntity
  8
DRAFT
100
AcDbLine
 62
7
  6
CONTINUOUS
 10
18.4806056073
 20
19.2208825798
 11
18.8953271926
 21
18.9276301345
  0
LINE
  5
452
100
AcDbEntity
  8
RACCORDO
100
AcDbLine
 62
250
  6
CONTINUOUS
 10
5.3326436909
 20
29.0659509758
 11
13.1639005344
 21
23.5284161566
  0
LINE
  5
453
100
AcDbEntity
  8
RACCORDO
100
AcDbLine
 62
250
  6
CONTINUOUS
 10
19.2837495556
 20
19.2010294139
 11
21.4828346583
 21
17.6460414253
  0
LINE
  5
454
100
AcDbEntity
  8
RACCORDO
100
AcDbLine
 62
7
  6
CONTINUOUS
 10
5.6151484681
 20
29.116336622
 11
13.4341934761
 21
23.5874368744
  0
LINE
  5
455
100
AcDbEntity
  8
RACCORDO
100
AcDbLine
 62
7
  6
CONTINUOUS
 10
19.4800124068
 20
19.3123973107
 11
21.7653394354
 21
17.6964270715
  0
LINE
  5
456
100
AcDbEntity
  8
RACCORDO
100
AcDbLine
 62
7
  6
CONTINUOUS
 10
14.7864296687
 20
22.9811921891
 11
17.1785874682
 21
21.2896811874
  0
LINE
  5
457
100
AcDbEntity
  8
RACCORDO
100
AcDbLine
 62
250
  6
CONTINUOUS
 10
17.6099648808
 20
21.1138733745
 11
23.0804073379
 21
17.245686417
  0
LINE
  5
458
100
AcDbEntity
  8
RACCORDO
100
AcDbLine
 62
7
  6
CONTINUOUS
 10
17.7820592459
 20
21.1459078277
 11
23.252501703
 21
17.2777208702
  0
LWPOLYLINE
  5
459
100
AcDbEntity
  8
RACCORDO
100
AcDbPolyline
 62
250
  6
CONTINUOUS
 90
30
 70
0
 10
5.3326436909
 20
29.0659509758
 10
5.3212833981
 20
29.0740719479
 10
5.3099273352
 20
29.0818023994
 10
5.2985876539
 20
29.0891339231
 10
5.2872760572
 20
29.0960587945
 10
5.2760051043
 20
29.1025691664
 10
5.2647881787
 20
29.1086572399
 10
5.2536377343
 20
29.1143162792
 10
5.2425652556
 20
29.1195404797
 10
5.2315825504
 20
29.1243242678
 10
5.2207013437
 20
29.1286625295
 10
5.2099333177
 20
29.1325506008
 10
5.1992900527
 20
29.1359842981
 10
5.1887829625
 20
29.1389599416
 10
5.1784232726
 20
29.1414743545
 10
5.1682220605
 20
29.1435248485
 10
5.1581902424
 20
29.1451092289
 10
5.148338561
 20
29.1462257983
 10
5.1386775633
 20
29.1468733612
 10
5.1292175921
 20
29.1470512239
 10
5.1199687728
 20
29.1467591961
 10
5.1109410042
 20
29.1459975898
 10
5.1021439497
 20
29.1447672196
 10
5.0935870271
 20
29.1430694021
 10
5.085279397
 20
29.1409059543
 10
5.0772299527
 20
29.1382791916
 10
5.0694473111
 20
29.1351919255
 10
5.0619398038
 20
29.1316474604
 10
5.0547154675
 20
29.1276495901
 10
5.0494052883
 20
29.1243013759
  0
LWPOLYLINE
  5
45A
100
AcDbEntity
  8
RACCORDO
100
AcDbPolyline
 62
7
  6
CONTINUOUS
 90
10
 70
0
 10
17.1785874682
 20
21.2896811874
 10
17.2180323698
 20
21.2614071415
 10
17.256599965
 20
21.2329247642
 10
17.2942902537
 20
21.2042340556
 10
17.3311212216
 20
21.1753295444
 10
17.367074883
 20
21.1462167019
 10
17.4020972818
 20
21.1169119418
 10
17.4361704325
 20
21.0874207356
 10
17.4693123204
 20
21.057737612
 10
17.5015229457
 20
21.0278625709
  0
LWPOLYLINE
  5
45B
100
AcDbEntity
  8
RACCORDO
100
AcDbPolyline
 62
7
  6
CONTINUOUS
 90
10
 70
0
 10
18.4220269636
 20
20.1158478734
 10
18.3112083429
 20
20.2294702262
 10
18.2027646317
 20
20.33978419
 10
18.0966958301
 20
20.4467897648
 10
17.9933216853
 20
20.5501715608
 10
17.89232245
 20
20.6502449678
 10
17.7927388826
 20
20.7479561553
 10
17.6942512357
 20
20.8436205133
 10
17.5971792568
 20
20.9369226518
 10
17.5015229457
 20
21.0278625709
  0
LWPOLYLINE
  5
45C
100
AcDbEntity
  8
ASSI
100
AcDbPolyline
 62
7
  6
CONTINUOUS
 90
3
 70
0
 10
15.9881715867
 20
20.2750196307
 10
15.9808235998
 20
20.2827957119
 10
15.9722794952
 20
20.2897260101
  0
ARC
  5
45D
100
AcDbEntity
  8
RACCORDO
100
AcDbCircle
 62
7
  6
CONTINUOUS
 10
21.4766643008
 20
17.288178781
 40
0.5
100
AcDbArc
 50
0.0005634244
 51
54.7356103172
  0
ARC
  5
45E
100
AcDbEntity
  8
RACCORDO
100
AcDbCircle
 62
7
  6
CONTINUOUS
 10
21.4766643008
 20
-8.5493750885
 40
0.5
100
AcDbArc
 50
306.8696291931
 51
360.0
  0
ARC
  5
45F
100
AcDbEntity
  8
RACCORDO
100
AcDbCircle
 62
7
  6
CONTINUOUS
 10
5.3264733335
 20
28.7080883315
 40
0.5
100
AcDbArc
 50
54.7356103172
 51
123.6512314252
  0
ARC
  5
460
100
AcDbEntity
  8
RACCORDO
100
AcDbCircle
 62
7
  6
CONTINUOUS
 10
23.0792966223
 20
-4.160432568
 40
0.3
100
AcDbArc
 50
305.7450677236
 51
360.0
  0
ARC
  5
461
100
AcDbEntity
  8
RACCORDO
100
AcDbCircle
 62
7
  6
CONTINUOUS
 10
23.0792966223
 20
0.3450518599
 40
0.3
100
AcDbArc
 50
0.0
 51
54.7375242946
  0
ARC
  5
462
100
AcDbEntity
  8
RACCORDO
100
AcDbCircle
 62
7
  6
CONTINUOUS
 10
23.0792966223
 20
17.0327718959
 40
0.3
100
AcDbArc
 50
0.0
 51
54.7375242946
  0
ARC
  5
463
100
AcDbEntity
  8
RACCORDO
100
AcDbCircle
 62
7
  6
CONTINUOUS
 10
23.0792966223
 20
12.527287468
 40
0.3
100
AcDbArc
 50
305.7450677236
 51
360.0
  0
ARC
  5
464
100
AcDbEntity
  8
RACCORDO
100
AcDbCircle
 62
7
  6
CONTINUOUS
 10
-2.6685551779
 20
-28.9580883315
 40
0.25
100
AcDbArc
 50
234.7356103172
 51
303.9915302884
  0
ARC
  5
465
100
AcDbEntity
  8
RACCORDO
100
AcDbCircle
 62
7
  6
CONTINUOUS
 10
-19.6722284803
 20
14.3668015744
 40
0.25
100
AcDbArc
 50
126.5413652935
 51
180.000635316
  0
ELLIPSE
  5
466
100
AcDbEntity
  8
ASSI
100
AcDbEllipse
 62
7
  6
CONTINUOUS
 10
-1.801259292
 20
-25.610674625
 30
0.0
 11
-0.1732461214
 21
0.2449572673
 31
0.0
 40
0.499974606
 41
-3.149820728
 42
-2.5262326077
  0
ELLIPSE
  5
467
100
AcDbEntity
  8
ASSI
100
AcDbEllipse
 62
7
  6
CONTINUOUS
 10
-1.801259292
 20
0.2694335664
 30
0.0
 11
-0.1732461214
 21
0.2449572673
 31
0.0
 40
0.499974606
 41
-2.5262326077
 42
-1.4036177122
  0
ELLIPSE
  5
468
100
AcDbEntity
  8
ASSI
100
AcDbEllipse
 62
7
  6
CONTINUOUS
 10
-20.161285786
 20
11.0365282901
 30
0.0
 11
-0.171841336
 21
0.2483744938
 31
0.0
 40
0.5010006783
 41
-0.9410268114
 42
0.0674318052
  0
ELLIPSE
  5
469
100
AcDbEntity
  8
ASSI
100
AcDbEllipse
 62
7
  6
CONTINUOUS
 10
-20.161285786
 20
11.2519328031
 30
0.0
 11
-0.1732461214
 21
0.2449572673
 31
0.0
 40
0.499974606
 41
-0.9554362809
 42
0.6153600459
  0
ELLIPSE
  5
46A
100
AcDbEntity
  8
ASSI
100
AcDbEllipse
 62
7
  6
CONTINUOUS
 10
-3.240158044
 20
-26.5932195601
 30
0.0
 11
-0.1732461214
 21
0.2449572673
 31
0.0
 40
0.499974606
 41
2.1861563727
 42
3.7569526995
  0
ELLIPSE
  5
46B
100
AcDbEntity
  8
ASSI
100
AcDbEllipse
 62
7
  6
CONTINUOUS
 10
-3.240158044
 20
-0.7131113687
 30
0.0
 11
-0.1732461214
 21
0.2449572673
 31
0.0
 40
0.499974606
 41
-2.5262326077
 42
-0.9554362809
  0
ELLIPSE
  5
46C
100
AcDbEntity
  8
ASSI
100
AcDbEllipse
 62
7
  6
CONTINUOUS
 10
-3.240158044
 20
-0.9285158816
 30
0.0
 11
-0.1716603093
 21
0.2474430018
 31
0.0
 40
0.5038954357
 41
-2.5134003992
 42
-0.9456346556
  0
ELLIPSE
  5
46D
100
AcDbEntity
  8
ASSI
100
AcDbEllipse
 62
7
  6
CONTINUOUS
 10
-3.240158044
 20
-26.3778150472
 30
0.0
 11
-0.171841336
 21
0.2483744938
 31
0.0
 40
0.5010006783
 41
-3.2090247604
 42
-2.5148537214
  0
ELLIPSE
  5
46E
100
AcDbEntity
  8
ASSI
100
AcDbEllipse
 62
7
  6
CONTINUOUS
 10
6.2103967825
 20
11.5624611365
 30
0.0
 11
0.9999816523
 21
-0.0086203266
 31
0.0
 40
0.7027169147
 41
0.5258412067
 42
0.7914558497
  0
ELLIPSE
  5
46F
100
AcDbEntity
  8
ASSI
100
AcDbEllipse
 62
7
  6
CONTINUOUS
 10
-6.9844236145
 20
20.8926081158
 30
0.0
 11
0.9999816523
 21
-0.0086203266
 31
0.0
 40
0.7027169147
 41
0.7914558497
 42
2.3535255303
  0
ELLIPSE
  5
470
100
AcDbEntity
  8
RACCORDO
100
AcDbEllipse
 62
7
  6
CONTINUOUS
 10
3.1413454921
 20
13.8879523811
 30
0.0
 11
0.9923713396
 21
-0.2453362965
 31
0.0
 40
0.502513206
 41
1.9524667317
 42
2.4710669152
  0
ELLIPSE
  5
471
100
AcDbEntity
  8
RACCORDO
100
AcDbEllipse
 62
7
  6
CONTINUOUS
 10
1.4868262855
 20
7.7981311835
 30
0.0
 11
-0.1443447909
 21
0.2041416883
 31
0.0
 40
0.4999641024
 41
-0.9552573905
 42
0.0070222264
  0
ELLIPSE
  5
472
100
AcDbEntity
  8
RACCORDO
100
AcDbEllipse
 62
7
  6
CONTINUOUS
 10
-13.5745616165
 20
18.4481407031
 30
0.0
 11
-0.1443413364
 21
0.2041221469
 31
0.0
 40
0.5000358996
 41
-2.5260960242
 42
-0.9553758499
  0
ELLIPSE
  5
473
100
AcDbEntity
  8
RACCORDO
100
AcDbEllipse
 62
7
  6
CONTINUOUS
 10
4.1967646545
 20
13.2395031071
 30
0.0
 11
0.4461480856
 21
0.6091748811
 31
0.0
 40
0.5086230016
 41
0.0084689127
 42
0.9637855314
  0
ELLIPSE
  5
474
100
AcDbEntity
  8
RACCORDO
100
AcDbEllipse
 62
7
  6
CONTINUOUS
 10
-5.8573900794
 20
20.3488640986
 30
0.0
 11
0.4409973839
 21
0.6128420828
 31
0.0
 40
0.5043376775
 41
0.0041738666
 42
0.9594904852
  0
ELLIPSE
  5
475
100
AcDbEntity
  8
RACCORDO
100
AcDbEllipse
 62
7
  6
CONTINUOUS
 10
-6.2572338653
 20
18.4303244608
 30
0.0
 11
0.116820499
 21
0.1623422736
 31
0.0
 40
0.5043376775
 41
-0.7708998059
 42
-0.6113058416
  0
ELLIPSE
  5
476
100
AcDbEntity
  8
RACCORDO
100
AcDbEllipse
 62
7
  6
CONTINUOUS
 10
5.4298455701
 20
12.36758323
 30
0.0
 11
0.4308531568
 21
0.6200155897
 31
0.0
 40
0.4956115482
 41
5.6636513942
 42
7.234447721
  0
ELLIPSE
  5
477
100
AcDbEntity
  8
RACCORDO
100
AcDbEllipse
 62
7
  6
CONTINUOUS
 10
-4.6243091638
 20
19.4769442214
 30
0.0
 11
0.4258573161
 21
0.623526264
 31
0.0
 40
0.4911738445
 41
5.6597153096
 42
7.2305116364
  0
ELLIPSE
  5
478
100
AcDbEntity
  8
RACCORDO
100
AcDbEllipse
 62
7
  6
CONTINUOUS
 10
-0.1395529681
 20
0.9073970624
 30
0.0
 11
-0.5773653456
 21
0.8164885875
 31
0.0
 40
0.5000358996
 41
-2.5260960242
 42
-1.098075215
  0
ELLIPSE
  5
479
100
AcDbEntity
  8
RACCORDO
100
AcDbEllipse
 62
7
  6
CONTINUOUS
 10
-0.1395529681
 20
-19.5986457411
 30
0.0
 11
-0.5773791635
 21
0.8165667534
 31
0.0
 40
0.4999641024
 41
-3.1486148851
 42
-2.5261298698
  0
ELLIPSE
  5
47A
100
AcDbEntity
  8
RACCORDO
100
AcDbEllipse
 62
7
  6
CONTINUOUS
 10
-3.9153723241
 20
18.8778054018
 30
0.0
 11
0.9923713396
 21
-0.2453362965
 31
0.0
 40
0.502513206
 41
-0.6530723294
 42
-0.1344720294
  0
ELLIPSE
  5
47B
100
AcDbEntity
  8
RACCORDO
100
AcDbEllipse
 62
7
  6
CONTINUOUS
 10
-15.5316306835
 20
16.8713496542
 30
0.0
 11
0.9733576444
 21
0.0086004997
 31
0.0
 40
0.7114427855
 41
3.1353064926
 42
5.4827743365
  0
ELLIPSE
  5
47C
100
AcDbEntity
  8
RACCORDO
100
AcDbEllipse
 62
7
  6
CONTINUOUS
 10
0.5778174451
 20
5.4802496412
 30
0.0
 11
0.9733576444
 21
0.0086004997
 31
0.0
 40
0.7114427855
 41
3.1353064927
 42
4.7410937947
  0
ELLIPSE
  5
47D
100
AcDbEntity
  8
RACCORDO
100
AcDbEllipse
 62
7
  6
CONTINUOUS
 10
-4.6243091638
 20
18.9929168964
 30
0.0
 11
0.4258573161
 21
0.623526264
 31
0.0
 40
0.4911738445
 41
-0.0079902889
 42
0.5982604788
  0
ELLIPSE
  5
47E
100
AcDbEntity
  8
RACCORDO
100
AcDbEllipse
 62
7
  6
CONTINUOUS
 10
-13.3136504911
 20
14.1414748583
 30
0.0
 11
0.8189583514
 21
0.0072362416
 31
0.0
 40
0.7114427855
 41
3.1353064914
 42
5.4827743365
  0
ELLIPSE
  5
47F
100
AcDbEntity
  8
RACCORDO
100
AcDbEllipse
 62
7
  6
CONTINUOUS
 10
-3.2727341982
 20
7.0414748583
 30
0.0
 11
0.8189583514
 21
0.0072362416
 31
0.0
 40
0.7114427855
 41
3.1353064914
 42
5.4827743365
  0
ELLIPSE
  5
480
100
AcDbEntity
  8
DRAFT
100
AcDbEllipse
 62
7
  6
CONTINUOUS
 10
13.0240308012
 20
18.1530840362
 30
0.0
 11
3.3654690097
 21
-0.057096805
 31
0.0
 40
0.6982762764
 41
-1.2076147553
 42
-0.7634996579
  0
ELLIPSE
  5
481
100
AcDbEntity
  8
RACCORDO
100
AcDbEllipse
 62
7
  6
CONTINUOUS
 10
21.4766643008
 20
8.831930817
 30
0.0
 11
0.4967174349
 21
0.1018326696
 31
0.0
 40
0.5617014848
 41
-0.8825950019
 42
-0.1146501311
  0
ELLIPSE
  5
482
100
AcDbEntity
  8
RACCORDO
100
AcDbEllipse
 62
7
  6
CONTINUOUS
 10
21.4766643008
 20
1.4073096145
 30
0.0
 11
0.4967174349
 21
0.1018326696
 31
0.0
 40
0.5617014848
 41
-0.8825950019
 42
-0.1146501311
  0
ELLIPSE
  5
483
100
AcDbEntity
  8
DRAFT
100
AcDbEllipse
 62
7
  6
CONTINUOUS
 10
13.7551222077
 20
16.8681556818
 30
0.0
 11
2.7999812303
 21
-0.0145530409
 31
0.0
 40
0.7044791773
 41
0.1986045938
 42
0.4205056716
  0
ELLIPSE
  5
484
100
AcDbEntity
  8
DRAFT
100
AcDbEllipse
 62
7
  6
CONTINUOUS
 10
13.0480154265
 20
17.0789648993
 30
0.0
 11
2.7499815655
 21
-0.0142931652
 31
0.0
 40
0.7044791773
 41
2.8251105715
 42
3.0604555831
  0
ELLIPSE
  5
485
100
AcDbEntity
  8
RACCORDO
100
AcDbEllipse
 62
7
  6
CONTINUOUS
 10
19.073486142
 20
18.9874823535
 30
0.0
 11
0.40732519
 21
0.3241644393
 31
0.0
 40
0.0846429247
 41
0.024620579
 42
0.9624839026
  0
ELLIPSE
  5
486
100
AcDbEntity
  8
RACCORDO
100
AcDbEllipse
 62
7
  6
CONTINUOUS
 10
2.5474527979
 20
-26.5393834627
 30
0.0
 11
-0.1443664662
 21
0.204194318
 31
0.0
 40
0.4998564329
 41
3.130578869
 42
3.7570046432
  0
ELLIPSE
  5
487
100
AcDbEntity
  8
DRAFT
100
AcDbEllipse
 62
7
  6
CONTINUOUS
 10
13.0240308012
 20
18.1530840362
 30
0.0
 11
3.3654690097
 21
-0.057096805
 31
0.0
 40
0.6982762764
 41
-3.1284068655
 42
-1.6416114959
  0
ELLIPSE
  5
488
100
AcDbEntity
  8
RACCORDO
100
AcDbEllipse
 62
7
  6
CONTINUOUS
 10
-14.6351881289
 20
19.1980967056
 30
0.0
 11
-0.1443664662
 21
0.204194318
 31
0.0
 40
0.4998564329
 41
-0.9550797507
 42
0.0135514648
  0
ELLIPSE
  5
489
100
AcDbEntity
  8
RACCORDO
100
AcDbEllipse
 62
7
  6
CONTINUOUS
 10
2.5474527979
 20
7.0481347876
 30
0.0
 11
-0.1443526478
 21
0.2041161491
 31
0.0
 40
0.5001435998
 41
3.7571400149
 42
5.3276317552
  0
ELLIPSE
  5
48A
100
AcDbEntity
  8
RACCORDO
100
AcDbEllipse
 62
7
  6
CONTINUOUS
 10
1.5221748932
 20
7.7731157466
 30
0.0
 11
-0.1443253515
 21
0.2041483304
 31
0.0
 40
0.5000253781
 41
-0.9551969387
 42
-0.834391846
  0
ELLIPSE
  5
48B
100
AcDbEntity
  8
RACCORDO
100
AcDbEllipse
 62
7
  6
CONTINUOUS
 10
-13.6099102242
 20
18.4731157466
 30
0.0
 11
-0.1443253515
 21
0.2041483304
 31
0.0
 40
0.5000253781
 41
-1.0760020314
 42
-0.9551969387
  0
ELLIPSE
  5
48C
100
AcDbEntity
  8
RACCORDO
100
AcDbEllipse
 62
7
  6
CONTINUOUS
 10
21.4766643008
 20
7.331494078
 30
0.0
 11
0.4755757265
 21
-0.1949973817
 31
0.0
 40
0.7916123114
 41
-0.4540929728
 42
1.0992500615
  0
ELLIPSE
  5
48D
100
AcDbEntity
  8
RACCORDO
100
AcDbEllipse
 62
7
  6
CONTINUOUS
 10
21.4766643008
 20
-0.0931271245
 30
0.0
 11
0.4755757265
 21
-0.1949973817
 31
0.0
 40
0.7916123114
 41
-0.4540929728
 42
1.0992500615
  0
ENDSEC
  0
SECTION
  2
OBJECTS
  0
DICTIONARY
  5
C
100
AcDbDictionary
280
0
281
1
  3
ACAD_GROUP
350
D
  3
ACAD_MLINESTYLE
350
17
  3
ACAD_LAYOUT
350
1A
  3
ACAD_PLOTSETTINGS
350
19
  3
ACAD_PLOTSTYLENAME
350
E
  0
DICTIONARY
  5
D
102
{ACAD_REACTORS
330
C
102
}
100
AcDbDictionary
280
0
281
1
  0
ACDBDICTIONARYWDFLT
  5
E
102
{ACAD_REACTORS
330
C
102
}
100
AcDbDictionary
281
1
  3
Normal
350
F
100
AcDbDictionaryWithDefault
340
F
  0
DICTIONARY
  5
17
102
{ACAD_REACTORS
330
C
102
}
100
AcDbDictionary
280
0
281
1
  3
Standard
350
18
  0
DICTIONARY
  5
19
102
{ACAD_REACTORS
330
C
102
}
100
AcDbDictionary
281
1
  0
DICTIONARY
  5
1A
102
{ACAD_REACTORS
330
C
102
}
100
AcDbDictionary
281
1
  3
Model
350
48E
  3
Layout1
350
48F
  0
ACDBPLACEHOLDER
  5
F
102
{ACAD_REACTORS
330
E
102
}
  0
MLINESTYLE
  5
18
102
{ACAD_REACTORS
330
17
102
}
100
AcDbMlineStyle
  2
STANDARD
 70
0
  3

 62
256
 51
90.0
 52
90.0
 71
2
 49
0.5
 62
256
  6
BYLAYER
 49
-0.5
 62
256
  6
BYLAYER
  0
LAYOUT
  5
48E
102
{ACAD_REACTORS
330
1A
102
}
100
AcDbPlotSettings
  1

  2
none_device
  4
ISO_A4_(297.00_x_210.00_MM)
  6

 40
0.0
 41
0.0
 42
0.0
 43
0.0
 44
297.0
 45
210.0
 46
0.0
 47
0.0
 48
0.0
 49
0.0
140
0.0
141
0.0
142
1.0
143
1.0
 70
1024
 72
1
 73
0
 74
0
  7

 75
0
147
1.0
148
0.0
149
0.0
100
AcDbLayout
  1
Model
 70
0
 71
0
 10
0.0
 20
0.0
 11
297.0
 21
210.0
 12
0.0
 22
0.0
 32
0.0
 14
0.0
 24
0.0
 34
0.0
 15
0.0
 25
0.0
 35
0.0
146
0.0
 13
0.0
 23
0.0
 33
0.0
 16
1.0
 26
0.0
 36
0.0
 17
0.0
 27
1.0
 37
0.0
 76
0
330
21B
345
0
346
0
  0
LAYOUT
  5
48F
102
{ACAD_REACTORS
330
1A
102
}
100
AcDbPlotSettings
  1

  2
none_device
  4
ISO_A4_(297.00_x_210.00_MM)
  6

 40
0.0
 41
0.0
 42
0.0
 43
0.0
 44
297.0
 45
210.0
 46
0.0
 47
0.0
 48
0.0
 49
0.0
140
0.0
141
0.0
142
1.0
143
1.0
 70
0
 72
1
 73
0
 74
0
  7

 75
0
147
1.0
148
0.0
149
0.0
100
AcDbLayout
  1
Layout1
 70
0
 71
1
 10
0.0
 20
0.0
 11
297.0
 21
210.0
 12
0.0
 22
0.0
 32
0.0
 14
0.0
 24
0.0
 34
0.0
 15
0.0
 25
0.0
 35
0.0
146
0.0
 13
0.0
 23
0.0
 33
0.0
 16
1.0
 26
0.0
 36
0.0
 17
0.0
 27
1.0
 37
0.0
 76
0
330
21C
345
0
346
0
  0
ENDSEC
  0
EOF
