0
SECTION
2
HEADER
9
$ACADVER
1
AC1014
9
$HANDSEED
5
       3F1
9
$EXTMAX
10
297.0000000000
20
210.0000000000
9
$EXTMIN
10
0.0000000000
20
0.0000000000
9
$LIMMIN
10
0.0000000000
20
0.0000000000
9
$LIMMAX
10
297.0000000000
20
210.0000000000
9
$VIEWCTR
10
148.5000000000
20
105.0000000000
9
$VIEWSIZE
40
210.0000000000
9
$CLAYER
8
0
9
$LTSCALE
40
16.3350000000
9
$CELTYPE
6
BYLAYER
9
$DIMSCALE
40
1
9
$DIMASZ
40
3.0000000000
9
$DIMEXO
40
1.8562500000
9
$DIMDLI
40
11.2860000000
9
$DIMEXE
40
5.3460000000
9
$DIMCEN
40
2.6730000000
9
$DIMLFAC
40
1.0000000000
9
$DIMTXT
40
3.0000000000
9
$DIMTOL
70
1
9
$DIMLIM
70
0
9
$DIMTFAC
40
1.0000000000
9
$DIMTP
40
0.0100000000
9
$DIMTM
40
0.0100000000
9
$MEASUREMENT
70
1
0
ENDSEC
0
SECTION
2
CLASSES
0
ENDSEC
0
SECTION
2
TABLES
0
TABLE
2
VPORT
5
8
100
AcDbSymbolTable
70
2
0
VPORT
5
1F4
100
AcDbSymbolTableRecord
100
AcDbViewportTableRecord
2
*ACTIVE
70
0
10
0.0
20
0.0
11
1.0
21
1.0
12
148.5000000000
22
105.0000000000
13
0.0
23
0.0
14
1.0
24
1.0
15
0.0
25
0.0
16
0.0
26
0.0
36
1.0
17
0.0
27
0.0
37
0.0
40
210.0000000000
41
1.4142857143
42
50.0
43
0.0
44
0.0
50
0.0
51
0.0
71
0
72
100
73
1
74
1
75
0
76
0
77
0
78
0
0
ENDTAB
0
TABLE
2
LTYPE
5
5
100
AcDbSymbolTable
70
6
0
LTYPE
5
14
100
AcDbSymbolTableRecord
100
AcDbLinetypeTableRecord
2
BYBLOCK
70
0
3

72
65
73
0
40
0.0
0
LTYPE
5
15
100
AcDbSymbolTableRecord
100
AcDbLinetypeTableRecord
2
BYLAYER
70
0
3

72
65
73
0
40
0.0
0
LTYPE
5
16
100
AcDbSymbolTableRecord
100
AcDbLinetypeTableRecord
2
CONTINUOUS
70
64
3
Solid line
72
65
73
0
40
0
0
LTYPE
5
1F5
100
AcDbSymbolTableRecord
100
AcDbLinetypeTableRecord
2
CENTER
70
64
3
____ _ ____ _ ____ _ ____ _ ____ _ ____ _ ____
72
65
73
4
40
0.6
49
0.375
74
0
49
-0.075
74
0
49
0.075
74
0
49
-0.075
74
0
0
LTYPE
5
1F6
100
AcDbSymbolTableRecord
100
AcDbLinetypeTableRecord
2
HIDDEN
70
64
3
- - - - - - - - - - - - - - - - - - - -
72
65
73
2
40
0.2
49
0.1
74
0
49
-0.1
74
0
0
LTYPE
5
1F7
100
AcDbSymbolTableRecord
100
AcDbLinetypeTableRecord
2
PHANTOM
70
64
3
_____ _ _ _____ _ _ _____ _ _ _____
72
65
73
6
40
0.8
49
0.45
74
0
49
-0.05
74
0
49
0.1
74
0
49
-0.05
74
0
49
0.1
74
0
49
-0.05
74
0
0
LTYPE
5
1F8
100
AcDbSymbolTableRecord
100
AcDbLinetypeTableRecord
2
DOT
70
64
3
. . . . . . . . . . . . . . . . . . . .
72
65
73
2
40
0.2
49
0.1
74
0
49
-0.1
74
0
0
LTYPE
5
1F9
100
AcDbSymbolTableRecord
100
AcDbLinetypeTableRecord
2
DASHED
70
64
3
- - - - - - - - - - - - - - - - - - - -
72
65
73
2
40
0.2
49
0.1
74
0
49
-0.1
74
0
0
ENDTAB
0
TABLE
2
LAYER
5
2
100
AcDbSymbolTable
70
36
0
LAYER
5
10
100
AcDbSymbolTableRecord
100
AcDbLayerTableRecord
2
0
70
0
62
7
6
CONTINUOUS
0
LAYER
5
1FA
100
AcDbSymbolTableRecord
100
AcDbLayerTableRecord
2
DEFAULT_1
70
0
62
7
6
CENTER
0
LAYER
5
1FB
100
AcDbSymbolTableRecord
100
AcDbLayerTableRecord
2
DEFAULT_2
70
0
62
8
6
HIDDEN
0
LAYER
5
1FC
100
AcDbSymbolTableRecord
100
AcDbLayerTableRecord
2
DEFAULT_3
70
0
62
7
6
PHANTOM
0
LAYER
5
1FD
100
AcDbSymbolTableRecord
100
AcDbLayerTableRecord
2
ALTRI_PIANI
70
0
62
7
6
CONTINUOUS
0
LAYER
5
1FE
100
AcDbSymbolTableRecord
100
AcDbLayerTableRecord
2
ASSI
70
0
62
7
6
CONTINUOUS
0
LAYER
5
1FF
100
AcDbSymbolTableRecord
100
AcDbLayerTableRecord
2
COORDINATE
70
0
62
7
6
CONTINUOUS
0
LAYER
5
200
100
AcDbSymbolTableRecord
100
AcDbLayerTableRecord
2
COORD_ORIGINE
70
0
62
7
6
CONTINUOUS
0
LAYER
5
201
100
AcDbSymbolTableRecord
100
AcDbLayerTableRecord
2
COSMETICHE
70
0
62
7
6
CONTINUOUS
0
LAYER
5
202
100
AcDbSymbolTableRecord
100
AcDbLayerTableRecord
2
COSMETICI
70
0
62
7
6
CONTINUOUS
0
LAYER
5
203
100
AcDbSymbolTableRecord
100
AcDbLayerTableRecord
2
CURVE
70
0
62
7
6
CONTINUOUS
0
LAYER
5
204
100
AcDbSymbolTableRecord
100
AcDbLayerTableRecord
2
CURVE_X_SCRITTE
70
0
62
7
6
CONTINUOUS
0
LAYER
5
205
100
AcDbSymbolTableRecord
100
AcDbLayerTableRecord
2
DRAFT
70
0
62
7
6
CONTINUOUS
0
LAYER
5
206
100
AcDbSymbolTableRecord
100
AcDbLayerTableRecord
2
IGES_INCISIONI
70
0
62
7
6
CONTINUOUS
0
LAYER
5
207
100
AcDbSymbolTableRecord
100
AcDbLayerTableRecord
2
IGES_SCRITTE
70
0
62
7
6
CONTINUOUS
0
LAYER
5
208
100
AcDbSymbolTableRecord
100
AcDbLayerTableRecord
2
NOTE
70
0
62
7
6
CONTINUOUS
0
LAYER
5
209
100
AcDbSymbolTableRecord
100
AcDbLayerTableRecord
2
PIANI
70
0
62
7
6
CONTINUOUS
0
LAYER
5
20A
100
AcDbSymbolTableRecord
100
AcDbLayerTableRecord
2
PIANI_DI_RIFERIMENTO
70
0
62
7
6
CONTINUOUS
0
LAYER
5
20B
100
AcDbSymbolTableRecord
100
AcDbLayerTableRecord
2
PIANI_ORIGINE
70
0
62
7
6
CONTINUOUS
0
LAYER
5
20C
100
AcDbSymbolTableRecord
100
AcDbLayerTableRecord
2
PIANI_SFORMI
70
0
62
7
6
CONTINUOUS
0
LAYER
5
20D
100
AcDbSymbolTableRecord
100
AcDbLayerTableRecord
2
PUNTI
70
0
62
7
6
CONTINUOUS
0
LAYER
5
20E
100
AcDbSymbolTableRecord
100
AcDbLayerTableRecord
2
RACCORDO
70
0
62
7
6
CONTINUOUS
0
LAYER
5
20F
100
AcDbSymbolTableRecord
100
AcDbLayerTableRecord
2
RIFERIMENTI
70
0
62
7
6
CONTINUOUS
0
LAYER
5
210
100
AcDbSymbolTableRecord
100
AcDbLayerTableRecord
2
SMUSSO
70
0
62
7
6
CONTINUOUS
0
LAYER
5
211
100
AcDbSymbolTableRecord
100
AcDbLayerTableRecord
2
SUPERFICI
70
0
62
7
6
CONTINUOUS
0
LAYER
5
212
100
AcDbSymbolTableRecord
100
AcDbLayerTableRecord
2
TRASH
70
0
62
7
6
CONTINUOUS
0
LAYER
5
213
100
AcDbSymbolTableRecord
100
AcDbLayerTableRecord
2
XSEC_DATUMS
70
0
62
7
6
CONTINUOUS
0
ENDTAB
0
TABLE
2
STYLE
5
3
100
AcDbSymbolTable
70
1
0
STYLE
5
11
100
AcDbSymbolTableRecord
100
AcDbTextStyleTableRecord
2
STANDARD
70
0
40
0.0
41
0.8000000000
50
0.0
71
0
42
0.2
3
txt
4

0
ENDTAB
0
TABLE
2
VIEW
5
6
100
AcDbSymbolTable
70
0
0
ENDTAB
0
TABLE
2
UCS
5
7
100
AcDbSymbolTable
70
0
0
ENDTAB
0
TABLE
2
APPID
5
9
100
AcDbSymbolTable
70
1
0
APPID
5
214
100
AcDbSymbolTableRecord
100
AcDbRegAppTableRecord
2
ACAD
70
0
0
ENDTAB
0
TABLE
2
DIMSTYLE
5
A
100
AcDbSymbolTable
70
1
0
DIMSTYLE
105
215
100
AcDbSymbolTableRecord
100
AcDbDimStyleTableRecord
2
STANDARD
70
0
3

4

5

6

7

40
1.0
41
3.0000000000
42
0.0625
43
0.38
44
0.18
45
0.0
46
0.0
47
0.0100000000
48
0.0100000000
140
3.0000000000
141
0.09
142
0.0
143
25.4
144
1.0000000000
145
0.0
146
1.0000000000
147
0.09
71
1
72
0
73
0
74
0
75
0
76
0
77
1
78
8
170
0
171
2
172
0
173
0
174
0
175
0
176
0
177
0
178
0
270
2
271
2
272
2
273
2
274
2
340
11
275
0
280
0
281
0
282
0
283
1
284
8
285
0
286
0
287
3
288
0
0
ENDTAB
0
TABLE
2
BLOCK_RECORD
5
1
100
AcDbSymbolTable
70
0
0
BLOCK_RECORD
5
1B
100
AcDbSymbolTableRecord
100
AcDbBlockTableRecord
2
*MODEL_SPACE
0
BLOCK_RECORD
5
1C
100
AcDbSymbolTableRecord
100
AcDbBlockTableRecord
2
*PAPER_SPACE
0
ENDTAB
0
ENDSEC
0
SECTION
2
BLOCKS
0
BLOCK
5
1E
100
AcDbEntity
8
0
100
AcDbBlockBegin
2
*MODEL_SPACE
70
0
10
0.0
20
0.0
30
0.0
3
*MODEL_SPACE
1

0
ENDBLK
5
1F
100
AcDbEntity
8
0
100
AcDbBlockEnd
0
BLOCK
5
20
100
AcDbEntity
8
0
100
AcDbBlockBegin
2
*PAPER_SPACE
70
0
10
0.0
20
0.0
30
0.0
3
*PAPER_SPACE
1

0
ENDBLK
5
21
100
AcDbEntity
8
0
100
AcDbBlockEnd
0
ENDSEC
0
SECTION
2
ENTITIES
0
LINE
5
216
100
AcDbEntity
8
0
100
AcDbLine
62
7
6
CONTINUOUS
10
11.3270055278
20
-23.5288497732
11
9.4536455340
21
-23.9331695593
0
LINE
5
217
100
AcDbEntity
8
0
100
AcDbLine
62
9
6
CONTINUOUS
10
11.4723137794
20
-23.3362212747
11
9.4203888844
21
-23.7790791635
0
LINE
5
218
100
AcDbEntity
8
0
100
AcDbLine
62
7
6
CONTINUOUS
10
9.2348690335
20
-23.9757580854
11
9.2783548794
21
-23.9685269432
0
LINE
5
219
100
AcDbEntity
8
0
100
AcDbLine
62
7
6
CONTINUOUS
10
2.3071595308
20
-25.0914882746
11
2.4909241691
21
-25.0627405433
0
LINE
5
21A
100
AcDbEntity
8
0
100
AcDbLine
62
3
6
CONTINUOUS
10
2.3046842181
20
-24.6921577595
11
2.4884488565
21
-24.6634100282
0
LINE
5
21B
100
AcDbEntity
8
0
100
AcDbLine
62
7
6
CONTINUOUS
10
9.2187351956
20
-23.9733500919
11
7.6982589540
21
-24.1643097872
0
LINE
5
21C
100
AcDbEntity
8
0
100
AcDbLine
62
9
6
CONTINUOUS
10
9.4200794585
20
-23.7291609480
11
7.8989929337
21
-23.9201972900
0
LINE
5
21D
100
AcDbEntity
8
0
100
AcDbLine
62
7
6
CONTINUOUS
10
2.2915176221
20
-25.0924695386
11
2.3071595308
21
-25.0914882746
0
LINE
5
21E
100
AcDbEntity
8
0
100
AcDbLine
62
3
6
CONTINUOUS
10
2.2979276753
20
-24.6925374211
11
2.3046842181
21
-24.6921577595
0
LINE
5
21F
100
AcDbEntity
8
0
100
AcDbLine
62
7
6
CONTINUOUS
10
2.2917497803
20
-25.0925722098
11
-8.9153962432
21
-24.9151896525
0
LINE
5
220
100
AcDbEntity
8
0
100
AcDbLine
62
7
6
CONTINUOUS
10
-18.0949795699
20
17.1792323977
11
-17.1254534712
21
17.8413441764
0
LINE
5
221
100
AcDbEntity
8
0
100
AcDbLine
62
9
6
CONTINUOUS
10
-17.9454441278
20
17.2240717845
11
-16.9753259772
21
17.8865856429
0
LINE
5
222
100
AcDbEntity
8
0
100
AcDbLine
62
9
6
CONTINUOUS
10
2.1956061070
20
-24.4094333860
11
2.0526439381
21
-24.4317980697
0
LINE
5
223
100
AcDbEntity
8
0
100
AcDbLine
62
7
6
CONTINUOUS
10
2.1937496225
20
-24.1099354997
11
2.0507874536
21
-24.1323001834
0
LINE
5
224
100
AcDbEntity
8
0
100
AcDbLine
62
9
6
CONTINUOUS
10
0.1206051954
20
-24.1017499733
11
0.2635673643
21
-24.0793852896
0
LINE
5
225
100
AcDbEntity
8
0
100
AcDbLine
62
9
6
CONTINUOUS
10
-0.0665995829
20
-23.9165415636
11
0.0763625860
21
-23.8941768798
0
LINE
5
226
100
AcDbEntity
8
0
100
AcDbLine
62
9
6
CONTINUOUS
10
-7.2261763117
20
-23.9854678361
11
-7.1968686903
21
-23.9808830170
0
LINE
5
227
100
AcDbEntity
8
0
100
AcDbLine
62
7
6
CONTINUOUS
10
6.0682317484
20
-22.9949509421
11
3.1748968060
21
-23.3674535665
0
LINE
5
228
100
AcDbEntity
8
0
100
AcDbLine
62
9
6
CONTINUOUS
10
5.3398155237
20
-22.8704430090
11
3.3756676055
21
-23.1233173802
0
LINE
5
229
100
AcDbEntity
8
0
100
AcDbLine
62
9
6
CONTINUOUS
10
5.9516536221
20
-22.6303642736
11
7.8894890934
21
-22.3869875861
0
LINE
5
22A
100
AcDbEntity
8
0
100
AcDbLine
62
7
6
CONTINUOUS
10
7.4645065579
20
-22.6592639143
11
5.7508802954
21
-22.8744817088
0
LINE
5
22B
100
AcDbEntity
8
0
100
AcDbLine
62
9
6
CONTINUOUS
10
2.2503830622
20
-24.6596420110
11
2.4884488565
21
-24.6634100282
0
LINE
5
22C
100
AcDbEntity
8
0
100
AcDbLine
62
9
6
CONTINUOUS
10
2.2385568455
20
-24.6390900760
11
2.5214912984
21
-24.6435682578
0
LINE
5
22D
100
AcDbEntity
8
0
100
AcDbLine
62
9
6
CONTINUOUS
10
-9.1545020854
20
-24.2544155124
11
2.0526439381
21
-24.4317980697
0
LINE
5
22E
100
AcDbEntity
8
0
100
AcDbLine
62
7
6
CONTINUOUS
10
-9.1563585699
20
-23.9549176260
11
-7.2261763117
21
-23.9854678361
0
LINE
5
22F
100
AcDbEntity
8
0
100
AcDbLine
62
7
6
CONTINUOUS
10
0.1206051954
20
-24.1017499733
11
2.0507874536
21
-24.1323001834
0
LINE
5
230
100
AcDbEntity
8
0
100
AcDbLine
62
3
6
CONTINUOUS
10
-9.0133964011
20
-23.9325529423
11
-7.1365408011
21
-23.9622591178
0
LINE
5
231
100
AcDbEntity
8
0
100
AcDbLine
62
3
6
CONTINUOUS
10
0.2635673643
20
-24.0793852896
11
2.1937496225
21
-24.1099354997
0
LINE
5
232
100
AcDbEntity
8
0
100
AcDbLine
62
7
6
CONTINUOUS
10
1.9890777184
20
-23.6920849827
11
0.0559022180
21
-23.6614873968
0
LINE
5
233
100
AcDbEntity
8
0
100
AcDbLine
62
3
6
CONTINUOUS
10
1.9013620824
20
-23.3185583207
11
0.0231345201
21
-23.2888304303
0
LINE
5
234
100
AcDbEntity
8
0
100
AcDbLine
62
7
6
CONTINUOUS
10
5.7158099581
20
-22.8763941097
11
-16.6770065214
21
-22.5219689023
0
LINE
5
235
100
AcDbEntity
8
0
100
AcDbLine
62
9
6
CONTINUOUS
10
-16.7511514840
20
-18.2784275659
11
-17.7274962010
21
-17.9364388470
0
LINE
5
236
100
AcDbEntity
8
0
100
AcDbLine
62
7
6
CONTINUOUS
10
-17.8115030837
20
-17.9211370584
11
-16.8340046143
21
-18.2635359071
0
LINE
5
237
100
AcDbEntity
8
0
100
AcDbLine
62
7
6
CONTINUOUS
10
18.0634881555
20
-17.1908122560
11
11.7231130790
21
-18.5592274098
0
LINE
5
238
100
AcDbEntity
8
0
100
AcDbLine
62
7
6
CONTINUOUS
10
-10.0132621068
20
-23.1910824516
11
-11.8866283525
21
-23.5954036064
0
LINE
5
239
100
AcDbEntity
8
0
100
AcDbLine
62
7
6
CONTINUOUS
10
-12.1054048530
20
-23.6379921325
11
-12.0619190071
21
-23.6307609903
0
LINE
5
23A
100
AcDbEntity
8
0
100
AcDbLine
62
7
6
CONTINUOUS
10
-9.0133964011
20
-23.9325529423
11
-9.1563585699
21
-23.9549176260
0
LINE
5
23B
100
AcDbEntity
8
0
100
AcDbLine
62
7
6
CONTINUOUS
10
-12.0741706013
20
-23.6362386139
11
-13.5591607136
21
-23.8274237774
0
LINE
5
23C
100
AcDbEntity
8
0
100
AcDbLine
62
9
6
CONTINUOUS
10
-11.8734981041
20
-23.3921150835
11
-13.3583899141
21
-23.5832875911
0
LINE
5
23D
100
AcDbEntity
8
0
100
AcDbLine
62
7
6
CONTINUOUS
10
-7.1037564510
20
-22.7734867791
11
-10.0868926552
21
-23.1575508737
0
LINE
5
23E
100
AcDbEntity
8
0
100
AcDbLine
62
9
6
CONTINUOUS
10
-7.9219739375
20
-22.6605403161
11
-9.8861218557
21
-22.9134146874
0
LINE
5
23F
100
AcDbEntity
8
0
100
AcDbLine
62
9
6
CONTINUOUS
10
5.6304150144
20
-22.6404033454
11
-16.7624014650
21
-22.2859781380
0
LINE
5
240
100
AcDbEntity
8
0
100
AcDbLine
62
7
6
CONTINUOUS
10
-18.2118708402
20
-17.0160885744
11
-18.2118703920
21
-17.0161221551
0
LINE
5
241
100
AcDbEntity
8
0
100
AcDbLine
62
9
6
CONTINUOUS
10
-10.7048275635
20
-23.1790727293
11
-11.9198850021
21
-23.4413132106
0
LINE
5
242
100
AcDbEntity
8
0
100
AcDbLine
62
9
6
CONTINUOUS
10
18.4280162490
20
-16.7089676881
11
11.7086172394
21
-18.1591859037
0
LINE
5
243
100
AcDbEntity
8
0
100
AcDbLine
62
7
6
CONTINUOUS
10
6.6117758629
20
-19.2010771581
11
5.9310250668
21
-19.3024567759
0
LINE
5
244
100
AcDbEntity
8
0
100
AcDbLine
62
7
6
CONTINUOUS
10
5.5318791972
20
-18.6293078969
11
7.3988538372
21
-18.4383836022
0
LINE
5
245
100
AcDbEntity
8
0
100
AcDbLine
62
9
6
CONTINUOUS
10
5.7882585744
20
-18.3347079957
11
7.6464202912
21
-18.1446849457
0
LINE
5
246
100
AcDbEntity
8
0
100
AcDbLine
62
7
6
CONTINUOUS
10
5.5322725006
20
-18.6292638575
11
5.5019180546
21
-18.6306409104
0
LINE
5
247
100
AcDbEntity
8
0
100
AcDbLine
62
7
6
CONTINUOUS
10
-16.7830300204
20
-18.9580706403
11
5.6097864591
21
-19.3124958477
0
LINE
5
248
100
AcDbEntity
8
0
100
AcDbLine
62
9
6
CONTINUOUS
10
-16.3073252126
20
-18.8383221352
11
6.6117758629
21
-19.2010771581
0
LINE
5
249
100
AcDbEntity
8
0
100
AcDbLine
62
7
6
CONTINUOUS
10
-9.9994112796
20
-18.4634352431
11
-7.3376835791
21
-18.5055640836
0
LINE
5
24A
100
AcDbEntity
8
0
100
AcDbLine
62
7
6
CONTINUOUS
10
-7.3364098846
20
-18.5047284333
11
-0.0517649693
21
-18.6200270956
0
LINE
5
24B
100
AcDbEntity
8
0
100
AcDbLine
62
7
6
CONTINUOUS
10
-0.0053420595
20
-18.5898181028
11
-0.0042556481
21
-18.5898352981
0
LINE
5
24C
100
AcDbEntity
8
0
100
AcDbLine
62
7
6
CONTINUOUS
10
-16.7503876029
20
-18.2784396563
11
5.5011541735
21
-18.6306288199
0
LINE
5
24D
100
AcDbEntity
8
0
100
AcDbLine
62
7
6
CONTINUOUS
10
-16.9230453067
20
-22.2735498450
11
-16.9436738620
21
-18.9456423474
0
LINE
5
24E
100
AcDbEntity
8
0
100
AcDbLine
62
7
6
CONTINUOUS
10
-17.1763532542
20
18.5914260717
11
-17.1969818095
21
21.9193335693
0
LINE
5
24F
100
AcDbEntity
8
0
100
AcDbLine
62
9
6
CONTINUOUS
10
-16.7624014650
20
-22.2859781380
11
-16.7830300204
21
-18.9580706403
0
LINE
5
250
100
AcDbEntity
8
0
100
AcDbLine
62
9
6
CONTINUOUS
10
-17.0157094125
20
18.5789977787
11
-17.0363379678
21
21.9069052764
0
LINE
5
251
100
AcDbEntity
8
0
100
AcDbLine
62
7
6
CONTINUOUS
10
-7.3376835791
20
-18.5055640836
11
-7.3364061738
21
-18.5053270733
0
LINE
5
252
100
AcDbEntity
8
0
100
AcDbLine
62
7
6
CONTINUOUS
10
-7.3334335995
20
-18.5047755409
11
-6.9496197339
21
-18.4335625810
0
LINE
5
253
100
AcDbEntity
8
0
100
AcDbLine
62
9
6
CONTINUOUS
10
-9.6020757716
20
-18.3915804890
11
-9.9994112796
21
-18.4634352431
0
LINE
5
254
100
AcDbEntity
8
0
100
AcDbLine
62
9
6
CONTINUOUS
10
4.4325493333
20
-18.2871798420
11
-17.7274962010
21
-17.9364388470
0
LINE
5
255
100
AcDbEntity
8
0
100
AcDbLine
62
7
6
CONTINUOUS
10
7.6449273864
20
-17.9038416600
11
8.8230076038
21
-17.9224878774
0
LINE
5
256
100
AcDbEntity
8
0
100
AcDbLine
62
9
6
CONTINUOUS
10
4.1222089944
20
-17.3891751037
11
-18.0189946727
21
-17.0387323308
0
LINE
5
257
100
AcDbEntity
8
0
100
AcDbLine
62
7
6
CONTINUOUS
10
7.6397530265
20
-17.0690866010
11
8.8178332440
21
-17.0877328184
0
LINE
5
258
100
AcDbEntity
8
0
100
AcDbLine
62
7
6
CONTINUOUS
10
-15.1929057408
20
-22.5454586999
11
-15.1865389609
21
-23.5725812632
0
LINE
5
259
100
AcDbEntity
8
0
100
AcDbLine
62
7
6
CONTINUOUS
10
-15.4718543193
20
22.4559992305
11
-15.4800175378
21
23.7729327564
0
LINE
5
25A
100
AcDbEntity
8
0
100
AcDbLine
62
7
6
CONTINUOUS
10
-16.3073252126
20
-18.8383221352
11
-16.9286847093
21
-18.9406417544
0
LINE
5
25B
100
AcDbEntity
8
0
100
AcDbLine
62
9
6
CONTINUOUS
10
4.4325493333
20
-18.2871798420
11
5.5019180546
21
-18.6306409104
0
LINE
5
25C
100
AcDbEntity
8
0
100
AcDbLine
62
9
6
CONTINUOUS
10
4.7276045956
20
-17.9940459383
11
5.7882585744
21
-18.3347079957
0
LINE
5
25D
100
AcDbEntity
8
0
100
AcDbLine
62
9
6
CONTINUOUS
10
-13.3646436880
20
-22.5743957547
11
-13.3583899141
21
-23.5832875911
0
LINE
5
25E
100
AcDbEntity
8
0
100
AcDbLine
62
9
6
CONTINUOUS
10
-13.6439379166
20
22.4828242720
11
-13.6518947453
21
23.7664619072
0
LINE
5
25F
100
AcDbEntity
8
0
100
AcDbLine
62
9
6
CONTINUOUS
10
-9.8761766123
20
23.5616834548
11
-9.8761610840
21
23.5618310297
0
LINE
5
260
100
AcDbEntity
8
0
100
AcDbLine
62
7
6
CONTINUOUS
10
-6.2335592647
20
-18.5101443257
11
-6.2558102113
21
-18.4497804807
0
LINE
5
261
100
AcDbEntity
8
0
100
AcDbLine
62
7
6
CONTINUOUS
10
-11.9251174937
20
-22.5971800423
11
-11.9198850021
21
-23.4413132106
0
LINE
5
262
100
AcDbEntity
8
0
100
AcDbLine
62
7
6
CONTINUOUS
10
-11.8734981041
20
-23.3921150835
11
-11.8784210519
21
-22.5979191363
0
LINE
5
263
100
AcDbEntity
8
0
100
AcDbLine
62
7
6
CONTINUOUS
10
-12.1594847741
20
22.7447649555
11
-12.1674416029
21
24.0284025907
0
LINE
5
264
100
AcDbEntity
8
0
100
AcDbLine
62
7
6
CONTINUOUS
10
-11.4692306088
20
-22.6043956511
11
-11.4673718683
21
-22.9042574813
0
LINE
5
265
100
AcDbEntity
8
0
100
AcDbLine
62
7
6
CONTINUOUS
10
-11.7479094049
20
22.3535395589
11
-11.7510083125
21
22.8534717114
0
LINE
5
266
100
AcDbEntity
8
0
100
AcDbLine
62
9
6
CONTINUOUS
10
5.2777435614
20
17.5343722984
11
4.2146014064
21
16.8733307895
0
LINE
5
267
100
AcDbEntity
8
0
100
AcDbLine
62
9
6
CONTINUOUS
10
5.5677913848
20
17.2322234115
11
4.5133132295
21
16.5765690123
0
LINE
5
268
100
AcDbEntity
8
0
100
AcDbLine
62
9
6
CONTINUOUS
10
-6.1199302593
20
-18.5239824224
11
-6.1601453648
21
-18.4148842147
0
LINE
5
269
100
AcDbEntity
8
0
100
AcDbLine
62
9
6
CONTINUOUS
10
-9.8878822124
20
-22.6294246479
11
-9.8861218557
21
-22.9134146874
0
LINE
5
26A
100
AcDbEntity
8
0
100
AcDbLine
62
9
6
CONTINUOUS
10
-10.1666855294
20
22.3485989362
11
-10.1697797291
21
22.8477715833
0
LINE
5
26B
100
AcDbEntity
8
0
100
AcDbLine
62
9
6
CONTINUOUS
10
-9.8872687154
20
23.4152688996
11
-9.8881524058
21
23.5578305011
0
LINE
5
26C
100
AcDbEntity
8
0
100
AcDbLine
62
7
6
CONTINUOUS
10
-9.8752663915
20
23.4174945113
11
-9.8761610838
21
23.5618310121
0
LINE
5
26D
100
AcDbEntity
8
0
100
AcDbLine
62
7
6
CONTINUOUS
10
-9.1563585699
20
-23.9549176260
11
-9.1545020854
21
-24.2544155124
0
LINE
5
26E
100
AcDbEntity
8
0
100
AcDbLine
62
7
6
CONTINUOUS
10
-9.4537696791
20
24.0250132586
11
-9.4556261636
21
24.3245111449
0
LINE
5
26F
100
AcDbEntity
8
0
100
AcDbLine
62
7
6
CONTINUOUS
10
-5.3281491277
20
18.3940114023
11
-5.4010589939
21
18.0969537595
0
LINE
5
270
100
AcDbEntity
8
0
100
AcDbLine
62
9
6
CONTINUOUS
10
-2.4261594742
20
-8.3482381592
11
-11.7654478272
21
-8.2004193614
0
LINE
5
271
100
AcDbEntity
8
0
100
AcDbLine
62
7
6
CONTINUOUS
10
-5.0386730085
20
-18.4638083381
11
-5.0188186261
21
-18.5414104096
0
LINE
5
272
100
AcDbEntity
8
0
100
AcDbLine
62
7
6
CONTINUOUS
10
-6.5178360695
20
18.4128413267
11
-6.5165117198
21
18.1991902398
0
LINE
5
273
100
AcDbEntity
8
0
100
AcDbLine
62
9
6
CONTINUOUS
10
-6.3893700233
20
18.4108080137
11
-6.3875213304
21
18.1125671201
0
LINE
5
274
100
AcDbEntity
8
0
100
AcDbLine
62
7
6
CONTINUOUS
10
-0.5940227727
20
-18.6114444399
11
-0.6380132506
21
-18.5022864770
0
LINE
5
275
100
AcDbEntity
8
0
100
AcDbLine
62
7
6
CONTINUOUS
10
-7.3363826426
20
23.8092546388
11
-7.2099389538
21
22.3712493907
0
LINE
5
276
100
AcDbEntity
8
0
100
AcDbLine
62
7
6
CONTINUOUS
10
-5.1765707367
20
-18.5389135676
11
-5.1772431194
21
-18.4304412275
0
LINE
5
277
100
AcDbEntity
8
0
100
AcDbLine
62
7
6
CONTINUOUS
10
-6.9556158713
20
-22.6758354738
11
-7.0412311084
21
-23.8061496784
0
LINE
5
278
100
AcDbEntity
8
0
100
AcDbLine
62
7
6
CONTINUOUS
10
-0.0665995829
20
-23.9165415636
11
-0.1662458549
21
-22.7832951084
0
LINE
5
279
100
AcDbEntity
8
0
100
AcDbLine
62
3
6
CONTINUOUS
10
0.0763625860
20
-23.8941768798
11
-0.0211151795
21
-22.7855921829
0
LINE
5
27A
100
AcDbEntity
8
0
100
AcDbLine
62
7
6
CONTINUOUS
10
-0.4703904688
20
22.2645783129
11
-0.3617511171
21
23.6988627537
0
LINE
5
27B
100
AcDbEntity
8
0
100
AcDbLine
62
3
6
CONTINUOUS
10
-0.3291826521
20
22.2637815917
11
-0.2187889482
21
23.7212274374
0
LINE
5
27C
100
AcDbEntity
8
0
100
AcDbLine
62
7
6
CONTINUOUS
10
-0.6372609203
20
-18.6236563839
11
-0.6380132506
21
-18.5022864770
0
LINE
5
27D
100
AcDbEntity
8
0
100
AcDbLine
62
9
6
CONTINUOUS
10
0.1194229024
20
18.0095776162
11
0.1175742096
21
18.3078185098
0
LINE
5
27E
100
AcDbEntity
8
0
100
AcDbLine
62
9
6
CONTINUOUS
10
1.8677172638
20
23.7415920446
11
1.8540512605
21
23.6152374336
0
LINE
5
27F
100
AcDbEntity
8
0
100
AcDbLine
62
9
6
CONTINUOUS
10
2.2168359769
20
24.5050372323
11
2.2586595544
21
24.8917341882
0
LINE
5
280
100
AcDbEntity
8
0
100
AcDbLine
62
7
6
CONTINUOUS
10
7.5356115979
20
-0.2684413171
11
7.5914251436
21
-0.2693247132
0
LINE
5
281
100
AcDbEntity
8
0
100
AcDbLine
62
7
6
CONTINUOUS
10
-2.6826332739
20
18.3521391570
11
-2.6659618280
21
18.2190534304
0
LINE
5
282
100
AcDbEntity
8
0
100
AcDbLine
62
9
6
CONTINUOUS
10
2.1673309530
20
-23.5013463853
11
2.1520870245
21
-23.3791919734
0
LINE
5
283
100
AcDbEntity
8
0
100
AcDbLine
62
9
6
CONTINUOUS
10
2.5214912984
20
-24.6435682578
11
2.5680232004
21
-25.0164430790
0
LINE
5
284
100
AcDbEntity
8
0
100
AcDbLine
62
9
6
CONTINUOUS
10
0.3756992274
20
18.1328856638
11
0.3746400995
21
18.3037497661
0
LINE
5
285
100
AcDbEntity
8
0
100
AcDbLine
62
7
6
CONTINUOUS
10
1.0493058528
20
18.2930714064
11
1.0509400149
21
18.0294397530
0
LINE
5
286
100
AcDbEntity
8
0
100
AcDbLine
62
7
6
CONTINUOUS
10
1.7925588524
20
-22.8142983439
11
1.7944175929
21
-23.1141601741
0
LINE
5
287
100
AcDbEntity
8
0
100
AcDbLine
62
7
6
CONTINUOUS
10
1.5138800563
20
22.1436368661
11
1.5107811486
21
22.6435690185
0
LINE
5
288
100
AcDbEntity
8
0
100
AcDbLine
62
7
6
CONTINUOUS
10
2.0507874536
20
-24.1323001834
11
2.0526439381
21
-24.4317980697
0
LINE
5
289
100
AcDbEntity
8
0
100
AcDbLine
62
7
6
CONTINUOUS
10
1.7533763445
20
23.8476307013
11
1.7515198600
21
24.1471285876
0
LINE
5
28A
100
AcDbEntity
8
0
100
AcDbLine
62
3
6
CONTINUOUS
10
2.1937496225
20
-24.1099354997
11
2.1956061070
21
-24.4094333860
0
LINE
5
28B
100
AcDbEntity
8
0
100
AcDbLine
62
3
6
CONTINUOUS
10
1.8963385133
20
23.8699953850
11
1.8944820288
21
24.1694932713
0
LINE
5
28C
100
AcDbEntity
8
0
100
AcDbLine
62
9
6
CONTINUOUS
10
2.3046842181
20
-24.6921577595
11
2.3071595308
21
-25.0914882746
0
LINE
5
28D
100
AcDbEntity
8
0
100
AcDbLine
62
9
6
CONTINUOUS
10
1.9998471709
20
24.4857646704
11
1.9973718583
21
24.8850951855
0
LINE
5
28E
100
AcDbEntity
8
0
100
AcDbLine
62
9
6
CONTINUOUS
10
2.4884488565
20
-24.6634100282
11
2.4909241691
21
-25.0627405433
0
LINE
5
28F
100
AcDbEntity
8
0
100
AcDbLine
62
9
6
CONTINUOUS
10
2.1836118093
20
24.5145124017
11
2.1811364966
21
24.9138429168
0
LINE
5
290
100
AcDbEntity
8
0
100
AcDbLine
62
9
6
CONTINUOUS
10
3.3739072488
20
-22.8393273408
11
3.3756676055
21
-23.1233173802
0
LINE
5
291
100
AcDbEntity
8
0
100
AcDbLine
62
9
6
CONTINUOUS
10
3.0951039318
20
22.1386962433
11
3.0920097320
21
22.6378688905
0
LINE
5
292
100
AcDbEntity
8
0
100
AcDbLine
62
7
6
CONTINUOUS
10
-0.8670394341
20
18.0251909768
11
-0.9436466860
21
18.3246151212
0
LINE
5
293
100
AcDbEntity
8
0
100
AcDbLine
62
9
6
CONTINUOUS
10
5.3564785116
20
21.5524800690
11
5.3771070669
21
18.2245725714
0
LINE
5
294
100
AcDbEntity
8
0
100
AcDbLine
62
9
6
CONTINUOUS
10
5.6097864591
20
-19.3124958477
11
5.6304150144
21
-22.6404033454
0
LINE
5
295
100
AcDbEntity
8
0
100
AcDbLine
62
9
6
CONTINUOUS
10
5.6777171193
20
21.5625191408
11
5.6983456746
21
18.2346116431
0
LINE
5
296
100
AcDbEntity
8
0
100
AcDbLine
62
9
6
CONTINUOUS
10
5.9310250668
20
-19.3024567759
11
5.9516536221
21
-22.6303642736
0
LINE
5
297
100
AcDbEntity
8
0
100
AcDbLine
62
7
6
CONTINUOUS
10
6.0672387155
20
-22.8347496168
11
6.0738981370
21
-23.9090826624
0
LINE
5
298
100
AcDbEntity
8
0
100
AcDbLine
62
7
6
CONTINUOUS
10
5.7883811125
20
22.1520316661
11
5.7804195715
21
23.4364295037
0
LINE
5
299
100
AcDbEntity
8
0
100
AcDbLine
62
7
6
CONTINUOUS
10
7.5914251436
20
-0.2693247132
11
8.8178332440
21
-17.0877328184
0
LINE
5
29A
100
AcDbEntity
8
0
100
AcDbLine
62
7
6
CONTINUOUS
10
7.6464202912
20
-18.1446849457
11
7.4248792406
21
17.5954873854
0
LINE
5
29B
100
AcDbEntity
8
0
100
AcDbLine
62
9
6
CONTINUOUS
10
7.8894890934
20
-22.3869875861
11
7.8989929337
21
-23.9201972900
0
LINE
5
29C
100
AcDbEntity
8
0
100
AcDbLine
62
9
6
CONTINUOUS
10
7.6149925995
20
21.8962365525
11
7.6054887592
21
23.4294462564
0
LINE
5
29D
100
AcDbEntity
8
0
100
AcDbLine
62
7
6
CONTINUOUS
10
8.6072603068
20
16.8830055358
11
7.5914251436
21
-0.2693247132
0
LINE
5
29E
100
AcDbEntity
8
0
100
AcDbLine
62
9
6
CONTINUOUS
10
-2.5213985716
20
7.0162360363
11
-11.8606869246
21
7.1640548341
0
LINE
5
29F
100
AcDbEntity
8
0
100
AcDbLine
62
7
6
CONTINUOUS
10
8.6020859469
20
17.7177605949
11
8.6072603068
21
16.8830055358
0
LINE
5
2A0
100
AcDbEntity
8
0
100
AcDbLine
62
7
6
CONTINUOUS
10
8.8178332440
20
-17.0877328184
11
8.8230076038
21
-17.9224878774
0
LINE
5
2A1
100
AcDbEntity
8
0
100
AcDbLine
62
7
6
CONTINUOUS
10
9.4203888844
20
-23.7790791635
11
9.1258262982
21
23.7413129529
0
LINE
5
2A2
100
AcDbEntity
8
0
100
AcDbLine
62
9
6
CONTINUOUS
10
11.4640972742
20
23.2239175042
11
11.4641128025
21
23.2240650780
0
LINE
5
2A3
100
AcDbEntity
8
0
100
AcDbLine
62
3
6
CONTINUOUS
10
-8.1989987204
20
-23.9454429272
11
-7.0116681013
21
-22.6749482998
0
LINE
5
2A4
100
AcDbEntity
8
0
100
AcDbLine
62
9
6
CONTINUOUS
10
11.7354843516
20
-22.4935303396
11
11.7086172394
21
-18.1591859037
0
LINE
5
2A5
100
AcDbEntity
8
0
100
AcDbLine
62
9
6
CONTINUOUS
10
11.4789885929
20
18.8857201123
11
11.4521214807
21
23.2200645482
0
LINE
5
2A6
100
AcDbEntity
8
0
100
AcDbLine
62
7
6
CONTINUOUS
10
11.7212683013
20
-18.2616181366
11
11.7474756740
21
-22.4895299086
0
LINE
5
2A7
100
AcDbEntity
8
0
100
AcDbLine
62
7
6
CONTINUOUS
10
11.4903201756
20
18.9961532345
11
11.4641128026
21
23.2240650608
0
LINE
5
2A8
100
AcDbEntity
8
0
100
AcDbLine
62
9
6
CONTINUOUS
10
0.4683436697
20
18.0050157465
11
0.3756992274
21
18.1328856638
0
LINE
5
2A9
100
AcDbEntity
8
0
100
AcDbLine
62
9
6
CONTINUOUS
10
11.7474756740
20
-22.4895299168
11
11.7474696165
21
-22.4896236527
0
LINE
5
2AA
100
AcDbEntity
8
0
100
AcDbLine
62
3
6
CONTINUOUS
10
-8.0810965757
20
24.0032870970
11
-7.3022929865
21
23.4215634474
0
LINE
5
2AB
100
AcDbEntity
8
0
100
AcDbLine
62
9
6
CONTINUOUS
10
7.4248792406
20
17.5954873854
11
5.5677913848
21
17.2322234115
0
LINE
5
2AC
100
AcDbEntity
8
0
100
AcDbLine
62
9
6
CONTINUOUS
10
7.1428870608
20
17.8993735452
11
5.2769796803
21
17.5343843888
0
LINE
5
2AD
100
AcDbEntity
8
0
100
AcDbLine
62
9
6
CONTINUOUS
10
3.9159643216
20
15.8833047793
11
-18.2252393455
21
16.2337475523
0
LINE
5
2AE
100
AcDbEntity
8
0
100
AcDbLine
62
9
6
CONTINUOUS
10
18.2026445978
20
19.6491773572
11
18.4280162490
21
-16.7089676881
0
LINE
5
2AF
100
AcDbEntity
8
0
100
AcDbLine
62
7
6
CONTINUOUS
10
18.2326229032
20
19.6591785432
11
18.4579945544
21
-16.6989665022
0
LINE
5
2B0
100
AcDbEntity
8
0
100
AcDbLine
62
3
6
CONTINUOUS
10
1.6072540502
20
-24.1006526649
11
2.2641873136
21
-23.3977059302
0
LINE
5
2B1
100
AcDbEntity
8
0
100
AcDbLine
62
3
6
CONTINUOUS
10
2.5214912984
20
-24.6435682578
11
3.7878195475
21
-23.2885427821
0
LINE
5
2B2
100
AcDbEntity
8
0
100
AcDbLine
62
7
6
CONTINUOUS
10
2.5680232004
20
-25.0164430790
11
4.2368442511
21
-23.2307330630
0
LINE
5
2B3
100
AcDbEntity
8
0
100
AcDbLine
62
7
6
CONTINUOUS
10
5.6983456746
20
18.2346116431
11
6.3790964707
21
18.3359912610
0
LINE
5
2B4
100
AcDbEntity
8
0
100
AcDbLine
62
7
6
CONTINUOUS
10
-3.7022029213
20
18.0710256136
11
-2.6659618280
21
18.2190534304
0
LINE
5
2B5
100
AcDbEntity
8
0
100
AcDbLine
62
9
6
CONTINUOUS
10
1.0509400149
20
18.0294397530
11
0.8423102557
21
18.0008038548
0
LINE
5
2B6
100
AcDbEntity
8
0
100
AcDbLine
62
9
6
CONTINUOUS
10
11.4789885929
20
18.8857201123
11
18.2026445978
21
19.6491773572
0
LINE
5
2B7
100
AcDbEntity
8
0
100
AcDbLine
62
9
6
CONTINUOUS
10
11.4875284276
20
19.4465327748
11
17.7326576315
21
20.1556542903
0
LINE
5
2B8
100
AcDbEntity
8
0
100
AcDbLine
62
9
6
CONTINUOUS
10
4.2146014064
20
16.8733307895
11
-17.9454441278
21
17.2240717845
0
LINE
5
2B9
100
AcDbEntity
8
0
100
AcDbLine
62
7
6
CONTINUOUS
10
7.4291800893
20
16.9016517533
11
8.6072603068
21
16.8830055358
0
LINE
5
2BA
100
AcDbEntity
8
0
100
AcDbLine
62
7
6
CONTINUOUS
10
-16.9753259772
20
17.8865856429
11
5.2777435614
21
17.5343722984
0
LINE
5
2BB
100
AcDbEntity
8
0
100
AcDbLine
62
7
6
CONTINUOUS
10
7.3905917610
20
17.7369356762
11
8.6020859469
21
17.7177605949
0
LINE
5
2BC
100
AcDbEntity
8
0
100
AcDbLine
62
7
6
CONTINUOUS
10
-15.2714903314
20
18.2541400107
11
7.1428870608
21
17.8993735452
0
LINE
5
2BD
100
AcDbEntity
8
0
100
AcDbLine
62
7
6
CONTINUOUS
10
-17.0157094125
20
18.5789977787
11
5.3771070669
21
18.2245725714
0
LINE
5
2BE
100
AcDbEntity
8
0
100
AcDbLine
62
9
6
CONTINUOUS
10
18.4579945120
20
-16.6989610969
11
18.4579635429
21
-16.6992973191
0
LINE
5
2BF
100
AcDbEntity
8
0
100
AcDbLine
62
9
6
CONTINUOUS
10
7.6149925995
20
21.8962365525
11
5.6777171193
21
21.5625191408
0
LINE
5
2C0
100
AcDbEntity
8
0
100
AcDbLine
62
9
6
CONTINUOUS
10
7.1421209193
20
22.1085140364
11
5.4435031278
21
21.8159080861
0
LINE
5
2C1
100
AcDbEntity
8
0
100
AcDbLine
62
9
6
CONTINUOUS
10
17.7403088348
20
20.1560199624
11
17.7326576315
21
20.1556542903
0
LINE
5
2C2
100
AcDbEntity
8
0
100
AcDbLine
62
9
6
CONTINUOUS
10
11.4825196256
20
20.2545791603
11
17.7326576315
21
20.1556542903
0
LINE
5
2C3
100
AcDbEntity
8
0
100
AcDbLine
62
7
6
CONTINUOUS
10
11.4825166053
20
20.2550664192
11
17.7405453326
21
20.1560166578
0
LINE
5
2C4
100
AcDbEntity
8
0
100
AcDbLine
62
3
6
CONTINUOUS
10
1.9724720196
20
23.6633459763
11
1.7251561949
21
23.8480773594
0
LINE
5
2C5
100
AcDbEntity
8
0
100
AcDbLine
62
3
6
CONTINUOUS
10
2.2168359769
20
24.5050372323
11
3.8410100326
21
23.2918681196
0
LINE
5
2C6
100
AcDbEntity
8
0
100
AcDbLine
62
9
6
CONTINUOUS
10
-16.9745620961
20
17.8865735525
11
-15.2714903314
21
18.2541400107
0
LINE
5
2C7
100
AcDbEntity
8
0
100
AcDbLine
62
7
6
CONTINUOUS
10
-17.0337896789
20
17.8807342847
11
-15.3307381422
21
18.2482963772
0
LINE
5
2C8
100
AcDbEntity
8
0
100
AcDbLine
62
9
6
CONTINUOUS
10
5.0377068121
20
23.5093934182
11
1.7942664238
21
22.9079566741
0
LINE
5
2C9
100
AcDbEntity
8
0
100
AcDbLine
62
9
6
CONTINUOUS
10
7.4702759447
20
23.9631208484
11
6.0719545812
21
23.7038277068
0
LINE
5
2CA
100
AcDbEntity
8
0
100
AcDbLine
62
7
6
CONTINUOUS
10
4.9945785832
20
23.5057763251
11
1.7510122569
21
22.9043162282
0
LINE
5
2CB
100
AcDbEntity
8
0
100
AcDbLine
62
7
6
CONTINUOUS
10
1.7510457187
20
22.9043224304
11
1.7510122571
21
22.9043162282
0
LINE
5
2CC
100
AcDbEntity
8
0
100
AcDbLine
62
7
6
CONTINUOUS
10
7.4470762872
20
23.9631991447
11
6.0287004143
21
23.7001872608
0
LINE
5
2CD
100
AcDbEntity
8
0
100
AcDbLine
62
7
6
CONTINUOUS
10
5.7855210223
20
22.6134365174
11
3.0951039318
21
22.1386962433
0
LINE
5
2CE
100
AcDbEntity
8
0
100
AcDbLine
62
9
6
CONTINUOUS
10
3.0920097320
20
22.6378688905
11
5.7824268225
21
23.1126091645
0
LINE
5
2CF
100
AcDbEntity
8
0
100
AcDbLine
62
7
6
CONTINUOUS
10
1.5111610117
20
22.5822874966
11
-0.3051783843
21
22.2619633972
0
LINE
5
2D0
100
AcDbEntity
8
0
100
AcDbLine
62
9
6
CONTINUOUS
10
2.8569894020
20
22.8911362884
11
5.7806018382
21
23.4070252834
0
LINE
5
2D1
100
AcDbEntity
8
0
100
AcDbLine
62
9
6
CONTINUOUS
10
7.6054887592
20
23.4294462564
11
9.1261357240
21
23.6913947373
0
LINE
5
2D2
100
AcDbEntity
8
0
100
AcDbLine
62
9
6
CONTINUOUS
10
7.3712747677
20
23.6828352017
11
8.8911066202
21
23.9446432704
0
LINE
5
2D3
100
AcDbEntity
8
0
100
AcDbLine
62
7
6
CONTINUOUS
10
7.4901849202
20
23.9668165403
11
7.4670304396
21
23.9638382174
0
LINE
5
2D4
100
AcDbEntity
8
0
100
AcDbLine
62
7
6
CONTINUOUS
10
5.6084138381
20
23.6140873881
11
5.0298205511
21
23.5414206835
0
LINE
5
2D5
100
AcDbEntity
8
0
100
AcDbLine
62
9
6
CONTINUOUS
10
11.1790511658
20
23.9744523936
11
9.1258262982
21
23.7413129529
0
LINE
5
2D6
100
AcDbEntity
8
0
100
AcDbLine
62
9
6
CONTINUOUS
10
10.9910563793
20
24.1770431668
11
8.9378315116
21
23.9439037261
0
LINE
5
2D7
100
AcDbEntity
8
0
100
AcDbLine
62
9
6
CONTINUOUS
10
9.7396002602
20
24.1968507509
11
7.4901849202
21
23.9668165403
0
LINE
5
2D8
100
AcDbEntity
8
0
100
AcDbLine
62
7
6
CONTINUOUS
10
9.7192435264
20
24.1959830838
11
7.4697529656
21
23.9659411808
0
LINE
5
2D9
100
AcDbEntity
8
0
100
AcDbLine
62
9
6
CONTINUOUS
10
5.3564785116
20
21.5524800690
11
-17.0363379678
21
21.9069052764
0
LINE
5
2DA
100
AcDbEntity
8
0
100
AcDbLine
62
9
6
CONTINUOUS
10
5.4435031278
20
21.8159080861
11
-16.9493133516
21
22.1703332934
0
LINE
5
2DB
100
AcDbEntity
8
0
100
AcDbLine
62
7
6
CONTINUOUS
10
-7.5898232996
20
22.3772620595
11
-0.3051783843
21
22.2619633972
0
LINE
5
2DC
100
AcDbEntity
8
0
100
AcDbLine
62
9
6
CONTINUOUS
10
-0.2500040355
20
22.2716937778
11
-0.3284892538
21
22.2729360127
0
LINE
5
2DD
100
AcDbEntity
8
0
100
AcDbLine
62
7
6
CONTINUOUS
10
2.2586595544
20
24.8917341882
11
4.2892588480
21
23.3749876704
0
LINE
5
2DE
100
AcDbEntity
8
0
100
AcDbLine
62
9
6
CONTINUOUS
10
-15.3989105757
20
22.4652851361
11
-16.9493133516
21
22.1703332934
0
LINE
5
2DF
100
AcDbEntity
8
0
100
AcDbLine
62
7
6
CONTINUOUS
10
-16.9937091537
20
22.1664784075
11
-15.4241863047
21
22.4650676926
0
LINE
5
2E0
100
AcDbEntity
8
0
100
AcDbLine
62
7
6
CONTINUOUS
10
-7.5898232996
20
22.3772620595
11
-7.2165573134
21
22.4465179621
0
LINE
5
2E1
100
AcDbEntity
8
0
100
AcDbLine
62
9
6
CONTINUOUS
10
-8.2240826491
20
23.7192961110
11
-11.4675230374
21
23.1178593670
0
LINE
5
2E2
100
AcDbEntity
8
0
100
AcDbLine
62
7
6
CONTINUOUS
10
-11.5107437425
20
23.1142251232
11
-11.5107772041
21
23.1142189211
0
LINE
5
2E3
100
AcDbEntity
8
0
100
AcDbLine
62
7
6
CONTINUOUS
10
-8.2672110852
20
23.7156789796
11
-11.5107772043
21
23.1142189210
0
LINE
5
2E4
100
AcDbEntity
8
0
100
AcDbLine
62
7
6
CONTINUOUS
10
-10.1666855294
20
22.3485989362
11
-7.2531529828
21
22.8627092741
0
LINE
5
2E5
100
AcDbEntity
8
0
100
AcDbLine
62
9
6
CONTINUOUS
10
-10.1697797291
20
22.8477715833
11
-7.2964218539
21
23.3547928589
0
LINE
5
2E6
100
AcDbEntity
8
0
100
AcDbLine
62
7
6
CONTINUOUS
10
-11.7507815123
20
22.8168831037
11
-13.6439379166
21
22.4828242720
0
LINE
5
2E7
100
AcDbEntity
8
0
100
AcDbLine
62
9
6
CONTINUOUS
10
-10.4048000592
20
23.1010389812
11
-7.5480491596
21
23.6051298561
0
LINE
5
2E8
100
AcDbEntity
8
0
100
AcDbLine
62
7
6
CONTINUOUS
10
1.8963385133
20
23.8699953850
11
1.7533763445
21
23.8476307013
0
LINE
5
2E9
100
AcDbEntity
8
0
100
AcDbLine
62
9
6
CONTINUOUS
10
-0.3617511171
20
23.6988627537
11
-0.2187889482
21
23.7212274374
0
LINE
5
2EA
100
AcDbEntity
8
0
100
AcDbLine
62
9
6
CONTINUOUS
10
1.8944820288
20
24.1694932713
11
1.7515198600
21
24.1471285876
0
LINE
5
2EB
100
AcDbEntity
8
0
100
AcDbLine
62
3
6
CONTINUOUS
10
1.9998471709
20
24.4857646704
11
2.1836118093
21
24.5145124017
0
LINE
5
2EC
100
AcDbEntity
8
0
100
AcDbLine
62
7
6
CONTINUOUS
10
1.9973718583
20
24.8850951855
11
2.1811364966
21
24.9138429168
0
LINE
5
2ED
100
AcDbEntity
8
0
100
AcDbLine
62
9
6
CONTINUOUS
10
-7.7778133002
20
23.7767510919
11
-8.2240826491
21
23.7192961110
0
LINE
5
2EE
100
AcDbEntity
8
0
100
AcDbLine
62
7
6
CONTINUOUS
10
-7.7804061860
20
23.7786878356
11
-8.2553372889
21
23.7175427951
0
LINE
5
2EF
100
AcDbEntity
8
0
100
AcDbLine
62
9
6
CONTINUOUS
10
11.0048246757
20
24.1777911707
11
10.9910563793
21
24.1770431668
0
LINE
5
2F0
100
AcDbEntity
8
0
100
AcDbLine
62
9
6
CONTINUOUS
10
11.0048286842
20
24.1777911553
11
10.9910563793
21
24.1770431668
0
LINE
5
2F1
100
AcDbEntity
8
0
100
AcDbLine
62
9
6
CONTINUOUS
10
-10.3354452023
20
24.5155571082
11
-10.3492175072
21
24.5148091198
0
LINE
5
2F2
100
AcDbEntity
8
0
100
AcDbLine
62
9
6
CONTINUOUS
10
-10.3354492108
20
24.5155571236
11
-10.3492175072
21
24.5148091198
0
LINE
5
2F3
100
AcDbEntity
8
0
100
AcDbLine
62
9
6
CONTINUOUS
10
9.7559392891
20
24.1975665625
11
9.7192435265
21
24.1959830838
0
LINE
5
2F4
100
AcDbEntity
8
0
100
AcDbLine
62
9
6
CONTINUOUS
10
-11.5843345974
20
24.5353325154
11
-11.6210303600
21
24.5337490367
0
LINE
5
2F5
100
AcDbEntity
8
0
100
AcDbLine
62
9
6
CONTINUOUS
10
11.0062430449
20
24.1777772201
11
11.0048246757
21
24.1777911707
0
LINE
5
2F6
100
AcDbEntity
8
0
100
AcDbLine
62
9
6
CONTINUOUS
10
11.0062430449
20
24.1777772201
11
11.0048286842
21
24.1777911553
0
LINE
5
2F7
100
AcDbEntity
8
0
100
AcDbLine
62
9
6
CONTINUOUS
10
-10.3340308416
20
24.5155431730
11
-10.3354452023
21
24.5155571082
0
LINE
5
2F8
100
AcDbEntity
8
0
100
AcDbLine
62
9
6
CONTINUOUS
10
-10.3340308416
20
24.5155431730
11
-10.3354492108
21
24.5155571236
0
LINE
5
2F9
100
AcDbEntity
8
0
100
AcDbLine
62
7
6
CONTINUOUS
10
-8.2240826491
20
23.7192961110
11
-7.6895670807
21
23.7108359965
0
LINE
5
2FA
100
AcDbEntity
8
0
100
AcDbLine
62
7
6
CONTINUOUS
10
4.0892200323
20
23.5244057157
11
5.7876083588
21
23.4975242542
0
LINE
5
2FB
100
AcDbEntity
8
0
100
AcDbLine
62
7
6
CONTINUOUS
10
4.0455848589
20
23.5569988016
11
5.0298205511
21
23.5414206835
0
LINE
5
2FC
100
AcDbEntity
8
0
100
AcDbLine
62
3
6
CONTINUOUS
10
-0.2243254438
20
23.6481332105
11
1.8540512605
21
23.6152374336
0
LINE
5
2FD
100
AcDbEntity
8
0
100
AcDbLine
62
9
6
CONTINUOUS
10
5.8479816714
20
23.6102955971
11
5.6084138381
21
23.6140873881
0
LINE
5
2FE
100
AcDbEntity
8
0
100
AcDbLine
62
7
6
CONTINUOUS
10
5.8489778238
20
23.6113350457
11
5.6233282239
21
23.6149065440
0
LINE
5
2FF
100
AcDbEntity
8
0
100
AcDbLine
62
7
6
CONTINUOUS
10
1.7533763445
20
23.8476307013
11
-0.1768059137
21
23.8781809113
0
LINE
5
300
100
AcDbEntity
8
0
100
AcDbLine
62
7
6
CONTINUOUS
10
-7.5235874209
20
23.9944630486
11
-9.4537696791
21
24.0250132586
0
LINE
5
301
100
AcDbEntity
8
0
100
AcDbLine
62
7
6
CONTINUOUS
10
-13.8500889663
20
24.3045824932
11
-12.4024423748
21
24.2816696790
0
LINE
5
302
100
AcDbEntity
8
0
100
AcDbLine
62
7
6
CONTINUOUS
10
7.4902044783
20
23.9668162308
11
8.9378315116
21
23.9439037261
0
LINE
5
303
100
AcDbEntity
8
0
100
AcDbLine
62
9
6
CONTINUOUS
10
1.7515198600
20
24.1471285876
11
-9.4556261636
21
24.3245111449
0
LINE
5
304
100
AcDbEntity
8
0
100
AcDbLine
62
9
6
CONTINUOUS
10
-11.6006736263
20
24.5346167038
11
-10.3492175072
21
24.5148091198
0
LINE
5
305
100
AcDbEntity
8
0
100
AcDbLine
62
9
6
CONTINUOUS
10
9.7396002602
20
24.1968507509
11
10.9910563793
21
24.1770431668
0
LINE
5
306
100
AcDbEntity
8
0
100
AcDbLine
62
7
6
CONTINUOUS
10
-11.5843334125
20
24.5353324991
11
-10.3340068184
21
24.5155427928
0
LINE
5
307
100
AcDbEntity
8
0
100
AcDbLine
62
7
6
CONTINUOUS
10
9.7559404740
20
24.1975665462
11
11.0062670681
21
24.1777768398
0
LINE
5
308
100
AcDbEntity
8
0
100
AcDbLine
62
9
6
CONTINUOUS
10
2.2168359769
20
24.5050372323
11
2.1316611024
21
24.5063853487
0
LINE
5
309
100
AcDbEntity
8
0
100
AcDbLine
62
9
6
CONTINUOUS
10
1.9973718583
20
24.8850951855
11
-9.2097741653
21
25.0624777429
0
LINE
5
30A
100
AcDbEntity
8
0
100
AcDbLine
62
9
6
CONTINUOUS
10
2.1811364966
20
24.9138429168
11
-9.0260095270
21
25.0912254742
0
LINE
5
30B
100
AcDbEntity
8
0
100
AcDbLine
62
7
6
CONTINUOUS
10
-9.0105997765
20
25.0923094094
11
2.1811575078
21
24.9151704193
0
LINE
5
30C
100
AcDbEntity
8
0
100
AcDbLine
62
9
6
CONTINUOUS
10
-13.8033640748
20
24.3038429490
11
-15.1905811019
21
24.0399359019
0
LINE
5
30D
100
AcDbEntity
8
0
100
AcDbLine
62
7
6
CONTINUOUS
10
-13.8474941167
20
24.3000386218
11
-15.2349769040
21
24.0360810159
0
LINE
5
30E
100
AcDbEntity
8
0
100
AcDbLine
62
9
6
CONTINUOUS
10
-13.6518947453
20
23.7664619072
11
-12.1674416029
21
24.0284025907
0
LINE
5
30F
100
AcDbEntity
8
0
100
AcDbLine
62
9
6
CONTINUOUS
10
-13.8869150754
20
24.0197293051
11
-12.4024619329
21
24.2816699886
0
LINE
5
310
100
AcDbEntity
8
0
100
AcDbLine
62
7
6
CONTINUOUS
10
-9.2097741653
20
25.0624777429
11
-9.0260095270
21
25.0912254742
0
LINE
5
311
100
AcDbEntity
8
0
100
AcDbLine
62
7
6
CONTINUOUS
10
-13.8500889663
20
24.3045824932
11
-13.8732434469
21
24.3016041703
0
LINE
5
312
100
AcDbEntity
8
0
100
AcDbLine
62
9
6
CONTINUOUS
10
-10.1612227207
20
24.3122183465
11
-12.2144475883
21
24.0790789058
0
LINE
5
313
100
AcDbEntity
8
0
100
AcDbLine
62
9
6
CONTINUOUS
10
-10.3492175072
20
24.5148091198
11
-12.4024423748
21
24.2816696790
0
LINE
5
314
100
AcDbEntity
8
0
100
AcDbLine
62
9
6
CONTINUOUS
10
-11.6006736263
20
24.5346167038
11
-13.8500889663
21
24.3045824932
0
LINE
5
315
100
AcDbEntity
8
0
100
AcDbLine
62
7
6
CONTINUOUS
10
-11.6210303600
20
24.5337490367
11
-13.8705209209
21
24.3037071337
0
SPLINE
5
316
100
AcDbEntity
8
0
100
AcDbSpline
62
7
6
CONTINUOUS
70
0
71
3
72
10
73
6
74
4
42
0.0000001000
43
0.0000001000
44
0.0000000001
12
0.0903168149
22
0.0141289616
32
0.0000000000
13
0.0624174496
23
0.0667893450
33
0.0000000000
40
0.0000000000
40
0.0000000000
40
0.0000000000
40
0.0000000000
40
0.2986525374
40
0.6277782702
40
1.0000000000
40
1.0000000000
40
1.0000000000
40
1.0000000000
10
2.4909241691
20
-25.0627405433
30
0.0000000000
10
2.4999152845
20
-25.0613339932
30
0.0000000000
10
2.5184330938
20
-25.0555177014
30
0.0000000000
10
2.5445348061
20
-25.0393636394
30
0.0000000000
10
2.5602788234
20
-25.0247298942
30
0.0000000000
10
2.5680232004
20
-25.0164430790
30
0.0000000000
11
2.4909241691
21
-25.0627405433
31
0.0000000000
11
2.5170517668
21
-25.0548212327
31
0.0000000000
11
2.5428456449
21
-25.0393321774
31
0.0000000000
11
2.5680232004
21
-25.0164430790
31
0.0000000000
0
SPLINE
5
317
100
AcDbEntity
8
0
100
AcDbSpline
62
7
6
CONTINUOUS
70
0
71
3
72
13
73
9
74
7
42
0.0000001000
43
0.0000001000
44
0.0000000001
12
0.0046039756
22
-0.7427376550
32
0.0000000000
13
0.7486132479
23
-0.0274051673
33
0.0000000000
40
0.0000000000
40
0.0000000000
40
0.0000000000
40
0.0000000000
40
0.2420666032
40
0.4664760347
40
0.6608285607
40
0.8164202307
40
0.9317531513
40
1.0000000000
40
1.0000000000
40
1.0000000000
40
1.0000000000
10
-9.1545020854
20
-24.2544155124
30
0.0000000000
10
-9.1541305958
20
-24.3143461728
30
0.0000000000
10
-9.1481697559
20
-24.4299064832
30
0.0000000000
10
-9.1234801852
20
-24.5918846609
30
0.0000000000
10
-9.0851177557
20
-24.7294866223
30
0.0000000000
10
-9.0352170794
20
-24.8337390982
30
0.0000000000
10
-8.9789492196
20
-24.8994487630
30
0.0000000000
10
-8.9326552064
20
-24.9143717590
30
0.0000000000
10
-8.9156250414
20
-24.9149951977
30
0.0000000000
11
-9.1545020854
21
-24.2544155124
31
0.0000000000
11
-9.1448561277
21
-24.4339520102
31
0.0000000000
11
-9.1188179138
21
-24.5985861890
31
0.0000000000
11
-9.0781619051
21
-24.7370985015
31
0.0000000000
11
-9.0256587413
21
-24.8400495626
31
0.0000000000
11
-8.9648864262
21
-24.9004234276
31
0.0000000000
11
-8.9156250414
21
-24.9149951977
31
0.0000000000
0
SPLINE
5
318
100
AcDbEntity
8
0
100
AcDbSpline
62
7
6
CONTINUOUS
70
0
71
3
72
12
73
8
74
6
42
0.0000001000
43
0.0000001000
44
0.0000000001
12
-0.0127007254
22
-0.1676782170
32
0.0000000000
13
-0.1348766461
23
-0.1008595807
33
0.0000000000
40
0.0000000000
40
0.0000000000
40
0.0000000000
40
0.0000000000
40
0.2186343230
40
0.4352225196
40
0.6492440646
40
0.8605154184
40
1.0000000000
40
1.0000000000
40
1.0000000000
40
1.0000000000
10
-7.0412311084
20
-23.8061496784
30
0.0000000000
10
-7.0421567132
20
-23.8183697496
30
0.0000000000
10
-7.0461211700
20
-23.8425906176
30
0.0000000000
10
-7.0582874440
20
-23.8770851029
30
0.0000000000
10
-7.0762547433
20
-23.9084915094
30
0.0000000000
10
-7.0968929962
20
-23.9327421456
30
0.0000000000
10
-7.1119005527
20
-23.9455538673
30
0.0000000000
10
-7.1181716235
20
-23.9502433194
30
0.0000000000
11
-7.0412311084
21
-23.8061496784
31
0.0000000000
11
-7.0471974931
21
-23.8424275533
31
0.0000000000
11
-7.0593435037
21
-23.8767637568
31
0.0000000000
11
-7.0772526533
21
-23.9079809000
31
0.0000000000
11
-7.1003108370
21
-23.9350085465
31
0.0000000000
11
-7.1181716235
21
-23.9502433194
31
0.0000000000
0
SPLINE
5
319
100
AcDbEntity
8
0
100
AcDbSpline
62
7
6
CONTINUOUS
70
0
71
3
72
9
73
5
74
3
42
0.0000001000
43
0.0000001000
44
0.0000000001
12
-0.0175907323
22
-0.0131541964
32
0.0000000000
13
-0.0190660936
23
-0.0109115736
33
0.0000000000
40
0.0000000000
40
0.0000000000
40
0.0000000000
40
0.0000000000
40
0.5307980490
40
1.0000000000
40
1.0000000000
40
1.0000000000
40
1.0000000000
10
-7.1181716235
20
-23.9502433194
30
0.0000000000
10
-7.1212839990
20
-23.9525707267
30
0.0000000000
10
-7.1272882036
20
-23.9567673460
30
0.0000000000
10
-7.1335385511
20
-23.9605880124
30
0.0000000000
10
-7.1365205005
20
-23.9622945896
30
0.0000000000
11
-7.1181716235
21
-23.9502433194
31
0.0000000000
11
-7.1277273891
21
-23.9569199179
31
0.0000000000
11
-7.1365205005
21
-23.9622945896
31
0.0000000000
0
SPLINE
5
31A
100
AcDbEntity
8
0
100
AcDbSpline
62
7
6
CONTINUOUS
70
0
71
3
72
10
73
6
74
4
42
0.0000001000
43
0.0000001000
44
0.0000000001
12
-0.0554715570
22
-0.0317465123
32
0.0000000000
13
-0.0631799860
23
-0.0098832565
33
0.0000000000
40
0.0000000000
40
0.0000000000
40
0.0000000000
40
0.0000000000
40
0.3834748671
40
0.9251508375
40
1.0000000000
40
1.0000000000
40
1.0000000000
40
1.0000000000
10
-7.1365205005
20
-23.9622945896
30
0.0000000000
10
-7.1436111498
20
-23.9663525862
30
0.0000000000
10
-7.1613898197
20
-23.9749683759
30
0.0000000000
10
-7.1819439825
20
-23.9809380401
30
0.0000000000
10
-7.1948994746
20
-23.9831479280
30
0.0000000000
10
-7.1964757976
20
-23.9833945125
30
0.0000000000
11
-7.1365205005
21
-23.9622945896
31
0.0000000000
11
-7.1585621956
21
-23.9729636729
31
0.0000000000
11
-7.1917579306
21
-23.9825896708
31
0.0000000000
11
-7.1964757976
21
-23.9833945125
31
0.0000000000
0
SPLINE
5
31B
100
AcDbEntity
8
0
100
AcDbSpline
62
7
6
CONTINUOUS
70
0
71
3
72
15
73
11
74
9
42
0.0000001000
43
0.0000001000
44
0.0000000001
12
-0.2878625211
22
0.0045561814
32
0.0000000000
13
-0.0252175998
23
0.2867920196
33
0.0000000000
40
0.0000000000
40
0.0000000000
40
0.0000000000
40
0.0000000000
40
0.1204888124
40
0.2420279318
40
0.3649924675
40
0.4895545775
40
0.6156668698
40
0.7430764763
40
0.8713639933
40
1.0000000000
40
1.0000000000
40
1.0000000000
40
1.0000000000
10
0.1206051954
20
-24.1017499733
30
0.0000000000
10
0.1090437910
20
-24.1015669837
30
0.0000000000
10
0.0857938343
20
-24.0988766388
30
0.0000000000
10
0.0522505949
20
-24.0880852400
30
0.0000000000
10
0.0210281330
20
-24.0709144401
30
0.0000000000
10
-0.0067906249
20
-24.0479705458
30
0.0000000000
10
-0.0302698135
20
-24.0200523718
30
0.0000000000
10
-0.0486193823
20
-23.9881159935
30
0.0000000000
10
-0.0612236796
20
-23.9532653802
30
0.0000000000
10
-0.0655182858
20
-23.9288388236
30
0.0000000000
10
-0.0665995829
20
-23.9165415636
30
0.0000000000
11
0.1206051954
21
-24.1017499733
31
0.0000000000
11
0.0861443750
21
-24.0977816136
31
0.0000000000
11
0.0528227775
21
-24.0871028039
31
0.0000000000
11
0.0217830010
21
-24.0700797210
31
0.0000000000
11
-0.0059106001
21
-24.0472960865
31
0.0000000000
11
-0.0293084117
21
-24.0195331517
31
0.0000000000
11
-0.0476081225
21
-23.9877429080
31
0.0000000000
11
-0.0601822351
21
-23.9530154435
31
0.0000000000
11
-0.0665995829
21
-23.9165415636
31
0.0000000000
0
SPLINE
5
31C
100
AcDbEntity
8
0
100
AcDbSpline
62
7
6
CONTINUOUS
70
0
71
3
72
8
73
4
74
2
42
0.0000001000
43
0.0000001000
44
0.0000000001
12
-0.0294696392
22
-0.0046099409
32
0.0000000000
13
-0.0297588137
23
0.0004710115
33
0.0000000000
40
0.0000000000
40
0.0000000000
40
0.0000000000
40
0.0000000000
40
1.0000000000
40
1.0000000000
40
1.0000000000
40
1.0000000000
10
-7.1964757976
20
-23.9833945125
30
0.0000000000
10
-7.2062990106
20
-23.9849311595
30
0.0000000000
10
-7.2162567072
20
-23.9856248399
30
0.0000000000
10
-7.2261763117
20
-23.9854678361
30
0.0000000000
11
-7.1964757976
21
-23.9833945125
31
0.0000000000
11
-7.2261763117
21
-23.9854678361
31
0.0000000000
0
SPLINE
5
31D
100
AcDbEntity
8
0
100
AcDbSpline
62
7
6
CONTINUOUS
70
0
71
3
72
13
73
9
74
7
42
0.0000001000
43
0.0000001000
44
0.0000000001
12
0.0046039756
22
-0.7427376550
32
0.0000000000
13
0.7486132479
23
-0.0274051673
33
0.0000000000
40
0.0000000000
40
0.0000000000
40
0.0000000000
40
0.0000000000
40
0.2420666032
40
0.4664760347
40
0.6608285607
40
0.8164202307
40
0.9317531513
40
1.0000000000
40
1.0000000000
40
1.0000000000
40
1.0000000000
10
2.0526439381
20
-24.4317980697
30
0.0000000000
10
2.0530154277
20
-24.4917287301
30
0.0000000000
10
2.0589762676
20
-24.6072890405
30
0.0000000000
10
2.0836658383
20
-24.7692672182
30
0.0000000000
10
2.1220282678
20
-24.9068691796
30
0.0000000000
10
2.1719289441
20
-25.0111216556
30
0.0000000000
10
2.2281968039
20
-25.0768313203
30
0.0000000000
10
2.2744908171
20
-25.0917543163
30
0.0000000000
10
2.2915209821
20
-25.0923777551
30
0.0000000000
11
2.0526439381
21
-24.4317980697
31
0.0000000000
11
2.0622898958
21
-24.6113345675
31
0.0000000000
11
2.0883281097
21
-24.7759687463
31
0.0000000000
11
2.1289841184
21
-24.9144810589
31
0.0000000000
11
2.1814872823
21
-25.0174321200
31
0.0000000000
11
2.2422595973
21
-25.0778059849
31
0.0000000000
11
2.2915209821
21
-25.0923777551
31
0.0000000000
0
SPLINE
5
31E
100
AcDbEntity
8
0
100
AcDbSpline
62
7
6
CONTINUOUS
70
0
71
3
72
8
73
4
74
2
42
0.0000001000
43
0.0000001000
44
0.0000000001
12
0.0294696392
22
0.0046099409
32
0.0000000000
13
0.0297588137
23
-0.0004710115
33
0.0000000000
40
0.0000000000
40
0.0000000000
40
0.0000000000
40
0.0000000000
40
1.0000000000
40
1.0000000000
40
1.0000000000
40
1.0000000000
10
-0.2065064279
20
23.8761075877
30
0.0000000000
10
-0.1966832148
20
23.8776442347
30
0.0000000000
10
-0.1867255183
20
23.8783379152
30
0.0000000000
10
-0.1768059137
20
23.8781809113
30
0.0000000000
11
-0.2065064279
21
23.8761075877
31
0.0000000000
11
-0.1768059137
21
23.8781809113
31
0.0000000000
0
SPLINE
5
31F
100
AcDbEntity
8
0
100
AcDbSpline
62
7
6
CONTINUOUS
70
0
71
3
72
10
73
6
74
4
42
0.0000001000
43
0.0000001000
44
0.0000000001
12
0.0675057897
22
-0.0010581112
32
0.0000000000
13
0.0538430033
23
-0.0402177761
33
0.0000000000
40
0.0000000000
40
0.0000000000
40
0.0000000000
40
0.0000000000
40
0.1597950591
40
0.5611008684
40
1.0000000000
40
1.0000000000
40
1.0000000000
40
1.0000000000
10
2.1965624455
20
24.9149174234
30
0.0000000000
10
2.2001581427
20
24.9148610631
30
0.0000000000
10
2.2127764641
20
24.9139133997
30
0.0000000000
10
2.2345245854
20
24.9074872839
30
0.0000000000
10
2.2507823386
20
24.8976180372
30
0.0000000000
10
2.2586595544
20
24.8917341882
30
0.0000000000
11
2.1965624455
21
24.9149174234
31
0.0000000000
11
2.2073115543
21
24.9141057173
31
0.0000000000
11
2.2332472927
21
24.9067091282
31
0.0000000000
11
2.2586595544
21
24.8917341882
31
0.0000000000
0
SPLINE
5
320
100
AcDbEntity
8
0
100
AcDbSpline
62
7
6
CONTINUOUS
70
0
71
3
72
15
73
11
74
9
42
0.0000001000
43
0.0000001000
44
0.0000000001
12
0.2878625211
22
-0.0045561814
32
0.0000000000
13
0.0252175998
23
-0.2867920196
33
0.0000000000
40
0.0000000000
40
0.0000000000
40
0.0000000000
40
0.0000000000
40
0.1204888124
40
0.2420279318
40
0.3649924675
40
0.4895545775
40
0.6156668698
40
0.7430764763
40
0.8713639933
40
1.0000000000
40
1.0000000000
40
1.0000000000
40
1.0000000000
10
-7.5235874209
20
23.9944630486
30
0.0000000000
10
-7.5120260164
20
23.9942800589
30
0.0000000000
10
-7.4887760598
20
23.9915897140
30
0.0000000000
10
-7.4552328204
20
23.9807983153
30
0.0000000000
10
-7.4240103585
20
23.9636275153
30
0.0000000000
10
-7.3961916006
20
23.9406836211
30
0.0000000000
10
-7.3727124119
20
23.9127654471
30
0.0000000000
10
-7.3543628431
20
23.8808290688
30
0.0000000000
10
-7.3417585459
20
23.8459784554
30
0.0000000000
10
-7.3374639397
20
23.8215518988
30
0.0000000000
10
-7.3363826426
20
23.8092546388
30
0.0000000000
11
-7.5235874209
21
23.9944630486
31
0.0000000000
11
-7.4891266005
21
23.9904946888
31
0.0000000000
11
-7.4558050030
21
23.9798158792
31
0.0000000000
11
-7.4247652265
21
23.9627927962
31
0.0000000000
11
-7.3970716254
21
23.9400091617
31
0.0000000000
11
-7.3736738137
21
23.9122462269
31
0.0000000000
11
-7.3553741030
21
23.8804559833
31
0.0000000000
11
-7.3427999904
21
23.8457285188
31
0.0000000000
11
-7.3363826426
21
23.8092546388
31
0.0000000000
0
SPLINE
5
321
100
AcDbEntity
8
0
100
AcDbSpline
62
7
6
CONTINUOUS
70
0
71
3
72
8
73
4
74
2
42
0.0000001000
43
0.0000001000
44
0.0000000001
12
0.0152518194
22
0.0023859607
32
0.0000000000
13
0.0155063659
23
-0.0002430526
33
0.0000000000
40
0.0000000000
40
0.0000000000
40
0.0000000000
40
0.0000000000
40
1.0000000000
40
1.0000000000
40
1.0000000000
40
1.0000000000
10
-9.0260095270
20
25.0912254742
30
0.0000000000
10
-9.0209255872
20
25.0920207944
30
0.0000000000
10
-9.0157523667
20
25.0923809983
30
0.0000000000
10
-9.0105835781
20
25.0922999807
30
0.0000000000
11
-9.0260095270
21
25.0912254742
31
0.0000000000
11
-9.0105835781
21
25.0922999807
31
0.0000000000
0
SPLINE
5
322
100
AcDbEntity
8
0
100
AcDbSpline
62
7
6
CONTINUOUS
70
0
71
3
72
13
73
9
74
7
42
0.0000001000
43
0.0000001000
44
0.0000000001
12
-0.0050476519
22
0.8143138561
32
0.0000000000
13
0.8045442894
23
0.1258611192
33
0.0000000000
40
0.0000000000
40
0.0000000000
40
0.0000000000
40
0.0000000000
40
0.2239315400
40
0.4377380693
40
0.6291519958
40
0.7883841138
40
0.9103825267
40
1.0000000000
40
1.0000000000
40
1.0000000000
40
1.0000000000
10
-9.4556261636
20
24.3245111449
30
0.0000000000
10
-9.4560029397
20
24.3852946635
30
0.0000000000
10
-9.4512671285
20
24.5042259095
30
0.0000000000
10
-9.4283406635
20
24.6737245498
30
0.0000000000
10
-9.3915059630
20
24.8228484197
30
0.0000000000
10
-9.3425972541
20
24.9421543770
30
0.0000000000
10
-9.2858823174
20
25.0264289623
30
0.0000000000
10
-9.2338079074
20
25.0587179577
30
0.0000000000
10
-9.2097741653
20
25.0624777429
30
0.0000000000
11
-9.4556261636
21
24.3245111449
31
0.0000000000
11
-9.4482225091
21
24.5067148462
31
0.0000000000
11
-9.4242737892
21
24.6791688697
31
0.0000000000
11
-9.3854120696
21
24.8301207588
31
0.0000000000
11
-9.3342857123
21
24.9492833917
31
0.0000000000
11
-9.2743788939
21
25.0285360319
31
0.0000000000
11
-9.2097741653
21
25.0624777429
31
0.0000000000
0
SPLINE
5
323
100
AcDbEntity
8
0
100
AcDbSpline
62
7
6
CONTINUOUS
70
0
71
3
72
15
73
11
74
9
42
0.0000001000
43
0.0000001000
44
0.0000000001
12
0.0191764693
22
0.2531726407
32
0.0000000000
13
0.2513991770
23
0.0393264182
33
0.0000000000
40
0.0000000000
40
0.0000000000
40
0.0000000000
40
0.0000000000
40
0.1448032195
40
0.2882512735
40
0.4299994141
40
0.5699260816
40
0.7081574942
40
0.8450589626
40
0.9811894013
40
1.0000000000
40
1.0000000000
40
1.0000000000
40
1.0000000000
10
-0.3617511171
20
23.6988627537
30
0.0000000000
10
-0.3608255122
20
23.7110828248
30
0.0000000000
10
-0.3568610555
20
23.7353036929
30
0.0000000000
10
-0.3446947815
20
23.7697981782
30
0.0000000000
10
-0.3267274822
20
23.8012045847
30
0.0000000000
10
-0.3035595117
20
23.8284277235
30
0.0000000000
10
-0.2759735851
20
23.8505249814
30
0.0000000000
10
-0.2449071572
20
23.8667187287
30
0.0000000000
10
-0.2210382430
20
23.8736511154
30
0.0000000000
10
-0.2080827509
20
23.8758610032
30
0.0000000000
10
-0.2065064279
20
23.8761075877
30
0.0000000000
11
-0.3617511171
21
23.6988627537
31
0.0000000000
11
-0.3557847324
21
23.7351406285
31
0.0000000000
11
-0.3436387218
21
23.7694768320
31
0.0000000000
11
-0.3257295721
21
23.8006939752
31
0.0000000000
11
-0.3026713885
21
23.8277216218
31
0.0000000000
11
-0.2752548364
21
23.8496329932
31
0.0000000000
11
-0.2444200298
21
23.8656767481
31
0.0000000000
11
-0.2112242948
21
23.8753027461
31
0.0000000000
11
-0.2065064279
21
23.8761075877
31
0.0000000000
0
SPLINE
5
324
100
AcDbEntity
8
0
100
AcDbSpline
62
7
6
CONTINUOUS
70
0
71
3
72
8
73
4
74
2
42
0.0000001000
43
0.0000001000
44
0.0000000001
12
0.0152518194
22
0.0023859607
32
0.0000000000
13
0.0155063659
23
-0.0002430526
33
0.0000000000
40
0.0000000000
40
0.0000000000
40
0.0000000000
40
0.0000000000
40
1.0000000000
40
1.0000000000
40
1.0000000000
40
1.0000000000
10
2.1811364966
20
24.9138429168
30
0.0000000000
10
2.1862204364
20
24.9146382371
30
0.0000000000
10
2.1913936569
20
24.9149984409
30
0.0000000000
10
2.1965624455
20
24.9149174234
30
0.0000000000
11
2.1811364966
21
24.9138429168
31
0.0000000000
11
2.1965624455
21
24.9149174234
31
0.0000000000
0
SPLINE
5
325
100
AcDbEntity
8
0
100
AcDbSpline
62
7
6
CONTINUOUS
70
0
71
3
72
13
73
9
74
7
42
0.0000001000
43
0.0000001000
44
0.0000000001
12
-0.0050476519
22
0.8143138561
32
0.0000000000
13
0.8045442894
23
0.1258611192
33
0.0000000000
40
0.0000000000
40
0.0000000000
40
0.0000000000
40
0.0000000000
40
0.2239315400
40
0.4377380693
40
0.6291519958
40
0.7883841138
40
0.9103825267
40
1.0000000000
40
1.0000000000
40
1.0000000000
40
1.0000000000
10
1.7515198600
20
24.1471285876
30
0.0000000000
10
1.7511430838
20
24.2079121062
30
0.0000000000
10
1.7558788950
20
24.3268433522
30
0.0000000000
10
1.7788053601
20
24.4963419924
30
0.0000000000
10
1.8156400605
20
24.6454658624
30
0.0000000000
10
1.8645487694
20
24.7647718197
30
0.0000000000
10
1.9212637061
20
24.8490464049
30
0.0000000000
10
1.9733381161
20
24.8813354004
30
0.0000000000
10
1.9973718583
20
24.8850951855
30
0.0000000000
11
1.7515198600
21
24.1471285876
31
0.0000000000
11
1.7589235144
21
24.3293322889
31
0.0000000000
11
1.7828722343
21
24.5017863124
31
0.0000000000
11
1.8217339539
21
24.6527382015
31
0.0000000000
11
1.8728603113
21
24.7719008344
31
0.0000000000
11
1.9327671296
21
24.8511534745
31
0.0000000000
11
1.9973718583
21
24.8850951855
31
0.0000000000
0
SPLINE
5
326
100
AcDbEntity
8
0
100
AcDbSpline
62
9
6
CONTINUOUS
70
0
71
3
72
10
73
6
74
4
42
0.0000001000
43
0.0000001000
44
0.0000000001
12
-0.0480145584
22
-0.0269395252
32
0.0000000000
13
0.1924042495
23
-0.0029043242
33
0.0000000000
40
0.0000000000
40
0.0000000000
40
0.0000000000
40
0.0000000000
40
0.1388886488
40
0.4900611947
40
1.0000000000
40
1.0000000000
40
1.0000000000
40
1.0000000000
10
-18.4178505876
20
16.2406291849
30
0.0000000000
10
-18.4200734800
20
16.2393819868
30
0.0000000000
10
-18.3634853220
20
16.2369722894
30
0.0000000000
10
-18.3209959177
20
16.2354764432
30
0.0000000000
10
-18.2579388037
20
16.2342414743
30
0.0000000000
10
-18.2252340060
20
16.2337477984
30
0.0000000000
11
-18.4178505876
21
16.2406291849
31
0.0000000000
11
-18.3908708523
21
16.2381507888
31
0.0000000000
11
-18.3233396994
21
16.2357227678
31
0.0000000000
11
-18.2252340060
21
16.2337477984
31
0.0000000000
0
SPLINE
5
327
100
AcDbEntity
8
0
100
AcDbSpline
62
7
6
CONTINUOUS
70
0
71
3
72
12
73
8
74
6
42
0.0000001000
43
0.0000001000
44
0.0000000001
12
0.0025977906
22
-0.4190892916
32
0.0000000000
13
-0.4187236925
23
-0.0438135556
33
0.0000000000
40
0.0000000000
40
0.0000000000
40
0.0000000000
40
0.0000000000
40
0.2220462271
40
0.4413471291
40
0.6549546904
40
0.8662285801
40
1.0000000000
40
1.0000000000
40
1.0000000000
40
1.0000000000
10
7.6464202912
20
-18.1446849457
30
0.0000000000
10
7.6466125677
20
-18.1757040110
30
0.0000000000
10
7.6379374403
20
-18.2378170562
30
0.0000000000
10
7.5984317787
20
-18.3218826677
30
0.0000000000
10
7.5358566790
20
-18.3887277480
30
0.0000000000
10
7.4657600189
20
-18.4261505368
30
0.0000000000
10
7.4180027638
20
-18.4363616772
30
0.0000000000
10
7.3993316762
20
-18.4383153444
30
0.0000000000
11
7.6464202912
21
-18.1446849457
31
0.0000000000
11
7.6333409594
21
-18.2368202025
31
0.0000000000
11
7.5939978699
21
-18.3198821069
31
0.0000000000
11
7.5325870122
21
-18.3850201122
31
0.0000000000
11
7.4543622112
21
-18.4265047858
31
0.0000000000
11
7.3993316762
21
-18.4383153444
31
0.0000000000
0
SPLINE
5
328
100
AcDbEntity
8
0
100
AcDbSpline
62
7
6
CONTINUOUS
70
0
71
3
72
12
73
8
74
6
42
0.0000001000
43
0.0000001000
44
0.0000000001
12
0.4566581270
22
-0.0072278157
32
0.0000000000
13
0.0028309670
23
-0.4567065490
33
0.0000000000
40
0.0000000000
40
0.0000000000
40
0.0000000000
40
0.0000000000
40
0.1923706758
40
0.3898621683
40
0.5902311638
40
0.7949403042
40
1.0000000000
40
1.0000000000
40
1.0000000000
40
1.0000000000
10
7.1428870608
20
17.8993735452
30
0.0000000000
10
7.1721696050
20
17.8989100720
30
0.0000000000
10
7.2317890387
20
17.8878067481
30
0.0000000000
10
7.3113757108
20
17.8429545513
30
0.0000000000
10
7.3745309327
20
17.7744236853
30
0.0000000000
10
7.4150757413
20
17.6894032227
30
0.0000000000
10
7.4246857349
20
17.6267047540
30
0.0000000000
10
7.4248792406
20
17.5954873854
30
0.0000000000
11
7.1428870608
21
17.8993735452
31
0.0000000000
11
7.2292893198
21
17.8834427745
31
0.0000000000
11
7.3080438205
21
17.8394734907
31
0.0000000000
11
7.3702743449
21
17.7723785353
31
0.0000000000
11
7.4106550004
21
17.6880547930
31
0.0000000000
11
7.4248792406
21
17.5954873854
31
0.0000000000
0
SPLINE
5
329
100
AcDbEntity
8
0
100
AcDbSpline
62
7
6
CONTINUOUS
70
0
71
3
72
8
73
4
74
2
42
0.0000001000
43
0.0000001000
44
0.0000000001
12
0.0587480784
22
0.0127240456
32
0.0000000000
13
0.0597295747
23
-0.0009453776
33
0.0000000000
40
0.0000000000
40
0.0000000000
40
0.0000000000
40
0.0000000000
40
1.0000000000
40
1.0000000000
40
1.0000000000
40
1.0000000000
10
-15.3310405662
20
18.2482108856
30
0.0000000000
10
-15.3114578734
20
18.2524522341
30
0.0000000000
10
-15.2914001896
20
18.2544551366
30
0.0000000000
10
-15.2714903314
20
18.2541400107
30
0.0000000000
11
-15.3310405662
21
18.2482108856
31
0.0000000000
11
-15.2714903314
21
18.2541400107
31
0.0000000000
0
SPLINE
5
32A
100
AcDbEntity
8
0
100
AcDbSpline
62
7
6
CONTINUOUS
70
0
71
3
72
9
73
5
74
3
42
0.0000001000
43
0.0000001000
44
0.0000000001
12
0.0825100148
22
0.0564042100
32
0.0000000000
13
0.0978726879
23
0.0211526600
33
0.0000000000
40
0.0000000000
40
0.0000000000
40
0.0000000000
40
0.0000000000
40
0.4966515038
40
1.0000000000
40
1.0000000000
40
1.0000000000
40
1.0000000000
10
-17.1253339917
20
17.8413902660
30
0.0000000000
10
-17.1116744174
20
17.8507280112
30
0.0000000000
10
-17.0823847493
20
17.8669383939
30
0.0000000000
10
-17.0503857721
20
17.8771151761
30
0.0000000000
10
-17.0339644153
20
17.8806642293
30
0.0000000000
11
-17.1253339917
21
17.8413902660
31
0.0000000000
11
-17.0819126164
21
17.8653415688
31
0.0000000000
11
-17.0339644153
21
17.8806642293
31
0.0000000000
0
SPLINE
5
32B
100
AcDbEntity
8
0
100
AcDbSpline
62
7
6
CONTINUOUS
70
0
71
3
72
13
73
9
74
7
42
0.0000001000
43
0.0000001000
44
0.0000000001
12
-0.8505059934
22
-0.5834746230
32
0.0000000000
13
-0.0072821398
23
-1.0248252323
33
0.0000000000
40
0.0000000000
40
0.0000000000
40
0.0000000000
40
0.0000000000
40
0.0629121814
40
0.2189473503
40
0.4000043042
40
0.6166972467
40
0.8527649480
40
1.0000000000
40
1.0000000000
40
1.0000000000
40
1.0000000000
10
-18.0949325463
20
17.1791638412
30
0.0000000000
10
-18.1127682754
20
17.1669279541
30
0.0000000000
10
-18.1718215581
20
17.1197794628
30
0.0000000000
10
-18.2565653799
20
17.0104979766
30
0.0000000000
10
-18.3337248378
20
16.8364178291
30
0.0000000000
10
-18.3871233927
20
16.6259091038
30
0.0000000000
10
-18.4125138662
20
16.4221679588
30
0.0000000000
10
-18.4176719560
20
16.2912245888
30
0.0000000000
10
-18.4180293514
20
16.2409278567
30
0.0000000000
11
-18.0949325463
21
17.1791638412
31
0.0000000000
11
-18.1456590409
21
17.1387867968
31
0.0000000000
11
-18.2460260200
21
17.0143621698
31
0.0000000000
11
-18.3242199104
21
16.8461542943
31
0.0000000000
11
-18.3811423865
21
16.6315721186
31
0.0000000000
11
-18.4120770254
21
16.3917052620
31
0.0000000000
11
-18.4180293514
21
16.2409278567
31
0.0000000000
0
SPLINE
5
32C
100
AcDbEntity
8
0
100
AcDbSpline
62
7
6
CONTINUOUS
70
0
71
3
72
10
73
6
74
4
42
0.0000001000
43
0.0000001000
44
0.0000000001
12
-0.2392151497
22
-33.2577114999
32
0.0000000000
13
0.6533830818
23
-33.2521533950
33
0.0000000000
40
0.0000000000
40
0.0000000000
40
0.0000000000
40
0.0000000000
40
0.3330311005
40
0.6681304058
40
1.0000000000
40
1.0000000000
40
1.0000000000
40
1.0000000000
10
-18.4180196192
20
16.2409227174
30
0.0000000000
10
-18.4445749807
20
12.5489719634
30
0.0000000000
10
-18.4649184594
20
5.1418615942
30
0.0000000000
10
-18.3962376726
20
-5.9442495012
30
0.0000000000
10
-18.2841497188
20
-13.3376626043
30
0.0000000000
10
-18.2118703928
20
-17.0161221551
30
0.0000000000
11
-18.4180196192
21
16.2409227174
31
0.0000000000
11
-18.4484000368
21
5.1648257787
31
0.0000000000
11
-18.3792849875
21
-5.9798832382
31
0.0000000000
11
-18.2118703928
21
-17.0161221551
31
0.0000000000
0
SPLINE
5
32D
100
AcDbEntity
8
0
100
AcDbSpline
62
7
6
CONTINUOUS
70
0
71
3
72
13
73
9
74
7
42
0.0000001000
43
0.0000001000
44
0.0000000001
12
0.0203593839
22
-1.0448755927
32
0.0000000000
13
0.9943532284
23
-0.3521667032
33
0.0000000000
40
0.0000000000
40
0.0000000000
40
0.0000000000
40
0.0000000000
40
0.1770609280
40
0.4161558687
40
0.6218362521
40
0.7925946035
40
0.9480453495
40
1.0000000000
40
1.0000000000
40
1.0000000000
40
1.0000000000
10
-18.2118783064
20
-17.0160887202
30
0.0000000000
10
-18.2106766892
20
-17.0777576009
30
0.0000000000
10
-18.2020681817
20
-17.2226445265
30
0.0000000000
10
-18.1670634461
20
-17.4369709943
30
0.0000000000
10
-18.0992999519
20
-17.6416619848
30
0.0000000000
10
-18.0002830296
20
-17.8011293854
30
0.0000000000
10
-17.8957916269
20
-17.8858948647
30
0.0000000000
10
-17.8286910919
20
-17.9149468453
30
0.0000000000
10
-17.8114706671
20
-17.9210457447
30
0.0000000000
11
-18.2118783064
21
-17.0160887202
31
0.0000000000
11
-18.2006690141
21
-17.2007842555
31
0.0000000000
11
-18.1582680646
21
-17.4469295140
31
0.0000000000
11
-18.0869064352
21
-17.6495969018
31
0.0000000000
11
-17.9893750701
21
-17.7989556326
31
0.0000000000
11
-17.8616937710
21
-17.8992976947
31
0.0000000000
11
-17.8114706671
21
-17.9210457447
31
0.0000000000
0
SPLINE
5
32E
100
AcDbEntity
8
0
100
AcDbSpline
62
7
6
CONTINUOUS
70
0
71
3
72
8
73
4
74
2
42
0.0000001000
43
0.0000001000
44
0.0000000001
12
0.0799605237
22
-0.0279444877
32
0.0000000000
13
0.0838595850
23
-0.0013272985
33
0.0000000000
40
0.0000000000
40
0.0000000000
40
0.0000000000
40
0.0000000000
40
1.0000000000
40
1.0000000000
40
1.0000000000
40
1.0000000000
10
-16.8338883904
20
-18.2635560074
30
0.0000000000
10
-16.8072348825
20
-18.2728708366
30
0.0000000000
10
-16.7791046790
20
-18.2779851330
30
0.0000000000
10
-16.7511514840
20
-18.2784275659
30
0.0000000000
11
-16.8338883904
21
-18.2635560074
31
0.0000000000
11
-16.7511514840
21
-18.2784275659
31
0.0000000000
0
SPLINE
5
32F
100
AcDbEntity
8
0
100
AcDbSpline
62
9
6
CONTINUOUS
70
0
71
3
72
10
73
6
74
4
42
0.0000001000
43
0.0000001000
44
0.0000000001
12
-0.2818610510
22
-33.2729899008
32
0.0000000000
13
0.6963692822
23
-33.2668960441
33
0.0000000000
40
0.0000000000
40
0.0000000000
40
0.0000000000
40
0.0000000000
40
0.3337663253
40
0.6671649550
40
1.0000000000
40
1.0000000000
40
1.0000000000
40
1.0000000000
10
3.9159643216
20
15.8833047793
30
0.0000000000
10
3.8846057458
20
12.1815035888
30
0.0000000000
10
3.8580436465
20
4.7816201302
30
0.0000000000
10
3.9267192013
20
-6.3097213398
30
0.0000000000
10
4.0449502939
20
-13.6983788233
30
0.0000000000
10
4.1222089944
20
-17.3891751037
30
0.0000000000
11
3.9159643216
21
15.8833047793
31
0.0000000000
11
3.8761439639
21
4.7775741384
31
0.0000000000
11
3.9449078553
21
-6.3157800003
31
0.0000000000
11
4.1222089944
21
-17.3891751037
31
0.0000000000
0
SPLINE
5
330
100
AcDbEntity
8
0
100
AcDbSpline
62
9
6
CONTINUOUS
70
0
71
3
72
10
73
6
74
4
42
0.0000001000
43
0.0000001000
44
0.0000000001
12
-0.6537011280
22
33.2675844297
32
0.0000000000
13
0.2393409601
23
33.2731455510
33
0.0000000000
40
0.0000000000
40
0.0000000000
40
0.0000000000
40
0.0000000000
40
0.3328278851
40
0.6662282920
40
1.0000000000
40
1.0000000000
40
1.0000000000
40
1.0000000000
10
-18.0189946727
20
-17.0387323308
30
0.0000000000
10
-18.0915179940
20
-13.3479390744
30
0.0000000000
10
-18.2034399712
20
-5.9593062143
30
0.0000000000
10
-18.2721206733
20
5.1319495197
30
0.0000000000
10
-18.2518677591
20
12.5318693457
30
0.0000000000
10
-18.2252393455
20
16.2337475523
30
0.0000000000
11
-18.0189946727
21
-17.0387323308
31
0.0000000000
11
-18.1868309709
21
-5.9654870334
31
0.0000000000
11
-18.2555948624
21
5.1278671053
31
0.0000000000
11
-18.2252393455
21
16.2337475523
31
0.0000000000
0
SPLINE
5
331
100
AcDbEntity
8
0
100
AcDbSpline
62
7
6
CONTINUOUS
70
0
71
3
72
8
73
4
74
2
42
0.0000001000
43
0.0000001000
44
0.0000000001
12
0.0586907845
22
0.0126845010
32
0.0000000000
13
0.0594853282
23
-0.0009415117
33
0.0000000000
40
0.0000000000
40
0.0000000000
40
0.0000000000
40
0.0000000000
40
1.0000000000
40
1.0000000000
40
1.0000000000
40
1.0000000000
10
-17.0339644153
20
17.8806642293
30
0.0000000000
10
-17.0144008205
20
17.8848923963
30
0.0000000000
10
-16.9943905388
20
17.8868873897
30
0.0000000000
10
-16.9745620961
20
17.8865735525
30
0.0000000000
11
-17.0339644153
21
17.8806642293
31
0.0000000000
11
-16.9745620961
21
17.8865735525
31
0.0000000000
0
SPLINE
5
332
100
AcDbEntity
8
0
100
AcDbSpline
62
9
6
CONTINUOUS
70
0
71
3
72
9
73
5
74
3
42
0.0000001000
43
0.0000001000
44
0.0000000001
12
0.1301781098
22
0.0889716608
32
0.0000000000
13
0.1564464708
23
-0.0018067631
33
0.0000000000
40
0.0000000000
40
0.0000000000
40
0.0000000000
40
0.0000000000
40
0.3085211357
40
1.0000000000
40
1.0000000000
40
1.0000000000
40
1.0000000000
10
-18.0941660219
20
17.1797506179
30
0.0000000000
10
-18.0807784558
20
17.1889004972
30
0.0000000000
10
-18.0345216335
20
17.2144057964
30
0.0000000000
10
-17.9815039371
20
17.2244882306
30
0.0000000000
10
-17.9454441278
20
17.2240717845
30
0.0000000000
11
-18.0941660219
21
17.1797506179
31
0.0000000000
11
-18.0515925053
21
17.2031703151
31
0.0000000000
11
-17.9454441278
21
17.2240717845
31
0.0000000000
0
SPLINE
5
333
100
AcDbEntity
8
0
100
AcDbSpline
62
9
6
CONTINUOUS
70
0
71
3
72
13
73
9
74
7
42
0.0000001000
43
0.0000001000
44
0.0000000001
12
-0.6323920016
22
-0.3934811027
32
0.0000000000
13
-0.0063810284
23
-0.7447860796
33
0.0000000000
40
0.0000000000
40
0.0000000000
40
0.0000000000
40
0.0000000000
40
0.1035252971
40
0.2368648046
40
0.3992207877
40
0.5858774894
40
0.7894016041
40
1.0000000000
40
1.0000000000
40
1.0000000000
40
1.0000000000
10
4.5133132295
20
16.5765690123
30
0.0000000000
10
4.4914903729
20
16.5629905962
30
0.0000000000
10
4.4494257684
20
16.5198226220
30
0.0000000000
10
4.4003975268
20
16.4332051026
30
0.0000000000
10
4.3588536728
20
16.3204170600
30
0.0000000000
10
4.3272193842
20
16.1866896183
30
0.0000000000
10
4.3070134560
20
16.0387072997
30
0.0000000000
10
4.3018889348
20
15.9358791230
30
0.0000000000
10
4.3014409900
20
15.8835955385
30
0.0000000000
11
4.5133132295
21
16.5765690123
31
0.0000000000
11
4.4571990584
21
16.5236852351
31
0.0000000000
11
4.4061666441
21
16.4384867883
31
0.0000000000
11
4.3631274302
21
16.3254803243
31
0.0000000000
11
4.3302942059
21
16.1903886242
31
0.0000000000
11
4.3093777341
21
16.0402511254
31
0.0000000000
11
4.3014409900
21
15.8835955385
31
0.0000000000
0
SPLINE
5
334
100
AcDbEntity
8
0
100
AcDbSpline
62
9
6
CONTINUOUS
70
0
71
3
72
13
73
9
74
7
42
0.0000001000
43
0.0000001000
44
0.0000000001
12
-0.8986243663
22
-0.5665549925
32
0.0000000000
13
-0.0088473370
23
-1.0622768170
33
0.0000000000
40
0.0000000000
40
0.0000000000
40
0.0000000000
40
0.0000000000
40
0.1034751375
40
0.2364939844
40
0.3985831099
40
0.5849299909
40
0.7882926195
40
1.0000000000
40
1.0000000000
40
1.0000000000
40
1.0000000000
10
4.2146014064
20
16.8733307895
30
0.0000000000
10
4.1836063132
20
16.8537893376
30
0.0000000000
10
4.1242203727
20
16.7917871724
30
0.0000000000
10
4.0552244062
20
16.6680289128
30
0.0000000000
10
3.9968325666
20
16.5071919058
30
0.0000000000
10
3.9523399120
20
16.3165943664
30
0.0000000000
10
3.9238342895
20
16.1052666125
30
0.0000000000
10
3.9165886704
20
15.9582687268
30
0.0000000000
10
3.9159643216
20
15.8833047793
30
0.0000000000
11
4.2146014064
21
16.8733307895
31
0.0000000000
11
4.1351707832
21
16.7973449129
31
0.0000000000
11
4.0633636335
21
16.6756419545
31
0.0000000000
11
4.0028397031
21
16.5144399848
31
0.0000000000
11
3.9566733042
21
16.3219396865
31
0.0000000000
11
3.9272130492
21
16.1079229334
31
0.0000000000
11
3.9159643216
21
15.8833047793
31
0.0000000000
0
SPLINE
5
335
100
AcDbEntity
8
0
100
AcDbSpline
62
9
6
CONTINUOUS
70
0
71
3
72
11
73
7
74
5
42
0.0000001000
43
0.0000001000
44
0.0000000001
12
-0.0610431372
22
-0.1149244017
32
0.0000000000
13
0.1963066932
23
-0.0032502179
33
0.0000000000
40
0.0000000000
40
0.0000000000
40
0.0000000000
40
0.0000000000
40
0.0070430820
40
0.1535884449
40
0.4998508994
40
1.0000000000
40
1.0000000000
40
1.0000000000
40
1.0000000000
10
-18.2113015254
20
-17.0164243137
30
0.0000000000
10
-18.2114448361
20
-17.0166941210
30
0.0000000000
10
-18.2137972834
20
-17.0224716548
30
0.0000000000
10
-18.1611762553
20
-17.0315413989
30
0.0000000000
10
-18.1130568540
20
-17.0356520080
30
0.0000000000
10
-18.0517222097
20
-17.0381904658
30
0.0000000000
10
-18.0189946710
20
-17.0387323303
30
0.0000000000
11
-18.2113015254
21
-17.0164243137
31
0.0000000000
11
-18.2116216403
21
-17.0172177111
31
0.0000000000
11
-18.1846769436
21
-17.0273072378
31
0.0000000000
11
-18.1171140999
21
-17.0348533708
31
0.0000000000
11
-18.0189946710
21
-17.0387323303
31
0.0000000000
0
SPLINE
5
336
100
AcDbEntity
8
0
100
AcDbSpline
62
9
6
CONTINUOUS
70
0
71
3
72
12
73
8
74
6
42
0.0000001000
43
0.0000001000
44
0.0000000001
12
0.0063779854
22
0.8590827301
32
0.0000000000
13
0.3898934973
23
0.7659076215
33
0.0000000000
40
0.0000000000
40
0.0000000000
40
0.0000000000
40
0.0000000000
40
0.2617536848
40
0.5129605948
40
0.7426663938
40
0.9416479822
40
1.0000000000
40
1.0000000000
40
1.0000000000
40
1.0000000000
10
-18.2252393455
20
16.2337475523
30
0.0000000000
10
-18.2246828584
20
16.3087035756
30
0.0000000000
10
-18.2179474268
20
16.4556188038
30
0.0000000000
10
-18.1913099464
20
16.6668698481
30
0.0000000000
10
-18.1497026958
20
16.8573593033
30
0.0000000000
10
-18.1046804745
20
16.9898750238
30
0.0000000000
10
-18.0734935019
20
17.0567064212
30
0.0000000000
10
-18.0659098111
20
17.0716038396
30
0.0000000000
11
-18.2252393455
21
16.2337475523
31
0.0000000000
11
-18.2147720322
21
16.4583780743
31
0.0000000000
11
-18.1872150729
21
16.6724249520
31
0.0000000000
11
-18.1439768304
21
16.8649715961
31
0.0000000000
11
-18.0872567477
21
17.0262337716
31
0.0000000000
11
-18.0659098111
21
17.0716038396
31
0.0000000000
0
SPLINE
5
337
100
AcDbEntity
8
0
100
AcDbSpline
62
9
6
CONTINUOUS
70
0
71
3
72
9
73
5
74
3
42
0.0000001000
43
0.0000001000
44
0.0000000001
12
0.0579758582
22
0.1138879000
32
0.0000000000
13
0.0847332959
23
0.0970762566
33
0.0000000000
40
0.0000000000
40
0.0000000000
40
0.0000000000
40
0.0000000000
40
0.6967995048
40
1.0000000000
40
1.0000000000
40
1.0000000000
40
1.0000000000
10
-18.0659098111
20
17.0716038396
30
0.0000000000
10
-18.0524439614
20
17.0980561837
30
0.0000000000
10
-18.0308026701
20
17.1348558447
30
0.0000000000
10
-18.0043224126
20
17.1689112277
30
0.0000000000
10
-17.9957586869
20
17.1787224174
30
0.0000000000
11
-18.0659098111
21
17.0716038396
31
0.0000000000
11
-18.0199352182
21
17.1480077268
31
0.0000000000
11
-17.9957586869
21
17.1787224174
31
0.0000000000
0
SPLINE
5
338
100
AcDbEntity
8
0
100
AcDbSpline
62
9
6
CONTINUOUS
70
0
71
3
72
8
73
4
74
2
42
0.0000001000
43
0.0000001000
44
0.0000000001
12
0.0449259852
22
0.0514702801
32
0.0000000000
13
0.0561846632
23
0.0378267122
33
0.0000000000
40
0.0000000000
40
0.0000000000
40
0.0000000000
40
0.0000000000
40
1.0000000000
40
1.0000000000
40
1.0000000000
40
1.0000000000
10
-17.9957586869
20
17.1787224174
30
0.0000000000
10
-17.9807833584
20
17.1958791774
30
0.0000000000
10
-17.9641723488
20
17.2114628804
30
0.0000000000
10
-17.9454441278
20
17.2240717845
30
0.0000000000
11
-17.9957586869
21
17.1787224174
31
0.0000000000
11
-17.9454441278
21
17.2240717845
31
0.0000000000
0
SPLINE
5
339
100
AcDbEntity
8
0
100
AcDbSpline
62
9
6
CONTINUOUS
70
0
71
3
72
13
73
9
74
7
42
0.0000001000
43
0.0000001000
44
0.0000000001
12
0.0205201590
22
-0.9878806940
32
0.0000000000
13
0.9395562475
23
-0.3058813501
33
0.0000000000
40
0.0000000000
40
0.0000000000
40
0.0000000000
40
0.0000000000
40
0.2239112804
40
0.4336213820
40
0.6205196520
40
0.7780787450
40
0.9033223093
40
1.0000000000
40
1.0000000000
40
1.0000000000
40
1.0000000000
10
4.1222089944
20
-17.3891751037
30
0.0000000000
10
4.1237405594
20
-17.4629076474
30
0.0000000000
10
4.1325304629
20
-17.6056624483
30
0.0000000000
10
4.1633582124
20
-17.8080082521
30
0.0000000000
10
4.2097936343
20
-17.9849602324
30
0.0000000000
10
4.2699277874
20
-18.1283043781
30
0.0000000000
10
4.3404723223
20
-18.2326873518
30
0.0000000000
10
4.4022712905
20
-18.2773225412
30
0.0000000000
10
4.4325493333
20
-18.2871798420
30
0.0000000000
11
4.1222089944
21
-17.3891751037
31
0.0000000000
11
4.1362187389
21
-17.6099764403
31
0.0000000000
11
4.1682741255
21
-17.8146952304
31
0.0000000000
11
4.2167377008
21
-17.9928956970
31
0.0000000000
11
4.2791450616
21
-18.1355230723
31
0.0000000000
11
4.3523260706
21
-18.2353188315
31
0.0000000000
11
4.4325493333
21
-18.2871798420
31
0.0000000000
0
SPLINE
5
33A
100
AcDbEntity
8
0
100
AcDbSpline
62
9
6
CONTINUOUS
70
0
71
3
72
8
73
4
74
2
42
0.0000001000
43
0.0000001000
44
0.0000000001
12
-0.0863524794
22
0.0298718976
32
0.0000000000
13
-0.0640949612
23
0.0668540366
33
0.0000000000
40
0.0000000000
40
0.0000000000
40
0.0000000000
40
0.0000000000
40
1.0000000000
40
1.0000000000
40
1.0000000000
40
1.0000000000
10
-17.7274962010
20
-17.9364388470
30
0.0000000000
10
-17.7562803608
20
-17.9264815478
30
0.0000000000
10
-17.7814148095
20
-17.9069406986
30
0.0000000000
10
-17.8027797965
20
-17.8846560197
30
0.0000000000
11
-17.7274962010
21
-17.9364388470
31
0.0000000000
11
-17.8027797965
21
-17.8846560197
31
0.0000000000
0
SPLINE
5
33B
100
AcDbEntity
8
0
100
AcDbSpline
62
9
6
CONTINUOUS
70
0
71
3
72
8
73
4
74
2
42
0.0000001000
43
0.0000001000
44
0.0000000001
12
-0.0540117264
22
0.0563367520
32
0.0000000000
13
-0.0407378339
23
0.0654566991
33
0.0000000000
40
0.0000000000
40
0.0000000000
40
0.0000000000
40
0.0000000000
40
1.0000000000
40
1.0000000000
40
1.0000000000
40
1.0000000000
10
-17.8027797965
20
-17.8846560197
30
0.0000000000
10
-17.8207837053
20
-17.8658771024
30
0.0000000000
10
-17.8361108650
20
-17.8451497520
30
0.0000000000
10
-17.8496901430
20
-17.8233308523
30
0.0000000000
11
-17.8027797965
21
-17.8846560197
31
0.0000000000
11
-17.8496901430
21
-17.8233308523
31
0.0000000000
0
SPLINE
5
33C
100
AcDbEntity
8
0
100
AcDbSpline
62
9
6
CONTINUOUS
70
0
71
3
72
12
73
8
74
6
42
0.0000001000
43
0.0000001000
44
0.0000000001
12
-0.4286551136
22
0.6887540681
32
0.0000000000
13
-0.0160929737
23
0.8100426656
33
0.0000000000
40
0.0000000000
40
0.0000000000
40
0.0000000000
40
0.0000000000
40
0.0544265885
40
0.2446778016
40
0.4716352536
40
0.7270004856
40
1.0000000000
40
1.0000000000
40
1.0000000000
40
1.0000000000
10
-17.8496901430
20
-17.8233308523
30
0.0000000000
10
-17.8574668881
20
-17.8108353409
30
0.0000000000
10
-17.8898505459
20
-17.7530516445
30
0.0000000000
10
-17.9367369211
20
-17.6339926104
30
0.0000000000
10
-17.9802690221
20
-17.4572735515
30
0.0000000000
10
-18.0092402703
20
-17.2550798108
30
0.0000000000
10
-18.0175302147
20
-17.1124460822
30
0.0000000000
10
-18.0189946727
20
-17.0387323308
30
0.0000000000
11
-17.8496901430
21
-17.8233308523
31
0.0000000000
11
-17.8714750560
21
-17.7849312593
31
0.0000000000
11
-17.9300784846
21
-17.6423640912
31
0.0000000000
11
-17.9756143140
21
-17.4642099639
31
0.0000000000
11
-18.0057663817
21
-17.2595212988
31
0.0000000000
11
-18.0189946727
21
-17.0387323308
31
0.0000000000
0
SPLINE
5
33D
100
AcDbEntity
8
0
100
AcDbSpline
62
9
6
CONTINUOUS
70
0
71
3
72
10
73
6
74
4
42
0.0000001000
43
0.0000001000
44
0.0000000001
12
-0.0480145584
22
-0.0269395252
32
0.0000000000
13
0.1924042495
23
-0.0029043242
33
0.0000000000
40
0.0000000000
40
0.0000000000
40
0.0000000000
40
0.0000000000
40
0.1388886488
40
0.4900611947
40
1.0000000000
40
1.0000000000
40
1.0000000000
40
1.0000000000
10
-18.4178505876
20
16.2406291849
30
0.0000000000
10
-18.4200734800
20
16.2393819868
30
0.0000000000
10
-18.3634853220
20
16.2369722894
30
0.0000000000
10
-18.3209959177
20
16.2354764432
30
0.0000000000
10
-18.2579388037
20
16.2342414743
30
0.0000000000
10
-18.2252340060
20
16.2337477984
30
0.0000000000
11
-18.4178505876
21
16.2406291849
31
0.0000000000
11
-18.3908708523
21
16.2381507888
31
0.0000000000
11
-18.3233396994
21
16.2357227678
31
0.0000000000
11
-18.2252340060
21
16.2337477984
31
0.0000000000
0
SPLINE
5
33E
100
AcDbEntity
8
0
100
AcDbSpline
62
9
6
CONTINUOUS
70
0
71
3
72
11
73
7
74
5
42
0.0000001000
43
0.0000001000
44
0.0000000001
12
-0.0269182758
22
-0.4546653486
32
0.0000000000
13
-0.4554185103
23
0.0062572590
33
0.0000000000
40
0.0000000000
40
0.0000000000
40
0.0000000000
40
0.0000000000
40
0.2564006798
40
0.5110454501
40
0.7592764844
40
1.0000000000
40
1.0000000000
40
1.0000000000
40
1.0000000000
10
4.7276045956
20
-17.9940459383
30
0.0000000000
10
4.7253039742
20
-18.0329047731
30
0.0000000000
10
4.7063402042
20
-18.1101947620
30
0.0000000000
10
4.6397567702
20
-18.2073200876
30
0.0000000000
10
4.5443083731
20
-18.2725495295
30
0.0000000000
10
4.4690926482
20
-18.2876819318
30
0.0000000000
10
4.4325493333
20
-18.2871798420
30
0.0000000000
11
4.7276045956
21
-17.9940459383
31
0.0000000000
11
4.6997676897
21
-18.1074603280
31
0.0000000000
11
4.6339505070
21
-18.2029572638
31
0.0000000000
11
4.5401349854
21
-18.2660535288
31
0.0000000000
11
4.4325493333
21
-18.2871798420
31
0.0000000000
0
SPLINE
5
33F
100
AcDbEntity
8
0
100
AcDbSpline
62
7
6
CONTINUOUS
70
0
71
3
72
11
73
7
74
5
42
0.0000001000
43
0.0000001000
44
0.0000000001
12
-0.0125407989
22
-0.4225987609
32
0.0000000000
13
-0.4228358443
23
-0.0445941499
33
0.0000000000
40
0.0000000000
40
0.0000000000
40
0.0000000000
40
0.0000000000
40
0.2769126777
40
0.5491904059
40
0.8139126921
40
1.0000000000
40
1.0000000000
40
1.0000000000
40
1.0000000000
10
5.7882585744
20
-18.3347079957
30
0.0000000000
10
5.7871010057
20
-18.3737156472
30
0.0000000000
10
5.7706426445
20
-18.4513858354
30
0.0000000000
10
5.7068855124
20
-18.5498650413
30
0.0000000000
10
5.6214156249
20
-18.6100156716
30
0.0000000000
10
5.5585011570
20
-18.6265027332
30
0.0000000000
10
5.5322730290
20
-18.6292688683
30
0.0000000000
11
5.7882585744
21
-18.3347079957
31
0.0000000000
11
5.7637506871
21
-18.4491885400
31
0.0000000000
11
5.7007898225
21
-18.5455595214
31
0.0000000000
11
5.6088008620
21
-18.6093109326
31
0.0000000000
11
5.5322730290
21
-18.6292688683
31
0.0000000000
0
SPLINE
5
340
100
AcDbEntity
8
0
100
AcDbSpline
62
9
6
CONTINUOUS
70
0
71
3
72
11
73
7
74
5
42
0.0000001000
43
0.0000001000
44
0.0000000001
12
-0.3747329837
22
-0.0951485439
32
0.0000000000
13
-0.3865798579
23
0.0058367771
33
0.0000000000
40
0.0000000000
40
0.0000000000
40
0.0000000000
40
0.0000000000
40
0.1654302837
40
0.4124248496
40
0.7049900638
40
1.0000000000
40
1.0000000000
40
1.0000000000
40
1.0000000000
10
4.5075400779
20
-17.3653978882
30
0.0000000000
10
4.4868760166
20
-17.3706447050
30
0.0000000000
10
4.4339774537
20
-17.3775988862
30
0.0000000000
10
4.3434972617
20
-17.3850783076
30
0.0000000000
10
4.2359643284
20
-17.3892843681
30
0.0000000000
10
4.1602314337
20
-17.3897470800
30
0.0000000000
10
4.1222164673
20
-17.3891731109
30
0.0000000000
11
4.5075400779
21
-17.3653978882
31
0.0000000000
11
4.4444337550
21
-17.3758086830
31
0.0000000000
11
4.3492887185
21
-17.3839651153
31
0.0000000000
11
4.2362731772
21
-17.3886525976
31
0.0000000000
11
4.1222164673
21
-17.3891731109
31
0.0000000000
0
SPLINE
5
341
100
AcDbEntity
8
0
100
AcDbSpline
62
9
6
CONTINUOUS
70
0
71
3
72
11
73
7
74
5
42
0.0000001000
43
0.0000001000
44
0.0000000001
12
-0.3851326476
22
-0.0169599782
32
0.0000000000
13
-0.3854530466
23
0.0063832541
33
0.0000000000
40
0.0000000000
40
0.0000000000
40
0.0000000000
40
0.0000000000
40
0.1638831825
40
0.4108192050
40
0.7040746528
40
1.0000000000
40
1.0000000000
40
1.0000000000
40
1.0000000000
10
4.3014409900
20
15.8835955385
30
0.0000000000
10
4.2804020687
20
15.8826690534
30
0.0000000000
10
4.2276068129
20
15.8818177957
30
0.0000000000
10
4.1371371640
20
15.8813139615
30
0.0000000000
10
4.0296922318
20
15.8817844969
30
0.0000000000
10
3.9539860982
20
15.8826751238
30
0.0000000000
10
3.9159643226
20
15.8833047794
30
0.0000000000
11
4.3014409900
21
15.8835955385
31
0.0000000000
11
4.2382812712
21
15.8820785719
31
0.0000000000
11
4.1430877890
21
15.8814914103
31
0.0000000000
11
4.0300369024
21
15.8819214951
31
0.0000000000
11
3.9159643226
21
15.8833047794
31
0.0000000000
0
SPLINE
5
342
100
AcDbEntity
8
0
100
AcDbSpline
62
9
6
CONTINUOUS
70
0
71
3
72
11
73
7
74
5
42
0.0000001000
43
0.0000001000
44
0.0000000001
12
-0.0332822652
22
0.4565466308
32
0.0000000000
13
-0.4576651488
23
0.0092275021
33
0.0000000000
40
0.0000000000
40
0.0000000000
40
0.0000000000
40
0.0000000000
40
0.2526827315
40
0.5078173634
40
0.7584497116
40
1.0000000000
40
1.0000000000
40
1.0000000000
40
1.0000000000
10
4.5133132295
20
16.5765690123
30
0.0000000000
10
4.5105099449
20
16.6150228288
30
0.0000000000
10
4.4901746774
20
16.6918506352
30
0.0000000000
10
4.4224546090
20
16.7885130930
30
0.0000000000
10
4.3268638685
20
16.8550455563
30
0.0000000000
10
4.2514511239
20
16.8725878216
30
0.0000000000
10
4.2146014076
20
16.8733307902
30
0.0000000000
11
4.5133132295
21
16.5765690123
31
0.0000000000
11
4.4840814691
21
16.6884818976
31
0.0000000000
11
4.4170815425
21
16.7841422585
31
0.0000000000
11
4.3224719879
21
16.8490404584
31
0.0000000000
11
4.2146014076
21
16.8733307902
31
0.0000000000
0
SPLINE
5
343
100
AcDbEntity
8
0
100
AcDbSpline
62
7
6
CONTINUOUS
70
0
71
3
72
11
73
7
74
5
42
0.0000001000
43
0.0000001000
44
0.0000000001
12
-0.0194039227
22
0.4569947977
32
0.0000000000
13
-0.4573492733
23
0.0072387549
33
0.0000000000
40
0.0000000000
40
0.0000000000
40
0.0000000000
40
0.0000000000
40
0.2555332787
40
0.5104721145
40
0.7595666619
40
1.0000000000
40
1.0000000000
40
1.0000000000
40
1.0000000000
10
5.5677913848
20
17.2322234115
30
0.0000000000
10
5.5661386022
20
17.2711492045
30
0.0000000000
10
5.5483569214
20
17.3489518228
30
0.0000000000
10
5.4834862766
20
17.4478106974
30
0.0000000000
10
5.3894126421
20
17.5158115804
30
0.0000000000
10
5.3143975655
20
17.5337921524
30
0.0000000000
10
5.2777435614
20
17.5343722984
30
0.0000000000
11
5.5677913848
21
17.2322234115
31
0.0000000000
11
5.5418674021
21
17.3461948491
31
0.0000000000
11
5.4777055911
21
17.4435668993
31
0.0000000000
11
5.3849116409
21
17.5096806794
31
0.0000000000
11
5.2777435614
21
17.5343722984
31
0.0000000000
0
SPLINE
5
344
100
AcDbEntity
8
0
100
AcDbSpline
62
9
6
CONTINUOUS
70
0
71
3
72
8
73
4
74
2
42
0.0000001000
43
0.0000001000
44
0.0000000001
12
0.0795856592
22
-0.0277510400
32
0.0000000000
13
0.0834697373
23
-0.0014931676
33
0.0000000000
40
0.0000000000
40
0.0000000000
40
0.0000000000
40
0.0000000000
40
1.0000000000
40
1.0000000000
40
1.0000000000
40
1.0000000000
10
-17.8098690251
20
-17.9216796977
30
0.0000000000
10
-17.7833404721
20
-17.9309300443
30
0.0000000000
10
-17.7553194455
20
-17.9359411249
30
0.0000000000
10
-17.7274961997
20
-17.9364388474
30
0.0000000000
11
-17.8098690251
21
-17.9216796977
31
0.0000000000
11
-17.7274961997
21
-17.9364388474
31
0.0000000000
0
SPLINE
5
345
100
AcDbEntity
8
0
100
AcDbSpline
62
9
6
CONTINUOUS
70
0
71
3
72
13
73
9
74
7
42
0.0000001000
43
0.0000001000
44
0.0000000001
12
0.0145466912
22
-0.6929726445
32
0.0000000000
13
0.6597873649
23
-0.2123754352
33
0.0000000000
40
0.0000000000
40
0.0000000000
40
0.0000000000
40
0.0000000000
40
0.2225341283
40
0.4322299711
40
0.6193293484
40
0.7772837759
40
0.9030204171
40
1.0000000000
40
1.0000000000
40
1.0000000000
40
1.0000000000
10
4.5075400783
20
-17.3653978882
30
0.0000000000
10
4.5086191234
20
-17.4168012426
30
0.0000000000
10
4.5148196324
20
-17.5166183013
30
0.0000000000
10
4.5366278441
20
-17.6582576716
30
0.0000000000
10
4.5696040971
20
-17.7824298088
30
0.0000000000
10
4.6123589662
20
-17.8830186885
30
0.0000000000
10
4.6625363484
20
-17.9561570741
30
0.0000000000
10
4.7062759611
20
-17.9871805779
30
0.0000000000
10
4.7276045956
20
-17.9940459383
30
0.0000000000
11
4.5075400783
21
-17.3653978882
31
0.0000000000
11
4.5173946023
21
-17.5193268037
31
0.0000000000
11
4.5401087585
21
-17.6628864784
31
0.0000000000
11
4.5745192647
21
-17.7879211891
31
0.0000000000
11
4.6188904555
21
-17.8880089105
31
0.0000000000
11
4.6709110709
21
-17.9579316938
31
0.0000000000
11
4.7276045956
21
-17.9940459383
31
0.0000000000
0
SPLINE
5
346
100
AcDbEntity
8
0
100
AcDbSpline
62
9
6
CONTINUOUS
70
0
71
3
72
10
73
6
74
4
42
0.0000001000
43
0.0000001000
44
0.0000000001
12
-0.2816767886
22
-33.2495030254
32
0.0000000000
13
0.6958924328
23
-33.2434132870
33
0.0000000000
40
0.0000000000
40
0.0000000000
40
0.0000000000
40
0.0000000000
40
0.3337661856
40
0.6671653843
40
1.0000000000
40
1.0000000000
40
1.0000000000
40
1.0000000000
10
4.3014409900
20
15.8835955385
30
0.0000000000
10
4.2701029275
20
12.1844089394
30
0.0000000000
10
4.2435572737
20
4.7897441559
30
0.0000000000
10
4.3121843885
20
-6.2937681648
30
0.0000000000
10
4.4303343815
20
-13.6772116592
30
0.0000000000
10
4.5075400783
20
-17.3653978882
30
0.0000000000
11
4.3014409900
21
15.8835955385
31
0.0000000000
11
4.2616453932
21
4.7857088735
31
0.0000000000
11
4.3303609081
21
-6.2998336029
31
0.0000000000
11
4.5075400783
21
-17.3653978882
31
0.0000000000
0
SPLINE
5
347
100
AcDbEntity
8
0
100
AcDbSpline
62
9
6
CONTINUOUS
70
0
71
3
72
10
73
6
74
4
42
0.0000001000
43
0.0000001000
44
0.0000000001
12
4.6701999170
22
4.9170699566
32
1.9882934348
13
4.6930144430
23
4.9180634923
33
1.9341770221
40
0.0000000000
40
0.0000000000
40
0.0000000000
40
0.0000000000
40
0.3333333333
40
0.6666666667
40
1.0000000000
40
1.0000000000
40
1.0000000000
40
1.0000000000
10
-11.8606869246
20
7.1640548341
30
18.7379968215
10
-11.3417758227
20
7.7103959404
30
18.9589183143
10
-10.3031204319
20
8.8031406301
30
19.3987528708
10
-8.7426147067
20
10.4423931013
30
20.0524871408
10
-7.7005793060
20
11.5352849872
30
20.4843042464
10
-7.1791332567
20
12.0817364863
30
20.6992128044
11
-11.8606869246
21
7.1640548341
31
18.7379968215
11
-10.3026999921
21
8.8031632029
31
19.3977499433
11
-8.7421901440
21
10.4424073276
31
20.0514857055
11
-7.1791332567
21
12.0817364863
31
20.6992128044
0
SPLINE
5
348
100
AcDbEntity
8
0
100
AcDbSpline
62
9
6
CONTINUOUS
70
0
71
3
72
10
73
6
74
4
42
0.0000001000
43
0.0000001000
44
0.0000000001
12
4.5864322139
22
4.9013882084
32
2.2121853667
13
4.6055530997
23
4.9069585505
33
2.1569275226
40
0.0000000000
40
0.0000000000
40
0.0000000000
40
0.0000000000
40
0.3333333333
40
0.6666666667
40
1.0000000000
40
1.0000000000
40
1.0000000000
40
1.0000000000
10
-7.0220948673
20
-13.2525258789
30
19.2400332054
10
-6.5124912880
20
-12.7079271891
30
19.4858315795
10
-5.4925885784
20
-11.6184979586
30
19.9753798050
10
-3.9606231067
20
-9.9837102612
30
20.7035599045
10
-2.9378875964
20
-8.8934557759
30
21.1849215775
10
-2.4261594742
20
-8.3482381592
30
21.4245801912
11
-7.0220948673
21
-13.2525258789
31
19.2400332054
11
-5.4922366772
21
-11.6183906500
31
19.9743560985
11
-3.9602668078
21
-9.9836112561
31
20.7025369728
11
-2.4261594742
21
-8.3482381592
31
21.4245801912
0
SPLINE
5
349
100
AcDbEntity
8
0
100
AcDbSpline
62
9
6
CONTINUOUS
70
0
71
3
72
10
73
6
74
4
42
0.0000001000
43
0.0000001000
44
0.0000000001
12
4.7320117905
22
-5.0547479310
32
1.4139458175
13
4.7547983325
23
-5.0492398828
33
1.3600894275
40
0.0000000000
40
0.0000000000
40
0.0000000000
40
0.0000000000
40
0.3333333333
40
0.6666666667
40
1.0000000000
40
1.0000000000
40
1.0000000000
40
1.0000000000
10
-11.7654478272
20
-8.2004193614
30
17.8530479341
10
-11.2396687393
20
-8.7620580204
30
18.0101530249
10
-10.1872780979
20
-9.8851565174
30
18.3223614786
10
-8.6061722988
20
-11.5692167543
30
18.7846826325
10
-7.5504057932
20
-12.6914992253
30
19.0889121579
10
-7.0220948673
20
-13.2525258789
30
19.2400332054
11
-11.7654478272
21
-8.2004193614
31
17.8530479341
11
-10.1868581250
21
-9.8850585993
31
18.3213628909
11
-8.6057483055
21
-11.5691106659
31
18.7836864882
11
-7.0220948673
21
-13.2525258789
31
19.2400332054
0
SPLINE
5
34A
100
AcDbEntity
8
0
100
AcDbSpline
62
9
6
CONTINUOUS
70
0
71
3
72
10
73
6
74
4
42
0.0000001000
43
0.0000001000
44
0.0000000001
12
4.6482160769
22
-5.0659108857
32
1.6380980187
13
4.6673649997
23
-5.0648636203
33
1.5825796586
40
0.0000000000
40
0.0000000000
40
0.0000000000
40
0.0000000000
40
0.3333333333
40
0.6666666667
40
1.0000000000
40
1.0000000000
40
1.0000000000
40
1.0000000000
10
-7.1791332567
20
12.0817364863
30
20.6992128044
10
-6.6626648037
20
11.5188574990
30
20.8812236953
10
-5.6290309932
20
10.3931130071
30
21.2431843772
10
-4.0764654477
20
8.7045879965
30
21.7799513606
10
-3.0399946827
20
7.5789986608
30
22.1336868943
10
-2.5213985716
20
7.0162360363
30
22.3095290786
11
-7.1791332567
21
12.0817364863
31
20.6992128044
11
-5.6286785216
21
10.3931282950
31
21.2421553706
11
-4.0761086807
21
8.7046114977
31
21.7789240801
11
-2.5213985716
21
7.0162360363
31
22.3095290786
0
SPLINE
5
34B
100
AcDbEntity
8
0
100
AcDbSpline
62
7
6
CONTINUOUS
70
0
71
3
72
12
73
8
74
6
42
0.0000001000
43
0.0000001000
44
0.0000000001
12
-1.0800512272
22
-0.7818561296
32
0.0000000000
13
-1.3152490816
23
-0.2165828090
33
0.0000000000
40
0.0000000000
40
0.0000000000
40
0.0000000000
40
0.0000000000
40
0.1684642690
40
0.3884128908
40
0.5991640860
40
0.8023891299
40
1.0000000000
40
1.0000000000
40
1.0000000000
40
1.0000000000
10
-15.0983106771
20
-18.3047683810
30
0.0000000000
10
-15.1589606905
20
-18.3486733214
30
0.0000000000
10
-15.3017071426
20
-18.4458788901
30
0.0000000000
10
-15.5324919524
20
-18.5792963939
30
0.0000000000
10
-15.7888681004
20
-18.6970387302
30
0.0000000000
10
-16.0464780343
20
-18.7850002263
30
0.0000000000
10
-16.2206893741
20
-18.8240557627
30
0.0000000000
10
-16.3073252126
20
-18.8383221352
30
0.0000000000
11
-15.0983106771
21
-18.3047683810
31
0.0000000000
11
-15.2840768098
21
-18.4309782581
31
0.0000000000
11
-15.5381966701
21
-18.5771955153
31
0.0000000000
11
-15.7937131621
21
-18.6939399687
31
0.0000000000
11
-16.0502239684
21
-18.7810278837
31
0.0000000000
11
-16.3073252126
21
-18.8383221352
31
0.0000000000
0
SPLINE
5
34C
100
AcDbEntity
8
0
100
AcDbSpline
62
7
6
CONTINUOUS
70
0
71
3
72
9
73
5
74
3
42
0.0000001000
43
0.0000001000
44
0.0000000001
12
0.4338003779
22
0.0646029382
32
0.0000000000
13
0.4387251430
23
-0.0069411693
33
0.0000000000
40
0.0000000000
40
0.0000000000
40
0.0000000000
40
0.0000000000
40
0.6456271298
40
1.0000000000
40
1.0000000000
40
1.0000000000
40
1.0000000000
10
6.3790964707
20
18.3359912610
30
0.0000000000
10
6.4724542350
20
18.3498943975
30
0.0000000000
10
6.6182915246
20
18.3639566870
30
0.0000000000
10
6.7646062438
20
18.3659279195
30
0.0000000000
10
6.8164303398
20
18.3651079988
30
0.0000000000
11
6.3790964707
21
18.3359912610
31
0.0000000000
11
6.6609662654
21
18.3630124203
31
0.0000000000
11
6.8164303398
21
18.3651079988
31
0.0000000000
0
SPLINE
5
34D
100
AcDbEntity
8
0
100
AcDbSpline
62
7
6
CONTINUOUS
70
0
71
3
72
47
73
43
74
41
42
0.0000001000
43
0.0000001000
44
0.0000000001
12
0.0095682324
22
-1.5266588941
32
0.0000000000
13
1.5122393859
23
0.1954088986
33
0.0000000000
40
0.0000000000
40
0.0000000000
40
0.0000000000
40
0.0000000000
40
0.0184642529
40
0.0456585785
40
0.0714296397
40
0.0958731981
40
0.1190512172
40
0.1410594320
40
0.1618977076
40
0.1810995115
40
0.1982736502
40
0.2131469138
40
0.2258554767
40
0.2372641024
40
0.2482477340
40
0.2594867359
40
0.2714126772
40
0.2842945726
40
0.2984208525
40
0.3140112078
40
0.3312231520
40
0.3501529701
40
0.3708501031
40
0.3933613463
40
0.4177499110
40
0.4440538230
40
0.4722838121
40
0.5024201407
40
0.5344133112
40
0.5681811260
40
0.6035935007
40
0.6404641220
40
0.6785477677
40
0.7175478951
40
0.7570918145
40
0.7967189084
40
0.8358963055
40
0.8740264095
40
0.9104386069
40
0.9444821945
40
0.9756064479
40
1.0000000000
40
1.0000000000
40
1.0000000000
40
1.0000000000
10
-11.4673707349
20
-22.9042545747
30
0.0000000000
10
-11.4673118448
20
-22.9136507800
30
0.0000000000
10
-11.4658656810
20
-22.9368955502
30
0.0000000000
10
-11.4585857233
20
-22.9726230581
30
0.0000000000
10
-11.4446084527
20
-23.0095753265
30
0.0000000000
10
-11.4262070374
20
-23.0421800666
30
0.0000000000
10
-11.4044992692
20
-23.0702777440
30
0.0000000000
10
-11.3804982816
20
-23.0938719434
30
0.0000000000
10
-11.3552996728
20
-23.1129707770
30
0.0000000000
10
-11.3301566134
20
-23.1277041106
30
0.0000000000
10
-11.3063853962
20
-23.1384561078
30
0.0000000000
10
-11.2848872079
20
-23.1459651858
30
0.0000000000
10
-11.2657541647
20
-23.1511748053
30
0.0000000000
10
-11.2483088684
20
-23.1549390678
30
0.0000000000
10
-11.2314645734
20
-23.1578683876
30
0.0000000000
10
-11.2142793466
20
-23.1603162283
30
0.0000000000
10
-11.1960836019
20
-23.1624700490
30
0.0000000000
10
-11.1763913116
20
-23.1644327768
30
0.0000000000
10
-11.1548165342
20
-23.1662613044
30
0.0000000000
10
-11.1310262359
20
-23.1679869581
30
0.0000000000
10
-11.1047828848
20
-23.1696212828
30
0.0000000000
10
-11.0759343962
20
-23.1711645308
30
0.0000000000
10
-11.0443843556
20
-23.1726104369
30
0.0000000000
10
-11.0100528742
20
-23.1739506150
30
0.0000000000
10
-10.9728656373
20
-23.1751740063
30
0.0000000000
10
-10.9327665415
20
-23.1762672909
30
0.0000000000
10
-10.8897415660
20
-23.1772142152
30
0.0000000000
10
-10.8438211606
20
-23.1779960326
30
0.0000000000
10
-10.7950830446
20
-23.1785922102
30
0.0000000000
10
-10.7436610940
20
-23.1789802531
30
0.0000000000
10
-10.6897588400
20
-23.1791359671
30
0.0000000000
10
-10.6336628368
20
-23.1790339815
30
0.0000000000
10
-10.5757444606
20
-23.1786480866
30
0.0000000000
10
-10.5164701020
20
-23.1779515036
30
0.0000000000
10
-10.4564160156
20
-23.1769173283
30
0.0000000000
10
-10.3962790912
20
-23.1755190721
30
0.0000000000
10
-10.3368713133
20
-23.1737306386
30
0.0000000000
10
-10.2791124565
20
-23.1715253899
30
0.0000000000
10
-10.2239845391
20
-23.1688715504
30
0.0000000000
10
-10.1724483496
20
-23.1657206056
30
0.0000000000
10
-10.1270686346
20
-23.1621101164
30
0.0000000000
10
-10.0990012434
20
-23.1591164916
30
0.0000000000
10
-10.0867049467
20
-23.1575275859
30
0.0000000000
11
-11.4673707349
21
-22.9042545747
31
0.0000000000
11
-11.4656176831
21
-22.9323844520
31
0.0000000000
11
-11.4573425673
21
-22.9730164113
31
0.0000000000
11
-11.4434407834
21
-23.0097710639
31
0.0000000000
11
-11.4251239649
21
-23.0422313709
31
0.0000000000
11
-11.4035192359
21
-23.0702008261
31
0.0000000000
11
-11.3795914540
21
-23.0937298941
31
0.0000000000
11
-11.3542734884
21
-23.1129290534
31
0.0000000000
11
-11.3290184179
21
-23.1277426313
31
0.0000000000
11
-11.3051662481
21
-23.1385520923
31
0.0000000000
11
-11.2837642514
21
-23.1460543582
31
0.0000000000
11
-11.2650741190
21
-23.1511718908
31
0.0000000000
11
-11.2480752832
21
-23.1548675775
31
0.0000000000
11
-11.2315794670
21
-23.1577624392
31
0.0000000000
11
-11.2146166949
21
-23.1602019265
31
0.0000000000
11
-11.1965603908
21
-23.1623593873
31
0.0000000000
11
-11.1770165080
21
-23.1643240449
31
0.0000000000
11
-11.1555548227
21
-23.1661571428
31
0.0000000000
11
-11.1318457295
21
-23.1678889475
31
0.0000000000
11
-11.1056522589
21
-23.1695306107
31
0.0000000000
11
-11.0768296620
21
-23.1710814413
31
0.0000000000
11
-11.0453040119
21
-23.1725340880
31
0.0000000000
11
-11.0110051341
21
-23.1738797496
31
0.0000000000
11
-10.9738376227
21
-23.1751084446
31
0.0000000000
11
-10.9337443162
21
-23.1762067473
31
0.0000000000
11
-10.8907095960
21
-23.1771583320
31
0.0000000000
11
-10.8447642827
21
-23.1779443654
31
0.0000000000
11
-10.7959846105
21
-23.1785441112
31
0.0000000000
11
-10.7444967475
21
-23.1789349292
31
0.0000000000
11
-10.6904999968
21
-23.1790923210
31
0.0000000000
11
-10.6342795668
21
-23.1789904431
31
0.0000000000
11
-10.5762107139
21
-23.1786025277
31
0.0000000000
11
-10.5167472480
21
-23.1779009399
31
0.0000000000
11
-10.4564594945
21
-23.1768575536
31
0.0000000000
11
-10.3960524145
21
-23.1754444231
31
0.0000000000
11
-10.3363419700
21
-23.1736332657
31
0.0000000000
11
-10.2782441344
21
-23.1713936173
31
0.0000000000
11
-10.2227884918
21
-23.1686898507
31
0.0000000000
11
-10.1709789275
21
-23.1654647680
31
0.0000000000
11
-10.1236780150
21
-23.1616013230
31
0.0000000000
11
-10.0867049467
21
-23.1575275859
31
0.0000000000
0
SPLINE
5
34E
100
AcDbEntity
8
0
100
AcDbSpline
62
7
6
CONTINUOUS
70
0
71
3
72
47
73
43
74
41
42
0.0000001000
43
0.0000001000
44
0.0000000001
12
0.0095682324
22
-1.5266588941
32
0.0000000000
13
1.5122393859
23
0.1954088986
33
0.0000000000
40
0.0000000000
40
0.0000000000
40
0.0000000000
40
0.0000000000
40
0.0184642529
40
0.0456585785
40
0.0714296397
40
0.0958731981
40
0.1190512172
40
0.1410594320
40
0.1618977076
40
0.1810995115
40
0.1982736502
40
0.2131469138
40
0.2258554767
40
0.2372641024
40
0.2482477340
40
0.2594867359
40
0.2714126772
40
0.2842945726
40
0.2984208525
40
0.3140112078
40
0.3312231520
40
0.3501529701
40
0.3708501031
40
0.3933613463
40
0.4177499110
40
0.4440538230
40
0.4722838121
40
0.5024201407
40
0.5344133112
40
0.5681811260
40
0.6035935007
40
0.6404641220
40
0.6785477677
40
0.7175478951
40
0.7570918145
40
0.7967189084
40
0.8358963055
40
0.8740264095
40
0.9104386069
40
0.9444821945
40
0.9756064479
40
1.0000000000
40
1.0000000000
40
1.0000000000
40
1.0000000000
10
1.7944187263
20
-23.1141572675
30
0.0000000000
10
1.7944776163
20
-23.1235534728
30
0.0000000000
10
1.7959237802
20
-23.1467982430
30
0.0000000000
10
1.8032037379
20
-23.1825257510
30
0.0000000000
10
1.8171810085
20
-23.2194780194
30
0.0000000000
10
1.8355824238
20
-23.2520827594
30
0.0000000000
10
1.8572901920
20
-23.2801804369
30
0.0000000000
10
1.8812911796
20
-23.3037746362
30
0.0000000000
10
1.9064897884
20
-23.3228734699
30
0.0000000000
10
1.9316328478
20
-23.3376068034
30
0.0000000000
10
1.9554040650
20
-23.3483588006
30
0.0000000000
10
1.9769022533
20
-23.3558678787
30
0.0000000000
10
1.9960352965
20
-23.3610774981
30
0.0000000000
10
2.0134805928
20
-23.3648417606
30
0.0000000000
10
2.0303248878
20
-23.3677710805
30
0.0000000000
10
2.0475101146
20
-23.3702189212
30
0.0000000000
10
2.0657058593
20
-23.3723727418
30
0.0000000000
10
2.0853981495
20
-23.3743354697
30
0.0000000000
10
2.1069729270
20
-23.3761639973
30
0.0000000000
10
2.1307632252
20
-23.3778896510
30
0.0000000000
10
2.1570065764
20
-23.3795239756
30
0.0000000000
10
2.1858550650
20
-23.3810672237
30
0.0000000000
10
2.2174051056
20
-23.3825131297
30
0.0000000000
10
2.2517365870
20
-23.3838533079
30
0.0000000000
10
2.2889238239
20
-23.3850766991
30
0.0000000000
10
2.3290229197
20
-23.3861699837
30
0.0000000000
10
2.3720478952
20
-23.3871169081
30
0.0000000000
10
2.4179683006
20
-23.3878987255
30
0.0000000000
10
2.4667064166
20
-23.3884949030
30
0.0000000000
10
2.5181283671
20
-23.3888829459
30
0.0000000000
10
2.5720306212
20
-23.3890386599
30
0.0000000000
10
2.6281266244
20
-23.3889366744
30
0.0000000000
10
2.6860450005
20
-23.3885507795
30
0.0000000000
10
2.7453193592
20
-23.3878541964
30
0.0000000000
10
2.8053734456
20
-23.3868200212
30
0.0000000000
10
2.8655103700
20
-23.3854217649
30
0.0000000000
10
2.9249181479
20
-23.3836333314
30
0.0000000000
10
2.9826770047
20
-23.3814280828
30
0.0000000000
10
3.0378049221
20
-23.3787742432
30
0.0000000000
10
3.0893411116
20
-23.3756232984
30
0.0000000000
10
3.1347208266
20
-23.3720128092
30
0.0000000000
10
3.1627882178
20
-23.3690191845
30
0.0000000000
10
3.1750845145
20
-23.3674302787
30
0.0000000000
11
1.7944187263
21
-23.1141572675
31
0.0000000000
11
1.7961717780
21
-23.1422871448
31
0.0000000000
11
1.8044468939
21
-23.1829191042
31
0.0000000000
11
1.8183486778
21
-23.2196737568
31
0.0000000000
11
1.8366654963
21
-23.2521340637
31
0.0000000000
11
1.8582702253
21
-23.2801035189
31
0.0000000000
11
1.8821980072
21
-23.3036325870
31
0.0000000000
11
1.9075159728
21
-23.3228317463
31
0.0000000000
11
1.9327710432
21
-23.3376453241
31
0.0000000000
11
1.9566232131
21
-23.3484547851
31
0.0000000000
11
1.9780252097
21
-23.3559570510
31
0.0000000000
11
1.9967153422
21
-23.3610745837
31
0.0000000000
11
2.0137141779
21
-23.3647702703
31
0.0000000000
11
2.0302099942
21
-23.3676651321
31
0.0000000000
11
2.0471727662
21
-23.3701046193
31
0.0000000000
11
2.0652290704
21
-23.3722620801
31
0.0000000000
11
2.0847729532
21
-23.3742267378
31
0.0000000000
11
2.1062346385
21
-23.3760598357
31
0.0000000000
11
2.1299437317
21
-23.3777916403
31
0.0000000000
11
2.1561372023
21
-23.3794333036
31
0.0000000000
11
2.1849597992
21
-23.3809841341
31
0.0000000000
11
2.2164854493
21
-23.3824367808
31
0.0000000000
11
2.2507843271
21
-23.3837824424
31
0.0000000000
11
2.2879518385
21
-23.3850111375
31
0.0000000000
11
2.3280451450
21
-23.3861094401
31
0.0000000000
11
2.3710798652
21
-23.3870610248
31
0.0000000000
11
2.4170251785
21
-23.3878470583
31
0.0000000000
11
2.4658048507
21
-23.3884468040
31
0.0000000000
11
2.5172927137
21
-23.3888376220
31
0.0000000000
11
2.5712894644
21
-23.3889950138
31
0.0000000000
11
2.6275098944
21
-23.3888931360
31
0.0000000000
11
2.6855787472
21
-23.3885052205
31
0.0000000000
11
2.7450422132
21
-23.3878036328
31
0.0000000000
11
2.8053299667
21
-23.3867602464
31
0.0000000000
11
2.8657370467
21
-23.3853471160
31
0.0000000000
11
2.9254474912
21
-23.3835359586
31
0.0000000000
11
2.9835453268
21
-23.3812963101
31
0.0000000000
11
3.0390009693
21
-23.3785925436
31
0.0000000000
11
3.0908105337
21
-23.3753674609
31
0.0000000000
11
3.1381114462
21
-23.3715040158
31
0.0000000000
11
3.1750845145
21
-23.3674302787
31
0.0000000000
0
SPLINE
5
34F
100
AcDbEntity
8
0
100
AcDbSpline
62
7
6
CONTINUOUS
70
0
71
3
72
20
73
16
74
14
42
0.0000001000
43
0.0000001000
44
0.0000000001
12
-0.3811182913
22
-0.0706445244
32
0.0000000000
13
0.0023889134
23
-0.3880135559
33
0.0000000000
40
0.0000000000
40
0.0000000000
40
0.0000000000
40
0.0000000000
40
0.0405734563
40
0.0964790668
40
0.1535595536
40
0.2155372688
40
0.2837708703
40
0.3590546043
40
0.4410804153
40
0.5296686269
40
0.6248204864
40
0.7250768984
40
0.8287454172
40
0.9343747825
40
1.0000000000
40
1.0000000000
40
1.0000000000
40
1.0000000000
10
1.7510456981
20
22.9043225415
30
0.0000000000
10
1.7458912693
20
22.9033671106
30
0.0000000000
10
1.7336622730
20
22.9009438383
30
0.0000000000
10
1.7143466018
20
22.8963834032
30
0.0000000000
10
1.6926537323
20
22.8899774419
30
0.0000000000
10
1.6699623379
20
22.8815039047
30
0.0000000000
10
1.6459502879
20
22.8700863278
30
0.0000000000
10
1.6209938780
20
22.8549319635
30
0.0000000000
10
1.5958628210
20
22.8353684962
30
0.0000000000
10
1.5716106478
20
22.8109178187
30
0.0000000000
10
1.5495644257
20
22.7814273579
30
0.0000000000
10
1.5312129999
20
22.7472517132
30
0.0000000000
10
1.5179506124
20
22.7093400421
30
0.0000000000
10
1.5117085847
20
22.6742225060
30
0.0000000000
10
1.5107298566
20
22.6520523878
30
0.0000000000
10
1.5107821142
20
22.6435645632
30
0.0000000000
11
1.7510456981
21
22.9043225415
31
0.0000000000
11
1.7356221611
21
22.9012507712
31
0.0000000000
11
1.7145442128
21
22.8962270136
31
0.0000000000
11
1.6933383502
21
22.8899205906
31
0.0000000000
11
1.6708472848
21
22.8814825288
31
0.0000000000
11
1.6469752115
21
22.8701007810
31
0.0000000000
11
1.6220442971
21
22.8549393360
31
0.0000000000
11
1.5969652195
21
22.8353999626
31
0.0000000000
11
1.5727915716
21
22.8110159665
31
0.0000000000
11
1.5507144437
21
22.7814741866
31
0.0000000000
11
1.5323350483
21
22.7472373772
31
0.0000000000
11
1.5190687251
21
22.7093098885
31
0.0000000000
11
1.5119072091
21
22.6690004008
31
0.0000000000
11
1.5107821142
21
22.6435645632
31
0.0000000000
0
SPLINE
5
350
100
AcDbEntity
8
0
100
AcDbSpline
62
7
6
CONTINUOUS
70
0
71
3
72
9
73
5
74
3
42
0.0000001000
43
0.0000001000
44
0.0000000001
12
-0.0119215124
22
-0.0015341001
32
0.0000000000
13
-0.0118152961
23
-0.0021911903
33
0.0000000000
40
0.0000000000
40
0.0000000000
40
0.0000000000
40
0.0000000000
40
0.1641668199
40
1.0000000000
40
1.0000000000
40
1.0000000000
40
1.0000000000
10
-8.2553377782
20
23.7175426315
30
0.0000000000
10
-8.2559901505
20
23.7174586821
30
0.0000000000
10
-8.2599615857
20
23.7169292508
30
0.0000000000
10
-8.2639172015
20
23.7162898020
30
0.0000000000
10
-8.2672090737
20
23.7156793122
30
0.0000000000
11
-8.2553377782
21
23.7175426315
31
0.0000000000
11
-8.2572936799
21
23.7172818869
31
0.0000000000
11
-8.2672090737
21
23.7156793122
31
0.0000000000
0
SPLINE
5
351
100
AcDbEntity
8
0
100
AcDbSpline
62
7
6
CONTINUOUS
70
0
71
3
72
20
73
16
74
14
42
0.0000001000
43
0.0000001000
44
0.0000000001
12
-0.3811182913
22
-0.0706445244
32
0.0000000000
13
0.0023889134
23
-0.3880135559
33
0.0000000000
40
0.0000000000
40
0.0000000000
40
0.0000000000
40
0.0000000000
40
0.0405734563
40
0.0964790668
40
0.1535595536
40
0.2155372688
40
0.2837708703
40
0.3590546043
40
0.4410804153
40
0.5296686269
40
0.6248204864
40
0.7250768984
40
0.8287454172
40
0.9343747825
40
1.0000000000
40
1.0000000000
40
1.0000000000
40
1.0000000000
10
-11.5107437631
20
23.1142252343
30
0.0000000000
10
-11.5158981919
20
23.1132698035
30
0.0000000000
10
-11.5281271882
20
23.1108465311
30
0.0000000000
10
-11.5474428594
20
23.1062860961
30
0.0000000000
10
-11.5691357289
20
23.0998801348
30
0.0000000000
10
-11.5918271233
20
23.0914065976
30
0.0000000000
10
-11.6158391732
20
23.0799890207
30
0.0000000000
10
-11.6407955831
20
23.0648346563
30
0.0000000000
10
-11.6659266402
20
23.0452711891
30
0.0000000000
10
-11.6901788134
20
23.0208205115
30
0.0000000000
10
-11.7122250355
20
22.9913300507
30
0.0000000000
10
-11.7305764613
20
22.9571544061
30
0.0000000000
10
-11.7438388487
20
22.9192427349
30
0.0000000000
10
-11.7500808765
20
22.8841251988
30
0.0000000000
10
-11.7510596046
20
22.8619550807
30
0.0000000000
10
-11.7510073470
20
22.8534672560
30
0.0000000000
11
-11.5107437631
21
23.1142252343
31
0.0000000000
11
-11.5261673001
21
23.1111534640
31
0.0000000000
11
-11.5472452484
21
23.1061297065
31
0.0000000000
11
-11.5684511110
21
23.0998232834
31
0.0000000000
11
-11.5909421764
21
23.0913852216
31
0.0000000000
11
-11.6148142497
21
23.0800034739
31
0.0000000000
11
-11.6397451641
21
23.0648420289
31
0.0000000000
11
-11.6648242417
21
23.0453026554
31
0.0000000000
11
-11.6889978896
21
23.0209186594
31
0.0000000000
11
-11.7110750175
21
22.9913768794
31
0.0000000000
11
-11.7294544129
21
22.9571400701
31
0.0000000000
11
-11.7427207361
21
22.9192125814
31
0.0000000000
11
-11.7498822521
21
22.8789030936
31
0.0000000000
11
-11.7510073470
21
22.8534672560
31
0.0000000000
0
SPLINE
5
352
100
AcDbEntity
8
0
100
AcDbSpline
62
7
6
CONTINUOUS
70
0
71
3
72
20
73
16
74
14
42
0.0000001000
43
0.0000001000
44
0.0000000001
12
-0.3862246493
22
-0.0734560968
32
0.0000000000
13
0.0024272028
23
-0.3935338153
33
0.0000000000
40
0.0000000000
40
0.0000000000
40
0.0000000000
40
0.0000000000
40
0.0420896808
40
0.0976047171
40
0.1528707332
40
0.2120310285
40
0.2777601975
40
0.3517860812
40
0.4344551566
40
0.5255706834
40
0.6244755155
40
0.7283794908
40
0.8341213235
40
0.9389171821
40
1.0000000000
40
1.0000000000
40
1.0000000000
40
1.0000000000
10
-15.2349534884
20
24.0360855775
30
0.0000000000
10
-15.2403721791
20
24.0350549963
30
0.0000000000
10
-15.2529098189
20
24.0325149298
30
0.0000000000
10
-15.2724021723
20
24.0278660608
30
0.0000000000
10
-15.2937854902
20
24.0216043342
30
0.0000000000
10
-15.3159897766
20
24.0135265890
30
0.0000000000
10
-15.3397239434
20
24.0026676818
30
0.0000000000
10
-15.3649673293
20
23.9879867623
30
0.0000000000
10
-15.3910472601
20
23.9685001276
30
0.0000000000
10
-15.4167171998
20
23.9434769559
30
0.0000000000
10
-15.4402037571
20
23.9127616587
30
0.0000000000
10
-15.4595430617
20
23.8770547397
30
0.0000000000
10
-15.4731078853
20
23.8379473577
30
0.0000000000
10
-15.4791683873
20
23.8027194751
30
0.0000000000
10
-15.4800661482
20
23.7809417365
30
0.0000000000
10
-15.4800167281
20
23.7729290184
30
0.0000000000
11
-15.2349534884
21
24.0360855775
31
0.0000000000
11
-15.2511681463
21
24.0327846968
31
0.0000000000
11
-15.2723871566
21
24.0276794406
31
0.0000000000
11
-15.2932266968
21
24.0215345178
31
0.0000000000
11
-15.3150699456
21
24.0135478017
31
0.0000000000
11
-15.3385539003
21
24.0027677704
31
0.0000000000
11
-15.3636978576
21
23.9881155239
31
0.0000000000
11
-15.3897216229
21
23.9686480059
31
0.0000000000
11
-15.4153622600
21
23.9436352828
31
0.0000000000
11
-15.4389732815
21
23.9127427020
31
0.0000000000
11
-15.4584217034
21
23.8768221755
31
0.0000000000
11
-15.4720426034
21
23.8375469375
31
0.0000000000
11
-15.4790248319
21
23.7969447074
31
0.0000000000
11
-15.4800167281
21
23.7729290184
31
0.0000000000
0
SPLINE
5
353
100
AcDbEntity
8
0
100
AcDbSpline
62
7
6
CONTINUOUS
70
0
71
3
72
8
73
4
74
2
42
0.0000001000
43
0.0000001000
44
0.0000000001
12
0.0122496195
22
0.0004953696
32
0.0000000000
13
0.0122448471
23
-0.0001938069
33
0.0000000000
40
0.0000000000
40
0.0000000000
40
0.0000000000
40
0.0000000000
40
1.0000000000
40
1.0000000000
40
1.0000000000
40
1.0000000000
10
7.4779534088
20
23.9666653498
30
0.0000000000
10
7.4820366153
20
23.9668304730
30
0.0000000000
10
7.4861228626
20
23.9668808331
30
0.0000000000
10
7.4902044783
20
23.9668162308
30
0.0000000000
11
7.4779534088
21
23.9666653498
31
0.0000000000
11
7.4902044783
21
23.9668162308
31
0.0000000000
0
SPLINE
5
354
100
AcDbEntity
8
0
100
AcDbSpline
62
7
6
CONTINUOUS
70
0
71
3
72
20
73
16
74
14
42
0.0000001000
43
0.0000001000
44
0.0000000001
12
-0.3897920250
22
-0.0722598731
32
0.0000000000
13
0.0024451283
23
-0.3968346282
33
0.0000000000
40
0.0000000000
40
0.0000000000
40
0.0000000000
40
0.0000000000
40
0.0422114707
40
0.0973645020
40
0.1519601362
40
0.2102313653
40
0.2750435599
40
0.3485139131
40
0.4309464774
40
0.5219627743
40
0.6210065360
40
0.7253585485
40
0.8318050472
40
0.9375085617
40
1.0000000000
40
1.0000000000
40
1.0000000000
40
1.0000000000
10
6.0287235613
20
23.7001916655
30
0.0000000000
10
6.0232389964
20
23.6991749337
30
0.0000000000
10
6.0106150785
20
23.6966834826
30
0.0000000000
10
5.9910486690
20
23.6921454594
30
0.0000000000
10
5.9696820293
20
23.6860731137
30
0.0000000000
10
5.9475227085
20
23.6782583430
30
0.0000000000
10
5.9237517611
20
23.6677134264
30
0.0000000000
10
5.8983104053
20
23.6533430925
30
0.0000000000
10
5.8718603243
20
23.6340980196
30
0.0000000000
10
5.8456903288
20
23.6091976977
30
0.0000000000
10
5.8216272187
20
23.5784343644
30
0.0000000000
10
5.8017079705
20
23.5424574816
30
0.0000000000
10
5.7876593008
20
23.5028571348
30
0.0000000000
10
5.7813209309
20
23.4669620281
30
0.0000000000
10
5.7803695051
20
23.4446939359
30
0.0000000000
10
5.7804204383
20
23.4364276804
30
0.0000000000
11
6.0287235613
21
23.7001916655
31
0.0000000000
11
6.0123094323
21
23.6969364208
31
0.0000000000
11
5.9910210462
21
23.6919548260
31
0.0000000000
11
5.9702141964
21
23.6859988572
31
0.0000000000
11
5.9484426592
21
23.6782793585
31
0.0000000000
11
5.9249711294
21
23.6678298356
31
0.0000000000
11
5.8996255531
21
23.6534822927
31
0.0000000000
11
5.8732139364
21
23.6342405473
31
0.0000000000
11
5.8470848456
21
23.6093597922
31
0.0000000000
11
5.8229024109
21
23.5784284659
31
0.0000000000
11
5.8028706618
21
23.5422354908
31
0.0000000000
11
5.7887644060
21
23.5024661857
31
0.0000000000
11
5.7814810014
21
23.4612015966
31
0.0000000000
11
5.7804204383
21
23.4364276804
31
0.0000000000
0
SPLINE
5
355
100
AcDbEntity
8
0
100
AcDbSpline
62
7
6
CONTINUOUS
70
0
71
3
72
48
73
44
74
42
42
0.0000001000
43
0.0000001000
44
0.0000000001
12
0.0111155271
22
-1.7745117436
32
0.0000000000
13
1.7577771485
23
0.2270166390
33
0.0000000000
40
0.0000000000
40
0.0000000000
40
0.0000000000
40
0.0000000000
40
0.0158986922
40
0.0398442978
40
0.0628663193
40
0.0848140013
40
0.1054941452
40
0.1247885181
40
0.1427162879
40
0.1590968523
40
0.1737799560
40
0.1866906568
40
0.1980174682
40
0.2084798341
40
0.2187402457
40
0.2294157045
40
0.2409052154
40
0.2534692616
40
0.2673393691
40
0.2826940749
40
0.2996594120
40
0.3183155675
40
0.3387004000
40
0.3608354953
40
0.3847720095
40
0.4105492270
40
0.4381847311
40
0.4676722164
40
0.4989777168
40
0.5320392344
40
0.5667563789
40
0.6029826881
40
0.6405189242
40
0.6791185288
40
0.7184856304
40
0.7582500623
40
0.7979610502
40
0.8371069484
40
0.8751084258
40
0.9113118829
40
0.9450638169
40
0.9757678837
40
1.0000000000
40
1.0000000000
40
1.0000000000
40
1.0000000000
10
-15.1865378364
20
-23.5725780505
30
0.0000000000
10
-15.1864789290
20
-23.5819821892
30
0.0000000000
10
-15.1850126174
20
-23.6055601490
30
0.0000000000
10
-15.1774982642
20
-23.6421041711
30
0.0000000000
10
-15.1627811764
20
-23.6802599719
30
0.0000000000
10
-15.1432209746
20
-23.7139294169
30
0.0000000000
10
-15.1202587388
20
-23.7425728797
30
0.0000000000
10
-15.0952842894
20
-23.7660996817
30
0.0000000000
10
-15.0695708896
20
-23.7847216616
30
0.0000000000
10
-15.0442590109
20
-23.7988794108
30
0.0000000000
10
-15.0203702811
20
-23.8091888505
30
0.0000000000
10
-14.9985342722
20
-23.8164645382
30
0.0000000000
10
-14.9786820281
20
-23.8216237670
30
0.0000000000
10
-14.9601329191
20
-23.8254538769
30
0.0000000000
10
-14.9418349164
20
-23.8285190329
30
0.0000000000
10
-14.9228574634
20
-23.8311469932
30
0.0000000000
10
-14.9024757079
20
-23.8335149811
30
0.0000000000
10
-14.8801781461
20
-23.8357150946
30
0.0000000000
10
-14.8555767109
20
-23.8377942573
30
0.0000000000
10
-14.8283595429
20
-23.8397761858
30
0.0000000000
10
-14.7983022872
20
-23.8416673146
30
0.0000000000
10
-14.7652627679
20
-23.8434646815
30
0.0000000000
10
-14.7291599473
20
-23.8451592463
30
0.0000000000
10
-14.6899296802
20
-23.8467403973
30
0.0000000000
10
-14.6475067846
20
-23.8481960990
30
0.0000000000
10
-14.6018283043
20
-23.8495122329
30
0.0000000000
10
-14.5528651550
20
-23.8506722430
30
0.0000000000
10
-14.5006314909
20
-23.8516567579
30
0.0000000000
10
-14.4451885051
20
-23.8524442940
30
0.0000000000
10
-14.3866530363
20
-23.8530114674
30
0.0000000000
10
-14.3252084844
20
-23.8533329797
30
0.0000000000
10
-14.2611194743
20
-23.8533820653
30
0.0000000000
10
-14.1947371780
20
-23.8531310434
30
0.0000000000
10
-14.1265012874
20
-23.8525515047
30
0.0000000000
10
-14.0569528050
20
-23.8516146126
30
0.0000000000
10
-13.9867538215
20
-23.8502916228
30
0.0000000000
10
-13.9166944920
20
-23.8485544397
30
0.0000000000
10
-13.8476894284
20
-23.8463755694
30
0.0000000000
10
-13.7807742593
20
-23.8437273499
30
0.0000000000
10
-13.7170710208
20
-23.8405778898
30
0.0000000000
10
-13.6577145438
20
-23.8368815237
30
0.0000000000
10
-13.6054846241
20
-23.8326847898
30
0.0000000000
10
-13.5732029560
20
-23.8292382389
30
0.0000000000
10
-13.5590047359
20
-23.8274045410
30
0.0000000000
11
-15.1865378364
21
-23.5725780505
31
0.0000000000
11
-15.1847839334
21
-23.6007320422
31
0.0000000000
11
-15.1762399995
21
-23.6423036719
31
0.0000000000
11
-15.1615570771
21
-23.6803739454
31
0.0000000000
11
-15.1420197989
21
-23.7140111820
31
0.0000000000
11
-15.1190976370
21
-23.7426120768
31
0.0000000000
11
-15.0942109508
21
-23.7660657613
31
0.0000000000
11
-15.0684824827
21
-23.7847118552
31
0.0000000000
11
-15.0431523834
21
-23.7988988240
31
0.0000000000
11
-15.0192683831
21
-23.8092332110
31
0.0000000000
11
-14.9975694952
21
-23.8164975370
31
0.0000000000
11
-14.9781483121
21
-23.8215805047
31
0.0000000000
11
-14.9599948598
21
-23.8253624176
31
0.0000000000
11
-14.9420642546
21
-23.8283951652
31
0.0000000000
11
-14.9233255995
21
-23.8310148864
31
0.0000000000
11
-14.9031004073
21
-23.8333858976
31
0.0000000000
11
-14.8809415844
21
-23.8355899971
31
0.0000000000
11
-14.8564471916
21
-23.8376753273
31
0.0000000000
11
-14.8293057397
21
-23.8396646960
31
0.0000000000
11
-14.7992968932
21
-23.8415641391
31
0.0000000000
11
-14.7662805852
21
-23.8433700458
31
0.0000000000
11
-14.7301912015
21
-23.8450725769
31
0.0000000000
11
-14.6909916913
21
-23.8466599788
31
0.0000000000
11
-14.6485924464
21
-23.8481214045
31
0.0000000000
11
-14.6029247297
21
-23.8494430112
31
0.0000000000
11
-14.5539581760
21
-23.8506080991
31
0.0000000000
11
-14.5017047248
21
-23.8515972926
31
0.0000000000
11
-14.4462253591
21
-23.8523889541
31
0.0000000000
11
-14.3876308066
21
-23.8529595306
31
0.0000000000
11
-14.3260999408
21
-23.8532834825
31
0.0000000000
11
-14.2618934397
21
-23.8533336752
31
0.0000000000
11
-14.1953657167
21
-23.8530819080
31
0.0000000000
11
-14.1269553138
21
-23.8524991657
31
0.0000000000
11
-14.0571885188
21
-23.8515556048
31
0.0000000000
11
-13.9867237608
21
-23.8502211448
31
0.0000000000
11
-13.9163629742
21
-23.8484661607
31
0.0000000000
11
-13.8470169215
21
-23.8462605234
31
0.0000000000
11
-13.7797178106
21
-23.8435722680
31
0.0000000000
11
-13.7156320009
21
-23.8403649474
31
0.0000000000
11
-13.6559307098
21
-23.8365822815
31
0.0000000000
11
-13.6016954160
21
-23.8321139670
31
0.0000000000
11
-13.5590047359
21
-23.8274045410
31
0.0000000000
0
SPLINE
5
356
100
AcDbEntity
8
0
100
AcDbSpline
62
7
6
CONTINUOUS
70
0
71
3
72
48
73
44
74
42
42
0.0000001000
43
0.0000001000
44
0.0000000001
12
0.0110929085
22
-1.7714492552
32
0.0000000000
13
1.7554530856
23
0.2211250869
33
0.0000000000
40
0.0000000000
40
0.0000000000
40
0.0000000000
40
0.0000000000
40
0.0158587823
40
0.0397737229
40
0.0627631215
40
0.0846808665
40
0.1053383841
40
0.1246179429
40
0.1425425851
40
0.1589349865
40
0.1736395582
40
0.1865900044
40
0.1979558070
40
0.2084417600
40
0.2187159130
40
0.2293953245
40
0.2408724720
40
0.2534118123
40
0.2672496171
40
0.2825664496
40
0.2994875893
40
0.3180926922
40
0.3384174628
40
0.3604877887
40
0.3843574834
40
0.4100665892
40
0.4376336744
40
0.4670534023
40
0.4982934546
40
0.5312933579
40
0.5659541542
40
0.6021312745
40
0.6396279107
40
0.6782013971
40
0.7175597415
40
0.7573370551
40
0.7970875443
40
0.8363054196
40
0.8744164855
40
0.9107708133
40
0.9447117988
40
0.9756293751
40
1.0000000000
40
1.0000000000
40
1.0000000000
40
1.0000000000
10
6.0738993214
20
-23.9090798387
30
0.0000000000
10
6.0739579614
20
-23.9184441814
30
0.0000000000
10
6.0754135371
20
-23.9419396273
30
0.0000000000
10
6.0828758102
20
-23.9783653187
30
0.0000000000
10
6.0975001653
20
-24.0164209884
30
0.0000000000
10
6.1169428120
20
-24.0500217094
30
0.0000000000
10
6.1397782517
20
-24.0786336994
30
0.0000000000
10
6.1646326252
20
-24.1021659636
30
0.0000000000
10
6.1902469303
20
-24.1208247994
30
0.0000000000
10
6.2154898506
20
-24.1350398015
30
0.0000000000
10
6.2393478801
20
-24.1454162460
30
0.0000000000
10
6.2611838122
20
-24.1527544454
30
0.0000000000
10
6.2810494247
20
-24.1579624891
30
0.0000000000
10
6.2996043986
20
-24.1618260547
30
0.0000000000
10
6.3178910824
20
-24.1649131823
30
0.0000000000
10
6.3368365204
20
-24.1675550495
30
0.0000000000
10
6.3571620706
20
-24.1699316144
30
0.0000000000
10
6.3793792578
20
-24.1721369001
30
0.0000000000
10
6.4038815860
20
-24.1742195856
30
0.0000000000
10
6.4309838223
20
-24.1762042166
30
0.0000000000
10
6.4609103121
20
-24.1780977158
30
0.0000000000
10
6.4938009317
20
-24.1798972499
30
0.0000000000
10
6.5297375030
20
-24.1815942219
30
0.0000000000
10
6.5687868823
20
-24.1831782963
30
0.0000000000
10
6.6110186784
20
-24.1846378346
30
0.0000000000
10
6.6564983326
20
-24.1859588724
30
0.0000000000
10
6.7052564779
20
-24.1871249958
30
0.0000000000
10
6.7572811100
20
-24.1881170100
30
0.0000000000
10
6.8125135875
20
-24.1889135436
30
0.0000000000
10
6.8708399935
20
-24.1894913679
30
0.0000000000
10
6.9320801116
20
-24.1898253375
30
0.0000000000
10
6.9959731767
20
-24.1898888268
30
0.0000000000
10
7.0621734794
20
-24.1896542985
30
0.0000000000
10
7.1302481187
20
-24.1890934833
30
0.0000000000
10
7.1996641527
20
-24.1881776500
30
0.0000000000
10
7.2697684097
20
-24.1868781324
30
0.0000000000
10
7.3397810514
20
-24.1851668731
30
0.0000000000
10
7.4087985252
20
-24.1830163989
30
0.0000000000
10
7.4757957232
20
-24.1803991350
30
0.0000000000
10
7.5396561077
20
-24.1772837223
30
0.0000000000
10
7.5992393173
20
-24.1736264523
30
0.0000000000
10
7.6517029017
20
-24.1694807044
30
0.0000000000
10
7.6841422224
20
-24.1660888623
30
0.0000000000
10
7.6984027186
20
-24.1642925434
30
0.0000000000
11
6.0738993214
21
-23.9090798387
31
0.0000000000
11
6.0756391140
21
-23.9371151203
31
0.0000000000
11
6.0841271486
21
-23.9785682455
31
0.0000000000
11
6.0987170298
21
-24.0165372159
31
0.0000000000
11
6.1181360974
21
-24.0501043460
31
0.0000000000
11
6.1409320231
21
-24.0786741348
31
0.0000000000
11
6.1656977971
21
-24.1021319056
31
0.0000000000
11
6.1913258515
21
-24.1208136987
31
0.0000000000
11
6.2165897726
21
-24.1350591568
31
0.0000000000
11
6.2404383580
21
-24.1454579642
31
0.0000000000
11
6.2621479459
21
-24.1527875186
31
0.0000000000
11
6.2815915930
21
-24.1579204475
31
0.0000000000
11
6.2997483167
21
-24.1617346300
31
0.0000000000
11
6.3176681386
21
-24.1647891044
31
0.0000000000
11
6.3363789286
21
-24.1674233282
31
0.0000000000
11
6.3565458136
21
-24.1698026946
31
0.0000000000
11
6.3786216866
21
-24.1720117458
31
0.0000000000
11
6.4030159474
21
-24.1741005282
31
0.0000000000
11
6.4300430269
21
-24.1760926788
31
0.0000000000
11
6.4599214942
21
-24.1779945285
31
0.0000000000
11
6.4927902031
21
-24.1798027085
31
0.0000000000
11
6.5287108222
21
-24.1815075252
31
0.0000000000
11
6.5677279276
21
-24.1830978050
31
0.0000000000
11
6.6099356645
21
-24.1845630528
31
0.0000000000
11
6.6554039908
21
-24.1858895580
31
0.0000000000
11
6.7041649616
21
-24.1870607658
31
0.0000000000
11
6.7562083737
21
-24.1880574562
31
0.0000000000
11
6.8114762685
21
-24.1888581341
31
0.0000000000
11
6.8698608113
21
-24.1894393956
31
0.0000000000
11
6.9311859782
21
-24.1897758537
31
0.0000000000
11
6.9951948997
21
-24.1898405254
31
0.0000000000
11
7.0615380851
21
-24.1896053662
31
0.0000000000
11
7.1297846522
21
-24.1890415097
31
0.0000000000
11
7.1994161070
21
-24.1881192428
31
0.0000000000
11
7.2697827557
21
-24.1868085962
31
0.0000000000
11
7.3400929032
21
-24.1850800303
31
0.0000000000
11
7.4094477860
21
-24.1829034879
31
0.0000000000
11
7.4768261722
21
-24.1802472023
31
0.0000000000
11
7.5410704093
21
-24.1770753104
31
0.0000000000
11
7.6010062519
21
-24.1733337729
31
0.0000000000
11
7.6555309575
21
-24.1689191418
31
0.0000000000
11
7.6984027186
21
-24.1642925434
31
0.0000000000
0
SPLINE
5
357
100
AcDbEntity
8
0
100
AcDbSpline
62
7
6
CONTINUOUS
70
0
71
3
72
17
73
13
74
11
42
0.0000001000
43
0.0000001000
44
0.0000000001
12
1.2560207714
22
-0.1962810806
32
0.0000000000
13
1.1925853993
23
-0.4404008457
33
0.0000000000
40
0.0000000000
40
0.0000000000
40
0.0000000000
40
0.0000000000
40
0.0572181381
40
0.1365276679
40
0.2213692178
40
0.3122532474
40
0.4097193038
40
0.5143789241
40
0.6269352775
40
0.7481554532
40
0.8789099289
40
1.0000000000
40
1.0000000000
40
1.0000000000
40
1.0000000000
10
2.9936401427
20
18.2623126404
30
0.0000000000
10
3.0175958661
20
18.2585690277
30
0.0000000000
10
3.0747057560
20
18.2493123106
30
0.0000000000
10
3.1670995202
20
18.2330782252
30
0.0000000000
10
3.2732390489
20
18.2127102653
30
0.0000000000
10
3.3865563881
20
18.1890012945
30
0.0000000000
10
3.5076208075
20
18.1614025250
30
0.0000000000
10
3.6370426042
20
18.1292494805
30
0.0000000000
10
3.7754736009
20
18.0917337031
30
0.0000000000
10
3.9236006279
20
18.0478671294
30
0.0000000000
10
4.0739902825
20
17.9990771858
30
0.0000000000
10
4.1745983931
20
17.9634406161
30
0.0000000000
10
4.2227351434
20
17.9456645596
30
0.0000000000
11
2.9936401427
21
18.2623126404
31
0.0000000000
11
3.0654425988
21
18.2506774289
31
0.0000000000
11
3.1647446974
21
18.2332337547
31
0.0000000000
11
3.2706675606
21
18.2129093078
31
0.0000000000
11
3.3837553917
21
18.1892477554
31
0.0000000000
11
3.5045594256
21
18.1617047760
31
0.0000000000
11
3.6336815590
21
18.1296189278
31
0.0000000000
11
3.7717844948
21
18.0921799869
31
0.0000000000
11
3.9195379988
21
18.0484053740
31
0.0000000000
11
4.0776394599
21
17.9970854679
31
0.0000000000
11
4.2227351434
21
17.9456645596
31
0.0000000000
0
SPLINE
5
358
100
AcDbEntity
8
0
100
AcDbSpline
62
7
6
CONTINUOUS
70
0
71
3
72
9
73
5
74
3
42
0.0000001000
43
0.0000001000
44
0.0000000001
12
0.0469548785
22
0.0293765041
32
0.0000000000
13
0.0465440582
23
0.0300231820
33
0.0000000000
40
0.0000000000
40
0.0000000000
40
0.0000000000
40
0.0000000000
40
0.5072040252
40
1.0000000000
40
1.0000000000
40
1.0000000000
40
1.0000000000
10
-0.0517649693
20
-18.6200270956
30
0.0000000000
10
-0.0438264015
20
-18.6150604685
30
0.0000000000
10
-0.0282094632
20
-18.6052127494
30
0.0000000000
10
-0.0126610035
20
-18.5952572814
30
0.0000000000
10
-0.0050154287
20
-18.5903255137
30
0.0000000000
11
-0.0517649693
21
-18.6200270956
31
0.0000000000
11
-0.0280020701
21
-18.6050431439
31
0.0000000000
11
-0.0050154287
21
-18.5903255137
31
0.0000000000
0
SPLINE
5
359
100
AcDbEntity
8
0
100
AcDbSpline
62
7
6
CONTINUOUS
70
0
71
3
72
8
73
4
74
2
42
0.0000001000
43
0.0000001000
44
0.0000000001
12
0.0007598354
22
0.0004901308
32
0.0000000000
13
0.0007597258
23
0.0004903003
33
0.0000000000
40
0.0000000000
40
0.0000000000
40
0.0000000000
40
0.0000000000
40
1.0000000000
40
1.0000000000
40
1.0000000000
40
1.0000000000
10
-0.0050154287
20
-18.5903255137
30
0.0000000000
10
-0.0047621502
20
-18.5901621367
30
0.0000000000
10
-0.0045088900
20
-18.5899987316
30
0.0000000000
10
-0.0042556481
20
-18.5898352981
30
0.0000000000
11
-0.0050154287
21
-18.5903255137
31
0.0000000000
11
-0.0042556481
21
-18.5898352981
31
0.0000000000
0
SPLINE
5
35A
100
AcDbEntity
8
0
100
AcDbSpline
62
7
6
CONTINUOUS
70
0
71
3
72
16
73
12
74
10
42
0.0000001000
43
0.0000001000
44
0.0000000001
12
-0.3413588719
22
-0.0645793675
32
0.0000000000
13
0.0021414953
23
-0.3475284689
33
0.0000000000
40
0.0000000000
40
0.0000000000
40
0.0000000000
40
0.0000000000
40
0.0845797696
40
0.1951711303
40
0.3061771281
40
0.4180949627
40
0.5317122741
40
0.6455128261
40
0.7622725503
40
0.8818404543
40
1.0000000000
40
1.0000000000
40
1.0000000000
40
1.0000000000
10
-16.9934412962
20
22.1665287169
30
0.0000000000
10
-17.0030653144
20
22.1647080142
30
0.0000000000
10
-17.0250465880
20
22.1591981558
30
0.0000000000
10
-17.0580529753
20
22.1459611237
30
0.0000000000
10
-17.0913803864
20
22.1261942076
30
0.0000000000
10
-17.1215285540
20
22.1012968212
30
0.0000000000
10
-17.1476398103
20
22.0717505114
30
0.0000000000
10
-17.1690760321
20
22.0379882324
30
0.0000000000
10
-17.1851271938
20
22.0005935997
30
0.0000000000
10
-17.1949704991
20
21.9605777507
30
0.0000000000
10
-17.1970661176
20
21.9330212318
30
0.0000000000
10
-17.1969817716
20
21.9193332965
30
0.0000000000
11
-16.9934412962
21
22.1665287169
31
0.0000000000
11
-17.0219401975
21
22.1593825959
31
0.0000000000
11
-17.0575736991
21
22.1450940336
31
0.0000000000
11
-17.0907174220
21
22.1254350415
31
0.0000000000
11
-17.1206746389
21
22.1006955209
31
0.0000000000
11
-17.1467932423
21
22.0711406848
31
0.0000000000
11
-17.1679683621
21
22.0377894321
31
0.0000000000
11
-17.1839557250
21
22.0005427269
31
0.0000000000
11
-17.1938698370
21
21.9602363911
31
0.0000000000
11
-17.1969817716
21
21.9193332965
31
0.0000000000
0
SPLINE
5
35B
100
AcDbEntity
8
0
100
AcDbSpline
62
7
6
CONTINUOUS
70
0
71
3
72
8
73
4
74
2
42
0.0000001000
43
0.0000001000
44
0.0000000001
12
0.0351108131
22
-0.0005557209
32
0.0000000000
13
0.0348935920
23
0.0043742117
33
0.0000000000
40
0.0000000000
40
0.0000000000
40
0.0000000000
40
0.0000000000
40
1.0000000000
40
1.0000000000
40
1.0000000000
40
1.0000000000
10
5.7158099581
20
-22.8763941097
30
0.0000000000
10
5.7275135624
20
-22.8765793500
30
0.0000000000
10
5.7392490602
20
-22.8759394770
30
0.0000000000
10
5.7508802575
20
-22.8744814064
30
0.0000000000
11
5.7158099581
21
-22.8763941097
31
0.0000000000
11
5.7508802575
21
-22.8744814064
31
0.0000000000
0
SPLINE
5
35C
100
AcDbEntity
8
0
100
AcDbSpline
62
7
6
CONTINUOUS
70
0
71
3
72
18
73
14
74
12
42
0.0000001000
43
0.0000001000
44
0.0000000001
12
-0.3867638578
22
0.0061215551
32
0.0000000000
13
-0.0024008841
23
0.3872114002
33
0.0000000000
40
0.0000000000
40
0.0000000000
40
0.0000000000
40
0.0000000000
40
0.1019153390
40
0.1970556832
40
0.2914365490
40
0.3883515781
40
0.4839296400
40
0.5812976597
40
0.6806915017
40
0.7816466894
40
0.8841132661
40
0.9903006979
40
1.0000000000
40
1.0000000000
40
1.0000000000
40
1.0000000000
10
-16.6770065214
20
-22.5219689023
30
0.0000000000
10
-16.6901455779
20
-22.5217609422
30
0.0000000000
10
-16.7155656796
20
-22.5193462725
30
0.0000000000
10
-16.7521221946
20
-22.5101127122
30
0.0000000000
10
-16.7863467022
20
-22.4958814792
30
0.0000000000
10
-16.8181494474
20
-22.4767213520
30
0.0000000000
10
-16.8470482682
20
-22.4528078891
30
0.0000000000
10
-16.8722837563
20
-22.4246157779
30
0.0000000000
10
-16.8933312740
20
-22.3923320457
30
0.0000000000
10
-16.9094098004
20
-22.3565768788
30
0.0000000000
10
-16.9199118044
20
-22.3178900113
30
0.0000000000
10
-16.9228323834
20
-22.2897580365
30
0.0000000000
10
-16.9230376033
20
-22.2748010848
30
0.0000000000
10
-16.9230453656
20
-22.2735491914
30
0.0000000000
11
-16.6770065214
21
-22.5219689023
31
0.0000000000
11
-16.7162517940
21
-22.5182391484
31
0.0000000000
11
-16.7519332009
21
-22.5092289144
31
0.0000000000
11
-16.7856423216
21
-22.4952108595
31
0.0000000000
11
-16.8177530827
21
-22.4758654837
31
0.0000000000
11
-16.8462364946
21
-22.4522957347
31
0.0000000000
11
-16.8713559768
21
-22.4242328713
31
0.0000000000
11
-16.8923530616
21
-22.3920261045
31
0.0000000000
11
-16.9083687558
21
-22.3564107235
31
0.0000000000
11
-16.9187517889
21
-22.3181595513
31
0.0000000000
11
-16.9229938303
21
-22.2773045854
31
0.0000000000
11
-16.9230453656
21
-22.2735491914
31
0.0000000000
0
SPLINE
5
35D
100
AcDbEntity
8
0
100
AcDbSpline
62
7
6
CONTINUOUS
70
0
71
3
72
11
73
7
74
5
42
0.0000001000
43
0.0000001000
44
0.0000000001
12
0.5977661524
22
-0.2419833686
32
0.0000000000
13
0.5331794927
23
-0.3626563450
33
0.0000000000
40
0.0000000000
40
0.0000000000
40
0.0000000000
40
0.0000000000
40
0.0622883206
40
0.4966610778
40
0.9497837664
40
1.0000000000
40
1.0000000000
40
1.0000000000
40
1.0000000000
10
-15.2969347750
20
18.5521530227
30
0.0000000000
10
-15.2845234918
20
18.5471287768
30
0.0000000000
10
-15.1858651746
20
18.5063190182
30
0.0000000000
10
-15.0019598559
20
18.4171035190
30
0.0000000000
10
-14.8295471858
20
18.3123494210
30
0.0000000000
10
-14.7398106298
20
18.2519140203
30
0.0000000000
10
-14.7308858745
20
18.2458436084
30
0.0000000000
11
-15.2969347750
21
18.5521530227
31
0.0000000000
11
-15.2598163689
21
18.5368006354
31
0.0000000000
11
-15.0076660336
21
18.4150847442
31
0.0000000000
11
-14.7577439571
21
18.2639309810
31
0.0000000000
11
-14.7308858745
21
18.2458436084
31
0.0000000000
0
SPLINE
5
35E
100
AcDbEntity
8
0
100
AcDbSpline
62
7
6
CONTINUOUS
70
0
71
3
72
17
73
13
74
11
42
0.0000001000
43
0.0000001000
44
0.0000000001
12
0.3817317618
22
-0.0060419090
32
0.0000000000
13
0.0023664750
23
-0.3817722389
33
0.0000000000
40
0.0000000000
40
0.0000000000
40
0.0000000000
40
0.0000000000
40
0.0961204133
40
0.1932007570
40
0.2906534897
40
0.3896886245
40
0.4895014501
40
0.5903346376
40
0.6923466884
40
0.7944196260
40
0.8973701119
40
1.0000000000
40
1.0000000000
40
1.0000000000
40
1.0000000000
10
-12.4024619329
20
24.2816699886
30
0.0000000000
10
-12.3902311947
20
24.2814764050
30
0.0000000000
10
-12.3656322702
20
24.2790111456
30
0.0000000000
10
-12.3297932657
20
24.2692309805
30
0.0000000000
10
-12.2956814859
20
24.2535973996
30
0.0000000000
10
-12.2642145634
20
24.2325346259
30
0.0000000000
10
-12.2361092524
20
24.2065306418
30
0.0000000000
10
-12.2120662180
20
24.1762513092
30
0.0000000000
10
-12.1926911271
20
24.1424639366
30
0.0000000000
10
-12.1784149198
20
24.1059394962
30
0.0000000000
10
-12.1696109898
20
24.0676525386
30
0.0000000000
10
-12.1675225599
20
24.0414630048
30
0.0000000000
10
-12.1674416029
20
24.0284025907
30
0.0000000000
11
-12.4024619329
21
24.2816699886
31
0.0000000000
11
-12.3659466480
21
24.2780244629
31
0.0000000000
11
-12.3301835365
21
24.2682937135
31
0.0000000000
11
-12.2963485911
21
24.2528197701
31
0.0000000000
11
-12.2649095218
21
24.2318161959
31
0.0000000000
11
-12.2369171857
21
24.2059601655
31
0.0000000000
11
-12.2129567143
21
24.1758297526
31
0.0000000000
11
-12.1935641345
21
24.1420550891
31
0.0000000000
11
-12.1793643763
21
24.1057648964
31
0.0000000000
11
-12.1705534115
21
24.0674608212
31
0.0000000000
11
-12.1674416029
21
24.0284025907
31
0.0000000000
0
SPLINE
5
35F
100
AcDbEntity
8
0
100
AcDbSpline
62
7
6
CONTINUOUS
70
0
71
3
72
17
73
13
74
11
42
0.0000001000
43
0.0000001000
44
0.0000000001
12
0.3817246809
22
-0.0060417969
32
0.0000000000
13
0.0023664311
23
-0.3817651573
33
0.0000000000
40
0.0000000000
40
0.0000000000
40
0.0000000000
40
0.0000000000
40
0.0961362978
40
0.1932281008
40
0.2906884550
40
0.3897272004
40
0.4895389424
40
0.5903679860
40
0.6923725875
40
0.7944365410
40
0.8973780534
40
1.0000000000
40
1.0000000000
40
1.0000000000
40
1.0000000000
10
8.8911066202
20
23.9446432704
30
0.0000000000
10
8.9033391527
20
23.9444496584
30
0.0000000000
10
8.9279411031
20
23.9419842693
30
0.0000000000
10
8.9637839050
20
23.9322037327
30
0.0000000000
10
8.9978980654
20
23.9165700821
30
0.0000000000
10
9.0293660733
20
23.8955078658
30
0.0000000000
10
9.0574714476
20
23.8695052978
30
0.0000000000
10
9.0815138020
20
23.8392283974
30
0.0000000000
10
9.1008879141
20
23.8054443145
30
0.0000000000
10
9.1151631976
20
23.7689237655
30
0.0000000000
10
9.1239665168
20
23.7306407962
30
0.0000000000
10
9.1260547748
20
23.7044538985
30
0.0000000000
10
9.1261357240
20
23.6913947373
30
0.0000000000
11
8.8911066202
21
23.9446432704
31
0.0000000000
11
8.9276272828
21
23.9409974184
31
0.0000000000
11
8.9633941040
21
23.9312662582
31
0.0000000000
11
8.9972314231
21
23.9157921685
31
0.0000000000
11
9.0286716107
21
23.8947890493
31
0.0000000000
11
9.0566638156
21
23.8689345283
31
0.0000000000
11
9.0806235868
21
23.8388064924
31
0.0000000000
11
9.1000150489
21
23.8050352995
31
0.0000000000
11
9.1142137991
21
23.7687491717
31
0.0000000000
11
9.1230241314
21
23.7304492145
31
0.0000000000
11
9.1261357240
21
23.6913947373
31
0.0000000000
0
SPLINE
5
360
100
AcDbEntity
8
0
100
AcDbSpline
62
7
6
CONTINUOUS
70
0
71
3
72
16
73
12
74
10
42
0.0000001000
43
0.0000001000
44
0.0000000001
12
0.0018914399
22
-0.3051370704
32
0.0000000000
13
-0.2907095514
23
-0.0938135195
33
0.0000000000
40
0.0000000000
40
0.0000000000
40
0.0000000000
40
0.0000000000
40
0.1279921758
40
0.2555909337
40
0.3814181016
40
0.5066475286
40
0.6301234668
40
0.7522947619
40
0.8737259392
40
0.9936819099
40
1.0000000000
40
1.0000000000
40
1.0000000000
40
1.0000000000
10
-11.8734981041
20
-23.3921150835
30
0.0000000000
10
-11.8734174075
20
-23.4051334694
30
0.0000000000
10
-11.8751638346
20
-23.4311833293
30
0.0000000000
10
-11.8834812824
20
-23.4692186616
30
0.0000000000
10
-11.8973030473
20
-23.5053269578
30
0.0000000000
10
-11.9162705414
20
-23.5385413783
30
0.0000000000
10
-11.9399636504
20
-23.5680987921
30
0.0000000000
10
-11.9677840469
20
-23.5932445247
30
0.0000000000
10
-11.9990341834
20
-23.6133293165
30
0.0000000000
10
-12.0223006187
20
-23.6233014743
30
0.0000000000
10
-12.0345195191
20
-23.6273044165
30
0.0000000000
10
-12.0351317622
20
-23.6275019905
30
0.0000000000
11
-11.8734981041
21
-23.3921150835
31
0.0000000000
11
-11.8761262587
21
-23.4310824640
31
0.0000000000
11
-11.8844640384
21
-23.4691151152
31
0.0000000000
11
-11.8982166381
21
-23.5049628884
31
0.0000000000
11
-11.9171942673
21
-23.5381302424
31
0.0000000000
11
-11.9407858679
21
-23.5675080187
31
0.0000000000
11
-11.9684631204
21
-23.5924829314
31
0.0000000000
11
-11.9996479459
21
-23.6124953178
31
0.0000000000
11
-12.0332976769
21
-23.6269011388
31
0.0000000000
11
-12.0351317622
21
-23.6275019905
31
0.0000000000
0
SPLINE
5
361
100
AcDbEntity
8
0
100
AcDbSpline
62
7
6
CONTINUOUS
70
0
71
3
72
8
73
4
74
2
42
0.0000001000
43
0.0000001000
44
0.0000000001
12
-0.0331009032
22
-0.0106818376
32
0.0000000000
13
-0.0343932887
23
-0.0052776423
33
0.0000000000
40
0.0000000000
40
0.0000000000
40
0.0000000000
40
0.0000000000
40
1.0000000000
40
1.0000000000
40
1.0000000000
40
1.0000000000
10
-12.0351317622
20
-23.6275019905
30
0.0000000000
10
-12.0461653966
20
-23.6310626031
30
0.0000000000
10
-12.0574827300
20
-23.6337423819
30
0.0000000000
10
-12.0689471595
20
-23.6355015960
30
0.0000000000
11
-12.0351317622
21
-23.6275019905
31
0.0000000000
11
-12.0689471595
21
-23.6355015960
31
0.0000000000
0
SPLINE
5
362
100
AcDbEntity
8
0
100
AcDbSpline
62
7
6
CONTINUOUS
70
0
71
3
72
8
73
4
74
2
42
0.0000001000
43
0.0000001000
44
0.0000000001
12
-0.0051984949
22
-0.0007977079
32
0.0000000000
13
-0.0052168431
23
-0.0006714741
33
0.0000000000
40
0.0000000000
40
0.0000000000
40
0.0000000000
40
0.0000000000
40
1.0000000000
40
1.0000000000
40
1.0000000000
40
1.0000000000
10
-12.0689471595
20
-23.6355015960
30
0.0000000000
10
-12.0706799912
20
-23.6357674987
30
0.0000000000
10
-12.0724161833
20
-23.6360123702
30
0.0000000000
10
-12.0741551310
20
-23.6362361948
30
0.0000000000
11
-12.0689471595
21
-23.6355015960
31
0.0000000000
11
-12.0741551310
21
-23.6362361948
31
0.0000000000
0
SPLINE
5
363
100
AcDbEntity
8
0
100
AcDbSpline
62
7
6
CONTINUOUS
70
0
71
3
72
16
73
12
74
10
42
0.0000001000
43
0.0000001000
44
0.0000000001
12
0.0021067277
22
-0.3398684353
32
0.0000000000
13
-0.3364415539
23
-0.0516233439
33
0.0000000000
40
0.0000000000
40
0.0000000000
40
0.0000000000
40
0.0000000000
40
0.1149015426
40
0.2294487585
40
0.3424054802
40
0.4548272897
40
0.5656785067
40
0.6753618286
40
0.7843858831
40
0.8920899785
40
1.0000000000
40
1.0000000000
40
1.0000000000
40
1.0000000000
10
9.4200794585
20
-23.7291609480
30
0.0000000000
10
9.4201601472
20
-23.7421780838
30
0.0000000000
10
9.4184138588
20
-23.7682253173
30
0.0000000000
10
9.4100969719
20
-23.8062566805
30
0.0000000000
10
9.3962760817
20
-23.8423611137
30
0.0000000000
10
9.3773095247
20
-23.8755722738
30
0.0000000000
10
9.3536170641
20
-23.9051272749
30
0.0000000000
10
9.3257965853
20
-23.9302715872
30
0.0000000000
10
9.2945453552
20
-23.9503557851
30
0.0000000000
10
9.2605816771
20
-23.9649118286
30
0.0000000000
10
9.2367285734
20
-23.9706712661
30
0.0000000000
10
9.2246267683
20
-23.9725281582
30
0.0000000000
11
9.4200794585
21
-23.7291609480
31
0.0000000000
11
9.4174514733
21
-23.7681245812
31
0.0000000000
11
9.4091142752
21
-23.8061531337
31
0.0000000000
11
9.3953626333
21
-23.8419968730
31
0.0000000000
11
9.3763860790
21
-23.8751607912
31
0.0000000000
11
9.3527951492
21
-23.9045362122
31
0.0000000000
11
9.3251180092
21
-23.9295096194
31
0.0000000000
11
9.2939320596
21
-23.9495215153
31
0.0000000000
11
9.2602799562
21
-23.9639274074
31
0.0000000000
11
9.2246267683
21
-23.9725281582
31
0.0000000000
0
SPLINE
5
364
100
AcDbEntity
8
0
100
AcDbSpline
62
7
6
CONTINUOUS
70
0
71
3
72
8
73
4
74
2
42
0.0000001000
43
0.0000001000
44
0.0000000001
12
-0.0058619362
22
-0.0008994512
32
0.0000000000
13
-0.0058849661
23
-0.0007389640
33
0.0000000000
40
0.0000000000
40
0.0000000000
40
0.0000000000
40
0.0000000000
40
1.0000000000
40
1.0000000000
40
1.0000000000
40
1.0000000000
10
9.2246267683
20
-23.9725281582
30
0.0000000000
10
9.2226727896
20
-23.9728279752
30
0.0000000000
10
9.2207145390
20
-23.9731010556
30
0.0000000000
10
9.2187528836
20
-23.9733473770
30
0.0000000000
11
9.2246267683
21
-23.9725281582
31
0.0000000000
11
9.2187528836
21
-23.9733473770
31
0.0000000000
0
SPLINE
5
365
100
AcDbEntity
8
0
100
AcDbSpline
62
7
6
CONTINUOUS
70
0
71
3
72
8
73
4
74
2
42
0.0000001000
43
0.0000001000
44
0.0000000001
12
0.0148200583
22
0.0018612812
32
0.0000000000
13
0.0150079323
23
-0.0002509046
33
0.0000000000
40
0.0000000000
40
0.0000000000
40
0.0000000000
40
0.0000000000
40
1.0000000000
40
1.0000000000
40
1.0000000000
40
1.0000000000
10
5.6084138381
20
23.6140873881
30
0.0000000000
10
5.6133538576
20
23.6147078151
30
0.0000000000
10
5.6183555963
20
23.6149737878
30
0.0000000000
10
5.6233582404
20
23.6148901529
30
0.0000000000
11
5.6084138381
21
23.6140873881
31
0.0000000000
11
5.6233582404
21
23.6148901529
31
0.0000000000
0
SPLINE
5
366
100
AcDbEntity
8
0
100
AcDbSpline
62
7
6
CONTINUOUS
70
0
71
3
72
15
73
11
74
9
42
0.0000001000
43
0.0000001000
44
0.0000000001
12
-0.1616991206
22
0.0025593138
32
0.0000000000
13
-0.0516122664
23
0.1327891942
33
0.0000000000
40
0.0000000000
40
0.0000000000
40
0.0000000000
40
0.0000000000
40
0.2165980679
40
0.4153340877
40
0.5898952174
40
0.7379697720
40
0.8547505862
40
0.9381063395
40
0.9866772428
40
1.0000000000
40
1.0000000000
40
1.0000000000
40
1.0000000000
10
-17.0157094125
20
18.5789977787
30
0.0000000000
10
-17.0273839848
20
18.5791825595
30
0.0000000000
10
-17.0497696310
20
18.5796414433
30
0.0000000000
10
-17.0815499454
20
18.5806897050
30
0.0000000000
10
-17.1096351117
20
18.5819401365
30
0.0000000000
10
-17.1332472775
20
18.5836579308
30
0.0000000000
10
-17.1520107311
20
18.5849455894
30
0.0000000000
10
-17.1651421138
20
18.5877885287
30
0.0000000000
10
-17.1730551879
20
18.5878514280
30
0.0000000000
10
-17.1758548565
20
18.5909421182
30
0.0000000000
10
-17.1760840624
20
18.5915318243
30
0.0000000000
11
-17.0157094125
21
18.5789977787
31
0.0000000000
11
-17.0507297131
21
18.5797371049
31
0.0000000000
11
-17.0828516500
21
18.5807984020
31
0.0000000000
11
-17.1110493661
21
18.5821463600
31
0.0000000000
11
-17.1349412734
21
18.5837627707
31
0.0000000000
11
-17.1537377946
21
18.5855961322
31
0.0000000000
11
-17.1670672199
21
18.5876069274
31
0.0000000000
11
-17.1746230715
21
18.5897535223
31
0.0000000000
11
-17.1760840624
21
18.5915318243
31
0.0000000000
0
SPLINE
5
367
100
AcDbEntity
8
0
100
AcDbSpline
62
7
6
CONTINUOUS
70
0
71
3
72
8
73
4
74
2
42
0.0000001000
43
0.0000001000
44
0.0000000001
12
0.0007421870
22
0.0004904664
32
0.0000000000
13
0.0007420778
23
0.0004906342
33
0.0000000000
40
0.0000000000
40
0.0000000000
40
0.0000000000
40
0.0000000000
40
1.0000000000
40
1.0000000000
40
1.0000000000
40
1.0000000000
10
-0.0053420595
20
-18.5898181028
30
0.0000000000
10
-0.0050946639
20
-18.5896546140
30
0.0000000000
10
-0.0048472864
20
-18.5894910972
30
0.0000000000
10
-0.0045999271
20
-18.5893275525
30
0.0000000000
11
-0.0053420595
21
-18.5898181028
31
0.0000000000
11
-0.0045999271
21
-18.5893275525
31
0.0000000000
0
SPLINE
5
368
100
AcDbEntity
8
0
100
AcDbSpline
62
7
6
CONTINUOUS
70
0
71
3
72
8
73
4
74
2
42
0.0000001000
43
0.0000001000
44
0.0000000001
12
0.0665868452
22
0.0440247431
32
0.0000000000
13
0.0657088698
23
0.0453447324
33
0.0000000000
40
0.0000000000
40
0.0000000000
40
0.0000000000
40
0.0000000000
40
1.0000000000
40
1.0000000000
40
1.0000000000
40
1.0000000000
10
-0.0045999271
20
-18.5893275525
30
0.0000000000
10
0.0175956879
20
-18.5746526381
30
0.0000000000
10
0.0396448025
20
-18.5597525372
30
0.0000000000
10
0.0615477591
20
-18.5446376263
30
0.0000000000
11
-0.0045999271
21
-18.5893275525
31
0.0000000000
11
0.0615477591
21
-18.5446376263
31
0.0000000000
0
SPLINE
5
369
100
AcDbEntity
8
0
100
AcDbSpline
62
7
6
CONTINUOUS
70
0
71
3
72
17
73
13
74
11
42
0.0000001000
43
0.0000001000
44
0.0000000001
12
-0.3180837297
22
-0.0473700613
32
0.0000000000
13
-0.3215513642
23
0.0050893959
33
0.0000000000
40
0.0000000000
40
0.0000000000
40
0.0000000000
40
0.0000000000
40
0.0539702362
40
0.1240919257
40
0.2081012978
40
0.3048924208
40
0.4113891612
40
0.5253233657
40
0.6443354961
40
0.7645718551
40
0.8844162218
40
1.0000000000
40
1.0000000000
40
1.0000000000
40
1.0000000000
10
5.6983456746
20
18.2346116431
30
0.0000000000
10
5.6926233233
20
18.2337594520
30
0.0000000000
10
5.6794031151
20
18.2322341299
30
0.0000000000
10
5.6571742469
20
18.2303478251
30
0.0000000000
10
5.6303289939
20
18.2286324818
30
0.0000000000
10
5.5995670603
20
18.2271375649
30
0.0000000000
10
5.5655833546
20
18.2259040427
30
0.0000000000
10
5.5292075744
20
18.2249640085
30
0.0000000000
10
5.4913519354
20
18.2243430659
30
0.0000000000
10
5.4528587508
20
18.2240552706
30
0.0000000000
10
5.4147320608
20
18.2241082722
30
0.0000000000
10
5.3894957741
20
18.2243764875
30
0.0000000000
10
5.3771070669
20
18.2245725714
30
0.0000000000
11
5.6983456746
21
18.2346116431
31
0.0000000000
11
5.6811172021
21
18.2325084203
31
0.0000000000
11
5.6586523090
21
18.2305447916
31
0.0000000000
11
5.6316930640
21
18.2287835955
31
0.0000000000
11
5.6006037162
21
18.2272486626
31
0.0000000000
11
5.5663783712
21
18.2259905466
31
0.0000000000
11
5.5297505609
21
18.2250344209
31
0.0000000000
11
5.4914824826
21
18.2244018554
31
0.0000000000
11
5.4528165600
21
18.2241121904
31
0.0000000000
11
5.4142756561
21
18.2241693186
31
0.0000000000
11
5.3771070669
21
18.2245725714
31
0.0000000000
0
SPLINE
5
36A
100
AcDbEntity
8
0
100
AcDbSpline
62
7
6
CONTINUOUS
70
0
71
3
72
10
73
6
74
4
42
0.0000001000
43
0.0000001000
44
0.0000000001
12
-0.0159219798
22
-0.0026218814
32
0.0000000000
13
0.0051498880
23
-0.0132497470
33
0.0000000000
40
0.0000000000
40
0.0000000000
40
0.0000000000
40
0.0000000000
40
0.6562436000
40
0.9658298875
40
1.0000000000
40
1.0000000000
40
1.0000000000
40
1.0000000000
10
-16.9286847093
20
-18.9406417544
30
0.0000000000
10
-16.9321676085
20
-18.9412152853
30
0.0000000000
10
-16.9358959310
20
-18.9421761282
30
0.0000000000
10
-16.9438073892
20
-18.9439172434
30
0.0000000000
10
-16.9434633277
20
-18.9453856796
30
0.0000000000
10
-16.9434046703
20
-18.9455365948
30
0.0000000000
11
-16.9286847093
21
-18.9406417544
31
0.0000000000
11
-16.9390405178
21
-18.9428537551
31
0.0000000000
11
-16.9435014570
21
-18.9451023438
31
0.0000000000
11
-16.9434046703
21
-18.9455365948
31
0.0000000000
0
SPLINE
5
36B
100
AcDbEntity
8
0
100
AcDbSpline
62
7
6
CONTINUOUS
70
0
71
3
72
14
73
10
74
8
42
0.0000001000
43
0.0000001000
44
0.0000000001
12
1.9298495785
22
-0.0305325850
32
0.0000000000
13
1.5617911012
23
-1.1325808687
33
0.0000000000
40
0.0000000000
40
0.0000000000
40
0.0000000000
40
0.0000000000
40
0.0654164611
40
0.2120138191
40
0.3606239642
40
0.5125729860
40
0.6690819577
40
0.8312417126
40
1.0000000000
40
1.0000000000
40
1.0000000000
40
1.0000000000
10
6.8164303398
20
18.3651079988
30
0.0000000000
10
6.8585116498
20
18.3644422209
30
0.0000000000
10
6.9948412916
20
18.3590395620
30
0.0000000000
10
7.2256048283
20
18.3319610171
30
0.0000000000
10
7.5066350295
20
18.2687018039
30
0.0000000000
10
7.7858874170
20
18.1754747606
30
0.0000000000
10
8.0628948720
20
18.0524955031
30
0.0000000000
10
8.3372016141
20
17.9000404060
30
0.0000000000
10
8.5142308831
20
17.7814713974
30
0.0000000000
10
8.6020859469
20
17.7177605949
30
0.0000000000
11
6.8164303398
21
18.3651079988
31
0.0000000000
11
6.9425771449
21
18.3601070179
31
0.0000000000
11
7.2234856343
21
18.3272796217
31
0.0000000000
11
7.5032493588
21
18.2645818587
31
0.0000000000
11
7.7814277332
21
18.1721123374
31
0.0000000000
11
8.0575826230
21
18.0500165136
31
0.0000000000
11
8.3312790648
21
17.8984864647
31
0.0000000000
11
8.6020859469
21
17.7177605949
31
0.0000000000
0
SPLINE
5
36C
100
AcDbEntity
8
0
100
AcDbSpline
62
7
6
CONTINUOUS
70
0
71
3
72
15
73
11
74
9
42
0.0000001000
43
0.0000001000
44
0.0000000001
12
-1.8085022482
22
-1.8674492297
32
0.0000000000
13
-2.5712677807
23
-0.3829216729
33
0.0000000000
40
0.0000000000
40
0.0000000000
40
0.0000000000
40
0.0000000000
40
0.1439152721
40
0.2814095731
40
0.4128658428
40
0.5387627590
40
0.6596823190
40
0.7763142838
40
0.8894552119
40
1.0000000000
40
1.0000000000
40
1.0000000000
40
1.0000000000
10
8.8230076038
20
-17.9224878774
30
0.0000000000
10
8.7362505728
20
-18.0120726988
30
0.0000000000
10
8.5616367623
20
-18.1825372409
30
0.0000000000
10
8.2902305028
20
-18.4160170189
30
0.0000000000
10
8.0158529141
20
-18.6209291455
30
0.0000000000
10
7.7389127946
20
-18.7969156777
30
0.0000000000
10
7.4598173969
20
-18.9436623089
30
0.0000000000
10
7.1789761161
20
-19.0608835638
30
0.0000000000
10
6.8968733778
20
-19.1483212327
30
0.0000000000
10
6.7065226135
20
-19.1869671597
30
0.0000000000
10
6.6117758629
20
-19.2010771581
30
0.0000000000
11
8.8230076038
21
-17.9224878774
31
0.0000000000
11
8.5549386238
21
-18.1834649372
31
0.0000000000
11
8.2836237211
21
-18.4161599280
31
0.0000000000
11
8.0094903338
21
-18.6202065219
31
0.0000000000
11
7.7329703217
21
-18.7952835178
31
0.0000000000
11
7.4544992628
21
-18.9411153521
31
0.0000000000
11
7.1745156590
21
-19.0574725516
31
0.0000000000
11
6.8934603518
21
-19.1441719914
31
0.0000000000
11
6.6117758629
21
-19.2010771581
31
0.0000000000
0
SPLINE
5
36D
100
AcDbEntity
8
0
100
AcDbSpline
62
7
6
CONTINUOUS
70
0
71
3
72
16
73
12
74
10
42
0.0000001000
43
0.0000001000
44
0.0000000001
12
-0.3135237722
22
0.0049623382
32
0.0000000000
13
-0.2396982052
23
0.2025341480
33
0.0000000000
40
0.0000000000
40
0.0000000000
40
0.0000000000
40
0.0000000000
40
0.1352365931
40
0.2668403738
40
0.3945409265
40
0.5189326838
40
0.6392757778
40
0.7549364538
40
0.8659179998
40
0.9737847921
40
1.0000000000
40
1.0000000000
40
1.0000000000
40
1.0000000000
10
-9.9994112796
20
-18.4634352431
30
0.0000000000
10
-10.0135445752
20
-18.4632115466
30
0.0000000000
10
-10.0414274058
20
-18.4622268972
30
0.0000000000
10
-10.0825448227
20
-18.4588662673
30
0.0000000000
10
-10.1223010004
20
-18.4534164348
30
0.0000000000
10
-10.1604731983
20
-18.4456201559
30
0.0000000000
10
-10.1967229758
20
-18.4352121257
30
0.0000000000
10
-10.2305628134
20
-18.4219993915
30
0.0000000000
10
-10.2616446682
20
-18.4058219088
30
0.0000000000
10
-10.2828180905
20
-18.3912836070
30
0.0000000000
10
-10.2936801996
20
-18.3824083004
30
0.0000000000
10
-10.2957747790
20
-18.3806384754
30
0.0000000000
11
-9.9994112796
21
-18.4634352431
31
0.0000000000
11
-10.0417880428
21
-18.4618826007
31
0.0000000000
11
-10.0829113831
21
-18.4584532595
31
0.0000000000
11
-10.1225713703
21
-18.4529341036
31
0.0000000000
11
-10.1607673907
21
-18.4450330057
31
0.0000000000
11
-10.1970062909
21
-18.4345123883
31
0.0000000000
11
-10.2307471964
21
-18.4212142571
31
0.0000000000
11
-10.2615672412
21
-18.4050542841
31
0.0000000000
11
-10.2894051420
21
-18.3858436289
31
0.0000000000
11
-10.2957747790
21
-18.3806384754
31
0.0000000000
0
SPLINE
5
36E
100
AcDbEntity
8
0
100
AcDbSpline
62
9
6
CONTINUOUS
70
0
71
3
72
30
73
26
74
24
42
0.0000001000
43
0.0000001000
44
0.0000000001
12
-0.2994982767
22
-1.3170949157
32
0.0000000000
13
1.5658455812
23
0.2648853796
33
0.0000000000
40
0.0000000000
40
0.0000000000
40
0.0000000000
40
0.0000000000
40
0.0006711683
40
0.0072289403
40
0.0209354786
40
0.0421599157
40
0.0706984551
40
0.1061553863
40
0.1480020993
40
0.1956024107
40
0.2482223836
40
0.3050503317
40
0.3652040953
40
0.4277525672
40
0.4917227797
40
0.5561230379
40
0.6199507735
40
0.6822167683
40
0.7419537212
40
0.7982355084
40
0.8501876529
40
0.8970102340
40
0.9379841976
40
0.9724822249
40
1.0000000000
40
1.0000000000
40
1.0000000000
40
1.0000000000
10
1.5109988131
20
22.6435154434
30
0.0000000000
10
1.5109318086
20
22.6432207792
30
0.0000000000
10
1.5106150112
20
22.6401017211
30
0.0000000000
10
1.5242271475
20
22.6336417860
30
0.0000000000
10
1.5429239364
20
22.6292862067
30
0.0000000000
10
1.5774296878
20
22.6232745499
30
0.0000000000
10
1.6216965770
20
22.6183140536
30
0.0000000000
10
1.6777331246
20
22.6134478137
30
0.0000000000
10
1.7436482981
20
22.6092216880
30
0.0000000000
10
1.8187904784
20
22.6055635078
30
0.0000000000
10
1.9018675962
20
22.6025920644
30
0.0000000000
10
1.9916241414
20
22.6003427630
30
0.0000000000
10
2.0866500179
20
22.5988592171
30
0.0000000000
10
2.1854665803
20
22.5981651693
30
0.0000000000
10
2.2865331610
20
22.5982730907
30
0.0000000000
10
2.3882729815
20
22.5991817178
30
0.0000000000
10
2.4891004697
20
22.6008768817
30
0.0000000000
10
2.5874430724
20
22.6033315152
30
0.0000000000
10
2.6817685025
20
22.6065060423
30
0.0000000000
10
2.7706046870
20
22.6103487405
30
0.0000000000
10
2.8525675126
20
22.6147957068
30
0.0000000000
10
2.9263801438
20
22.6197724318
30
0.0000000000
10
2.9908962584
20
22.6251879914
30
0.0000000000
10
3.0451137438
20
22.6309475887
30
0.0000000000
10
3.0776468699
20
22.6354392051
30
0.0000000000
10
3.0920097320
20
22.6378688905
30
0.0000000000
11
1.5109988131
21
22.6435154434
31
0.0000000000
11
1.5109162300
21
22.6426492624
31
0.0000000000
11
1.5191555836
21
22.6362796738
31
0.0000000000
11
1.5400362594
21
22.6301306601
31
0.0000000000
11
1.5732341022
21
22.6242978176
31
0.0000000000
11
1.6182300295
21
22.6188724307
31
0.0000000000
11
1.6743223729
21
22.6139390486
31
0.0000000000
11
1.7406353425
21
22.6095746512
31
0.0000000000
11
1.8161370663
21
22.6058471556
31
0.0000000000
11
1.8996473968
21
22.6028148284
31
0.0000000000
11
1.9898663571
21
22.6005248676
31
0.0000000000
11
2.0853841128
21
22.5990130518
31
0.0000000000
11
2.1847143110
21
22.5983029060
31
0.0000000000
11
2.2863048509
21
22.5984055325
31
0.0000000000
11
2.3885743123
21
22.5993193381
31
0.0000000000
11
2.4899242012
21
22.6010300381
31
0.0000000000
11
2.5887772100
21
22.6035110052
31
0.0000000000
11
2.6835905861
21
22.6067235456
31
0.0000000000
11
2.7728863830
21
22.6106176093
31
0.0000000000
11
2.8552675630
21
22.6151322468
31
0.0000000000
11
2.9294534329
21
22.6201972335
31
0.0000000000
11
2.9942879002
21
22.6257337189
31
0.0000000000
11
3.0487530576
21
22.6316546527
31
0.0000000000
11
3.0920097320
21
22.6378688905
31
0.0000000000
0
SPLINE
5
36F
100
AcDbEntity
8
0
100
AcDbSpline
62
9
6
CONTINUOUS
70
0
71
3
72
16
73
12
74
10
42
0.0000001000
43
0.0000001000
44
0.0000000001
12
0.3813747505
22
-0.0062875324
32
0.0000000000
13
0.0035846794
23
-0.3814097317
33
0.0000000000
40
0.0000000000
40
0.0000000000
40
0.0000000000
40
0.0000000000
40
0.1066652312
40
0.2142740538
40
0.3231362759
40
0.4334028752
40
0.5450530566
40
0.6579028398
40
0.7716313540
40
0.8858200349
40
1.0000000000
40
1.0000000000
40
1.0000000000
40
1.0000000000
10
2.8569894020
20
22.8911362884
30
0.0000000000
10
2.8705492106
20
22.8909127347
30
0.0000000000
10
2.8978122395
20
22.8878936737
30
0.0000000000
10
2.9373286398
20
22.8758787715
30
0.0000000000
10
2.9744549925
20
22.8567462707
30
0.0000000000
10
3.0080494066
20
22.8310951902
30
0.0000000000
10
3.0371085600
20
22.7997163000
30
0.0000000000
10
3.0607636141
20
22.7635680630
30
0.0000000000
10
3.0783110058
20
22.7237411823
30
0.0000000000
10
3.0892284336
20
22.6814512696
30
0.0000000000
10
3.0918732992
20
22.6523853404
30
0.0000000000
10
3.0920097320
20
22.6378688905
30
0.0000000000
11
2.8569894020
21
22.8911362884
31
0.0000000000
11
2.8974296568
21
22.8866808122
31
0.0000000000
11
2.9367119638
21
22.8747820186
31
0.0000000000
11
2.9736428653
21
22.8558014114
31
0.0000000000
11
3.0071003431
21
22.8303156511
31
0.0000000000
11
3.0360679070
21
22.7990990345
31
0.0000000000
11
3.0596654773
21
22.7630999712
31
0.0000000000
11
3.0771761231
21
22.7234121685
31
0.0000000000
11
3.0880678439
21
22.6812414039
31
0.0000000000
11
3.0920097320
21
22.6378688905
31
0.0000000000
0
SPLINE
5
370
100
AcDbEntity
8
0
100
AcDbSpline
62
9
6
CONTINUOUS
70
0
71
3
72
31
73
27
74
25
42
0.0000001000
43
0.0000001000
44
0.0000000001
12
-0.2385984762
22
-1.4964969320
32
0.0000000000
13
1.8100673014
23
0.3079806621
33
0.0000000000
40
0.0000000000
40
0.0000000000
40
0.0000000000
40
0.0000000000
40
0.0004362339
40
0.0063015063
40
0.0186216081
40
0.0378554310
40
0.0638623868
40
0.0963204934
40
0.1347903180
40
0.1787353902
40
0.2275353605
40
0.2804977480
40
0.3368688873
40
0.3958451328
40
0.4565848728
40
0.5182210088
40
0.5798733334
40
0.6406610092
40
0.6997160659
40
0.7561966388
40
0.8092972694
40
0.8582602244
40
0.9023916631
40
0.9410704662
40
0.9737524767
40
1.0000000000
40
1.0000000000
40
1.0000000000
40
1.0000000000
10
-15.4799144711
20
23.7729126258
30
0.0000000000
10
-15.4799491660
20
23.7726950182
30
0.0000000000
10
-15.4801553443
20
23.7695791552
30
0.0000000000
10
-15.4669571342
20
23.7619771279
30
0.0000000000
10
-15.4470974888
20
23.7574196847
30
0.0000000000
10
-15.4112183785
20
23.7504933581
30
0.0000000000
10
-15.3645061505
20
23.7449494657
30
0.0000000000
10
-15.3052419287
20
23.7393651185
30
0.0000000000
10
-15.2351680469
20
23.7344869375
30
0.0000000000
10
-15.1549522755
20
23.7301792421
30
0.0000000000
10
-15.0658521552
20
23.7265907830
30
0.0000000000
10
-14.9691080136
20
23.7237550612
30
0.0000000000
10
-14.8661170615
20
23.7217242602
30
0.0000000000
10
-14.7583521939
20
23.7205277262
30
0.0000000000
10
-14.6473592084
20
23.7201847960
30
0.0000000000
10
-14.5347290300
20
23.7207010296
30
0.0000000000
10
-14.4220766577
20
23.7220693515
30
0.0000000000
10
-14.3110174143
20
23.7242698781
30
0.0000000000
10
-14.2031432494
20
23.7272702726
30
0.0000000000
10
-14.1000002235
20
23.7310260277
30
0.0000000000
10
-14.0030675666
20
23.7354809235
30
0.0000000000
10
-13.9137347000
20
23.7405668847
30
0.0000000000
10
-13.8332807570
20
23.7462055419
30
0.0000000000
10
-13.7628548206
20
23.7523025717
30
0.0000000000
10
-13.7034618816
20
23.7587595257
30
0.0000000000
10
-13.6677313399
20
23.7637673307
30
0.0000000000
10
-13.6518947453
20
23.7664619072
30
0.0000000000
11
-15.4799144711
21
23.7729126258
31
0.0000000000
11
-15.4799553202
21
23.7722662189
31
0.0000000000
11
-15.4718688138
21
23.7651540932
31
0.0000000000
11
-15.4503214458
21
23.7582687776
31
0.0000000000
11
-15.4156211900
21
23.7517088839
31
0.0000000000
11
-15.3682667139
21
23.7455687349
31
0.0000000000
11
-15.3089377329
21
23.7399363818
31
0.0000000000
11
-15.2384843149
21
23.7348924922
31
0.0000000000
11
-15.1579167133
21
23.7305093993
31
0.0000000000
11
-15.0683907436
21
23.7268499793
31
0.0000000000
11
-14.9711902316
21
23.7239666995
31
0.0000000000
11
-14.8677088365
21
23.7219008964
31
0.0000000000
11
-14.7594304942
21
23.7206821936
31
0.0000000000
11
-14.6479079361
21
23.7203280678
31
0.0000000000
11
-14.5347401338
21
23.7208435998
31
0.0000000000
11
-14.4215498189
21
23.7222214052
31
0.0000000000
11
-14.3099607715
21
23.7244417213
31
0.0000000000
11
-14.2015732385
21
23.7274727029
31
0.0000000000
11
-14.0979398776
21
23.7312709479
31
0.0000000000
11
-14.0005472021
21
23.7357820126
31
0.0000000000
11
-13.9107953705
21
23.7409410290
31
0.0000000000
11
-13.8299695166
21
23.7466740748
31
0.0000000000
11
-13.7592254423
21
23.7528992390
31
0.0000000000
11
-13.6995856826
21
23.7595264382
31
0.0000000000
11
-13.6518947453
21
23.7664619072
31
0.0000000000
0
SPLINE
5
371
100
AcDbEntity
8
0
100
AcDbSpline
62
7
6
CONTINUOUS
70
0
71
3
72
9
73
5
74
3
42
0.0000001000
43
0.0000001000
44
0.0000000001
12
0.0425956203
22
0.0078928243
32
0.0000000000
13
0.0432585785
23
-0.0006846808
33
0.0000000000
40
0.0000000000
40
0.0000000000
40
0.0000000000
40
0.0000000000
40
0.1591929635
40
1.0000000000
40
1.0000000000
40
1.0000000000
40
1.0000000000
10
4.9946132737
20
23.5057827885
30
0.0000000000
10
4.9968735814
20
23.5062016158
30
0.0000000000
10
5.0111148853
20
23.5086072347
30
0.0000000000
10
5.0255827730
20
23.5095853130
30
0.0000000000
10
5.0377068121
20
23.5093934182
30
0.0000000000
11
4.9946132737
21
23.5057827885
31
0.0000000000
11
5.0014135543
21
23.5069313537
31
0.0000000000
11
5.0377068121
21
23.5093934182
31
0.0000000000
0
SPLINE
5
372
100
AcDbEntity
8
0
100
AcDbSpline
62
9
6
CONTINUOUS
70
0
71
3
72
9
73
5
74
3
42
0.0000001000
43
0.0000001000
44
0.0000000001
12
-0.0433757526
22
0.0006581468
32
0.0000000000
13
-0.0427289287
23
-0.0079154562
33
0.0000000000
40
0.0000000000
40
0.0000000000
40
0.0000000000
40
0.0000000000
40
0.9396765886
40
1.0000000000
40
1.0000000000
40
1.0000000000
40
1.0000000000
10
1.7942664238
20
22.9079566741
30
0.0000000000
10
1.7806800307
20
22.9081628225
30
0.0000000000
10
1.7661642729
20
22.9070345600
30
0.0000000000
10
1.7519048826
20
22.9044817060
30
0.0000000000
10
1.7510456977
20
22.9043225436
30
0.0000000000
11
1.7942664238
21
22.9079566741
31
0.0000000000
11
1.7536261657
21
22.9047845158
31
0.0000000000
11
1.7510456977
21
22.9043225436
31
0.0000000000
0
SPLINE
5
373
100
AcDbEntity
8
0
100
AcDbSpline
62
7
6
CONTINUOUS
70
0
71
3
72
8
73
4
74
2
42
0.0000001000
43
0.0000001000
44
0.0000000001
12
-0.0312973854
22
0.0004953634
32
0.0000000000
13
-0.0310847703
23
-0.0040000922
33
0.0000000000
40
0.0000000000
40
0.0000000000
40
0.0000000000
40
0.0000000000
40
1.0000000000
40
1.0000000000
40
1.0000000000
40
1.0000000000
10
-8.2240826491
20
23.7192961110
30
0.0000000000
10
-8.2345151109
20
23.7194612322
30
0.0000000000
10
-8.2449761881
20
23.7188759956
30
0.0000000000
10
-8.2553377782
20
23.7175426315
30
0.0000000000
11
-8.2240826491
21
23.7192961110
31
0.0000000000
11
-8.2553377782
21
23.7175426315
31
0.0000000000
0
SPLINE
5
374
100
AcDbEntity
8
0
100
AcDbSpline
62
9
6
CONTINUOUS
70
0
71
3
72
9
73
5
74
3
42
0.0000001000
43
0.0000001000
44
0.0000000001
12
-0.0259755385
22
-0.0048171652
32
0.0000000000
13
-0.0249152871
23
-0.0072982483
33
0.0000000000
40
0.0000000000
40
0.0000000000
40
0.0000000000
40
0.0000000000
40
0.7991714629
40
1.0000000000
40
1.0000000000
40
1.0000000000
40
1.0000000000
10
-11.4675230374
20
23.1178593670
30
0.0000000000
10
-11.4744426738
20
23.1165761200
30
0.0000000000
10
-11.4830744695
20
23.1141904565
30
0.0000000000
10
-11.4915150395
20
23.1125012478
30
0.0000000000
10
-11.4931829397
20
23.1120126823
30
0.0000000000
11
-11.4675230374
21
23.1178593670
31
0.0000000000
11
-11.4881171123
21
23.1132078199
31
0.0000000000
11
-11.4931829397
21
23.1120126823
31
0.0000000000
0
SPLINE
5
375
100
AcDbEntity
8
0
100
AcDbSpline
62
9
6
CONTINUOUS
70
0
71
3
72
9
73
5
74
3
42
0.0000001000
43
0.0000001000
44
0.0000000001
12
-0.0108590895
22
-0.0031808717
32
0.0000000000
13
-0.0047380160
23
-0.0099500002
33
0.0000000000
40
0.0000000000
40
0.0000000000
40
0.0000000000
40
0.0000000000
40
0.6568367942
40
1.0000000000
40
1.0000000000
40
1.0000000000
40
1.0000000000
10
-11.4931829397
20
23.1120126823
30
0.0000000000
10
-11.4955604896
20
23.1113162444
30
0.0000000000
10
-11.4990960186
20
23.1097940072
30
0.0000000000
10
-11.5023725259
20
23.1063773729
30
0.0000000000
10
-11.5029144968
20
23.1052392149
30
0.0000000000
11
-11.4931829397
21
23.1120126823
31
0.0000000000
11
-11.5000932698
21
23.1084992132
31
0.0000000000
11
-11.5029144968
21
23.1052392149
31
0.0000000000
0
SPLINE
5
376
100
AcDbEntity
8
0
100
AcDbSpline
62
9
6
CONTINUOUS
70
0
71
3
72
9
73
5
74
3
42
0.0000001000
43
0.0000001000
44
0.0000000001
12
-0.0016156681
22
-0.0033929599
32
0.0000000000
13
0.0024782978
23
-0.0027031226
33
0.0000000000
40
0.0000000000
40
0.0000000000
40
0.0000000000
40
0.0000000000
40
0.4328793503
40
1.0000000000
40
1.0000000000
40
1.0000000000
40
1.0000000000
10
-11.5029144968
20
23.1052392149
30
0.0000000000
10
-11.5031476266
20
23.1047496342
30
0.0000000000
10
-11.5034372383
20
23.1036333110
30
0.0000000000
10
-11.5029173403
20
23.1026601885
30
0.0000000000
10
-11.5024488423
20
23.1021491897
30
0.0000000000
11
-11.5029144968
21
23.1052392149
31
0.0000000000
11
-11.5032466708
21
23.1038100013
31
0.0000000000
11
-11.5024488423
21
23.1021491897
31
0.0000000000
0
SPLINE
5
377
100
AcDbEntity
8
0
100
AcDbSpline
62
9
6
CONTINUOUS
70
0
71
3
72
29
73
25
74
23
42
0.0000001000
43
0.0000001000
44
0.0000000001
12
0.6947291010
22
-0.7577531190
32
0.0000000000
13
1.0839153386
23
0.1912448614
33
0.0000000000
40
0.0000000000
40
0.0000000000
40
0.0000000000
40
0.0000000000
40
0.0046437745
40
0.0184226949
40
0.0397205579
40
0.0683425345
40
0.1038956242
40
0.1458517393
40
0.1935741761
40
0.2463277598
40
0.3032989333
40
0.3636035743
40
0.4263084492
40
0.4904383310
40
0.5549992114
40
0.6189861903
40
0.6814077755
40
0.7412944818
40
0.7977181656
40
0.8498025325
40
0.8967462257
40
0.9378289600
40
0.9724234629
40
1.0000000000
40
1.0000000000
40
1.0000000000
40
1.0000000000
10
-11.5024488423
20
23.1021491897
30
0.0000000000
10
-11.5013734539
20
23.1009762448
30
0.0000000000
10
-11.4934774167
20
23.0971774306
30
0.0000000000
10
-11.4809892251
20
23.0941706043
30
0.0000000000
10
-11.4570698765
20
23.0898510912
30
0.0000000000
10
-11.4262870911
20
23.0862837787
30
0.0000000000
10
-11.3873622241
20
23.0827950720
30
0.0000000000
10
-11.3415608810
20
23.0797711159
30
0.0000000000
10
-11.2893525346
20
23.0771619975
30
0.0000000000
10
-11.2316292872
20
23.0750520793
30
0.0000000000
10
-11.1692655073
20
23.0734666581
30
0.0000000000
10
-11.1032406351
20
23.0724365325
30
0.0000000000
10
-11.0345823970
20
23.0719782275
30
0.0000000000
10
-10.9643613848
20
23.0721000683
30
0.0000000000
10
-10.8936733248
20
23.0728004538
30
0.0000000000
10
-10.8236200098
20
23.0740684564
30
0.0000000000
10
-10.7552941609
20
23.0758838388
30
0.0000000000
10
-10.6897604804
20
23.0782173503
30
0.0000000000
10
-10.6280417948
20
23.0810309869
30
0.0000000000
10
-10.5710997298
20
23.0842780198
30
0.0000000000
10
-10.5198213852
20
23.0879040229
30
0.0000000000
10
-10.4750027785
20
23.0918430558
30
0.0000000000
10
-10.4373493011
20
23.0960248065
30
0.0000000000
10
-10.4147636031
20
23.0992810242
30
0.0000000000
10
-10.4048000592
20
23.1010389812
30
0.0000000000
11
-11.5024488423
21
23.1021491897
31
0.0000000000
11
-11.4975264546
21
23.0992138853
31
0.0000000000
11
-11.4830224434
21
23.0947824791
31
0.0000000000
11
-11.4599597101
21
23.0905846863
31
0.0000000000
11
-11.4286988622
21
23.0866862156
31
0.0000000000
11
-11.3897273879
21
23.0831478334
31
0.0000000000
11
-11.3436537989
21
23.0800247648
31
0.0000000000
11
-11.2911950913
21
23.0773656224
31
0.0000000000
11
-11.2331714146
21
23.0752119879
31
0.0000000000
11
-11.1704864521
21
23.0735973978
31
0.0000000000
11
-11.1041200040
21
23.0725470785
31
0.0000000000
11
-11.0351050080
21
23.0720773714
31
0.0000000000
11
-10.9645200680
21
23.0721956160
31
0.0000000000
11
-10.8934641379
21
23.0728999696
31
0.0000000000
11
-10.8230480087
21
23.0741794149
31
0.0000000000
11
-10.7543677183
21
23.0760140297
31
0.0000000000
11
-10.6884952662
21
23.0783751923
31
0.0000000000
11
-10.6264575839
21
23.0812261071
31
0.0000000000
11
-10.5692253637
21
23.0845221430
31
0.0000000000
11
-10.5176883556
21
23.0882120211
31
0.0000000000
11
-10.4726499422
21
23.0922382890
31
0.0000000000
11
-10.4348167449
21
23.0965376316
31
0.0000000000
11
-10.4048000592
21
23.1010389812
31
0.0000000000
0
SPLINE
5
378
100
AcDbEntity
8
0
100
AcDbSpline
62
9
6
CONTINUOUS
70
0
71
3
72
9
73
5
74
3
42
0.0000001000
43
0.0000001000
44
0.0000000001
12
-0.0433757526
22
0.0006581468
32
0.0000000000
13
-0.0427289287
23
-0.0079154562
33
0.0000000000
40
0.0000000000
40
0.0000000000
40
0.0000000000
40
0.0000000000
40
0.9396765886
40
1.0000000000
40
1.0000000000
40
1.0000000000
40
1.0000000000
10
-11.4675230374
20
23.1178593670
30
0.0000000000
10
-11.4811094305
20
23.1180655154
30
0.0000000000
10
-11.4956251883
20
23.1169372529
30
0.0000000000
10
-11.5098845786
20
23.1143843989
30
0.0000000000
10
-11.5107437635
20
23.1142252364
30
0.0000000000
11
-11.4675230374
21
23.1178593670
31
0.0000000000
11
-11.5081632955
21
23.1146872086
31
0.0000000000
11
-11.5107437635
21
23.1142252364
31
0.0000000000
0
SPLINE
5
379
100
AcDbEntity
8
0
100
AcDbSpline
62
9
6
CONTINUOUS
70
0
71
3
72
16
73
12
74
10
42
0.0000001000
43
0.0000001000
44
0.0000000001
12
0.3813747505
22
-0.0062875324
32
0.0000000000
13
0.0035846794
23
-0.3814097317
33
0.0000000000
40
0.0000000000
40
0.0000000000
40
0.0000000000
40
0.0000000000
40
0.1066652312
40
0.2142740538
40
0.3231362759
40
0.4334028752
40
0.5450530566
40
0.6579028398
40
0.7716313540
40
0.8858200349
40
1.0000000000
40
1.0000000000
40
1.0000000000
40
1.0000000000
10
-10.4048000592
20
23.1010389812
30
0.0000000000
10
-10.3912402506
20
23.1008154275
30
0.0000000000
10
-10.3639772217
20
23.0977963666
30
0.0000000000
10
-10.3244608214
20
23.0857814644
30
0.0000000000
10
-10.2873344687
20
23.0666489635
30
0.0000000000
10
-10.2537400546
20
23.0409978831
30
0.0000000000
10
-10.2246809011
20
23.0096189928
30
0.0000000000
10
-10.2010258470
20
22.9734707559
30
0.0000000000
10
-10.1834784553
20
22.9336438751
30
0.0000000000
10
-10.1725610276
20
22.8913539624
30
0.0000000000
10
-10.1699161620
20
22.8622880333
30
0.0000000000
10
-10.1697797291
20
22.8477715833
30
0.0000000000
11
-10.4048000592
21
23.1010389812
31
0.0000000000
11
-10.3643598043
21
23.0965835050
31
0.0000000000
11
-10.3250774974
21
23.0846847115
31
0.0000000000
11
-10.2881465959
21
23.0657041043
31
0.0000000000
11
-10.2546891181
21
23.0402183439
31
0.0000000000
11
-10.2257215542
21
23.0090017274
31
0.0000000000
11
-10.2021239839
21
22.9730026640
31
0.0000000000
11
-10.1846133381
21
22.9333148614
31
0.0000000000
11
-10.1737216173
21
22.8911440967
31
0.0000000000
11
-10.1697797291
21
22.8477715833
31
0.0000000000
0
SPLINE
5
37A
100
AcDbEntity
8
0
100
AcDbSpline
62
9
6
CONTINUOUS
70
0
71
3
72
31
73
27
74
25
42
0.0000001000
43
0.0000001000
44
0.0000000001
12
-0.0479554792
22
-1.4508969871
32
0.0000000000
13
1.8080383798
23
0.3003003889
33
0.0000000000
40
0.0000000000
40
0.0000000000
40
0.0000000000
40
0.0000000000
40
0.0000959330
40
0.0055836296
40
0.0174250100
40
0.0361905336
40
0.0617590276
40
0.0938180409
40
0.1319350560
40
0.1755792104
40
0.2241347593
40
0.2769128917
40
0.3331626855
40
0.3920822998
40
0.4528309769
40
0.5145415159
40
0.5763326565
40
0.6373215724
40
0.6966373976
40
0.7534345089
40
0.8069028659
40
0.8562793707
40
0.9008641260
40
0.9400292989
40
0.9732232386
40
1.0000000000
40
1.0000000000
40
1.0000000000
40
1.0000000000
10
5.7804244056
20
23.4364270884
30
0.0000000000
10
5.7804228721
20
23.4363806921
30
0.0000000000
10
5.7803964280
20
23.4336819437
30
0.0000000000
10
5.7919414576
20
23.4256107780
30
0.0000000000
10
5.8115060678
20
23.4215519011
30
0.0000000000
10
5.8461804362
20
23.4143465283
30
0.0000000000
10
5.8921144413
20
23.4088962113
30
0.0000000000
10
5.9504973928
20
23.4032314746
30
0.0000000000
10
6.0198120591
20
23.3983268300
30
0.0000000000
10
6.0993277685
20
23.3939654492
30
0.0000000000
10
6.1878219292
20
23.3903255300
30
0.0000000000
10
6.2840551402
20
23.3874323845
30
0.0000000000
10
6.3866399624
20
23.3853420198
30
0.0000000000
10
6.4941086296
20
23.3840838592
30
0.0000000000
10
6.6049198092
20
23.3836784358
30
0.0000000000
10
6.7174851310
20
23.3841321776
30
0.0000000000
10
6.8301905450
20
23.3854389634
30
0.0000000000
10
6.9414199632
20
23.3875798246
30
0.0000000000
10
7.0495789957
20
23.3905233241
30
0.0000000000
10
7.1531174890
20
23.3942258290
30
0.0000000000
10
7.2505505246
20
23.3986319586
30
0.0000000000
10
7.3404814457
20
23.4036744930
30
0.0000000000
10
7.4216225191
20
23.4092758329
30
0.0000000000
10
7.4928144356
20
23.4153428489
30
0.0000000000
10
7.5530412077
20
23.4217777083
30
0.0000000000
10
7.5893509551
20
23.4267658991
30
0.0000000000
10
7.6054887592
20
23.4294462564
30
0.0000000000
11
5.7804244056
21
23.4364270884
31
0.0000000000
11
5.7804230633
21
23.4362879902
31
0.0000000000
11
5.7875223531
21
23.4291632969
31
0.0000000000
11
5.8080975046
21
23.4222580779
31
0.0000000000
11
5.8418544677
21
23.4156712300
31
0.0000000000
11
5.8883081378
21
23.4094974635
31
0.0000000000
11
5.9467917170
21
23.4038253122
31
0.0000000000
11
6.0164672445
21
23.3987360140
31
0.0000000000
11
6.0963356203
21
23.3943025530
31
0.0000000000
11
6.1852510574
21
23.3905885283
31
0.0000000000
11
6.2819384820
21
23.3876471900
31
0.0000000000
11
6.3850115892
21
23.3855207069
31
0.0000000000
11
6.4929922969
21
23.3842395729
31
0.0000000000
11
6.6043321417
21
23.3838221596
31
0.0000000000
11
6.7174347722
21
23.3842744551
31
0.0000000000
11
6.8306783936
21
23.3855899817
31
0.0000000000
11
6.9424384631
21
23.3877498701
31
0.0000000000
11
7.0511122826
21
23.3907231416
31
0.0000000000
11
7.1551430976
21
23.3944672208
31
0.0000000000
11
7.2530387011
21
23.3989284411
31
0.0000000000
11
7.3433917035
21
23.4040426512
31
0.0000000000
11
7.4249083572
21
23.4097365703
31
0.0000000000
11
7.4964229909
21
23.4159288474
31
0.0000000000
11
7.5569019195
21
23.4225298741
31
0.0000000000
11
7.6054887592
21
23.4294462564
31
0.0000000000
0
SPLINE
5
37B
100
AcDbEntity
8
0
100
AcDbSpline
62
9
6
CONTINUOUS
70
0
71
3
72
9
73
5
74
3
42
0.0000001000
43
0.0000001000
44
0.0000000001
12
-0.0445453189
22
0.0006469279
32
0.0000000000
13
-0.0438401693
23
-0.0083349576
33
0.0000000000
40
0.0000000000
40
0.0000000000
40
0.0000000000
40
0.0000000000
40
0.9179376248
40
1.0000000000
40
1.0000000000
40
1.0000000000
40
1.0000000000
10
-15.1905811019
20
24.0399359019
30
0.0000000000
10
-15.2042110433
20
24.0401338484
30
0.0000000000
10
-15.2191169703
20
24.0389700252
30
0.0000000000
10
-15.2337542833
20
24.0363135964
30
0.0000000000
10
-15.2349534928
20
24.0360856009
30
0.0000000000
11
-15.1905811019
21
24.0399359019
31
0.0000000000
11
-15.2313501291
21
24.0367395306
31
0.0000000000
11
-15.2349534928
21
24.0360856009
31
0.0000000000
0
SPLINE
5
37C
100
AcDbEntity
8
0
100
AcDbSpline
62
9
6
CONTINUOUS
70
0
71
3
72
9
73
5
74
3
42
0.0000001000
43
0.0000001000
44
0.0000000001
12
-0.0299965590
22
-0.0057071019
32
0.0000000000
13
-0.0284952416
23
-0.0087664550
33
0.0000000000
40
0.0000000000
40
0.0000000000
40
0.0000000000
40
0.0000000000
40
0.7964434935
40
1.0000000000
40
1.0000000000
40
1.0000000000
40
1.0000000000
10
-15.1905811019
20
24.0399359019
30
0.0000000000
10
-15.1985446233
20
24.0384207738
30
0.0000000000
10
-15.2086123560
20
24.0357025889
30
0.0000000000
10
-15.2182008514
20
24.0335776501
30
0.0000000000
10
-15.2201343154
20
24.0329828271
30
0.0000000000
11
-15.1905811019
21
24.0399359019
31
0.0000000000
11
-15.2142773929
21
24.0344673216
31
0.0000000000
11
-15.2201343154
21
24.0329828271
31
0.0000000000
0
SPLINE
5
37D
100
AcDbEntity
8
0
100
AcDbSpline
62
9
6
CONTINUOUS
70
0
71
3
72
9
73
5
74
3
42
0.0000001000
43
0.0000001000
44
0.0000000001
12
-0.0106948858
22
-0.0032902418
32
0.0000000000
13
-0.0087609239
23
-0.0093535457
33
0.0000000000
40
0.0000000000
40
0.0000000000
40
0.0000000000
40
0.0000000000
40
0.7694913800
40
1.0000000000
40
1.0000000000
40
1.0000000000
40
1.0000000000
10
-15.2201343154
20
24.0329828271
30
0.0000000000
10
-15.2228775228
20
24.0321388895
30
0.0000000000
10
-15.2263945156
20
24.0306176198
30
0.0000000000
10
-15.2298565044
20
24.0276433471
30
0.0000000000
10
-15.2305296605
20
24.0269246561
30
0.0000000000
11
-15.2201343154
21
24.0329828271
31
0.0000000000
11
-15.2282575453
21
24.0289373339
31
0.0000000000
11
-15.2305296605
21
24.0269246561
31
0.0000000000
0
SPLINE
5
37E
100
AcDbEntity
8
0
100
AcDbSpline
62
9
6
CONTINUOUS
70
0
71
3
72
9
73
5
74
3
42
0.0000001000
43
0.0000001000
44
0.0000000001
12
-0.0093513955
22
-0.0099839590
32
0.0000000000
13
0.0128387949
23
-0.0064524578
33
0.0000000000
40
0.0000000000
40
0.0000000000
40
0.0000000000
40
0.0000000000
40
0.3428238123
40
1.0000000000
40
1.0000000000
40
1.0000000000
40
1.0000000000
10
-15.2305296605
20
24.0269246561
30
0.0000000000
10
-15.2315982875
20
24.0257837432
30
0.0000000000
10
-15.2337975513
20
24.0222124702
30
0.0000000000
10
-15.2291686244
20
24.0194330013
30
0.0000000000
10
-15.2263561743
20
24.0180195341
30
0.0000000000
11
-15.2305296605
21
24.0269246561
31
0.0000000000
11
-15.2323037028
21
24.0234281676
31
0.0000000000
11
-15.2263561743
21
24.0180195341
31
0.0000000000
0
SPLINE
5
37F
100
AcDbEntity
8
0
100
AcDbSpline
62
9
6
CONTINUOUS
70
0
71
3
72
29
73
25
74
23
42
0.0000001000
43
0.0000001000
44
0.0000000001
12
1.4095491214
22
-0.7084041979
32
0.0000000000
13
1.3225806002
23
0.2333573762
33
0.0000000000
40
0.0000000000
40
0.0000000000
40
0.0000000000
40
0.0000000000
40
0.0124318322
40
0.0318044761
40
0.0579850569
40
0.0906528902
40
0.1293674311
40
0.1735897996
40
0.2226963622
40
0.2759905423
40
0.3327141510
40
0.3920587083
40
0.4531774992
40
0.5151981482
40
0.5772350870
40
0.6384021219
40
0.6978260264
40
0.7546598714
40
0.8080934081
40
0.8573644689
40
0.9017753349
40
0.9407014647
40
0.9735965878
40
1.0000000000
40
1.0000000000
40
1.0000000000
40
1.0000000000
10
-15.2263561743
20
24.0180195341
30
0.0000000000
10
-15.2205150816
20
24.0150839467
30
0.0000000000
10
-15.2081050634
20
24.0121327272
30
0.0000000000
10
-15.1817481161
20
24.0068949988
30
0.0000000000
10
-15.1473419313
20
24.0026852930
30
0.0000000000
10
-15.1037311803
20
23.9984624156
30
0.0000000000
10
-15.0521522392
20
23.9947767448
30
0.0000000000
10
-14.9931125058
20
23.9915307966
30
0.0000000000
10
-14.9275320566
20
23.9888351910
30
0.0000000000
10
-14.8563257095
20
23.9867155919
30
0.0000000000
10
-14.7805215176
20
23.9852109508
30
0.0000000000
10
-14.7012039132
20
23.9843430752
30
0.0000000000
10
-14.6195107508
20
23.9841260468
30
0.0000000000
10
-14.5366131519
20
23.9845634679
30
0.0000000000
10
-14.4536999233
20
23.9856493088
30
0.0000000000
10
-14.3719600927
20
23.9873677945
30
0.0000000000
10
-14.2925654553
20
23.9896936816
30
0.0000000000
10
-14.2166539970
20
23.9925924866
30
0.0000000000
10
-14.1453144808
20
23.9960208317
30
0.0000000000
10
-14.0795694909
20
23.9999263862
30
0.0000000000
10
-14.0203604488
20
24.0042489472
30
0.0000000000
10
-13.9685326852
20
24.0089164979
30
0.0000000000
10
-13.9248352167
20
24.0138522831
30
0.0000000000
10
-13.8985552890
20
24.0176754947
30
0.0000000000
10
-13.8869150754
20
24.0197293051
30
0.0000000000
11
-15.2263561743
21
24.0180195341
31
0.0000000000
11
-15.2105006469
21
24.0127887549
31
0.0000000000
11
-15.1849636624
21
24.0078107546
31
0.0000000000
11
-15.1501122096
21
24.0031571218
31
0.0000000000
11
-15.1064465463
21
23.9988946016
31
0.0000000000
11
-15.0545923489
21
23.9950842535
31
0.0000000000
11
-14.9952932256
21
23.9917807315
31
0.0000000000
11
-14.9293999648
21
23.9890314363
31
0.0000000000
11
-14.8578578313
21
23.9868758013
31
0.0000000000
11
-14.7816928606
21
23.9853447351
31
0.0000000000
11
-14.7019974519
21
23.9844601926
31
0.0000000000
11
-14.6199146309
21
23.9842348558
31
0.0000000000
11
-14.5366214433
21
23.9846719546
31
0.0000000000
11
-14.4533124046
21
23.9857652226
31
0.0000000000
11
-14.3711827799
21
23.9874989724
31
0.0000000000
11
-14.2914104862
21
23.9898483309
31
0.0000000000
11
-14.2151383879
21
23.9927796490
31
0.0000000000
11
-14.1434606335
21
23.9962509010
31
0.0000000000
11
-14.0774077939
21
24.0002121632
31
0.0000000000
11
-14.0179256800
21
24.0046066669
31
0.0000000000
11
-13.9658651155
21
24.0093716181
31
0.0000000000
11
-13.9219781191
21
24.0144380532
31
0.0000000000
11
-13.8869150754
21
24.0197293051
31
0.0000000000
0
SPLINE
5
380
100
AcDbEntity
8
0
100
AcDbSpline
62
9
6
CONTINUOUS
70
0
71
3
72
16
73
12
74
10
42
0.0000001000
43
0.0000001000
44
0.0000000001
12
0.3813747505
22
-0.0062875324
32
0.0000000000
13
0.0035846794
23
-0.3814097317
33
0.0000000000
40
0.0000000000
40
0.0000000000
40
0.0000000000
40
0.0000000000
40
0.1066652312
40
0.2142740538
40
0.3231362759
40
0.4334028752
40
0.5450530566
40
0.6579028398
40
0.7716313540
40
0.8858200349
40
1.0000000000
40
1.0000000000
40
1.0000000000
40
1.0000000000
10
-13.8869150754
20
24.0197293051
30
0.0000000000
10
-13.8733552667
20
24.0195057514
30
0.0000000000
10
-13.8460922378
20
24.0164866904
30
0.0000000000
10
-13.8065758375
20
24.0044717882
30
0.0000000000
10
-13.7694494848
20
23.9853392874
30
0.0000000000
10
-13.7358550708
20
23.9596882069
30
0.0000000000
10
-13.7067959173
20
23.9283093167
30
0.0000000000
10
-13.6831408632
20
23.8921610797
30
0.0000000000
10
-13.6655934715
20
23.8523341990
30
0.0000000000
10
-13.6546760438
20
23.8100442863
30
0.0000000000
10
-13.6520311782
20
23.7809783572
30
0.0000000000
10
-13.6518947453
20
23.7664619072
30
0.0000000000
11
-13.8869150754
21
24.0197293051
31
0.0000000000
11
-13.8464748205
21
24.0152738289
31
0.0000000000
11
-13.8071925135
21
24.0033750353
31
0.0000000000
11
-13.7702616120
21
23.9843944281
31
0.0000000000
11
-13.7368041343
21
23.9589086678
31
0.0000000000
11
-13.7078365704
21
23.9276920512
31
0.0000000000
11
-13.6842390001
21
23.8916929879
31
0.0000000000
11
-13.6667283542
21
23.8520051853
31
0.0000000000
11
-13.6558366335
21
23.8098344206
31
0.0000000000
11
-13.6518947453
21
23.7664619072
31
0.0000000000
0
SPLINE
5
381
100
AcDbEntity
8
0
100
AcDbSpline
62
9
6
CONTINUOUS
70
0
71
3
72
9
73
5
74
3
42
0.0000001000
43
0.0000001000
44
0.0000000001
12
-0.0433862029
22
0.0006583054
32
0.0000000000
13
-0.0427388296
23
-0.0079194157
33
0.0000000000
40
0.0000000000
40
0.0000000000
40
0.0000000000
40
0.0000000000
40
0.9394503406
40
1.0000000000
40
1.0000000000
40
1.0000000000
40
1.0000000000
10
6.0719545812
20
23.7038277068
30
0.0000000000
10
6.0583681868
20
23.7040338552
30
0.0000000000
10
6.0438489318
20
23.7029053207
30
0.0000000000
10
6.0295861679
20
23.7003515082
30
0.0000000000
10
6.0287235607
20
23.7001916689
30
0.0000000000
11
6.0719545812
21
23.7038277068
31
0.0000000000
11
6.0313143192
21
23.7006555477
31
0.0000000000
11
6.0287235607
21
23.7001916689
31
0.0000000000
0
SPLINE
5
382
100
AcDbEntity
8
0
100
AcDbSpline
62
9
6
CONTINUOUS
70
0
71
3
72
8
73
4
74
2
42
0.0000001000
43
0.0000001000
44
0.0000000001
12
-0.0245779545
22
-0.0045579187
32
0.0000000000
13
-0.0234767690
23
-0.0055315757
33
0.0000000000
40
0.0000000000
40
0.0000000000
40
0.0000000000
40
0.0000000000
40
1.0000000000
40
1.0000000000
40
1.0000000000
40
1.0000000000
10
6.0719545812
20
23.7038277068
30
0.0000000000
10
6.0637619297
20
23.7023084005
30
0.0000000000
10
6.0553870387
20
23.7002102856
30
0.0000000000
10
6.0475614491
20
23.6983664271
30
0.0000000000
11
6.0719545812
21
23.7038277068
31
0.0000000000
11
6.0475614491
21
23.6983664271
31
0.0000000000
0
SPLINE
5
383
100
AcDbEntity
8
0
100
AcDbSpline
62
9
6
CONTINUOUS
70
0
71
3
72
9
73
5
74
3
42
0.0000001000
43
0.0000001000
44
0.0000000001
12
-0.0173684495
22
-0.0040923388
32
0.0000000000
13
-0.0155914419
23
-0.0139090270
33
0.0000000000
40
0.0000000000
40
0.0000000000
40
0.0000000000
40
0.0000000000
40
0.8491197198
40
1.0000000000
40
1.0000000000
40
1.0000000000
40
1.0000000000
10
6.0475614491
20
23.6983664271
30
0.0000000000
10
6.0426454848
20
23.6972081319
30
0.0000000000
10
6.0371112864
20
23.6959621832
30
0.0000000000
10
6.0310456526
20
23.6915897294
30
0.0000000000
10
6.0302615056
20
23.6908901967
30
0.0000000000
11
6.0475614491
21
23.6983664271
31
0.0000000000
11
6.0328639236
21
23.6928379890
31
0.0000000000
11
6.0302615056
21
23.6908901967
31
0.0000000000
0
SPLINE
5
384
100
AcDbEntity
8
0
100
AcDbSpline
62
9
6
CONTINUOUS
70
0
71
3
72
9
73
5
74
3
42
0.0000001000
43
0.0000001000
44
0.0000000001
12
-0.0101398630
22
-0.0090457079
32
0.0000000000
13
0.0121153154
23
-0.0070558076
33
0.0000000000
40
0.0000000000
40
0.0000000000
40
0.0000000000
40
0.0000000000
40
0.3743594189
40
1.0000000000
40
1.0000000000
40
1.0000000000
40
1.0000000000
10
6.0302615056
20
23.6908901967
30
0.0000000000
10
6.0289961878
20
23.6897614148
30
0.0000000000
10
6.0265276376
20
23.6864692498
30
0.0000000000
10
6.0307848317
20
23.6833774766
30
0.0000000000
10
6.0333114427
20
23.6819060101
30
0.0000000000
11
6.0302615056
21
23.6908901967
31
0.0000000000
11
6.0280905170
21
23.6873245927
31
0.0000000000
11
6.0333114427
21
23.6819060101
31
0.0000000000
0
SPLINE
5
385
100
AcDbEntity
8
0
100
AcDbSpline
62
9
6
CONTINUOUS
70
0
71
3
72
29
73
25
74
23
42
0.0000001000
43
0.0000001000
44
0.0000000001
12
1.3514399536
22
-0.7870616598
32
0.0000000000
13
1.3221167281
23
0.2277303611
33
0.0000000000
40
0.0000000000
40
0.0000000000
40
0.0000000000
40
0.0000000000
40
0.0119434540
40
0.0308320282
40
0.0565532308
40
0.0887964017
40
0.1271283464
40
0.1710162498
40
0.2198415791
40
0.2729119636
40
0.3294725285
40
0.3887171975
40
0.4498007296
40
0.5118512792
40
0.5739828609
40
0.6353079226
40
0.6949509574
40
0.7520618686
40
0.8058263835
40
0.8554774877
40
0.9003118687
40
0.9396986724
40
0.9730844583
40
1.0000000000
40
1.0000000000
40
1.0000000000
40
1.0000000000
10
6.0333114427
20
23.6819060101
30
0.0000000000
10
6.0386917297
20
23.6787725985
30
0.0000000000
10
6.0509788380
20
23.6761020507
30
0.0000000000
10
6.0764538562
20
23.6706669689
30
0.0000000000
10
6.1102859138
20
23.6665212559
30
0.0000000000
10
6.1532486396
20
23.6622394621
30
0.0000000000
10
6.2042686492
20
23.6585324326
30
0.0000000000
10
6.2627931964
20
23.6552456590
30
0.0000000000
10
6.3279276479
20
23.6525105601
30
0.0000000000
10
6.3987579622
20
23.6503470928
30
0.0000000000
10
6.4742632552
20
23.6487969589
30
0.0000000000
10
6.5533628778
20
23.6478820755
30
0.0000000000
10
6.6349222600
20
23.6476174220
30
0.0000000000
10
6.7177721608
20
23.6480072663
30
0.0000000000
10
6.8007244705
20
23.6490463042
30
0.0000000000
10
6.8825895974
20
23.6507194572
30
0.0000000000
10
6.9621939483
20
23.6530021651
30
0.0000000000
10
7.0383965226
20
23.6558606084
30
0.0000000000
10
7.1101043682
20
23.6592520454
30
0.0000000000
10
7.1762895710
20
23.6631247925
30
0.0000000000
10
7.2360043760
20
23.6674192311
30
0.0000000000
10
7.2883959088
20
23.6720642389
30
0.0000000000
10
7.3327068448
20
23.6769835348
30
0.0000000000
10
7.3594129384
20
23.6807920397
30
0.0000000000
10
7.3712747677
20
23.6828352017
30
0.0000000000
11
6.0333114427
21
23.6819060101
31
0.0000000000
11
6.0484514029
21
23.6766597054
31
0.0000000000
11
6.0732941050
21
23.6716608254
31
0.0000000000
11
6.1074825443
21
23.6669812589
31
0.0000000000
11
6.1505259721
21
23.6626881231
31
0.0000000000
11
6.2018076246
21
23.6588429165
31
0.0000000000
11
6.2605921042
21
23.6555007930
31
0.0000000000
11
6.3260360055
21
23.6527097069
31
0.0000000000
11
6.3972005075
21
23.6505096912
31
0.0000000000
11
6.4730649885
21
23.6489322910
31
0.0000000000
11
6.5525413575
21
23.6480001254
31
0.0000000000
11
6.6344897297
21
23.6477265596
31
0.0000000000
11
6.7177349873
21
23.6481155148
31
0.0000000000
11
6.8010833033
21
23.6491614151
31
0.0000000000
11
6.8833388500
21
23.6508492525
31
0.0000000000
11
6.9633219048
21
23.6531548125
31
0.0000000000
11
7.0398865868
21
23.6560450734
31
0.0000000000
11
7.1119345548
21
23.6594785985
31
0.0000000000
11
7.1784299142
21
23.6634060068
31
0.0000000000
11
7.2384205121
21
23.6677710143
31
0.0000000000
11
7.2910482601
21
23.6725112491
31
0.0000000000
11
7.3355529286
21
23.6775581045
31
0.0000000000
11
7.3712747677
21
23.6828352017
31
0.0000000000
0
SPLINE
5
386
100
AcDbEntity
8
0
100
AcDbSpline
62
9
6
CONTINUOUS
70
0
71
3
72
16
73
12
74
10
42
0.0000001000
43
0.0000001000
44
0.0000000001
12
0.3808062852
22
-0.0065307853
32
0.0000000000
13
0.0036062338
23
-0.3808452088
33
0.0000000000
40
0.0000000000
40
0.0000000000
40
0.0000000000
40
0.0000000000
40
0.1064598422
40
0.2138998858
40
0.3226474103
40
0.4328635381
40
0.5445295420
40
0.6574557763
40
0.7713090886
40
0.8856536116
40
1.0000000000
40
1.0000000000
40
1.0000000000
40
1.0000000000
10
7.3712747677
20
23.6828352017
30
0.0000000000
10
7.3847882934
20
23.6826034462
30
0.0000000000
10
7.4119616446
20
23.6795668835
30
0.0000000000
10
7.4513423577
20
23.6675266624
30
0.0000000000
10
7.4883398959
20
23.6483708558
30
0.0000000000
10
7.5218165632
20
23.6226999977
30
0.0000000000
10
7.5507733136
20
23.5913059093
30
0.0000000000
10
7.5743451626
20
23.5551475714
30
0.0000000000
10
7.5918317355
20
23.5153157775
30
0.0000000000
10
7.6027130659
20
23.4730257300
30
0.0000000000
10
7.6053513059
20
23.4439623477
30
0.0000000000
10
7.6054887592
20
23.4294462564
30
0.0000000000
11
7.3712747677
21
23.6828352017
31
0.0000000000
11
7.4115731056
21
23.6783557214
31
0.0000000000
11
7.4507179189
21
23.6664343727
31
0.0000000000
11
7.4875200422
21
23.6474333097
31
0.0000000000
11
7.5208614779
21
23.6219297585
31
0.0000000000
11
7.5497293593
21
23.5906984815
31
0.0000000000
11
7.5732467201
21
23.5546882420
31
0.0000000000
11
7.5906991354
21
23.5149929811
31
0.0000000000
11
7.6015564249
21
23.4728185859
31
0.0000000000
11
7.6054887592
21
23.4294462564
31
0.0000000000
0
SPLINE
5
387
100
AcDbEntity
8
0
100
AcDbSpline
62
9
6
CONTINUOUS
70
0
71
3
72
31
73
27
74
25
42
0.0000001000
43
0.0000001000
44
0.0000000001
12
-1.8171562494
22
-0.2453848596
32
0.0000000000
13
0.3209434519
23
1.3566426921
33
0.0000000000
40
0.0000000000
40
0.0000000000
40
0.0000000000
40
0.0000000000
40
0.0261853300
40
0.0588386193
40
0.0975145464
40
0.1416638698
40
0.1906617399
40
0.2438115000
40
0.3003527831
40
0.3594775810
40
0.4203416417
40
0.4820746534
40
0.5437933898
40
0.6046152194
40
0.6636705849
40
0.7201153403
40
0.7731431711
40
0.8219975280
40
0.8659826666
40
0.9044742361
40
0.9369302919
40
0.9629027768
40
0.9820530615
40
0.9941974472
40
0.9996192075
40
1.0000000000
40
1.0000000000
40
1.0000000000
40
1.0000000000
10
-13.3583899141
20
-23.5832875911
30
0.0000000000
10
-13.3742508594
20
-23.5854294189
30
0.0000000000
10
-13.4100045637
20
-23.5893863516
30
0.0000000000
10
-13.4693944541
20
-23.5944465606
30
0.0000000000
10
-13.5398210979
20
-23.5991822265
30
0.0000000000
10
-13.6202785533
20
-23.6035165959
30
0.0000000000
10
-13.7096157850
20
-23.6073761374
30
0.0000000000
10
-13.8065531389
20
-23.6107010867
30
0.0000000000
10
-13.9097007273
20
-23.6134402877
30
0.0000000000
10
-14.0175789923
20
-23.6155525303
30
0.0000000000
10
-14.1286416288
20
-23.6170063045
30
0.0000000000
10
-14.2412965433
20
-23.6177801234
30
0.0000000000
10
-14.3539282967
20
-23.6178626720
30
0.0000000000
10
-14.4649217304
20
-23.6172530412
30
0.0000000000
10
-14.5726859139
20
-23.6159604624
30
0.0000000000
10
-14.6756745140
20
-23.6140053662
30
0.0000000000
10
-14.7724158360
20
-23.6114155719
30
0.0000000000
10
-14.8615077595
20
-23.6082389757
30
0.0000000000
10
-14.9417243426
20
-23.6045021682
30
0.0000000000
10
-15.0117605408
20
-23.6003433249
30
0.0000000000
10
-15.0710833075
20
-23.5956147503
30
0.0000000000
10
-15.1175636377
20
-23.5910393739
30
0.0000000000
10
-15.1538489295
20
-23.5851891191
30
0.0000000000
10
-15.1726378724
20
-23.5817266648
30
0.0000000000
10
-15.1867836785
20
-23.5753785612
30
0.0000000000
10
-15.1864555924
20
-23.5727815263
30
0.0000000000
10
-15.1864148548
20
-23.5726093265
30
0.0000000000
11
-13.3583899141
21
-23.5832875911
31
0.0000000000
11
-13.4060903338
21
-23.5887723952
31
0.0000000000
11
-13.4657388803
21
-23.5939713578
31
0.0000000000
11
-13.5364916504
21
-23.5988109601
31
0.0000000000
11
-13.6173258168
21
-23.6032211868
31
0.0000000000
11
-13.7070852760
21
-23.6071390070
31
0.0000000000
11
-13.8044850495
21
-23.6105082988
31
0.0000000000
11
-13.9081248739
21
-23.6132806072
31
0.0000000000
11
-14.0165179954
21
-23.6154161936
31
0.0000000000
11
-14.1281116921
21
-23.6168844805
31
0.0000000000
11
-14.2413057125
21
-23.6176644093
31
0.0000000000
11
-14.3544762155
21
-23.6177447932
31
0.0000000000
11
-14.4660004090
21
-23.6171244860
31
0.0000000000
11
-14.5742793020
21
-23.6158123845
31
0.0000000000
11
-14.6777601625
21
-23.6138273044
31
0.0000000000
11
-14.7749590554
21
-23.6111977120
31
0.0000000000
11
-14.8644823421
21
-23.6079613074
31
0.0000000000
11
-14.9450462520
21
-23.6041644926
31
0.0000000000
11
-15.0154950236
21
-23.5998617334
31
0.0000000000
11
-15.0748184329
21
-23.5951147366
31
0.0000000000
11
-15.1221664964
21
-23.5899914922
31
0.0000000000
11
-15.1568596532
21
-23.5845654623
31
0.0000000000
11
-15.1783993070
21
-23.5789146652
31
0.0000000000
11
-15.1864775440
21
-23.5731200418
31
0.0000000000
11
-15.1864148548
21
-23.5726093265
31
0.0000000000
0
SPLINE
5
388
100
AcDbEntity
8
0
100
AcDbSpline
62
9
6
CONTINUOUS
70
0
71
3
72
31
73
27
74
25
42
0.0000001000
43
0.0000001000
44
0.0000000001
12
-1.8146915966
22
-0.2390811566
32
0.0000000000
13
0.0752710428
23
1.3013736605
33
0.0000000000
40
0.0000000000
40
0.0000000000
40
0.0000000000
40
0.0000000000
40
0.0267174127
40
0.0598847971
40
0.0990488918
40
0.1436530873
40
0.1930658767
40
0.2465845729
40
0.3034434531
40
0.3628299269
40
0.4238959794
40
0.4857683961
40
0.5475619529
40
0.6083929548
40
0.6673917303
40
0.7237149724
40
0.7765581516
40
0.8251674327
40
0.8688506941
40
0.9069881054
40
0.9390431645
40
0.9645743554
40
0.9832515531
40
0.9949065828
40
0.9999121673
40
1.0000000000
40
1.0000000000
40
1.0000000000
40
1.0000000000
10
7.8989929337
20
-23.9201972900
30
0.0000000000
10
7.8828316456
20
-23.9223264999
30
0.0000000000
10
7.8464990542
20
-23.9262658170
30
0.0000000000
10
7.7862748722
20
-23.9313056766
30
0.0000000000
10
7.7150819799
20
-23.9360147526
30
0.0000000000
10
7.6339372949
20
-23.9403168068
30
0.0000000000
10
7.5440019653
20
-23.9441393383
30
0.0000000000
10
7.4465642330
20
-23.9474232313
30
0.0000000000
10
7.3430212018
20
-23.9501180498
30
0.0000000000
10
7.2348581124
20
-23.9521832815
30
0.0000000000
10
7.1236253577
20
-23.9535881388
30
0.0000000000
10
7.0109174687
20
-23.9543118730
30
0.0000000000
10
6.8983506486
20
-23.9543439115
30
0.0000000000
10
6.7875391048
20
-23.9536841255
30
0.0000000000
10
6.6800712183
20
-23.9523424131
30
0.0000000000
10
6.5774888427
20
-23.9503402678
30
0.0000000000
10
6.4812586086
20
-23.9477051981
30
0.0000000000
10
6.3927726705
20
-23.9444893664
30
0.0000000000
10
6.3132567731
20
-23.9407088933
30
0.0000000000
10
6.2439787604
20
-23.9365375732
30
0.0000000000
10
6.1855421033
20
-23.9317274213
30
0.0000000000
10
6.1398290539
20
-23.9272805269
30
0.0000000000
10
6.1047866406
20
-23.9210948185
30
0.0000000000
10
6.0862396826
20
-23.9182438735
30
0.0000000000
10
6.0738395063
20
-23.9113287414
30
0.0000000000
10
6.0739024903
20
-23.9091208456
30
0.0000000000
10
6.0739046940
20
-23.9090827446
30
0.0000000000
11
7.8989929337
21
-23.9201972900
31
0.0000000000
11
7.8503966094
21
-23.9256639327
31
0.0000000000
11
7.7899089117
21
-23.9308391545
31
0.0000000000
11
7.7183856066
21
-23.9356497728
31
0.0000000000
11
7.6368606735
21
-23.9400261912
31
0.0000000000
11
7.5465000863
21
-23.9439058625
31
0.0000000000
11
7.4485974345
21
-23.9472332110
31
0.0000000000
11
7.3445602124
21
-23.9499603848
31
0.0000000000
11
7.2358808673
21
-23.9520482929
31
0.0000000000
11
7.1241162168
21
-23.9534670406
31
0.0000000000
11
7.0108689626
21
-23.9541962799
31
0.0000000000
11
6.8977637072
21
-23.9542255509
31
0.0000000000
11
6.7864223053
21
-23.9535544405
31
0.0000000000
11
6.6784411260
21
-23.9521925736
31
0.0000000000
11
6.5753686326
21
-23.9501594794
31
0.0000000000
11
6.4786829052
21
-23.9474843128
31
0.0000000000
11
6.3897702268
21
-23.9442054271
31
0.0000000000
11
6.3099056151
21
-23.9403698336
31
0.0000000000
11
6.2402348022
21
-23.9360325544
31
0.0000000000
11
6.1817568571
21
-23.9312557911
31
0.0000000000
11
6.1353096554
21
-23.9261079605
31
0.0000000000
11
6.1015598407
21
-23.9206628776
31
0.0000000000
11
6.0809924461
21
-23.9149988346
31
0.0000000000
11
6.0739014582
21
-23.9091969619
31
0.0000000000
11
6.0739046940
21
-23.9090827446
31
0.0000000000
0
SPLINE
5
389
100
AcDbEntity
8
0
100
AcDbSpline
62
7
6
CONTINUOUS
70
0
71
3
72
8
73
4
74
2
42
0.0000001000
43
0.0000001000
44
0.0000000001
12
-0.0253223403
22
0.0037444087
32
0.0000000000
13
-0.0253095230
23
-0.0049142087
33
0.0000000000
40
0.0000000000
40
0.0000000000
40
0.0000000000
40
0.0000000000
40
1.0000000000
40
1.0000000000
40
1.0000000000
40
1.0000000000
10
-15.3989105757
20
22.4652851361
30
0.0000000000
10
-15.4073513558
20
22.4665332723
30
0.0000000000
10
-15.4161101538
20
22.4666430783
30
0.0000000000
10
-15.4245466615
20
22.4650050088
30
0.0000000000
11
-15.3989105757
21
22.4652851361
31
0.0000000000
11
-15.4245466615
21
22.4650050088
31
0.0000000000
0
SPLINE
5
38A
100
AcDbEntity
8
0
100
AcDbSpline
62
7
6
CONTINUOUS
70
0
71
3
72
27
73
23
74
21
42
0.0000001000
43
0.0000001000
44
0.0000000001
12
-1.7311801197
22
-0.3054771423
32
0.0000000000
13
-1.7390157756
23
0.2571478633
33
0.0000000000
40
0.0000000000
40
0.0000000000
40
0.0000000000
40
0.0000000000
40
0.0271174398
40
0.0608222051
40
0.1006599129
40
0.1460921803
40
0.1964972932
40
0.2511613846
40
0.3093475456
40
0.3702150872
40
0.4329408261
40
0.4966269899
40
0.5603892204
40
0.6233417375
40
0.6845838867
40
0.7432871001
40
0.7986034643
40
0.8497868808
40
0.8961123402
40
0.9369450043
40
0.9717316823
40
1.0000000000
40
1.0000000000
40
1.0000000000
40
1.0000000000
10
-13.6439379166
20
22.4828242720
30
0.0000000000
10
-13.6595863075
20
22.4800630193
30
0.0000000000
10
-13.6948675578
20
22.4749204666
30
0.0000000000
10
-13.7534802832
20
22.4682739387
30
0.0000000000
10
-13.8229174638
20
22.4619848313
30
0.0000000000
10
-13.9022081031
20
22.4561523623
30
0.0000000000
10
-13.9902422932
20
22.4508719717
30
0.0000000000
10
-14.0857945369
20
22.4462226985
30
0.0000000000
10
-14.1875137112
20
22.4422746493
30
0.0000000000
10
-14.2939854462
20
22.4390851762
30
0.0000000000
10
-14.4037018054
20
22.4367010807
30
0.0000000000
10
-14.5151295238
20
22.4351565695
30
0.0000000000
10
-14.6266987385
20
22.4344736866
30
0.0000000000
10
-14.7368377945
20
22.4346618370
30
0.0000000000
10
-14.8440074456
20
22.4357175830
30
0.0000000000
10
-14.9466901720
20
22.4376244689
30
0.0000000000
10
-15.0434581883
20
22.4403536861
30
0.0000000000
10
-15.1329433833
20
22.4438626398
30
0.0000000000
10
-15.2138999438
20
22.4480972971
30
0.0000000000
10
-15.2851938640
20
22.4529860780
30
0.0000000000
10
-15.3458278318
20
22.4584498541
30
0.0000000000
10
-15.3825242256
20
22.4628620903
30
0.0000000000
10
-15.3989105757
20
22.4652851361
30
0.0000000000
11
-13.6439379166
21
22.4828242720
31
0.0000000000
11
-13.6910731889
21
22.4757013527
31
0.0000000000
11
-13.7499299397
21
22.4688823108
31
0.0000000000
11
-13.8196669423
21
22.4624643087
31
0.0000000000
11
-13.8993131685
21
22.4565363520
31
0.0000000000
11
-13.9877596119
21
22.4511811576
31
0.0000000000
11
-14.0837397004
21
22.4464753021
31
0.0000000000
11
-14.1859486739
21
22.4424829237
31
0.0000000000
11
-14.2929007721
21
22.4392621359
31
0.0000000000
11
-14.4031416883
21
22.4368567475
31
0.0000000000
11
-14.5150863954
21
22.4353015098
31
0.0000000000
11
-14.6271735409
21
22.4346179743
31
0.0000000000
11
-14.7378391782
21
22.4348157999
31
0.0000000000
11
-14.8454929148
21
22.4358919585
31
0.0000000000
11
-14.9486705374
21
22.4378317840
31
0.0000000000
11
-15.0458729568
21
22.4406070001
31
0.0000000000
11
-15.1357786142
21
22.4441797008
31
0.0000000000
11
-15.2171006872
21
22.4484988522
31
0.0000000000
11
-15.2887067328
21
22.4535041370
31
0.0000000000
11
-15.3496001237
21
22.4591262461
31
0.0000000000
11
-15.3989105757
21
22.4652851361
31
0.0000000000
0
SPLINE
5
38B
100
AcDbEntity
8
0
100
AcDbSpline
62
7
6
CONTINUOUS
70
0
71
3
72
24
73
20
74
18
42
0.0000001000
43
0.0000001000
44
0.0000000001
12
-1.3590621317
22
-0.0550876365
32
0.0000000000
13
-0.0339284871
23
1.0966532158
33
0.0000000000
40
0.0000000000
40
0.0000000000
40
0.0000000000
40
0.0000000000
40
0.0765138977
40
0.1561398579
40
0.2377477548
40
0.3202095913
40
0.4023807851
40
0.4830910534
40
0.5612471127
40
0.6357186337
40
0.7054993350
40
0.7695933403
40
0.8271180421
40
0.8772850798
40
0.9193972398
40
0.9529212060
40
0.9774504914
40
0.9928734033
40
1.0000000000
40
1.0000000000
40
1.0000000000
40
1.0000000000
10
7.1421209193
20
22.1085140364
30
0.0000000000
10
7.1074585390
20
22.1071090465
30
0.0000000000
10
7.0367097078
20
22.1045854324
30
0.0000000000
10
6.9289549207
20
22.1016688806
30
0.0000000000
10
6.8184838150
20
22.0995708681
30
0.0000000000
10
6.7068458592
20
22.0983212623
30
0.0000000000
10
6.5956085193
20
22.0979377700
30
0.0000000000
10
6.4863237920
20
22.0984252922
30
0.0000000000
10
6.3805373338
20
22.0997763372
30
0.0000000000
10
6.2797217453
20
22.1019695640
30
0.0000000000
10
6.1853038777
20
22.1049745920
30
0.0000000000
10
6.0986079784
20
22.1087341629
30
0.0000000000
10
6.0208349034
20
22.1132240976
30
0.0000000000
10
5.9531378601
20
22.1182584879
30
0.0000000000
10
5.8962678195
20
22.1240722812
30
0.0000000000
10
5.8515179040
20
22.1296383289
30
0.0000000000
10
5.8181315444
20
22.1370431198
30
0.0000000000
10
5.7988723866
20
22.1411458435
30
0.0000000000
10
5.7884635373
20
22.1494265202
30
0.0000000000
10
5.7883829391
20
22.1520316553
30
0.0000000000
11
7.1421209193
21
22.1085140364
31
0.0000000000
11
7.0381153345
21
22.1047817759
31
0.0000000000
11
6.9298498850
21
22.1018370503
31
0.0000000000
11
6.8188687672
21
22.0997216875
31
0.0000000000
11
6.7067130234
21
22.0984648313
31
0.0000000000
11
6.5949462117
21
22.0980841277
31
0.0000000000
11
6.4851670127
21
22.0985849400
31
0.0000000000
11
6.3788697522
21
22.0999606054
31
0.0000000000
11
6.2775997815
21
22.1021912139
31
0.0000000000
11
6.1827347843
21
22.1052464511
31
0.0000000000
11
6.0956399609
21
22.1090825650
31
0.0000000000
11
6.0175293063
21
22.1136459286
31
0.0000000000
11
5.9494936985
21
22.1188730119
31
0.0000000000
11
5.8925096420
21
22.1246885204
31
0.0000000000
11
5.8473518575
21
22.1310133653
31
0.0000000000
11
5.8146759833
21
22.1377555397
31
0.0000000000
11
5.7949245261
21
22.1448232504
31
0.0000000000
11
5.7883829391
21
22.1520316553
31
0.0000000000
0
SPLINE
5
38C
100
AcDbEntity
8
0
100
AcDbSpline
62
7
6
CONTINUOUS
70
0
71
3
72
16
73
12
74
10
42
0.0000001000
43
0.0000001000
44
0.0000000001
12
-0.3439382612
22
0.4095433883
32
0.0000000000
13
-0.5343689400
23
-0.0216598794
33
0.0000000000
40
0.0000000000
40
0.0000000000
40
0.0000000000
40
0.0000000000
40
0.0842727888
40
0.1754756716
40
0.2733389345
40
0.3776628023
40
0.4883727523
40
0.6055428873
40
0.7294458173
40
0.8606494546
40
1.0000000000
40
1.0000000000
40
1.0000000000
40
1.0000000000
10
7.6149925995
20
21.8962365525
30
0.0000000000
10
7.6053310540
20
21.9077410070
30
0.0000000000
10
7.5840479031
20
21.9307347898
30
0.0000000000
10
7.5479240071
20
21.9635204446
30
0.0000000000
10
7.5063147438
20
21.9953135046
30
0.0000000000
10
7.4592334077
20
22.0253514818
30
0.0000000000
10
7.4066580116
20
22.0527809678
30
0.0000000000
10
7.3485344492
20
22.0765802742
30
0.0000000000
10
7.2847732628
20
22.0954495688
30
0.0000000000
10
7.2153522981
20
22.1076232410
30
0.0000000000
10
7.1669424538
20
22.1095201417
30
0.0000000000
10
7.1421209193
20
22.1085140364
30
0.0000000000
11
7.6149925995
21
21.8962365525
31
0.0000000000
11
7.5844485266
21
21.9293777810
31
0.0000000000
11
7.5483790405
21
21.9622120778
31
0.0000000000
11
7.5068214232
21
21.9940277004
31
0.0000000000
11
7.4597998735
21
22.0240586230
31
0.0000000000
11
7.4073058951
21
22.0514453565
31
0.0000000000
11
7.3493024506
21
22.0751585172
31
0.0000000000
11
7.2857397883
21
22.0938865224
31
0.0000000000
11
7.2165991917
21
22.1058542795
31
0.0000000000
11
7.1421209193
21
22.1085140364
31
0.0000000000
0
SPLINE
5
38D
100
AcDbEntity
8
0
100
AcDbSpline
62
9
6
CONTINUOUS
70
0
71
3
72
16
73
12
74
10
42
0.0000001000
43
0.0000001000
44
0.0000000001
12
0.3426009342
22
0.0443673238
32
0.0000000000
13
-0.0010349903
23
0.3447749610
33
0.0000000000
40
0.0000000000
40
0.0000000000
40
0.0000000000
40
0.0000000000
40
0.0264982817
40
0.1441365997
40
0.2624399817
40
0.3818565906
40
0.5026902255
40
0.6250665101
40
0.7489238517
40
0.8740271827
40
1.0000000000
40
1.0000000000
40
1.0000000000
40
1.0000000000
10
-10.0867052140
20
-23.1575255199
30
0.0000000000
10
-10.0836791020
20
-23.1571336340
30
0.0000000000
10
-10.0672637469
20
-23.1546536921
30
0.0000000000
10
-10.0379958197
20
-23.1466968009
30
0.0000000000
10
-10.0010452299
20
-23.1287527378
30
0.0000000000
10
-9.9677110190
20
-23.1041435760
30
0.0000000000
10
-9.9389984158
20
-23.0736352495
30
0.0000000000
10
-9.9157699873
20
-23.0381692902
30
0.0000000000
10
-9.8987156177
20
-22.9988250856
30
0.0000000000
10
-9.8883381490
20
-22.9568104919
30
0.0000000000
10
-9.8860783954
20
-22.9278921118
30
0.0000000000
10
-9.8861218557
20
-22.9134146874
30
0.0000000000
11
-10.0867052140
21
-23.1575255199
31
0.0000000000
11
-10.0776549782
21
-23.1561579200
31
0.0000000000
11
-10.0385123028
21
-23.1455335283
31
0.0000000000
11
-10.0018093519
21
-23.1277410321
31
0.0000000000
11
-9.9686612200
21
-23.1033209909
31
0.0000000000
11
-9.9400750016
21
-23.0730153205
31
0.0000000000
11
-9.9169191936
21
-23.0377447522
31
0.0000000000
11
-9.8998973088
21
-22.9985808606
31
0.0000000000
11
-9.8895265017
21
-22.9567135065
31
0.0000000000
11
-9.8861218557
21
-22.9134146874
31
0.0000000000
0
SPLINE
5
38E
100
AcDbEntity
8
0
100
AcDbSpline
62
9
6
CONTINUOUS
70
0
71
3
72
16
73
12
74
10
42
0.0000001000
43
0.0000001000
44
0.0000000001
12
0.3426392125
22
0.0443207643
32
0.0000000000
13
-0.0010350863
23
0.3448068856
33
0.0000000000
40
0.0000000000
40
0.0000000000
40
0.0000000000
40
0.0000000000
40
0.0265884262
40
0.1442158605
40
0.2625082944
40
0.3819138490
40
0.5027362958
40
0.6251012466
40
0.7489471151
40
0.8740388553
40
1.0000000000
40
1.0000000000
40
1.0000000000
40
1.0000000000
10
-13.5590049959
20
-23.8274025295
30
0.0000000000
10
-13.5559682501
20
-23.8270097231
30
0.0000000000
10
-13.5395421283
20
-23.8245294026
30
0.0000000000
10
-13.5102638721
20
-23.8165697025
30
0.0000000000
10
-13.4733132813
20
-23.7986256374
30
0.0000000000
10
-13.4399790708
20
-23.7740164738
30
0.0000000000
10
-13.4112664688
20
-23.7435081464
30
0.0000000000
10
-13.3880380422
20
-23.7080421872
30
0.0000000000
10
-13.3709836744
20
-23.6686979839
30
0.0000000000
10
-13.3606062071
20
-23.6266833927
30
0.0000000000
10
-13.3583464539
20
-23.5977650144
30
0.0000000000
10
-13.3583899141
20
-23.5832875911
30
0.0000000000
11
-13.5590049959
21
-23.8274025295
31
0.0000000000
11
-13.5499230328
21
-23.8260308231
31
0.0000000000
11
-13.5107803549
21
-23.8154064297
31
0.0000000000
11
-13.4740774031
21
-23.7976139315
31
0.0000000000
11
-13.4409292716
21
-23.7731938886
31
0.0000000000
11
-13.4123430544
21
-23.7428882172
31
0.0000000000
11
-13.3891872482
21
-23.7076176491
31
0.0000000000
11
-13.3721653654
21
-23.6684537588
31
0.0000000000
11
-13.3617945597
21
-23.6265864071
31
0.0000000000
11
-13.3583899141
21
-23.5832875911
31
0.0000000000
0
SPLINE
5
38F
100
AcDbEntity
8
0
100
AcDbSpline
62
9
6
CONTINUOUS
70
0
71
3
72
9
73
5
74
3
42
0.0000001000
43
0.0000001000
44
0.0000000001
12
-0.0259755385
22
-0.0048171652
32
0.0000000000
13
-0.0249152871
23
-0.0072982483
33
0.0000000000
40
0.0000000000
40
0.0000000000
40
0.0000000000
40
0.0000000000
40
0.7991714629
40
1.0000000000
40
1.0000000000
40
1.0000000000
40
1.0000000000
10
1.7942664238
20
22.9079566741
30
0.0000000000
10
1.7873467874
20
22.9066734271
30
0.0000000000
10
1.7787149917
20
22.9042877636
30
0.0000000000
10
1.7702744217
20
22.9025985549
30
0.0000000000
10
1.7686065215
20
22.9021099894
30
0.0000000000
11
1.7942664238
21
22.9079566741
31
0.0000000000
11
1.7736723489
21
22.9033051270
31
0.0000000000
11
1.7686065215
21
22.9021099894
31
0.0000000000
0
SPLINE
5
390
100
AcDbEntity
8
0
100
AcDbSpline
62
9
6
CONTINUOUS
70
0
71
3
72
9
73
5
74
3
42
0.0000001000
43
0.0000001000
44
0.0000000001
12
-0.0108590895
22
-0.0031808717
32
0.0000000000
13
-0.0047380160
23
-0.0099500002
33
0.0000000000
40
0.0000000000
40
0.0000000000
40
0.0000000000
40
0.0000000000
40
0.6568367942
40
1.0000000000
40
1.0000000000
40
1.0000000000
40
1.0000000000
10
1.7686065215
20
22.9021099894
30
0.0000000000
10
1.7662289716
20
22.9014135516
30
0.0000000000
10
1.7626934425
20
22.8998913143
30
0.0000000000
10
1.7594169353
20
22.8964746801
30
0.0000000000
10
1.7588749643
20
22.8953365221
30
0.0000000000
11
1.7686065215
21
22.9021099894
31
0.0000000000
11
1.7616961914
21
22.8985965203
31
0.0000000000
11
1.7588749643
21
22.8953365221
31
0.0000000000
0
SPLINE
5
391
100
AcDbEntity
8
0
100
AcDbSpline
62
9
6
CONTINUOUS
70
0
71
3
72
9
73
5
74
3
42
0.0000001000
43
0.0000001000
44
0.0000000001
12
-0.0016156681
22
-0.0033929599
32
0.0000000000
13
0.0024782978
23
-0.0027031226
33
0.0000000000
40
0.0000000000
40
0.0000000000
40
0.0000000000
40
0.0000000000
40
0.4328793503
40
1.0000000000
40
1.0000000000
40
1.0000000000
40
1.0000000000
10
1.7588749643
20
22.8953365221
30
0.0000000000
10
1.7586418346
20
22.8948469413
30
0.0000000000
10
1.7583522229
20
22.8937306181
30
0.0000000000
10
1.7588721209
20
22.8927574957
30
0.0000000000
10
1.7593406188
20
22.8922464968
30
0.0000000000
11
1.7588749643
21
22.8953365221
31
0.0000000000
11
1.7585427903
21
22.8939073084
31
0.0000000000
11
1.7593406188
21
22.8922464968
31
0.0000000000
0
SPLINE
5
392
100
AcDbEntity
8
0
100
AcDbSpline
62
9
6
CONTINUOUS
70
0
71
3
72
29
73
25
74
23
42
0.0000001000
43
0.0000001000
44
0.0000000001
12
0.6947291010
22
-0.7577531190
32
0.0000000000
13
1.0839153386
23
0.1912448614
33
0.0000000000
40
0.0000000000
40
0.0000000000
40
0.0000000000
40
0.0000000000
40
0.0046437745
40
0.0184226949
40
0.0397205579
40
0.0683425345
40
0.1038956242
40
0.1458517393
40
0.1935741761
40
0.2463277598
40
0.3032989333
40
0.3636035743
40
0.4263084492
40
0.4904383310
40
0.5549992114
40
0.6189861903
40
0.6814077755
40
0.7412944818
40
0.7977181656
40
0.8498025325
40
0.8967462257
40
0.9378289600
40
0.9724234629
40
1.0000000000
40
1.0000000000
40
1.0000000000
40
1.0000000000
10
1.7593406188
20
22.8922464968
30
0.0000000000
10
1.7604160073
20
22.8910735520
30
0.0000000000
10
1.7683120445
20
22.8872747378
30
0.0000000000
10
1.7808002361
20
22.8842679114
30
0.0000000000
10
1.8047195847
20
22.8799483984
30
0.0000000000
10
1.8355023701
20
22.8763810858
30
0.0000000000
10
1.8744272371
20
22.8728923792
30
0.0000000000
10
1.9202285802
20
22.8698684230
30
0.0000000000
10
1.9724369266
20
22.8672593047
30
0.0000000000
10
2.0301601740
20
22.8651493865
30
0.0000000000
10
2.0925239539
20
22.8635639653
30
0.0000000000
10
2.1585488261
20
22.8625338397
30
0.0000000000
10
2.2272070642
20
22.8620755347
30
0.0000000000
10
2.2974280764
20
22.8621973754
30
0.0000000000
10
2.3681161364
20
22.8628977610
30
0.0000000000
10
2.4381694514
20
22.8641657636
30
0.0000000000
10
2.5064953003
20
22.8659811459
30
0.0000000000
10
2.5720289808
20
22.8683146574
30
0.0000000000
10
2.6337476664
20
22.8711282940
30
0.0000000000
10
2.6906897314
20
22.8743753270
30
0.0000000000
10
2.7419680760
20
22.8780013301
30
0.0000000000
10
2.7867866827
20
22.8819403630
30
0.0000000000
10
2.8244401601
20
22.8861221137
30
0.0000000000
10
2.8470258581
20
22.8893783314
30
0.0000000000
10
2.8569894020
20
22.8911362884
30
0.0000000000
11
1.7593406188
21
22.8922464968
31
0.0000000000
11
1.7642630066
21
22.8893111924
31
0.0000000000
11
1.7787670178
21
22.8848797863
31
0.0000000000
11
1.8018297511
21
22.8806819934
31
0.0000000000
11
1.8330905990
21
22.8767835227
31
0.0000000000
11
1.8720620733
21
22.8732451405
31
0.0000000000
11
1.9181356623
21
22.8701220719
31
0.0000000000
11
1.9705943699
21
22.8674629296
31
0.0000000000
11
2.0286180466
21
22.8653092951
31
0.0000000000
11
2.0913030091
21
22.8636947049
31
0.0000000000
11
2.1576694572
21
22.8626443856
31
0.0000000000
11
2.2266844532
21
22.8621746785
31
0.0000000000
11
2.2972693932
21
22.8622929232
31
0.0000000000
11
2.3683253233
21
22.8629972767
31
0.0000000000
11
2.4387414525
21
22.8642767220
31
0.0000000000
11
2.5074217429
21
22.8661113369
31
0.0000000000
11
2.5732941950
21
22.8684724994
31
0.0000000000
11
2.6353318773
21
22.8713234142
31
0.0000000000
11
2.6925640975
21
22.8746194501
31
0.0000000000
11
2.7441011056
21
22.8783093283
31
0.0000000000
11
2.7891395189
21
22.8823355961
31
0.0000000000
11
2.8269727163
21
22.8866349387
31
0.0000000000
11
2.8569894020
21
22.8911362884
31
0.0000000000
0
SPLINE
5
393
100
AcDbEntity
8
0
100
AcDbSpline
62
9
6
CONTINUOUS
70
0
71
3
72
30
73
26
74
24
42
0.0000001000
43
0.0000001000
44
0.0000000001
12
-0.2994982767
22
-1.3170949158
32
0.0000000000
13
1.5658455812
23
0.2648853796
33
0.0000000000
40
0.0000000000
40
0.0000000000
40
0.0000000000
40
0.0000000000
40
0.0006711683
40
0.0072289403
40
0.0209354786
40
0.0421599157
40
0.0706984551
40
0.1061553863
40
0.1480020993
40
0.1956024107
40
0.2482223836
40
0.3050503317
40
0.3652040953
40
0.4277525672
40
0.4917227797
40
0.5561230379
40
0.6199507735
40
0.6822167683
40
0.7419537212
40
0.7982355084
40
0.8501876529
40
0.8970102340
40
0.9379841976
40
0.9724822249
40
1.0000000000
40
1.0000000000
40
1.0000000000
40
1.0000000000
10
-11.7507906480
20
22.8534181362
30
0.0000000000
10
-11.7508576526
20
22.8531234721
30
0.0000000000
10
-11.7511744500
20
22.8500044140
30
0.0000000000
10
-11.7375623137
20
22.8435444788
30
0.0000000000
10
-11.7188655248
20
22.8391888995
30
0.0000000000
10
-11.6843597734
20
22.8331772427
30
0.0000000000
10
-11.6400928841
20
22.8282167464
30
0.0000000000
10
-11.5840563366
20
22.8233505066
30
0.0000000000
10
-11.5181411631
20
22.8191243808
30
0.0000000000
10
-11.4429989828
20
22.8154662007
30
0.0000000000
10
-11.3599218649
20
22.8124947573
30
0.0000000000
10
-11.2701653198
20
22.8102454558
30
0.0000000000
10
-11.1751394433
20
22.8087619099
30
0.0000000000
10
-11.0763228809
20
22.8080678621
30
0.0000000000
10
-10.9752563002
20
22.8081757835
30
0.0000000000
10
-10.8735164797
20
22.8090844106
30
0.0000000000
10
-10.7726889915
20
22.8107795745
30
0.0000000000
10
-10.6743463888
20
22.8132342081
30
0.0000000000
10
-10.5800209587
20
22.8164087351
30
0.0000000000
10
-10.4911847742
20
22.8202514334
30
0.0000000000
10
-10.4092219486
20
22.8246983996
30
0.0000000000
10
-10.3354093174
20
22.8296751247
30
0.0000000000
10
-10.2708932028
20
22.8350906842
30
0.0000000000
10
-10.2166757174
20
22.8408502816
30
0.0000000000
10
-10.1841425913
20
22.8453418979
30
0.0000000000
10
-10.1697797291
20
22.8477715833
30
0.0000000000
11
-11.7507906480
21
22.8534181362
31
0.0000000000
11
-11.7508732312
21
22.8525519552
31
0.0000000000
11
-11.7426338776
21
22.8461823667
31
0.0000000000
11
-11.7217532018
21
22.8400333529
31
0.0000000000
11
-11.6885553589
21
22.8342005105
31
0.0000000000
11
-11.6435594317
21
22.8287751235
31
0.0000000000
11
-11.5874670882
21
22.8238417415
31
0.0000000000
11
-11.5211541187
21
22.8194773440
31
0.0000000000
11
-11.4456523949
21
22.8157498484
31
0.0000000000
11
-11.3621420643
21
22.8127175212
31
0.0000000000
11
-11.2719231041
21
22.8104275604
31
0.0000000000
11
-11.1764053483
21
22.8089157446
31
0.0000000000
11
-11.0770751502
21
22.8082055989
31
0.0000000000
11
-10.9754846103
21
22.8083082254
31
0.0000000000
11
-10.8732151489
21
22.8092220310
31
0.0000000000
11
-10.7718652600
21
22.8109327310
31
0.0000000000
11
-10.6730122512
21
22.8134136980
31
0.0000000000
11
-10.5781988751
21
22.8166262384
31
0.0000000000
11
-10.4889030782
21
22.8205203022
31
0.0000000000
11
-10.4065218982
21
22.8250349396
31
0.0000000000
11
-10.3323360283
21
22.8300999263
31
0.0000000000
11
-10.2675015610
21
22.8356364117
31
0.0000000000
11
-10.2130364036
21
22.8415573455
31
0.0000000000
11
-10.1697797291
21
22.8477715833
31
0.0000000000
0
SPLINE
5
394
100
AcDbEntity
8
0
100
AcDbSpline
62
9
6
CONTINUOUS
70
0
71
3
72
16
73
12
74
10
42
0.0000001000
43
0.0000001000
44
0.0000000001
12
0.3428725290
22
0.0432521911
32
0.0000000000
13
-0.0010110575
23
0.3448985343
33
0.0000000000
40
0.0000000000
40
0.0000000000
40
0.0000000000
40
0.0000000000
40
0.0284473342
40
0.1456448395
40
0.2635472628
40
0.3826212851
40
0.5031812230
40
0.6253543366
40
0.7490722255
40
0.8740859509
40
1.0000000000
40
1.0000000000
40
1.0000000000
40
1.0000000000
10
7.6984024570
20
-24.1642904685
30
0.0000000000
10
7.7016537268
20
-24.1638803320
30
0.0000000000
10
7.7182518034
20
-24.1613997133
30
0.0000000000
10
7.7476509801
20
-24.1533919728
30
0.0000000000
10
7.7844742399
20
-24.1354628503
30
0.0000000000
10
7.8176919054
20
-24.1108678028
30
0.0000000000
10
7.8463027870
20
-24.0803731484
30
0.0000000000
10
7.8694482017
20
-24.0449203737
30
0.0000000000
10
7.8864416101
20
-24.0055884208
30
0.0000000000
10
7.8967826623
20
-23.9635842527
30
0.0000000000
10
7.8990353691
20
-23.9346731470
30
0.0000000000
10
7.8989929337
20
-23.9201972900
30
0.0000000000
11
7.6984024570
21
-24.1642904685
31
0.0000000000
11
7.7081242003
21
-24.1628371128
31
0.0000000000
11
7.7471293582
21
-24.1522310311
31
0.0000000000
11
7.7837035160
21
-24.1344564306
31
0.0000000000
11
7.8167355998
21
-24.1100532753
31
0.0000000000
11
7.8452221384
21
-24.0797628967
31
0.0000000000
11
7.8682977472
21
-24.0445054729
31
0.0000000000
11
7.8852614183
21
-24.0053520755
31
0.0000000000
11
7.8955978162
21
-23.9634921315
31
0.0000000000
11
7.8989929337
21
-23.9201972900
31
0.0000000000
0
SPLINE
5
395
100
AcDbEntity
8
0
100
AcDbSpline
62
9
6
CONTINUOUS
70
0
71
3
72
30
73
26
74
24
42
0.0000001000
43
0.0000001000
44
0.0000000001
12
-1.5716246850
22
-0.2137730084
32
0.0000000000
13
0.3822701926
23
1.2092492268
33
0.0000000000
40
0.0000000000
40
0.0000000000
40
0.0000000000
40
0.0000000000
40
0.0274576269
40
0.0619294038
40
0.1029031623
40
0.1497464234
40
0.2017361372
40
0.2580695343
40
0.3178693216
40
0.3802067560
40
0.4441118611
40
0.5085929934
40
0.5726449595
40
0.6352734896
40
0.6955029055
40
0.7523993164
40
0.8050776086
40
0.8527227472
40
0.8945968569
40
0.9300584035
40
0.9585707138
40
0.9797226940
40
0.9932716122
40
0.9994284269
40
1.0000000000
40
1.0000000000
40
1.0000000000
40
1.0000000000
10
3.3756676055
20
-23.1233173802
30
0.0000000000
10
3.3612832441
20
-23.1252739467
30
0.0000000000
10
3.3287304893
20
-23.1288696092
30
0.0000000000
10
3.2745159627
20
-23.1334433370
30
0.0000000000
10
3.2099994920
20
-23.1377057680
30
0.0000000000
10
3.1361839939
20
-23.1415820907
30
0.0000000000
10
3.0542175768
20
-23.1450004879
30
0.0000000000
10
2.9653775786
20
-23.1479034233
30
0.0000000000
10
2.8710484637
20
-23.1502422903
30
0.0000000000
10
2.7727026383
20
-23.1519787872
30
0.0000000000
10
2.6718725840
20
-23.1530847526
30
0.0000000000
10
2.5701310189
20
-23.1535424170
30
0.0000000000
10
2.4690636131
20
-23.1533446420
30
0.0000000000
10
2.3702471889
20
-23.1524948498
30
0.0000000000
10
2.2752228825
20
-23.1510076863
30
0.0000000000
10
2.1854682903
20
-23.1489067194
30
0.0000000000
10
2.1023978023
20
-23.1462321989
30
0.0000000000
10
2.0272541470
20
-23.1430154264
30
0.0000000000
10
1.9613715757
20
-23.1393620110
30
0.0000000000
10
1.9052807944
20
-23.1352021631
30
0.0000000000
10
1.8612203267
20
-23.1310255830
30
0.0000000000
10
1.8263362949
20
-23.1259586917
30
0.0000000000
10
1.8085979936
20
-23.1224414307
30
0.0000000000
10
1.7941248525
20
-23.1171268494
30
0.0000000000
10
1.7945931515
20
-23.1144674095
30
0.0000000000
10
1.7946659833
20
-23.1142370180
30
0.0000000000
11
3.3756676055
21
-23.1233173802
31
0.0000000000
11
3.3324027339
21
-23.1282966307
31
0.0000000000
11
3.2779301169
21
-23.1330032738
31
0.0000000000
11
3.2130882975
21
-23.1373648916
31
0.0000000000
11
3.1388953211
21
-23.1413129412
31
0.0000000000
11
3.0565077706
21
-23.1447859261
31
0.0000000000
11
2.9672060613
21
-23.1477298477
31
0.0000000000
11
2.8723873942
21
-23.1500986194
31
0.0000000000
11
2.7735297965
21
-23.1518553386
31
0.0000000000
11
2.6721762719
21
-23.1529726076
31
0.0000000000
11
2.5699039908
21
-23.1534330385
31
0.0000000000
11
2.4683115765
21
-23.1532294323
31
0.0000000000
11
2.3689804273
21
-23.1523649620
31
0.0000000000
11
2.2734627071
21
-23.1508531406
31
0.0000000000
11
2.1832447662
21
-23.1487174937
31
0.0000000000
11
2.0997363801
21
-23.1459913882
31
0.0000000000
11
2.0242375392
21
-23.1427172575
31
0.0000000000
11
1.9579282884
21
-23.1389462780
31
0.0000000000
11
1.9018405598
21
-23.1347371397
31
0.0000000000
11
1.8568499591
21
-23.1301555160
31
0.0000000000
11
1.8236580858
21
-23.1252728067
31
0.0000000000
11
1.8027839334
21
-23.1201654215
31
0.0000000000
11
1.7945516239
21
-23.1149127800
31
0.0000000000
11
1.7946659833
21
-23.1142370180
31
0.0000000000
0
SPLINE
5
396
100
AcDbEntity
8
0
100
AcDbSpline
62
9
6
CONTINUOUS
70
0
71
3
72
16
73
12
74
10
42
0.0000001000
43
0.0000001000
44
0.0000000001
12
0.3426009342
22
0.0443673238
32
0.0000000000
13
-0.0010349903
23
0.3447749610
33
0.0000000000
40
0.0000000000
40
0.0000000000
40
0.0000000000
40
0.0000000000
40
0.0264982817
40
0.1441365997
40
0.2624399817
40
0.3818565906
40
0.5026902255
40
0.6250665101
40
0.7489238517
40
0.8740271827
40
1.0000000000
40
1.0000000000
40
1.0000000000
40
1.0000000000
10
3.1750842472
20
-23.3674282128
30
0.0000000000
10
3.1781103592
20
-23.3670363268
30
0.0000000000
10
3.1945257143
20
-23.3645563849
30
0.0000000000
10
3.2237936415
20
-23.3565994937
30
0.0000000000
10
3.2607442313
20
-23.3386554307
30
0.0000000000
10
3.2940784422
20
-23.3140462689
30
0.0000000000
10
3.3227910454
20
-23.2835379424
30
0.0000000000
10
3.3460194739
20
-23.2480719831
30
0.0000000000
10
3.3630738435
20
-23.2087277784
30
0.0000000000
10
3.3734513122
20
-23.1667131848
30
0.0000000000
10
3.3757110657
20
-23.1377948046
30
0.0000000000
10
3.3756676055
20
-23.1233173802
30
0.0000000000
11
3.1750842472
21
-23.3674282128
31
0.0000000000
11
3.1841344830
21
-23.3660606129
31
0.0000000000
11
3.2232771584
21
-23.3554362211
31
0.0000000000
11
3.2599801093
21
-23.3376437249
31
0.0000000000
11
3.2931282411
21
-23.3132236838
31
0.0000000000
11
3.3217144596
21
-23.2829180133
31
0.0000000000
11
3.3448702676
21
-23.2476474451
31
0.0000000000
11
3.3618921523
21
-23.2084835534
31
0.0000000000
11
3.3722629594
21
-23.1666161993
31
0.0000000000
11
3.3756676055
21
-23.1233173802
31
0.0000000000
0
SPLINE
5
397
100
AcDbEntity
8
0
100
AcDbSpline
62
9
6
CONTINUOUS
70
0
71
3
72
30
73
26
74
24
42
0.0000001000
43
0.0000001000
44
0.0000000001
12
-1.5716246850
22
-0.2137730084
32
0.0000000000
13
0.3822701926
23
1.2092492268
33
0.0000000000
40
0.0000000000
40
0.0000000000
40
0.0000000000
40
0.0000000000
40
0.0274576269
40
0.0619294038
40
0.1029031623
40
0.1497464234
40
0.2017361372
40
0.2580695343
40
0.3178693216
40
0.3802067560
40
0.4441118611
40
0.5085929934
40
0.5726449595
40
0.6352734896
40
0.6955029055
40
0.7523993164
40
0.8050776086
40
0.8527227472
40
0.8945968569
40
0.9300584035
40
0.9585707138
40
0.9797226940
40
0.9932716122
40
0.9994284269
40
1.0000000000
40
1.0000000000
40
1.0000000000
40
1.0000000000
10
-9.8861218557
20
-22.9134146874
30
0.0000000000
10
-9.9005062171
20
-22.9153712539
30
0.0000000000
10
-9.9330589719
20
-22.9189669164
30
0.0000000000
10
-9.9872734985
20
-22.9235406441
30
0.0000000000
10
-10.0517899691
20
-22.9278030751
30
0.0000000000
10
-10.1256054673
20
-22.9316793979
30
0.0000000000
10
-10.2075718844
20
-22.9350977951
30
0.0000000000
10
-10.2964118826
20
-22.9380007304
30
0.0000000000
10
-10.3907409975
20
-22.9403395974
30
0.0000000000
10
-10.4890868228
20
-22.9420760943
30
0.0000000000
10
-10.5899168771
20
-22.9431820598
30
0.0000000000
10
-10.6916584423
20
-22.9436397241
30
0.0000000000
10
-10.7927258481
20
-22.9434419491
30
0.0000000000
10
-10.8915422723
20
-22.9425921570
30
0.0000000000
10
-10.9865665787
20
-22.9411049935
30
0.0000000000
10
-11.0763211709
20
-22.9390040266
30
0.0000000000
10
-11.1593916589
20
-22.9363295061
30
0.0000000000
10
-11.2345353142
20
-22.9331127336
30
0.0000000000
10
-11.3004178855
20
-22.9294593181
30
0.0000000000
10
-11.3565086668
20
-22.9252994702
30
0.0000000000
10
-11.4005691344
20
-22.9211228902
30
0.0000000000
10
-11.4354531662
20
-22.9160559988
30
0.0000000000
10
-11.4531914676
20
-22.9125387378
30
0.0000000000
10
-11.4676646087
20
-22.9072241566
30
0.0000000000
10
-11.4671963097
20
-22.9045647166
30
0.0000000000
10
-11.4671234779
20
-22.9043343252
30
0.0000000000
11
-9.8861218557
21
-22.9134146874
31
0.0000000000
11
-9.9293867273
21
-22.9183939379
31
0.0000000000
11
-9.9838593442
21
-22.9231005810
31
0.0000000000
11
-10.0487011637
21
-22.9274621988
31
0.0000000000
11
-10.1228941401
21
-22.9314102483
31
0.0000000000
11
-10.2052816906
21
-22.9348832332
31
0.0000000000
11
-10.2945833999
21
-22.9378271549
31
0.0000000000
11
-10.3894020670
21
-22.9401959265
31
0.0000000000
11
-10.4882596647
21
-22.9419526457
31
0.0000000000
11
-10.5896131892
21
-22.9430699148
31
0.0000000000
11
-10.6918854704
21
-22.9435303456
31
0.0000000000
11
-10.7934778846
21
-22.9433267394
31
0.0000000000
11
-10.8928090339
21
-22.9424622692
31
0.0000000000
11
-10.9883267541
21
-22.9409504478
31
0.0000000000
11
-11.0785446950
21
-22.9388148008
31
0.0000000000
11
-11.1620530811
21
-22.9360886954
31
0.0000000000
11
-11.2375519220
21
-22.9328145647
31
0.0000000000
11
-11.3038611728
21
-22.9290435852
31
0.0000000000
11
-11.3599489013
21
-22.9248344469
31
0.0000000000
11
-11.4049395021
21
-22.9202528231
31
0.0000000000
11
-11.4381313754
21
-22.9153701139
31
0.0000000000
11
-11.4590055278
21
-22.9102627287
31
0.0000000000
11
-11.4672378372
21
-22.9050100871
31
0.0000000000
11
-11.4671234779
21
-22.9043343252
31
0.0000000000
0
SPLINE
5
398
100
AcDbEntity
8
0
100
AcDbSpline
62
7
6
CONTINUOUS
70
0
71
3
72
30
73
26
74
24
42
0.0000001000
43
0.0000001000
44
0.0000000001
12
-1.5644062934
22
-0.2760488978
32
0.0000000000
13
0.2836876894
23
1.3366698288
33
0.0000000000
40
0.0000000000
40
0.0000000000
40
0.0000000000
40
0.0000000000
40
0.0275367639
40
0.0620479703
40
0.1030242178
40
0.1498197167
40
0.2017793085
40
0.2580008419
40
0.3177588213
40
0.3799518196
40
0.4438190213
40
0.5081455014
40
0.5721688104
40
0.6346479596
40
0.6948571713
40
0.7516218941
40
0.8042855099
40
0.8518318723
40
0.8937068475
40
0.9291274188
40
0.9576867831
40
0.9789084794
40
0.9926568583
40
0.9993057750
40
1.0000000000
40
1.0000000000
40
1.0000000000
40
1.0000000000
10
-10.1666855294
20
22.3485989362
30
0.0000000000
10
-10.1810450916
20
22.3460651051
30
0.0000000000
10
-10.2135786755
20
22.3413762682
30
0.0000000000
10
-10.2678030956
20
22.3353555442
30
0.0000000000
10
-10.3323114754
20
22.3296876382
30
0.0000000000
10
-10.4061209258
20
22.3244692470
30
0.0000000000
10
-10.4880540517
20
22.3197979109
30
0.0000000000
10
-10.5768913698
20
22.3157482834
30
0.0000000000
10
-10.6711798242
20
22.3123910924
30
0.0000000000
10
-10.7695417109
20
22.3097776442
30
0.0000000000
10
-10.8703408541
20
22.3079530941
30
0.0000000000
10
-10.9721206872
20
22.3069445677
30
0.0000000000
10
-11.0731703256
20
22.3067691946
30
0.0000000000
10
-11.1720380034
20
22.3074292158
30
0.0000000000
10
-11.2670521035
20
22.3089117306
30
0.0000000000
10
-11.3568540596
20
22.3111950140
30
0.0000000000
10
-11.4399157778
20
22.3142313771
30
0.0000000000
10
-11.5150841671
20
22.3179884552
30
0.0000000000
10
-11.5809832759
20
22.3223397156
30
0.0000000000
10
-11.6370170190
20
22.3273620480
30
0.0000000000
10
-11.6813042507
20
22.3324953101
30
0.0000000000
10
-11.7157350457
20
22.3387101913
30
0.0000000000
10
-11.7346188165
20
22.3432615039
30
0.0000000000
10
-11.7480502862
20
22.3499648072
30
0.0000000000
10
-11.7477638226
20
22.3531817937
30
0.0000000000
10
-11.7476981749
20
22.3534911102
30
0.0000000000
11
-10.1666855294
21
22.3485989362
31
0.0000000000
11
-10.2099461788
21
22.3421126301
31
0.0000000000
11
-10.2644194107
21
22.3359241002
31
0.0000000000
11
-10.3292548297
21
22.3301296256
31
0.0000000000
11
-10.4034032508
21
22.3248218410
31
0.0000000000
11
-10.4858084517
21
22.3200768250
31
0.0000000000
11
-10.5750264261
21
22.3159772221
31
0.0000000000
11
-10.6698955303
21
22.3125768798
31
0.0000000000
11
-10.7686585332
21
22.3099386886
31
0.0000000000
11
-10.8700996190
21
22.3080954820
31
0.0000000000
11
-10.9722820263
21
22.3070825020
31
0.0000000000
11
-11.0739877018
21
22.3069120953
31
0.0000000000
11
-11.1732382079
21
22.3075876199
31
0.0000000000
11
-11.2688730689
21
22.3091012931
31
0.0000000000
11
-11.3590181751
21
22.3114234521
31
0.0000000000
11
-11.4426206901
21
22.3145268482
31
0.0000000000
11
-11.5180547704
21
22.3183510762
31
0.0000000000
11
-11.5844239731
21
22.3228503219
31
0.0000000000
11
-11.6404616618
21
22.3279386412
31
0.0000000000
11
-11.6854816100
21
22.3335530956
31
0.0000000000
11
-11.7186489823
21
22.3395897684
31
0.0000000000
11
-11.7395367027
21
22.3459696666
31
0.0000000000
11
-11.7477736312
21
22.3525814160
31
0.0000000000
11
-11.7476981749
21
22.3534911102
31
0.0000000000
0
SPLINE
5
399
100
AcDbEntity
8
0
100
AcDbSpline
62
7
6
CONTINUOUS
70
0
71
3
72
30
73
26
74
24
42
0.0000001000
43
0.0000001000
44
0.0000000001
12
-1.5644062934
22
-0.2760488978
32
0.0000000000
13
0.2836876894
23
1.3366698288
33
0.0000000000
40
0.0000000000
40
0.0000000000
40
0.0000000000
40
0.0000000000
40
0.0275367639
40
0.0620479703
40
0.1030242178
40
0.1498197167
40
0.2017793085
40
0.2580008419
40
0.3177588213
40
0.3799518196
40
0.4438190213
40
0.5081455014
40
0.5721688104
40
0.6346479596
40
0.6948571713
40
0.7516218941
40
0.8042855099
40
0.8518318723
40
0.8937068475
40
0.9291274188
40
0.9576867831
40
0.9789084794
40
0.9926568583
40
0.9993057750
40
1.0000000000
40
1.0000000000
40
1.0000000000
40
1.0000000000
10
3.0951039318
20
22.1386962433
30
0.0000000000
10
3.0807443695
20
22.1361624122
30
0.0000000000
10
3.0482107857
20
22.1314735754
30
0.0000000000
10
2.9939863656
20
22.1254528514
30
0.0000000000
10
2.9294779858
20
22.1197849454
30
0.0000000000
10
2.8556685354
20
22.1145665542
30
0.0000000000
10
2.7737354094
20
22.1098952181
30
0.0000000000
10
2.6848980914
20
22.1058455905
30
0.0000000000
10
2.5906096370
20
22.1024883996
30
0.0000000000
10
2.4922477503
20
22.0998749513
30
0.0000000000
10
2.3914486071
20
22.0980504012
30
0.0000000000
10
2.2896687740
20
22.0970418748
30
0.0000000000
10
2.1886191356
20
22.0968665018
30
0.0000000000
10
2.0897514578
20
22.0975265230
30
0.0000000000
10
1.9947373577
20
22.0990090377
30
0.0000000000
10
1.9049354016
20
22.1012923212
30
0.0000000000
10
1.8218736834
20
22.1043286842
30
0.0000000000
10
1.7467052941
20
22.1080857623
30
0.0000000000
10
1.6808061853
20
22.1124370228
30
0.0000000000
10
1.6247724422
20
22.1174593551
30
0.0000000000
10
1.5804852105
20
22.1225926172
30
0.0000000000
10
1.5460544155
20
22.1288074984
30
0.0000000000
10
1.5271706447
20
22.1333588111
30
0.0000000000
10
1.5137391750
20
22.1400621143
30
0.0000000000
10
1.5140256385
20
22.1432791009
30
0.0000000000
10
1.5140912862
20
22.1435884174
30
0.0000000000
11
3.0951039318
21
22.1386962433
31
0.0000000000
11
3.0518432824
21
22.1322099373
31
0.0000000000
11
2.9973700505
21
22.1260214074
31
0.0000000000
11
2.9325346315
21
22.1202269328
31
0.0000000000
11
2.8583862104
21
22.1149191482
31
0.0000000000
11
2.7759810095
21
22.1101741321
31
0.0000000000
11
2.6867630351
21
22.1060745293
31
0.0000000000
11
2.5918939309
21
22.1026741870
31
0.0000000000
11
2.4931309280
21
22.1000359958
31
0.0000000000
11
2.3916898422
21
22.0981927891
31
0.0000000000
11
2.2895074349
21
22.0971798092
31
0.0000000000
11
2.1878017594
21
22.0970094024
31
0.0000000000
11
2.0885512533
21
22.0976849271
31
0.0000000000
11
1.9929163922
21
22.0991986002
31
0.0000000000
11
1.9027712861
21
22.1015207592
31
0.0000000000
11
1.8191687711
21
22.1046241554
31
0.0000000000
11
1.7437346907
21
22.1084483833
31
0.0000000000
11
1.6773654881
21
22.1129476291
31
0.0000000000
11
1.6213277994
21
22.1180359483
31
0.0000000000
11
1.5763078512
21
22.1236504027
31
0.0000000000
11
1.5431404789
21
22.1296870755
31
0.0000000000
11
1.5222527585
21
22.1360669737
31
0.0000000000
11
1.5140158300
21
22.1426787231
31
0.0000000000
11
1.5140912862
21
22.1435884174
31
0.0000000000
0
SPLINE
5
39A
100
AcDbEntity
8
0
100
AcDbSpline
62
9
6
CONTINUOUS
70
0
71
3
72
17
73
13
74
11
42
0.0000001000
43
0.0000001000
44
0.0000000001
12
-0.0018005797
22
0.2904790279
32
0.0000000000
13
0.2858480733
23
0.0516931979
33
0.0000000000
40
0.0000000000
40
0.0000000000
40
0.0000000000
40
0.0000000000
40
0.1342839323
40
0.2668423244
40
0.3948836175
40
0.5157747772
40
0.6271495540
40
0.7270373045
40
0.8140388980
40
0.8876095004
40
0.9485719379
40
1.0000000000
40
1.0000000000
40
1.0000000000
40
1.0000000000
10
5.3564785116
20
21.5524800690
30
0.0000000000
10
5.3563979153
20
21.5654822911
30
0.0000000000
10
5.3569577997
20
21.5913298430
30
0.0000000000
10
5.3599151917
20
21.6294707566
30
0.0000000000
10
5.3649170963
20
21.6660927661
30
0.0000000000
10
5.3718389574
20
21.7003142902
30
0.0000000000
10
5.3805081540
20
21.7313208391
30
0.0000000000
10
5.3907144734
20
21.7583867103
30
0.0000000000
10
5.4022149775
20
21.7809080936
30
0.0000000000
10
5.4148046610
20
21.7984153455
30
0.0000000000
10
5.4283172245
20
21.8105973937
30
0.0000000000
10
5.4386029237
20
21.8150219258
30
0.0000000000
10
5.4435031278
20
21.8159080861
30
0.0000000000
11
5.3564785116
21
21.5524800690
31
0.0000000000
11
5.3573257293
21
21.5914782829
31
0.0000000000
11
5.3603281149
21
21.6298672267
31
0.0000000000
11
5.3654125572
21
21.6667120898
31
0.0000000000
11
5.3724552447
21
21.7011156613
31
0.0000000000
11
5.3812846808
21
21.7322401784
31
0.0000000000
11
5.3916858593
21
21.7593277267
31
0.0000000000
11
5.4034055008
21
21.7817186963
31
0.0000000000
11
5.4161582198
21
21.7988678436
31
0.0000000000
11
5.4296334743
21
21.8103575692
31
0.0000000000
11
5.4435031278
21
21.8159080861
31
0.0000000000
0
SPLINE
5
39B
100
AcDbEntity
8
0
100
AcDbSpline
62
9
6
CONTINUOUS
70
0
71
3
72
15
73
11
74
9
42
0.0000001000
43
0.0000001000
44
0.0000000001
12
-0.0015567062
22
0.2511360689
32
0.0000000000
13
0.1565082166
23
0.1967974985
33
0.0000000000
40
0.0000000000
40
0.0000000000
40
0.0000000000
40
0.0000000000
40
0.1553208438
40
0.3086458242
40
0.4567460573
40
0.5965760177
40
0.7253987592
40
0.8409349177
40
0.9415661748
40
1.0000000000
40
1.0000000000
40
1.0000000000
40
1.0000000000
10
-17.0363379678
20
21.9069052764
30
0.0000000000
10
-17.0364185641
20
21.9199074984
30
0.0000000000
10
-17.0358586797
20
21.9457550504
30
0.0000000000
10
-17.0329012878
20
21.9838959639
30
0.0000000000
10
-17.0278993831
20
22.0205179734
30
0.0000000000
10
-17.0209775220
20
22.0547394976
30
0.0000000000
10
-17.0123083254
20
22.0857460464
30
0.0000000000
10
-17.0021020060
20
22.1128119176
30
0.0000000000
10
-16.9916193162
20
22.1333401200
30
0.0000000000
10
-16.9840543022
20
22.1443549091
30
0.0000000000
10
-16.9810058442
20
22.1481881193
30
0.0000000000
11
-17.0363379678
21
21.9069052764
31
0.0000000000
11
-17.0354907501
21
21.9459034902
31
0.0000000000
11
-17.0324883645
21
21.9842924341
31
0.0000000000
11
-17.0274039222
21
22.0211372971
31
0.0000000000
11
-17.0203612347
21
22.0555408686
31
0.0000000000
11
-17.0115317987
21
22.0866653857
31
0.0000000000
11
-17.0011306201
21
22.1137529341
31
0.0000000000
11
-16.9894109786
21
22.1361439036
31
0.0000000000
11
-16.9810058442
21
22.1481881193
31
0.0000000000
0
SPLINE
5
39C
100
AcDbEntity
8
0
100
AcDbSpline
62
9
6
CONTINUOUS
70
0
71
3
72
8
73
4
74
2
42
0.0000001000
43
0.0000001000
44
0.0000000001
12
0.0041728757
22
0.0052470823
32
0.0000000000
13
0.0045287465
23
0.0049537662
33
0.0000000000
40
0.0000000000
40
0.0000000000
40
0.0000000000
40
0.0000000000
40
1.0000000000
40
1.0000000000
40
1.0000000000
40
1.0000000000
10
-16.9810058442
20
22.1481881193
30
0.0000000000
10
-16.9796148857
20
22.1499371468
30
0.0000000000
10
-16.9781678418
20
22.1516417955
30
0.0000000000
10
-16.9766582596
20
22.1532930510
30
0.0000000000
11
-16.9810058442
21
22.1481881193
31
0.0000000000
11
-16.9766582596
21
22.1532930510
31
0.0000000000
0
SPLINE
5
39D
100
AcDbEntity
8
0
100
AcDbSpline
62
9
6
CONTINUOUS
70
0
71
3
72
9
73
5
74
3
42
0.0000001000
43
0.0000001000
44
0.0000000001
12
0.0220808100
22
0.0241530787
32
0.0000000000
13
0.0321266078
23
0.0058098243
33
0.0000000000
40
0.0000000000
40
0.0000000000
40
0.0000000000
40
0.0000000000
40
0.5424162872
40
1.0000000000
40
1.0000000000
40
1.0000000000
40
1.0000000000
10
-16.9766582596
20
22.1532930510
30
0.0000000000
10
-16.9726659293
20
22.1576600587
30
0.0000000000
10
-16.9644992549
20
22.1650226010
30
0.0000000000
10
-16.9542135557
20
22.1694471331
30
0.0000000000
10
-16.9493133516
20
22.1703332934
30
0.0000000000
11
-16.9766582596
21
22.1532930510
31
0.0000000000
11
-16.9631830051
21
22.1647827765
31
0.0000000000
11
-16.9493133516
21
22.1703332934
31
0.0000000000
0
SPLINE
5
39E
100
AcDbEntity
8
0
100
AcDbSpline
62
7
6
CONTINUOUS
70
0
71
3
72
10
73
6
74
4
42
0.0000001000
43
0.0000001000
44
0.0000000001
12
-0.5607352293
22
0.3645868814
32
0.0000000000
13
-0.6237232169
23
0.2415820893
33
0.0000000000
40
0.0000000000
40
0.0000000000
40
0.0000000000
40
0.0000000000
40
0.3954968432
40
0.7823520239
40
1.0000000000
40
1.0000000000
40
1.0000000000
40
1.0000000000
10
-6.8270649800
20
18.1205195702
30
0.0000000000
10
-6.9009879843
20
18.1685838904
30
0.0000000000
10
-7.0506120222
20
18.2584472160
30
0.0000000000
10
-7.2503241223
20
18.3579357942
30
0.0000000000
10
-7.3747887048
20
18.4098180300
30
0.0000000000
10
-7.4200394034
20
18.4273446476
30
0.0000000000
11
-6.8270649800
21
18.1205195702
31
0.0000000000
11
-7.0539567831
21
18.2563659675
31
0.0000000000
11
-7.2856477157
21
18.3713875925
31
0.0000000000
11
-7.4200394034
21
18.4273446476
31
0.0000000000
0
SPLINE
5
39F
100
AcDbEntity
8
0
100
AcDbSpline
62
9
6
CONTINUOUS
70
0
71
3
72
17
73
13
74
11
42
0.0000001000
43
0.0000001000
44
0.0000000001
12
-0.3180837282
22
-0.0473700611
32
0.0000000000
13
-0.3215513627
23
0.0050893959
33
0.0000000000
40
0.0000000000
40
0.0000000000
40
0.0000000000
40
0.0000000000
40
0.0540312496
40
0.1240093144
40
0.2082999036
40
0.3049011535
40
0.4115047233
40
0.5255552619
40
0.6443195841
40
0.7649370633
40
0.8845209632
40
1.0000000000
40
1.0000000000
40
1.0000000000
40
1.0000000000
10
5.6777171193
20
21.5625191408
30
0.0000000000
10
5.6719882989
20
21.5616659862
30
0.0000000000
10
5.6587768351
20
21.5601420798
30
0.0000000000
10
5.6365267925
20
21.5582536893
30
0.0000000000
10
5.6096870798
20
21.5565392478
30
0.0000000000
10
5.5789039208
20
21.5550436397
30
0.0000000000
10
5.5449166354
20
21.5538102505
30
0.0000000000
10
5.5085434818
20
21.5528708365
30
0.0000000000
10
5.4706610829
20
21.5522497565
30
0.0000000000
10
5.4321815208
20
21.5519625590
30
0.0000000000
10
5.3940531290
20
21.5520162458
30
0.0000000000
10
5.3688559921
20
21.5522841629
30
0.0000000000
10
5.3564785116
20
21.5524800690
30
0.0000000000
11
5.6777171193
21
21.5625191408
31
0.0000000000
11
5.6604691241
21
21.5604139171
31
0.0000000000
11
5.6380502464
21
21.5584542847
31
0.0000000000
11
5.6110007386
21
21.5566874706
31
0.0000000000
11
5.5799723540
21
21.5551560403
31
0.0000000000
11
5.5457126688
21
21.5538968836
31
0.0000000000
11
5.5090474448
21
21.5529403366
31
0.0000000000
11
5.4708590435
21
21.5523094143
31
0.0000000000
11
5.4320705557
21
21.5520193331
31
0.0000000000
11
5.3936134168
21
21.5520770217
31
0.0000000000
11
5.3564785116
21
21.5524800690
31
0.0000000000
0
SPLINE
5
3A0
100
AcDbEntity
8
0
100
AcDbSpline
62
9
6
CONTINUOUS
70
0
71
3
72
17
73
13
74
11
42
0.0000001000
43
0.0000001000
44
0.0000000001
12
-0.0036070748
22
0.3809340204
32
0.0000000000
13
-0.3808950877
23
0.0065323083
33
0.0000000000
40
0.0000000000
40
0.0000000000
40
0.0000000000
40
0.0000000000
40
0.1029239689
40
0.2058873270
40
0.3085291598
40
0.4105173688
40
0.5115783885
40
0.6115221450
40
0.7102671069
40
0.8078364947
40
0.9043889813
40
1.0000000000
40
1.0000000000
40
1.0000000000
40
1.0000000000
10
5.6777171193
20
21.5625191408
30
0.0000000000
10
5.6775933678
20
21.5755882212
30
0.0000000000
10
5.6754309991
20
21.6017526026
30
0.0000000000
10
5.6665570260
20
21.6400473865
30
0.0000000000
10
5.6522636676
20
21.6765490605
30
0.0000000000
10
5.6328970934
20
21.7103540528
30
0.0000000000
10
5.6089260938
20
21.7406361534
30
0.0000000000
10
5.5809312114
20
21.7666486806
30
0.0000000000
10
5.5495948265
20
21.7877459770
30
0.0000000000
10
5.5156788520
20
21.8034002975
30
0.0000000000
10
5.4800529700
20
21.8132090785
30
0.0000000000
10
5.4556423836
20
21.8156998992
30
0.0000000000
10
5.4435031278
20
21.8159080861
30
0.0000000000
11
5.6777171193
21
21.5625191408
31
0.0000000000
11
5.6744919221
21
21.6015952678
31
0.0000000000
11
5.6656348096
21
21.6398061834
31
0.0000000000
11
5.6513639697
21
21.6762104676
31
0.0000000000
11
5.6320309841
21
21.7099114170
31
0.0000000000
11
5.6081121088
21
21.7400790155
31
0.0000000000
11
5.5801968791
21
21.7659700437
31
0.0000000000
11
5.5489721670
21
21.7869475594
31
0.0000000000
11
5.5152102386
21
21.8024935894
31
0.0000000000
11
5.4797397994
21
21.8122273947
31
0.0000000000
11
5.4435031278
21
21.8159080861
31
0.0000000000
0
SPLINE
5
3A1
100
AcDbEntity
8
0
100
AcDbSpline
62
9
6
CONTINUOUS
70
0
71
3
72
17
73
13
74
11
42
0.0000001000
43
0.0000001000
44
0.0000000001
12
0.0010117496
22
-0.3451344957
32
0.0000000000
13
-0.3430019688
23
-0.0430350548
33
0.0000000000
40
0.0000000000
40
0.0000000000
40
0.0000000000
40
0.0000000000
40
0.1133271148
40
0.2259620613
40
0.3376017949
40
0.4480346268
40
0.5571623229
40
0.6650119815
40
0.7717428093
40
0.8776173238
40
0.9830078006
40
1.0000000000
40
1.0000000000
40
1.0000000000
40
1.0000000000
10
5.9516536221
20
-22.6303642736
30
0.0000000000
10
5.9516918417
20
-22.6434019725
30
0.0000000000
10
5.9498723099
20
-22.6694441083
30
0.0000000000
10
5.9414858182
20
-22.7075062333
30
0.0000000000
10
5.9276473945
20
-22.7435985722
30
0.0000000000
10
5.9086888559
20
-22.7768239536
30
0.0000000000
10
5.8850675548
20
-22.8063651594
30
0.0000000000
10
5.8573564681
20
-22.8314878227
30
0.0000000000
10
5.8262350255
20
-22.8515628628
30
0.0000000000
10
5.7924667775
20
-22.8660845863
30
0.0000000000
10
5.7668258732
20
-22.8722859924
30
0.0000000000
10
5.7528577473
20
-22.8742330948
30
0.0000000000
10
5.7509149613
20
-22.8744768483
30
0.0000000000
11
5.9516536221
21
-22.6303642736
31
0.0000000000
11
5.9489124980
21
-22.6693813687
31
0.0000000000
11
5.9405275386
21
-22.7073406797
31
0.0000000000
11
5.9267052991
21
-22.7433069845
31
0.0000000000
11
5.9077863114
21
-22.7763943701
31
0.0000000000
11
5.8842366354
21
-22.8057879355
31
0.0000000000
11
5.8566367104
21
-22.8307635395
31
0.0000000000
11
5.8256656519
21
-22.8507067645
31
0.0000000000
11
5.7920894631
21
-22.8651252192
31
0.0000000000
11
5.7567323008
21
-22.8736658426
31
0.0000000000
11
5.7509149613
21
-22.8744768483
31
0.0000000000
0
SPLINE
5
3A2
100
AcDbEntity
8
0
100
AcDbSpline
62
7
6
CONTINUOUS
70
0
71
3
72
17
73
13
74
11
42
0.0000001000
43
0.0000001000
44
0.0000000001
12
0.3215513642
22
-0.0050893959
32
0.0000000000
13
0.3180837297
23
0.0473700613
33
0.0000000000
40
0.0000000000
40
0.0000000000
40
0.0000000000
40
0.0000000000
40
0.1155837782
40
0.2354281449
40
0.3556645039
40
0.4746766343
40
0.5886108388
40
0.6951075792
40
0.7918987022
40
0.8759080743
40
0.9460297638
40
1.0000000000
40
1.0000000000
40
1.0000000000
40
1.0000000000
10
5.6097864591
20
-19.3124958477
30
0.0000000000
10
5.6221751663
20
-19.3126919315
30
0.0000000000
10
5.6474114529
20
-19.3129601468
30
0.0000000000
10
5.6855381429
20
-19.3130131484
30
0.0000000000
10
5.7240313275
20
-19.3127253531
30
0.0000000000
10
5.7618869665
20
-19.3121044105
30
0.0000000000
10
5.7982627467
20
-19.3111643764
30
0.0000000000
10
5.8322464524
20
-19.3099308542
30
0.0000000000
10
5.8630083860
20
-19.3084359372
30
0.0000000000
10
5.8898536391
20
-19.3067205939
30
0.0000000000
10
5.9120825072
20
-19.3048342891
30
0.0000000000
10
5.9253027154
20
-19.3033089671
30
0.0000000000
10
5.9310250668
20
-19.3024567759
30
0.0000000000
11
5.6097864591
21
-19.3124958477
31
0.0000000000
11
5.6469550482
21
-19.3128991004
31
0.0000000000
11
5.6854959521
21
-19.3129562286
31
0.0000000000
11
5.7241618748
21
-19.3126665636
31
0.0000000000
11
5.7624299530
21
-19.3120339981
31
0.0000000000
11
5.7990577633
21
-19.3110778724
31
0.0000000000
11
5.8332831083
21
-19.3098197565
31
0.0000000000
11
5.8643724561
21
-19.3082848235
31
0.0000000000
11
5.8913317011
21
-19.3065236274
31
0.0000000000
11
5.9137965942
21
-19.3045599987
31
0.0000000000
11
5.9310250668
21
-19.3024567759
31
0.0000000000
0
SPLINE
5
3A3
100
AcDbEntity
8
0
100
AcDbSpline
62
9
6
CONTINUOUS
70
0
71
3
72
17
73
13
74
11
42
0.0000001000
43
0.0000001000
44
0.0000000001
12
-0.3180837282
22
-0.0473700611
32
0.0000000000
13
-0.3215513627
23
0.0050893959
33
0.0000000000
40
0.0000000000
40
0.0000000000
40
0.0000000000
40
0.0000000000
40
0.0540312496
40
0.1240093144
40
0.2082999036
40
0.3049011535
40
0.4115047233
40
0.5255552619
40
0.6443195841
40
0.7649370633
40
0.8845209632
40
1.0000000000
40
1.0000000000
40
1.0000000000
40
1.0000000000
10
5.9516536221
20
-22.6303642736
30
0.0000000000
10
5.9459248017
20
-22.6312174281
30
0.0000000000
10
5.9327133379
20
-22.6327413346
30
0.0000000000
10
5.9104632953
20
-22.6346297251
30
0.0000000000
10
5.8836235826
20
-22.6363441665
30
0.0000000000
10
5.8528404237
20
-22.6378397747
30
0.0000000000
10
5.8188531383
20
-22.6390731639
30
0.0000000000
10
5.7824799846
20
-22.6400125779
30
0.0000000000
10
5.7445975857
20
-22.6406336579
30
0.0000000000
10
5.7061180237
20
-22.6409208553
30
0.0000000000
10
5.6679896319
20
-22.6408671686
30
0.0000000000
10
5.6427924950
20
-22.6405992515
30
0.0000000000
10
5.6304150144
20
-22.6404033454
30
0.0000000000
11
5.9516536221
21
-22.6303642736
31
0.0000000000
11
5.9344056269
21
-22.6324694973
31
0.0000000000
11
5.9119867492
21
-22.6344291297
31
0.0000000000
11
5.8849372414
21
-22.6361959438
31
0.0000000000
11
5.8539088569
21
-22.6377273741
31
0.0000000000
11
5.8196491716
21
-22.6389865308
31
0.0000000000
11
5.7829839477
21
-22.6399430778
31
0.0000000000
11
5.7447955464
21
-22.6405740001
31
0.0000000000
11
5.7060070585
21
-22.6408640812
31
0.0000000000
11
5.6675499197
21
-22.6408063927
31
0.0000000000
11
5.6304150144
21
-22.6404033454
31
0.0000000000
0
SPLINE
5
3A4
100
AcDbEntity
8
0
100
AcDbSpline
62
9
6
CONTINUOUS
70
0
71
3
72
15
73
11
74
9
42
0.0000001000
43
0.0000001000
44
0.0000000001
12
0.0517297467
22
-0.1327230158
32
0.0000000000
13
0.1616951295
23
-0.0025592506
33
0.0000000000
40
0.0000000000
40
0.0000000000
40
0.0000000000
40
0.0000000000
40
0.0133659937
40
0.0618762035
40
0.1453332185
40
0.2622756146
40
0.4100687635
40
0.5852234296
40
0.7835814146
40
1.0000000000
40
1.0000000000
40
1.0000000000
40
1.0000000000
10
-17.1967105358
20
21.9194390264
30
0.0000000000
10
-17.1964800627
20
21.9188477014
30
0.0000000000
10
-17.1936741719
20
21.9157592174
30
0.0000000000
10
-17.1857640502
20
21.9156945172
30
0.0000000000
10
-17.1726179764
20
21.9128502176
30
0.0000000000
10
-17.1538577311
20
21.9115638862
30
0.0000000000
10
-17.1302199203
20
21.9098449136
30
0.0000000000
10
-17.1021391754
20
21.9085956536
30
0.0000000000
10
-17.0703576052
20
21.9075480608
30
0.0000000000
10
-17.0480025782
20
21.9070898995
30
0.0000000000
10
-17.0363379678
20
21.9069052764
30
0.0000000000
11
-17.1967105358
21
21.9194390264
31
0.0000000000
11
-17.1952416336
21
21.9176562299
31
0.0000000000
11
-17.1876948771
21
21.9155142465
31
0.0000000000
11
-17.1743495045
21
21.9135016146
31
0.0000000000
11
-17.1555273359
21
21.9116668337
31
0.0000000000
11
-17.1316813869
21
21.9100540547
31
0.0000000000
11
-17.1033884595
21
21.9087022337
31
0.0000000000
11
-17.0713283890
21
21.9076438020
31
0.0000000000
11
-17.0363379678
21
21.9069052764
31
0.0000000000
0
SPLINE
5
3A5
100
AcDbEntity
8
0
100
AcDbSpline
62
9
6
CONTINUOUS
70
0
71
3
72
9
73
5
74
3
42
0.0000001000
43
0.0000001000
44
0.0000000001
12
0.0435985876
22
0.0082393389
32
0.0000000000
13
0.0443089214
23
-0.0006434947
33
0.0000000000
40
0.0000000000
40
0.0000000000
40
0.0000000000
40
0.0000000000
40
0.1706060078
40
1.0000000000
40
1.0000000000
40
1.0000000000
40
1.0000000000
10
-16.9934413898
20
22.1665292117
30
0.0000000000
10
-16.9909619961
20
22.1669977719
30
0.0000000000
10
-16.9763807359
20
22.1694940718
30
0.0000000000
10
-16.9615632026
20
22.1705111970
30
0.0000000000
10
-16.9493133516
20
22.1703332934
30
0.0000000000
11
-16.9934413898
21
22.1665292117
31
0.0000000000
11
-16.9859798179
21
22.1678064860
31
0.0000000000
11
-16.9493133516
21
22.1703332934
31
0.0000000000
0
SPLINE
5
3A6
100
AcDbEntity
8
0
100
AcDbSpline
62
7
6
CONTINUOUS
70
0
71
3
72
16
73
12
74
10
42
0.0000001000
43
0.0000001000
44
0.0000000001
12
0.5153215775
22
0.0657791605
32
0.0000000000
13
0.2862696314
23
0.4326099538
33
0.0000000000
40
0.0000000000
40
0.0000000000
40
0.0000000000
40
0.0000000000
40
0.0566193238
40
0.1939925072
40
0.3253176370
40
0.4511514899
40
0.5717347186
40
0.6870992283
40
0.7971202203
40
0.9015357116
40
1.0000000000
40
1.0000000000
40
1.0000000000
40
1.0000000000
10
7.4650069547
20
-22.6591993434
30
0.0000000000
10
7.4747326745
20
-22.6579578862
30
0.0000000000
10
7.5079311020
20
-22.6526729849
30
0.0000000000
10
7.5624683161
20
-22.6382890608
30
0.0000000000
10
7.6259490297
20
-22.6128878508
30
0.0000000000
10
7.6837232115
20
-22.5821744066
30
0.0000000000
10
7.7359014481
20
-22.5474961139
30
0.0000000000
10
7.7825514912
20
-22.5099177169
30
0.0000000000
10
7.8237056872
20
-22.4703343555
30
0.0000000000
10
7.8593596226
20
-22.4295527633
30
0.0000000000
10
7.8800933149
20
-22.4011864632
30
0.0000000000
10
7.8894890934
20
-22.3869875861
30
0.0000000000
11
7.4650069547
21
-22.6591993434
31
0.0000000000
11
7.4940538248
21
-22.6545924795
31
0.0000000000
11
7.5630087402
21
-22.6366051871
31
0.0000000000
11
7.6262990711
21
-22.6113992465
31
0.0000000000
11
7.6839659309
21
-22.5808127812
31
0.0000000000
11
7.7360756533
21
-22.5462093140
31
0.0000000000
11
7.7826783206
21
-22.5086639077
31
0.0000000000
11
7.8237933535
21
-22.4690794761
31
0.0000000000
11
7.8594063313
21
-22.4282674396
31
0.0000000000
11
7.8894890934
21
-22.3869875861
31
0.0000000000
0
SPLINE
5
3A7
100
AcDbEntity
8
0
100
AcDbSpline
62
9
6
CONTINUOUS
70
0
71
3
72
17
73
13
74
11
42
0.0000001000
43
0.0000001000
44
0.0000000001
12
-0.2678753618
22
0.0051608583
32
0.0000000000
13
-0.0016485126
23
0.2659467602
33
0.0000000000
40
0.0000000000
40
0.0000000000
40
0.0000000000
40
0.0000000000
40
0.0347696235
40
0.0927003902
40
0.1620170187
40
0.2454609248
40
0.3435492415
40
0.4554542289
40
0.5794954384
40
0.7134155107
40
0.8545576676
40
1.0000000000
40
1.0000000000
40
1.0000000000
40
1.0000000000
10
5.7158102395
20
-22.8763795010
30
0.0000000000
10
5.7127055977
20
-22.8763196873
30
0.0000000000
10
5.7044043966
20
-22.8749791592
30
0.0000000000
10
5.6916809926
20
-22.8676778673
30
0.0000000000
10
5.6787743118
20
-22.8539373326
30
0.0000000000
10
5.6670008351
20
-22.8349545334
30
0.0000000000
10
5.6565017128
20
-22.8110860530
30
0.0000000000
10
5.6474912956
20
-22.7828328716
30
0.0000000000
10
5.6401835623
20
-22.7508360182
30
0.0000000000
10
5.6347592242
20
-22.7158473158
30
0.0000000000
10
5.6313544058
20
-22.6787039346
30
0.0000000000
10
5.6304949356
20
-22.6532966510
30
0.0000000000
10
5.6304150144
20
-22.6404033454
30
0.0000000000
11
5.7158102395
21
-22.8763795010
31
0.0000000000
11
5.7066221282
21
-22.8749149744
31
0.0000000000
11
5.6930306786
21
-22.8676595039
31
0.0000000000
11
5.6800902710
21
-22.8545297321
31
0.0000000000
11
5.6681160177
21
-22.8358453828
31
0.0000000000
11
5.6573995043
21
-22.8120614392
31
0.0000000000
11
5.6482016890
21
-22.7837570652
31
0.0000000000
11
5.6407465482
21
-22.7516215017
31
0.0000000000
11
5.6352156224
21
-22.7164372833
31
0.0000000000
11
5.6317435953
21
-22.6790611821
31
0.0000000000
11
5.6304150144
21
-22.6404033454
31
0.0000000000
0
SPLINE
5
3A8
100
AcDbEntity
8
0
100
AcDbSpline
62
7
6
CONTINUOUS
70
0
71
3
72
15
73
11
74
9
42
0.0000001000
43
0.0000001000
44
0.0000000001
12
0.0516122664
22
-0.1327891942
32
0.0000000000
13
0.1616991206
23
-0.0025593138
33
0.0000000000
40
0.0000000000
40
0.0000000000
40
0.0000000000
40
0.0000000000
40
0.0133227572
40
0.0618936605
40
0.1452494138
40
0.2620302280
40
0.4101047826
40
0.5846659123
40
0.7834019321
40
1.0000000000
40
1.0000000000
40
1.0000000000
40
1.0000000000
10
-16.9434046703
20
-18.9455365948
30
0.0000000000
10
-16.9431754644
20
-18.9461263008
30
0.0000000000
10
-16.9403757958
20
-18.9492169911
30
0.0000000000
10
-16.9324627217
20
-18.9492798904
30
0.0000000000
10
-16.9193313390
20
-18.9521228296
30
0.0000000000
10
-16.9005678854
20
-18.9534104882
30
0.0000000000
10
-16.8769557196
20
-18.9551282825
30
0.0000000000
10
-16.8488705532
20
-18.9563787140
30
0.0000000000
10
-16.8170902389
20
-18.9574269757
30
0.0000000000
10
-16.7947045927
20
-18.9578858595
30
0.0000000000
10
-16.7830300204
20
-18.9580706403
30
0.0000000000
11
-16.9434046703
21
-18.9455365948
31
0.0000000000
11
-16.9419436794
21
-18.9473148967
31
0.0000000000
11
-16.9343878278
21
-18.9494614916
31
0.0000000000
11
-16.9210584025
21
-18.9514722868
31
0.0000000000
11
-16.9022618813
21
-18.9533056483
31
0.0000000000
11
-16.8783699740
21
-18.9549220591
31
0.0000000000
11
-16.8501722579
21
-18.9562700170
31
0.0000000000
11
-16.8180503209
21
-18.9573313141
31
0.0000000000
11
-16.7830300204
21
-18.9580706403
31
0.0000000000
0
SPLINE
5
3A9
100
AcDbEntity
8
0
100
AcDbSpline
62
9
6
CONTINUOUS
70
0
71
3
72
15
73
11
74
9
42
0.0000001000
43
0.0000001000
44
0.0000000001
12
0.0517103172
22
-0.1327192825
32
0.0000000000
13
0.1616953796
23
-0.0025592546
33
0.0000000000
40
0.0000000000
40
0.0000000000
40
0.0000000000
40
0.0000000000
40
0.0133675193
40
0.0618776542
40
0.1453345401
40
0.2622767553
40
0.4100696758
40
0.5852240710
40
0.7835817493
40
1.0000000000
40
1.0000000000
40
1.0000000000
40
1.0000000000
10
-16.9227741130
20
-22.2734441827
30
0.0000000000
10
-16.9225437001
20
-22.2740355586
30
0.0000000000
10
-16.9197377532
20
-22.2771241963
30
0.0000000000
10
-16.9118275474
20
-22.2771888972
30
0.0000000000
10
-16.8986814735
20
-22.2800331968
30
0.0000000000
10
-16.8799212283
20
-22.2813195282
30
0.0000000000
10
-16.8562834175
20
-22.2830385008
30
0.0000000000
10
-16.8282026726
20
-22.2842877608
30
0.0000000000
10
-16.7964211024
20
-22.2853353536
30
0.0000000000
10
-16.7740660754
20
-22.2857935149
30
0.0000000000
10
-16.7624014650
20
-22.2859781380
30
0.0000000000
11
-16.9227741130
21
-22.2734441827
31
0.0000000000
11
-16.9213051307
21
-22.2752271845
31
0.0000000000
11
-16.9137583742
21
-22.2773691679
31
0.0000000000
11
-16.9004130017
21
-22.2793817998
31
0.0000000000
11
-16.8815908331
21
-22.2812165807
31
0.0000000000
11
-16.8577448841
21
-22.2828293597
31
0.0000000000
11
-16.8294519566
21
-22.2841811807
31
0.0000000000
11
-16.7973918862
21
-22.2852396124
31
0.0000000000
11
-16.7624014650
21
-22.2859781380
31
0.0000000000
0
SPLINE
5
3AA
100
AcDbEntity
8
0
100
AcDbSpline
62
9
6
CONTINUOUS
70
0
71
3
72
17
73
13
74
11
42
0.0000001000
43
0.0000001000
44
0.0000000001
12
-0.2678753618
22
0.0051608583
32
0.0000000000
13
-0.0016485126
23
0.2659467602
33
0.0000000000
40
0.0000000000
40
0.0000000000
40
0.0000000000
40
0.0000000000
40
0.0347696235
40
0.0927003902
40
0.1620170187
40
0.2454609248
40
0.3435492415
40
0.4554542289
40
0.5794954384
40
0.7134155107
40
0.8545576676
40
1.0000000000
40
1.0000000000
40
1.0000000000
40
1.0000000000
10
-16.6770062399
20
-22.5219542937
30
0.0000000000
10
-16.6801108817
20
-22.5218944800
30
0.0000000000
10
-16.6884120828
20
-22.5205539519
30
0.0000000000
10
-16.7011354868
20
-22.5132526599
30
0.0000000000
10
-16.7140421676
20
-22.4995121252
30
0.0000000000
10
-16.7258156443
20
-22.4805293261
30
0.0000000000
10
-16.7363147666
20
-22.4566608456
30
0.0000000000
10
-16.7453251838
20
-22.4284076643
30
0.0000000000
10
-16.7526329171
20
-22.3964108108
30
0.0000000000
10
-16.7580572552
20
-22.3614221084
30
0.0000000000
10
-16.7614620736
20
-22.3242787272
30
0.0000000000
10
-16.7623215438
20
-22.2988714437
30
0.0000000000
10
-16.7624014650
20
-22.2859781380
30
0.0000000000
11
-16.6770062399
21
-22.5219542937
31
0.0000000000
11
-16.6861943512
21
-22.5204897671
31
0.0000000000
11
-16.6997858008
21
-22.5132342965
31
0.0000000000
11
-16.7127262084
21
-22.5001045248
31
0.0000000000
11
-16.7247004617
21
-22.4814201754
31
0.0000000000
11
-16.7354169751
21
-22.4576362319
31
0.0000000000
11
-16.7446147904
21
-22.4293318578
31
0.0000000000
11
-16.7520699312
21
-22.3971962944
31
0.0000000000
11
-16.7576008570
21
-22.3620120759
31
0.0000000000
11
-16.7610728841
21
-22.3246359748
31
0.0000000000
11
-16.7624014650
21
-22.2859781380
31
0.0000000000
0
SPLINE
5
3AB
100
AcDbEntity
8
0
100
AcDbSpline
62
7
6
CONTINUOUS
70
0
71
3
72
8
73
4
74
2
42
0.0000001000
43
0.0000001000
44
0.0000000001
12
0.0706535118
22
0.0145931882
32
0.0000000000
13
0.0683924147
23
0.0249576083
33
0.0000000000
40
0.0000000000
40
0.0000000000
40
0.0000000000
40
0.0000000000
40
1.0000000000
40
1.0000000000
40
1.0000000000
40
1.0000000000
10
18.0582612270
20
-17.1918927516
30
0.0000000000
10
18.0818123977
20
-17.1870283555
30
0.0000000000
10
18.1051256083
20
-17.1803744556
30
0.0000000000
10
18.1279230799
20
-17.1720552528
30
0.0000000000
11
18.0582612270
21
-17.1918927516
31
0.0000000000
11
18.1279230799
21
-17.1720552528
31
0.0000000000
0
SPLINE
5
3AC
100
AcDbEntity
8
0
100
AcDbSpline
62
7
6
CONTINUOUS
70
0
71
3
72
10
73
6
74
4
42
0.0000001000
43
0.0000001000
44
0.0000000001
12
0.5750214581
22
0.2098355555
32
0.0000000000
13
-0.0038498864
23
0.6172231146
33
0.0000000000
40
0.0000000000
40
0.0000000000
40
0.0000000000
40
0.0000000000
40
0.3102773298
40
0.7829522747
40
1.0000000000
40
1.0000000000
40
1.0000000000
40
1.0000000000
10
18.1279230799
20
-17.1720552528
30
0.0000000000
10
18.1873951207
20
-17.1503528475
30
0.0000000000
10
18.3286099620
20
-17.0669914268
30
0.0000000000
10
18.4403214284
20
-16.8862850931
30
0.0000000000
10
18.4577670324
20
-16.7439559096
30
0.0000000000
10
18.4574884960
20
-16.6993002852
30
0.0000000000
11
18.1279230799
21
-17.1720552528
31
0.0000000000
11
18.2908783142
21
-17.0751539607
31
0.0000000000
11
18.4408846294
21
-16.8317825861
31
0.0000000000
11
18.4574884960
21
-16.6993002852
31
0.0000000000
0
SPLINE
5
3AD
100
AcDbEntity
8
0
100
AcDbSpline
62
7
6
CONTINUOUS
70
0
71
3
72
10
73
6
74
4
42
0.0000001000
43
0.0000001000
44
0.0000000001
12
-0.0119292318
22
1.0330062846
32
0.0000000000
13
-0.9672527428
23
0.4104952943
33
0.0000000000
40
0.0000000000
40
0.0000000000
40
0.0000000000
40
0.0000000000
40
0.2502729506
40
0.7695939491
40
1.0000000000
40
1.0000000000
40
1.0000000000
40
1.0000000000
10
-9.8784405845
20
23.5616572950
30
0.0000000000
10
-9.8794357725
20
23.6478351387
30
0.0000000000
10
-9.8941532614
20
23.9139640633
30
0.0000000000
10
-9.9445131343
20
24.2634109782
30
0.0000000000
10
-10.1630817313
20
24.4612596530
30
0.0000000000
10
-10.2373686928
20
24.4927865196
30
0.0000000000
11
-9.8784405845
21
23.5616572950
31
0.0000000000
11
-9.8915503485
21
23.8212225479
31
0.0000000000
11
-10.0458176935
21
24.3335961355
31
0.0000000000
11
-10.2373686928
21
24.4927865196
31
0.0000000000
0
SPLINE
5
3AE
100
AcDbEntity
8
0
100
AcDbSpline
62
7
6
CONTINUOUS
70
0
71
3
72
8
73
4
74
2
42
0.0000001000
43
0.0000001000
44
0.0000000001
12
-0.0949120313
22
0.0402800018
32
0.0000000000
13
-0.1003483530
23
0.0030402643
33
0.0000000000
40
0.0000000000
40
0.0000000000
40
0.0000000000
40
0.0000000000
40
1.0000000000
40
1.0000000000
40
1.0000000000
40
1.0000000000
10
-10.2373686928
20
24.4927865196
30
0.0000000000
10
-10.2690060366
20
24.5062131869
30
0.0000000000
10
-10.3019341241
20
24.5143299566
30
0.0000000000
10
-10.3353835752
20
24.5153433780
30
0.0000000000
11
-10.2373686928
21
24.4927865196
31
0.0000000000
11
-10.3353835752
21
24.5153433780
31
0.0000000000
0
SPLINE
5
3AF
100
AcDbEntity
8
0
100
AcDbSpline
62
7
6
CONTINUOUS
70
0
71
3
72
10
73
6
74
4
42
0.0000001000
43
0.0000001000
44
0.0000000001
12
-0.0119292326
22
1.0330062824
32
0.0000000000
13
-0.9672527406
23
0.4104952934
33
0.0000000000
40
0.0000000000
40
0.0000000000
40
0.0000000000
40
0.0000000000
40
0.2502729490
40
0.7695939486
40
1.0000000000
40
1.0000000000
40
1.0000000000
40
1.0000000000
10
11.4618333020
20
23.2238913444
30
0.0000000000
10
11.4608381139
20
23.3100691872
30
0.0000000000
10
11.4461206250
20
23.5761981112
30
0.0000000000
10
11.3957607522
20
23.9256450253
30
0.0000000000
10
11.1771921552
20
24.1234937001
30
0.0000000000
10
11.1029051937
20
24.1550205667
30
0.0000000000
11
11.4618333020
21
23.2238913444
31
0.0000000000
11
11.4487235380
21
23.4834565950
31
0.0000000000
11
11.2944561930
21
23.9958301826
31
0.0000000000
11
11.1029051937
21
24.1550205667
31
0.0000000000
0
SPLINE
5
3B0
100
AcDbEntity
8
0
100
AcDbSpline
62
7
6
CONTINUOUS
70
0
71
3
72
8
73
4
74
2
42
0.0000001000
43
0.0000001000
44
0.0000000001
12
-0.0949120313
22
0.0402800018
32
0.0000000000
13
-0.1003483530
23
0.0030402643
33
0.0000000000
40
0.0000000000
40
0.0000000000
40
0.0000000000
40
0.0000000000
40
1.0000000000
40
1.0000000000
40
1.0000000000
40
1.0000000000
10
11.1029051937
20
24.1550205667
30
0.0000000000
10
11.0712678499
20
24.1684472339
30
0.0000000000
10
11.0383397624
20
24.1765640037
30
0.0000000000
10
11.0048903113
20
24.1775774251
30
0.0000000000
11
11.1029051937
21
24.1550205667
31
0.0000000000
11
11.0048903113
21
24.1775774251
31
0.0000000000
0
SPLINE
5
3B1
100
AcDbEntity
8
0
100
AcDbSpline
62
7
6
CONTINUOUS
70
0
71
3
72
9
73
5
74
3
42
0.0000001000
43
0.0000001000
44
0.0000000001
12
0.6484061905
22
0.1592070902
32
0.0000000000
13
0.1245615588
23
0.6644433053
33
0.0000000000
40
0.0000000000
40
0.0000000000
40
0.0000000000
40
0.0000000000
40
0.4796694027
40
1.0000000000
40
1.0000000000
40
1.0000000000
40
1.0000000000
10
11.3268577145
20
-23.5282480912
30
0.0000000000
10
11.4305312512
20
-23.5027925013
30
0.0000000000
10
11.6149108726
20
-23.3178611927
30
0.0000000000
10
11.6846028793
20
-23.1027653668
30
0.0000000000
10
11.7062072760
20
-22.9875219729
30
0.0000000000
11
11.3268577145
21
-23.5282480912
31
0.0000000000
11
11.5810261367
21
-23.3184403860
31
0.0000000000
11
11.7062072760
21
-22.9875219729
31
0.0000000000
0
SPLINE
5
3B2
100
AcDbEntity
8
0
100
AcDbSpline
62
7
6
CONTINUOUS
70
0
71
3
72
9
73
5
74
3
42
0.0000001000
43
0.0000001000
44
0.0000000001
12
0.0797366939
22
0.4253359779
32
0.0000000000
13
0.0096693229
23
0.4339199031
33
0.0000000000
40
0.0000000000
40
0.0000000000
40
0.0000000000
40
0.0000000000
40
0.4929514405
40
1.0000000000
40
1.0000000000
40
1.0000000000
40
1.0000000000
10
11.7062072760
20
-22.9875219729
30
0.0000000000
10
11.7193093821
20
-22.9176319785
30
0.0000000000
10
11.7349516649
20
-22.7733744545
30
0.0000000000
10
11.7434543906
20
-22.6285349228
30
0.0000000000
10
11.7450886627
20
-22.5551954355
30
0.0000000000
11
11.7062072760
21
-22.9875219729
31
0.0000000000
11
11.7329962334
21
-22.7752666415
31
0.0000000000
11
11.7450886627
21
-22.5551954355
31
0.0000000000
0
SPLINE
5
3B3
100
AcDbEntity
8
0
100
AcDbSpline
62
7
6
CONTINUOUS
70
0
71
3
72
8
73
4
74
2
42
0.0000001000
43
0.0000001000
44
0.0000000001
12
0.0014619102
22
0.0656045882
32
0.0000000000
13
-0.0000330962
23
0.0655306596
33
0.0000000000
40
0.0000000000
40
0.0000000000
40
0.0000000000
40
0.0000000000
40
1.0000000000
40
1.0000000000
40
1.0000000000
40
1.0000000000
10
11.7450886627
20
-22.5551954355
30
0.0000000000
10
11.7455759661
20
-22.5333272394
30
0.0000000000
10
11.7458252557
20
-22.5114680400
30
0.0000000000
10
11.7458142236
20
-22.4896244868
30
0.0000000000
11
11.7450886627
21
-22.5551954355
31
0.0000000000
11
11.7458142236
21
-22.4896244868
31
0.0000000000
0
SPLINE
5
3B4
100
AcDbEntity
8
0
100
AcDbSpline
62
7
6
CONTINUOUS
70
0
71
3
72
8
73
4
74
2
42
0.0000001000
43
0.0000001000
44
0.0000000001
12
0.1242384245
22
0.0305050111
32
0.0000000000
13
0.1075222642
23
0.0802923439
33
0.0000000000
40
0.0000000000
40
0.0000000000
40
0.0000000000
40
0.0000000000
40
1.0000000000
40
1.0000000000
40
1.0000000000
40
1.0000000000
10
-10.0134161720
20
-23.1904821383
30
0.0000000000
10
-9.9720033638
20
-23.1803138013
30
0.0000000000
10
-9.9330210704
20
-23.1600530254
30
0.0000000000
10
-9.8971803157
20
-23.1332889108
30
0.0000000000
11
-10.0134161720
21
-23.1904821383
31
0.0000000000
11
-9.8971803157
21
-23.1332889108
31
0.0000000000
0
SPLINE
5
3B5
100
AcDbEntity
8
0
100
AcDbSpline
62
9
6
CONTINUOUS
70
0
71
3
72
9
73
5
74
3
42
0.0000001000
43
0.0000001000
44
0.0000000001
12
0.1077638843
22
0.0238493435
32
0.0000000000
13
0.0742586545
23
0.0812872517
33
0.0000000000
40
0.0000000000
40
0.0000000000
40
0.0000000000
40
0.0000000000
40
0.5224128972
40
1.0000000000
40
1.0000000000
40
1.0000000000
40
1.0000000000
10
-10.0132949234
20
-23.1909637867
30
0.0000000000
10
-9.9945291758
20
-23.1868107185
30
0.0000000000
10
-9.9596571071
20
-23.1730850463
30
0.0000000000
10
-9.9311361128
20
-23.1494827032
30
0.0000000000
10
-9.9193144542
20
-23.1365421222
30
0.0000000000
11
-10.0132949234
21
-23.1909637867
31
0.0000000000
11
-9.9598272439
21
-23.1697742882
31
0.0000000000
11
-9.9193144542
21
-23.1365421222
31
0.0000000000
0
SPLINE
5
3B6
100
AcDbEntity
8
0
100
AcDbSpline
62
7
6
CONTINUOUS
70
0
71
3
72
9
73
5
74
3
42
0.0000001000
43
0.0000001000
44
0.0000000001
12
-0.0493138716
22
-0.3109179723
32
0.0000000000
13
-0.1701697912
23
-0.2646822375
33
0.0000000000
40
0.0000000000
40
0.0000000000
40
0.0000000000
40
0.0000000000
40
0.6926704148
40
1.0000000000
40
1.0000000000
40
1.0000000000
40
1.0000000000
10
-1.1937801879
20
18.3277772091
30
0.0000000000
10
-1.2051662746
20
18.2559893155
30
0.0000000000
10
-1.2358794164
20
18.1541583664
30
0.0000000000
10
-1.2868769127
20
18.0620585165
30
0.0000000000
10
-1.3043096498
20
18.0349436224
30
0.0000000000
11
-1.1937801879
21
18.3277772091
31
0.0000000000
11
-1.2574467211
21
18.1195876505
31
0.0000000000
11
-1.3043096498
21
18.0349436224
31
0.0000000000
0
SPLINE
5
3B7
100
AcDbEntity
8
0
100
AcDbSpline
62
9
6
CONTINUOUS
70
0
71
3
72
8
73
4
74
2
42
0.0000001000
43
0.0000001000
44
0.0000000001
12
0.0064911215
22
0.0010689112
32
0.0000000000
13
-0.0004660277
23
0.0017519692
33
0.0000000000
40
0.0000000000
40
0.0000000000
40
0.0000000000
40
0.0000000000
40
1.0000000000
40
1.0000000000
40
1.0000000000
40
1.0000000000
10
-9.8881524058
20
23.5578305011
30
0.0000000000
10
-9.8859886986
20
23.5581868048
30
0.0000000000
10
-9.8851270801
20
23.5586772993
30
0.0000000000
10
-9.8852824226
20
23.5592612890
30
0.0000000000
11
-9.8881524058
21
23.5578305011
31
0.0000000000
11
-9.8852824226
21
23.5592612890
31
0.0000000000
0
SPLINE
5
3B8
100
AcDbEntity
8
0
100
AcDbSpline
62
9
6
CONTINUOUS
70
0
71
3
72
8
73
4
74
2
42
0.0000001000
43
0.0000001000
44
0.0000000001
12
0.0064911034
22
0.0010689093
32
0.0000000000
13
-0.0004660276
23
0.0017519677
33
0.0000000000
40
0.0000000000
40
0.0000000000
40
0.0000000000
40
0.0000000000
40
1.0000000000
40
1.0000000000
40
1.0000000000
40
1.0000000000
10
11.4521214807
20
23.2200645482
30
0.0000000000
10
11.4542851819
20
23.2204208513
30
0.0000000000
10
11.4551467978
20
23.2209113452
30
0.0000000000
10
11.4549914552
20
23.2214953344
30
0.0000000000
11
11.4521214807
21
23.2200645482
31
0.0000000000
11
11.4549914552
21
23.2214953344
31
0.0000000000
0
SPLINE
5
3B9
100
AcDbEntity
8
0
100
AcDbSpline
62
9
6
CONTINUOUS
70
0
71
3
72
8
73
4
74
2
42
0.0000001000
43
0.0000001000
44
0.0000000001
12
0.0004762802
22
-0.0017555322
32
0.0000000000
13
-0.0065010864
23
-0.0010705198
33
0.0000000000
40
0.0000000000
40
0.0000000000
40
0.0000000000
40
0.0000000000
40
1.0000000000
40
1.0000000000
40
1.0000000000
40
1.0000000000
10
11.7383535260
20
-22.4920968705
30
0.0000000000
10
11.7385122861
20
-22.4926820479
30
0.0000000000
10
11.7376513804
20
-22.4931734997
30
0.0000000000
10
11.7354843516
20
-22.4935303396
30
0.0000000000
11
11.7383535260
21
-22.4920968705
31
0.0000000000
11
11.7354843516
21
-22.4935303396
31
0.0000000000
0
SPLINE
5
3BA
100
AcDbEntity
8
0
100
AcDbSpline
62
9
6
CONTINUOUS
70
0
71
3
72
10
73
6
74
4
42
0.0000001000
43
0.0000001000
44
0.0000000001
12
0.2554766245
22
0.0565398120
32
0.0000000000
13
-0.0031402488
23
0.2579734587
33
0.0000000000
40
0.0000000000
40
0.0000000000
40
0.0000000000
40
0.0000000000
40
0.2203616207
40
0.6039338997
40
1.0000000000
40
1.0000000000
40
1.0000000000
40
1.0000000000
10
11.3269789631
20
-23.5287297396
30
0.0000000000
10
11.3457447107
20
-23.5245766714
30
0.0000000000
10
11.3956728121
20
-23.5049249336
30
0.0000000000
10
11.4567870731
20
-23.4388613807
30
0.0000000000
10
11.4727283614
20
-23.3702794553
30
0.0000000000
10
11.4723137794
20
-23.3362212747
30
0.0000000000
11
11.3269789631
21
-23.5287297396
31
0.0000000000
11
11.3804466426
21
-23.5075402411
31
0.0000000000
11
11.4483490977
21
-23.4355534343
31
0.0000000000
11
11.4723137794
21
-23.3362212747
31
0.0000000000
0
SPLINE
5
3BB
100
AcDbEntity
8
0
100
AcDbSpline
62
7
6
CONTINUOUS
70
0
71
3
72
8
73
4
74
2
42
0.0000001000
43
0.0000001000
44
0.0000000001
12
0.0706536121
22
0.0145931955
32
0.0000000000
13
0.0683925142
23
0.0249576518
33
0.0000000000
40
0.0000000000
40
0.0000000000
40
0.0000000000
40
0.0000000000
40
1.0000000000
40
1.0000000000
40
1.0000000000
40
1.0000000000
10
18.0582611246
20
-17.1918927724
30
0.0000000000
10
18.0818123286
20
-17.1870283739
30
0.0000000000
10
18.1051255732
20
-17.1803744648
30
0.0000000000
10
18.1279230779
20
-17.1720552476
30
0.0000000000
11
18.0582611246
21
-17.1918927724
31
0.0000000000
11
18.1279230779
21
-17.1720552476
31
0.0000000000
0
SPLINE
5
3BC
100
AcDbEntity
8
0
100
AcDbSpline
62
7
6
CONTINUOUS
70
0
71
3
72
10
73
6
74
4
42
0.0000001000
43
0.0000001000
44
0.0000000001
12
0.5750215140
22
0.2098356358
32
0.0000000000
13
-0.0038499021
23
0.6172230687
33
0.0000000000
40
0.0000000000
40
0.0000000000
40
0.0000000000
40
0.0000000000
40
0.3102799188
40
0.7829535692
40
1.0000000000
40
1.0000000000
40
1.0000000000
40
1.0000000000
10
18.1279230779
20
-17.1720552476
30
0.0000000000
10
18.1873956208
20
-17.1503526529
30
0.0000000000
10
18.3286106467
20
-17.0669908217
30
0.0000000000
10
18.4403216107
20
-16.8862842688
30
0.0000000000
10
18.4577670353
20
-16.7439556369
30
0.0000000000
10
18.4574884995
20
-16.6993002822
30
0.0000000000
11
18.1279230779
21
-17.1720552476
31
0.0000000000
11
18.2908795285
21
-17.0751528773
31
0.0000000000
11
18.4408848408
21
-16.8317817992
31
0.0000000000
11
18.4574884995
21
-16.6993002822
31
0.0000000000
0
SPLINE
5
3BD
100
AcDbEntity
8
0
100
AcDbSpline
62
7
6
CONTINUOUS
70
0
71
3
72
10
73
6
74
4
42
0.0000001000
43
0.0000001000
44
0.0000000001
12
-0.0047448941
22
0.7654713737
32
0.0000000000
13
-0.7673015691
23
0.0129033417
33
0.0000000000
40
0.0000000000
40
0.0000000000
40
0.0000000000
40
0.0000000000
40
0.3411780699
40
0.6796219572
40
1.0000000000
40
1.0000000000
40
1.0000000000
40
1.0000000000
10
18.2326229032
20
19.6591785432
30
0.0000000000
10
18.2320832853
20
19.7462325585
30
0.0000000000
10
18.1833865127
20
19.9227456671
30
0.0000000000
10
17.9929934334
20
20.1088907898
30
0.0000000000
10
17.8222508091
20
20.1546290547
30
0.0000000000
10
17.7403086174
20
20.1560070371
30
0.0000000000
11
18.2326229032
21
19.6591785432
31
0.0000000000
11
18.1628533095
21
19.9108538075
31
0.0000000000
11
17.9775972343
21
20.0919603171
31
0.0000000000
11
17.7403086174
21
20.1560070371
31
0.0000000000
0
SPLINE
5
3BE
100
AcDbEntity
8
0
100
AcDbSpline
62
7
6
CONTINUOUS
70
0
71
3
72
10
73
6
74
4
42
0.0000001000
43
0.0000001000
44
0.0000000001
12
-0.0120218902
22
1.0331377525
32
0.0000000000
13
-0.9677758332
23
0.4099720545
33
0.0000000000
40
0.0000000000
40
0.0000000000
40
0.0000000000
40
0.0000000000
40
0.2519239476
40
0.7699766749
40
1.0000000000
40
1.0000000000
40
1.0000000000
40
1.0000000000
10
-9.8784250780
20
23.5616563218
30
0.0000000000
10
-9.8794346120
20
23.6484137021
30
0.0000000000
10
-9.8943021263
20
23.9147099946
30
0.0000000000
10
-9.9450365303
20
24.2642258613
30
0.0000000000
10
-10.1633096246
20
24.4614231883
30
0.0000000000
10
-10.2375132963
20
24.4928575667
30
0.0000000000
11
-9.8784250780
21
23.5616563218
31
0.0000000000
11
-9.8917536831
21
23.8229715805
31
0.0000000000
11
-10.0461264250
21
24.3340758099
31
0.0000000000
11
-10.2375132963
21
24.4928575667
31
0.0000000000
0
SPLINE
5
3BF
100
AcDbEntity
8
0
100
AcDbSpline
62
7
6
CONTINUOUS
70
0
71
3
72
8
73
4
74
2
42
0.0000001000
43
0.0000001000
44
0.0000000001
12
-0.0947843934
22
0.0401528444
32
0.0000000000
13
-0.1001872311
23
0.0030339792
33
0.0000000000
40
0.0000000000
40
0.0000000000
40
0.0000000000
40
0.0000000000
40
1.0000000000
40
1.0000000000
40
1.0000000000
40
1.0000000000
10
-10.2375132963
20
24.4928575667
30
0.0000000000
10
-10.2691080941
20
24.5062418482
30
0.0000000000
10
-10.3019878277
20
24.5143321741
30
0.0000000000
10
-10.3353835714
20
24.5153435005
30
0.0000000000
11
-10.2375132963
21
24.4928575667
31
0.0000000000
11
-10.3353835714
21
24.5153435005
31
0.0000000000
0
SPLINE
5
3C0
100
AcDbEntity
8
0
100
AcDbSpline
62
7
6
CONTINUOUS
70
0
71
3
72
9
73
5
74
3
42
0.0000001000
43
0.0000001000
44
0.0000000001
12
-0.0217689542
22
0.0321733945
32
0.0000000000
13
0.0000081806
23
0.0388820767
33
0.0000000000
40
0.0000000000
40
0.0000000000
40
0.0000000000
40
0.0000000000
40
0.5831787784
40
1.0000000000
40
1.0000000000
40
1.0000000000
40
1.0000000000
10
-6.5051848611
20
18.1620564403
30
0.0000000000
10
-6.5094165918
20
18.1683107206
30
0.0000000000
10
-6.5149610471
20
18.1799203590
30
0.0000000000
10
-6.5164033988
20
18.1927209339
30
0.0000000000
10
-6.5164022622
20
18.1981232255
30
0.0000000000
11
-6.5051848611
21
18.1620564403
31
0.0000000000
11
-6.5144882940
21
18.1822567446
31
0.0000000000
11
-6.5164022622
21
18.1981232255
31
0.0000000000
0
SPLINE
5
3C1
100
AcDbEntity
8
0
100
AcDbSpline
62
7
6
CONTINUOUS
70
0
71
3
72
10
73
6
74
4
42
0.0000001000
43
0.0000001000
44
0.0000000001
12
-0.0120218910
22
1.0331377503
32
0.0000000000
13
-0.9677758311
23
0.4099720536
33
0.0000000000
40
0.0000000000
40
0.0000000000
40
0.0000000000
40
0.0000000000
40
0.2519239460
40
0.7699766744
40
1.0000000000
40
1.0000000000
40
1.0000000000
40
1.0000000000
10
11.4618488085
20
23.2238903711
30
0.0000000000
10
11.4608392744
20
23.3106477507
30
0.0000000000
10
11.4459717601
20
23.5769440425
30
0.0000000000
10
11.3952373562
20
23.9264599084
30
0.0000000000
10
11.1769642619
20
24.1236572354
30
0.0000000000
10
11.1027605902
20
24.1550916138
30
0.0000000000
11
11.4618488085
21
23.2238903711
31
0.0000000000
11
11.4485202034
21
23.4852056276
31
0.0000000000
11
11.2941474615
21
23.9963098570
31
0.0000000000
11
11.1027605902
21
24.1550916138
31
0.0000000000
0
SPLINE
5
3C2
100
AcDbEntity
8
0
100
AcDbSpline
62
7
6
CONTINUOUS
70
0
71
3
72
8
73
4
74
2
42
0.0000001000
43
0.0000001000
44
0.0000000001
12
-0.0947843934
22
0.0401528444
32
0.0000000000
13
-0.1001872311
23
0.0030339792
33
0.0000000000
40
0.0000000000
40
0.0000000000
40
0.0000000000
40
0.0000000000
40
1.0000000000
40
1.0000000000
40
1.0000000000
40
1.0000000000
10
11.1027605902
20
24.1550916138
30
0.0000000000
10
11.0711657924
20
24.1684758952
30
0.0000000000
10
11.0382860588
20
24.1765662212
30
0.0000000000
10
11.0048903151
20
24.1775775476
30
0.0000000000
11
11.1027605902
21
24.1550916138
31
0.0000000000
11
11.0048903151
21
24.1775775476
31
0.0000000000
0
SPLINE
5
3C3
100
AcDbEntity
8
0
100
AcDbSpline
62
7
6
CONTINUOUS
70
0
71
3
72
9
73
5
74
3
42
0.0000001000
43
0.0000001000
44
0.0000000001
12
0.8516855208
22
0.2089452847
32
0.0000000000
13
0.0752760859
23
0.8895971491
33
0.0000000000
40
0.0000000000
40
0.0000000000
40
0.0000000000
40
0.0000000000
40
0.3649028745
40
1.0000000000
40
1.0000000000
40
1.0000000000
40
1.0000000000
10
11.3268663549
20
-23.5282559526
30
0.0000000000
10
11.4304605198
20
-23.5028410410
30
0.0000000000
10
11.6726297411
20
-23.2601429173
30
0.0000000000
10
11.7168875115
20
-22.9651656211
30
0.0000000000
10
11.7328233867
20
-22.7768387570
30
0.0000000000
11
11.3268663549
21
-23.5282559526
31
0.0000000000
11
11.5808442871
21
-23.3187573684
31
0.0000000000
11
11.7328233867
21
-22.7768387570
31
0.0000000000
0
SPLINE
5
3C4
100
AcDbEntity
8
0
100
AcDbSpline
62
7
6
CONTINUOUS
70
0
71
3
72
8
73
4
74
2
42
0.0000001000
43
0.0000001000
44
0.0000000001
12
0.0186083159
22
0.2199092120
32
0.0000000000
13
0.0050353545
23
0.2200599943
33
0.0000000000
40
0.0000000000
40
0.0000000000
40
0.0000000000
40
0.0000000000
40
1.0000000000
40
1.0000000000
40
1.0000000000
40
1.0000000000
10
11.7328233867
20
-22.7768387570
30
0.0000000000
10
11.7390261587
20
-22.7035356863
30
0.0000000000
10
11.7433848260
20
-22.6300829871
30
0.0000000000
10
11.7450632775
20
-22.5567296556
30
0.0000000000
11
11.7328233867
21
-22.7768387570
31
0.0000000000
11
11.7450632775
21
-22.5567296556
31
0.0000000000
0
SPLINE
5
3C5
100
AcDbEntity
8
0
100
AcDbSpline
62
7
6
CONTINUOUS
70
0
71
3
72
8
73
4
74
2
42
0.0000001000
43
0.0000001000
44
0.0000000001
12
0.0015362652
22
0.0671393654
32
0.0000000000
13
-0.0000318716
23
0.0670626544
33
0.0000000000
40
0.0000000000
40
0.0000000000
40
0.0000000000
40
0.0000000000
40
1.0000000000
40
1.0000000000
40
1.0000000000
40
1.0000000000
10
11.7450632775
20
-22.5567296556
30
0.0000000000
10
11.7455753659
20
-22.5343498671
30
0.0000000000
10
11.7458379706
20
-22.5119793282
30
0.0000000000
10
11.7458273468
20
-22.4896251100
30
0.0000000000
11
11.7450632775
21
-22.5567296556
31
0.0000000000
11
11.7458273468
21
-22.4896251100
31
0.0000000000
0
SPLINE
5
3C6
100
AcDbEntity
8
0
100
AcDbSpline
62
7
6
CONTINUOUS
70
0
71
3
72
8
73
4
74
2
42
0.0000001000
43
0.0000001000
44
0.0000000001
12
0.1242878842
22
0.0304917328
32
0.0000000000
13
0.1075418546
23
0.0803067090
33
0.0000000000
40
0.0000000000
40
0.0000000000
40
0.0000000000
40
0.0000000000
40
1.0000000000
40
1.0000000000
40
1.0000000000
40
1.0000000000
10
-10.0134075316
20
-23.1904899997
30
0.0000000000
10
-9.9719782369
20
-23.1803260888
30
0.0000000000
10
-9.9329841051
20
-23.1600628466
30
0.0000000000
10
-9.8971368203
20
-23.1332939436
30
0.0000000000
11
-10.0134075316
21
-23.1904899997
31
0.0000000000
11
-9.8971368203
21
-23.1332939436
31
0.0000000000
0
SPLINE
5
3C7
100
AcDbEntity
8
0
100
AcDbSpline
62
7
6
CONTINUOUS
70
0
71
3
72
9
73
5
74
3
42
0.0000001000
43
0.0000001000
44
0.0000000001
12
-0.1737791025
22
0.2706959463
32
0.0000000000
13
-0.0529543370
23
0.3174498767
33
0.0000000000
40
0.0000000000
40
0.0000000000
40
0.0000000000
40
0.0000000000
40
0.3060624621
40
1.0000000000
40
1.0000000000
40
1.0000000000
40
1.0000000000
10
-2.4593667585
20
18.0532672009
30
0.0000000000
10
-2.4770958452
20
18.0808838235
30
0.0000000000
10
-2.5293949131
20
18.1749220975
30
0.0000000000
10
-2.5616922212
20
18.2788014320
30
0.0000000000
10
-2.5739412220
20
18.3522315606
30
0.0000000000
11
-2.4593667585
21
18.0532672009
31
0.0000000000
11
-2.5072357587
21
18.1393688486
31
0.0000000000
11
-2.5739412220
21
18.3522315606
31
0.0000000000
0
SPLINE
5
3C8
100
AcDbEntity
8
0
100
AcDbSpline
62
7
6
CONTINUOUS
70
0
71
3
72
9
73
5
74
3
42
0.0000001000
43
0.0000001000
44
0.0000000001
12
0.2476287613
22
0.0634837555
32
0.0000000000
13
-0.0015473541
23
0.2496273421
33
0.0000000000
40
0.0000000000
40
0.0000000000
40
0.0000000000
40
0.0000000000
40
0.4011159448
40
1.0000000000
40
1.0000000000
40
1.0000000000
40
1.0000000000
10
-12.0614373904
20
-23.6326396148
30
0.0000000000
10
-12.0283281089
20
-23.6241514993
30
0.0000000000
10
-11.9498727638
20
-23.5788942602
30
0.0000000000
10
-11.9195761069
20
-23.4911458223
30
0.0000000000
10
-11.9198850021
20
-23.4413132106
30
0.0000000000
11
-12.0614373904
21
-23.6326396148
31
0.0000000000
11
-11.9731371732
21
-23.5810081199
31
0.0000000000
11
-11.9198850021
21
-23.4413132106
31
0.0000000000
0
SPLINE
5
3C9
100
AcDbEntity
8
0
100
AcDbSpline
62
7
6
CONTINUOUS
70
0
71
3
72
9
73
5
74
3
42
0.0000001000
43
0.0000001000
44
0.0000000001
12
-0.0018480044
22
0.2981298314
32
0.0000000000
13
-0.2980982224
23
0.0047181883
33
0.0000000000
40
0.0000000000
40
0.0000000000
40
0.0000000000
40
0.0000000000
40
0.5142206083
40
1.0000000000
40
1.0000000000
40
1.0000000000
40
1.0000000000
10
9.1258262982
20
23.7413129529
30
0.0000000000
10
9.1255095375
20
23.7924144540
30
0.0000000000
10
9.0875357913
20
23.8958933210
30
0.0000000000
10
8.9861015027
20
23.9431397266
30
0.0000000000
10
8.9378315116
20
23.9439037261
30
0.0000000000
11
9.1258262982
21
23.7413129529
31
0.0000000000
11
9.0696753553
21
23.8839672391
31
0.0000000000
11
8.9378315116
21
23.9439037261
31
0.0000000000
0
SPLINE
5
3CA
100
AcDbEntity
8
0
100
AcDbSpline
62
9
6
CONTINUOUS
70
0
71
3
72
8
73
4
74
2
42
0.0000001000
43
0.0000001000
44
0.0000000001
12
-0.0121561250
22
-0.0174886857
32
0.0000000000
13
-0.0264959263
23
-0.0043630991
33
0.0000000000
40
0.0000000000
40
0.0000000000
40
0.0000000000
40
0.0000000000
40
1.0000000000
40
1.0000000000
40
1.0000000000
40
1.0000000000
10
18.4502459797
20
-16.6939329559
30
0.0000000000
10
18.4461939380
20
-16.6997625178
30
0.0000000000
10
18.4368482244
20
-16.7075133218
30
0.0000000000
10
18.4280162490
20
-16.7089676881
30
0.0000000000
11
18.4502459797
21
-16.6939329559
31
0.0000000000
11
18.4280162490
21
-16.7089676881
31
0.0000000000
0
SPLINE
5
3CB
100
AcDbEntity
8
0
100
AcDbSpline
62
9
6
CONTINUOUS
70
0
71
3
72
8
73
4
74
2
42
0.0000001000
43
0.0000001000
44
0.0000000001
12
-0.0121970150
22
-0.0172014059
32
0.0000000000
13
-0.0271219266
23
-0.0044661830
33
0.0000000000
40
0.0000000000
40
0.0000000000
40
0.0000000000
40
0.0000000000
40
1.0000000000
40
1.0000000000
40
1.0000000000
40
1.0000000000
10
18.2255767997
20
19.6641747296
30
0.0000000000
10
18.2215111281
20
19.6584409276
30
0.0000000000
10
18.2116852401
20
19.6506660849
30
0.0000000000
10
18.2026445978
20
19.6491773572
30
0.0000000000
11
18.2255767997
21
19.6641747296
31
0.0000000000
11
18.2026445978
21
19.6491773572
31
0.0000000000
0
SPLINE
5
3CC
100
AcDbEntity
8
0
100
AcDbSpline
62
9
6
CONTINUOUS
70
0
71
3
72
12
73
8
74
6
42
0.0000001000
43
0.0000001000
44
0.0000000001
12
0.0056423456
22
-0.9186762960
32
0.0000000000
13
-0.8979510017
23
-0.1941184470
33
0.0000000000
40
0.0000000000
40
0.0000000000
40
0.0000000000
40
0.0000000000
40
0.2665365434
40
0.5167418511
40
0.7294668283
40
0.8908320567
40
1.0000000000
40
1.0000000000
40
1.0000000000
40
1.0000000000
10
11.7354843516
20
-22.4935303396
30
0.0000000000
10
11.7359856487
20
-22.5751506077
30
0.0000000000
10
11.7287294988
20
-22.7335768818
30
0.0000000000
10
11.6951339522
20
-22.9548188085
30
0.0000000000
10
11.6403211119
20
-23.1391608301
30
0.0000000000
10
11.5736791089
20
-23.2714578317
30
0.0000000000
10
11.5049896007
20
-23.3291574375
30
0.0000000000
10
11.4723137794
20
-23.3362212747
30
0.0000000000
11
11.7354843516
21
-22.4935303396
31
0.0000000000
11
11.7240990480
21
-22.7381309326
31
0.0000000000
11
11.6877626219
21
-22.9651027649
31
0.0000000000
11
11.6297511565
21
-23.1517232225
31
0.0000000000
11
11.5553157980
21
-23.2799262592
31
0.0000000000
11
11.4723137794
21
-23.3362212747
31
0.0000000000
0
SPLINE
5
3CD
100
AcDbEntity
8
0
100
AcDbSpline
62
9
6
CONTINUOUS
70
0
71
3
72
12
73
8
74
6
42
0.0000001000
43
0.0000001000
44
0.0000000001
12
-0.0053162433
22
0.8531561844
32
0.0000000000
13
-0.8476927978
23
-0.0965435545
33
0.0000000000
40
0.0000000000
40
0.0000000000
40
0.0000000000
40
0.0000000000
40
0.2823440196
40
0.5384291366
40
0.7462423647
40
0.8961839786
40
1.0000000000
40
1.0000000000
40
1.0000000000
40
1.0000000000
10
11.4521214807
20
23.2200645482
30
0.0000000000
10
11.4516211442
20
23.3003590637
30
0.0000000000
10
11.4428071701
20
23.4534779074
30
0.0000000000
10
11.4071463718
20
23.6635618045
30
0.0000000000
10
11.3503892445
20
23.8290331272
30
0.0000000000
10
11.2822434009
20
23.9443382729
30
0.0000000000
10
11.2083858637
20
23.9777933162
30
0.0000000000
10
11.1790511658
20
23.9744523936
30
0.0000000000
11
11.4521214807
21
23.2200645482
31
0.0000000000
11
11.4377257607
21
23.4605222351
31
0.0000000000
11
11.3985240192
21
23.6754614127
31
0.0000000000
11
11.3383776644
21
23.8422484406
31
0.0000000000
11
11.2627270155
21
23.9454088305
31
0.0000000000
11
11.1790511658
21
23.9744523936
31
0.0000000000
0
SPLINE
5
3CE
100
AcDbEntity
8
0
100
AcDbSpline
62
9
6
CONTINUOUS
70
0
71
3
72
10
73
6
74
4
42
0.0000001000
43
0.0000001000
44
0.0000000001
12
0.6402775110
22
0.1397905151
32
0.0000000000
13
-0.0078660559
23
0.6462015593
33
0.0000000000
40
0.0000000000
40
0.0000000000
40
0.0000000000
40
0.0000000000
40
0.2218913494
40
0.6047110211
40
1.0000000000
40
1.0000000000
40
1.0000000000
40
1.0000000000
10
18.0634232422
20
-17.1905149359
30
0.0000000000
10
18.1107805892
20
-17.1801755006
30
0.0000000000
10
18.2361134604
20
-17.1310515307
30
0.0000000000
10
18.3891994833
20
-16.9655679533
30
0.0000000000
10
18.4290527040
20
-16.7941131397
30
0.0000000000
10
18.4280162490
20
-16.7089676881
30
0.0000000000
11
18.0634232422
21
-17.1905149359
31
0.0000000000
11
18.1983484069
21
-17.1372651043
31
0.0000000000
11
18.3681045447
21
-16.9572980871
31
0.0000000000
11
18.4280162490
21
-16.7089676881
31
0.0000000000
0
SPLINE
5
3CF
100
AcDbEntity
8
0
100
AcDbSpline
62
7
6
CONTINUOUS
70
0
71
3
72
9
73
5
74
3
42
0.0000001000
43
0.0000001000
44
0.0000000001
12
-0.0018480044
22
0.2981298314
32
0.0000000000
13
-0.2980982224
23
0.0047181883
33
0.0000000000
40
0.0000000000
40
0.0000000000
40
0.0000000000
40
0.0000000000
40
0.5142206083
40
1.0000000000
40
1.0000000000
40
1.0000000000
40
1.0000000000
10
-12.2144475883
20
24.0790789058
30
0.0000000000
10
-12.2147643490
20
24.1301804069
30
0.0000000000
10
-12.2527380952
20
24.2336592740
30
0.0000000000
10
-12.3541723838
20
24.2809056795
30
0.0000000000
10
-12.4024423748
20
24.2816696790
30
0.0000000000
11
-12.2144475883
21
24.0790789058
31
0.0000000000
11
-12.2705985312
21
24.2217331920
31
0.0000000000
11
-12.4024423748
21
24.2816696790
31
0.0000000000
0
SPLINE
5
3D0
100
AcDbEntity
8
0
100
AcDbSpline
62
7
6
CONTINUOUS
70
0
71
3
72
8
73
4
74
2
42
0.0000001000
43
0.0000001000
44
0.0000000001
12
-0.0176633444
22
-0.1113652414
32
0.0000000000
13
-0.0334627973
23
-0.1079384631
33
0.0000000000
40
0.0000000000
40
0.0000000000
40
0.0000000000
40
0.0000000000
40
1.0000000000
40
1.0000000000
40
1.0000000000
40
1.0000000000
10
-1.1937801879
20
18.3277772091
30
0.0000000000
10
-1.1996679694
20
18.2906554619
30
0.0000000000
10
-1.2081997589
20
18.2538686567
30
0.0000000000
10
-1.2193540246
20
18.2178891690
30
0.0000000000
11
-1.1937801879
21
18.3277772091
31
0.0000000000
11
-1.2193540246
21
18.2178891690
31
0.0000000000
0
SPLINE
5
3D1
100
AcDbEntity
8
0
100
AcDbSpline
62
7
6
CONTINUOUS
70
0
71
3
72
9
73
5
74
3
42
0.0000001000
43
0.0000001000
44
0.0000000001
12
-0.0599611917
22
-0.1934123682
32
0.0000000000
13
-0.1092180239
23
-0.1698778070
33
0.0000000000
40
0.0000000000
40
0.0000000000
40
0.0000000000
40
0.0000000000
40
0.5211576858
40
1.0000000000
40
1.0000000000
40
1.0000000000
40
1.0000000000
10
-1.2193540246
20
18.2178891690
30
0.0000000000
10
-1.2297704366
20
18.1842897216
30
0.0000000000
10
-1.2541458049
20
18.1211698519
30
0.0000000000
10
-1.2868769127
20
18.0620585165
30
0.0000000000
10
-1.3043096498
20
18.0349436224
30
0.0000000000
11
-1.2193540246
21
18.2178891690
31
0.0000000000
11
-1.2574467211
21
18.1195876505
31
0.0000000000
11
-1.3043096498
21
18.0349436224
31
0.0000000000
0
SPLINE
5
3D2
100
AcDbEntity
8
0
100
AcDbSpline
62
7
6
CONTINUOUS
70
0
71
3
72
8
73
4
74
2
42
0.0000001000
43
0.0000001000
44
0.0000000001
12
0.0224583077
22
0.1096214381
32
0.0000000000
13
-0.0006717154
23
0.1124205268
33
0.0000000000
40
0.0000000000
40
0.0000000000
40
0.0000000000
40
0.0000000000
40
1.0000000000
40
1.0000000000
40
1.0000000000
40
1.0000000000
10
11.4789885929
20
18.8857201123
30
0.0000000000
10
11.4864746955
20
18.9222605916
30
0.0000000000
10
11.4905394172
20
18.9597425322
30
0.0000000000
10
11.4903155121
20
18.9972160411
30
0.0000000000
11
11.4789885929
21
18.8857201123
31
0.0000000000
11
11.4903155121
21
18.9972160411
31
0.0000000000
0
SPLINE
5
3D3
100
AcDbEntity
8
0
100
AcDbSpline
62
9
6
CONTINUOUS
70
0
71
3
72
10
73
6
74
4
42
0.0000001000
43
0.0000001000
44
0.0000000001
12
-0.0001787761
22
0.7566506799
32
0.0000000000
13
-0.7565654980
23
0.0113547600
33
0.0000000000
40
0.0000000000
40
0.0000000000
40
0.0000000000
40
0.0000000000
40
0.3415918978
40
0.6758207027
40
1.0000000000
40
1.0000000000
40
1.0000000000
40
1.0000000000
10
18.2026445978
20
19.6491773572
30
0.0000000000
10
18.2026242417
20
19.7353326044
30
0.0000000000
10
18.1596844741
20
19.9087120752
30
0.0000000000
10
17.9827611721
20
20.1029690383
30
0.0000000000
10
17.8144119220
20
20.1544272976
30
0.0000000000
10
17.7326576315
20
20.1556542903
30
0.0000000000
11
18.2026445978
21
19.6491773572
31
0.0000000000
11
18.1396397679
21
19.8998463317
31
0.0000000000
11
17.9676189909
21
20.0852228673
31
0.0000000000
11
17.7326576315
21
20.1556542903
31
0.0000000000
0
SPLINE
5
3D4
100
AcDbEntity
8
0
100
AcDbSpline
62
9
6
CONTINUOUS
70
0
71
3
72
8
73
4
74
2
42
0.0000001000
43
0.0000001000
44
0.0000000001
12
0.0064909433
22
0.0010688818
32
0.0000000000
13
-0.0004658474
23
0.0017519057
33
0.0000000000
40
0.0000000000
40
0.0000000000
40
0.0000000000
40
0.0000000000
40
1.0000000000
40
1.0000000000
40
1.0000000000
40
1.0000000000
10
-9.8881524058
20
23.5578305011
30
0.0000000000
10
-9.8859887580
20
23.5581867951
30
0.0000000000
10
-9.8851271274
20
23.5586772723
30
0.0000000000
10
-9.8852824098
20
23.5592612409
30
0.0000000000
11
-9.8881524058
21
23.5578305011
31
0.0000000000
11
-9.8852824098
21
23.5592612409
31
0.0000000000
0
SPLINE
5
3D5
100
AcDbEntity
8
0
100
AcDbSpline
62
9
6
CONTINUOUS
70
0
71
3
72
10
73
6
74
4
42
0.0000001000
43
0.0000001000
44
0.0000000001
12
-0.0000715104
22
0.3026602720
32
0.0000000000
13
-0.3026261993
23
0.0045419039
33
0.0000000000
40
0.0000000000
40
0.0000000000
40
0.0000000000
40
0.0000000000
40
0.3415918973
40
0.6758207017
40
1.0000000000
40
1.0000000000
40
1.0000000000
40
1.0000000000
10
-10.1612227207
20
24.3122183465
30
0.0000000000
10
-10.1612308631
20
24.3466804454
30
0.0000000000
10
-10.1784067701
20
24.4160322336
30
0.0000000000
10
-10.2491760907
20
24.4937350190
30
0.0000000000
10
-10.3165157909
20
24.5143183227
30
0.0000000000
10
-10.3492175072
20
24.5148091198
30
0.0000000000
11
-10.1612227207
21
24.3122183465
31
0.0000000000
11
-10.1864246526
21
24.4124859362
31
0.0000000000
11
-10.2552329632
21
24.4866365505
31
0.0000000000
11
-10.3492175072
21
24.5148091198
31
0.0000000000
0
SPLINE
5
3D6
100
AcDbEntity
8
0
100
AcDbSpline
62
7
6
CONTINUOUS
70
0
71
3
72
10
73
6
74
4
42
0.0000001000
43
0.0000001000
44
0.0000000001
12
0.2939019509
22
-0.0046517712
32
0.0000000000
13
0.1485166248
23
0.2536588415
33
0.0000000000
40
0.0000000000
40
0.0000000000
40
0.0000000000
40
0.0000000000
40
0.3740085603
40
0.7232783108
40
1.0000000000
40
1.0000000000
40
1.0000000000
40
1.0000000000
10
0.1194229024
20
18.0095776162
30
0.0000000000
10
0.1560635176
20
18.0089976822
30
0.0000000000
10
0.2272582162
20
18.0227535289
30
0.0000000000
10
0.3160482563
20
18.0657231193
30
0.0000000000
10
0.3619999703
20
18.1094880295
30
0.0000000000
10
0.3756992274
20
18.1328856638
30
0.0000000000
11
0.1194229024
21
18.0095776162
31
0.0000000000
11
0.2278283209
21
18.0278561358
31
0.0000000000
11
0.3194919125
21
18.0740910365
31
0.0000000000
11
0.3756992274
21
18.1328856638
31
0.0000000000
0
SPLINE
5
3D7
100
AcDbEntity
8
0
100
AcDbSpline
62
7
6
CONTINUOUS
70
0
71
3
72
9
73
5
74
3
42
0.0000001000
43
0.0000001000
44
0.0000000001
12
-0.1301160524
22
0.0020594287
32
0.0000000000
13
-0.0740966144
23
0.1095109845
33
0.0000000000
40
0.0000000000
40
0.0000000000
40
0.0000000000
40
0.0000000000
40
0.6915396807
40
1.0000000000
40
1.0000000000
40
1.0000000000
40
1.0000000000
10
-6.3875213304
20
18.1125671201
30
0.0000000000
10
-6.4175148015
20
18.1130418456
30
0.0000000000
10
-6.4623770624
20
18.1197171967
30
0.0000000000
10
-6.4975662393
20
18.1507965092
30
0.0000000000
10
-6.5051848611
20
18.1620564403
30
0.0000000000
11
-6.3875213304
21
18.1125671201
31
0.0000000000
11
-6.4749369375
21
18.1339450224
31
0.0000000000
11
-6.5051848611
21
18.1620564403
31
0.0000000000
0
SPLINE
5
3D8
100
AcDbEntity
8
0
100
AcDbSpline
62
9
6
CONTINUOUS
70
0
71
3
72
8
73
4
74
2
42
0.0000001000
43
0.0000001000
44
0.0000000001
12
0.0064909252
22
0.0010688800
32
0.0000000000
13
-0.0004658473
23
0.0017519042
33
0.0000000000
40
0.0000000000
40
0.0000000000
40
0.0000000000
40
0.0000000000
40
1.0000000000
40
1.0000000000
40
1.0000000000
40
1.0000000000
10
11.4521214807
20
23.2200645482
30
0.0000000000
10
11.4542851225
20
23.2204208415
30
0.0000000000
10
11.4551467504
20
23.2209113182
30
0.0000000000
10
11.4549914680
20
23.2214952863
30
0.0000000000
11
11.4521214807
21
23.2200645482
31
0.0000000000
11
11.4549914680
21
23.2214952863
31
0.0000000000
0
SPLINE
5
3D9
100
AcDbEntity
8
0
100
AcDbSpline
62
9
6
CONTINUOUS
70
0
71
3
72
10
73
6
74
4
42
0.0000001000
43
0.0000001000
44
0.0000000001
12
-0.0000715104
22
0.3026602720
32
0.0000000000
13
-0.3026261993
23
0.0045419039
33
0.0000000000
40
0.0000000000
40
0.0000000000
40
0.0000000000
40
0.0000000000
40
0.3415918973
40
0.6758207017
40
1.0000000000
40
1.0000000000
40
1.0000000000
40
1.0000000000
10
11.1790511658
20
23.9744523936
30
0.0000000000
10
11.1790430234
20
24.0089144924
30
0.0000000000
10
11.1618671164
20
24.0782662807
30
0.0000000000
10
11.0910977958
20
24.1559690661
30
0.0000000000
10
11.0237580956
20
24.1765523698
30
0.0000000000
10
10.9910563793
20
24.1770431668
30
0.0000000000
11
11.1790511658
21
23.9744523936
31
0.0000000000
11
11.1538492339
21
24.0747199833
31
0.0000000000
11
11.0850409233
21
24.1488705976
31
0.0000000000
11
10.9910563793
21
24.1770431668
31
0.0000000000
0
SPLINE
5
3DA
100
AcDbEntity
8
0
100
AcDbSpline
62
9
6
CONTINUOUS
70
0
71
3
72
12
73
8
74
6
42
0.0000001000
43
0.0000001000
44
0.0000000001
12
-0.0053162433
22
0.8531561844
32
0.0000000000
13
-0.8476927978
23
-0.0965435545
33
0.0000000000
40
0.0000000000
40
0.0000000000
40
0.0000000000
40
0.0000000000
40
0.2823440196
40
0.5384291366
40
0.7462423647
40
0.8961839786
40
1.0000000000
40
1.0000000000
40
1.0000000000
40
1.0000000000
10
-9.8881524058
20
23.5578305011
30
0.0000000000
10
-9.8886527423
20
23.6381250166
30
0.0000000000
10
-9.8974667164
20
23.7912438603
30
0.0000000000
10
-9.9331275147
20
24.0013277574
30
0.0000000000
10
-9.9898846420
20
24.1667990801
30
0.0000000000
10
-10.0580304856
20
24.2821042258
30
0.0000000000
10
-10.1318880228
20
24.3155592691
30
0.0000000000
10
-10.1612227207
20
24.3122183465
30
0.0000000000
11
-9.8881524058
21
23.5578305011
31
0.0000000000
11
-9.9025481258
21
23.7982881880
31
0.0000000000
11
-9.9417498673
21
24.0132273656
31
0.0000000000
11
-10.0018962221
21
24.1800143935
31
0.0000000000
11
-10.0775468710
21
24.2831747834
31
0.0000000000
11
-10.1612227207
21
24.3122183465
31
0.0000000000
0
SPLINE
5
3DB
100
AcDbEntity
8
0
100
AcDbSpline
62
7
6
CONTINUOUS
70
0
71
3
72
8
73
4
74
2
42
0.0000001000
43
0.0000001000
44
0.0000000001
12
-0.0007047229
22
0.1045356022
32
0.0000000000
13
-0.0235992779
23
0.1012757586
33
0.0000000000
40
0.0000000000
40
0.0000000000
40
0.0000000000
40
0.0000000000
40
1.0000000000
40
1.0000000000
40
1.0000000000
40
1.0000000000
10
11.7212859824
20
-18.2625978036
30
0.0000000000
10
11.7210510748
20
-18.2277526029
30
0.0000000000
10
11.7164836653
20
-18.1929444899
30
0.0000000000
10
11.7086172394
20
-18.1591859037
30
0.0000000000
11
11.7212859824
21
-18.2625978036
31
0.0000000000
11
11.7086172394
21
-18.1591859037
31
0.0000000000
0
SPLINE
5
3DC
100
AcDbEntity
8
0
100
AcDbSpline
62
9
6
CONTINUOUS
70
0
71
3
72
8
73
4
74
2
42
0.0000001000
43
0.0000001000
44
0.0000000001
12
0.0004761490
22
-0.0017554861
32
0.0000000000
13
-0.0065009571
23
-0.0010704985
33
0.0000000000
40
0.0000000000
40
0.0000000000
40
0.0000000000
40
0.0000000000
40
1.0000000000
40
1.0000000000
40
1.0000000000
40
1.0000000000
10
11.7383535355
20
-22.4920969054
30
0.0000000000
10
11.7385122519
20
-22.4926820675
30
0.0000000000
10
11.7376513373
20
-22.4931735068
30
0.0000000000
10
11.7354843516
20
-22.4935303396
30
0.0000000000
11
11.7383535355
21
-22.4920969054
31
0.0000000000
11
11.7354843516
21
-22.4935303396
31
0.0000000000
0
SPLINE
5
3DD
100
AcDbEntity
8
0
100
AcDbSpline
62
7
6
CONTINUOUS
70
0
71
3
72
9
73
5
74
3
42
0.0000001000
43
0.0000001000
44
0.0000000001
12
0.2476287613
22
0.0634837555
32
0.0000000000
13
-0.0015473541
23
0.2496273421
33
0.0000000000
40
0.0000000000
40
0.0000000000
40
0.0000000000
40
0.0000000000
40
0.4011159448
40
1.0000000000
40
1.0000000000
40
1.0000000000
40
1.0000000000
10
9.2788364960
20
-23.9704055678
30
0.0000000000
10
9.3119457776
20
-23.9619174522
30
0.0000000000
10
9.3904011227
20
-23.9166602132
30
0.0000000000
10
9.4206977796
20
-23.8289117752
30
0.0000000000
10
9.4203888844
20
-23.7790791635
30
0.0000000000
11
9.2788364960
21
-23.9704055678
31
0.0000000000
11
9.3671367133
21
-23.9187740728
31
0.0000000000
11
9.4203888844
21
-23.7790791635
31
0.0000000000
0
SPLINE
5
3DE
100
AcDbEntity
8
0
100
AcDbSpline
62
3
6
CONTINUOUS
70
0
71
3
72
9
73
5
74
3
42
0.0000001000
43
0.0000001000
44
0.0000000001
12
0.0018283711
22
-0.0147425536
32
0.0000000000
13
-0.0061194358
23
-0.0136664939
33
0.0000000000
40
0.0000000000
40
0.0000000000
40
0.0000000000
40
0.0000000000
40
0.9243715678
40
1.0000000000
40
1.0000000000
40
1.0000000000
40
1.0000000000
10
2.2758619727
20
-23.3699820751
30
0.0000000000
10
2.2764253374
20
-23.3745246075
30
0.0000000000
10
2.2754620088
20
-23.3796409553
30
0.0000000000
10
2.2734945538
20
-23.3842351575
30
0.0000000000
10
2.2733402861
20
-23.3845796827
30
0.0000000000
11
2.2758619727
21
-23.3699820751
31
0.0000000000
11
2.2737864017
21
-23.3835372664
31
0.0000000000
11
2.2733402861
21
-23.3845796827
31
0.0000000000
0
SPLINE
5
3DF
100
AcDbEntity
8
0
100
AcDbSpline
62
3
6
CONTINUOUS
70
0
71
3
72
8
73
4
74
2
42
0.0000001000
43
0.0000001000
44
0.0000000001
12
-0.0066001706
22
-0.0147401156
32
0.0000000000
13
-0.0109196731
23
-0.0116845180
33
0.0000000000
40
0.0000000000
40
0.0000000000
40
0.0000000000
40
0.0000000000
40
1.0000000000
40
1.0000000000
40
1.0000000000
40
1.0000000000
10
2.2733402861
20
-23.3845796827
30
0.0000000000
10
2.2711402292
20
-23.3894930546
30
0.0000000000
10
2.2678272047
20
-23.3938110909
30
0.0000000000
10
2.2641873136
20
-23.3977059302
30
0.0000000000
11
2.2733402861
21
-23.3845796827
31
0.0000000000
11
2.2641873136
21
-23.3977059302
31
0.0000000000
0
SPLINE
5
3E0
100
AcDbEntity
8
0
100
AcDbSpline
62
3
6
CONTINUOUS
70
0
71
3
72
11
73
7
74
5
42
0.0000001000
43
0.0000001000
44
0.0000000001
12
0.0017974619
22
-0.2899760476
32
0.0000000000
13
0.2451453189
23
-0.1702969167
33
0.0000000000
40
0.0000000000
40
0.0000000000
40
0.0000000000
40
0.0000000000
40
0.3169632773
40
0.6018866350
40
0.8330781423
40
1.0000000000
40
1.0000000000
40
1.0000000000
40
1.0000000000
10
2.1956061070
20
-24.4094333860
30
0.0000000000
10
2.1957960168
20
-24.4400706388
30
0.0000000000
10
2.1993305910
20
-24.4982466507
30
0.0000000000
10
2.2137497805
20
-24.5778646929
30
0.0000000000
10
2.2364065807
20
-24.6399752198
30
0.0000000000
10
2.2578200132
20
-24.6732071642
30
0.0000000000
10
2.2714600505
20
-24.6826825901
30
0.0000000000
11
2.1956061070
21
-24.4094333860
31
0.0000000000
11
2.2014275922
21
-24.5011623685
31
0.0000000000
11
2.2171748297
21
-24.5822703708
31
0.0000000000
11
2.2413063703
21
-24.6448179764
31
0.0000000000
11
2.2714600505
21
-24.6826825901
31
0.0000000000
0
SPLINE
5
3E1
100
AcDbEntity
8
0
100
AcDbSpline
62
3
6
CONTINUOUS
70
0
71
3
72
8
73
4
74
2
42
0.0000001000
43
0.0000001000
44
0.0000000001
12
0.0234789619
22
-0.0163103046
32
0.0000000000
13
0.0278442809
23
-0.0012691471
33
0.0000000000
40
0.0000000000
40
0.0000000000
40
0.0000000000
40
0.0000000000
40
1.0000000000
40
1.0000000000
40
1.0000000000
40
1.0000000000
10
2.2714600505
20
-24.6826825901
30
0.0000000000
10
2.2792863711
20
-24.6881193583
30
0.0000000000
10
2.2886474310
20
-24.6920884253
30
0.0000000000
10
2.2979288580
20
-24.6925114744
30
0.0000000000
11
2.2714600505
21
-24.6826825901
31
0.0000000000
11
2.2979288580
21
-24.6925114744
31
0.0000000000
0
SPLINE
5
3E2
100
AcDbEntity
8
0
100
AcDbSpline
62
3
6
CONTINUOUS
70
0
71
3
72
15
73
11
74
9
42
0.0000001000
43
0.0000001000
44
0.0000000001
12
0.0252175998
22
-0.2867920196
32
0.0000000000
13
0.2878625211
23
-0.0045561814
33
0.0000000000
40
0.0000000000
40
0.0000000000
40
0.0000000000
40
0.0000000000
40
0.1286360067
40
0.2569235237
40
0.3843331302
40
0.5104454225
40
0.6350075325
40
0.7579720682
40
0.8795111876
40
1.0000000000
40
1.0000000000
40
1.0000000000
40
1.0000000000
10
0.0763625860
20
-23.8941768798
30
0.0000000000
10
0.0774438831
20
-23.9064741399
30
0.0000000000
10
0.0817384893
20
-23.9309006964
30
0.0000000000
10
0.0943427865
20
-23.9657513098
30
0.0000000000
10
0.1126923553
20
-23.9976876881
30
0.0000000000
10
0.1361715440
20
-24.0256058621
30
0.0000000000
10
0.1639903018
20
-24.0485497564
30
0.0000000000
10
0.1952127638
20
-24.0657205563
30
0.0000000000
10
0.2287560032
20
-24.0765119551
30
0.0000000000
10
0.2520059598
20
-24.0792023000
30
0.0000000000
10
0.2635673643
20
-24.0793852896
30
0.0000000000
11
0.0763625860
21
-23.8941768798
31
0.0000000000
11
0.0827799338
21
-23.9306507598
31
0.0000000000
11
0.0953540463
21
-23.9653782243
31
0.0000000000
11
0.1136537571
21
-23.9971684679
31
0.0000000000
11
0.1370515688
21
-24.0249314028
31
0.0000000000
11
0.1647451698
21
-24.0477150372
31
0.0000000000
11
0.1957849464
21
-24.0647381202
31
0.0000000000
11
0.2291065439
21
-24.0754169299
31
0.0000000000
11
0.2635673643
21
-24.0793852896
31
0.0000000000
0
SPLINE
5
3E3
100
AcDbEntity
8
0
100
AcDbSpline
62
3
6
CONTINUOUS
70
0
71
3
72
10
73
6
74
4
42
0.0000001000
43
0.0000001000
44
0.0000000001
12
0.0387072064
22
0.0060552693
32
0.0000000000
13
0.0267503355
23
0.0286240050
33
0.0000000000
40
0.0000000000
40
0.0000000000
40
0.0000000000
40
0.0000000000
40
0.2986525374
40
0.6277782702
40
1.0000000000
40
1.0000000000
40
1.0000000000
40
1.0000000000
10
2.4884488565
20
-24.6634100282
30
0.0000000000
10
2.4923021916
20
-24.6628072210
30
0.0000000000
10
2.5002383956
20
-24.6603145245
30
0.0000000000
10
2.5114248437
20
-24.6533913551
30
0.0000000000
10
2.5181722797
20
-24.6471197500
30
0.0000000000
10
2.5214912984
20
-24.6435682578
30
0.0000000000
11
2.4884488565
21
-24.6634100282
31
0.0000000000
11
2.4996463983
21
-24.6600160379
31
0.0000000000
11
2.5107009175
21
-24.6533778714
31
0.0000000000
11
2.5214912984
21
-24.6435682578
31
0.0000000000
0
SPLINE
5
3E4
100
AcDbEntity
8
0
100
AcDbSpline
62
3
6
CONTINUOUS
70
0
71
3
72
9
73
5
74
3
42
0.0000001000
43
0.0000001000
44
0.0000000001
12
-0.0190660936
22
-0.0109115736
32
0.0000000000
13
-0.0175907323
23
-0.0131541964
33
0.0000000000
40
0.0000000000
40
0.0000000000
40
0.0000000000
40
0.0000000000
40
0.4692019510
40
1.0000000000
40
1.0000000000
40
1.0000000000
40
1.0000000000
10
-0.1234995561
20
23.8773723486
30
0.0000000000
10
-0.1264815055
20
23.8756657714
30
0.0000000000
10
-0.1327318530
20
23.8718451050
30
0.0000000000
10
-0.1387360576
20
23.8676484856
30
0.0000000000
10
-0.1418484331
20
23.8653210784
30
0.0000000000
11
-0.1234995561
21
23.8773723486
31
0.0000000000
11
-0.1322926675
21
23.8719976769
31
0.0000000000
11
-0.1418484331
21
23.8653210784
31
0.0000000000
0
SPLINE
5
3E5
100
AcDbEntity
8
0
100
AcDbSpline
62
3
6
CONTINUOUS
70
0
71
3
72
9
73
5
74
3
42
0.0000001000
43
0.0000001000
44
0.0000000001
12
-0.0282595565
22
-0.0211322501
32
0.0000000000
13
-0.0237322226
23
-0.0261101665
33
0.0000000000
40
0.0000000000
40
0.0000000000
40
0.0000000000
40
0.0000000000
40
0.6657292216
40
1.0000000000
40
1.0000000000
40
1.0000000000
40
1.0000000000
10
-0.1418484331
20
23.8653210784
30
0.0000000000
10
-0.1481195039
20
23.8606316262
30
0.0000000000
10
-0.1570841581
20
23.8529786379
30
0.0000000000
10
-0.1652673313
20
23.8445231033
30
0.0000000000
10
-0.1679116608
20
23.8416138147
30
0.0000000000
11
-0.1418484331
21
23.8653210784
31
0.0000000000
11
-0.1597092197
21
23.8500863055
31
0.0000000000
11
-0.1679116608
21
23.8416138147
31
0.0000000000
0
SPLINE
5
3E6
100
AcDbEntity
8
0
100
AcDbSpline
62
3
6
CONTINUOUS
70
0
71
3
72
11
73
7
74
5
42
0.0000001000
43
0.0000001000
44
0.0000000001
12
-0.0895364547
22
-0.0985079139
32
0.0000000000
13
-0.0100396504
23
-0.1325460264
33
0.0000000000
40
0.0000000000
40
0.0000000000
40
0.0000000000
40
0.0000000000
40
0.1786695524
40
0.4494189068
40
0.7234152206
40
1.0000000000
40
1.0000000000
40
1.0000000000
40
1.0000000000
10
-0.1679116608
20
23.8416138147
30
0.0000000000
10
-0.1732441402
20
23.8357470264
30
0.0000000000
10
-0.1857257608
20
23.8201424534
30
0.0000000000
10
-0.2017326126
20
23.7921628619
30
0.0000000000
10
-0.2138988867
20
23.7576683766
30
0.0000000000
10
-0.2178633434
20
23.7334475085
30
0.0000000000
10
-0.2187889482
20
23.7212274374
30
0.0000000000
11
-0.1679116608
21
23.8416138147
31
0.0000000000
11
-0.1827674033
21
23.8230586590
31
0.0000000000
11
-0.2006765529
21
23.7918415158
31
0.0000000000
11
-0.2128225635
21
23.7575053122
31
0.0000000000
11
-0.2187889482
21
23.7212274374
31
0.0000000000
0
SPLINE
5
3E7
100
AcDbEntity
8
0
100
AcDbSpline
62
3
6
CONTINUOUS
70
0
71
3
72
8
73
4
74
2
42
0.0000001000
43
0.0000001000
44
0.0000000001
12
0.0065364940
22
0.0010225546
32
0.0000000000
13
0.0066455854
23
-0.0001041654
33
0.0000000000
40
0.0000000000
40
0.0000000000
40
0.0000000000
40
0.0000000000
40
1.0000000000
40
1.0000000000
40
1.0000000000
40
1.0000000000
10
2.1836118093
20
24.5145124017
30
0.0000000000
10
2.1857906406
20
24.5148532533
30
0.0000000000
10
2.1880077351
20
24.5150076264
30
0.0000000000
10
2.1902229302
20
24.5149729046
30
0.0000000000
11
2.1836118093
21
24.5145124017
31
0.0000000000
11
2.1902229302
21
24.5149729046
31
0.0000000000
0
SPLINE
5
3E8
100
AcDbEntity
8
0
100
AcDbSpline
62
3
6
CONTINUOUS
70
0
71
3
72
9
73
5
74
3
42
0.0000001000
43
0.0000001000
44
0.0000000001
12
0.0182488009
22
-0.0136308553
32
0.0000000000
13
-0.0019386375
23
-0.0223595417
33
0.0000000000
40
0.0000000000
40
0.0000000000
40
0.0000000000
40
0.0000000000
40
0.6101506488
40
1.0000000000
40
1.0000000000
40
1.0000000000
40
1.0000000000
10
1.9724720196
20
23.6633459763
30
0.0000000000
10
1.9761835255
20
23.6605736846
30
0.0000000000
10
1.9821577482
20
23.6556542037
30
0.0000000000
10
1.9847648024
20
23.6476996061
30
0.0000000000
10
1.9845128769
20
23.6447939884
30
0.0000000000
11
1.9724720196
21
23.6633459763
31
0.0000000000
11
1.9822203349
21
23.6534405108
31
0.0000000000
11
1.9845128769
21
23.6447939884
31
0.0000000000
0
SPLINE
5
3E9
100
AcDbEntity
8
0
100
AcDbSpline
62
3
6
CONTINUOUS
70
0
71
3
72
12
73
8
74
6
42
0.0000001000
43
0.0000001000
44
0.0000000001
12
-0.0021610928
22
0.3486389077
32
0.0000000000
13
0.3444561826
23
0.0538859591
33
0.0000000000
40
0.0000000000
40
0.0000000000
40
0.0000000000
40
0.0000000000
40
0.2681456711
40
0.5180388881
40
0.7295717037
40
0.8894517274
40
1.0000000000
40
1.0000000000
40
1.0000000000
40
1.0000000000
10
1.8944820288
20
24.1694932713
30
0.0000000000
10
1.8942888662
20
24.2006552760
30
0.0000000000
10
1.8972538002
20
24.2609323754
30
0.0000000000
10
1.9108797884
20
24.3448134168
30
0.0000000000
10
1.9329146883
20
24.4140126251
30
0.0000000000
10
1.9597362900
20
24.4634550180
30
0.0000000000
10
1.9871541589
20
24.4837790039
30
0.0000000000
10
1.9998471709
20
24.4857646704
30
0.0000000000
11
1.8944820288
21
24.1694932713
31
0.0000000000
11
1.8991561435
21
24.2628641621
31
0.0000000000
11
1.9138683231
21
24.3487371679
31
0.0000000000
11
1.9371784371
21
24.4187064405
31
0.0000000000
11
1.9668047290
21
24.4659229000
31
0.0000000000
11
1.9998471709
21
24.4857646704
31
0.0000000000
0
SPLINE
5
3EA
100
AcDbEntity
8
0
100
AcDbSpline
62
3
6
CONTINUOUS
70
0
71
3
72
14
73
10
74
8
42
0.0000001000
43
0.0000001000
44
0.0000000001
12
-0.0118388650
22
-0.1365451724
32
0.0000000000
13
-0.1390807348
23
0.0022013184
33
0.0000000000
40
0.0000000000
40
0.0000000000
40
0.0000000000
40
0.0000000000
40
0.0056369200
40
0.0785287439
40
0.1851483794
40
0.3337037125
40
0.5228780177
40
0.7474530893
40
1.0000000000
40
1.0000000000
40
1.0000000000
40
1.0000000000
10
1.9845128769
20
23.6447939884
30
0.0000000000
10
1.9844906320
20
23.6445374237
30
0.0000000000
10
1.9840429758
20
23.6409844158
30
0.0000000000
10
1.9782244170
20
23.6335117242
30
0.0000000000
10
1.9644799741
20
23.6269330225
30
0.0000000000
10
1.9445493647
20
23.6213098114
30
0.0000000000
10
1.9187344922
20
23.6174389956
30
0.0000000000
10
1.8878942979
20
23.6152440139
30
0.0000000000
10
1.8657593972
20
23.6150521215
30
0.0000000000
10
1.8540512605
20
23.6152374336
30
0.0000000000
11
1.9845128769
21
23.6447939884
31
0.0000000000
11
1.9844159556
21
23.6440293187
31
0.0000000000
11
1.9789745053
21
23.6354740667
31
0.0000000000
11
1.9661050958
21
23.6281035285
31
0.0000000000
11
1.9463022914
21
23.6222009497
31
0.0000000000
11
1.9203271026
21
23.6179931630
31
0.0000000000
11
1.8891777415
21
23.6156418713
31
0.0000000000
11
1.8540512605
21
23.6152374336
31
0.0000000000
0
SPLINE
5
3EB
100
AcDbEntity
8
0
100
AcDbSpline
62
3
6
CONTINUOUS
70
0
71
3
72
9
73
5
74
3
42
0.0000001000
43
0.0000001000
44
0.0000000001
12
0.0084146547
22
-0.0001318945
32
0.0000000000
13
0.0081768811
23
-0.0019298300
33
0.0000000000
40
0.0000000000
40
0.0000000000
40
0.0000000000
40
0.0000000000
40
0.5494033269
40
1.0000000000
40
1.0000000000
40
1.0000000000
40
1.0000000000
10
2.1902229302
20
24.5149729046
30
0.0000000000
10
2.1917639433
20
24.5149487501
30
0.0000000000
10
2.1945671552
20
24.5147382228
30
0.0000000000
10
2.1973225277
20
24.5142216075
30
0.0000000000
10
2.1985506862
20
24.5139317492
30
0.0000000000
11
2.1902229302
21
24.5149729046
31
0.0000000000
11
2.1948296911
21
24.5146250305
31
0.0000000000
11
2.1985506862
21
24.5139317492
31
0.0000000000
0
SPLINE
5
3EC
100
AcDbEntity
8
0
100
AcDbSpline
62
3
6
CONTINUOUS
70
0
71
3
72
9
73
5
74
3
42
0.0000001000
43
0.0000001000
44
0.0000000001
12
0.0199366645
22
-0.0047052628
32
0.0000000000
13
0.0163639962
23
-0.0122230094
33
0.0000000000
40
0.0000000000
40
0.0000000000
40
0.0000000000
40
0.0000000000
40
0.3810895122
40
1.0000000000
40
1.0000000000
40
1.0000000000
40
1.0000000000
10
2.1985506862
20
24.5139317492
30
0.0000000000
10
2.2010832374
20
24.5133340404
30
0.0000000000
10
2.2075792411
20
24.5111288051
30
0.0000000000
10
2.2134600273
20
24.5075588819
30
0.0000000000
10
2.2168359769
20
24.5050372323
30
0.0000000000
11
2.1985506862
21
24.5139317492
31
0.0000000000
11
2.2059450076
21
24.5114550638
31
0.0000000000
11
2.2168359769
21
24.5050372323
31
0.0000000000
0
ENDSEC
0
SECTION
2
OBJECTS
0
DICTIONARY
5
3ED
100
AcDbDictionary
3
ACAD_GROUP
350
3EE
3
ACAD_MLINESTYLE
350
3EF
0
DICTIONARY
5
3EE
102
{ACAD_REACTORS
330
3ED
102
}
100
AcDbDictionary
0
DICTIONARY
5
3EF
102
{ACAD_REACTORS
330
3ED
102
}
100
AcDbDictionary
3
STANDARD
350
3F0
0
MLINESTYLE
5
3F0
102
{ACAD_REACTORS
330
3EF
102
}
100
AcDbMlineStyle
2
STANDARD
70
0
3

62
256
51
90.0
52
90.0
71
2
49
0.5
62
256
6
BYLAYER
49
-0.5
62
256
6
BYLAYER
0
ENDSEC
0
EOF
