  0
SECTION
  2
HEADER
  9
$ACADVER
  1
AC1024
  9
$DWGCODEPAGE
  3
ANSI_1252
  9
$EXTMAX
 10
297.0
 20
210.0
 30
0.0
  9
$EXTMIN
 10
0.0
 20
0.0
 30
0.0
  9
$LIMMIN
 10
0.0
 20
0.0
  9
$LIMMAX
 10
297.0
 20
210.0
  9
$VIEWCTR
 10
148.5
 20
105.0
  9
$VIEWSIZE
 40
210.0
  9
$CLAYER
  8
0
  9
$LTSCALE
 40
16.335
  9
$CELTYPE
  6
BYLAYER
  9
$DIMSCALE
 40
1.0
  9
$DIMASZ
 40
3.0
  9
$DIMEXO
 40
0.5
  9
$DIMDLI
 40
11.286
  9
$DIMEXE
 40
1.5
  9
$DIMCEN
 40
2.673
  9
$DIMLFAC
 40
1.0
  9
$DIMBLK
  1
_FILLED
  9
$DIMALT
 70
0
  9
$DIMALTF
 40
0.0393700787
  9
$DIMTXT
 40
3.0
  9
$DIMTOL
 70
1
  9
$DIMLIM
 70
0
  9
$DIMTFAC
 40
1.0
  9
$DIMTP
 40
0.01
  9
$DIMTM
 40
0.01
  9
$DIMGAP
 40
0.625
  9
$DIMDSEP
 70
44
  9
$AUNITS
 70
0
  9
$PDMODE
 70
3
  9
$PDSIZE
 40
3.0
  9
$HANDSEED
  5
69A
  9
$TILEMODE
 70
1
  9
$MEASUREMENT
 70
1
  9
$INSUNITS
 70
4
  0
ENDSEC
  0
SECTION
  2
CLASSES
  0
CLASS
  1
ACDBDICTIONARYWDFLT
  2
AcDbDictionaryWithDefault
  3
AutoCAD 2000
 90
0
 91
1
280
0
281
0
  0
CLASS
  1
ACDBPLACEHOLDER
  2
AcDbPlaceHolder
  3
AutoCAD 2000
 90
0
 91
1
280
0
281
0
  0
CLASS
  1
LAYOUT
  2
AcDbLayout
  3
AutoCAD 2000
 90
0
 91
0
280
0
281
0
  0
ENDSEC
  0
SECTION
  2
TABLES
  0
TABLE
  2
VPORT
  5
8
100
AcDbSymbolTable
 70
2
  0
VPORT
  5
1F4
100
AcDbSymbolTableRecord
100
AcDbViewportTableRecord
  2
*ACTIVE
 70
0
 10
0.0
 20
0.0
 11
1.0
 21
1.0
 12
148.5
 22
105.0
 13
0.0
 23
0.0
 14
1.0
 24
1.0
 15
0.0
 25
0.0
 16
0.0
 26
0.0
 36
1.0
 17
0.0
 27
0.0
 37
0.0
 40
210.0
 41
1.4142857143
 42
50.0
 43
0.0
 44
0.0
 50
0.0
 51
0.0
 71
0
 72
100
 73
1
 74
1
 75
0
 76
0
 77
0
 78
0
  0
ENDTAB
  0
TABLE
  2
LTYPE
  5
5
100
AcDbSymbolTable
 70
6
  0
LTYPE
  5
14
100
AcDbSymbolTableRecord
100
AcDbLinetypeTableRecord
  2
BYBLOCK
 70
0
  3

 72
65
 73
0
 40
0.0
  0
LTYPE
  5
15
100
AcDbSymbolTableRecord
100
AcDbLinetypeTableRecord
  2
BYLAYER
 70
0
  3

 72
65
 73
0
 40
0.0
  0
LTYPE
  5
16
100
AcDbSymbolTableRecord
100
AcDbLinetypeTableRecord
  2
CONTINUOUS
 70
64
  3
Solid line
 72
65
 73
0
 40
0.0
  0
LTYPE
  5
1F5
100
AcDbSymbolTableRecord
100
AcDbLinetypeTableRecord
  2
CENTER
 70
64
  3
____ _ ____ _ ____ _ ____ _ ____ _ ____ _ ____
 72
65
 73
4
 40
0.6
 49
0.375
 74
0
 49
-0.075
 74
0
 49
0.075
 74
0
 49
-0.075
 74
0
  0
LTYPE
  5
1F6
100
AcDbSymbolTableRecord
100
AcDbLinetypeTableRecord
  2
HIDDEN
 70
64
  3
- - - - - - - - - - - - - - - - - - - -
 72
65
 73
2
 40
0.2
 49
0.1
 74
0
 49
-0.1
 74
0
  0
LTYPE
  5
1F7
100
AcDbSymbolTableRecord
100
AcDbLinetypeTableRecord
  2
PHANTOM
 70
64
  3
_____ _ _ _____ _ _ _____ _ _ _____
 72
65
 73
6
 40
0.8
 49
0.45
 74
0
 49
-0.05
 74
0
 49
0.1
 74
0
 49
-0.05
 74
0
 49
0.1
 74
0
 49
-0.05
 74
0
  0
LTYPE
  5
1F8
100
AcDbSymbolTableRecord
100
AcDbLinetypeTableRecord
  2
DOT
 70
64
  3
. . . . . . . . . . . . . . . . . . . .
 72
65
 73
2
 40
0.2
 49
0.1
 74
0
 49
-0.1
 74
0
  0
LTYPE
  5
1F9
100
AcDbSymbolTableRecord
100
AcDbLinetypeTableRecord
  2
DASHED
 70
64
  3
- - - - - - - - - - - - - - - - - - - -
 72
65
 73
2
 40
0.2
 49
0.1
 74
0
 49
-0.1
 74
0
  0
ENDTAB
  0
TABLE
  2
LAYER
  5
2
100
AcDbSymbolTable
 70
36
  0
LAYER
  5
10
100
AcDbSymbolTableRecord
100
AcDbLayerTableRecord
  2
0
 70
0
 62
7
  6
CONTINUOUS
370
-3
390
F
  0
LAYER
  5
1FA
100
AcDbSymbolTableRecord
100
AcDbLayerTableRecord
  2
DEFAULT_1
 70
0
 62
7
  6
CENTER
370
-3
390
F
  0
LAYER
  5
1FB
100
AcDbSymbolTableRecord
100
AcDbLayerTableRecord
  2
DEFAULT_2
 70
0
 62
7
  6
HIDDEN
370
-3
390
F
  0
LAYER
  5
1FC
100
AcDbSymbolTableRecord
100
AcDbLayerTableRecord
  2
DEFAULT_3
 70
0
 62
7
  6
PHANTOM
370
-3
390
F
  0
LAYER
  5
1FD
100
AcDbSymbolTableRecord
100
AcDbLayerTableRecord
  2
255013570
 70
0
 62
7
  6
CONTINUOUS
370
-3
390
F
  0
LAYER
  5
1FE
100
AcDbSymbolTableRecord
100
AcDbLayerTableRecord
  2
261013570
 70
0
 62
7
  6
CONTINUOUS
370
-3
390
F
  0
LAYER
  5
1FF
100
AcDbSymbolTableRecord
100
AcDbLayerTableRecord
  2
280013570
 70
0
 62
7
  6
CONTINUOUS
370
-3
390
F
  0
LAYER
  5
200
100
AcDbSymbolTableRecord
100
AcDbLayerTableRecord
  2
ASSI
 70
0
 62
7
  6
CONTINUOUS
370
-3
390
F
  0
LAYER
  5
201
100
AcDbSymbolTableRecord
100
AcDbLayerTableRecord
  2
COORDINATE
 70
0
 62
7
  6
CONTINUOUS
370
-3
390
F
  0
LAYER
  5
202
100
AcDbSymbolTableRecord
100
AcDbLayerTableRecord
  2
COORD_ORIGINE
 70
0
 62
7
  6
CONTINUOUS
370
-3
390
F
  0
LAYER
  5
203
100
AcDbSymbolTableRecord
100
AcDbLayerTableRecord
  2
COPY-PUBBLISH
 70
0
 62
7
  6
CONTINUOUS
370
-3
390
F
  0
LAYER
  5
204
100
AcDbSymbolTableRecord
100
AcDbLayerTableRecord
  2
COPY_PUBLISH
 70
0
 62
7
  6
CONTINUOUS
370
-3
390
F
  0
LAYER
  5
205
100
AcDbSymbolTableRecord
100
AcDbLayerTableRecord
  2
COSMETIC
 70
0
 62
7
  6
CONTINUOUS
370
-3
390
F
  0
LAYER
  5
206
100
AcDbSymbolTableRecord
100
AcDbLayerTableRecord
  2
COSMETICHE
 70
0
 62
7
  6
CONTINUOUS
370
-3
390
F
  0
LAYER
  5
207
100
AcDbSymbolTableRecord
100
AcDbLayerTableRecord
  2
COSMETICI
 70
0
 62
7
  6
CONTINUOUS
370
-3
390
F
  0
LAYER
  5
208
100
AcDbSymbolTableRecord
100
AcDbLayerTableRecord
  2
CURVE
 70
0
 62
7
  6
CONTINUOUS
370
-3
390
F
  0
LAYER
  5
209
100
AcDbSymbolTableRecord
100
AcDbLayerTableRecord
  2
DRAFT
 70
0
 62
7
  6
CONTINUOUS
370
-3
390
F
  0
LAYER
  5
20A
100
AcDbSymbolTableRecord
100
AcDbLayerTableRecord
  2
IGES
 70
0
 62
7
  6
CONTINUOUS
370
-3
390
F
  0
LAYER
  5
20B
100
AcDbSymbolTableRecord
100
AcDbLayerTableRecord
  2
IMPORTED
 70
0
 62
7
  6
CONTINUOUS
370
-3
390
F
  0
LAYER
  5
20C
100
AcDbSymbolTableRecord
100
AcDbLayerTableRecord
  2
IMPORT_IGES
 70
0
 62
7
  6
CONTINUOUS
370
-3
390
F
  0
LAYER
  5
20D
100
AcDbSymbolTableRecord
100
AcDbLayerTableRecord
  2
INTF_1
 70
0
 62
7
  6
CONTINUOUS
370
-3
390
F
  0
LAYER
  5
20E
100
AcDbSymbolTableRecord
100
AcDbLayerTableRecord
  2
INTF_11
 70
0
 62
7
  6
CONTINUOUS
370
-3
390
F
  0
LAYER
  5
20F
100
AcDbSymbolTableRecord
100
AcDbLayerTableRecord
  2
INTF_2
 70
0
 62
7
  6
CONTINUOUS
370
-3
390
F
  0
LAYER
  5
210
100
AcDbSymbolTableRecord
100
AcDbLayerTableRecord
  2
INTF_MAGENTA
 70
0
 62
7
  6
CONTINUOUS
370
-3
390
F
  0
LAYER
  5
211
100
AcDbSymbolTableRecord
100
AcDbLayerTableRecord
  2
NOTE
 70
0
 62
7
  6
CONTINUOUS
370
-3
390
F
  0
LAYER
  5
212
100
AcDbSymbolTableRecord
100
AcDbLayerTableRecord
  2
PIANI
 70
0
 62
7
  6
CONTINUOUS
370
-3
390
F
  0
LAYER
  5
213
100
AcDbSymbolTableRecord
100
AcDbLayerTableRecord
  2
PIANI_ORIGINE
 70
0
 62
7
  6
CONTINUOUS
370
-3
390
F
  0
LAYER
  5
214
100
AcDbSymbolTableRecord
100
AcDbLayerTableRecord
  2
PIANI_RIFERIMENTO
 70
0
 62
7
  6
CONTINUOUS
370
-3
390
F
  0
LAYER
  5
215
100
AcDbSymbolTableRecord
100
AcDbLayerTableRecord
  2
PUNTI
 70
0
 62
7
  6
CONTINUOUS
370
-3
390
F
  0
LAYER
  5
216
100
AcDbSymbolTableRecord
100
AcDbLayerTableRecord
  2
RACCORDO
 70
0
 62
7
  6
CONTINUOUS
370
-3
390
F
  0
LAYER
  5
217
100
AcDbSymbolTableRecord
100
AcDbLayerTableRecord
  2
RGB__255__255__255__
 70
0
 62
7
  6
CONTINUOUS
370
-3
390
F
  0
LAYER
  5
218
100
AcDbSymbolTableRecord
100
AcDbLayerTableRecord
  2
SIMBOLI
 70
0
 62
7
  6
CONTINUOUS
370
-3
390
F
  0
LAYER
  5
219
100
AcDbSymbolTableRecord
100
AcDbLayerTableRecord
  2
SMUSSO
 70
0
 62
7
  6
CONTINUOUS
370
-3
390
F
  0
LAYER
  5
21A
100
AcDbSymbolTableRecord
100
AcDbLayerTableRecord
  2
SNAPLINE
 70
0
 62
7
  6
CONTINUOUS
370
-3
390
F
  0
LAYER
  5
21B
100
AcDbSymbolTableRecord
100
AcDbLayerTableRecord
  2
SUP-SCAVI-INCLINATI
 70
0
 62
7
  6
CONTINUOUS
370
-3
390
F
  0
LAYER
  5
21C
100
AcDbSymbolTableRecord
100
AcDbLayerTableRecord
  2
SUP-SCAVI-INCLINATI-SUP
 70
0
 62
7
  6
CONTINUOUS
370
-3
390
F
  0
LAYER
  5
21D
100
AcDbSymbolTableRecord
100
AcDbLayerTableRecord
  2
SUPERFICI
 70
0
 62
7
  6
CONTINUOUS
370
-3
390
F
  0
LAYER
  5
21E
100
AcDbSymbolTableRecord
100
AcDbLayerTableRecord
  2
SUP_COLORE
 70
0
 62
7
  6
CONTINUOUS
370
-3
390
F
  0
LAYER
  5
21F
100
AcDbSymbolTableRecord
100
AcDbLayerTableRecord
  2
TRACCIABILITA
 70
0
 62
7
  6
CONTINUOUS
370
-3
390
F
  0
LAYER
  5
220
100
AcDbSymbolTableRecord
100
AcDbLayerTableRecord
  2
TRASH
 70
0
 62
7
  6
CONTINUOUS
370
-3
390
F
  0
LAYER
  5
221
100
AcDbSymbolTableRecord
100
AcDbLayerTableRecord
  2
XSEC_DATUMS
 70
0
 62
7
  6
CONTINUOUS
370
-3
390
F
  0
ENDTAB
  0
TABLE
  2
STYLE
  5
3
100
AcDbSymbolTable
 70
1
  0
STYLE
  5
11
100
AcDbSymbolTableRecord
100
AcDbTextStyleTableRecord
  2
STANDARD
 70
0
 40
0.0
 41
0.8
 50
0.0
 71
0
 42
0.2
  3
txt
  4

  0
STYLE
  5
222
100
AcDbSymbolTableRecord
100
AcDbTextStyleTableRecord
  2
TEXTSTYLE_1
 70
0
 40
0.0
 41
0.8
 50
0.0
 71
0
 42
0.2
  3
gdt
  4

  0
ENDTAB
  0
TABLE
  2
VIEW
  5
6
100
AcDbSymbolTable
 70
0
  0
ENDTAB
  0
TABLE
  2
UCS
  5
7
100
AcDbSymbolTable
 70
0
  0
ENDTAB
  0
TABLE
  2
APPID
  5
9
100
AcDbSymbolTable
 70
1
  0
APPID
  5
223
100
AcDbSymbolTableRecord
100
AcDbRegAppTableRecord
  2
ACAD
 70
0
  0
ENDTAB
  0
TABLE
  2
BLOCK_RECORD
  5
1
100
AcDbSymbolTable
 70
0
  0
BLOCK_RECORD
  5
224
100
AcDbSymbolTableRecord
100
AcDbBlockTableRecord
  2
*Model_Space
  0
BLOCK_RECORD
  5
225
100
AcDbSymbolTableRecord
100
AcDbBlockTableRecord
  2
*Paper_Space
  0
BLOCK_RECORD
  5
226
100
AcDbSymbolTableRecord
100
AcDbBlockTableRecord
  2
_FILLED
  0
ENDTAB
  0
TABLE
  2
DIMSTYLE
  5
A
100
AcDbSymbolTable
 70
1
100
AcDbDimStyleTable
 71
0
  0
DIMSTYLE
105
227
100
AcDbSymbolTableRecord
100
AcDbDimStyleTableRecord
  2
STANDARD
 70
0
  3

  4

 40
1.0
 41
3.0
 42
0.5
 43
0.38
 44
1.5
 45
0.0
 46
0.0
 47
0.01
 48
0.01
140
3.0
141
0.09
142
0.0
143
25.4
144
1.0
145
0.0
146
1.0
147
0.625
 71
1
 72
0
 73
0
 74
0
 75
0
 76
0
 77
1
 78
8
 79
2
170
0
171
1
172
0
173
0
174
0
175
0
176
0
177
0
178
0
270
2
179
2
271
2
272
2
273
2
274
2
275
0
280
0
281
0
282
0
283
1
284
8
285
0
286
0
287
3
288
0
340
11
278
44
341
226
342
226
343
226
344
226
  0
ENDTAB
  0
ENDSEC
  0
SECTION
  2
BLOCKS
  0
BLOCK
  5
20
100
AcDbEntity
  8
0
100
AcDbBlockBegin
  2
*Model_Space
 70
0
 10
0.0
 20
0.0
 30
0.0
  3
*Model_Space
  1

  0
ENDBLK
  5
21
100
AcDbEntity
  8
0
100
AcDbBlockEnd
  0
BLOCK
  5
1C
100
AcDbEntity
  8
0
100
AcDbBlockBegin
  2
*Paper_Space
 70
0
 10
0.0
 20
0.0
 30
0.0
  3
*Paper_Space
  1

  0
ENDBLK
  5
1D
100
AcDbEntity
  8
0
100
AcDbBlockEnd
  0
BLOCK
  5
228
100
AcDbEntity
  8
0
100
AcDbBlockBegin
  2
_FILLED
 70
64
 10
0.0
 20
0.0
  3
_FILLED
  1

  0
SOLID
  5
229
100
AcDbEntity
  8
0
  6
BYBLOCK
 62
0
100
AcDbTrace
 10
0.0
 20
0.0
 11
-1.0
 21
0.3166666667
 12
-1.0
 22
-0.3166666667
 13
-1.0
 23
-0.3166666667
  0
ENDBLK
  5
22A
100
AcDbEntity
  8
0
  6
BYBLOCK
 62
0
100
AcDbBlockEnd
  0
ENDSEC
  0
SECTION
  2
ENTITIES
  0
LWPOLYLINE
  5
22B
100
AcDbEntity
  8
RACCORDO
100
AcDbPolyline
 62
7
  6
CONTINUOUS
 90
6
 70
0
 10
-26.2795688327
 20
24.3471163211
 10
-26.261559756
 20
24.3864642643
 10
-26.236789986
 20
24.4224110122
 10
-26.2061541916
 20
24.4534937725
 10
-26.1710857963
 20
24.4784772961
 10
-26.1627120813
 20
24.4832004183
  0
LWPOLYLINE
  5
22C
100
AcDbEntity
  8
RACCORDO
100
AcDbPolyline
 62
250
  6
CONTINUOUS
 90
4
 70
0
 10
-26.1342642374
 20
24.404275234
 10
-26.159038159
 20
24.3701568244
 10
-26.1803967451
 20
24.332858124
 10
-26.1977053317
 20
24.2934874524
  0
LINE
  5
22D
100
AcDbEntity
  8
RACCORDO
100
AcDbLine
 62
250
  6
CONTINUOUS
 10
-26.10681113
 20
24.4341995342
 11
-26.1342642374
 21
24.404275234
  0
LWPOLYLINE
  5
22E
100
AcDbEntity
  8
RACCORDO
100
AcDbPolyline
 62
250
  6
CONTINUOUS
 90
3
 70
0
 10
-26.0471857726
 20
24.478060089
 10
-26.0774945978
 20
24.4590405335
 10
-26.10681113
 20
24.4341995342
  0
LINE
  5
22F
100
AcDbEntity
  8
RACCORDO
100
AcDbLine
 62
250
  6
CONTINUOUS
 10
-22.4822411571
 20
27.6974231634
 11
-22.4331242041
 21
27.7269673236
  0
LWPOLYLINE
  5
230
100
AcDbEntity
  8
RACCORDO
100
AcDbPolyline
 62
7
  6
CONTINUOUS
 90
10
 70
0
 10
-22.5486413093
 20
27.7320613229
 10
-22.5951350363
 20
27.7051895929
 10
-22.6632198468
 20
27.6580918385
 10
-22.7219093164
 20
27.607175276
 10
-22.7715828852
 20
27.5525558974
 10
-22.8125759874
 20
27.4939424524
 10
-22.8444465684
 20
27.4315678765
 10
-22.8665458016
 20
27.3662174852
 10
-22.8784149762
 20
27.2988817443
 10
-22.8804901032
 20
27.2552414792
  0
LINE
  5
231
100
AcDbEntity
  8
RACCORDO
100
AcDbLine
 62
7
  6
CONTINUOUS
 10
-22.5487449796
 20
27.7320567552
 11
-21.1215476848
 21
28.5020624381
  0
LINE
  5
232
100
AcDbEntity
  8
RACCORDO
100
AcDbLine
 62
250
  6
CONTINUOUS
 10
-22.4331242041
 20
27.7269673236
 11
-21.0071140944
 21
28.4963324929
  0
LINE
  5
233
100
AcDbEntity
  8
RACCORDO
100
AcDbLine
 62
250
  6
CONTINUOUS
 10
-28.7626009074
 20
18.3152682979
 11
-28.7463200887
 21
18.4191284911
  0
LWPOLYLINE
  5
234
100
AcDbEntity
  8
RACCORDO
100
AcDbPolyline
 62
250
  6
CONTINUOUS
 90
9
 70
0
 10
-28.7463200887
 20
18.4191284911
 10
-28.7214369575
 20
18.5246444226
 10
-28.6882333385
 20
18.6305107877
 10
-28.6471047293
 20
18.7353410888
 10
-28.5985785391
 20
18.8376904318
 10
-28.543250639
 20
18.9362921719
 10
-28.4818493461
 20
19.0298250501
 10
-28.4152936505
 20
19.1168751725
 10
-28.344519686
 20
19.1963056138
  0
LWPOLYLINE
  5
235
100
AcDbEntity
  8
RACCORDO
100
AcDbPolyline
 62
250
  6
CONTINUOUS
 90
3
 70
0
 10
-26.1977053317
 20
24.2934874524
 10
-26.2104495993
 20
24.2532146974
 10
-26.2182508558
 20
24.213236552
  0
LWPOLYLINE
  5
236
100
AcDbEntity
  8
RACCORDO
100
AcDbPolyline
 62
250
  6
CONTINUOUS
 90
5
 70
0
 10
-22.6111951664
 20
27.5620213187
 10
-22.5890367205
 20
27.5985323769
 10
-22.5600798804
 20
27.6333977313
 10
-22.5245597159
 20
27.6662332993
 10
-22.4822411571
 20
27.6974231634
  0
LINE
  5
237
100
AcDbEntity
  8
RACCORDO
100
AcDbLine
 62
250
  6
CONTINUOUS
 10
-28.344519686
 20
19.1963056138
 11
-28.2704248635
 21
19.2672250108
  0
LINE
  5
238
100
AcDbEntity
  8
RACCORDO
100
AcDbLine
 62
250
  6
CONTINUOUS
 10
-28.2704248635
 20
19.2672250108
 11
-28.1939798536
 21
19.3287850293
  0
LWPOLYLINE
  5
239
100
AcDbEntity
  8
RACCORDO
100
AcDbPolyline
 62
7
  6
CONTINUOUS
 90
8
 70
0
 10
-20.2952621933
 20
24.9110345236
 10
-20.3438277811
 20
24.8719954784
 10
-20.3852108898
 20
24.8297589046
 10
-20.4197314065
 20
24.7840692379
 10
-20.4470391411
 20
24.7350544775
 10
-20.4664953064
 20
24.683306186
 10
-20.4775964491
 20
24.629656005
 10
-20.4802645867
 20
24.5865693579
  0
LWPOLYLINE
  5
23A
100
AcDbEntity
  8
RACCORDO
100
AcDbPolyline
 62
7
  6
CONTINUOUS
 90
11
 70
0
 10
-28.3114143057
 20
19.3322431076
 10
-28.3734139538
 20
19.2828598799
 10
-28.4538627439
 20
19.2067245318
 10
-28.5289577637
 20
19.1213896581
 10
-28.5979851316
 20
19.027909829
 10
-28.659897651
 20
18.9277957411
 10
-28.7140712493
 20
18.8222938451
 10
-28.7597603598
 20
18.7126676089
 10
-28.7960673286
 20
18.600845238
 10
-28.8225020449
 20
18.4882391661
 10
-28.8385738916
 20
18.3758072803
  0
LINE
  5
23B
100
AcDbEntity
  8
RACCORDO
100
AcDbLine
 62
7
  6
CONTINUOUS
 10
-28.3116759067
 20
19.3321115912
 11
-25.9953322665
 21
21.0405475363
  0
LINE
  5
23C
100
AcDbEntity
  8
RACCORDO
100
AcDbLine
 62
250
  6
CONTINUOUS
 10
-28.1939798536
 20
19.3287850293
 11
-25.8709453646
 21
21.0421558581
  0
LINE
  5
23D
100
AcDbEntity
  8
RACCORDO
100
AcDbLine
 62
250
  6
CONTINUOUS
 10
-20.1779307614
 20
24.9224619813
 11
-20.1322341959
 21
24.9508655969
  0
LWPOLYLINE
  5
23E
100
AcDbEntity
  8
RACCORDO
100
AcDbPolyline
 62
250
  6
CONTINUOUS
 90
6
 70
0
 10
-28.3114431262
 20
19.332282533
 10
-28.302175558
 20
19.3380042161
 10
-28.2795968404
 20
19.3454165498
 10
-28.2534975658
 20
19.346336468
 10
-28.2246676995
 20
19.340736125
 10
-28.1939798536
 20
19.3287850293
  0
LWPOLYLINE
  5
23F
100
AcDbEntity
  8
RACCORDO
100
AcDbPolyline
 62
7
  6
CONTINUOUS
 90
3
 70
0
 10
-20.2245557618
 20
24.9549646076
 10
-20.2392862527
 20
24.9467950795
 10
-20.2952621933
 20
24.9110345236
  0
LINE
  5
240
100
AcDbEntity
  8
RACCORDO
100
AcDbLine
 62
7
  6
CONTINUOUS
 10
-22.8805202707
 20
26.2540182685
 11
-26.162806549
 21
24.4831495202
  0
LINE
  5
241
100
AcDbEntity
  8
RACCORDO
100
AcDbLine
 62
250
  6
CONTINUOUS
 10
-22.8800433371
 20
26.1868060926
 11
-26.0471857726
 21
24.478060089
  0
LINE
  5
242
100
AcDbEntity
  8
RACCORDO
100
AcDbLine
 62
7
  6
CONTINUOUS
 10
-20.2247308169
 20
24.9549371418
 11
-17.973366715
 21
26.1695997249
  0
LINE
  5
243
100
AcDbEntity
  8
RACCORDO
100
AcDbLine
 62
7
  6
CONTINUOUS
 10
-16.2230606769
 20
27.1139299875
 11
-13.709452282
 21
28.4700793829
  0
LINE
  5
244
100
AcDbEntity
  8
RACCORDO
100
AcDbLine
 62
250
  6
CONTINUOUS
 10
-20.1322341959
 20
24.9508655969
 11
-17.9867146134
 21
26.1084226335
  0
LINE
  5
245
100
AcDbEntity
  8
RACCORDO
100
AcDbLine
 62
250
  6
CONTINUOUS
 10
-16.0996784918
 20
27.1265219129
 11
-13.6178428462
 21
28.4655291812
  0
LINE
  5
246
100
AcDbEntity
  8
RACCORDO
100
AcDbLine
 62
250
  6
CONTINUOUS
 10
-19.9464000748
 20
27.965975483
 11
-21.4230767711
 21
27.2219436071
  0
LINE
  5
247
100
AcDbEntity
  8
RACCORDO
100
AcDbLine
 62
250
  6
CONTINUOUS
 10
-19.7696503034
 20
27.6611272214
 11
-21.2463269997
 21
26.9170953455
  0
LINE
  5
248
100
AcDbEntity
  8
RACCORDO
100
AcDbLine
 62
7
  6
CONTINUOUS
 10
-19.7696503034
 20
26.5785624917
 11
-21.2463269997
 21
25.8345306158
  0
LINE
  5
249
100
AcDbEntity
  8
RACCORDO
100
AcDbLine
 62
7
  6
CONTINUOUS
 10
-13.7093415972
 20
28.470138677
 11
-13.7051764671
 21
28.472221593
  0
LINE
  5
24A
100
AcDbEntity
  8
0
100
AcDbLine
 62
7
  6
CONTINUOUS
 10
-17.5069086036
 20
26.807028284
 11
-17.143340471
 21
26.9888123503
  0
LINE
  5
24B
100
AcDbEntity
  8
DRAFT
100
AcDbLine
 62
7
  6
CONTINUOUS
 10
-14.4663494445
 20
28.3324742584
 11
-18.921122166
 21
26.154298423
  0
LWPOLYLINE
  5
24C
100
AcDbEntity
  8
0
100
AcDbPolyline
 62
7
  6
CONTINUOUS
 90
10
 70
0
 10
-17.143340471
 20
26.9888123503
 10
-17.1260311697
 20
26.9970939666
 10
-17.1087848532
 20
27.0046101501
 10
-17.0916015214
 20
27.0113609007
 10
-17.0744604094
 20
27.0173525729
 10
-17.0573822822
 20
27.0225788124
 10
-17.0404294345
 20
27.0270205555
 10
-17.023622631
 20
27.0306714481
 10
-17.006941107
 20
27.0335378444
 10
-16.9903848625
 20
27.0356197444
  0
LINE
  5
24D
100
AcDbEntity
  8
RACCORDO
100
AcDbLine
 62
7
  6
CONTINUOUS
 10
-14.0014991728
 20
29.3273264334
 11
-19.7696503034
 21
26.5785624917
  0
LINE
  5
24E
100
AcDbEntity
  8
RACCORDO
100
AcDbLine
 62
7
  6
CONTINUOUS
 10
-13.7050854386
 20
28.4722636329
 11
-12.11258886
 21
29.2077313264
  0
LINE
  5
24F
100
AcDbEntity
  8
RACCORDO
100
AcDbLine
 62
250
  6
CONTINUOUS
 10
-13.6178428462
 20
28.4655291812
 11
-12.0262649331
 21
29.2005726046
  0
LWPOLYLINE
  5
250
100
AcDbEntity
  8
RACCORDO
100
AcDbPolyline
 62
250
  6
CONTINUOUS
 90
26
 70
0
 10
-21.4230767711
 20
27.2219436071
 10
-21.4798554224
 20
27.1962650739
 10
-21.5400135806
 20
27.1740176703
 10
-21.6035512455
 20
27.1552013965
 10
-21.6712131119
 20
27.1396855109
 10
-21.742254485
 20
27.1276007549
 10
-21.8144412808
 20
27.1193393532
 10
-21.887826735
 20
27.1150241779
 10
-21.9623576119
 20
27.1145323569
 10
-22.0356401195
 20
27.1178874974
 10
-22.1076109541
 20
27.1252120224
 10
-22.1783334194
 20
27.136383509
 10
-22.2456036347
 20
27.1510582955
 10
-22.3093357129
 20
27.1693545369
 10
-22.3696155412
 20
27.1911540783
 10
-22.4244968997
 20
27.2157587932
 10
-22.4737916803
 20
27.2432583694
 10
-22.5176879912
 20
27.2735631191
 10
-22.554803938
 20
27.3057058527
 10
-22.5849195625
 20
27.3397422749
 10
-22.608254823
 20
27.3756166811
 10
-22.6240876998
 20
27.4121947674
 10
-22.6321779264
 20
27.4494974783
 10
-22.6327657694
 20
27.4875038693
 10
-22.6258500083
 20
27.5250168038
 10
-22.6111951664
 20
27.5620213187
  0
LWPOLYLINE
  5
251
100
AcDbEntity
  8
RACCORDO
100
AcDbPolyline
 62
250
  6
CONTINUOUS
 90
24
 70
0
 10
-21.2463269997
 20
26.9170953455
 10
-21.3215842835
 20
26.8832115818
 10
-21.4032181884
 20
26.8534241815
 10
-21.4903571179
 20
26.8280420961
 10
-21.5820663627
 20
26.8073178994
 10
-21.6773683919
 20
26.7914739441
 10
-21.7752544777
 20
26.7807018925
 10
-21.874701875
 20
26.7751125088
 10
-21.9746197453
 20
26.7747616098
 10
-22.0738719458
 20
26.7796686245
 10
-22.1713579214
 20
26.7897656603
 10
-22.2660743747
 20
26.8049301211
 10
-22.3570568405
 20
26.8250158596
 10
-22.4433482826
 20
26.8498147252
 10
-22.5240016074
 20
26.8790522779
 10
-22.5981393867
 20
26.9124150155
 10
-22.6649637454
 20
26.9495456292
 10
-22.7237645347
 20
26.9900449714
 10
-22.7739144965
 20
27.0334770475
 10
-22.814876565
 20
27.0793837302
 10
-22.8462109412
 20
27.127273521
 10
-22.8675816958
 20
27.1766230553
 10
-22.878759481
 20
27.2269133145
 10
-22.8805180386
 20
27.2554341683
  0
LINE
  5
252
100
AcDbEntity
  8
RACCORDO
100
AcDbLine
 62
7
  6
CONTINUOUS
 10
-12.0608946574
 20
29.2286487902
 11
-12.112396834
 21
29.207776356
  0
LWPOLYLINE
  5
253
100
AcDbEntity
  8
RACCORDO
100
AcDbPolyline
 62
250
  6
CONTINUOUS
 90
3
 70
0
 10
-12.0262649331
 20
29.2005726046
 10
-11.9744715231
 20
29.2214750785
 10
-11.923355368
 20
29.2356083988
  0
LWPOLYLINE
  5
254
100
AcDbEntity
  8
RACCORDO
100
AcDbPolyline
 62
250
  6
CONTINUOUS
 90
5
 70
0
 10
-22.5486628385
 20
27.7321010198
 10
-22.5226122186
 20
27.7415587573
 10
-22.4944336326
 20
27.743680873
 10
-22.464299206
 20
27.7387673157
 10
-22.4331242041
 20
27.7269673236
  0
LWPOLYLINE
  5
255
100
AcDbEntity
  8
RACCORDO
100
AcDbPolyline
 62
7
  6
CONTINUOUS
 90
5
 70
0
 10
-13.7051764671
 20
28.472221593
 10
-13.6885475518
 20
28.477680675
 10
-13.6662166131
 20
28.4792650629
 10
-13.6424104713
 20
28.4751718189
 10
-13.6178428462
 20
28.4655291812
  0
LWPOLYLINE
  5
256
100
AcDbEntity
  8
RACCORDO
100
AcDbPolyline
 62
250
  6
CONTINUOUS
 90
5
 70
0
 10
-12.1124131904
 20
29.20781218
 10
-12.0960549896
 20
29.213147545
 10
-12.0739271107
 20
29.2146386533
 10
-12.0504258049
 20
29.2104042694
 10
-12.0262649191
 20
29.200572611
  0
LWPOLYLINE
  5
257
100
AcDbEntity
  8
RACCORDO
100
AcDbPolyline
 62
250
  6
CONTINUOUS
 90
6
 70
0
 10
-28.8433374631
 20
-10.7347603162
 10
-28.8422362088
 20
-10.7450125422
 10
-28.8344509797
 20
-10.767057233
 10
-28.8195048624
 20
-10.7879031405
 10
-28.7978419835
 20
-10.8069308239
 10
-28.7701060592
 20
-10.8235748718
  0
LINE
  5
258
100
AcDbEntity
  8
RACCORDO
100
AcDbLine
 62
250
  6
CONTINUOUS
 10
-28.7626009075
 20
-10.9167530032
 11
-28.770106169
 21
-10.823574932
  0
LWPOLYLINE
  5
259
100
AcDbEntity
  8
RACCORDO
100
AcDbPolyline
 62
7
  6
CONTINUOUS
 90
3
 70
0
 10
-28.8432913583
 20
-10.7345797885
 10
-28.8390647645
 20
-10.7997254713
 10
-28.8248287916
 20
-10.8935851643
  0
LWPOLYLINE
  5
25A
100
AcDbEntity
  8
RACCORDO
100
AcDbPolyline
 62
250
  6
CONTINUOUS
 90
10
 70
0
 10
-28.770106169
 20
-10.823574932
 10
-28.8608951356
 20
-7.6453003879
 10
-28.9289930753
 20
-4.4544090916
 10
-28.9743946609
 20
-1.2511464155
 10
-28.9970963409
 20
1.9642412928
 10
-28.997096341
 20
5.1915068478
 10
-28.974394661
 20
8.430402246
 10
-28.9289930754
 20
11.6806785272
 10
-28.8608951357
 20
14.9420857926
 10
-28.770106169
 20
18.2143733425
  0
LWPOLYLINE
  5
25B
100
AcDbEntity
  8
RACCORDO
100
AcDbPolyline
 62
7
  6
CONTINUOUS
 90
10
 70
0
 10
-28.8433456905
 20
18.3019385788
 10
-28.9316958331
 20
15.1294125804
 10
-29.0010091628
 20
11.8378386337
 10
-29.0472084243
 20
8.5575763018
 10
-29.0702880225
 20
5.2889137646
 10
-29.0702469475
 20
2.032091592
 10
-29.0470849592
 20
-1.2126644212
 10
-29.000802548
 20
-4.4451148385
 10
-28.931404782
 20
-7.6649774491
 10
-28.8433374631
 20
-10.7347603162
  0
LINE
  5
25C
100
AcDbEntity
  8
RACCORDO
100
AcDbLine
 62
7
  6
CONTINUOUS
 10
-28.8385738916
 20
18.3758072803
 11
-28.8432977911
 21
18.3018723528
  0
LINE
  5
25D
100
AcDbEntity
  8
RACCORDO
100
AcDbLine
 62
250
  6
CONTINUOUS
 10
-28.770106169
 20
18.2143733425
 11
-28.7626009074
 21
18.3152682979
  0
LWPOLYLINE
  5
25E
100
AcDbEntity
  8
RACCORDO
100
AcDbPolyline
 62
7
  6
CONTINUOUS
 90
3
 70
0
 10
-26.2941005939
 20
24.2631293024
 10
-26.290476569
 20
24.3055259494
 10
-26.2795688327
 20
24.3471163211
  0
LINE
  5
25F
100
AcDbEntity
  8
RACCORDO
100
AcDbLine
 62
7
  6
CONTINUOUS
 10
-16.7290911443
 20
23.4693916283
 11
-16.3270711935
 21
23.682695215
  0
LINE
  5
260
100
AcDbEntity
  8
RACCORDO
100
AcDbLine
 62
7
  6
CONTINUOUS
 10
-13.1133066352
 20
25.3878531444
 11
-12.3921388887
 21
25.7704900424
  0
LINE
  5
261
100
AcDbEntity
  8
RACCORDO
100
AcDbLine
 62
250
  6
CONTINUOUS
 10
-12.6278502743
 20
27.9705328952
 11
-13.8465907438
 21
27.3564636409
  0
LINE
  5
262
100
AcDbEntity
  8
RACCORDO
100
AcDbLine
 62
250
  6
CONTINUOUS
 10
-17.5728182046
 20
25.4789829339
 11
-19.3736999927
 21
24.5715984953
  0
LINE
  5
263
100
AcDbEntity
  8
RACCORDO
100
AcDbLine
 62
250
  6
CONTINUOUS
 10
-12.4864504572
 20
27.7266542859
 11
-13.062309509
 21
27.4365044571
  0
LINE
  5
264
100
AcDbEntity
  8
RACCORDO
100
AcDbLine
 62
250
  6
CONTINUOUS
 10
-17.2589048362
 20
25.3220262497
 11
-19.2323001756
 21
24.327719886
  0
LINE
  5
265
100
AcDbEntity
  8
RACCORDO
100
AcDbLine
 62
7
  6
CONTINUOUS
 10
-14.6020948667
 20
26.2765454053
 11
-14.9211934835
 21
26.1157657688
  0
LINE
  5
266
100
AcDbEntity
  8
RACCORDO
100
AcDbLine
 62
7
  6
CONTINUOUS
 10
-16.8762506901
 20
25.1306991767
 11
-19.2323001756
 21
23.9435903648
  0
LINE
  5
267
100
AcDbEntity
  8
DRAFT
100
AcDbLine
 62
7
  6
CONTINUOUS
 10
-10.7652876229
 20
27.1846211673
 11
-10.9125065237
 21
27.1128610199
  0
LINE
  5
268
100
AcDbEntity
  8
RACCORDO
100
AcDbLine
 62
7
  6
CONTINUOUS
 10
-10.9193476166
 20
28.6471139463
 11
-12.3268393726
 21
27.9653970422
  0
LINE
  5
269
100
AcDbEntity
  8
RACCORDO
100
AcDbLine
 62
7
  6
CONTINUOUS
 10
-9.7340394165
 20
27.5668007184
 11
-1.2998022512
 21
31.5506246171
  0
LINE
  5
26A
100
AcDbEntity
  8
RACCORDO
100
AcDbLine
 62
250
  6
CONTINUOUS
 10
-9.487440879
 20
27.4435014497
 11
-0.8665386005
 21
31.5154946665
  0
LWPOLYLINE
  5
26B
100
AcDbEntity
  8
RACCORDO
100
AcDbPolyline
 62
250
  6
CONTINUOUS
 90
15
 70
0
 10
-19.2323001756
 20
24.327719886
 10
-19.3049970334
 20
24.2958317511
 10
-19.3850385027
 20
24.2689503964
 10
-19.4710829373
 20
24.2475078432
 10
-19.5616875436
 20
24.2318317542
 10
-19.6553357927
 20
24.2221817656
 10
-19.7504631252
 20
24.2187461378
 10
-19.8454806643
 20
24.2215736701
 10
-19.9387948072
 20
24.2306006293
 10
-20.0288378429
 20
24.2456928539
 10
-20.1140984746
 20
24.2665928896
 10
-20.1931587321
 20
24.2929386348
 10
-20.2647081025
 20
24.3242991626
 10
-20.3275523879
 20
24.3601581759
 10
-20.3806347209
 20
24.3999091733
  0
LWPOLYLINE
  5
26C
100
AcDbEntity
  8
RACCORDO
100
AcDbPolyline
 62
250
  6
CONTINUOUS
 90
19
 70
0
 10
-19.3736999927
 20
24.5715984953
 10
-19.4284520992
 20
24.547651569
 10
-19.4864736312
 20
24.5278906811
 10
-19.5477645889
 20
24.5123158317
 10
-19.6134428373
 20
24.500812038
 10
-19.6823905112
 20
24.4934942827
 10
-19.7512540155
 20
24.4907075141
 10
-19.8200343094
 20
24.4926722553
 10
-19.8887304336
 20
24.4991679832
 10
-19.9539859153
 20
24.5098780757
 10
-20.0156257294
 20
24.5250117687
 10
-20.073824901
 20
24.5443598263
 10
-20.1257520328
 20
24.5669779194
 10
-20.1711007236
 20
24.5930282265
 10
-20.2101773746
 20
24.622348569
 10
-20.2410697921
 20
24.6535080827
 10
-20.2633681315
 20
24.6865980315
 10
-20.2774822372
 20
24.7215271515
 10
-20.2827294494
 20
24.7565907866
  0
LWPOLYLINE
  5
26D
100
AcDbEntity
  8
RACCORDO
100
AcDbPolyline
 62
250
  6
CONTINUOUS
 90
8
 70
0
 10
-1.2998022512
 20
31.5506246171
 10
-1.2759931235
 20
31.5608598551
 10
-1.2146642646
 20
31.5788353533
 10
-1.1495896001
 20
31.5865970594
 10
-1.0814819637
 20
31.5840599509
 10
-1.0110874122
 20
31.5712518195
 10
-0.9391770537
 20
31.5483129667
 10
-0.8665386005
 20
31.5154946665
  0
LWPOLYLINE
  5
26E
100
AcDbEntity
  8
RACCORDO
100
AcDbPolyline
 62
7
  6
CONTINUOUS
 90
7
 70
0
 10
-1.2998022512
 20
31.5506246171
 10
-1.2107125884
 20
31.58756093
 10
-1.1171594609
 20
31.6160782009
 10
-1.0201162867
 20
31.6354928486
 10
-0.9204602431
 20
31.6452761657
 10
-0.8196250335
 20
31.6450069623
 10
-0.7193729526
 20
31.6345910145
  0
LWPOLYLINE
  5
26F
100
AcDbEntity
  8
RACCORDO
100
AcDbPolyline
 62
250
  6
CONTINUOUS
 90
5
 70
0
 10
-20.2245837623
 20
24.9550162712
 10
-20.2038246043
 20
24.9625387444
 10
-20.1812817359
 20
24.9642364362
 10
-20.1571741958
 20
24.96030559
 10
-20.1322341959
 20
24.9508655969
  0
LINE
  5
270
100
AcDbEntity
  8
RACCORDO
100
AcDbLine
 62
7
  6
CONTINUOUS
 10
6.5080646819
 20
-28.6623551119
 11
8.91004104
 21
-28.0123955089
  0
LINE
  5
271
100
AcDbEntity
  8
RACCORDO
100
AcDbLine
 62
250
  6
CONTINUOUS
 10
6.6164293098
 20
-28.5109514014
 11
8.9939082056
 21
-27.8676206566
  0
LWPOLYLINE
  5
272
100
AcDbEntity
  8
RACCORDO
100
AcDbPolyline
 62
250
  6
CONTINUOUS
 90
4
 70
0
 10
8.5716933228
 20
-31.5170437837
 10
8.5409551856
 20
-31.5117737836
 10
8.5118511538
 20
-31.5045569855
 10
8.4848699683
 20
-31.4955162501
  0
LWPOLYLINE
  5
273
100
AcDbEntity
  8
RACCORDO
100
AcDbPolyline
 62
7
  6
CONTINUOUS
 90
3
 70
0
 10
-26.2362655078
 20
-14.215659613
 10
-26.2053649646
 20
-14.2467790364
 10
-26.1699644996
 20
-14.2717507974
  0
LWPOLYLINE
  5
274
100
AcDbEntity
  8
RACCORDO
100
AcDbPolyline
 62
250
  6
CONTINUOUS
 90
4
 70
0
 10
-26.1977053317
 20
-14.2397084138
 10
-26.1803967451
 20
-14.2617704988
 10
-26.159038159
 20
-14.2777106131
 10
-26.1559039928
 20
-14.2793523238
  0
LWPOLYLINE
  5
275
100
AcDbEntity
  8
RACCORDO
100
AcDbPolyline
 62
7
  6
CONTINUOUS
 90
7
 70
0
 10
-28.8010515078
 20
-10.9820124584
 10
-28.76780254
 20
-11.0642596918
 10
-28.7253270927
 20
-11.1392602526
 10
-28.6737963104
 20
-11.2061670351
 10
-28.6138526947
 20
-11.2638434825
 10
-28.5471979238
 20
-11.3107839302
 10
-28.5115868621
 20
-11.3301253253
  0
LINE
  5
276
100
AcDbEntity
  8
RACCORDO
100
AcDbLine
 62
7
  6
CONTINUOUS
 10
-28.8248287916
 20
-10.8935851643
 11
-28.8010515078
 21
-10.9820124584
  0
LWPOLYLINE
  5
277
100
AcDbEntity
  8
RACCORDO
100
AcDbPolyline
 62
7
  6
CONTINUOUS
 90
5
 70
0
 10
-26.2941005939
 20
-14.0557455261
 10
-26.2904488528
 20
-14.0983022947
 10
-26.2794448096
 20
-14.14007923
 10
-26.2612617333
 20
-14.1796044762
 10
-26.2362655078
 20
-14.215659613
  0
LWPOLYLINE
  5
278
100
AcDbEntity
  8
RACCORDO
100
AcDbPolyline
 62
250
  6
CONTINUOUS
 90
6
 70
0
 10
-28.8432977911
 20
18.3018723528
 10
-28.8421820533
 20
18.2888451101
 10
-28.8343926983
 20
18.2685191167
 10
-28.8194451389
 20
18.2489551831
 10
-28.7977834061
 20
18.230734474
 10
-28.7700509816
 20
18.214398253
  0
LWPOLYLINE
  5
279
100
AcDbEntity
  8
RACCORDO
100
AcDbPolyline
 62
250
  6
CONTINUOUS
 90
4
 70
0
 10
-26.2208772892
 20
-14.1441338737
 10
-26.2182508558
 20
-14.1800030375
 10
-26.2104495993
 20
-14.2121799264
 10
-26.1977053317
 20
-14.2397084138
  0
LINE
  5
27A
100
AcDbEntity
  8
RACCORDO
100
AcDbLine
 62
7
  6
CONTINUOUS
 10
-26.2941005939
 20
24.2631293024
 11
-26.2941005939
 21
21.3976970693
  0
LINE
  5
27B
100
AcDbEntity
  8
RACCORDO
100
AcDbLine
 62
7
  6
CONTINUOUS
 10
-26.2941005939
 20
-14.0557455261
 11
-26.2941005939
 21
-12.4388930077
  0
LINE
  5
27C
100
AcDbEntity
  8
DRAFT
100
AcDbLine
 62
250
  6
CONTINUOUS
 10
-26.2208772892
 20
24.1747409548
 11
-26.2208772892
 21
21.3117022684
  0
LINE
  5
27D
100
AcDbEntity
  8
DRAFT
100
AcDbLine
 62
250
  6
CONTINUOUS
 10
-26.2208772892
 20
-14.1441338737
 11
-26.2208772892
 21
-12.47550466
  0
LINE
  5
27E
100
AcDbEntity
  8
DRAFT
100
AcDbLine
 62
7
  6
CONTINUOUS
 10
-26.0472131707
 20
21.0022824015
 11
-26.0472131707
 21
21.2248702092
  0
LWPOLYLINE
  5
27F
100
AcDbEntity
  8
RACCORDO
100
AcDbPolyline
 62
250
  6
CONTINUOUS
 90
22
 70
0
 10
-26.0685052984
 20
2.1106904204
 10
-26.050134717
 20
2.9733191745
 10
-25.9951471892
 20
3.8143747021
 10
-25.9035711077
 20
4.633838135
 10
-25.7750130967
 20
5.4341133261
 10
-25.609912973
 20
6.2127642131
 10
-25.4095931709
 20
6.9624907414
 10
-25.1738668126
 20
7.6825272477
 10
-24.9030648078
 20
8.3735612618
 10
-24.5993620176
 20
9.0304364804
 10
-24.2627362757
 20
9.6527199806
 10
-23.8934081237
 20
10.2407433065
 10
-23.4939716525
 20
10.790471404
 10
-23.064243636
 20
11.3017354395
 10
-22.6046375686
 20
11.7745910821
 10
-22.1186866097
 20
12.2053202985
 10
-21.6059336415
 20
12.5936048312
 10
-21.0670854117
 20
12.9396440737
 10
-20.5074575007
 20
13.2404803965
 10
-19.9289147384
 20
13.4950848677
 10
-19.3298475947
 20
13.7043679741
 10
-18.7103694358
 20
13.8682776041
  0
LWPOLYLINE
  5
280
100
AcDbEntity
  8
RACCORDO
100
AcDbPolyline
 62
250
  6
CONTINUOUS
 90
20
 70
0
 10
-25.3739527278
 20
2.1046286903
 10
-25.3560086337
 20
2.9420481855
 10
-25.3022962082
 20
3.7623965675
 10
-25.2127870605
 20
4.5635759999
 10
-25.0873907016
 20
5.3439656271
 10
-24.9263613753
 20
6.101070491
 10
-24.7304776382
 20
6.8316679039
 10
-24.5002875325
 20
7.5336525728
 10
-24.2363037587
 20
8.2056604607
 10
-23.939545161
 20
8.8458286606
 10
-23.6107876842
 20
9.4524861225
 10
-23.2507904737
 20
10.0243264503
 10
-22.8606141135
 20
10.5601087764
 10
-22.4410126114
 20
11.0586268721
 10
-21.9930678196
 20
11.5184697702
 10
-21.5183972751
 20
11.9381833285
 10
-21.017855836
 20
12.3169081431
 10
-20.492854608
 20
12.6534853717
 10
-19.9460708215
 20
12.9464009178
 10
-19.7092905721
 20
13.0567123276
  0
LINE
  5
281
100
AcDbEntity
  8
RACCORDO
100
AcDbLine
 62
250
  6
CONTINUOUS
 10
-26.2182508558
 20
24.213236552
 11
-26.2208772892
 21
24.1747409548
  0
LWPOLYLINE
  5
282
100
AcDbEntity
  8
0
100
AcDbPolyline
 62
7
  6
CONTINUOUS
 90
5
 70
0
 10
-9.3304658641
 20
27.3151007064
 10
-9.3134856979
 20
27.327077284
 10
-9.3006130116
 20
27.3358209727
 10
-9.2920989851
 20
27.3413388625
 10
-9.2883236684
 20
27.3437342023
  0
LWPOLYLINE
  5
283
100
AcDbEntity
  8
RACCORDO
100
AcDbPolyline
 62
250
  6
CONTINUOUS
 90
19
 70
0
 10
-3.3866531122
 20
27.2369048157
 10
-3.5050805979
 20
27.1719772111
 10
-3.6100906782
 20
27.1035455774
 10
-3.7016833532
 20
27.0316099147
 10
-3.7802053501
 20
26.9555891277
 10
-3.8453099416
 20
26.8760643116
 10
-3.8959569456
 20
26.7947787521
 10
-3.931902701
 20
26.7117413981
 10
-3.9533908689
 20
26.6269433007
 10
-3.9601122497
 20
26.5421008982
 10
-3.9518449246
 20
26.4572105958
 10
-3.9288108125
 20
26.3722759882
 10
-3.8913664704
 20
26.2890242982
 10
-3.8392764145
 20
26.2074548822
 10
-3.7727761286
 20
26.1275683838
 10
-3.6929286211
 20
26.0510939554
 10
-3.6000882279
 20
25.9786079814
 10
-3.4939006129
 20
25.9095340775
 10
-3.3743657763
 20
25.8438722438
  0
LINE
  5
284
100
AcDbEntity
  8
RACCORDO
100
AcDbLine
 62
250
  6
CONTINUOUS
 10
-10.5852886283
 20
23.9478133413
 11
-10.554053655
 21
23.9646653259
  0
LINE
  5
285
100
AcDbEntity
  8
RACCORDO
100
AcDbLine
 62
250
  6
CONTINUOUS
 10
-10.554053655
 20
23.9646653259
 11
-10.5418852665
 21
23.9710537465
  0
LINE
  5
286
100
AcDbEntity
  8
RACCORDO
100
AcDbLine
 62
250
  6
CONTINUOUS
 10
-3.3866531122
 20
27.2369048157
 11
2.1629744077
 21
30.0007381624
  0
LINE
  5
287
100
AcDbEntity
  8
RACCORDO
100
AcDbLine
 62
250
  6
CONTINUOUS
 10
-10.5418852665
 20
23.9710537465
 11
-10.5377129758
 21
23.9730677673
  0
LWPOLYLINE
  5
288
100
AcDbEntity
  8
RACCORDO
100
AcDbPolyline
 62
7
  6
CONTINUOUS
 90
3
 70
0
 10
-10.6213597263
 20
23.9815235204
 10
-10.6265813149
 20
23.979043046
 10
-10.6305656552
 20
23.9771209744
  0
LINE
  5
289
100
AcDbEntity
  8
RACCORDO
100
AcDbLine
 62
250
  6
CONTINUOUS
 10
-10.5377129758
 20
23.9730677673
 11
-10.5335419157
 21
23.9750518805
  0
LINE
  5
28A
100
AcDbEntity
  8
RACCORDO
100
AcDbLine
 62
250
  6
CONTINUOUS
 10
-10.5335419157
 20
23.9750518805
 11
-10.5293722252
 21
23.9770060409
  0
LINE
  5
28B
100
AcDbEntity
  8
RACCORDO
100
AcDbLine
 62
7
  6
CONTINUOUS
 10
-10.6213597263
 20
23.9815235204
 11
-9.8665523746
 21
24.330144185
  0
LINE
  5
28C
100
AcDbEntity
  8
RACCORDO
100
AcDbLine
 62
250
  6
CONTINUOUS
 10
-10.5293722252
 20
23.9770060409
 11
-9.7802284419
 21
24.3229854658
  0
LINE
  5
28D
100
AcDbEntity
  8
RACCORDO
100
AcDbLine
 62
7
  6
CONTINUOUS
 10
-9.8563638559
 20
24.3342840039
 11
-9.8671850866
 21
24.3298351733
  0
LWPOLYLINE
  5
28E
100
AcDbEntity
  8
RACCORDO
100
AcDbPolyline
 62
250
  6
CONTINUOUS
 90
4
 70
0
 10
-9.7802284419
 20
24.3229854658
 10
-9.7561852741
 20
24.332870094
 10
-9.7307816467
 20
24.341325055
 10
-9.7040175595
 20
24.3483503488
  0
LWPOLYLINE
  5
28F
100
AcDbEntity
  8
RACCORDO
100
AcDbPolyline
 62
250
  6
CONTINUOUS
 90
7
 70
0
 10
2.1629744077
 20
30.0007381624
 10
2.2547048146
 20
30.038295665
 10
2.3447786426
 20
30.0605120301
 10
2.4316717564
 20
30.0670113356
 10
2.513913841
 20
30.0576836069
 10
2.5901132815
 20
30.0326866782
 10
2.6038914813
 20
30.0261505642
  0
LWPOLYLINE
  5
290
100
AcDbEntity
  8
RACCORDO
100
AcDbPolyline
 62
250
  6
CONTINUOUS
 90
4
 70
0
 10
-10.6353098434
 20
23.9728239488
 10
-10.6256440743
 20
23.9763384712
 10
-10.603101204
 20
23.9780361657
 10
-10.5789936602
 20
23.9741053205
  0
LWPOLYLINE
  5
291
100
AcDbEntity
  8
ASSI
100
AcDbPolyline
 62
7
  6
CONTINUOUS
 90
20
 70
0
 10
-10.9632578096
 20
24.1367979319
 10
-10.9493442034
 20
24.1415424277
 10
-10.9170134823
 20
24.1508635296
 10
-10.8832006329
 20
24.1590052346
 10
-10.8484676961
 20
24.1658322105
 10
-10.8127992931
 20
24.1713224818
 10
-10.7762108028
 20
24.1754980238
 10
-10.7393104032
 20
24.1782894304
 10
-10.7020928809
 20
24.1796735659
 10
-10.6645634494
 20
24.1796735659
 10
-10.6273459271
 20
24.1782894304
 10
-10.5904455275
 20
24.1754980238
 10
-10.5538570372
 20
24.1713224818
 10
-10.5181886342
 20
24.1658322105
 10
-10.4834556975
 20
24.1590052346
 10
-10.449642848
 20
24.1508635296
 10
-10.4173121269
 20
24.1415424277
 10
-10.3866508811
 20
24.1310870397
 10
-10.3574717637
 20
24.1194522549
 10
-10.3401314734
 20
24.1114296633
  0
LINE
  5
292
100
AcDbEntity
  8
RACCORDO
100
AcDbLine
 62
7
  6
CONTINUOUS
 10
-10.6126016266
 20
23.9832096713
 11
-10.6305664813
 21
23.9771205493
  0
LWPOLYLINE
  5
293
100
AcDbEntity
  8
RACCORDO
100
AcDbPolyline
 62
250
  6
CONTINUOUS
 90
4
 70
0
 10
-10.6156961102
 20
23.9841647821
 10
-10.5991567683
 20
23.9895821227
 10
-10.5770298689
 20
23.9910718309
 10
-10.5535304405
 20
23.9868369284
  0
LINE
  5
294
100
AcDbEntity
  8
RACCORDO
100
AcDbLine
 62
250
  6
CONTINUOUS
 10
8.4848699683
 20
-31.4955162501
 11
8.4604655429
 21
-31.4848052898
  0
LINE
  5
295
100
AcDbEntity
  8
RACCORDO
100
AcDbLine
 62
250
  6
CONTINUOUS
 10
-20.0276011885
 20
-15.8630637183
 11
-20.0795429672
 21
-15.8089808079
  0
LINE
  5
296
100
AcDbEntity
  8
RACCORDO
100
AcDbLine
 62
250
  6
CONTINUOUS
 10
-19.9513197142
 20
-15.943328623
 11
-20.0276011885
 21
-15.8630637183
  0
LWPOLYLINE
  5
297
100
AcDbEntity
  8
RACCORDO
100
AcDbPolyline
 62
7
  6
CONTINUOUS
 90
25
 70
0
 10
-20.0447660887
 20
-16.1890369823
 10
-19.3818954318
 20
-17.0448738387
 10
-18.6974288207
 20
-17.8701653463
 10
-17.9929570642
 20
-18.66285817
 10
-17.2701175168
 20
-19.4209590616
 10
-16.5305919978
 20
-20.1425391664
 10
-15.7760738568
 20
-20.8257652702
 10
-15.0081466371
 20
-21.4689899477
 10
-14.2287101164
 20
-22.0703914521
 10
-13.4399308001
 20
-22.6281018852
 10
-12.643397609
 20
-23.1407991751
 10
-11.8411240637
 20
-23.6069675223
 10
-11.0358932353
 20
-24.0248575095
 10
-10.2293344328
 20
-24.3935400761
 10
-9.423454052
 20
-24.7119906902
 10
-8.6215447071
 20
-24.9789329384
 10
-7.825319824
 20
-25.1939300699
 10
-7.0366384884
 20
-25.3565932557
 10
-6.2589323966
 20
-25.466478564
 10
-5.4943420751
 20
-25.5237388856
 10
-4.7441677813
 20
-25.5287265715
 10
-4.0105563113
 20
-25.4818800954
 10
-3.2953709155
 20
-25.3838418964
 10
-2.6001529936
 20
-25.2353651599
 10
-1.9265517312
 20
-25.0373490621
  0
LWPOLYLINE
  5
298
100
AcDbEntity
  8
RACCORDO
100
AcDbPolyline
 62
250
  6
CONTINUOUS
 90
25
 70
0
 10
-19.9513197142
 20
-15.943328623
 10
-19.2996867787
 20
-16.7849454265
 10
-18.6281796717
 20
-17.5935087844
 10
-17.9367983932
 20
-18.3690186966
 10
-17.2234137721
 20
-19.1140266257
 10
-16.4901549795
 20
-19.825981109
 10
-15.7434095291
 20
-20.4972277591
 10
-14.9829825337
 20
-21.1272791986
 10
-14.2090688805
 20
-21.7166228048
 10
-13.4286407439
 20
-22.2590663222
 10
-12.6408474316
 20
-22.7542568933
 10
-11.8465396361
 20
-23.2025473756
 10
-11.0552416092
 20
-23.5988040867
 10
-10.2656301308
 20
-23.9418952927
 10
-9.4790284211
 20
-24.2329527275
 10
-8.7089303931
 20
-24.4702379102
 10
-7.9559340028
 20
-24.6512982532
 10
-7.2194412942
 20
-24.7785863441
 10
-6.5111523123
 20
-24.8577214645
 10
-5.8321901252
 20
-24.8864880803
 10
-5.1814316647
 20
-24.8671017256
 10
-4.5672077714
 20
-24.8118282831
 10
-3.9922953921
 20
-24.7247563806
 10
-3.4539175799
 20
-24.6017973905
 10
-2.9520743349
 20
-24.4429513126
  0
LINE
  5
299
100
AcDbEntity
  8
RACCORDO
100
AcDbLine
 62
7
  6
CONTINUOUS
 10
-20.276518238
 20
-15.8842251599
 11
-20.0885489078
 21
-16.1307958311
  0
LINE
  5
29A
100
AcDbEntity
  8
RACCORDO
100
AcDbLine
 62
7
  6
CONTINUOUS
 10
-20.0885489078
 20
-16.1307958311
 11
-20.0447586362
 21
-16.1890368637
  0
LWPOLYLINE
  5
29B
100
AcDbEntity
  8
RACCORDO
100
AcDbPolyline
 62
7
  6
CONTINUOUS
 90
5
 70
0
 10
-20.7091698725
 20
-15.3015299085
 10
-20.6019874735
 20
-15.4482878251
 10
-20.4941458449
 20
-15.594329535
 10
-20.3856534028
 20
-15.7396451347
 10
-20.276518238
 20
-15.8842251599
  0
LINE
  5
29C
100
AcDbEntity
  8
RACCORDO
100
AcDbLine
 62
7
  6
CONTINUOUS
 10
-20.8144481905
 20
-15.1557871147
 11
-20.7091698725
 21
-15.3015299085
  0
LWPOLYLINE
  5
29D
100
AcDbEntity
  8
RACCORDO
100
AcDbPolyline
 62
250
  6
CONTINUOUS
 90
10
 70
0
 10
-20.8261395643
 20
-14.7955582344
 10
-20.7435606006
 20
-14.9115648736
 10
-20.6609769848
 20
-15.0265864883
 10
-20.5783892275
 20
-15.1406233553
 10
-20.4959298203
 20
-15.2534922231
 10
-20.4134673125
 20
-15.3653769086
 10
-20.3306061142
 20
-15.4768281897
 10
-20.2472144888
 20
-15.5880297267
 10
-20.1634247509
 20
-15.6987981716
 10
-20.079237205
 20
-15.809133689
  0
LINE
  5
29E
100
AcDbEntity
  8
RACCORDO
100
AcDbLine
 62
250
  6
CONTINUOUS
 10
-20.0486692417
 20
-16.1829588215
 11
-20.0447660887
 21
-16.1890369823
  0
LWPOLYLINE
  5
29F
100
AcDbEntity
  8
RACCORDO
100
AcDbPolyline
 62
7
  6
CONTINUOUS
 90
3
 70
0
 10
-20.8145258535
 20
-15.1557425623
 10
-20.8343627107
 20
-15.1212347718
 10
-20.8507605555
 20
-15.0703570852
  0
LWPOLYLINE
  5
2A0
100
AcDbEntity
  8
RACCORDO
100
AcDbPolyline
 62
250
  6
CONTINUOUS
 90
7
 70
0
 10
-26.2941005939
 20
-14.0557455261
 10
-26.291717954
 20
-14.0729621095
 10
-26.2852015289
 20
-14.0887997963
 10
-26.2746508368
 20
-14.1040843963
 10
-26.2602424191
 20
-14.1185601569
 10
-26.2422173674
 20
-14.1319848598
 10
-26.2208772892
 20
-14.1441338737
  0
LINE
  5
2A1
100
AcDbEntity
  8
RACCORDO
100
AcDbLine
 62
7
  6
CONTINUOUS
 10
-22.8805202707
 20
26.171359839
 11
-22.8805202707
 21
27.25657807
  0
LWPOLYLINE
  5
2A2
100
AcDbEntity
  8
RACCORDO
100
AcDbPolyline
 62
250
  6
CONTINUOUS
 90
6
 70
0
 10
-20.2827294494
 20
24.7565907866
 10
-20.2786751199
 20
24.7917956258
 10
-20.2657538969
 20
24.8271349802
 10
-20.2445870645
 20
24.8608841268
 10
-20.2153817176
 20
24.892468158
 10
-20.1779307614
 20
24.9224619813
  0
LWPOLYLINE
  5
2A3
100
AcDbEntity
  8
RACCORDO
100
AcDbPolyline
 62
7
  6
CONTINUOUS
 90
10
 70
0
 10
-22.7501096312
 20
7.3364331399
 10
-22.6362283279
 20
7.7634916484
 10
-22.5111137575
 20
8.1795445674
 10
-22.3747659201
 20
8.5845918968
 10
-22.227099814
 20
8.9788323549
 10
-22.0682004409
 20
9.3620672234
 10
-21.8983228056
 20
9.733700348
 10
-21.7175519097
 20
10.0935330105
 10
-21.5258027516
 20
10.441763929
 10
-21.3230753313
 20
10.7783931035
  0
LWPOLYLINE
  5
2A4
100
AcDbEntity
  8
RACCORDO
100
AcDbPolyline
 62
7
  6
CONTINUOUS
 90
12
 70
0
 10
-15.6579438379
 20
26.5133638395
 10
-15.6572886721
 20
26.5155018251
 10
-15.6555321833
 20
26.5189234364
 10
-15.6529440171
 20
26.522123766
 10
-15.6495346924
 20
26.5251056126
 10
-15.6453476963
 20
26.5278309417
 10
-15.640373067
 20
26.5302964674
 10
-15.6346207663
 20
26.5325054756
 10
-15.6281641668
 20
26.5344297896
 10
-15.6210277261
 20
26.5360600173
 10
-15.6131869866
 20
26.5374055508
 10
-15.6046419483
 20
26.5384663902
  0
LWPOLYLINE
  5
2A5
100
AcDbEntity
  8
RACCORDO
100
AcDbPolyline
 62
7
  6
CONTINUOUS
 90
19
 70
0
 10
-21.3230753313
 20
10.7783931035
 10
-21.3046779272
 20
10.8069451741
 10
-21.2851455187
 20
10.8350284965
 10
-21.2646500615
 20
10.8626695663
 10
-21.2434665064
 20
10.8899392339
 10
-21.2216669871
 20
10.9167867104
 10
-21.199082064
 20
10.9430821835
 10
-21.1758807918
 20
10.9689048412
 10
-21.1521753817
 20
10.9942383032
 10
-21.1276686659
 20
11.0188923977
 10
-21.1024275527
 20
11.0431474512
 10
-21.0767137979
 20
11.066872593
 10
-21.0505409841
 20
11.0893305006
 10
-21.0239748135
 20
11.1107137411
 10
-20.9974616483
 20
11.1309918431
 10
-20.9716040885
 20
11.1490564371
 10
-20.9467770934
 20
11.1645106302
 10
-20.9231606695
 20
11.177717838
 10
-20.9010442948
 20
11.188642483
  0
LWPOLYLINE
  5
2A6
100
AcDbEntity
  8
RACCORDO
100
AcDbPolyline
 62
7
  6
CONTINUOUS
 90
10
 70
0
 10
-20.4797648525
 20
15.4716775287
 10
-20.467899702
 20
15.4810687488
 10
-20.4555527617
 20
15.4903266602
 10
-20.4427240314
 20
15.499451263
 10
-20.4294191134
 20
15.508445194
 10
-20.4156324055
 20
15.5173058163
 10
-20.4013471016
 20
15.52602522
 10
-20.3865575997
 20
15.5346007683
 10
-20.3712695018
 20
15.5430350978
 10
-20.355482808
 20
15.5513282087
  0
LWPOLYLINE
  5
2A7
100
AcDbEntity
  8
RACCORDO
100
AcDbPolyline
 62
250
  6
CONTINUOUS
 90
3
 70
0
 10
-2.8090971605
 20
25.9391955688
 10
-2.7485736972
 20
25.9799973505
 10
-2.6795732555
 20
26.0173724592
  0
LWPOLYLINE
  5
2A8
100
AcDbEntity
  8
RACCORDO
100
AcDbPolyline
 62
250
  6
CONTINUOUS
 90
13
 70
0
 10
-19.6551074745
 20
15.8232507328
 10
-19.7420347439
 20
15.767959459
 10
-19.8206319075
 20
15.6983948837
 10
-19.8895838334
 20
15.6157210678
 10
-19.9477368027
 20
15.5213213945
 10
-19.9941177653
 20
15.4167754947
 10
-20.0279506521
 20
15.3038328392
 10
-20.0486694148
 20
15.1843833246
 10
-20.0559274503
 20
15.0604256824
 10
-20.0496033939
 20
14.9340341328
 10
-20.0298031625
 20
14.8073235603
 10
-19.9968581562
 20
14.6824141201
 10
-19.9513197142
 20
14.5613958262
  0
LWPOLYLINE
  5
2A9
100
AcDbEntity
  8
RACCORDO
100
AcDbPolyline
 62
250
  6
CONTINUOUS
 90
16
 70
0
 10
-19.7676554458
 20
15.7843967047
 10
-19.8352807854
 20
15.7427276326
 10
-19.897921583
 20
15.6921774827
 10
-19.9549301778
 20
15.6332536431
 10
-20.0057024132
 20
15.566544489
 10
-20.0497195818
 20
15.4927296887
 10
-20.0865654492
 20
15.4125881176
 10
-20.1158644901
 20
15.3269502898
 10
-20.1373175388
 20
15.2366995176
 10
-20.1507603868
 20
15.1427973975
 10
-20.1559776298
 20
15.0463950745
 10
-20.1530514263
 20
14.9483124743
 10
-20.1422928655
 20
14.8490459467
 10
-20.1238050762
 20
14.7494472351
 10
-20.097605441
 20
14.6507252548
 10
-20.0639022357
 20
14.5539242905
  0
LINE
  5
2AA
100
AcDbEntity
  8
RACCORDO
100
AcDbLine
 62
7
  6
CONTINUOUS
 10
-7.7023216326
 20
22.5106707789
 11
-9.2337592637
 21
21.7260551595
  0
LINE
  5
2AB
100
AcDbEntity
  8
RACCORDO
100
AcDbLine
 62
7
  6
CONTINUOUS
 10
-9.6452830615
 20
21.5152153623
 11
-11.2136582511
 21
20.7116751817
  0
LINE
  5
2AC
100
AcDbEntity
  8
RACCORDO
100
AcDbLine
 62
250
  6
CONTINUOUS
 10
-11.1188866418
 20
22.0939078892
 11
-10.9607773785
 21
22.1729625208
  0
LINE
  5
2AD
100
AcDbEntity
  8
0
100
AcDbLine
 62
7
  6
CONTINUOUS
 10
-9.0216272294
 20
22.5643875969
 11
-8.6580590968
 21
22.7461716632
  0
LINE
  5
2AE
100
AcDbEntity
  8
0
100
AcDbLine
 62
7
  6
CONTINUOUS
 10
-9.0216272294
 20
22.2179774354
 11
-8.6580590968
 21
22.3997615017
  0
LINE
  5
2AF
100
AcDbEntity
  8
0
100
AcDbLine
 62
250
  6
CONTINUOUS
 10
-9.2337592637
 20
21.8521037971
 11
-9.5166019762
 21
21.7106824408
  0
LINE
  5
2B0
100
AcDbEntity
  8
0
100
AcDbLine
 62
7
  6
CONTINUOUS
 10
-9.2337592637
 20
21.5922961759
 11
-9.5166019762
 21
21.4508748197
  0
LINE
  5
2B1
100
AcDbEntity
  8
RACCORDO
100
AcDbLine
 62
250
  6
CONTINUOUS
 10
-2.6795732555
 20
26.0173724592
 11
2.8700542644
 21
28.7812058059
  0
LINE
  5
2B2
100
AcDbEntity
  8
RACCORDO
100
AcDbLine
 62
250
  6
CONTINUOUS
 10
-1.1694959281
 20
24.9873082878
 11
2.8700542644
 21
26.9990907881
  0
LWPOLYLINE
  5
2B3
100
AcDbEntity
  8
RACCORDO
100
AcDbPolyline
 62
250
  6
CONTINUOUS
 90
23
 70
0
 10
2.8700542644
 20
26.9990907881
 10
2.890517881
 20
27.0090697713
 10
2.9108779348
 20
27.018250976
 10
2.9310594975
 20
27.0266490177
 10
2.9509857865
 20
27.0343743523
 10
2.970571729
 20
27.0413414039
 10
2.9897249054
 20
27.0472680286
 10
3.0083737387
 20
27.0521541263
 10
3.0264047205
 20
27.056013235
 10
3.0436682858
 20
27.0585769835
 10
3.0601091071
 20
27.0597985191
 10
3.0755966169
 20
27.0597181781
 10
3.0899112609
 20
27.0581833705
 10
3.1029819978
 20
27.0551165001
 10
3.1147685425
 20
27.0505573377
 10
3.1251588597
 20
27.0445146895
 10
3.1340966034
 20
27.0369665847
 10
3.1415903325
 20
27.0278811738
 10
3.1476352
 20
27.0172489895
 10
3.1521871152
 20
27.0050678752
 10
3.1552105556
 20
26.9912843372
 10
3.1566713484
 20
26.9758125339
 10
3.1568037787
 20
26.9692356556
  0
LWPOLYLINE
  5
2B4
100
AcDbEntity
  8
0
100
AcDbPolyline
 62
7
  6
CONTINUOUS
 90
10
 70
0
 10
-8.6580590968
 20
22.7461716632
 10
-8.6407497955
 20
22.7544532795
 10
-8.6235034789
 20
22.7619694629
 10
-8.6063201471
 20
22.7687202136
 10
-8.5891790352
 20
22.7747118858
 10
-8.572100908
 20
22.7799381252
 10
-8.5551480602
 20
22.7843798684
 10
-8.5383412568
 20
22.7880307609
 10
-8.5216597328
 20
22.7908971572
 10
-8.5051034882
 20
22.7929790573
  0
LWPOLYLINE
  5
2B5
100
AcDbEntity
  8
0
100
AcDbPolyline
 62
7
  6
CONTINUOUS
 90
10
 70
0
 10
-8.6580590968
 20
22.3997615017
 10
-8.6506408248
 20
22.4033107658
 10
-8.6432495463
 20
22.4065319873
 10
-8.6358852612
 20
22.4094251661
 10
-8.6285390704
 20
22.4119930257
 10
-8.621219873
 20
22.4142328426
 10
-8.6139543668
 20
22.4161364468
 10
-8.6067514511
 20
22.417701115
 10
-8.5996022265
 20
22.4189295706
 10
-8.5925066931
 20
22.4198218134
  0
LINE
  5
2B6
100
AcDbEntity
  8
RACCORDO
100
AcDbLine
 62
7
  6
CONTINUOUS
 10
-2.1568823729
 20
24.2658813245
 11
-3.5808470606
 21
23.5924008862
  0
LINE
  5
2B7
100
AcDbEntity
  8
DRAFT
100
AcDbLine
 62
7
  6
CONTINUOUS
 10
-5.292270304
 20
24.30274291
 11
-5.1423988104
 21
24.373176761
  0
LWPOLYLINE
  5
2B8
100
AcDbEntity
  8
RACCORDO
100
AcDbPolyline
 62
7
  6
CONTINUOUS
 90
12
 70
0
 10
-11.0674539284
 20
22.1872475363
 10
-11.0599488057
 20
22.1905030805
 10
-11.0526835081
 20
22.1927966373
 10
-11.0451304271
 20
22.1943794987
 10
-11.0372928149
 20
22.195259696
 10
-11.0292599154
 20
22.1954272068
 10
-11.0210294965
 20
22.1948738851
 10
-11.0126037903
 20
22.1936078768
 10
-11.0040787372
 20
22.1916435976
 10
-10.9954863172
 20
22.1889858527
 10
-10.9867945503
 20
22.1856298367
 10
-10.9780034365
 20
22.1815755498
  0
LWPOLYLINE
  5
2B9
100
AcDbEntity
  8
RACCORDO
100
AcDbPolyline
 62
250
  6
CONTINUOUS
 90
8
 70
0
 10
-3.3743657807
 20
25.843872246
 10
-3.3008952792
 20
25.875129999
 10
-3.2282879192
 20
25.8966318287
 10
-3.1573304499
 20
25.9081448136
 10
-3.0887915835
 20
25.9095442624
 10
-3.0234141307
 20
25.9008150435
 10
-2.9619068748
 20
25.8820519722
 10
-2.9337489662
 20
25.8694344686
  0
LINE
  5
2BA
100
AcDbEntity
  8
RACCORDO
100
AcDbLine
 62
250
  6
CONTINUOUS
 10
-1.9025447429
 20
-25.0222568313
 11
-1.8238795814
 21
-25.0021544543
  0
LWPOLYLINE
  5
2BB
100
AcDbEntity
  8
RACCORDO
100
AcDbPolyline
 62
250
  6
CONTINUOUS
 90
3
 70
0
 10
-2.0544036665
 20
-25.0657717236
 10
-1.9541459399
 20
-25.0459084326
 10
-1.9265566644
 20
-25.0373507191
  0
LWPOLYLINE
  5
2BC
100
AcDbEntity
  8
RACCORDO
100
AcDbPolyline
 62
250
  6
CONTINUOUS
 90
22
 70
0
 10
-4.320173652
 20
-23.7589016541
 10
-4.9445458896
 20
-23.8600147175
 10
-5.5828978923
 20
-23.9146922637
 10
-6.2352296599
 20
-23.9229342925
 10
-6.9036372582
 20
-23.8845939426
 10
-7.5860246215
 20
-23.7998180753
 10
-8.276103553
 20
-23.6690472755
 10
-8.9735503796
 20
-23.4918351244
 10
-9.6786887743
 20
-23.2686280408
 10
-10.3862015595
 20
-23.0012058661
 10
-11.0959101046
 20
-22.6893620645
 10
-11.8079930403
 20
-22.3333031719
 10
-12.5176690807
 20
-21.9354286376
 10
-13.2251045137
 20
-21.4953648945
 10
-13.9301330515
 20
-21.0134855096
 10
-14.6274745454
 20
-20.4933106332
 10
-15.3174546825
 20
-19.9340772807
 10
-15.9997477757
 20
-19.3365484367
 10
-16.6680966148
 20
-18.7065332044
 10
-17.320415463
 20
-18.0459679517
 10
-17.9587900571
 20
-17.3529163108
 10
-18.5832203971
 20
-16.6273782815
  0
LINE
  5
2BD
100
AcDbEntity
  8
RACCORDO
100
AcDbLine
 62
250
  6
CONTINUOUS
 10
-4.1954315077
 20
-23.7510365377
 11
-4.320173652
 21
-23.7589016541
  0
LWPOLYLINE
  5
2BE
100
AcDbEntity
  8
RACCORDO
100
AcDbPolyline
 62
250
  6
CONTINUOUS
 90
3
 70
0
 10
-2.826548656
 20
-24.4354779636
 10
-2.9363431802
 20
-24.4420712934
 10
-2.9520743349
 20
-24.4429513126
  0
LWPOLYLINE
  5
2BF
100
AcDbEntity
  8
RACCORDO
100
AcDbPolyline
 62
250
  6
CONTINUOUS
 90
3
 70
0
 10
-2.0665145592
 20
-25.0325092187
 10
-1.9836930192
 20
-25.0324134222
 10
-1.9025447429
 20
-25.0222568313
  0
LINE
  5
2C0
100
AcDbEntity
  8
RACCORDO
100
AcDbLine
 62
250
  6
CONTINUOUS
 10
-9.3810840681
 20
-22.6469647461
 11
-10.0715482949
 21
-22.3857930247
  0
LWPOLYLINE
  5
2C1
100
AcDbEntity
  8
DRAFT
100
AcDbPolyline
 62
7
  6
CONTINUOUS
 90
10
 70
0
 10
-9.0932078176
 20
-22.0079133848
 10
-9.3598503505
 20
-21.8996259646
 10
-9.6266395745
 20
-21.7850067373
 10
-9.8935754896
 20
-21.6640557028
 10
-10.1607558898
 20
-21.5367239643
 10
-10.4280829812
 20
-21.4030604186
 10
-10.6952633814
 20
-21.2632117569
 10
-10.9621992965
 20
-21.1172268762
 10
-11.2289885205
 20
-20.9650568796
 10
-11.4956310534
 20
-20.8067017669
  0
LWPOLYLINE
  5
2C2
100
AcDbEntity
  8
RACCORDO
100
AcDbPolyline
 62
250
  6
CONTINUOUS
 90
13
 70
0
 10
-10.0715482949
 20
-22.3857930247
 10
-10.7641340241
 20
-22.0815380795
 10
-11.4573291874
 20
-21.7349253834
 10
-12.1498824395
 20
-21.3465834845
 10
-12.8402708041
 20
-20.9173119044
 10
-13.5266157295
 20
-20.4482240318
 10
-14.2071392505
 20
-19.9405046952
 10
-14.8805046277
 20
-19.3950959882
 10
-15.5447013477
 20
-18.813570424
 10
-16.1970182813
 20
-18.1983879111
 10
-16.8355559747
 20
-17.5515754828
 10
-17.4591744229
 20
-16.8745278945
 10
-18.0664183642
 20
-16.1690315402
  0
LWPOLYLINE
  5
2C3
100
AcDbEntity
  8
RACCORDO
100
AcDbPolyline
 62
7
  6
CONTINUOUS
 90
8
 70
0
 10
6.0823416492
 20
-28.6270928074
 10
6.1123447228
 20
-28.6410624282
 10
6.1792270546
 20
-28.6646939989
 10
6.2502978195
 20
-28.6798152418
 10
6.3245824345
 20
-28.6858685092
 10
6.4007912906
 20
-28.6825275132
 10
6.478104761
 20
-28.6697263546
 10
6.5077653297
 20
-28.6623731792
  0
LINE
  5
2C4
100
AcDbEntity
  8
RACCORDO
100
AcDbLine
 62
7
  6
CONTINUOUS
 10
8.5254388394
 20
-31.6200237399
 11
-3.8067298465
 21
-25.4539393969
  0
LINE
  5
2C5
100
AcDbEntity
  8
RACCORDO
100
AcDbLine
 62
7
  6
CONTINUOUS
 10
-18.4760310281
 20
-18.1192888061
 11
-26.1559039928
 21
-14.2793523238
  0
LINE
  5
2C6
100
AcDbEntity
  8
RACCORDO
100
AcDbLine
 62
250
  6
CONTINUOUS
 10
8.4604655429
 20
-31.4848052898
 11
-3.6454758909
 21
-25.4318345728
  0
LINE
  5
2C7
100
AcDbEntity
  8
RACCORDO
100
AcDbLine
 62
250
  6
CONTINUOUS
 10
-18.6403414191
 20
-17.9344018088
 11
-26.2208772892
 21
-14.1441338737
  0
LINE
  5
2C8
100
AcDbEntity
  8
RACCORDO
100
AcDbLine
 62
250
  6
CONTINUOUS
 10
-2.9520743349
 20
-24.4429513126
 11
-4.320173652
 21
-23.7589016541
  0
LINE
  5
2C9
100
AcDbEntity
  8
RACCORDO
100
AcDbLine
 62
250
  6
CONTINUOUS
 10
-18.5832203971
 20
-16.6273782815
 11
-19.9513197142
 21
-15.943328623
  0
LINE
  5
2CA
100
AcDbEntity
  8
RACCORDO
100
AcDbLine
 62
250
  6
CONTINUOUS
 10
-2.8265469624
 20
-24.4354788103
 11
-4.1954315077
 21
-23.7510365377
  0
LINE
  5
2CB
100
AcDbEntity
  8
RACCORDO
100
AcDbLine
 62
250
  6
CONTINUOUS
 10
-18.7103694358
 20
-16.4935675737
 11
-20.079237205
 21
-15.809133689
  0
LINE
  5
2CC
100
AcDbEntity
  8
RACCORDO
100
AcDbLine
 62
7
  6
CONTINUOUS
 10
-28.5141181834
 20
-11.3288842094
 11
-20.7885173838
 21
-15.1916846127
  0
LINE
  5
2CD
100
AcDbEntity
  8
RACCORDO
100
AcDbLine
 62
7
  6
CONTINUOUS
 10
-1.6841617223
 20
-24.7438624435
 11
6.0834795221
 21
-28.6276830657
  0
LINE
  5
2CE
100
AcDbEntity
  8
RACCORDO
100
AcDbLine
 62
250
  6
CONTINUOUS
 10
-28.770106169
 20
-10.823574932
 11
-20.8261395643
 21
-14.7955582344
  0
LINE
  5
2CF
100
AcDbEntity
  8
RACCORDO
100
AcDbLine
 62
250
  6
CONTINUOUS
 10
-2.1233477688
 20
-24.1469541321
 11
5.8206568723
 21
-28.1189564527
  0
LWPOLYLINE
  5
2D0
100
AcDbEntity
  8
RACCORDO
100
AcDbPolyline
 62
250
  6
CONTINUOUS
 90
7
 70
0
 10
8.5254388394
 20
-31.6200237399
 10
8.5223046732
 20
-31.6183820292
 10
8.5009460871
 20
-31.6024419148
 10
8.4836375005
 20
-31.5803798299
 10
8.4708932328
 20
-31.5528513425
 10
8.4630919763
 20
-31.5206744536
 10
8.4604655429
 20
-31.4848052898
  0
LINE
  5
2D1
100
AcDbEntity
  8
RACCORDO
100
AcDbLine
 62
7
  6
CONTINUOUS
 10
-26.1699644996
 20
-14.2717507974
 11
-26.1557332897
 21
-14.2794374584
  0
LWPOLYLINE
  5
2D2
100
AcDbEntity
  8
RACCORDO
100
AcDbPolyline
 62
250
  6
CONTINUOUS
 90
8
 70
0
 10
-28.5141181834
 20
-11.3288842094
 10
-28.543250639
 20
-11.3126219858
 10
-28.598578539
 20
-11.2708126073
 10
-28.6471047293
 20
-11.2182678062
 10
-28.6882333387
 20
-11.1556665935
 10
-28.7214369577
 20
-11.0838855232
 10
-28.7463200889
 20
-11.0039019519
 10
-28.7626009075
 20
-10.9167530032
  0
LINE
  5
2D3
100
AcDbEntity
  8
RACCORDO
100
AcDbLine
 62
250
  6
CONTINUOUS
 10
-18.6249738368
 20
-16.5831939043
 11
-18.7103694358
 21
-16.4935675737
  0
LINE
  5
2D4
100
AcDbEntity
  8
RACCORDO
100
AcDbLine
 62
250
  6
CONTINUOUS
 10
-18.5832203971
 20
-16.6273782815
 11
-18.6249738368
 21
-16.5831939043
  0
LINE
  5
2D5
100
AcDbEntity
  8
RACCORDO
100
AcDbLine
 62
250
  6
CONTINUOUS
 10
-18.1278158804
 20
-16.0956637545
 11
-18.1907679728
 21
-16.021261539
  0
LINE
  5
2D6
100
AcDbEntity
  8
RACCORDO
100
AcDbLine
 62
250
  6
CONTINUOUS
 10
-18.0664183642
 20
-16.1690315402
 11
-18.1278158804
 21
-16.0956637545
  0
LWPOLYLINE
  5
2D7
100
AcDbEntity
  8
RACCORDO
100
AcDbPolyline
 62
250
  6
CONTINUOUS
 90
22
 70
0
 10
-18.1907679728
 20
-16.021261539
 10
-18.7937143122
 20
-15.2899527182
 10
-19.3792360462
 20
-14.5320357933
 10
-19.945855883
 20
-13.7492688914
 10
-20.4926039249
 20
-12.9431104737
 10
-21.0175837763
 20
-12.1158175309
 10
-21.5181071734
 20
-11.2705526728
 10
-21.9927616421
 20
-10.4098644488
 10
-22.4406944023
 20
-9.5354878335
 10
-22.8602842757
 20
-8.6495304761
 10
-23.2504447618
 20
-7.7544543581
 10
-23.610429658
 20
-6.8522501804
 10
-23.9391910301
 20
-5.9443468087
 10
-24.2359678498
 20
-5.0327554634
 10
-24.4999814894
 20
-4.1199759475
 10
-24.7302177141
 20
-3.2081780501
 10
-24.9261616035
 20
-2.2991381044
 10
-25.0872536331
 20
-1.3956123349
 10
-25.2127050558
 20
-0.501195681
 10
-25.302257015
 20
0.381496717
 10
-25.3559979613
 20
1.2507956722
 10
-25.3739527278
 20
2.1046286903
  0
LWPOLYLINE
  5
2D8
100
AcDbEntity
  8
RACCORDO
100
AcDbPolyline
 62
250
  6
CONTINUOUS
 90
22
 70
0
 10
-18.7103694358
 20
-16.4935675737
 10
-19.329820347
 20
-15.7406496587
 10
-19.9288622051
 20
-14.9640218403
 10
-20.5073816597
 20
-14.1636228726
 10
-21.0669881384
 20
-13.3367942748
 10
-21.6058169514
 20
-12.4860576929
 10
-22.1185528961
 20
-11.6191277862
 10
-22.6044901695
 20
-10.73626309
 10
-23.0640849718
 20
-9.8370743169
 10
-23.4938017569
 20
-8.9283249571
 10
-23.8932228885
 20
-8.0101577577
 10
-24.2625358814
 20
-7.0823129446
 10
-24.5991568046
 20
-6.1509744282
 10
-24.90286895
 20
-5.2158465454
 10
-25.1736905001
 20
-4.2771278821
 10
-25.4094446998
 20
-3.3417732681
 10
-25.6098063538
 20
-2.4092565905
 10
-25.7749559087
 20
-1.4800376949
 10
-25.9035510625
 20
-0.5625901819
 10
-25.9951456719
 20
0.3402575568
 10
-26.0501398317
 20
1.2313479416
 10
-26.0685052984
 20
2.1106904204
  0
LINE
  5
2D9
100
AcDbEntity
  8
RACCORDO
100
AcDbLine
 62
250
  6
CONTINUOUS
 10
-20.0559274459
 20
-16.1523782542
 11
-20.0486692417
 21
-16.1829588215
  0
LWPOLYLINE
  5
2DA
100
AcDbEntity
  8
RACCORDO
100
AcDbPolyline
 62
7
  6
CONTINUOUS
 90
19
 70
0
 10
-22.7501096312
 20
-1.6251218543
 10
-22.7845328105
 20
-1.4117230223
 10
-22.8024225494
 20
-1.193645746
 10
-22.8037676338
 20
-0.9723712439
 10
-22.7885893503
 20
-0.7485223479
 10
-22.7570686105
 20
-0.5246343459
 10
-22.7100786116
 20
-0.3051356282
 10
-22.648650469
 20
-0.0927640416
 10
-22.5736781805
 20
0.112210592
 10
-22.4863102472
 20
0.3091752294
 10
-22.3875911109
 20
0.4966397986
 10
-22.2784086433
 20
0.6736106872
 10
-22.1595140357
 20
0.8401734032
 10
-22.0316136576
 20
0.9954583243
 10
-21.8958722945
 20
1.1380015379
 10
-21.753661765
 20
1.2669574534
 10
-21.6061482755
 20
1.3814492582
 10
-21.4542851366
 20
1.48057662
 10
-21.2991622513
 20
1.5636045324
  0
LWPOLYLINE
  5
2DB
100
AcDbEntity
  8
RACCORDO
100
AcDbPolyline
 62
7
  6
CONTINUOUS
 90
5
 70
0
 10
-20.8507605555
 20
-15.0703570852
 10
-20.8582740407
 20
-15.011373205
 10
-20.8569215031
 20
-14.945102748
 10
-20.8462091358
 20
-14.8727997916
 10
-20.8260655721
 20
-14.7955952305
  0
LINE
  5
2DC
100
AcDbEntity
  8
RACCORDO
100
AcDbLine
 62
250
  6
CONTINUOUS
 10
-21.3230753313
 20
-2.3386390043
 11
-21.3230753313
 21
-6.4941161177
  0
LINE
  5
2DD
100
AcDbEntity
  8
RACCORDO
100
AcDbLine
 62
250
  6
CONTINUOUS
 10
-21.3230753313
 20
6.62291599
 11
-21.3230753313
 21
10.7783931035
  0
LINE
  5
2DE
100
AcDbEntity
  8
RACCORDO
100
AcDbLine
 62
250
  6
CONTINUOUS
 10
-21.2463269997
 20
25.8345306158
 11
-21.2463269997
 21
26.9170953455
  0
LINE
  5
2DF
100
AcDbEntity
  8
RACCORDO
100
AcDbLine
 62
250
  6
CONTINUOUS
 10
-20.9009451514
 20
6.5704923949
 11
-20.9010442948
 21
11.188642483
  0
LINE
  5
2E0
100
AcDbEntity
  8
RACCORDO
100
AcDbLine
 62
7
  6
CONTINUOUS
 10
-20.4803252016
 20
24.5870046013
 11
-20.4803252016
 21
24.2007907576
  0
LINE
  5
2E1
100
AcDbEntity
  8
RACCORDO
100
AcDbLine
 62
7
  6
CONTINUOUS
 10
-19.7696503034
 20
26.5785624917
 11
-19.7696503034
 21
27.6611272214
  0
LINE
  5
2E2
100
AcDbEntity
  8
RACCORDO
100
AcDbLine
 62
250
  6
CONTINUOUS
 10
-15.6046419483
 20
26.5384663902
 11
-15.6213269817
 21
26.4672316899
  0
LINE
  5
2E3
100
AcDbEntity
  8
RACCORDO
100
AcDbLine
 62
250
  6
CONTINUOUS
 10
-9.8964127347
 20
21.6407801989
 11
-10.1687540289
 21
21.2470206354
  0
LWPOLYLINE
  5
2E4
100
AcDbEntity
  8
RACCORDO
100
AcDbPolyline
 62
250
  6
CONTINUOUS
 90
4
 70
0
 10
-10.1950540743
 20
19.8509270817
 10
-10.2168225484
 20
19.8212877526
 10
-10.2320968711
 20
19.7902735434
 10
-10.2403428835
 20
19.7590727922
  0
LINE
  5
2E5
100
AcDbEntity
  8
RACCORDO
100
AcDbLine
 62
250
  6
CONTINUOUS
 10
-2.8604877957
 20
25.8954260307
 11
-2.8090971605
 21
25.9391955688
  0
LWPOLYLINE
  5
2E6
100
AcDbEntity
  8
RACCORDO
100
AcDbPolyline
 62
7
  6
CONTINUOUS
 90
9
 70
0
 10
-10.243661215
 20
19.898094799
 10
-10.2928446427
 20
19.8603955573
 10
-10.3351404124
 20
19.8195800836
 10
-10.3707849431
 20
19.7754562147
 10
-10.3994715467
 20
19.7281340409
 10
-10.4207255267
 20
19.678129037
 10
-10.4341198363
 20
19.6261861701
 10
-10.4393388232
 20
19.573138432
 10
-10.4394047804
 20
19.5658513195
  0
LWPOLYLINE
  5
2E7
100
AcDbEntity
  8
RACCORDO
100
AcDbPolyline
 62
250
  6
CONTINUOUS
 90
4
 70
0
 10
-10.091317903
 20
19.9304074505
 10
-10.1323907781
 20
19.9052888743
 10
-10.1669695019
 20
19.8787954181
 10
-10.1950540743
 20
19.8509270817
  0
LINE
  5
2E8
100
AcDbEntity
  8
RACCORDO
100
AcDbLine
 62
7
  6
CONTINUOUS
 10
-10.1837402246
 20
19.9344962576
 11
-10.243661215
 21
19.898094799
  0
LINE
  5
2E9
100
AcDbEntity
  8
RACCORDO
100
AcDbLine
 62
7
  6
CONTINUOUS
 10
-3.6685359882
 20
23.449621237
 11
-10.1838144894
 21
19.9344790141
  0
LINE
  5
2EA
100
AcDbEntity
  8
RACCORDO
100
AcDbLine
 62
250
  6
CONTINUOUS
 10
-3.5769265534
 20
23.4450710348
 11
-10.091317903
 21
19.9304074505
  0
LINE
  5
2EB
100
AcDbEntity
  8
RACCORDO
100
AcDbLine
 62
7
  6
CONTINUOUS
 10
-0.4307180238
 20
23.4091061494
 11
-0.4413159346
 21
23.4033883334
  0
LINE
  5
2EC
100
AcDbEntity
  8
RACCORDO
100
AcDbLine
 62
7
  6
CONTINUOUS
 10
-0.5815114361
 20
23.327749644
 11
-2.4455341643
 21
22.3220666183
  0
LINE
  5
2ED
100
AcDbEntity
  8
RACCORDO
100
AcDbLine
 62
7
  6
CONTINUOUS
 10
4.7319465683
 20
25.6917066957
 11
1.1406272631
 21
23.8322466922
  0
LWPOLYLINE
  5
2EE
100
AcDbEntity
  8
RACCORDO
100
AcDbPolyline
 62
250
  6
CONTINUOUS
 90
19
 70
0
 10
3.2439411924
 20
26.3995036853
 10
3.2636970657
 20
26.4097262762
 10
3.2828389644
 20
26.4199171705
 10
3.3014213906
 20
26.4299604165
 10
3.3193337939
 20
26.4398143482
 10
3.3363005064
 20
26.4495127808
 10
3.3522898781
 20
26.4589869708
 10
3.367254449
 20
26.4681362829
 10
3.3808910302
 20
26.4769565184
 10
3.3931395517
 20
26.485408752
 10
3.4039606264
 20
26.4933763555
 10
3.4130885312
 20
26.5007864519
 10
3.420417357
 20
26.5076214284
 10
3.4259595433
 20
26.5138303606
 10
3.4296429205
 20
26.5193539392
 10
3.4314054353
 20
26.5241802093
 10
3.4312314251
 20
26.5283189045
 10
3.4291197529
 20
26.5317541941
 10
3.4256514816
 20
26.5341668754
  0
LINE
  5
2EF
100
AcDbEntity
  8
DRAFT
100
AcDbLine
 62
7
  6
CONTINUOUS
 10
1.5435628227
 20
23.6307789124
 11
4.7620796452
 21
25.2622035484
  0
LINE
  5
2F0
100
AcDbEntity
  8
RACCORDO
100
AcDbLine
 62
250
  6
CONTINUOUS
 10
-9.3327836998
 20
19.5511403489
 11
-2.5869339814
 21
22.9500747488
  0
LINE
  5
2F1
100
AcDbEntity
  8
RACCORDO
100
AcDbLine
 62
250
  6
CONTINUOUS
 10
-9.1913838828
 20
19.3072617396
 11
-2.4455341643
 21
22.7061961394
  0
LINE
  5
2F2
100
AcDbEntity
  8
0
100
AcDbLine
 62
7
  6
CONTINUOUS
 10
-2.4455341643
 20
22.3220666183
 11
-9.1913838828
 21
18.9231322184
  0
LINE
  5
2F3
100
AcDbEntity
  8
RACCORDO
100
AcDbLine
 62
7
  6
CONTINUOUS
 10
3.7840288319
 20
26.1091072903
 11
0.191751676
 21
24.3066844858
  0
LINE
  5
2F4
100
AcDbEntity
  8
RACCORDO
100
AcDbLine
 62
250
  6
CONTINUOUS
 10
-0.3821013671
 20
24.5936110073
 11
3.2439411924
 21
26.3995036853
  0
LINE
  5
2F5
100
AcDbEntity
  8
RACCORDO
100
AcDbLine
 62
250
  6
CONTINUOUS
 10
-1.0499650564
 20
23.7124226662
 11
-2.5869339814
 21
22.9500747488
  0
LINE
  5
2F6
100
AcDbEntity
  8
RACCORDO
100
AcDbLine
 62
250
  6
CONTINUOUS
 10
-0.9085652394
 20
23.4685440569
 11
-2.4455341643
 21
22.7061961394
  0
LINE
  5
2F7
100
AcDbEntity
  8
DRAFT
100
AcDbLine
 62
7
  6
CONTINUOUS
 10
2.4283473714
 20
23.2719585759
 11
2.5432406942
 21
23.328915507
  0
LWPOLYLINE
  5
2F8
100
AcDbEntity
  8
RACCORDO
100
AcDbPolyline
 62
250
  6
CONTINUOUS
 90
10
 70
0
 10
-20.8260545552
 20
14.2423475356
 10
-20.7449169829
 20
14.2801696604
 10
-20.6633010094
 20
14.31716574
 10
-20.581206926
 20
14.3533356395
 10
-20.4986121903
 20
14.3886898642
 10
-20.4155399135
 20
14.4232176464
 10
-20.3320588951
 20
14.4568869296
 10
-20.2481922901
 20
14.4896869265
 10
-20.1639175741
 20
14.5216281348
 10
-20.0792350547
 20
14.5527104135
  0
LINE
  5
2F9
100
AcDbEntity
  8
RACCORDO
100
AcDbLine
 62
7
  6
CONTINUOUS
 10
-19.7092905721
 20
13.0567123276
 11
-19.6963359916
 21
13.0624746433
  0
LINE
  5
2FA
100
AcDbEntity
  8
RACCORDO
100
AcDbLine
 62
7
  6
CONTINUOUS
 10
-19.696802559
 20
13.0622584324
 11
-19.6105798154
 21
13.0998720448
  0
LWPOLYLINE
  5
2FB
100
AcDbEntity
  8
RACCORDO
100
AcDbPolyline
 62
250
  6
CONTINUOUS
 90
7
 70
0
 10
-20.3554996396
 20
15.5513196024
 10
-20.25812085
 20
15.5932886527
 10
-20.1608655632
 20
15.6338430653
 10
-20.0637497668
 20
15.6730035455
 10
-19.966789192
 20
15.710790793
 10
-19.8699993152
 20
15.7472254967
 10
-19.7733953591
 20
15.7823283291
  0
LWPOLYLINE
  5
2FC
100
AcDbEntity
  8
RACCORDO
100
AcDbPolyline
 62
250
  6
CONTINUOUS
 90
8
 70
0
 10
1.536197796
 20
23.3885904576
 10
1.6096682975
 20
23.4198482094
 10
1.6822756561
 20
23.4413500385
 10
1.7532331227
 20
23.4528630237
 10
1.8217719843
 20
23.4542624742
 10
1.8871494314
 20
23.4455332587
 10
1.948656683
 20
23.4267701917
 10
1.9772411281
 20
23.4139397597
  0
LWPOLYLINE
  5
2FD
100
AcDbEntity
  8
RACCORDO
100
AcDbPolyline
 62
7
  6
CONTINUOUS
 90
7
 70
0
 10
9.5601187937
 20
26.114619872
 10
9.6492783887
 20
26.1522853706
 10
9.7430274459
 20
26.1815103374
 10
9.8403844664
 20
26.2015852893
 10
9.9404619165
 20
26.2119593869
 10
10.0418011283
 20
26.2121897211
 10
10.1426036818
 20
26.2021683811
  0
LINE
  5
2FE
100
AcDbEntity
  8
DRAFT
100
AcDbLine
 62
7
  6
CONTINUOUS
 10
-17.576142914
 20
16.9441317555
 11
-17.6336987609
 21
16.9235325562
  0
LINE
  5
2FF
100
AcDbEntity
  8
RACCORDO
100
AcDbLine
 62
250
  6
CONTINUOUS
 10
-19.7733953591
 20
15.7823283291
 11
-19.7313378779
 21
15.7971504064
  0
LINE
  5
300
100
AcDbEntity
  8
DRAFT
100
AcDbLine
 62
7
  6
CONTINUOUS
 10
-17.5229511079
 20
16.9627391778
 11
-17.576142914
 21
16.9441317555
  0
LINE
  5
301
100
AcDbEntity
  8
RACCORDO
100
AcDbLine
 62
250
  6
CONTINUOUS
 10
-19.7313378779
 20
15.7971504064
 11
-19.6919035136
 21
15.8107800091
  0
LINE
  5
302
100
AcDbEntity
  8
RACCORDO
100
AcDbLine
 62
250
  6
CONTINUOUS
 10
-19.6919035136
 20
15.8107800091
 11
-19.6551074737
 21
15.8232507331
  0
LWPOLYLINE
  5
303
100
AcDbEntity
  8
RACCORDO
100
AcDbPolyline
 62
250
  6
CONTINUOUS
 90
4
 70
0
 10
3.9338007639
 20
23.213867843
 10
4.0802159591
 20
23.2583922457
 10
4.219692332
 20
23.3095907375
 10
4.3522298825
 20
23.3674633184
  0
LWPOLYLINE
  5
304
100
AcDbEntity
  8
RACCORDO
100
AcDbPolyline
 62
250
  6
CONTINUOUS
 90
25
 70
0
 10
-19.6551074737
 20
15.8232507331
 10
-18.9605622115
 20
16.0244692428
 10
-18.2393597811
 20
16.1698374967
 10
-17.4931283387
 20
16.2579722403
 10
-16.7225299481
 20
16.2876349874
 10
-15.9304901741
 20
16.2575746601
 10
-15.1224189627
 20
16.1673731582
 10
-14.3005979662
 20
16.0170384041
 10
-13.4673469477
 20
15.8067513935
 10
-12.6285299366
 20
15.5381042038
 10
-11.7861697561
 20
15.2121604325
 10
-10.9431653465
 20
14.8304538618
 10
-10.1068012304
 20
14.3972127475
 10
-9.2786343925
 20
13.9145648128
 10
-8.4616574601
 20
13.3855672717
 10
-7.6650190687
 20
12.8182156565
 10
-6.8903766203
 20
12.2164291043
 10
-6.1392718439
 20
11.5841229483
 10
-5.4199089945
 20
10.9315956522
 10
-4.7328986949
 20
10.2634377504
 10
-4.0787074254
 20
9.5840912033
 10
-3.4642117005
 20
8.9053198398
 10
-2.8910732302
 20
8.2343931083
 10
-2.3562387101
 20
7.5730473426
 10
-1.8587544429
 20
6.9250742177
  0
LINE
  5
305
100
AcDbEntity
  8
RACCORDO
100
AcDbLine
 62
250
  6
CONTINUOUS
 10
-4.0332055839
 20
-23.1000427334
 11
-4.1139667202
 21
-23.1167411674
  0
LINE
  5
306
100
AcDbEntity
  8
RACCORDO
100
AcDbLine
 62
250
  6
CONTINUOUS
 10
-4.1139667202
 20
-23.1167411674
 11
-4.1545465745
 21
-23.124967435
  0
LWPOLYLINE
  5
307
100
AcDbEntity
  8
RACCORDO
100
AcDbPolyline
 62
250
  6
CONTINUOUS
 90
9
 70
0
 10
-4.1545465745
 20
-23.124967435
 10
-4.7617376609
 20
-23.2232132331
 10
-5.385333623
 20
-23.2766451674
 10
-6.023881663
 20
-23.2849250501
 10
-6.6762542056
 20
-23.2477900962
 10
-7.340543171
 20
-23.1651051096
 10
-8.0140061151
 20
-23.0371214321
 10
-8.6946323577
 20
-22.8642765136
 10
-9.3810840681
 20
-22.6469647461
  0
LWPOLYLINE
  5
308
100
AcDbEntity
  8
0
100
AcDbPolyline
 62
250
  6
CONTINUOUS
 90
10
 70
0
 10
-8.3607861066
 20
-18.3305756588
 10
-8.3885637745
 20
-18.3244617195
 10
-8.4160978178
 20
-18.3177447794
 10
-8.4432063913
 20
-18.3104691747
 10
-8.4697104514
 20
-18.3026828986
 10
-8.4954349637
 20
-18.2944373782
 10
-8.5202100569
 20
-18.2857871286
 10
-8.5438721122
 20
-18.2767892709
 10
-8.5662648455
 20
-18.2675031643
 10
-8.5872403638
 20
-18.2579901019
  0
LINE
  5
309
100
AcDbEntity
  8
DRAFT
100
AcDbLine
 62
7
  6
CONTINUOUS
 10
7.8275524688
 20
-28.3053100664
 11
8.4604655429
 21
-28.6217666034
  0
LINE
  5
30A
100
AcDbEntity
  8
DRAFT
100
AcDbLine
 62
7
  6
CONTINUOUS
 10
8.305981686
 20
-28.1758501476
 11
8.9939082056
 21
-28.5198134074
  0
LINE
  5
30B
100
AcDbEntity
  8
0
100
AcDbLine
 62
250
  6
CONTINUOUS
 10
-9.6491503692
 20
-18.7867894845
 11
-8.676946802
 21
-19.2728912681
  0
LWPOLYLINE
  5
30C
100
AcDbEntity
  8
RACCORDO
100
AcDbPolyline
 62
7
  6
CONTINUOUS
 90
9
 70
0
 10
-1.6821069884
 20
-24.7448894416
 10
-1.7283713418
 20
-24.719254343
 10
-1.8040311232
 20
-24.6658403042
 10
-1.8743854556
 20
-24.6012233819
 10
-1.9389234501
 20
-24.5262756547
 10
-1.9964166092
 20
-24.4423019729
 10
-2.0462861341
 20
-24.3504204975
 10
-2.0886353359
 20
-24.2515867423
 10
-2.1233928395
 20
-24.1469315968
  0
LWPOLYLINE
  5
30D
100
AcDbEntity
  8
RACCORDO
100
AcDbPolyline
 62
7
  6
CONTINUOUS
 90
10
 70
0
 10
-21.3230753313
 20
-6.4941161177
 10
-21.5258027516
 20
-5.9547595229
 10
-21.7175519097
 20
-5.4147794463
 10
-21.8983228056
 20
-4.874175888
 10
-22.0682004409
 20
-4.3326651281
 10
-22.227099814
 20
-3.7905308864
 10
-22.3747659201
 20
-3.2486243222
 10
-22.5111137575
 20
-2.7072291554
 10
-22.6362283279
 20
-2.1660616661
 10
-22.7501096312
 20
-1.6251218543
  0
LWPOLYLINE
  5
30E
100
AcDbEntity
  8
RACCORDO
100
AcDbPolyline
 62
250
  6
CONTINUOUS
 90
10
 70
0
 10
-21.2463269997
 20
26.9170953455
 10
-21.2495098493
 20
26.955785696
 10
-21.2578716787
 20
26.9960312312
 10
-21.2711580575
 20
27.0366092732
 10
-21.2889651002
 20
27.076287397
 10
-21.3107515096
 20
27.1138602826
 10
-21.3358548632
 20
27.1481864419
 10
-21.363512232
 20
27.1782236776
 10
-21.3928835508
 20
27.2030605672
 10
-21.4230767711
 20
27.2219436071
  0
LWPOLYLINE
  5
30F
100
AcDbEntity
  8
RACCORDO
100
AcDbPolyline
 62
250
  6
CONTINUOUS
 90
10
 70
0
 10
-19.2323001756
 20
24.327719886
 10
-19.23484682
 20
24.3586747522
 10
-19.2415371531
 20
24.3908733011
 10
-19.25216736
 20
24.4233371617
 10
-19.2664141113
 20
24.4550803677
 10
-19.2838441012
 20
24.4851385513
 10
-19.3039270104
 20
24.5125983864
 10
-19.3260522513
 20
24.5366263499
 10
-19.349547769
 20
24.5564938177
 10
-19.3736999927
 20
24.5715984953
  0
LWPOLYLINE
  5
310
100
AcDbEntity
  8
RACCORDO
100
AcDbPolyline
 62
250
  6
CONTINUOUS
 90
10
 70
0
 10
-19.3455790805
 20
0.3270195713
 10
-19.3491571836
 20
0.3735662057
 10
-19.3590033664
 20
0.4219546249
 10
-19.3748185014
 20
0.4707147772
 10
-19.3961221229
 20
0.5183653173
 10
-19.4222670227
 20
0.5634586082
 10
-19.4524589119
 20
0.6046247013
 10
-19.485780553
 20
0.6406129583
 10
-19.5212196264
 20
0.6703300456
 10
-19.5576994835
 20
0.6928731486
  0
LINE
  5
311
100
AcDbEntity
  8
RACCORDO
100
AcDbLine
 62
250
  6
CONTINUOUS
 10
-19.2323001756
 20
24.327719886
 11
-19.2323001756
 21
23.9435903648
  0
LINE
  5
312
100
AcDbEntity
  8
0
100
AcDbLine
 62
7
  6
CONTINUOUS
 10
-18.0018833504
 20
25.6935155068
 11
-18.0018833504
 21
25.9533231279
  0
LWPOLYLINE
  5
313
100
AcDbEntity
  8
0
100
AcDbPolyline
 62
7
  6
CONTINUOUS
 90
19
 70
0
 10
-18.0018833504
 20
25.9533231279
 10
-17.9998816576
 20
26.0078122685
 10
-17.9942597058
 20
26.0629234803
 10
-17.9850174949
 20
26.1186567633
 10
-17.9720302173
 20
26.1754435529
 10
-17.9554226806
 20
26.2328524138
 10
-17.9355693086
 20
26.2895890402
 10
-17.9123963684
 20
26.3456381615
 10
-17.8859775928
 20
26.4010150482
 10
-17.8569086036
 20
26.4544712064
 10
-17.8251291984
 20
26.5059630043
 10
-17.7906995797
 20
26.5555340736
 10
-17.754395977
 20
26.6020668147
 10
-17.7161758208
 20
26.6454922084
 10
-17.6760816806
 20
26.6858792738
 10
-17.6350174949
 20
26.7223174683
 10
-17.5932845766
 20
26.7545032778
 10
-17.5505816129
 20
26.7827402163
 10
-17.5069086036
 20
26.807028284
  0
LINE
  5
314
100
AcDbEntity
  8
RACCORDO
100
AcDbLine
 62
250
  6
CONTINUOUS
 10
-13.6543962636
 20
26.7375011872
 11
-13.7417994685
 21
26.3643439434
  0
LINE
  5
315
100
AcDbEntity
  8
RACCORDO
100
AcDbLine
 62
250
  6
CONTINUOUS
 10
-13.3784752049
 20
26.6805170469
 11
-13.4658784098
 21
26.307359803
  0
LINE
  5
316
100
AcDbEntity
  8
RACCORDO
100
AcDbLine
 62
250
  6
CONTINUOUS
 10
-11.3278655395
 20
25.6552122141
 11
-11.348296799
 21
25.567983462
  0
LINE
  5
317
100
AcDbEntity
  8
RACCORDO
100
AcDbLine
 62
250
  6
CONTINUOUS
 10
-11.5741332955
 20
24.5232120638
 11
-11.590818329
 21
24.4519773635
  0
LWPOLYLINE
  5
318
100
AcDbEntity
  8
RACCORDO
100
AcDbPolyline
 62
7
  6
CONTINUOUS
 90
12
 70
0
 10
-11.6274351851
 20
24.4981095131
 10
-11.6267800193
 20
24.5002474987
 10
-11.6250235305
 20
24.50366911
 10
-11.6224353643
 20
24.5068694396
 10
-11.6190260396
 20
24.5098512862
 10
-11.6148390435
 20
24.5125766153
 10
-11.6098644142
 20
24.515042141
 10
-11.6041121135
 20
24.5172511492
 10
-11.597655514
 20
24.5191754633
 10
-11.5905190733
 20
24.5208056909
 10
-11.5826783338
 20
24.5221512244
 10
-11.5741332955
 20
24.5232120638
  0
LWPOLYLINE
  5
319
100
AcDbEntity
  8
RACCORDO
100
AcDbPolyline
 62
7
  6
CONTINUOUS
 90
12
 70
0
 10
-11.267641996
 20
25.595877549
 10
-11.2682971618
 20
25.5937395634
 10
-11.2700536506
 20
25.5903179521
 10
-11.2726418168
 20
25.5871176225
 10
-11.2760511415
 20
25.5841357759
 10
-11.2802381376
 20
25.5814104467
 10
-11.2852127669
 20
25.5789449211
 10
-11.2909650676
 20
25.5767359129
 10
-11.2974216671
 20
25.5748115988
 10
-11.3045581078
 20
25.5731813711
 10
-11.3123988473
 20
25.5718358376
 10
-11.3209438856
 20
25.5707749983
  0
LINE
  5
31A
100
AcDbEntity
  8
RACCORDO
100
AcDbLine
 62
250
  6
CONTINUOUS
 10
-2.8994159065
 20
25.852268277
 11
-2.8604877957
 21
25.8954260307
  0
LINE
  5
31B
100
AcDbEntity
  8
RACCORDO
100
AcDbLine
 62
7
  6
CONTINUOUS
 10
11.8311825263
 20
25.1666341031
 11
8.1559615145
 21
23.3225942711
  0
LINE
  5
31C
100
AcDbEntity
  8
RACCORDO
100
AcDbLine
 62
7
  6
CONTINUOUS
 10
9.5601187937
 20
26.114619872
 11
3.9127768003
 21
23.3996437612
  0
LINE
  5
31D
100
AcDbEntity
  8
RACCORDO
100
AcDbLine
 62
250
  6
CONTINUOUS
 10
9.9995718751
 20
26.0824394287
 11
4.3522298825
 21
23.3674633184
  0
LINE
  5
31E
100
AcDbEntity
  8
DRAFT
100
AcDbLine
 62
7
  6
CONTINUOUS
 10
3.489965958
 20
23.0777136372
 11
1.8254333493
 21
22.2810304629
  0
LWPOLYLINE
  5
31F
100
AcDbEntity
  8
RACCORDO
100
AcDbPolyline
 62
7
  6
CONTINUOUS
 90
22
 70
0
 10
3.9126644988
 20
23.399581111
 10
3.8995216226
 20
23.3933783751
 10
3.8427642283
 20
23.3689009964
 10
3.774426156
 20
23.343446363
 10
3.6948889925
 20
23.3181589491
 10
3.6058526957
 20
23.2943807814
 10
3.5080146401
 20
23.2729047575
 10
3.40207187
 20
23.2544167842
 10
3.2902889921
 20
23.2397378142
 10
3.1739735467
 20
23.2293083391
 10
3.0542613805
 20
23.2234192088
 10
2.9333632756
 20
23.2223003356
 10
2.8126385349
 20
23.2259963846
 10
2.6934473054
 20
23.234421327
 10
2.577993241
 20
23.2472845338
 10
2.4673870917
 20
23.2642589612
 10
2.362921222
 20
23.284862258
 10
2.2668451864
 20
23.3082050564
 10
2.1798138399
 20
23.3335706067
 10
2.1024750713
 20
23.3601367319
 10
2.0364666183
 20
23.3865078075
 10
1.9773321594
 20
23.413885974
  0
LINE
  5
320
100
AcDbEntity
  8
RACCORDO
100
AcDbLine
 62
7
  6
CONTINUOUS
 10
-20.9010442948
 20
11.188642483
 11
-18.6125475952
 21
12.1724281948
  0
LWPOLYLINE
  5
321
100
AcDbEntity
  8
RACCORDO
100
AcDbPolyline
 62
7
  6
CONTINUOUS
 90
3
 70
0
 10
-18.6125475952
 20
12.1724281948
 10
-16.3431170493
 20
13.1468649748
 10
-15.2302698166
 20
13.6242639622
  0
LWPOLYLINE
  5
322
100
AcDbEntity
  8
RACCORDO
100
AcDbPolyline
 62
7
  6
CONTINUOUS
 90
4
 70
0
 10
-19.6105798154
 20
13.0998720448
 10
-19.1400655292
 20
13.2834441506
 10
-18.6560815107
 20
13.4363815565
 10
-18.2480129544
 20
13.5390801431
  0
LINE
  5
323
100
AcDbEntity
  8
RACCORDO
100
AcDbLine
 62
7
  6
CONTINUOUS
 10
5.6319336592
 20
20.394843686
 11
5.5652511968
 21
20.3689120175
  0
LWPOLYLINE
  5
324
100
AcDbEntity
  8
RACCORDO
100
AcDbPolyline
 62
7
  6
CONTINUOUS
 90
5
 70
0
 10
9.1398822408
 20
22.0548935466
 10
9.0345153492
 20
22.016121929
 10
8.9325685667
 20
21.9744691207
 10
8.8343224293
 20
21.9299883461
 10
8.7400383681
 20
21.8827309567
  0
LWPOLYLINE
  5
325
100
AcDbEntity
  8
RACCORDO
100
AcDbPolyline
 62
250
  6
CONTINUOUS
 90
15
 70
0
 10
9.1741778278
 20
22.0280019321
 10
9.2768918681
 20
22.0631472053
 10
9.3832327369
 20
22.0955249252
 10
9.4927950515
 20
22.1251616647
 10
9.6031417959
 20
22.1516691069
 10
9.7142463128
 20
22.1748685004
 10
9.8261352595
 20
22.1949385964
 10
9.9364515916
 20
22.2120273322
 10
10.0448420815
 20
22.2260012281
 10
10.1516599568
 20
22.2369937636
 10
10.2556078559
 20
22.2455533149
 10
10.3564436904
 20
22.2516558844
 10
10.4544095486
 20
22.2553254696
 10
10.548934335
 20
22.2571824384
 10
10.6398560751
 20
22.2572483073
  0
LINE
  5
326
100
AcDbEntity
  8
RACCORDO
100
AcDbLine
 62
7
  6
CONTINUOUS
 10
9.2484284372
 20
22.0907501814
 11
9.1398822408
 21
22.0548935466
  0
LWPOLYLINE
  5
327
100
AcDbEntity
  8
RACCORDO
100
AcDbPolyline
 62
7
  6
CONTINUOUS
 90
5
 70
0
 10
3.9724930626
 20
19.6333868281
 10
3.9891219779
 20
19.6388459102
 10
4.0114529166
 20
19.640430298
 10
4.0352590584
 20
19.636337054
 10
4.0598266834
 20
19.6266944163
  0
LWPOLYLINE
  5
328
100
AcDbEntity
  8
RACCORDO
100
AcDbPolyline
 62
250
  6
CONTINUOUS
 90
5
 70
0
 10
5.5652273961
 20
20.3689641318
 10
5.5816120574
 20
20.3743122732
 10
5.6037403746
 20
20.3758040157
 10
5.6272425242
 20
20.3715698629
 10
5.6514046119
 20
20.3617378468
  0
LWPOLYLINE
  5
329
100
AcDbEntity
  8
RACCORDO
100
AcDbPolyline
 62
250
  6
CONTINUOUS
 90
12
 70
0
 10
-19.9513197142
 20
14.5613958262
 10
-19.2860685285
 20
14.7554592482
 10
-18.5983679681
 20
14.8938249472
 10
-17.8882180329
 20
14.9764929233
 10
-17.1525016211
 20
15.0039677366
 10
-16.3943358345
 20
14.9757448269
 10
-15.623071979
 20
14.8903105142
 10
-14.8384484377
 20
14.7462042644
 10
-14.0407268275
 20
14.5448866115
 10
-13.2400433046
 20
14.2892254777
 10
-12.4359538164
 20
13.9775695397
 10
-11.6289024154
 20
13.6115701208
  0
LINE
  5
32A
100
AcDbEntity
  8
0
100
AcDbLine
 62
250
  6
CONTINUOUS
 10
-7.7451930801
 20
-18.4537574165
 11
-8.2887662013
 21
-18.5337305448
  0
LINE
  5
32B
100
AcDbEntity
  8
0
100
AcDbLine
 62
7
  6
CONTINUOUS
 10
-9.479917866
 20
-18.7048640875
 11
-9.5417992003
 21
-18.6146668888
  0
LWPOLYLINE
  5
32C
100
AcDbEntity
  8
0
100
AcDbPolyline
 62
7
  6
CONTINUOUS
 90
10
 70
0
 10
-9.6491503692
 20
-18.7867894845
 10
-9.7057533557
 20
-18.6873755601
 10
-9.7549433804
 20
-18.5832673736
 10
-9.7962938979
 20
-18.474321679
 10
-9.829783665
 20
-18.3588904544
 10
-9.8544129031
 20
-18.2383616674
 10
-9.8685220394
 20
-18.1172772838
 10
-9.8715185731
 20
-17.9972279135
 10
-9.8635615904
 20
-17.8767447653
 10
-9.8444011187
 20
-17.75591308
  0
LWPOLYLINE
  5
32D
100
AcDbEntity
  8
0
100
AcDbPolyline
 62
7
  6
CONTINUOUS
 90
9
 70
0
 10
-9.5417992003
 20
-18.6146668888
 10
-9.5987127009
 20
-18.5142572136
 10
-9.6471915006
 20
-18.4065845911
 10
-9.6864221212
 20
-18.2906742411
 10
-9.7159315702
 20
-18.1671780817
 10
-9.7330626079
 20
-18.041641535
 10
-9.7367831459
 20
-17.9159708049
 10
-9.727340179
 20
-17.7883356003
 10
-9.7042889909
 20
-17.6588242167
  0
LWPOLYLINE
  5
32E
100
AcDbEntity
  8
RACCORDO
100
AcDbPolyline
 62
7
  6
CONTINUOUS
 90
13
 70
0
 10
-20.8260670742
 20
14.2423537951
 10
-20.8462106105
 20
14.3543159312
 10
-20.8569229163
 20
14.4689680355
 10
-20.8582753558
 20
14.5851078473
 10
-20.8507617178
 20
14.7015845863
 10
-20.8343636782
 20
14.8169998683
 10
-20.8085184038
 20
14.9297160779
 10
-20.7736618524
 20
15.0383877223
 10
-20.7304283777
 20
15.1416818934
 10
-20.6786717577
 20
15.2379618145
 10
-20.6188966842
 20
15.3258200314
 10
-20.5522690218
 20
15.4041153619
 10
-20.4797648525
 20
15.4716775287
  0
LINE
  5
32F
100
AcDbEntity
  8
RACCORDO
100
AcDbLine
 62
7
  6
CONTINUOUS
 10
-16.3995986849
 20
24.7342639107
 11
-16.2974750378
 21
23.253583575
  0
LINE
  5
330
100
AcDbEntity
  8
RACCORDO
100
AcDbLine
 62
250
  6
CONTINUOUS
 10
-9.6238876108
 20
24.7222468609
 11
-9.7112908157
 21
24.349089617
  0
LINE
  5
331
100
AcDbEntity
  8
RACCORDO
100
AcDbLine
 62
250
  6
CONTINUOUS
 10
-9.3479665522
 20
24.6652627205
 11
-9.4353697571
 21
24.2921054766
  0
LWPOLYLINE
  5
332
100
AcDbEntity
  8
RACCORDO
100
AcDbPolyline
 62
7
  6
CONTINUOUS
 90
8
 70
0
 10
-2.6175926636
 20
16.0721997588
 10
-2.6661582514
 20
16.0331607135
 10
-2.7075413601
 20
15.9909241398
 10
-2.7420618769
 20
15.9452344731
 10
-2.7693696114
 20
15.8962197126
 10
-2.7888257767
 20
15.8444714212
 10
-2.7999269194
 20
15.7908212402
 10
-2.802595057
 20
15.7477345931
  0
LINE
  5
333
100
AcDbEntity
  8
RACCORDO
100
AcDbLine
 62
250
  6
CONTINUOUS
 10
-2.5002612317
 20
16.0836272165
 11
-2.4545646662
 21
16.1120308321
  0
LWPOLYLINE
  5
334
100
AcDbEntity
  8
RACCORDO
100
AcDbPolyline
 62
7
  6
CONTINUOUS
 90
3
 70
0
 10
-2.5468862322
 20
16.1161298428
 10
-2.561616723
 20
16.1079603147
 10
-2.6175926636
 20
16.0721997588
  0
LINE
  5
335
100
AcDbEntity
  8
RACCORDO
100
AcDbLine
 62
7
  6
CONTINUOUS
 10
7.9243045115
 20
21.4525783644
 11
7.8118207286
 21
21.3905502649
  0
LINE
  5
336
100
AcDbEntity
  8
RACCORDO
100
AcDbLine
 62
7
  6
CONTINUOUS
 10
-2.5470612873
 20
16.116102377
 11
-0.2956971854
 21
17.3307649601
  0
LINE
  5
337
100
AcDbEntity
  8
RACCORDO
100
AcDbLine
 62
7
  6
CONTINUOUS
 10
1.4546088528
 20
18.2750952226
 11
3.9682172477
 21
19.6312446181
  0
LINE
  5
338
100
AcDbEntity
  8
RACCORDO
100
AcDbLine
 62
250
  6
CONTINUOUS
 10
-2.4545646662
 20
16.1120308321
 11
-0.3090450838
 21
17.2695878686
  0
LINE
  5
339
100
AcDbEntity
  8
RACCORDO
100
AcDbLine
 62
250
  6
CONTINUOUS
 10
1.5779910378
 20
18.287687148
 11
4.0598266834
 21
19.6266944163
  0
LINE
  5
33A
100
AcDbEntity
  8
0
100
AcDbLine
 62
7
  6
CONTINUOUS
 10
7.9243045115
 20
21.4525783644
 11
8.7400383681
 21
21.8827309567
  0
LINE
  5
33B
100
AcDbEntity
  8
RACCORDO
100
AcDbLine
 62
250
  6
CONTINUOUS
 10
8.7399105861
 20
21.8826635698
 11
8.7400383681
 21
21.8827309567
  0
LINE
  5
33C
100
AcDbEntity
  8
RACCORDO
100
AcDbLine
 62
7
  6
CONTINUOUS
 10
8.4102694633
 20
22.6695086285
 11
12.6824572786
 21
24.881498623
  0
LINE
  5
33D
100
AcDbEntity
  8
DRAFT
100
AcDbLine
 62
7
  6
CONTINUOUS
 10
8.4102694633
 20
22.2716240216
 11
12.7511520131
 21
24.4719613584
  0
LINE
  5
33E
100
AcDbEntity
  8
DRAFT
100
AcDbLine
 62
7
  6
CONTINUOUS
 10
7.7763861084
 20
21.7549557454
 11
8.8440329056
 21
22.2938015648
  0
LINE
  5
33F
100
AcDbEntity
  8
RACCORDO
100
AcDbLine
 62
250
  6
CONTINUOUS
 10
5.0498192554
 20
19.1316981304
 11
3.8310787859
 21
18.517628876
  0
LINE
  5
340
100
AcDbEntity
  8
RACCORDO
100
AcDbLine
 62
250
  6
CONTINUOUS
 10
0.104851325
 20
16.6401481691
 11
-1.696030463
 21
15.7327637305
  0
LINE
  5
341
100
AcDbEntity
  8
RACCORDO
100
AcDbLine
 62
250
  6
CONTINUOUS
 10
5.1912190725
 20
18.887819521
 11
4.6153600206
 21
18.5976696923
  0
LINE
  5
342
100
AcDbEntity
  8
RACCORDO
100
AcDbLine
 62
250
  6
CONTINUOUS
 10
0.4187646934
 20
16.4831914849
 11
-1.5546306459
 21
15.4888851212
  0
LINE
  5
343
100
AcDbEntity
  8
RACCORDO
100
AcDbLine
 62
7
  6
CONTINUOUS
 10
3.0755746629
 20
17.4377106405
 11
2.7564760462
 21
17.276931004
  0
LINE
  5
344
100
AcDbEntity
  8
RACCORDO
100
AcDbLine
 62
7
  6
CONTINUOUS
 10
0.8014188395
 20
16.2918644118
 11
-1.5546306459
 21
15.1047556
  0
LINE
  5
345
100
AcDbEntity
  8
RACCORDO
100
AcDbLine
 62
7
  6
CONTINUOUS
 10
3.9683279324
 20
19.6313039122
 11
3.9724930626
 21
19.6333868281
  0
LINE
  5
346
100
AcDbEntity
  8
0
100
AcDbLine
 62
7
  6
CONTINUOUS
 10
0.170760926
 20
17.9681935192
 11
0.5343290587
 21
18.1499775855
  0
LINE
  5
347
100
AcDbEntity
  8
0
100
AcDbLine
 62
7
  6
CONTINUOUS
 10
8.8683257969
 20
21.6596392253
 11
9.3633005437
 21
21.9071265988
  0
LINE
  5
348
100
AcDbEntity
  8
RACCORDO
100
AcDbLine
 62
7
  6
CONTINUOUS
 10
11.8314784563
 20
22.087626451
 11
10.5200141452
 21
21.4318942955
  0
LINE
  5
349
100
AcDbEntity
  8
RACCORDO
100
AcDbLine
 62
7
  6
CONTINUOUS
 10
9.8187904034
 20
21.0812824246
 11
9.2766878746
 21
20.8102311602
  0
LINE
  5
34A
100
AcDbEntity
  8
DRAFT
100
AcDbLine
 62
7
  6
CONTINUOUS
 10
7.8037319475
 20
21.3968384788
 11
8.063609792
 21
21.5260367933
  0
LINE
  5
34B
100
AcDbEntity
  8
DRAFT
100
AcDbLine
 62
7
  6
CONTINUOUS
 10
9.0917930583
 20
22.0371982785
 11
9.8173769022
 21
22.3979224096
  0
LINE
  5
34C
100
AcDbEntity
  8
RACCORDO
100
AcDbLine
 62
7
  6
CONTINUOUS
 10
6.7583219131
 20
19.8082791815
 11
5.350830157
 21
19.1265622773
  0
LWPOLYLINE
  5
34D
100
AcDbEntity
  8
0
100
AcDbPolyline
 62
7
  6
CONTINUOUS
 90
10
 70
0
 10
0.5343290587
 20
18.1499775855
 10
0.55163836
 20
18.1582592018
 10
0.5688846765
 20
18.1657753852
 10
0.5860680083
 20
18.1725261359
 10
0.6032091202
 20
18.1785178081
 10
0.6202872474
 20
18.1837440475
 10
0.6372400952
 20
18.1881857907
 10
0.6540468986
 20
18.1918366832
 10
0.6707284226
 20
18.1947030795
 10
0.6872846672
 20
18.1967849796
  0
LINE
  5
34E
100
AcDbEntity
  8
RACCORDO
100
AcDbLine
 62
7
  6
CONTINUOUS
 10
3.9725840911
 20
19.6334288681
 11
5.5650806796
 21
20.3688965662
  0
LINE
  5
34F
100
AcDbEntity
  8
RACCORDO
100
AcDbLine
 62
250
  6
CONTINUOUS
 10
4.0598266834
 20
19.6266944163
 11
5.6514045966
 21
20.3617378397
  0
LWPOLYLINE
  5
350
100
AcDbEntity
  8
RACCORDO
100
AcDbPolyline
 62
7
  6
CONTINUOUS
 90
10
 70
0
 10
12.6799802681
 20
21.6633492195
 10
12.6913767324
 20
21.6685178748
 10
12.7025971348
 20
21.6725697712
 10
12.7136414756
 20
21.6755049087
 10
12.7246047345
 20
21.67732344
 10
12.7353919316
 20
21.6780252125
 10
12.7457181271
 20
21.6776097681
 10
12.7554883408
 20
21.6760769543
 10
12.7647975528
 20
21.6734269235
 10
12.7736457631
 20
21.6696596759
  0
LWPOLYLINE
  5
351
100
AcDbEntity
  8
RACCORDO
100
AcDbPolyline
 62
250
  6
CONTINUOUS
 90
15
 70
0
 10
-1.5546306459
 20
15.4888851212
 10
-1.6273275038
 20
15.4569969863
 10
-1.707368973
 20
15.4301156316
 10
-1.7934134076
 20
15.4086730784
 10
-1.8840180139
 20
15.3929969894
 10
-1.9776662631
 20
15.3833470007
 10
-2.0727935956
 20
15.379911373
 10
-2.1678111347
 20
15.3827389052
 10
-2.2611252776
 20
15.3917658644
 10
-2.3511683133
 20
15.4068580891
 10
-2.4364289449
 20
15.4277581248
 10
-2.5154892025
 20
15.45410387
 10
-2.5870385728
 20
15.4854643978
 10
-2.6498828582
 20
15.5213234111
 10
-2.7029651913
 20
15.5610744085
  0
LWPOLYLINE
  5
352
100
AcDbEntity
  8
RACCORDO
100
AcDbPolyline
 62
250
  6
CONTINUOUS
 90
19
 70
0
 10
-1.696030463
 20
15.7327637305
 10
-1.7507825695
 20
15.7088168041
 10
-1.8088041016
 20
15.6890559163
 10
-1.8700950592
 20
15.6734810668
 10
-1.9357733076
 20
15.6619772731
 10
-2.0047209816
 20
15.6546595179
 10
-2.0735844859
 20
15.6518727492
 10
-2.1423647797
 20
15.6538374905
 10
-2.2110609039
 20
15.6603332184
 10
-2.2763163856
 20
15.6710433109
 10
-2.3379561997
 20
15.6861770038
 10
-2.3961553713
 20
15.7055250615
 10
-2.4480825031
 20
15.7281431546
 10
-2.4934311939
 20
15.7541934616
 10
-2.532507845
 20
15.7835138041
 10
-2.5634002625
 20
15.8146733178
 10
-2.5856986018
 20
15.8477632666
 10
-2.5998127076
 20
15.8826923866
 10
-2.6050599198
 20
15.9177560218
  0
LWPOLYLINE
  5
353
100
AcDbEntity
  8
RACCORDO
100
AcDbPolyline
 62
250
  6
CONTINUOUS
 90
3
 70
0
 10
5.6514045966
 20
20.3617378397
 10
5.6962508147
 20
20.3802185874
 10
5.7406476802
 20
20.3936471344
  0
LWPOLYLINE
  5
354
100
AcDbEntity
  8
RACCORDO
100
AcDbPolyline
 62
250
  6
CONTINUOUS
 90
5
 70
0
 10
-2.5469142326
 20
16.1161815063
 10
-2.5261550746
 20
16.1237039795
 10
-2.5036122063
 20
16.1254016713
 10
-2.4795046661
 20
16.1214708252
 10
-2.4545646662
 20
16.1120308321
  0
LWPOLYLINE
  5
355
100
AcDbEntity
  8
0
100
AcDbPolyline
 62
7
  6
CONTINUOUS
 90
19
 70
0
 10
-5.3778346308
 20
-15.6811455896
 10
-5.5417158759
 20
-15.7136274996
 10
-5.7059552657
 20
-15.7640820121
 10
-5.8705528001
 20
-15.8325091273
 10
-6.0367715285
 20
-15.9197062822
 10
-6.2033484017
 20
-16.0248760397
 10
-6.3664942716
 20
-16.1456260883
 10
-6.5261304966
 20
-16.2823135429
 10
-6.6823357184
 20
-16.4345812887
 10
-6.8315567145
 20
-16.5989656694
 10
-6.9736334001
 20
-16.7757444099
 10
-7.10872586
 20
-16.9646397853
 10
-7.2337611269
 20
-17.1613549657
 10
-7.3485086804
 20
-17.3660691884
 10
-7.4531990409
 20
-17.578603216
 10
-7.5454508017
 20
-17.7941225068
 10
-7.6244701608
 20
-18.0110155469
 10
-7.6910509202
 20
-18.2308938501
 10
-7.7654316491
 20
-18.5377534333
  0
LINE
  5
356
100
AcDbEntity
  8
0
100
AcDbLine
 62
7
  6
CONTINUOUS
 10
2.2151998511
 20
-13.8456064194
 11
-5.3234267161
 21
-14.8835171015
  0
LWPOLYLINE
  5
357
100
AcDbEntity
  8
0
100
AcDbPolyline
 62
7
  6
CONTINUOUS
 90
9
 70
0
 10
-5.3778346308
 20
-15.6811455896
 10
-2.2514631875
 20
-15.2507447865
 10
-2.2433477064
 20
-15.2497209052
 10
-2.2352246242
 20
-15.2487544707
 10
-2.227149697
 20
-15.2478513169
 10
-2.2190671687
 20
-15.2470056099
 10
-2.2108097718
 20
-15.2461998478
 10
-2.2023217505
 20
-15.2454281967
 10
-2.1936588607
 20
-15.2446964905
  0
LWPOLYLINE
  5
358
100
AcDbEntity
  8
0
100
AcDbPolyline
 62
7
  6
CONTINUOUS
 90
9
 70
0
 10
1.9975321632
 20
-14.0559375576
 10
-0.2465344956
 20
-14.3648635016
 10
-0.2546499767
 20
-14.3658873829
 10
-0.2627730589
 20
-14.3668538175
 10
-0.2708479861
 20
-14.3677569712
 10
-0.2789305144
 20
-14.3686026783
 10
-0.2871879113
 20
-14.3694084403
 10
-0.2956759326
 20
-14.3701800915
 10
-0.3043388224
 20
-14.3709117977
  0
LWPOLYLINE
  5
359
100
AcDbEntity
  8
0
100
AcDbPolyline
 62
7
  6
CONTINUOUS
 90
9
 70
0
 10
-0.4648128237
 20
-15.1155072425
 10
-0.4561499338
 20
-15.1147755363
 10
-0.4476619125
 20
-15.1140038852
 10
-0.4394045157
 20
-15.1131981231
 10
-0.4313219874
 20
-15.1123524161
 10
-0.4232470601
 20
-15.1114492623
 10
-0.4151239779
 20
-15.1104828278
 10
-0.4070084968
 20
-15.1094589464
 10
1.837058162
 20
-14.8005330025
  0
LWPOLYLINE
  5
35A
100
AcDbEntity
  8
0
100
AcDbPolyline
 62
7
  6
CONTINUOUS
 90
9
 70
0
 10
-2.0331848594
 20
-14.5001010456
 10
-2.0418477493
 20
-14.5008327519
 10
-2.0503357706
 20
-14.501604403
 10
-2.0585931674
 20
-14.5024101651
 10
-2.0666756957
 20
-14.5032558721
 10
-2.074750623
 20
-14.5041590259
 10
-2.0828737052
 20
-14.5051254604
 10
-2.0909891863
 20
-14.5061493417
 10
-5.2173606296
 20
-14.9365501447
  0
LINE
  5
35B
100
AcDbEntity
  8
0
100
AcDbLine
 62
7
  6
CONTINUOUS
 10
-2.1936588607
 20
-15.2446964905
 11
-0.4648128237
 21
-15.1155072425
  0
LINE
  5
35C
100
AcDbEntity
  8
0
100
AcDbLine
 62
7
  6
CONTINUOUS
 10
-2.0331848594
 20
-14.5001010456
 11
-0.3043388224
 21
-14.3709117977
  0
LWPOLYLINE
  5
35D
100
AcDbEntity
  8
0
100
AcDbPolyline
 62
7
  6
CONTINUOUS
 90
7
 70
0
 10
1.8605105639
 20
-14.7984596991
 10
1.8564616808
 20
-14.7986688555
 10
1.8524688574
 20
-14.7989325696
 10
1.8485320939
 20
-14.7992508413
 10
1.8446513901
 20
-14.7996236707
 10
1.8408267461
 20
-14.8000510578
 10
1.837058162
 20
-14.8005330025
  0
LWPOLYLINE
  5
35E
100
AcDbEntity
  8
0
100
AcDbPolyline
 62
7
  6
CONTINUOUS
 90
7
 70
0
 10
2.0209845651
 20
-14.0538642543
 10
2.016935682
 20
-14.0540734107
 10
2.0129428586
 20
-14.0543371248
 10
2.0090060951
 20
-14.0546553965
 10
2.0051253913
 20
-14.0550282259
 10
2.0013007474
 20
-14.0554556129
 10
1.9975321632
 20
-14.0559375576
  0
LINE
  5
35F
100
AcDbEntity
  8
0
100
AcDbLine
 62
7
  6
CONTINUOUS
 10
1.8605105639
 20
-14.7984596991
 11
2.2151998511
 21
-14.7822535447
  0
LINE
  5
360
100
AcDbEntity
  8
0
100
AcDbLine
 62
7
  6
CONTINUOUS
 10
2.0209845651
 20
-14.0538642543
 11
2.2151998511
 21
-14.0449903383
  0
LINE
  5
361
100
AcDbEntity
  8
0
100
AcDbLine
 62
250
  6
CONTINUOUS
 10
-6.7729955482
 20
-14.1587326854
 11
-6.7261223622
 21
-14.1821692784
  0
LINE
  5
362
100
AcDbEntity
  8
0
100
AcDbLine
 62
250
  6
CONTINUOUS
 10
-5.3234267161
 20
-14.8835171015
 11
-5.2173606296
 21
-14.9365501447
  0
LINE
  5
363
100
AcDbEntity
  8
0
100
AcDbLine
 62
250
  6
CONTINUOUS
 10
-6.4258841195
 20
-14.1656117459
 11
-5.4996170681
 21
-14.6287452716
  0
LWPOLYLINE
  5
364
100
AcDbEntity
  8
0
100
AcDbPolyline
 62
250
  6
CONTINUOUS
 90
10
 70
0
 10
-9.7042889909
 20
-17.6588242167
 10
-9.7010727065
 20
-17.6682089767
 10
-9.6956339018
 20
-17.6779797192
 10
-9.6880084954
 20
-17.6880719163
 10
-9.6782468467
 20
-17.698418918
 10
-9.6664134232
 20
-17.7089523908
 10
-9.652586374
 20
-17.7196027691
 10
-9.6368570149
 20
-17.7302997162
 10
-9.6193292255
 20
-17.7409725887
 10
-9.6001187624
 20
-17.751550902
  0
LWPOLYLINE
  5
365
100
AcDbEntity
  8
DRAFT
100
AcDbPolyline
 62
7
  6
CONTINUOUS
 90
10
 70
0
 10
-12.5077756431
 20
5.7807736468
 10
-12.53295862
 20
6.0374329096
 10
-12.5551840477
 20
6.2929356809
 10
-12.5744519261
 20
6.5472819605
 10
-12.5907651757
 20
6.8005268691
 10
-12.6041208761
 20
7.052615286
 10
-12.6145102662
 20
7.3033818498
 10
-12.6219304256
 20
7.55277144
 10
-12.6263842747
 20
7.8008391771
 10
-12.6278718134
 20
8.0475850611
  0
LINE
  5
366
100
AcDbEntity
  8
RACCORDO
100
AcDbLine
 62
7
  6
CONTINUOUS
 10
-12.4864504572
 20
27.4952744831
 11
-12.4864504572
 21
27.7266542859
  0
LWPOLYLINE
  5
367
100
AcDbEntity
  8
DRAFT
100
AcDbPolyline
 62
7
  6
CONTINUOUS
 90
4
 70
0
 10
-12.6278718134
 20
8.0475850611
 10
-12.6263842747
 20
8.2928434064
 10
-12.6219304256
 20
8.5364572944
 10
-12.6211984972
 20
8.5603252842
  0
LINE
  5
368
100
AcDbEntity
  8
RACCORDO
100
AcDbLine
 62
7
  6
CONTINUOUS
 10
-11.2210102888
 20
20.7153512005
 11
-11.1188866418
 21
22.0939078892
  0
LINE
  5
369
100
AcDbEntity
  8
RACCORDO
100
AcDbLine
 62
7
  6
CONTINUOUS
 10
-10.9384719439
 20
20.85266393
 11
-10.8449541628
 21
22.115050913
  0
LWPOLYLINE
  5
36A
100
AcDbEntity
  8
RACCORDO
100
AcDbPolyline
 62
7
  6
CONTINUOUS
 90
14
 70
0
 10
-11.1188866418
 20
22.0939078892
 10
-11.1178428602
 20
22.1040821552
 10
-11.1162801749
 20
22.1138192286
 10
-11.1141985858
 20
22.1231191095
 10
-11.1115862081
 20
22.1320138991
 10
-11.1084549265
 20
22.1404714961
 10
-11.104840396
 20
22.1483955971
 10
-11.1007370928
 20
22.1557801043
 10
-11.0961505406
 20
22.1626311154
 10
-11.0911329646
 20
22.1688706207
 10
-11.0856794384
 20
22.1744916306
 10
-11.0797948884
 20
22.1795011346
 10
-11.0735463199
 20
22.1838420914
 10
-11.0674539284
 20
22.1872475363
  0
LINE
  5
36B
100
AcDbEntity
  8
0
100
AcDbLine
 62
250
  6
CONTINUOUS
 10
-8.5925066931
 20
22.4198218134
 11
-8.5051034882
 21
22.7929790573
  0
LINE
  5
36C
100
AcDbEntity
  8
RACCORDO
100
AcDbLine
 62
250
  6
CONTINUOUS
 10
-7.2973568867
 20
23.6399578878
 11
-7.3177881463
 21
23.5527291356
  0
LWPOLYLINE
  5
36D
100
AcDbEntity
  8
0
100
AcDbPolyline
 62
250
  6
CONTINUOUS
 90
14
 70
0
 10
-9.6247452934
 20
10.8940535042
 10
-9.611962128
 20
10.9381466933
 10
-9.594026934
 20
10.9776832468
 10
-9.5712875797
 20
11.0127078363
 10
-9.5449569104
 20
11.0424335625
 10
-9.5152457564
 20
11.0664029299
 10
-9.4823221332
 20
11.0848093587
 10
-9.4473728753
 20
11.0978274411
 10
-9.4105558807
 20
11.105250415
 10
-9.3719769465
 20
11.107123088
 10
-9.3327173817
 20
11.1040185464
 10
-9.293178585
 20
11.0961048416
 10
-9.2530849692
 20
11.0831425476
 10
-9.2124679221
 20
11.0651142634
  0
LWPOLYLINE
  5
36E
100
AcDbEntity
  8
RACCORDO
100
AcDbPolyline
 62
7
  6
CONTINUOUS
 90
12
 70
0
 10
-7.2371333432
 20
23.5806232226
 10
-7.2377885091
 20
23.578485237
 10
-7.2395449979
 20
23.5750636257
 10
-7.2421331641
 20
23.5718632961
 10
-7.2455424888
 20
23.5688814495
 10
-7.2497294849
 20
23.5661561204
 10
-7.2547041142
 20
23.5636905947
 10
-7.2604564149
 20
23.5614815865
 10
-7.2669130143
 20
23.5595572724
 10
-7.2740494551
 20
23.5579270448
 10
-7.2818901946
 20
23.5565815113
 10
-7.2904352329
 20
23.5555206719
  0
LWPOLYLINE
  5
36F
100
AcDbEntity
  8
RACCORDO
100
AcDbPolyline
 62
7
  6
CONTINUOUS
 90
12
 70
0
 10
-5.3695401716
 20
24.0511858477
 10
-5.3688850058
 20
24.0533238333
 10
-5.367128517
 20
24.0567454446
 10
-5.3645403508
 20
24.0599457742
 10
-5.3611310261
 20
24.0629276208
 10
-5.35694403
 20
24.0656529499
 10
-5.3519694007
 20
24.0681184756
 10
-5.3462171
 20
24.0703274838
 10
-5.3397605005
 20
24.0722517979
 10
-5.3326240598
 20
24.0738820255
 10
-5.3247833203
 20
24.075227559
 10
-5.316238282
 20
24.0762883984
  0
LINE
  5
370
100
AcDbEntity
  8
0
100
AcDbLine
 62
250
  6
CONTINUOUS
 10
-8.1267276327
 20
10.3113467836
 11
-8.2978644853
 21
10.1669345156
  0
LINE
  5
371
100
AcDbEntity
  8
RACCORDO
100
AcDbLine
 62
7
  6
CONTINUOUS
 10
0.9485783854
 20
14.6305568635
 11
1.3505983362
 21
14.8438604501
  0
LINE
  5
372
100
AcDbEntity
  8
RACCORDO
100
AcDbLine
 62
7
  6
CONTINUOUS
 10
4.5643628945
 20
16.5490183796
 11
5.285530641
 21
16.9316552776
  0
LWPOLYLINE
  5
373
100
AcDbEntity
  8
RACCORDO
100
AcDbPolyline
 62
250
  6
CONTINUOUS
 90
7
 70
0
 10
-19.4263318996
 20
5.31466363
 10
-19.4222670351
 20
5.3167046004
 10
-19.396122134
 20
5.3356529876
 10
-19.3748185096
 20
5.3621900485
 10
-19.3590033709
 20
5.395509579
 10
-19.3491571849
 20
5.4345993225
 10
-19.3455790805
 20
5.4782717217
  0
LINE
  5
374
100
AcDbEntity
  8
RACCORDO
100
AcDbLine
 62
7
  6
CONTINUOUS
 10
12.680009164
 20
21.6633636675
 11
11.3685422827
 21
21.0076302268
  0
LINE
  5
375
100
AcDbEntity
  8
DRAFT
100
AcDbLine
 62
7
  6
CONTINUOUS
 10
8.3895353631
 20
18.3548491388
 11
9.9292916043
 21
19.1159840043
  0
LINE
  5
376
100
AcDbEntity
  8
DRAFT
100
AcDbLine
 62
7
  6
CONTINUOUS
 10
6.765163006
 20
18.2740262551
 11
6.9123819067
 21
18.3457864025
  0
LINE
  5
377
100
AcDbEntity
  8
DRAFT
100
AcDbLine
 62
7
  6
CONTINUOUS
 10
9.5794779554
 20
20.0329576386
 11
7.410185585
 21
18.9946882177
  0
LINE
  5
378
100
AcDbEntity
  8
RACCORDO
100
AcDbLine
 62
7
  6
CONTINUOUS
 10
16.3119770113
 20
22.9262368606
 11
12.5443467644
 21
21.1284016462
  0
LINE
  5
379
100
AcDbEntity
  8
RACCORDO
100
AcDbLine
 62
7
  6
CONTINUOUS
 10
-10.8326230989
 20
9.4133740406
 11
-19.4263319005
 21
5.3146636296
  0
LWPOLYLINE
  5
37A
100
AcDbEntity
  8
RACCORDO
100
AcDbPolyline
 62
250
  6
CONTINUOUS
 90
4
 70
0
 10
-10.7527312645
 20
9.5765714916
 10
-19.3870252821
 20
5.4586380832
 10
-19.4312332285
 20
5.4398202348
 10
-19.4782029197
 20
5.4218181766
  0
LWPOLYLINE
  5
37B
100
AcDbEntity
  8
RACCORDO
100
AcDbPolyline
 62
250
  6
CONTINUOUS
 90
3
 70
0
 10
-19.4782029197
 20
5.4218181766
 10
-19.5281995153
 20
5.40422115
 10
-19.5809578557
 20
5.3874399136
  0
LINE
  5
37C
100
AcDbEntity
  8
0
100
AcDbLine
 62
7
  6
CONTINUOUS
 10
0.9934781612
 20
-12.8611096067
 11
0.1081718607
 21
-13.0974579021
  0
LINE
  5
37D
100
AcDbEntity
  8
0
100
AcDbLine
 62
250
  6
CONTINUOUS
 10
-6.7137595395
 20
-14.229706251
 11
-6.5688191714
 21
-14.1922000091
  0
LINE
  5
37E
100
AcDbEntity
  8
0
100
AcDbLine
 62
7
  6
CONTINUOUS
 10
-6.6454550986
 20
-14.1622061116
 11
-6.8596070582
 21
-14.2152034627
  0
LINE
  5
37F
100
AcDbEntity
  8
0
100
AcDbLine
 62
7
  6
CONTINUOUS
 10
-2.2146176802
 20
-13.4208830093
 11
-3.1868360829
 21
-13.6310543203
  0
LWPOLYLINE
  5
380
100
AcDbEntity
  8
0
100
AcDbPolyline
 62
7
  6
CONTINUOUS
 90
9
 70
0
 10
-2.2146176802
 20
-13.4208830093
 10
-2.2074265578
 20
-13.41936793
 10
-2.2002095113
 20
-13.4179133021
 10
-2.1929665406
 20
-13.4165191257
 10
-2.1857476231
 20
-13.4151941239
 10
-2.1785027813
 20
-13.4139295736
 10
-2.1710820838
 20
-13.412699305
 10
-2.1634355532
 20
-13.4114945947
 10
-2.1556131668
 20
-13.410324166
  0
LWPOLYLINE
  5
381
100
AcDbEntity
  8
0
100
AcDbPolyline
 62
250
  6
CONTINUOUS
 90
9
 70
0
 10
-5.4996127314
 20
-14.6287474399
 10
-5.6462382343
 20
-14.6581323305
 10
-5.7946051256
 20
-14.6992801368
 10
-5.9441779089
 20
-14.7519153703
 10
-6.0955578964
 20
-14.8162746388
 10
-6.2470776883
 20
-14.8917355345
 10
-6.394804521
 20
-14.9760042608
 10
-6.5376845248
 20
-15.0677363782
 10
-6.6759167608
 20
-15.16633091
  0
LWPOLYLINE
  5
382
100
AcDbEntity
  8
0
100
AcDbPolyline
 62
7
  6
CONTINUOUS
 90
19
 70
0
 10
-5.3234267161
 20
-14.8835171015
 10
-5.5271856133
 20
-14.9229852829
 10
-5.7345022456
 20
-14.9856840182
 10
-5.9438739229
 20
-15.0711470984
 10
-6.1537619627
 20
-15.178731607
 10
-6.3626703711
 20
-15.3076553936
 10
-6.5691550328
 20
-15.4570251005
 10
-6.7717588216
 20
-15.6258015296
 10
-6.9689738409
 20
-15.8127450958
 10
-7.1593234886
 20
-16.0164585012
 10
-7.3414062673
 20
-16.2354297129
 10
-7.5139356768
 20
-16.4680978462
 10
-7.6756963699
 20
-16.7128228811
 10
-7.8255314693
 20
-16.9678668738
 10
-7.9623340544
 20
-17.2313586738
 10
-8.0850926147
 20
-17.5013499335
 10
-8.1929165396
 20
-17.7758707454
 10
-8.2850354201
 20
-18.0529477055
 10
-8.3607861066
 20
-18.3305756588
  0
LINE
  5
383
100
AcDbEntity
  8
0
100
AcDbLine
 62
250
  6
CONTINUOUS
 10
-6.5688191714
 20
-14.1922000091
 11
-6.4258884441
 21
-14.1656095836
  0
LINE
  5
384
100
AcDbEntity
  8
0
100
AcDbLine
 62
7
  6
CONTINUOUS
 10
-6.5462779482
 20
-14.1449924412
 11
-6.6454550986
 21
-14.1622061116
  0
LWPOLYLINE
  5
385
100
AcDbEntity
  8
0
100
AcDbPolyline
 62
7
  6
CONTINUOUS
 90
7
 70
0
 10
1.5902142088
 20
-12.2607498377
 10
1.6091761928
 20
-12.2574807214
 10
1.7021500842
 20
-12.2352870578
 10
1.7957730498
 20
-12.206816871
 10
1.8902975873
 20
-12.1719610486
 10
1.9854711991
 20
-12.130828703
 10
2.0805363926
 20
-12.0837471708
  0
LWPOLYLINE
  5
386
100
AcDbEntity
  8
0
100
AcDbPolyline
 62
7
  6
CONTINUOUS
 90
37
 70
0
 10
-5.2173606296
 20
-14.9365501447
 10
-5.3220618898
 20
-14.9540410449
 10
-5.4274982262
 20
-14.9776269435
 10
-5.533669639
 20
-15.0073078406
 10
-5.6407821997
 20
-15.0431639689
 10
-5.7486298366
 20
-15.0851150957
 10
-5.8565943351
 20
-15.1329205227
 10
-5.9646765874
 20
-15.1866138465
 10
-6.0728757012
 20
-15.2461614706
 10
-6.1805707844
 20
-15.3112219072
 10
-6.2877587126
 20
-15.3818265277
 10
-6.3944426103
 20
-15.4579439607
 10
-6.5000109585
 20
-15.5391386052
 10
-6.6044582531
 20
-15.6254404031
 10
-6.7077899982
 20
-15.7168194124
 10
-6.8094111879
 20
-15.8127502064
 10
-6.9093117854
 20
-15.9132590432
 10
-7.0075018275
 20
-16.0183196646
 10
-7.1034164185
 20
-16.1273278692
 10
-7.1970423914
 20
-16.2403064995
 10
-7.2883929132
 20
-16.3572327129
 10
-7.3769425887
 20
-16.47743378
 10
-7.4626752933
 20
-16.6009288289
 10
-7.5456071516
 20
-16.7276987315
 10
-7.6252611425
 20
-16.8570133738
 10
-7.7016177271
 20
-16.9888862606
 10
-7.7746964444
 20
-17.1233038872
 10
-7.8440788904
 20
-17.2594956257
 10
-7.9097440806
 20
-17.3974719302
 10
-7.9717129996
 20
-17.5372223467
 10
-8.029630196
 20
-17.6779448854
 10
-8.083472375
 20
-17.8196448151
 10
-8.1332628314
 20
-17.9623168671
 10
-8.1787159989
 20
-18.1051432456
 10
-8.2197366887
 20
-18.2478513521
 10
-8.2564200895
 20
-18.3907137852
 10
-8.2887662013
 20
-18.5337305448
  0
LWPOLYLINE
  5
387
100
AcDbEntity
  8
0
100
AcDbPolyline
 62
7
  6
CONTINUOUS
 90
18
 70
0
 10
-6.7729955482
 20
-14.1587326854
 10
-6.8776968083
 20
-14.1762235855
 10
-6.9831331446
 20
-14.1998094841
 10
-7.0893045573
 20
-14.2294903812
 10
-7.1964171178
 20
-14.2653465094
 10
-7.3042647547
 20
-14.3072976361
 10
-7.412229253
 20
-14.3551030631
 10
-7.5203115052
 20
-14.4087963868
 10
-7.6285106188
 20
-14.4683440107
 10
-7.7362057019
 20
-14.5334044473
 10
-7.8433936301
 20
-14.6040090676
 10
-7.9500775276
 20
-14.6801265005
 10
-8.0556458758
 20
-14.7613211448
 10
-8.1600931702
 20
-14.8476229425
 10
-8.2634249153
 20
-14.9390019517
 10
-8.3650461049
 20
-15.0349327455
 10
-8.4649467023
 20
-15.1354415821
 10
-8.5631367444
 20
-15.2405022034
  0
LINE
  5
388
100
AcDbEntity
  8
0
100
AcDbLine
 62
250
  6
CONTINUOUS
 10
-4.1877782351
 20
-14.4136006707
 11
-5.4996170681
 21
-14.6287452716
  0
LINE
  5
389
100
AcDbEntity
  8
0
100
AcDbLine
 62
250
  6
CONTINUOUS
 10
-2.556670631
 20
-14.1484067168
 11
-4.1877782351
 21
-14.4136006707
  0
LINE
  5
38A
100
AcDbEntity
  8
0
100
AcDbLine
 62
250
  6
CONTINUOUS
 10
-0.3663614131
 20
-13.7957485871
 11
-2.556670631
 21
-14.1484067168
  0
LINE
  5
38B
100
AcDbEntity
  8
0
100
AcDbLine
 62
250
  6
CONTINUOUS
 10
2.2151998511
 20
-13.3845649709
 11
-0.3663614131
 21
-13.7957485871
  0
LINE
  5
38C
100
AcDbEntity
  8
0
100
AcDbLine
 62
7
  6
CONTINUOUS
 10
1.8735724678
 20
-12.840447314
 11
0.9323733918
 21
-12.9888439707
  0
LINE
  5
38D
100
AcDbEntity
  8
0
100
AcDbLine
 62
7
  6
CONTINUOUS
 10
0.9323733918
 20
-12.9888439707
 11
-0.0934373227
 21
-13.1498942725
  0
LINE
  5
38E
100
AcDbEntity
  8
0
100
AcDbLine
 62
7
  6
CONTINUOUS
 10
-0.0934373227
 20
-13.1498942725
 11
-1.1033400476
 21
-13.3077410268
  0
LINE
  5
38F
100
AcDbEntity
  8
0
100
AcDbLine
 62
250
  6
CONTINUOUS
 10
-1.6046173054
 20
-13.4251671778
 11
1.994145001
 21
-12.861042744
  0
LINE
  5
390
100
AcDbEntity
  8
0
100
AcDbLine
 62
7
  6
CONTINUOUS
 10
-1.1033400476
 20
-13.3077410268
 11
-2.1383890936
 21
-13.468761877
  0
LINE
  5
391
100
AcDbEntity
  8
0
100
AcDbLine
 62
7
  6
CONTINUOUS
 10
-2.1383890936
 20
-13.468761877
 11
-3.6586835993
 21
-13.7037722122
  0
LWPOLYLINE
  5
392
100
AcDbEntity
  8
0
100
AcDbPolyline
 62
7
  6
CONTINUOUS
 90
3
 70
0
 10
-3.6586835993
 20
-13.7037722122
 10
-4.9467618039
 20
-13.9015806879
 10
-5.8205361333
 20
-14.0348635697
  0
LINE
  5
393
100
AcDbEntity
  8
0
100
AcDbLine
 62
250
  6
CONTINUOUS
 10
-4.6813537788
 20
-13.9000074771
 11
-1.6046173054
 21
-13.4251671778
  0
LWPOLYLINE
  5
394
100
AcDbEntity
  8
0
100
AcDbPolyline
 62
250
  6
CONTINUOUS
 90
3
 70
0
 10
-6.4258841195
 20
-14.1656117459
 10
-5.829063616
 20
-14.0750146721
 10
-4.6813537788
 20
-13.9000074771
  0
LINE
  5
395
100
AcDbEntity
  8
0
100
AcDbLine
 62
7
  6
CONTINUOUS
 10
-5.8205361333
 20
-14.0348635697
 11
-6.5466660647
 21
-14.1450535163
  0
LINE
  5
396
100
AcDbEntity
  8
0
100
AcDbLine
 62
7
  6
CONTINUOUS
 10
1.8736370021
 20
-12.8404609832
 11
1.8772427696
 21
-12.8399282794
  0
LWPOLYLINE
  5
397
100
AcDbEntity
  8
0
100
AcDbPolyline
 62
7
  6
CONTINUOUS
 90
7
 70
0
 10
0.088343854
 20
-13.101343403
 10
0.0919966737
 20
-13.1008035761
 10
0.0955102326
 20
-13.1002206466
 10
0.0988845308
 20
-13.0995946144
 10
0.1021195682
 20
-13.0989254796
 10
0.1052153448
 20
-13.0982132421
 10
0.1081718607
 20
-13.0974579021
  0
LINE
  5
398
100
AcDbEntity
  8
0
100
AcDbLine
 62
7
  6
CONTINUOUS
 10
-6.7729955482
 20
-14.1587326854
 11
-5.3316013521
 21
-13.9602829435
  0
LINE
  5
399
100
AcDbEntity
  8
0
100
AcDbLine
 62
250
  6
CONTINUOUS
 10
1.9941451829
 20
-12.8610404872
 11
2.2151998511
 21
-12.8306058969
  0
LINE
  5
39A
100
AcDbEntity
  8
0
100
AcDbLine
 62
7
  6
CONTINUOUS
 10
0.088343854
 20
-13.101343403
 11
-2.1556131668
 21
-13.410324166
  0
LINE
  5
39B
100
AcDbEntity
  8
0
100
AcDbLine
 62
7
  6
CONTINUOUS
 10
1.8772458429
 20
-12.8399278563
 11
2.2151998511
 21
-12.7933986792
  0
LWPOLYLINE
  5
39C
100
AcDbEntity
  8
0
100
AcDbPolyline
 62
250
  6
CONTINUOUS
 90
6
 70
0
 10
-6.5462564282
 20
-14.1449919367
 10
-6.5397501869
 20
-14.1441383026
 10
-6.5112838798
 20
-14.1430954594
 10
-6.4826123283
 20
-14.1463673108
 10
-6.4540814019
 20
-14.1539119835
 10
-6.4260400914
 20
-14.1656353753
  0
LWPOLYLINE
  5
39D
100
AcDbEntity
  8
0
100
AcDbPolyline
 62
250
  6
CONTINUOUS
 90
4
 70
0
 10
1.8772427696
 20
-12.8399282794
 10
1.9062206485
 20
-12.8382318997
 10
1.9509302046
 20
-12.8443877259
 10
1.9948514291
 20
-12.8609432519
  0
LINE
  5
39E
100
AcDbEntity
  8
0
100
AcDbLine
 62
7
  6
CONTINUOUS
 10
0.736446351
 20
-15.1013411985
 11
2.1441176428
 21
-15.8051768444
  0
LINE
  5
39F
100
AcDbEntity
  8
RACCORDO
100
AcDbLine
 62
7
  6
CONTINUOUS
 10
17.1243200388
 20
-23.1579833758
 11
18.173846054
 21
-23.6827463834
  0
LINE
  5
3A0
100
AcDbEntity
  8
RACCORDO
100
AcDbLine
 62
7
  6
CONTINUOUS
 10
1.41577838
 20
-14.8585343905
 11
2.2151998511
 21
-15.258245126
  0
LINE
  5
3A1
100
AcDbEntity
  8
RACCORDO
100
AcDbLine
 62
250
  6
CONTINUOUS
 10
-21.3230753313
 20
-2.3386390043
 11
-22.7501096312
 21
-1.6251218543
  0
LWPOLYLINE
  5
3A2
100
AcDbEntity
  8
RACCORDO
100
AcDbPolyline
 62
250
  6
CONTINUOUS
 90
3
 70
0
 10
1.5242069648
 20
-16.3005572204
 10
1.2451082365
 20
-16.1410786006
 10
0.736446351
 20
-15.8260896858
  0
LWPOLYLINE
  5
3A3
100
AcDbEntity
  8
RACCORDO
100
AcDbPolyline
 62
7
  6
CONTINUOUS
 90
4
 70
0
 10
1.6512994583
 20
-16.2322390712
 10
1.374114244
 20
-16.0721721765
 10
0.7386831236
 20
-15.672534931
 10
0.736446351
 20
-15.6710120924
  0
LWPOLYLINE
  5
3A4
100
AcDbEntity
  8
DRAFT
100
AcDbPolyline
 62
7
  6
CONTINUOUS
 90
17
 70
0
 10
-2.1118829021
 20
-13.404268469
 10
-2.4237358259
 20
-13.1610420093
 10
-3.1089259948
 20
-12.5794219322
 10
-3.7848326425
 20
-11.9580889572
 10
-4.4458768812
 20
-11.3021731202
 10
-5.0919282975
 20
-10.6113968929
 10
-5.7231173048
 20
-9.8860378037
 10
-6.3342562564
 20
-9.132058474
 10
-6.9251863536
 20
-8.3492142576
 10
-7.4960663951
 20
-7.5377498008
 10
-8.0421851301
 20
-6.7043616638
 10
-8.5633334871
 20
-5.8488753472
 10
-9.0597205375
 20
-4.9714653505
 10
-9.5272622442
 20
-4.0793517327
 10
-9.9645972614
 20
-3.1749411802
 10
-10.3730869348
 20
-2.2558270067
 10
-10.7527312645
 20
-1.3220092122
  0
LWPOLYLINE
  5
3A5
100
AcDbEntity
  8
RACCORDO
100
AcDbPolyline
 62
250
  6
CONTINUOUS
 90
12
 70
0
 10
-2.8413195443
 20
-24.4363930289
 10
-2.7957902863
 20
-24.5272802434
 10
-2.7431571702
 20
-24.612786332
 10
-2.6840423137
 20
-24.6920738189
 10
-2.6191004594
 20
-24.7642530452
 10
-2.5490762782
 20
-24.8287921912
 10
-2.4747472826
 20
-24.8854258334
 10
-2.3968338794
 20
-24.9336529257
 10
-2.3161491263
 20
-24.9728364632
 10
-2.2336286079
 20
-25.0025626915
 10
-2.150135846
 20
-25.0225260666
 10
-2.0665145592
 20
-25.0325092187
  0
LWPOLYLINE
  5
3A6
100
AcDbEntity
  8
RACCORDO
100
AcDbPolyline
 62
250
  6
CONTINUOUS
 90
11
 70
0
 10
-2.9520743349
 20
-24.4429513126
 10
-2.8947036469
 20
-24.558055095
 10
-2.8264611255
 20
-24.6653169794
 10
-2.7484886525
 20
-24.7629421859
 10
-2.6620909172
 20
-24.8492971829
 10
-2.568713587
 20
-24.922937019
 10
-2.469919117
 20
-24.9826295017
 10
-2.3673606048
 20
-25.0273758163
 10
-2.2627541304
 20
-25.0564272376
 10
-2.1578500418
 20
-25.0692976585
 10
-2.0544036665
 20
-25.0657717236
  0
LWPOLYLINE
  5
3A7
100
AcDbEntity
  8
RACCORDO
100
AcDbPolyline
 62
250
  6
CONTINUOUS
 90
6
 70
0
 10
-18.5832203971
 20
13.8773461676
 10
-18.5579021556
 20
13.8196155532
 10
-18.5272141695
 20
13.7657215527
 10
-18.4916585244
 20
13.7165458175
 10
-18.4518169398
 20
13.6728928063
 10
-18.4083412276
 20
13.6354766003
  0
LWPOLYLINE
  5
3A8
100
AcDbEntity
  8
RACCORDO
100
AcDbPolyline
 62
250
  6
CONTINUOUS
 90
12
 70
0
 10
-18.7103693749
 20
13.8682776315
 10
-18.6856540835
 20
13.8083992313
 10
-18.6553124887
 20
13.7522651913
 10
-18.6198641999
 20
13.7008368244
 10
-18.5799162801
 20
13.6549948576
 10
-18.5361528499
 20
13.6155243489
 10
-18.4893233718
 20
13.5831012431
 10
-18.4402298154
 20
13.5582807961
 10
-18.3897129231
 20
13.5414880657
 10
-18.3386378125
 20
13.5330106329
 10
-18.2878791611
 20
13.5329936762
 10
-18.2480923063
 20
13.5390750517
  0
LWPOLYLINE
  5
3A9
100
AcDbEntity
  8
RACCORDO
100
AcDbPolyline
 62
250
  6
CONTINUOUS
 90
13
 70
0
 10
-4.1954314468
 20
-23.7510365042
 10
-4.2173834423
 20
-23.689776456
 10
-4.2329099424
 20
-23.6262348687
 10
-4.2417450511
 20
-23.5614999117
 10
-4.2437374642
 20
-23.4966801915
 10
-4.2388530611
 20
-23.4328857662
 10
-4.2271754887
 20
-23.3712091352
 10
-4.2089047291
 20
-23.3127065301
 10
-4.1843536747
 20
-23.2583798265
 10
-4.1539427701
 20
-23.2091593861
 10
-4.1181928115
 20
-23.1658881244
 10
-4.0777160281
 20
-23.1293070753
 10
-4.0332055976
 20
-23.1000427007
  0
LWPOLYLINE
  5
3AA
100
AcDbEntity
  8
RACCORDO
100
AcDbPolyline
 62
250
  6
CONTINUOUS
 90
13
 70
0
 10
-4.320173652
 20
-23.7589016541
 10
-4.3397078868
 20
-23.6982789201
 10
-4.353138461
 20
-23.6357561271
 10
-4.3602457119
 20
-23.5723561402
 10
-4.3609134269
 20
-23.5091161732
 10
-4.3551307438
 20
-23.4470707781
 10
-4.3429923123
 20
-23.387234924
 10
-4.324696756
 20
-23.3305874701
 10
-4.3005434177
 20
-23.2780550899
 10
-4.2709274322
 20
-23.2304970883
 10
-4.2363332984
 20
-23.1886914352
 10
-4.1973269719
 20
-23.1533220238
 10
-4.1545465741
 20
-23.124967435
  0
LWPOLYLINE
  5
3AB
100
AcDbEntity
  8
0
100
AcDbPolyline
 62
7
  6
CONTINUOUS
 90
10
 70
0
 10
-9.7368540671
 20
10.8821836213
 10
-9.7411515622
 20
10.9254795354
 10
-9.7406247307
 20
11.001502561
 10
-9.7289442482
 20
11.0729117788
 10
-9.7068009032
 20
11.138728964
 10
-9.6759934554
 20
11.1964714474
 10
-9.6368689853
 20
11.2451062568
 10
-9.5900832836
 20
11.2848779538
 10
-9.5381779593
 20
11.3150773073
 10
-9.5216984193
 20
11.3208872077
  0
LWPOLYLINE
  5
3AC
100
AcDbEntity
  8
RACCORDO
100
AcDbPolyline
 62
250
  6
CONTINUOUS
 90
7
 70
0
 10
-10.4394079967
 20
19.5659630676
 10
-10.4388387528
 20
19.5518434688
 10
-10.4306324491
 20
19.5090535667
 10
-10.4127832054
 20
19.46710935
 10
-10.3855276877
 20
19.426562028
 10
-10.3492287772
 20
19.3879411876
 10
-10.3043649928
 20
19.3517637965
  0
LINE
  5
3AD
100
AcDbEntity
  8
RACCORDO
100
AcDbLine
 62
7
  6
CONTINUOUS
 10
-10.9125065237
 20
26.7849229682
 11
-10.9125065237
 21
27.1128610199
  0
LINE
  5
3AE
100
AcDbEntity
  8
RACCORDO
100
AcDbLine
 62
7
  6
CONTINUOUS
 10
-10.7527312645
 20
12.0622650082
 11
-10.7527312645
 21
9.5765714916
  0
LINE
  5
3AF
100
AcDbEntity
  8
RACCORDO
100
AcDbLine
 62
7
  6
CONTINUOUS
 10
-10.7527312645
 20
4.6434580817
 11
-10.7527312645
 21
-1.3220092122
  0
LINE
  5
3B0
100
AcDbEntity
  8
RACCORDO
100
AcDbLine
 62
7
  6
CONTINUOUS
 10
-10.4394089087
 20
19.5665453893
 11
-10.4394089088
 21
19.1803326112
  0
LINE
  5
3B1
100
AcDbEntity
  8
RACCORDO
100
AcDbLine
 62
7
  6
CONTINUOUS
 10
-10.4358407917
 20
28.2855713275
 11
-10.4358407917
 21
27.9177014061
  0
LINE
  5
3B2
100
AcDbEntity
  8
0
100
AcDbLine
 62
250
  6
CONTINUOUS
 10
-9.574742367
 20
26.8345668878
 11
-9.574742367
 21
27.2551280899
  0
LINE
  5
3B3
100
AcDbEntity
  8
0
100
AcDbLine
 62
7
  6
CONTINUOUS
 10
-9.5166019762
 20
21.4508748197
 11
-9.5166019762
 21
21.7106824408
  0
LINE
  5
3B4
100
AcDbEntity
  8
ASSI
100
AcDbLine
 62
7
  6
CONTINUOUS
 10
-9.2881341666
 20
26.8641788143
 11
-9.2881341666
 21
27.3403743788
  0
LINE
  5
3B5
100
AcDbEntity
  8
0
100
AcDbLine
 62
7
  6
CONTINUOUS
 10
-9.2337592637
 20
21.5922961759
 11
-9.2337592637
 21
21.8521037971
  0
LINE
  5
3B6
100
AcDbEntity
  8
RACCORDO
100
AcDbLine
 62
250
  6
CONTINUOUS
 10
-9.1913838828
 20
19.3072617396
 11
-9.1913838828
 21
18.9231322184
  0
LINE
  5
3B7
100
AcDbEntity
  8
0
100
AcDbLine
 62
250
  6
CONTINUOUS
 10
-9.0216272294
 20
22.2179774354
 11
-9.0216272294
 21
22.5643875969
  0
LINE
  5
3B8
100
AcDbEntity
  8
0
100
AcDbLine
 62
250
  6
CONTINUOUS
 10
-8.6580590968
 20
22.3997615017
 11
-8.6580590968
 21
22.7461716632
  0
LWPOLYLINE
  5
3B9
100
AcDbEntity
  8
RACCORDO
100
AcDbPolyline
 62
250
  6
CONTINUOUS
 90
22
 70
0
 10
-10.2403428835
 20
19.7590727922
 10
-10.2413016919
 20
19.7276743413
 10
-10.2352321899
 20
19.6960893485
 10
-10.2223768998
 20
19.6655396252
 10
-10.2024703367
 20
19.6360648592
 10
-10.1757779853
 20
19.6076253628
 10
-10.1433388219
 20
19.5813238839
 10
-10.1049264149
 20
19.5572437099
 10
-10.0607671958
 20
19.5353015535
 10
-10.0125794355
 20
19.516350301
 10
-9.9602072057
 20
19.5005078977
 10
-9.9038064348
 20
19.4876563983
 10
-9.8455631787
 20
19.4782948535
 10
-9.785412309
 20
19.4725582551
 10
-9.7234189541
 20
19.4703116113
 10
-9.6619645559
 20
19.4716489965
 10
-9.6009738704
 20
19.4767493883
 10
-9.5405221416
 20
19.4854338092
 10
-9.4832165428
 20
19.4972594014
 10
-9.4299261318
 20
19.5120785459
 10
-9.3797818508
 20
19.5300388617
 10
-9.3327836998
 20
19.5511403489
  0
LWPOLYLINE
  5
3BA
100
AcDbEntity
  8
RACCORDO
100
AcDbPolyline
 62
250
  6
CONTINUOUS
 90
27
 70
0
 10
-8.1023884138
 20
5.7848433613
 10
-8.0942532519
 20
6.0149965302
 10
-8.0713240078
 20
6.2331357606
 10
-8.0336006817
 20
6.4392610524
 10
-7.9805513478
 20
6.6345996999
 10
-7.9127079318
 20
6.8179244088
 10
-7.831666211
 20
6.9855532963
 10
-7.7372387583
 20
7.1370083099
 10
-7.6296130009
 20
7.2727675019
 10
-7.510946997
 20
7.3905831463
 10
-7.3810901516
 20
7.4901583269
 10
-7.2401930598
 20
7.5717899599
 10
-7.0908655654
 20
7.6341210673
 10
-6.9329680663
 20
7.6768563307
 10
-6.7666401647
 20
7.7002910685
 10
-6.5949105104
 20
7.703954258
 10
-6.417595607
 20
7.6874725663
 10
-6.2348789509
 20
7.6512193262
 10
-6.050339682
 20
7.5958435134
 10
-5.8639614967
 20
7.5209582053
 10
-5.6757606985
 20
7.4269503245
 10
-5.4893653376
 20
7.3156296144
 10
-5.3047895401
 20
7.1866230613
 10
-5.12201918
 20
7.040303679
 10
-4.9446399291
 20
6.8796002517
 10
-4.7728399655
 20
6.7043294489
 10
-4.6064311112
 20
6.5146746013
  0
LWPOLYLINE
  5
3BB
100
AcDbEntity
  8
0
100
AcDbPolyline
 62
7
  6
CONTINUOUS
 90
19
 70
0
 10
-9.5166019762
 20
21.7106824408
 10
-9.5146002834
 20
21.7651715813
 10
-9.5089783315
 20
21.8202827931
 10
-9.4997361207
 20
21.8760160762
 10
-9.486748843
 20
21.9328028658
 10
-9.4701413064
 20
21.9902117267
 10
-9.4502879344
 20
22.0469483531
 10
-9.4271149941
 20
22.1029974744
 10
-9.4006962185
 20
22.1583743611
 10
-9.3716272294
 20
22.2118305192
 10
-9.3398478242
 20
22.2633223172
 10
-9.3054182055
 20
22.3128933865
 10
-9.2691146028
 20
22.3594261275
 10
-9.2308944465
 20
22.4028515212
 10
-9.1908003064
 20
22.4432385867
 10
-9.1497361207
 20
22.4796767812
 10
-9.1080032024
 20
22.5118625906
 10
-9.0653002386
 20
22.5400995292
 10
-9.0216272294
 20
22.5643875969
  0
LWPOLYLINE
  5
3BC
100
AcDbEntity
  8
0
100
AcDbPolyline
 62
250
  6
CONTINUOUS
 90
3
 70
0
 10
-9.634322552
 20
10.7944730878
 10
-9.6323824435
 20
10.8457375313
 10
-9.6247452934
 20
10.8940535042
  0
LWPOLYLINE
  5
3BD
100
AcDbEntity
  8
0
100
AcDbPolyline
 62
7
  6
CONTINUOUS
 90
16
 70
0
 10
-9.2337592637
 20
21.8521037971
 10
-9.2324927315
 20
21.8803719257
 10
-9.2290319046
 20
21.9088639959
 10
-9.223376783
 20
21.9375800076
 10
-9.215418128
 20
21.966837157
 10
-9.2052651784
 20
21.9963182479
 10
-9.1932456502
 20
22.025071692
 10
-9.179298639
 20
22.0530737467
 10
-9.1634850492
 20
22.0803481546
 10
-9.1463153107
 20
22.1060145543
 10
-9.1277451738
 20
22.1300204783
 10
-9.1078188882
 20
22.1524183941
 10
-9.087179633
 20
22.1724853435
 10
-9.0660418014
 20
22.1899803405
 10
-9.0441910002
 20
22.2051443711
 10
-9.0216272294
 20
22.2179774354
  0
LINE
  5
3BE
100
AcDbEntity
  8
ASSI
100
AcDbLine
 62
7
  6
CONTINUOUS
 10
-7.1482986511
 20
6.6399313258
 11
-7.1060485445
 21
6.8524619419
  0
LWPOLYLINE
  5
3BF
100
AcDbEntity
  8
ASSI
100
AcDbPolyline
 62
7
  6
CONTINUOUS
 90
3
 70
0
 10
-7.3279046588
 20
6.2845736144
 10
-7.2826909697
 20
6.4902265929
 10
-7.219966097
 20
6.6808266508
  0
LINE
  5
3C0
100
AcDbEntity
  8
RACCORDO
100
AcDbLine
 62
250
  6
CONTINUOUS
 10
-5.316238282
 20
24.0762883984
 11
-5.3329233155
 21
24.0050536981
  0
LINE
  5
3C1
100
AcDbEntity
  8
ASSI
100
AcDbLine
 62
7
  6
CONTINUOUS
 10
-7.1060485445
 20
6.8524619419
 11
-7.082398808
 21
6.932220529
  0
LINE
  5
3C2
100
AcDbEntity
  8
ASSI
100
AcDbLine
 62
7
  6
CONTINUOUS
 10
-7.219966097
 20
6.6808266508
 11
-7.1871731802
 21
6.7589986003
  0
LINE
  5
3C3
100
AcDbEntity
  8
RACCORDO
100
AcDbLine
 62
7
  6
CONTINUOUS
 10
-7.2094633834
 20
6.7170664915
 11
-7.1300577092
 21
6.8645985627
  0
LWPOLYLINE
  5
3C4
100
AcDbEntity
  8
COPY-PUBBLISH
100
AcDbPolyline
 62
7
  6
CONTINUOUS
 90
9
 70
0
 10
-6.088733622
 20
7.360129111
 10
-6.1304724268
 20
7.2853610872
 10
-6.1839097095
 20
7.1677782839
 10
-6.2294366843
 20
7.0422264825
 10
-6.2671532514
 20
6.9088067775
 10
-6.2965781397
 20
6.7692213985
 10
-6.3175509255
 20
6.6240377554
 10
-6.3302320326
 20
6.4726884383
 10
-6.3346214609
 20
6.3151734472
  0
LWPOLYLINE
  5
3C5
100
AcDbEntity
  8
RACCORDO
100
AcDbPolyline
 62
7
  6
CONTINUOUS
 90
3
 70
0
 10
-7.1300577092
 20
6.8645985627
 10
-7.0373737567
 20
6.9961053948
 10
-6.9317063748
 20
7.1119427215
  0
LINE
  5
3C6
100
AcDbEntity
  8
RACCORDO
100
AcDbLine
 62
7
  6
CONTINUOUS
 10
-6.9317063748
 20
7.1119427215
 11
-6.8154363528
 21
7.2094977609
  0
LWPOLYLINE
  5
3C7
100
AcDbEntity
  8
0
100
AcDbPolyline
 62
7
  6
CONTINUOUS
 90
5
 70
0
 10
8.3472036655
 20
18.4762659416
 10
8.3641838317
 20
18.4882425191
 10
8.377056518
 20
18.4969862079
 10
8.3855705445
 20
18.5025040977
 10
8.3893458613
 20
18.5048994375
  0
LWPOLYLINE
  5
3C8
100
AcDbEntity
  8
RACCORDO
100
AcDbPolyline
 62
7
  6
CONTINUOUS
 90
3
 70
0
 10
-6.8154363528
 20
7.2094977609
 10
-6.6883226377
 20
7.288355522
 10
-6.6643851144
 20
7.3005694059
  0
LWPOLYLINE
  5
3C9
100
AcDbEntity
  8
RACCORDO
100
AcDbPolyline
 62
250
  6
CONTINUOUS
 90
9
 70
0
 10
9.1441063977
 20
14.6876256998
 10
9.1780367548
 20
14.7066388012
 10
9.2077744037
 20
14.7273234008
 10
9.232995913
 20
14.7494553743
 10
9.2534293735
 20
14.7727954337
 10
9.2688437857
 20
14.7970900634
 10
9.2790625692
 20
14.8220724908
 10
9.2839790946
 20
14.8474649434
 10
9.2844496226
 20
14.8578382372
  0
LINE
  5
3CA
100
AcDbEntity
  8
RACCORDO
100
AcDbLine
 62
250
  6
CONTINUOUS
 10
9.002720159
 20
14.9315111654
 11
9.0233751657
 21
14.9429794842
  0
LWPOLYLINE
  5
3CB
100
AcDbEntity
  8
RACCORDO
100
AcDbPolyline
 62
250
  6
CONTINUOUS
 90
40
 70
0
 10
-19.5576994835
 20
0.6928731486
 10
-19.6080083239
 20
0.6666786051
 10
-19.6610713629
 20
0.6371782674
 10
-19.7168284053
 20
0.6041003712
 10
-19.7752150986
 20
0.5671616788
 10
-19.8361240669
 20
0.5260891464
 10
-19.8994035133
 20
0.4806268205
 10
-19.9651503056
 20
0.4303188611
 10
-20.0329650113
 20
0.3750634781
 10
-20.1019386952
 20
0.3152419696
 10
-20.1718239367
 20
0.2507640539
 10
-20.2424816754
 20
0.181439958
 10
-20.313184926
 20
0.1076842823
 10
-20.3837270213
 20
0.0294579846
 10
-20.4538763059
 20
-0.0532468129
 10
-20.5229114258
 20
-0.1398110613
 10
-20.5906203741
 20
-0.2301439992
 10
-20.6567924523
 20
-0.3241455935
 10
-20.7207843063
 20
-0.4210427763
 10
-20.7824324812
 20
-0.5206654836
 10
-20.8415599348
 20
-0.6228057376
 10
-20.8976126258
 20
-0.726524725
 10
-20.9505069863
 20
-0.8316086634
 10
-21.0001369524
 20
-0.9377794789
 10
-21.046062042
 20
-1.0439307905
 10
-21.0882903325
 20
-1.1498079526
 10
-21.1268384475
 20
-1.2551546511
 10
-21.1614525288
 20
-1.3588386852
 10
-21.1922521106
 20
-1.4606323997
 10
-21.2193721206
 20
-1.5603407402
 10
-21.2427575751
 20
-1.6569058717
 10
-21.2626313932
 20
-1.7501785378
 10
-21.279225275
 20
-1.8400535485
 10
-21.2926555715
 20
-1.9255999027
 10
-21.3032202907
 20
-2.0067759783
 10
-21.3112124467
 20
-2.083569183
 10
-21.3168697512
 20
-2.1551688621
 10
-21.3205158266
 20
-2.2213584923
 10
-21.3224862712
 20
-2.2824865927
 10
-21.3230753313
 20
-2.3386390043
  0
LWPOLYLINE
  5
3CC
100
AcDbEntity
  8
RACCORDO
100
AcDbPolyline
 62
250
  6
CONTINUOUS
 90
40
 70
0
 10
-19.3455790805
 20
0.3270195713
 10
-19.3900173564
 20
0.3044011614
 10
-19.43675059
 20
0.2783917596
 10
-19.4857787813
 20
0.2489913658
 10
-19.5372156887
 20
0.2164349778
 10
-19.5909475538
 20
0.1804875979
 10
-19.6466331012
 20
0.1404442326
 10
-19.7045254169
 20
0.0960787964
 10
-19.7643714148
 20
0.0476173747
 10
-19.8250705616
 20
-0.0049667697
 10
-19.8865897778
 20
-0.0617550653
 10
-19.9489621428
 20
-0.1226660837
 10
-20.0111863616
 20
-0.1874822756
 10
-20.0732658387
 20
-0.2563328608
 10
-20.1351971697
 20
-0.3290886197
 10
-20.195968846
 20
-0.4051443444
 10
-20.2555436499
 20
-0.4846071601
 10
-20.3139587992
 20
-0.5673699417
 10
-20.3703144388
 20
-0.6525061064
 10
-20.4245500362
 20
-0.740108305
 10
-20.4767261238
 20
-0.8300838866
 10
-20.5261244447
 20
-0.9212283161
 10
-20.5726584299
 20
-1.0136100825
 10
-20.6164146483
 20
-1.1071606968
 10
-20.6569345488
 20
-1.2004701574
 10
-20.6940989077
 20
-1.2935360707
 10
-20.7280269486
 20
-1.3863608304
 10
-20.7586177922
 20
-1.477541615
 10
-20.7857504762
 20
-1.5670195508
 10
-20.8095459629
 20
-1.6548535117
 10
-20.830266259
 20
-1.7398172975
 10
-20.847811924
 20
-1.8218202996
 10
-20.8622823985
 20
-1.9009531265
 10
-20.8742380099
 20
-1.9762614039
 10
-20.8836150125
 20
-2.0476545213
 10
-20.8904771522
 20
-2.115223089
 10
-20.8955759938
 20
-2.178284564
 10
-20.8991620589
 20
-2.2366114318
 10
-20.9009848259
 20
-2.2904312068
 10
-20.9010442948
 20
-6.9065752668
  0
LINE
  5
3CD
100
AcDbEntity
  8
RACCORDO
100
AcDbLine
 62
250
  6
CONTINUOUS
 10
8.2290495358
 20
14.5474657701
 11
8.2671551098
 21
14.5666654783
  0
LINE
  5
3CE
100
AcDbEntity
  8
RACCORDO
100
AcDbLine
 62
250
  6
CONTINUOUS
 10
-10.9648516675
 20
5.009311659
 11
-19.5576994835
 21
0.6928731486
  0
LINE
  5
3CF
100
AcDbEntity
  8
RACCORDO
100
AcDbLine
 62
250
  6
CONTINUOUS
 10
-10.7527312645
 20
4.6434580817
 11
-19.3455790805
 21
0.3270195713
  0
LINE
  5
3D0
100
AcDbEntity
  8
RACCORDO
100
AcDbLine
 62
250
  6
CONTINUOUS
 10
6.5587828879
 20
13.2550731243
 11
6.7168921512
 21
13.334127756
  0
LINE
  5
3D1
100
AcDbEntity
  8
0
100
AcDbLine
 62
7
  6
CONTINUOUS
 10
8.6560423003
 20
13.7255528321
 11
9.0196104329
 21
13.9073368984
  0
LINE
  5
3D2
100
AcDbEntity
  8
RACCORDO
100
AcDbLine
 62
250
  6
CONTINUOUS
 10
8.2671551098
 20
14.5666654783
 11
9.002720159
 21
14.9315111654
  0
LINE
  5
3D3
100
AcDbEntity
  8
RACCORDO
100
AcDbLine
 62
250
  6
CONTINUOUS
 10
8.8958296252
 20
14.5644787116
 11
9.1441063979
 21
14.6876258212
  0
LINE
  5
3D4
100
AcDbEntity
  8
0
100
AcDbLine
 62
250
  6
CONTINUOUS
 10
-6.3329372606
 20
6.311745738
 11
-5.1971435417
 21
6.8698164275
  0
LINE
  5
3D5
100
AcDbEntity
  8
RACCORDO
100
AcDbLine
 62
7
  6
CONTINUOUS
 10
-21.2991622513
 20
1.5636045324
 11
-12.5077756431
 21
5.7807736468
  0
LWPOLYLINE
  5
3D6
100
AcDbEntity
  8
0
100
AcDbPolyline
 62
7
  6
CONTINUOUS
 90
10
 70
0
 10
9.0196104329
 20
13.9073368984
 10
9.0369197342
 20
13.9156185147
 10
9.0541660507
 20
13.9231346981
 10
9.0713493825
 20
13.9298854487
 10
9.0884904945
 20
13.935877121
 10
9.1055686217
 20
13.9411033604
 10
9.1225214694
 20
13.9455451036
 10
9.1393282729
 20
13.9491959961
 10
9.1560097969
 20
13.9520623924
 10
9.1725660414
 20
13.9541442925
  0
LWPOLYLINE
  5
3D7
100
AcDbEntity
  8
0
100
AcDbPolyline
 62
7
  6
CONTINUOUS
 90
10
 70
0
 10
9.0196104329
 20
13.5609267368
 10
9.0270287049
 20
13.564476001
 10
9.0344199834
 20
13.5676972225
 10
9.0417842685
 20
13.5705904013
 10
9.0491304593
 20
13.5731582608
 10
9.0564496566
 20
13.5753980777
 10
9.0637151628
 20
13.5773016819
 10
9.0709180786
 20
13.5788663502
 10
9.0780673032
 20
13.5800948057
 10
9.0851628366
 20
13.5809870486
  0
LINE
  5
3D8
100
AcDbEntity
  8
DRAFT
100
AcDbLine
 62
7
  6
CONTINUOUS
 10
12.5352707193
 20
15.5343419962
 11
12.3853992257
 21
15.4639081452
  0
LWPOLYLINE
  5
3D9
100
AcDbEntity
  8
RACCORDO
100
AcDbPolyline
 62
7
  6
CONTINUOUS
 90
12
 70
0
 10
6.6102156012
 20
13.3484127715
 10
6.617720724
 20
13.3516683156
 10
6.6249860216
 20
13.3539618725
 10
6.6325391026
 20
13.3555447338
 10
6.6403767148
 20
13.3564249312
 10
6.6484096143
 20
13.356592442
 10
6.6566400332
 20
13.3560391202
 10
6.6650657393
 20
13.354773112
 10
6.6735907925
 20
13.3528088328
 10
6.6821832124
 20
13.3501510878
 10
6.6908749793
 20
13.3467950719
 10
6.6996660932
 20
13.342740785
  0
LWPOLYLINE
  5
3DA
100
AcDbEntity
  8
RACCORDO
100
AcDbPolyline
 62
7
  6
CONTINUOUS
 90
3
 70
0
 10
-6.5312883921
 20
7.351454664
 10
-6.6473492784
 20
7.3090262497
 10
-6.6645095561
 20
7.3008193141
  0
LINE
  5
3DB
100
AcDbEntity
  8
0
100
AcDbLine
 62
7
  6
CONTINUOUS
 10
1.9941451829
 20
-12.8610404872
 11
2.2151998511
 21
-12.9715678213
  0
LINE
  5
3DC
100
AcDbEntity
  8
0
100
AcDbLine
 62
250
  6
CONTINUOUS
 10
1.543183228
 20
-12.2865637879
 11
2.2151998511
 21
-12.6225720995
  0
LINE
  5
3DD
100
AcDbEntity
  8
DRAFT
100
AcDbLine
 62
7
  6
CONTINUOUS
 10
-0.3180430804
 20
-10.7588577832
 11
2.2151998511
 21
-12.025479249
  0
LINE
  5
3DE
100
AcDbEntity
  8
COPY-PUBBLISH
100
AcDbLine
 62
7
  6
CONTINUOUS
 10
0.9086052222
 20
-12.6348653715
 11
0.9589078533
 21
-12.662954208
  0
LWPOLYLINE
  5
3DF
100
AcDbEntity
  8
0
100
AcDbPolyline
 62
250
  6
CONTINUOUS
 90
10
 70
0
 10
-5.3234267161
 20
-14.8835171015
 10
-5.3332641452
 20
-14.8460407091
 10
-5.3460176272
 20
-14.8099070724
 10
-5.3615251345
 20
-14.7755634491
 10
-5.3795868305
 20
-14.7434343082
 10
-5.3999786018
 20
-14.7139178479
 10
-5.4224550806
 20
-14.6873810939
 10
-5.4467378404
 20
-14.6641529666
 10
-5.4725186768
 20
-14.6445201824
 10
-5.4994746179
 20
-14.6287254968
  0
LINE
  5
3E0
100
AcDbEntity
  8
ASSI
100
AcDbLine
 62
7
  6
CONTINUOUS
 10
-7.3643229299
 20
5.8356780518
 11
-7.3551977022
 21
5.5965007354
  0
LWPOLYLINE
  5
3E1
100
AcDbEntity
  8
COPY-PUBBLISH
100
AcDbPolyline
 62
7
  6
CONTINUOUS
 90
30
 70
0
 10
-6.3346214609
 20
6.3151734472
 10
-6.3302320326
 20
6.1532690279
 10
-6.3175509255
 20
5.9892386037
 10
-6.2965781397
 20
5.8230821748
 10
-6.2671532514
 20
5.6540719075
 10
-6.2294366843
 20
5.4829356353
 10
-6.1839097095
 20
5.3118568592
 10
-6.1304724268
 20
5.1408367732
 10
-6.0692247364
 20
4.9698741831
 10
-6.00094761
 20
4.801149007
 10
-5.9255507827
 20
4.6346893975
 10
-5.8431245195
 20
4.470467202
 10
-5.7547205871
 20
4.31057788
 10
-5.6602626801
 20
4.1550774066
 10
-5.559827104
 20
4.0039098066
 10
-5.4546945417
 20
3.8590026139
 10
-5.3448045759
 20
3.7204356637
 10
-5.2302176239
 20
3.5881291208
 10
-5.1123956201
 20
3.4637710133
 10
-4.9912973169
 20
3.3474633779
 10
-4.8669639619
 20
3.2391041778
 10
-4.7409812323
 20
3.1400753305
 10
-4.6133278958
 20
3.05049625
 10
-4.4840251847
 20
2.9702475222
 10
-4.3547224735
 20
2.900352823
 10
-4.2254197624
 20
2.8409448111
 10
-4.0961170513
 20
2.7918908277
 10
-3.9684637148
 20
2.7538165717
 10
-3.8424809852
 20
2.7268626895
 10
-3.7674434942
 20
2.71722199
  0
LINE
  5
3E2
100
AcDbEntity
  8
RACCORDO
100
AcDbLine
 62
7
  6
CONTINUOUS
 10
-8.208454431
 20
22.2513590766
 11
-8.208454431
 21
22.4590167542
  0
LWPOLYLINE
  5
3E3
100
AcDbEntity
  8
COPY-PUBBLISH
100
AcDbPolyline
 62
250
  6
CONTINUOUS
 90
16
 70
0
 10
-6.5517169646
 20
6.2085038685
 10
-6.550842137
 20
6.280177426
 10
-6.5480123452
 20
6.3549910418
 10
-6.5429082617
 20
6.4326914302
 10
-6.5351874537
 20
6.5130706501
 10
-6.524507648
 20
6.5957206957
 10
-6.5105536503
 20
6.6800481022
 10
-6.4929839976
 20
6.7656632482
 10
-6.4714518959
 20
6.8521393462
 10
-6.4456744491
 20
6.9388027
 10
-6.4153262331
 20
7.0251725837
 10
-6.3800928184
 20
7.1107100885
 10
-6.3397697205
 20
7.1946447788
 10
-6.2940875529
 20
7.2764067001
 10
-6.242799473
 20
7.3553797642
 10
-6.2261745873
 20
7.3773691068
  0
LINE
  5
3E4
100
AcDbEntity
  8
RACCORDO
100
AcDbLine
 62
7
  6
CONTINUOUS
 10
-7.3952816326
 20
5.7848433613
 11
-7.3872768281
 21
5.9947763689
  0
LWPOLYLINE
  5
3E5
100
AcDbEntity
  8
ASSI
100
AcDbPolyline
 62
7
  6
CONTINUOUS
 90
3
 70
0
 10
-7.1831495983
 20
6.173752091
 10
-7.1739990024
 20
6.4136947089
 10
-7.1482986511
 20
6.6399313258
  0
LWPOLYLINE
  5
3E6
100
AcDbEntity
  8
ASSI
100
AcDbPolyline
 62
7
  6
CONTINUOUS
 90
3
 70
0
 10
-7.3643229299
 20
5.8356780518
 10
-7.3551977022
 20
6.0657301406
 10
-7.3279046588
 20
6.2845736144
  0
LWPOLYLINE
  5
3E7
100
AcDbEntity
  8
0
100
AcDbPolyline
 62
7
  6
CONTINUOUS
 90
6
 70
0
 10
-5.1960315309
 20
6.920682301
 10
-5.1972279745
 20
6.892222635
 10
-5.1966768198
 20
6.7459609785
 10
-5.1896853766
 20
6.5971552516
 10
-5.1763715846
 20
6.4462315525
 10
-5.174694607
 20
6.4331263693
  0
LWPOLYLINE
  5
3E8
100
AcDbEntity
  8
RACCORDO
100
AcDbPolyline
 62
7
  6
CONTINUOUS
 90
5
 70
0
 10
-7.3872768281
 20
5.9947763689
 10
-7.3647923505
 20
6.1927198535
 10
-7.3278281998
 20
6.3786738152
 10
-7.2758856281
 20
6.5538649148
 10
-7.2094633834
 20
6.7170664915
  0
LINE
  5
3E9
100
AcDbEntity
  8
0
100
AcDbLine
 62
7
  6
CONTINUOUS
 10
-9.8120550068
 20
-17.6128963205
 11
-9.8444011187
 21
-17.75591308
  0
LWPOLYLINE
  5
3EA
100
AcDbEntity
  8
0
100
AcDbPolyline
 62
250
  6
CONTINUOUS
 90
12
 70
0
 10
-5.0074941326
 20
6.7607259414
 10
-5.0419444415
 20
6.6498726812
 10
-5.0795638477
 20
6.5112244829
 10
-5.1119587786
 20
6.3713840419
 10
-5.1390954404
 20
6.2308660114
 10
-5.1608724521
 20
6.0912143509
 10
-5.1771948219
 20
5.9524770951
 10
-5.1881575416
 20
5.8146062094
 10
-5.1939442062
 20
5.6790015487
 10
-5.194616014
 20
5.5461297313
 10
-5.1901117668
 20
5.415524139
 10
-5.1804314645
 20
5.2871847717
  0
LWPOLYLINE
  5
3EB
100
AcDbEntity
  8
0
100
AcDbPolyline
 62
7
  6
CONTINUOUS
 90
12
 70
0
 10
-5.0698130583
 20
6.8150683364
 10
-5.1022466288
 20
6.7120641923
 10
-5.1452302091
 20
6.5575247315
 10
-5.1819227062
 20
6.4026094145
 10
-5.2123442208
 20
6.2477075732
 10
-5.2365155009
 20
6.0932280996
 10
-5.2544705503
 20
5.9395257286
 10
-5.266241616
 20
5.7869700718
 10
-5.2718638052
 20
5.6359852816
 10
-5.2713804048
 20
5.4869359923
 10
-5.2648351695
 20
5.3401189197
 10
-5.2570692829
 20
5.2430291749
  0
LWPOLYLINE
  5
3EC
100
AcDbEntity
  8
RACCORDO
100
AcDbPolyline
 62
250
  6
CONTINUOUS
 90
7
 70
0
 10
-4.320173652
 20
6.7458227951
 10
-4.3397076493
 20
6.7105188346
 10
-4.3531381967
 20
6.6786843664
 10
-4.3602455803
 20
6.6508401799
 10
-4.3609135288
 20
6.6274417862
 10
-4.3551311155
 20
6.6088719662
 10
-4.3509081771
 20
6.6027201414
  0
LWPOLYLINE
  5
3ED
100
AcDbEntity
  8
RACCORDO
100
AcDbPolyline
 62
250
  6
CONTINUOUS
 90
7
 70
0
 10
-4.1954312174
 20
6.6108087705
 10
-4.2173847406
 20
6.5742628576
 10
-4.2329126196
 20
6.5410617092
 10
-4.2417489259
 20
6.5117739243
 10
-4.24374233
 20
6.4869010819
 10
-4.2388586929
 20
6.4668691512
 10
-4.2337391186
 20
6.4586267486
  0
LWPOLYLINE
  5
3EE
100
AcDbEntity
  8
RACCORDO
100
AcDbPolyline
 62
250
  6
CONTINUOUS
 90
13
 70
0
 10
-18.7103691744
 20
-16.4935674298
 10
-18.6856545176
 20
-16.455640995
 10
-18.6553133207
 20
-16.4150332411
 10
-18.6198652015
 20
-16.3724396089
 10
-18.579917238
 20
-16.3285895492
 10
-18.5361535717
 20
-16.2842340299
 10
-18.4893236911
 20
-16.2401326755
 10
-18.4402295963
 20
-16.1970407577
 10
-18.3897120636
 20
-16.1556962607
 10
-18.3386362471
 20
-16.1168072427
 10
-18.287876862
 20
-16.0810397099
 10
-18.2383032041
 20
-16.0490062104
 10
-18.1907642629
 20
-16.0212553439
  0
LWPOLYLINE
  5
3EF
100
AcDbEntity
  8
RACCORDO
100
AcDbPolyline
 62
250
  6
CONTINUOUS
 90
8
 70
0
 10
-20.0639323012
 20
-15.8250844862
 10
-20.0976451498
 20
-15.8763413512
 10
-20.123856475
 20
-15.922421808
 10
-20.142357783
 20
-15.9629035979
 10
-20.1531324628
 20
-15.9972353659
 10
-20.1560761737
 20
-16.0253070115
 10
-20.1508747735
 20
-16.0473906756
 10
-20.1463816414
 20
-16.0546716861
  0
LWPOLYLINE
  5
3F0
100
AcDbEntity
  8
RACCORDO
100
AcDbPolyline
 62
250
  6
CONTINUOUS
 90
13
 70
0
 10
-18.5832203971
 20
-16.6273782815
 10
-18.5579025129
 20
-16.5891823776
 10
-18.5272149257
 20
-16.5487193894
 10
-18.4916596633
 20
-16.5066512636
 10
-18.4518183851
 20
-16.463666205
 10
-18.4083428671
 20
-16.4204674194
 10
-18.3619443391
 20
-16.3777616092
 10
-18.3133818489
 20
-16.3362474115
 10
-18.2634498447
 20
-16.2966039691
 10
-18.2129651795
 20
-16.2594798208
 10
-18.1627537468
 20
-16.2254822911
 10
-18.1136369701
 20
-16.1951675551
 10
-18.0664183646
 20
-16.1690315397
  0
LWPOLYLINE
  5
3F1
100
AcDbEntity
  8
RACCORDO
100
AcDbPolyline
 62
250
  6
CONTINUOUS
 90
5
 70
0
 10
-19.9513197142
 20
-15.943328623
 10
-19.9968583263
 20
-16.0069771996
 10
-20.0298033674
 20
-16.0636450369
 10
-20.0496035289
 20
-16.1123839078
 10
-20.0559274459
 20
-16.1523782542
  0
LWPOLYLINE
  5
3F2
100
AcDbEntity
  8
RACCORDO
100
AcDbPolyline
 62
250
  6
CONTINUOUS
 90
8
 70
0
 10
9.0233751657
 20
14.9429794842
 10
9.0411678116
 20
14.9551768451
 10
9.0560980968
 20
14.9681032481
 10
9.068265784
 20
14.9819213908
 10
9.0775711104
 20
14.9964685755
 10
9.0837147878
 20
15.0112567089
 10
9.0865850419
 20
15.0262785471
 10
9.0864915631
 20
15.0311748165
  0
LWPOLYLINE
  5
3F3
100
AcDbEntity
  8
RACCORDO
100
AcDbPolyline
 62
7
  6
CONTINUOUS
 90
13
 70
0
 10
-1.3021538514
 20
5.8828720282
 10
-1.390518699
 20
5.8232400487
 10
-1.4782044112
 20
5.7554736232
 10
-1.5642349078
 20
5.6807430449
 10
-1.6479664984
 20
5.600450607
 10
-1.7283723304
 20
5.5157426776
 10
-1.8040321223
 20
5.4274727425
 10
-1.8743864613
 20
5.3370111903
 10
-1.9389244604
 20
5.2456660313
 10
-1.9964176242
 20
5.1541791362
 10
-2.0462871536
 20
5.0636503055
 10
-2.0886363576
 20
4.9755289011
 10
-2.1233938601
 20
4.8910171881
  0
LWPOLYLINE
  5
3F4
100
AcDbEntity
  8
RACCORDO
100
AcDbPolyline
 62
7
  6
CONTINUOUS
 90
10
 70
0
 10
-1.3021538514
 20
5.8828720282
 10
-1.2888145246
 20
5.8915260345
 10
-1.2757800065
 20
5.9004400349
 10
-1.2630502971
 20
5.9096140295
 10
-1.2506203049
 20
5.9190452587
 10
-1.2384951215
 20
5.9287364822
 10
-1.226690021
 20
5.9386959782
 10
-1.215210095
 20
5.9489265063
 10
-1.2040502521
 20
5.9594253069
 10
-1.1932104921
 20
5.9701923801
  0
LWPOLYLINE
  5
3F5
100
AcDbEntity
  8
RACCORDO
100
AcDbPolyline
 62
250
  6
CONTINUOUS
 90
4
 70
0
 10
7.5863516267
 20
11.0915726856
 10
7.5454522545
 20
11.0665988571
 10
7.5109842023
 20
11.0402308254
 10
7.4829474701
 20
11.0124685908
  0
LINE
  5
3F6
100
AcDbEntity
  8
RACCORDO
100
AcDbLine
 62
7
  6
CONTINUOUS
 10
7.4940276505
 20
11.0956892636
 11
7.4355342113
 21
11.060284075
  0
LINE
  5
3F7
100
AcDbEntity
  8
RACCORDO
100
AcDbLine
 62
7
  6
CONTINUOUS
 10
14.0091335415
 20
14.6107864722
 11
7.4938550506
 21
11.0956442549
  0
LINE
  5
3F8
100
AcDbEntity
  8
RACCORDO
100
AcDbLine
 62
250
  6
CONTINUOUS
 10
14.1007429763
 20
14.6062362699
 11
7.5863516267
 21
11.0915726856
  0
LWPOLYLINE
  5
3F9
100
AcDbEntity
  8
RACCORDO
100
AcDbPolyline
 62
250
  6
CONTINUOUS
 90
13
 70
0
 10
-1.8587544428
 20
6.9250742175
 10
-1.9541458975
 20
6.8740159121
 10
-2.0544035874
 20
6.8152825017
 10
-2.1578499343
 20
6.7498567511
 10
-2.2627540052
 20
6.6788334057
 10
-2.3673604732
 20
6.6034008751
 10
-2.4699189886
 20
6.5248213488
 10
-2.5687134714
 20
6.4444096724
 10
-2.662090822
 20
6.3635113498
 10
-2.7484885812
 20
6.2834800306
 10
-2.8264610792
 20
6.205654856
 10
-2.8947036251
 20
6.1313380508
 10
-2.9520743349
 20
6.0617731366
  0
LINE
  5
3FA
100
AcDbEntity
  8
RACCORDO
100
AcDbLine
 62
7
  6
CONTINUOUS
 10
9.9753478971
 20
13.6718360141
 11
8.4439102659
 21
12.8872203947
  0
LINE
  5
3FB
100
AcDbEntity
  8
RACCORDO
100
AcDbLine
 62
7
  6
CONTINUOUS
 10
8.0323864682
 20
12.6763805975
 11
6.4640112786
 21
11.8728404168
  0
LINE
  5
3FC
100
AcDbEntity
  8
0
100
AcDbLine
 62
250
  6
CONTINUOUS
 10
-5.4974397056
 20
3.9179194857
 11
-4.8659301489
 21
4.240423956
  0
LINE
  5
3FD
100
AcDbEntity
  8
RACCORDO
100
AcDbLine
 62
7
  6
CONTINUOUS
 10
6.758849746
 20
12.2791116707
 11
7.7889154755
 21
12.7981160939
  0
LINE
  5
3FE
100
AcDbEntity
  8
RACCORDO
100
AcDbLine
 62
250
  6
CONTINUOUS
 10
8.3448858298
 20
10.7123055841
 11
15.0907355482
 21
14.1112399839
  0
LINE
  5
3FF
100
AcDbEntity
  8
RACCORDO
100
AcDbLine
 62
250
  6
CONTINUOUS
 10
8.4861145165
 20
10.4683407497
 11
15.2321353653
 21
13.8673613746
  0
LINE
  5
400
100
AcDbEntity
  8
0
100
AcDbLine
 62
7
  6
CONTINUOUS
 10
-4.9336389106
 20
4.3390406317
 11
-5.5702000641
 21
4.0195223568
  0
LWPOLYLINE
  5
401
100
AcDbEntity
  8
RACCORDO
100
AcDbPolyline
 62
250
  6
CONTINUOUS
 90
16
 70
0
 10
-1.7484903916
 20
6.7745308402
 10
-1.8240076444
 20
6.7367437189
 10
-1.9028236157
 20
6.6941678389
 10
-1.9841283764
 20
6.6472359186
 10
-2.0671075277
 20
6.596425848
 10
-2.1508827492
 20
6.5422569731
 10
-2.2345208144
 20
6.4852919071
 10
-2.3171729566
 20
6.4261448195
 10
-2.3979717667
 20
6.3654048671
 10
-2.4759786978
 20
6.3036418552
 10
-2.5502411562
 20
6.2414402449
 10
-2.6201699512
 20
6.1794991469
 10
-2.6853955176
 20
6.1185625697
 10
-2.7453211633
 20
6.0592952143
 10
-2.799175214
 20
6.0022799031
 10
-2.8463637941
 20
5.9481210304
  0
LINE
  5
402
100
AcDbEntity
  8
0
100
AcDbLine
 62
7
  6
CONTINUOUS
 10
8.6560423003
 20
13.3791426705
 11
9.0196104329
 21
13.5609267368
  0
LINE
  5
403
100
AcDbEntity
  8
0
100
AcDbLine
 62
250
  6
CONTINUOUS
 10
8.4439102659
 20
13.0132690322
 11
8.1610675535
 21
12.871847676
  0
LINE
  5
404
100
AcDbEntity
  8
0
100
AcDbLine
 62
7
  6
CONTINUOUS
 10
8.4439102659
 20
12.7534614111
 11
8.1610675535
 21
12.6120400549
  0
LINE
  5
405
100
AcDbEntity
  8
0
100
AcDbLine
 62
7
  6
CONTINUOUS
 10
-5.2672348981
 20
5.393947562
 11
-6.0769121293
 21
4.9913322431
  0
LINE
  5
406
100
AcDbEntity
  8
RACCORDO
100
AcDbLine
 62
7
  6
CONTINUOUS
 10
8.4659713073
 20
13.1388038717
 11
9.1441199761
 21
13.4751706108
  0
LINE
  5
407
100
AcDbEntity
  8
RACCORDO
100
AcDbLine
 62
250
  6
CONTINUOUS
 10
15.0907355482
 20
14.1112399839
 11
16.6277044732
 21
14.8735879014
  0
LINE
  5
408
100
AcDbEntity
  8
RACCORDO
100
AcDbLine
 62
250
  6
CONTINUOUS
 10
15.2321353653
 20
13.8673613746
 11
16.7691042903
 21
14.6297092921
  0
LINE
  5
409
100
AcDbEntity
  8
0
100
AcDbLine
 62
7
  6
CONTINUOUS
 10
-5.1775338937
 20
4.852411899
 11
-5.8666388247
 21
4.5173159937
  0
LINE
  5
40A
100
AcDbEntity
  8
0
100
AcDbLine
 62
7
  6
CONTINUOUS
 10
-4.4487869088
 20
3.7956537189
 11
-5.1183531476
 21
3.470059031
  0
LINE
  5
40B
100
AcDbEntity
  8
RACCORDO
100
AcDbLine
 62
7
  6
CONTINUOUS
 10
15.5207871567
 20
15.4270465596
 11
14.096822469
 21
14.7535661213
  0
LWPOLYLINE
  5
40C
100
AcDbEntity
  8
RACCORDO
100
AcDbPolyline
 62
250
  6
CONTINUOUS
 90
8
 70
0
 10
16.6277044732
 20
14.8735879014
 10
16.678222515
 20
14.8951468602
 10
16.7281034935
 20
14.9099089453
 10
16.7768063231
 20
14.9177258121
 10
16.8237930434
 20
14.9185269535
 10
16.8685667751
 20
14.9123119441
 10
16.9106746266
 20
14.8991432083
 10
16.9279995984
 20
14.8912998931
  0
LWPOLYLINE
  5
40D
100
AcDbEntity
  8
RACCORDO
100
AcDbPolyline
 62
250
  6
CONTINUOUS
 90
8
 70
0
 10
16.7691042903
 20
14.6297092921
 10
16.8056905127
 20
14.6452974281
 10
16.8410519371
 20
14.6558986789
 10
16.8751885634
 20
14.6615130444
 10
16.9084259144
 20
14.6620874754
 10
16.9404384673
 20
14.6576750212
 10
16.9702496542
 20
14.6484348297
 10
16.9977999432
 20
14.634218385
  0
LWPOLYLINE
  5
40E
100
AcDbEntity
  8
RACCORDO
100
AcDbPolyline
 62
250
  6
CONTINUOUS
 90
10
 70
0
 10
-20.9010442948
 20
-2.339743889
 10
-20.9411652918
 20
-2.3562413227
 10
-20.986376527
 20
-2.3690309658
 10
-21.0353224895
 20
-2.3777293626
 10
-21.0865356946
 20
-2.3820757203
 10
-21.1384806818
 20
-2.3819397274
 10
-21.1896000506
 20
-2.3773254612
 10
-21.2383611538
 20
-2.3683712656
 10
-21.2833020493
 20
-2.3553456026
 10
-21.3230753313
 20
-2.3386390043
  0
LWPOLYLINE
  5
40F
100
AcDbEntity
  8
0
100
AcDbPolyline
 62
250
  6
CONTINUOUS
 90
10
 70
0
 10
-5.1804314645
 20
5.287184772
 10
-5.1972614974
 20
5.2822788277
 10
-5.2123362607
 20
5.277115076
 10
-5.2254657941
 20
5.2717585814
 10
-5.2364846493
 20
5.266276836
 10
-5.2452539649
 20
5.2607389141
 10
-5.2516632236
 20
5.2552146017
 10
-5.2556316567
 20
5.2497735089
 10
-5.2571092505
 20
5.2444841978
 10
-5.2570744128
 20
5.2430514161
  0
LINE
  5
410
100
AcDbEntity
  8
RACCORDO
100
AcDbLine
 62
250
  6
CONTINUOUS
 10
-19.5576994835
 20
0.6928731486
 11
-21.2991622513
 21
1.5636045324
  0
LINE
  5
411
100
AcDbEntity
  8
0
100
AcDbLine
 62
7
  6
CONTINUOUS
 10
-9.7025598559
 20
10.7295039524
 11
-9.6562185237
 21
10.5976224819
  0
LINE
  5
412
100
AcDbEntity
  8
0
100
AcDbLine
 62
7
  6
CONTINUOUS
 10
-9.7026409774
 20
10.7297572703
 11
-9.7025598529
 21
10.7295039425
  0
LINE
  5
413
100
AcDbEntity
  8
0
100
AcDbLine
 62
7
  6
CONTINUOUS
 10
-9.7987223922
 20
10.7642945718
 11
-9.8534994039
 21
10.9447519748
  0
LWPOLYLINE
  5
414
100
AcDbEntity
  8
0
100
AcDbPolyline
 62
250
  6
CONTINUOUS
 90
4
 70
0
 10
-9.6046911815
 20
10.6251650683
 10
-9.6205113133
 20
10.6842539449
 10
-9.6303545267
 20
10.7407317152
 10
-9.634322552
 20
10.7944730878
  0
LWPOLYLINE
  5
415
100
AcDbEntity
  8
0
100
AcDbPolyline
 62
7
  6
CONTINUOUS
 90
9
 70
0
 10
-9.8534994039
 20
10.9447519748
 10
-9.8707266984
 20
11.0288852459
 10
-9.8788361051
 20
11.1101228753
 10
-9.8779934607
 20
11.1882225961
 10
-9.8681216903
 20
11.2636253543
 10
-9.849585678
 20
11.3354803898
 10
-9.8234217745
 20
11.401494573
 10
-9.7902992503
 20
11.4606603045
 10
-9.7745757189
 20
11.4813872796
  0
LWPOLYLINE
  5
416
100
AcDbEntity
  8
0
100
AcDbPolyline
 62
7
  6
CONTINUOUS
 90
4
 70
0
 10
-9.7372273197
 20
10.8824162471
 10
-9.7320310258
 20
10.8486368444
 10
-9.7125199994
 20
10.7627772084
 10
-9.7026409774
 20
10.7297572703
  0
LWPOLYLINE
  5
417
100
AcDbEntity
  8
ASSI
100
AcDbPolyline
 62
7
  6
CONTINUOUS
 90
19
 70
0
 10
-7.3551977022
 20
5.5965007354
 10
-7.3279046588
 20
5.3503642181
 10
-7.2826909697
 20
5.0994975505
 10
-7.219966097
 20
4.8461726199
 10
-7.1402980868
 20
4.592683576
 10
-7.0444084251
 20
4.341326055
 10
-6.9331655034
 20
4.0943763895
 10
-6.8075767549
 20
3.8540709938
 10
-6.6687795307
 20
3.6225861109
 10
-6.5180308
 20
3.4020181037
 10
-6.3566957667
 20
3.1943644702
 10
-6.1862355057
 20
3.0015057539
 10
-6.0081937316
 20
2.8251885132
 10
-5.8241828183
 20
2.6670095043
 10
-5.635869197
 20
2.5284012208
 10
-5.4449582652
 20
2.4106189208
 10
-5.2531789418
 20
2.3147292591
 10
-5.0622680099
 20
2.2416006273
 10
-4.9071731802
 20
2.1989986003
  0
LWPOLYLINE
  5
418
100
AcDbEntity
  8
0
100
AcDbPolyline
 62
250
  6
CONTINUOUS
 90
25
 70
0
 10
-5.1804314645
 20
5.2871847717
 10
-5.1731175295
 20
5.1994954239
 10
-5.1625376394
 20
5.1154042801
 10
-5.1489498932
 20
5.0350334764
 10
-5.132466242
 20
4.9586748247
 10
-5.1134820381
 20
4.8861933949
 10
-5.0926243734
 20
4.8170327432
 10
-5.0701978313
 20
4.7513630336
 10
-5.04625794
 20
4.6890564485
 10
-5.0209524537
 20
4.6290974282
 10
-4.9944860054
 20
4.571473822
 10
-4.9668722763
 20
4.5161991707
 10
-4.9378813845
 20
4.4623021109
 10
-4.9076572933
 20
4.4097298468
 10
-4.8761840308
 20
4.3585277065
 10
-4.8429330974
 20
4.3078813723
 10
-4.8079661815
 20
4.2576524933
 10
-4.7712979593
 20
4.2079727272
 10
-4.7323047618
 20
4.1584376833
 10
-4.6910138759
 20
4.1088801935
 10
-4.6474636405
 20
4.0594556216
 10
-4.6010572242
 20
4.0102367394
 10
-4.5516314509
 20
3.9612349593
 10
-4.4994409035
 20
3.9124073021
 10
-4.444526308
 20
3.8637380987
  0
LWPOLYLINE
  5
419
100
AcDbEntity
  8
0
100
AcDbPolyline
 62
250
  6
CONTINUOUS
 90
4
 70
0
 10
-5.1375200675
 20
6.5852451103
 10
-5.1418141869
 20
6.7141388367
 10
-5.1407061128
 20
6.8420209457
 10
-5.1390396226
 20
6.8737243625
  0
LWPOLYLINE
  5
41A
100
AcDbEntity
  8
RACCORDO
100
AcDbPolyline
 62
7
  6
CONTINUOUS
 90
26
 70
0
 10
-3.5819302674
 20
3.6281676847
 10
-3.5889070578
 20
3.8366348361
 10
-3.6100364699
 20
4.0535504848
 10
-3.6454893056
 20
4.2771257025
 10
-3.6952615529
 20
4.505470076
 10
-3.7591663068
 20
4.7366016913
 10
-3.8368583039
 20
4.968554292
 10
-3.9278766775
 20
5.1994521008
 10
-4.0315451091
 20
5.4272467263
 10
-4.1469603288
 20
5.6498047494
 10
-4.2732070146
 20
5.8653279612
 10
-4.4091714651
 20
6.071953536
 10
-4.5533672586
 20
6.267603377
 10
-4.7042964299
 20
6.4505750358
 10
-4.8606730393
 20
6.6196844703
 10
-5.0210761509
 20
6.7737733026
 10
-5.1837076694
 20
6.9115718296
 10
-5.3471739077
 20
7.0324149989
 10
-5.510386751
 20
7.1359520699
 10
-5.6708446187
 20
7.2211631677
 10
-5.8275889691
 20
7.2882011608
 10
-5.9812388551
 20
7.3376031835
 10
-6.1301266745
 20
7.3688031788
 10
-6.2718813852
 20
7.3814454176
 10
-6.4058435466
 20
7.3756533161
 10
-6.5312883921
 20
7.351454664
  0
LINE
  5
41B
100
AcDbEntity
  8
RACCORDO
100
AcDbLine
 62
7
  6
CONTINUOUS
 10
-5.292270304
 20
23.9918511825
 11
-5.292270304
 21
24.30274291
  0
LINE
  5
41C
100
AcDbEntity
  8
RACCORDO
100
AcDbLine
 62
7
  6
CONTINUOUS
 10
-2.8026556719
 20
15.7481698364
 11
-2.8026556719
 21
15.3619559928
  0
LINE
  5
41D
100
AcDbEntity
  8
RACCORDO
100
AcDbLine
 62
250
  6
CONTINUOUS
 10
-2.6795732555
 20
26.0173724592
 11
-2.6795732555
 21
25.7423469515
  0
LWPOLYLINE
  5
41E
100
AcDbEntity
  8
RACCORDO
100
AcDbPolyline
 62
250
  6
CONTINUOUS
 90
40
 70
0
 10
-3.435483658
 20
3.4513909834
 10
-3.44361882
 20
3.2212378145
 10
-3.466548064
 20
3.0030985842
 10
-3.5042713901
 20
2.7969732924
 10
-3.557320724
 20
2.6016346449
 10
-3.6251641401
 20
2.4183099359
 10
-3.7062058609
 20
2.2506810485
 10
-3.8006333135
 20
2.0992260349
 10
-3.908259071
 20
1.9634668428
 10
-4.0269250748
 20
1.8456511985
 10
-4.1567819202
 20
1.7460760178
 10
-4.297679012
 20
1.6644443849
 10
-4.4470065064
 20
1.6021132775
 10
-4.6049040055
 20
1.5593780141
 10
-4.7712319071
 20
1.5359432762
 10
-4.9429615614
 20
1.5322800868
 10
-5.1202764649
 20
1.5487617785
 10
-5.3029931209
 20
1.5850150186
 10
-5.4875323899
 20
1.6403908314
 10
-5.6739105752
 20
1.7152761395
 10
-5.8621113734
 20
1.8092840203
 10
-6.0485067342
 20
1.9206047304
 10
-6.2330825317
 20
2.0496112834
 10
-6.4158528918
 20
2.1959306658
 10
-6.5932321428
 20
2.356634093
 10
-6.7650321063
 20
2.5319048958
 10
-6.9314409606
 20
2.7215597435
 10
-7.0894375684
 20
2.9221198596
 10
-7.2388886282
 20
3.1337465296
 10
-7.3799274416
 20
3.356278468
 10
-7.5099327756
 20
3.5857530419
 10
-7.6287563829
 20
3.8223222336
 10
-7.736546511
 20
4.0658340607
 10
-7.8311266698
 20
4.3118699432
 10
-7.9123068025
 20
4.5607129426
 10
-7.9802769659
 20
4.8120799973
 10
-8.0334308407
 20
5.060703343
 10
-8.0712329871
 20
5.3048270582
 10
-8.0942188448
 20
5.5462070643
 10
-8.1023884138
 20
5.7848433613
  0
LWPOLYLINE
  5
41F
100
AcDbEntity
  8
RACCORDO
100
AcDbPolyline
 62
250
  6
CONTINUOUS
 90
6
 70
0
 10
-2.6050599198
 20
15.9177560218
 10
-2.6010055903
 20
15.952960861
 10
-2.5880843672
 20
15.9883002154
 10
-2.5669175349
 20
16.022049362
 10
-2.537712188
 20
16.0536333931
 10
-2.5002612317
 20
16.0836272165
  0
LWPOLYLINE
  5
420
100
AcDbEntity
  8
0
100
AcDbPolyline
 62
250
  6
CONTINUOUS
 90
8
 70
0
 10
-4.444526308
 20
3.8637380987
 10
-4.4476280377
 20
3.8467612093
 10
-4.4487753417
 20
3.8309701423
 10
-4.4479527043
 20
3.8165784449
 10
-4.4451712501
 20
3.8037807403
 10
-4.4404685929
 20
3.7927500957
 10
-4.433908328
 20
3.7836356821
 10
-4.4292148692
 20
3.7792189836
  0
LWPOLYLINE
  5
421
100
AcDbEntity
  8
0
100
AcDbPolyline
 62
7
  6
CONTINUOUS
 90
10
 70
0
 10
-8.2887662013
 20
-18.5337305448
 10
-8.3164870305
 20
-18.6502820505
 10
-8.3478887592
 20
-18.7590428249
 10
-8.3832213599
 20
-18.8599276272
 10
-8.4234164815
 20
-18.9538598811
 10
-8.4679758896
 20
-19.0397943442
 10
-8.5152869516
 20
-19.1148251535
 10
-8.5652587109
 20
-19.1781097092
 10
-8.619003146
 20
-19.2307506654
 10
-8.676946802
 20
-19.2728912681
  0
LWPOLYLINE
  5
422
100
AcDbEntity
  8
0
100
AcDbPolyline
 62
250
  6
CONTINUOUS
 90
3
 70
0
 10
-8.5587747684
 20
-18.135366815
 10
-8.5736086541
 20
-18.1975730543
 10
-8.5872402701
 20
-18.2579898115
  0
LWPOLYLINE
  5
423
100
AcDbEntity
  8
0
100
AcDbPolyline
 62
250
  6
CONTINUOUS
 90
37
 70
0
 10
-8.5872402701
 20
-18.2579898115
 10
-8.6059446061
 20
-18.3335781709
 10
-8.6272181552
 20
-18.4048743975
 10
-8.6511518881
 20
-18.4718578314
 10
-8.6781953234
 20
-18.5350361835
 10
-8.7080558763
 20
-18.593870866
 10
-8.739798193
 20
-18.6468014852
 10
-8.7737038504
 20
-18.6935719745
 10
-8.8098224989
 20
-18.7344908075
 10
-8.8469971206
 20
-18.7688910544
 10
-8.885368937
 20
-18.7965047017
 10
-8.9251486454
 20
-18.8177033939
 10
-8.9653161405
 20
-18.832799615
 10
-9.005868953
 20
-18.8417340532
 10
-9.0470568755
 20
-18.8446582469
 10
-9.0882124125
 20
-18.8421951166
 10
-9.1292835858
 20
-18.8344529796
 10
-9.1704378201
 20
-18.8213716076
 10
-9.2113029969
 20
-18.8033080648
 10
-9.2518896997
 20
-18.7803637996
 10
-9.2921863189
 20
-18.7524369217
 10
-9.3317577104
 20
-18.7195668364
 10
-9.370683139
 20
-18.6816871514
 10
-9.4087655558
 20
-18.6388152591
 10
-9.445121458
 20
-18.5911031886
 10
-9.4797574627
 20
-18.5382304379
 10
-9.5124162519
 20
-18.4804242955
 10
-9.5417959428
 20
-18.4186539888
 10
-9.5676742282
 20
-18.3525730266
 10
-9.5899280822
 20
-18.2824271479
 10
-9.6074444501
 20
-18.2100962024
 10
-9.6199091295
 20
-18.1355249063
 10
-9.6273250687
 20
-18.0587215175
 10
-9.6291728625
 20
-17.9817052441
 10
-9.6252528655
 20
-17.9051654584
 10
-9.6155994814
 20
-17.8284406983
 10
-9.6001186976
 20
-17.7515506374
  0
LINE
  5
424
100
AcDbEntity
  8
0
100
AcDbLine
 62
250
  6
CONTINUOUS
 10
-8.5426742253
 20
-18.0713863659
 11
-8.5587747684
 21
-18.135366815
  0
LINE
  5
425
100
AcDbEntity
  8
0
100
AcDbLine
 62
7
  6
CONTINUOUS
 10
-9.7753716059
 20
-17.4700338876
 11
-9.8120550068
 21
-17.6128963205
  0
LWPOLYLINE
  5
426
100
AcDbEntity
  8
0
100
AcDbPolyline
 62
250
  6
CONTINUOUS
 90
13
 70
0
 10
-9.6001186976
 20
-17.7515506374
 10
-9.5499726626
 20
-17.5625116541
 10
-9.4921051983
 20
-17.3726519581
 10
-9.4265605382
 20
-17.1825825717
 10
-9.3533200614
 20
-16.9924727574
 10
-9.2727287946
 20
-16.8034006005
 10
-9.1855546388
 20
-16.6173148514
 10
-9.0923495934
 20
-16.4352353323
 10
-8.9933592833
 20
-16.2572705235
 10
-8.8890257669
 20
-16.0839397549
 10
-8.7800306024
 20
-15.9161843372
 10
-8.6664363071
 20
-15.7540750989
 10
-8.547667341
 20
-15.596882747
  0
LWPOLYLINE
  5
427
100
AcDbEntity
  8
0
100
AcDbPolyline
 62
7
  6
CONTINUOUS
 90
10
 70
0
 10
-9.7042889909
 20
-17.6588242167
 10
-9.6285142474
 20
-17.3811154195
 10
-9.5363723554
 20
-17.1039909531
 10
-9.4285323974
 20
-16.8294564777
 10
-9.3057764357
 20
-16.559500526
 10
-9.1689953766
 20
-16.2960738683
 10
-9.0191817492
 20
-16.0410758028
 10
-8.8574294273
 20
-15.7963584102
 10
-8.684901715
 20
-15.5636826645
 10
-8.5269497438
 20
-15.372300005
  0
LWPOLYLINE
  5
428
100
AcDbEntity
  8
0
100
AcDbPolyline
 62
7
  6
CONTINUOUS
 90
19
 70
0
 10
-8.3607861066
 20
-18.3305756588
 10
-8.3957711876
 20
-18.4541149697
 10
-8.4350024092
 20
-18.5668510671
 10
-8.478924474
 20
-18.6686956704
 10
-8.5290527606
 20
-18.7605964615
 10
-8.5846570216
 20
-18.8415298861
 10
-8.6431071093
 20
-18.9085983265
 10
-8.7051260193
 20
-18.9610282783
 10
-8.7712766012
 20
-18.9999158734
 10
-8.8389875208
 20
-19.0253238476
 10
-8.9085321896
 20
-19.0370545093
 10
-8.9805606822
 20
-19.0356723619
 10
-9.0530078743
 20
-19.0223854976
 10
-9.1258864374
 20
-18.9973483533
 10
-9.1994908922
 20
-18.9605495719
 10
-9.2720287711
 20
-18.9128832651
 10
-9.3435892542
 20
-18.8541658966
 10
-9.4137759228
 20
-18.7844379003
 10
-9.479917866
 20
-18.7048640875
  0
LWPOLYLINE
  5
429
100
AcDbEntity
  8
0
100
AcDbPolyline
 62
250
  6
CONTINUOUS
 90
4
 70
0
 10
-8.4861094708
 20
-17.869005368
 10
-8.5064785843
 20
-17.9383869194
 10
-8.5252745828
 20
-18.0057532067
 10
-8.5426742253
 20
-18.0713863659
  0
LWPOLYLINE
  5
42A
100
AcDbEntity
  8
RACCORDO
100
AcDbPolyline
 62
7
  6
CONTINUOUS
 90
12
 70
0
 10
2.0197256918
 20
17.6745290746
 10
2.0203808576
 20
17.6766670602
 10
2.0221373464
 20
17.6800886716
 10
2.0247255126
 20
17.6832890012
 10
2.0281348373
 20
17.6862708478
 10
2.0323218334
 20
17.6889961769
 10
2.0372964627
 20
17.6914617026
 10
2.0430487634
 20
17.6936707108
 10
2.0495053629
 20
17.6955950248
 10
2.0566418036
 20
17.6972252525
 10
2.0644825431
 20
17.698570786
 10
2.0730275814
 20
17.6996316253
  0
LINE
  5
42B
100
AcDbEntity
  8
RACCORDO
100
AcDbLine
 62
7
  6
CONTINUOUS
 10
0.2929448895
 20
7.5128915564
 11
0.5803937958
 21
7.8164862779
  0
LINE
  5
42C
100
AcDbEntity
  8
RACCORDO
100
AcDbLine
 62
7
  6
CONTINUOUS
 10
0.0022340855
 20
7.2076541844
 11
0.2929448895
 21
7.5128915564
  0
LINE
  5
42D
100
AcDbEntity
  8
RACCORDO
100
AcDbLine
 62
7
  6
CONTINUOUS
 10
-0.2917390833
 20
6.9007710752
 11
0.0022340855
 21
7.2076541844
  0
LINE
  5
42E
100
AcDbEntity
  8
RACCORDO
100
AcDbLine
 62
7
  6
CONTINUOUS
 10
-0.5889788977
 20
6.5922289224
 11
-0.2917390833
 21
6.9007710752
  0
LINE
  5
42F
100
AcDbEntity
  8
RACCORDO
100
AcDbLine
 62
7
  6
CONTINUOUS
 10
-0.8894705733
 20
6.282035544
 11
-0.5889788977
 21
6.5922289224
  0
LINE
  5
430
100
AcDbEntity
  8
RACCORDO
100
AcDbLine
 62
7
  6
CONTINUOUS
 10
-1.1932104921
 20
5.9701923801
 11
-0.8894705733
 21
6.282035544
  0
LWPOLYLINE
  5
431
100
AcDbEntity
  8
RACCORDO
100
AcDbPolyline
 62
7
  6
CONTINUOUS
 90
10
 70
0
 10
-4.0764202074
 20
2.3415225502
 10
-3.9779767451
 20
2.4211284022
 10
-3.8884347338
 20
2.5197768187
 10
-3.8090838092
 20
2.6362807999
 10
-3.7413902778
 20
2.7678646987
 10
-3.6853853055
 20
2.9133838662
 10
-3.6408043059
 20
3.0735371133
 10
-3.6082302172
 20
3.2478384724
 10
-3.5885146989
 20
3.4334233388
 10
-3.5819302674
 20
3.6281676847
  0
LWPOLYLINE
  5
432
100
AcDbEntity
  8
RACCORDO
100
AcDbPolyline
 62
7
  6
CONTINUOUS
 90
9
 70
0
 10
7.4355342113
 20
11.060284075
 10
7.3862166179
 20
11.0227629594
 10
7.3436592444
 20
10.9819691606
 10
7.3076846099
 20
10.9377446651
 10
7.2786046834
 20
10.8901385482
 10
7.2570491473
 20
10.8396628209
 10
7.2435433572
 20
10.7872526137
 10
7.2383499339
 20
10.7337962872
 10
7.2382931313
 20
10.7270104644
  0
LINE
  5
433
100
AcDbEntity
  8
RACCORDO
100
AcDbLine
 62
250
  6
CONTINUOUS
 10
17.1321460881
 20
14.3868717337
 11
17.11042373
 21
14.3734858534
  0
LWPOLYLINE
  5
434
100
AcDbEntity
  8
RACCORDO
100
AcDbPolyline
 62
250
  6
CONTINUOUS
 90
3
 70
0
 10
11.3665799366
 20
10.8271152533
 10
11.3120424351
 20
10.7937952341
 10
11.2660962267
 20
10.7586284262
  0
LINE
  5
435
100
AcDbEntity
  8
RACCORDO
100
AcDbLine
 62
7
  6
CONTINUOUS
 10
-4.1662557345
 20
2.2889684213
 11
-4.0764202074
 21
2.3415225502
  0
LWPOLYLINE
  5
436
100
AcDbEntity
  8
RACCORDO
100
AcDbPolyline
 62
7
  6
CONTINUOUS
 90
10
 70
0
 10
11.251062526
 20
10.8322112712
 10
11.2170347297
 20
10.8129277359
 10
11.1489656829
 20
10.767706632
 10
11.0897939091
 20
10.7187183544
 10
11.0391794399
 20
10.6660861514
 10
10.9968466924
 20
10.609582756
 10
10.9631633515
 20
10.5493625418
 10
10.9387133332
 20
10.4861150916
 10
10.9239642273
 20
10.4208296342
 10
10.9191993387
 20
10.3555226207
  0
LINE
  5
437
100
AcDbEntity
  8
DRAFT
100
AcDbLine
 62
7
  6
CONTINUOUS
 10
12.9974607121
 20
11.4940450896
 11
15.9392421465
 21
13.1296784628
  0
LINE
  5
438
100
AcDbEntity
  8
RACCORDO
100
AcDbLine
 62
7
  6
CONTINUOUS
 10
-12.9746536775
 20
-2.5468235817
 11
-10.7527312645
 21
-1.3220092122
  0
LINE
  5
439
100
AcDbEntity
  8
RACCORDO
100
AcDbLine
 62
7
  6
CONTINUOUS
 10
-15.2155523863
 20
-3.7808653323
 11
-12.9746536775
 21
-2.5468235817
  0
LINE
  5
43A
100
AcDbEntity
  8
RACCORDO
100
AcDbLine
 62
7
  6
CONTINUOUS
 10
-18.6125475952
 20
-5.649299436
 11
-15.2155523863
 21
-3.7808653323
  0
LINE
  5
43B
100
AcDbEntity
  8
RACCORDO
100
AcDbLine
 62
7
  6
CONTINUOUS
 10
-20.9010442948
 20
-6.9065752668
 11
-18.6125475952
 21
-5.649299436
  0
LINE
  5
43C
100
AcDbEntity
  8
RACCORDO
100
AcDbLine
 62
7
  6
CONTINUOUS
 10
12.6781564556
 20
11.6022103676
 11
11.2509592072
 21
10.8322047097
  0
LINE
  5
43D
100
AcDbEntity
  8
RACCORDO
100
AcDbLine
 62
250
  6
CONTINUOUS
 10
12.7925900463
 20
11.5964804225
 11
11.3665799366
 21
10.8271152533
  0
LINE
  5
43E
100
AcDbEntity
  8
DRAFT
100
AcDbLine
 62
7
  6
CONTINUOUS
 10
13.0318681847
 20
11.4768413533
 11
15.9392421465
 21
13.0098069389
  0
LINE
  5
43F
100
AcDbEntity
  8
RACCORDO
100
AcDbLine
 62
7
  6
CONTINUOUS
 10
17.11042373
 20
14.323613514
 11
15.350674694
 21
13.4239621891
  0
LINE
  5
440
100
AcDbEntity
  8
RACCORDO
100
AcDbLine
 62
7
  6
CONTINUOUS
 10
18.1860790732
 20
13.2335373104
 11
13.8942089079
 21
11.0393683685
  0
LINE
  5
441
100
AcDbEntity
  8
0
100
AcDbLine
 62
250
  6
CONTINUOUS
 10
-4.3858687146
 20
2.9171889522
 11
-3.6007624655
 21
3.3181334388
  0
LINE
  5
442
100
AcDbEntity
  8
RACCORDO
100
AcDbLine
 62
250
  6
CONTINUOUS
 10
28.0904593226
 20
17.036995705
 11
18.4090496319
 21
12.1296140906
  0
LINE
  5
443
100
AcDbEntity
  8
RACCORDO
100
AcDbLine
 62
7
  6
CONTINUOUS
 10
15.2321353653
 20
13.4832318534
 11
8.4862856469
 21
10.0842974536
  0
LINE
  5
444
100
AcDbEntity
  8
RACCORDO
100
AcDbLine
 62
250
  6
CONTINUOUS
 10
12.3766273696
 20
10.3220915368
 11
13.853304066
 21
11.0661234127
  0
LINE
  5
445
100
AcDbEntity
  8
RACCORDO
100
AcDbLine
 62
250
  6
CONTINUOUS
 10
12.553377141
 20
10.0172432751
 11
14.0300538373
 21
10.761275151
  0
LINE
  5
446
100
AcDbEntity
  8
RACCORDO
100
AcDbLine
 62
250
  6
CONTINUOUS
 10
8.6341570595
 20
7.137388673
 11
11.9138290596
 21
8.7898698943
  0
LINE
  5
447
100
AcDbEntity
  8
0
100
AcDbLine
 62
7
  6
CONTINUOUS
 10
-4.0905659042
 20
3.5497807991
 11
-4.8056034926
 21
3.1908717211
  0
LWPOLYLINE
  5
448
100
AcDbEntity
  8
RACCORDO
100
AcDbPolyline
 62
7
  6
CONTINUOUS
 90
4
 70
0
 10
-4.1663801762
 20
2.2892183295
 10
-4.2801590081
 20
2.2408567396
 10
-4.4253740541
 20
2.199931362
 10
-4.5782586191
 20
2.179102565
  0
LWPOLYLINE
  5
449
100
AcDbEntity
  8
RACCORDO
100
AcDbPolyline
 62
7
  6
CONTINUOUS
 90
10
 70
0
 10
-20.6712460824
 20
5.2696975491
 10
-20.6265487589
 20
5.2483371197
 10
-20.4819692413
 20
5.1944181125
 10
-20.3285665693
 20
5.1594980879
 10
-20.1675063011
 20
5.1444044181
 10
-20.0004291249
 20
5.1497719175
 10
-19.82929486
 20
5.1758471733
 10
-19.6555218161
 20
5.2225939071
 10
-19.4801510367
 20
5.2899480939
 10
-19.4263686611
 20
5.3146461877
  0
LINE
  5
44A
100
AcDbEntity
  8
RACCORDO
100
AcDbLine
 62
7
  6
CONTINUOUS
 10
-22.374048125
 20
6.1210843679
 11
-20.6673395931
 21
5.267730102
  0
LINE
  5
44B
100
AcDbEntity
  8
RACCORDO
100
AcDbLine
 62
250
  6
CONTINUOUS
 10
-22.7501096312
 20
7.3364331399
 11
-21.3230753313
 21
6.62291599
  0
LWPOLYLINE
  5
44C
100
AcDbEntity
  8
RACCORDO
100
AcDbPolyline
 62
7
  6
CONTINUOUS
 90
12
 70
0
 10
-22.3771744665
 20
6.1226475902
 10
-22.3981858094
 20
6.1335778551
 10
-22.4959462441
 20
6.1969407898
 10
-22.5816369029
 20
6.2747468604
 10
-22.6545460835
 20
6.3663925812
 10
-22.7140827686
 20
6.4717983666
 10
-22.7594975121
 20
6.5911151303
 10
-22.789726134
 20
6.723084986
 10
-22.8040025407
 20
6.8651885223
 10
-22.802170023
 20
7.0154697491
 10
-22.7842000595
 20
7.1730317542
 10
-22.7501096312
 20
7.3364331399
  0
LWPOLYLINE
  5
44D
100
AcDbEntity
  8
RACCORDO
100
AcDbPolyline
 62
250
  6
CONTINUOUS
 90
23
 70
0
 10
-20.6712770511
 20
5.2697101128
 10
-20.7040453432
 20
5.2870902797
 10
-20.7664229709
 20
5.3249193351
 10
-20.8263928316
 20
5.3678252814
 10
-20.883378968
 20
5.4154354903
 10
-20.9372816375
 20
5.4676340709
 10
-20.9879826647
 20
5.5242713406
 10
-21.0350233274
 20
5.584702143
 10
-21.0783973725
 20
5.6486797908
 10
-21.1181017268
 20
5.7159436402
 10
-21.1538560305
 20
5.7856249872
 10
-21.1857648453
 20
5.8573818487
 10
-21.2139479423
 20
5.930890703
 10
-21.238327619
 20
6.0051518238
 10
-21.2591159879
 20
6.0797903447
 10
-21.2765349426
 20
6.1544684031
 10
-21.2906860364
 20
6.2281366019
 10
-21.301862725
 20
6.3004474419
 10
-21.3103547947
 20
6.3710889249
 10
-21.3163948347
 20
6.4390069944
 10
-21.3203081445
 20
6.503652252
 10
-21.3224353222
 20
6.5650275969
 10
-21.3230753313
 20
6.62291599
  0
LINE
  5
44E
100
AcDbEntity
  8
0
100
AcDbLine
 62
7
  6
CONTINUOUS
 10
-9.6536806853
 20
10.4438108367
 11
-9.7321161527
 21
10.5973141925
  0
LWPOLYLINE
  5
44F
100
AcDbEntity
  8
0
100
AcDbPolyline
 62
7
  6
CONTINUOUS
 90
5
 70
0
 10
-9.6562185237
 20
10.5976224819
 10
-9.5552773059
 20
10.3730203687
 10
-9.4341464063
 20
10.1705685751
 10
-9.2947537644
 20
9.9920154794
 10
-9.1386002369
 20
9.8377943435
  0
LWPOLYLINE
  5
450
100
AcDbEntity
  8
0
100
AcDbPolyline
 62
250
  6
CONTINUOUS
 90
8
 70
0
 10
-9.70022875
 20
10.7227984634
 10
-9.6926117148
 20
10.7057590005
 10
-9.6828542995
 20
10.6895830838
 10
-9.6710210867
 20
10.6743777766
 10
-9.6571903994
 20
10.6602437288
 10
-9.6414537775
 20
10.6472744876
 10
-9.6239153733
 20
10.6355558797
 10
-9.604691266
 20
10.62516546
  0
LINE
  5
451
100
AcDbEntity
  8
0
100
AcDbLine
 62
7
  6
CONTINUOUS
 10
-9.7321161527
 20
10.5973141925
 11
-9.7987223922
 21
10.7642945718
  0
LWPOLYLINE
  5
452
100
AcDbEntity
  8
0
100
AcDbPolyline
 62
7
  6
CONTINUOUS
 90
6
 70
0
 10
-8.3653516434
 20
10.0872605392
 10
-8.292987716
 20
9.8959822868
 10
-8.2051187544
 20
9.7207785887
 10
-8.1023749025
 20
9.5629171735
 10
-7.9854869456
 20
9.4235340383
 10
-7.8553004458
 20
9.3036486175
  0
LWPOLYLINE
  5
453
100
AcDbEntity
  8
0
100
AcDbPolyline
 62
7
  6
CONTINUOUS
 90
5
 70
0
 10
-8.4094259723
 20
10.527947739
 10
-8.3784915949
 20
10.4384716633
 10
-8.3485995385
 20
10.345004592
 10
-8.3217791142
 20
10.2544114539
 10
-8.2978644853
 20
10.1669345156
  0
LWPOLYLINE
  5
454
100
AcDbEntity
  8
0
100
AcDbPolyline
 62
250
  6
CONTINUOUS
 90
17
 70
0
 10
-8.6110057229
 20
10.1795195743
 10
-8.5712644064
 20
10.0511340359
 10
-8.5477564622
 20
9.9828644159
 10
-8.5214002559
 20
9.9143093615
 10
-8.4920513223
 20
9.8458224232
 10
-8.4594902403
 20
9.7775971594
 10
-8.423409989
 20
9.7096828959
 10
-8.3836274147
 20
9.642409007
 10
-8.3399698635
 20
9.5761096827
 10
-8.2921099554
 20
9.5109223794
 10
-8.2399106911
 20
9.4473392581
 10
-8.1831251964
 20
9.3857456296
 10
-8.1211841201
 20
9.326278321
 10
-8.0538811943
 20
9.2695563619
 10
-7.9809712361
 20
9.2162136939
 10
-7.9017292577
 20
9.16665051
 10
-7.8389369461
 20
9.1329399784
  0
LWPOLYLINE
  5
455
100
AcDbEntity
  8
0
100
AcDbPolyline
 62
250
  6
CONTINUOUS
 90
11
 70
0
 10
-3.6992332141
 20
3.4910915518
 10
-3.6942190044
 20
3.4700567054
 10
-3.6873601251
 20
3.450262555
 10
-3.6787493298
 20
3.4319767828
 10
-3.6685030643
 20
3.4154466731
 10
-3.6567598907
 20
3.4008957673
 10
-3.6436786136
 20
3.3885208413
 10
-3.6294361338
 20
3.3784892458
 10
-3.6142250559
 20
3.3709366428
 10
-3.5982510822
 20
3.3659651695
 10
-3.5946870357
 20
3.3652310691
  0
LWPOLYLINE
  5
456
100
AcDbEntity
  8
0
100
AcDbPolyline
 62
7
  6
CONTINUOUS
 90
15
 70
0
 10
-5.2570744128
 20
5.2430514161
 10
-5.2500687281
 20
5.1802182479
 10
-5.2316020143
 20
5.0649623677
 10
-5.2057629374
 20
4.9497631965
 10
-5.1725854052
 20
4.835346433
 10
-5.1321918467
 20
4.7222103639
 10
-5.0847030489
 20
4.6107063545
 10
-5.0303662023
 20
4.5013272816
 10
-4.9695304146
 20
4.3946001468
 10
-4.9025283096
 20
4.2908818835
 10
-4.8297570328
 20
4.1905520379
 10
-4.7516897221
 20
4.0940224592
 10
-4.6687860953
 20
4.0016286552
 10
-4.5815024532
 20
3.9136862013
 10
-4.4903494057
 20
3.8305513639
  0
LWPOLYLINE
  5
457
100
AcDbEntity
  8
RACCORDO
100
AcDbPolyline
 62
250
  6
CONTINUOUS
 90
10
 70
0
 10
-1.5546306459
 20
15.4888851212
 10
-1.5571772903
 20
15.5198399874
 10
-1.5638676235
 20
15.5520385362
 10
-1.5744978304
 20
15.5845023968
 10
-1.5887445817
 20
15.6162456028
 10
-1.6061745715
 20
15.6463037865
 10
-1.6262574807
 20
15.6737636216
 10
-1.6483827217
 20
15.697791585
 10
-1.6718782393
 20
15.7176590528
 10
-1.696030463
 20
15.7327637305
  0
LWPOLYLINE
  5
458
100
AcDbEntity
  8
RACCORDO
100
AcDbPolyline
 62
7
  6
CONTINUOUS
 90
10
 70
0
 10
-2.4455341643
 20
22.7061961394
 10
-2.4476717832
 20
22.7373516843
 10
-2.4540540685
 20
22.7696999684
 10
-2.4644775864
 20
22.802263076
 10
-2.4786190448
 20
22.8340546424
 10
-2.4960457619
 20
22.8641112835
 10
-2.5162292759
 20
22.891521537
 10
-2.5385602146
 20
22.9154515106
 10
-2.5623663564
 20
22.9351705612
 10
-2.5869339814
 20
22.9500747488
  0
LINE
  5
459
100
AcDbEntity
  8
RACCORDO
100
AcDbLine
 62
7
  6
CONTINUOUS
 10
-2.4455341643
 20
22.3220666183
 11
-2.4455341643
 21
22.7061961394
  0
LINE
  5
45A
100
AcDbEntity
  8
RACCORDO
100
AcDbLine
 62
250
  6
CONTINUOUS
 10
-1.5546306459
 20
15.4888851212
 11
-1.5546306459
 21
15.1047556
  0
LINE
  5
45B
100
AcDbEntity
  8
0
100
AcDbLine
 62
7
  6
CONTINUOUS
 10
-0.3242138208
 20
16.854680742
 11
-0.3242138208
 21
17.1144883631
  0
LINE
  5
45C
100
AcDbEntity
  8
DRAFT
100
AcDbLine
 62
7
  6
CONTINUOUS
 10
-0.3180430804
 20
-13.1572943584
 11
-0.3180430804
 21
-10.7588577832
  0
LWPOLYLINE
  5
45D
100
AcDbEntity
  8
0
100
AcDbPolyline
 62
7
  6
CONTINUOUS
 90
19
 70
0
 10
-0.3242138208
 20
17.1144883631
 10
-0.3222121279
 20
17.1689775036
 10
-0.3165901761
 20
17.2240887154
 10
-0.3073479653
 20
17.2798219985
 10
-0.2943606876
 20
17.3366087881
 10
-0.277753151
 20
17.394017649
 10
-0.2578997789
 20
17.4507542754
 10
-0.2347268387
 20
17.5068033966
 10
-0.2083080631
 20
17.5621802834
 10
-0.179239074
 20
17.6156364415
 10
-0.1474596687
 20
17.6671282395
 10
-0.11303005
 20
17.7166993088
 10
-0.0767264474
 20
17.7632320498
 10
-0.0385062911
 20
17.8066574435
 10
0.0015878491
 20
17.847044509
 10
0.0426520347
 20
17.8834827035
 10
0.084384953
 20
17.9156685129
 10
0.1270879168
 20
17.9439054515
 10
0.170760926
 20
17.9681935192
  0
LINE
  5
45E
100
AcDbEntity
  8
0
100
AcDbLine
 62
250
  6
CONTINUOUS
 10
-5.2173606296
 20
-14.9365501447
 11
-5.3778346308
 21
-15.6811455896
  0
LINE
  5
45F
100
AcDbEntity
  8
RACCORDO
100
AcDbLine
 62
250
  6
CONTINUOUS
 10
2.0730275814
 20
17.6996316253
 11
2.0563425479
 21
17.6283969251
  0
LINE
  5
460
100
AcDbEntity
  8
RACCORDO
100
AcDbLine
 62
250
  6
CONTINUOUS
 10
4.0232732661
 20
17.8986664224
 11
3.9358700612
 21
17.5255091786
  0
LINE
  5
461
100
AcDbEntity
  8
RACCORDO
100
AcDbLine
 62
250
  6
CONTINUOUS
 10
4.2991943247
 20
17.841682282
 11
4.2117911198
 21
17.4685250382
  0
LWPOLYLINE
  5
462
100
AcDbEntity
  8
0
100
AcDbPolyline
 62
7
  6
CONTINUOUS
 90
9
 70
0
 10
-7.7654316491
 20
-18.5377534333
 10
-7.7905900318
 20
-18.6164180173
 10
-7.8207475446
 20
-18.689675897
 10
-7.8560922779
 20
-18.7583357788
 10
-7.8965572324
 20
-18.8214494201
 10
-7.9420398832
 20
-18.8763860489
 10
-7.9927715093
 20
-18.9223284261
 10
-8.0490961666
 20
-18.9601948821
 10
-8.0738577208
 20
-18.9733970386
  0
LINE
  5
463
100
AcDbEntity
  8
RACCORDO
100
AcDbLine
 62
250
  6
CONTINUOUS
 10
6.8100280535
 20
12.9699624198
 11
6.9732474381
 21
13.2059501125
  0
LWPOLYLINE
  5
464
100
AcDbEntity
  8
RACCORDO
100
AcDbPolyline
 62
250
  6
CONTINUOUS
 90
4
 70
0
 10
7.4829474701
 20
11.0124685908
 10
7.4611506171
 20
10.9829151203
 10
7.4457850841
 20
10.9519674468
 10
7.4374251934
 20
10.9208166686
  0
LWPOLYLINE
  5
465
100
AcDbEntity
  8
RACCORDO
100
AcDbPolyline
 62
250
  6
CONTINUOUS
 90
4
 70
0
 10
11.2660962267
 20
10.7586284262
 10
11.2287413117
 20
10.7216148294
 10
11.1997295418
 20
10.6822251893
 10
11.1793090652
 20
10.6409887604
  0
LINE
  5
466
100
AcDbEntity
  8
RACCORDO
100
AcDbLine
 62
7
  6
CONTINUOUS
 10
18.1860790732
 20
11.9448455353
 11
14.0300538373
 21
9.7477909689
  0
LINE
  5
467
100
AcDbEntity
  8
RACCORDO
100
AcDbLine
 62
250
  6
CONTINUOUS
 10
18.1251642073
 20
11.4663683746
 11
14.0300538373
 21
9.3128769817
  0
LINE
  5
468
100
AcDbEntity
  8
RACCORDO
100
AcDbLine
 62
250
  6
CONTINUOUS
 10
18.1616111714
 20
11.3320824291
 11
14.0300538373
 21
9.1601809887
  0
LINE
  5
469
100
AcDbEntity
  8
RACCORDO
100
AcDbLine
 62
250
  6
CONTINUOUS
 10
28.8036285305
 20
15.8205887954
 11
18.1616111714
 21
10.4262875524
  0
LINE
  5
46A
100
AcDbEntity
  8
RACCORDO
100
AcDbLine
 62
250
  6
CONTINUOUS
 10
8.8109068308
 20
6.8325404113
 11
12.553377141
 21
8.7182051694
  0
LINE
  5
46B
100
AcDbEntity
  8
DRAFT
100
AcDbLine
 62
7
  6
CONTINUOUS
 10
8.8109068308
 20
3.9620731067
 11
8.9939082056
 21
4.0427417749
  0
LWPOLYLINE
  5
46C
100
AcDbEntity
  8
RACCORDO
100
AcDbPolyline
 62
7
  6
CONTINUOUS
 90
19
 70
0
 10
-20.9010442948
 20
-6.9065752668
 10
-20.9233352349
 20
-6.9152771027
 10
-20.9471017427
 20
-6.9191825481
 10
-20.9720398327
 20
-6.9182621365
 10
-20.9979510957
 20
-6.9121485906
 10
-21.0244586672
 20
-6.901191219
 10
-21.0509771127
 20
-6.8865011245
 10
-21.0770411806
 20
-6.8682666748
 10
-21.1026041872
 20
-6.8464730265
 10
-21.1277327946
 20
-6.8219498461
 10
-21.1522031684
 20
-6.7949404949
 10
-21.1759122397
 20
-6.7653376927
 10
-21.1991263106
 20
-6.7333695679
 10
-21.2217324658
 20
-6.6990897726
 10
-21.2435602868
 20
-6.66250533
 10
-21.2647510673
 20
-6.6236984983
 10
-21.2852264479
 20
-6.582692139
 10
-21.3047238924
 20
-6.5394885609
 10
-21.3230753313
 20
-6.4941161177
  0
LWPOLYLINE
  5
46D
100
AcDbEntity
  8
RACCORDO
100
AcDbPolyline
 62
250
  6
CONTINUOUS
 90
10
 70
0
 10
-21.3230753313
 20
6.62291599
 10
-21.2833020493
 20
6.6062093917
 10
-21.2383611538
 20
6.5931837287
 10
-21.1896000506
 20
6.584229533
 10
-21.1384806818
 20
6.5796152669
 10
-21.0865356946
 20
6.579479274
 10
-21.0353224895
 20
6.5838256316
 10
-20.986376527
 20
6.5925240285
 10
-20.9411652918
 20
6.6053136715
 10
-20.9010442948
 20
6.6218111052
  0
LINE
  5
46E
100
AcDbEntity
  8
ASSI
100
AcDbLine
 62
7
  6
CONTINUOUS
 10
-4.7237161853
 20
2.1834845572
 11
-4.9204078985
 21
2.271099949
  0
LINE
  5
46F
100
AcDbEntity
  8
RACCORDO
100
AcDbLine
 62
7
  6
CONTINUOUS
 10
-12.5077756431
 20
5.7807736468
 11
-10.9648516675
 21
5.009311659
  0
LWPOLYLINE
  5
470
100
AcDbEntity
  8
ASSI
100
AcDbPolyline
 62
7
  6
CONTINUOUS
 90
19
 70
0
 10
-4.9204078985
 20
2.271099949
 10
-5.1170996117
 20
2.3801762704
 10
-5.3137913249
 20
2.5102368407
 10
-5.5060485445
 20
2.6583493922
 10
-5.6937705361
 20
2.8249239957
 10
-5.8770580341
 20
3.0095505805
 10
-6.0517787484
 20
3.208066666
 10
-6.2177380748
 20
3.4207877679
 10
-6.3751306176
 20
3.6473983704
 10
-6.5204078985
 20
3.8827894469
 10
-6.653294706
 20
4.1271604554
 10
-6.7740662517
 20
4.3803119377
 10
-6.8799996927
 20
4.6365364922
 10
-6.9707579649
 20
4.895903927
 10
-7.0466781324
 20
5.1583444339
 10
-7.1060485445
 20
5.4179411864
 10
-7.1482986511
 20
5.672721909
 10
-7.1739990024
 20
5.9246588772
 10
-7.1831495983
 20
6.173752091
  0
LWPOLYLINE
  5
471
100
AcDbEntity
  8
0
100
AcDbPolyline
 62
7
  6
CONTINUOUS
 90
10
 70
0
 10
-4.4292148692
 20
3.7792189836
 10
-4.3391901897
 20
3.7093710219
 10
-4.2478766378
 20
3.6450608191
 10
-4.1554981191
 20
3.5864748956
 10
-4.0621710636
 20
3.5337344803
 10
-3.9682375375
 20
3.4870865459
 10
-3.87425963
 20
3.4468248988
 10
-3.7805751202
 20
3.4130706263
 10
-3.6873058837
 20
3.3858501954
 10
-3.5946870357
 20
3.3652310691
  0
LINE
  5
472
100
AcDbEntity
  8
0
100
AcDbLine
 62
250
  6
CONTINUOUS
 10
-4.444526308
 20
3.8637380987
 11
-4.3625316305
 21
3.8001223017
  0
LINE
  5
473
100
AcDbEntity
  8
0
100
AcDbLine
 62
7
  6
CONTINUOUS
 10
-4.4292148692
 20
3.7792189836
 11
-4.429171861
 21
3.7791840881
  0
LINE
  5
474
100
AcDbEntity
  8
0
100
AcDbLine
 62
7
  6
CONTINUOUS
 10
-4.4903494057
 20
3.8305513639
 11
-4.4291718609
 21
3.7791840881
  0
LWPOLYLINE
  5
475
100
AcDbEntity
  8
0
100
AcDbPolyline
 62
250
  6
CONTINUOUS
 90
11
 70
0
 10
-9.2535103011
 20
9.9694253261
 10
-9.3045677593
 20
10.0327561222
 10
-9.3514076954
 20
10.0971863466
 10
-9.3942250193
 20
10.1623109946
 10
-9.4334508544
 20
10.2281262849
 10
-9.469271827
 20
10.294343901
 10
-9.5018408798
 20
10.3606499822
 10
-9.5314907757
 20
10.4270911741
 10
-9.55843243
 20
10.4935323713
 10
-9.5827791049
 20
10.5596295304
 10
-9.6046911815
 20
10.6251650683
  0
LWPOLYLINE
  5
476
100
AcDbEntity
  8
RACCORDO
100
AcDbPolyline
 62
250
  6
CONTINUOUS
 90
13
 70
0
 10
-4.4484345034
 20
6.3141144852
 10
-4.2989834436
 20
6.1024878152
 10
-4.1579446303
 20
5.8799558768
 10
-4.0279392962
 20
5.6504813029
 10
-3.9091156889
 20
5.4139121112
 10
-3.8013255608
 20
5.1704002841
 10
-3.706745402
 20
4.9243644015
 10
-3.6255652693
 20
4.6755214022
 10
-3.5575951059
 20
4.4241543475
 10
-3.5044412311
 20
4.1755310018
 10
-3.4666390848
 20
3.9314072866
 10
-3.4436532271
 20
3.6900272805
 10
-3.435483658
 20
3.4513909834
  0
LWPOLYLINE
  5
477
100
AcDbEntity
  8
0
100
AcDbPolyline
 62
7
  6
CONTINUOUS
 90
8
 70
0
 10
-8.6259417431
 20
10.6900654772
 10
-8.611368351
 20
10.6641594369
 10
-8.561050664
 20
10.5658527756
 10
-8.5132188762
 20
10.4650467401
 10
-8.4697671618
 20
10.3660709344
 10
-8.4312357787
 20
10.2705191775
 10
-8.3965339507
 20
10.1774503323
 10
-8.3653516434
 20
10.0872605392
  0
LWPOLYLINE
  5
478
100
AcDbEntity
  8
RACCORDO
100
AcDbPolyline
 62
7
  6
CONTINUOUS
 90
8
 70
0
 10
-0.5237136232
 20
23.4124436858
 10
-0.5225753706
 20
23.4020871665
 10
-0.5243459371
 20
23.3886920165
 10
-0.5295227167
 20
23.3752041107
 10
-0.5378529339
 20
23.3622984231
 10
-0.5492523303
 20
23.3501999452
 10
-0.5638051644
 20
23.3386836855
 10
-0.5815114361
 20
23.327749644
  0
LINE
  5
479
100
AcDbEntity
  8
RACCORDO
100
AcDbLine
 62
7
  6
CONTINUOUS
 10
1.2780708448
 20
15.8954291459
 11
1.3801944918
 21
14.4147488102
  0
LWPOLYLINE
  5
47A
100
AcDbEntity
  8
RACCORDO
100
AcDbPolyline
 62
250
  6
CONTINUOUS
 90
10
 70
0
 10
-0.9085652394
 20
23.4685440569
 10
-0.9103291725
 20
23.4998833105
 10
-0.9164091937
 20
23.5323805734
 10
-0.9266206363
 20
23.5650488148
 10
-0.9406533505
 20
23.5968958107
 10
-0.9580811249
 20
23.6269542805
 10
-0.9783746318
 20
23.654311266
 10
-1.0009175027
 20
23.6781358601
 10
-1.0250250483
 20
23.6977044443
 10
-1.0499650564
 20
23.7124226662
  0
LINE
  5
47B
100
AcDbEntity
  8
DRAFT
100
AcDbLine
 62
7
  6
CONTINUOUS
 10
0.736446351
 20
-16.3019009275
 11
0.736446351
 21
-14.9520641592
  0
LINE
  5
47C
100
AcDbEntity
  8
DRAFT
100
AcDbLine
 62
7
  6
CONTINUOUS
 10
0.736446351
 20
-12.9297288294
 11
0.736446351
 21
-12.7293584155
  0
LINE
  5
47D
100
AcDbEntity
  8
DRAFT
100
AcDbLine
 62
7
  6
CONTINUOUS
 10
2.2151998511
 20
-15.4579295433
 11
2.2151998511
 21
-12.025479249
  0
LINE
  5
47E
100
AcDbEntity
  8
DRAFT
100
AcDbLine
 62
7
  6
CONTINUOUS
 10
2.8224113555
 20
23.2256971847
 11
2.8224113555
 21
23.3491173881
  0
LINE
  5
47F
100
AcDbEntity
  8
RACCORDO
100
AcDbLine
 62
250
  6
CONTINUOUS
 10
2.8700542644
 20
28.7812058059
 11
2.8700542644
 21
26.9990907881
  0
LINE
  5
480
100
AcDbEntity
  8
RACCORDO
100
AcDbLine
 62
7
  6
CONTINUOUS
 10
3.1568038153
 20
29.131660438
 11
3.1568038153
 21
26.9683425256
  0
LWPOLYLINE
  5
481
100
AcDbEntity
  8
RACCORDO
100
AcDbPolyline
 62
7
  6
CONTINUOUS
 90
17
 70
0
 10
2.5047894784
 20
-12.0724269434
 10
2.4911823726
 20
-12.8389176168
 10
2.440257985
 20
-13.7217561628
 10
2.3516547203
 20
-14.5789027554
 10
2.2255738106
 20
-15.4072511877
 10
2.0623614434
 20
-16.2045682003
 10
1.8622890981
 20
-16.968980485
 10
1.6258038462
 20
-17.6981521764
 10
1.3535653931
 20
-18.3897537628
 10
1.0461428738
 20
-19.0417877646
 10
0.7043830516
 20
-19.6520914585
 10
0.3291533609
 20
-20.2189443233
 10
-0.0789896182
 20
-20.741029215
 10
-0.5189643243
 20
-21.216648833
 10
-0.98985493
 20
-21.6445353031
 10
-1.4915792083
 20
-22.0239807059
 10
-2.0341611543
 20
-22.3597553682
  0
LWPOLYLINE
  5
482
100
AcDbEntity
  8
RACCORDO
100
AcDbPolyline
 62
250
  6
CONTINUOUS
 90
3
 70
0
 10
2.6512393026
 20
-12.2491818801
 10
2.6345537771
 20
-13.1109295464
 10
2.5845811239
 20
-13.9494448868
  0
LWPOLYLINE
  5
483
100
AcDbEntity
  8
0
100
AcDbPolyline
 62
7
  6
CONTINUOUS
 90
8
 70
0
 10
1.0789935576
 20
-12.7993174767
 10
1.0794576371
 20
-12.7806485866
 10
1.0734724072
 20
-12.7624517394
 10
1.0615808967
 20
-12.743205386
 10
1.0441427241
 20
-12.7235667353
 10
1.0212777625
 20
-12.7037548568
 10
0.9928661389
 20
-12.6835506811
 10
0.9589078533
 20
-12.662954208
  0
LWPOLYLINE
  5
484
100
AcDbEntity
  8
RACCORDO
100
AcDbPolyline
 62
250
  6
CONTINUOUS
 90
9
 70
0
 10
3.1568038153
 20
29.131660438
 10
3.1556661158
 20
29.1078166514
 10
3.1452977021
 20
29.0560300279
 10
3.1242190347
 20
29.005062854
 10
3.0926584994
 20
28.9554673549
 10
3.0509580521
 20
28.9077808941
 10
2.9995695138
 20
28.8625201506
 10
2.9390496754
 20
28.8201755209
 10
2.8700542644
 20
28.7812058059
  0
LINE
  5
485
100
AcDbEntity
  8
0
100
AcDbLine
 62
250
  6
CONTINUOUS
 10
-2.0990970664
 20
-14.5072306698
 11
-2.2595710677
 21
-15.2518261146
  0
LINE
  5
486
100
AcDbEntity
  8
0
100
AcDbLine
 62
250
  6
CONTINUOUS
 10
-2.024347101
 20
-14.4994092843
 11
-2.1848211022
 21
-15.2440047292
  0
LINE
  5
487
100
AcDbEntity
  8
0
100
AcDbLine
 62
250
  6
CONTINUOUS
 10
-0.4736505821
 20
-15.1161990038
 11
-0.3131765809
 21
-14.371603559
  0
LINE
  5
488
100
AcDbEntity
  8
0
100
AcDbLine
 62
250
  6
CONTINUOUS
 10
-0.3989006167
 20
-15.1083776183
 11
-0.2384266154
 21
-14.3637821735
  0
LINE
  5
489
100
AcDbEntity
  8
RACCORDO
100
AcDbLine
 62
250
  6
CONTINUOUS
 10
6.3498039902
 20
16.8163774493
 11
6.3293727306
 21
16.7291486972
  0
LINE
  5
48A
100
AcDbEntity
  8
RACCORDO
100
AcDbLine
 62
250
  6
CONTINUOUS
 10
6.1035362342
 20
15.6843772989
 11
6.0868512007
 21
15.6131425987
  0
LWPOLYLINE
  5
48B
100
AcDbEntity
  8
RACCORDO
100
AcDbPolyline
 62
250
  6
CONTINUOUS
 90
14
 70
0
 10
8.0773224573
 20
21.2227627559
 10
8.0792689964
 20
21.2291443662
 10
8.1059816062
 20
21.2939760317
 10
8.1393885065
 20
21.3580502202
 10
8.1794001617
 20
21.4211844379
 10
8.2258979353
 20
21.4831901139
 10
8.2787605864
 20
21.5439072119
 10
8.3378394569
 20
21.6031664291
 10
8.4029322363
 20
21.6607743623
 10
8.4738080682
 20
21.7165478299
 10
8.550301206
 20
21.7703757654
 10
8.6322926097
 20
21.8221769491
 10
8.7195412067
 20
21.8717945885
 10
8.7399105861
 20
21.8826635698
  0
LWPOLYLINE
  5
48C
100
AcDbEntity
  8
RACCORDO
100
AcDbPolyline
 62
7
  6
CONTINUOUS
 90
12
 70
0
 10
6.0502343445
 20
15.6592747483
 10
6.0508895104
 20
15.6614127339
 10
6.0526459992
 20
15.6648343452
 10
6.0552341654
 20
15.6680346748
 10
6.0586434901
 20
15.6710165214
 10
6.0628304862
 20
15.6737418505
 10
6.0678051155
 20
15.6762073762
 10
6.0735574161
 20
15.6784163844
 10
6.0800140156
 20
15.6803406984
 10
6.0871504564
 20
15.6819709261
 10
6.0949911959
 20
15.6833164596
 10
6.1035362342
 20
15.6843772989
  0
LWPOLYLINE
  5
48D
100
AcDbEntity
  8
RACCORDO
100
AcDbPolyline
 62
7
  6
CONTINUOUS
 90
12
 70
0
 10
6.4100275337
 20
16.7570427841
 10
6.4093723678
 20
16.7549047985
 10
6.407615879
 20
16.7514831872
 10
6.4050277128
 20
16.7482828576
 10
6.4016183881
 20
16.745301011
 10
6.397431392
 20
16.7425756819
 10
6.3924567627
 20
16.7401101562
 10
6.386704462
 20
16.737901148
 10
6.3802478626
 20
16.735976834
 10
6.3731114218
 20
16.7343466063
 10
6.3652706823
 20
16.7330010728
 10
6.356725644
 20
16.7319402335
  0
LWPOLYLINE
  5
48E
100
AcDbEntity
  8
0
100
AcDbPolyline
 62
250
  6
CONTINUOUS
 90
13
 70
0
 10
-8.547667341
 20
-15.596882747
 10
-8.4238233495
 20
-15.4448080131
 10
-8.2955147414
 20
-15.2986785724
 10
-8.1628827506
 20
-15.1587958449
 10
-8.0259872867
 20
-15.0254443072
 10
-7.8855160701
 20
-14.8995023912
 10
-7.7425903411
 20
-14.782094475
 10
-7.5979039144
 20
-14.6738597486
 10
-7.4516559904
 20
-14.5750049605
 10
-7.3042890226
 20
-14.4857601028
 10
-7.1561783508
 20
-14.4062866299
 10
-7.0079102189
 20
-14.3369006567
 10
-6.8602478352
 20
-14.2779739884
  0
LWPOLYLINE
  5
48F
100
AcDbEntity
  8
0
100
AcDbPolyline
 62
7
  6
CONTINUOUS
 90
17
 70
0
 10
-8.6590513353
 20
-15.3495104077
 10
-8.7526773082
 20
-15.4624890378
 10
-8.8440278299
 20
-15.5794152511
 10
-8.9325775054
 20
-15.699616318
 10
-9.0183102099
 20
-15.8231113666
 10
-9.1012420682
 20
-15.949881269
 10
-9.1808960591
 20
-16.0791959111
 10
-9.2572526437
 20
-16.2110687977
 10
-9.330331361
 20
-16.3454864241
 10
-9.399713807
 20
-16.4816781624
 10
-9.4653789973
 20
-16.6196544667
 10
-9.5273479163
 20
-16.759404883
 10
-9.5852651128
 20
-16.9001274215
 10
-9.6391072919
 20
-17.0418273511
 10
-9.6888977484
 20
-17.1844994029
 10
-9.734350916
 20
-17.3273257812
 10
-9.7753716059
 20
-17.4700338876
  0
LWPOLYLINE
  5
490
100
AcDbEntity
  8
RACCORDO
100
AcDbPolyline
 62
250
  6
CONTINUOUS
 90
13
 70
0
 10
6.4120677661
 20
2.0257612194
 10
6.3335533813
 20
1.9652358885
 10
6.257501414
 20
1.8952950638
 10
6.1848825354
 20
1.8167870796
 10
6.1165722751
 20
1.7306142395
 10
6.0535286479
 20
1.6379025284
 10
5.9967362863
 20
1.5400330191
 10
5.9469317444
 20
1.4383228519
 10
5.9047026562
 20
1.3340427904
 10
5.8706173614
 20
1.2286172631
 10
5.8450850011
 20
1.1234259461
 10
5.8283737566
 20
1.0197809659
 10
5.8206568723
 20
0.9189918218
  0
LWPOLYLINE
  5
491
100
AcDbEntity
  8
RACCORDO
100
AcDbPolyline
 62
250
  6
CONTINUOUS
 90
13
 70
0
 10
6.6164293098
 20
1.7379750869
 10
6.5562968395
 20
1.6917306536
 10
6.4993503986
 20
1.6397180578
 10
6.4455899871
 20
1.5819372995
 10
6.394336634
 20
1.5174358919
 10
6.3462693102
 20
1.4471663218
 10
6.3034249286
 20
1.3739860493
 10
6.2660807449
 20
1.2977602005
 10
6.2339595035
 20
1.2186236493
 10
6.2082663504
 20
1.1398384779
 10
6.189403001
 20
1.0624920471
 10
6.1769677399
 20
0.985496996
 10
6.1709605671
 20
0.9088533248
  0
LINE
  5
492
100
AcDbEntity
  8
RACCORDO
100
AcDbLine
 62
250
  6
CONTINUOUS
 10
8.8176403995
 20
3.697862976
 11
6.4120677661
 21
2.0257612194
  0
LINE
  5
493
100
AcDbEntity
  8
RACCORDO
100
AcDbLine
 62
250
  6
CONTINUOUS
 10
8.9939082056
 20
3.3905490241
 11
6.6164293098
 21
1.7379750869
  0
LWPOLYLINE
  5
494
100
AcDbEntity
  8
RACCORDO
100
AcDbPolyline
 62
250
  6
CONTINUOUS
 90
10
 70
0
 10
6.1709605671
 20
0.9088533248
 10
6.1375195989
 20
0.8967553455
 10
6.0999118607
 20
0.8876887764
 10
6.0592548738
 20
0.8819230325
 10
6.0167567687
 20
0.8796294437
 10
5.9736803847
 20
0.880876165
 10
5.931305745
 20
0.885626151
 10
5.8908920203
 20
0.8937382557
 10
5.8536401128
 20
0.9049714261
 10
5.8206569708
 20
0.9189918663
  0
LINE
  5
495
100
AcDbEntity
  8
RACCORDO
100
AcDbLine
 62
7
  6
CONTINUOUS
 10
-4.5782586191
 20
2.179102565
 11
-4.7386418751
 21
2.1779238641
  0
LWPOLYLINE
  5
496
100
AcDbEntity
  8
COPY-PUBBLISH
100
AcDbPolyline
 62
250
  6
CONTINUOUS
 90
39
 70
0
 10
-3.8362712103
 20
2.5963639308
 10
-3.9377810892
 20
2.6011611549
 10
-4.0489982587
 20
2.6153309171
 10
-4.1615056703
 20
2.6383332944
 10
-4.2750562149
 20
2.6700221293
 10
-4.3894738069
 20
2.7102953854
 10
-4.5043606778
 20
2.7589835762
 10
-4.6193357312
 20
2.8158959084
 10
-4.7342558306
 20
2.8809592488
 10
-4.8487338627
 20
2.9539784307
 10
-4.9623793029
 20
3.0347285025
 10
-5.0750364088
 20
3.1231490681
 10
-5.1864466968
 20
3.2191307979
 10
-5.2960663005
 20
3.3223004702
 10
-5.4033145715
 20
3.432169443
 10
-5.5080805812
 20
3.5486962422
 10
-5.6096996331
 20
3.6712158824
 10
-5.7068823861
 20
3.7980716608
 10
-5.7993806449
 20
3.9286882134
 10
-5.8869900246
 20
4.0625172227
 10
-5.9687505965
 20
4.1976738623
 10
-6.0444931835
 20
4.3332571729
 10
-6.1143980594
 20
4.4689453414
 10
-6.1782603839
 20
4.6036365435
 10
-6.2361839348
 20
4.7367332816
 10
-6.288372104
 20
4.8678456628
 10
-6.3348998674
 20
4.9962226247
 10
-6.3760088706
 20
5.1214837869
 10
-6.4119648798
 20
5.2433198253
 10
-6.4429679531
 20
5.3611543794
 10
-6.4693304748
 20
5.4747547643
 10
-6.4913762671
 20
5.5839566382
 10
-6.5093863985
 20
5.6883582591
 10
-6.5237080545
 20
5.7878724892
 10
-6.5346837682
 20
5.8824455054
 10
-6.5426298042
 20
5.9717916009
 10
-6.5478908141
 20
6.0558401176
 10
-6.550812338
 20
6.1347230139
 10
-6.5517169646
 20
6.2085038685
  0
LWPOLYLINE
  5
497
100
AcDbEntity
  8
RACCORDO
100
AcDbPolyline
 62
7
  6
CONTINUOUS
 90
3
 70
0
 10
-4.7386418751
 20
2.1779238641
 10
-4.9029073879
 20
2.1964236148
 10
-5.0711437681
 20
2.2350494234
  0
LWPOLYLINE
  5
498
100
AcDbEntity
  8
0
100
AcDbPolyline
 62
250
  6
CONTINUOUS
 90
4
 70
0
 10
-3.6992332141
 20
3.4910915518
 10
-3.6516451331
 20
3.485203011
 10
-3.6052572323
 20
3.4814693233
 10
-3.5869116725
 20
3.4808352259
  0
LINE
  5
499
100
AcDbEntity
  8
0
100
AcDbLine
 62
7
  6
CONTINUOUS
 10
-3.5946870357
 20
3.3652310691
 11
-3.5945076501
 21
3.3651975826
  0
LWPOLYLINE
  5
49A
100
AcDbEntity
  8
RACCORDO
100
AcDbPolyline
 62
7
  6
CONTINUOUS
 90
21
 70
0
 10
-5.0711437681
 20
2.2350494234
 10
-5.2432624053
 20
2.2933536835
 10
-5.4153810336
 20
2.3700219312
 10
-5.5874996478
 20
2.4654719521
 10
-5.7596182531
 20
2.5792859606
 10
-5.9278545998
 20
2.7088961367
 10
-6.0921200592
 20
2.8546614428
 10
-6.25250326
 20
3.0162229164
 10
-6.4053878376
 20
3.1899358501
 10
-6.5506029852
 20
3.3760758956
 10
-6.6883195097
 20
3.5743674012
 10
-6.8154334671
 20
3.7803387046
 10
-6.9317038281
 20
3.9941637675
 10
-7.037371622
 20
4.2156686281
 10
-7.1300559932
 20
4.4398597382
 10
-7.209462101
 20
4.6667980328
 10
-7.2758847861
 20
4.8964225768
 10
-7.3278277151
 20
5.123557017
 10
-7.3647921104
 20
5.3464759023
 10
-7.3872767495
 20
5.5669046837
 10
-7.3952816326
 20
5.7848433613
  0
LINE
  5
49B
100
AcDbEntity
  8
ASSI
100
AcDbLine
 62
7
  6
CONTINUOUS
 10
-4.7079667913
 20
2.1781493038
 11
-4.7237161853
 21
2.1834845572
  0
LINE
  5
49C
100
AcDbEntity
  8
0
100
AcDbLine
 62
250
  6
CONTINUOUS
 10
-3.6992332141
 20
3.4910915518
 11
-4.444526308
 21
3.8637380987
  0
LINE
  5
49D
100
AcDbEntity
  8
0
100
AcDbLine
 62
250
  6
CONTINUOUS
 10
-3.7078159557
 20
4.5508770174
 11
-5.1804314645
 21
5.2871847717
  0
LWPOLYLINE
  5
49E
100
AcDbEntity
  8
RACCORDO
100
AcDbPolyline
 62
250
  6
CONTINUOUS
 90
6
 70
0
 10
-18.4083412276
 20
13.6354766003
 10
-18.3619426212
 20
13.6049092357
 10
-18.3133801902
 20
13.5816907298
 10
-18.2634483843
 20
13.5662008673
 10
-18.2129640049
 20
13.558692996
 10
-18.1627529166
 20
13.5592899104
  0
LINE
  5
49F
100
AcDbEntity
  8
0
100
AcDbLine
 62
250
  6
CONTINUOUS
 10
-8.9245008172
 20
9.6826197551
 11
-9.0012747914
 21
9.7345052106
  0
LINE
  5
4A0
100
AcDbEntity
  8
0
100
AcDbLine
 62
7
  6
CONTINUOUS
 10
-7.8553004458
 20
9.3036486175
 11
-7.7127766324
 21
9.2041456897
  0
LWPOLYLINE
  5
4A1
100
AcDbEntity
  8
0
100
AcDbPolyline
 62
250
  6
CONTINUOUS
 90
9
 70
0
 10
-4.3625316305
 20
3.8001223017
 10
-4.2801264442
 20
3.7419562752
 10
-4.197310749
 20
3.6892400194
 10
-4.1138090888
 20
3.6418363533
 10
-4.0298969197
 20
3.5998824578
 10
-3.9464006107
 20
3.5637898757
 10
-3.8635956184
 20
3.5336957877
 10
-3.7812064862
 20
3.5094630131
 10
-3.6992332141
 20
3.4910915518
  0
LWPOLYLINE
  5
4A2
100
AcDbEntity
  8
0
100
AcDbPolyline
 62
7
  6
CONTINUOUS
 90
3
 70
0
 10
-9.1386002369
 20
9.8377943435
 10
-8.9661956981
 20
9.7078383558
 10
-8.8082445805
 20
9.6176053761
  0
LWPOLYLINE
  5
4A3
100
AcDbEntity
  8
0
100
AcDbPolyline
 62
250
  6
CONTINUOUS
 90
3
 70
0
 10
-9.0012747914
 20
9.7345052106
 10
-9.0721380585
 20
9.7895887847
 10
-9.1376563131
 20
9.8474819066
  0
LWPOLYLINE
  5
4A4
100
AcDbEntity
  8
0
100
AcDbPolyline
 62
7
  6
CONTINUOUS
 90
4
 70
0
 10
-9.3636098414
 20
10.0802157283
 10
-9.459846362
 20
10.1755136364
 10
-9.5626781376
 20
10.3029237247
 10
-9.6536806853
 20
10.4438108367
  0
LWPOLYLINE
  5
4A5
100
AcDbEntity
  8
0
100
AcDbPolyline
 62
250
  6
CONTINUOUS
 90
3
 70
0
 10
-9.1376563131
 20
9.8474819066
 10
-9.1980402873
 20
9.9076123296
 10
-9.2535103011
 20
9.9694253261
  0
LWPOLYLINE
  5
4A6
100
AcDbEntity
  8
RACCORDO
100
AcDbPolyline
 62
250
  6
CONTINUOUS
 90
5
 70
0
 10
-20.3806347209
 20
24.3999091733
 10
-20.4230645087
 20
24.4428794945
 10
-20.4541314249
 20
24.4883614132
 10
-20.4733161981
 20
24.5355960656
 10
-20.4803246723
 20
24.5865563774
  0
LWPOLYLINE
  5
4A7
100
AcDbEntity
  8
RACCORDO
100
AcDbPolyline
 62
250
  6
CONTINUOUS
 90
4
 70
0
 10
-2.9520743349
 20
6.0617731366
 10
-2.9359770717
 20
6.0447897575
 10
-2.9181465199
 20
6.0257877395
 10
-2.8985983404
 20
6.0047597479
  0
LINE
  5
4A8
100
AcDbEntity
  8
RACCORDO
100
AcDbLine
 62
250
  6
CONTINUOUS
 10
-4.320173652
 20
6.7458227951
 11
-4.2786791646
 21
6.701508939
  0
LINE
  5
4A9
100
AcDbEntity
  8
RACCORDO
100
AcDbLine
 62
250
  6
CONTINUOUS
 10
-4.2786791646
 20
6.701508939
 11
-4.2370941906
 21
6.6565047495
  0
LWPOLYLINE
  5
4AA
100
AcDbEntity
  8
RACCORDO
100
AcDbPolyline
 62
250
  6
CONTINUOUS
 90
3
 70
0
 10
-2.8985983404
 20
6.0047597479
 10
-2.8544203534
 20
5.9565936244
 10
-2.8298304689
 20
5.9294381577
  0
LINE
  5
4AB
100
AcDbEntity
  8
RACCORDO
100
AcDbLine
 62
250
  6
CONTINUOUS
 10
-4.2370941906
 20
6.6565047495
 11
-4.1954315235
 21
6.6108086574
  0
LINE
  5
4AC
100
AcDbEntity
  8
RACCORDO
100
AcDbLine
 62
7
  6
CONTINUOUS
 10
-4.9612582536
 20
7.3118809354
 11
-4.3509081771
 21
6.6027201414
  0
LWPOLYLINE
  5
4AD
100
AcDbEntity
  8
RACCORDO
100
AcDbPolyline
 62
7
  6
CONTINUOUS
 90
3
 70
0
 10
-4.3509080477
 20
6.6027200878
 10
-4.3096210601
 20
6.5527190709
 10
-4.2760487355
 20
6.5114538874
  0
LINE
  5
4AE
100
AcDbEntity
  8
RACCORDO
100
AcDbLine
 62
7
  6
CONTINUOUS
 10
-4.2760487355
 20
6.5114538874
 11
-4.2337326962
 21
6.4586318522
  0
LINE
  5
4AF
100
AcDbEntity
  8
RACCORDO
100
AcDbLine
 62
250
  6
CONTINUOUS
 10
-4.6064311112
 20
6.5146746013
 11
-4.4484345034
 21
6.3141144852
  0
LWPOLYLINE
  5
4B0
100
AcDbEntity
  8
RACCORDO
100
AcDbPolyline
 62
7
  6
CONTINUOUS
 90
22
 70
0
 10
-4.2337355216
 20
6.458622219
 10
-3.7389745143
 20
5.8169576201
 10
-3.1673549006
 20
5.0265427194
 10
-2.616569596
 20
4.2099668515
 10
-2.0881104937
 20
3.3694602668
 10
-1.5832480326
 20
2.5072808052
 10
-1.1032448831
 20
1.625784829
 10
-0.6492098905
 20
0.7271813447
 10
-0.2222340515
 20
-0.1860481062
 10
0.1765067064
 20
-1.1111054182
 10
0.5460573375
 20
-2.0454966875
 10
0.8856260728
 20
-2.9867285245
 10
1.1943600414
 20
-3.9319809246
 10
1.4715704154
 20
-4.8786957251
 10
1.7167339011
 20
-5.8243605104
 10
1.9293143867
 20
-6.7662177525
 10
2.1088795331
 20
-7.7016937679
 10
2.2551746665
 20
-8.6284450246
 10
2.3679740998
 20
-9.5440562288
 10
2.447107558
 20
-10.4461098971
 10
2.4925730259
 20
-11.3320788173
 10
2.5047875953
 20
-12.0723928119
  0
LWPOLYLINE
  5
4B1
100
AcDbEntity
  8
RACCORDO
100
AcDbPolyline
 62
250
  6
CONTINUOUS
 90
22
 70
0
 10
-4.1954315089
 20
6.6108086417
 10
-3.6064604323
 20
5.84274222
 10
-3.0391332052
 20
5.0503179562
 10
-2.4933364364
 20
4.2335879726
 10
-1.9673148984
 20
3.3899527117
 10
-1.4625684371
 20
2.5221302129
 10
-0.9838756677
 20
1.6381453518
 10
-0.5317047341
 20
0.7383897354
 10
-0.1053379544
 20
-0.1774094222
 10
0.2921880504
 20
-1.1022399632
 10
0.6606828424
 20
-2.0358392233
 10
1.0005668846
 20
-2.9783568178
 10
1.3096760727
 20
-3.9234186701
 10
1.58798204
 20
-4.8712310096
 10
1.8357117359
 20
-5.821486132
 10
2.051029298
 20
-6.7670643035
 10
2.2337398093
 20
-7.708432895
 10
2.384183095
 20
-8.6450459773
 10
2.5012494037
 20
-9.5683000287
 10
2.5845675168
 20
-10.4753246462
 10
2.6345547287
 20
-11.3689581986
 10
2.6512393026
 20
-12.2491818801
  0
LINE
  5
4B2
100
AcDbEntity
  8
RACCORDO
100
AcDbLine
 62
250
  6
CONTINUOUS
 10
-1.8587544429
 20
6.9250742177
 11
-1.8213355278
 21
6.8747018893
  0
LINE
  5
4B3
100
AcDbEntity
  8
RACCORDO
100
AcDbLine
 62
250
  6
CONTINUOUS
 10
-1.8213355278
 20
6.8747018893
 11
-1.7845397271
 21
6.8245391332
  0
LINE
  5
4B4
100
AcDbEntity
  8
RACCORDO
100
AcDbLine
 62
250
  6
CONTINUOUS
 10
-1.7845397271
 20
6.8245391332
 11
-1.7483655106
 21
6.7745887768
  0
LWPOLYLINE
  5
4B5
100
AcDbEntity
  8
RACCORDO
100
AcDbPolyline
 62
250
  6
CONTINUOUS
 90
7
 70
0
 10
-1.7483655106
 20
6.7745887768
 10
-1.6542380852
 20
6.6416277743
 10
-1.560742226
 20
6.5082164074
 10
-1.4678812705
 20
6.3743645651
 10
-1.3756584873
 20
6.2400821085
 10
-1.2840770764
 20
6.1053788706
 10
-1.1931401692
 20
5.9702646549
  0
LWPOLYLINE
  5
4B6
100
AcDbEntity
  8
RACCORDO
100
AcDbPolyline
 62
250
  6
CONTINUOUS
 90
10
 70
0
 10
-2.8270567216
 20
5.9267801132
 10
-2.7507587993
 20
5.8187605252
 10
-2.6737804332
 20
5.7086766012
 10
-2.5961208492
 20
5.5965286917
 10
-2.5174979605
 20
5.4819204565
 10
-2.4381921672
 20
5.3652490006
 10
-2.3590467664
 20
5.2477046901
 10
-2.2803427067
 20
5.1296843835
 10
-2.201798179
 20
5.0107916167
 10
-2.1234127034
 20
4.8910266097
  0
LWPOLYLINE
  5
4B7
100
AcDbEntity
  8
RACCORDO
100
AcDbPolyline
 62
250
  6
CONTINUOUS
 90
13
 70
0
 10
6.1709605671
 20
-28.1120138037
 10
6.1769677345
 20
-28.1828564207
 10
6.1894029924
 20
-28.2478428828
 10
6.2082663408
 20
-28.3069731898
 10
6.2339594961
 20
-28.3609467697
 10
6.2660807419
 20
-28.4090641945
 10
6.3034249292
 20
-28.4492271804
 10
6.3462693125
 20
-28.4810331108
 10
6.3943366374
 20
-28.5048846022
 10
6.4455899909
 20
-28.5198912204
 10
6.4993504019
 20
-28.525756154
 10
6.5562968415
 20
-28.5227762143
 10
6.6164293098
 20
-28.5109514014
  0
LWPOLYLINE
  5
4B8
100
AcDbEntity
  8
RACCORDO
100
AcDbPolyline
 62
250
  6
CONTINUOUS
 90
9
 70
0
 10
5.8206568723
 20
-28.1189564527
 10
5.8283737565
 20
-28.2122403352
 10
5.8450850009
 20
-28.2996044968
 10
5.8706173612
 20
-28.3799126826
 10
5.904702656
 20
-28.4521345908
 10
5.9469317444
 20
-28.5152860431
 10
5.9967362863
 20
-28.56847002
 10
6.053528648
 20
-28.6110116292
 10
6.0820618156
 20
-28.6269709693
  0
LWPOLYLINE
  5
4B9
100
AcDbEntity
  8
RACCORDO
100
AcDbPolyline
 62
7
  6
CONTINUOUS
 90
12
 70
0
 10
3.1568038153
 20
29.131660438
 10
3.1515303949
 20
29.2342174495
 10
3.1356104357
 20
29.33644544
 10
3.1090377551
 20
29.4370299254
 10
3.0720505872
 20
29.5345541048
 10
3.0250131747
 20
29.6278584409
 10
2.9682497345
 20
29.7160879529
 10
2.9020502573
 20
29.7984494985
 10
2.8273497167
 20
29.8735284788
 10
2.7455363426
 20
29.9399883487
 10
2.6572792526
 20
29.9974111276
 10
2.6038914813
 20
30.0261505642
  0
LWPOLYLINE
  5
4BA
100
AcDbEntity
  8
RACCORDO
100
AcDbPolyline
 62
250
  6
CONTINUOUS
 90
3
 70
0
 10
5.6561278952
 20
-21.7469695769
 10
5.7266438653
 20
-24.9390698884
 10
5.8206568723
 20
-28.1189564527
  0
LINE
  5
4BB
100
AcDbEntity
  8
RACCORDO
100
AcDbLine
 62
7
  6
CONTINUOUS
 10
4.7620796452
 20
25.4550256442
 11
4.7620796452
 21
25.2622035484
  0
LINE
  5
4BC
100
AcDbEntity
  8
RACCORDO
100
AcDbLine
 62
7
  6
CONTINUOUS
 10
5.1912190725
 20
18.6564397182
 11
5.1912190725
 21
18.887819521
  0
LWPOLYLINE
  5
4BD
100
AcDbEntity
  8
RACCORDO
100
AcDbPolyline
 62
250
  6
CONTINUOUS
 90
8
 70
0
 10
5.8206568723
 20
0.9189918218
 10
5.7266438654
 20
-2.3516837079
 10
5.6561278955
 20
-5.6118819582
 10
5.6091142897
 20
-8.8613522294
 10
5.5856065996
 20
-12.0998446224
 10
5.5856065995
 20
-15.3271101773
 10
5.6091142895
 20
-18.5429008907
 10
5.6561278952
 20
-21.7469695769
  0
LINE
  5
4BE
100
AcDbEntity
  8
RACCORDO
100
AcDbLine
 62
7
  6
CONTINUOUS
 10
6.4566592408
 20
11.8765164357
 11
6.5587828879
 21
13.2550731243
  0
LINE
  5
4BF
100
AcDbEntity
  8
RACCORDO
100
AcDbLine
 62
7
  6
CONTINUOUS
 10
6.7391975857
 20
12.0138291652
 11
6.8327153669
 21
13.2762161481
  0
LWPOLYLINE
  5
4C0
100
AcDbEntity
  8
RACCORDO
100
AcDbPolyline
 62
250
  6
CONTINUOUS
 90
20
 70
0
 10
2.5845811239
 20
-13.9494448868
 10
2.5012929719
 20
-14.7647374152
 10
2.3842811253
 20
-15.5592167211
 10
2.2339073686
 20
-16.3304874327
 10
2.0512541052
 20
-17.0713745326
 10
1.8359748426
 20
-17.7811970134
 10
1.588272213
 20
-18.4607016925
 10
1.3099765706
 20
-19.1048949918
 10
1.0008518098
 20
-19.7134498953
 10
0.6609357143
 20
-20.2867903866
 10
0.2924141909
 20
-20.8210791638
 10
-0.1051274091
 20
-21.316259517
 10
-0.5315048003
 20
-21.7725053099
 10
-0.9836777185
 20
-22.186349385
 10
-1.4623488238
 20
-22.5575980215
 10
-1.9670651554
 20
-22.8865757436
 10
-2.4930895489
 20
-23.1706132619
 10
-3.0389358493
 20
-23.4088706898
 10
-3.6063453934
 20
-23.6023247042
 10
-4.1954315077
 20
-23.7510365377
  0
LWPOLYLINE
  5
4C1
100
AcDbEntity
  8
RACCORDO
100
AcDbPolyline
 62
7
  6
CONTINUOUS
 90
14
 70
0
 10
6.5587828879
 20
13.2550731243
 10
6.5598266694
 20
13.2652473903
 10
6.5613893547
 20
13.2749844638
 10
6.5634709438
 20
13.2842843447
 10
6.5660833216
 20
13.2931791343
 10
6.5692146031
 20
13.3016367313
 10
6.5728291337
 20
13.3095608323
 10
6.5769324369
 20
13.3169453394
 10
6.5815189891
 20
13.3237963506
 10
6.586536565
 20
13.3300358559
 10
6.5919900913
 20
13.3356568658
 10
6.5978746412
 20
13.3406663698
 10
6.6041232098
 20
13.3450073266
 10
6.6102156012
 20
13.3484127715
  0
LWPOLYLINE
  5
4C2
100
AcDbEntity
  8
RACCORDO
100
AcDbPolyline
 62
250
  6
CONTINUOUS
 90
18
 70
0
 10
8.1808621666
 20
21.166258755
 10
8.1877538117
 20
21.1996101777
 10
8.20676201
 20
21.2609052256
 10
8.2319236266
 20
21.3214900743
 10
8.2632932838
 20
21.3813683553
 10
8.3008163593
 20
21.4405364371
 10
8.3441898911
 20
21.4985144559
 10
8.3934731094
 20
21.5552951333
 10
8.448606784
 20
21.6108857477
 10
8.5091102624
 20
21.66482827
 10
8.574982614
 20
21.7170811695
 10
8.6462247693
 20
21.7676859769
 10
8.722358867
 20
21.8163092554
 10
8.803375496
 20
21.8629369979
 10
8.8892840674
 20
21.9075832115
 10
8.9796349531
 20
21.9499564807
 10
9.0746852333
 20
21.9901156786
 10
9.1741778278
 20
22.0280019321
  0
LINE
  5
4C3
100
AcDbEntity
  8
COPY-PUBBLISH
100
AcDbLine
 62
250
  6
CONTINUOUS
 10
0.911484073
 20
-12.8829993898
 11
0.9589078533
 21
-12.662954208
  0
LINE
  5
4C4
100
AcDbEntity
  8
COPY-PUBBLISH
100
AcDbLine
 62
250
  6
CONTINUOUS
 10
1.837058162
 20
-14.8005330025
 11
1.9975321632
 21
-14.0559375576
  0
LINE
  5
4C5
100
AcDbEntity
  8
0
100
AcDbLine
 62
250
  6
CONTINUOUS
 10
1.8605105639
 20
-14.7984596991
 11
2.0209845651
 21
-14.0538642543
  0
LINE
  5
4C6
100
AcDbEntity
  8
RACCORDO
100
AcDbLine
 62
250
  6
CONTINUOUS
 10
8.0537819189
 20
15.883412096
 11
7.966378714
 21
15.5102548522
  0
LINE
  5
4C7
100
AcDbEntity
  8
RACCORDO
100
AcDbLine
 62
250
  6
CONTINUOUS
 10
8.3297029775
 20
15.8264279556
 11
8.2422997726
 21
15.4532707118
  0
LINE
  5
4C8
100
AcDbEntity
  8
0
100
AcDbLine
 62
250
  6
CONTINUOUS
 10
9.0851628366
 20
13.5809870486
 11
9.1725660414
 21
13.9541442925
  0
LWPOLYLINE
  5
4C9
100
AcDbEntity
  8
RACCORDO
100
AcDbPolyline
 62
7
  6
CONTINUOUS
 90
12
 70
0
 10
10.4405361864
 20
14.7417884578
 10
10.4398810206
 20
14.7396504722
 10
10.4381245318
 20
14.7362288608
 10
10.4355363656
 20
14.7330285312
 10
10.4321270409
 20
14.7300466846
 10
10.4279400448
 20
14.7273213555
 10
10.4229654155
 20
14.7248558298
 10
10.4172131148
 20
14.7226468216
 10
10.4107565153
 20
14.7207225076
 10
10.4036200746
 20
14.7190922799
 10
10.3957793351
 20
14.7177467464
 10
10.3872342968
 20
14.7166859071
  0
LINE
  5
4CA
100
AcDbEntity
  8
0
100
AcDbLine
 62
7
  6
CONTINUOUS
 10
-8.5631367444
 20
-15.2405022034
 11
-8.6590513353
 21
-15.3495104077
  0
LINE
  5
4CB
100
AcDbEntity
  8
0
100
AcDbLine
 62
7
  6
CONTINUOUS
 10
-7.8389005514
 20
9.1329303651
 11
-7.686012608
 21
9.0671242351
  0
LINE
  5
4CC
100
AcDbEntity
  8
RACCORDO
100
AcDbLine
 62
250
  6
CONTINUOUS
 10
-4.1954315089
 20
6.6108086417
 11
-2.8270567216
 21
5.9267801132
  0
LINE
  5
4CD
100
AcDbEntity
  8
RACCORDO
100
AcDbLine
 62
250
  6
CONTINUOUS
 10
5.8206568723
 20
0.9189918218
 11
-2.1234127034
 21
4.8910266097
  0
LINE
  5
4CE
100
AcDbEntity
  8
RACCORDO
100
AcDbLine
 62
250
  6
CONTINUOUS
 10
-20.8260545552
 20
14.2423475356
 11
-28.770106169
 21
18.2143733425
  0
LINE
  5
4CF
100
AcDbEntity
  8
RACCORDO
100
AcDbLine
 62
250
  6
CONTINUOUS
 10
-20.0792350547
 20
14.5527104135
 11
-18.7103694358
 21
13.8682776041
  0
LINE
  5
4D0
100
AcDbEntity
  8
RACCORDO
100
AcDbLine
 62
250
  6
CONTINUOUS
 10
-19.9513197142
 20
14.5613958262
 11
-18.5832203971
 21
13.8773461676
  0
LINE
  5
4D1
100
AcDbEntity
  8
RACCORDO
100
AcDbLine
 62
250
  6
CONTINUOUS
 10
-4.320173652
 20
6.7458227951
 11
-2.9520743349
 21
6.0617731366
  0
LINE
  5
4D2
100
AcDbEntity
  8
0
100
AcDbLine
 62
7
  6
CONTINUOUS
 10
-8.813223248
 20
9.6200831021
 11
-7.8387540269
 21
9.1328484916
  0
LINE
  5
4D3
100
AcDbEntity
  8
RACCORDO
100
AcDbLine
 62
250
  6
CONTINUOUS
 10
6.4120677661
 20
2.0257612194
 11
-1.3021538514
 21
5.8828720282
  0
LINE
  5
4D4
100
AcDbEntity
  8
RACCORDO
100
AcDbLine
 62
250
  6
CONTINUOUS
 10
-20.4797648525
 20
15.4716775287
 11
-28.1939798536
 21
19.3287850293
  0
LWPOLYLINE
  5
4D5
100
AcDbEntity
  8
0
100
AcDbPolyline
 62
7
  6
CONTINUOUS
 90
10
 70
0
 10
-7.5224731423
 20
9.1047608257
 10
-7.5385336343
 20
9.1129355525
 10
-7.6699566511
 20
9.1916108206
 10
-7.7917639974
 20
9.2863454517
 10
-7.9042114435
 20
9.3976961771
 10
-8.007043219
 20
9.5251062654
 10
-8.0980457667
 20
9.6659933774
 10
-8.1764812341
 20
9.8194967332
 10
-8.2430874736
 20
9.9864771126
 10
-8.2978644853
 20
10.1669345156
  0
LWPOLYLINE
  5
4D6
100
AcDbEntity
  8
0
100
AcDbPolyline
 62
250
  6
CONTINUOUS
 90
3
 70
0
 10
-8.813223248
 20
9.6200831021
 10
-8.8416425969
 20
9.6347274082
 10
-8.9245008172
 20
9.6826197551
  0
LINE
  5
4D7
100
AcDbEntity
  8
0
100
AcDbLine
 62
7
  6
CONTINUOUS
 10
-7.7127766324
 20
9.2041456897
 11
-7.6286117333
 21
9.1579270192
  0
LWPOLYLINE
  5
4D8
100
AcDbEntity
  8
0
100
AcDbPolyline
 62
250
  6
CONTINUOUS
 90
18
 70
0
 10
-9.2124679221
 20
11.0651142634
 10
-9.1716906507
 20
11.0424495769
 10
-9.1309619337
 20
11.0150196833
 10
-9.090250564
 20
10.9828418832
 10
-9.0491824085
 20
10.9458291936
 10
-9.0080065232
 20
10.9041395491
 10
-8.9675923178
 20
10.8581781866
 10
-8.9277971778
 20
10.8078995681
 10
-8.8885022381
 20
10.7535097802
 10
-8.8505836563
 20
10.695813502
 10
-8.8137555145
 20
10.6345488051
 10
-8.7779224044
 20
10.5702430602
 10
-8.7442812329
 20
10.5048721094
 10
-8.712806624
 20
10.4385244274
 10
-8.683174698
 20
10.3714060653
 10
-8.6562692936
 20
10.3055863071
 10
-8.6323610314
 20
10.2417992108
 10
-8.6110057229
 20
10.1795195743
  0
LWPOLYLINE
  5
4D9
100
AcDbEntity
  8
RACCORDO
100
AcDbPolyline
 62
7
  6
CONTINUOUS
 90
9
 70
0
 10
-10.2437529842
 20
11.7748104112
 10
-9.5600949732
 20
11.3472511721
 10
-8.8798192362
 20
10.8801580733
 10
-8.2044801361
 20
10.3744930724
 10
-7.5357688821
 20
9.8314027263
 10
-6.8754571504
 20
9.2522143425
 10
-6.2251696383
 20
8.6382467957
 10
-5.5865479335
 20
7.9909404851
 10
-4.9612582536
 20
7.3118809354
  0
LWPOLYLINE
  5
4DA
100
AcDbEntity
  8
RACCORDO
100
AcDbPolyline
 62
250
  6
CONTINUOUS
 90
9
 70
0
 10
-9.678249043
 20
11.6137832191
 10
-8.9732220957
 20
11.1319013839
 10
-8.2758929775
 20
10.6117347918
 10
-7.5859472461
 20
10.0525327855
 10
-6.9036993438
 20
9.4550460222
 10
-6.2353754184
 20
8.8250537197
 10
-5.5830508527
 20
8.164482284
 10
-4.9446502639
 20
7.4714053091
 10
-4.320173652
 20
6.7458227951
  0
LWPOLYLINE
  5
4DB
100
AcDbEntity
  8
DRAFT
100
AcDbPolyline
 62
7
  6
CONTINUOUS
 90
10
 70
0
 10
-0.3280354333
 20
8.3652813405
 10
-0.9649417418
 20
9.1592113542
 10
-1.6163918394
 20
9.9216022947
 10
-2.282385726
 20
10.6524541621
 10
-2.9644555402
 20
11.3532388853
 10
-3.6610691434
 20
12.0224845354
 10
-4.3676301201
 20
12.6557753254
 10
-5.0826063315
 20
13.2516393262
 10
-5.8075299163
 20
13.8115484669
 10
-6.5424008745
 20
14.3355027474
  0
LINE
  5
4DC
100
AcDbEntity
  8
DRAFT
100
AcDbLine
 62
7
  6
CONTINUOUS
 10
0.5803937958
 20
7.8164862779
 11
0.4696461428
 21
7.9664405524
  0
LINE
  5
4DD
100
AcDbEntity
  8
RACCORDO
100
AcDbLine
 62
7
  6
CONTINUOUS
 10
-0.5236340967
 20
23.4124489573
 11
-0.5392655847
 21
23.4730289652
  0
LWPOLYLINE
  5
4DE
100
AcDbEntity
  8
RACCORDO
100
AcDbPolyline
 62
250
  6
CONTINUOUS
 90
7
 70
0
 10
7.2382614082
 20
10.7271705532
 10
7.2387911325
 20
10.7135294295
 10
7.2468743871
 20
10.6707508081
 10
7.2645908571
 20
10.6288168598
 10
7.2916943707
 20
10.5882861337
 10
7.3278230155
 20
10.5496769941
 10
7.372507789
 20
10.5134964918
  0
LINE
  5
4DF
100
AcDbEntity
  8
RACCORDO
100
AcDbLine
 62
250
  6
CONTINUOUS
 10
8.4862856469
 20
10.0842974536
 11
8.4861145165
 21
10.4683407497
  0
LINE
  5
4E0
100
AcDbEntity
  8
RACCORDO
100
AcDbLine
 62
7
  6
CONTINUOUS
 10
6.765163006
 20
17.9460882034
 11
6.765163006
 21
18.2740262551
  0
LINE
  5
4E1
100
AcDbEntity
  8
RACCORDO
100
AcDbLine
 62
7
  6
CONTINUOUS
 10
7.2382606209
 20
10.3414997865
 11
7.2382606209
 21
10.72777541
  0
LINE
  5
4E2
100
AcDbEntity
  8
RACCORDO
100
AcDbLine
 62
7
  6
CONTINUOUS
 10
7.2418287379
 20
19.4467365627
 11
7.2418287379
 21
19.0788666412
  0
LINE
  5
4E3
100
AcDbEntity
  8
0
100
AcDbLine
 62
250
  6
CONTINUOUS
 10
8.1029271626
 20
17.995732123
 11
8.1029271626
 21
18.4162933251
  0
LINE
  5
4E4
100
AcDbEntity
  8
0
100
AcDbLine
 62
7
  6
CONTINUOUS
 10
8.1610675535
 20
12.6120400549
 11
8.1610675535
 21
12.871847676
  0
LINE
  5
4E5
100
AcDbEntity
  8
ASSI
100
AcDbLine
 62
7
  6
CONTINUOUS
 10
8.3895353631
 20
18.0253440494
 11
8.3895353631
 21
18.5015396139
  0
LINE
  5
4E6
100
AcDbEntity
  8
DRAFT
100
AcDbLine
 62
250
  6
CONTINUOUS
 10
8.4102694633
 20
22.2716240216
 11
8.4102694633
 21
22.6695086285
  0
LINE
  5
4E7
100
AcDbEntity
  8
0
100
AcDbLine
 62
7
  6
CONTINUOUS
 10
8.4439102659
 20
12.7534614111
 11
8.4439102659
 21
13.0132690322
  0
LINE
  5
4E8
100
AcDbEntity
  8
DRAFT
100
AcDbLine
 62
250
  6
CONTINUOUS
 10
8.4604655429
 20
-28.6217666034
 11
8.4604655429
 21
-31.4848052898
  0
LINE
  5
4E9
100
AcDbEntity
  8
DRAFT
100
AcDbLine
 62
250
  6
CONTINUOUS
 10
8.4604655429
 20
3.9710308524
 11
8.4604655429
 21
6.8340695387
  0
LINE
  5
4EA
100
AcDbEntity
  8
0
100
AcDbLine
 62
250
  6
CONTINUOUS
 10
8.6560423003
 20
13.3791426705
 11
8.6560423003
 21
13.7255528321
  0
LINE
  5
4EB
100
AcDbEntity
  8
DRAFT
100
AcDbLine
 62
250
  6
CONTINUOUS
 10
8.8109068308
 20
-28.6158671126
 11
8.8109068308
 21
-31.4863344172
  0
LINE
  5
4EC
100
AcDbEntity
  8
DRAFT
100
AcDbLine
 62
250
  6
CONTINUOUS
 10
8.8109068308
 20
3.9620731067
 11
8.8109068308
 21
6.8325404113
  0
LWPOLYLINE
  5
4ED
100
AcDbEntity
  8
RACCORDO
100
AcDbPolyline
 62
250
  6
CONTINUOUS
 90
10
 70
0
 10
6.1709605671
 20
0.9088533248
 10
6.0769963741
 20
-2.3602543727
 10
6.0065232439
 20
-5.618422081
 10
5.9595411767
 20
-8.8656498002
 10
5.9360501918
 20
-12.1022065131
 10
5.9360502699
 20
-15.3278232369
 10
5.9595413522
 20
-18.5416930227
 10
6.0065234195
 20
-21.7435468876
 10
6.0769964911
 20
-24.9336538146
 10
6.1709605671
 20
-28.1120138037
  0
LWPOLYLINE
  5
4EE
100
AcDbEntity
  8
RACCORDO
100
AcDbPolyline
 62
250
  6
CONTINUOUS
 90
22
 70
0
 10
7.4374251934
 20
10.9208166686
 10
7.4363390543
 20
10.8894494553
 10
7.4422585575
 20
10.8578791372
 10
7.4549536983
 20
10.827336804
 10
7.4746896294
 20
10.7978678325
 10
7.5012011981
 20
10.7694268459
 10
7.533462941
 20
10.7431088027
 10
7.5717021004
 20
10.7189932583
 10
7.6156914341
 20
10.6970006575
 10
7.6637237521
 20
10.6779872928
 10
7.7159564949
 20
10.6620710017
 10
7.772232222
 20
10.6491339468
 10
7.8303714216
 20
10.6396789089
 10
7.8904455534
 20
10.633841799
 10
7.9523831578
 20
10.631486706
 10
8.0137903432
 20
10.6327086775
 10
8.0746625181
 20
10.6376521134
 10
8.1350042741
 20
10.6461726137
 10
8.1924354948
 20
10.6579320262
 10
8.2461628083
 20
10.6728176333
 10
8.2969795867
 20
10.6909421526
 10
8.3448858298
 20
10.7123055841
  0
LWPOLYLINE
  5
4EF
100
AcDbEntity
  8
0
100
AcDbPolyline
 62
7
  6
CONTINUOUS
 90
19
 70
0
 10
8.1610675535
 20
12.871847676
 10
8.1630692463
 20
12.9263368165
 10
8.1686911981
 20
12.9814480283
 10
8.177933409
 20
13.0371813114
 10
8.1909206866
 20
13.093968101
 10
8.2075282233
 20
13.1513769619
 10
8.2273815953
 20
13.2081135882
 10
8.2505545355
 20
13.2641627095
 10
8.2769733111
 20
13.3195395963
 10
8.3060423003
 20
13.3729957544
 10
8.3378217055
 20
13.4244875524
 10
8.3722513242
 20
13.4740586217
 10
8.4085549269
 20
13.5205913627
 10
8.4467750831
 20
13.5640167564
 10
8.4868692233
 20
13.6044038218
 10
8.527933409
 20
13.6408420164
 10
8.5696663273
 20
13.6730278258
 10
8.612369291
 20
13.7012647644
 10
8.6560423003
 20
13.7255528321
  0
LWPOLYLINE
  5
4F0
100
AcDbEntity
  8
0
100
AcDbPolyline
 62
7
  6
CONTINUOUS
 90
9
 70
0
 10
7.6384539142
 20
21.7143533692
 10
7.6410019838
 20
21.7735308355
 10
7.6679549985
 20
21.9152175334
 10
7.7240562738
 20
22.0547521111
 10
7.8087047233
 20
22.1906395521
 10
7.9209933976
 20
22.3214239168
 10
8.0597192013
 20
22.4457039412
 10
8.2233957836
 20
22.5621480511
 10
8.4102694633
 20
22.6695086285
  0
LWPOLYLINE
  5
4F1
100
AcDbEntity
  8
0
100
AcDbPolyline
 62
7
  6
CONTINUOUS
 90
16
 70
0
 10
8.4439102659
 20
13.0132690322
 10
8.4451767982
 20
13.0415371609
 10
8.4486376251
 20
13.0700292311
 10
8.4542927467
 20
13.0987452428
 10
8.4622514017
 20
13.1280023922
 10
8.4724043513
 20
13.1574834831
 10
8.4844238794
 20
13.1862369271
 10
8.4983708907
 20
13.2142389819
 10
8.5141844805
 20
13.2415133898
 10
8.531354219
 20
13.2671797895
 10
8.5499243559
 20
13.2911857134
 10
8.5698506415
 20
13.3135836292
 10
8.5904898966
 20
13.3336505786
 10
8.6116277283
 20
13.3511455756
 10
8.6334785295
 20
13.3663096063
 10
8.6560423003
 20
13.3791426705
  0
LWPOLYLINE
  5
4F2
100
AcDbEntity
  8
RACCORDO
100
AcDbPolyline
 62
250
  6
CONTINUOUS
 90
10
 70
0
 10
8.4604655429
 20
6.8340695387
 10
8.4630919763
 20
6.8725651359
 10
8.4708932328
 20
6.9125432814
 10
8.4836375005
 20
6.9528160363
 10
8.5009460871
 20
6.9921867079
 10
8.5223046732
 20
7.0294854084
 10
8.5470785947
 20
7.0636038179
 10
8.5745317021
 20
7.0935281181
 10
8.6038482344
 20
7.1183691175
 10
8.6341570595
 20
7.137388673
  0
LINE
  5
4F3
100
AcDbEntity
  8
RACCORDO
100
AcDbLine
 62
250
  6
CONTINUOUS
 10
10.3803126429
 20
14.8011231229
 11
10.3598813834
 21
14.7138943708
  0
LINE
  5
4F4
100
AcDbEntity
  8
RACCORDO
100
AcDbLine
 62
250
  6
CONTINUOUS
 10
12.3614312477
 20
15.2374536336
 11
12.3447462142
 21
15.1662189333
  0
LWPOLYLINE
  5
4F5
100
AcDbEntity
  8
RACCORDO
100
AcDbPolyline
 62
250
  6
CONTINUOUS
 90
23
 70
0
 10
11.1793090652
 20
10.6409887604
 10
11.168224326
 20
10.5994933066
 10
11.1668280981
 20
10.5577254473
 10
11.1747676076
 20
10.5156985631
 10
11.1917289761
 20
10.4750405591
 10
11.2180642942
 20
10.4358065152
 10
11.2534214713
 20
10.3979413515
 10
11.2964303572
 20
10.3629077338
 10
11.347394263
 20
10.3308139541
 10
11.4060098776
 20
10.3015517205
 10
11.4699971178
 20
10.2762588225
 10
11.5395588867
 20
10.2550923704
 10
11.6144922812
 20
10.2378952541
 10
11.6919085091
 20
10.2253339322
 10
11.7719172777
 20
10.2175904922
 10
11.8544088797
 20
10.2144828467
 10
11.9361654005
 20
10.2161311924
 10
12.0171588178
 20
10.2227254445
 10
12.0974171539
 20
10.2340756877
 10
12.1738065618
 20
10.2497323735
 10
12.2452824259
 20
10.2695456521
 10
12.3128893618
 20
10.2936653732
 10
12.3766273696
 20
10.3220915368
  0
LWPOLYLINE
  5
4F6
100
AcDbEntity
  8
RACCORDO
100
AcDbPolyline
 62
7
  6
CONTINUOUS
 90
12
 70
0
 10
12.308129358
 20
15.2123510829
 10
12.3087845239
 20
15.2144890685
 10
12.3105410127
 20
15.2179106798
 10
12.3131291789
 20
15.2211110094
 10
12.3165385036
 20
15.224092856
 10
12.3207254997
 20
15.2268181851
 10
12.325700129
 20
15.2292837108
 10
12.3314524297
 20
15.231492719
 10
12.3379090291
 20
15.233417033
 10
12.3450454699
 20
15.2350472607
 10
12.3528862094
 20
15.2363927942
 10
12.3614312477
 20
15.2374536336
  0
LWPOLYLINE
  5
4F7
100
AcDbEntity
  8
0
100
AcDbPolyline
 62
250
  6
CONTINUOUS
 90
29
 70
0
 10
-6.6759167608
 20
-15.16633091
 10
-6.8076075486
 20
-15.2696054354
 10
-6.9318786218
 20
-15.3757177037
 10
-7.0493658966
 20
-15.4840470127
 10
-7.1605974309
 20
-15.594048967
 10
-7.2655200138
 20
-15.7047694477
 10
-7.3642153495
 20
-15.8154957082
 10
-7.4574078638
 20
-15.9263331954
 10
-7.5452615216
 20
-16.0368359784
 10
-7.6277498091
 20
-16.1463596382
 10
-7.7052788084
 20
-16.2549117994
 10
-7.7779397104
 20
-16.3621024093
 10
-7.8458864292
 20
-16.4675278361
 10
-7.9095870509
 20
-16.5712948044
 10
-7.9691740661
 20
-16.6730958795
 10
-8.0248007775
 20
-16.7726682185
 10
-8.0769187977
 20
-16.8702769304
 10
-8.1256897547
 20
-16.9657702624
 10
-8.1712034086
 20
-17.0589238771
 10
-8.2137602329
 20
-17.149954169
 10
-8.2534857135
 20
-17.2387453472
 10
-8.2904817138
 20
-17.3251613897
 10
-8.3249802319
 20
-17.4094250433
 10
-8.3570850811
 20
-17.4914551065
 10
-8.3868950779
 20
-17.5711665093
 10
-8.4146054753
 20
-17.6487999017
 10
-8.440302345
 20
-17.724307737
 10
-8.4640765899
 20
-17.7976304089
 10
-8.4861094708
 20
-17.869005368
  0
LWPOLYLINE
  5
4F8
100
AcDbEntity
  8
RACCORDO
100
AcDbPolyline
 62
7
  6
CONTINUOUS
 90
7
 70
0
 10
11.9138290596
 20
8.7898698943
 10
11.9654070667
 20
8.790146386
 10
12.0183610332
 20
8.7880118139
 10
12.072309517
 20
8.7838831137
 10
12.1269071295
 20
8.7783378967
 10
12.181866553
 20
8.7717365844
 10
12.2369020224
 20
8.764131321
  0
LWPOLYLINE
  5
4F9
100
AcDbEntity
  8
0
100
AcDbPolyline
 62
7
  6
CONTINUOUS
 90
3
 70
0
 10
-7.4792493869
 20
9.0082441531
 10
-7.261850295
 20
8.9781474281
 10
-7.0698144039
 20
8.9774246454
  0
LINE
  5
4FA
100
AcDbEntity
  8
0
100
AcDbLine
 62
7
  6
CONTINUOUS
 10
-7.686012608
 20
9.0671242351
 11
-7.4792493869
 21
9.0082441531
  0
LINE
  5
4FB
100
AcDbEntity
  8
RACCORDO
100
AcDbLine
 62
7
  6
CONTINUOUS
 10
-25.8709453646
 20
21.0421558581
 11
-17.6336987609
 21
16.9235325562
  0
LINE
  5
4FC
100
AcDbEntity
  8
RACCORDO
100
AcDbLine
 62
7
  6
CONTINUOUS
 10
0.5803937958
 20
7.8164862779
 11
8.8176403995
 21
3.697862976
  0
LINE
  5
4FD
100
AcDbEntity
  8
DRAFT
100
AcDbLine
 62
7
  6
CONTINUOUS
 10
-26.2208772892
 20
21.3117022684
 11
-17.432376313
 21
16.9174517803
  0
LINE
  5
4FE
100
AcDbEntity
  8
DRAFT
100
AcDbLine
 62
7
  6
CONTINUOUS
 10
-0.3280354333
 20
8.3652813405
 11
8.4604655429
 21
3.9710308524
  0
LWPOLYLINE
  5
4FF
100
AcDbEntity
  8
RACCORDO
100
AcDbPolyline
 62
250
  6
CONTINUOUS
 90
14
 70
0
 10
-11.6289024154
 20
13.6115701208
 10
-10.8303574157
 20
13.1990491126
 10
-10.0400078521
 20
12.737989541
 10
-9.2581646897
 20
12.2304083801
 10
-8.4972291379
 20
11.6901784447
 10
-7.7580540971
 20
11.1159749556
 10
-7.0397866669
 20
10.5091226919
 10
-6.3522693553
 20
9.8874688063
 10
-5.6965803561
 20
9.2503191126
 10
-5.0716414755
 20
8.5983677969
 10
-4.4840606405
 20
7.9515445704
 10
-3.9360404932
 20
7.31649267
 10
-3.4253783913
 20
6.6865688587
 10
-2.9520743349
 20
6.0617731366
  0
LWPOLYLINE
  5
500
100
AcDbEntity
  8
RACCORDO
100
AcDbPolyline
 62
250
  6
CONTINUOUS
 90
7
 70
0
 10
-26.2208772892
 20
24.1747409548
 10
-26.2422173674
 20
24.1868899686
 10
-26.2602424191
 20
24.2003146716
 10
-26.2746508368
 20
24.2147904322
 10
-26.2852015289
 20
24.2300750322
 10
-26.291717954
 20
24.2459127189
 10
-26.2941005939
 20
24.2631293024
  0
LWPOLYLINE
  5
501
100
AcDbEntity
  8
RACCORDO
100
AcDbPolyline
 62
7
  6
CONTINUOUS
 90
10
 70
0
 10
-8.7065143566
 20
15.807724381
 10
-8.4538782565
 20
15.6484705056
 10
-8.2059378811
 20
15.4864926664
 10
-7.9618950344
 20
15.3224292862
 10
-7.7207828512
 20
15.1573890637
 10
-7.4821790028
 20
14.9919930622
 10
-7.2459013903
 20
14.8261020433
 10
-7.0111564622
 20
14.6603333804
 10
-6.776908991
 20
14.4963049775
 10
-6.5424008745
 20
14.3355027474
  0
LINE
  5
502
100
AcDbEntity
  8
RACCORDO
100
AcDbLine
 62
7
  6
CONTINUOUS
 10
-0.5392655847
 20
23.4730289652
 11
-0.5648513617
 21
23.5376349821
  0
LWPOLYLINE
  5
503
100
AcDbEntity
  8
RACCORDO
100
AcDbPolyline
 62
250
  6
CONTINUOUS
 90
6
 70
0
 10
-0.5815114361
 20
23.327749644
 10
-0.5940825813
 20
23.3649808045
 10
-0.6098088501
 20
23.3978653568
 10
-0.6286902424
 20
23.4264033008
 10
-0.6510086226
 20
23.450810893
 10
-0.6764821263
 20
23.4708718769
  0
LWPOLYLINE
  5
504
100
AcDbEntity
  8
RACCORDO
100
AcDbPolyline
 62
250
  6
CONTINUOUS
 90
10
 70
0
 10
6.6164293098
 20
1.7379750869
 10
6.6083916053
 20
1.7736701797
 10
6.5953418768
 20
1.8110077689
 10
6.5776742615
 20
1.8488582128
 10
6.5559226437
 20
1.8860762335
 10
6.5307448502
 20
1.9215350378
 10
6.5029029299
 20
1.954160538
 10
6.4732395832
 20
1.9829646314
 10
6.4426525294
 20
2.0070750234
 10
6.4120677475
 20
2.0257612065
  0
LWPOLYLINE
  5
505
100
AcDbEntity
  8
RACCORDO
100
AcDbPolyline
 62
250
  6
CONTINUOUS
 90
22
 70
0
 10
10.9191855509
 20
10.3557254417
 10
10.9198829468
 20
10.3379982942
 10
10.9304693846
 20
10.2820074785
 10
10.9536557194
 20
10.2271185128
 10
10.9891294303
 20
10.1740546796
 10
11.0364182075
 20
10.1235023372
 10
11.0949042224
 20
10.0761314428
 10
11.1638237486
 20
10.0325661928
 10
11.2422621306
 20
9.9933807665
 10
11.3291724275
 20
9.9590980173
 10
11.4233920826
 20
9.930180651
 10
11.5236848779
 20
9.9070034971
 10
11.628750682
 20
9.8898573832
 10
11.7372208849
 20
9.8789829433
 10
11.8476453748
 20
9.8745346193
 10
11.9585364565
 20
9.8765529027
 10
12.0684253227
 20
9.8850249318
 10
12.1758607697
 20
9.8998467072
 10
12.2794028905
 20
9.9207887065
 10
12.377680504
 20
9.9475684346
 10
12.469407019
 20
9.9798581155
 10
12.553377141
 20
10.0172432751
  0
LWPOLYLINE
  5
506
100
AcDbEntity
  8
RACCORDO
100
AcDbPolyline
 62
7
  6
CONTINUOUS
 90
23
 70
0
 10
10.9191980514
 20
-30.702984654
 10
10.9200437283
 20
-30.7295298428
 10
10.929280978
 20
-30.7945268882
 10
10.9489016015
 20
-30.8590229289
 10
10.9786155227
 20
-30.9212634059
 10
11.0179708622
 20
-30.9802321939
 10
11.066875388
 20
-31.0356352134
 10
11.1249747602
 20
-31.0869636997
 10
11.1913834022
 20
-31.1335532584
 10
11.2658998196
 20
-31.1753330528
 10
11.3485063194
 20
-31.2122192185
 10
11.43805763
 20
-31.2436964982
 10
11.5341282405
 20
-31.2695206604
 10
11.6360452592
 20
-31.2893334434
 10
11.7413931195
 20
-31.3026227077
 10
11.8490905272
 20
-31.3091923442
 10
11.9579540344
 20
-31.3088993359
 10
12.0650450281
 20
-31.301775282
 10
12.1691774394
 20
-31.2879356809
 10
12.2693894329
 20
-31.2675396145
 10
12.3635406328
 20
-31.2410515166
 10
12.4507413392
 20
-31.2088287023
 10
12.4848778162
 20
-31.1938116063
  0
LWPOLYLINE
  5
507
100
AcDbEntity
  8
RACCORDO
100
AcDbPolyline
 62
7
  6
CONTINUOUS
 90
4
 70
0
 10
9.2844419835
 20
14.8577247469
 10
9.2842014912
 20
14.8694803976
 10
9.2788990469
 20
14.9127442649
 10
9.2714102428
 20
14.9387154767
  0
LINE
  5
508
100
AcDbEntity
  8
DRAFT
100
AcDbLine
 62
7
  6
CONTINUOUS
 10
8.9939082056
 20
4.0427417749
 11
8.9939082056
 21
3.3905490241
  0
LINE
  5
509
100
AcDbEntity
  8
DRAFT
100
AcDbLine
 62
7
  6
CONTINUOUS
 10
8.9939082056
 20
-27.8676206566
 11
8.9939082056
 21
-28.5198134074
  0
LINE
  5
50A
100
AcDbEntity
  8
0
100
AcDbLine
 62
250
  6
CONTINUOUS
 10
9.0196104329
 20
13.5609267368
 11
9.0196104329
 21
13.9073368984
  0
LINE
  5
50B
100
AcDbEntity
  8
DRAFT
100
AcDbLine
 62
7
  6
CONTINUOUS
 10
9.1156617081
 20
22.6170737781
 11
9.1156617081
 21
22.1579871635
  0
LINE
  5
50C
100
AcDbEntity
  8
RACCORDO
100
AcDbLine
 62
250
  6
CONTINUOUS
 10
9.1441063979
 20
14.6876258212
 11
9.1441074933
 21
14.5898170243
  0
LINE
  5
50D
100
AcDbEntity
  8
RACCORDO
100
AcDbLine
 62
250
  6
CONTINUOUS
 10
9.144118791
 20
13.5809877089
 11
9.1441199761
 21
13.4751706108
  0
LINE
  5
50E
100
AcDbEntity
  8
RACCORDO
100
AcDbLine
 62
7
  6
CONTINUOUS
 10
9.2844500759
 20
14.8582083345
 11
9.2844500759
 21
14.6041398646
  0
LINE
  5
50F
100
AcDbEntity
  8
0
100
AcDbLine
 62
7
  6
CONTINUOUS
 10
9.8187904034
 20
21.0812824246
 11
9.8187904034
 21
20.7320329873
  0
LINE
  5
510
100
AcDbEntity
  8
0
100
AcDbLine
 62
7
  6
CONTINUOUS
 10
10.0702694839
 20
21.5536421287
 11
10.0702694839
 21
20.7134672478
  0
LINE
  5
511
100
AcDbEntity
  8
0
100
AcDbLine
 62
7
  6
CONTINUOUS
 10
10.5200141452
 20
21.4318942955
 11
10.5200141452
 21
20.7060642873
  0
LINE
  5
512
100
AcDbEntity
  8
DRAFT
100
AcDbLine
 62
7
  6
CONTINUOUS
 10
10.7420073048
 20
22.281684813
 11
10.7420073048
 21
22.5244143823
  0
LINE
  5
513
100
AcDbEntity
  8
RACCORDO
100
AcDbLine
 62
7
  6
CONTINUOUS
 10
10.9191838701
 20
10.3566331834
 11
10.91918387
 21
9.2715687738
  0
LINE
  5
514
100
AcDbEntity
  8
RACCORDO
100
AcDbLine
 62
7
  6
CONTINUOUS
 10
10.91918387
 20
-30.6179142682
 11
10.91918387
 21
-30.7027758252
  0
LINE
  5
515
100
AcDbEntity
  8
0
100
AcDbLine
 62
7
  6
CONTINUOUS
 10
11.3685422827
 20
21.0076302268
 11
11.3685422827
 21
20.77982298
  0
LWPOLYLINE
  5
516
100
AcDbEntity
  8
RACCORDO
100
AcDbPolyline
 62
250
  6
CONTINUOUS
 90
8
 70
0
 10
8.8109068308
 20
-31.4863344172
 10
8.8090121595
 20
-31.5140131932
 10
8.8041795952
 20
-31.5396806439
 10
8.7964917925
 20
-31.5628977621
 10
8.7860802409
 20
-31.5832674503
 10
8.7731230159
 20
-31.6004413125
 10
8.7578417334
 20
-31.6141256129
 10
8.7420619158
 20
-31.623381334
  0
LWPOLYLINE
  5
517
100
AcDbEntity
  8
RACCORDO
100
AcDbPolyline
 62
250
  6
CONTINUOUS
 90
4
 70
0
 10
17.1659543577
 20
14.4352024529
 10
17.1603301425
 20
14.4181954199
 10
17.14894798
 20
14.4019240139
 10
17.1321460881
 20
14.3868717337
  0
LINE
  5
518
100
AcDbEntity
  8
0
100
AcDbLine
 62
7
  6
CONTINUOUS
 10
2.1754923482
 20
-12.030668922
 11
2.1978059252
 21
-12.016782286
  0
LINE
  5
519
100
AcDbEntity
  8
0
100
AcDbLine
 62
7
  6
CONTINUOUS
 10
2.0805363926
 20
-12.0837471708
 11
2.1754923482
 21
-12.030668922
  0
LINE
  5
51A
100
AcDbEntity
  8
RACCORDO
100
AcDbLine
 62
7
  6
CONTINUOUS
 10
0.736446351
 20
-12.7293584155
 11
2.1124550868
 21
-11.9741068668
  0
LWPOLYLINE
  5
51B
100
AcDbEntity
  8
0
100
AcDbPolyline
 62
7
  6
CONTINUOUS
 90
9
 70
0
 10
-6.8596070582
 20
-14.2152034627
 10
-7.0748107301
 20
-14.2896119515
 10
-7.2899599393
 20
-14.3849437934
 10
-7.5039526506
 20
-14.5006814029
 10
-7.7155408612
 20
-14.6361676733
 10
-7.9236765227
 20
-14.7906858227
 10
-8.1271785845
 20
-14.9633625543
 10
-8.3244906647
 20
-15.1528501517
 10
-8.5269517022
 20
-15.3722990258
  0
LINE
  5
51C
100
AcDbEntity
  8
0
100
AcDbLine
 62
250
  6
CONTINUOUS
 10
-6.8602478352
 20
-14.2779739884
 11
-6.7137595395
 21
-14.229706251
  0
LWPOLYLINE
  5
51D
100
AcDbEntity
  8
RACCORDO
100
AcDbPolyline
 62
250
  6
CONTINUOUS
 90
34
 70
0
 10
-19.5809578557
 20
5.3874399136
 10
-19.635682462
 20
5.3727067431
 10
-19.6924174552
 20
5.3600684765
 10
-19.7511187142
 20
5.349478276
 10
-19.8108583969
 20
5.342027903
 10
-19.8716672425
 20
5.3378057127
 10
-19.9335145117
 20
5.3367233501
 10
-19.9953801444
 20
5.339607512
 10
-20.0572688689
 20
5.3465826093
 10
-20.1191759569
 20
5.3575242312
 10
-20.1800671634
 20
5.3728858419
 10
-20.239909406
 20
5.3928119308
 10
-20.2987357671
 20
5.4171580086
 10
-20.3556112483
 20
5.4459440716
 10
-20.4104770029
 20
5.4793238528
 10
-20.4633918776
 20
5.5171436192
 10
-20.5135974141
 20
5.5589621674
 10
-20.5610078534
 20
5.6049339529
 10
-20.6057089546
 20
5.6549045201
 10
-20.6471995358
 20
5.7079692991
 10
-20.685363315
 20
5.7642517371
 10
-20.7203165742
 20
5.8236283867
 10
-20.7519069781
 20
5.8848243366
 10
-20.7800107445
 20
5.9479081814
 10
-20.8047516555
 20
6.0128113264
 10
-20.8263487228
 20
6.0780530756
 10
-20.844696886
 20
6.1436477086
 10
-20.8599012055
 20
6.2095809459
 10
-20.8724958726
 20
6.2743292527
 10
-20.8824102576
 20
6.3378691317
 10
-20.8897149903
 20
6.4002240802
 10
-20.8951561523
 20
6.4599410561
 10
-20.8989824372
 20
6.5165357118
 10
-20.9009451514
 20
6.5704923949
  0
LWPOLYLINE
  5
51E
100
AcDbEntity
  8
0
100
AcDbPolyline
 62
7
  6
CONTINUOUS
 90
7
 70
0
 10
-6.6088752837
 20
9.0005216501
 10
-6.7673935435
 20
8.9767305575
 10
-6.9325935694
 20
8.9688617063
 10
-7.0938050628
 20
8.9789217253
 10
-7.2504578401
 20
9.0065910048
 10
-7.3989411931
 20
9.0512317925
 10
-7.5224731423
 20
9.1047608257
  0
LWPOLYLINE
  5
51F
100
AcDbEntity
  8
0
100
AcDbPolyline
 62
250
  6
CONTINUOUS
 90
10
 70
0
 10
-8.3653516434
 20
10.0872605392
 10
-8.393160492
 20
10.08434162
 10
-8.4207276132
 20
10.0830481764
 10
-8.4478705478
 20
10.0833887692
 10
-8.4744096455
 20
10.0853611446
 10
-8.5001692509
 20
10.0889522476
 10
-8.5249788661
 20
10.0941383081
 10
-8.5486742833
 20
10.1008850002
 10
-8.5710986708
 20
10.1091476704
 10
-8.5921036089
 20
10.1188716307
  0
LWPOLYLINE
  5
520
100
AcDbEntity
  8
RACCORDO
100
AcDbPolyline
 62
7
  6
CONTINUOUS
 90
3
 70
0
 10
12.452300001
 20
8.7311723828
 10
12.5035837971
 20
8.7239396225
 10
12.553377141
 20
8.7182051694
  0
LWPOLYLINE
  5
521
100
AcDbEntity
  8
RACCORDO
100
AcDbPolyline
 62
7
  6
CONTINUOUS
 90
3
 70
0
 10
12.2369020224
 20
8.764131321
 10
12.3460983064
 20
8.7477070189
 10
12.452300001
 20
8.7311723828
  0
LWPOLYLINE
  5
522
100
AcDbEntity
  8
RACCORDO
100
AcDbPolyline
 62
250
  6
CONTINUOUS
 90
13
 70
0
 10
8.4604655429
 20
6.8340695387
 10
8.4848699683
 20
6.8233585784
 10
8.5118511538
 20
6.8143178429
 10
8.5409551856
 20
6.8071010449
 10
8.5716933228
 20
6.8018310447
 10
8.6035457642
 20
6.7985985431
 10
8.6359699648
 20
6.797459505
 10
8.6684876504
 20
6.7984380047
 10
8.7004769486
 20
6.8015226026
 10
8.7311946167
 20
6.8066207695
 10
8.7600891354
 20
6.8135902605
 10
8.7867897293
 20
6.8222885948
 10
8.8109068308
 20
6.8325404113
  0
LINE
  5
523
100
AcDbEntity
  8
RACCORDO
100
AcDbLine
 62
250
  6
CONTINUOUS
 10
8.4604655429
 20
6.8340695387
 11
-6.5424008745
 21
14.3355027474
  0
LINE
  5
524
100
AcDbEntity
  8
RACCORDO
100
AcDbLine
 62
250
  6
CONTINUOUS
 10
-11.2180108718
 20
16.6733077461
 11
-26.2208772892
 21
24.1747409548
  0
LINE
  5
525
100
AcDbEntity
  8
RACCORDO
100
AcDbLine
 62
250
  6
CONTINUOUS
 10
-26.0471857726
 20
24.478060089
 11
8.6341570595
 21
7.137388673
  0
LWPOLYLINE
  5
526
100
AcDbEntity
  8
RACCORDO
100
AcDbPolyline
 62
250
  6
CONTINUOUS
 90
13
 70
0
 10
8.6341570595
 20
7.137388673
 10
8.6568469748
 20
7.1238077556
 10
8.6792015775
 20
7.1067830203
 10
8.7008385223
 20
7.086605652
 10
8.7213877384
 20
7.0636207575
 10
8.7404977591
 20
7.0382214624
 10
8.7578417334
 20
7.0108421874
 10
8.7731230159
 20
6.9819512181
 10
8.7860802409
 20
6.9520426955
 10
8.7964917925
 20
6.9216281647
 10
8.8041795952
 20
6.8912278252
 10
8.8090121595
 20
6.8613616337
 10
8.8109068308
 20
6.8325404113
  0
LWPOLYLINE
  5
527
100
AcDbEntity
  8
RACCORDO
100
AcDbPolyline
 62
250
  6
CONTINUOUS
 90
10
 70
0
 10
-9.3327836998
 20
19.5511403489
 10
-9.3086254855
 20
19.5360312342
 10
-9.2851260582
 20
19.5161585951
 10
-9.2629991597
 20
19.4921260179
 10
-9.2429168452
 20
19.4646634378
 10
-9.2254890692
 20
19.4346049684
 10
-9.2112451601
 20
19.4028635682
 10
-9.2006177443
 20
19.3704033105
 10
-9.1939296061
 20
19.3382101022
 10
-9.1913838828
 20
19.3072617396
  0
LWPOLYLINE
  5
528
100
AcDbEntity
  8
RACCORDO
100
AcDbPolyline
 62
250
  6
CONTINUOUS
 90
16
 70
0
 10
-10.3043649928
 20
19.3517637965
 10
-10.2515276812
 20
19.3185094492
 10
-10.1914181748
 20
19.2886152629
 10
-10.1248363284
 20
19.2624790189
 10
-10.0526688057
 20
19.2404533858
 10
-9.9758690892
 20
19.222827264
 10
-9.8954471317
 20
19.2098246373
 10
-9.8124818645
 20
19.2016288509
 10
-9.7280592092
 20
19.1983502253
 10
-9.6432477789
 20
19.2000203883
 10
-9.5589825132
 20
19.2066595998
 10
-9.4765855102
 20
19.2181973599
 10
-9.3976488441
 20
19.234351712
 10
-9.3233090625
 20
19.2547855744
 10
-9.2542884405
 20
19.2792121046
 10
-9.1913838828
 20
19.3072617396
  0
LWPOLYLINE
  5
529
100
AcDbEntity
  8
RACCORDO
100
AcDbPolyline
 62
250
  6
CONTINUOUS
 90
5
 70
0
 10
-2.7029651913
 20
15.5610744085
 10
-2.745394979
 20
15.6040447297
 10
-2.7764618953
 20
15.6495266484
 10
-2.7956466684
 20
15.6967613008
 10
-2.8026551426
 20
15.7477216125
  0
LWPOLYLINE
  5
52A
100
AcDbEntity
  8
RACCORDO
100
AcDbPolyline
 62
7
  6
CONTINUOUS
 90
5
 70
0
 10
-0.5648513617
 20
23.5376349821
 10
-0.5989700485
 20
23.5970527118
 10
-0.6415475717
 20
23.6498833704
 10
-0.6914997289
 20
23.6942229519
 10
-0.7506072972
 20
23.7305453658
  0
LINE
  5
52B
100
AcDbEntity
  8
RACCORDO
100
AcDbLine
 62
7
  6
CONTINUOUS
 10
12.3853992257
 20
15.1530164177
 11
12.3853992257
 21
15.4639081452
  0
LINE
  5
52C
100
AcDbEntity
  8
RACCORDO
100
AcDbLine
 62
250
  6
CONTINUOUS
 10
12.553377141
 20
10.0172432751
 11
12.553377141
 21
8.7182051694
  0
LINE
  5
52D
100
AcDbEntity
  8
RACCORDO
100
AcDbLine
 62
250
  6
CONTINUOUS
 10
12.553377141
 20
-29.7579376067
 11
12.553377141
 21
-31.0569757124
  0
LINE
  5
52E
100
AcDbEntity
  8
RACCORDO
100
AcDbLine
 62
7
  6
CONTINUOUS
 10
12.7511520131
 20
24.4719613584
 11
12.7511520131
 21
24.5415931203
  0
LINE
  5
52F
100
AcDbEntity
  8
RACCORDO
100
AcDbLine
 62
7
  6
CONTINUOUS
 10
14.0300538373
 20
-30.3749974787
 11
14.0300538373
 21
10.761275151
  0
LWPOLYLINE
  5
530
100
AcDbEntity
  8
RACCORDO
100
AcDbPolyline
 62
250
  6
CONTINUOUS
 90
7
 70
0
 10
6.6164293098
 20
-28.5109514014
 10
6.6083895675
 20
-28.5491577574
 10
6.5953367486
 20
-28.5834861068
 10
6.5776659307
 20
-28.6128974106
 10
6.5559119664
 20
-28.6365014576
 10
6.5307332981
 20
-28.6535838079
 10
6.5080646813
 20
-28.6623551121
  0
LINE
  5
531
100
AcDbEntity
  8
DRAFT
100
AcDbLine
 62
7
  6
CONTINUOUS
 10
-11.4956310534
 20
-20.8067017669
 11
-8.7544302989
 21
-19.2998914631
  0
LINE
  5
532
100
AcDbEntity
  8
DRAFT
100
AcDbLine
 62
7
  6
CONTINUOUS
 10
-7.9070072871
 20
-18.8340716126
 11
-1.2487404556
 21
-15.1740897414
  0
LINE
  5
533
100
AcDbEntity
  8
0
100
AcDbLine
 62
7
  6
CONTINUOUS
 10
-8.676946802
 20
-19.2728912681
 11
-8.3110107161
 21
-19.0901933127
  0
LINE
  5
534
100
AcDbEntity
  8
0
100
AcDbLine
 62
7
  6
CONTINUOUS
 10
-8.3110107161
 20
-19.0901933127
 11
-8.1644168857
 21
-19.0182150018
  0
LINE
  5
535
100
AcDbEntity
  8
0
100
AcDbLine
 62
7
  6
CONTINUOUS
 10
-8.1644168857
 20
-19.0182150018
 11
-8.0734850181
 21
-18.9741620273
  0
LWPOLYLINE
  5
536
100
AcDbEntity
  8
0
100
AcDbPolyline
 62
7
  6
CONTINUOUS
 90
6
 70
0
 10
0.9934781612
 20
-12.8611096067
 10
1.0217792544
 20
-12.8518137617
 10
1.0444918754
 20
-12.8408721867
 10
1.0616160241
 20
-12.8282848817
 10
1.0732576368
 20
-12.8138531054
 10
1.0789935576
 20
-12.7993174767
  0
LINE
  5
537
100
AcDbEntity
  8
0
100
AcDbLine
 62
7
  6
CONTINUOUS
 10
9.0851628366
 20
13.5809870486
 11
12.8038363615
 21
13.9605009921
  0
LINE
  5
538
100
AcDbEntity
  8
0
100
AcDbLine
 62
7
  6
CONTINUOUS
 10
9.1725660414
 20
13.9541442925
 11
13.6364419545
 21
14.4097108109
  0
LINE
  5
539
100
AcDbEntity
  8
RACCORDO
100
AcDbLine
 62
7
  6
CONTINUOUS
 10
10.3872342968
 20
14.7166859071
 11
8.4369886121
 21
14.51765111
  0
LINE
  5
53A
100
AcDbEntity
  8
RACCORDO
100
AcDbLine
 62
7
  6
CONTINUOUS
 10
12.3853992257
 20
15.239899716
 11
12.3614312477
 21
15.2374536336
  0
LINE
  5
53B
100
AcDbEntity
  8
RACCORDO
100
AcDbLine
 62
7
  6
CONTINUOUS
 10
6.5740251649
 20
15.3681564446
 11
7.966378714
 21
15.5102548522
  0
LWPOLYLINE
  5
53C
100
AcDbEntity
  8
RACCORDO
100
AcDbPolyline
 62
7
  6
CONTINUOUS
 90
25
 70
0
 10
8.4369886121
 20
14.51765111
 10
8.4278165074
 20
14.5169038038
 10
8.4181641867
 20
14.5164640609
 10
8.4080316501
 20
14.5163318812
 10
8.3973715313
 20
14.5165093268
 10
8.3862311965
 20
14.5169943357
 10
8.3747527446
 20
14.5177807213
 10
8.3629318443
 20
14.5188723442
 10
8.350772827
 20
14.5202653439
 10
8.3384307851
 20
14.5219419522
 10
8.3259033741
 20
14.523905802
 10
8.3131929384
 20
14.5261532604
 10
8.3004616042
 20
14.5286556602
 10
8.2877091038
 20
14.5314162672
 10
8.2749357047
 20
14.5344318157
 10
8.2623043363
 20
14.5376638412
 10
8.2498168178
 20
14.5411151168
 10
8.23747133
 20
14.5447828695
 10
8.2254253437
 20
14.5486203158
 10
8.2136826956
 20
14.5526296295
 10
8.2022395491
 20
14.5568086368
 10
8.1912418655
 20
14.561104033
 10
8.1807382985
 20
14.5654980499
 10
8.1706801945
 20
14.5700084557
 10
8.1610675535
 20
14.5746352504
  0
LWPOLYLINE
  5
53D
100
AcDbEntity
  8
DRAFT
100
AcDbPolyline
 62
7
  6
CONTINUOUS
 90
3
 70
0
 10
-11.2180108718
 20
16.6733077461
 10
-11.95288183
 20
16.8842244237
 10
-12.6778054148
 20
17.0492388678
  0
LWPOLYLINE
  5
53E
100
AcDbEntity
  8
RACCORDO
100
AcDbPolyline
 62
7
  6
CONTINUOUS
 90
8
 70
0
 10
-10.9771987456
 20
16.59646365
 10
-10.4624488581
 20
16.4344076261
 10
-10.190330396
 20
16.3461002415
 10
-9.9095089055
 20
16.2517774488
 10
-9.62010019
 20
16.1515500615
 10
-9.3225040272
 20
16.0447875791
 10
-9.0177094375
 20
15.9303916412
 10
-8.7065143566
 20
15.807724381
  0
LINE
  5
53F
100
AcDbEntity
  8
RACCORDO
100
AcDbLine
 62
7
  6
CONTINUOUS
 10
-11.2180108718
 20
16.6733077461
 11
-10.9771987456
 21
16.59646365
  0
LWPOLYLINE
  5
540
100
AcDbEntity
  8
RACCORDO
100
AcDbPolyline
 62
250
  6
CONTINUOUS
 90
5
 70
0
 10
7.5863516267
 20
11.0915726856
 10
7.5614161466
 20
11.1010114643
 10
7.5373115111
 20
11.1049431914
 10
7.5147698291
 20
11.1032476519
 10
7.4940075713
 20
11.0957263174
  0
LWPOLYLINE
  5
541
100
AcDbEntity
  8
RACCORDO
100
AcDbPolyline
 62
250
  6
CONTINUOUS
 90
5
 70
0
 10
11.3665799366
 20
10.8271152533
 10
11.3354095595
 20
10.8389140042
 10
11.3052781037
 20
10.8438284631
 10
11.2771007292
 20
10.8417085481
 10
11.251041914
 20
10.8322492788
  0
LWPOLYLINE
  5
542
100
AcDbEntity
  8
RACCORDO
100
AcDbPolyline
 62
250
  6
CONTINUOUS
 90
7
 70
0
 10
-26.0471857726
 20
24.478060089
 10
-26.0707284976
 20
24.4875779459
 10
-26.093815233
 20
24.4932242622
 10
-26.1160472849
 20
24.4948998546
 10
-26.1370409882
 20
24.4925739032
 10
-26.1564325541
 20
24.4862846964
 10
-26.1627120813
 20
24.4832004183
  0
LINE
  5
543
100
AcDbEntity
  8
DRAFT
100
AcDbLine
 62
7
  6
CONTINUOUS
 10
6.4640112786
 20
11.8728404168
 11
0.9485783854
 21
14.6305568635
  0
LINE
  5
544
100
AcDbEntity
  8
DRAFT
100
AcDbLine
 62
7
  6
CONTINUOUS
 10
-11.2136582511
 20
20.7116751817
 11
-16.7290911443
 21
23.4693916283
  0
LWPOLYLINE
  5
545
100
AcDbEntity
  8
RACCORDO
100
AcDbPolyline
 62
7
  6
CONTINUOUS
 90
25
 70
0
 10
-16.5404818902
 20
24.9628147767
 10
-16.5316907763
 20
24.9580779497
 10
-16.5229990094
 20
24.9527421988
 10
-16.5144065895
 20
24.9468075238
 10
-16.5058815363
 20
24.9402467498
 10
-16.4974558301
 20
24.9330870519
 10
-16.4892254112
 20
24.9254099547
 10
-16.4811925118
 20
24.9172095444
 10
-16.4733548995
 20
24.9084917349
 10
-16.4658018185
 20
24.8993557925
 10
-16.4585365209
 20
24.8897969381
 10
-16.4515557546
 20
24.8798199508
 10
-16.4449390067
 20
24.8695384349
 10
-16.4386904382
 20
24.8589489095
 10
-16.4328058883
 20
24.8480548556
 10
-16.427352362
 20
24.8369803194
 10
-16.4223347861
 20
24.8257232382
 10
-16.4177482339
 20
24.8142856748
 10
-16.4136449307
 20
24.8027978645
 10
-16.4100304001
 20
24.7912592329
 10
-16.4068991186
 20
24.7796703543
 10
-16.4042867408
 20
24.768163187
 10
-16.4022051517
 20
24.756781717
 10
-16.4006424664
 20
24.7454819583
 10
-16.3995986849
 20
24.7342639107
  0
LWPOLYLINE
  5
546
100
AcDbEntity
  8
RACCORDO
100
AcDbPolyline
 62
250
  6
CONTINUOUS
 90
10
 70
0
 10
8.3448858298
 20
10.7123055841
 10
8.3690440449
 20
10.6971964689
 10
8.3925434729
 20
10.6773238292
 10
8.4146703717
 20
10.6532912514
 10
8.4347526866
 20
10.6258286707
 10
8.4521804627
 20
10.5957702011
 10
8.4664243715
 20
10.5640288009
 10
8.4770517867
 20
10.5315685437
 10
8.4837399241
 20
10.4993753363
 10
8.4862856469
 20
10.4684269747
  0
LWPOLYLINE
  5
547
100
AcDbEntity
  8
RACCORDO
100
AcDbPolyline
 62
250
  6
CONTINUOUS
 90
16
 70
0
 10
7.372507789
 20
10.5134964918
 10
7.4251673154
 20
10.4802206911
 10
7.4851014675
 20
10.4502900169
 10
7.5515114702
 20
10.4241039498
 10
7.623514254
 20
10.4020152158
 10
7.7001603689
 20
10.3843128612
 10
7.7804400121
 20
10.37122195
 10
7.8632873991
 20
10.3629253307
 10
7.9476107273
 20
10.3595354668
 10
8.0323115885
 20
10.3610830862
 10
8.116324762
 20
10.3675686458
 10
8.1984787161
 20
10.3789169793
 10
8.2775421068
 20
10.3949268524
 10
8.3524421711
 20
10.4153520674
 10
8.4222630826
 20
10.4399336093
 10
8.4861144893
 20
10.4683417989
  0
LWPOLYLINE
  5
548
100
AcDbEntity
  8
0
100
AcDbPolyline
 62
7
  6
CONTINUOUS
 90
3
 70
0
 10
7.6725304926
 20
21.5024178541
 10
7.6434860124
 20
21.631210092
 10
7.6384539142
 20
21.7143533692
  0
LWPOLYLINE
  5
549
100
AcDbEntity
  8
RACCORDO
100
AcDbPolyline
 62
7
  6
CONTINUOUS
 90
10
 70
0
 10
15.2321353653
 20
13.8673613746
 10
15.2299977465
 20
13.8985169195
 10
15.2236154612
 20
13.9308652036
 10
15.2131919433
 20
13.9634283111
 10
15.1990504849
 20
13.9952198776
 10
15.1816237677
 20
14.0252765186
 10
15.1614402538
 20
14.0526867722
 10
15.1391093151
 20
14.0766167457
 10
15.1153031733
 20
14.0963357964
 10
15.0907355482
 20
14.1112399839
  0
LINE
  5
54A
100
AcDbEntity
  8
RACCORDO
100
AcDbLine
 62
7
  6
CONTINUOUS
 10
17.1665274022
 20
14.4428054069
 11
17.1661212151
 21
14.4675570013
  0
LINE
  5
54B
100
AcDbEntity
  8
RACCORDO
100
AcDbLine
 62
7
  6
CONTINUOUS
 10
15.2321353653
 20
13.4832318534
 11
15.2321353653
 21
13.8673613746
  0
LINE
  5
54C
100
AcDbEntity
  8
DRAFT
100
AcDbLine
 62
7
  6
CONTINUOUS
 10
15.9392421465
 20
13.1296784628
 11
15.9392421465
 21
13.0098069389
  0
LINE
  5
54D
100
AcDbEntity
  8
RACCORDO
100
AcDbLine
 62
250
  6
CONTINUOUS
 10
17.11042373
 20
14.3734858534
 11
17.11042373
 21
14.323613514
  0
LINE
  5
54E
100
AcDbEntity
  8
RACCORDO
100
AcDbLine
 62
7
  6
CONTINUOUS
 10
17.16655577
 20
14.4429516992
 11
17.16655577
 21
14.3924753683
  0
LINE
  5
54F
100
AcDbEntity
  8
RACCORDO
100
AcDbLine
 62
250
  6
CONTINUOUS
 10
17.1665555561
 20
14.4428054679
 11
17.1659543577
 21
14.4352024529
  0
LINE
  5
550
100
AcDbEntity
  8
DRAFT
100
AcDbLine
 62
7
  6
CONTINUOUS
 10
-9.0932078176
 20
-22.0079133848
 11
2.1068213659
 21
-15.987374778
  0
LINE
  5
551
100
AcDbEntity
  8
DRAFT
100
AcDbLine
 62
7
  6
CONTINUOUS
 10
0.736446351
 20
-16.3019009275
 11
-9.9501412787
 21
-21.6370978112
  0
LWPOLYLINE
  5
552
100
AcDbEntity
  8
ASSI
100
AcDbPolyline
 62
7
  6
CONTINUOUS
 90
16
 70
0
 10
-8.676946802
 20
-19.2728912681
 10
-8.7344045775
 20
-19.295203337
 10
-8.7943105786
 20
-19.3092276452
 10
-8.8566648052
 20
-19.3149641928
 10
-8.9220051304
 20
-19.3123213123
 10
-8.9897936812
 20
-19.3013906711
 10
-9.0584168387
 20
-19.2824472715
 10
-9.1278931344
 20
-19.2553045787
 10
-9.1982040368
 20
-19.2201491275
 10
-9.2676803326
 20
-19.1778155246
 10
-9.3363034901
 20
-19.1281357667
 10
-9.4040920408
 20
-19.0712778571
 10
-9.469432366
 20
-19.0085804124
 10
-9.5317865927
 20
-18.9404896382
 10
-9.5916925937
 20
-18.8665593289
 10
-9.6491503692
 20
-18.7867894845
  0
LWPOLYLINE
  5
553
100
AcDbEntity
  8
RACCORDO
100
AcDbPolyline
 62
7
  6
CONTINUOUS
 90
5
 70
0
 10
-18.2480923063
 20
13.5390750517
 10
-18.2133048469
 20
13.5467355232
 10
-18.1797103863
 20
13.5539189547
 10
-18.1460157146
 20
13.5609093832
 10
-18.1309710465
 20
13.5639604856
  0
LWPOLYLINE
  5
554
100
AcDbEntity
  8
RACCORDO
100
AcDbPolyline
 62
250
  6
CONTINUOUS
 90
14
 70
0
 10
-18.5832203971
 20
13.8773461676
 10
-17.9588009861
 20
13.978457505
 10
-17.3204222061
 20
14.0331343733
 10
-16.6680840571
 20
14.0413767725
 10
-15.999700773
 20
14.0030381853
 10
-15.3173581199
 20
13.9182651291
 10
-14.6273133962
 20
13.7874971559
 10
-13.9298792265
 20
13.6102890095
 10
-13.2247429862
 20
13.3870859461
 10
-12.5172241008
 20
13.1196632866
 10
-11.8074964941
 20
12.8078102733
 10
-11.0953862422
 20
12.4517376637
 10
-10.3856909992
 20
12.0538530515
 10
-9.678249043
 20
11.6137832191
  0
LWPOLYLINE
  5
555
100
AcDbEntity
  8
RACCORDO
100
AcDbPolyline
 62
7
  6
CONTINUOUS
 90
13
 70
0
 10
-18.1309714925
 20
13.5639604455
 10
-17.5282228431
 20
13.6607735919
 10
-16.9104552499
 20
13.7117739009
 10
-16.2792882886
 20
13.7171272239
 10
-15.6367365318
 20
13.6771470517
 10
-14.9841881254
 20
13.5922476627
 10
-14.3223410522
 20
13.4627109494
 10
-13.6529025012
 20
13.2889634269
 10
-12.977682228
 20
13.0715774306
 10
-12.2974831199
 20
12.8108388294
 10
-11.6139105836
 20
12.5072978006
 10
-10.9289117443
 20
12.1617660887
 10
-10.2437529842
 20
11.7748104112
  0
LINE
  5
556
100
AcDbEntity
  8
RACCORDO
100
AcDbLine
 62
250
  6
CONTINUOUS
 10
-18.1627529166
 20
13.5592899104
 11
-18.1309714925
 21
13.5639604455
  0
LINE
  5
557
100
AcDbEntity
  8
RACCORDO
100
AcDbLine
 62
7
  6
CONTINUOUS
 10
6.1035362342
 20
15.6843772989
 11
8.0537819189
 21
15.883412096
  0
LINE
  5
558
100
AcDbEntity
  8
RACCORDO
100
AcDbLine
 62
7
  6
CONTINUOUS
 10
6.356725644
 20
16.7319402335
 11
4.4064799593
 21
16.5329054364
  0
LINE
  5
559
100
AcDbEntity
  8
RACCORDO
100
AcDbLine
 62
7
  6
CONTINUOUS
 10
2.5435165122
 20
17.383410771
 11
3.9358700612
 21
17.5255091786
  0
LINE
  5
55A
100
AcDbEntity
  8
RACCORDO
100
AcDbLine
 62
7
  6
CONTINUOUS
 10
8.3930801035
 20
18.0253440494
 11
7.0581303888
 21
17.889104063
  0
LINE
  5
55B
100
AcDbEntity
  8
RACCORDO
100
AcDbLine
 62
7
  6
CONTINUOUS
 10
2.0730275814
 20
17.6996316253
 11
4.0232732661
 21
17.8986664224
  0
LWPOLYLINE
  5
55C
100
AcDbEntity
  8
RACCORDO
100
AcDbPolyline
 62
7
  6
CONTINUOUS
 90
25
 70
0
 10
8.0537819189
 20
15.883412096
 10
8.0629540236
 20
15.8841594022
 10
8.0726063442
 20
15.8845991451
 10
8.0827388808
 20
15.8847313248
 10
8.0933989997
 20
15.8845538792
 10
8.1045393345
 20
15.8840688703
 10
8.1160177864
 20
15.8832824847
 10
8.1278386866
 20
15.8821908618
 10
8.1399977039
 20
15.8807978621
 10
8.1523397459
 20
15.8791212538
 10
8.1648671569
 20
15.877157404
 10
8.1775775925
 20
15.8749099456
 10
8.1903089267
 20
15.8724075458
 10
8.2030614272
 20
15.8696469388
 10
8.2158348262
 20
15.8666313904
 10
8.2284661947
 20
15.8633993648
 10
8.2409537131
 20
15.8599480892
 10
8.253299201
 20
15.8562803365
 10
8.2653451873
 20
15.8524428902
 10
8.2770878354
 20
15.8484335765
 10
8.2885309819
 20
15.8442545692
 10
8.2995286655
 20
15.839959173
 10
8.3100322324
 20
15.8355651562
 10
8.3200903364
 20
15.8310547504
 10
8.3297029775
 20
15.8264279556
  0
LWPOLYLINE
  5
55D
100
AcDbEntity
  8
RACCORDO
100
AcDbPolyline
 62
7
  6
CONTINUOUS
 90
25
 70
0
 10
4.4064799593
 20
16.5329054364
 10
4.3973078546
 20
16.5321581302
 10
4.387655534
 20
16.5317183873
 10
4.3775229974
 20
16.5315862076
 10
4.3668628785
 20
16.5317636532
 10
4.3557225437
 20
16.5322486621
 10
4.3442440918
 20
16.5330350477
 10
4.3324231916
 20
16.5341266706
 10
4.3202641743
 20
16.5355196703
 10
4.3079221323
 20
16.5371962786
 10
4.2953947213
 20
16.5391601284
 10
4.2826842857
 20
16.5414075868
 10
4.2699529515
 20
16.5439099866
 10
4.257200451
 20
16.5466705936
 10
4.244427052
 20
16.549686142
 10
4.2317956835
 20
16.5529181676
 10
4.2193081651
 20
16.5563694432
 10
4.2069626772
 20
16.5600371959
 10
4.1949166909
 20
16.5638746422
 10
4.1831740428
 20
16.5678839559
 10
4.1717308963
 20
16.5720629632
 10
4.1607332127
 20
16.5763583594
 10
4.1502296458
 20
16.5807523762
 10
4.1401715418
 20
16.585262782
 10
4.1305589007
 20
16.5898895768
  0
LWPOLYLINE
  5
55E
100
AcDbEntity
  8
RACCORDO
100
AcDbPolyline
 62
7
  6
CONTINUOUS
 90
25
 70
0
 10
7.0581303888
 20
17.889104063
 10
7.0489582841
 20
17.8883567569
 10
7.0393059634
 20
17.8879170139
 10
7.0291734268
 20
17.8877848342
 10
7.018513308
 20
17.8879622798
 10
7.0073729732
 20
17.8884472887
 10
6.9958945213
 20
17.8892336743
 10
6.984073621
 20
17.8903252973
 10
6.9719146037
 20
17.891718297
 10
6.9595725618
 20
17.8933949052
 10
6.9470451507
 20
17.895358755
 10
6.9343347151
 20
17.8976062134
 10
6.9216033809
 20
17.9001086132
 10
6.9088508804
 20
17.9028692202
 10
6.8960774814
 20
17.9058847687
 10
6.883446113
 20
17.9091167942
 10
6.8709585945
 20
17.9125680698
 10
6.8586131066
 20
17.9162358225
 10
6.8465671204
 20
17.9200732689
 10
6.8348244723
 20
17.9240825825
 10
6.8233813257
 20
17.9282615898
 10
6.8123836421
 20
17.932556986
 10
6.8018800752
 20
17.9369510029
 10
6.7918219712
 20
17.9414614087
 10
6.7822093301
 20
17.9460882034
  0
LWPOLYLINE
  5
55F
100
AcDbEntity
  8
RACCORDO
100
AcDbPolyline
 62
7
  6
CONTINUOUS
 90
25
 70
0
 10
4.0232732661
 20
17.8986664224
 10
4.0324453708
 20
17.8994137286
 10
4.0420976915
 20
17.8998534715
 10
4.0522302281
 20
17.8999856512
 10
4.0628903469
 20
17.8998082056
 10
4.0740306817
 20
17.8993231967
 10
4.0855091336
 20
17.8985368111
 10
4.0973300338
 20
17.8974451882
 10
4.1094890512
 20
17.8960521885
 10
4.1218310931
 20
17.8943755802
 10
4.1343585041
 20
17.8924117304
 10
4.1470689398
 20
17.890164272
 10
4.159800274
 20
17.8876618722
 10
4.1725527744
 20
17.8849012652
 10
4.1853261735
 20
17.8818857167
 10
4.1979575419
 20
17.8786536912
 10
4.2104450604
 20
17.8752024156
 10
4.2227905482
 20
17.8715346629
 10
4.2348365345
 20
17.8676972166
 10
4.2465791826
 20
17.8636879029
 10
4.2580223291
 20
17.8595088956
 10
4.2690200127
 20
17.8552134994
 10
4.2795235797
 20
17.8508194825
 10
4.2895816837
 20
17.8463090767
 10
4.2991943247
 20
17.841682282
  0
LINE
  5
560
100
AcDbEntity
  8
RACCORDO
100
AcDbLine
 62
250
  6
CONTINUOUS
 10
-18.7103694358
 20
13.8682776041
 11
-18.6674990353
 21
13.8716233322
  0
LINE
  5
561
100
AcDbEntity
  8
RACCORDO
100
AcDbLine
 62
250
  6
CONTINUOUS
 10
-18.6674990353
 20
13.8716233322
 11
-18.6251193659
 21
13.874646101
  0
LINE
  5
562
100
AcDbEntity
  8
RACCORDO
100
AcDbLine
 62
250
  6
CONTINUOUS
 10
-20.0799534838
 20
14.5530696281
 11
-20.0050883599
 21
14.5580809767
  0
LINE
  5
563
100
AcDbEntity
  8
RACCORDO
100
AcDbLine
 62
250
  6
CONTINUOUS
 10
-18.6251193659
 20
13.874646101
 11
-18.5832203971
 21
13.8773461676
  0
LINE
  5
564
100
AcDbEntity
  8
RACCORDO
100
AcDbLine
 62
250
  6
CONTINUOUS
 10
-20.0050883599
 20
14.5580809767
 11
-19.9513197142
 21
14.5613958262
  0
LINE
  5
565
100
AcDbEntity
  8
0
100
AcDbLine
 62
7
  6
CONTINUOUS
 10
13.7472672411
 20
15.5941232858
 11
12.5352707193
 21
15.5343419962
  0
LWPOLYLINE
  5
566
100
AcDbEntity
  8
DRAFT
100
AcDbPolyline
 62
7
  6
CONTINUOUS
 90
7
 70
0
 10
-13.3927816262
 20
17.1683510784
 10
-14.0993426028
 20
17.2416212651
 10
-14.7959562061
 20
17.2689892183
 10
-15.4780260203
 20
17.2502743093
 10
-16.1440199069
 20
17.1854163285
 10
-16.7954700045
 20
17.0744754855
 10
-17.432376313
 20
16.9174517803
  0
LINE
  5
567
100
AcDbEntity
  8
DRAFT
100
AcDbLine
 62
7
  6
CONTINUOUS
 10
-12.6778054148
 20
17.0492388678
 11
-13.3927816262
 21
17.1683510784
  0
LWPOLYLINE
  5
568
100
AcDbEntity
  8
RACCORDO
100
AcDbPolyline
 62
250
  6
CONTINUOUS
 90
5
 70
0
 10
-10.091317903
 20
19.9304074505
 10
-10.1162557457
 20
19.9398468705
 10
-10.1403618992
 20
19.9437781385
 10
-10.1629042006
 20
19.9420814717
 10
-10.1837497846
 20
19.9345138832
  0
LWPOLYLINE
  5
569
100
AcDbEntity
  8
RACCORDO
100
AcDbPolyline
 62
7
  6
CONTINUOUS
 90
25
 70
0
 10
8.2422997726
 20
15.4532707118
 10
8.2326871315
 20
15.4578975065
 10
8.2226290275
 20
15.4624079123
 10
8.2121254606
 20
15.4668019292
 10
8.201127777
 20
15.4710973254
 10
8.1896846305
 20
15.4752763327
 10
8.1779419824
 20
15.4792856463
 10
8.1658959961
 20
15.4831230926
 10
8.1535505082
 20
15.4867908453
 10
8.1410629898
 20
15.490242121
 10
8.1284316213
 20
15.4934741465
 10
8.1156582223
 20
15.496489695
 10
8.1029057218
 20
15.499250302
 10
8.0901743876
 20
15.5017527018
 10
8.077463952
 20
15.5040001601
 10
8.064936541
 20
15.5059640099
 10
8.052594499
 20
15.5076406182
 10
8.0404354817
 20
15.5090336179
 10
8.0286145815
 20
15.5101252409
 10
8.0171361296
 20
15.5109116265
 10
8.0059957948
 20
15.5113966353
 10
7.9953356759
 20
15.511574081
 10
7.9852031393
 20
15.5114419013
 10
7.9755508187
 20
15.5110021583
 10
7.966378714
 20
15.5102548522
  0
LWPOLYLINE
  5
56A
100
AcDbEntity
  8
RACCORDO
100
AcDbPolyline
 62
7
  6
CONTINUOUS
 90
25
 70
0
 10
4.2117911198
 20
17.4685250382
 10
4.2021784788
 20
17.4731518329
 10
4.1921203748
 20
17.4776622387
 10
4.1816168078
 20
17.4820562556
 10
4.1706191242
 20
17.4863516518
 10
4.1591759777
 20
17.490530659
 10
4.1474333296
 20
17.4945399727
 10
4.1353873433
 20
17.498377419
 10
4.1230418555
 20
17.5020451717
 10
4.110554337
 20
17.5054964474
 10
4.0979229686
 20
17.5087284729
 10
4.0851495695
 20
17.5117440213
 10
4.0723970691
 20
17.5145046283
 10
4.0596657349
 20
17.5170070282
 10
4.0469552992
 20
17.5192544865
 10
4.0344278882
 20
17.5212183363
 10
4.0220858463
 20
17.5228949446
 10
4.009926829
 20
17.5242879443
 10
3.9981059287
 20
17.5253795673
 10
3.9866274768
 20
17.5261659529
 10
3.975487142
 20
17.5266509617
 10
3.9648270232
 20
17.5268284074
 10
3.9546944866
 20
17.5266962276
 10
3.9450421659
 20
17.5262564847
 10
3.9358700612
 20
17.5255091786
  0
LINE
  5
56B
100
AcDbEntity
  8
RACCORDO
100
AcDbLine
 62
7
  6
CONTINUOUS
 10
8.1610675535
 20
12.6120400549
 11
6.6996660932
 21
13.342740785
  0
LINE
  5
56C
100
AcDbEntity
  8
RACCORDO
100
AcDbLine
 62
7
  6
CONTINUOUS
 10
1.1371876395
 20
16.1239800118
 11
-0.3242138208
 21
16.854680742
  0
LINE
  5
56D
100
AcDbEntity
  8
RACCORDO
100
AcDbLine
 62
7
  6
CONTINUOUS
 10
-9.5166019762
 20
21.4508748197
 11
-10.9780034365
 21
22.1815755498
  0
LINE
  5
56E
100
AcDbEntity
  8
RACCORDO
100
AcDbLine
 62
7
  6
CONTINUOUS
 10
-16.5404818902
 20
24.9628147767
 11
-18.0018833504
 21
25.6935155068
  0
LINE
  5
56F
100
AcDbEntity
  8
DRAFT
100
AcDbLine
 62
7
  6
CONTINUOUS
 10
-19.7696503034
 20
26.5785624917
 11
-18.921122166
 21
26.154298423
  0
LINE
  5
570
100
AcDbEntity
  8
0
100
AcDbLine
 62
250
  6
CONTINUOUS
 10
8.1610675535
 20
12.871847676
 11
-0.3242138208
 21
17.1144883631
  0
LINE
  5
571
100
AcDbEntity
  8
0
100
AcDbLine
 62
250
  6
CONTINUOUS
 10
-9.5166019762
 20
21.7106824408
 11
-18.0018833504
 21
25.9533231279
  0
LINE
  5
572
100
AcDbEntity
  8
DRAFT
100
AcDbLine
 62
7
  6
CONTINUOUS
 10
8.4522688173
 20
13.0884679785
 11
8.6468332069
 21
12.9911857837
  0
LINE
  5
573
100
AcDbEntity
  8
RACCORDO
100
AcDbLine
 62
7
  6
CONTINUOUS
 10
13.853304066
 20
11.0661234127
 11
12.7925900463
 21
11.5964804225
  0
LINE
  5
574
100
AcDbEntity
  8
RACCORDO
100
AcDbLine
 62
7
  6
CONTINUOUS
 10
-19.9464000748
 20
27.965975483
 11
-21.0071140944
 21
28.4963324929
  0
LINE
  5
575
100
AcDbEntity
  8
0
100
AcDbLine
 62
250
  6
CONTINUOUS
 10
8.6560423003
 20
13.7255528321
 11
0.170760926
 21
17.9681935192
  0
LINE
  5
576
100
AcDbEntity
  8
0
100
AcDbLine
 62
250
  6
CONTINUOUS
 10
-9.0216272294
 20
22.5643875969
 11
-17.5069086036
 21
26.807028284
  0
LINE
  5
577
100
AcDbEntity
  8
0
100
AcDbLine
 62
250
  6
CONTINUOUS
 10
9.0196104329
 20
13.9073368984
 11
0.5343290587
 21
18.1499775855
  0
LINE
  5
578
100
AcDbEntity
  8
0
100
AcDbLine
 62
250
  6
CONTINUOUS
 10
-8.6580590968
 20
22.7461716632
 11
-17.143340471
 21
26.9888123503
  0
LINE
  5
579
100
AcDbEntity
  8
0
100
AcDbLine
 62
250
  6
CONTINUOUS
 10
9.1725660414
 20
13.9541442925
 11
0.6872846672
 21
18.1967849796
  0
LINE
  5
57A
100
AcDbEntity
  8
0
100
AcDbLine
 62
250
  6
CONTINUOUS
 10
-8.5051034882
 20
22.7929790573
 11
-16.9903848625
 21
27.0356197444
  0
LINE
  5
57B
100
AcDbEntity
  8
ASSI
100
AcDbLine
 62
7
  6
CONTINUOUS
 10
9.9119606109
 20
13.6393602189
 11
9.8687641081
 21
13.6609584703
  0
LINE
  5
57C
100
AcDbEntity
  8
RACCORDO
100
AcDbLine
 62
7
  6
CONTINUOUS
 10
8.1610675535
 20
14.5746352504
 11
6.110457888
 21
15.5999400831
  0
LINE
  5
57D
100
AcDbEntity
  8
RACCORDO
100
AcDbLine
 62
7
  6
CONTINUOUS
 10
4.1305589007
 20
16.5898895768
 11
2.0799492353
 21
17.6151944095
  0
LINE
  5
57E
100
AcDbEntity
  8
RACCORDO
100
AcDbLine
 62
7
  6
CONTINUOUS
 10
-9.5166019762
 20
23.4134700152
 11
-11.5672116416
 21
24.4387748479
  0
LINE
  5
57F
100
AcDbEntity
  8
RACCORDO
100
AcDbLine
 62
7
  6
CONTINUOUS
 10
-13.547110629
 20
25.4287243416
 11
-15.5977202944
 21
26.4540291743
  0
LINE
  5
580
100
AcDbEntity
  8
RACCORDO
100
AcDbLine
 62
250
  6
CONTINUOUS
 10
-9.3494907245
 20
23.3623838607
 11
-10.554053655
 21
23.9646653259
  0
LINE
  5
581
100
AcDbEntity
  8
RACCORDO
100
AcDbLine
 62
7
  6
CONTINUOUS
 10
8.2671551098
 20
14.5666654783
 11
6.6488919315
 21
15.3757970674
  0
LINE
  5
582
100
AcDbEntity
  8
RACCORDO
100
AcDbLine
 62
250
  6
CONTINUOUS
 10
-9.2865967777
 20
23.3556183171
 11
-10.5293722252
 21
23.9770060409
  0
LINE
  5
583
100
AcDbEntity
  8
RACCORDO
100
AcDbLine
 62
7
  6
CONTINUOUS
 10
-13.4658784098
 20
26.307359803
 11
-11.8788360213
 21
25.5138386087
  0
LINE
  5
584
100
AcDbEntity
  8
RACCORDO
100
AcDbLine
 62
7
  6
CONTINUOUS
 10
-9.4353697571
 20
24.2921054766
 11
-7.8483273685
 21
23.4985842824
  0
LINE
  5
585
100
AcDbEntity
  8
RACCORDO
100
AcDbLine
 62
7
  6
CONTINUOUS
 10
4.2117911198
 20
17.4685250382
 11
5.7988335084
 21
16.6750038439
  0
LINE
  5
586
100
AcDbEntity
  8
RACCORDO
100
AcDbLine
 62
7
  6
CONTINUOUS
 10
8.2422997726
 20
15.4532707118
 11
9.8293421611
 21
14.6597495175
  0
LWPOLYLINE
  5
587
100
AcDbEntity
  8
RACCORDO
100
AcDbPolyline
 62
7
  6
CONTINUOUS
 90
15
 70
0
 10
-15.5977202944
 20
26.4540291743
 10
-15.6067365599
 20
26.4587168329
 10
-15.6150717479
 20
26.4634030731
 10
-15.6227258583
 20
26.4680878948
 10
-15.6297257574
 20
26.47279129
 10
-15.636044579
 20
26.4774932668
 10
-15.6416017242
 20
26.4821338498
 10
-15.6463874362
 20
26.4867122526
 10
-15.6504114719
 20
26.4912292617
 10
-15.6536225033
 20
26.495627261
 10
-15.6560101159
 20
26.499904726
 10
-15.6575847243
 20
26.5040631812
 10
-15.6583262436
 20
26.5080495841
 10
-15.6582240023
 20
26.5118617308
 10
-15.6579438379
 20
26.5133638395
  0
LWPOLYLINE
  5
588
100
AcDbEntity
  8
RACCORDO
100
AcDbPolyline
 62
7
  6
CONTINUOUS
 90
15
 70
0
 10
-11.5672116416
 20
24.4387748479
 10
-11.5762279071
 20
24.4434625065
 10
-11.5845630951
 20
24.4481487467
 10
-11.5922172055
 20
24.4528335685
 10
-11.5992171046
 20
24.4575369636
 10
-11.6055359262
 20
24.4622389404
 10
-11.6110930714
 20
24.4668795234
 10
-11.6158787834
 20
24.4714579262
 10
-11.6199028191
 20
24.4759749353
 10
-11.6231138505
 20
24.4803729346
 10
-11.6255014631
 20
24.4846503996
 10
-11.6270760715
 20
24.4888088548
 10
-11.6278175909
 20
24.4927952577
 10
-11.6277153496
 20
24.4966074044
 10
-11.6274351851
 20
24.4981095131
  0
LWPOLYLINE
  5
589
100
AcDbEntity
  8
RACCORDO
100
AcDbPolyline
 62
7
  6
CONTINUOUS
 90
15
 70
0
 10
2.0799492353
 20
17.6151944095
 10
2.0709329698
 20
17.6198820681
 10
2.0625977818
 20
17.6245683082
 10
2.0549436714
 20
17.62925313
 10
2.0479437723
 20
17.6339565252
 10
2.0416249507
 20
17.6386585019
 10
2.0360678055
 20
17.643299085
 10
2.0312820935
 20
17.6478774878
 10
2.0272580578
 20
17.6523944968
 10
2.0240470264
 20
17.6567924961
 10
2.0216594138
 20
17.6610699611
 10
2.0200848054
 20
17.6652284164
 10
2.019343286
 20
17.6692148193
 10
2.0194455273
 20
17.6730269659
 10
2.0197256918
 20
17.6745290746
  0
LWPOLYLINE
  5
58A
100
AcDbEntity
  8
RACCORDO
100
AcDbPolyline
 62
7
  6
CONTINUOUS
 90
15
 70
0
 10
6.110457888
 20
15.5999400831
 10
6.1014416225
 20
15.6046277417
 10
6.0931064346
 20
15.6093139819
 10
6.0854523242
 20
15.6139988036
 10
6.078452425
 20
15.6187021988
 10
6.0721336035
 20
15.6234041756
 10
6.0665764582
 20
15.6280447586
 10
6.0617907462
 20
15.6326231614
 10
6.0577667105
 20
15.6371401705
 10
6.0545556792
 20
15.6415381697
 10
6.0521680665
 20
15.6458156348
 10
6.0505934582
 20
15.64997409
 10
6.0498519388
 20
15.6539604929
 10
6.0499541801
 20
15.6577726395
 10
6.0502343445
 20
15.6592747483
  0
LWPOLYLINE
  5
58B
100
AcDbEntity
  8
RACCORDO
100
AcDbPolyline
 62
7
  6
CONTINUOUS
 90
15
 70
0
 10
-11.3278655395
 20
25.6552122141
 10
-11.318849274
 20
25.6505245556
 10
-11.310514086
 20
25.6458383154
 10
-11.3028599756
 20
25.6411534936
 10
-11.2958600765
 20
25.6364500984
 10
-11.2895412549
 20
25.6317481217
 10
-11.2839841097
 20
25.6271075387
 10
-11.2791983977
 20
25.6225291358
 10
-11.275174362
 20
25.6180121268
 10
-11.2719633306
 20
25.6136141275
 10
-11.269575718
 20
25.6093366625
 10
-11.2680011096
 20
25.6051782072
 10
-11.2672595903
 20
25.6011918043
 10
-11.2673618316
 20
25.5973796577
 10
-11.267641996
 20
25.595877549
  0
LWPOLYLINE
  5
58C
100
AcDbEntity
  8
RACCORDO
100
AcDbPolyline
 62
7
  6
CONTINUOUS
 90
25
 70
0
 10
1.1371876395
 20
16.1239800118
 10
1.1459787533
 20
16.1192431849
 10
1.1546705202
 20
16.1139074339
 10
1.1632629402
 20
16.1079727589
 10
1.1717879933
 20
16.101411985
 10
1.1802136995
 20
16.0942522871
 10
1.1884441184
 20
16.0865751899
 10
1.1964770179
 20
16.0783747796
 10
1.2043146301
 20
16.0696569701
 10
1.2118677111
 20
16.0605210277
 10
1.2191330087
 20
16.0509621733
 10
1.2261137751
 20
16.040985186
 10
1.2327305229
 20
16.03070367
 10
1.2389790914
 20
16.0201141447
 10
1.2448636414
 20
16.0092200907
 10
1.2503171676
 20
15.9981455546
 10
1.2553347436
 20
15.9868884734
 10
1.2599212958
 20
15.97545091
 10
1.264024599
 20
15.9639630997
 10
1.2676391296
 20
15.9524244681
 10
1.2707704111
 20
15.9408355895
 10
1.2733827888
 20
15.9293284222
 10
1.2754643779
 20
15.9179469522
 10
1.2770270632
 20
15.9066471934
 10
1.2780708448
 20
15.8954291459
  0
LWPOLYLINE
  5
58D
100
AcDbEntity
  8
RACCORDO
100
AcDbPolyline
 62
250
  6
CONTINUOUS
 90
10
 70
0
 10
9.002720159
 20
14.9315111654
 10
9.0276604644
 20
14.9167927618
 10
9.051768204
 20
14.8972239575
 10
9.074311159
 20
14.8733991627
 10
9.0946046427
 20
14.8460420545
 10
9.1120323157
 20
14.8159835677
 10
9.1260648942
 20
14.7841366463
 10
9.136276198
 20
14.7514685589
 10
9.1423561038
 20
14.7189715271
 10
9.1441199763
 20
14.6876325561
  0
LWPOLYLINE
  5
58E
100
AcDbEntity
  8
RACCORDO
100
AcDbPolyline
 62
250
  6
CONTINUOUS
 90
10
 70
0
 10
12.3766273696
 20
10.3220915368
 10
12.4068251376
 20
10.3032051441
 10
12.4361994225
 20
10.278364346
 10
12.4638580467
 20
10.2483236256
 10
12.4889609423
 20
10.2139954019
 10
12.5107456652
 20
10.1764223169
 10
12.5285505528
 20
10.1367455671
 10
12.5418348215
 20
10.096170244
 10
12.5501949914
 20
10.0559287316
 10
12.553377141
 20
10.0172432751
  0
LWPOLYLINE
  5
58F
100
AcDbEntity
  8
RACCORDO
100
AcDbPolyline
 62
7
  6
CONTINUOUS
 90
4
 70
0
 10
8.3225719214
 20
14.5244948693
 10
8.3155288766
 20
14.5320422401
 10
8.2917227348
 20
14.5517612907
 10
8.2671551098
 20
14.5666654783
  0
LINE
  5
590
100
AcDbEntity
  8
DRAFT
100
AcDbLine
 62
250
  6
CONTINUOUS
 10
8.4102694633
 20
22.6695086285
 11
8.1559615145
 21
23.3225942711
  0
LINE
  5
591
100
AcDbEntity
  8
DRAFT
100
AcDbLine
 62
7
  6
CONTINUOUS
 10
9.9292916043
 20
19.1159840043
 11
9.5794779554
 21
20.0329576386
  0
LINE
  5
592
100
AcDbEntity
  8
0
100
AcDbLine
 62
7
  6
CONTINUOUS
 10
9.5647999017
 20
21.311402173
 11
9.3633005437
 21
21.9071265988
  0
LINE
  5
593
100
AcDbEntity
  8
RACCORDO
100
AcDbLine
 62
7
  6
CONTINUOUS
 10
17.1661212151
 20
14.4675570013
 11
17.1592943119
 21
14.5435802058
  0
LINE
  5
594
100
AcDbEntity
  8
RACCORDO
100
AcDbLine
 62
250
  6
CONTINUOUS
 10
17.1083762477
 20
14.4180423417
 11
17.11042373
 21
14.3734858534
  0
LINE
  5
595
100
AcDbEntity
  8
RACCORDO
100
AcDbLine
 62
7
  6
CONTINUOUS
 10
18.1616111714
 20
-22.3494400295
 11
18.1616111714
 21
-21.4436451529
  0
LINE
  5
596
100
AcDbEntity
  8
RACCORDO
100
AcDbLine
 62
7
  6
CONTINUOUS
 10
18.1616111714
 20
10.4262875524
 11
18.1616111714
 21
11.3320824291
  0
LINE
  5
597
100
AcDbEntity
  8
RACCORDO
100
AcDbLine
 62
250
  6
CONTINUOUS
 10
18.1860790732
 20
13.2335373104
 11
18.1860790732
 21
11.9448455353
  0
LINE
  5
598
100
AcDbEntity
  8
RACCORDO
100
AcDbLine
 62
250
  6
CONTINUOUS
 10
18.1860790732
 20
-24.3762031699
 11
18.1860790732
 21
-25.664894945
  0
LINE
  5
599
100
AcDbEntity
  8
RACCORDO
100
AcDbLine
 62
7
  6
CONTINUOUS
 10
18.4667392728
 20
13.5777777563
 11
18.4667392728
 21
12.297322703
  0
LINE
  5
59A
100
AcDbEntity
  8
RACCORDO
100
AcDbLine
 62
7
  6
CONTINUOUS
 10
18.4667392728
 20
-24.0340219672
 11
18.4667392728
 21
-25.3144770205
  0
LWPOLYLINE
  5
59B
100
AcDbEntity
  8
RACCORDO
100
AcDbPolyline
 62
7
  6
CONTINUOUS
 90
10
 70
0
 10
18.1616111714
 20
-22.3494400295
 10
18.1611149941
 20
-22.3634597549
 10
18.1597099531
 20
-22.3767474213
 10
18.1573960486
 20
-22.3893030287
 10
18.1541459571
 20
-22.4012000744
 10
18.149987002
 20
-22.4123650611
 10
18.145001153
 20
-22.4225774968
 10
18.1392157331
 20
-22.4317638841
 10
18.1326034193
 20
-22.4399977204
 10
18.1251642114
 20
-22.4472790057
  0
LINE
  5
59C
100
AcDbEntity
  8
RACCORDO
100
AcDbLine
 62
7
  6
CONTINUOUS
 10
-2.0267082858
 20
-22.3556121637
 11
-2.0339540738
 21
-22.3596380264
  0
LWPOLYLINE
  5
59D
100
AcDbEntity
  8
RACCORDO
100
AcDbPolyline
 62
250
  6
CONTINUOUS
 90
5
 70
0
 10
-2.0339540738
 20
-22.3596380264
 10
-2.3727157877
 20
-22.535652495
 10
-2.9070258115
 20
-22.7680131906
 10
-3.4610145483
 20
-22.9562379902
 10
-4.0332055839
 20
-23.1000427334
  0
LWPOLYLINE
  5
59E
100
AcDbEntity
  8
RACCORDO
100
AcDbPolyline
 62
250
  6
CONTINUOUS
 90
5
 70
0
 10
5.7406476802
 20
20.3936471344
 10
5.7842433499
 20
20.4019169309
 10
5.8266925278
 20
20.4049609665
 10
5.8676600719
 20
20.4027594234
 10
5.9068220442
 20
20.3953345284
  0
LINE
  5
59F
100
AcDbEntity
  8
0
100
AcDbLine
 62
7
  6
CONTINUOUS
 10
0.6872846672
 20
18.1967849796
 11
5.3326404287
 21
18.6708726541
  0
LINE
  5
5A0
100
AcDbEntity
  8
0
100
AcDbLine
 62
7
  6
CONTINUOUS
 10
8.1029271626
 20
18.4162933251
 11
6.9123819067
 21
18.3457864025
  0
LINE
  5
5A1
100
AcDbEntity
  8
DRAFT
100
AcDbLine
 62
7
  6
CONTINUOUS
 10
6.8717845753
 20
19.2139754867
 11
5.350830157
 21
19.1265622773
  0
LWPOLYLINE
  5
5A2
100
AcDbEntity
  8
0
100
AcDbPolyline
 62
7
  6
CONTINUOUS
 90
7
 70
0
 10
8.479265605
 20
18.0253736092
 10
8.4653170623
 20
18.0266210891
 10
8.4512022367
 20
18.0273676064
 10
8.4369211279
 20
18.0276131611
 10
8.4224737362
 20
18.0273577532
 10
8.4078600614
 20
18.0266013826
 10
8.3930801035
 20
18.0253440494
  0
LINE
  5
5A3
100
AcDbEntity
  8
RACCORDO
100
AcDbLine
 62
250
  6
CONTINUOUS
 10
-10.5789936602
 20
23.9741053205
 11
-10.554053655
 21
23.9646653259
  0
LWPOLYLINE
  5
5A4
100
AcDbEntity
  8
RACCORDO
100
AcDbPolyline
 62
7
  6
CONTINUOUS
 90
4
 70
0
 10
-10.5418852665
 20
23.9710536445
 10
-10.5664335147
 20
23.9807083905
 10
-10.5902487423
 20
23.9848009134
 10
-10.6126016266
 20
23.9832096713
  0
LINE
  5
5A5
100
AcDbEntity
  8
RACCORDO
100
AcDbLine
 62
250
  6
CONTINUOUS
 10
-10.5535304405
 20
23.9868369284
 11
-10.5293722252
 21
23.9770060409
  0
LWPOLYLINE
  5
5A6
100
AcDbEntity
  8
0
100
AcDbPolyline
 62
7
  6
CONTINUOUS
 90
5
 70
0
 10
8.5988462028
 20
17.990741779
 10
8.5791104735
 20
17.9998402721
 10
8.547256912
 20
18.0114400346
 10
8.5139752892
 20
18.019951147
 10
8.479265605
 20
18.0253736092
  0
LWPOLYLINE
  5
5A7
100
AcDbEntity
  8
RACCORDO
100
AcDbPolyline
 62
7
  6
CONTINUOUS
 90
25
 70
0
 10
-9.4353697571
 20
24.2921054766
 10
-9.4449823981
 20
24.2967322713
 10
-9.4550405021
 20
24.3012426771
 10
-9.4655440691
 20
24.305636694
 10
-9.4765417527
 20
24.3099320902
 10
-9.4879848992
 20
24.3141110975
 10
-9.4997275473
 20
24.3181204112
 10
-9.5117735336
 20
24.3219578575
 10
-9.5241190214
 20
24.3256256102
 10
-9.5366065399
 20
24.3290768858
 10
-9.5492379083
 20
24.3323089113
 10
-9.5620113074
 20
24.3353244598
 10
-9.5747638078
 20
24.3380850668
 10
-9.587495142
 20
24.3405874666
 10
-9.6002055777
 20
24.342834925
 10
-9.6127329887
 20
24.3447987748
 10
-9.6250750306
 20
24.346475383
 10
-9.6372340479
 20
24.3478683827
 10
-9.6490549482
 20
24.3489600057
 10
-9.6605334001
 20
24.3497463913
 10
-9.6716737349
 20
24.3502314002
 10
-9.6823338537
 20
24.3504088458
 10
-9.6924663903
 20
24.3502766661
 10
-9.702118711
 20
24.3498369232
 10
-9.7112908157
 20
24.349089617
  0
LWPOLYLINE
  5
5A8
100
AcDbEntity
  8
RACCORDO
100
AcDbPolyline
 62
7
  6
CONTINUOUS
 90
25
 70
0
 10
-13.4658784098
 20
26.307359803
 10
-13.4754910509
 20
26.3119865977
 10
-13.4855491549
 20
26.3164970035
 10
-13.4960527218
 20
26.3208910204
 10
-13.5070504054
 20
26.3251864166
 10
-13.5184935519
 20
26.3293654239
 10
-13.5302362001
 20
26.3333747375
 10
-13.5422821863
 20
26.3372121839
 10
-13.5546276742
 20
26.3408799366
 10
-13.5671151926
 20
26.3443312122
 10
-13.5797465611
 20
26.3475632377
 10
-13.5925199601
 20
26.3505787862
 10
-13.6052724606
 20
26.3533393932
 10
-13.6180037948
 20
26.355841793
 10
-13.6307142304
 20
26.3580892513
 10
-13.6432416415
 20
26.3600531012
 10
-13.6555836834
 20
26.3617297094
 10
-13.6677427007
 20
26.3631227091
 10
-13.6795636009
 20
26.3642143321
 10
-13.6910420528
 20
26.3650007177
 10
-13.7021823876
 20
26.3654857266
 10
-13.7128425065
 20
26.3656631722
 10
-13.7229750431
 20
26.3655309925
 10
-13.7326273638
 20
26.3650912495
 10
-13.7417994685
 20
26.3643439434
  0
LWPOLYLINE
  5
5A9
100
AcDbEntity
  8
0
100
AcDbPolyline
 62
7
  6
CONTINUOUS
 90
6
 70
0
 10
14.4461376755
 20
15.4767121251
 10
14.4263101745
 20
15.4863898637
 10
14.3581029709
 20
15.5161371224
 10
14.2908722563
 20
15.539947764
 10
14.2248067998
 20
15.5578295048
 10
14.1601586674
 20
15.5697884407
  0
LWPOLYLINE
  5
5AA
100
AcDbEntity
  8
0
100
AcDbPolyline
 62
7
  6
CONTINUOUS
 90
6
 70
0
 10
-3.2315318541
 20
24.31554689
 10
-3.2513593552
 20
24.3252246286
 10
-3.3195665588
 20
24.3549718872
 10
-3.3867972733
 20
24.3787825288
 10
-3.4528627298
 20
24.3966642696
 10
-3.5175108623
 20
24.4086232055
  0
LINE
  5
5AB
100
AcDbEntity
  8
RACCORDO
100
AcDbLine
 62
7
  6
CONTINUOUS
 10
-13.3784752049
 20
26.6805170469
 11
-11.3278655395
 21
25.6552122141
  0
LINE
  5
5AC
100
AcDbEntity
  8
RACCORDO
100
AcDbLine
 62
7
  6
CONTINUOUS
 10
-9.3479665522
 20
24.6652627205
 11
-7.2973568867
 21
23.6399578878
  0
LINE
  5
5AD
100
AcDbEntity
  8
RACCORDO
100
AcDbLine
 62
7
  6
CONTINUOUS
 10
4.2991943247
 20
17.841682282
 11
6.3498039902
 21
16.8163774493
  0
LINE
  5
5AE
100
AcDbEntity
  8
RACCORDO
100
AcDbLine
 62
7
  6
CONTINUOUS
 10
8.3297029775
 20
15.8264279556
 11
10.3803126429
 21
14.8011231229
  0
LINE
  5
5AF
100
AcDbEntity
  8
DRAFT
100
AcDbLine
 62
7
  6
CONTINUOUS
 10
15.9392421465
 20
13.1296784628
 11
15.2321353653
 21
13.4832318534
  0
LINE
  5
5B0
100
AcDbEntity
  8
DRAFT
100
AcDbLine
 62
7
  6
CONTINUOUS
 10
-14.2058854872
 20
28.2022422797
 11
-14.4663494445
 21
28.3324742584
  0
LINE
  5
5B1
100
AcDbEntity
  8
RACCORDO
100
AcDbLine
 62
7
  6
CONTINUOUS
 10
-12.345029101
 20
27.509707419
 11
-10.8954601995
 21
26.7849229682
  0
LINE
  5
5B2
100
AcDbEntity
  8
RACCORDO
100
AcDbLine
 62
7
  6
CONTINUOUS
 10
5.3326404287
 20
18.6708726541
 11
6.7822093301
 21
17.9460882034
  0
LINE
  5
5B3
100
AcDbEntity
  8
RACCORDO
100
AcDbLine
 62
7
  6
CONTINUOUS
 10
13.7415488992
 20
14.4664184189
 11
12.3683529015
 21
15.1530164177
  0
LINE
  5
5B4
100
AcDbEntity
  8
RACCORDO
100
AcDbLine
 62
7
  6
CONTINUOUS
 10
-3.9361206304
 20
23.3052531837
 11
-5.3093166281
 21
23.9918511825
  0
LINE
  5
5B5
100
AcDbEntity
  8
RACCORDO
100
AcDbLine
 62
7
  6
CONTINUOUS
 10
15.0907355482
 20
14.1112399839
 11
12.3853992257
 21
15.4639081452
  0
LINE
  5
5B6
100
AcDbEntity
  8
RACCORDO
100
AcDbLine
 62
7
  6
CONTINUOUS
 10
6.765163006
 20
18.2740262551
 11
4.0598266834
 21
19.6266944163
  0
LINE
  5
5B7
100
AcDbEntity
  8
RACCORDO
100
AcDbLine
 62
7
  6
CONTINUOUS
 10
-2.5869339814
 20
22.9500747488
 11
-5.292270304
 21
24.30274291
  0
LINE
  5
5B8
100
AcDbEntity
  8
RACCORDO
100
AcDbLine
 62
7
  6
CONTINUOUS
 10
-10.9125065237
 20
27.1128610199
 11
-13.6178428462
 21
28.4655291812
  0
LINE
  5
5B9
100
AcDbEntity
  8
DRAFT
100
AcDbLine
 62
7
  6
CONTINUOUS
 10
-12.3268393726
 20
27.9653970422
 11
-10.7652876229
 21
27.1846211673
  0
LINE
  5
5BA
100
AcDbEntity
  8
DRAFT
100
AcDbLine
 62
7
  6
CONTINUOUS
 10
-5.1423988104
 20
24.373176761
 11
-3.5808470606
 21
23.5924008862
  0
LINE
  5
5BB
100
AcDbEntity
  8
DRAFT
100
AcDbLine
 62
7
  6
CONTINUOUS
 10
14.096822469
 20
14.7535661213
 11
12.5352707193
 21
15.5343419962
  0
LINE
  5
5BC
100
AcDbEntity
  8
DRAFT
100
AcDbLine
 62
7
  6
CONTINUOUS
 10
6.9123819067
 20
18.3457864025
 11
5.350830157
 21
19.1265622773
  0
LINE
  5
5BD
100
AcDbEntity
  8
0
100
AcDbLine
 62
250
  6
CONTINUOUS
 10
13.2996761662
 20
15.5720460181
 11
8.3930801035
 21
18.0253440494
  0
LINE
  5
5BE
100
AcDbEntity
  8
0
100
AcDbLine
 62
250
  6
CONTINUOUS
 10
-4.3779933635
 20
24.410880783
 11
-9.2845894261
 21
26.8641788143
  0
LINE
  5
5BF
100
AcDbEntity
  8
0
100
AcDbLine
 62
7
  6
CONTINUOUS
 10
-9.0787544012
 20
26.8295594875
 11
-4.253662174
 21
24.4170133739
  0
LINE
  5
5C0
100
AcDbEntity
  8
0
100
AcDbLine
 62
7
  6
CONTINUOUS
 10
8.5989151285
 20
17.9907247226
 11
13.4240073557
 21
15.578178609
  0
LINE
  5
5C1
100
AcDbEntity
  8
0
100
AcDbLine
 62
250
  6
CONTINUOUS
 10
-10.8058849544
 20
28.0528102516
 11
-9.3304658641
 21
27.3151007064
  0
LINE
  5
5C2
100
AcDbEntity
  8
0
100
AcDbLine
 62
250
  6
CONTINUOUS
 10
-3.5175108623
 20
24.4086232055
 11
-2.7093938317
 21
24.0045646902
  0
LINE
  5
5C3
100
AcDbEntity
  8
0
100
AcDbLine
 62
250
  6
CONTINUOUS
 10
6.8717845753
 20
19.2139754867
 11
8.3472036655
 21
18.4762659416
  0
LINE
  5
5C4
100
AcDbEntity
  8
0
100
AcDbLine
 62
250
  6
CONTINUOUS
 10
14.1601586674
 20
15.5697884407
 11
14.9682756979
 21
15.1657299254
  0
LINE
  5
5C5
100
AcDbEntity
  8
RACCORDO
100
AcDbLine
 62
7
  6
CONTINUOUS
 10
-10.6425363402
 20
28.0210491803
 11
-9.2908902151
 21
27.3452261177
  0
LINE
  5
5C6
100
AcDbEntity
  8
RACCORDO
100
AcDbLine
 62
7
  6
CONTINUOUS
 10
-3.2284960857
 20
24.314029053
 11
-2.6580935109
 21
24.0288277656
  0
LINE
  5
5C7
100
AcDbEntity
  8
RACCORDO
100
AcDbLine
 62
7
  6
CONTINUOUS
 10
7.0351331894
 20
19.1822144155
 11
8.3867793146
 21
18.5063913529
  0
LINE
  5
5C8
100
AcDbEntity
  8
RACCORDO
100
AcDbLine
 62
7
  6
CONTINUOUS
 10
14.449173444
 20
15.4751942882
 11
15.0195760188
 21
15.1899930008
  0
LWPOLYLINE
  5
5C9
100
AcDbEntity
  8
RACCORDO
100
AcDbPolyline
 62
7
  6
CONTINUOUS
 90
15
 70
0
 10
-7.2973568867
 20
23.6399578878
 10
-7.2883406212
 20
23.6352702292
 10
-7.2800054333
 20
23.630583989
 10
-7.2723513229
 20
23.6258991672
 10
-7.2653514237
 20
23.6211957721
 10
-7.2590326022
 20
23.6164937953
 10
-7.2534754569
 20
23.6118532123
 10
-7.2486897449
 20
23.6072748095
 10
-7.2446657093
 20
23.6027578004
 10
-7.2414546779
 20
23.5983598011
 10
-7.2390670652
 20
23.5940823361
 10
-7.2374924569
 20
23.5899238809
 10
-7.2367509375
 20
23.5859374779
 10
-7.2368531788
 20
23.5821253313
 10
-7.2371333432
 20
23.5806232226
  0
LWPOLYLINE
  5
5CA
100
AcDbEntity
  8
RACCORDO
100
AcDbPolyline
 62
7
  6
CONTINUOUS
 90
15
 70
0
 10
6.3498039902
 20
16.8163774493
 10
6.3588202557
 20
16.8116897907
 10
6.3671554436
 20
16.8070035505
 10
6.374809554
 20
16.8023187288
 10
6.3818094532
 20
16.7976153336
 10
6.3881282747
 20
16.7929133568
 10
6.39368542
 20
16.7882727738
 10
6.398471132
 20
16.783694371
 10
6.4024951676
 20
16.779177362
 10
6.405706199
 20
16.7747793627
 10
6.4080938117
 20
16.7705018976
 10
6.40966842
 20
16.7663434424
 10
6.4104099394
 20
16.7623570395
 10
6.4103076981
 20
16.7585448929
 10
6.4100275337
 20
16.7570427841
  0
LWPOLYLINE
  5
5CB
100
AcDbEntity
  8
RACCORDO
100
AcDbPolyline
 62
7
  6
CONTINUOUS
 90
15
 70
0
 10
10.3803126429
 20
14.8011231229
 10
10.3893289084
 20
14.7964354643
 10
10.3976640964
 20
14.7917492242
 10
10.4053182068
 20
14.7870644024
 10
10.4123181059
 20
14.7823610072
 10
10.4186369275
 20
14.7776590305
 10
10.4241940727
 20
14.7730184474
 10
10.4289797847
 20
14.7684400446
 10
10.4330038204
 20
14.7639230356
 10
10.4362148518
 20
14.7595250363
 10
10.4386024644
 20
14.7552475713
 10
10.4401770728
 20
14.751089116
 10
10.4409185922
 20
14.7471027131
 10
10.4408163509
 20
14.7432905665
 10
10.4405361864
 20
14.7417884578
  0
LWPOLYLINE
  5
5CC
100
AcDbEntity
  8
RACCORDO
100
AcDbPolyline
 62
7
  6
CONTINUOUS
 90
15
 70
0
 10
-5.3093166281
 20
23.9918511825
 10
-5.3183328936
 20
23.9965388411
 10
-5.3266680816
 20
24.0012250813
 10
-5.334322192
 20
24.0059099031
 10
-5.3413220911
 20
24.0106132982
 10
-5.3476409127
 20
24.015315275
 10
-5.3531980579
 20
24.019955858
 10
-5.3579837699
 20
24.0245342608
 10
-5.3620078056
 20
24.0290512699
 10
-5.365218837
 20
24.0334492692
 10
-5.3676064496
 20
24.0377267342
 10
-5.369181058
 20
24.0418851894
 10
-5.3699225774
 20
24.0458715924
 10
-5.3698203361
 20
24.049683739
 10
-5.3695401716
 20
24.0511858477
  0
LWPOLYLINE
  5
5CD
100
AcDbEntity
  8
RACCORDO
100
AcDbPolyline
 62
7
  6
CONTINUOUS
 90
15
 70
0
 10
12.3683529015
 20
15.1530164177
 10
12.359336636
 20
15.1577040763
 10
12.3510014481
 20
15.1623903165
 10
12.3433473377
 20
15.1670751383
 10
12.3363474385
 20
15.1717785334
 10
12.330028617
 20
15.1764805102
 10
12.3244714717
 20
15.1811210932
 10
12.3196857597
 20
15.185699496
 10
12.315661724
 20
15.1902165051
 10
12.3124506927
 20
15.1946145044
 10
12.31006308
 20
15.1988919694
 10
12.3084884717
 20
15.2030504246
 10
12.3077469523
 20
15.2070368275
 10
12.3078491936
 20
15.2108489742
 10
12.308129358
 20
15.2123510829
  0
LINE
  5
5CE
100
AcDbEntity
  8
RACCORDO
100
AcDbLine
 62
250
  6
CONTINUOUS
 10
-0.6764821263
 20
23.4708718769
 11
-0.7042651604
 21
23.4859374835
  0
LWPOLYLINE
  5
5CF
100
AcDbEntity
  8
RACCORDO
100
AcDbPolyline
 62
7
  6
CONTINUOUS
 90
8
 70
0
 10
17.1592943119
 20
14.5435802058
 10
17.1439701352
 20
14.6155978178
 10
17.1201834714
 20
14.6827045567
 10
17.0883919737
 20
14.7433201868
 10
17.0493996512
 20
14.7963722472
 10
17.0036930903
 20
14.8415686327
 10
16.9518918666
 20
14.878287695
 10
16.9281115332
 20
14.8912226959
  0
LWPOLYLINE
  5
5D0
100
AcDbEntity
  8
RACCORDO
100
AcDbPolyline
 62
7
  6
CONTINUOUS
 90
3
 70
0
 10
-1.5696774622
 20
-24.9098379189
 10
-1.4571082623
 20
-24.8659771142
 10
-1.4476291955
 20
-24.8621287068
  0
LINE
  5
5D1
100
AcDbEntity
  8
RACCORDO
100
AcDbLine
 62
7
  6
CONTINUOUS
 10
-1.6829873723
 20
-24.9521579586
 11
-1.5696774622
 21
-24.9098379189
  0
LWPOLYLINE
  5
5D2
100
AcDbEntity
  8
RACCORDO
100
AcDbPolyline
 62
250
  6
CONTINUOUS
 90
10
 70
0
 10
-2.8265469624
 20
-24.4354788103
 10
-2.7470744871
 20
-24.4069445549
 10
-2.6679924655
 20
-24.3775547343
 10
-2.5893005785
 20
-24.3473091757
 10
-2.5110716325
 20
-24.3162410544
 10
-2.4332321981
 20
-24.284316858
 10
-2.3555624923
 20
-24.2514363217
 10
-2.2779889126
 20
-24.2175658382
 10
-2.2005841547
 20
-24.1827385228
 10
-2.1233477688
 20
-24.1469541321
  0
LINE
  5
5D3
100
AcDbEntity
  8
RACCORDO
100
AcDbLine
 62
7
  6
CONTINUOUS
 10
-1.7970328346
 20
-24.9929349016
 11
-1.6829873723
 21
-24.9521579586
  0
LINE
  5
5D4
100
AcDbEntity
  8
RACCORDO
100
AcDbLine
 62
7
  6
CONTINUOUS
 10
-1.8501852773
 20
-25.01139161
 11
-1.7970328346
 21
-24.9929349016
  0
LWPOLYLINE
  5
5D5
100
AcDbEntity
  8
RACCORDO
100
AcDbPolyline
 62
7
  6
CONTINUOUS
 90
3
 70
0
 10
-1.9265566425
 20
-25.0373507864
 10
-1.9223621841
 20
-25.0359409972
 10
-1.8501852773
 20
-25.01139161
  0
LINE
  5
5D6
100
AcDbEntity
  8
RACCORDO
100
AcDbLine
 62
250
  6
CONTINUOUS
 10
-1.8238795814
 20
-25.0021544543
 11
-1.8110701182
 21
-24.9978519909
  0
LWPOLYLINE
  5
5D7
100
AcDbEntity
  8
RACCORDO
100
AcDbPolyline
 62
250
  6
CONTINUOUS
 90
3
 70
0
 10
3.6177969127
 20
23.1445108895
 10
3.7792682495
 20
23.1758523217
 10
3.9338007639
 20
23.213867843
  0
LINE
  5
5D8
100
AcDbEntity
  8
RACCORDO
100
AcDbLine
 62
250
  6
CONTINUOUS
 10
3.4529222446
 20
23.1203391691
 11
3.6177969127
 21
23.1445108895
  0
LINE
  5
5D9
100
AcDbEntity
  8
0
100
AcDbLine
 62
7
  6
CONTINUOUS
 10
-8.5925066931
 20
22.4198218134
 11
-4.8738331681
 21
22.7993357569
  0
LWPOLYLINE
  5
5DA
100
AcDbEntity
  8
RACCORDO
100
AcDbPolyline
 62
7
  6
CONTINUOUS
 90
13
 70
0
 10
10.7070129242
 20
22.2829113746
 10
10.5803102013
 20
22.2841659293
 10
10.4536284558
 20
22.2822411562
 10
10.327257186
 20
22.2771398212
 10
10.2014875954
 20
22.2688706091
 10
10.0765579961
 20
22.2574427336
 10
9.9527591215
 20
22.2428729014
 10
9.8303743691
 20
22.2251828798
 10
9.7096259329
 20
22.2043887044
 10
9.5907910118
 20
22.1805171044
 10
9.4741551884
 20
22.1536020526
 10
9.3599436154
 20
22.1236672853
 10
9.2484284372
 20
22.0907501814
  0
LWPOLYLINE
  5
5DB
100
AcDbEntity
  8
RACCORDO
100
AcDbPolyline
 62
250
  6
CONTINUOUS
 90
3
 70
0
 10
10.6398560751
 20
22.2572483073
 10
10.7273367432
 20
22.2555015598
 10
10.8112911666
 20
22.2524980144
  0
LINE
  5
5DC
100
AcDbEntity
  8
RACCORDO
100
AcDbLine
 62
7
  6
CONTINUOUS
 10
10.8334993103
 20
22.2784779959
 11
10.7070129242
 21
22.2829113746
  0
LWPOLYLINE
  5
5DD
100
AcDbEntity
  8
RACCORDO
100
AcDbPolyline
 62
250
  6
CONTINUOUS
 90
19
 70
0
 10
10.8112911666
 20
22.2524980144
 10
10.89159524
 20
22.2482792137
 10
10.9683730686
 20
22.2428036153
 10
11.0419117951
 20
22.2365024096
 10
11.1121783287
 20
22.2294163759
 10
11.1792057603
 20
22.2215047349
 10
11.2433805044
 20
22.2130763408
 10
11.3046882513
 20
22.2041657002
 10
11.3631433107
 20
22.1947383064
 10
11.4191750272
 20
22.1849994926
 10
11.4727796107
 20
22.1749779709
 10
11.5239608514
 20
22.1646450291
 10
11.5731594637
 20
22.1541198644
 10
11.6203786086
 20
22.1434253253
 10
11.6656151252
 20
22.1325385631
 10
11.7093002451
 20
22.1215102295
 10
11.7515777121
 20
22.1103572082
 10
11.7923037826
 20
22.0990626154
 10
11.8314784563
 20
22.087626451
  0
LWPOLYLINE
  5
5DE
100
AcDbEntity
  8
RACCORDO
100
AcDbPolyline
 62
7
  6
CONTINUOUS
 90
4
 70
0
 10
5.8390380919
 20
20.4133350114
 10
5.7700469973
 20
20.4178414634
 10
5.7006092922
 20
20.4114690216
 10
5.6319336592
 20
20.394843686
  0
LWPOLYLINE
  5
5DF
100
AcDbEntity
  8
RACCORDO
100
AcDbPolyline
 62
250
  6
CONTINUOUS
 90
3
 70
0
 10
-9.8278839022
 20
24.3370511037
 10
-9.8043853381
 20
24.3328159466
 10
-9.7802284419
 20
24.3229854658
  0
LWPOLYLINE
  5
5E0
100
AcDbEntity
  8
RACCORDO
100
AcDbPolyline
 62
250
  6
CONTINUOUS
 90
10
 70
0
 10
1.9516771101
 20
23.2287911362
 10
2.1054157184
 20
23.1884724898
 10
2.2661963829
 20
23.1547184838
 10
2.4305349345
 20
23.1280735762
 10
2.598432624
 20
23.1086542508
 10
2.7698882006
 20
23.0963440238
 10
2.9414137431
 20
23.0913379015
 10
3.1130043768
 20
23.0937456836
 10
3.2846649763
 20
23.1034575704
 10
3.4529222446
 20
23.1203391691
  0
LWPOLYLINE
  5
5E1
100
AcDbEntity
  8
RACCORDO
100
AcDbPolyline
 62
250
  6
CONTINUOUS
 90
7
 70
0
 10
-0.7042651604
 20
23.4859374835
 10
-0.7344168636
 20
23.4958502196
 10
-0.7668780972
 20
23.5007675784
 10
-0.8006258525
 20
23.5005132704
 10
-0.8353191265
 20
23.4950285326
 10
-0.8712989221
 20
23.4843721281
 10
-0.9085652394
 20
23.4685440569
  0
LWPOLYLINE
  5
5E2
100
AcDbEntity
  8
RACCORDO
100
AcDbPolyline
 62
250
  6
CONTINUOUS
 90
3
 70
0
 10
5.9068220442
 20
20.3953345284
 10
5.9438710804
 20
20.3827414415
 10
5.9596078781
 20
20.3754960379
  0
LWPOLYLINE
  5
5E3
100
AcDbEntity
  8
RACCORDO
100
AcDbPolyline
 62
250
  6
CONTINUOUS
 90
7
 70
0
 10
-0.7503976676
 20
23.7304958172
 10
-0.7916071578
 20
23.7466168711
 10
-0.8390290566
 20
23.7561055043
 10
-0.8892198854
 20
23.757405014
 10
-0.941557767
 20
23.750491705
 10
-0.9953670397
 20
23.7354380024
 10
-1.0499650564
 20
23.7124226662
  0
LWPOLYLINE
  5
5E4
100
AcDbEntity
  8
RACCORDO
100
AcDbPolyline
 62
7
  6
CONTINUOUS
 90
3
 70
0
 10
5.959833939
 20
20.375324501
 10
5.9054209372
 20
20.3977190588
 10
5.8390380919
 20
20.4133350114
  0
LWPOLYLINE
  5
5E5
100
AcDbEntity
  8
RACCORDO
100
AcDbPolyline
 62
250
  6
CONTINUOUS
 90
8
 70
0
 10
4.3522298812
 20
23.3674633177
 10
4.2789314213
 20
23.3999728512
 10
4.2063685918
 20
23.422604462
 10
4.1353363865
 20
23.4351102679
 10
4.0666128653
 20
23.4373533211
 10
4.0009511094
 20
23.4293090791
 10
3.9390708943
 20
23.4110659077
 10
3.9127764807
 20
23.3996436076
  0
LINE
  5
5E6
100
AcDbEntity
  8
RACCORDO
100
AcDbLine
 62
250
  6
CONTINUOUS
 10
-11.7362366509
 20
29.2225911308
 11
-11.7180624617
 21
29.2143312078
  0
LWPOLYLINE
  5
5E7
100
AcDbEntity
  8
RACCORDO
100
AcDbPolyline
 62
250
  6
CONTINUOUS
 90
4
 70
0
 10
1.5361977916
 20
23.3885904598
 10
1.6676488415
 20
23.3287593782
 10
1.8061419477
 20
23.275492937
 10
1.9516771101
 20
23.2287911362
  0
LWPOLYLINE
  5
5E8
100
AcDbEntity
  8
0
100
AcDbPolyline
 62
7
  6
CONTINUOUS
 90
5
 70
0
 10
-9.0788233268
 20
26.8295765438
 10
-9.0985590562
 20
26.8386750369
 10
-9.1304126177
 20
26.8502747994
 10
-9.1636942405
 20
26.8587859118
 10
-9.1984039247
 20
26.864208374
  0
LWPOLYLINE
  5
5E9
100
AcDbEntity
  8
RACCORDO
100
AcDbPolyline
 62
7
  6
CONTINUOUS
 90
4
 70
0
 10
-11.7163792516
 20
29.2134474228
 10
-11.7270008641
 20
29.2186217917
 10
-11.7765195539
 20
29.2379112005
 10
-11.8293964517
 20
29.2506925907
  0
LINE
  5
5EA
100
AcDbEntity
  8
RACCORDO
100
AcDbLine
 62
7
  6
CONTINUOUS
 10
-0.5331404768
 20
23.4492910404
 11
-0.4413159346
 21
23.4033883334
  0
LINE
  5
5EB
100
AcDbEntity
  8
RACCORDO
100
AcDbLine
 62
7
  6
CONTINUOUS
 10
-12.5997340211
 20
29.3167545226
 11
-12.252477349
 21
29.1431261865
  0
LINE
  5
5EC
100
AcDbEntity
  8
RACCORDO
100
AcDbLine
 62
7
  6
CONTINUOUS
 10
17.1628547639
 20
14.4354601301
 11
18.173846054
 21
13.929964485
  0
LINE
  5
5ED
100
AcDbEntity
  8
RACCORDO
100
AcDbLine
 62
250
  6
CONTINUOUS
 10
16.6277044732
 20
14.8735879014
 11
15.5207871567
 21
15.4270465596
  0
LINE
  5
5EE
100
AcDbEntity
  8
RACCORDO
100
AcDbLine
 62
250
  6
CONTINUOUS
 10
6.7583219131
 20
19.8082791815
 11
5.6514045966
 21
20.3617378397
  0
LINE
  5
5EF
100
AcDbEntity
  8
RACCORDO
100
AcDbLine
 62
250
  6
CONTINUOUS
 10
-1.0499650564
 20
23.7124226662
 11
-2.1568823729
 21
24.2658813245
  0
LINE
  5
5F0
100
AcDbEntity
  8
RACCORDO
100
AcDbLine
 62
250
  6
CONTINUOUS
 10
-10.9193476166
 20
28.6471139463
 11
-12.0262649331
 21
29.2005726046
  0
LINE
  5
5F1
100
AcDbEntity
  8
RACCORDO
100
AcDbLine
 62
7
  6
CONTINUOUS
 10
-0.4307180238
 20
23.4091061494
 11
5.6127372293
 21
20.3873785229
  0
LINE
  5
5F2
100
AcDbEntity
  8
RACCORDO
100
AcDbLine
 62
7
  6
CONTINUOUS
 10
16.9283235448
 20
14.8911382045
 11
15.826943397
 21
15.4418282784
  0
LINE
  5
5F3
100
AcDbEntity
  8
RACCORDO
100
AcDbLine
 62
7
  6
CONTINUOUS
 10
7.0609877056
 20
19.8248061241
 11
5.9595754706
 21
20.3755122416
  0
LINE
  5
5F4
100
AcDbEntity
  8
RACCORDO
100
AcDbLine
 62
7
  6
CONTINUOUS
 10
-0.7493492539
 20
23.7299746039
 11
-1.8507261327
 21
24.2806630433
  0
LINE
  5
5F5
100
AcDbEntity
  8
RACCORDO
100
AcDbLine
 62
7
  6
CONTINUOUS
 10
-10.6166818241
 20
28.663640889
 11
-11.7180846714
 21
29.2143423126
  0
LINE
  5
5F6
100
AcDbEntity
  8
RACCORDO
100
AcDbLine
 62
250
  6
CONTINUOUS
 10
1.5361977916
 20
23.3885904598
 11
-3.3743657763
 21
25.8438722438
  0
LINE
  5
5F7
100
AcDbEntity
  8
RACCORDO
100
AcDbLine
 62
7
  6
CONTINUOUS
 10
1.9772407975
 20
23.413939925
 11
-2.9337489662
 21
25.8694344686
  0
LINE
  5
5F8
100
AcDbEntity
  8
DRAFT
100
AcDbLine
 62
7
  6
CONTINUOUS
 10
9.5794779554
 20
20.0329576386
 11
3.489965958
 21
23.0777136372
  0
LWPOLYLINE
  5
5F9
100
AcDbEntity
  8
RACCORDO
100
AcDbPolyline
 62
7
  6
CONTINUOUS
 90
5
 70
0
 10
-2.9337523186
 20
25.8694277458
 10
-2.9515579138
 20
25.8785758062
 10
-2.991151327
 20
25.900879242
 10
-3.020482091
 20
25.9198001336
 10
-3.0397667557
 20
25.9340939075
  0
LWPOLYLINE
  5
5FA
100
AcDbEntity
  8
RACCORDO
100
AcDbPolyline
 62
250
  6
CONTINUOUS
 90
16
 70
0
 10
-3.3866531136
 20
27.2369048151
 10
-3.3121323601
 20
27.1955047419
 10
-3.2384958427
 20
27.1450366797
 10
-3.1665503176
 20
27.0860536216
 10
-3.0970838484
 20
27.019201682
 10
-3.0308576567
 20
26.94521347
 10
-2.9685977018
 20
26.8649002181
 10
-2.9109860444
 20
26.7791421038
 10
-2.8586536217
 20
26.6888786812
 10
-2.8121737148
 20
26.5950991843
 10
-2.7720553859
 20
26.4988313238
 10
-2.7387377589
 20
26.4011295259
 10
-2.7125854509
 20
26.3030636212
 10
-2.6938847608
 20
26.2057076944
 10
-2.6828404248
 20
26.1101283305
 10
-2.6795732567
 20
26.0173724586
  0
LWPOLYLINE
  5
5FB
100
AcDbEntity
  8
RACCORDO
100
AcDbPolyline
 62
250
  6
CONTINUOUS
 90
10
 70
0
 10
16.6277044732
 20
14.8735879014
 10
16.6526464577
 20
14.8588682797
 10
16.6767553682
 20
14.8392979489
 10
16.699298923
 20
14.8154716322
 10
16.7195925096
 20
14.788113186
 10
16.737019786
 20
14.7580538444
 10
16.7510514848
 20
14.7262070302
 10
16.7612617048
 20
14.6935401944
 10
16.7673407296
 20
14.661045361
 10
16.7691042903
 20
14.6297092921
  0
LWPOLYLINE
  5
5FC
100
AcDbEntity
  8
RACCORDO
100
AcDbPolyline
 62
250
  6
CONTINUOUS
 90
8
 70
0
 10
16.9977999432
 20
14.634218385
 10
17.0231488661
 20
14.6151742031
 10
17.0454984511
 20
14.5919069798
 10
17.0647527144
 20
14.5642976623
 10
17.0810076397
 20
14.5324653034
 10
17.093753206
 20
14.4973717576
 10
17.1028194064
 20
14.4593376431
 10
17.1083762477
 20
14.4180423417
  0
LINE
  5
5FD
100
AcDbEntity
  8
0
100
AcDbLine
 62
7
  6
CONTINUOUS
 10
9.575294737
 20
21.3061547553
 11
9.8187904034
 21
21.0812824246
  0
LINE
  5
5FE
100
AcDbEntity
  8
0
100
AcDbLine
 62
7
  6
CONTINUOUS
 10
11.5742134799
 20
20.8176894276
 11
11.3685422827
 21
21.0076302268
  0
LINE
  5
5FF
100
AcDbEntity
  8
RACCORDO
100
AcDbLine
 62
7
  6
CONTINUOUS
 10
17.9636644901
 20
11.7637055853
 11
17.9347089877
 21
11.8119604437
  0
LINE
  5
600
100
AcDbEntity
  8
RACCORDO
100
AcDbLine
 62
7
  6
CONTINUOUS
 10
18.0715563117
 20
11.565626057
 11
17.9636644901
 21
11.7637055853
  0
LINE
  5
601
100
AcDbEntity
  8
RACCORDO
100
AcDbLine
 62
7
  6
CONTINUOUS
 10
18.1251642073
 20
11.4663683746
 11
18.0715563117
 21
11.565626057
  0
LWPOLYLINE
  5
602
100
AcDbEntity
  8
RACCORDO
100
AcDbPolyline
 62
7
  6
CONTINUOUS
 90
10
 70
0
 10
18.1251642073
 20
11.4663683746
 10
18.132603417
 20
11.4516478774
 10
18.1392157322
 20
11.4368017241
 10
18.145001153
 20
11.4218299149
 10
18.1499870024
 20
11.4066316294
 10
18.1541459573
 20
11.391307688
 10
18.1573960486
 20
11.3761605512
 10
18.1597099531
 20
11.3612910392
 10
18.1611149941
 20
11.3465983318
 10
18.1616111714
 20
11.3320824291
  0
LINE
  5
603
100
AcDbEntity
  8
0
100
AcDbLine
 62
7
  6
CONTINUOUS
 10
-8.5051034882
 20
22.7929790573
 11
-4.0412275751
 21
23.2485455757
  0
LINE
  5
604
100
AcDbEntity
  8
RACCORDO
100
AcDbLine
 62
7
  6
CONTINUOUS
 10
-7.2904352329
 20
23.5555206719
 11
-9.2406809176
 21
23.3564858748
  0
LINE
  5
605
100
AcDbEntity
  8
RACCORDO
100
AcDbLine
 62
7
  6
CONTINUOUS
 10
-5.292270304
 20
24.0787344808
 11
-5.316238282
 21
24.0762883984
  0
LINE
  5
606
100
AcDbEntity
  8
RACCORDO
100
AcDbLine
 62
7
  6
CONTINUOUS
 10
-11.1036443647
 20
24.2069912095
 11
-9.7112908157
 21
24.349089617
  0
LINE
  5
607
100
AcDbEntity
  8
RACCORDO
100
AcDbLine
 62
7
  6
CONTINUOUS
 10
-11.5741332955
 20
24.5232120638
 11
-9.6238876108
 21
24.7222468609
  0
LWPOLYLINE
  5
608
100
AcDbEntity
  8
RACCORDO
100
AcDbPolyline
 62
7
  6
CONTINUOUS
 90
25
 70
0
 10
-9.2406809176
 20
23.3564858748
 10
-9.2498530223
 20
23.3557385687
 10
-9.2595053429
 20
23.3552988257
 10
-9.2696378795
 20
23.355166646
 10
-9.2802979984
 20
23.3553440916
 10
-9.2914383332
 20
23.3558291005
 10
-9.3029167851
 20
23.3566154861
 10
-9.3147376853
 20
23.3577071091
 10
-9.3268967026
 20
23.3591001088
 10
-9.3392387446
 20
23.360776717
 10
-9.3517661556
 20
23.3627405669
 10
-9.3644765912
 20
23.3649880252
 10
-9.3772079254
 20
23.367490425
 10
-9.3899604259
 20
23.370251032
 10
-9.4027338249
 20
23.3732665805
 10
-9.4153651934
 20
23.376498606
 10
-9.4278527118
 20
23.3799498816
 10
-9.4401981997
 20
23.3836176344
 10
-9.452244186
 20
23.3874550807
 10
-9.4639868341
 20
23.3914643943
 10
-9.4754299806
 20
23.3956434016
 10
-9.4864276642
 20
23.3999387978
 10
-9.4969312311
 20
23.4043328147
 10
-9.5069893351
 20
23.4088432205
 10
-9.5166019762
 20
23.4134700152
  0
LWPOLYLINE
  5
609
100
AcDbEntity
  8
RACCORDO
100
AcDbPolyline
 62
7
  6
CONTINUOUS
 90
25
 70
0
 10
-9.6238876108
 20
24.7222468609
 10
-9.6147155061
 20
24.722994167
 10
-9.6050631854
 20
24.72343391
 10
-9.5949306488
 20
24.7235660897
 10
-9.58427053
 20
24.723388644
 10
-9.5731301952
 20
24.7229036352
 10
-9.5616517433
 20
24.7221172496
 10
-9.5498308431
 20
24.7210256266
 10
-9.5376718257
 20
24.7196326269
 10
-9.5253297838
 20
24.7179560186
 10
-9.5128023728
 20
24.7159921688
 10
-9.5000919371
 20
24.7137447105
 10
-9.4873606029
 20
24.7112423107
 10
-9.4746081025
 20
24.7084817037
 10
-9.4618347034
 20
24.7054661552
 10
-9.449203335
 20
24.7022341297
 10
-9.4367158165
 20
24.698782854
 10
-9.4243703287
 20
24.6951151013
 10
-9.4123243424
 20
24.691277655
 10
-9.4005816943
 20
24.6872683413
 10
-9.3891385478
 20
24.6830893341
 10
-9.3781408642
 20
24.6787939379
 10
-9.3676372972
 20
24.674399921
 10
-9.3575791932
 20
24.6698895152
 10
-9.3479665522
 20
24.6652627205
  0
LINE
  5
60A
100
AcDbEntity
  8
0
100
AcDbLine
 62
7
  6
CONTINUOUS
 10
-5.1423988104
 20
24.373176761
 11
-3.9304022886
 21
24.4329580507
  0
LWPOLYLINE
  5
60B
100
AcDbEntity
  8
0
100
AcDbPolyline
 62
7
  6
CONTINUOUS
 90
7
 70
0
 10
-9.1984039247
 20
26.864208374
 10
-9.2123524673
 20
26.8654558539
 10
-9.226467293
 20
26.8662023713
 10
-9.2407484017
 20
26.8664479259
 10
-9.2551957935
 20
26.866192518
 10
-9.2698094683
 20
26.8654361475
 10
-9.2845894261
 20
26.8641788143
  0
LWPOLYLINE
  5
60C
100
AcDbEntity
  8
RACCORDO
100
AcDbPolyline
 62
7
  6
CONTINUOUS
 90
9
 70
0
 10
11.913076944
 20
22.0987415253
 10
11.9069602034
 20
22.100341023
 10
11.8971899897
 20
22.1018738369
 10
11.8868637942
 20
22.1022892812
 10
11.8760765971
 20
22.1015875087
 10
11.8651133381
 20
22.0997689774
 10
11.8540689974
 20
22.0968338399
 10
11.8428485949
 20
22.0927819435
 10
11.8314521307
 20
22.0876132882
  0
LINE
  5
60D
100
AcDbEntity
  8
0
100
AcDbLine
 62
7
  6
CONTINUOUS
 10
10.5200141452
 20
21.4318942955
 11
10.0702694839
 21
21.5536421287
  0
LWPOLYLINE
  5
60E
100
AcDbEntity
  8
RACCORDO
100
AcDbPolyline
 62
7
  6
CONTINUOUS
 90
10
 70
0
 10
11.9130668077
 20
22.0987175728
 10
11.8043514611
 20
22.1300034186
 10
11.6894964182
 20
22.1593570956
 10
11.5722349942
 20
22.1856841658
 10
11.4528618294
 20
22.2089462575
 10
11.3316414578
 20
22.2291168104
 10
11.2088120883
 20
22.2461760857
 10
11.0846632909
 20
22.2600999272
 10
10.9594798278
 20
22.2708705962
 10
10.8334993103
 20
22.2784779959
  0
LINE
  5
60F
100
AcDbEntity
  8
RACCORDO
100
AcDbLine
 62
250
  6
CONTINUOUS
 10
-11.7794020516
 20
29.2362736828
 11
-11.7362366509
 21
29.2225911308
  0
LWPOLYLINE
  5
610
100
AcDbEntity
  8
RACCORDO
100
AcDbPolyline
 62
7
  6
CONTINUOUS
 90
3
 70
0
 10
11.9251176257
 20
22.0939237447
 10
11.9162694154
 20
22.0976909922
 10
11.913076944
 20
22.0987415253
  0
LINE
  5
611
100
AcDbEntity
  8
0
100
AcDbLine
 62
7
  6
CONTINUOUS
 10
9.575294737
 20
21.3061547553
 11
8.8683257969
 21
21.6596392253
  0
LINE
  5
612
100
AcDbEntity
  8
0
100
AcDbLine
 62
7
  6
CONTINUOUS
 10
10.0702694839
 20
21.5536421287
 11
9.3633005437
 21
21.9071265988
  0
LINE
  5
613
100
AcDbEntity
  8
DRAFT
100
AcDbLine
 62
7
  6
CONTINUOUS
 10
9.1156617081
 20
22.1579871635
 11
8.6476935657
 21
22.3919712347
  0
LINE
  5
614
100
AcDbEntity
  8
DRAFT
100
AcDbLine
 62
7
  6
CONTINUOUS
 10
9.1156617081
 20
22.6170737781
 11
9.1036400345
 21
22.6230846148
  0
LINE
  5
615
100
AcDbEntity
  8
DRAFT
100
AcDbLine
 62
7
  6
CONTINUOUS
 10
4.7620796452
 20
25.2622035484
 11
6.2448740907
 21
24.5208063256
  0
LINE
  5
616
100
AcDbEntity
  8
RACCORDO
100
AcDbLine
 62
250
  6
CONTINUOUS
 10
3.2235941928
 20
26.3893246099
 11
3.7840288319
 21
26.1091072903
  0
LINE
  5
617
100
AcDbEntity
  8
RACCORDO
100
AcDbLine
 62
7
  6
CONTINUOUS
 10
3.4244101292
 20
26.5347876098
 11
4.3097698752
 21
26.0921077368
  0
LINE
  5
618
100
AcDbEntity
  8
RACCORDO
100
AcDbLine
 62
7
  6
CONTINUOUS
 10
12.1787971517
 20
21.9664665804
 11
11.9251176257
 21
22.0939237447
  0
LINE
  5
619
100
AcDbEntity
  8
RACCORDO
100
AcDbLine
 62
7
  6
CONTINUOUS
 10
12.7736457631
 20
21.6696596759
 11
13.0269095258
 21
21.5424126841
  0
LINE
  5
61A
100
AcDbEntity
  8
RACCORDO
100
AcDbLine
 62
7
  6
CONTINUOUS
 10
13.0269095258
 20
21.5424126841
 11
13.2135344317
 21
21.4477241578
  0
LINE
  5
61B
100
AcDbEntity
  8
RACCORDO
100
AcDbLine
 62
7
  6
CONTINUOUS
 10
12.5426114404
 20
21.7813586382
 11
12.1787971517
 21
21.9664665804
  0
LINE
  5
61C
100
AcDbEntity
  8
RACCORDO
100
AcDbLine
 62
7
  6
CONTINUOUS
 10
12.7357016959
 20
21.6823273309
 11
12.5426114404
 21
21.7813586382
  0
LWPOLYLINE
  5
61D
100
AcDbEntity
  8
RACCORDO
100
AcDbPolyline
 62
250
  6
CONTINUOUS
 90
13
 70
0
 10
3.2235941928
 20
26.3893246099
 10
3.1770739767
 20
26.4159167022
 10
3.1314024349
 20
26.4494881881
 10
3.0873609429
 20
26.4894647108
 10
3.0457029912
 20
26.5351623291
 10
3.0071412872
 20
26.5857992267
 10
2.9723355631
 20
26.6405090911
 10
2.9418813006
 20
26.6983559182
 10
2.9162995359
 20
26.7583500306
 10
2.8960279409
 20
26.8194650212
 10
2.8814133434
 20
26.8806552987
 10
2.8727057898
 20
26.9408739758
 10
2.8700542644
 20
26.9990907881
  0
LWPOLYLINE
  5
61E
100
AcDbEntity
  8
RACCORDO
100
AcDbPolyline
 62
7
  6
CONTINUOUS
 90
10
 70
0
 10
3.4255917976
 20
26.5341980801
 10
3.3777531121
 20
26.5616444381
 10
3.3256887575
 20
26.6008294183
 10
3.2790836992
 20
26.6468991064
 10
3.2390559732
 20
26.6988307948
 10
3.2062274064
 20
26.7559043684
 10
3.1820159079
 20
26.8149652337
 10
3.1661571267
 20
26.874527072
 10
3.1581189963
 20
26.9335299293
 10
3.1568027083
 20
26.9691786856
  0
LINE
  5
61F
100
AcDbEntity
  8
RACCORDO
100
AcDbLine
 62
7
  6
CONTINUOUS
 10
12.7434601245
 20
21.6777408588
 11
12.7357016959
 21
21.6823273309
  0
LWPOLYLINE
  5
620
100
AcDbEntity
  8
RACCORDO
100
AcDbPolyline
 62
250
  6
CONTINUOUS
 90
13
 70
0
 10
12.7736457631
 20
21.6696596759
 10
12.7981687535
 20
21.6491552975
 10
12.8225345151
 20
21.6278770331
 10
12.8466712653
 20
21.6058147559
 10
12.8704361503
 20
21.5830264355
 10
12.8938259661
 20
21.5594379722
 10
12.9169492719
 20
21.534836385
 10
12.9396968454
 20
21.5092096208
 10
12.9619548431
 20
21.482547232
 10
12.9837645272
 20
21.4546289037
 10
13.0049724461
 20
21.4254419431
 10
13.0254175554
 20
21.394977137
 10
13.0430066061
 20
21.3663518071
  0
LWPOLYLINE
  5
621
100
AcDbEntity
  8
RACCORDO
100
AcDbPolyline
 62
250
  6
CONTINUOUS
 90
15
 70
0
 10
12.680009164
 20
21.6633636675
 10
12.7028695934
 20
21.643784934
 10
12.7254471317
 20
21.6234318875
 10
12.7477417789
 20
21.6023045279
 10
12.7697872772
 20
21.5804746409
 10
12.7915498844
 20
21.5578704409
 10
12.8129283738
 20
21.5342765705
 10
12.8339680768
 20
21.5096948213
 10
12.8546236619
 20
21.4841234018
 10
12.8746579078
 20
21.4573415797
 10
12.8941282813
 20
21.4293474253
 10
12.9129773155
 20
21.4001428685
 10
12.9307953878
 20
21.3695129661
 10
12.9476514855
 20
21.3374506895
 10
12.9540527829
 20
21.3239048828
  0
LINE
  5
622
100
AcDbEntity
  8
RACCORDO
100
AcDbLine
 62
250
  6
CONTINUOUS
 10
28.8036285305
 20
15.8205887954
 11
28.8036285305
 21
-15.8178148206
  0
LWPOLYLINE
  5
623
100
AcDbEntity
  8
RACCORDO
100
AcDbPolyline
 62
250
  6
CONTINUOUS
 90
9
 70
0
 10
29.0842887299
 20
16.1679085484
 10
29.0832506842
 20
16.1451418185
 10
29.0731576142
 20
16.0935232056
 10
29.0523804442
 20
16.0426199029
 10
29.0211499615
 20
15.9930673063
 10
28.9800113951
 20
15.9456113751
 10
28.9296210492
 20
15.9007975628
 10
28.8705817295
 20
15.8589910802
 10
28.8036285305
 20
15.8205887954
  0
LINE
  5
624
100
AcDbEntity
  8
RACCORDO
100
AcDbLine
 62
7
  6
CONTINUOUS
 10
18.0715563176
 20
-22.4929287924
 11
18.1251642114
 21
-22.4472790057
  0
LINE
  5
625
100
AcDbEntity
  8
RACCORDO
100
AcDbLine
 62
7
  6
CONTINUOUS
 10
18.0177230771
 20
-22.5382079586
 11
18.0715563176
 21
-22.4929287924
  0
LINE
  5
626
100
AcDbEntity
  8
RACCORDO
100
AcDbLine
 62
7
  6
CONTINUOUS
 10
17.9636644901
 20
-22.5831165044
 11
18.0177230771
 21
-22.5382079586
  0
LWPOLYLINE
  5
627
100
AcDbEntity
  8
RACCORDO
100
AcDbPolyline
 62
7
  6
CONTINUOUS
 90
11
 70
0
 10
17.0435626004
 20
-23.2068224413
 10
17.136814685
 20
-23.1504270831
 10
17.231381337
 20
-23.0923893232
 10
17.3268705378
 20
-23.0329447826
 10
17.4229100945
 20
-22.9712283729
 10
17.5189160767
 20
-22.9079393439
 10
17.6140514274
 20
-22.8438912456
 10
17.7071071686
 20
-22.7783659933
 10
17.7969346255
 20
-22.7118991392
 10
17.8827482195
 20
-22.6463248227
 10
17.9636644901
 20
-22.5831165044
  0
LWPOLYLINE
  5
628
100
AcDbEntity
  8
RACCORDO
100
AcDbPolyline
 62
7
  6
CONTINUOUS
 90
6
 70
0
 10
28.551645664
 20
-16.3545543524
 10
28.640937472
 20
-16.3012324442
 10
28.7251144268
 20
-16.2381712284
 10
28.802831348
 20
-16.1659685657
 10
28.8726994775
 20
-16.0856347619
 10
28.9338013341
 20
-15.9980538061
  0
LINE
  5
629
100
AcDbEntity
  8
RACCORDO
100
AcDbLine
 62
7
  6
CONTINUOUS
 10
16.9522709394
 20
-23.2604195662
 11
17.0435626004
 21
-23.2068224413
  0
LINE
  5
62A
100
AcDbEntity
  8
RACCORDO
100
AcDbLine
 62
7
  6
CONTINUOUS
 10
16.8635181072
 20
-23.3106267519
 11
16.9522709394
 21
-23.2604195662
  0
LINE
  5
62B
100
AcDbEntity
  8
RACCORDO
100
AcDbLine
 62
7
  6
CONTINUOUS
 10
16.8291406178
 20
-23.3290200216
 11
16.8635181072
 21
-23.3106267519
  0
LINE
  5
62C
100
AcDbEntity
  8
RACCORDO
100
AcDbLine
 62
250
  6
CONTINUOUS
 10
18.1616111714
 20
-21.4436451529
 11
28.8036285305
 21
-15.8178148206
  0
LINE
  5
62D
100
AcDbEntity
  8
RACCORDO
100
AcDbLine
 62
7
  6
CONTINUOUS
 10
18.1616111714
 20
-21.8471756505
 11
28.551645664
 21
-16.3545543524
  0
LINE
  5
62E
100
AcDbEntity
  8
RACCORDO
100
AcDbLine
 62
250
  6
CONTINUOUS
 10
16.8635181072
 20
-23.3106267519
 11
14.0300538373
 21
-24.7679657596
  0
LINE
  5
62F
100
AcDbEntity
  8
RACCORDO
100
AcDbLine
 62
7
  6
CONTINUOUS
 10
14.0300538373
 20
-24.7688366359
 11
16.8292396215
 21
-23.3291417394
  0
LINE
  5
630
100
AcDbEntity
  8
RACCORDO
100
AcDbLine
 62
250
  6
CONTINUOUS
 10
14.0300538373
 20
-24.4558914517
 11
18.1616111714
 21
-22.3494400295
  0
LINE
  5
631
100
AcDbEntity
  8
RACCORDO
100
AcDbLine
 62
250
  6
CONTINUOUS
 10
14.0300538373
 20
-24.5350392102
 11
18.1251642073
 21
-22.4472790109
  0
LWPOLYLINE
  5
632
100
AcDbEntity
  8
RACCORDO
100
AcDbPolyline
 62
250
  6
CONTINUOUS
 90
10
 70
0
 10
6.1709605617
 20
-28.1120138009
 10
6.1375204058
 20
-28.1270383882
 10
6.0999160785
 20
-28.1389448692
 10
6.0592646518
 20
-28.1473795507
 10
6.0167737143
 20
-28.1520918718
 10
5.9737054991
 20
-28.1529418491
 10
5.9313393876
 20
-28.149904234
 10
5.8909339048
 20
-28.143069262
 10
5.853689334
 20
-28.1326399719
 10
5.8207120605
 20
-28.1189261754
  0
LINE
  5
633
100
AcDbEntity
  8
RACCORDO
100
AcDbLine
 62
7
  6
CONTINUOUS
 10
-11.3209438856
 20
25.5707749983
 11
-13.2711895703
 21
25.3717402012
  0
LINE
  5
634
100
AcDbEntity
  8
RACCORDO
100
AcDbLine
 62
7
  6
CONTINUOUS
 10
-15.1341530175
 20
26.2222455358
 11
-13.7417994685
 21
26.3643439434
  0
LINE
  5
635
100
AcDbEntity
  8
RACCORDO
100
AcDbLine
 62
7
  6
CONTINUOUS
 10
-9.2845894261
 20
26.8641788143
 11
-10.6195391409
 21
26.7279388278
  0
LINE
  5
636
100
AcDbEntity
  8
RACCORDO
100
AcDbLine
 62
7
  6
CONTINUOUS
 10
-15.6046419483
 20
26.5384663902
 11
-13.6543962636
 21
26.7375011872
  0
LINE
  5
637
100
AcDbEntity
  8
0
100
AcDbLine
 62
7
  6
CONTINUOUS
 10
-16.9903848625
 20
27.0356197444
 11
-12.345029101
 21
27.509707419
  0
LWPOLYLINE
  5
638
100
AcDbEntity
  8
RACCORDO
100
AcDbPolyline
 62
7
  6
CONTINUOUS
 90
25
 70
0
 10
-13.2711895703
 20
25.3717402012
 10
-13.280361675
 20
25.370992895
 10
-13.2900139957
 20
25.3705531521
 10
-13.3001465323
 20
25.3704209724
 10
-13.3108066511
 20
25.370598418
 10
-13.3219469859
 20
25.3710834269
 10
-13.3334254379
 20
25.3718698125
 10
-13.3452463381
 20
25.3729614355
 10
-13.3574053554
 20
25.3743544352
 10
-13.3697473973
 20
25.3760310434
 10
-13.3822748084
 20
25.3779948932
 10
-13.394985244
 20
25.3802423516
 10
-13.4077165782
 20
25.3827447514
 10
-13.4204690787
 20
25.3855053584
 10
-13.4332424777
 20
25.3885209069
 10
-13.4458738461
 20
25.3917529324
 10
-13.4583613646
 20
25.395204208
 10
-13.4707068525
 20
25.3988719607
 10
-13.4827528387
 20
25.402709407
 10
-13.4944954868
 20
25.4067187207
 10
-13.5059386334
 20
25.410897728
 10
-13.516936317
 20
25.4151931242
 10
-13.5274398839
 20
25.4195871411
 10
-13.5374979879
 20
25.4240975469
 10
-13.547110629
 20
25.4287243416
  0
LWPOLYLINE
  5
639
100
AcDbEntity
  8
RACCORDO
100
AcDbPolyline
 62
7
  6
CONTINUOUS
 90
25
 70
0
 10
-10.6195391409
 20
26.7279388278
 10
-10.6287112456
 20
26.7271915217
 10
-10.6383635662
 20
26.7267517788
 10
-10.6484961028
 20
26.726619599
 10
-10.6591562217
 20
26.7267970447
 10
-10.6702965565
 20
26.7272820535
 10
-10.6817750084
 20
26.7280684391
 10
-10.6935959086
 20
26.7291600621
 10
-10.705754926
 20
26.7305530618
 10
-10.7180969679
 20
26.7322296701
 10
-10.7306243789
 20
26.7341935199
 10
-10.7433348146
 20
26.7364409782
 10
-10.7560661488
 20
26.7389433781
 10
-10.7688186492
 20
26.7417039851
 10
-10.7815920483
 20
26.7447195335
 10
-10.7942234167
 20
26.747951559
 10
-10.8067109352
 20
26.7514028347
 10
-10.819056423
 20
26.7550705874
 10
-10.8311024093
 20
26.7589080337
 10
-10.8428450574
 20
26.7629173474
 10
-10.8542882039
 20
26.7670963546
 10
-10.8652858875
 20
26.7713917508
 10
-10.8757894544
 20
26.7757857677
 10
-10.8858475584
 20
26.7802961735
 10
-10.8954601995
 20
26.7849229682
  0
LWPOLYLINE
  5
63A
100
AcDbEntity
  8
RACCORDO
100
AcDbPolyline
 62
7
  6
CONTINUOUS
 90
25
 70
0
 10
-13.6543962636
 20
26.7375011872
 10
-13.6452241589
 20
26.7382484934
 10
-13.6355718382
 20
26.7386882363
 10
-13.6254393016
 20
26.7388204161
 10
-13.6147791828
 20
26.7386429704
 10
-13.603638848
 20
26.7381579616
 10
-13.592160396
 20
26.7373715759
 10
-13.5803394958
 20
26.736279953
 10
-13.5681804785
 20
26.7348869533
 10
-13.5558384366
 20
26.733210345
 10
-13.5433110255
 20
26.7312464952
 10
-13.5306005899
 20
26.7289990369
 10
-13.5178692557
 20
26.726496637
 10
-13.5051167552
 20
26.72373603
 10
-13.4923433562
 20
26.7207204816
 10
-13.4797119878
 20
26.7174884561
 10
-13.4672244693
 20
26.7140371804
 10
-13.4548789814
 20
26.7103694277
 10
-13.4428329952
 20
26.7065319814
 10
-13.4310903471
 20
26.7025226677
 10
-13.4196472005
 20
26.6983436604
 10
-13.4086495169
 20
26.6940482643
 10
-13.39814595
 20
26.6896542474
 10
-13.388087846
 20
26.6851438416
 10
-13.3784752049
 20
26.6805170469
  0
LINE
  5
63B
100
AcDbEntity
  8
0
100
AcDbLine
 62
7
  6
CONTINUOUS
 10
-10.7652876229
 20
27.1846211673
 11
-9.574742367
 21
27.2551280899
  0
LINE
  5
63C
100
AcDbEntity
  8
DRAFT
100
AcDbLine
 62
7
  6
CONTINUOUS
 10
-12.3268393726
 20
27.9653970422
 11
-10.8058849544
 21
28.0528102516
  0
LWPOLYLINE
  5
63D
100
AcDbEntity
  8
RACCORDO
100
AcDbPolyline
 62
7
  6
CONTINUOUS
 90
5
 70
0
 10
-11.8293964517
 20
29.2506925907
 10
-11.8851704608
 20
29.2564375046
 10
-11.9429900229
 20
29.2547515476
 10
-12.0017746656
 20
29.2454946751
 10
-12.0608946574
 20
29.2286487902
  0
LWPOLYLINE
  5
63E
100
AcDbEntity
  8
RACCORDO
100
AcDbPolyline
 62
7
  6
CONTINUOUS
 90
5
 70
0
 10
10.1426036818
 20
26.2021683811
 10
10.2420134161
 20
26.1819647486
 10
10.3387681311
 20
26.1518294659
 10
10.4310955146
 20
26.1124855886
 10
10.4406658662
 20
26.1077633964
  0
LWPOLYLINE
  5
63F
100
AcDbEntity
  8
RACCORDO
100
AcDbPolyline
 62
250
  6
CONTINUOUS
 90
8
 70
0
 10
9.9995718751
 20
26.0824394287
 10
9.9262765965
 20
26.1149477598
 10
9.8537166788
 20
26.1375790822
 10
9.7826870265
 20
26.1500854666
 10
9.7139657802
 20
26.1523299035
 10
9.6483057911
 20
26.1442878049
 10
9.5864263741
 20
26.1260472731
 10
9.5601187937
 20
26.114619872
  0
LWPOLYLINE
  5
640
100
AcDbEntity
  8
RACCORDO
100
AcDbPolyline
 62
250
  6
CONTINUOUS
 90
8
 70
0
 10
28.5311764726
 20
17.0625079003
 10
28.501334356
 20
17.0758043749
 10
28.4394747635
 20
17.094352985
 10
28.3737347179
 20
17.102787499
 10
28.3051486857
 20
17.1010455456
 10
28.2346047408
 20
17.0893074232
 10
28.162782464
 20
17.0678378985
 10
28.0904593226
 20
17.036995705
  0
LINE
  5
641
100
AcDbEntity
  8
RACCORDO
100
AcDbLine
 62
250
  6
CONTINUOUS
 10
-0.4254968028
 20
31.5408447358
 11
-0.4556635671
 21
31.5543033364
  0
LWPOLYLINE
  5
642
100
AcDbEntity
  8
RACCORDO
100
AcDbPolyline
 62
250
  6
CONTINUOUS
 90
7
 70
0
 10
10.4406148781
 20
26.1077888953
 10
10.4267107488
 20
26.1143879446
 10
10.3505113083
 20
26.1393848732
 10
10.2682692237
 20
26.1487126019
 10
10.18137611
 20
26.1422132964
 10
10.0913022819
 20
26.1199969313
 10
9.9995718751
 20
26.0824394287
  0
LINE
  5
643
100
AcDbEntity
  8
RACCORDO
100
AcDbLine
 62
250
  6
CONTINUOUS
 10
28.5315011202
 20
17.0623457743
 11
28.5311764726
 21
17.0625079003
  0
LINE
  5
644
100
AcDbEntity
  8
DRAFT
100
AcDbLine
 62
7
  6
CONTINUOUS
 10
12.7511520131
 20
24.4719613584
 11
16.0718081927
 21
22.8116332686
  0
LINE
  5
645
100
AcDbEntity
  8
RACCORDO
100
AcDbLine
 62
250
  6
CONTINUOUS
 10
-0.8665386005
 20
31.5154946665
 11
2.1629744077
 21
30.0007381624
  0
LINE
  5
646
100
AcDbEntity
  8
RACCORDO
100
AcDbLine
 62
250
  6
CONTINUOUS
 10
9.9995718751
 20
26.0824394287
 11
11.8311825263
 21
25.1666341031
  0
LINE
  5
647
100
AcDbEntity
  8
RACCORDO
100
AcDbLine
 62
250
  6
CONTINUOUS
 10
16.3119770113
 20
22.9262368606
 11
28.0904593226
 21
17.036995705
  0
LINE
  5
648
100
AcDbEntity
  8
RACCORDO
100
AcDbLine
 62
7
  6
CONTINUOUS
 10
-0.4254955974
 20
31.5408441331
 11
2.6040174108
 21
30.026087629
  0
LINE
  5
649
100
AcDbEntity
  8
RACCORDO
100
AcDbLine
 62
7
  6
CONTINUOUS
 10
10.4406148781
 20
26.1077888953
 11
12.3571740278
 21
25.1495093205
  0
LINE
  5
64A
100
AcDbEntity
  8
RACCORDO
100
AcDbLine
 62
7
  6
CONTINUOUS
 10
16.6680682813
 20
22.9940621938
 11
28.5315023256
 21
17.0623451716
  0
LWPOLYLINE
  5
64B
100
AcDbEntity
  8
RACCORDO
100
AcDbPolyline
 62
250
  6
CONTINUOUS
 90
16
 70
0
 10
2.1629744077
 20
30.0007381624
 10
2.2377313491
 20
29.9591915874
 10
2.3115989178
 20
29.9085185477
 10
2.383762438
 20
29.849276744
 10
2.4534355482
 20
29.7821084159
 10
2.5198388974
 20
29.7077614621
 10
2.58221381
 20
29.6270909355
 10
2.6398619878
 20
29.5410182081
 10
2.6921729298
 20
29.4504745264
 10
2.7385962265
 20
29.3564196567
 10
2.7786813138
 20
29.2597260708
 10
2.8119026391
 20
29.1616146344
 10
2.8377911519
 20
29.0636154005
 10
2.8561403514
 20
28.9669448419
 10
2.8668986487
 20
28.8724814127
 10
2.8700542644
 20
28.7812058059
  0
LWPOLYLINE
  5
64C
100
AcDbEntity
  8
RACCORDO
100
AcDbPolyline
 62
7
  6
CONTINUOUS
 90
12
 70
0
 10
28.5311764726
 20
17.0625079003
 10
28.6169408357
 20
17.0142522729
 10
28.7015699535
 20
16.9546605381
 10
28.7797416991
 20
16.8864895969
 10
28.8506987092
 20
16.8102697098
 10
28.9136048326
 20
16.726697721
 10
28.9676251085
 20
16.6366576071
 10
29.012066522
 20
16.5410511591
 10
29.0463249654
 20
16.4408397304
 10
29.0698633761
 20
16.3371591316
 10
29.0822789074
 20
16.231286791
 10
29.0842886506
 20
16.1681173544
  0
LWPOLYLINE
  5
64D
100
AcDbEntity
  8
RACCORDO
100
AcDbPolyline
 62
250
  6
CONTINUOUS
 90
16
 70
0
 10
28.8036285305
 20
15.8205887954
 10
28.8003221649
 20
15.9133312456
 10
28.789172307
 20
16.008862461
 10
28.7703010933
 20
16.1061359843
 10
28.7439152406
 20
16.204086273
 10
28.7103037819
 20
16.3016403711
 10
28.6698349
 20
16.3977296626
 10
28.6229518945
 20
16.4913015769
 10
28.5701683261
 20
16.5813311192
 10
28.5120623903
 20
16.6668320982
 10
28.4492705848
 20
16.7468679286
 10
28.3824807364
 20
16.8205618911
 10
28.3124244669
 20
16.8871067356
 10
28.2398691787
 20
16.945773524
 10
28.1656096488
 20
16.9959196154
 10
28.0904593226
 20
17.036995705
  0
LINE
  5
64E
100
AcDbEntity
  8
RACCORDO
100
AcDbLine
 62
7
  6
CONTINUOUS
 10
29.0842886506
 20
16.1681173544
 11
29.0842887301
 21
-15.4704856354
  0
LWPOLYLINE
  5
64F
100
AcDbEntity
  8
RACCORDO
100
AcDbPolyline
 62
250
  6
CONTINUOUS
 90
8
 70
0
 10
28.8036285305
 20
-15.8178148206
 10
28.8003221649
 20
-15.906096599
 10
28.789172307
 20
-15.989606657
 10
28.7703010933
 20
-16.0674302184
 10
28.7439152406
 20
-16.138714797
 10
28.7103037819
 20
-16.2026795353
 10
28.6698349
 20
-16.2586237582
 10
28.6229518945
 20
-16.3059346478
  0
LWPOLYLINE
  5
650
100
AcDbEntity
  8
RACCORDO
100
AcDbPolyline
 62
250
  6
CONTINUOUS
 90
9
 70
0
 10
29.0842887299
 20
-15.4704950676
 10
29.0832506842
 20
-15.4932617975
 10
29.0731576142
 20
-15.5448804104
 10
29.0523804442
 20
-15.5957837131
 10
29.0211499615
 20
-15.6453363097
 10
28.9800113951
 20
-15.6927922409
 10
28.9296210492
 20
-15.7376060532
 10
28.8705817295
 20
-15.7794125358
 10
28.8036285305
 20
-15.8178148206
  0
LWPOLYLINE
  5
651
100
AcDbEntity
  8
RACCORDO
100
AcDbPolyline
 62
7
  6
CONTINUOUS
 90
8
 70
0
 10
12.553377141
 20
-29.7579376067
 10
12.5035902407
 20
-29.8085750067
 10
12.4523025567
 20
-29.8560248156
 10
12.3997152856
 20
-29.8999079609
 10
12.3460179842
 20
-29.9399003606
 10
12.2915573998
 20
-29.9758186222
 10
12.2367467062
 20
-30.0075042263
 10
12.1861532792
 20
-30.0327857914
  0
LWPOLYLINE
  5
652
100
AcDbEntity
  8
RACCORDO
100
AcDbPolyline
 62
250
  6
CONTINUOUS
 90
3
 70
0
 10
28.6229518945
 20
-16.3059346478
 10
28.5701683261
 20
-16.3440939563
 10
28.551645664
 20
-16.3545543524
  0
LINE
  5
653
100
AcDbEntity
  8
DRAFT
100
AcDbLine
 62
7
  6
CONTINUOUS
 10
8.9939082056
 20
-28.5198134074
 11
8.8109068308
 21
-28.6158671126
  0
LINE
  5
654
100
AcDbEntity
  8
RACCORDO
100
AcDbLine
 62
7
  6
CONTINUOUS
 10
18.1860790732
 20
-25.664894945
 11
14.0300538373
 21
-27.8438652675
  0
LINE
  5
655
100
AcDbEntity
  8
RACCORDO
100
AcDbLine
 62
7
  6
CONTINUOUS
 10
18.1860790732
 20
-24.3762031699
 11
14.0300538373
 21
-26.4828387202
  0
LWPOLYLINE
  5
656
100
AcDbEntity
  8
RACCORDO
100
AcDbPolyline
 62
250
  6
CONTINUOUS
 90
4
 70
0
 10
-11.923355368
 20
29.2356083988
 10
-11.8734570094
 20
29.2428236335
 10
-11.8253036235
 20
29.2430437353
 10
-11.7794020516
 20
29.2362736828
  0
LWPOLYLINE
  5
657
100
AcDbEntity
  8
RACCORDO
100
AcDbPolyline
 62
7
  6
CONTINUOUS
 90
4
 70
0
 10
-0.7193729526
 20
31.6345910145
 10
-0.6205269036
 20
31.6140966151
 10
-0.5243324352
 20
31.5837715359
 10
-0.4254590011
 20
31.5408258325
  0
LWPOLYLINE
  5
658
100
AcDbEntity
  8
RACCORDO
100
AcDbPolyline
 62
250
  6
CONTINUOUS
 90
7
 70
0
 10
-0.4556635671
 20
31.5543033364
 10
-0.5175231595
 20
31.5728519465
 10
-0.5832632051
 20
31.5812864605
 10
-0.6518492373
 20
31.5795445071
 10
-0.7223931822
 20
31.5678063847
 10
-0.7942154591
 20
31.54633686
 10
-0.8665386005
 20
31.5154946665
  0
LWPOLYLINE
  5
659
100
AcDbEntity
  8
RACCORDO
100
AcDbPolyline
 62
7
  6
CONTINUOUS
 90
6
 70
0
 10
28.9855542995
 20
-15.9037527279
 10
29.0271668028
 20
-15.8036234785
 10
29.0577487664
 20
-15.6993425075
 10
29.076826801
 20
-15.5924207737
 10
29.0842036878
 20
-15.4835160168
 10
29.0842885592
 20
-15.4701933113
  0
LINE
  5
65A
100
AcDbEntity
  8
RACCORDO
100
AcDbLine
 62
7
  6
CONTINUOUS
 10
28.9338013341
 20
-15.9980538061
 11
28.9855542995
 21
-15.9037527279
  0
LWPOLYLINE
  5
65B
100
AcDbEntity
  8
RACCORDO
100
AcDbPolyline
 62
250
  6
CONTINUOUS
 90
7
 70
0
 10
12.484897169
 20
-31.1938531288
 10
12.4889519021
 20
-31.1918377389
 10
12.5107384587
 20
-31.1760515225
 10
12.5285456915
 20
-31.1539165991
 10
12.5418322581
 20
-31.1261049643
 10
12.5501942368
 20
-31.0934608956
 10
12.5533771522
 20
-31.0569757073
  0
LINE
  5
65C
100
AcDbEntity
  8
RACCORDO
100
AcDbLine
 62
250
  6
CONTINUOUS
 10
8.8109068308
 20
-31.4863344172
 11
12.553377141
 21
-29.7579376067
  0
LINE
  5
65D
100
AcDbEntity
  8
RACCORDO
100
AcDbLine
 62
7
  6
CONTINUOUS
 10
8.7420619158
 20
-31.623381334
 11
12.187876329
 21
-30.0319900477
  0
LINE
  5
65E
100
AcDbEntity
  8
RACCORDO
100
AcDbLine
 62
250
  6
CONTINUOUS
 10
14.0300538373
 20
-30.3749974787
 11
12.553377141
 21
-31.0569757124
  0
LINE
  5
65F
100
AcDbEntity
  8
RACCORDO
100
AcDbLine
 62
7
  6
CONTINUOUS
 10
13.9624055744
 20
-30.5114917419
 11
12.4845322618
 21
-31.1940226127
  0
LWPOLYLINE
  5
660
100
AcDbEntity
  8
RACCORDO
100
AcDbPolyline
 62
250
  6
CONTINUOUS
 90
9
 70
0
 10
8.8109068308
 20
-31.4863344172
 10
8.7867897293
 20
-31.4965862337
 10
8.7600891354
 20
-31.505284568
 10
8.7311946167
 20
-31.512254059
 10
8.7004769486
 20
-31.5173522259
 10
8.6684876504
 20
-31.5204368238
 10
8.6359699648
 20
-31.5214153234
 10
8.6035457642
 20
-31.5202762854
 10
8.5716933228
 20
-31.5170437837
  0
LINE
  5
661
100
AcDbEntity
  8
RACCORDO
100
AcDbLine
 62
250
  6
CONTINUOUS
 10
12.553377141
 20
-31.0569757124
 11
12.4693620468
 21
-31.091851713
  0
LWPOLYLINE
  5
662
100
AcDbEntity
  8
RACCORDO
100
AcDbPolyline
 62
7
  6
CONTINUOUS
 90
7
 70
0
 10
8.7420619158
 20
-31.623381334
 10
8.7041337015
 20
-31.6372973353
 10
8.6639640766
 20
-31.6449819414
 10
8.6227273662
 20
-31.6459952234
 10
8.5811310755
 20
-31.6400379731
 10
8.5410712194
 20
-31.6271789558
 10
8.5254552188
 20
-31.6200319276
  0
LWPOLYLINE
  5
663
100
AcDbEntity
  8
RACCORDO
100
AcDbPolyline
 62
250
  6
CONTINUOUS
 90
21
 70
0
 10
12.4693620468
 20
-31.091851713
 10
12.3775904755
 20
-31.1217245866
 10
12.2792709856
 20
-31.1461805673
 10
12.1756952715
 20
-31.164864538
 10
12.0682346462
 20
-31.1775238468
 10
11.9583234198
 20
-31.1840146076
 10
11.8474083491
 20
-31.1842402011
 10
11.7369644011
 20
-31.1781804536
 10
11.6284884996
 20
-31.165939857
 10
11.523437253
 20
-31.1476861447
 10
11.4231705996
 20
-31.123651172
 10
11.3289756264
 20
-31.0941559444
 10
11.2420846219
 20
-31.0595838532
 10
11.1636652043
 20
-31.0203877469
 10
11.0947663791
 20
-30.9770913415
 10
11.0363024698
 20
-30.9302795008
 10
10.9890375786
 20
-30.8805658173
 10
10.9535906685
 20
-30.8285898326
 10
10.9304324701
 20
-30.7750476969
 10
10.9198740225
 20
-30.7206532497
 10
10.9191838937
 20
-30.7028036637
  0
ELLIPSE
  5
664
100
AcDbEntity
  8
DRAFT
100
AcDbEllipse
 62
7
  6
CONTINUOUS
 10
3.140609407
 20
22.0104183452
 30
0.0
 11
2.7499350056
 21
-0.0386453369
 31
0.0
 40
0.4892375088
 41
1.371895591
 42
1.8877151927
  0
ELLIPSE
  5
665
100
AcDbEntity
  8
RACCORDO
100
AcDbEllipse
 62
7
  6
CONTINUOUS
 10
15.8974037799
 20
22.2613604557
 30
0.0
 11
0.8008611109
 21
0.7100037797
 31
0.0
 40
0.2918786833
 41
0.1163360857
 42
0.7926549024
  0
ELLIPSE
  5
666
100
AcDbEntity
  8
DRAFT
100
AcDbEllipse
 62
7
  6
CONTINUOUS
 10
11.0602053563
 20
21.1857153394
 30
0.0
 11
2.7499350056
 21
-0.0386453369
 31
0.0
 40
0.4892375088
 41
0.3758140555
 42
2.3630697256
  0
ELLIPSE
  5
667
100
AcDbEntity
  8
DRAFT
100
AcDbEllipse
 62
7
  6
CONTINUOUS
 10
10.3884539142
 20
21.3161060376
 30
0.0
 11
2.7499831596
 21
-0.0194567514
 31
0.0
 40
0.4946372042
 41
2.3771474383
 42
3.0013528246
  0
ELLIPSE
  5
668
100
AcDbEntity
  8
RACCORDO
100
AcDbEllipse
 62
7
  6
CONTINUOUS
 10
12.0563878267
 20
24.1818684323
 30
0.0
 11
0.4349639225
 21
0.9005141702
 31
0.0
 40
0.6016116119
 41
-0.8943064336
 42
-0.4458677124
  0
ELLIPSE
  5
669
100
AcDbEntity
  8
RACCORDO
100
AcDbEllipse
 62
7
  6
CONTINUOUS
 10
4.0673154588
 20
25.0953009562
 30
0.0
 11
0.4349639225
 21
0.9005141702
 31
0.0
 40
0.6016116119
 41
-0.8943064336
 42
-0.598709223
  0
ELLIPSE
  5
66A
100
AcDbEntity
  8
RACCORDO
100
AcDbEllipse
 62
7
  6
CONTINUOUS
 10
8.7844500759
 20
13.6489671133
 30
0.0
 11
0.4999881828
 21
-0.0070264249
 31
0.0
 40
0.4892375088
 41
-0.7610696355
 42
-0.1706535903
  0
ELLIPSE
  5
66B
100
AcDbEntity
  8
RACCORDO
100
AcDbEllipse
 62
7
  6
CONTINUOUS
 10
4.1862608785
 20
25.0358282464
 30
0.0
 11
-0.3067168502
 21
1.1100869106
 31
0.0
 40
0.6713087359
 41
5.1488574538
 42
6.4153299237
  0
ELLIPSE
  5
66C
100
AcDbEntity
  8
RACCORDO
100
AcDbEllipse
 62
7
  6
CONTINUOUS
 10
12.2334145728
 20
24.0933550592
 30
0.0
 11
-0.3067168502
 21
1.1100869106
 31
0.0
 40
0.6713087359
 41
5.3016989644
 42
6.4153299237
  0
ELLIPSE
  5
66D
100
AcDbEntity
  8
DRAFT
100
AcDbEllipse
 62
7
  6
CONTINUOUS
 10
3.140609407
 20
22.4702608438
 30
0.0
 11
2.7499831596
 21
-0.0194567514
 31
0.0
 40
0.4946372042
 41
1.0774160176
 42
2.1703232042
  0
ELLIPSE
  5
66E
100
AcDbEntity
  8
DRAFT
100
AcDbEllipse
 62
7
  6
CONTINUOUS
 10
11.0602053563
 20
21.6448019539
 30
0.0
 11
2.7499831596
 21
-0.0194567514
 31
0.0
 40
0.4946372042
 41
0.0760241424
 42
2.3596941457
  0
ELLIPSE
  5
66F
100
AcDbEntity
  8
DRAFT
100
AcDbEllipse
 62
7
  6
CONTINUOUS
 10
10.3773975712
 20
22.2388284916
 30
0.0
 11
3.1032968744
 21
-0.0219307296
 31
0.0
 40
0.494637248
 41
2.3720990455
 42
5.4888609838
  0
ELLIPSE
  5
670
100
AcDbEntity
  8
DRAFT
100
AcDbEllipse
 62
7
  6
CONTINUOUS
 10
8.6372422382
 20
4.0518586316
 30
0.0
 11
0.2499780047
 21
-0.0069328431
 31
0.0
 40
0.4783317971
 41
-2.3429293039
 42
-0.7895862696
  0
ELLIPSE
  5
671
100
AcDbEntity
  8
DRAFT
100
AcDbEllipse
 62
7
  6
CONTINUOUS
 10
-26.0441005939
 20
21.3925300477
 30
0.0
 11
0.2499780047
 21
-0.0069328431
 31
0.0
 40
0.4783317971
 41
-3.1285182774
 42
-2.3429293039
  0
ELLIPSE
  5
672
100
AcDbEntity
  8
RACCORDO
100
AcDbEllipse
 62
7
  6
CONTINUOUS
 10
-21.0070602424
 20
28.2797662359
 30
0.0
 11
-0.1118504554
 21
0.2236675568
 31
0.0
 40
0.6121897086
 41
-0.6846338794
 42
0.0199943986
  0
ELLIPSE
  5
673
100
AcDbEntity
  8
RACCORDO
100
AcDbEllipse
 62
7
  6
CONTINUOUS
 10
12.7926438983
 20
11.3799141656
 30
0.0
 11
-0.1118504554
 21
0.2236675568
 31
0.0
 40
0.6121897086
 41
-0.6846338794
 42
0.0199944337
  0
ELLIPSE
  5
674
100
AcDbEntity
  8
RACCORDO
100
AcDbEllipse
 62
7
  6
CONTINUOUS
 10
-2.1655711307
 20
23.6554617502
 30
0.0
 11
0.3159827528
 21
0.6246291545
 31
0.0
 40
0.6159267166
 41
0.0021288176
 42
0.6701527771
  0
ELLIPSE
  5
675
100
AcDbEntity
  8
0
100
AcDbEllipse
 62
7
  6
CONTINUOUS
 10
-3.2296368926
 20
24.0790763911
 30
0.0
 11
0.9980068092
 21
-0.2399287748
 31
0.0
 40
0.2630210944
 41
1.9259507046
 42
2.4104144461
  0
ELLIPSE
  5
676
100
AcDbEntity
  8
RACCORDO
100
AcDbEllipse
 62
7
  6
CONTINUOUS
 10
15.512098399
 20
14.8166269853
 30
0.0
 11
0.3159827528
 21
0.6246291545
 31
0.0
 40
0.6159267166
 41
0.0021288176
 42
0.6701527771
  0
ELLIPSE
  5
677
100
AcDbEntity
  8
0
100
AcDbEllipse
 62
7
  6
CONTINUOUS
 10
14.4480326371
 20
15.2402416263
 30
0.0
 11
0.9980068092
 21
-0.2399287748
 31
0.0
 40
0.2630210944
 41
1.9259507046
 42
2.4104144461
  0
ELLIPSE
  5
678
100
AcDbEntity
  8
RACCORDO
100
AcDbEllipse
 62
7
  6
CONTINUOUS
 10
17.4667392728
 20
-25.3176448984
 30
0.0
 11
0.999997666
 21
0.0042935901
 31
0.0
 40
0.5031994763
 41
-0.7701054048
 42
-0.0021790081
  0
ELLIPSE
  5
679
100
AcDbEntity
  8
RACCORDO
100
AcDbEllipse
 62
7
  6
CONTINUOUS
 10
17.4667392728
 20
12.2920428206
 30
0.0
 11
0.9999934239
 21
0.0071767279
 31
0.0
 40
0.5053247124
 41
-0.7715714568
 42
-0.0036449684
  0
ELLIPSE
  5
67A
100
AcDbEntity
  8
RACCORDO
100
AcDbEllipse
 62
7
  6
CONTINUOUS
 10
-19.9464539268
 20
27.7494630781
 30
0.0
 11
-0.1117903878
 21
0.2236141634
 31
0.0
 40
0.6125552124
 41
-2.255296188
 42
-0.6848044477
  0
ELLIPSE
  5
67B
100
AcDbEntity
  8
RACCORDO
100
AcDbEllipse
 62
7
  6
CONTINUOUS
 10
13.853250214
 20
-30.286529712
 30
0.0
 11
-0.1118504554
 21
0.2236675568
 31
0.0
 40
0.6121897086
 41
-3.1597634633
 42
-2.2557347926
  0
ELLIPSE
  5
67C
100
AcDbEntity
  8
RACCORDO
100
AcDbEllipse
 62
7
  6
CONTINUOUS
 10
13.853250214
 20
10.8496110077
 30
0.0
 11
-0.1117903878
 21
0.2236141634
 31
0.0
 40
0.6125552124
 41
-2.255296188
 42
-0.6848044477
  0
ELLIPSE
  5
67D
100
AcDbEntity
  8
RACCORDO
100
AcDbEllipse
 62
7
  6
CONTINUOUS
 10
-13.3068408023
 20
28.9677356718
 30
0.0
 11
0.9999977637
 21
-0.0042570351
 31
0.0
 40
0.4967868151
 41
0.7875130039
 42
2.3408560382
  0
ELLIPSE
  5
67E
100
AcDbEntity
  8
RACCORDO
100
AcDbEllipse
 62
7
  6
CONTINUOUS
 10
-73.6681513293
 20
-34.2684092149
 30
0.0
 11
84.1588312191
 21
58.907711616
 31
0.0
 40
0.1402573537
 41
0.748607667
 42
0.7908080167
  0
ELLIPSE
  5
67F
100
AcDbEntity
  8
RACCORDO
100
AcDbEllipse
 62
7
  6
CONTINUOUS
 10
6.7497336699
 20
19.1978093499
 30
0.0
 11
0.3101544263
 21
0.6275434805
 31
0.0
 40
0.6088015717
 41
5.394294278
 42
6.9476373123
  0
ELLIPSE
  5
680
100
AcDbEntity
  8
RACCORDO
100
AcDbEllipse
 62
7
  6
CONTINUOUS
 10
-10.9279358597
 20
28.0366441147
 30
0.0
 11
0.3101544263
 21
0.6275434805
 31
0.0
 40
0.6088015717
 41
5.394294278
 42
6.9476373123
  0
ELLIPSE
  5
681
100
AcDbEntity
  8
DRAFT
100
AcDbEllipse
 62
7
  6
CONTINUOUS
 10
8.6372422382
 20
-28.5258176874
 30
0.0
 11
0.2499707485
 21
0.0073394103
 31
0.0
 40
0.5210573591
 41
-2.3714921019
 42
-0.8181490676
  0
ELLIPSE
  5
682
100
AcDbEntity
  8
0
100
AcDbEllipse
 62
7
  6
CONTINUOUS
 10
-10.2881341666
 20
27.6083250282
 30
0.0
 11
0.9980068092
 21
-0.2399287748
 31
0.0
 40
0.2630210944
 41
-0.7133215392
 42
-0.2288577977
  0
ELLIPSE
  5
683
100
AcDbEntity
  8
0
100
AcDbEllipse
 62
7
  6
CONTINUOUS
 10
7.3895353631
 20
18.7694902633
 30
0.0
 11
0.9980068092
 21
-0.2399287748
 31
0.0
 40
0.2630210944
 41
-0.7133215392
 42
-0.2288577977
  0
ELLIPSE
  5
684
100
AcDbEntity
  8
RACCORDO
100
AcDbEllipse
 62
7
  6
CONTINUOUS
 10
-25.8704095473
 20
20.822041639
 30
0.0
 11
-0.1098985543
 21
0.2275784384
 31
0.0
 40
0.6085747011
 41
-0.6677344043
 42
0.1138351621
  0
ELLIPSE
  5
685
100
AcDbEntity
  8
RACCORDO
100
AcDbEllipse
 62
7
  6
CONTINUOUS
 10
14.1007860579
 20
14.4329832644
 30
0.0
 11
-0.0894803643
 21
0.1789340454
 31
0.0
 40
0.6121897086
 41
-0.6846338695
 42
0.0172950813
  0
ELLIPSE
  5
686
100
AcDbEntity
  8
RACCORDO
100
AcDbEllipse
 62
7
  6
CONTINUOUS
 10
16.96655577
 20
14.3930951788
 30
0.0
 11
0.1999995527
 21
-0.000851407
 31
0.0
 40
0.4967868151
 41
-0.7658300304
 42
0.0019149154
  0
ELLIPSE
  5
687
100
AcDbEntity
  8
RACCORDO
100
AcDbEllipse
 62
7
  6
CONTINUOUS
 10
-12.6278933559
 20
27.7973229712
 30
0.0
 11
-0.0894323102
 21
0.1788913307
 31
0.0
 40
0.6125552124
 41
-2.255296188
 42
-0.6848044578
  0
ELLIPSE
  5
688
100
AcDbEntity
  8
RACCORDO
100
AcDbEllipse
 62
7
  6
CONTINUOUS
 10
5.0497761738
 20
18.9584882064
 30
0.0
 11
-0.0894323102
 21
0.1788913307
 31
0.0
 40
0.6125552124
 41
-2.255296188
 42
-0.6848044578
  0
ELLIPSE
  5
689
100
AcDbEntity
  8
RACCORDO
100
AcDbEllipse
 62
7
  6
CONTINUOUS
 10
17.4667392728
 20
13.5809456343
 30
0.0
 11
0.9999977637
 21
-0.0042570351
 31
0.0
 40
0.4967868151
 41
-0.7658300304
 42
0.7875130039
  0
ELLIPSE
  5
68A
100
AcDbEntity
  8
RACCORDO
100
AcDbEllipse
 62
7
  6
CONTINUOUS
 10
-3.5768834718
 20
23.2718180292
 30
0.0
 11
-0.0894803643
 21
0.1789340454
 31
0.0
 40
0.6121897086
 41
-0.6846338695
 42
0.0172950813
  0
ELLIPSE
  5
68B
100
AcDbEntity
  8
RACCORDO
100
AcDbEllipse
 62
7
  6
CONTINUOUS
 10
8.8171045822
 20
3.4782845743
 30
0.0
 11
-0.1092649321
 21
0.2270579893
 31
0.0
 40
0.6121735965
 41
-2.2369946326
 42
-0.669228889
  0
ELLIPSE
  5
68C
100
AcDbEntity
  8
RACCORDO
100
AcDbEllipse
 62
7
  6
CONTINUOUS
 10
8.8171045822
 20
-27.7785525834
 30
0.0
 11
-0.1098985543
 21
0.2275784384
 31
0.0
 40
0.6085747011
 41
-3.2561085673
 42
-2.2415613143
  0
ELLIPSE
  5
68D
100
AcDbEntity
  8
RACCORDO
100
AcDbEllipse
 62
7
  6
CONTINUOUS
 10
11.8835040536
 20
9.2817698964
 30
0.0
 11
0.9642939016
 21
0.013943211
 31
0.0
 40
0.5106100819
 41
3.1344822607
 42
4.7364581619
  0
ELLIPSE
  5
68E
100
AcDbEntity
  8
RACCORDO
100
AcDbEllipse
 62
7
  6
CONTINUOUS
 10
7.9747070031
 20
10.3493693395
 30
0.0
 11
0.7364263107
 21
0.0106483588
 31
0.0
 40
0.5106100819
 41
3.1341717377
 42
5.4729508172
  0
ELLIPSE
  5
68F
100
AcDbEntity
  8
RACCORDO
100
AcDbEllipse
 62
7
  6
CONTINUOUS
 10
-2.0662092897
 20
15.3698274859
 30
0.0
 11
0.7364263107
 21
0.0106483588
 31
0.0
 40
0.5106100819
 41
3.1342164087
 42
5.4729508172
  0
ELLIPSE
  5
690
100
AcDbEntity
  8
RACCORDO
100
AcDbEllipse
 62
7
  6
CONTINUOUS
 10
-9.7029625266
 20
19.1882041043
 30
0.0
 11
0.7364263107
 21
0.0106483588
 31
0.0
 40
0.5106100819
 41
3.1342164087
 42
5.4729508172
  0
ELLIPSE
  5
691
100
AcDbEntity
  8
RACCORDO
100
AcDbEllipse
 62
7
  6
CONTINUOUS
 10
-19.7438788194
 20
24.2086622507
 30
0.0
 11
0.7364263107
 21
0.0106483588
 31
0.0
 40
0.5106100819
 41
3.1342164087
 42
5.4729508172
  0
ELLIPSE
  5
692
100
AcDbEntity
  8
RACCORDO
100
AcDbEllipse
 62
7
  6
CONTINUOUS
 10
-21.9162000871
 20
26.1816219667
 30
0.0
 11
0.9642939016
 21
0.013943211
 31
0.0
 40
0.5106100819
 41
3.134988822
 42
5.4729508172
  0
ELLIPSE
  5
693
100
AcDbEntity
  8
RACCORDO
100
AcDbEllipse
 62
7
  6
CONTINUOUS
 10
-10.9648749308
 20
4.7495014233
 30
0.0
 11
-0.1341584599
 21
0.2683313382
 31
0.0
 40
0.6124382339
 41
-2.2554365707
 42
-0.6847499022
  0
ELLIPSE
  5
694
100
AcDbEntity
  8
RACCORDO
100
AcDbEllipse
 62
7
  6
CONTINUOUS
 10
-10.9648749308
 20
9.6826718164
 30
0.0
 11
-0.1341844083
 21
0.2683544034
 31
0.0
 40
0.6123066439
 41
-3.1522512774
 42
-2.2555944786
  0
ELLIPSE
  5
695
100
AcDbEntity
  8
DRAFT
100
AcDbEllipse
 62
7
  6
CONTINUOUS
 10
-10.9982351552
 20
27.3044713968
 30
0.0
 11
0.3544622015
 21
0.7171925492
 31
0.0
 40
0.6088015717
 41
-0.0024962808
 42
0.3328394472
  0
ELLIPSE
  5
696
100
AcDbEntity
  8
DRAFT
100
AcDbEllipse
 62
7
  6
CONTINUOUS
 10
6.6794343745
 20
18.4656366319
 30
0.0
 11
0.3544622015
 21
0.7171925492
 31
0.0
 40
0.6088015717
 41
-0.0024962816
 42
0.3328394472
  0
ELLIPSE
  5
697
100
AcDbEntity
  8
RACCORDO
100
AcDbEllipse
 62
7
  6
CONTINUOUS
 10
17.4667392728
 20
-24.0287420848
 30
0.0
 11
0.9999938762
 21
-0.0070751823
 31
0.0
 40
0.4946372042
 41
-0.7644452153
 42
0.7888978189
  0
ENDSEC
  0
SECTION
  2
OBJECTS
  0
DICTIONARY
  5
C
100
AcDbDictionary
280
0
281
1
  3
ACAD_GROUP
350
D
  3
ACAD_MLINESTYLE
350
17
  3
ACAD_LAYOUT
350
1A
  3
ACAD_PLOTSETTINGS
350
19
  3
ACAD_PLOTSTYLENAME
350
E
  0
DICTIONARY
  5
D
102
{ACAD_REACTORS
330
C
102
}
100
AcDbDictionary
280
0
281
1
  0
ACDBDICTIONARYWDFLT
  5
E
102
{ACAD_REACTORS
330
C
102
}
100
AcDbDictionary
281
1
  3
Normal
350
F
100
AcDbDictionaryWithDefault
340
F
  0
DICTIONARY
  5
17
102
{ACAD_REACTORS
330
C
102
}
100
AcDbDictionary
280
0
281
1
  3
Standard
350
18
  0
DICTIONARY
  5
19
102
{ACAD_REACTORS
330
C
102
}
100
AcDbDictionary
281
1
  0
DICTIONARY
  5
1A
102
{ACAD_REACTORS
330
C
102
}
100
AcDbDictionary
281
1
  3
Model
350
698
  3
Layout1
350
699
  0
ACDBPLACEHOLDER
  5
F
102
{ACAD_REACTORS
330
E
102
}
  0
MLINESTYLE
  5
18
102
{ACAD_REACTORS
330
17
102
}
100
AcDbMlineStyle
  2
STANDARD
 70
0
  3

 62
256
 51
90.0
 52
90.0
 71
2
 49
0.5
 62
256
  6
BYLAYER
 49
-0.5
 62
256
  6
BYLAYER
  0
LAYOUT
  5
698
102
{ACAD_REACTORS
330
1A
102
}
100
AcDbPlotSettings
  1

  2
none_device
  4
ISO_A4_(297.00_x_210.00_MM)
  6

 40
0.0
 41
0.0
 42
0.0
 43
0.0
 44
297.0
 45
210.0
 46
0.0
 47
0.0
 48
0.0
 49
0.0
140
0.0
141
0.0
142
1.0
143
1.0
 70
1024
 72
1
 73
0
 74
0
  7

 75
0
147
1.0
148
0.0
149
0.0
100
AcDbLayout
  1
Model
 70
0
 71
0
 10
0.0
 20
0.0
 11
297.0
 21
210.0
 12
0.0
 22
0.0
 32
0.0
 14
0.0
 24
0.0
 34
0.0
 15
0.0
 25
0.0
 35
0.0
146
0.0
 13
0.0
 23
0.0
 33
0.0
 16
1.0
 26
0.0
 36
0.0
 17
0.0
 27
1.0
 37
0.0
 76
0
330
224
345
0
346
0
  0
LAYOUT
  5
699
102
{ACAD_REACTORS
330
1A
102
}
100
AcDbPlotSettings
  1

  2
none_device
  4
ISO_A4_(297.00_x_210.00_MM)
  6

 40
0.0
 41
0.0
 42
0.0
 43
0.0
 44
297.0
 45
210.0
 46
0.0
 47
0.0
 48
0.0
 49
0.0
140
0.0
141
0.0
142
1.0
143
1.0
 70
0
 72
1
 73
0
 74
0
  7

 75
0
147
1.0
148
0.0
149
0.0
100
AcDbLayout
  1
Layout1
 70
0
 71
1
 10
0.0
 20
0.0
 11
297.0
 21
210.0
 12
0.0
 22
0.0
 32
0.0
 14
0.0
 24
0.0
 34
0.0
 15
0.0
 25
0.0
 35
0.0
146
0.0
 13
0.0
 23
0.0
 33
0.0
 16
1.0
 26
0.0
 36
0.0
 17
0.0
 27
1.0
 37
0.0
 76
0
330
225
345
0
346
0
  0
ENDSEC
  0
EOF
