  0
SECTION
  2
HEADER
  9
$ACADVER
  1
AC1024
  9
$DWGCODEPAGE
  3
ANSI_1252
  9
$EXTMAX
 10
297.0
 20
210.0
 30
0.0
  9
$EXTMIN
 10
0.0
 20
0.0
 30
0.0
  9
$LIMMIN
 10
0.0
 20
0.0
  9
$LIMMAX
 10
297.0
 20
210.0
  9
$VIEWCTR
 10
148.5
 20
105.0
  9
$VIEWSIZE
 40
210.0
  9
$CLAYER
  8
0
  9
$LTSCALE
 40
16.335
  9
$CELTYPE
  6
BYLAYER
  9
$DIMSCALE
 40
1.0
  9
$DIMASZ
 40
3.0
  9
$DIMEXO
 40
0.5
  9
$DIMDLI
 40
11.286
  9
$DIMEXE
 40
1.5
  9
$DIMCEN
 40
2.673
  9
$DIMLFAC
 40
1.0
  9
$DIMBLK
  1
_FILLED
  9
$DIMALT
 70
0
  9
$DIMALTF
 40
0.0393700787
  9
$DIMTXT
 40
3.0
  9
$DIMTOL
 70
1
  9
$DIMLIM
 70
0
  9
$DIMTFAC
 40
1.0
  9
$DIMTP
 40
0.01
  9
$DIMTM
 40
0.01
  9
$DIMGAP
 40
0.625
  9
$DIMDSEP
 70
44
  9
$AUNITS
 70
0
  9
$PDMODE
 70
3
  9
$PDSIZE
 40
3.0
  9
$HANDSEED
  5
4FE
  9
$TILEMODE
 70
1
  9
$MEASUREMENT
 70
1
  9
$INSUNITS
 70
4
  0
ENDSEC
  0
SECTION
  2
CLASSES
  0
CLASS
  1
ACDBDICTIONARYWDFLT
  2
AcDbDictionaryWithDefault
  3
AutoCAD 2000
 90
0
 91
1
280
0
281
0
  0
CLASS
  1
ACDBPLACEHOLDER
  2
AcDbPlaceHolder
  3
AutoCAD 2000
 90
0
 91
1
280
0
281
0
  0
CLASS
  1
LAYOUT
  2
AcDbLayout
  3
AutoCAD 2000
 90
0
 91
0
280
0
281
0
  0
ENDSEC
  0
SECTION
  2
TABLES
  0
TABLE
  2
VPORT
  5
8
100
AcDbSymbolTable
 70
2
  0
VPORT
  5
1F4
100
AcDbSymbolTableRecord
100
AcDbViewportTableRecord
  2
*ACTIVE
 70
0
 10
0.0
 20
0.0
 11
1.0
 21
1.0
 12
148.5
 22
105.0
 13
0.0
 23
0.0
 14
1.0
 24
1.0
 15
0.0
 25
0.0
 16
0.0
 26
0.0
 36
1.0
 17
0.0
 27
0.0
 37
0.0
 40
210.0
 41
1.4142857143
 42
50.0
 43
0.0
 44
0.0
 50
0.0
 51
0.0
 71
0
 72
100
 73
1
 74
1
 75
0
 76
0
 77
0
 78
0
  0
ENDTAB
  0
TABLE
  2
LTYPE
  5
5
100
AcDbSymbolTable
 70
6
  0
LTYPE
  5
14
100
AcDbSymbolTableRecord
100
AcDbLinetypeTableRecord
  2
BYBLOCK
 70
0
  3

 72
65
 73
0
 40
0.0
  0
LTYPE
  5
15
100
AcDbSymbolTableRecord
100
AcDbLinetypeTableRecord
  2
BYLAYER
 70
0
  3

 72
65
 73
0
 40
0.0
  0
LTYPE
  5
16
100
AcDbSymbolTableRecord
100
AcDbLinetypeTableRecord
  2
CONTINUOUS
 70
64
  3
Solid line
 72
65
 73
0
 40
0.0
  0
LTYPE
  5
1F5
100
AcDbSymbolTableRecord
100
AcDbLinetypeTableRecord
  2
CENTER
 70
64
  3
____ _ ____ _ ____ _ ____ _ ____ _ ____ _ ____
 72
65
 73
4
 40
0.6
 49
0.375
 74
0
 49
-0.075
 74
0
 49
0.075
 74
0
 49
-0.075
 74
0
  0
LTYPE
  5
1F6
100
AcDbSymbolTableRecord
100
AcDbLinetypeTableRecord
  2
HIDDEN
 70
64
  3
- - - - - - - - - - - - - - - - - - - -
 72
65
 73
2
 40
0.2
 49
0.1
 74
0
 49
-0.1
 74
0
  0
LTYPE
  5
1F7
100
AcDbSymbolTableRecord
100
AcDbLinetypeTableRecord
  2
PHANTOM
 70
64
  3
_____ _ _ _____ _ _ _____ _ _ _____
 72
65
 73
6
 40
0.8
 49
0.45
 74
0
 49
-0.05
 74
0
 49
0.1
 74
0
 49
-0.05
 74
0
 49
0.1
 74
0
 49
-0.05
 74
0
  0
LTYPE
  5
1F8
100
AcDbSymbolTableRecord
100
AcDbLinetypeTableRecord
  2
DOT
 70
64
  3
. . . . . . . . . . . . . . . . . . . .
 72
65
 73
2
 40
0.2
 49
0.1
 74
0
 49
-0.1
 74
0
  0
LTYPE
  5
1F9
100
AcDbSymbolTableRecord
100
AcDbLinetypeTableRecord
  2
DASHED
 70
64
  3
- - - - - - - - - - - - - - - - - - - -
 72
65
 73
2
 40
0.2
 49
0.1
 74
0
 49
-0.1
 74
0
  0
ENDTAB
  0
TABLE
  2
LAYER
  5
2
100
AcDbSymbolTable
 70
36
  0
LAYER
  5
10
100
AcDbSymbolTableRecord
100
AcDbLayerTableRecord
  2
0
 70
0
 62
7
  6
CONTINUOUS
370
-3
390
F
  0
LAYER
  5
1FA
100
AcDbSymbolTableRecord
100
AcDbLayerTableRecord
  2
DEFAULT_1
 70
0
 62
7
  6
CENTER
370
-3
390
F
  0
LAYER
  5
1FB
100
AcDbSymbolTableRecord
100
AcDbLayerTableRecord
  2
DEFAULT_2
 70
0
 62
7
  6
HIDDEN
370
-3
390
F
  0
LAYER
  5
1FC
100
AcDbSymbolTableRecord
100
AcDbLayerTableRecord
  2
DEFAULT_3
 70
0
 62
7
  6
PHANTOM
370
-3
390
F
  0
LAYER
  5
1FD
100
AcDbSymbolTableRecord
100
AcDbLayerTableRecord
  2
217
 70
0
 62
7
  6
CONTINUOUS
370
-3
390
F
  0
LAYER
  5
1FE
100
AcDbSymbolTableRecord
100
AcDbLayerTableRecord
  2
255013570
 70
0
 62
7
  6
CONTINUOUS
370
-3
390
F
  0
LAYER
  5
1FF
100
AcDbSymbolTableRecord
100
AcDbLayerTableRecord
  2
261013570
 70
0
 62
7
  6
CONTINUOUS
370
-3
390
F
  0
LAYER
  5
200
100
AcDbSymbolTableRecord
100
AcDbLayerTableRecord
  2
280013570
 70
0
 62
7
  6
CONTINUOUS
370
-3
390
F
  0
LAYER
  5
201
100
AcDbSymbolTableRecord
100
AcDbLayerTableRecord
  2
ASSI
 70
0
 62
7
  6
CONTINUOUS
370
-3
390
F
  0
LAYER
  5
202
100
AcDbSymbolTableRecord
100
AcDbLayerTableRecord
  2
COLORE_TOP
 70
0
 62
7
  6
CONTINUOUS
370
-3
390
F
  0
LAYER
  5
203
100
AcDbSymbolTableRecord
100
AcDbLayerTableRecord
  2
COORDINATE
 70
0
 62
7
  6
CONTINUOUS
370
-3
390
F
  0
LAYER
  5
204
100
AcDbSymbolTableRecord
100
AcDbLayerTableRecord
  2
COORD_ORIGINE
 70
0
 62
7
  6
CONTINUOUS
370
-3
390
F
  0
LAYER
  5
205
100
AcDbSymbolTableRecord
100
AcDbLayerTableRecord
  2
COPY-PUBBLISH
 70
0
 62
7
  6
CONTINUOUS
370
-3
390
F
  0
LAYER
  5
206
100
AcDbSymbolTableRecord
100
AcDbLayerTableRecord
  2
COPY_PUBLISH
 70
0
 62
7
  6
CONTINUOUS
370
-3
390
F
  0
LAYER
  5
207
100
AcDbSymbolTableRecord
100
AcDbLayerTableRecord
  2
COSMETIC
 70
0
 62
7
  6
CONTINUOUS
370
-3
390
F
  0
LAYER
  5
208
100
AcDbSymbolTableRecord
100
AcDbLayerTableRecord
  2
COSMETICHE
 70
0
 62
7
  6
CONTINUOUS
370
-3
390
F
  0
LAYER
  5
209
100
AcDbSymbolTableRecord
100
AcDbLayerTableRecord
  2
COSMETICI
 70
0
 62
7
  6
CONTINUOUS
370
-3
390
F
  0
LAYER
  5
20A
100
AcDbSymbolTableRecord
100
AcDbLayerTableRecord
  2
CURVE
 70
0
 62
7
  6
CONTINUOUS
370
-3
390
F
  0
LAYER
  5
20B
100
AcDbSymbolTableRecord
100
AcDbLayerTableRecord
  2
DRAFT
 70
0
 62
7
  6
CONTINUOUS
370
-3
390
F
  0
LAYER
  5
20C
100
AcDbSymbolTableRecord
100
AcDbLayerTableRecord
  2
IMPORTED
 70
0
 62
7
  6
CONTINUOUS
370
-3
390
F
  0
LAYER
  5
20D
100
AcDbSymbolTableRecord
100
AcDbLayerTableRecord
  2
IMPORT_IGES
 70
0
 62
7
  6
CONTINUOUS
370
-3
390
F
  0
LAYER
  5
20E
100
AcDbSymbolTableRecord
100
AcDbLayerTableRecord
  2
INTF_1
 70
0
 62
7
  6
CONTINUOUS
370
-3
390
F
  0
LAYER
  5
20F
100
AcDbSymbolTableRecord
100
AcDbLayerTableRecord
  2
INTF_11
 70
0
 62
7
  6
CONTINUOUS
370
-3
390
F
  0
LAYER
  5
210
100
AcDbSymbolTableRecord
100
AcDbLayerTableRecord
  2
INTF_12
 70
0
 62
7
  6
CONTINUOUS
370
-3
390
F
  0
LAYER
  5
211
100
AcDbSymbolTableRecord
100
AcDbLayerTableRecord
  2
INTF_2
 70
0
 62
7
  6
CONTINUOUS
370
-3
390
F
  0
LAYER
  5
212
100
AcDbSymbolTableRecord
100
AcDbLayerTableRecord
  2
NOTE
 70
0
 62
7
  6
CONTINUOUS
370
-3
390
F
  0
LAYER
  5
213
100
AcDbSymbolTableRecord
100
AcDbLayerTableRecord
  2
PIANI
 70
0
 62
7
  6
CONTINUOUS
370
-3
390
F
  0
LAYER
  5
214
100
AcDbSymbolTableRecord
100
AcDbLayerTableRecord
  2
PIANI_DI_RIFERIMENTO
 70
0
 62
7
  6
CONTINUOUS
370
-3
390
F
  0
LAYER
  5
215
100
AcDbSymbolTableRecord
100
AcDbLayerTableRecord
  2
PIANI_ORIGINE
 70
0
 62
7
  6
CONTINUOUS
370
-3
390
F
  0
LAYER
  5
216
100
AcDbSymbolTableRecord
100
AcDbLayerTableRecord
  2
PIANI_RIFERIMENTO
 70
0
 62
7
  6
CONTINUOUS
370
-3
390
F
  0
LAYER
  5
217
100
AcDbSymbolTableRecord
100
AcDbLayerTableRecord
  2
PIANI_SFORMI
 70
0
 62
7
  6
CONTINUOUS
370
-3
390
F
  0
LAYER
  5
218
100
AcDbSymbolTableRecord
100
AcDbLayerTableRecord
  2
PUNTI
 70
0
 62
7
  6
CONTINUOUS
370
-3
390
F
  0
LAYER
  5
219
100
AcDbSymbolTableRecord
100
AcDbLayerTableRecord
  2
RACCORDO
 70
0
 62
7
  6
CONTINUOUS
370
-3
390
F
  0
LAYER
  5
21A
100
AcDbSymbolTableRecord
100
AcDbLayerTableRecord
  2
RGB__255__255__255__
 70
0
 62
7
  6
CONTINUOUS
370
-3
390
F
  0
LAYER
  5
21B
100
AcDbSymbolTableRecord
100
AcDbLayerTableRecord
  2
SMUSSO
 70
0
 62
7
  6
CONTINUOUS
370
-3
390
F
  0
LAYER
  5
21C
100
AcDbSymbolTableRecord
100
AcDbLayerTableRecord
  2
SNAPLINE
 70
0
 62
7
  6
CONTINUOUS
370
-3
390
F
  0
LAYER
  5
21D
100
AcDbSymbolTableRecord
100
AcDbLayerTableRecord
  2
SUP-SCAVI-INCLINATI
 70
0
 62
7
  6
CONTINUOUS
370
-3
390
F
  0
LAYER
  5
21E
100
AcDbSymbolTableRecord
100
AcDbLayerTableRecord
  2
SUP-SCAVI-INCLINATI-SUP
 70
0
 62
7
  6
CONTINUOUS
370
-3
390
F
  0
LAYER
  5
21F
100
AcDbSymbolTableRecord
100
AcDbLayerTableRecord
  2
SUPERFICI
 70
0
 62
7
  6
CONTINUOUS
370
-3
390
F
  0
LAYER
  5
220
100
AcDbSymbolTableRecord
100
AcDbLayerTableRecord
  2
SUP_COLORE
 70
0
 62
7
  6
CONTINUOUS
370
-3
390
F
  0
LAYER
  5
221
100
AcDbSymbolTableRecord
100
AcDbLayerTableRecord
  2
TRACCIABILITA
 70
0
 62
7
  6
CONTINUOUS
370
-3
390
F
  0
LAYER
  5
222
100
AcDbSymbolTableRecord
100
AcDbLayerTableRecord
  2
TRASH
 70
0
 62
7
  6
CONTINUOUS
370
-3
390
F
  0
LAYER
  5
223
100
AcDbSymbolTableRecord
100
AcDbLayerTableRecord
  2
XSEC_DATUMS
 70
0
 62
7
  6
CONTINUOUS
370
-3
390
F
  0
ENDTAB
  0
TABLE
  2
STYLE
  5
3
100
AcDbSymbolTable
 70
1
  0
STYLE
  5
11
100
AcDbSymbolTableRecord
100
AcDbTextStyleTableRecord
  2
STANDARD
 70
0
 40
0.0
 41
0.8
 50
0.0
 71
0
 42
0.2
  3
txt
  4

  0
STYLE
  5
224
100
AcDbSymbolTableRecord
100
AcDbTextStyleTableRecord
  2
TEXTSTYLE_1
 70
0
 40
0.0
 41
0.8
 50
0.0
 71
0
 42
0.2
  3
gdt
  4

  0
ENDTAB
  0
TABLE
  2
VIEW
  5
6
100
AcDbSymbolTable
 70
0
  0
ENDTAB
  0
TABLE
  2
UCS
  5
7
100
AcDbSymbolTable
 70
0
  0
ENDTAB
  0
TABLE
  2
APPID
  5
9
100
AcDbSymbolTable
 70
1
  0
APPID
  5
225
100
AcDbSymbolTableRecord
100
AcDbRegAppTableRecord
  2
ACAD
 70
0
  0
ENDTAB
  0
TABLE
  2
BLOCK_RECORD
  5
1
100
AcDbSymbolTable
 70
0
  0
BLOCK_RECORD
  5
226
100
AcDbSymbolTableRecord
100
AcDbBlockTableRecord
  2
*Model_Space
  0
BLOCK_RECORD
  5
227
100
AcDbSymbolTableRecord
100
AcDbBlockTableRecord
  2
*Paper_Space
  0
BLOCK_RECORD
  5
228
100
AcDbSymbolTableRecord
100
AcDbBlockTableRecord
  2
_FILLED
  0
ENDTAB
  0
TABLE
  2
DIMSTYLE
  5
A
100
AcDbSymbolTable
 70
1
100
AcDbDimStyleTable
 71
0
  0
DIMSTYLE
105
229
100
AcDbSymbolTableRecord
100
AcDbDimStyleTableRecord
  2
STANDARD
 70
0
  3

  4

 40
1.0
 41
3.0
 42
0.5
 43
0.38
 44
1.5
 45
0.0
 46
0.0
 47
0.01
 48
0.01
140
3.0
141
0.09
142
0.0
143
25.4
144
1.0
145
0.0
146
1.0
147
0.625
 71
1
 72
0
 73
0
 74
0
 75
0
 76
0
 77
1
 78
8
 79
2
170
0
171
1
172
0
173
0
174
0
175
0
176
0
177
0
178
0
270
2
179
2
271
2
272
2
273
2
274
2
275
0
280
0
281
0
282
0
283
1
284
8
285
0
286
0
287
3
288
0
340
11
278
44
341
228
342
228
343
228
344
228
  0
ENDTAB
  0
ENDSEC
  0
SECTION
  2
BLOCKS
  0
BLOCK
  5
20
100
AcDbEntity
  8
0
100
AcDbBlockBegin
  2
*Model_Space
 70
0
 10
0.0
 20
0.0
 30
0.0
  3
*Model_Space
  1

  0
ENDBLK
  5
21
100
AcDbEntity
  8
0
100
AcDbBlockEnd
  0
BLOCK
  5
1C
100
AcDbEntity
  8
0
100
AcDbBlockBegin
  2
*Paper_Space
 70
0
 10
0.0
 20
0.0
 30
0.0
  3
*Paper_Space
  1

  0
ENDBLK
  5
1D
100
AcDbEntity
  8
0
100
AcDbBlockEnd
  0
BLOCK
  5
22A
100
AcDbEntity
  8
0
100
AcDbBlockBegin
  2
_FILLED
 70
64
 10
0.0
 20
0.0
  3
_FILLED
  1

  0
SOLID
  5
22B
100
AcDbEntity
  8
0
  6
BYBLOCK
 62
0
100
AcDbTrace
 10
0.0
 20
0.0
 11
-1.0
 21
0.3166666667
 12
-1.0
 22
-0.3166666667
 13
-1.0
 23
-0.3166666667
  0
ENDBLK
  5
22C
100
AcDbEntity
  8
0
  6
BYBLOCK
 62
0
100
AcDbBlockEnd
  0
ENDSEC
  0
SECTION
  2
ENTITIES
  0
LWPOLYLINE
  5
22D
100
AcDbEntity
  8
217
100
AcDbPolyline
 62
250
  6
CONTINUOUS
 90
85
 70
0
 10
-21.4567329007
 20
28.3098496383
 10
-21.4750341191
 20
28.2996070474
 10
-21.4925514827
 20
28.2890610441
 10
-21.5092849914
 20
28.2782116284
 10
-21.5252565452
 20
28.2670425197
 10
-21.540444244
 20
28.2555699986
 10
-21.5547823887
 20
28.243842907
 10
-21.568266569
 20
28.231860626
 10
-21.580901195
 20
28.2196237746
 10
-21.5926337983
 20
28.2071830518
 10
-21.6034604944
 20
28.1945377046
 10
-21.6133851676
 20
28.181688486
 10
-21.622367003
 20
28.1686883536
 10
-21.6304020878
 20
28.1555367815
 10
-21.6374943347
 20
28.1422342956
 10
-21.6436146661
 20
28.128835431
 10
-21.6487591397
 20
28.1153396486
 10
-21.6529316979
 20
28.1017474876
 10
-21.6561150905
 20
28.0881151011
 10
-21.6583052021
 20
28.0744423988
 10
-21.6595061481
 20
28.0607294711
 10
-21.6597130248
 20
28.0470327424
 10
-21.6589217276
 20
28.0333522452
 10
-21.6571363611
 20
28.019687947
 10
-21.6543643351
 20
28.0060961747
 10
-21.6506016105
 20
27.9925773001
 10
-21.6458522263
 20
27.9791309513
 10
-21.6401357092
 20
27.9658123401
 10
-21.63344804
 20
27.9526219112
 10
-21.6257932378
 20
27.9395592198
 10
-21.6172028864
 20
27.9266781434
 10
-21.6076731647
 20
27.913979488
 10
-21.5972078938
 20
27.9014624475
 10
-21.5858501209
 20
27.8891784815
 10
-21.57359613
 20
27.8771285108
 10
-21.5604496371
 20
27.8653116146
 10
-21.5464648377
 20
27.8537764902
 10
-21.5316383148
 20
27.8425243312
 10
-21.5159734854
 20
27.8315539438
 10
-21.4995347958
 20
27.8209104443
 10
-21.4823190391
 20
27.8105951639
 10
-21.4643294222
 20
27.8006067713
 10
-21.445640012
 20
27.7909863879
 10
-21.4262479222
 20
27.7817355311
 10
-21.4061560392
 20
27.7728526836
 10
-21.3854470885
 20
27.7643744151
 10
-21.3641185618
 20
27.7563024024
 10
-21.3421729674
 20
27.7486349687
 10
-21.3197005571
 20
27.7414036528
 10
-21.296699102
 20
27.7346102343
 10
-21.273170831
 20
27.7282529335
 10
-21.2492126825
 20
27.7223579503
 10
-21.2248229577
 20
27.7169272056
 10
-21.2000033554
 20
27.7119587786
 10
-21.1748559101
 20
27.7074731064
 10
-21.1493791574
 20
27.7034721627
 10
-21.1235745617
 20
27.6999539739
 10
-21.0975485508
 20
27.6969330568
 10
-21.0713003682
 20
27.6944114752
 10
-21.0448307704
 20
27.6923871654
 10
-21.0182484548
 20
27.6908684528
 10
-20.9915528224
 20
27.6898574096
 10
-20.9647444722
 20
27.6893519636
 10
-20.9379338982
 20
27.6893542239
 10
-20.9111211522
 20
27.6898662853
 10
-20.8843061826
 20
27.6908860528
 10
-20.8575993278
 20
27.6924093507
 10
-20.8310008898
 20
27.6944382756
 10
-20.8045105667
 20
27.6969707309
 10
-20.7782377914
 20
27.6999962501
 10
-20.7521837249
 20
27.7035168321
 10
-20.7263472062
 20
27.707530478
 10
-20.7008341846
 20
27.7120207256
 10
-20.6756458285
 20
27.7169895495
 10
-20.6507809696
 20
27.7224349751
 10
-20.6263420516
 20
27.728334616
 10
-20.6023306513
 20
27.7346904374
 10
-20.5787451921
 20
27.7415004741
 10
-20.5556833879
 20
27.7487364435
 10
-20.5331462241
 20
27.7564007542
 10
-20.5111327153
 20
27.7644909978
 10
-20.4897376196
 20
27.7729716662
 10
-20.468992523
 20
27.7818309236
 10
-20.4488658394
 20
27.791080606
 10
-20.4293575688
 20
27.8007207133
  0
LWPOLYLINE
  5
22E
100
AcDbEntity
  8
217
100
AcDbPolyline
 62
7
  6
CONTINUOUS
 90
27
 70
0
 10
-21.5723551341
 20
28.3149381166
 10
-21.5880153517
 20
28.3062947021
 10
-21.6146309745
 20
28.2906620129
 10
-21.639932531
 20
28.2745866676
 10
-21.6639221808
 20
28.2581102159
 10
-21.6866418321
 20
28.2412485847
 10
-21.7081588508
 20
28.2239901837
 10
-21.7284901608
 20
28.2063551047
 10
-21.7476520975
 20
28.1883641007
 10
-21.7656944047
 20
28.1700004926
 10
-21.7826266154
 20
28.1512791417
 10
-21.7984529925
 20
28.1322217559
 10
-21.8131994467
 20
28.1128211841
 10
-21.8268687041
 20
28.0930932327
 10
-21.8394563364
 20
28.0730646317
 10
-21.8509674761
 20
28.0527496858
 10
-21.8614012317
 20
28.032171164
 10
-21.8707518324
 20
28.011362846
 10
-21.8790143503
 20
27.9903639174
 10
-21.8861900611
 20
27.9692070846
 10
-21.8922797853
 20
27.9479315491
 10
-21.8972829341
 20
27.9265943066
 10
-21.9012075975
 20
27.9052361338
 10
-21.9040654168
 20
27.8838972443
 10
-21.9058691556
 20
27.862638063
 10
-21.9066377964
 20
27.8415058888
 10
-21.9066707968
 20
27.8360419971
  0
LINE
  5
22F
100
AcDbEntity
  8
217
100
AcDbLine
 62
7
  6
CONTINUOUS
 10
-20.1512880247
 20
29.0816365906
 11
-21.5723536773
 21
28.3149390694
  0
LINE
  5
230
100
AcDbEntity
  8
217
100
AcDbLine
 62
250
  6
CONTINUOUS
 10
-20.0369052416
 20
29.0758792337
 11
-21.4567329007
 21
28.3098496383
  0
LINE
  5
231
100
AcDbEntity
  8
217
100
AcDbLine
 62
7
  6
CONTINUOUS
 10
-25.1925976962
 20
25.017346672
 11
-21.9066708205
 21
26.7901796061
  0
LINE
  5
232
100
AcDbEntity
  8
217
100
AcDbLine
 62
250
  6
CONTINUOUS
 10
-21.906073003
 20
26.7230326499
 11
-25.0769769198
 21
25.0122572409
  0
LWPOLYLINE
  5
233
100
AcDbEntity
  8
217
100
AcDbPolyline
 62
250
  6
CONTINUOUS
 90
15
 70
0
 10
-25.1925977256
 20
25.0173466561
 10
-25.1894640935
 20
25.0189624459
 10
-25.1820929816
 20
25.0222087955
 10
-25.174425281
 20
25.0248387495
 10
-25.166482001
 20
25.0268450981
 10
-25.1582849181
 20
25.028222337
 10
-25.1498564993
 20
25.0289666882
 10
-25.1412198464
 20
25.0290761086
 10
-25.1323986385
 20
25.028550296
 10
-25.1234170505
 20
25.0273906896
 10
-25.1142997049
 20
25.0256004665
 10
-25.105071612
 20
25.0231845383
 10
-25.0957580735
 20
25.0201495319
 10
-25.0863846117
 20
25.0165037676
 10
-25.0769769198
 20
25.0122572409
  0
LINE
  5
234
100
AcDbEntity
  8
217
100
AcDbLine
 62
250
  6
CONTINUOUS
 10
-20.4293575688
 20
27.8007207133
 11
-18.9761979533
 21
28.5455255895
  0
LINE
  5
235
100
AcDbEntity
  8
217
100
AcDbLine
 62
250
  6
CONTINUOUS
 10
-20.251045074
 20
27.4966336205
 11
-18.7994414506
 21
28.2406409859
  0
LWPOLYLINE
  5
236
100
AcDbEntity
  8
217
100
AcDbPolyline
 62
7
  6
CONTINUOUS
 90
34
 70
0
 10
-27.3414601793
 20
19.8663136367
 10
-27.3589686429
 20
19.8531083906
 10
-27.3868239158
 20
19.8308732639
 10
-27.4141078165
 20
19.8075806444
 10
-27.4407986578
 20
19.7832773024
 10
-27.4668838813
 20
19.7580023926
 10
-27.4923512659
 20
19.7317912597
 10
-27.5171830695
 20
19.7046847048
 10
-27.5413595116
 20
19.6767237798
 10
-27.5648601085
 20
19.6479498319
 10
-27.587665416
 20
19.6184041613
 10
-27.6097556345
 20
19.5881262515
 10
-27.6311085338
 20
19.5571606069
 10
-27.6517037999
 20
19.5255485164
 10
-27.6715212541
 20
19.4933303402
 10
-27.6905382005
 20
19.4605527938
 10
-27.7087333681
 20
19.4272587985
 10
-27.7260882284
 20
19.3934882568
 10
-27.7425825833
 20
19.3592838397
 10
-27.7581957474
 20
19.3246883681
 10
-27.7729094578
 20
19.2897422215
 10
-27.7867051371
 20
19.2544831895
 10
-27.7995633895
 20
19.2189524737
 10
-27.8114647652
 20
19.1831916642
 10
-27.8223905234
 20
19.1472370828
 10
-27.8323214807
 20
19.1111291588
 10
-27.8412370451
 20
19.0749090352
 10
-27.8491185089
 20
19.0386107882
 10
-27.8559452667
 20
19.0022757923
 10
-27.8616955115
 20
18.965944291
 10
-27.8663497481
 20
18.9296419918
 10
-27.8698848245
 20
18.8934013394
 10
-27.8722758527
 20
18.857270242
 10
-27.8731369367
 20
18.8361285869
  0
LINE
  5
237
100
AcDbEntity
  8
217
100
AcDbLine
 62
7
  6
CONTINUOUS
 10
-27.3414670409
 20
19.8663087526
 11
-25.0251737453
 21
21.5747075656
  0
LINE
  5
238
100
AcDbEntity
  8
217
100
AcDbLine
 62
250
  6
CONTINUOUS
 10
-27.2237710007
 20
19.8629821811
 11
-24.9007365117
 21
21.5763530099
  0
LWPOLYLINE
  5
239
100
AcDbEntity
  8
217
100
AcDbPolyline
 62
250
  6
CONTINUOUS
 90
16
 70
0
 10
-27.3414602635
 20
19.8663137507
 10
-27.3359976979
 20
19.8699561692
 10
-27.3298876446
 20
19.8732299015
 10
-27.32340404
 20
19.8759353997
 10
-27.3165645867
 20
19.8780652769
 10
-27.309387959
 20
19.8796137177
 10
-27.3018937516
 20
19.8805764942
 10
-27.2941024266
 20
19.8809509779
 10
-27.286035257
 20
19.8807361461
 10
-27.2777142692
 20
19.8799325855
 10
-27.2691621826
 20
19.8785424901
 10
-27.2604023474
 20
19.8765696552
 10
-27.2514586814
 20
19.8740194676
 10
-27.2423556038
 20
19.8708988902
 10
-27.2331179696
 20
19.8672164432
 10
-27.2237710007
 20
19.8629821811
  0
LWPOLYLINE
  5
23A
100
AcDbEntity
  8
217
100
AcDbPolyline
 62
7
  6
CONTINUOUS
 90
23
 70
0
 10
-19.2505069546
 20
25.550890206
 10
-19.2661973746
 20
25.5423409926
 10
-19.2917599755
 20
25.5273730419
 10
-19.3159267414
 20
25.5118935302
 10
-19.3387038379
 20
25.4959432441
 10
-19.3601276771
 20
25.4795424741
 10
-19.380250878
 20
25.4626901067
 10
-19.3990914609
 20
25.445407077
 10
-19.4166613702
 20
25.4277181034
 10
-19.4329897288
 20
25.4096254859
 10
-19.4480866229
 20
25.3911481519
 10
-19.461953651
 20
25.3723151867
 10
-19.4745958767
 20
25.3531503737
 10
-19.4860130762
 20
25.3336875016
 10
-19.4962084928
 20
25.3139588741
 10
-19.5051851867
 20
25.293997539
 10
-19.5129441105
 20
25.273843911
 10
-19.5194881602
 20
25.2535441665
 10
-19.5248218465
 20
25.2331509937
 10
-19.5289540017
 20
25.2127143224
 10
-19.5318969437
 20
25.1922852396
 10
-19.5336671786
 20
25.1719246146
 10
-19.5342880814
 20
25.1506421775
  0
LINE
  5
23B
100
AcDbEntity
  8
217
100
AcDbLine
 62
7
  6
CONTINUOUS
 10
-19.2505073632
 20
25.5508901762
 11
-16.9517615412
 21
26.7700757752
  0
LINE
  5
23C
100
AcDbEntity
  8
217
100
AcDbLine
 62
7
  6
CONTINUOUS
 10
-15.5087431839
 20
27.5354092816
 11
-12.7386597571
 21
29.0045781604
  0
LINE
  5
23D
100
AcDbEntity
  8
217
100
AcDbLine
 62
250
  6
CONTINUOUS
 10
-19.1592657582
 20
25.5461472758
 11
-16.9771568295
 21
26.703472177
  0
LINE
  5
23E
100
AcDbEntity
  8
217
100
AcDbLine
 62
250
  6
CONTINUOUS
 10
-15.3846875918
 20
27.5480699324
 11
-12.6476286083
 21
28.9997236405
  0
LINE
  5
23F
100
AcDbEntity
  8
217
100
AcDbLine
 62
7
  6
CONTINUOUS
 10
-18.7994414506
 20
27.1127596435
 11
-20.251045074
 21
26.3687522781
  0
LINE
  5
240
100
AcDbEntity
  8
217
100
AcDbLine
 62
250
  6
CONTINUOUS
 10
-11.6576468065
 20
28.5047327396
 11
-13.0615820273
 21
27.7851574175
  0
LINE
  5
241
100
AcDbEntity
  8
217
100
AcDbLine
 62
250
  6
CONTINUOUS
 10
-16.6457243814
 20
25.9481350602
 11
-18.2839369106
 21
25.108482852
  0
LINE
  5
242
100
AcDbEntity
  8
217
100
AcDbLine
 62
250
  6
CONTINUOUS
 10
-11.5162416043
 20
28.2608250567
 11
-12.2908268887
 21
27.8638178108
  0
LINE
  5
243
100
AcDbEntity
  8
217
100
AcDbLine
 62
250
  6
CONTINUOUS
 10
-16.3332594742
 20
25.7919026066
 11
-18.1412794087
 21
24.8652170249
  0
LINE
  5
244
100
AcDbEntity
  8
217
100
AcDbLine
 62
7
  6
CONTINUOUS
 10
-14.4108002572
 20
29.3240012429
 11
-18.7994414506
 21
27.1127596435
  0
LINE
  5
245
100
AcDbEntity
  8
0
100
AcDbLine
 62
7
  6
CONTINUOUS
 10
-16.5366997508
 20
27.2546228955
 11
-16.1731316182
 21
27.4364069618
  0
LINE
  5
246
100
AcDbEntity
  8
217
100
AcDbLine
 62
7
  6
CONTINUOUS
 10
-12.7386572208
 20
29.004579504
 11
-12.7354267334
 21
29.0061944258
  0
LWPOLYLINE
  5
247
100
AcDbEntity
  8
217
100
AcDbPolyline
 62
250
  6
CONTINUOUS
 90
82
 70
0
 10
-18.2839369106
 20
25.108482852
 10
-18.3013210557
 20
25.099905732
 10
-18.3192718309
 20
25.0916923905
 10
-18.3377892362
 20
25.0838428277
 10
-18.3569029742
 20
25.0763461759
 10
-18.3765833422
 20
25.0692133027
 10
-18.3967412327
 20
25.0624768109
 10
-18.41737848
 20
25.0561386752
 10
-18.4384932499
 20
25.0501969208
 10
-18.4599909319
 20
25.0446782267
 10
-18.4818730049
 20
25.0395845745
 10
-18.5041379901
 20
25.0349139825
 10
-18.5266868412
 20
25.0306871845
 10
-18.5495207539
 20
25.0269061509
 10
-18.5726385325
 20
25.0235689113
 10
-18.5959375433
 20
25.0206902883
 10
-18.6194187935
 20
25.0182723067
 10
-18.6430812759
 20
25.0163129416
 10
-18.6668193356
 20
25.0148209413
 10
-18.6906331846
 20
25.013798406
 10
-18.7145226109
 20
25.0132432355
 10
-18.7383813233
 20
25.0131578769
 10
-18.7622092177
 20
25.0135444249
 10
-18.7860063982
 20
25.0144007848
 10
-18.8096668872
 20
25.0157231202
 10
-18.8331899912
 20
25.0175134968
 10
-18.8565764036
 20
25.019769849
 10
-18.8797222264
 20
25.0224821436
 10
-18.9026265158
 20
25.0256524294
 10
-18.9252902157
 20
25.0292786575
 10
-18.9476122592
 20
25.0333446484
 10
-18.969591001
 20
25.0378523391
 10
-18.9912280864
 20
25.0427997925
 10
-19.0124273852
 20
25.0481650181
 10
-19.0331870503
 20
25.0539499046
 10
-19.0535089286
 20
25.0601525632
 10
-19.0733024314
 20
25.066745337
 10
-19.0925650996
 20
25.0737299262
 10
-19.1112993922
 20
25.0811046305
 10
-19.1294220965
 20
25.0888366926
 10
-19.146930593
 20
25.0969277516
 10
-19.1638275011
 20
25.1053761684
 10
-19.1800374667
 20
25.1141442683
 10
-19.1955573377
 20
25.1232334253
 10
-19.2103902661
 20
25.1326422653
 10
-19.2244703529
 20
25.1423289909
 10
-19.2377943161
 20
25.152294891
 10
-19.2503654376
 20
25.1625386766
 10
-19.2621276641
 20
25.1730146834
 10
-19.2730773353
 20
25.1837238935
 10
-19.2832181113
 20
25.1946653249
 10
-19.2925049195
 20
25.2057903667
 10
-19.3009340014
 20
25.2170998997
 10
-19.3085091154
 20
25.2285930432
 10
-19.3151964634
 20
25.2402185438
 10
-19.3209920531
 20
25.2519769254
 10
-19.3258998767
 20
25.263867664
 10
-19.3298981135
 20
25.2758379346
 10
-19.3329827333
 20
25.2878881349
 10
-19.3351577662
 20
25.3000178671
 10
-19.3364134813
 20
25.3121731119
 10
-19.3367457789
 20
25.3243539662
 10
-19.3361587587
 20
25.3365603331
 10
-19.3346549879
 20
25.3487379031
 10
-19.3322303492
 20
25.360886612
 10
-19.3288889599
 20
25.373006524
 10
-19.3246457395
 20
25.385043522
 10
-19.3194967033
 20
25.3969971329
 10
-19.3134458359
 20
25.4088678297
 10
-19.3065200116
 20
25.4206029141
 10
-19.2987153449
 20
25.4322018187
 10
-19.2900357213
 20
25.4436651109
 10
-19.2805196706
 20
25.4549417937
 10
-19.2701632831
 20
25.4660311533
 10
-19.2589704685
 20
25.4769339036
 10
-19.2469914861
 20
25.4876011893
 10
-19.2342224531
 20
25.4980321016
 10
-19.2206672523
 20
25.5082275493
 10
-19.2063877916
 20
25.5181414035
 10
-19.191404707
 20
25.5277582878
 10
-19.1756973625
 20
25.5370935786
 10
-19.1592657582
 20
25.5461472758
  0
LWPOLYLINE
  5
248
100
AcDbEntity
  8
0
100
AcDbPolyline
 62
7
  6
CONTINUOUS
 90
10
 70
0
 10
-16.1731316182
 20
27.4364069618
 10
-16.1558223169
 20
27.4446885781
 10
-16.1385760003
 20
27.4522047615
 10
-16.1213926685
 20
27.4589555121
 10
-16.1042515566
 20
27.4649471844
 10
-16.0871734294
 20
27.4701734238
 10
-16.0702205816
 20
27.474615167
 10
-16.0534137782
 20
27.4782660595
 10
-16.0367322542
 20
27.4811324558
 10
-16.0201760096
 20
27.4832143559
  0
LINE
  5
249
100
AcDbEntity
  8
217
100
AcDbLine
 62
7
  6
CONTINUOUS
 10
-10.0214447919
 20
29.1494727766
 11
-11.3676964071
 21
28.5051271377
  0
LINE
  5
24A
100
AcDbEntity
  8
217
100
AcDbLine
 62
7
  6
CONTINUOUS
 10
-11.227350336
 20
29.715224958
 11
-12.735420808
 21
29.0061972117
  0
LINE
  5
24B
100
AcDbEntity
  8
217
100
AcDbLine
 62
250
  6
CONTINUOUS
 10
-11.1397935845
 20
29.7086406895
 11
-12.6476286083
 21
28.9997236405
  0
LWPOLYLINE
  5
24C
100
AcDbEntity
  8
217
100
AcDbPolyline
 62
250
  6
CONTINUOUS
 90
13
 70
0
 10
-19.2505070319
 20
25.5508903518
 10
-19.2439548648
 20
25.5539660666
 10
-19.2372403716
 20
25.5563635197
 10
-19.2302537385
 20
25.5581447175
 10
-19.2230186012
 20
25.5593036342
 10
-19.2155594365
 20
25.5598363492
 10
-19.2079014789
 20
25.5597410603
 10
-19.2000706356
 20
25.5590180898
 10
-19.1920933984
 20
25.5576698835
 10
-19.1839967547
 20
25.5557010026
 10
-19.1758080955
 20
25.5531181077
 10
-19.1675551233
 20
25.5499299369
 10
-19.1592657582
 20
25.5461472758
  0
LINE
  5
24D
100
AcDbEntity
  8
217
100
AcDbLine
 62
7
  6
CONTINUOUS
 10
-12.7354267334
 20
29.0061944258
 11
-12.7296561458
 21
29.0086196424
  0
LINE
  5
24E
100
AcDbEntity
  8
217
100
AcDbLine
 62
7
  6
CONTINUOUS
 10
-14.4108002572
 20
29.3240012429
 11
-13.0312903199
 21
29.8841472998
  0
LWPOLYLINE
  5
24F
100
AcDbEntity
  8
217
100
AcDbPolyline
 62
7
  6
CONTINUOUS
 90
14
 70
0
 10
-12.7296561458
 20
29.0086196424
 10
-12.7240823992
 20
29.01045369
 10
-12.7183353879
 20
29.0118710419
 10
-12.7124281958
 20
29.0128684539
 10
-12.706374194
 20
29.0134436745
 10
-12.7001870505
 20
29.013595423
 10
-12.6938808041
 20
29.0133233449
 10
-12.6874698132
 20
29.0126280288
 10
-12.6809685134
 20
29.0115110942
 10
-12.6743916115
 20
29.0099750823
 10
-12.667754159
 20
29.0080234077
 10
-12.6610711788
 20
29.0056605021
 10
-12.6543576312
 20
29.0028918034
 10
-12.6476286083
 20
28.9997236405
  0
LWPOLYLINE
  5
250
100
AcDbEntity
  8
217
100
AcDbPolyline
 62
250
  6
CONTINUOUS
 90
16
 70
0
 10
-27.8731287034
 20
-10.2005632229
 10
-27.8727009896
 20
-10.2063198608
 10
-27.8715794746
 20
-10.2130553574
 10
-27.8697923544
 20
-10.2197358044
 10
-27.8673444193
 20
-10.2263432953
 10
-27.8642422307
 20
-10.2328601192
 10
-27.8604941038
 20
-10.2392688085
 10
-27.8561100852
 20
-10.245552185
 10
-27.8511019259
 20
-10.2516934067
 10
-27.8454830499
 20
-10.2576760125
 10
-27.839268518
 20
-10.2634839666
 10
-27.8324749879
 20
-10.2691017012
 10
-27.825120669
 20
-10.2745141584
 10
-27.8172252741
 20
-10.2797068306
 10
-27.808809966
 20
-10.2846657992
 10
-27.7998973014
 20
-10.2893777721
  0
LWPOLYLINE
  5
251
100
AcDbEntity
  8
217
100
AcDbPolyline
 62
7
  6
CONTINUOUS
 90
27
 70
0
 10
-27.8731285939
 20
-10.2005626842
 10
-27.8722164175
 20
-10.221885549
 10
-27.8698007777
 20
-10.2559543241
 10
-27.8662523708
 20
-10.2892361091
 10
-27.8615964101
 20
-10.3217029906
 10
-27.8558568429
 20
-10.3533465813
 10
-27.8490523113
 20
-10.3841702627
 10
-27.8412036802
 20
-10.4141604279
 10
-27.8323328235
 20
-10.4432994019
 10
-27.8224564874
 20
-10.4715809543
 10
-27.8115946404
 20
-10.4989899107
 10
-27.7997692072
 20
-10.5255073171
 10
-27.7870003358
 20
-10.5511170778
 10
-27.7733117571
 20
-10.5757992284
 10
-27.7587282123
 20
-10.599534646
 10
-27.7432751218
 20
-10.6223033406
 10
-27.7269796249
 20
-10.6440859585
 10
-27.7098748582
 20
-10.6648591429
 10
-27.69200186
 20
-10.6845935619
 10
-27.6733983691
 20
-10.7032687229
 10
-27.6541041647
 20
-10.7208673781
 10
-27.6341710543
 20
-10.7373653714
 10
-27.6136445424
 20
-10.7527485124
 10
-27.5925713966
 20
-10.7670063089
 10
-27.5710114986
 20
-10.7801245923
 10
-27.5490190593
 20
-10.7920975693
 10
-27.543860049
 20
-10.7947116752
  0
LWPOLYLINE
  5
252
100
AcDbEntity
  8
217
100
AcDbPolyline
 62
250
  6
CONTINUOUS
 90
22
 70
0
 10
-27.7998973162
 20
-10.2893777802
 10
-27.8415850057
 20
-8.928820697
 10
-27.8791056194
 20
-7.5659205766
 10
-27.9124586182
 20
-6.20069667
 10
-27.9416435165
 20
-4.8331682641
 10
-27.9666599012
 20
-3.4633546703
 10
-27.9875074319
 20
-2.0912752242
 10
-28.0041858119
 20
-0.716949304
 10
-28.0166947986
 20
0.6596036805
 10
-28.0250342218
 20
2.0383642997
 10
-28.029203965
 20
3.4193130825
 10
-28.029203965
 20
4.8024305274
 10
-28.0250342218
 20
6.1876971134
 10
-28.0166947986
 20
7.5750932822
 10
-28.0041858119
 20
8.9645994399
 10
-27.9875074319
 20
10.3561959677
 10
-27.9666599012
 20
11.7498632194
 10
-27.9416435165
 20
13.1455815141
 10
-27.9124586182
 20
14.5433311381
 10
-27.8791056194
 20
15.9430923545
 10
-27.8415850057
 20
17.3448454032
 10
-27.7998973162
 20
18.7485704943
  0
LWPOLYLINE
  5
253
100
AcDbEntity
  8
217
100
AcDbPolyline
 62
250
  6
CONTINUOUS
 90
17
 70
0
 10
-27.8731369367
 20
18.8361285869
 10
-27.8731536844
 20
18.8332940304
 10
-27.8727007729
 20
18.8271361296
 10
-27.8715792512
 20
18.8209814813
 10
-27.8697921252
 20
18.8148465825
 10
-27.8673441853
 20
18.8087478774
 10
-27.864241993
 20
18.8027017129
 10
-27.8604938634
 20
18.7967242953
 10
-27.856109843
 20
18.7908316466
 10
-27.8511016829
 20
18.7850395615
 10
-27.845482807
 20
18.7793635652
 10
-27.8392682763
 20
18.7738188718
 10
-27.8324747482
 20
18.7684203433
 10
-27.8251204323
 20
18.7631824501
 10
-27.8172250412
 20
18.7581192318
 10
-27.8088097377
 20
18.75324426
 10
-27.7998970785
 20
18.7485706017
  0
LWPOLYLINE
  5
254
100
AcDbEntity
  8
217
100
AcDbPolyline
 62
7
  6
CONTINUOUS
 90
19
 70
0
 10
-27.8731369197
 20
18.8361357024
 10
-27.9210452544
 20
17.2102311465
 10
-27.9636770429
 20
15.574011217
 10
-28.0006260754
 20
13.9405119997
 10
-28.0318916008
 20
12.3097637386
 10
-28.0574730146
 20
10.6817978239
 10
-28.0773697922
 20
9.0566464197
 10
-28.0915814562
 20
7.4343412597
 10
-28.1001077482
 20
5.814913401
 10
-28.1029484863
 20
4.1983939811
 10
-28.10010354
 20
2.5848140768
 10
-28.0915729822
 20
0.9742046596
 10
-28.0773569365
 20
-0.6334032928
 10
-28.0574556038
 20
-2.2379789599
 10
-28.0318694038
 20
-3.8394910726
 10
-28.0005988026
 20
-5.4379079849
 10
-27.9636443471
 20
-7.0331989094
 10
-27.9210067302
 20
-8.6253343499
 10
-27.8731287034
 20
-10.2005632229
  0
LWPOLYLINE
  5
255
100
AcDbEntity
  8
217
100
AcDbPolyline
 62
250
  6
CONTINUOUS
 90
40
 70
0
 10
-27.7998973162
 20
18.7485704943
 10
-27.7985179888
 20
18.7793564839
 10
-27.7962964135
 20
18.8104966693
 10
-27.7932353372
 20
18.841953376
 10
-27.7893386394
 20
18.8736883857
 10
-27.7846110274
 20
18.9056634868
 10
-27.7790579757
 20
18.9378405352
 10
-27.7726862296
 20
18.970181025
 10
-27.7655035937
 20
19.0026454986
 10
-27.7575186216
 20
19.0351941042
 10
-27.7487412239
 20
19.0677872752
 10
-27.7391820722
 20
19.1003858811
 10
-27.7288523275
 20
19.1329506488
 10
-27.7177646225
 20
19.165442423
 10
-27.7059325478
 20
19.1978217992
 10
-27.6933700803
 20
19.2300492716
 10
-27.680092675
 20
19.2620859033
 10
-27.6661165527
 20
19.2938930647
 10
-27.6514581602
 20
19.3254320656
 10
-27.6361354908
 20
19.3566648796
 10
-27.6201673
 20
19.3875537999
 10
-27.6035723981
 20
19.4180611778
 10
-27.5863711613
 20
19.4481502294
 10
-27.5685846442
 20
19.4777846657
 10
-27.5502337888
 20
19.506928345
 10
-27.5313410858
 20
19.5355461987
 10
-27.5119297015
 20
19.5636036737
 10
-27.4920225946
 20
19.5910663688
 10
-27.4716442975
 20
19.6179010943
 10
-27.4508196866
 20
19.6440756574
 10
-27.4295730975
 20
19.6695582858
 10
-27.4079304144
 20
19.6943185021
 10
-27.3859183226
 20
19.718326269
 10
-27.363563093
 20
19.7415518046
 10
-27.3408924311
 20
19.7639669406
 10
-27.3179338693
 20
19.7855450191
 10
-27.2947139978
 20
19.8062599822
 10
-27.2712607572
 20
19.8260868557
 10
-27.2476034228
 20
19.8450018359
 10
-27.2237710007
 20
19.8629821811
  0
LWPOLYLINE
  5
256
100
AcDbEntity
  8
217
100
AcDbPolyline
 62
7
  6
CONTINUOUS
 90
3
 70
0
 10
-8.358800967
 20
27.8485698361
 10
-8.3510447913
 20
27.8539030063
 10
-8.3374807277
 20
27.8633226351
  0
LINE
  5
257
100
AcDbEntity
  8
217
100
AcDbLine
 62
7
  6
CONTINUOUS
 10
-8.3374807277
 20
27.8633226351
 11
-8.3317150649
 21
27.8672760756
  0
LWPOLYLINE
  5
258
100
AcDbEntity
  8
217
100
AcDbPolyline
 62
7
  6
CONTINUOUS
 90
6
 70
0
 10
-8.3317150649
 20
27.8672760756
 10
-8.3226448884
 20
27.8733468662
 10
-8.3195701512
 20
27.8753893075
 10
-8.3175103528
 20
27.8767123771
 10
-8.3165402753
 20
27.8772906767
 10
-8.3164704557
 20
27.8773178074
  0
LINE
  5
259
100
AcDbEntity
  8
217
100
AcDbLine
 62
7
  6
CONTINUOUS
 10
-11.5050973274
 20
26.2596682996
 11
-12.3375831977
 21
25.8181428492
  0
LINE
  5
25A
100
AcDbEntity
  8
217
100
AcDbLine
 62
7
  6
CONTINUOUS
 10
-15.3626189907
 20
24.2137549086
 11
-15.7588822915
 21
24.0035887801
  0
LINE
  5
25B
100
AcDbEntity
  8
217
100
AcDbLine
 62
7
  6
CONTINUOUS
 10
-13.7980939938
 20
26.7071774505
 11
-14.015628138
 21
26.595682134
  0
LINE
  5
25C
100
AcDbEntity
  8
217
100
AcDbLine
 62
7
  6
CONTINUOUS
 10
-15.9539139655
 20
25.6022298522
 11
-18.1412869147
 21
24.4811100376
  0
LWPOLYLINE
  5
25D
100
AcDbEntity
  8
217
100
AcDbPolyline
 62
250
  6
CONTINUOUS
 90
62
 70
0
 10
-18.1412794088
 20
24.8652169858
 10
-18.1642300741
 20
24.8540052846
 10
-18.1880005429
 20
24.8432458129
 10
-18.2125554706
 20
24.832954046
 10
-18.2378582044
 20
24.8231442926
 10
-18.263871251
 20
24.8138310889
 10
-18.2905563697
 20
24.8050292056
 10
-18.3178743498
 20
24.7967511297
 10
-18.3457841697
 20
24.7890088228
 10
-18.3742434362
 20
24.7818150829
 10
-18.403209442
 20
24.7751801881
 10
-18.4326394237
 20
24.7691133785
 10
-18.4624897282
 20
24.7636246159
 10
-18.4927158706
 20
24.7587216115
 10
-18.5232729559
 20
24.7544111338
 10
-18.5541158974
 20
24.750700468
 10
-18.5851990867
 20
24.7475947034
 10
-18.6164760278
 20
24.74509803
 10
-18.6478997703
 20
24.7432150502
 10
-18.6794233993
 20
24.7419481813
 10
-18.7110001875
 20
24.7412988402
 10
-18.7425832388
 20
24.7412687553
 10
-18.7741256214
 20
24.7418576349
 10
-18.8055803702
 20
24.7430641906
 10
-18.8369006331
 20
24.7448872988
 10
-18.8680397151
 20
24.7473239478
 10
-18.8989514164
 20
24.7503701462
 10
-18.9295900276
 20
24.7540219697
 10
-18.9599101468
 20
24.7582737933
 10
-18.9898664988
 20
24.7631189648
 10
-19.0194142766
 20
24.76855071
 10
-19.0485093804
 20
24.7745607395
 10
-19.077108709
 20
24.7811398724
 10
-19.1051699621
 20
24.7882787362
 10
-19.1326515369
 20
24.7959666513
 10
-19.1595124137
 20
24.8041919484
 10
-19.1857124592
 20
24.8129425786
 10
-19.2112125787
 20
24.8222054244
 10
-19.2359750023
 20
24.8319666039
 10
-19.2599631373
 20
24.8422118143
 10
-19.2831414285
 20
24.8529259068
 10
-19.3054752506
 20
24.8640928107
 10
-19.3269312092
 20
24.8756958288
 10
-19.3474772861
 20
24.8877177102
 10
-19.3670830608
 20
24.9001406155
 10
-19.3857195576
 20
24.9129460636
 10
-19.4033591355
 20
24.9261152312
 10
-19.4199754366
 20
24.9396285094
 10
-19.4355436244
 20
24.953465462
 10
-19.4500404774
 20
24.9676056376
 10
-19.4634445194
 20
24.9820281763
 10
-19.4757359144
 20
24.9967113827
 10
-19.4868964164
 20
25.0116337647
 10
-19.4969093309
 20
25.026773214
 10
-19.5057596707
 20
25.0421066075
 10
-19.5134342368
 20
25.0576113592
 10
-19.5199216744
 20
25.0732647165
 10
-19.5252123811
 20
25.0890429492
 10
-19.5292984749
 20
25.104923009
 10
-19.5321738308
 20
25.120881497
 10
-19.5338341439
 20
25.1368939566
 10
-19.5342882616
 20
25.1506474669
  0
LINE
  5
25E
100
AcDbEntity
  8
217
100
AcDbLine
 62
7
  6
CONTINUOUS
 10
-9.7938650121
 20
27.7182114401
 11
-9.941113875
 21
27.6464662738
  0
LINE
  5
25F
100
AcDbEntity
  8
RACCORDO
100
AcDbLine
 62
250
  6
CONTINUOUS
 10
-8.7811706993
 20
28.1096679381
 11
-6.9518257663
 21
28.959741651
  0
LINE
  5
260
100
AcDbEntity
  8
RACCORDO
100
AcDbLine
 62
7
  6
CONTINUOUS
 10
-6.9132563813
 20
29.2139368067
 11
-9.0262299387
 21
28.2321975578
  0
LWPOLYLINE
  5
261
100
AcDbEntity
  8
RACCORDO
100
AcDbPolyline
 62
250
  6
CONTINUOUS
 90
3
 70
0
 10
-6.9518257663
 20
28.959741651
 10
-4.0554497901
 20
30.304544398
 10
-2.5904314163
 20
30.9842836517
  0
LWPOLYLINE
  5
262
100
AcDbEntity
  8
RACCORDO
100
AcDbPolyline
 62
7
  6
CONTINUOUS
 90
3
 70
0
 10
-3.0235725837
 20
31.0193730184
 10
-3.9651384331
 20
30.5825440282
 10
-6.9132563813
 20
29.2139368067
  0
LWPOLYLINE
  5
263
100
AcDbEntity
  8
RACCORDO
100
AcDbPolyline
 62
7
  6
CONTINUOUS
 90
12
 70
0
 10
-3.0235725828
 20
31.0193730188
 10
-2.9470786984
 20
31.0510767744
 10
-2.8672497337
 20
31.0766114307
 10
-2.7847038592
 20
31.0955309549
 10
-2.7001540009
 20
31.1074668728
 10
-2.6143248344
 20
31.1121530367
 10
-2.5278907312
 20
31.1094122371
 10
-2.441456806
 20
31.0991226871
 10
-2.3559914803
 20
31.0812911472
 10
-2.272561709
 20
31.0561271359
 10
-2.1917333527
 20
31.0238376273
 10
-2.1554922289
 20
31.0066138197
  0
LWPOLYLINE
  5
264
100
AcDbEntity
  8
RACCORDO
100
AcDbPolyline
 62
250
  6
CONTINUOUS
 90
10
 70
0
 10
-3.0235725828
 20
31.0193730188
 10
-2.9891343425
 20
31.0333166739
 10
-2.9441925049
 20
31.0459478997
 10
-2.8972929959
 20
31.0532251795
 10
-2.8487047482
 20
31.0551067908
 10
-2.7987063536
 20
31.0515819518
 10
-2.7475844855
 20
31.0426708748
 10
-2.695632268
 20
31.0284246536
 10
-2.6431475965
 20
31.0089249756
 10
-2.5904314145
 20
30.9842836507
  0
LINE
  5
265
100
AcDbEntity
  8
217
100
AcDbLine
 62
7
  6
CONTINUOUS
 10
7.4782735543
 20
-28.1281579548
 11
9.8807549749
 21
-27.478061685
  0
LINE
  5
266
100
AcDbEntity
  8
217
100
AcDbLine
 62
250
  6
CONTINUOUS
 10
7.5866381626
 20
-27.9767542496
 11
9.9641170584
 21
-27.3334235048
  0
LWPOLYLINE
  5
267
100
AcDbEntity
  8
217
100
AcDbPolyline
 62
250
  6
CONTINUOUS
 90
16
 70
0
 10
-25.3238530515
 20
-13.5230603681
 10
-25.3234342776
 20
-13.529106854
 10
-25.3223174663
 20
-13.5355542572
 10
-25.3205347815
 20
-13.5419641195
 10
-25.3180910013
 20
-13.54831926
 10
-25.3149926761
 20
-13.5546026445
 10
-25.3112481105
 20
-13.5607974312
 10
-25.3068673413
 20
-13.5668870159
 10
-25.3018621106
 20
-13.572855076
 10
-25.2962458344
 20
-13.5786856151
 10
-25.2900335663
 20
-13.5843630051
 10
-25.2832419575
 20
-13.5898720284
 10
-25.275889212
 20
-13.5951979189
 10
-25.2679950381
 20
-13.6003264011
 10
-25.2595805949
 20
-13.6052437289
 10
-25.2506684364
 20
-13.6099367219
  0
LWPOLYLINE
  5
268
100
AcDbEntity
  8
217
100
AcDbPolyline
 62
7
  6
CONTINUOUS
 90
23
 70
0
 10
-25.3238917411
 20
-13.5215483742
 10
-25.3235645734
 20
-13.5343341405
 10
-25.3225785726
 20
-13.5471385904
 10
-25.320929261
 20
-13.5599210695
 10
-25.3186141767
 20
-13.5726456291
 10
-25.3156356778
 20
-13.5852654756
 10
-25.3120034502
 20
-13.5977245776
 10
-25.3077359986
 20
-13.6099614002
 10
-25.3028402942
 20
-13.6219603254
 10
-25.2973070061
 20
-13.6337340211
 10
-25.2911368825
 20
-13.6452599277
 10
-25.2843514649
 20
-13.6564805964
 10
-25.2769681409
 20
-13.6673563844
 10
-25.2689973224
 20
-13.6778615601
 10
-25.2604662939
 20
-13.6879513075
 10
-25.2514231456
 20
-13.6975671243
 10
-25.2418990453
 20
-13.7066795323
 10
-25.2319162485
 20
-13.7152704819
 10
-25.2215125856
 20
-13.7233108243
 10
-25.2107097434
 20
-13.7307870757
 10
-25.1995381412
 20
-13.7376802371
 10
-25.1880472713
 20
-13.7439635601
 10
-25.1856931456
 20
-13.7451561691
  0
LWPOLYLINE
  5
269
100
AcDbEntity
  8
217
100
AcDbPolyline
 62
250
  6
CONTINUOUS
 90
18
 70
0
 10
-25.2506684364
 20
-13.6099367219
 10
-25.2504325011
 20
-13.6210008866
 10
-25.249724812
 20
-13.6318053835
 10
-25.248546492
 20
-13.6423208835
 10
-25.2468995883
 20
-13.6525205695
 10
-25.2447879253
 20
-13.6623746328
 10
-25.2422179347
 20
-13.6718510115
 10
-25.2391971236
 20
-13.6809226122
 10
-25.2357331474
 20
-13.6895669465
 10
-25.2318351901
 20
-13.6977610384
 10
-25.2275135908
 20
-13.7054830169
 10
-25.2227799706
 20
-13.7127119931
 10
-25.2176471412
 20
-13.7194283656
 10
-25.212128938
 20
-13.7256140589
 10
-25.2062401012
 20
-13.7312525767
 10
-25.1999963712
 20
-13.7363288455
 10
-25.1934144597
 20
-13.7408292609
 10
-25.186518832
 20
-13.7447378732
  0
LWPOLYLINE
  5
26A
100
AcDbEntity
  8
217
100
AcDbPolyline
 62
250
  6
CONTINUOUS
 90
17
 70
0
 10
-25.3238917411
 20
24.7973264542
 10
-25.3238822218
 20
24.7962356373
 10
-25.3234342776
 20
24.7897679745
 10
-25.3223174663
 20
24.7833205712
 10
-25.3205347815
 20
24.776910709
 10
-25.3180910013
 20
24.7705555685
 10
-25.3149926761
 20
24.764272184
 10
-25.3112481105
 20
24.7580773972
 10
-25.3068673413
 20
24.7519878126
 10
-25.3018621106
 20
24.7460197524
 10
-25.2962458344
 20
24.7401892134
 10
-25.2900335663
 20
24.7345118234
 10
-25.2832419575
 20
24.7290028
 10
-25.275889212
 20
24.7236769096
 10
-25.2679950381
 20
24.7185484273
 10
-25.2595805949
 20
24.7136310996
 10
-25.2506684364
 20
24.7089381066
  0
LINE
  5
26B
100
AcDbEntity
  8
217
100
AcDbLine
 62
7
  6
CONTINUOUS
 10
-25.3238917411
 20
-13.5215483742
 11
-25.3238917411
 21
-11.9046958558
  0
LINE
  5
26C
100
AcDbEntity
  8
217
100
AcDbLine
 62
7
  6
CONTINUOUS
 10
-25.3238917411
 20
21.9256113021
 11
-25.3238917411
 21
24.7973264542
  0
LINE
  5
26D
100
AcDbEntity
  8
217
100
AcDbLine
 62
250
  6
CONTINUOUS
 10
-25.2506684364
 20
-13.6099367219
 11
-25.2506684364
 21
-11.9413075082
  0
LINE
  5
26E
100
AcDbEntity
  8
217
100
AcDbLine
 62
250
  6
CONTINUOUS
 10
-25.2506684364
 20
21.8383365483
 11
-25.2506684364
 21
24.7089381066
  0
LINE
  5
26F
100
AcDbEntity
  8
217
100
AcDbLine
 62
7
  6
CONTINUOUS
 10
-25.0770043178
 20
21.5364795534
 11
-25.0770043178
 21
21.7515044891
  0
LWPOLYLINE
  5
270
100
AcDbEntity
  8
217
100
AcDbPolyline
 62
250
  6
CONTINUOUS
 90
31
 70
0
 10
-25.2506684364
 20
24.7089381066
 10
-25.2504325011
 20
24.7202382066
 10
-25.249724812
 20
24.7317503926
 10
-25.248546492
 20
24.7434442126
 10
-25.2468995883
 20
24.7552908022
 10
-25.2447879253
 20
24.7672565286
 10
-25.2422179347
 20
24.7793028979
 10
-25.2391971236
 20
24.7913953097
 10
-25.2357331474
 20
24.8035036202
 10
-25.2318351901
 20
24.8155956693
 10
-25.2275135908
 20
24.8276392471
 10
-25.2227799706
 20
24.8396018436
 10
-25.2176471412
 20
24.8514510455
 10
-25.212128938
 20
24.8631549419
 10
-25.2062401012
 20
24.8746822966
 10
-25.1999963712
 20
24.8860022954
 10
-25.1934144597
 20
24.8970846223
 10
-25.186512032
 20
24.9078995168
 10
-25.1793076109
 20
24.9184179485
 10
-25.1718205168
 20
24.9286117053
 10
-25.1640708192
 20
24.938453458
 10
-25.1560793026
 20
24.9479168071
 10
-25.1478673946
 20
24.9569763757
 10
-25.1394571137
 20
24.9656078693
 10
-25.1308710166
 20
24.9737881357
 10
-25.1221321209
 20
24.9814952429
 10
-25.113263864
 20
24.988708519
 10
-25.1042900474
 20
24.9954086046
 10
-25.0952347417
 20
25.0015775318
 10
-25.0861222209
 20
25.0071987673
 10
-25.0769769198
 20
25.0122572409
  0
LWPOLYLINE
  5
271
100
AcDbEntity
  8
217
100
AcDbPolyline
 62
7
  6
CONTINUOUS
 90
22
 70
0
 10
-25.3238917411
 20
24.7973264542
 10
-25.3235683658
 20
24.8100379473
 10
-25.3225933458
 20
24.8227726949
 10
-25.320961552
 20
24.8354906851
 10
-25.3186695023
 20
24.848158015
 10
-25.3157189346
 20
24.860726836
 10
-25.3121200327
 20
24.8731372783
 10
-25.3078912846
 20
24.8853276679
 10
-25.3030391086
 20
24.8972838646
 10
-25.2975546428
 20
24.9090175746
 10
-25.2914379568
 20
24.9205078002
 10
-25.2847104862
 20
24.9316970487
 10
-25.2773915406
 20
24.9425429532
 10
-25.2694919699
 20
24.9530202255
 10
-25.2610380435
 20
24.963086104
 10
-25.2520778957
 20
24.9726823618
 10
-25.2426416391
 20
24.9817809794
 10
-25.2327508458
 20
24.9903647532
 10
-25.2224439708
 20
24.9984041383
 10
-25.2117415216
 20
25.0058868483
 10
-25.2006726878
 20
25.0127947618
 10
-25.1925997411
 20
25.0173455687
  0
LWPOLYLINE
  5
272
100
AcDbEntity
  8
217
100
AcDbPolyline
 62
7
  6
CONTINUOUS
 90
46
 70
0
 10
-19.509555625
 20
16.0058744932
 10
-19.5295662021
 20
15.9890298365
 10
-19.5491759179
 20
15.9713498927
 10
-19.5683646356
 20
15.9528552957
 10
-19.5871086023
 20
15.9335658967
 10
-19.6053925161
 20
15.913504671
 10
-19.6232094891
 20
15.8926975207
 10
-19.6405406552
 20
15.8711665374
 10
-19.6573683095
 20
15.8489348093
 10
-19.6736878816
 20
15.8260300814
 10
-19.6894818252
 20
15.8024755425
 10
-19.704733798
 20
15.7782951796
 10
-19.7194416485
 20
15.7535182196
 10
-19.7335892675
 20
15.7281687008
 10
-19.7471617169
 20
15.7022713283
 10
-19.7601592425
 20
15.675856537
 10
-19.7725672219
 20
15.648949057
 10
-19.7843722056
 20
15.6215740475
 10
-19.7955768554
 20
15.5937627055
 10
-19.8061681107
 20
15.5655401986
 10
-19.8161340231
 20
15.5369319644
 10
-19.8254795776
 20
15.5079696301
 10
-19.8341933074
 20
15.4786785906
 10
-19.842264785
 20
15.4490843643
 10
-19.8497011927
 20
15.4192187014
 10
-19.8564926702
 20
15.3891070294
 10
-19.8626303156
 20
15.3587747621
 10
-19.8681233602
 20
15.3282534913
 10
-19.8729635448
 20
15.2975684975
 10
-19.8771434841
 20
15.2667449215
 10
-19.8806742917
 20
15.2358139437
 10
-19.8835492897
 20
15.2048005344
 10
-19.885762587
 20
15.173729413
 10
-19.8873270002
 20
15.1426311334
 10
-19.8882374
 20
15.1115301747
 10
-19.8884893548
 20
15.0804507426
 10
-19.8880972028
 20
15.0494226981
 10
-19.8870573236
 20
15.0184699642
 10
-19.8853667157
 20
14.9876160607
 10
-19.8830410679
 20
14.9568899425
 10
-19.880078221
 20
14.9263148262
 10
-19.8764765573
 20
14.8959134926
 10
-19.8722529475
 20
14.8657139374
 10
-19.8674125709
 20
14.8357403232
 10
-19.8619491683
 20
14.8060128886
 10
-19.8558630172
 20
14.7765533448
  0
LWPOLYLINE
  5
273
100
AcDbEntity
  8
RACCORDO
100
AcDbPolyline
 62
250
  6
CONTINUOUS
 90
14
 70
0
 10
-4.7008957007
 20
26.5486390165
 10
-4.7857522629
 20
26.5039058313
 10
-4.8643248165
 20
26.4565455882
 10
-4.9366133615
 20
26.4065582871
 10
-5.0030509458
 20
26.3536986855
 10
-5.0632045216
 20
26.2982120259
 10
-5.1157749449
 20
26.2408340367
 10
-5.1605962651
 20
26.1815116847
 10
-5.197834433
 20
26.1202980029
 10
-5.2266881566
 20
26.0580878185
 10
-5.2469726042
 20
25.9948653306
 10
-5.2588726076
 20
25.9306463401
 10
-5.2621413706
 20
25.8663730761
 10
-5.2610240085
 20
25.853393329
  0
LINE
  5
274
100
AcDbEntity
  8
RACCORDO
100
AcDbLine
 62
250
  6
CONTINUOUS
 10
-4.7008957007
 20
26.5486390165
 11
0.8119919858
 21
29.2830719506
  0
LWPOLYLINE
  5
275
100
AcDbEntity
  8
RACCORDO
100
AcDbPolyline
 62
7
  6
CONTINUOUS
 90
12
 70
0
 10
-10.0972450756
 20
22.6348421478
 10
-10.0897399529
 20
22.6380976919
 10
-10.0824746553
 20
22.6403912488
 10
-10.0749215743
 20
22.6419741101
 10
-10.0670839621
 20
22.6428543075
 10
-10.0590510626
 20
22.6430218183
 10
-10.0508206437
 20
22.6424684965
 10
-10.0423949375
 20
22.6412024883
 10
-10.0338698843
 20
22.6392382091
 10
-10.0252774644
 20
22.6365804641
 10
-10.0165856975
 20
22.6332244482
 10
-10.0077945836
 20
22.6291701613
  0
LWPOLYLINE
  5
276
100
AcDbEntity
  8
RACCORDO
100
AcDbPolyline
 62
250
  6
CONTINUOUS
 90
9
 70
0
 10
0.8119919858
 20
29.2830719506
 10
0.8728821473
 20
29.3089921234
 10
0.9332272863
 20
29.3282290291
 10
0.9925782827
 20
29.3406394967
 10
1.0504934153
 20
29.3461311608
 10
1.1065416495
 20
29.3446631498
 10
1.1603058448
 20
29.3362463893
 10
1.2113858601
 20
29.3209435212
 10
1.246742523
 20
29.305496424
  0
LWPOLYLINE
  5
277
100
AcDbEntity
  8
217
100
AcDbPolyline
 62
7
  6
CONTINUOUS
 90
10
 70
0
 10
-19.509555625
 20
16.0058744932
 10
-19.4977016395
 20
16.0152570413
 10
-19.4853670624
 20
16.0245063801
 10
-19.4725518934
 20
16.0336225095
 10
-19.4592670418
 20
16.0426053001
 10
-19.4455015984
 20
16.0514548813
 10
-19.4312228361
 20
16.0601716417
 10
-19.4164198457
 20
16.0687557108
 10
-19.4011035364
 20
16.0772069591
 10
-19.3852739081
 20
16.0855253865
  0
LWPOLYLINE
  5
278
100
AcDbEntity
  8
RACCORDO
100
AcDbPolyline
 62
250
  6
CONTINUOUS
 90
3
 70
0
 10
-4.0966196717
 20
25.2711911606
 10
-4.0511561768
 20
25.2995515808
 10
-3.9938966153
 20
25.3292459699
  0
LWPOLYLINE
  5
279
100
AcDbEntity
  8
217
100
AcDbPolyline
 62
250
  6
CONTINUOUS
 90
79
 70
0
 10
-9.146895426
 20
20.510549211
 10
-9.1627713463
 20
20.5017896833
 10
-9.1779202153
 20
20.4927496085
 10
-9.1923420331
 20
20.4834289865
 10
-9.2060581076
 20
20.473811748
 10
-9.2190471309
 20
20.4639139622
 10
-9.2312451788
 20
20.4537838373
 10
-9.2426479647
 20
20.4434204826
 10
-9.2532597752
 20
20.4328247887
 10
-9.2630295457
 20
20.4220476358
 10
-9.2719530585
 20
20.4110882978
 10
-9.2800345312
 20
20.3999475008
 10
-9.2872355533
 20
20.3886783042
 10
-9.29355197
 20
20.3772800708
 10
-9.2989879361
 20
20.3657534377
 10
-9.303517504
 20
20.3541533752
 10
-9.307136345
 20
20.3424794795
 10
-9.3098487879
 20
20.3307321544
 10
-9.311641872
 20
20.3189675817
 10
-9.3125111812
 20
20.3071857168
 10
-9.3124611315
 20
20.2953866044
 10
-9.3114920099
 20
20.2836265609
 10
-9.3095994324
 20
20.2719057912
 10
-9.306787783
 20
20.2602240906
 10
-9.3030705003
 20
20.2486371606
 10
-9.2984432581
 20
20.2371454389
 10
-9.2929103826
 20
20.225748488
 10
-9.2864982909
 20
20.2145006972
 10
-9.2792027771
 20
20.2034027762
 10
-9.2710280471
 20
20.1924540153
 10
-9.262013136
 20
20.1817066748
 10
-9.2521540335
 20
20.1711617242
 10
-9.2414547499
 20
20.1608181939
 10
-9.2299663504
 20
20.1507254364
 10
-9.2176850687
 20
20.1408846508
 10
-9.2046146712
 20
20.1312946379
 10
-9.1908175223
 20
20.1220011521
 10
-9.1762901486
 20
20.1130056079
 10
-9.1610360237
 20
20.1043065909
 10
-9.1451279326
 20
20.0959456125
 10
-9.1285627513
 20
20.0879242873
 10
-9.111343604
 20
20.0802410008
 10
-9.0935526486
 20
20.0729324203
 10
-9.0751871525
 20
20.0660003355
 10
-9.0562498484
 20
20.0594429568
 10
-9.0368310916
 20
20.0532915831
 10
-9.0169285704
 20
20.0475481517
 10
-8.9965445966
 20
20.0422107253
 10
-8.9757764616
 20
20.03730479
 10
-8.9546223252
 20
20.0328324093
 10
-8.9330840275
 20
20.0287915197
 10
-8.91126438
 20
20.0252014172
 10
-8.8891620465
 20
20.0220642583
 10
-8.8667783632
 20
20.0193778864
 10
-8.8442201502
 20
20.0171551274
 10
-8.8214866033
 20
20.0153981953
 10
-8.7985785267
 20
20.0141048761
 10
-8.7756051537
 20
20.0132813527
 10
-8.7525661327
 20
20.0129298664
 10
-8.7294618153
 20
20.013048176
 10
-8.7064024902
 20
20.0136357407
 10
-8.6833883016
 20
20.0146948154
 10
-8.6604191054
 20
20.0162231452
 10
-8.6376047571
 20
20.0182134239
 10
-8.6149461088
 20
20.0206678547
 10
-8.5924423085
 20
20.0235842344
 10
-8.5702006566
 20
20.0269486467
 10
-8.5482224411
 20
20.030763208
 10
-8.5265063739
 20
20.0350258019
 10
-8.5051558908
 20
20.0397161625
 10
-8.4841724563
 20
20.0448364346
 10
-8.4635546059
 20
20.0503844735
 10
-8.4434013818
 20
20.0563335796
 10
-8.4237146504
 20
20.0626859079
 10
-8.4044925452
 20
20.0694393033
 10
-8.3858285098
 20
20.0765606015
 10
-8.3677536919
 20
20.0840387477
 10
-8.3502369436
 20
20.0918847968
 10
-8.3332782651
 20
20.1000987486
  0
LWPOLYLINE
  5
27A
100
AcDbEntity
  8
217
100
AcDbPolyline
 62
7
  6
CONTINUOUS
 90
24
 70
0
 10
-9.2381385949
 20
20.5152909358
 10
-9.2517415154
 20
20.5078967573
 10
-9.2763224787
 20
20.4935661103
 10
-9.2995359196
 20
20.478751373
 10
-9.321387753
 20
20.4634976146
 10
-9.3419224212
 20
20.4478235826
 10
-9.3612069388
 20
20.4317197794
 10
-9.3792602114
 20
20.4152079152
 10
-9.3960961439
 20
20.3983127032
 10
-9.4117556003
 20
20.3810250289
 10
-9.4262480399
 20
20.3633628634
 10
-9.439574621
 20
20.3453547564
 10
-9.4517479235
 20
20.3270115166
 10
-9.4627675939
 20
20.308360186
 10
-9.4726313362
 20
20.2894358352
 10
-9.4813393549
 20
20.2702715262
 10
-9.4888911486
 20
20.2509038406
 10
-9.4952858362
 20
20.2313789227
 10
-9.5005240001
 20
20.2117553743
 10
-9.5046136371
 20
20.1920818067
 10
-9.5075656887
 20
20.1724074817
 10
-9.5093940797
 20
20.1527987382
 10
-9.5101208706
 20
20.1333111856
 10
-9.5101367092
 20
20.1298842415
  0
LINE
  5
27B
100
AcDbEntity
  8
217
100
AcDbLine
 62
7
  6
CONTINUOUS
 10
-2.6977490593
 20
23.9841170466
 11
-9.2381370312
 21
20.5152921112
  0
LINE
  5
27C
100
AcDbEntity
  8
217
100
AcDbLine
 62
250
  6
CONTINUOUS
 10
-2.6067123155
 20
23.979265494
 11
-9.146895426
 21
20.510549211
  0
LINE
  5
27D
100
AcDbEntity
  8
217
100
AcDbLine
 62
7
  6
CONTINUOUS
 10
-10.2434493982
 20
21.2458723335
 11
-8.7609176081
 21
22.0057316735
  0
LINE
  5
27E
100
AcDbEntity
  8
217
100
AcDbLine
 62
7
  6
CONTINUOUS
 10
-8.2635504109
 20
22.2606530943
 11
-6.9448202787
 21
22.9365572568
  0
LWPOLYLINE
  5
27F
100
AcDbEntity
  8
RACCORDO
100
AcDbPolyline
 62
250
  6
CONTINUOUS
 90
14
 70
0
 10
1.8724906139
 20
25.7642566952
 10
1.904783612
 20
25.7804931406
 10
1.9348736715
 20
25.7964764829
 10
1.9626627925
 20
25.8120037775
 10
1.9882577296
 20
25.8268895398
 10
2.0113102385
 20
25.8408785479
 10
2.0310404819
 20
25.8537755822
 10
2.0471247168
 20
25.8655265543
 10
2.0596401109
 20
25.8760353334
 10
2.0684323697
 20
25.8851987962
 10
2.0733203292
 20
25.8929977607
 10
2.0742423434
 20
25.8993976442
 10
2.0712279539
 20
25.9043066626
 10
2.0685328771
 20
25.906035173
  0
LINE
  5
280
100
AcDbEntity
  8
RACCORDO
100
AcDbLine
 62
250
  6
CONTINUOUS
 10
-10.1486777889
 20
22.5415025006
 11
-9.9905685256
 21
22.6205571323
  0
LINE
  5
281
100
AcDbEntity
  8
0
100
AcDbLine
 62
7
  6
CONTINUOUS
 10
-8.0514183765
 20
23.0119822083
 11
-7.6878502439
 21
23.1937662746
  0
LINE
  5
282
100
AcDbEntity
  8
0
100
AcDbLine
 62
7
  6
CONTINUOUS
 10
-8.0514183765
 20
22.6655720468
 11
-7.6878502439
 21
22.8473561131
  0
LINE
  5
283
100
AcDbEntity
  8
0
100
AcDbLine
 62
250
  6
CONTINUOUS
 10
-8.2635504109
 20
22.2996984085
 11
-8.5463931234
 21
22.1582770523
  0
LINE
  5
284
100
AcDbEntity
  8
0
100
AcDbLine
 62
7
  6
CONTINUOUS
 10
-8.2635504109
 20
22.0398907874
 11
-8.5463931234
 21
21.8984694311
  0
LINE
  5
285
100
AcDbEntity
  8
RACCORDO
100
AcDbLine
 62
250
  6
CONTINUOUS
 10
-3.9938966153
 20
25.3292459699
 11
1.5189910712
 21
28.063678904
  0
LINE
  5
286
100
AcDbEntity
  8
RACCORDO
100
AcDbLine
 62
250
  6
CONTINUOUS
 10
-1.909062035
 20
24.6736136059
 11
1.5189910712
 21
26.3739532185
  0
LINE
  5
287
100
AcDbEntity
  8
RACCORDO
100
AcDbLine
 62
250
  6
CONTINUOUS
 10
-0.5069212981
 20
24.5840508456
 11
1.8724906139
 21
25.7642566952
  0
LWPOLYLINE
  5
288
100
AcDbEntity
  8
0
100
AcDbPolyline
 62
7
  6
CONTINUOUS
 90
10
 70
0
 10
-7.6878502439
 20
23.1937662746
 10
-7.6705409426
 20
23.2020478909
 10
-7.6532946261
 20
23.2095640744
 10
-7.6361112943
 20
23.216314825
 10
-7.6189701823
 20
23.2223064973
 10
-7.6018920552
 20
23.2275327367
 10
-7.5849392074
 20
23.2319744799
 10
-7.568132404
 20
23.2356253724
 10
-7.5514508799
 20
23.2384917687
 10
-7.5348946354
 20
23.2405736688
  0
LWPOLYLINE
  5
289
100
AcDbEntity
  8
0
100
AcDbPolyline
 62
7
  6
CONTINUOUS
 90
10
 70
0
 10
-7.6878502439
 20
22.8473561131
 10
-7.6804319719
 20
22.8509053773
 10
-7.6730406934
 20
22.8541265987
 10
-7.6656764084
 20
22.8570197776
 10
-7.6583302175
 20
22.8595876371
 10
-7.6510110202
 20
22.861827454
 10
-7.643745514
 20
22.8637310582
 10
-7.6365425982
 20
22.8652957265
 10
-7.6293933736
 20
22.866524182
 10
-7.6222978403
 20
22.8674164249
  0
LINE
  5
28A
100
AcDbEntity
  8
217
100
AcDbLine
 62
7
  6
CONTINUOUS
 10
-1.2533207052
 20
24.7654107332
 11
-2.5995723204
 21
24.1210650943
  0
LWPOLYLINE
  5
28B
100
AcDbEntity
  8
RACCORDO
100
AcDbPolyline
 62
250
  6
CONTINUOUS
 90
16
 70
0
 10
1.5189910712
 20
26.3739532185
 10
1.5516923519
 20
26.3894782013
 10
1.583432536
 20
26.4026107479
 10
1.6139878892
 20
26.4133647269
 10
1.6432626406
 20
26.4219035619
 10
1.6708497596
 20
26.4280737371
 10
1.6961505761
 20
26.4313683602
 10
1.7189427317
 20
26.4315605193
 10
1.7391794488
 20
26.4287649479
 10
1.7566666501
 20
26.422940848
 10
1.771282992
 20
26.4139638263
 10
1.7829626526
 20
26.401809161
 10
1.7916260667
 20
26.3865746465
 10
1.7971878211
 20
26.3681249425
 10
1.7995631614
 20
26.3464257629
 10
1.7996512298
 20
26.3410651201
  0
LINE
  5
28C
100
AcDbEntity
  8
217
100
AcDbLine
 62
7
  6
CONTINUOUS
 10
-4.1734037155
 20
24.9079807918
 11
-4.323245247
 21
24.8375319598
  0
LWPOLYLINE
  5
28D
100
AcDbEntity
  8
217
100
AcDbPolyline
 62
7
  6
CONTINUOUS
 90
18
 70
0
 10
-1.2533207052
 20
24.7654107332
 10
-1.2308523586
 20
24.7756226433
 10
-1.2084666038
 20
24.7846995737
 10
-1.1861634408
 20
24.7926415242
 10
-1.1638881303
 20
24.7994640232
 10
-1.1416954116
 20
24.8051515423
 10
-1.1197495022
 20
24.8096574974
 10
-1.098072084
 20
24.8129666417
 10
-1.0766414752
 20
24.815094222
 10
-1.0555568479
 20
24.8160393936
 10
-1.0348375263
 20
24.8158029149
 10
-1.0144641863
 20
24.8143840275
 10
-0.9944780273
 20
24.8117796114
 10
-0.9748462347
 20
24.8079796013
 10
-0.9556016232
 20
24.8029940624
 10
-0.9368838371
 20
24.7968500707
 10
-0.9187051078
 20
24.7895355773
 10
-0.9053983606
 20
24.7832796143
  0
LWPOLYLINE
  5
28E
100
AcDbEntity
  8
217
100
AcDbPolyline
 62
250
  6
CONTINUOUS
 90
76
 70
0
 10
-19.3852770046
 20
16.0855238033
 10
-19.1591707764
 20
16.1808844347
 10
-18.9303171894
 20
16.2700632098
 10
-18.6987840976
 20
16.3530347823
 10
-18.4646325315
 20
16.4297796065
 10
-18.2279396042
 20
16.5002721449
 10
-17.988798565
 20
16.5644810055
 10
-17.7472813287
 20
16.6223882302
 10
-17.503458904
 20
16.6739783374
 10
-17.2574243688
 20
16.7192266136
 10
-17.0092514657
 20
16.7581208391
 10
-16.759013613
 20
16.7906512017
 10
-16.5068044343
 20
16.8167994512
 10
-16.2526996366
 20
16.8365590703
 10
-15.9967745092
 20
16.8499260123
 10
-15.739122976
 20
16.8568885915
 10
-15.4798227282
 20
16.8574460084
 10
-15.2189504971
 20
16.8516000093
 10
-14.9565995785
 20
16.8393455602
 10
-14.6928493051
 20
16.8206875635
 10
-14.4277777491
 20
16.7956334926
 10
-14.1614770017
 20
16.7641849177
 10
-13.8940276444
 20
16.7263523673
 10
-13.6255090368
 20
16.6821489792
 10
-13.3560120038
 20
16.6315829048
 10
-13.0856182796
 20
16.5746702611
 10
-12.814408179
 20
16.51142978
 10
-12.5424708523
 20
16.4418761328
 10
-12.2698888787
 20
16.3660309349
 10
-11.9967434059
 20
16.2839184489
 10
-11.7231217862
 20
16.1955598488
 10
-11.4491073284
 20
16.1009822088
 10
-11.1747817063
 20
16.0002152177
 10
-10.9002300655
 20
15.8932864357
 10
-10.625536096
 20
15.7802282585
 10
-10.3507819236
 20
15.6610757427
 10
-10.0760504936
 20
15.5358628424
 10
-9.8014257763
 20
15.4046272367
 10
-9.5269900337
 20
15.267409214
 10
-9.2528236974
 20
15.1242489901
 10
-8.9790106828
 20
14.9751893647
 10
-8.7056333069
 20
14.8202758022
 10
-8.4327695557
 20
14.6595548129
 10
-8.1605031706
 20
14.4930742709
 10
-7.8889162263
 20
14.3208846635
 10
-7.6180840636
 20
14.1430386814
 10
-7.3480899704
 20
13.9595891216
 10
-7.0790156411
 20
13.770591412
 10
-6.8109337792
 20
13.5761044124
 10
-6.5439271317
 20
13.3761858237
 10
-6.2780766771
 20
13.1708958017
 10
-6.0134521188
 20
12.9602990645
 10
-5.750135241
 20
12.7444579189
 10
-5.4882063106
 20
12.5234372476
 10
-5.2277323022
 20
12.2973077624
 10
-4.9687938428
 20
12.0661362516
 10
-4.7114702539
 20
11.8299921782
 10
-4.4558259809
 20
11.5889523807
 10
-4.2019403832
 20
11.343088102
 10
-3.949891501
 20
11.0924731471
 10
-3.6997411015
 20
10.8371902989
 10
-3.4515675352
 20
10.5773156326
 10
-3.2054468418
 20
10.3129266224
 10
-2.9614365231
 20
10.0441101391
 10
-2.7196129802
 20
9.7709460802
 10
-2.4800508244
 20
9.4935160677
 10
-2.2428039968
 20
9.2119113897
 10
-2.0079459522
 20
8.926214525
 10
-1.7755504984
 20
8.6365120181
 10
-1.545671052
 20
8.3429031141
 10
-1.3183787074
 20
8.0454739978
 10
-1.0937452861
 20
7.7443148784
 10
-0.8718239438
 20
7.4395330545
 10
-0.6526782929
 20
7.1312255708
 10
-0.4363825792
 20
6.8194789656
 10
-0.2230045161
 20
6.504386587
  0
LWPOLYLINE
  5
28F
100
AcDbEntity
  8
217
100
AcDbPolyline
 62
7
  6
CONTINUOUS
 90
19
 70
0
 10
9.4956478953
 20
-31.0858266896
 10
9.5043726988
 20
-31.0899802896
 10
9.5161266347
 20
-31.0949424657
 10
9.5281384367
 20
-31.0993052239
 10
9.5403789268
 20
-31.1030544323
 10
9.5528158829
 20
-31.1061767415
 10
9.5654214743
 20
-31.1086614899
 10
9.5781643024
 20
-31.1104984322
 10
9.5910100011
 20
-31.1116785856
 10
9.603925425
 20
-31.1121949284
 10
9.6168762064
 20
-31.1120420615
 10
9.6298275371
 20
-31.1112163659
 10
9.6427449538
 20
-31.1097159383
 10
9.6555951346
 20
-31.1075402971
 10
9.6683403149
 20
-31.1046914431
 10
9.680939303
 20
-31.1011747708
 10
9.6933555664
 20
-31.0969971766
 10
9.7055551582
 20
-31.0921667233
 10
9.7122711102
 20
-31.0891840245
  0
LWPOLYLINE
  5
290
100
AcDbEntity
  8
217
100
AcDbPolyline
 62
7
  6
CONTINUOUS
 90
18
 70
0
 10
7.0535031929
 20
-28.0933932961
 10
7.0575504794
 20
-28.0953968896
 10
7.0809601441
 20
-28.1061812586
 10
7.1050872699
 20
-28.1159291536
 10
7.1298903343
 20
-28.1245912688
 10
7.1553035761
 20
-28.1321162554
 10
7.1812890956
 20
-28.1384693645
 10
7.2078087956
 20
-28.1436190589
 10
7.2347942244
 20
-28.1475321027
 10
7.2622058823
 20
-28.1501860559
 10
7.2900024346
 20
-28.1515620495
 10
7.3181154151
 20
-28.1516437186
 10
7.3465046065
 20
-28.1504200028
 10
7.375135027
 20
-28.1478828294
 10
7.4039520241
 20
-28.1440282615
 10
7.4329168922
 20
-28.1388536704
 10
7.4620005919
 20
-28.1323579203
 10
7.4782625483
 20
-28.1281606442
  0
LINE
  5
291
100
AcDbEntity
  8
217
100
AcDbLine
 62
7
  6
CONTINUOUS
 10
-25.1856951399
 20
-13.745155172
 11
-17.4080589853
 21
-17.6339732493
  0
LINE
  5
292
100
AcDbEntity
  8
217
100
AcDbLine
 62
7
  6
CONTINUOUS
 10
-2.855785234
 20
-24.9101101249
 11
9.4956476922
 21
-31.085826588
  0
LINE
  5
293
100
AcDbEntity
  8
217
100
AcDbLine
 62
250
  6
CONTINUOUS
 10
-25.2506684364
 20
-13.6099367219
 11
-17.5764207742
 21
-17.447060553
  0
LINE
  5
294
100
AcDbEntity
  8
217
100
AcDbLine
 62
250
  6
CONTINUOUS
 10
-2.6884365838
 20
-24.8910526481
 11
9.4306743958
 21
-30.9506081379
  0
LWPOLYLINE
  5
295
100
AcDbEntity
  8
217
100
AcDbPolyline
 62
250
  6
CONTINUOUS
 90
175
 70
0
 10
-10.4067068448
 20
-21.6578675743
 10
-10.6602033887
 20
-21.5284561806
 10
-10.9138948188
 20
-21.393558237
 10
-11.1677808225
 20
-21.2531735692
 10
-11.4219746742
 20
-21.1072455459
 10
-11.6763618465
 20
-20.9558301
 10
-11.9306000103
 20
-20.7990957286
 10
-12.1846878113
 20
-20.6370287661
 10
-12.4386240917
 20
-20.469641479
 10
-12.6920665137
 20
-20.2971410937
 10
-12.9450091783
 20
-20.1195166623
 10
-13.197454245
 20
-19.9367770526
 10
-13.4490711945
 20
-19.7491590657
 10
-13.6998269087
 20
-19.5566760246
 10
-13.9497496063
 20
-19.3593118857
 10
-14.1986005419
 20
-19.1572592732
 10
-14.4463602791
 20
-18.9505274849
 10
-14.6930422476
 20
-18.7391038949
 10
-14.9384567912
 20
-18.5231481281
 10
-15.1826137235
 20
-18.302643995
 10
-15.42549615
 20
-18.0776037729
 10
-15.6668741787
 20
-17.848229693
 10
-15.9067542126
 20
-17.6145034923
 10
-16.1451217797
 20
-17.3764389906
 10
-16.3817155742
 20
-17.134286492
 10
-16.6165244324
 20
-16.8880433261
 10
-16.8495505892
 20
-16.6377072656
 10
-17.0805528092
 20
-16.38352927
 10
-17.3095183951
 20
-16.1255097615
 10
-17.5364503559
 20
-15.8636430271
 10
-17.7611310439
 20
-15.5981708451
 10
-17.9835552548
 20
-15.3290852713
 10
-18.2037178303
 20
-15.056388619
 10
-18.4214012818
 20
-14.7803381106
 10
-18.6366018922
 20
-14.5009222064
 10
-18.8493124642
 20
-14.2181465484
 10
-19.059310471
 20
-13.9322942401
 10
-19.2665871458
 20
-13.6433592188
 10
-19.4711399462
 20
-13.3513414741
 10
-19.6727559588
 20
-13.0565333505
 10
-19.8714246204
 20
-12.7589316344
 10
-20.0671449283
 20
-12.4585333711
 10
-20.2597186685
 20
-12.1556314997
 10
-20.4491360503
 20
-11.8502222768
 10
-20.6353951653
 20
-11.5423032537
 10
-20.8183100547
 20
-11.2321695589
 10
-20.9978693148
 20
-10.919821337
 10
-21.1740726468
 20
-10.6052523009
 10
-21.3467512432
 20
-10.2887482115
 10
-21.5158971082
 20
-9.9703040963
 10
-21.6815066203
 20
-9.6499188854
 10
-21.8434180889
 20
-9.3278845054
 10
-22.0016291015
 20
-9.0041825924
 10
-22.1561306556
 20
-8.6788256325
 10
-22.3067518645
 20
-8.3521522088
 10
-22.453486443
 20
-8.0241476384
 10
-22.5963297172
 20
-7.6948210264
 10
-22.7351140945
 20
-7.3645471191
 10
-22.8698220717
 20
-7.033339736
 10
-23.000460913
 20
-6.7011799178
 10
-23.126901115
 20
-6.3683937531
 10
-23.2491301871
 20
-6.034990622
 10
-23.3671510607
 20
-5.7009564175
 10
-23.4808582501
 20
-5.3665824768
 10
-23.5902466993
 20
-5.0318596382
 10
-23.6953125607
 20
-4.6967927327
 10
-23.7959530816
 20
-4.3616945817
 10
-23.8921622781
 20
-4.0265562439
 10
-23.9839380612
 20
-3.6913828128
 10
-24.0711845663
 20
-3.3565087178
 10
-24.1538934668
 20
-3.0219333734
 10
-24.2320660215
 20
-2.6876540839
 10
-24.3056218774
 20
-2.3540027122
 10
-24.3745532028
 20
-2.0209798072
 10
-24.4388618392
 20
-1.6885821347
 10
-24.4984831185
 20
-1.3571364973
 10
-24.5534096502
 20
-1.026646985
 10
-24.6036439757
 20
-0.6971074418
 10
-24.6491375108
 20
-0.3688299163
 10
-24.6898840573
 20
-0.0418224577
 10
-24.7258861169
 20
0.2839244344
 10
-24.7571093021
 20
0.6081244448
 10
-24.7835496266
 20
0.9307818745
 10
-24.8052084601
 20
1.2518933059
 10
-24.8220606012
 20
1.5711602602
 10
-24.8341010021
 20
1.8885993472
 10
-24.8413332572
 20
2.2041942407
 10
-24.8437464363
 20
2.5175963974
 10
-24.841333736
 20
2.8288023148
 10
-24.8341019587
 20
3.1378150463
 10
-24.822062012
 20
3.4442951683
 10
-24.8052102873
 20
3.7482211646
 10
-24.7835518464
 20
4.049613382
 10
-24.7571119118
 20
4.3481945428
 10
-24.7258891219
 20
4.6439570928
 10
-24.6898874556
 20
4.9369068526
 10
-24.6491412978
 20
5.2267860424
 10
-24.6036481472
 20
5.513598073
 10
-24.5534142016
 20
5.7973372883
 10
-24.4984880417
 20
6.0777317501
 10
-24.4388671159
 20
6.3547802958
 10
-24.3745588246
 20
6.6284813053
 10
-24.3056278621
 20
6.8985615833
 10
-24.2320723953
 20
7.1650164664
 10
-24.1539002478
 20
7.4278473131
 10
-24.0711917737
 20
7.6867894004
 10
-23.9839457218
 20
7.9418370328
 10
-23.8921704113
 20
8.1929921192
 10
-23.7959616855
 20
8.4400008079
 10
-23.6953216193
 20
8.6828517986
 10
-23.5902562105
 20
8.9215521669
 10
-23.4808682316
 20
9.1558751364
 10
-23.3671615391
 20
9.3858105222
 10
-23.2491411802
 20
9.6113639365
 10
-23.1269126332
 20
9.8323318736
 10
-23.0004730076
 20
10.0487161438
 10
-22.8698347533
 20
10.2605101044
 10
-22.7351272435
 20
10.4674971658
 10
-22.5963431954
 20
10.6696791929
 10
-22.4535001299
 20
10.867049222
 10
-22.3067655649
 20
11.0593769921
 10
-22.1561440631
 20
11.2466466154
 10
-22.0016420198
 20
11.428868599
 10
-21.8434305793
 20
11.6058518776
 10
-21.6815188145
 20
11.7775807054
 10
-21.5159090683
 20
11.9440652907
 10
-21.3467630791
 20
12.1051531925
 10
-21.1740845118
 20
12.2608372046
 10
-20.9978813194
 20
12.411118958
 10
-20.8183222275
 20
12.5558590251
 10
-20.6354075131
 20
12.6950522377
 10
-20.4491486018
 20
12.8286982039
 10
-20.2597314352
 20
12.9566644464
 10
-20.0671579138
 20
13.0789433652
 10
-19.8714378362
 20
13.1955370534
 10
-19.6727694236
 20
13.306327388
 10
-19.4711536956
 20
13.4113064754
 10
-19.2666011986
 20
13.5104768116
 10
-19.0593248019
 20
13.6037357057
 10
-18.8493270364
 20
13.6910739821
 10
-18.6366166804
 20
13.7724955803
 10
-18.4214162519
 20
13.8479173667
 10
-18.2037329256
 20
13.9173293289
 10
-17.9835704409
 20
13.9807364627
 10
-17.7611463444
 20
14.0380780742
 10
-17.5364658174
 20
14.0893461263
 10
-17.3095340413
 20
14.1345439244
 10
-17.0805686533
 20
14.1736277547
 10
-16.8495666751
 20
14.2065904031
 10
-16.6165407733
 20
14.2334346863
 10
-16.381732081
 20
14.254131932
 10
-16.1451383165
 20
14.2686727717
 10
-15.9067706903
 20
14.2770625429
 10
-15.6668905465
 20
14.2792946504
 10
-15.4255122912
 20
14.2753606717
 10
-15.1826295874
 20
14.2652654037
 10
-14.9384725631
 20
14.2490221305
 10
-14.6930581899
 20
14.2266276147
 10
-14.4463765772
 20
14.198081925
 10
-14.1986173859
 20
14.1634033859
 10
-13.949767329
 20
14.1225852365
 10
-13.6998457004
 20
14.0756315588
 10
-13.4490908218
 20
14.0225770376
 10
-13.1974744439
 20
13.9634043675
 10
-12.9450297154
 20
13.8981286752
 10
-12.6920868233
 20
13.826833398
 10
-12.4386435054
 20
13.7495025992
 10
-12.1847057633
 20
13.6661505563
 10
-11.9306159108
 20
13.5769061479
 10
-11.6763747706
 20
13.4817543387
 10
-11.4219840322
 20
13.3807090513
 10
-11.1677870069
 20
13.2739427361
 10
-10.9138985492
 20
13.1615126919
 10
-10.6602050577
 20
13.0433610655
 10
-10.4067068448
 20
12.9194877184
  0
LWPOLYLINE
  5
296
100
AcDbEntity
  8
217
100
AcDbPolyline
 62
250
  6
CONTINUOUS
 90
138
 70
0
 10
-10.0597140674
 20
-21.0310848129
 10
-10.3067312291
 20
-20.9049694725
 10
-10.554101397
 20
-20.7734550086
 10
-10.8017445978
 20
-20.6365695851
 10
-11.0496111114
 20
-20.4943263115
 10
-11.2975895312
 20
-20.3467729732
 10
-11.5455072208
 20
-20.1939983711
 10
-11.7932848131
 20
-20.0360444922
 10
-12.0408400198
 20
-19.8729543229
 10
-12.2879967191
 20
-19.7048322335
 10
-12.5346727751
 20
-19.5317335369
 10
-12.7807901818
 20
-19.3537098611
 10
-13.0261807166
 20
-19.1708730608
 10
-13.2707379905
 20
-18.9833082493
 10
-13.5144117703
 20
-18.7910576579
 10
-13.7571193732
 20
-18.5941756034
 10
-13.9987684951
 20
-18.392741966
 10
-14.2392971303
 20
-18.186811864
 10
-14.4786677556
 20
-17.9764012987
 10
-14.7168173002
 20
-17.7615662451
 10
-14.9536551053
 20
-17.5423874725
 10
-15.1891017879
 20
-17.3189167562
 10
-15.4230935159
 20
-17.0912147941
 10
-15.6555425908
 20
-16.8593652432
 10
-15.8863348032
 20
-16.6234570633
 10
-16.1153923168
 20
-16.3835725131
 10
-16.3426458969
 20
-16.1397850617
 10
-16.5679958366
 20
-15.8921741618
 10
-16.7913649561
 20
-15.6408282188
 10
-17.0126876625
 20
-15.3858231937
 10
-17.2318825658
 20
-15.1272217343
 10
-17.4488817425
 20
-14.8651066741
 10
-17.6636138679
 20
-14.599565629
 10
-17.8759931024
 20
-14.3306695633
 10
-18.0859558126
 20
-14.0585014623
 10
-18.2934306024
 20
-13.7831552174
 10
-18.4983212999
 20
-13.5047200059
 10
-18.7005627531
 20
-13.2232878532
 10
-18.9000907452
 20
-12.9389507948
 10
-19.0968123556
 20
-12.6518002029
 10
-19.290663781
 20
-12.3619335681
 10
-19.4815855097
 20
-12.0694437716
 10
-19.6694927769
 20
-11.7744169792
 10
-19.8543253959
 20
-11.4769522182
 10
-20.0360261723
 20
-11.1771459674
 10
-20.2145162542
 20
-10.8750817686
 10
-20.3897365482
 20
-10.5708640982
 10
-20.5616348219
 20
-10.2645883841
 10
-20.7301433736
 20
-9.9563252595
 10
-20.8952086951
 20
-9.6461754627
 10
-21.0567781186
 20
-9.3342414253
 10
-21.2147856452
 20
-9.0205966894
 10
-21.3691866578
 20
-8.7053305558
 10
-21.5199248138
 20
-8.3885599016
 10
-21.6669184154
 20
-8.0704005658
 10
-21.8101248315
 20
-7.7509472672
 10
-21.9494943835
 20
-7.4303151975
 10
-22.0849392522
 20
-7.1086524308
 10
-22.216411083
 20
-6.786082181
 10
-22.3438777778
 20
-6.4626943575
 10
-22.4672797724
 20
-6.1385880023
 10
-22.5865752795
 20
-5.8138815667
 10
-22.7017335245
 20
-5.4886706952
 10
-22.8127122987
 20
-5.1630203123
 10
-22.9194789332
 20
-4.8370305418
 10
-23.0219986251
 20
-4.5108156005
 10
-23.1202262586
 20
-4.1844615509
 10
-23.2141323965
 20
-3.8580684258
 10
-23.3036861175
 20
-3.5317507356
 10
-23.3888419432
 20
-3.2056162501
 10
-23.4695726899
 20
-2.8797723196
 10
-23.5458542594
 20
-2.5543257019
 10
-23.6176484477
 20
-2.2293830641
 10
-23.6849324082
 20
-1.9050516567
 10
-23.7476866547
 20
-1.5814371419
 10
-23.8058805275
 20
-1.258643399
 10
-23.8594951371
 20
-0.9367796879
 10
-23.9085159491
 20
-0.6159477675
 10
-23.9529207671
 20
-0.2962398139
 10
-23.9926944238
 20
0.022232382
 10
-24.0278267191
 20
0.3393718677
 10
-24.0583034231
 20
0.6551088528
 10
-24.0841136585
 20
0.9693447832
 10
-24.1052486933
 20
1.2819712939
 10
-24.1216976919
 20
1.5929038876
 10
-24.1334535386
 20
1.9020585512
 10
-24.1405107005
 20
2.2093147604
 10
-24.1428638605
 20
2.5145345748
 10
-24.1405113054
 20
2.8176187621
 10
-24.1334547269
 20
3.1184676507
 10
-24.121699439
 20
3.4169454033
 10
-24.1052509749
 20
3.7129386348
 10
-24.0841164475
 20
4.0063688388
 10
-24.0583067084
 20
4.2971543298
 10
-24.0278305074
 20
4.5851968583
 10
-23.99269872
 20
4.8704073732
 10
-23.9529255665
 20
5.1527181565
 10
-23.9085212435
 20
5.4320440715
 10
-23.8595009229
 20
5.7082868793
 10
-23.8058867966
 20
5.981359592
 10
-23.7476933901
 20
6.2511766064
 10
-23.6849396
 20
6.517645929
 10
-23.6176561079
 20
6.7806724677
 10
-23.5458624142
 20
7.0401715061
 10
-23.4695813601
 20
7.2960571882
 10
-23.3888511446
 20
7.548234813
 10
-23.3036958729
 20
7.7966231016
 10
-23.2141427268
 20
8.0411405119
 10
-23.1202371624
 20
8.2816943772
 10
-23.0220100853
 20
8.5182021874
 10
-22.9194909454
 20
8.7505922654
 10
-22.8127248774
 20
8.9787900478
 10
-22.7017466953
 20
9.2027169405
 10
-22.5865890602
 20
9.4223046729
 10
-22.467294172
 20
9.6374944598
 10
-22.3438928394
 20
9.8482226594
 10
-22.2164268182
 20
10.0544113835
 10
-22.0849555545
 20
10.2559813944
 10
-21.9495111093
 20
10.4528763452
 10
-21.8101418533
 20
10.6450198861
 10
-21.6669355533
 20
10.8323075522
 10
-21.5199417757
 20
11.0146742902
 10
-21.3692032345
 20
11.1920675112
 10
-21.2148018844
 20
11.3644074436
 10
-21.0567941581
 20
11.5316334214
 10
-20.8952246
 20
11.6937009143
 10
-20.7301592418
 20
11.8505572044
 10
-20.561650799
 20
12.0021527282
 10
-20.3897527494
 20
12.1484400808
 10
-20.2145327051
 20
12.2893705867
 10
-20.0360428742
 20
12.4249013497
 10
-19.8543423771
 20
12.554986692
 10
-19.6695100466
 20
12.6795752786
 10
-19.4816030688
 20
12.7986278084
 10
-19.2906816398
 20
12.9121054595
 10
-19.0968305295
 20
13.0199602362
 10
-18.9001092662
 20
13.1221585929
 10
-18.7388300097
 20
13.200710571
  0
LINE
  5
297
100
AcDbEntity
  8
217
100
AcDbLine
 62
250
  6
CONTINUOUS
 10
-27.5490190593
 20
-10.7920975693
 11
-27.5498527214
 21
-10.7916437126
  0
LWPOLYLINE
  5
298
100
AcDbEntity
  8
217
100
AcDbPolyline
 62
250
  6
CONTINUOUS
 90
25
 70
0
 10
-27.5509483034
 20
-10.7910472632
 10
-27.5685845433
 20
-10.781142413
 10
-27.5863710635
 20
-10.7697667605
 10
-27.6035723034
 20
-10.7573351385
 10
-27.6201672091
 20
-10.743862723
 10
-27.6361354037
 20
-10.72936598
 10
-27.6514580769
 20
-10.7138622121
 10
-27.6661164738
 20
-10.697370306
 10
-27.6800926006
 20
-10.6799103594
 10
-27.6933700093
 20
-10.6615032733
 10
-27.7059324786
 20
-10.6421713899
 10
-27.7177645545
 20
-10.6219382583
 10
-27.7288522614
 20
-10.6008282669
 10
-27.7391820086
 20
-10.5788671558
 10
-27.7487411635
 20
-10.5560815213
 10
-27.7575185661
 20
-10.5324985548
 10
-27.7655035463
 20
-10.5081466338
 10
-27.7726861907
 20
-10.4830554945
 10
-27.779057942
 20
-10.4572557589
 10
-27.784610993
 20
-10.4307790216
 10
-27.7893386044
 20
-10.4036571042
 10
-27.7932353084
 20
-10.3759221768
 10
-27.7962963959
 20
-10.3476075744
 10
-27.7985179818
 20
-10.3187478001
 10
-27.7998973162
 20
-10.2893777802
  0
LWPOLYLINE
  5
299
100
AcDbEntity
  8
217
100
AcDbPolyline
 62
7
  6
CONTINUOUS
 90
77
 70
0
 10
-19.8442412119
 20
-14.6215886602
 10
-19.7528460959
 20
-14.7482014742
 10
-19.5295012981
 20
-15.0526414489
 10
-19.3033676468
 20
-15.3539210149
 10
-19.0745149877
 20
-15.6519534246
 10
-18.8430128026
 20
-15.9466559639
 10
-18.6089287151
 20
-16.2379485973
 10
-18.3723333693
 20
-16.5257479655
 10
-18.1332985927
 20
-16.8099726091
 10
-17.8918930569
 20
-17.090545194
 10
-17.648188739
 20
-17.3673848504
 10
-17.4022588473
 20
-17.6404124742
 10
-17.1541731071
 20
-17.9095532144
 10
-16.9040047831
 20
-18.1747285935
 10
-16.6518280397
 20
-18.435862196
 10
-16.3977130858
 20
-18.6928820741
 10
-16.1417341131
 20
-18.9457123591
 10
-15.8839661059
 20
-19.1942792809
 10
-15.6244795127
 20
-19.4385138077
 10
-15.3633476576
 20
-19.6783441574
 10
-15.1006476314
 20
-19.9136978192
 10
-14.8364545714
 20
-20.1445046305
 10
-14.5708427774
 20
-20.3706953019
 10
-14.3038892806
 20
-20.5922008599
 10
-14.0356723632
 20
-20.8089519553
 10
-13.7662678366
 20
-21.020881503
 10
-13.4957516785
 20
-21.2279248712
 10
-13.2242013668
 20
-21.4300168455
 10
-12.9516899118
 20
-21.6270956021
 10
-12.6782959677
 20
-21.8190976902
 10
-12.4041043479
 20
-22.0059562797
 10
-12.1291871903
 20
-22.1876135516
 10
-11.8536235307
 20
-22.3640095124
 10
-11.5775073683
 20
-22.5350758676
 10
-11.3009137954
 20
-22.7007569414
 10
-11.0239179684
 20
-22.860999428
 10
-10.7466126984
 20
-23.015740905
 10
-10.4690669268
 20
-23.1649329165
 10
-10.1913605003
 20
-23.3085234069
 10
-9.913601177
 20
-23.4464477759
 10
-9.6358507673
 20
-23.5786654497
 10
-9.3581944254
 20
-23.7051268533
 10
-9.080773339
 20
-23.8257602198
 10
-8.8036580252
 20
-23.9405277736
 10
-8.5269224553
 20
-24.0493926133
 10
-8.2507111427
 20
-24.1522931609
 10
-7.9750937133
 20
-24.2491992683
 10
-7.7001419683
 20
-24.3400823328
 10
-7.426001673
 20
-24.4248926012
 10
-7.1527405037
 20
-24.5036081905
 10
-6.8804288577
 20
-24.5762087289
 10
-6.6092145445
 20
-24.6426568794
 10
-6.3391522338
 20
-24.7029417505
 10
-6.0703220221
 20
-24.7570487992
 10
-5.8029074836
 20
-24.8049485329
 10
-5.53696231
 20
-24.8466406052
 10
-5.2725633294
 20
-24.8821230352
 10
-5.0099255286
 20
-24.9113827666
 10
-4.749150935
 20
-24.934429172
 10
-4.4902617874
 20
-24.9512817358
 10
-4.2333514224
 20
-24.9619562483
 10
-3.9785004979
 20
-24.9664715852
 10
-3.7257509319
 20
-24.9648497166
 10
-3.4751392464
 20
-24.9571132041
 10
-3.2267243863
 20
-24.9432839338
 10
-2.980571361
 20
-24.9233857332
 10
-2.7367282155
 20
-24.8974440187
 10
-2.4952554651
 20
-24.8654852345
 10
-2.2562175233
 20
-24.8275376722
 10
-2.019670166
 20
-24.7836319346
 10
-1.7856741275
 20
-24.7338002752
 10
-1.5542934857
 20
-24.6780767643
 10
-1.325589972
 20
-24.6164990516
 10
-1.0996227226
 20
-24.549106014
 10
-0.8764551408
 20
-24.4759387793
 10
-0.6561548879
 20
-24.3970442021
 10
-0.4779020905
 20
-24.3276906811
  0
LWPOLYLINE
  5
29A
100
AcDbEntity
  8
217
100
AcDbPolyline
 62
7
  6
CONTINUOUS
 90
23
 70
0
 10
-19.8442385293
 20
-14.6215902011
 10
-19.8497011919
 20
-14.6135614893
 10
-19.8564926694
 20
-14.6021887018
 10
-19.8626303148
 20
-14.5901844075
 10
-19.8681233593
 20
-14.577555711
 10
-19.872963544
 20
-14.5643198729
 10
-19.8771434833
 20
-14.5504944096
 10
-19.8806742909
 20
-14.5360871789
 10
-19.883549289
 20
-14.5211166321
 10
-19.8857625862
 20
-14.5056014389
 10
-19.8873269995
 20
-14.4895500576
 10
-19.8882373993
 20
-14.4729819405
 10
-19.8884893541
 20
-14.4559167594
 10
-19.8880972021
 20
-14.4383634935
 10
-19.8870573231
 20
-14.4203424733
 10
-19.8853667151
 20
-14.4018741891
 10
-19.8830410674
 20
-14.3829679817
 10
-19.8800782206
 20
-14.363644885
 10
-19.876476557
 20
-14.3439260856
 10
-19.8722529472
 20
-14.3238212158
 10
-19.8674125706
 20
-14.3033478732
 10
-19.861949168
 20
-14.2825317816
 10
-19.8558630169
 20
-14.2613949298
  0
LWPOLYLINE
  5
29B
100
AcDbEntity
  8
217
100
AcDbPolyline
 62
250
  6
CONTINUOUS
 90
65
 70
0
 10
-21.9066708066
 20
27.836043991
 10
-21.9066126522
 20
27.8307229317
 10
-21.9055487271
 20
27.8124032592
 10
-21.9031475789
 20
27.7941265241
 10
-21.8994125475
 20
27.7759186914
 10
-21.8943488358
 20
27.7578045963
 10
-21.8879634266
 20
27.7398086671
 10
-21.8802650457
 20
27.721956092
 10
-21.8712642126
 20
27.7042710666
 10
-21.8609733421
 20
27.6867776899
 10
-21.8494066742
 20
27.6695006852
 10
-21.8365801984
 20
27.6524636945
 10
-21.8225115273
 20
27.6356897827
 10
-21.8072199413
 20
27.6192023399
 10
-21.7907264186
 20
27.6030238603
 10
-21.7730536876
 20
27.5871764156
 10
-21.7542261229
 20
27.5716821556
 10
-21.7342696819
 20
27.5565623528
 10
-21.7132117759
 20
27.5418375863
 10
-21.6910812861
 20
27.5275282251
 10
-21.6679086126
 20
27.5136539209
 10
-21.6437256532
 20
27.5002336646
 10
-21.6185656714
 20
27.4872859734
 10
-21.5924632671
 20
27.474828707
 10
-21.5654543383
 20
27.4628789488
 10
-21.5375760399
 20
27.4514530705
 10
-21.5088667553
 20
27.440566916
 10
-21.4793659269
 20
27.4302354519
 10
-21.4491140024
 20
27.4204726581
 10
-21.4181524985
 20
27.4112921204
 10
-21.3865240636
 20
27.4027065713
 10
-21.354272304
 20
27.3947275425
 10
-21.3214416752
 20
27.3873662625
 10
-21.288077231
 20
27.3806329667
 10
-21.2542246673
 20
27.3745364569
 10
-21.2199303815
 20
27.3690853943
 10
-21.1852416798
 20
27.3642875106
 10
-21.1502065343
 20
27.3601489067
 10
-21.1148733453
 20
27.3566756299
 10
-21.0792904984
 20
27.353872679
 10
-21.0435065585
 20
27.3517432435
 10
-21.0075705544
 20
27.3502906503
 10
-20.9715320875
 20
27.3495172335
 10
-20.9354408928
 20
27.3494233331
 10
-20.899346696
 20
27.3500095138
 10
-20.8632990549
 20
27.3512753323
 10
-20.8273474614
 20
27.3532182335
 10
-20.7915411703
 20
27.355836041
 10
-20.7559296327
 20
27.3591255598
 10
-20.7205623291
 20
27.3630813128
 10
-20.6854882546
 20
27.367698292
 10
-20.6507552816
 20
27.372970612
 10
-20.6164106089
 20
27.3788901373
 10
-20.5825012855
 20
27.3854493066
 10
-20.5490741689
 20
27.3926395605
 10
-20.5161752921
 20
27.4004499906
 10
-20.4838496289
 20
27.4088704906
 10
-20.4521419591
 20
27.4178899293
 10
-20.4210967884
 20
27.4274945607
 10
-20.3907575875
 20
27.4376714068
 10
-20.361165189
 20
27.44840722
 10
-20.3323587473
 20
27.459686716
 10
-20.3043774753
 20
27.4714946479
 10
-20.2772604554
 20
27.4838157311
 10
-20.251045074
 20
27.4966336205
  0
LINE
  5
29C
100
AcDbEntity
  8
217
100
AcDbLine
 62
7
  6
CONTINUOUS
 10
-21.9066708205
 20
26.7056213659
 11
-21.9066708205
 21
27.8361317312
  0
LINE
  5
29D
100
AcDbEntity
  8
217
100
AcDbLine
 62
250
  6
CONTINUOUS
 10
-20.251045074
 20
26.3687522781
 11
-20.251045074
 21
27.4966336205
  0
LINE
  5
29E
100
AcDbEntity
  8
217
100
AcDbLine
 62
7
  6
CONTINUOUS
 10
-19.5342882844
 20
25.1507453801
 11
-19.5342882844
 21
24.7645428194
  0
LINE
  5
29F
100
AcDbEntity
  8
RACCORDO
100
AcDbLine
 62
250
  6
CONTINUOUS
 10
-14.6344330954
 20
26.9860610016
 11
-14.6511181289
 21
26.9148263013
  0
LWPOLYLINE
  5
2A0
100
AcDbEntity
  8
RACCORDO
100
AcDbPolyline
 62
7
  6
CONTINUOUS
 90
12
 70
0
 10
-14.6877349851
 20
26.9609584509
 10
-14.6870798192
 20
26.9630964365
 10
-14.6853233304
 20
26.9665180478
 10
-14.6827351642
 20
26.9697183774
 10
-14.6793258395
 20
26.972700224
 10
-14.6751388434
 20
26.9754255532
 10
-14.6701642141
 20
26.9778910788
 10
-14.6644119134
 20
26.980100087
 10
-14.657955314
 20
26.9820244011
 10
-14.6508188732
 20
26.9836546288
 10
-14.6429781337
 20
26.9850001623
 10
-14.6344330954
 20
26.9860610016
  0
LINE
  5
2A1
100
AcDbEntity
  8
RACCORDO
100
AcDbLine
 62
250
  6
CONTINUOUS
 10
-9.6313825082
 20
21.5595821279
 11
-9.1963641914
 21
22.2234549652
  0
LINE
  5
2A2
100
AcDbEntity
  8
RACCORDO
100
AcDbLine
 62
250
  6
CONTINUOUS
 10
-9.1283125383
 20
21.8174264574
 11
-8.9447054519
 21
22.0976255954
  0
LINE
  5
2A3
100
AcDbEntity
  8
RACCORDO
100
AcDbLine
 62
7
  6
CONTINUOUS
 10
3.3704961216
 20
25.0601060521
 11
0.6818863296
 21
23.6680375813
  0
LINE
  5
2A4
100
AcDbEntity
  8
217
100
AcDbLine
 62
250
  6
CONTINUOUS
 10
-8.3332782651
 20
20.1000987486
 11
-1.6167251286
 21
23.4842719006
  0
LINE
  5
2A5
100
AcDbEntity
  8
217
100
AcDbLine
 62
250
  6
CONTINUOUS
 10
-8.1918704648
 20
19.8562241617
 11
-1.4753253115
 21
23.2403932913
  0
LINE
  5
2A6
100
AcDbEntity
  8
217
100
AcDbLine
 62
7
  6
CONTINUOUS
 10
-1.4753253115
 20
22.8562637701
 11
-8.191878448
 21
19.4720906181
  0
LINE
  5
2A7
100
AcDbEntity
  8
217
100
AcDbLine
 62
250
  6
CONTINUOUS
 10
-0.1480265278
 20
24.2127572339
 11
-1.6167251286
 21
23.4842719006
  0
LINE
  5
2A8
100
AcDbEntity
  8
217
100
AcDbLine
 62
250
  6
CONTINUOUS
 10
-0.0066202745
 20
23.9688818171
 11
-1.4753253115
 21
23.2403932913
  0
LINE
  5
2A9
100
AcDbEntity
  8
RACCORDO
100
AcDbLine
 62
7
  6
CONTINUOUS
 10
2.077553056
 20
23.9085505458
 11
3.1940444563
 21
24.4623385113
  0
LINE
  5
2AA
100
AcDbEntity
  8
RACCORDO
100
AcDbLine
 62
7
  6
CONTINUOUS
 10
2.4233772049
 20
25.4888133997
 11
0.019556618
 21
24.3208118875
  0
LINE
  5
2AB
100
AcDbEntity
  8
217
100
AcDbLine
 62
7
  6
CONTINUOUS
 10
-18.7388300097
 20
13.200710571
 11
-18.7382367018
 21
13.2009910583
  0
LINE
  5
2AC
100
AcDbEntity
  8
RACCORDO
100
AcDbLine
 62
7
  6
CONTINUOUS
 10
9.1470640676
 20
26.2413689346
 11
3.1912274942
 21
23.4411991404
  0
LWPOLYLINE
  5
2AD
100
AcDbEntity
  8
217
100
AcDbPolyline
 62
7
  6
CONTINUOUS
 90
39
 70
0
 10
-18.7388251634
 20
13.2007124117
 10
-18.6015024715
 20
13.2639389462
 10
-18.4048583723
 20
13.3486891921
 10
-18.2057765083
 20
13.4277874457
 10
-18.0043245716
 20
13.501219013
 10
-17.8005709968
 20
13.5689687325
 10
-17.5945830313
 20
13.6310244696
 10
-17.3864308646
 20
13.6873758083
 10
-17.1761885419
 20
13.7380113736
 10
-16.9639255863
 20
13.7829237893
 10
-16.7497145007
 20
13.8221076538
 10
-16.5336356058
 20
13.855556468
 10
-16.3157606289
 20
13.8832682272
 10
-16.0961649854
 20
13.9052431173
 10
-15.8749366583
 20
13.9214807203
 10
-15.652150523
 20
13.9319850742
 10
-15.4278839468
 20
13.9367628889
 10
-15.2022307517
 20
13.9358213578
 10
-14.9752804163
 20
13.9291717539
 10
-14.7471002225
 20
13.9168279461
 10
-14.5177517769
 20
13.8988023966
 10
-14.2873228316
 20
13.8751113945
 10
-14.0558843138
 20
13.8457728342
 10
-13.8234722623
 20
13.810798461
 10
-13.5901652442
 20
13.7702061951
 10
-13.3560438559
 20
13.7240176242
 10
-13.1211463441
 20
13.6722450279
 10
-12.8855513535
 20
13.6149093069
 10
-12.6493392158
 20
13.5520352418
 10
-12.4125498364
 20
13.4836360991
 10
-12.175263853
 20
13.4097366857
 10
-11.9375601969
 20
13.3303651402
 10
-11.6994754148
 20
13.24553462
 10
-11.4610886056
 20
13.1552725274
 10
-11.2224762248
 20
13.0596088504
 10
-10.9836699961
 20
12.9585549598
 10
-10.7447334556
 20
12.8521343194
 10
-10.5057679812
 20
12.7403914691
 10
-10.2771504939
 20
12.6285160387
  0
LWPOLYLINE
  5
2AE
100
AcDbEntity
  8
217
100
AcDbPolyline
 62
250
  6
CONTINUOUS
 90
79
 70
0
 10
-19.8558629586
 20
14.7765533155
 10
-19.6450626975
 20
14.872643791
 10
-19.4317576534
 20
14.9629654519
 10
-19.2159534797
 20
15.0475156986
 10
-18.9975897264
 20
15.1263134039
 10
-18.7767377129
 20
15.1993347142
 10
-18.5536007358
 20
15.2665129563
 10
-18.328182661
 20
15.3278402317
 10
-18.100490092
 20
15.3833196754
 10
-17.8707305622
 20
15.4329011157
 10
-17.638907492
 20
15.476576976
 10
-17.4050273672
 20
15.5143503546
 10
-17.1693023809
 20
15.5461870717
 10
-16.9317356362
 20
15.5720797283
 10
-16.6923332677
 20
15.5920315716
 10
-16.4513120134
 20
15.6060243987
 10
-16.2086749079
 20
15.6140509687
 10
-15.9644273889
 20
15.6161147346
 10
-15.7187897376
 20
15.6122135668
 10
-15.4717649128
 20
15.6023404701
 10
-15.2233575732
 20
15.5864990496
 10
-14.9737904357
 20
15.564703132
 10
-14.7230660738
 20
15.5369459928
 10
-14.4711885964
 20
15.5032313943
 10
-14.218382862
 20
15.4635889678
 10
-13.9646511897
 20
15.4180122859
 10
-13.7099969382
 20
15.3665052677
 10
-13.454646323
 20
15.3091131548
 10
-13.1986012348
 20
15.2458298077
 10
-12.941864397
 20
15.1766593332
 10
-12.6846630393
 20
15.1016624479
 10
-12.4269987584
 20
15.0208333537
 10
-12.1688734605
 20
14.934176309
 10
-11.9105145771
 20
14.8417672299
 10
-11.6519232269
 20
14.7436006243
 10
-11.3931006466
 20
14.6396809505
 10
-11.1342741656
 20
14.530099174
 10
-10.8754445404
 20
14.4148501619
 10
-10.6166121983
 20
14.293938528
 10
-10.3580036825
 20
14.1674699861
 10
-10.0996192618
 20
14.0354397169
 10
-9.8414586675
 20
13.8978525398
 10
-9.5837473411
 20
13.7548287563
 10
-9.3264851499
 20
13.6063639021
 10
-9.0696710428
 20
13.4524629605
 10
-8.8135287929
 20
13.2932605325
 10
-8.5580577948
 20
13.1287524636
 10
-8.3032562985
 20
12.9589439421
 10
-8.0493460791
 20
12.7839837057
 10
-7.7963262026
 20
12.6038680004
 10
-7.5441941001
 20
12.4186021201
 10
-7.2931688341
 20
12.2283484904
 10
-7.0432490539
 20
12.0331036943
 10
-6.7944314959
 20
11.8328731815
 10
-6.5469321176
 20
11.6278327837
 10
-6.3007491377
 20
11.417979369
 10
-6.0558786597
 20
11.2033185775
 10
-5.812533267
 20
10.9840394897
 10
-5.5707107433
 20
10.7601391879
 10
-5.3304066223
 20
10.5316235519
 10
-5.0918299509
 20
10.2986949325
 10
-4.8549785201
 20
10.0613510347
 10
-4.6198469218
 20
9.8195975434
 10
-4.38663929
 20
9.5736488349
 10
-4.1553534345
 20
9.3235033409
 10
-3.925983074
 20
9.0691664172
 10
-3.6987261443
 20
8.8108628584
 10
-3.4735797096
 20
8.5485908987
 10
-3.2505374674
 20
8.2823564561
 10
-3.0297922996
 20
8.0123958584
 10
-2.8113403023
 20
7.7387064588
 10
-2.5951754712
 20
7.4612953835
 10
-2.3814876004
 20
7.1804135996
 10
-2.1702735451
 20
6.8960597222
 10
-1.9615259838
 20
6.6082398982
 10
-1.7554285811
 20
6.3172163408
 10
-1.5520390082
 20
6.0230780815
 10
-1.3512887335
 20
5.7257410656
 10
-1.1531721082
 20
5.4252078903
  0
LINE
  5
2AF
100
AcDbEntity
  8
217
100
AcDbLine
 62
7
  6
CONTINUOUS
 10
-1.4753253115
 20
22.8562637701
 11
0.4027125925
 21
23.6792937365
  0
LINE
  5
2B0
100
AcDbEntity
  8
217
100
AcDbLine
 62
7
  6
CONTINUOUS
 10
2.0952532107
 20
23.9154669937
 11
1.024126573
 21
23.4969174596
  0
LWPOLYLINE
  5
2B1
100
AcDbEntity
  8
217
100
AcDbPolyline
 62
7
  6
CONTINUOUS
 90
17
 70
0
 10
2.0952532107
 20
23.9154669937
 10
2.1047934778
 20
23.9189186348
 10
2.1146029806
 20
23.9219116
 10
2.1246540978
 20
23.9244202617
 10
2.1349337922
 20
23.9264239706
 10
2.145391325
 20
23.9278967551
 10
2.1559402159
 20
23.9288171945
 10
2.1665278579
 20
23.9291780664
 10
2.1771362394
 20
23.9289770631
 10
2.1877341234
 20
23.9282122589
 10
2.1982831347
 20
23.9268846713
 10
2.2087550087
 20
23.9249966312
 10
2.2191393331
 20
23.9225470058
 10
2.2294413566
 20
23.9195267482
 10
2.2395944886
 20
23.915947319
 10
2.2494954267
 20
23.9118467688
 10
2.2574936984
 20
23.9080660379
  0
LWPOLYLINE
  5
2B2
100
AcDbEntity
  8
217
100
AcDbPolyline
 62
7
  6
CONTINUOUS
 90
3
 70
0
 10
-16.5616416626
 20
17.4938231615
 10
-16.6059340611
 20
17.4783289073
 10
-16.6634899081
 20
17.4577297081
  0
LINE
  5
2B3
100
AcDbEntity
  8
217
100
AcDbLine
 62
7
  6
CONTINUOUS
 10
-27.5439495681
 20
-10.7946669423
 11
-19.8183386198
 21
-14.6574724164
  0
LINE
  5
2B4
100
AcDbEntity
  8
217
100
AcDbLine
 62
7
  6
CONTINUOUS
 10
-0.7114869101
 20
-24.2108982713
 11
7.053606739
 21
-28.0934450958
  0
LINE
  5
2B5
100
AcDbEntity
  8
217
100
AcDbLine
 62
250
  6
CONTINUOUS
 10
-27.7998973162
 20
-10.2893777802
 11
-19.8558629514
 21
-14.2613949626
  0
LINE
  5
2B6
100
AcDbEntity
  8
217
100
AcDbLine
 62
250
  6
CONTINUOUS
 10
-1.1531721254
 20
-23.6127403756
 11
6.7908657252
 21
-27.5847593009
  0
LINE
  5
2B7
100
AcDbEntity
  8
217
100
AcDbLine
 62
7
  6
CONTINUOUS
 10
9.4306743958
 20
-28.0800065797
 11
8.8075756664
 21
-27.768457215
  0
LINE
  5
2B8
100
AcDbEntity
  8
217
100
AcDbLine
 62
7
  6
CONTINUOUS
 10
9.9641170584
 20
-27.9856162556
 11
9.2761905389
 21
-27.6416529958
  0
LWPOLYLINE
  5
2B9
100
AcDbEntity
  8
217
100
AcDbPolyline
 62
7
  6
CONTINUOUS
 90
30
 70
0
 10
-0.7113379988
 20
-24.210972725
 10
-0.7211006789
 20
-24.205983564
 10
-0.74232438
 20
-24.194386378
 10
-0.7632423466
 20
-24.1819184622
 10
-0.7838421184
 20
-24.1685930499
 10
-0.8040971931
 20
-24.1544310099
 10
-0.8239965218
 20
-24.1394464789
 10
-0.8435292591
 20
-24.123654339
 10
-0.8626698474
 20
-24.1070771533
 10
-0.8814087525
 20
-24.0897306515
 10
-0.8997367464
 20
-24.0716311826
 10
-0.9176293417
 20
-24.0528027106
 10
-0.9350785185
 20
-24.0332623766
 10
-0.9520766522
 20
-24.0130278162
 10
-0.9686004202
 20
-23.9921241056
 10
-0.9846433036
 20
-23.9705696166
 10
-1.0001992522
 20
-23.9483830982
 10
-1.0152461706
 20
-23.9255904649
 10
-1.0297790318
 20
-23.9022111177
 10
-1.0437933019
 20
-23.8782647796
 10
-1.0572680985
 20
-23.8537780398
 10
-1.0701998295
 20
-23.828771215
 10
-1.082585465
 20
-23.8032648093
 10
-1.0944053894
 20
-23.7772858153
 10
-1.1056574172
 20
-23.7508552789
 10
-1.1163399568
 20
-23.7239943746
 10
-1.1264346522
 20
-23.6967303508
 10
-1.1359349408
 20
-23.6690866773
 10
-1.1448463057
 20
-23.6410832061
 10
-1.1531690246
 20
-23.612741926
  0
LWPOLYLINE
  5
2BA
100
AcDbEntity
  8
217
100
AcDbPolyline
 62
250
  6
CONTINUOUS
 90
28
 70
0
 10
-18.1412869147
 20
24.8652131778
 10
-18.1416687717
 20
24.8753311855
 10
-18.1425235765
 20
24.8856562584
 10
-18.1438484372
 20
24.8961534663
 10
-18.1456388717
 20
24.906787297
 10
-18.147888823
 20
24.9175217757
 10
-18.1505906792
 20
24.9283205873
 10
-18.1537352999
 20
24.9391471991
 10
-18.1573120467
 20
24.9499649842
 10
-18.1613088192
 20
24.9607373457
 10
-18.1657120963
 20
24.9714278403
 10
-18.1705069813
 20
24.9820003019
 10
-18.1756772531
 20
24.9924189633
 10
-18.1812054202
 20
25.0026485779
 10
-18.1870727808
 20
25.0126545388
 10
-18.1932594852
 20
25.0224029954
 10
-18.1997446036
 20
25.0318609684
 10
-18.2065061967
 20
25.0409964614
 10
-18.2135213896
 20
25.0497785688
 10
-18.2207664497
 20
25.0581775804
 10
-18.2282168667
 20
25.0661650824
 10
-18.2358474357
 20
25.0737140529
 10
-18.2436323422
 20
25.0807989536
 10
-18.2515452495
 20
25.0873958163
 10
-18.2595593882
 20
25.0934823237
 10
-18.2676476461
 20
25.0990378851
 10
-18.2757826606
 20
25.1040437061
 10
-18.2839369106
 20
25.108482852
  0
LINE
  5
2BB
100
AcDbEntity
  8
217
100
AcDbLine
 62
7
  6
CONTINUOUS
 10
-18.7994414506
 20
27.1127596435
 11
-18.7994414506
 21
28.2406409859
  0
LINE
  5
2BC
100
AcDbEntity
  8
217
100
AcDbLine
 62
250
  6
CONTINUOUS
 10
-18.1412794087
 20
24.8652170249
 11
-18.1412869147
 21
24.4811100376
  0
LINE
  5
2BD
100
AcDbEntity
  8
0
100
AcDbLine
 62
7
  6
CONTINUOUS
 10
-17.0316744976
 20
26.1411101183
 11
-17.0316744976
 21
26.4009177394
  0
LWPOLYLINE
  5
2BE
100
AcDbEntity
  8
0
100
AcDbPolyline
 62
7
  6
CONTINUOUS
 90
19
 70
0
 10
-17.0316744976
 20
26.4009177394
 10
-17.0296728047
 20
26.4554068799
 10
-17.0240508529
 20
26.5105180917
 10
-17.0148086421
 20
26.5662513748
 10
-17.0018213644
 20
26.6230381644
 10
-16.9852138278
 20
26.6804470253
 10
-16.9653604558
 20
26.7371836516
 10
-16.9421875155
 20
26.7932327729
 10
-16.9157687399
 20
26.8486096597
 10
-16.8866997508
 20
26.9020658178
 10
-16.8549203456
 20
26.9535576158
 10
-16.8204907268
 20
27.0031286851
 10
-16.7841871242
 20
27.0496614261
 10
-16.7459669679
 20
27.0930868198
 10
-16.7058728277
 20
27.1334738852
 10
-16.6648086421
 20
27.1699120798
 10
-16.6230757238
 20
27.2020978892
 10
-16.58037276
 20
27.2303348278
 10
-16.5366997508
 20
27.2546228955
  0
LINE
  5
2BF
100
AcDbEntity
  8
RACCORDO
100
AcDbLine
 62
250
  6
CONTINUOUS
 10
-12.6841874107
 20
27.1850957987
 11
-12.7715906156
 21
26.8119385548
  0
LINE
  5
2C0
100
AcDbEntity
  8
RACCORDO
100
AcDbLine
 62
250
  6
CONTINUOUS
 10
-12.4082663521
 20
27.1281116583
 11
-12.495669557
 21
26.7549544144
  0
LWPOLYLINE
  5
2C1
100
AcDbEntity
  8
RACCORDO
100
AcDbPolyline
 62
7
  6
CONTINUOUS
 90
12
 70
0
 10
-10.6572263323
 20
24.9457041245
 10
-10.6565711664
 20
24.9478421101
 10
-10.6548146776
 20
24.9512637215
 10
-10.6522265115
 20
24.9544640511
 10
-10.6488171867
 20
24.9574458977
 10
-10.6446301907
 20
24.9601712268
 10
-10.6396555614
 20
24.9626367525
 10
-10.6339032607
 20
24.9648457607
 10
-10.6274466612
 20
24.9667700747
 10
-10.6203102205
 20
24.9684003024
 10
-10.6124694809
 20
24.9697458359
 10
-10.6039244426
 20
24.9708066752
  0
LWPOLYLINE
  5
2C2
100
AcDbEntity
  8
RACCORDO
100
AcDbPolyline
 62
7
  6
CONTINUOUS
 90
12
 70
0
 10
-10.2974331431
 20
26.0434721604
 10
-10.298088309
 20
26.0413341748
 10
-10.2998447978
 20
26.0379125635
 10
-10.302432964
 20
26.0347122339
 10
-10.3058422887
 20
26.0317303873
 10
-10.3100292848
 20
26.0290050582
 10
-10.3150039141
 20
26.0265395325
 10
-10.3207562148
 20
26.0243305243
 10
-10.3272128142
 20
26.0224062103
 10
-10.334349255
 20
26.0207759826
 10
-10.3421899945
 20
26.0194304491
 10
-10.3507350328
 20
26.0183696097
  0
LWPOLYLINE
  5
2C3
100
AcDbEntity
  8
0
100
AcDbPolyline
 62
7
  6
CONTINUOUS
 90
11
 70
0
 10
6.304563818
 20
23.0779958832
 10
6.1774978658
 20
23.0074903766
 10
6.0604619144
 20
22.9327701515
 10
5.954013556
 20
22.8541911959
 10
5.85865994
 20
22.7721278819
 10
5.7748553579
 20
22.6869711821
 10
5.702999078
 20
22.5991268068
 10
5.6434334437
 20
22.5090132711
 10
5.5964422424
 20
22.417059901
 10
5.5622493532
 20
22.3237047881
 10
5.5484865181
 20
22.2625696285
  0
LINE
  5
2C4
100
AcDbEntity
  8
0
100
AcDbLine
 62
7
  6
CONTINUOUS
 10
10.8839938324
 20
25.4490651831
 11
6.304563818
 21
23.0779958832
  0
LINE
  5
2C5
100
AcDbEntity
  8
RACCORDO
100
AcDbLine
 62
7
  6
CONTINUOUS
 10
10.5820326027
 20
24.787772052
 11
7.2738772684
 21
23.1456870392
  0
LINE
  5
2C6
100
AcDbEntity
  8
DRAFT
100
AcDbLine
 62
7
  6
CONTINUOUS
 10
7.2758400637
 20
23.1478761791
 11
6.304563818
 21
22.6661160009
  0
LINE
  5
2C7
100
AcDbEntity
  8
0
100
AcDbLine
 62
7
  6
CONTINUOUS
 10
9.9679417018
 20
25.8309301175
 11
5.9859892016
 21
23.8961240978
  0
LINE
  5
2C8
100
AcDbEntity
  8
RACCORDO
100
AcDbLine
 62
7
  6
CONTINUOUS
 10
7.2117420437
 20
22.7469124872
 11
5.858335609
 21
22.107645083
  0
LWPOLYLINE
  5
2C9
100
AcDbEntity
  8
DRAFT
100
AcDbPolyline
 62
7
  6
CONTINUOUS
 90
35
 70
0
 10
7.2738772684
 20
23.1456870392
 10
7.4093624361
 20
23.2056129774
 10
7.5508879381
 20
23.2605687544
 10
7.6984537744
 20
23.3105543703
 10
7.8525650213
 20
23.3557118713
 10
8.0127166025
 20
23.3958992112
 10
8.177393289
 20
23.4306902511
 10
8.346829971
 20
23.4600446791
 10
8.5207917583
 20
23.4840028071
 10
8.6970587513
 20
23.5022594326
 10
8.8756602793
 20
23.514741457
 10
9.0565670131
 20
23.5215219788
 10
9.237471066
 20
23.522515091
 10
9.4183721639
 20
23.5176466604
 10
9.5992705808
 20
23.5069908201
 10
9.7778592518
 20
23.4906840623
 10
9.9541083914
 20
23.4686540667
 10
10.1280477851
 20
23.4409731535
 10
10.2974597245
 20
23.4079947758
 10
10.4622861205
 20
23.3696511835
 10
10.6225850624
 20
23.3260101266
 10
10.7763131095
 20
23.2776283082
 10
10.9233861378
 20
23.224445114
 10
11.0638882715
 20
23.1665211583
 10
11.1960284429
 20
23.1045949863
 10
11.3196997057
 20
23.0386154115
 10
11.4350090062
 20
22.9686336205
 10
11.5404861158
 20
22.8955417185
 10
11.6360053202
 20
22.8192998868
 10
11.7216923335
 20
22.7399479442
 10
11.7964540704
 20
22.6584974523
 10
11.8601508022
 20
22.5749214813
 10
11.9129222576
 20
22.489246961
 10
11.954094537
 20
22.4025662427
 10
11.976860705
 20
22.3347118921
  0
LINE
  5
2CA
100
AcDbEntity
  8
217
100
AcDbLine
 62
7
  6
CONTINUOUS
 10
4.9426936854
 20
20.1675801789
 11
4.9469048259
 21
20.1693718635
  0
LWPOLYLINE
  5
2CB
100
AcDbEntity
  8
217
100
AcDbPolyline
 62
250
  6
CONTINUOUS
 90
13
 70
0
 10
7.4768098017
 20
21.2566591045
 10
7.4846715919
 20
21.2597052532
 10
7.4924808266
 20
21.2621891849
 10
7.5002131682
 20
21.264103157
 10
7.5078445249
 20
21.2654412038
 10
7.515351107
 20
21.266199152
 10
7.5227095019
 20
21.2663746379
 10
7.5298967747
 20
21.2659671178
 10
7.5368905307
 20
21.2649778644
 10
7.543668968
 20
21.2634099652
 10
7.5502109696
 20
21.2612683088
 10
7.5564961431
 20
21.2585595749
 10
7.5572442985
 20
21.2581907381
  0
LWPOLYLINE
  5
2CC
100
AcDbEntity
  8
217
100
AcDbPolyline
 62
7
  6
CONTINUOUS
 90
13
 70
0
 10
4.9469048259
 20
20.1693718635
 10
4.9530186057
 20
20.1714618085
 10
4.9593510781
 20
20.1730472887
 10
4.9658665568
 20
20.1741199479
 10
4.9725319585
 20
20.1746790504
 10
4.979342109
 20
20.1747287238
 10
4.9863026526
 20
20.174268815
 10
4.9934108018
 20
20.1732952815
 10
5.0006329773
 20
20.1718085217
 10
5.007928675
 20
20.1698159456
 10
5.0152707746
 20
20.1673271526
 10
5.0226463684
 20
20.1643491003
 10
5.0300355363
 20
20.1608915682
  0
LINE
  5
2CD
100
AcDbEntity
  8
RACCORDO
100
AcDbLine
 62
7
  6
CONTINUOUS
 10
-15.429389832
 20
25.1818585222
 11
-15.3334525677
 21
23.7908739182
  0
LINE
  5
2CE
100
AcDbEntity
  8
RACCORDO
100
AcDbLine
 62
250
  6
CONTINUOUS
 10
-10.3576566866
 20
26.1028068256
 11
-10.3780879462
 21
26.0155780735
  0
LINE
  5
2CF
100
AcDbEntity
  8
RACCORDO
100
AcDbLine
 62
250
  6
CONTINUOUS
 10
-10.6039244426
 20
24.9708066752
 11
-10.6206094761
 21
24.899571975
  0
LINE
  5
2D0
100
AcDbEntity
  8
RACCORDO
100
AcDbLine
 62
250
  6
CONTINUOUS
 10
-8.6536787579
 20
25.1698414723
 11
-8.7410819628
 21
24.7966842285
  0
LINE
  5
2D1
100
AcDbEntity
  8
RACCORDO
100
AcDbLine
 62
250
  6
CONTINUOUS
 10
-8.3777576993
 20
25.1128573319
 11
-8.4651609042
 21
24.7397000881
  0
LWPOLYLINE
  5
2D2
100
AcDbEntity
  8
217
100
AcDbPolyline
 62
250
  6
CONTINUOUS
 90
16
 70
0
 10
7.564867234
 20
20.5867735198
 10
7.5698720137
 20
20.5898009736
 10
7.5757780715
 20
20.5940832974
 10
7.5813206218
 20
20.5989297357
 10
7.5864810048
 20
20.6043239722
 10
7.5912418472
 20
20.6102478463
 10
7.5955871209
 20
20.6166814143
 10
7.5995021966
 20
20.6236030166
 10
7.6029738938
 20
20.6309893504
 10
7.6059905242
 20
20.6388155483
 10
7.6085419321
 20
20.6470552623
 10
7.6106195275
 20
20.6556807519
 10
7.612216316
 20
20.664662978
 10
7.6133269217
 20
20.6739717005
 10
7.6139476056
 20
20.6835755799
 10
7.614076278
 20
20.6934422833
  0
LWPOLYLINE
  5
2D3
100
AcDbEntity
  8
217
100
AcDbPolyline
 62
7
  6
CONTINUOUS
 90
20
 70
0
 10
7.5648672335
 20
20.5867735195
 10
7.5743487226
 20
20.5923832999
 10
7.5835779691
 20
20.5985570404
 10
7.5925119993
 20
20.6052826028
 10
7.601115799
 20
20.6125502881
 10
7.6093399461
 20
20.6203339061
 10
7.6171258697
 20
20.6285878506
 10
7.6244239239
 20
20.6372609269
 10
7.6312227456
 20
20.6463389711
 10
7.6375230679
 20
20.6558311562
 10
7.6432976572
 20
20.6657123747
 10
7.6485124851
 20
20.6759391498
 10
7.6531528323
 20
20.6864997187
 10
7.6572032849
 20
20.6973887683
 10
7.6606261934
 20
20.7085366141
 10
7.6633881952
 20
20.7198399177
 10
7.6654836657
 20
20.7312553205
 10
7.6669116347
 20
20.7427539719
 10
7.6676694535
 20
20.754265458
 10
7.6678055372
 20
20.7616486767
  0
LWPOLYLINE
  5
2D4
100
AcDbEntity
  8
217
100
AcDbPolyline
 62
250
  6
CONTINUOUS
 90
14
 70
0
 10
7.614076278
 20
20.6934422833
 10
7.6214626462
 20
20.6976313917
 10
7.6284028394
 20
20.7020423989
 10
7.6348676661
 20
20.7066642937
 10
7.640838085
 20
20.7114929978
 10
7.6462758908
 20
20.7165080606
 10
7.6511330513
 20
20.7216701831
 10
7.6553872698
 20
20.7269538873
 10
7.6590330475
 20
20.7323503138
 10
7.6620586221
 20
20.7378422287
 10
7.6644541126
 20
20.7434120757
 10
7.6662114428
 20
20.749041556
 10
7.6673246852
 20
20.7547119365
 10
7.6677803917
 20
20.7602844073
  0
LWPOLYLINE
  5
2D5
100
AcDbEntity
  8
217
100
AcDbPolyline
 62
250
  6
CONTINUOUS
 90
79
 70
0
 10
-1.4560644331
 20
16.6614918326
 10
-1.4717929659
 20
16.6526634566
 10
-1.4867895481
 20
16.6435578376
 10
-1.5010541795
 20
16.6341749755
 10
-1.5146078967
 20
16.6244987094
 10
-1.5274296632
 20
16.6145452003
 10
-1.5394563698
 20
16.6043629308
 10
-1.550683714
 20
16.5939510293
 10
-1.5611159982
 20
16.5833103674
 10
-1.5707030206
 20
16.5724920416
 10
-1.5794405503
 20
16.5614953445
 10
-1.5873328181
 20
16.5503209835
 10
-1.5943423149
 20
16.5390221772
 10
-1.6004648748
 20
16.5275983072
 10
-1.6057046636
 20
16.5160499919
 10
-1.61003667
 20
16.5044323048
 10
-1.6134565577
 20
16.4927448615
 10
-1.615968663
 20
16.4809880464
 10
-1.6175609833
 20
16.4692180865
 10
-1.6182291014
 20
16.4574349567
 10
-1.6179774346
 20
16.4456386821
 10
-1.6168072322
 20
16.4338855651
 10
-1.6147141131
 20
16.4221758301
 10
-1.6117024583
 20
16.4105092526
 10
-1.60778666
 20
16.3989414621
 10
-1.6029623988
 20
16.387472915
 10
-1.5972339941
 20
16.3761031548
 10
-1.5906287957
 20
16.3648864408
 10
-1.5831426092
 20
16.3538235013
 10
-1.574779629
 20
16.342913608
 10
-1.5655797881
 20
16.3322088355
 10
-1.5555390924
 20
16.3217101707
 10
-1.5446615361
 20
16.3114166268
 10
-1.5329990345
 20
16.3013773173
 10
-1.5205478411
 20
16.291593458
 10
-1.5073117025
 20
16.2820638332
 10
-1.4933537733
 20
16.2728339093
 10
-1.4786706036
 20
16.2639051157
 10
-1.4632656434
 20
16.2552760231
 10
-1.4472123972
 20
16.2469878093
 10
-1.4305077679
 20
16.2390421025
 10
-1.4131548526
 20
16.2314372746
 10
-1.3952364473
 20
16.2242096189
 10
-1.3767498496
 20
16.2173609367
 10
-1.3576977619
 20
16.2108894269
 10
-1.3381710875
 20
16.2048259786
 10
-1.3181675472
 20
16.1991725394
 10
-1.2976894201
 20
16.1939271617
 10
-1.2768344473
 20
16.1891148929
 10
-1.2556008235
 20
16.1847378041
 10
-1.2339903539
 20
16.180793824
 10
-1.2121061949
 20
16.1773017863
 10
-1.1899470469
 20
16.1742638531
 10
-1.1675142095
 20
16.1716778623
 10
-1.1449147379
 20
16.1695561607
 10
-1.1221478654
 20
16.1679009657
 10
-1.0992143588
 20
16.16671006
 10
-1.0762235734
 20
16.1659891384
 10
-1.0531751957
 20
16.1657404432
 10
-1.0300695392
 20
16.1659617322
 10
-1.0070168998
 20
16.1666519728
 10
-0.9840174606
 20
16.1678134191
 10
-0.9610710385
 20
16.169443817
 10
-0.9382873811
 20
16.1715353722
 10
-0.915667378
 20
16.1740902837
 10
-0.8932101396
 20
16.1771063525
 10
-0.8710227442
 20
16.1805691866
 10
-0.8491065166
 20
16.1844808965
 10
-0.8274601322
 20
16.1888393718
 10
-0.8061866957
 20
16.1936238898
 10
-0.7852877086
 20
16.1988365881
 10
-0.7647616694
 20
16.2044753291
 10
-0.7447071787
 20
16.2105129773
 10
-0.7251261399
 20
16.2169516786
 10
-0.7060166495
 20
16.2237892871
 10
-0.6874715974
 20
16.2309922287
 10
-0.6695219471
 20
16.2385493122
 10
-0.6521367351
 20
16.2464717289
 10
-0.6353159615
 20
16.2547594787
  0
LINE
  5
2D6
100
AcDbEntity
  8
217
100
AcDbLine
 62
250
  6
CONTINUOUS
 10
7.614076278
 20
20.6934422813
 11
7.4530528927
 21
20.6040637502
  0
LINE
  5
2D7
100
AcDbEntity
  8
217
100
AcDbLine
 62
7
  6
CONTINUOUS
 10
7.5282656673
 20
20.5664573629
 11
7.564867234
 21
20.5867735199
  0
LWPOLYLINE
  5
2D8
100
AcDbEntity
  8
217
100
AcDbPolyline
 62
7
  6
CONTINUOUS
 90
24
 70
0
 10
-1.5485634112
 20
16.6655617564
 10
-1.5618375356
 20
16.6582250758
 10
-1.5860372182
 20
16.6438917623
 10
-1.608876948
 20
16.6290940403
 10
-1.630361819
 20
16.6138788385
 10
-1.6505397374
 20
16.5982636442
 10
-1.6694842727
 20
16.5822341672
 10
-1.6872144613
 20
16.5658121124
 10
-1.7037447925
 20
16.5490221932
 10
-1.7191213144
 20
16.5318496077
 10
-1.7333528967
 20
16.5143117992
 10
-1.7464403973
 20
16.4964370622
 10
-1.7583999819
 20
16.4782297765
 10
-1.7692313795
 20
16.459713519
 10
-1.7789294969
 20
16.4409247023
 10
-1.7874931411
 20
16.4218964387
 10
-1.7949212752
 20
16.402663527
 10
-1.8012114298
 20
16.3832717229
 10
-1.8063624682
 20
16.3637816827
 10
-1.8103820233
 20
16.344240629
 10
-1.8132803927
 20
16.3246971272
 10
-1.8150702101
 20
16.3052206157
 10
-1.8157733331
 20
16.2858670715
 10
-1.8157867
 20
16.2827161543
  0
LINE
  5
2D9
100
AcDbEntity
  8
217
100
AcDbLine
 62
7
  6
CONTINUOUS
 10
4.9385209787
 20
20.1654929589
 11
2.226853962
 21
18.7024863931
  0
LINE
  5
2DA
100
AcDbEntity
  8
217
100
AcDbLine
 62
7
  6
CONTINUOUS
 10
0.7067039186
 20
17.8823305699
 11
-1.5485610543
 21
16.6655633774
  0
LINE
  5
2DB
100
AcDbEntity
  8
217
100
AcDbLine
 62
250
  6
CONTINUOUS
 10
5.0300355363
 20
20.1608915682
 11
2.350236147
 21
18.7150783185
  0
LINE
  5
2DC
100
AcDbEntity
  8
217
100
AcDbLine
 62
250
  6
CONTINUOUS
 10
0.685276214
 20
17.8167942377
 11
-1.4560644331
 21
16.6614918326
  0
LWPOLYLINE
  5
2DD
100
AcDbEntity
  8
217
100
AcDbPolyline
 62
7
  6
CONTINUOUS
 90
3
 70
0
 10
4.9385281055
 20
20.1654968018
 10
4.9410333255
 20
20.1667884169
 10
4.9426936854
 20
20.1675801789
  0
LINE
  5
2DE
100
AcDbEntity
  8
217
100
AcDbLine
 62
250
  6
CONTINUOUS
 10
-0.6353159615
 20
16.2547594787
 11
1.0319451482
 21
17.1093002953
  0
LINE
  5
2DF
100
AcDbEntity
  8
217
100
AcDbLine
 62
250
  6
CONTINUOUS
 10
4.6160875023
 20
18.9463226527
 11
6.0200227231
 21
19.6658979747
  0
LINE
  5
2E0
100
AcDbEntity
  8
217
100
AcDbLine
 62
250
  6
CONTINUOUS
 10
-0.492658051
 20
16.0114938611
 11
1.3444100554
 21
16.9530678417
  0
LINE
  5
2E1
100
AcDbEntity
  8
217
100
AcDbLine
 62
250
  6
CONTINUOUS
 10
5.386842641
 20
19.024983046
 11
6.1614279253
 21
19.4219902919
  0
LINE
  5
2E2
100
AcDbEntity
  8
217
100
AcDbLine
 62
7
  6
CONTINUOUS
 10
3.8795755358
 20
17.8683426857
 11
3.6620413917
 21
17.7568473691
  0
LINE
  5
2E3
100
AcDbEntity
  8
217
100
AcDbLine
 62
7
  6
CONTINUOUS
 10
1.7237555642
 20
16.7633950874
 11
-0.4926659657
 21
15.6273866643
  0
LINE
  5
2E4
100
AcDbEntity
  8
0
100
AcDbLine
 62
7
  6
CONTINUOUS
 10
1.1409697789
 20
18.4157881306
 11
1.5045379115
 21
18.5975721969
  0
LINE
  5
2E5
100
AcDbEntity
  8
RACCORDO
100
AcDbLine
 62
7
  6
CONTINUOUS
 10
15.3627098493
 20
23.1335460438
 11
8.2120375908
 21
19.6494704422
  0
LWPOLYLINE
  5
2E6
100
AcDbEntity
  8
0
100
AcDbPolyline
 62
7
  6
CONTINUOUS
 90
10
 70
0
 10
1.5045379115
 20
18.5975721969
 10
1.5218472128
 20
18.6058538132
 10
1.5390935293
 20
18.6133699967
 10
1.5562768611
 20
18.6201207473
 10
1.5734179731
 20
18.6261124196
 10
1.5904961003
 20
18.631338659
 10
1.607448948
 20
18.6357804022
 10
1.6242557515
 20
18.6394312947
 10
1.6409372755
 20
18.642297691
 10
1.6574935201
 20
18.644379591
  0
LINE
  5
2E7
100
AcDbEntity
  8
217
100
AcDbLine
 62
7
  6
CONTINUOUS
 10
7.6562247378
 20
20.3106380117
 11
6.3099731225
 21
19.6662923728
  0
LINE
  5
2E8
100
AcDbEntity
  8
0
100
AcDbLine
 62
7
  6
CONTINUOUS
 10
14.5418322151
 20
23.5439848609
 11
10.5007027186
 21
21.6387673392
  0
LINE
  5
2E9
100
AcDbEntity
  8
217
100
AcDbLine
 62
7
  6
CONTINUOUS
 10
6.4646002391
 20
20.8704470598
 11
4.9427052688
 21
20.1675855287
  0
LINE
  5
2EA
100
AcDbEntity
  8
217
100
AcDbLine
 62
250
  6
CONTINUOUS
 10
6.5509173878
 20
20.8632852075
 11
5.0300355363
 21
20.1608915682
  0
LINE
  5
2EB
100
AcDbEntity
  8
217
100
AcDbLine
 62
250
  6
CONTINUOUS
 10
6.7448563729
 20
20.9234598233
 11
7.4768098017
 21
21.2566591045
  0
LINE
  5
2EC
100
AcDbEntity
  8
217
100
AcDbLine
 62
250
  6
CONTINUOUS
 10
7.1036683961
 20
20.7787559985
 11
7.614076278
 21
21.0111034849
  0
LWPOLYLINE
  5
2ED
100
AcDbEntity
  8
217
100
AcDbPolyline
 62
7
  6
CONTINUOUS
 90
13
 70
0
 10
2.3411075082
 20
-16.979523153
 10
2.3347786717
 20
-16.9779916048
 10
2.0939665204
 20
-16.9141786814
 10
1.8524505615
 20
-16.8446635858
 10
1.6102460814
 20
-16.7694451969
 10
1.3673377938
 20
-16.6885246356
 10
1.123942634
 20
-16.6019745385
 10
0.8800490507
 20
-16.5097856913
 10
0.6356685951
 20
-16.4119673082
 10
0.3910528572
 20
-16.3086196685
 10
0.1462857
 20
-16.1997761986
 10
-0.0987167396
 20
-16.0854034721
 10
-0.3439544616
 20
-15.965501489
  0
LWPOLYLINE
  5
2EE
100
AcDbEntity
  8
217
100
AcDbPolyline
 62
7
  6
CONTINUOUS
 90
112
 70
0
 10
-0.3439544616
 20
-15.965501489
 10
-0.5891921836
 20
-15.8401657501
 10
-0.8341946232
 20
-15.709536037
 10
-1.0789617804
 20
-15.5736123497
 10
-1.3235775183
 20
-15.4323442515
 10
-1.5679579738
 20
-15.285782179
 10
-1.8118515572
 20
-15.1340774429
 10
-2.055246717
 20
-14.9772323802
 10
-2.2981550046
 20
-14.8152446539
 10
-2.5403594847
 20
-14.6482585627
 10
-2.7818754436
 20
-14.4762576995
 10
-3.0226875949
 20
-14.2992584715
 10
-3.2625331449
 20
-14.1174543996
 10
-3.5013908185
 20
-13.9308567331
 10
-3.7392818907
 20
-13.7394542227
 10
-3.9760073925
 20
-13.5434066416
 10
-4.2115902981
 20
-13.3426889159
 10
-4.4460076333
 20
-13.1373261195
 10
-4.6789915068
 20
-12.9275532469
 10
-4.9105132091
 20
-12.7133911612
 10
-5.1406014497
 20
-12.4948189993
 10
-5.3690744668
 20
-12.2720091665
 10
-5.595960583
 20
-12.0449277515
 10
-5.8212314757
 20
-11.8136086656
 10
-6.044620415
 20
-11.5783260484
 10
-6.2660936684
 20
-11.3391102432
 10
-6.4856849683
 20
-11.0959309066
 10
-6.7032287824
 20
-10.8489711484
 10
-6.9187563938
 20
-10.5981888435
 10
-7.1322365194
 20
-10.3436261171
 10
-7.3434097774
 20
-10.085592454
 10
-7.5522398202
 20
-9.8241267771
 10
-7.7587629954
 20
-9.5591901636
 10
-7.9628289641
 20
-9.2909753302
 10
-8.1644696586
 20
-9.0194332748
 10
-8.3636531466
 20
-8.7446129994
 10
-8.5601332917
 20
-8.4668542272
 10
-8.7538734107
 20
-8.186202886
 10
-8.9449101868
 20
-7.902613048
 10
-9.1331075333
 20
-7.6162866528
 10
-9.3184959177
 20
-7.3271697648
 10
-9.5010448725
 20
-7.0353163196
 10
-9.6805269086
 20
-6.7410900635
 10
-9.856907042
 20
-6.4445417963
 10
-10.0302202566
 20
-6.1456207182
 10
-10.2003440148
 20
-5.8445381752
 10
-10.3673055124
 20
-5.5412377233
 10
-10.5310775536
 20
-5.2357758067
 10
-10.691456013
 20
-4.928533104
 10
-10.8484092907
 20
-4.6195627299
 10
-11.0019689867
 20
-4.3088115697
 10
-11.1520257748
 20
-3.9965009584
 10
-11.298602179
 20
-3.6825747066
 10
-11.4416756753
 20
-3.3670890035
 10
-11.5810693661
 20
-3.0504337519
 10
-11.7167562777
 20
-2.7326615472
 10
-11.8487633838
 20
-2.4137197938
 10
-11.9769947071
 20
-2.093840608
 10
-12.1014671888
 20
-1.7729710029
 10
-12.2221638877
 20
-1.4511639654
 10
-12.3389380029
 20
-1.1288105716
 10
-12.451767911
 20
-0.8059599465
 10
-12.5606752353
 20
-0.4825629653
 10
-12.6655780454
 20
-0.1588633286
 10
-12.7664873451
 20
0.1651857784
 10
-12.8633921305
 20
0.4895375407
 10
-12.9561774601
 20
0.8138078123
 10
-13.0448272082
 20
1.1379538429
 10
-13.1293575004
 20
1.4620183827
 10
-13.2097017721
 20
1.7857455364
 10
-13.285865337
 20
2.1091731225
 10
-13.3578428814
 20
2.4322633225
 10
-13.4255518995
 20
2.7546467862
 10
-13.4889812977
 20
3.0762898301
 10
-13.5481421696
 20
3.3972261377
 10
-13.6029852895
 20
3.7171874088
 10
-13.6535111567
 20
4.0361999489
 10
-13.6997192718
 20
4.3542374525
 10
-13.741558911
 20
4.6709527033
 10
-13.7790229185
 20
4.9863234021
 10
-13.8121184501
 20
5.3003718481
 10
-13.8408162496
 20
5.6128177217
 10
-13.8651135095
 20
5.9236737663
 10
-13.8850130372
 20
6.2329272386
 10
-13.9004939995
 20
6.5402595894
 10
-13.9115514605
 20
6.8456616935
 10
-13.9181903561
 20
7.1491426761
 10
-13.9204046604
 20
7.4504113631
 10
-13.9181903561
 20
7.7494657457
 10
-13.9115514605
 20
8.0463078327
 10
-13.9004939995
 20
8.3406524758
 10
-13.8850130372
 20
8.6325038643
 10
-13.8651135095
 20
8.9218578089
 10
-13.8408162496
 20
9.2084165937
 10
-13.8121184501
 20
9.4921646678
 10
-13.7790229185
 20
9.7731175822
 10
-13.741558911
 20
10.0510242735
 10
-13.6997192718
 20
10.325899885
 10
-13.6535111567
 20
10.5977292735
 10
-13.6029852895
 20
10.8662159464
 10
-13.5481421696
 20
11.1313340977
 10
-13.4889812977
 20
11.3931095334
 10
-13.4255518995
 20
11.651323179
 10
-13.3578428814
 20
11.9059976247
 10
-13.285865337
 20
12.1571102803
 10
-13.2097017721
 20
12.4043743015
 10
-13.1293575004
 20
12.6477571835
 10
-13.0448272082
 20
12.8872914311
 10
-12.9561774601
 20
13.1227877136
 10
-12.8633921305
 20
13.3542726556
 10
-12.7664873451
 20
13.5817196324
 10
-12.765882832
 20
13.5830563865
  0
LINE
  5
2EF
100
AcDbEntity
  8
217
100
AcDbLine
 62
7
  6
CONTINUOUS
 10
-11.5162416043
 20
28.2608250567
 11
-11.5162416043
 21
28.0469300753
  0
LINE
  5
2F0
100
AcDbEntity
  8
RACCORDO
100
AcDbLine
 62
7
  6
CONTINUOUS
 10
-10.2446516315
 20
21.2459613951
 11
-10.1486777889
 21
22.5415025006
  0
LINE
  5
2F1
100
AcDbEntity
  8
RACCORDO
100
AcDbLine
 62
7
  6
CONTINUOUS
 10
-9.9615900687
 20
21.3903369888
 11
-9.8747453099
 21
22.5626455244
  0
LWPOLYLINE
  5
2F2
100
AcDbEntity
  8
RACCORDO
100
AcDbPolyline
 62
7
  6
CONTINUOUS
 90
14
 70
0
 10
-10.1486777889
 20
22.5415025006
 10
-10.1476340074
 20
22.5516767666
 10
-10.1460713221
 20
22.5614138401
 10
-10.143989733
 20
22.570713721
 10
-10.1413773552
 20
22.5796085105
 10
-10.1382460737
 20
22.5880661076
 10
-10.1346315431
 20
22.5959902086
 10
-10.1305282399
 20
22.6033747157
 10
-10.1259416877
 20
22.6102257269
 10
-10.1209241118
 20
22.6164652322
 10
-10.1154705855
 20
22.6220862421
 10
-10.1095860356
 20
22.6270957461
 10
-10.1033374671
 20
22.6314367029
 10
-10.0972450756
 20
22.6348421478
  0
LINE
  5
2F3
100
AcDbEntity
  8
0
100
AcDbLine
 62
250
  6
CONTINUOUS
 10
-7.6222978403
 20
22.8674164249
 11
-7.5348946354
 21
23.2405736688
  0
LINE
  5
2F4
100
AcDbEntity
  8
RACCORDO
100
AcDbLine
 62
250
  6
CONTINUOUS
 10
-6.3271480339
 20
24.0875524992
 11
-6.3475792934
 21
24.0003237471
  0
LWPOLYLINE
  5
2F5
100
AcDbEntity
  8
RACCORDO
100
AcDbPolyline
 62
7
  6
CONTINUOUS
 90
12
 70
0
 10
-6.2669244904
 20
24.028217834
 10
-6.2675796562
 20
24.0260798484
 10
-6.269336145
 20
24.0226582371
 10
-6.2719243112
 20
24.0194579075
 10
-6.2753336359
 20
24.0164760609
 10
-6.279520632
 20
24.0137507318
 10
-6.2844952613
 20
24.0112852061
 10
-6.290247562
 20
24.0090761979
 10
-6.2967041615
 20
24.0071518839
 10
-6.3038406022
 20
24.0055216562
 10
-6.3116813417
 20
24.0041761227
 10
-6.32022638
 20
24.0031152834
  0
LWPOLYLINE
  5
2F6
100
AcDbEntity
  8
RACCORDO
100
AcDbPolyline
 62
7
  6
CONTINUOUS
 90
12
 70
0
 10
-4.3993313188
 20
24.4987804592
 10
-4.3986761529
 20
24.5009184448
 10
-4.3969196641
 20
24.5043400561
 10
-4.394331498
 20
24.5075403857
 10
-4.3909221732
 20
24.5105222323
 10
-4.3867351772
 20
24.5132475614
 10
-4.3817605479
 20
24.5157130871
 10
-4.3760082472
 20
24.5179220953
 10
-4.3695516477
 20
24.5198464093
 10
-4.362415207
 20
24.521476637
 10
-4.3545744674
 20
24.5228221705
 10
-4.3460294291
 20
24.5238830098
  0
LWPOLYLINE
  5
2F7
100
AcDbEntity
  8
0
100
AcDbPolyline
 62
7
  6
CONTINUOUS
 90
5
 70
0
 10
-10.8788895149
 20
6.6688778994
 10
-10.7975012062
 20
6.7475873669
 10
-10.7152169635
 20
6.8108030956
 10
-10.6271893634
 20
6.8638630726
 10
-10.6096552462
 20
6.8728714822
  0
LINE
  5
2F8
100
AcDbEntity
  8
217
100
AcDbLine
 62
7
  6
CONTINUOUS
 10
6.1725722023
 20
17.4208335348
 11
5.340086332
 21
16.9793080844
  0
LINE
  5
2F9
100
AcDbEntity
  8
217
100
AcDbLine
 62
7
  6
CONTINUOUS
 10
2.315050539
 20
15.3749201437
 11
1.9187872382
 21
15.1647540153
  0
LINE
  5
2FA
100
AcDbEntity
  8
0
100
AcDbLine
 62
7
  6
CONTINUOUS
 10
-10.6096552462
 20
6.8728714822
 11
-5.7024398681
 21
9.3264791713
  0
LINE
  5
2FB
100
AcDbEntity
  8
217
100
AcDbLine
 62
7
  6
CONTINUOUS
 10
7.8838045176
 20
18.8793766753
 11
7.7365556547
 21
18.807631509
  0
LINE
  5
2FC
100
AcDbEntity
  8
RACCORDO
100
AcDbLine
 62
7
  6
CONTINUOUS
 10
15.3627098493
 20
22.0077130189
 11
9.3155475234
 21
19.0613088268
  0
LINE
  5
2FD
100
AcDbEntity
  8
217
100
AcDbLine
 62
7
  6
CONTINUOUS
 10
17.8068380821
 20
-22.6118894948
 11
19.1440549069
 21
-23.2804979072
  0
LWPOLYLINE
  5
2FE
100
AcDbEntity
  8
217
100
AcDbPolyline
 62
250
  6
CONTINUOUS
 90
60
 70
0
 10
-9.5101371093
 20
20.1298875916
 10
-9.5099461006
 20
20.1212246446
 10
-9.5086374783
 20
20.1054682726
 10
-9.50609043
 20
20.0897610213
 10
-9.5023090428
 20
20.0741275118
 10
-9.4972993494
 20
20.0585932958
 10
-9.4910693409
 20
20.0431828602
 10
-9.4836289698
 20
20.0279204448
 10
-9.4749901108
 20
20.0128309632
 10
-9.4651665481
 20
19.9979382682
 10
-9.4541739618
 20
19.9832658109
 10
-9.4420299041
 20
19.9688374609
 10
-9.4287537639
 20
19.9546760917
 10
-9.4143667209
 20
19.9408040305
 10
-9.398891718
 20
19.9272437202
 10
-9.3823534476
 20
19.9140167088
 10
-9.3647782929
 20
19.9011439014
 10
-9.3461942671
 20
19.8886460138
 10
-9.32663101
 20
19.8765429629
 10
-9.3061197309
 20
19.8648539307
 10
-9.2846931302
 20
19.8535976227
 10
-9.2623853835
 20
19.8427920457
 10
-9.2392320715
 20
19.8324543764
 10
-9.215270104
 20
19.8226010341
 10
-9.1905377032
 20
19.8132478566
 10
-9.165074311
 20
19.8044097705
 10
-9.1389205031
 20
19.796100669
 10
-9.112117986
 20
19.7883339907
 10
-9.0847095104
 20
19.7811222044
 10
-9.0567387646
 20
19.7744764881
 10
-9.0282503414
 20
19.7684076892
 10
-8.9992896923
 20
19.7629256381
 10
-8.9699030317
 20
19.7580386408
 10
-8.9401372429
 20
19.7537548015
 10
-8.9100397896
 20
19.75008116
 10
-8.8796586641
 20
19.7470230132
 10
-8.8490423653
 20
19.7445856041
 10
-8.8182396871
 20
19.7427730868
 10
-8.787299625
 20
19.741587678
 10
-8.7562714784
 20
19.7410316874
 10
-8.725204791
 20
19.74110634
 10
-8.694149136
 20
19.7418107535
 10
-8.6631539585
 20
19.7431442708
 10
-8.6322687994
 20
19.74510515
 10
-8.6015432287
 20
19.7476893817
 10
-8.5710264059
 20
19.7508933068
 10
-8.5407668598
 20
19.7547122407
 10
-8.5108127149
 20
19.7591391653
 10
-8.4812118193
 20
19.7641675244
 10
-8.4520113282
 20
19.7697897718
 10
-8.423257501
 20
19.7759960111
 10
-8.3949958112
 20
19.7827770073
 10
-8.3672717934
 20
19.7901223721
 10
-8.3401305843
 20
19.7980190808
 10
-8.3136158226
 20
19.8064549279
 10
-8.2877693705
 20
19.8154170601
 10
-8.2626321618
 20
19.8248901648
 10
-8.2382441894
 20
19.8348591565
 10
-8.2146444176
 20
19.8453091836
 10
-8.1918704648
 20
19.8562241182
  0
LWPOLYLINE
  5
2FF
100
AcDbEntity
  8
217
100
AcDbPolyline
 62
7
  6
CONTINUOUS
 90
24
 70
0
 10
-9.4656319389
 20
28.7346643999
 10
-9.4660744076
 20
28.7619768868
 10
-9.4674113346
 20
28.7887601816
 10
-9.4696427198
 20
28.8150142844
 10
-9.4727772848
 20
28.8408021494
 10
-9.4768063081
 20
28.8660608223
 10
-9.4817036246
 20
28.8906014406
 10
-9.4874733399
 20
28.9143957143
 10
-9.4941113484
 20
28.9374719333
 10
-9.5015791684
 20
28.9597261045
 10
-9.5098683933
 20
28.9811378644
 10
-9.5189874297
 20
29.0017275766
 10
-9.5289230165
 20
29.0214523387
 10
-9.5396961847
 20
29.0403425664
 10
-9.5512859032
 20
29.0583678441
 10
-9.5636158181
 20
29.0753940227
 10
-9.5766912762
 20
29.0914039862
 10
-9.5905069307
 20
29.1064148505
 10
-9.6049703861
 20
29.120343814
 10
-9.6200568523
 20
29.1331677193
 10
-9.6357911195
 20
29.1449097237
 10
-9.6521551628
 20
29.1555564984
 10
-9.6691772906
 20
29.1651246744
 10
-9.6735224473
 20
29.1673416576
  0
LINE
  5
300
100
AcDbEntity
  8
217
100
AcDbLine
 62
7
  6
CONTINUOUS
 10
-9.941113875
 20
27.6464662738
 11
-9.941113875
 21
27.2593662107
  0
LINE
  5
301
100
AcDbEntity
  8
217
100
AcDbLine
 62
7
  6
CONTINUOUS
 10
-9.5101371303
 20
20.1299792663
 11
-9.5101371303
 21
19.743779665
  0
LINE
  5
302
100
AcDbEntity
  8
217
100
AcDbLine
 62
7
  6
CONTINUOUS
 10
-9.4656319389
 20
28.7346643999
 11
-9.4656319389
 21
28.4518985579
  0
LINE
  5
303
100
AcDbEntity
  8
217
100
AcDbLine
 62
250
  6
CONTINUOUS
 10
-8.6032188203
 20
27.7885888565
 11
-8.6032188203
 21
27.2822956721
  0
LINE
  5
304
100
AcDbEntity
  8
0
100
AcDbLine
 62
7
  6
CONTINUOUS
 10
-8.5463931234
 20
21.8984694311
 11
-8.5463931234
 21
22.1582770523
  0
LINE
  5
305
100
AcDbEntity
  8
217
100
AcDbLine
 62
7
  6
CONTINUOUS
 10
-8.3164692694
 20
27.8769651404
 11
-8.3164692694
 21
27.3117734257
  0
LINE
  5
306
100
AcDbEntity
  8
0
100
AcDbLine
 62
7
  6
CONTINUOUS
 10
-8.2635504109
 20
22.0398907874
 11
-8.2635504109
 21
22.2996984085
  0
LINE
  5
307
100
AcDbEntity
  8
217
100
AcDbLine
 62
250
  6
CONTINUOUS
 10
-8.1918704648
 20
19.8562241617
 11
-8.191878448
 21
19.4720906181
  0
LINE
  5
308
100
AcDbEntity
  8
0
100
AcDbLine
 62
250
  6
CONTINUOUS
 10
-8.0514183765
 20
22.6655720468
 11
-8.0514183765
 21
23.0119822083
  0
LWPOLYLINE
  5
309
100
AcDbEntity
  8
0
100
AcDbPolyline
 62
7
  6
CONTINUOUS
 90
19
 70
0
 10
-8.5463931234
 20
22.1582770523
 10
-8.5443914305
 20
22.2127661928
 10
-8.5387694787
 20
22.2678774046
 10
-8.5295272679
 20
22.3236106877
 10
-8.5165399902
 20
22.3803974773
 10
-8.4999324536
 20
22.4378063382
 10
-8.4800790815
 20
22.4945429645
 10
-8.4569061413
 20
22.5505920858
 10
-8.4304873657
 20
22.6059689726
 10
-8.4014183765
 20
22.6594251307
 10
-8.3696389713
 20
22.7109169286
 10
-8.3352093526
 20
22.760487998
 10
-8.2989057499
 20
22.807020739
 10
-8.2606855937
 20
22.8504461327
 10
-8.2205914535
 20
22.8908331981
 10
-8.1795272679
 20
22.9272713926
 10
-8.1377943495
 20
22.9594572021
 10
-8.0950913858
 20
22.9876941407
 10
-8.0514183765
 20
23.0119822083
  0
LWPOLYLINE
  5
30A
100
AcDbEntity
  8
0
100
AcDbPolyline
 62
7
  6
CONTINUOUS
 90
16
 70
0
 10
-8.2635504109
 20
22.2996984085
 10
-8.2622838786
 20
22.3279665372
 10
-8.2588230517
 20
22.3564586074
 10
-8.2531679301
 20
22.3851746191
 10
-8.2452092752
 20
22.4144317685
 10
-8.2350563255
 20
22.4439128594
 10
-8.2230367974
 20
22.4726663034
 10
-8.2090897861
 20
22.5006683582
 10
-8.1932761963
 20
22.5279427661
 10
-8.1761064579
 20
22.5536091658
 10
-8.1575363209
 20
22.5776150897
 10
-8.1376100353
 20
22.6000130055
 10
-8.1169707802
 20
22.6200799549
 10
-8.0958329485
 20
22.6375749519
 10
-8.0739821473
 20
22.6527389826
 10
-8.0514183765
 20
22.6655720468
  0
LINE
  5
30B
100
AcDbEntity
  8
RACCORDO
100
AcDbLine
 62
250
  6
CONTINUOUS
 10
-4.3460294291
 20
24.5238830098
 11
-4.3627144626
 21
24.4526483096
  0
LWPOLYLINE
  5
30C
100
AcDbEntity
  8
217
100
AcDbPolyline
 62
7
  6
CONTINUOUS
 90
3
 70
0
 10
9.3188685627
 20
19.0097350713
 10
9.3266247384
 20
19.0150682415
 10
9.3401888019
 20
19.0244878703
  0
LINE
  5
30D
100
AcDbEntity
  8
217
100
AcDbLine
 62
7
  6
CONTINUOUS
 10
9.3401888019
 20
19.0244878703
 11
9.3459544647
 21
19.0284413108
  0
LWPOLYLINE
  5
30E
100
AcDbEntity
  8
217
100
AcDbPolyline
 62
7
  6
CONTINUOUS
 90
6
 70
0
 10
9.3459544647
 20
19.0284413108
 10
9.3550246413
 20
19.0345121014
 10
9.3580993784
 20
19.0365545427
 10
9.3601591769
 20
19.0378776123
 10
9.3611292544
 20
19.0384559119
 10
9.361199074
 20
19.0384830426
  0
LINE
  5
30F
100
AcDbEntity
  8
RACCORDO
100
AcDbLine
 62
250
  6
CONTINUOUS
 10
7.5289917407
 20
13.7026677358
 11
7.687101004
 21
13.7817223674
  0
LINE
  5
310
100
AcDbEntity
  8
0
100
AcDbLine
 62
7
  6
CONTINUOUS
 10
9.6262511531
 20
14.1731474435
 11
9.9898192857
 21
14.3549315098
  0
LINE
  5
311
100
AcDbEntity
  8
0
100
AcDbLine
 62
7
  6
CONTINUOUS
 10
9.6262511531
 20
13.826737282
 11
9.9898192857
 21
14.0085213483
  0
LWPOLYLINE
  5
312
100
AcDbEntity
  8
0
100
AcDbPolyline
 62
7
  6
CONTINUOUS
 90
10
 70
0
 10
9.9898192857
 20
14.3549315098
 10
10.007128587
 20
14.3632131261
 10
10.0243749036
 20
14.3707293096
 10
10.0415582354
 20
14.3774800602
 10
10.0586993473
 20
14.3834717324
 10
10.0757774745
 20
14.3886979719
 10
10.0927303223
 20
14.393139715
 10
10.1095371257
 20
14.3967906076
 10
10.1262186497
 20
14.3996570039
 10
10.1427748943
 20
14.4017389039
  0
LWPOLYLINE
  5
313
100
AcDbEntity
  8
0
100
AcDbPolyline
 62
7
  6
CONTINUOUS
 90
10
 70
0
 10
9.9898192857
 20
14.0085213483
 10
9.9972375577
 20
14.0120706124
 10
10.0046288362
 20
14.0152918339
 10
10.0119931213
 20
14.0181850127
 10
10.0193393121
 20
14.0207528723
 10
10.0266585095
 20
14.0229926892
 10
10.0339240157
 20
14.0248962934
 10
10.0411269314
 20
14.0264609616
 10
10.048276156
 20
14.0276894172
 10
10.0553716894
 20
14.0285816601
  0
LINE
  5
314
100
AcDbEntity
  8
217
100
AcDbLine
 62
7
  6
CONTINUOUS
 10
13.5042658142
 20
16.069146027
 11
13.3544242827
 21
15.998697195
  0
LWPOLYLINE
  5
315
100
AcDbEntity
  8
0
100
AcDbPolyline
 62
7
  6
CONTINUOUS
 90
11
 70
0
 10
-10.6096552462
 20
6.8728714822
 10
-10.5338472677
 20
6.9065087953
 10
-10.4356454295
 20
6.9385324978
 10
-10.3330622785
 20
6.9597781641
 10
-10.2265975894
 20
6.9701422872
 10
-10.1167700474
 20
6.9695743742
 10
-10.0041147213
 20
6.958077192
 10
-9.8891804565
 20
6.9357067537
 10
-9.7725272013
 20
6.9025720458
 10
-9.6547232785
 20
6.8588344972
 10
-9.536342617
 20
6.8047071929
  0
LWPOLYLINE
  5
316
100
AcDbEntity
  8
RACCORDO
100
AcDbPolyline
 62
7
  6
CONTINUOUS
 90
12
 70
0
 10
7.5804244541
 20
13.796007383
 10
7.5879295768
 20
13.7992629271
 10
7.5951948744
 20
13.8015564839
 10
7.6027479554
 20
13.8031393453
 10
7.6105855676
 20
13.8040195426
 10
7.6186184671
 20
13.8041870534
 10
7.626848886
 20
13.8036337317
 10
7.6352745922
 20
13.8023677235
 10
7.6437996453
 20
13.8004034443
 10
7.6523920653
 20
13.7977456993
 10
7.6610838322
 20
13.7943896833
 10
7.669874946
 20
13.7903353965
  0
LINE
  5
317
100
AcDbEntity
  8
0
100
AcDbLine
 62
250
  6
CONTINUOUS
 10
-7.6878502439
 20
22.8473561131
 11
-7.6878502439
 21
23.1937662746
  0
LINE
  5
318
100
AcDbEntity
  8
RACCORDO
100
AcDbLine
 62
7
  6
CONTINUOUS
 10
-7.4857329516
 20
22.6593169646
 11
-7.4857329516
 21
22.8813537278
  0
LWPOLYLINE
  5
319
100
AcDbEntity
  8
0
100
AcDbPolyline
 62
250
  6
CONTINUOUS
 90
8
 70
0
 10
-5.8077698331
 20
3.2312090616
 10
-5.8108715627
 20
3.2142321722
 10
-5.8120188667
 20
3.1984411052
 10
-5.8111962294
 20
3.1840494078
 10
-5.8084147751
 20
3.1712517031
 10
-5.803712118
 20
3.1602210586
 10
-5.7971518531
 20
3.151106645
 10
-5.7924583943
 20
3.1466899465
  0
LWPOLYLINE
  5
31A
100
AcDbEntity
  8
217
100
AcDbPolyline
 62
7
  6
CONTINUOUS
 90
9
 70
0
 10
-0.3186113377
 20
6.4257119031
 10
-0.3055886793
 20
6.4346172129
 10
-0.2928704774
 20
6.4437818365
 10
-0.2804549927
 20
6.4531993221
 10
-0.2683439646
 20
6.4628761214
 10
-0.2565426109
 20
6.47283159
 10
-0.2450526711
 20
6.4830721797
 10
-0.2338724058
 20
6.4935914385
 10
-0.223001815
 20
6.5043893667
  0
LWPOLYLINE
  5
31B
100
AcDbEntity
  8
217
100
AcDbPolyline
 62
7
  6
CONTINUOUS
 90
46
 70
0
 10
-0.3186113377
 20
6.4257119031
 10
-0.3553824761
 20
6.4019379675
 10
-0.3788614787
 20
6.3861926615
 10
-0.4023553239
 20
6.3698506228
 10
-0.425847261
 20
6.352935204
 10
-0.4493149858
 20
6.3354658792
 10
-0.4727306031
 20
6.3174580468
 10
-0.4960761174
 20
6.2989342337
 10
-0.5193329532
 20
6.2799170931
 10
-0.5424729211
 20
6.26042256
 10
-0.5654792649
 20
6.2404742188
 10
-0.5883348525
 20
6.2200956613
 10
-0.6110115417
 20
6.1993031192
 10
-0.6334939355
 20
6.1781209866
 10
-0.6557663839
 20
6.1565736128
 10
-0.6778010071
 20
6.1346773701
 10
-0.699583791
 20
6.1124572925
 10
-0.721100678
 20
6.089938235
 10
-0.7423243791
 20
6.0671364195
 10
-0.7632423457
 20
6.0440772694
 10
-0.7838421175
 20
6.0207859664
 10
-0.8040971923
 20
5.997278394
 10
-0.8239965209
 20
5.9735801558
 10
-0.8435292582
 20
5.9497165615
 10
-0.8626698465
 20
5.9257029913
 10
-0.8814087517
 20
5.9015650356
 10
-0.8997367456
 20
5.8773279451
 10
-0.9176293409
 20
5.8530064523
 10
-0.9350785177
 20
5.8286259572
 10
-0.9520766514
 20
5.8042114812
 10
-0.9686004194
 20
5.7797769862
 10
-0.9846433028
 20
5.755347522
 10
-1.0001992515
 20
5.7309477288
 10
-1.0152461699
 20
5.706590704
 10
-1.0297790312
 20
5.6823009779
 10
-1.0437933012
 20
5.6581027053
 10
-1.0572680979
 20
5.6340081364
 10
-1.0701998289
 20
5.6100412087
 10
-1.0825854645
 20
5.5862254277
 10
-1.0944053889
 20
5.5625720953
 10
-1.1056574168
 20
5.5391044135
 10
-1.1163399564
 20
5.5158451778
 10
-1.1264346518
 20
5.4928047741
 10
-1.1359349404
 20
5.4700014953
 10
-1.1448463053
 20
5.4474614496
 10
-1.1531690242
 20
5.4252063484
  0
LWPOLYLINE
  5
31C
100
AcDbEntity
  8
217
100
AcDbPolyline
 62
7
  6
CONTINUOUS
 90
23
 70
0
 10
8.4680788679
 20
11.6915972948
 10
8.4523884479
 20
11.6830480813
 10
8.426825847
 20
11.6680801306
 10
8.4026590811
 20
11.652600619
 10
8.3798819846
 20
11.6366503329
 10
8.3584581454
 20
11.6202495629
 10
8.3383349445
 20
11.6033971954
 10
8.3194943616
 20
11.5861141658
 10
8.3019244523
 20
11.5684251921
 10
8.2855960938
 20
11.5503325746
 10
8.2704991996
 20
11.5318552407
 10
8.2566321715
 20
11.5130222755
 10
8.2439899458
 20
11.4938574624
 10
8.2325727463
 20
11.4743945903
 10
8.2223773297
 20
11.4546659628
 10
8.2134006358
 20
11.4347046277
 10
8.205641712
 20
11.4145509998
 10
8.1990976623
 20
11.3942512552
 10
8.193763976
 20
11.3738580824
 10
8.1896318208
 20
11.3534214111
 10
8.1866888789
 20
11.3329923283
 10
8.1849186439
 20
11.3126317034
 10
8.1842977411
 20
11.2913492662
  0
LINE
  5
31D
100
AcDbEntity
  8
217
100
AcDbLine
 62
7
  6
CONTINUOUS
 10
8.4680784594
 20
11.6915972649
 11
14.9799204703
 21
15.1452822817
  0
LINE
  5
31E
100
AcDbEntity
  8
217
100
AcDbLine
 62
250
  6
CONTINUOUS
 10
8.5593200644
 20
11.6868543645
 11
15.0709572142
 21
15.1404307292
  0
LWPOLYLINE
  5
31F
100
AcDbEntity
  8
0
100
AcDbPolyline
 62
7
  6
CONTINUOUS
 90
37
 70
0
 10
-8.4630299878
 20
2.5796209654
 10
-8.4454958706
 20
2.588629375
 10
-8.3574682706
 20
2.6416893521
 10
-8.2751840278
 20
2.7049050807
 10
-8.199044023
 20
2.7779685801
 10
-8.1294192024
 20
2.8605238925
 10
-8.0666487713
 20
2.9521688164
 10
-8.011038541
 20
3.0524568672
 10
-7.9628594387
 20
3.1608994515
 10
-7.9223461883
 20
3.2769682479
 10
-7.8896961663
 20
3.4000977809
 10
-7.8650684403
 20
3.5296881758
 10
-7.848582994
 20
3.6651080812
 10
-7.840320143
 20
3.8056977451
 10
-7.840320143
 20
3.9507722285
 10
-7.848582994
 20
4.0996247434
 10
-7.8650684403
 20
4.2515300951
 10
-7.8896961663
 20
4.405748216
 10
-7.9223461883
 20
4.561527771
 10
-7.9628594387
 20
4.7181098178
 10
-8.011038541
 20
4.8747315043
 10
-8.0666487713
 20
5.0306297855
 10
-8.1294192024
 20
5.1850451406
 10
-8.199044023
 20
5.3372252734
 10
-8.2751840278
 20
5.4864287777
 10
-8.3574682706
 20
5.6319287491
 10
-8.4454958706
 20
5.7730163262
 10
-8.5388379664
 20
5.9090041446
 10
-8.6370398045
 20
6.0392296853
 10
-8.7396229555
 20
6.1630585026
 10
-8.8460876447
 20
6.2798873148
 10
-8.9559151867
 20
6.3891469439
 10
-9.0685705127
 20
6.4903050878
 10
-9.1835047775
 20
6.5828689142
 10
-9.3001580327
 20
6.6663874615
 10
-9.4179619555
 20
6.7404538357
 10
-9.536342617
 20
6.8047071929
  0
LINE
  5
320
100
AcDbEntity
  8
217
100
AcDbLine
 62
7
  6
CONTINUOUS
 10
7.4342201315
 20
12.4070375687
 11
8.9167519215
 21
13.1668969087
  0
LINE
  5
321
100
AcDbEntity
  8
217
100
AcDbLine
 62
7
  6
CONTINUOUS
 10
9.4141191188
 20
13.4218183295
 11
10.7328492509
 21
14.0977224919
  0
LINE
  5
322
100
AcDbEntity
  8
217
100
AcDbLine
 62
250
  6
CONTINUOUS
 10
16.060939016
 20
14.6454398283
 11
9.434648912
 21
11.2491899408
  0
LINE
  5
323
100
AcDbEntity
  8
217
100
AcDbLine
 62
250
  6
CONTINUOUS
 10
16.2023442182
 20
14.4015321455
 11
9.5773064138
 21
11.0059241137
  0
LINE
  5
324
100
AcDbEntity
  8
0
100
AcDbLine
 62
250
  6
CONTINUOUS
 10
-6.8606832306
 20
3.2853904486
 11
-6.229173674
 21
3.6078949189
  0
LINE
  5
325
100
AcDbEntity
  8
0
100
AcDbLine
 62
250
  6
CONTINUOUS
 10
9.4141191188
 20
13.4608636437
 11
9.1312764063
 21
13.3194422874
  0
LINE
  5
326
100
AcDbEntity
  8
0
100
AcDbLine
 62
7
  6
CONTINUOUS
 10
9.4141191188
 20
13.2010560225
 11
9.1312764063
 21
13.0596346663
  0
LINE
  5
327
100
AcDbEntity
  8
0
100
AcDbLine
 62
7
  6
CONTINUOUS
 10
-8.4630299878
 20
2.5796209654
 11
-2.4842374461
 21
5.5690172362
  0
LWPOLYLINE
  5
328
100
AcDbEntity
  8
217
100
AcDbPolyline
 62
250
  6
CONTINUOUS
 90
82
 70
0
 10
9.434648912
 20
11.2491899408
 10
9.4172647668
 20
11.2406128207
 10
9.3993139916
 20
11.2323994793
 10
9.3807965863
 20
11.2245499165
 10
9.3616828483
 20
11.2170532647
 10
9.3420024803
 20
11.2099203915
 10
9.3218445898
 20
11.2031838997
 10
9.3012073425
 20
11.1968457639
 10
9.2800925727
 20
11.1909040096
 10
9.2585948906
 20
11.1853853154
 10
9.2367128176
 20
11.1802916632
 10
9.2144478324
 20
11.1756210712
 10
9.1918989813
 20
11.1713942733
 10
9.1690650686
 20
11.1676132397
 10
9.14594729
 20
11.1642760001
 10
9.1226482792
 20
11.1613973771
 10
9.099167029
 20
11.1589793954
 10
9.0755045466
 20
11.1570200304
 10
9.0517664869
 20
11.1555280301
 10
9.0279526379
 20
11.1545054948
 10
9.0040632116
 20
11.1539503243
 10
8.9802044992
 20
11.1538649657
 10
8.9563766048
 20
11.1542515136
 10
8.9325794243
 20
11.1551078735
 10
8.9089189353
 20
11.156430209
 10
8.8853958313
 20
11.1582205856
 10
8.8620094189
 20
11.1604769378
 10
8.8388635961
 20
11.1631892324
 10
8.8159593067
 20
11.1663595181
 10
8.7932956068
 20
11.1699857463
 10
8.7709735633
 20
11.1740517372
 10
8.7489948215
 20
11.1785594278
 10
8.7273577361
 20
11.1835068812
 10
8.7061584373
 20
11.1888721068
 10
8.6853987723
 20
11.1946569933
 10
8.6650768939
 20
11.200859652
 10
8.6452833912
 20
11.2074524258
 10
8.6260207229
 20
11.2144370149
 10
8.6072864303
 20
11.2218117192
 10
8.589163726
 20
11.2295437813
 10
8.5716552295
 20
11.2376348403
 10
8.5547583214
 20
11.2460832572
 10
8.5385483559
 20
11.254851357
 10
8.5230284848
 20
11.263940514
 10
8.5081955564
 20
11.2733493541
 10
8.4941154696
 20
11.2830360796
 10
8.4807915064
 20
11.2930019797
 10
8.4682203849
 20
11.3032457653
 10
8.4564581584
 20
11.3137217721
 10
8.4455084873
 20
11.3244309823
 10
8.4353677112
 20
11.3353724136
 10
8.426080903
 20
11.3464974554
 10
8.4176518211
 20
11.3578069885
 10
8.4100767071
 20
11.3693001319
 10
8.4033893591
 20
11.3809256325
 10
8.3975937694
 20
11.3926840141
 10
8.3926859458
 20
11.4045747528
 10
8.388687709
 20
11.4165450233
 10
8.3856030892
 20
11.4285952237
 10
8.3834280563
 20
11.4407249558
 10
8.3821723412
 20
11.4528802007
 10
8.3818400436
 20
11.4650610549
 10
8.3824270638
 20
11.4772674218
 10
8.3839308346
 20
11.4894449918
 10
8.3863554733
 20
11.5015937008
 10
8.3896968626
 20
11.5137136128
 10
8.393940083
 20
11.5257506107
 10
8.3990891192
 20
11.5377042216
 10
8.4051399866
 20
11.5495749185
 10
8.4120658109
 20
11.5613100028
 10
8.4198704776
 20
11.5729089075
 10
8.4285501012
 20
11.5843721996
 10
8.4380661519
 20
11.5956488824
 10
8.4484225395
 20
11.6067382421
 10
8.459615354
 20
11.6176409924
 10
8.4715943364
 20
11.628308278
 10
8.4843633694
 20
11.6387391903
 10
8.4979185702
 20
11.648934638
 10
8.5121980309
 20
11.6588484922
 10
8.5271811155
 20
11.6684653765
 10
8.54288846
 20
11.6778006673
 10
8.5593200644
 20
11.6868543645
  0
LWPOLYLINE
  5
329
100
AcDbEntity
  8
217
100
AcDbPolyline
 62
250
  6
CONTINUOUS
 90
62
 70
0
 10
9.5773064137
 20
11.0059240745
 10
9.5543557484
 20
10.9947123733
 10
9.5305852796
 20
10.9839529016
 10
9.5060303519
 20
10.9736611348
 10
9.4807276181
 20
10.9638513813
 10
9.4547145715
 20
10.9545381776
 10
9.4280294528
 20
10.9457362944
 10
9.4007114727
 20
10.9374582184
 10
9.3728016528
 20
10.9297159116
 10
9.3443423863
 20
10.9225221716
 10
9.3153763805
 20
10.9158872768
 10
9.2859463988
 20
10.9098204672
 10
9.2560960943
 20
10.9043317046
 10
9.2258699519
 20
10.8994287003
 10
9.1953128666
 20
10.8951182225
 10
9.1644699251
 20
10.8914075567
 10
9.1333867358
 20
10.8883017921
 10
9.1021097947
 20
10.8858051187
 10
9.0706860522
 20
10.883922139
 10
9.0391624232
 20
10.8826552701
 10
9.007585635
 20
10.882005929
 10
8.9760025837
 20
10.881975844
 10
8.9444602011
 20
10.8825647236
 10
8.9130054523
 20
10.8837712793
 10
8.8816851894
 20
10.8855943875
 10
8.8505461074
 20
10.8880310366
 10
8.8196344061
 20
10.891077235
 10
8.788995795
 20
10.8947290585
 10
8.7586756757
 20
10.898980882
 10
8.7287193237
 20
10.9038260536
 10
8.6991715459
 20
10.9092577988
 10
8.6700764421
 20
10.9152678282
 10
8.6414771135
 20
10.9218469611
 10
8.6134158604
 20
10.9289858249
 10
8.5859342856
 20
10.9366737401
 10
8.5590734088
 20
10.9448990371
 10
8.5328733633
 20
10.9536496673
 10
8.5073732438
 20
10.9629125131
 10
8.4826108203
 20
10.9726736927
 10
8.4586226852
 20
10.982918903
 10
8.435444394
 20
10.9936329955
 10
8.4131105719
 20
11.0047998994
 10
8.3916546133
 20
11.0164029176
 10
8.3711085364
 20
11.0284247989
 10
8.3515027617
 20
11.0408477042
 10
8.3328662649
 20
11.0536531523
 10
8.315226687
 20
11.06682232
 10
8.2986103859
 20
11.0803355982
 10
8.2830421981
 20
11.0941725507
 10
8.2685453451
 20
11.1083127263
 10
8.2551413031
 20
11.122735265
 10
8.2428499081
 20
11.1374184715
 10
8.2316894061
 20
11.1523408535
 10
8.2216764916
 20
11.1674803028
 10
8.2128261519
 20
11.1828136962
 10
8.2051515857
 20
11.198318448
 10
8.1986641481
 20
11.2139718053
 10
8.1933734414
 20
11.229750038
 10
8.1892873477
 20
11.2456300978
 10
8.1864119917
 20
11.2615885857
 10
8.1847516786
 20
11.2776010453
 10
8.1842975609
 20
11.2913545557
  0
LINE
  5
32A
100
AcDbEntity
  8
217
100
AcDbLine
 62
250
  6
CONTINUOUS
 10
17.5426909343
 20
15.3674049135
 11
16.060939016
 21
14.6454398283
  0
LINE
  5
32B
100
AcDbEntity
  8
217
100
AcDbLine
 62
250
  6
CONTINUOUS
 10
18.0524696523
 20
15.3029826178
 11
16.2023442182
 21
14.4015321455
  0
LINE
  5
32C
100
AcDbEntity
  8
0
100
AcDbLine
 62
7
  6
CONTINUOUS
 10
-5.8120304339
 20
3.1631246817
 11
-6.4815966726
 21
2.8375299939
  0
LINE
  5
32D
100
AcDbEntity
  8
217
100
AcDbLine
 62
7
  6
CONTINUOUS
 10
16.4243488245
 20
15.9265759684
 11
15.0780972092
 21
15.2822303295
  0
LWPOLYLINE
  5
32E
100
AcDbEntity
  8
217
100
AcDbPolyline
 62
250
  6
CONTINUOUS
 90
13
 70
0
 10
8.4680787906
 20
11.6915974406
 10
8.4746309577
 20
11.6946731554
 10
8.4813454509
 20
11.6970706084
 10
8.4883320841
 20
11.6988518063
 10
8.4955672213
 20
11.700010723
 10
8.503026386
 20
11.700543438
 10
8.5106843436
 20
11.700448149
 10
8.5185151869
 20
11.6997251785
 10
8.5264924241
 20
11.6983769723
 10
8.5345890679
 20
11.6964080913
 10
8.5427777271
 20
11.6938251964
 10
8.5510306992
 20
11.6906370256
 10
8.5593200644
 20
11.6868543645
  0
LWPOLYLINE
  5
32F
100
AcDbEntity
  8
217
100
AcDbPolyline
 62
7
  6
CONTINUOUS
 90
18
 70
0
 10
16.4243488245
 20
15.9265759684
 10
16.446817171
 20
15.9367878785
 10
16.4692029258
 20
15.9458648088
 10
16.4915060889
 20
15.9538067594
 10
16.5137813993
 20
15.9606292583
 10
16.5359741181
 20
15.9663167775
 10
16.5579200274
 20
15.9708227325
 10
16.5795974456
 20
15.9741318769
 10
16.6010280544
 20
15.9762594572
 10
16.6221126817
 20
15.9772046287
 10
16.6428320033
 20
15.9769681501
 10
16.6632053434
 20
15.9755492627
 10
16.6831915023
 20
15.9729448466
 10
16.702823295
 20
15.9691448365
 10
16.7220679065
 20
15.9641592976
 10
16.7407856926
 20
15.9580153059
 10
16.7589644219
 20
15.9507008125
 10
16.7722711691
 20
15.9444448494
  0
LINE
  5
330
100
AcDbEntity
  8
217
100
AcDbLine
 62
7
  6
CONTINUOUS
 10
16.2023442182
 20
14.0174290053
 11
18.2350287501
 21
14.891438719
  0
LINE
  5
331
100
AcDbEntity
  8
217
100
AcDbLine
 62
7
  6
CONTINUOUS
 10
-4.323245247
 20
24.8375319598
 11
-4.323245247
 21
24.4504318967
  0
LINE
  5
332
100
AcDbEntity
  8
RACCORDO
100
AcDbLine
 62
250
  6
CONTINUOUS
 10
-3.9938966153
 20
25.3292459699
 11
-3.9938966153
 21
25.2198296324
  0
LWPOLYLINE
  5
333
100
AcDbEntity
  8
RACCORDO
100
AcDbPolyline
 62
7
  6
CONTINUOUS
 90
12
 70
0
 10
2.9899345446
 20
18.1221236861
 10
2.9905897105
 20
18.1242616717
 10
2.9923461993
 20
18.127683283
 10
2.9949343654
 20
18.1308836126
 10
2.9983436902
 20
18.1338654592
 10
3.0025306862
 20
18.1365907883
 10
3.0075053155
 20
18.139056314
 10
3.0132576162
 20
18.1412653222
 10
3.0197142157
 20
18.1431896363
 10
3.0268506564
 20
18.1448198639
 10
3.034691396
 20
18.1461653974
 10
3.0432364343
 20
18.1472262368
  0
LWPOLYLINE
  5
334
100
AcDbEntity
  8
217
100
AcDbPolyline
 62
7
  6
CONTINUOUS
 90
18
 70
0
 10
-5.3621183174
 20
1.7191344256
 10
-5.3712972675
 20
1.7130509847
 10
-5.4141955692
 20
1.6863565781
 10
-5.4581811121
 20
1.6617913736
 10
-5.5032573686
 20
1.6393603924
 10
-5.5494208663
 20
1.6190586133
 10
-5.5965534994
 20
1.6009379828
 10
-5.6446569935
 20
1.5850043024
 10
-5.693729623
 20
1.5712517707
 10
-5.7436481045
 20
1.5597149294
 10
-5.7944153054
 20
1.550399241
 10
-5.8460283582
 20
1.543299243
 10
-5.898355377
 20
1.53843309
 10
-5.9513974943
 20
1.5358065086
 10
-6.0051535775
 20
1.5354137721
 10
-6.0594883431
 20
1.5372558558
 10
-6.1144038616
 20
1.541338448
 10
-6.1698980625
 20
1.5476558602
  0
LWPOLYLINE
  5
335
100
AcDbEntity
  8
217
100
AcDbPolyline
 62
250
  6
CONTINUOUS
 90
85
 70
0
 10
12.3347896534
 20
11.4186471021
 10
12.3163174505
 20
11.408484626
 10
12.298623744
 20
11.398015198
 10
12.281708534
 20
11.387238818
 10
12.2655496469
 20
11.3761393007
 10
12.2501692563
 20
11.3647328316
 10
12.2356338822
 20
11.3530679666
 10
12.2219479232
 20
11.3411440669
 10
12.2091069808
 20
11.3289617715
 10
12.1971643789
 20
11.3165715526
 10
12.1861239881
 20
11.30397264
 10
12.1759819378
 20
11.291165804
 10
12.1667799395
 20
11.2782038281
 10
12.1585218961
 20
11.2650861689
 10
12.1512039047
 20
11.2518133697
 10
12.1448559688
 20
11.2384398444
 10
12.1394820207
 20
11.2249650358
 10
12.1350781281
 20
11.211389501
 10
12.131662497
 20
11.1977693247
 10
12.1292392405
 20
11.1841043981
 10
12.1278042456
 20
11.17039483
 10
12.1273633792
 20
11.1566970314
 10
12.1279207454
 20
11.1430110166
 10
12.1294722401
 20
11.1293367713
 10
12.1320114174
 20
11.1157306641
 10
12.135542322
 20
11.1021930485
 10
12.1400609091
 20
11.088723571
 10
12.1455485998
 20
11.0753775383
 10
12.1520094198
 20
11.0621553775
 10
12.1594393432
 20
11.0490566617
 10
12.1678077134
 20
11.036135417
 10
12.1771183644
 20
11.0233924327
 10
12.1873674622
 20
11.0108269195
 10
12.1985128478
 20
10.9984905365
 10
12.2105582521
 20
10.9863841881
 10
12.2234999441
 20
10.97450697
 10
12.2372845719
 20
10.9629078279
 10
12.2519155719
 20
10.9515879407
 10
12.2673895076
 20
10.9405461295
 10
12.2836427172
 20
10.9298278042
 10
12.3006784295
 20
10.9194342822
 10
12.3184934158
 20
10.9093642461
 10
12.3370143275
 20
10.8996591533
 10
12.3562440762
 20
10.8903205086
 10
12.3761797502
 20
10.8813468073
 10
12.3967392668
 20
10.8727749929
 10
12.4179251625
 20
10.8646067314
 10
12.4397349006
 20
10.8568403568
 10
12.4620787883
 20
10.8495078146
 10
12.4849590842
 20
10.8426108745
 10
12.5083735295
 20
10.8361477669
 10
12.5322256551
 20
10.830145127
 10
12.556517192
 20
10.8246048684
 10
12.5812464091
 20
10.8195250777
 10
12.6063116439
 20
10.8149266497
 10
12.6317143941
 20
10.8108115516
 10
12.6574531619
 20
10.8071778161
 10
12.6834217917
 20
10.8040404365
 10
12.7096210748
 20
10.8014014733
 10
12.7360502198
 20
10.7992588659
 10
12.7626006962
 20
10.7976214255
 10
12.7892731381
 20
10.7964912219
 10
12.8160669113
 20
10.7958661852
 10
12.8428715829
 20
10.7957489174
 10
12.8696871368
 20
10.7961415137
 10
12.896513589
 20
10.7970418789
 10
12.9232405546
 20
10.7984463283
 10
12.9498677676
 20
10.8003569603
 10
12.976395494
 20
10.8027716767
 10
13.0027141468
 20
10.8056804975
 10
13.0288225993
 20
10.8090854269
 10
13.0547219783
 20
10.8129844608
 10
13.0803060769
 20
10.8173616071
 10
13.1055737607
 20
10.822218846
 10
13.1305261642
 20
10.8275541971
 10
13.1550604838
 20
10.8333457281
 10
13.1791751769
 20
10.8395954114
 10
13.2028717861
 20
10.8463012744
 10
13.2260521358
 20
10.8534354666
 10
13.248715282
 20
10.8610004012
 10
13.2708621687
 20
10.8689936649
 10
13.2923974519
 20
10.8773801676
 10
13.3132893505
 20
10.8861482125
 10
13.3335696457
 20
10.8953094964
 10
13.3532383374
 20
10.9048640192
  0
LWPOLYLINE
  5
336
100
AcDbEntity
  8
217
100
AcDbPolyline
 62
7
  6
CONTINUOUS
 90
27
 70
0
 10
12.2207367928
 20
11.4245751092
 10
12.2047041166
 20
11.4158727468
 10
12.1776633771
 20
11.4002417109
 10
12.1519442675
 20
11.3841488352
 10
12.1275440911
 20
11.3676342288
 10
12.1044237035
 20
11.3507148703
 10
12.0825211982
 20
11.3333829839
 10
12.0618198963
 20
11.3156586373
 10
12.0423039463
 20
11.297562623
 10
12.0239280793
 20
11.2790826814
 10
12.0066824497
 20
11.2602337521
 10
11.9905626925
 20
11.2410378884
 10
11.9755466757
 20
11.2214934341
 10
11.9616317433
 20
11.2016177862
 10
11.9488207253
 20
11.1814373734
 10
11.9371092394
 20
11.1609698054
 10
11.9264981764
 20
11.1402404583
 10
11.9169914475
 20
11.1192823207
 10
11.9085918491
 20
11.0981330961
 10
11.9012974564
 20
11.0768263285
 10
11.8951069076
 20
11.0554021555
 10
11.890019737
 20
11.0339162884
 10
11.8860272324
 20
11.0124110905
 10
11.8831169532
 20
10.9909270373
 10
11.8812753798
 20
10.9695212951
 10
11.8804835126
 20
10.9482406234
 10
11.8804468594
 20
10.9424890795
  0
LINE
  5
337
100
AcDbEntity
  8
217
100
AcDbLine
 62
7
  6
CONTINUOUS
 10
14.8714696665
 20
11.6135282247
 11
17.8241106649
 21
13.2065457819
  0
LINE
  5
338
100
AcDbEntity
  8
217
100
AcDbLine
 62
7
  6
CONTINUOUS
 10
13.6490168243
 20
12.1820920165
 11
12.220737647
 21
11.4245757275
  0
LINE
  5
339
100
AcDbEntity
  8
217
100
AcDbLine
 62
250
  6
CONTINUOUS
 10
13.7628056305
 20
12.1760237976
 11
12.3347896534
 21
11.4186471021
  0
LINE
  5
33A
100
AcDbEntity
  8
217
100
AcDbLine
 62
7
  6
CONTINUOUS
 10
16.2023442182
 20
14.0174290053
 11
9.5772989078
 21
10.6218171263
  0
LINE
  5
33B
100
AcDbEntity
  8
0
100
AcDbLine
 62
250
  6
CONTINUOUS
 10
-5.7491122397
 20
2.2846599151
 11
-4.8918153288
 21
2.7224713198
  0
LINE
  5
33C
100
AcDbEntity
  8
217
100
AcDbLine
 62
250
  6
CONTINUOUS
 10
13.3532383374
 20
10.9048640192
 11
14.8235129188
 21
11.6456701535
  0
LINE
  5
33D
100
AcDbEntity
  8
217
100
AcDbLine
 62
250
  6
CONTINUOUS
 10
13.5299881088
 20
10.6000157576
 11
15.0002626902
 21
11.3408218918
  0
LINE
  5
33E
100
AcDbEntity
  8
217
100
AcDbLine
 62
250
  6
CONTINUOUS
 10
9.6043659123
 20
7.6715858248
 11
12.8879330403
 21
9.3260296282
  0
LINE
  5
33F
100
AcDbEntity
  8
0
100
AcDbLine
 62
7
  6
CONTINUOUS
 10
-5.4538094293
 20
2.917251762
 11
-6.1688470177
 21
2.558342684
  0
LINE
  5
340
100
AcDbEntity
  8
RACCORDO
100
AcDbLine
 62
250
  6
CONTINUOUS
 10
27.1002053333
 20
16.1389652769
 11
24.268459373
 21
14.7412115494
  0
LINE
  5
341
100
AcDbEntity
  8
RACCORDO
100
AcDbLine
 62
250
  6
CONTINUOUS
 10
24.268459373
 20
14.7412115494
 11
21.4773134423
 21
13.3647978769
  0
LINE
  5
342
100
AcDbEntity
  8
RACCORDO
100
AcDbLine
 62
250
  6
CONTINUOUS
 10
21.4773134423
 20
13.3647978769
 11
18.9436410763
 21
12.116541885
  0
LWPOLYLINE
  5
343
100
AcDbEntity
  8
217
100
AcDbPolyline
 62
250
  6
CONTINUOUS
 90
31
 70
0
 10
9.7811156837
 20
7.3667375631
 10
9.77159759
 20
7.3623736417
 10
9.7616354874
 20
7.3582589357
 10
9.7512552355
 20
7.3544048939
 10
9.7404817339
 20
7.3508216218
 10
9.7293451925
 20
7.3475199979
 10
9.7178817322
 20
7.3445110755
 10
9.7061245591
 20
7.3418034528
 10
9.6941028549
 20
7.3394037356
 10
9.6818484756
 20
7.3373182991
 10
9.6693939923
 20
7.3355527292
 10
9.6567730388
 20
7.3341118361
 10
9.6440198677
 20
7.3329995444
 10
9.6311688553
 20
7.332218842
 10
9.6182542854
 20
7.3317718017
 10
9.6053106785
 20
7.3316596196
 10
9.5923726915
 20
7.3318826035
 10
9.5794750671
 20
7.3324401618
 10
9.5666524311
 20
7.3333308016
 10
9.5539391781
 20
7.3345521357
 10
9.541369389
 20
7.336100892
 10
9.5289767801
 20
7.3379729181
 10
9.5167945833
 20
7.3401631955
 10
9.5048554664
 20
7.3426658525
 10
9.4931914543
 20
7.3454741772
 10
9.4818338171
 20
7.3485806419
 10
9.4708130199
 20
7.3519769155
 10
9.460158646
 20
7.3556538802
 10
9.4498992726
 20
7.3596016708
 10
9.4400623975
 20
7.3638097027
 10
9.4306743958
 20
7.3682666905
  0
LINE
  5
344
100
AcDbEntity
  8
217
100
AcDbLine
 62
7
  6
CONTINUOUS
 10
17.8241106649
 20
13.2065457819
 11
19.156287926
 21
13.7903581768
  0
LWPOLYLINE
  5
345
100
AcDbEntity
  8
RACCORDO
100
AcDbPolyline
 62
250
  6
CONTINUOUS
 90
9
 70
0
 10
27.1002052549
 20
16.1389653161
 10
27.1610954164
 20
16.1648854889
 10
27.2214405554
 20
16.1841223946
 10
27.2807915517
 20
16.1965328622
 10
27.3387066844
 20
16.2020245263
 10
27.3947549185
 20
16.2005565153
 10
27.4485191138
 20
16.1921397548
 10
27.4995991291
 20
16.1768368867
 10
27.5350781354
 20
16.1613286457
  0
LWPOLYLINE
  5
346
100
AcDbEntity
  8
COPY-PUBBLISH
100
AcDbPolyline
 62
7
  6
CONTINUOUS
 90
17
 70
0
 10
-6.9114751461
 20
3.3553983863
 10
-6.8179380667
 20
3.2264735768
 10
-6.708048101
 20
3.0879066266
 10
-6.593461149
 20
2.9556000837
 10
-6.4756391451
 20
2.8312419761
 10
-6.3545408419
 20
2.7149343408
 10
-6.230207487
 20
2.6065751407
 10
-6.1042247574
 20
2.5075462934
 10
-5.9765714208
 20
2.4179672128
 10
-5.8472687097
 20
2.3377184851
 10
-5.7179659986
 20
2.2678237858
 10
-5.5886632875
 20
2.208415774
 10
-5.4593605764
 20
2.1593617906
 10
-5.3317072398
 20
2.1212875346
 10
-5.2057245103
 20
2.0943336523
 10
-5.0813911553
 20
2.0783594974
 10
-5.0550994274
 20
2.0773193926
  0
LWPOLYLINE
  5
347
100
AcDbEntity
  8
0
100
AcDbPolyline
 62
250
  6
CONTINUOUS
 90
11
 70
0
 10
-6.222337178
 20
3.6999673703
 10
-6.2061766225
 20
3.6753523352
 10
-6.1712097066
 20
3.6251234561
 10
-6.1345414843
 20
3.5754436901
 10
-6.0955482869
 20
3.5259086462
 10
-6.0542574009
 20
3.4763511564
 10
-6.0107071656
 20
3.4269265844
 10
-5.9643007493
 20
3.3777077023
 10
-5.9148749759
 20
3.3287059221
 10
-5.8626844286
 20
3.279878265
 10
-5.8077698331
 20
3.2312090616
  0
LWPOLYLINE
  5
348
100
AcDbEntity
  8
0
100
AcDbPolyline
 62
7
  6
CONTINUOUS
 90
7
 70
0
 10
-6.2754873327
 20
3.673392293
 10
-6.2657718347
 20
3.6583528464
 10
-6.1930005579
 20
3.5580230008
 10
-6.1149332472
 20
3.4614934221
 10
-6.0320296203
 20
3.369099618
 10
-5.9447459783
 20
3.2811571642
 10
-5.8535929307
 20
3.1980223268
  0
LWPOLYLINE
  5
349
100
AcDbEntity
  8
217
100
AcDbPolyline
 62
250
  6
CONTINUOUS
 90
106
 70
0
 10
-4.9806605331
 20
4.3208056928
 10
-4.980610948
 20
4.3206681291
 10
-4.9593910378
 20
4.2594275267
 10
-4.9389996422
 20
4.1981178328
 10
-4.9194377828
 20
4.1367390307
 10
-4.9007044381
 20
4.0752911372
 10
-4.8828216378
 20
4.0138465324
 10
-4.8657905087
 20
3.9524057461
 10
-4.8496099239
 20
3.8909682486
 10
-4.8342985331
 20
3.8296048313
 10
-4.8198571974
 20
3.7683149889
 10
-4.8062850556
 20
3.7070992266
 10
-4.7935981743
 20
3.6460298519
 10
-4.7817976325
 20
3.5851070839
 10
-4.7708823511
 20
3.5243307035
 10
-4.7608651604
 20
3.4637723605
 10
-4.7517471808
 20
3.4034328625
 10
-4.7435272918
 20
3.343311402
 10
-4.7362149612
 20
3.283477207
 10
-4.7298111685
 20
3.2239300256
 10
-4.7243149343
 20
3.1646701096
 10
-4.7197327878
 20
3.1057674424
 10
-4.7160658362
 20
3.04722247
 10
-4.7133129723
 20
2.9890347462
 10
-4.7114774036
 20
2.9312729159
 10
-4.7105601993
 20
2.8739380231
 10
-4.7105602902
 20
2.8170290236
 10
-4.7114776761
 20
2.7606114304
 10
-4.7133134264
 20
2.7046852685
 10
-4.7160664717
 20
2.6492505127
 10
-4.7197336045
 20
2.5943726001
 10
-4.7243159318
 20
2.5400521917
 10
-4.7298123466
 20
2.4862886264
 10
-4.7362163192
 20
2.4331453582
 10
-4.7435288293
 20
2.3806236185
 10
-4.7517488972
 20
2.3287221759
 10
-4.7608670549
 20
2.2775007902
 10
-4.7708844231
 20
2.2269597749
 10
-4.7817998811
 20
2.1770988165
 10
-4.7936005987
 20
2.1279767349
 10
-4.8062876547
 20
2.0795943896
 10
-4.8198599704
 20
2.0319509209
 10
-4.8343014789
 20
1.9851025697
 10
-4.8496130413
 20
1.9390507023
 10
-4.8657937964
 20
1.8937939523
 10
-4.8828250946
 20
1.8493844613
 10
-4.9007080626
 20
1.8058228265
 10
-4.9194415735
 20
1.7631084507
 10
-4.9390035976
 20
1.7212916841
 10
-4.9593951565
 20
1.6803735651
 10
-4.9806152285
 20
1.6403530554
 10
-5.0026387189
 20
1.60127739
 10
-5.0254663513
 20
1.5631480191
 10
-5.0490974022
 20
1.5259634925
 10
-5.0735046052
 20
1.4897666953
 10
-5.0986890434
 20
1.4545584873
 10
-5.1246496339
 20
1.4203380086
 10
-5.151355862
 20
1.3871455642
 10
-5.1788086623
 20
1.3549823465
 10
-5.2070071004
 20
1.3238471632
 10
-5.2359178582
 20
1.2937767418
 10
-5.2655415146
 20
1.2647725687
 10
-5.2958774909
 20
1.2368331576
 10
-5.3268907323
 20
1.2099907772
 10
-5.358582228
 20
1.184246513
 10
-5.3909509888
 20
1.1595992793
 10
-5.4239589928
 20
1.136078088
 10
-5.4576070532
 20
1.1136842566
 10
-5.4918943568
 20
1.0924164674
 10
-5.5267804418
 20
1.072299779
 10
-5.5622657506
 20
1.0533356725
 10
-5.598349841
 20
1.0355226668
 10
-5.6349909239
 20
1.0188813771
 10
-5.6721898457
 20
1.0034130664
 10
-5.70994576
 20
0.9891164716
 10
-5.7482143391
 20
0.9760084186
 10
-5.7869962096
 20
0.9640903152
 10
-5.8262907448
 20
0.9533607535
 10
-5.866051737
 20
0.9438323349
 10
-5.9062795955
 20
0.935506497
 10
-5.946973911
 20
0.9283818022
 10
-5.9880872476
 20
0.9224665389
 10
-6.0296201956
 20
0.917762104
 10
-6.0715721646
 20
0.9142671008
 10
-6.1138939471
 20
0.9119856273
 10
-6.1565856929
 20
0.9109190801
 10
-6.1996472522
 20
0.9110660627
 10
-6.2430289679
 20
0.9124264835
 10
-6.2867320995
 20
0.9150018659
 10
-6.3307553875
 20
0.9187906865
 10
-6.3750453963
 20
0.9237882837
 10
-6.419601684
 20
0.9299960575
 10
-6.4644246924
 20
0.9374126078
 10
-6.5094623115
 20
0.9460290729
 10
-6.5547130475
 20
0.9558461999
 10
-6.6001783941
 20
0.9668632416
 10
-6.6458107228
 20
0.9790690954
 10
-6.6916157869
 20
0.9924669819
 10
-6.737587833
 20
1.0070536805
 10
-6.783661972
 20
1.0228084265
 10
-6.8298407259
 20
1.0397348689
 10
-6.8761215727
 20
1.0578293587
 10
-6.9224320573
 20
1.0770601845
 10
-6.968748028
 20
1.097416776
 10
-7.0150936365
 20
1.1189097036
 10
-7.0614688829
 20
1.1415389672
  0
LWPOLYLINE
  5
34A
100
AcDbEntity
  8
217
100
AcDbPolyline
 62
7
  6
CONTINUOUS
 90
45
 70
0
 10
-5.0782471922
 20
4.2720123632
 10
-5.057672966
 20
4.2102098892
 10
-5.0333455726
 20
4.1326033414
 10
-5.01053118
 20
4.0550233941
 10
-4.9892561721
 20
3.9775718467
 10
-4.9695469272
 20
3.9003674228
 10
-4.9514127964
 20
3.8234778706
 10
-4.9348634152
 20
3.7469799399
 10
-4.9199164761
 20
3.6710059147
 10
-4.90658255
 20
3.5956860104
 10
-4.8948475253
 20
3.5210287325
 10
-4.8846929598
 20
3.4469862623
 10
-4.8761132295
 20
3.3735611181
 10
-4.8691179878
 20
3.3008927457
 10
-4.8637102961
 20
3.2291404224
 10
-4.859880008
 20
3.1583872223
 10
-4.8576124899
 20
3.0886807621
 10
-4.8568922749
 20
3.0201242277
 10
-4.8576970712
 20
2.9528585953
 10
-4.8600024323
 20
2.8868599339
 10
-4.8637969211
 20
2.8219934175
 10
-4.869075282
 20
2.7582315154
 10
-4.8758161364
 20
2.6957363979
 10
-4.8839862818
 20
2.6346648057
 10
-4.8935487927
 20
2.5751195187
 10
-4.9044779567
 20
2.5171072295
 10
-4.9167489794
 20
2.46064009
 10
-4.9303070499
 20
2.4058507417
 10
-4.9451326117
 20
2.3527059469
 10
-4.9612707626
 20
2.3009973221
 10
-4.9787177831
 20
2.2507405703
 10
-4.9974301521
 20
2.2020594904
 10
-5.0174113784
 20
2.154942712
 10
-5.0386009671
 20
2.109527003
 10
-5.0609973084
 20
2.0658057939
 10
-5.0847106616
 20
2.0235955186
 10
-5.1097216298
 20
1.9829905121
 10
-5.13601319
 20
1.9440714297
 10
-5.1637322275
 20
1.9067010554
 10
-5.1928823403
 20
1.8709809673
 10
-5.2234554945
 20
1.8370209744
 10
-5.2556187238
 20
1.8047554836
 10
-5.2894537491
 20
1.7742523606
 10
-5.3249393104
 20
1.7456772467
 10
-5.3621172538
 20
1.7191325302
  0
LWPOLYLINE
  5
34B
100
AcDbEntity
  8
0
100
AcDbPolyline
 62
250
  6
CONTINUOUS
 90
11
 70
0
 10
-5.0624767392
 20
2.8585625147
 10
-5.0574625295
 20
2.8375276682
 10
-5.0506036501
 20
2.8177335179
 10
-5.0419928549
 20
2.7994477457
 10
-5.0317465893
 20
2.782917636
 10
-5.0200034158
 20
2.7683667302
 10
-5.0069221387
 20
2.7559918041
 10
-4.9926796589
 20
2.7459602087
 10
-4.9774685809
 20
2.7384076056
 10
-4.9614946072
 20
2.7334361324
 10
-4.9579305608
 20
2.732702032
  0
LWPOLYLINE
  5
34C
100
AcDbEntity
  8
217
100
AcDbPolyline
 62
250
  6
CONTINUOUS
 90
60
 70
0
 10
-1.8157871402
 20
16.2827175908
 10
-1.8154160963
 20
16.2706044059
 10
-1.813836662
 20
16.2548565973
 10
-1.8110195252
 20
16.2391633914
 10
-1.8069692035
 20
16.2235493899
 10
-1.8016921571
 20
16.2080401055
 10
-1.7951968031
 20
16.1926599897
 10
-1.7874935175
 20
16.1774332375
 10
-1.7785945941
 20
16.1623846971
 10
-1.7685142316
 20
16.1475381603
 10
-1.7572685196
 20
16.1329170088
 10
-1.7448754138
 20
16.1185450211
 10
-1.7313547005
 20
16.1044449855
 10
-1.7167279488
 20
16.0906391359
 10
-1.7010184835
 20
16.0771498001
 10
-1.6842513707
 20
16.0639984177
 10
-1.6664533584
 20
16.0512057779
 10
-1.6476528145
 20
16.0387924591
 10
-1.6278797239
 20
16.0267782483
 10
-1.6071656304
 20
16.0151821906
 10
-1.5855435575
 20
16.0040228338
 10
-1.5630479924
 20
15.9933180347
 10
-1.5397148151
 20
15.9830848145
 10
-1.5155812221
 20
15.9733394163
 10
-1.4906857093
 20
15.9640975107
 10
-1.4650679785
 20
15.9553738517
 10
-1.4387688515
 20
15.947182141
 10
-1.4118302665
 20
15.9395356345
 10
-1.3842951912
 20
15.9324466143
 10
-1.3562075161
 20
15.9259260538
 10
-1.3276120205
 20
15.9199846051
 10
-1.2985543268
 20
15.9146319003
 10
-1.2690808046
 20
15.9098760305
 10
-1.2392384759
 20
15.9057248948
 10
-1.2090749266
 20
15.9021853257
 10
-1.1786382551
 20
15.8992623986
 10
-1.1479770488
 20
15.8969611441
 10
-1.1171401735
 20
15.8952855037
 10
-1.0861766799
 20
15.8942374689
 10
-1.0551359048
 20
15.8938191338
 10
-1.0240674127
 20
15.8940315075
 10
-0.9930207803
 20
15.8948734811
 10
-0.9620454389
 20
15.8963441814
 10
-0.9311908978
 20
15.8984416507
 10
-0.9005066785
 20
15.9011616546
 10
-0.8700418744
 20
15.9045003186
 10
-0.8398449314
 20
15.9084527474
 10
-0.8099638748
 20
15.9130117051
 10
-0.7804464362
 20
15.9181704266
 10
-0.7513396376
 20
15.9239211606
 10
-0.7226895907
 20
15.9302538028
 10
-0.6945416058
 20
15.9371589197
 10
-0.6669410347
 20
15.9446259249
 10
-0.6399328133
 20
15.9526415927
 10
-0.6135603656
 20
15.9611935268
 10
-0.5878653276
 20
15.9702686925
 10
-0.562888393
 20
15.9798515958
 10
-0.5386692991
 20
15.9899269765
 10
-0.51524674
 20
16.0004798143
 10
-0.4926580511
 20
16.0114938177
  0
LWPOLYLINE
  5
34D
100
AcDbEntity
  8
217
100
AcDbPolyline
 62
7
  6
CONTINUOUS
 90
31
 70
0
 10
-1.4753253115
 20
23.2403932913
 10
-1.4755178723
 20
23.2495392944
 10
-1.476097586
 20
23.258862398
 10
-1.4770636762
 20
23.2683377385
 10
-1.4784155109
 20
23.2779490627
 10
-1.4801497161
 20
23.2876614503
 10
-1.4822567102
 20
23.2974206156
 10
-1.4847228911
 20
23.3071786041
 10
-1.487543449
 20
23.3169295512
 10
-1.4907212609
 20
23.3266818945
 10
-1.4942572718
 20
23.3364297306
 10
-1.4981368796
 20
23.3461251787
 10
-1.5023391498
 20
23.3557141216
 10
-1.5068456107
 20
23.3651584489
 10
-1.5116480063
 20
23.3744451239
 10
-1.5167377469
 20
23.3835585419
 10
-1.5221009463
 20
23.3924737784
 10
-1.5277229178
 20
23.4011664773
 10
-1.5335944182
 20
23.4096214855
 10
-1.539708198
 20
23.417825097
 10
-1.5460406704
 20
23.4257428818
 10
-1.5525561491
 20
23.4333313008
 10
-1.5592215508
 20
23.4405559898
 10
-1.5660317013
 20
23.4474155576
 10
-1.5729922449
 20
23.4539162638
 10
-1.5801003942
 20
23.4600508697
 10
-1.5873225696
 20
23.4657859536
 10
-1.5946182673
 20
23.4710894167
 10
-1.6019603669
 20
23.4759435839
 10
-1.6093359607
 20
23.4803413562
 10
-1.6167251286
 20
23.4842719006
  0
LWPOLYLINE
  5
34E
100
AcDbEntity
  8
217
100
AcDbPolyline
 62
250
  6
CONTINUOUS
 90
28
 70
0
 10
-0.0066202745
 20
23.9688818171
 10
-0.0067226474
 20
23.9791397638
 10
-0.007311289
 20
23.9895979736
 10
-0.0083842082
 20
24.0002210729
 10
-0.0099377761
 20
24.0109731305
 10
-0.0119667378
 20
24.021817779
 10
-0.0144642308
 20
24.0327183376
 10
-0.0174218075
 20
24.0436379366
 10
-0.0208294643
 20
24.054539642
 10
-0.0246756753
 20
24.06538658
 10
-0.0289474312
 20
24.0761420623
 10
-0.0336302832
 20
24.0867697099
 10
-0.0387083922
 20
24.0972335761
 10
-0.0441645822
 20
24.1074982682
 10
-0.0499803983
 20
24.1175290673
 10
-0.0561361693
 20
24.1272920453
 10
-0.0626110741
 20
24.1367541804
 10
-0.069383212
 20
24.145883468
 10
-0.0764296774
 20
24.1546490296
 10
-0.0837266362
 20
24.1630212166
 10
-0.0912494076
 20
24.1709717113
 10
-0.0989725468
 20
24.1784736222
 10
-0.1068699312
 20
24.1855015749
 10
-0.1149148488
 20
24.1920317984
 10
-0.1230800889
 20
24.1980422049
 10
-0.1313380335
 20
24.2035124652
 10
-0.1396607513
 20
24.2084240766
 10
-0.1480200915
 20
24.2127604264
  0
LINE
  5
34F
100
AcDbEntity
  8
217
100
AcDbLine
 62
7
  6
CONTINUOUS
 10
-1.815787159
 20
16.2828043447
 11
-1.815787159
 21
15.8966042918
  0
LINE
  5
350
100
AcDbEntity
  8
217
100
AcDbLine
 62
7
  6
CONTINUOUS
 10
-1.4753253115
 20
23.2403932913
 11
-1.4753253115
 21
22.8562637701
  0
LINE
  5
351
100
AcDbEntity
  8
217
100
AcDbLine
 62
250
  6
CONTINUOUS
 10
-0.492658051
 20
16.0114938611
 11
-0.4926659657
 21
15.6273866643
  0
LWPOLYLINE
  5
352
100
AcDbEntity
  8
217
100
AcDbPolyline
 62
7
  6
CONTINUOUS
 90
15
 70
0
 10
0.4590255481
 20
23.7418209953
 10
0.4589903273
 20
23.7394546707
 10
0.4584332834
 20
23.7341942943
 10
0.4572074744
 20
23.7289614821
 10
0.4553209977
 20
23.7237673899
 10
0.4527963018
 20
23.7186795488
 10
0.4496318217
 20
23.7137086971
 10
0.4458291224
 20
23.7088440964
 10
0.4414153464
 20
23.7041210621
 10
0.4363788662
 20
23.6995340566
 10
0.4307313094
 20
23.6950886175
 10
0.4245347011
 20
23.6908366732
 10
0.4178097164
 20
23.6867955329
 10
0.4105356802
 20
23.6829478874
 10
0.4027125925
 20
23.6792937365
  0
LWPOLYLINE
  5
353
100
AcDbEntity
  8
0
100
AcDbPolyline
 62
7
  6
CONTINUOUS
 90
19
 70
0
 10
0.6459950321
 20
17.5620829746
 10
0.6479967249
 20
17.6165721151
 10
0.6536186768
 20
17.6716833269
 10
0.6628608876
 20
17.7274166099
 10
0.6758481652
 20
17.7842033996
 10
0.6924557019
 20
17.8416122604
 10
0.7123090739
 20
17.8983488868
 10
0.7354820141
 20
17.9543980081
 10
0.7619007898
 20
18.0097748949
 10
0.7909697789
 20
18.063231053
 10
0.8227491841
 20
18.1147228509
 10
0.8571788028
 20
18.1642939203
 10
0.8934824055
 20
18.2108266613
 10
0.9317025617
 20
18.254252055
 10
0.9717967019
 20
18.2946391204
 10
1.0128608876
 20
18.3310773149
 10
1.0545938059
 20
18.3632631244
 10
1.0972967697
 20
18.391500063
 10
1.1409697789
 20
18.4157881306
  0
LWPOLYLINE
  5
354
100
AcDbEntity
  8
RACCORDO
100
AcDbPolyline
 62
250
  6
CONTINUOUS
 90
10
 70
0
 10
1.7996512709
 20
28.4110080892
 10
1.7966442121
 20
28.3722618789
 10
1.786255087
 20
28.3294407704
 10
1.7685231401
 20
28.2872267285
 10
1.7435803418
 20
28.2459339323
 10
1.7116123294
 20
28.2058697044
 10
1.6728570257
 20
28.1673322236
 10
1.6276028678
 20
28.1306083062
 10
1.5761866608
 20
28.0959712707
 10
1.5189910712
 20
28.063678904
  0
LINE
  5
355
100
AcDbEntity
  8
RACCORDO
100
AcDbLine
 62
250
  6
CONTINUOUS
 10
3.0432364343
 20
18.1472262368
 11
3.0265514008
 21
18.0759915365
  0
LINE
  5
356
100
AcDbEntity
  8
RACCORDO
100
AcDbLine
 62
250
  6
CONTINUOUS
 10
8.0462870215
 20
12.7207473631
 11
8.4813053383
 21
13.3846202003
  0
LINE
  5
357
100
AcDbEntity
  8
RACCORDO
100
AcDbLine
 62
250
  6
CONTINUOUS
 10
8.5493569914
 20
12.9785916925
 11
8.7329640778
 21
13.2587908306
  0
LWPOLYLINE
  5
358
100
AcDbEntity
  8
RACCORDO
100
AcDbPolyline
 62
250
  6
CONTINUOUS
 90
11
 70
0
 10
27.792855927
 20
15.1056607614
 10
27.8500387348
 20
15.1361618377
 10
27.9016194853
 20
15.168649619
 10
27.947137199
 20
15.2023842801
 10
27.9862292197
 20
15.2360625484
 10
28.0186353553
 20
15.269460738
 10
28.0440850776
 20
15.3034143195
 10
28.0624147246
 20
15.3370306651
 10
28.0735321777
 20
15.3695750105
 10
28.077227798
 20
15.4020071638
 10
28.0755557997
 20
15.4233174829
  0
LINE
  5
359
100
AcDbEntity
  8
217
100
AcDbLine
 62
7
  6
CONTINUOUS
 10
19.156287926
 20
12.6109913627
 11
15.0002626902
 21
10.4139367964
  0
LINE
  5
35A
100
AcDbEntity
  8
RACCORDO
100
AcDbLine
 62
250
  6
CONTINUOUS
 10
15.0002626902
 20
9.8529505039
 11
19.0588803445
 21
11.9177835483
  0
LINE
  5
35B
100
AcDbEntity
  8
RACCORDO
100
AcDbLine
 62
250
  6
CONTINUOUS
 10
15.0002626902
 20
8.2106167204
 11
27.822326364
 21
14.733877354
  0
LINE
  5
35C
100
AcDbEntity
  8
217
100
AcDbLine
 62
250
  6
CONTINUOUS
 10
13.5299881088
 20
9.2556280629
 11
9.7811156837
 21
7.3667375631
  0
LWPOLYLINE
  5
35D
100
AcDbEntity
  8
RACCORDO
100
AcDbPolyline
 62
250
  6
CONTINUOUS
 90
7
 70
0
 10
27.7928560102
 20
15.1056606984
 10
26.368526364
 20
14.4237465508
 10
24.9540306977
 20
13.74720362
 10
23.5493745442
 20
13.076021577
 10
22.1545636535
 20
12.4101901165
 10
20.769602709
 20
11.7496995419
 10
19.3944957055
 20
11.0945405987
  0
LINE
  5
35E
100
AcDbEntity
  8
217
100
AcDbLine
 62
7
  6
CONTINUOUS
 10
9.9641170584
 20
4.5769389267
 11
9.7811156837
 21
4.4924228274
  0
LINE
  5
35F
100
AcDbEntity
  8
217
100
AcDbLine
 62
7
  6
CONTINUOUS
 10
-6.2258294509
 20
1.5561920024
 11
-6.2821986431
 21
1.5669524343
  0
LWPOLYLINE
  5
360
100
AcDbEntity
  8
217
100
AcDbPolyline
 62
7
  6
CONTINUOUS
 90
9
 70
0
 10
-6.2821986431
 20
1.5669524343
 10
-6.3390050227
 20
1.5799315962
 10
-6.3961052455
 20
1.5950967185
 10
-6.4535004107
 20
1.6124534297
 10
-6.5111894192
 20
1.6319961014
 10
-6.5690256297
 20
1.6536750789
 10
-6.6269601616
 20
1.6774738106
 10
-6.6850418955
 20
1.7034088481
 10
-6.7432708313
 20
1.7314801915
  0
LWPOLYLINE
  5
361
100
AcDbEntity
  8
217
100
AcDbPolyline
 62
7
  6
CONTINUOUS
 90
8
 70
0
 10
-6.2704167052
 20
1.5664695631
 10
-6.3228523041
 20
1.5791485783
 10
-6.3821773738
 20
1.5956256166
 10
-6.4417979589
 20
1.6144299141
 10
-6.5016606907
 20
1.6355446384
 10
-6.5617119841
 20
1.6589508891
 10
-6.6218980851
 20
1.6846277143
 10
-6.6821651188
 20
1.7125521299
  0
LWPOLYLINE
  5
362
100
AcDbEntity
  8
217
100
AcDbPolyline
 62
7
  6
CONTINUOUS
 90
30
 70
0
 10
-6.0506927072
 20
1.5369576619
 10
-6.059855567
 20
1.540263512
 10
-6.1236983149
 20
1.5655298445
 10
-6.1876179433
 20
1.5930511898
 10
-6.2516146367
 20
1.6228329638
 10
-6.3156882104
 20
1.6548697507
 10
-6.3796849038
 20
1.6890846701
 10
-6.4436045322
 20
1.7254829531
 10
-6.5074472802
 20
1.7640593686
 10
-6.5710599409
 20
1.8047213428
 10
-6.6344419619
 20
1.8474738844
 10
-6.6975938956
 20
1.8923119846
 10
-6.7603641931
 20
1.939128043
 10
-6.8227519377
 20
1.9879268101
 10
-6.884758046
 20
2.0387035355
 10
-6.9462337188
 20
2.0913363675
 10
-7.007177682
 20
2.1458297638
 10
-7.0675912095
 20
2.2021792669
 10
-7.1273293239
 20
2.2602496516
 10
-7.1863904029
 20
2.3200450511
 10
-7.2447760688
 20
2.3815613324
 10
-7.3023462104
 20
2.4446508714
 10
-7.3590988689
 20
2.5093174468
 10
-7.4150360031
 20
2.5755572801
 10
-7.4700233776
 20
2.6432114119
 10
-7.5240587114
 20
2.712283239
 10
-7.5771442855
 20
2.7827693647
 10
-7.6291527077
 20
2.8545006397
 10
-7.6800813909
 20
2.9274800545
 10
-7.7020105664
 20
2.9601306761
  0
LINE
  5
363
100
AcDbEntity
  8
217
100
AcDbLine
 62
7
  6
CONTINUOUS
 10
-6.6821651188
 20
1.7125521299
 11
-6.7424591383
 21
1.7426991396
  0
LINE
  5
364
100
AcDbEntity
  8
0
100
AcDbLine
 62
250
  6
CONTINUOUS
 10
-5.0624767392
 20
2.8585625147
 11
-5.8077698331
 21
3.2312090616
  0
LWPOLYLINE
  5
365
100
AcDbEntity
  8
217
100
AcDbPolyline
 62
250
  6
CONTINUOUS
 90
36
 70
0
 10
-7.0614688829
 20
1.1415389672
 10
-7.1078449634
 20
1.1652853724
 10
-7.1541915247
 20
1.1901385989
 10
-7.2005085666
 20
1.2160986466
 10
-7.2468203354
 20
1.2431791557
 10
-7.2931025849
 20
1.2713664861
 10
-7.3392825763
 20
1.3006197172
 10
-7.3853577332
 20
1.3309399607
 10
-7.431330632
 20
1.3623261049
 10
-7.4771362627
 20
1.3947338938
 10
-7.522768745
 20
1.4281606965
 10
-7.5682339592
 20
1.4626091438
 10
-7.6134845365
 20
1.4980428723
 10
-7.6585220373
 20
1.5344641595
 10
-7.7033449011
 20
1.5718707279
 10
-7.7479010782
 20
1.6102193807
 10
-7.7921910473
 20
1.6495119916
 10
-7.8362143295
 20
1.6897466869
 10
-7.8799174386
 20
1.7308746487
 10
-7.9232990933
 20
1.7728961224
 10
-7.9663605748
 20
1.8158108627
 10
-8.0090522401
 20
1.8595693161
 10
-8.0513739435
 20
1.9041727331
 10
-8.0933258307
 20
1.9496198633
 10
-8.1348586956
 20
1.9958574024
 10
-8.1759719488
 20
2.0428861584
 10
-8.2166661796
 20
2.0907053233
 10
-8.2568939495
 20
2.1392591696
 10
-8.2966548478
 20
2.1885487239
 10
-8.335949285
 20
2.2385729594
 10
-8.3747310548
 20
2.2892730682
 10
-8.4129995307
 20
2.340649832
 10
-8.4507553391
 20
2.392702469
 10
-8.4879541522
 20
2.4453698253
 10
-8.5245951235
 20
2.4986523178
 10
-8.5531570753
 20
2.5413141788
  0
LWPOLYLINE
  5
366
100
AcDbEntity
  8
217
100
AcDbPolyline
 62
7
  6
CONTINUOUS
 90
24
 70
0
 10
-6.7432708313
 20
1.7314801915
 10
-6.8014997673
 20
1.761637784
 10
-6.8595815015
 20
1.7937844805
 10
-6.9175160338
 20
1.827920281
 10
-6.9753522451
 20
1.8640775146
 10
-7.0330412545
 20
1.9022238521
 10
-7.0904364202
 20
1.9422623065
 10
-7.1475366428
 20
1.9841974069
 10
-7.2043430217
 20
2.0280246242
 10
-7.2607122135
 20
2.0736333843
 10
-7.316643602
 20
2.1210286307
 10
-7.3721378034
 20
2.1702054199
 10
-7.4270533222
 20
2.2210383466
 10
-7.4813880876
 20
2.2735310283
 10
-7.5351441703
 20
2.3276798476
 10
-7.5881862873
 20
2.3833485461
 10
-7.6405133062
 20
2.4405417181
 10
-7.6921263593
 20
2.4992547693
 10
-7.7428935604
 20
2.5593376589
 10
-7.7928120417
 20
2.6207929815
 10
-7.8418846709
 20
2.6836181425
 10
-7.8899881649
 20
2.7476553169
 10
-7.937120798
 20
2.8129085806
 10
-7.9524147906
 20
2.834928564
  0
LWPOLYLINE
  5
367
100
AcDbEntity
  8
217
100
AcDbPolyline
 62
7
  6
CONTINUOUS
 90
23
 70
0
 10
-6.7424591383
 20
1.7426991396
 10
-6.802726172
 20
1.7750417578
 10
-6.862912273
 20
1.8095510335
 10
-6.9229635664
 20
1.8461960763
 10
-6.9828262982
 20
1.8849440838
 10
-7.0424468833
 20
1.9257603713
 10
-7.101771953
 20
1.9686084027
 10
-7.1607484034
 20
2.0134498233
 10
-7.2193234426
 20
2.0602444939
 10
-7.2774446381
 20
2.1089505269
 10
-7.3350599634
 20
2.1595243238
 10
-7.392117845
 20
2.2119206142
 10
-7.4485672085
 20
2.2660924964
 10
-7.504357524
 20
2.3219914792
 10
-7.5594388515
 20
2.3795675254
 10
-7.6137618859
 20
2.4387690967
 10
-7.6672780007
 20
2.4995431996
 10
-7.7199392917
 20
2.5618354331
 10
-7.77169862
 20
2.6255900372
 10
-7.8225096538
 20
2.6907499428
 10
-7.8723269105
 20
2.7572568232
 10
-7.9211057969
 20
2.8250511455
 10
-7.9342187341
 20
2.8440265922
  0
LWPOLYLINE
  5
368
100
AcDbEntity
  8
0
100
AcDbPolyline
 62
7
  6
CONTINUOUS
 90
34
 70
0
 10
-10.1594018589
 20
2.7376656197
 10
-10.2941377406
 20
2.8102721071
 10
-10.4238470235
 20
2.8907669355
 10
-10.5482145732
 20
2.9788869832
 10
-10.668521385
 20
3.075742423
 10
-10.7827228718
 20
3.1799437269
 10
-10.8866876624
 20
3.2870816283
 10
-10.9806101957
 20
3.3959696094
 10
-11.0663393866
 20
3.5076195805
 10
-11.1435243704
 20
3.6206120031
 10
-11.2130785615
 20
3.7353182123
 10
-11.2757563272
 20
3.8523468671
 10
-11.331159377
 20
3.9703120231
 10
-11.3797373545
 20
4.0894100475
 10
-11.4220627798
 20
4.2106531663
 10
-11.4579776104
 20
4.3334232324
 10
-11.4875488082
 20
4.4577890175
 10
-11.5108863331
 20
4.5845311291
 10
-11.5278115102
 20
4.7137373953
 10
-11.5380871349
 20
4.8456987914
 10
-11.5413589067
 20
4.9804261323
 10
-11.5372442594
 20
5.1172642558
 10
-11.5253243349
 20
5.2565060608
 10
-11.5052097867
 20
5.397387724
 10
-11.4770286877
 20
5.5372550095
 10
-11.4410039495
 20
5.6749800883
 10
-11.3971452719
 20
5.8105805205
 10
-11.3458785784
 20
5.9428725943
 10
-11.2883050334
 20
6.0697596739
 10
-11.2242573921
 20
6.1923366155
 10
-11.1517750368
 20
6.3139505913
 10
-11.0697759156
 20
6.4350893506
 10
-10.978836769
 20
6.553674733
 10
-10.8788895149
 20
6.6688778994
  0
LWPOLYLINE
  5
369
100
AcDbEntity
  8
0
100
AcDbPolyline
 62
250
  6
CONTINUOUS
 90
9
 70
0
 10
-5.7257751556
 20
3.1675932645
 10
-5.6433699692
 20
3.1094272381
 10
-5.5605542741
 20
3.0567109823
 10
-5.4770526138
 20
3.0093073162
 10
-5.3931404447
 20
2.9673534207
 10
-5.3096441358
 20
2.9312608385
 10
-5.2268391434
 20
2.9011667506
 10
-5.1444500112
 20
2.876933976
 10
-5.0624767392
 20
2.8585625147
  0
LWPOLYLINE
  5
36A
100
AcDbEntity
  8
0
100
AcDbPolyline
 62
7
  6
CONTINUOUS
 90
10
 70
0
 10
-5.7924583943
 20
3.1466899465
 10
-5.7024337148
 20
3.0768419848
 10
-5.6111201628
 20
3.012531782
 10
-5.5187416442
 20
2.9539458585
 10
-5.4254145887
 20
2.9012054432
 10
-5.3314810626
 20
2.8545575088
 10
-5.2375031551
 20
2.8142958617
 10
-5.1438186453
 20
2.7805415891
 10
-5.0505494088
 20
2.7533211582
 10
-4.9579305608
 20
2.732702032
  0
LINE
  5
36B
100
AcDbEntity
  8
0
100
AcDbLine
 62
250
  6
CONTINUOUS
 10
-5.8077698331
 20
3.2312090616
 11
-5.7257751556
 21
3.1675932645
  0
LINE
  5
36C
100
AcDbEntity
  8
0
100
AcDbLine
 62
7
  6
CONTINUOUS
 10
-5.7924583943
 20
3.1466899465
 11
-5.792415386
 21
3.146655051
  0
LINE
  5
36D
100
AcDbEntity
  8
0
100
AcDbLine
 62
7
  6
CONTINUOUS
 10
-5.8535929307
 20
3.1980223268
 11
-5.792415386
 21
3.146655051
  0
LWPOLYLINE
  5
36E
100
AcDbEntity
  8
217
100
AcDbPolyline
 62
250
  6
CONTINUOUS
 90
43
 70
0
 10
0.4027125925
 20
23.6792937365
 10
0.4019159685
 20
23.697661423
 10
0.4005801847
 20
23.7156589139
 10
0.3987052411
 20
23.733286209
 10
0.3962872269
 20
23.7505671887
 10
0.3933300529
 20
23.7674779727
 10
0.3898454514
 20
23.7839469202
 10
0.3858313894
 20
23.7999706012
 10
0.3812898999
 20
23.8155524456
 10
0.3762388146
 20
23.8306311032
 10
0.3706761642
 20
23.845204413
 10
0.3646039179
 20
23.8592745359
 10
0.3580458154
 20
23.8727866045
 10
0.3509999668
 20
23.8857384781
 10
0.3434682619
 20
23.8981322973
 10
0.33548011
 20
23.9099196163
 10
0.3270337112
 20
23.9210980877
 10
0.3181308654
 20
23.9316700587
 10
0.308806381
 20
23.9415941254
 10
0.2990585993
 20
23.9508677571
 10
0.2888891791
 20
23.9594934844
 10
0.278337906
 20
23.9674374954
 10
0.2674032807
 20
23.9746971171
 10
0.2560868026
 20
23.9812750226
 10
0.2444327549
 20
23.987145419
 10
0.2324397858
 20
23.9923055337
 10
0.2201092472
 20
23.9967581394
 10
0.2074894778
 20
24.0004857605
 10
0.1945793974
 20
24.0034855407
 10
0.1813800862
 20
24.0057603365
 10
0.1679431235
 20
24.0073012412
 10
0.1542675815
 20
24.0081053986
 10
0.140354388
 20
24.008175665
 10
0.1262579059
 20
24.0075117022
 10
0.1119772429
 20
24.0061105768
 10
0.0975132913
 20
24.0039752223
 10
0.0829230906
 20
24.0011141006
 10
0.0682058394
 20
23.9975241569
 10
0.0533623391
 20
23.9932084459
 10
0.0384520332
 20
23.9881845939
 10
0.0234947363
 20
23.9824584761
 10
0.0084706337
 20
23.9760242171
 10
-0.0066202745
 20
23.9688818171
  0
LWPOLYLINE
  5
36F
100
AcDbEntity
  8
217
100
AcDbPolyline
 62
7
  6
CONTINUOUS
 90
25
 70
0
 10
0.4588250293
 20
23.7521515467
 10
0.4575930902
 20
23.7807154718
 10
0.4553711625
 20
23.8087590357
 10
0.4521641893
 20
23.8362707898
 10
0.4479806486
 20
23.8632144248
 10
0.4428357414
 20
23.8895263493
 10
0.436739795
 20
23.9151904274
 10
0.4297044155
 20
23.940184362
 10
0.4217564791
 20
23.9644398176
 10
0.4129120369
 20
23.9879421197
 10
0.4031894234
 20
24.0106713369
 10
0.3926329631
 20
24.0325561916
 10
0.3812776806
 20
24.0535668732
 10
0.3691439213
 20
24.0737048853
 10
0.3562656119
 20
24.0929469892
 10
0.3426842716
 20
24.1112663888
 10
0.3284261102
 20
24.1286621945
 10
0.3135049925
 20
24.145143714
 10
0.2979564657
 20
24.160693547
 10
0.2818178961
 20
24.1752975194
 10
0.2651048588
 20
24.1889607925
 10
0.2478566948
 20
24.2016668794
 10
0.2301135473
 20
24.2134030991
 10
0.2118911121
 20
24.2241740862
 10
0.1952425073
 20
24.2329689033
  0
LWPOLYLINE
  5
370
100
AcDbEntity
  8
RACCORDO
100
AcDbPolyline
 62
7
  6
CONTINUOUS
 90
14
 70
0
 10
1.7996512709
 20
28.4110080892
 10
1.7960208773
 20
28.4961388633
 10
1.7850522558
 20
28.5812569274
 10
1.766698634
 20
28.6656046279
 10
1.7410207138
 20
28.7483855607
 10
1.708160299
 20
28.8288732944
 10
1.6682958286
 20
28.9064438897
 10
1.62164555
 20
28.9805038172
 10
1.5686239756
 20
29.0502896957
 10
1.5097768891
 20
29.1150830897
 10
1.445565555
 20
29.1744180187
 10
1.3764819141
 20
29.2278718509
 10
1.3031068936
 20
29.2750291746
 10
1.246742523
 20
29.305496424
  0
LINE
  5
371
100
AcDbEntity
  8
217
100
AcDbLine
 62
7
  6
CONTINUOUS
 10
0.4590238432
 20
23.7418210588
 11
0.4588250293
 21
23.7521515467
  0
LINE
  5
372
100
AcDbEntity
  8
0
100
AcDbLine
 62
7
  6
CONTINUOUS
 10
0.6459950321
 20
17.3022753534
 11
0.6459950321
 21
17.5620829746
  0
LINE
  5
373
100
AcDbEntity
  8
RACCORDO
100
AcDbLine
 62
250
  6
CONTINUOUS
 10
1.5189910712
 20
28.063678904
 11
1.5189910712
 21
26.3739532185
  0
LINE
  5
374
100
AcDbEntity
  8
RACCORDO
100
AcDbLine
 62
7
  6
CONTINUOUS
 10
1.7996512709
 20
28.4110080892
 11
1.7996512709
 21
26.3383864337
  0
LINE
  5
375
100
AcDbEntity
  8
RACCORDO
100
AcDbLine
 62
250
  6
CONTINUOUS
 10
4.993482119
 20
18.3462610339
 11
4.9060789141
 21
17.97310379
  0
LINE
  5
376
100
AcDbEntity
  8
RACCORDO
100
AcDbLine
 62
250
  6
CONTINUOUS
 10
5.2694031776
 20
18.2892768935
 11
5.1819999727
 21
17.9161196496
  0
LWPOLYLINE
  5
377
100
AcDbEntity
  8
RACCORDO
100
AcDbPolyline
 62
7
  6
CONTINUOUS
 90
12
 70
0
 10
7.0204431974
 20
16.1068693597
 10
7.0210983632
 20
16.1090073453
 10
7.022854852
 20
16.1124289566
 10
7.0254430182
 20
16.1156292862
 10
7.0288523429
 20
16.1186111328
 10
7.033039339
 20
16.1213364619
 10
7.0380139683
 20
16.1238019876
 10
7.043766269
 20
16.1260109958
 10
7.0502228685
 20
16.1279353099
 10
7.0573593092
 20
16.1295655375
 10
7.0652000487
 20
16.130911071
 10
7.073745087
 20
16.1319719104
  0
LWPOLYLINE
  5
378
100
AcDbEntity
  8
RACCORDO
100
AcDbPolyline
 62
7
  6
CONTINUOUS
 90
12
 70
0
 10
7.3802363865
 20
17.2046373956
 10
7.3795812207
 20
17.20249941
 10
7.3778247319
 20
17.1990777987
 10
7.3752365657
 20
17.1958774691
 10
7.371827241
 20
17.1928956225
 10
7.3676402449
 20
17.1901702934
 10
7.3626656156
 20
17.1877047677
 10
7.3569133149
 20
17.1854957595
 10
7.3504567154
 20
17.1835714454
 10
7.3433202747
 20
17.1819412178
 10
7.3354795352
 20
17.1805956843
 10
7.3269344969
 20
17.1795348449
  0
LWPOLYLINE
  5
379
100
AcDbEntity
  8
217
100
AcDbPolyline
 62
250
  6
CONTINUOUS
 90
40
 70
0
 10
7.382276619
 20
2.5599583712
 10
7.3578106514
 20
2.5422947988
 10
7.333525946
 20
2.5236935041
 10
7.3094515092
 20
2.5041772287
 10
7.2856158857
 20
2.4837701416
 10
7.2620477465
 20
2.4624968518
 10
7.2387758728
 20
2.4403823217
 10
7.2158278166
 20
2.4174531994
 10
7.1932312636
 20
2.393737663
 10
7.1710146163
 20
2.3692644289
 10
7.1492046053
 20
2.3440635114
 10
7.1278270695
 20
2.3181654108
 10
7.1069083403
 20
2.2916009013
 10
7.0864733362
 20
2.2644021549
 10
7.0665465478
 20
2.2366023819
 10
7.047152804
 20
2.2082350486
 10
7.0283153246
 20
2.1793346812
 10
7.0100565471
 20
2.1499363752
 10
6.9923991237
 20
2.1200754169
 10
6.9753641671
 20
2.0897880663
 10
6.9589719954
 20
2.0591111365
 10
6.9432429548
 20
2.0280815081
 10
6.9281958648
 20
1.996736856
 10
6.9138486546
 20
1.9651152385
 10
6.9002191148
 20
1.9332546741
 10
6.8873235342
 20
1.9011937582
 10
6.8751772997
 20
1.8689714618
 10
6.8637955269
 20
1.8366267216
 10
6.8531918804
 20
1.8041989048
 10
6.8433789189
 20
1.7717272038
 10
6.8343687201
 20
1.7392504334
 10
6.8261720304
 20
1.7068076866
 10
6.8187986857
 20
1.6744385674
 10
6.8122579315
 20
1.6421825816
 10
6.8065576524
 20
1.6100791469
 10
6.8017045139
 20
1.5781668091
 10
6.7977044436
 20
1.5464834856
 10
6.7945623
 20
1.5150673125
 10
6.7922818117
 20
1.4839565837
 10
6.7908657252
 20
1.4531889736
  0
LWPOLYLINE
  5
37A
100
AcDbEntity
  8
217
100
AcDbPolyline
 62
250
  6
CONTINUOUS
 90
40
 70
0
 10
7.5866381626
 20
2.2721722387
 10
7.5681868628
 20
2.258945053
 10
7.5499116099
 20
2.2450468116
 10
7.5318124039
 20
2.2304775145
 10
7.5138666296
 20
2.2152171267
 10
7.4960969023
 20
2.1992856833
 10
7.4785710674
 20
2.182743289
 10
7.4612910693
 20
2.165588435
 10
7.4442549635
 20
2.1478226301
 10
7.4275247624
 20
2.1295105066
 10
7.4111017185
 20
2.1106502201
 10
7.3949845793
 20
2.091243615
 10
7.379231599
 20
2.0713608558
 10
7.3638440171
 20
2.0510001196
 10
7.3488205942
 20
2.0301632292
 10
7.3342158666
 20
2.008925818
 10
7.3200313722
 20
1.9872864406
 10
7.306265573
 20
1.9652465423
 10
7.2929683924
 20
1.9428860923
 10
7.2801415487
 20
1.9202039496
 10
7.2677833234
 20
1.8972012554
 10
7.2559384844
 20
1.8739614018
 10
7.2446089005
 20
1.8504835428
 10
7.2337927027
 20
1.8267685245
 10
7.2235290522
 20
1.8029022776
 10
7.2138199428
 20
1.7788842161
 10
7.2046633806
 20
1.7547149259
 10
7.1960925442
 20
1.7304820952
 10
7.1881095867
 20
1.7061856095
 10
7.1807123551
 20
1.6818255831
 10
7.1739275692
 20
1.6574900475
 10
7.1677574175
 20
1.6331789031
 10
7.1621997117
 20
1.6088922494
 10
7.1572746058
 20
1.5847184165
 10
7.1529843535
 20
1.5606561383
 10
7.1493267013
 20
1.5367066809
 10
7.1463150424
 20
1.5129621731
 10
7.1439538415
 20
1.4894533246
 10
7.142238634
 20
1.4661494258
 10
7.14116942
 20
1.4430504767
  0
LINE
  5
37B
100
AcDbEntity
  8
217
100
AcDbLine
 62
250
  6
CONTINUOUS
 10
9.7878492523
 20
4.2320601279
 11
7.382276619
 21
2.5599583712
  0
LINE
  5
37C
100
AcDbEntity
  8
217
100
AcDbLine
 62
250
  6
CONTINUOUS
 10
9.9641170584
 20
3.924746176
 11
7.5866381626
 21
2.2721722387
  0
LWPOLYLINE
  5
37D
100
AcDbEntity
  8
RACCORDO
100
AcDbPolyline
 62
250
  6
CONTINUOUS
 90
10
 70
0
 10
27.822326364
 20
14.733877354
 10
27.8795221361
 20
14.7661698341
 10
27.930938472
 20
14.800806988
 10
27.9761927071
 20
14.8375310246
 10
28.0149480405
 20
14.8760686229
 10
28.0469160367
 20
14.9161329616
 10
28.071858775
 20
14.957425853
 10
28.0895906262
 20
14.9996399711
 10
28.0999796292
 20
15.0424611348
 10
28.1029865632
 20
15.0811911546
  0
LWPOLYLINE
  5
37E
100
AcDbEntity
  8
217
100
AcDbPolyline
 62
250
  6
CONTINUOUS
 90
31
 70
0
 10
7.14116942
 20
1.4430504767
 10
7.1316364859
 20
1.4391225307
 10
7.1216636101
 20
1.4354461298
 10
7.1112775242
 20
1.4320311283
 10
7.1005060672
 20
1.4288866799
 10
7.0893781112
 20
1.426021213
 10
7.0779234836
 20
1.4234424082
 10
7.0661728878
 20
1.4211571778
 10
7.0541578203
 20
1.4191716472
 10
7.0419104864
 20
1.4174911384
 10
7.0294637142
 20
1.4161201559
 10
7.0168508662
 20
1.4150623746
 10
7.0041057501
 20
1.4143206297
 10
6.9912625283
 20
1.4138969094
 10
6.978355626
 20
1.4137923495
 10
6.9654196389
 20
1.4140072301
 10
6.9524892411
 20
1.4145409754
 10
6.9395990914
 20
1.4153921547
 10
6.9267837408
 20
1.4165584865
 10
6.9140775399
 20
1.4180368445
 10
6.9015145465
 20
1.4198232661
 10
6.8891284348
 20
1.4219129629
 10
6.8769524048
 20
1.4243003336
 10
6.8650190932
 20
1.4269789792
 10
6.8533604865
 20
1.4299417197
 10
6.8420078345
 20
1.4331806138
 10
6.8309915671
 20
1.4366869797
 10
6.8203412126
 20
1.4404514191
 10
6.8100853183
 20
1.4444638416
 10
6.8002513744
 20
1.4487134923
 10
6.7908657399
 20
1.4531889803
  0
LWPOLYLINE
  5
37F
100
AcDbEntity
  8
0
100
AcDbPolyline
 62
7
  6
CONTINUOUS
 90
10
 70
0
 10
-8.7877654153
 20
2.4866297001
 10
-8.9425919802
 20
2.4756860041
 10
-9.0986608757
 20
2.4743903821
 10
-9.2551906831
 20
2.4828944204
 10
-9.4113192076
 20
2.5012579202
 10
-9.5662371575
 20
2.529452087
 10
-9.7192726115
 20
2.5673992144
 10
-9.8697020638
 20
2.6149497802
 10
-10.0166744019
 20
2.6718267675
 10
-10.1594018589
 20
2.7376656197
  0
LWPOLYLINE
  5
380
100
AcDbEntity
  8
COPY-PUBBLISH
100
AcDbPolyline
 62
250
  6
CONTINUOUS
 90
20
 70
0
 10
-5.1211694549
 20
1.9660444334
 10
-5.1916545316
 20
1.9634634307
 10
-5.3010246142
 20
1.9686321178
 10
-5.4122417838
 20
1.98280188
 10
-5.5247491954
 20
2.0058042572
 10
-5.63829974
 20
2.0374930922
 10
-5.752717332
 20
2.0777663483
 10
-5.8676042029
 20
2.126454539
 10
-5.9825792563
 20
2.1833668713
 10
-6.0974993557
 20
2.2484302116
 10
-6.2119773877
 20
2.3214493936
 10
-6.325622828
 20
2.4021994653
 10
-6.4382799339
 20
2.4906200309
 10
-6.5496902219
 20
2.5866017608
 10
-6.6593098256
 20
2.6897714331
 10
-6.7665580966
 20
2.7996404059
 10
-6.8713241062
 20
2.9161672051
 10
-6.9729431581
 20
3.0386868453
 10
-7.0701259112
 20
3.1655426237
 10
-7.127931742
 20
3.2471700883
  0
LWPOLYLINE
  5
381
100
AcDbEntity
  8
0
100
AcDbPolyline
 62
250
  6
CONTINUOUS
 90
6
 70
0
 10
-5.0624767392
 20
2.8585625147
 10
-5.0148886582
 20
2.8526739739
 10
-4.9685007573
 20
2.8489402861
 10
-4.9232754831
 20
2.8473771163
 10
-4.8791676821
 20
2.8481304795
 10
-4.8621997839
 20
2.8492963651
  0
LINE
  5
382
100
AcDbEntity
  8
217
100
AcDbLine
 62
7
  6
CONTINUOUS
 10
-6.1698980625
 20
1.5476558602
 11
-6.2258294509
 21
1.5561920024
  0
LWPOLYLINE
  5
383
100
AcDbEntity
  8
0
100
AcDbPolyline
 62
7
  6
CONTINUOUS
 90
3
 70
0
 10
-4.9577511751
 20
2.7326685454
 10
-4.9069974487
 20
2.7241671117
 10
-4.8731572412
 20
2.720387274
  0
LINE
  5
384
100
AcDbEntity
  8
0
100
AcDbLine
 62
7
  6
CONTINUOUS
 10
-4.9579305608
 20
2.732702032
 11
-4.9577511751
 21
2.7326685454
  0
LINE
  5
385
100
AcDbEntity
  8
0
100
AcDbLine
 62
250
  6
CONTINUOUS
 10
-4.9607834741
 20
3.8632099769
 11
-5.4283177195
 21
4.0969770996
  0
LINE
  5
386
100
AcDbEntity
  8
RACCORDO
100
AcDbLine
 62
7
  6
CONTINUOUS
 10
2.2482796976
 20
16.3430237574
 11
2.344216962
 21
14.9520391534
  0
LWPOLYLINE
  5
387
100
AcDbEntity
  8
217
100
AcDbPolyline
 62
250
  6
CONTINUOUS
 90
40
 70
0
 10
7.14116942
 20
-27.5778166518
 10
7.1422390806
 20
-27.5998874725
 10
7.1439547102
 20
-27.6215383261
 10
7.1463163086
 20
-27.6427692127
 10
7.1493283237
 20
-27.6636061734
 10
7.1529863077
 20
-27.684023167
 10
7.1572769173
 20
-27.7039420705
 10
7.1622024272
 20
-27.7233598013
 10
7.1677605626
 20
-27.7422794418
 10
7.1739311566
 20
-27.7606321165
 10
7.180716392
 20
-27.778415611
 10
7.1881140859
 20
-27.7956321396
 10
7.1960975224
 20
-27.8122194701
 10
7.2046688607
 20
-27.8281754123
 10
7.2138259416
 20
-27.8435021564
 10
7.2235355717
 20
-27.8581440407
 10
7.2337997603
 20
-27.872098562
 10
7.2446164982
 20
-27.8853682235
 10
7.2559465642
 20
-27.8979048742
 10
7.2677918147
 20
-27.9097058388
 10
7.2801503933
 20
-27.9207737926
 10
7.292977509
 20
-27.9310686103
 10
7.3062748571
 20
-27.9405874839
 10
7.3200407423
 20
-27.9493332215
 10
7.3342252886
 20
-27.9572741222
 10
7.3488300442
 20
-27.9644072708
 10
7.3638534609
 20
-27.9707355826
 10
7.3792410174
 20
-27.9762361023
 10
7.3949939576
 20
-27.9809058165
 10
7.4111110377
 20
-27.9847477387
 10
7.4275340052
 20
-27.9877479543
 10
7.4442641103
 20
-27.9899034035
 10
7.4613001029
 20
-27.9912171461
 10
7.4785799809
 20
-27.9916844471
 10
7.4961059905
 20
-27.9913018488
 10
7.5138758855
 20
-27.9900728088
 10
7.5318209244
 20
-27.9880029651
 10
7.5499181933
 20
-27.985094197
 10
7.568190606
 20
-27.9813446251
 10
7.5866381626
 20
-27.9767542496
  0
LWPOLYLINE
  5
388
100
AcDbEntity
  8
217
100
AcDbPolyline
 62
250
  6
CONTINUOUS
 90
26
 70
0
 10
6.7908657252
 20
-27.5847593009
 10
6.7922818194
 20
-27.6141477007
 10
6.7945623188
 20
-27.6430369317
 10
6.7977044736
 20
-27.6713920678
 10
6.8017045494
 20
-27.699178681
 10
6.8065576863
 20
-27.7263633612
 10
6.8122579643
 20
-27.752913712
 10
6.8187987244
 20
-27.778797952
 10
6.826172079
 20
-27.8039844464
 10
6.8343687779
 20
-27.8284422268
 10
6.843378982
 20
-27.8521415941
 10
6.8531919469
 20
-27.8750541336
 10
6.8637955962
 20
-27.8971521957
 10
6.8751773716
 20
-27.9184092213
 10
6.8873236081
 20
-27.9387994332
 10
6.9002191912
 20
-27.9582978735
 10
6.9138487351
 20
-27.9768810272
 10
6.9281959504
 20
-27.9945265181
 10
6.9432430454
 20
-28.0112127733
 10
6.9589720905
 20
-28.0269197271
 10
6.9753642664
 20
-28.0416284607
 10
6.9923992271
 20
-28.0553209038
 10
7.0100566539
 20
-28.0679806192
 10
7.0283154346
 20
-28.0795924019
 10
7.0471529185
 20
-28.0901419083
 10
7.0535051361
 20
-28.0933942768
  0
LINE
  5
389
100
AcDbEntity
  8
RACCORDO
100
AcDbLine
 62
7
  6
CONTINUOUS
 10
3.3988361201
 20
24.8299565044
 11
3.3988361201
 21
24.4318826103
  0
LINE
  5
38A
100
AcDbEntity
  8
RACCORDO
100
AcDbLine
 62
250
  6
CONTINUOUS
 10
7.320012843
 20
17.2639720608
 11
7.2995815835
 21
17.1767433086
  0
LINE
  5
38B
100
AcDbEntity
  8
RACCORDO
100
AcDbLine
 62
250
  6
CONTINUOUS
 10
7.073745087
 20
16.1319719104
 11
7.0570600536
 21
16.0607372101
  0
LINE
  5
38C
100
AcDbEntity
  8
RACCORDO
100
AcDbLine
 62
250
  6
CONTINUOUS
 10
9.0239907717
 20
16.3310067075
 11
8.9365875668
 21
15.9578494636
  0
LINE
  5
38D
100
AcDbEntity
  8
RACCORDO
100
AcDbLine
 62
250
  6
CONTINUOUS
 10
9.2999118303
 20
16.2740225671
 11
9.2125086255
 21
15.9008653232
  0
LWPOLYLINE
  5
38E
100
AcDbEntity
  8
0
100
AcDbPolyline
 62
7
  6
CONTINUOUS
 90
5
 70
0
 10
-8.7877654153
 20
2.4866297001
 10
-8.7396229555
 20
2.4927142836
 10
-8.6370398045
 20
2.5139599498
 10
-8.5388379664
 20
2.5459836523
 10
-8.4630299878
 20
2.5796209654
  0
LINE
  5
38F
100
AcDbEntity
  8
217
100
AcDbLine
 62
250
  6
CONTINUOUS
 10
-27.7998973162
 20
18.7485704943
 11
-19.8558629586
 21
14.7765533155
  0
LINE
  5
390
100
AcDbEntity
  8
217
100
AcDbLine
 62
250
  6
CONTINUOUS
 10
-1.1531721082
 20
5.4252078903
 11
6.7908657252
 21
1.4531889736
  0
LINE
  5
391
100
AcDbEntity
  8
217
100
AcDbLine
 62
250
  6
CONTINUOUS
 10
7.382276619
 20
2.5599583712
 11
-0.3319384527
 21
6.4170659071
  0
LINE
  5
392
100
AcDbEntity
  8
217
100
AcDbLine
 62
250
  6
CONTINUOUS
 10
-19.509555625
 20
16.0058744932
 11
-27.2237710007
 21
19.8629821811
  0
LWPOLYLINE
  5
393
100
AcDbEntity
  8
217
100
AcDbPolyline
 62
7
  6
CONTINUOUS
 90
21
 70
0
 10
7.6678055376
 20
21.0793033209
 10
7.6674926439
 20
21.0904862775
 10
7.666549438
 20
21.1016832528
 10
7.6649717303
 20
21.1128516809
 10
7.6627592291
 20
21.1239470007
 10
7.6599147632
 20
21.134927465
 10
7.6564432448
 20
21.145754923
 10
7.6523541994
 20
21.1563863372
 10
7.6476599791
 20
21.1667812028
 10
7.6423720084
 20
21.1769073541
 10
7.6365066444
 20
21.1867274175
 10
7.6300845095
 20
21.1962030012
 10
7.6231238496
 20
21.2053042018
 10
7.6156447037
 20
21.2140014312
 10
7.6076743972
 20
21.2222603148
 10
7.5992415944
 20
21.2300500057
 10
7.5903668393
 20
21.2373499194
 10
7.5810818381
 20
21.2441319584
 10
7.5714309414
 20
21.2503640578
 10
7.5614281437
 20
21.2560370403
 10
7.5572442985
 20
21.2581907381
  0
LWPOLYLINE
  5
394
100
AcDbEntity
  8
217
100
AcDbPolyline
 62
7
  6
CONTINUOUS
 90
24
 70
0
 10
8.2120375908
 20
19.8958296351
 10
8.211595122
 20
19.923142122
 10
8.2102581951
 20
19.9499254168
 10
8.2080268099
 20
19.9761795196
 10
8.2048922448
 20
20.0019673846
 10
8.2008632215
 20
20.0272260575
 10
8.195965905
 20
20.0517666757
 10
8.1901961898
 20
20.0755609494
 10
8.1835581813
 20
20.0986371684
 10
8.1760903612
 20
20.1208913397
 10
8.1678011364
 20
20.1423030996
 10
8.1586821
 20
20.1628928117
 10
8.1487465132
 20
20.1826175739
 10
8.137973345
 20
20.2015078016
 10
8.1263836264
 20
20.2195330793
 10
8.1140537116
 20
20.2365592578
 10
8.1009782534
 20
20.2525692213
 10
8.087162599
 20
20.2675800856
 10
8.0726991436
 20
20.2815090492
 10
8.0576126774
 20
20.2943329544
 10
8.0418784102
 20
20.3060749589
 10
8.0255143669
 20
20.3167217336
 10
8.0084922391
 20
20.3262899096
 10
8.0041470824
 20
20.3285068928
  0
LINE
  5
395
100
AcDbEntity
  8
217
100
AcDbLine
 62
7
  6
CONTINUOUS
 10
6.1614279253
 20
19.4219902919
 11
6.1614279253
 21
19.2080953105
  0
LINE
  5
396
100
AcDbEntity
  8
0
100
AcDbLine
 62
250
  6
CONTINUOUS
 10
6.304563818
 20
23.0779958832
 11
6.304563818
 21
22.6661160009
  0
LINE
  5
397
100
AcDbEntity
  8
DRAFT
100
AcDbLine
 62
7
  6
CONTINUOUS
 10
7.2786566396
 20
23.1464678912
 11
7.2786566396
 21
22.7134551893
  0
LINE
  5
398
100
AcDbEntity
  8
217
100
AcDbLine
 62
250
  6
CONTINUOUS
 10
7.614076278
 20
21.0111034849
 11
7.614076278
 21
20.6934422813
  0
LINE
  5
399
100
AcDbEntity
  8
217
100
AcDbLine
 62
7
  6
CONTINUOUS
 10
7.6678055376
 20
21.0793033209
 11
7.6678055376
 21
20.7616421193
  0
LINE
  5
39A
100
AcDbEntity
  8
217
100
AcDbLine
 62
7
  6
CONTINUOUS
 10
7.7365556547
 20
18.807631509
 11
7.7365556547
 21
18.4205314458
  0
LINE
  5
39B
100
AcDbEntity
  8
217
100
AcDbLine
 62
7
  6
CONTINUOUS
 10
8.1842975382
 20
11.2914524688
 11
8.1842975382
 21
10.9052499082
  0
LINE
  5
39C
100
AcDbEntity
  8
217
100
AcDbLine
 62
7
  6
CONTINUOUS
 10
8.2120375908
 20
19.8958296351
 11
8.2120375908
 21
19.613063793
  0
LINE
  5
39D
100
AcDbEntity
  8
DRAFT
100
AcDbLine
 62
7
  6
CONTINUOUS
 10
8.5649738986
 20
23.0556031502
 11
8.5649738986
 21
21.2180331688
  0
LWPOLYLINE
  5
39E
100
AcDbEntity
  8
217
100
AcDbPolyline
 62
250
  6
CONTINUOUS
 90
15
 70
0
 10
7.6678055376
 20
21.0793033209
 10
7.6677934617
 20
21.078204432
 10
7.6673450276
 20
21.0725211396
 10
7.6662510816
 20
21.0668597876
 10
7.6645151625
 20
21.0612386906
 10
7.6621428861
 20
21.0556760328
 10
7.6591419267
 20
21.0501898094
 10
7.6555219925
 20
21.0447977685
 10
7.6512947939
 20
21.0395173534
 10
7.646474006
 20
21.0343656462
 10
7.641075224
 20
21.0293593128
 10
7.6351159132
 20
21.0245145487
 10
7.6286153518
 20
21.0198470267
 10
7.6215945693
 20
21.0153718464
 10
7.614076278
 20
21.0111034849
  0
LINE
  5
39F
100
AcDbEntity
  8
217
100
AcDbLine
 62
250
  6
CONTINUOUS
 10
7.6677803917
 20
20.7602844073
 11
7.6678055376
 21
20.7616420951
  0
LWPOLYLINE
  5
3A0
100
AcDbEntity
  8
217
100
AcDbPolyline
 62
250
  6
CONTINUOUS
 90
31
 70
0
 10
7.614076278
 20
21.0111034849
 10
7.6143298139
 20
21.0204443401
 10
7.6141850892
 20
21.0299522298
 10
7.6136416053
 20
21.0396016188
 10
7.6126997159
 20
21.04936852
 10
7.6113611759
 20
21.0592245003
 10
7.6096299582
 20
21.0691366098
 10
7.6075110218
 20
21.0790761627
 10
7.6050097695
 20
21.0890175767
 10
7.6021333232
 20
21.0989322911
 10
7.5988897841
 20
21.1087925628
 10
7.5952878631
 20
21.1185720697
 10
7.5913372
 20
21.128244596
 10
7.5870483966
 20
21.1377840161
 10
7.5824332772
 20
21.1471638739
 10
7.5775046963
 20
21.1563580088
 10
7.5722762793
 20
21.1653410606
 10
7.5667622174
 20
21.1740887013
 10
7.5609774739
 20
21.1825771965
 10
7.5549377978
 20
21.1907834082
 10
7.5486597599
 20
21.1986847946
 10
7.5421605894
 20
21.2062596639
 10
7.5354580897
 20
21.2134872711
 10
7.5285705668
 20
21.2203478809
 10
7.5215168421
 20
21.2268227449
 10
7.514316195
 20
21.2328941621
 10
7.5069883302
 20
21.2385455147
 10
7.4995533082
 20
21.2437613312
 10
7.4920314708
 20
21.248527344
 10
7.4844433841
 20
21.2528305243
 10
2.169906922
 20
23.9100988414
  0
LWPOLYLINE
  5
3A1
100
AcDbEntity
  8
217
100
AcDbPolyline
 62
250
  6
CONTINUOUS
 90
22
 70
0
 10
6.7908657252
 20
1.4531889736
 10
6.7476977173
 20
0.0502040417
 10
6.7088447889
 20
-1.3508828497
 10
6.6743074792
 20
-2.7500519106
 10
6.6440862611
 20
-4.1472833747
 10
6.6181815603
 20
-5.5425575113
 10
6.5965937547
 20
-6.9358546256
 10
6.5793231471
 20
-8.3271550396
 10
6.5663699739
 20
-9.716439104
 10
6.5577344242
 20
-11.1036872096
 10
6.553416621
 20
-12.4888797656
 10
6.553416621
 20
-13.8719972105
 10
6.5577344242
 20
-15.2530200234
 10
6.5663699739
 20
-16.6319287058
 10
6.5793231471
 20
-18.0087037835
 10
6.5965937547
 20
-19.3833258175
 10
6.6181815603
 20
-20.7557754011
 10
6.6440862611
 20
-22.1260331529
 10
6.6743074792
 20
-23.4940797187
 10
6.7088447889
 20
-24.8598957808
 10
6.7476977173
 20
-26.2234620585
 10
6.7908657252
 20
-27.5847593009
  0
LWPOLYLINE
  5
3A2
100
AcDbEntity
  8
217
100
AcDbPolyline
 62
250
  6
CONTINUOUS
 90
22
 70
0
 10
7.14116942
 20
1.4430504767
 10
7.0980255696
 20
0.0408582209
 10
7.0591952823
 20
-1.3593977822
 10
7.0246785579
 20
-2.7577175325
 10
6.9944750306
 20
-4.1541208683
 10
6.9685850662
 20
-5.5485879513
 10
6.9470097629
 20
-6.9410592672
 10
6.9297493052
 20
-8.3315345199
 10
6.9168035084
 20
-9.7200140054
 10
6.9081729169
 20
-11.1064390984
 10
6.903857712
 20
-12.4908097107
 10
6.9038577124
 20
-13.8731259305
 10
6.9081729179
 20
-15.2533293954
 10
6.9168035101
 20
-16.6314200184
 10
6.9297493074
 20
-18.0073978866
 10
6.9470097657
 20
-19.3812049001
 10
6.9685850695
 20
-20.7528411803
 10
6.9944750343
 20
-22.1223066056
 10
7.0246785615
 20
-23.4895427119
 10
7.0591952852
 20
-24.854530011
 10
7.0980255713
 20
-26.217287991
 10
7.14116942
 20
-27.5778166518
  0
LWPOLYLINE
  5
3A3
100
AcDbEntity
  8
0
100
AcDbPolyline
 62
7
  6
CONTINUOUS
 90
19
 70
0
 10
9.1312764063
 20
13.3194422874
 10
9.1332780992
 20
13.373931428
 10
9.138900051
 20
13.4290426398
 10
9.1481422618
 20
13.4847759228
 10
9.1611295395
 20
13.5415627124
 10
9.1777370761
 20
13.5989715733
 10
9.1975904481
 20
13.6557081997
 10
9.2207633884
 20
13.711757321
 10
9.247182164
 20
13.7671342077
 10
9.2762511531
 20
13.8205903658
 10
9.3080305583
 20
13.8720821638
 10
9.3424601771
 20
13.9216532331
 10
9.3787637797
 20
13.9681859742
 10
9.416983936
 20
14.0116113679
 10
9.4570780762
 20
14.0519984333
 10
9.4981422618
 20
14.0884366278
 10
9.5398751801
 20
14.1206224373
 10
9.5825781439
 20
14.1488593758
 10
9.6262511531
 20
14.1731474435
  0
LINE
  5
3A4
100
AcDbEntity
  8
RACCORDO
100
AcDbLine
 62
7
  6
CONTINUOUS
 10
7.4330178982
 20
12.4071266302
 11
7.5289917407
 21
13.7026677358
  0
LINE
  5
3A5
100
AcDbEntity
  8
RACCORDO
100
AcDbLine
 62
7
  6
CONTINUOUS
 10
7.7160794609
 20
12.551502224
 11
7.8029242197
 21
13.7238107596
  0
LWPOLYLINE
  5
3A6
100
AcDbEntity
  8
RACCORDO
100
AcDbPolyline
 62
7
  6
CONTINUOUS
 90
14
 70
0
 10
7.5289917407
 20
13.7026677358
 10
7.5300355223
 20
13.7128420018
 10
7.5315982076
 20
13.7225790752
 10
7.5336797967
 20
13.7318789562
 10
7.5362921744
 20
13.7407737457
 10
7.539423456
 20
13.7492313427
 10
7.5430379865
 20
13.7571554437
 10
7.5471412897
 20
13.7645399509
 10
7.5517278419
 20
13.7713909621
 10
7.5567454179
 20
13.7776304673
 10
7.5621989441
 20
13.7832514772
 10
7.5680834941
 20
13.7882609813
 10
7.5743320626
 20
13.7926019381
 10
7.5804244541
 20
13.796007383
  0
LINE
  5
3A7
100
AcDbEntity
  8
0
100
AcDbLine
 62
250
  6
CONTINUOUS
 10
10.0553716894
 20
14.0285816601
 11
10.1427748943
 21
14.4017389039
  0
LINE
  5
3A8
100
AcDbEntity
  8
RACCORDO
100
AcDbLine
 62
250
  6
CONTINUOUS
 10
11.3505214958
 20
15.2487177344
 11
11.3300902363
 21
15.1614889823
  0
LWPOLYLINE
  5
3A9
100
AcDbEntity
  8
RACCORDO
100
AcDbPolyline
 62
7
  6
CONTINUOUS
 90
12
 70
0
 10
11.4107450393
 20
15.1893830692
 10
11.4100898734
 20
15.1872450836
 10
11.4083333846
 20
15.1838234723
 10
11.4057452184
 20
15.1806231427
 10
11.4023358937
 20
15.1776412961
 10
11.3981488976
 20
15.174915967
 10
11.3931742683
 20
15.1724504413
 10
11.3874219677
 20
15.1702414331
 10
11.3809653682
 20
15.168317119
 10
11.3738289274
 20
15.1666868914
 10
11.3659881879
 20
15.1653413579
 10
11.3574431496
 20
15.1642805185
  0
LWPOLYLINE
  5
3AA
100
AcDbEntity
  8
RACCORDO
100
AcDbPolyline
 62
7
  6
CONTINUOUS
 90
12
 70
0
 10
13.2783382109
 20
15.6599456943
 10
13.2789933767
 20
15.6620836799
 10
13.2807498655
 20
15.6655052913
 10
13.2833380317
 20
15.6687056208
 10
13.2867473564
 20
15.6716874675
 10
13.2909343525
 20
15.6744127966
 10
13.2959089818
 20
15.6768783223
 10
13.3016612825
 20
15.6790873305
 10
13.308117882
 20
15.6810116445
 10
13.3152543227
 20
15.6826418722
 10
13.3230950622
 20
15.6839874057
 10
13.3316401005
 20
15.685048245
  0
LINE
  5
3AB
100
AcDbEntity
  8
217
100
AcDbLine
 62
7
  6
CONTINUOUS
 10
9.7878492523
 20
4.2320601279
 11
1.5506026487
 21
8.3506834297
  0
LINE
  5
3AC
100
AcDbEntity
  8
217
100
AcDbLine
 62
7
  6
CONTINUOUS
 10
-16.6634899081
 20
17.4577297081
 11
-24.9007365117
 21
21.5763530099
  0
LINE
  5
3AD
100
AcDbEntity
  8
217
100
AcDbLine
 62
7
  6
CONTINUOUS
 10
9.4306743958
 20
4.4976651323
 11
0.6517733109
 21
8.8871156747
  0
LINE
  5
3AE
100
AcDbEntity
  8
217
100
AcDbLine
 62
7
  6
CONTINUOUS
 10
-16.4717673514
 20
17.4488860059
 11
-25.2506684364
 21
21.8383365483
  0
LWPOLYLINE
  5
3AF
100
AcDbEntity
  8
217
100
AcDbPolyline
 62
7
  6
CONTINUOUS
 90
138
 70
0
 10
-10.2771504613
 20
12.6285160304
 10
-10.0451964219
 20
12.5100314879
 10
-9.8021589199
 20
12.3804990958
 10
-9.559346516
 20
12.2455657911
 10
-9.3168537534
 20
12.1052789853
 10
-9.0747568952
 20
11.9596806936
 10
-8.8331204741
 20
11.8088068173
 10
-8.5920208979
 20
11.652700858
 10
-8.351540084
 20
11.4914137323
 10
-8.111750428
 20
11.3249912043
 10
-7.8727318424
 20
11.1534848051
 10
-7.6345629658
 20
10.9769495396
 10
-7.3973138203
 20
10.7954355015
 10
-7.161062333
 20
10.6089992481
 10
-6.9258852198
 20
10.4177005426
 10
-6.6918503004
 20
10.2215934504
 10
-6.4590333261
 20
10.0207389283
 10
-6.2275100394
 20
9.8152020657
 10
-5.9973478751
 20
9.6050424353
 10
-5.7686209413
 20
9.390325956
 10
-5.5414028521
 20
9.1711221304
 10
-5.3157599206
 20
8.9474954828
 10
-5.0917630827
 20
8.7195152955
 10
-4.8694851912
 20
8.4872567305
 10
-4.6489949353
 20
8.2507931512
 10
-4.4303609735
 20
8.0101983004
 10
-4.2136539978
 20
7.7655519727
 10
-3.9989449755
 20
7.516937269
 10
-3.7863016811
 20
7.2644343709
 10
-3.5757906683
 20
7.0081257476
 10
-3.3674800836
 20
6.7480989303
 10
-3.1614351508
 20
6.4844385622
 10
-2.9577196703
 20
6.2172310751
 10
-2.7563985651
 20
5.9465677232
 10
-2.5575342428
 20
5.6725371102
 10
-2.3611877688
 20
5.395229463
 10
-2.1674208618
 20
5.1147395346
 10
-1.9762929876
 20
4.8311595445
 10
-1.7878623704
 20
4.5445832001
 10
-1.6021875547
 20
4.2551085716
 10
-1.4193248884
 20
3.962831055
 10
-1.2393297117
 20
3.6678476191
 10
-1.0622575982
 20
3.3702598001
 10
-0.88816184
 20
3.0701661374
 10
-0.7170945943
 20
2.7676662602
 10
-0.5491081138
 20
2.4628644442
 10
-0.3842524501
 20
2.1558618899
 10
-0.22257657
 20
1.8467606905
 10
-0.0641293266
 20
1.5356675224
 10
0.091042858
 20
1.2226852926
 10
0.2428939903
 20
0.9079188153
 10
0.3913778483
 20
0.5914786492
 10
0.5364513836
 20
0.2734698693
 10
0.6780721408
 20
-0.0460010885
 10
0.8161970394
 20
-0.3668206649
 10
0.9507864517
 20
-0.6888817369
 10
1.0818016795
 20
-1.0120768406
 10
1.2092035032
 20
-1.3362910827
 10
1.3329558305
 20
-1.6614156717
 10
1.453023785
 20
-1.9873425245
 10
1.5693725647
 20
-2.31395719
 10
1.6819697611
 20
-2.6411498576
 10
1.7907842454
 20
-2.9688120047
 10
1.8957857733
 20
-3.2968307188
 10
1.9969459084
 20
-3.6250964728
 10
2.0942369616
 20
-3.9534997863
 10
2.1876325255
 20
-4.2819276426
 10
2.2771079931
 20
-4.6102705873
 10
2.3626394005
 20
-4.9384191348
 10
2.4442041699
 20
-5.2662602798
 10
2.5217815921
 20
-5.5936850345
 10
2.5953515092
 20
-5.9205842802
 10
2.6648951981
 20
-6.2468451272
 10
2.7303959148
 20
-6.5723594154
 10
2.7918374068
 20
-6.8970188165
 10
2.8492048871
 20
-7.2207107723
 10
2.9024856398
 20
-7.543328244
 10
2.9516674303
 20
-7.8647641981
 10
2.9967395582
 20
-8.1849069576
 10
3.0376934194
 20
-8.503651047
 10
3.0745208689
 20
-8.8208910975
 10
3.1072154097
 20
-9.136516766
 10
3.1357723773
 20
-9.4504216716
 10
3.1601881092
 20
-9.7625054338
 10
3.1804609218
 20
-10.0726680393
 10
3.1965900924
 20
-10.380803675
 10
3.2085758544
 20
-10.6868159493
 10
3.2164205006
 20
-10.9906201336
 10
3.2201269292
 20
-11.2921168663
 10
3.2196984541
 20
-11.5912078222
 10
3.215140058
 20
-11.8878108303
 10
3.2064580701
 20
-12.1818294887
 10
3.1936592191
 20
-12.4731675009
 10
3.1767512454
 20
-12.7617439581
 10
3.1557439827
 20
-13.0474652493
 10
3.1306476827
 20
-13.3302378114
 10
3.1014730312
 20
-13.6099820645
 10
3.0682338053
 20
-13.8866047073
 10
3.0309436069
 20
-14.1600180404
 10
2.9896149816
 20
-14.4301520447
 10
2.944265519
 20
-14.6969144993
 10
2.894911743
 20
-14.9602228649
 10
2.8415658908
 20
-15.2200221517
 10
2.7842476188
 20
-15.4762270466
 10
2.7229768326
 20
-15.7287536694
 10
2.657766877
 20
-15.9775492092
 10
2.5886409368
 20
-16.222528856
 10
2.5156210277
 20
-16.4636143904
 10
2.438719098
 20
-16.700762581
 10
2.3579638735
 20
-16.9338831551
 10
2.2733768356
 20
-17.1629095299
 10
2.184957391
 20
-17.3878316442
 10
2.0927322984
 20
-17.6085685708
 10
1.9967260625
 20
-17.8250468375
 10
1.8969309107
 20
-18.0372628825
 10
1.7933718692
 20
-18.2451407635
 10
1.686075218
 20
-18.448603634
 10
1.5750308928
 20
-18.6476415544
 10
1.4602554081
 20
-18.8421937826
 10
1.3417831046
 20
-19.0321699324
 10
1.2196289459
 20
-19.2175142683
 10
1.0938160912
 20
-19.3981622545
 10
0.9643767012
 20
-19.5740371859
 10
0.8313406607
 20
-19.7450691423
 10
0.6947400875
 20
-19.9111917351
 10
0.5546033462
 20
-20.0723440131
 10
0.4109561036
 20
-20.2284697664
 10
0.2638316293
 20
-20.379509235
 10
0.1132593726
 20
-20.5254070219
 10
-0.0407407342
 20
-20.666117971
 10
-0.1981351576
 20
-20.8015877237
 10
-0.3588944355
 20
-20.9317654478
 10
-0.5230057203
 20
-21.0566143121
 10
-0.6904355909
 20
-21.1760836979
 10
-0.8611550709
 20
-21.2901258343
 10
-1.0351593116
 20
-21.3987092845
 10
-1.2124261869
 20
-21.5017917007
 10
-1.3589087153
 20
-21.5814998131
  0
LWPOLYLINE
  5
3B0
100
AcDbEntity
  8
217
100
AcDbPolyline
 62
250
  6
CONTINUOUS
 90
175
 70
0
 10
-10.4067068448
 20
12.9194877184
 10
-10.1534229488
 20
12.789969999
 10
-9.9003742697
 20
12.6547506787
 10
-9.6475604949
 20
12.5138298959
 10
-9.3948672619
 20
12.3671515634
 10
-9.1424076802
 20
12.2147723229
 10
-8.8905223307
 20
12.0568615454
 10
-8.639211307
 20
11.8934061955
 10
-8.3884720034
 20
11.7244204214
 10
-8.138640648
 20
11.550114504
 10
-7.8897205545
 20
11.370478788
 10
-7.6417046698
 20
11.1855245879
 10
-7.3949134025
 20
10.9954937599
 10
-7.1493752309
 20
10.8004019463
 10
-6.9050567775
 20
10.6002356835
 10
-6.6621854351
 20
10.3951932726
 10
-6.4207746254
 20
10.1852870187
 10
-6.18080492
 20
9.9705072956
 10
-5.9424542272
 20
9.7510196035
 10
-5.7057064217
 20
9.52681091
 10
-5.4705705478
 20
9.2978974162
 10
-5.237262094
 20
9.0644885539
 10
-5.0057675803
 20
8.8265695996
 10
-4.7760924178
 20
8.5841589025
 10
-4.5484803295
 20
8.3375155539
 10
-4.322933988
 20
8.0866411273
 10
-4.0994417919
 20
7.8315380803
 10
-3.8782260259
 20
7.5724668489
 10
-3.6592899293
 20
7.3094325819
 10
-3.4426205744
 20
7.0424345278
 10
-3.2284160232
 20
6.7717242669
 10
-3.0166716299
 20
6.4972987821
 10
-2.8073816777
 20
6.219165822
 10
-2.6007427126
 20
5.9375930822
 10
-2.3967481974
 20
5.6525741554
 10
-2.1953937551
 20
5.3641204655
 10
-1.9968793529
 20
5.0725263825
 10
-1.8012028749
 20
4.7777912835
 10
-1.608355128
 20
4.4799210275
 10
-1.4185257414
 20
4.1792195923
 10
-1.2317139878
 20
3.8756894028
 10
-1.0479090286
 20
3.5693334317
 10
-0.8672856844
 20
3.2604563272
 10
-0.6898423125
 20
2.9490600638
 10
-0.5155688565
 20
2.635148174
 10
-0.344627949
 20
2.3190274566
 10
-0.1770193756
 20
2.0007038788
 10
-0.0127316482
 20
1.6801770337
 10
0.1480890174
 20
1.3577439455
 10
0.305445998
 20
1.0334053243
 10
0.4593475341
 20
0.7071660349
 10
0.6096541501
 20
0.37932909
 10
0.7563741237
 20
0.0498814372
 10
0.8995105926
 20
-0.2811583339
 10
1.0389156817
 20
-0.6134400535
 10
1.1745934434
 20
-0.9469732073
 10
1.3065507843
 20
-1.2817429284
 10
1.4346432341
 20
-1.6173629135
 10
1.5588638842
 20
-1.953814045
 10
1.6792298821
 20
-2.2911103412
 10
1.7956319019
 20
-2.628915631
 10
1.9080672558
 20
-2.9672156347
 10
2.0165481908
 20
-3.3060197996
 10
2.1209868991
 20
-3.6450279488
 10
2.2213869505
 20
-3.9842449257
 10
2.3177536786
 20
-4.3236613143
 10
2.4100010018
 20
-4.6629559743
 10
2.4981307491
 20
-5.0021339361
 10
2.5821491641
 20
-5.3411859445
 10
2.6619757421
 20
-5.6797699203
 10
2.7376091721
 20
-6.0178829503
 10
2.8090578327
 20
-6.3555241612
 10
2.8762546196
 20
-6.6923550689
 10
2.9391976667
 20
-7.0283721532
 10
2.9978948301
 20
-7.3635756295
 10
3.0522924139
 20
-7.6976331782
 10
3.102387909
 20
-8.0305382626
 10
3.1481886734
 20
-8.3622946365
 10
3.189654625
 20
-8.6925859859
 10
3.2267833382
 20
-9.0214023638
 10
3.2595809349
 20
-9.3487514721
 10
3.2880190079
 20
-9.6743440269
 10
3.3120961426
 20
-9.9981830491
 10
3.3318163701
 20
-10.3202637847
 10
3.3471583
 20
-10.6402858524
 10
3.3581182596
 20
-10.958265187
 10
3.3647013751
 20
-11.2741846842
 10
3.3668981462
 20
-11.5876950513
 10
3.3647017707
 20
-11.8987927623
 10
3.3581190517
 20
-12.2074808931
 10
3.3471594683
 20
-12.5134207692
 10
3.3318178808
 20
-12.8165916526
 10
3.3120979759
 20
-13.117014565
 10
3.2880211622
 20
-13.4144141313
 10
3.2595834133
 20
-13.7087841337
 10
3.2267861385
 20
-14.0001316739
 10
3.1896577489
 20
-14.2882019435
 10
3.1481921255
 20
-14.5730001532
 10
3.1023916909
 20
-14.8545225436
 10
3.0522965221
 20
-15.1325014405
 10
2.9978992557
 20
-15.4069380852
 10
2.9392024064
 20
-15.6778333025
 10
2.8762596818
 20
-15.9449194087
 10
2.8090632303
 20
-16.2081947578
 10
2.7376149132
 20
-16.4676636811
 10
2.6619818332
 20
-16.7230680749
 10
2.5821556134
 20
-16.97440581
 10
2.498137563
 20
-17.2216822969
 10
2.410008179
 20
-17.464651339
 10
2.3177612056
 20
-17.7033057974
 10
2.2213948261
 20
-17.9376566589
 10
2.1209951513
 20
-18.1674854727
 10
2.016556858
 20
-18.3927866404
 10
1.9080763657
 20
-18.6135700913
 10
1.7956414791
 20
-18.8296411607
 10
1.6792399878
 20
-19.0410063194
 10
1.5588745427
 20
-19.2476638236
 10
1.4346543566
 20
-19.4494071656
 10
1.3065622663
 20
-19.64624315
 10
1.1746051966
 20
-19.8381701115
 10
1.0389275539
 20
-20.0249693482
 10
0.8995223507
 20
-20.2066307419
 10
0.7563856162
 20
-20.3831699882
 10
0.6096654052
 20
-20.554407586
 10
0.4593586209
 20
-20.7203338842
 10
0.3054569442
 20
-20.8809644121
 10
0.1480999071
 20
-21.0361578221
 10
-0.0127206953
 20
-21.1859128416
 10
-0.1770082759
 20
-21.3302367856
 10
-0.3446166695
 20
-21.4690015004
 10
-0.5155573735
 20
-21.6022077024
 10
-0.6898305931
 20
-21.7298608174
 10
-0.8672737175
 20
-21.851840035
 10
-1.0478968084
 20
-21.9681437366
 10
-1.2317015032
 20
-22.0787797327
 10
-1.4185129869
 20
-22.1836416028
 10
-1.6083420884
 20
-22.2827273779
 10
-1.8011895446
 20
-22.3760451952
 10
-1.9968657611
 20
-22.4635039997
 10
-2.1953799441
 20
-22.5451004836
 10
-2.3967341963
 20
-22.6208440278
 10
-2.6007285453
 20
-22.6906627724
 10
-2.8073673846
 20
-22.7545524892
 10
-3.0166572349
 20
-22.8125233041
 10
-3.2284014959
 20
-22.8645249972
 10
-3.44260586
 20
-22.9105549692
 10
-3.6592749975
 20
-22.9506214504
 10
-3.8782108661
 20
-22.9846905233
 10
-4.0994263661
 20
-23.0127599346
 10
-4.3229182854
 20
-23.0348372285
 10
-4.54846444
 20
-23.0509032063
 10
-4.7760764785
 20
-23.0609531823
 10
-5.0057516809
 20
-23.0649967398
 10
-5.2372462834
 20
-23.0630360749
 10
-5.4705549384
 20
-23.0550672943
 10
-5.7056910624
 20
-23.0410987345
 10
-5.9424389352
 20
-23.0211508844
 10
-6.1807894371
 20
-22.995224433
 10
-6.420758769
 20
-22.9633226036
 10
-6.6621690172
 20
-22.9254695938
 10
-6.9050394697
 20
-22.8816616432
 10
-7.1493568455
 20
-22.8319058403
 10
-7.3948941671
 20
-22.7762425415
 10
-7.6416848401
 20
-22.7146570193
 10
-7.8897003582
 20
-22.6471667217
 10
-8.1386206447
 20
-22.5738601414
 10
-8.3884528531
 20
-22.4947237873
 10
-8.6391935693
 20
-22.4097732307
 10
-8.8905065965
 20
-22.3191404092
 10
-9.1423948757
 20
-22.2228121689
 10
-9.3948579781
 20
-22.120803063
 10
-9.6475543492
 20
-22.0132864209
 10
-9.9003705551
 20
-21.9003202517
 10
-10.1534212827
 20
-21.7818472448
 10
-10.4067068448
 20
-21.6578675743
  0
LWPOLYLINE
  5
3B1
100
AcDbEntity
  8
217
100
AcDbPolyline
 62
7
  6
CONTINUOUS
 90
28
 70
0
 10
0.6517733109
 20
8.8871156747
 10
0.4419737267
 20
9.1545879278
 10
0.2302155399
 20
9.418918116
 10
0.0164987505
 20
9.6801062395
 10
-0.1992390896
 20
9.9382250224
 10
-0.4169355323
 20
10.1932017406
 10
-0.6364032334
 20
10.444818221
 10
-0.8576222782
 20
10.6930484028
 10
-1.0806125815
 20
10.9379183469
 10
-1.3052465424
 20
11.1792880634
 10
-1.5315486672
 20
11.4171799492
 10
-1.7594944496
 20
11.6515716075
 10
-1.9888827703
 20
11.8822558576
 10
-2.2196974838
 20
12.1092122028
 10
-2.4519547355
 20
12.3324611399
 10
-2.6855018425
 20
12.5518569785
 10
-2.9203446843
 20
12.7674024365
 10
-3.1564773814
 20
12.979094796
 10
-3.3937296132
 20
13.1867802128
 10
-3.6321122537
 20
13.3904634955
 10
-3.8716144287
 20
13.5901398355
 10
-4.112033195
 20
13.7856409635
 10
-4.3533452121
 20
13.9769453023
 10
-4.5955738203
 20
14.1640744292
 10
-4.8385860976
 20
14.3469248061
 10
-5.0823377366
 20
14.5254619204
 10
-5.3268730446
 20
14.6997202848
 10
-5.5721920216
 20
14.8696998992
  0
LINE
  5
3B2
100
AcDbEntity
  8
217
100
AcDbLine
 62
7
  6
CONTINUOUS
 10
1.5506026487
 20
8.3506834297
 11
1.4487544032
 21
8.4886251285
  0
LWPOLYLINE
  5
3B3
100
AcDbEntity
  8
217
100
AcDbPolyline
 62
250
  6
CONTINUOUS
 90
31
 70
0
 10
7.5866381626
 20
2.2721722387
 10
7.5847701232
 20
2.2826449525
 10
7.5824330166
 20
2.2933345799
 10
7.5796332238
 20
2.3042119342
 10
7.5763783894
 20
2.3152473165
 10
7.5726774002
 20
2.3264105959
 10
7.568540361
 20
2.3376712929
 10
7.5639785676
 20
2.3489986616
 10
7.5590044751
 20
2.3603617741
 10
7.5536316647
 20
2.3717296049
 10
7.547874806
 20
2.3830711159
 10
7.5417496173
 20
2.3943553404
 10
7.5352728226
 20
2.4055514685
 10
7.5284621058
 20
2.4166289305
 10
7.5213360627
 20
2.4275574808
 10
7.51391415
 20
2.4383072806
 10
7.5062166322
 20
2.4488489789
 10
7.4982645262
 20
2.4591537929
 10
7.4900795443
 20
2.4691935866
 10
7.4816840345
 20
2.4789409477
 10
7.4731009196
 20
2.4883692623
 10
7.4643536346
 20
2.4974527875
 10
7.4554660629
 20
2.506166722
 10
7.4464624709
 20
2.5144872733
 10
7.4373674416
 20
2.5223917233
 10
7.4282058079
 20
2.52985849
 10
7.4190025843
 20
2.5368671861
 10
7.4097828993
 20
2.5433986754
 10
7.4005719259
 20
2.5494351244
 10
7.3913948135
 20
2.5549600514
 10
7.382276619
 20
2.5599583712
  0
LWPOLYLINE
  5
3B4
100
AcDbEntity
  8
217
100
AcDbPolyline
 62
250
  6
CONTINUOUS
 90
28
 70
0
 10
9.5772989078
 20
11.0059202665
 10
9.5769170508
 20
11.0160382743
 10
9.576062246
 20
11.0263633471
 10
9.5747373853
 20
11.0368605551
 10
9.5729469508
 20
11.0474943857
 10
9.5706969995
 20
11.0582288645
 10
9.5679951433
 20
11.0690276761
 10
9.5648505226
 20
11.0798542878
 10
9.5612737758
 20
11.0906720729
 10
9.5572770033
 20
11.1014444344
 10
9.5528737262
 20
11.1121349291
 10
9.5480788412
 20
11.1227073906
 10
9.5429085695
 20
11.133126052
 10
9.5373804023
 20
11.1433556666
 10
9.5315130417
 20
11.1533616275
 10
9.5253263373
 20
11.1631100841
 10
9.5188412189
 20
11.1725680572
 10
9.5120796259
 20
11.1817035502
 10
9.505064433
 20
11.1904856575
 10
9.4978193728
 20
11.1988846692
 10
9.4903689558
 20
11.2068721712
 10
9.4827383868
 20
11.2144211417
 10
9.4749534804
 20
11.2215060424
 10
9.467040573
 20
11.228102905
 10
9.4590264343
 20
11.2341894124
 10
9.4509381764
 20
11.2397449738
 10
9.4428031619
 20
11.2447507948
 10
9.434648912
 20
11.2491899408
  0
LWPOLYLINE
  5
3B5
100
AcDbEntity
  8
217
100
AcDbPolyline
 62
250
  6
CONTINUOUS
 90
31
 70
0
 10
9.7811156837
 20
7.3667375631
 10
9.7807135723
 20
7.3781086068
 10
9.7798367447
 20
7.3896948573
 10
9.7784876031
 20
7.4014645699
 10
9.7766698441
 20
7.413385497
 10
9.7743884481
 20
7.425424977
 10
9.7716496657
 20
7.4375500232
 10
9.768461001
 20
7.4497274147
 10
9.7648311904
 20
7.4619237869
 10
9.7607701791
 20
7.4741057234
 10
9.7562890938
 20
7.4862398474
 10
9.751400212
 20
7.4982929129
 10
9.7461169286
 20
7.5102318961
 10
9.7404537192
 20
7.5220240858
 10
9.7344261001
 20
7.5336371729
 10
9.7280505863
 20
7.5450393392
 10
9.7213446458
 20
7.5561993442
 10
9.714326652
 20
7.5670866109
 10
9.7070158333
 20
7.5776713097
 10
9.6994322203
 20
7.5879244399
 10
9.6915965912
 20
7.5978179093
 10
9.6835304146
 20
7.6073246111
 10
9.6752557907
 20
7.6164184982
 10
9.6667953908
 20
7.6250746544
 10
9.6581723954
 20
7.6332693632
 10
9.6494104304
 20
7.6409801721
 10
9.6405335023
 20
7.6481859545
 10
9.6315659327
 20
7.6548669674
 10
9.6225322917
 20
7.6610049059
 10
9.6134573302
 20
7.6665829527
 10
9.6043659123
 20
7.6715858248
  0
LWPOLYLINE
  5
3B6
100
AcDbEntity
  8
217
100
AcDbPolyline
 62
250
  6
CONTINUOUS
 90
19
 70
0
 10
9.4306743958
 20
-30.9506081379
 10
9.4309103311
 20
-30.9616723027
 10
9.4316180202
 20
-30.9724767996
 10
9.4327963402
 20
-30.9829922995
 10
9.4344432438
 20
-30.9931919855
 10
9.4365549069
 20
-31.0030460489
 10
9.4391248975
 20
-31.0125224276
 10
9.4421457085
 20
-31.0215940283
 10
9.4456096848
 20
-31.0302383626
 10
9.449507642
 20
-31.0384324545
 10
9.4538292413
 20
-31.046154433
 10
9.4585628615
 20
-31.0533834092
 10
9.463695691
 20
-31.0600997816
 10
9.4692138941
 20
-31.0662854749
 10
9.4751027309
 20
-31.0719239928
 10
9.4813464609
 20
-31.0770002616
 10
9.4879283725
 20
-31.0815006769
 10
9.4948308001
 20
-31.0854131437
 10
9.4956476715
 20
-31.0858265777
  0
LINE
  5
3B7
100
AcDbEntity
  8
217
100
AcDbLine
 62
250
  6
CONTINUOUS
 10
9.0744507094
 20
18.9497540917
 11
9.0744507094
 21
18.4434609072
  0
LINE
  5
3B8
100
AcDbEntity
  8
0
100
AcDbLine
 62
7
  6
CONTINUOUS
 10
9.1312764063
 20
13.0596346663
 11
9.1312764063
 21
13.3194422874
  0
LINE
  5
3B9
100
AcDbEntity
  8
217
100
AcDbLine
 62
7
  6
CONTINUOUS
 10
9.3612002602
 20
19.0381303756
 11
9.3612002602
 21
18.4729386609
  0
LINE
  5
3BA
100
AcDbEntity
  8
0
100
AcDbLine
 62
7
  6
CONTINUOUS
 10
9.4141191188
 20
13.2010560225
 11
9.4141191188
 21
13.4608636437
  0
LINE
  5
3BB
100
AcDbEntity
  8
217
100
AcDbLine
 62
250
  6
CONTINUOUS
 10
9.4306743958
 20
7.3682666905
 11
9.4306743958
 21
4.4976651323
  0
LINE
  5
3BC
100
AcDbEntity
  8
217
100
AcDbLine
 62
250
  6
CONTINUOUS
 10
9.4306743958
 20
-28.0800065797
 11
9.4306743958
 21
-30.9506081379
  0
LINE
  5
3BD
100
AcDbEntity
  8
217
100
AcDbLine
 62
250
  6
CONTINUOUS
 10
9.5773064138
 20
11.0059241137
 11
9.5772989078
 21
10.6218171263
  0
LINE
  5
3BE
100
AcDbEntity
  8
0
100
AcDbLine
 62
250
  6
CONTINUOUS
 10
9.6262511531
 20
13.826737282
 11
9.6262511531
 21
14.1731474435
  0
LINE
  5
3BF
100
AcDbEntity
  8
217
100
AcDbLine
 62
250
  6
CONTINUOUS
 10
9.7811156837
 20
7.3667375631
 11
9.7811156837
 21
4.4924228274
  0
LINE
  5
3C0
100
AcDbEntity
  8
217
100
AcDbLine
 62
250
  6
CONTINUOUS
 10
9.7811156837
 20
-28.0778225296
 11
9.7811156837
 21
-30.9521372653
  0
LINE
  5
3C1
100
AcDbEntity
  8
217
100
AcDbLine
 62
7
  6
CONTINUOUS
 10
9.9641170584
 20
4.5769389267
 11
9.9641170584
 21
3.924746176
  0
LINE
  5
3C2
100
AcDbEntity
  8
217
100
AcDbLine
 62
7
  6
CONTINUOUS
 10
9.9641170584
 20
-27.3334235048
 11
9.9641170584
 21
-27.9856162556
  0
LINE
  5
3C3
100
AcDbEntity
  8
0
100
AcDbLine
 62
250
  6
CONTINUOUS
 10
9.9898192857
 20
14.0085213483
 11
9.9898192857
 21
14.3549315098
  0
LINE
  5
3C4
100
AcDbEntity
  8
RACCORDO
100
AcDbLine
 62
7
  6
CONTINUOUS
 10
10.1919365781
 20
13.8204821998
 11
10.1919365781
 21
14.042518963
  0
LINE
  5
3C5
100
AcDbEntity
  8
RACCORDO
100
AcDbLine
 62
7
  6
CONTINUOUS
 10
10.9233520424
 20
25.1820975096
 11
10.9233520424
 21
24.7370122171
  0
LWPOLYLINE
  5
3C6
100
AcDbEntity
  8
217
100
AcDbPolyline
 62
250
  6
CONTINUOUS
 90
31
 70
0
 10
9.4306743958
 20
7.3682666905
 10
9.4309114088
 20
7.3795928235
 10
9.4316218144
 20
7.391125623
 10
9.4328037106
 20
7.4028341648
 10
9.4344539328
 20
7.4146870645
 10
9.4365680579
 20
7.4266525281
 10
9.4391404117
 20
7.4386984357
 10
9.4421640931
 20
7.4507924772
 10
9.4456309946
 20
7.4629022303
 10
9.4495318155
 20
7.4749952134
 10
9.4538560938
 20
7.487038999
 10
9.4585922321
 20
7.4990012918
 10
9.4637275245
 20
7.5108500064
 10
9.4692482027
 20
7.5225533809
 10
9.4751394566
 20
7.5340800242
 10
9.4813854662
 20
7.5453989939
 10
9.4879694518
 20
7.5564799003
 10
9.494873777
 20
7.5672930792
 10
9.5020799856
 20
7.5778096281
 10
9.5095688629
 20
7.5880014836
 10
9.5173202327
 20
7.5978411661
 10
9.5253130443
 20
7.6073019815
 10
9.5335256704
 20
7.616358411
 10
9.5419362397
 20
7.6249864147
 10
9.5505224489
 20
7.633163141
 10
9.5592631015
 20
7.640868212
 10
9.5681329962
 20
7.6480792234
 10
9.577103019
 20
7.6547730361
 10
9.5861471868
 20
7.6609314822
 10
9.5952429441
 20
7.6665404128
 10
9.6043659123
 20
7.6715858248
  0
LWPOLYLINE
  5
3C7
100
AcDbEntity
  8
217
100
AcDbPolyline
 62
250
  6
CONTINUOUS
 90
19
 70
0
 10
9.7811156837
 20
-30.9521372653
 10
9.7807149855
 20
-30.9633958666
 10
9.7798410194
 20
-30.9743847714
 10
9.7784953513
 20
-30.985073463
 10
9.7766804485
 20
-30.9954341258
 10
9.7744006864
 20
-31.0054356829
 10
9.7716632314
 20
-31.015044611
 10
9.7684762803
 20
-31.0242327473
 10
9.7648480577
 20
-31.0329769029
 10
9.7607883805
 20
-31.0412533529
 10
9.7563082405
 20
-31.0490395282
 10
9.7514199598
 20
-31.0563138687
 10
9.7461370788
 20
-31.0630561807
 10
9.7404741602
 20
-31.0692479084
 10
9.7344466601
 20
-31.074872181
 10
9.7280710476
 20
-31.0799136278
 10
9.7213647663
 20
-31.084358437
 10
9.714346216
 20
-31.0881943957
 10
9.7122711102
 20
-31.0891840245
  0
LWPOLYLINE
  5
3C8
100
AcDbEntity
  8
0
100
AcDbPolyline
 62
7
  6
CONTINUOUS
 90
16
 70
0
 10
9.4141191188
 20
13.4608636437
 10
9.415385651
 20
13.4891317724
 10
9.418846478
 20
13.5176238425
 10
9.4245015995
 20
13.5463398543
 10
9.4324602545
 20
13.5755970036
 10
9.4426132041
 20
13.6050780946
 10
9.4546327323
 20
13.6338315386
 10
9.4685797435
 20
13.6618335933
 10
9.4843933333
 20
13.6891080012
 10
9.5015630718
 20
13.714774401
 10
9.5201332087
 20
13.7387803249
 10
9.5400594943
 20
13.7611782407
 10
9.5606987495
 20
13.7812451901
 10
9.5818365811
 20
13.7987401871
 10
9.6036873824
 20
13.8139042177
 10
9.6262511531
 20
13.826737282
  0
LINE
  5
3C9
100
AcDbEntity
  8
RACCORDO
100
AcDbLine
 62
250
  6
CONTINUOUS
 10
13.3316401005
 20
15.685048245
 11
13.3149550671
 21
15.6138135447
  0
LWPOLYLINE
  5
3CA
100
AcDbEntity
  8
217
100
AcDbPolyline
 62
7
  6
CONTINUOUS
 90
5
 70
0
 10
13.5299881088
 20
9.2556280629
 10
13.5031948517
 20
9.2587714578
 10
13.4757523372
 20
9.2621936868
 10
13.4477240425
 20
9.2658964171
 10
13.4191366948
 20
9.2699393493
  0
LWPOLYLINE
  5
3CB
100
AcDbEntity
  8
217
100
AcDbPolyline
 62
7
  6
CONTINUOUS
 90
14
 70
0
 10
13.2126708202
 20
9.3008295332
 10
13.1836468001
 20
9.3048504004
 10
13.1551132428
 20
9.3085880882
 10
13.1270945046
 20
9.3120388379
 10
13.099731435
 20
9.3151746017
 10
13.0731102681
 20
9.3179387784
 10
13.0472304979
 20
9.3203149588
 10
13.0220974578
 20
9.3223330312
 10
12.9977479396
 20
9.3239532729
 10
12.9742025098
 20
9.3251492915
 10
12.9514352641
 20
9.3259750261
 10
12.9294492456
 20
9.3264299925
 10
12.9082772315
 20
9.3264573692
 10
12.8879330403
 20
9.3260296282
  0
LINE
  5
3CC
100
AcDbEntity
  8
217
100
AcDbLine
 62
7
  6
CONTINUOUS
 10
13.2716972225
 20
9.2922227175
 11
13.2126708202
 21
9.3008295332
  0
LINE
  5
3CD
100
AcDbEntity
  8
217
100
AcDbLine
 62
7
  6
CONTINUOUS
 10
13.4191366948
 20
9.2699393493
 11
13.2716972225
 21
9.2922227175
  0
LINE
  5
3CE
100
AcDbEntity
  8
217
100
AcDbLine
 62
250
  6
CONTINUOUS
 10
9.4306743958
 20
7.3682666905
 11
-5.5721920216
 21
14.8696998992
  0
LINE
  5
3CF
100
AcDbEntity
  8
217
100
AcDbLine
 62
250
  6
CONTINUOUS
 10
-10.247802019
 20
17.2075048979
 11
-25.2506684364
 21
24.7089381066
  0
LINE
  5
3D0
100
AcDbEntity
  8
217
100
AcDbLine
 62
250
  6
CONTINUOUS
 10
9.6043659123
 20
7.6715858248
 11
-25.0769769198
 21
25.0122572409
  0
LWPOLYLINE
  5
3D1
100
AcDbEntity
  8
217
100
AcDbPolyline
 62
7
  6
CONTINUOUS
 90
3
 70
0
 10
-5.5721920216
 20
14.8696998992
 10
-5.6920873832
 20
14.9519592966
 10
-5.8149537283
 20
15.0371907856
  0
LWPOLYLINE
  5
3D2
100
AcDbEntity
  8
217
100
AcDbPolyline
 62
7
  6
CONTINUOUS
 90
9
 70
0
 10
-6.4753890383
 20
15.5003377091
 10
-6.6171465896
 20
15.5991571259
 10
-6.7629584167
 20
15.7001528919
 10
-6.9128616285
 20
15.8030163453
 10
-7.0670062915
 20
15.9075015347
 10
-7.2261981162
 20
16.0139457729
 10
-7.390797456
 20
16.1221891005
 10
-7.5607584091
 20
16.2316408151
 10
-7.7363055037
 20
16.3419215328
  0
LINE
  5
3D3
100
AcDbEntity
  8
217
100
AcDbLine
 62
7
  6
CONTINUOUS
 10
-5.8149537283
 20
15.0371907856
 11
-6.0697243868
 21
15.2155997996
  0
LINE
  5
3D4
100
AcDbEntity
  8
217
100
AcDbLine
 62
7
  6
CONTINUOUS
 10
-6.0697243868
 20
15.2155997996
 11
-6.4753890383
 21
15.5003377091
  0
LWPOLYLINE
  5
3D5
100
AcDbEntity
  8
217
100
AcDbPolyline
 62
250
  6
CONTINUOUS
 90
64
 70
0
 10
11.8804468511
 20
10.9424870982
 10
11.8811982268
 20
10.9231517589
 10
11.8832849832
 20
10.9048625616
 10
11.8867065701
 20
10.8866363642
 10
11.8914582172
 20
10.8684980231
 10
11.8975333692
 20
10.8504719968
 10
11.9049237235
 20
10.8325835225
 10
11.913619182
 20
10.8148568408
 10
11.9236077519
 20
10.7973161042
 10
11.9348756108
 20
10.7799861103
 10
11.9474071815
 20
10.7628905697
 10
11.9611852551
 20
10.7460526235
 10
11.976190949
 20
10.7294957588
 10
11.9924036772
 20
10.7132425602
 10
12.009801098
 20
10.6973151979
 10
12.028359216
 20
10.6817359414
 10
12.0480524449
 20
10.6665261755
 10
12.0688537342
 20
10.6517065979
 10
12.0907345545
 20
10.6372977176
 10
12.1136648482
 20
10.6233193179
 10
12.1376130511
 20
10.6097905281
 10
12.1625462226
 20
10.5967300243
 10
12.1884300743
 20
10.5841558165
 10
12.2152290085
 20
10.5720851438
 10
12.2429061593
 20
10.5605345539
 10
12.2714234199
 20
10.5495200575
 10
12.3007416115
 20
10.5390567926
 10
12.330820537
 20
10.5291589291
 10
12.3616189172
 20
10.5198402334
 10
12.3930943284
 20
10.5111136236
 10
12.4252033756
 20
10.5029908347
 10
12.4579018
 20
10.495483289
 10
12.4911447291
 20
10.4886014178
 10
12.5248866337
 20
10.482354235
 10
12.5590812686
 20
10.4767506042
 10
12.5936814652
 20
10.4717984629
 10
12.6286393745
 20
10.4675041337
 10
12.6639067024
 20
10.4638738749
 10
12.6994351538
 20
10.460912896
 10
12.7351762384
 20
10.45862461
 10
12.7710809869
 20
10.4570125579
 10
12.8070998411
 20
10.4560792896
 10
12.8431830942
 20
10.4558253732
 10
12.8792810314
 20
10.4562515905
 10
12.9153440902
 20
10.4573577142
 10
12.951322758
 20
10.459141415
 10
12.9871677437
 20
10.4616007318
 10
13.0228295427
 20
10.4647326854
 10
13.0582586056
 20
10.468532023
 10
13.0934058511
 20
10.4729939514
 10
13.1282233065
 20
10.4781127938
 10
13.1626636588
 20
10.4838806281
 10
13.1966797284
 20
10.4902900993
 10
13.2302245107
 20
10.4973328523
 10
13.2632518112
 20
10.5049981858
 10
13.2957164812
 20
10.5132761908
 10
13.3275735486
 20
10.5221559314
 10
13.358778298
 20
10.5316238607
 10
13.3892870336
 20
10.5416671915
 10
13.4190586933
 20
10.5522728546
 10
13.4480538858
 20
10.5634257396
 10
13.4762331429
 20
10.5751107725
 10
13.5035571074
 20
10.5873128389
 10
13.5299881088
 20
10.6000157576
  0
LWPOLYLINE
  5
3D6
100
AcDbEntity
  8
217
100
AcDbPolyline
 62
7
  6
CONTINUOUS
 90
63
 70
0
 10
11.8804468659
 20
-30.2074341371
 10
11.8805312858
 20
-30.2159861135
 10
11.8815294599
 20
-30.2377932497
 10
11.8836745807
 20
-30.2597460561
 10
11.8869892103
 20
-30.2817797303
 10
11.8914824213
 20
-30.3037980365
 10
11.8971632676
 20
-30.3257527122
 10
11.9040373107
 20
-30.3475981743
 10
11.9120916163
 20
-30.3692500448
 10
11.9213171798
 20
-30.3906591035
 10
11.9317111954
 20
-30.4117979835
 10
11.9432621773
 20
-30.4326272769
 10
11.955945429
 20
-30.4530933221
 10
11.9697670709
 20
-30.4731963971
 10
11.9847765652
 20
-30.4929848267
 10
12.000973373
 20
-30.5124276791
 10
12.0183703544
 20
-30.5315103586
 10
12.037070344
 20
-30.550302078
 10
12.0571260528
 20
-30.5687998688
 10
12.0785413306
 20
-30.5869524583
 10
12.101371899
 20
-30.6047521803
 10
12.1257958875
 20
-30.6222691777
 10
12.1517173546
 20
-30.6393664285
 10
12.1787364717
 20
-30.6557571273
 10
12.2067935332
 20
-30.6714175912
 10
12.2359188912
 20
-30.6863730577
 10
12.2657580747
 20
-30.7004640162
 10
12.296147914
 20
-30.7136600441
 10
12.3271572788
 20
-30.7260315624
 10
12.3587325331
 20
-30.737588652
 10
12.3908223204
 20
-30.7483417433
 10
12.4233907194
 20
-30.7583040467
 10
12.4563917354
 20
-30.7674851469
 10
12.4897743159
 20
-30.77589186
 10
12.5235022737
 20
-30.7835339014
 10
12.5575425041
 20
-30.7904209932
 10
12.5918423508
 20
-30.7965570049
 10
12.6263682247
 20
-30.8019496682
 10
12.6611115643
 20
-30.8066087256
 10
12.6960298145
 20
-30.8105364799
 10
12.7310816052
 20
-30.8137362681
 10
12.7662587867
 20
-30.816212689
 10
12.8015205845
 20
-30.8179660299
 10
12.8368248789
 20
-30.8189973222
 10
12.8721609471
 20
-30.8193066856
 10
12.9074903491
 20
-30.8188928245
 10
12.9427687118
 20
-30.8177547302
 10
12.977976805
 20
-30.815889178
 10
13.0130738456
 20
-30.8132938238
 10
13.0480174319
 20
-30.8099659425
 10
13.0827881169
 20
-30.8058994464
 10
13.1173447919
 20
-30.8010903398
 10
13.1516445677
 20
-30.7955336836
 10
13.1856700927
 20
-30.7892195781
 10
13.2193809005
 20
-30.7821408366
 10
13.252732178
 20
-30.7742895463
 10
13.2857071412
 20
-30.7656506749
 10
13.3182614683
 20
-30.7562133108
 10
13.3503511619
 20
-30.7459646425
 10
13.3819695031
 20
-30.7348777372
 10
13.413086333
 20
-30.7229272148
 10
13.4436381858
 20
-30.710098553
 10
13.4611618835
 20
-30.7022094777
  0
LINE
  5
3D7
100
AcDbEntity
  8
217
100
AcDbLine
 62
7
  6
CONTINUOUS
 10
11.8804468378
 20
-30.2075366424
 11
11.8804468378
 21
-30.0878486226
  0
LINE
  5
3D8
100
AcDbEntity
  8
217
100
AcDbLine
 62
7
  6
CONTINUOUS
 10
11.8804468378
 20
9.8120569393
 11
11.8804468378
 21
10.9425696871
  0
LINE
  5
3D9
100
AcDbEntity
  8
217
100
AcDbLine
 62
7
  6
CONTINUOUS
 10
13.3544242827
 20
15.998697195
 11
13.3544242827
 21
15.6115971318
  0
LINE
  5
3DA
100
AcDbEntity
  8
217
100
AcDbLine
 62
250
  6
CONTINUOUS
 10
13.5299881088
 20
-30.5651714407
 11
13.5299881088
 21
-29.2207837461
  0
LINE
  5
3DB
100
AcDbEntity
  8
217
100
AcDbLine
 62
250
  6
CONTINUOUS
 10
13.5299881088
 20
9.2556280629
 11
13.5299881088
 21
10.6000157576
  0
LWPOLYLINE
  5
3DC
100
AcDbEntity
  8
217
100
AcDbPolyline
 62
250
  6
CONTINUOUS
 90
21
 70
0
 10
7.5866381626
 20
-27.9767542496
 10
7.584770122
 20
-27.988556458
 10
7.5824330138
 20
-28.0000809345
 10
7.5796332192
 20
-28.0112962128
 10
7.5763783826
 20
-28.0221716712
 10
7.572677391
 20
-28.0326776157
 10
7.5685403493
 20
-28.0427853612
 10
7.5639785533
 20
-28.0524673098
 10
7.5590044582
 20
-28.0616970264
 10
7.5536316453
 20
-28.0704493103
 10
7.5478747843
 20
-28.0787002647
 10
7.5417495934
 20
-28.0864273613
 10
7.5352727968
 20
-28.0936095025
 10
7.5284620784
 20
-28.1002270783
 10
7.5213360341
 20
-28.1062620202
 10
7.5139141205
 20
-28.1116978508
 10
7.5062166021
 20
-28.1165197281
 10
7.4982644961
 20
-28.1207144868
 10
7.4900795145
 20
-28.1242706735
 10
7.4816840055
 20
-28.1271785786
 10
7.4782735543
 20
-28.1281579548
  0
LWPOLYLINE
  5
3DD
100
AcDbEntity
  8
217
100
AcDbPolyline
 62
7
  6
CONTINUOUS
 90
23
 70
0
 10
17.5426909343
 20
15.3674049135
 10
17.572736739
 20
15.3716096152
 10
17.6029001092
 20
15.3750169806
 10
17.6331534635
 20
15.3775897973
 10
17.6637891328
 20
15.3792826456
 10
17.6944527133
 20
15.3800492164
 10
17.724155907
 20
15.3799349622
 10
17.7526735238
 20
15.3790108823
 10
17.7802002743
 20
15.3773157238
 10
17.8063994727
 20
15.3749579299
 10
17.8311572112
 20
15.3720355923
 10
17.8545876058
 20
15.3686068682
 10
17.8767062884
 20
15.3647438346
 10
17.8974794666
 20
15.3605267399
 10
17.9169562877
 20
15.3560150759
 10
17.9352760059
 20
15.3512346531
 10
17.9524693224
 20
15.3462323089
 10
17.9685230677
 20
15.3410655565
 10
17.983507642
 20
15.3357597271
 10
17.9974245033
 20
15.3303643096
 10
18.0102947785
 20
15.3249205791
 10
18.0222156255
 20
15.319430031
 10
18.0277281451
 20
15.3167260508
  0
LINE
  5
3DE
100
AcDbEntity
  8
0
100
AcDbLine
 62
7
  6
CONTINUOUS
 10
10.0553716894
 20
14.0285816601
 11
13.5461123923
 21
14.3848336302
  0
LINE
  5
3DF
100
AcDbEntity
  8
0
100
AcDbLine
 62
7
  6
CONTINUOUS
 10
10.1427748943
 20
14.4017389039
 11
14.3965107205
 21
14.8358593092
  0
LINE
  5
3E0
100
AcDbEntity
  8
RACCORDO
100
AcDbLine
 62
7
  6
CONTINUOUS
 10
11.3574431496
 20
15.1642805185
 11
9.4071974649
 21
14.9652457214
  0
LINE
  5
3E1
100
AcDbEntity
  8
RACCORDO
100
AcDbLine
 62
7
  6
CONTINUOUS
 10
13.3544242827
 20
15.6873735136
 11
13.3316401005
 21
15.685048245
  0
LWPOLYLINE
  5
3E2
100
AcDbEntity
  8
RACCORDO
100
AcDbPolyline
 62
7
  6
CONTINUOUS
 90
25
 70
0
 10
9.4071974649
 20
14.9652457214
 10
9.3980253602
 20
14.9644984153
 10
9.3883730396
 20
14.9640586723
 10
9.378240503
 20
14.9639264926
 10
9.3675803841
 20
14.9641039383
 10
9.3564400493
 20
14.9645889471
 10
9.3449615974
 20
14.9653753327
 10
9.3331406972
 20
14.9664669557
 10
9.3209816799
 20
14.9678599554
 10
9.3086396379
 20
14.9695365637
 10
9.2961122269
 20
14.9715004135
 10
9.2834017913
 20
14.9737478718
 10
9.2706704571
 20
14.9762502716
 10
9.2579179566
 20
14.9790108786
 10
9.2451445576
 20
14.9820264271
 10
9.2325131891
 20
14.9852584526
 10
9.2200256707
 20
14.9887097283
 10
9.2076801828
 20
14.992377481
 10
9.1956341965
 20
14.9962149273
 10
9.1838915484
 20
15.000224241
 10
9.1724484019
 20
15.0044032482
 10
9.1614507183
 20
15.0086986444
 10
9.1509471514
 20
15.0130926613
 10
9.1408890474
 20
15.0176030671
 10
9.1312764063
 20
15.0222298618
  0
LWPOLYLINE
  5
3E3
100
AcDbEntity
  8
217
100
AcDbPolyline
 62
7
  6
CONTINUOUS
 90
28
 70
0
 10
-10.247802019
 20
17.2075048979
 10
-10.493121009
 20
17.2828442638
 10
-10.737656325
 20
17.3531212095
 10
-10.981407967
 20
17.4183357349
 10
-11.224420239
 20
17.478497634
 10
-11.466648837
 20
17.5335971128
 10
-11.7079608487
 20
17.5836047894
 10
-11.9483796211
 20
17.6285224282
 10
-12.1878818071
 20
17.6683482648
 10
-12.4262644535
 20
17.7030476235
 10
-12.6635166799
 20
17.7326144376
 10
-12.8996493666
 20
17.7570547738
 10
-13.1344922015
 20
17.7763521565
 10
-13.3680393101
 20
17.7905034247
 10
-13.600296567
 20
17.7995117394
 10
-13.8311112834
 20
17.8033701077
 10
-14.0604996017
 20
17.8020741781
 10
-14.2884453795
 20
17.7956283022
 10
-14.5147475007
 20
17.7840385411
 10
-14.7393814603
 20
17.7673027855
 10
-14.9623717634
 20
17.7454231447
 10
-15.183590808
 20
17.7184120079
 10
-15.4030585083
 20
17.6862632286
 10
-15.6207549503
 20
17.6489829533
 10
-15.83649279
 20
17.6066020105
 10
-16.0502095794
 20
17.5591306765
 10
-16.2619677666
 20
17.5065586749
 10
-16.4717673514
 20
17.4488860059
  0
LINE
  5
3E4
100
AcDbEntity
  8
217
100
AcDbLine
 62
7
  6
CONTINUOUS
 10
-10.1264479973
 20
17.1690913445
 11
-10.247802019
 21
17.2075048979
  0
LWPOLYLINE
  5
3E5
100
AcDbEntity
  8
217
100
AcDbPolyline
 62
7
  6
CONTINUOUS
 90
13
 70
0
 10
-7.7363055037
 20
16.3419215328
 10
-7.9531002999
 20
16.427804289
 10
-8.1626838452
 20
16.5081160232
 10
-8.3648313996
 20
16.5832364148
 10
-8.5590153205
 20
16.653468679
 10
-8.7454484246
 20
16.7192607285
 10
-8.9250452625
 20
16.7811392849
 10
-9.0977288815
 20
16.8393923878
 10
-9.2633903984
 20
16.8942881155
 10
-9.4228601311
 20
16.9462289955
 10
-9.5763358377
 20
16.9955474662
 10
-9.723473117
 20
17.0423741612
 10
-10.1264479973
 20
17.1690913445
  0
LWPOLYLINE
  5
3E6
100
AcDbEntity
  8
217
100
AcDbPolyline
 62
250
  6
CONTINUOUS
 90
28
 70
0
 10
-0.6353159615
 20
16.2547594787
 10
-0.6271617042
 20
16.2503203286
 10
-0.6190266832
 20
16.2453145028
 10
-0.6109384194
 20
16.2397589362
 10
-0.6029242758
 20
16.2336724235
 10
-0.5950113643
 20
16.2270755554
 10
-0.5872264546
 20
16.2199906494
 10
-0.5795958832
 20
16.2124416738
 10
-0.5721454646
 20
16.2044541672
 10
-0.5649004037
 20
16.1960551514
 10
-0.5578852108
 20
16.1872730405
 10
-0.5511236185
 20
16.1781375447
 10
-0.5446385014
 20
16.1686795696
 10
-0.5384517988
 20
16.1589311118
 10
-0.5325844405
 20
16.1489251506
 10
-0.5270562761
 20
16.1386955364
 10
-0.5218860073
 20
16.1282768763
 10
-0.5170911254
 20
16.1177044169
 10
-0.5126878516
 20
16.1070139251
 10
-0.5086910822
 20
16.0962415672
 10
-0.5051143385
 20
16.0854237864
 10
-0.5019697207
 20
16.0745971794
 10
-0.4992678671
 20
16.0637983731
 10
-0.4970179181
 20
16.0530639
 10
-0.4952274855
 20
16.0424300752
 10
-0.4939026262
 20
16.0319328732
 10
-0.4930478223
 20
16.0216078063
 10
-0.4926659657
 20
16.0114898045
  0
LWPOLYLINE
  5
3E7
100
AcDbEntity
  8
217
100
AcDbPolyline
 62
250
  6
CONTINUOUS
 90
28
 70
0
 10
-8.3332782651
 20
20.1000987486
 10
-8.3251974531
 20
20.0956231347
 10
-8.3171356253
 20
20.0905810783
 10
-8.3091200497
 20
20.0849896335
 10
-8.301177838
 20
20.0788677128
 10
-8.2933358537
 20
20.0722360226
 10
-8.2856206213
 20
20.0651169939
 10
-8.2780582366
 20
20.0575347058
 10
-8.2706742784
 20
20.0495148045
 10
-8.263493722
 20
20.0410844162
 10
-8.2565408546
 20
20.0322720557
 10
-8.2498391935
 20
20.0231075297
 10
-8.2434114062
 20
20.0136218359
 10
-8.2372792339
 20
20.0038470585
 10
-8.2314634177
 20
19.9938162595
 10
-8.2259836291
 20
19.9835633667
 10
-8.2208584026
 20
19.9731230592
 10
-8.2161050737
 20
19.96253065
 10
-8.2117397199
 20
19.9518219667
 10
-8.2077771065
 20
19.9410332299
 10
-8.2042306365
 20
19.9302009311
 10
-8.2011123054
 20
19.9193617093
 10
-8.1984326604
 20
19.9085522267
 10
-8.1962007653
 20
19.8978090449
 10
-8.194424169
 20
19.8871685015
 10
-8.1931088808
 20
19.8766665867
 10
-8.1922593493
 20
19.8663388218
 10
-8.191878448
 20
19.8562201393
  0
LINE
  5
3E8
100
AcDbEntity
  8
0
100
AcDbLine
 62
250
  6
CONTINUOUS
 10
5.9859892016
 20
23.8961240978
 11
6.304563818
 21
23.0779958832
  0
LWPOLYLINE
  5
3E9
100
AcDbEntity
  8
217
100
AcDbPolyline
 62
7
  6
CONTINUOUS
 90
34
 70
0
 10
16.2023442182
 20
14.4015321455
 10
16.2021845178
 20
14.4098532492
 10
16.201704434
 20
14.4183154123
 10
16.2009053004
 20
14.4268996101
 10
16.1997893982
 20
14.4355866572
 10
16.1983592524
 20
14.4443568886
 10
16.1966176258
 20
14.4531902033
 10
16.1945686468
 20
14.4620667014
 10
16.1922171895
 20
14.4709664049
 10
16.1895681645
 20
14.47986894
 10
16.1866277225
 20
14.4887542286
 10
16.1834027304
 20
14.4976022556
 10
16.1799001488
 20
14.5063927905
 10
16.1761280257
 20
14.5151059863
 10
16.172095082
 20
14.5237221992
 10
16.1678101872
 20
14.5322217558
 10
16.1632831235
 20
14.5405854451
 10
16.1585242884
 20
14.5487943959
 10
16.1535442794
 20
14.5568298957
 10
16.1483544139
 20
14.564673762
 10
16.1429665535
 20
14.5723082815
 10
16.1373928069
 20
14.579716087
 10
16.1316457956
 20
14.5868803958
 10
16.1257386035
 20
14.5937850143
 10
16.1196846017
 20
14.6004142766
 10
16.1134974582
 20
14.6067531428
 10
16.1071912117
 20
14.6127872691
 10
16.1007802209
 20
14.6185030118
 10
16.0942789211
 20
14.6238873802
 10
16.0877020192
 20
14.6289281725
 10
16.0810645667
 20
14.6336140448
 10
16.0743815865
 20
14.6379343785
 10
16.0676680389
 20
14.6418793031
 10
16.060939016
 20
14.6454398283
  0
LINE
  5
3EA
100
AcDbEntity
  8
217
100
AcDbLine
 62
7
  6
CONTINUOUS
 10
15.0002626902
 20
11.3408218918
 11
15.0002626902
 21
-29.8861499158
  0
LINE
  5
3EB
100
AcDbEntity
  8
RACCORDO
100
AcDbLine
 62
7
  6
CONTINUOUS
 10
16.0514127839
 20
22.6180671388
 11
16.0514127839
 21
21.9031613214
  0
LINE
  5
3EC
100
AcDbEntity
  8
217
100
AcDbLine
 62
7
  6
CONTINUOUS
 10
16.2023442182
 20
14.4015321455
 11
16.2023442182
 21
14.0174290053
  0
LINE
  5
3ED
100
AcDbEntity
  8
RACCORDO
100
AcDbLine
 62
7
  6
CONTINUOUS
 10
7.5442340178
 20
15.8157510561
 11
8.9365875668
 21
15.9578494636
  0
LINE
  5
3EE
100
AcDbEntity
  8
RACCORDO
100
AcDbLine
 62
7
  6
CONTINUOUS
 10
7.073745087
 20
16.1319719104
 11
9.0239907717
 21
16.3310067075
  0
LINE
  5
3EF
100
AcDbEntity
  8
RACCORDO
100
AcDbLine
 62
7
  6
CONTINUOUS
 10
7.3269344969
 20
17.1795348449
 11
5.3766888122
 21
16.9805000478
  0
LWPOLYLINE
  5
3F0
100
AcDbEntity
  8
RACCORDO
100
AcDbPolyline
 62
7
  6
CONTINUOUS
 90
25
 70
0
 10
9.0239907717
 20
16.3310067075
 10
9.0331628764
 20
16.3317540136
 10
9.0428151971
 20
16.3321937566
 10
9.0529477337
 20
16.3323259363
 10
9.0636078525
 20
16.3321484907
 10
9.0747481873
 20
16.3316634818
 10
9.0862266392
 20
16.3308770962
 10
9.0980475395
 20
16.3297854732
 10
9.1102065568
 20
16.3283924735
 10
9.1225485987
 20
16.3267158653
 10
9.1350760097
 20
16.3247520154
 10
9.1477864454
 20
16.3225045571
 10
9.1605177796
 20
16.3200021573
 10
9.1732702801
 20
16.3172415503
 10
9.1860436791
 20
16.3142260018
 10
9.1986750475
 20
16.3109939763
 10
9.211162566
 20
16.3075427007
 10
9.2235080538
 20
16.303874948
 10
9.2355540401
 20
16.3000375016
 10
9.2472966882
 20
16.296028188
 10
9.2587398347
 20
16.2918491807
 10
9.2697375184
 20
16.2875537845
 10
9.2802410853
 20
16.2831597676
 10
9.2902991893
 20
16.2786493618
 10
9.2999118303
 20
16.2740225671
  0
LWPOLYLINE
  5
3F1
100
AcDbEntity
  8
RACCORDO
100
AcDbPolyline
 62
7
  6
CONTINUOUS
 90
25
 70
0
 10
5.3766888122
 20
16.9805000478
 10
5.3675167075
 20
16.9797527417
 10
5.3578643868
 20
16.9793129987
 10
5.3477318502
 20
16.979180819
 10
5.3370717314
 20
16.9793582646
 10
5.3259313966
 20
16.9798432735
 10
5.3144529447
 20
16.9806296591
 10
5.3026320444
 20
16.9817212821
 10
5.2904730271
 20
16.9831142818
 10
5.2781309852
 20
16.98479089
 10
5.2656035741
 20
16.9867547399
 10
5.2528931385
 20
16.9890021982
 10
5.2401618043
 20
16.991504598
 10
5.2274093038
 20
16.994265205
 10
5.2146359048
 20
16.9972807535
 10
5.2020045364
 20
17.000512779
 10
5.1895170179
 20
17.0039640546
 10
5.17717153
 20
17.0076318073
 10
5.1651255438
 20
17.0114692537
 10
5.1533828957
 20
17.0154785673
 10
5.1419397491
 20
17.0196575746
 10
5.1309420655
 20
17.0239529708
 10
5.1204384986
 20
17.0283469877
 10
5.1103803946
 20
17.0328573935
 10
5.1007677535
 20
17.0374841882
  0
LINE
  5
3F2
100
AcDbEntity
  8
217
100
AcDbLine
 62
7
  6
CONTINUOUS
 10
14.7158761813
 20
16.1290413557
 11
13.5042658142
 21
16.069146027
  0
LWPOLYLINE
  5
3F3
100
AcDbEntity
  8
217
100
AcDbPolyline
 62
250
  6
CONTINUOUS
 90
13
 70
0
 10
-1.4560644331
 20
16.6614918326
 10
-1.464423761
 20
16.6652362897
 10
-1.4727464676
 20
16.6683865031
 10
-1.4810044025
 20
16.6709318174
 10
-1.4891696343
 20
16.6728636233
 10
-1.4972145451
 20
16.6741753863
 10
-1.5051119241
 20
16.6748626695
 10
-1.5128350594
 20
16.6749231478
 10
-1.5203578283
 20
16.6743566166
 10
-1.527654786
 20
16.6731649917
 10
-1.5347012515
 20
16.6713523034
 10
-1.5414733908
 20
16.6689246828
 10
-1.5485610542
 20
16.6655633775
  0
LWPOLYLINE
  5
3F4
100
AcDbEntity
  8
217
100
AcDbPolyline
 62
250
  6
CONTINUOUS
 90
15
 70
0
 10
-21.4567329007
 20
28.3098496383
 10
-21.4661386309
 20
28.3140953407
 10
-21.4755101382
 20
28.3177405292
 10
-21.4848217458
 20
28.3207752166
 10
-21.4940479412
 20
28.323191088
 10
-21.5031634459
 20
28.3249815243
 10
-21.5121432845
 20
28.3261416198
 10
-21.5209628535
 20
28.3266681959
 10
-21.5295979885
 20
28.3265598097
 10
-21.5380250302
 20
28.3258167582
 10
-21.5462208896
 20
28.3244410771
 10
-21.5541631113
 20
28.3224365356
 10
-21.5618299344
 20
28.3198086257
 10
-21.5692003528
 20
28.3165645474
 10
-21.572353677
 20
28.3149390695
  0
LWPOLYLINE
  5
3F5
100
AcDbEntity
  8
217
100
AcDbPolyline
 62
250
  6
CONTINUOUS
 90
13
 70
0
 10
-9.146895426
 20
20.510549211
 10
-9.1551847789
 20
20.5143318669
 10
-9.16343774
 20
20.5175200347
 10
-9.1716263896
 20
20.5201029285
 10
-9.1797230251
 20
20.5220718102
 10
-9.1877002555
 20
20.5234200186
 10
-9.1955310935
 20
20.5241429926
 10
-9.2031890472
 20
20.524238286
 10
-9.2106482094
 20
20.5237055762
 10
-9.2178833456
 20
20.5225466652
 10
-9.2248699789
 20
20.5207654733
 10
-9.2315844734
 20
20.5183680262
 10
-9.2381370311
 20
20.5152921113
  0
LWPOLYLINE
  5
3F6
100
AcDbEntity
  8
217
100
AcDbPolyline
 62
250
  6
CONTINUOUS
 90
15
 70
0
 10
12.3347896534
 20
11.4186471021
 10
12.3254626534
 20
11.4229357893
 10
12.3161696672
 20
11.4266237284
 10
12.3069361613
 20
11.429700813
 10
12.2977874393
 20
11.4321586105
 10
12.2887485722
 20
11.4339903856
 10
12.2798443301
 20
11.4351911183
 10
12.2710991143
 20
11.4357575182
 10
12.2625368901
 20
11.4356880329
 10
12.2541811215
 20
11.4349828527
 10
12.2460547066
 20
11.4336439101
 10
12.2381799152
 20
11.4316748743
 10
12.2305783272
 20
11.429081141
 10
12.2232707741
 20
11.4258698181
 10
12.2207376473
 20
11.4245757276
  0
LINE
  5
3F7
100
AcDbEntity
  8
217
100
AcDbLine
 62
7
  6
CONTINUOUS
 10
-15.7588822915
 20
24.0035887801
 11
-10.2434493982
 21
21.2458723335
  0
LINE
  5
3F8
100
AcDbEntity
  8
217
100
AcDbLine
 62
7
  6
CONTINUOUS
 10
1.9187872382
 20
15.1647540153
 11
7.4342201315
 21
12.4070375687
  0
LINE
  5
3F9
100
AcDbEntity
  8
RACCORDO
100
AcDbLine
 62
7
  6
CONTINUOUS
 10
9.1312764063
 20
13.0596346663
 11
7.669874946
 21
13.7903353965
  0
LINE
  5
3FA
100
AcDbEntity
  8
RACCORDO
100
AcDbLine
 62
7
  6
CONTINUOUS
 10
2.1073964923
 20
16.5715746233
 11
0.6459950321
 21
17.3022753534
  0
LINE
  5
3FB
100
AcDbEntity
  8
RACCORDO
100
AcDbLine
 62
7
  6
CONTINUOUS
 10
-8.5463931234
 20
21.8984694311
 11
-10.0077945836
 21
22.6291701613
  0
LINE
  5
3FC
100
AcDbEntity
  8
RACCORDO
100
AcDbLine
 62
7
  6
CONTINUOUS
 10
-15.5702730373
 20
25.4104093881
 11
-17.0316744976
 21
26.1411101183
  0
LINE
  5
3FD
100
AcDbEntity
  8
0
100
AcDbLine
 62
250
  6
CONTINUOUS
 10
9.1312764063
 20
13.3194422874
 11
0.6459950321
 21
17.5620829746
  0
LINE
  5
3FE
100
AcDbEntity
  8
0
100
AcDbLine
 62
250
  6
CONTINUOUS
 10
-8.5463931234
 20
22.1582770523
 11
-17.0316744976
 21
26.4009177394
  0
LINE
  5
3FF
100
AcDbEntity
  8
0
100
AcDbLine
 62
250
  6
CONTINUOUS
 10
9.6262511531
 20
14.1731474435
 11
1.1409697789
 21
18.4157881306
  0
LINE
  5
400
100
AcDbEntity
  8
0
100
AcDbLine
 62
250
  6
CONTINUOUS
 10
-8.0514183765
 20
23.0119822083
 11
-16.5366997508
 21
27.2546228955
  0
LINE
  5
401
100
AcDbEntity
  8
217
100
AcDbLine
 62
7
  6
CONTINUOUS
 10
14.8235129188
 20
11.6456701535
 11
13.7628056305
 21
12.1760237976
  0
LINE
  5
402
100
AcDbEntity
  8
217
100
AcDbLine
 62
7
  6
CONTINUOUS
 10
-18.9761979533
 20
28.5455255895
 11
-20.0369052416
 21
29.0758792337
  0
LWPOLYLINE
  5
403
100
AcDbEntity
  8
RACCORDO
100
AcDbPolyline
 62
7
  6
CONTINUOUS
 90
15
 70
0
 10
-14.6275114416
 20
26.9016237858
 10
-14.6365277071
 20
26.9063114443
 10
-14.644862895
 20
26.9109976845
 10
-14.6525170054
 20
26.9156825063
 10
-14.6595169045
 20
26.9203859015
 10
-14.6658357261
 20
26.9250878782
 10
-14.6713928714
 20
26.9297284612
 10
-14.6761785834
 20
26.9343068641
 10
-14.680202619
 20
26.9388238731
 10
-14.6834136504
 20
26.9432218724
 10
-14.6858012631
 20
26.9474993374
 10
-14.6873758714
 20
26.9516577927
 10
-14.6881173908
 20
26.9556441956
 10
-14.6880151495
 20
26.9594563422
 10
-14.6877349851
 20
26.9609584509
  0
LWPOLYLINE
  5
404
100
AcDbEntity
  8
RACCORDO
100
AcDbPolyline
 62
7
  6
CONTINUOUS
 90
25
 70
0
 10
-15.5702730373
 20
25.4104093881
 10
-15.5614819235
 20
25.4056725612
 10
-15.5527901566
 20
25.4003368102
 10
-15.5441977366
 20
25.3944021352
 10
-15.5356726835
 20
25.3878413613
 10
-15.5272469773
 20
25.3806816633
 10
-15.5190165584
 20
25.3730045662
 10
-15.5109836589
 20
25.3648041559
 10
-15.5031460467
 20
25.3560863463
 10
-15.4955929657
 20
25.346950404
 10
-15.4883276681
 20
25.3373915495
 10
-15.4813469017
 20
25.3274145622
 10
-15.4747301539
 20
25.3171330463
 10
-15.4684815854
 20
25.306543521
 10
-15.4625970354
 20
25.295649467
 10
-15.4571435092
 20
25.2845749309
 10
-15.4521259332
 20
25.2733178496
 10
-15.447539381
 20
25.2618802863
 10
-15.4434360778
 20
25.2503924759
 10
-15.4398215473
 20
25.2388538443
 10
-15.4366902657
 20
25.2272649658
 10
-15.434077888
 20
25.2157577985
 10
-15.4319962989
 20
25.2043763285
 10
-15.4304336136
 20
25.1930765697
 10
-15.429389832
 20
25.1818585222
  0
LWPOLYLINE
  5
405
100
AcDbEntity
  8
RACCORDO
100
AcDbPolyline
 62
7
  6
CONTINUOUS
 90
25
 70
0
 10
2.1073964923
 20
16.5715746233
 10
2.1161876062
 20
16.5668377963
 10
2.1248793731
 20
16.5615020454
 10
2.1334717931
 20
16.5555673704
 10
2.1419968462
 20
16.5490065965
 10
2.1504225524
 20
16.5418468985
 10
2.1586529713
 20
16.5341698013
 10
2.1666858708
 20
16.525969391
 10
2.174523483
 20
16.5172515815
 10
2.182076564
 20
16.5081156392
 10
2.1893418616
 20
16.4985567847
 10
2.1963226279
 20
16.4885797974
 10
2.2029393758
 20
16.4782982815
 10
2.2091879443
 20
16.4677087562
 10
2.2150724943
 20
16.4568147022
 10
2.2205260205
 20
16.445740166
 10
2.2255435964
 20
16.4344830848
 10
2.2301301487
 20
16.4230455214
 10
2.2342334518
 20
16.4115577111
 10
2.2378479824
 20
16.4000190795
 10
2.2409792639
 20
16.388430201
 10
2.2435916417
 20
16.3769230337
 10
2.2456732308
 20
16.3655415637
 10
2.2472359161
 20
16.3542418049
 10
2.2482796976
 20
16.3430237574
  0
LWPOLYLINE
  5
406
100
AcDbEntity
  8
217
100
AcDbPolyline
 62
250
  6
CONTINUOUS
 90
31
 70
0
 10
-20.4293575688
 20
27.8007207133
 10
-20.420183516
 20
27.7957588736
 10
-20.4110261492
 20
27.7902216352
 10
-20.4019105631
 20
27.7841241724
 10
-20.3928617382
 20
27.7774831945
 10
-20.3839044717
 20
27.7703169006
 10
-20.3750633103
 20
27.7626449291
 10
-20.3663624822
 20
27.7544883044
 10
-20.3578258312
 20
27.7458693787
 10
-20.349476751
 20
27.7368117715
 10
-20.3413381216
 20
27.7273403041
 10
-20.3334322459
 20
27.7174809322
 10
-20.3257807893
 20
27.7072606743
 10
-20.3184047198
 20
27.6967075382
 10
-20.3113242508
 20
27.6858504435
 10
-20.3045587855
 20
27.674719143
 10
-20.2981268641
 20
27.663344141
 10
-20.2920461126
 20
27.6517566095
 10
-20.2863331947
 20
27.639988303
 10
-20.281003766
 20
27.6280714713
 10
-20.2760724314
 20
27.6160387713
 10
-20.2715527045
 20
27.6039231773
 10
-20.2674569714
 20
27.591757891
 10
-20.2637964559
 20
27.5795762502
 10
-20.2605811893
 20
27.5674116372
 10
-20.2578199827
 20
27.5552973881
 10
-20.255520403
 20
27.5432667008
 10
-20.2536887518
 20
27.531352544
 10
-20.2523300488
 20
27.5195875674
 10
-20.2514480171
 20
27.5080040117
 10
-20.251045074
 20
27.4966336205
  0
LWPOLYLINE
  5
407
100
AcDbEntity
  8
217
100
AcDbPolyline
 62
250
  6
CONTINUOUS
 90
31
 70
0
 10
13.3532383374
 20
10.9048640192
 10
13.3623297552
 20
10.8998611472
 10
13.3714047168
 20
10.8942831003
 10
13.3804383578
 20
10.8881451619
 10
13.3894059273
 20
10.8814641489
 10
13.3982828554
 20
10.8742583666
 10
13.4070448205
 20
10.8665475577
 10
13.4156678159
 20
10.8583528489
 10
13.4241282157
 20
10.8496966926
 10
13.4324028397
 20
10.8406028055
 10
13.4404690163
 20
10.8310961038
 10
13.4483046454
 20
10.8212026344
 10
13.4558882583
 20
10.8109495042
 10
13.463199077
 20
10.8003648054
 10
13.4702170708
 20
10.7894775386
 10
13.4769230113
 20
10.7783175337
 10
13.4832985252
 20
10.7669153674
 10
13.4893261442
 20
10.7553022802
 10
13.4949893537
 20
10.7435100905
 10
13.500272637
 20
10.7315711073
 10
13.5051615188
 20
10.7195180418
 10
13.5096426042
 20
10.7073839179
 10
13.5137036155
 20
10.6952019813
 10
13.5173334261
 20
10.6830056091
 10
13.5205220908
 20
10.6708282177
 10
13.5232608732
 20
10.6587031715
 10
13.5255422692
 20
10.6466636915
 10
13.5273600282
 20
10.6347427643
 10
13.5287091698
 20
10.6229730518
 10
13.5295859974
 20
10.6113868013
 10
13.5299881088
 20
10.6000157576
  0
LINE
  5
408
100
AcDbEntity
  8
217
100
AcDbLine
 62
7
  6
CONTINUOUS
 10
17.8068380821
 20
-22.5476301352
 11
17.8068380821
 21
-22.6118894948
  0
LINE
  5
409
100
AcDbEntity
  8
217
100
AcDbLine
 62
250
  6
CONTINUOUS
 10
19.156287926
 20
13.7903581768
 11
19.156287926
 21
12.6109913627
  0
LINE
  5
40A
100
AcDbEntity
  8
217
100
AcDbLine
 62
250
  6
CONTINUOUS
 10
19.156287926
 20
-23.9739546937
 11
19.156287926
 21
-25.1533215078
  0
LINE
  5
40B
100
AcDbEntity
  8
217
100
AcDbLine
 62
7
  6
CONTINUOUS
 10
19.4369481257
 20
14.0996007272
 11
19.4369481257
 21
12.9635304309
  0
LINE
  5
40C
100
AcDbEntity
  8
217
100
AcDbLine
 62
7
  6
CONTINUOUS
 10
19.4369481257
 20
-23.6318353915
 11
19.4369481257
 21
-24.7679056877
  0
LINE
  5
40D
100
AcDbEntity
  8
217
100
AcDbLine
 62
7
  6
CONTINUOUS
 10
-1.3581627987
 20
-21.5811061534
 11
-1.35892077
 21
-21.5815062332
  0
LWPOLYLINE
  5
40E
100
AcDbEntity
  8
217
100
AcDbPolyline
 62
250
  6
CONTINUOUS
 90
40
 70
0
 10
-1.35892077
 20
-21.5815062332
 10
-1.4850924431
 20
-21.6464324585
 10
-1.6729211953
 20
-21.7370914516
 10
-1.8635795272
 20
-21.8220740492
 10
-2.0570036965
 20
-21.9013522053
 10
-2.2531280792
 20
-21.9748992687
 10
-2.4519012053
 20
-22.0426998802
 10
-2.6532525473
 20
-22.1047311222
 10
-2.8571176054
 20
-22.1609740599
 10
-3.0634526367
 20
-22.2114224791
 10
-3.272187148
 20
-22.2560596582
 10
-3.4832523818
 20
-22.2948711236
 10
-3.6966065446
 20
-22.3278558321
 10
-3.912184707
 20
-22.3550030687
 10
-4.1299090247
 20
-22.3763019581
 10
-4.3497173988
 20
-22.3917540048
 10
-4.57154164
 20
-22.4013544706
 10
-4.7953028715
 20
-22.4050994213
 10
-5.0209213642
 20
-22.4029968405
 10
-5.248311153
 20
-22.3950499272
 10
-5.4774066746
 20
-22.3812626484
 10
-5.7081578251
 20
-22.3616478797
 10
-5.9404754341
 20
-22.3362147496
 10
-6.1742949346
 20
-22.3049711463
 10
-6.4096036025
 20
-22.2679262044
 10
-6.6463401531
 20
-22.2250864215
 10
-6.8844115554
 20
-22.1764646447
 10
-7.1237577599
 20
-22.1220780419
 10
-7.3643297382
 20
-22.0619340042
 10
-7.6060199033
 20
-21.9960543835
 10
-7.8486790684
 20
-21.9244860776
 10
-8.0922314562
 20
-21.8472543303
 10
-8.3365927112
 20
-21.7643870176
 10
-8.5815990766
 20
-21.6759496789
 10
-8.827170637
 20
-21.5819804019
 10
-9.0732256549
 20
-21.4825177
 10
-9.319596742
 20
-21.3776427342
 10
-9.566174239
 20
-21.2674182297
 10
-9.812906673
 20
-21.1518816589
 10
-10.0597140674
 20
-21.0310848129
  0
LINE
  5
40F
100
AcDbEntity
  8
RACCORDO
100
AcDbLine
 62
7
  6
CONTINUOUS
 10
3.513725365
 20
17.8310053825
 11
4.9060789141
 21
17.97310379
  0
LINE
  5
410
100
AcDbEntity
  8
RACCORDO
100
AcDbLine
 62
7
  6
CONTINUOUS
 10
9.3632889564
 20
18.4729386609
 11
8.0283392416
 21
18.3366986745
  0
LINE
  5
411
100
AcDbEntity
  8
RACCORDO
100
AcDbLine
 62
7
  6
CONTINUOUS
 10
3.0432364343
 20
18.1472262368
 11
4.993482119
 21
18.3462610339
  0
LINE
  5
412
100
AcDbEntity
  8
0
100
AcDbLine
 62
7
  6
CONTINUOUS
 10
1.6574935201
 20
18.644379591
 11
6.3028492816
 21
19.1184672656
  0
LWPOLYLINE
  5
413
100
AcDbEntity
  8
RACCORDO
100
AcDbPolyline
 62
7
  6
CONTINUOUS
 90
25
 70
0
 10
8.0283392416
 20
18.3366986745
 10
8.0191671369
 20
18.3359513683
 10
8.0095148163
 20
18.3355116254
 10
7.9993822797
 20
18.3353794456
 10
7.9887221608
 20
18.3355568913
 10
7.977581826
 20
18.3360419002
 10
7.9661033741
 20
18.3368282858
 10
7.9542824739
 20
18.3379199087
 10
7.9421234566
 20
18.3393129084
 10
7.9297814146
 20
18.3409895167
 10
7.9172540036
 20
18.3429533665
 10
7.904543568
 20
18.3452008249
 10
7.8918122338
 20
18.3477032247
 10
7.8790597333
 20
18.3504638317
 10
7.8662863343
 20
18.3534793801
 10
7.8536549658
 20
18.3567114057
 10
7.8411674474
 20
18.3601626813
 10
7.8288219595
 20
18.363830434
 10
7.8167759732
 20
18.3676678803
 10
7.8050333251
 20
18.371677194
 10
7.7935901786
 20
18.3758562013
 10
7.782592495
 20
18.3801515975
 10
7.7720889281
 20
18.3845456143
 10
7.7620308241
 20
18.3890560201
 10
7.752418183
 20
18.3936828149
  0
LWPOLYLINE
  5
414
100
AcDbEntity
  8
RACCORDO
100
AcDbPolyline
 62
7
  6
CONTINUOUS
 90
25
 70
0
 10
4.993482119
 20
18.3462610339
 10
5.0026542236
 20
18.34700834
 10
5.0123065443
 20
18.347448083
 10
5.0224390809
 20
18.3475802627
 10
5.0330991998
 20
18.347402817
 10
5.0442395346
 20
18.3469178082
 10
5.0557179865
 20
18.3461314226
 10
5.0675388867
 20
18.3450397996
 10
5.079697904
 20
18.3436467999
 10
5.0920399459
 20
18.3419701916
 10
5.104567357
 20
18.3400063418
 10
5.1172777926
 20
18.3377588835
 10
5.1300091268
 20
18.3352564837
 10
5.1427616273
 20
18.3324958767
 10
5.1555350263
 20
18.3294803282
 10
5.1681663948
 20
18.3262483027
 10
5.1806539132
 20
18.322797027
 10
5.1929994011
 20
18.3191292743
 10
5.2050453873
 20
18.315291828
 10
5.2167880355
 20
18.3112825143
 10
5.228231182
 20
18.3071035071
 10
5.2392288656
 20
18.3028081109
 10
5.2497324325
 20
18.298414094
 10
5.2597905365
 20
18.2939036882
 10
5.2694031776
 20
18.2892768935
  0
LINE
  5
415
100
AcDbEntity
  8
217
100
AcDbLine
 62
7
  6
CONTINUOUS
 10
9.0744507094
 20
18.9497540917
 11
7.8838045176
 21
18.8793766753
  0
LINE
  5
416
100
AcDbEntity
  8
217
100
AcDbLine
 62
7
  6
CONTINUOUS
 10
7.8398279759
 20
19.7492553647
 11
6.3099731225
 21
19.6662923728
  0
LWPOLYLINE
  5
417
100
AcDbEntity
  8
217
100
AcDbPolyline
 62
7
  6
CONTINUOUS
 90
10
 70
0
 10
7.8398279759
 20
19.7492553647
 10
7.8594139961
 20
19.7498065254
 10
7.8786560629
 20
19.7493357425
 10
7.8975541763
 20
19.7478430159
 10
7.9161332703
 20
19.7453235032
 10
7.934368411
 20
19.7417820469
 10
7.9521847964
 20
19.7372331742
 10
7.9695807064
 20
19.731672747
 10
7.9865578612
 20
19.7251049034
 10
8.0041209672
 20
19.7170220811
  0
LWPOLYLINE
  5
418
100
AcDbEntity
  8
0
100
AcDbPolyline
 62
7
  6
CONTINUOUS
 90
7
 70
0
 10
9.4494744578
 20
18.4729682206
 10
9.4355259152
 20
18.4742157006
 10
9.4214110895
 20
18.4749622179
 10
9.4071299808
 20
18.4752077726
 10
9.392682589
 20
18.4749523646
 10
9.3780689142
 20
18.4741959941
 10
9.3632889564
 20
18.4729386609
  0
LWPOLYLINE
  5
419
100
AcDbEntity
  8
RACCORDO
100
AcDbPolyline
 62
7
  6
CONTINUOUS
 90
25
 70
0
 10
9.2125086255
 20
15.9008653232
 10
9.2028959844
 20
15.9054921179
 10
9.1928378804
 20
15.9100025237
 10
9.1823343135
 20
15.9143965406
 10
9.1713366299
 20
15.9186919368
 10
9.1598934833
 20
15.9228709441
 10
9.1481508352
 20
15.9268802578
 10
9.1361048489
 20
15.9307177041
 10
9.1237593611
 20
15.9343854568
 10
9.1112718426
 20
15.9378367324
 10
9.0986404742
 20
15.941068758
 10
9.0858670752
 20
15.9440843064
 10
9.0731145747
 20
15.9468449134
 10
9.0603832405
 20
15.9493473132
 10
9.0476728049
 20
15.9515947716
 10
9.0351453938
 20
15.9535586214
 10
9.0228033519
 20
15.9552352297
 10
9.0106443346
 20
15.9566282294
 10
8.9988234343
 20
15.9577198523
 10
8.9873449824
 20
15.9585062379
 10
8.9762046476
 20
15.9589912468
 10
8.9655445288
 20
15.9591686924
 10
8.9554119922
 20
15.9590365127
 10
8.9457596715
 20
15.9585967698
 10
8.9365875668
 20
15.9578494636
  0
LWPOLYLINE
  5
41A
100
AcDbEntity
  8
RACCORDO
100
AcDbPolyline
 62
7
  6
CONTINUOUS
 90
25
 70
0
 10
5.1819999727
 20
17.9161196496
 10
5.1723873316
 20
17.9207464443
 10
5.1623292276
 20
17.9252568501
 10
5.1518256607
 20
17.929650867
 10
5.1408279771
 20
17.9339462632
 10
5.1293848306
 20
17.9381252705
 10
5.1176421825
 20
17.9421345842
 10
5.1055961962
 20
17.9459720305
 10
5.0932507083
 20
17.9496397832
 10
5.0807631899
 20
17.9530910588
 10
5.0681318214
 20
17.9563230843
 10
5.0553584224
 20
17.9593386328
 10
5.0426059219
 20
17.9620992398
 10
5.0298745877
 20
17.9646016396
 10
5.0171641521
 20
17.966849098
 10
5.0046367411
 20
17.9688129478
 10
4.9922946991
 20
17.970489556
 10
4.9801356818
 20
17.9718825557
 10
4.9683147816
 20
17.9729741787
 10
4.9568363297
 20
17.9737605643
 10
4.9456959949
 20
17.9742455732
 10
4.935035876
 20
17.9744230188
 10
4.9249033394
 20
17.9742908391
 10
4.9152510188
 20
17.9738510962
 10
4.9060789141
 20
17.97310379
  0
LWPOLYLINE
  5
41B
100
AcDbEntity
  8
RACCORDO
100
AcDbPolyline
 62
7
  6
CONTINUOUS
 90
25
 70
0
 10
-8.4651609042
 20
24.7397000881
 10
-8.4747735453
 20
24.7443268828
 10
-8.4848316493
 20
24.7488372886
 10
-8.4953352162
 20
24.7532313055
 10
-8.5063328998
 20
24.7575267017
 10
-8.5177760463
 20
24.7617057089
 10
-8.5295186944
 20
24.7657150226
 10
-8.5415646807
 20
24.7695524689
 10
-8.5539101686
 20
24.7732202216
 10
-8.566397687
 20
24.7766714973
 10
-8.5790290555
 20
24.7799035228
 10
-8.5918024545
 20
24.7829190712
 10
-8.604554955
 20
24.7856796782
 10
-8.6172862892
 20
24.7881820781
 10
-8.6299967248
 20
24.7904295364
 10
-8.6425241358
 20
24.7923933862
 10
-8.6548661778
 20
24.7940699945
 10
-8.6670251951
 20
24.7954629942
 10
-8.6788460953
 20
24.7965546172
 10
-8.6903245472
 20
24.7973410028
 10
-8.701464882
 20
24.7978260116
 10
-8.7121250009
 20
24.7980034573
 10
-8.7222575375
 20
24.7978712775
 10
-8.7319098581
 20
24.7974315346
 10
-8.7410819628
 20
24.7966842285
  0
LWPOLYLINE
  5
41C
100
AcDbEntity
  8
RACCORDO
100
AcDbPolyline
 62
7
  6
CONTINUOUS
 90
25
 70
0
 10
-12.495669557
 20
26.7549544144
 10
-12.5052821981
 20
26.7595812092
 10
-12.5153403021
 20
26.764091615
 10
-12.525843869
 20
26.7684856318
 10
-12.5368415526
 20
26.772781028
 10
-12.5482846991
 20
26.7769600353
 10
-12.5600273472
 20
26.780969349
 10
-12.5720733335
 20
26.7848067953
 10
-12.5844188213
 20
26.788474548
 10
-12.5969063398
 20
26.7919258236
 10
-12.6095377082
 20
26.7951578492
 10
-12.6223111073
 20
26.7981733976
 10
-12.6350636077
 20
26.8009340046
 10
-12.6477949419
 20
26.8034364044
 10
-12.6605053776
 20
26.8056838628
 10
-12.6730327886
 20
26.8076477126
 10
-12.6853748305
 20
26.8093243209
 10
-12.6975338479
 20
26.8107173206
 10
-12.7093547481
 20
26.8118089435
 10
-12.7208332
 20
26.8125953291
 10
-12.7319735348
 20
26.813080338
 10
-12.7426336536
 20
26.8132577836
 10
-12.7527661903
 20
26.8131256039
 10
-12.7624185109
 20
26.812685861
 10
-12.7715906156
 20
26.8119385548
  0
LINE
  5
41D
100
AcDbEntity
  8
0
100
AcDbLine
 62
250
  6
CONTINUOUS
 10
9.9898192857
 20
14.3549315098
 11
1.5045379115
 21
18.5975721969
  0
LINE
  5
41E
100
AcDbEntity
  8
0
100
AcDbLine
 62
250
  6
CONTINUOUS
 10
-7.6878502439
 20
23.1937662746
 11
-16.1731316182
 21
27.4364069618
  0
LINE
  5
41F
100
AcDbEntity
  8
0
100
AcDbLine
 62
250
  6
CONTINUOUS
 10
10.1427748943
 20
14.4017389039
 11
1.6574935201
 21
18.644379591
  0
LINE
  5
420
100
AcDbEntity
  8
0
100
AcDbLine
 62
250
  6
CONTINUOUS
 10
-7.5348946354
 20
23.2405736688
 11
-16.0201760096
 21
27.4832143559
  0
LINE
  5
421
100
AcDbEntity
  8
RACCORDO
100
AcDbLine
 62
7
  6
CONTINUOUS
 10
9.1312764063
 20
15.0222298618
 11
7.0806667409
 21
16.0475346945
  0
LINE
  5
422
100
AcDbEntity
  8
RACCORDO
100
AcDbLine
 62
7
  6
CONTINUOUS
 10
5.1007677535
 20
17.0374841882
 11
3.0501580881
 21
18.0627890209
  0
LINE
  5
423
100
AcDbEntity
  8
RACCORDO
100
AcDbLine
 62
7
  6
CONTINUOUS
 10
-8.5463931234
 20
23.8610646267
 11
-10.5970027888
 21
24.8863694594
  0
LINE
  5
424
100
AcDbEntity
  8
RACCORDO
100
AcDbLine
 62
7
  6
CONTINUOUS
 10
-12.5769017761
 20
25.876318953
 11
-14.6275114416
 21
26.9016237858
  0
LINE
  5
425
100
AcDbEntity
  8
RACCORDO
100
AcDbLine
 62
7
  6
CONTINUOUS
 10
9.4914091245
 20
14.9738400492
 11
7.7629453798
 21
15.8380719215
  0
LINE
  5
426
100
AcDbEntity
  8
RACCORDO
100
AcDbLine
 62
7
  6
CONTINUOUS
 10
-8.1862604051
 20
23.812674814
 11
-9.9147241499
 21
24.6769066864
  0
LINE
  5
427
100
AcDbEntity
  8
RACCORDO
100
AcDbLine
 62
7
  6
CONTINUOUS
 10
-12.495669557
 20
26.7549544144
 11
-10.9086271685
 21
25.9614332202
  0
LINE
  5
428
100
AcDbEntity
  8
RACCORDO
100
AcDbLine
 62
7
  6
CONTINUOUS
 10
-8.4651609042
 20
24.7397000881
 11
-6.8781185157
 21
23.9461788938
  0
LINE
  5
429
100
AcDbEntity
  8
RACCORDO
100
AcDbLine
 62
7
  6
CONTINUOUS
 10
5.1819999727
 20
17.9161196496
 11
6.7690423612
 21
17.1225984554
  0
LINE
  5
42A
100
AcDbEntity
  8
RACCORDO
100
AcDbLine
 62
7
  6
CONTINUOUS
 10
9.2125086255
 20
15.9008653232
 11
10.799551014
 21
15.107344129
  0
LINE
  5
42B
100
AcDbEntity
  8
RACCORDO
100
AcDbLine
 62
7
  6
CONTINUOUS
 10
-12.4082663521
 20
27.1281116583
 11
-10.3576566866
 21
26.1028068256
  0
LINE
  5
42C
100
AcDbEntity
  8
RACCORDO
100
AcDbLine
 62
7
  6
CONTINUOUS
 10
-8.3777576993
 20
25.1128573319
 11
-6.3271480339
 21
24.0875524992
  0
LINE
  5
42D
100
AcDbEntity
  8
RACCORDO
100
AcDbLine
 62
7
  6
CONTINUOUS
 10
5.2694031776
 20
18.2892768935
 11
7.320012843
 21
17.2639720608
  0
LINE
  5
42E
100
AcDbEntity
  8
RACCORDO
100
AcDbLine
 62
7
  6
CONTINUOUS
 10
9.2999118303
 20
16.2740225671
 11
11.3505214958
 21
15.2487177344
  0
LINE
  5
42F
100
AcDbEntity
  8
217
100
AcDbLine
 62
7
  6
CONTINUOUS
 10
17.8241106649
 20
13.2065457819
 11
16.2023442182
 21
14.0174290053
  0
LINE
  5
430
100
AcDbEntity
  8
217
100
AcDbLine
 62
7
  6
CONTINUOUS
 10
4.4419928953
 20
19.8976046667
 11
-1.4753253115
 21
22.8562637701
  0
LINE
  5
431
100
AcDbEntity
  8
217
100
AcDbLine
 62
7
  6
CONTINUOUS
 10
-13.2400788746
 20
28.7386405517
 11
-14.4108002572
 21
29.3240012429
  0
LINE
  5
432
100
AcDbEntity
  8
RACCORDO
100
AcDbLine
 62
7
  6
CONTINUOUS
 10
-11.3748202481
 20
27.9573020304
 11
-9.9252513467
 21
27.2325175797
  0
LINE
  5
433
100
AcDbEntity
  8
RACCORDO
100
AcDbLine
 62
7
  6
CONTINUOUS
 10
6.3028492816
 20
19.1184672656
 11
7.752418183
 21
18.3936828149
  0
LINE
  5
434
100
AcDbEntity
  8
RACCORDO
100
AcDbLine
 62
7
  6
CONTINUOUS
 10
14.6253384805
 20
14.9572226661
 11
13.3385617544
 21
15.6006110292
  0
LINE
  5
435
100
AcDbEntity
  8
RACCORDO
100
AcDbLine
 62
7
  6
CONTINUOUS
 10
-3.0523310492
 20
23.7960574309
 11
-4.3391077753
 21
24.439445794
  0
LINE
  5
436
100
AcDbEntity
  8
217
100
AcDbLine
 62
250
  6
CONTINUOUS
 10
14.6436982625
 20
14.9669601419
 11
13.3544242827
 21
15.6115971318
  0
LINE
  5
437
100
AcDbEntity
  8
217
100
AcDbLine
 62
250
  6
CONTINUOUS
 10
7.7365556547
 20
18.4205314458
 11
6.1614279253
 21
19.2080953105
  0
LINE
  5
438
100
AcDbEntity
  8
217
100
AcDbLine
 62
250
  6
CONTINUOUS
 10
-3.0339712672
 20
23.8057949067
 11
-4.323245247
 21
24.4504318967
  0
LINE
  5
439
100
AcDbEntity
  8
217
100
AcDbLine
 62
250
  6
CONTINUOUS
 10
-9.941113875
 20
27.2593662107
 11
-11.5162416043
 21
28.0469300753
  0
LWPOLYLINE
  5
43A
100
AcDbEntity
  8
RACCORDO
100
AcDbPolyline
 62
7
  6
CONTINUOUS
 90
15
 70
0
 10
-10.5970027888
 20
24.8863694594
 10
-10.6060190543
 20
24.891057118
 10
-10.6143542423
 20
24.8957433581
 10
-10.6220083527
 20
24.9004281799
 10
-10.6290082518
 20
24.9051315751
 10
-10.6353270733
 20
24.9098335518
 10
-10.6408842186
 20
24.9144741349
 10
-10.6456699306
 20
24.9190525377
 10
-10.6496939663
 20
24.9235695467
 10
-10.6529049976
 20
24.927967546
 10
-10.6552926103
 20
24.932245011
 10
-10.6568672187
 20
24.9364034663
 10
-10.657608738
 20
24.9403898692
 10
-10.6575064967
 20
24.9442020158
 10
-10.6572263323
 20
24.9457041245
  0
LWPOLYLINE
  5
43B
100
AcDbEntity
  8
RACCORDO
100
AcDbPolyline
 62
7
  6
CONTINUOUS
 90
15
 70
0
 10
3.0501580881
 20
18.0627890209
 10
3.0411418226
 20
18.0674766795
 10
3.0328066346
 20
18.0721629197
 10
3.0251525242
 20
18.0768477415
 10
3.0181526251
 20
18.0815511366
 10
3.0118338036
 20
18.0862531134
 10
3.0062766583
 20
18.0908936964
 10
3.0014909463
 20
18.0954720992
 10
2.9974669106
 20
18.0999891083
 10
2.9942558793
 20
18.1043871076
 10
2.9918682666
 20
18.1086645726
 10
2.9902936582
 20
18.1128230278
 10
2.9895521389
 20
18.1168094307
 10
2.9896543802
 20
18.1206215774
 10
2.9899345446
 20
18.1221236861
  0
LWPOLYLINE
  5
43C
100
AcDbEntity
  8
RACCORDO
100
AcDbPolyline
 62
7
  6
CONTINUOUS
 90
15
 70
0
 10
7.0806667409
 20
16.0475346945
 10
7.0716504754
 20
16.0522223531
 10
7.0633152874
 20
16.0569085933
 10
7.055661177
 20
16.0615934151
 10
7.0486612779
 20
16.0662968102
 10
7.0423424563
 20
16.070998787
 10
7.0367853111
 20
16.07563937
 10
7.0319995991
 20
16.0802177728
 10
7.0279755634
 20
16.0847347819
 10
7.024764532
 20
16.0891327812
 10
7.0223769194
 20
16.0934102462
 10
7.020802311
 20
16.0975687014
 10
7.0200607916
 20
16.1015551044
 10
7.0201630329
 20
16.105367251
 10
7.0204431974
 20
16.1068693597
  0
LWPOLYLINE
  5
43D
100
AcDbEntity
  8
RACCORDO
100
AcDbPolyline
 62
7
  6
CONTINUOUS
 90
15
 70
0
 10
-10.3576566866
 20
26.1028068256
 10
-10.3486404211
 20
26.098119167
 10
-10.3403052332
 20
26.0934329268
 10
-10.3326511228
 20
26.0887481051
 10
-10.3256512237
 20
26.0840447099
 10
-10.3193324021
 20
26.0793427331
 10
-10.3137752568
 20
26.0747021501
 10
-10.3089895449
 20
26.0701237473
 10
-10.3049655092
 20
26.0656067382
 10
-10.3017544778
 20
26.0612087389
 10
-10.2993668651
 20
26.0569312739
 10
-10.2977922568
 20
26.0527728187
 10
-10.2970507374
 20
26.0487864158
 10
-10.2971529787
 20
26.0449742691
 10
-10.2974331431
 20
26.0434721604
  0
LWPOLYLINE
  5
43E
100
AcDbEntity
  8
RACCORDO
100
AcDbPolyline
 62
7
  6
CONTINUOUS
 90
15
 70
0
 10
-6.3271480339
 20
24.0875524992
 10
-6.3181317684
 20
24.0828648406
 10
-6.3097965804
 20
24.0781786004
 10
-6.30214247
 20
24.0734937787
 10
-6.2951425709
 20
24.0687903835
 10
-6.2888237493
 20
24.0640884067
 10
-6.2832666041
 20
24.0594478237
 10
-6.2784808921
 20
24.0548694209
 10
-6.2744568564
 20
24.0503524118
 10
-6.271245825
 20
24.0459544126
 10
-6.2688582124
 20
24.0416769475
 10
-6.267283604
 20
24.0375184923
 10
-6.2665420846
 20
24.0335320894
 10
-6.2666443259
 20
24.0297199428
 10
-6.2669244904
 20
24.028217834
  0
LWPOLYLINE
  5
43F
100
AcDbEntity
  8
RACCORDO
100
AcDbPolyline
 62
7
  6
CONTINUOUS
 90
15
 70
0
 10
7.320012843
 20
17.2639720608
 10
7.3290291085
 20
17.2592844022
 10
7.3373642965
 20
17.254598162
 10
7.3450184069
 20
17.2499133402
 10
7.352018306
 20
17.2452099451
 10
7.3583371276
 20
17.2405079683
 10
7.3638942728
 20
17.2358673853
 10
7.3686799848
 20
17.2312889825
 10
7.3727040205
 20
17.2267719734
 10
7.3759150519
 20
17.2223739741
 10
7.3783026645
 20
17.2180965091
 10
7.3798772729
 20
17.2139380539
 10
7.3806187923
 20
17.2099516509
 10
7.380516551
 20
17.2061395043
 10
7.3802363865
 20
17.2046373956
  0
LWPOLYLINE
  5
440
100
AcDbEntity
  8
RACCORDO
100
AcDbPolyline
 62
7
  6
CONTINUOUS
 90
15
 70
0
 10
11.3505214958
 20
15.2487177344
 10
11.3595377613
 20
15.2440300758
 10
11.3678729492
 20
15.2393438356
 10
11.3755270596
 20
15.2346590138
 10
11.3825269588
 20
15.2299556187
 10
11.3888457803
 20
15.2252536419
 10
11.3944029256
 20
15.2206130589
 10
11.3991886376
 20
15.2160346561
 10
11.4032126733
 20
15.211517647
 10
11.4064237046
 20
15.2071196477
 10
11.4088113173
 20
15.2028421827
 10
11.4103859256
 20
15.1986837275
 10
11.411127445
 20
15.1946973246
 10
11.4110252037
 20
15.1908851779
 10
11.4107450393
 20
15.1893830692
  0
LINE
  5
441
100
AcDbEntity
  8
RACCORDO
100
AcDbLine
 62
7
  6
CONTINUOUS
 10
-4.3391077753
 20
24.439445794
 11
-4.3481240408
 21
24.4441334526
  0
LWPOLYLINE
  5
442
100
AcDbEntity
  8
RACCORDO
100
AcDbPolyline
 62
7
  6
CONTINUOUS
 90
14
 70
0
 10
-4.3481240408
 20
24.4441334526
 10
-4.3564592288
 20
24.4488196928
 10
-4.3641133392
 20
24.4535045145
 10
-4.3711132383
 20
24.4582079097
 10
-4.3774320598
 20
24.4629098865
 10
-4.3829892051
 20
24.4675504695
 10
-4.3877749171
 20
24.4721288723
 10
-4.3917989528
 20
24.4766458814
 10
-4.3950099841
 20
24.4810438806
 10
-4.3973975968
 20
24.4853213457
 10
-4.3989722052
 20
24.4894798009
 10
-4.3997137245
 20
24.4934662038
 10
-4.3996114832
 20
24.4972783505
 10
-4.3993313188
 20
24.4987804592
  0
LWPOLYLINE
  5
443
100
AcDbEntity
  8
217
100
AcDbPolyline
 62
250
  6
CONTINUOUS
 90
79
 70
0
 10
-1.1531721254
 20
-23.6127403756
 10
-1.3512890009
 20
-23.7024920669
 10
-1.5520394521
 20
-23.7865391405
 10
-1.755429128
 20
-23.864884648
 10
-1.9615265431
 20
-23.9375515233
 10
-2.1702740435
 20
-24.0045227162
 10
-2.3814880156
 20
-24.065741307
 10
-2.5951757818
 20
-24.1212047602
 10
-2.8113404861
 20
-24.1709213155
 10
-3.0297923841
 20
-24.2148503007
 10
-3.2505375016
 20
-24.2529890186
 10
-3.4735797209
 20
-24.2853455953
 10
-3.6987261463
 20
-24.3118956356
 10
-3.9259830835
 20
-24.3326366414
 10
-4.1553534651
 20
-24.347576197
 10
-4.3866393323
 20
-24.3567050358
 10
-4.6198469581
 20
-24.3600204774
 10
-4.854978541
 20
-24.3575298861
 10
-5.0918299492
 20
-24.349239033
 10
-5.3304065885
 20
-24.3351449652
 10
-5.5707106703
 20
-24.3152548628
 10
-5.8125331569
 20
-24.2895896377
 10
-6.0558785177
 20
-24.258146174
 10
-6.300748966
 20
-24.2209313081
 10
-6.5469319188
 20
-24.1779807939
 10
-6.7944312741
 20
-24.1292913268
 10
-7.0432488118
 20
-24.074869381
 10
-7.293168571
 20
-24.014765268
 10
-7.5441938143
 20
-23.9489754513
 10
-7.7963258934
 20
-23.8775060488
 10
-8.0493457455
 20
-23.8004217233
 10
-8.3032559386
 20
-23.7177186865
 10
-8.5580574077
 20
-23.6294026899
 10
-8.8135283786
 20
-23.5355525598
 10
-9.0696706019
 20
-23.4361642913
 10
-9.3264846827
 20
-23.3312432109
 10
-9.5837468479
 20
-23.2208819853
 10
-9.8414581489
 20
-23.1050763445
 10
-10.0996187183
 20
-22.9838312232
 10
-10.3580031137
 20
-22.857252931
 10
-10.6166116034
 20
-22.7253369615
 10
-10.8754439193
 20
-22.5880878212
 10
-11.1342735183
 20
-22.4456251722
 10
-11.3930999729
 20
-22.2979442253
 10
-11.6519225269
 20
-22.1450491052
 10
-11.9105138525
 20
-21.9870726816
 10
-12.1688727135
 20
-21.8240099544
 10
-12.4269979908
 20
-21.655864602
 10
-12.6846622517
 20
-21.4827823552
 10
-12.9418635916
 20
-21.3047579304
 10
-13.1986004123
 20
-21.1217946482
 10
-13.4546454799
 20
-20.9340509987
 10
-13.7099960692
 20
-20.7415215487
 10
-13.9646502913
 20
-20.5442091501
 10
-14.2183819316
 20
-20.3422845907
 10
-14.4711876274
 20
-20.1357421905
 10
-14.7230650635
 20
-19.9245844599
 10
-14.9737893947
 20
-19.7089943621
 10
-15.2233565157
 20
-19.4889660987
 10
-15.4717638492
 20
-19.2645017477
 10
-15.7187886812
 20
-19.0357960002
 10
-15.9644263657
 20
-18.8028428075
 10
-16.208673931
 20
-18.5656439909
 10
-16.4513110605
 20
-18.3244059874
 10
-16.6923323113
 20
-18.0791228172
 10
-16.9317346538
 20
-17.8297957758
 10
-17.16930133
 20
-17.5766421844
 10
-17.4050261697
 20
-17.3196562117
 10
-17.6389061053
 20
-17.0588386032
 10
-17.8707290308
 20
-16.7944165505
 10
-18.1004884622
 20
-16.5263840031
 10
-18.3281809772
 20
-16.2547415836
 10
-18.5535991231
 20
-15.9797265352
 10
-18.7767363825
 20
-15.7013322065
 10
-18.997588803
 20
-15.419559543
 10
-19.21595291
 20
-15.1346572642
 10
-19.4317573245
 20
-14.846706352
 10
-19.6450625561
 20
-14.5556199362
 10
-19.8558629514
 20
-14.2613949626
  0
LWPOLYLINE
  5
444
100
AcDbEntity
  8
217
100
AcDbPolyline
 62
250
  6
CONTINUOUS
 90
19
 70
0
 10
-10.7922512914
 20
29.7266998996
 10
-10.8087715983
 20
29.7341603088
 10
-10.8257522731
 20
29.740644803
 10
-10.8431699779
 20
29.7461444374
 10
-10.8610012948
 20
29.7506518691
 10
-10.8792223628
 20
29.7541611226
 10
-10.8978083442
 20
29.7566673236
 10
-10.9167343028
 20
29.7581671746
 10
-10.9359748751
 20
29.7586587342
 10
-10.9555039118
 20
29.7581411631
 10
-10.9752954573
 20
29.7566152036
 10
-10.9953227595
 20
29.7540829751
 10
-11.0155579365
 20
29.7505477963
 10
-11.0359736464
 20
29.7460146301
 10
-11.0565427012
 20
29.740489703
 10
-11.077237076
 20
29.7339803084
 10
-11.098028874
 20
29.7264952546
 10
-11.1188903624
 20
29.7180448692
 10
-11.1397935699
 20
29.7086406822
  0
LWPOLYLINE
  5
445
100
AcDbEntity
  8
217
100
AcDbPolyline
 62
250
  6
CONTINUOUS
 90
19
 70
0
 10
6.9007282134
 20
20.8802102459
 10
6.8841005796
 20
20.8877249125
 10
6.8670093744
 20
20.8942652337
 10
6.8494783832
 20
20.8998220312
 10
6.8315310101
 20
20.9043879587
 10
6.8131911255
 20
20.9079570268
 10
6.79448405
 20
20.9105241124
 10
6.7754347101
 20
20.9120859148
 10
6.7560684777
 20
20.9126404806
 10
6.7364120152
 20
20.9121867114
 10
6.7164912697
 20
20.910725348
 10
6.6963330034
 20
20.9082584995
 10
6.6759656406
 20
20.9047892157
 10
6.6554165213
 20
20.9003224566
 10
6.6347128395
 20
20.894864444
 10
6.6138831749
 20
20.8884222025
 10
6.5929556114
 20
20.8810044511
 10
6.5719577006
 20
20.8726216047
 10
6.5509174169
 20
20.8632851929
  0
LWPOLYLINE
  5
446
100
AcDbEntity
  8
0
100
AcDbPolyline
 62
7
  6
CONTINUOUS
 90
5
 70
0
 10
9.5690550557
 20
18.4383363904
 10
9.5493193263
 20
18.4474348835
 10
9.5174657649
 20
18.4590346461
 10
9.484184142
 20
18.4675457584
 10
9.4494744578
 20
18.4729682206
  0
LWPOLYLINE
  5
447
100
AcDbEntity
  8
0
100
AcDbPolyline
 62
7
  6
CONTINUOUS
 90
5
 70
0
 10
-8.108614474
 20
27.2771711552
 10
-8.1283502033
 20
27.2862696484
 10
-8.1602037648
 20
27.2978694109
 10
-8.1934853876
 20
27.3063805233
 10
-8.2281950718
 20
27.3118029854
  0
LWPOLYLINE
  5
448
100
AcDbEntity
  8
217
100
AcDbPolyline
 62
7
  6
CONTINUOUS
 90
18
 70
0
 10
8.0041470824
 20
20.3285068928
 10
7.9908403352
 20
20.3347628558
 10
7.9726616058
 20
20.3420773493
 10
7.9539438198
 20
20.3482213409
 10
7.9346992083
 20
20.3532068798
 10
7.9150674156
 20
20.35700689
 10
7.8950812567
 20
20.3596113061
 10
7.8747079166
 20
20.3610301934
 10
7.853988595
 20
20.3612666721
 10
7.8329039677
 20
20.3603215005
 10
7.8114733589
 20
20.3581939203
 10
7.7897959407
 20
20.3548847759
 10
7.7678500314
 20
20.3503788208
 10
7.7456573126
 20
20.3446913017
 10
7.7233820021
 20
20.3378688028
 10
7.7010788391
 20
20.3299268522
 10
7.6786930843
 20
20.3208499218
 10
7.6562247378
 20
20.3106380117
  0
LWPOLYLINE
  5
449
100
AcDbEntity
  8
217
100
AcDbPolyline
 62
7
  6
CONTINUOUS
 90
18
 70
0
 10
-9.6735224473
 20
29.1673416576
 10
-9.6868291945
 20
29.1735976207
 10
-9.7050079238
 20
29.1809121141
 10
-9.7237257099
 20
29.1870561058
 10
-9.7429703214
 20
29.1920416446
 10
-9.762602114
 20
29.1958416548
 10
-9.782588273
 20
29.1984460709
 10
-9.8029616131
 20
29.1998649583
 10
-9.8236809347
 20
29.2001014369
 10
-9.8447655619
 20
29.1991562654
 10
-9.8661961708
 20
29.1970286851
 10
-9.8878735889
 20
29.1937195407
 10
-9.9098194983
 20
29.1892135857
 10
-9.932012217
 20
29.1835260665
 10
-9.9542875275
 20
29.1767035676
 10
-9.9765906906
 20
29.168761617
 10
-9.9989764454
 20
29.1596846867
 10
-10.0214447919
 20
29.1494727766
  0
LWPOLYLINE
  5
44A
100
AcDbEntity
  8
217
100
AcDbPolyline
 62
7
  6
CONTINUOUS
 90
20
 70
0
 10
-10.7895413101
 20
29.7253608114
 10
-10.8074848975
 20
29.7338237616
 10
-10.8282448906
 20
29.7423930173
 10
-10.8495471118
 20
29.7499109205
 10
-10.871371901
 20
29.7563540773
 10
-10.8936803486
 20
29.7616939798
 10
-10.9164304127
 20
29.7659059553
 10
-10.9396013747
 20
29.7689704644
 10
-10.9631534326
 20
29.770865134
 10
-10.9870463555
 20
29.7715715664
 10
-11.0112653126
 20
29.7710729557
 10
-11.0357722524
 20
29.76935145
 10
-11.0605318431
 20
29.7663921046
 10
-11.0855408821
 20
29.7621760116
 10
-11.1107657021
 20
29.7566858887
 10
-11.136174302
 20
29.7499059562
 10
-11.1617725391
 20
29.7418089506
 10
-11.1875430673
 20
29.7323688981
 10
-11.2134383472
 20
29.7215724148
 10
-11.2273435611
 20
29.7152279088
  0
LWPOLYLINE
  5
44B
100
AcDbEntity
  8
217
100
AcDbPolyline
 62
250
  6
CONTINUOUS
 90
13
 70
0
 10
-11.1397869017
 20
29.7086438315
 10
-11.147941159
 20
29.7124940465
 10
-11.15607618
 20
29.7157411929
 10
-11.1641644438
 20
29.7183742855
 10
-11.1721785874
 20
29.7203844165
 10
-11.1800914989
 20
29.7217647856
 10
-11.1878764086
 20
29.7225107229
 10
-11.19550698
 20
29.7226197049
 10
-11.2029573986
 20
29.722091363
 10
-11.2102024595
 20
29.7209274844
 10
-11.2172176524
 20
29.7191320068
 10
-11.2239792448
 20
29.7167110041
 10
-11.2273436512
 20
29.7152281005
  0
LINE
  5
44C
100
AcDbEntity
  8
217
100
AcDbLine
 62
250
  6
CONTINUOUS
 10
2.2574872014
 20
23.9080692868
 11
2.2563090947
 21
23.9086259924
  0
LWPOLYLINE
  5
44D
100
AcDbEntity
  8
217
100
AcDbPolyline
 62
7
  6
CONTINUOUS
 90
20
 70
0
 10
6.9034370417
 20
20.878871639
 10
6.8882359951
 20
20.8861091267
 10
6.867334704
 20
20.8949161556
 10
6.8458786428
 20
20.9026643901
 10
6.8238885923
 20
20.9093299684
 10
6.8014038811
 20
20.9148839046
 10
6.7784669048
 20
20.9193011832
 10
6.7550994449
 20
20.9225621375
 10
6.7313417707
 20
20.9246442206
 10
6.7072346566
 20
20.9255288062
 10
6.6827942248
 20
20.9251992638
 10
6.6580591718
 20
20.92363782
 10
6.633065398
 20
20.9208295626
 10
6.6078174213
 20
20.9167561327
 10
6.5823495991
 20
20.9114005715
 10
6.5566946711
 20
20.9047474242
 10
6.5308482422
 20
20.8967703917
 10
6.5048286452
 20
20.8874442891
 10
6.4786839415
 20
20.8767561701
 10
6.4646067746
 20
20.8704498437
  0
LWPOLYLINE
  5
44E
100
AcDbEntity
  8
217
100
AcDbPolyline
 62
250
  6
CONTINUOUS
 90
13
 70
0
 10
6.5509241241
 20
20.8632883186
 10
6.5428433122
 20
20.8671720449
 10
6.5347814844
 20
20.8704527062
 10
6.5267659088
 20
20.8731192061
 10
6.5188236971
 20
20.8751625254
 10
6.5109817128
 20
20.8765757529
 10
6.5032664804
 20
20.8773541086
 10
6.4957040957
 20
20.8774949597
 10
6.4883201374
 20
20.8769978298
 10
6.481139581
 20
20.8758644004
 10
6.4741867137
 20
20.8740985052
 10
6.4674850526
 20
20.8717061171
 10
6.4646066855
 20
20.8704500366
  0
LWPOLYLINE
  5
44F
100
AcDbEntity
  8
217
100
AcDbPolyline
 62
250
  6
CONTINUOUS
 90
20
 70
0
 10
0.195245478
 20
24.2329674428
 10
0.1927422372
 20
24.2342032177
 10
0.1765441794
 20
24.241503
 10
0.1598951094
 20
24.2478221676
 10
0.1428170292
 20
24.2531524375
 10
0.1253333991
 20
24.2574864429
 10
0.1074680356
 20
24.2608182229
 10
0.0892443104
 20
24.263143619
 10
0.0706871661
 20
24.2644593116
 10
0.0518219553
 20
24.2647633596
 10
0.0326733354
 20
24.2640556718
 10
0.0132672895
 20
24.2623369714
 10
-0.006369457
 20
24.2596093849
 10
-0.0262105926
 20
24.2558770261
 10
-0.0462287514
 20
24.2511448552
 10
-0.0663967655
 20
24.2454190982
 10
-0.0866882464
 20
24.2387078476
 10
-0.1070758416
 20
24.2310201738
 10
-0.1275312696
 20
24.222366132
 10
-0.1480265567
 20
24.2127572483
  0
LWPOLYLINE
  5
450
100
AcDbEntity
  8
217
100
AcDbPolyline
 62
7
  6
CONTINUOUS
 90
11
 70
0
 10
15.4150527596
 20
16.0115562005
 10
15.4049246574
 20
16.0165588817
 10
15.3713524375
 20
16.0322803949
 10
15.3381878792
 20
16.0465022228
 10
15.3056695205
 20
16.0591699544
 10
15.2738421109
 20
16.0703199453
 10
15.2427486821
 20
16.0799960745
 10
15.2126414683
 20
16.0882051
 10
15.1836391415
 20
16.0950076369
 10
15.1557158331
 20
16.1004876881
 10
15.1289114759
 20
16.1047136147
  0
LWPOLYLINE
  5
451
100
AcDbEntity
  8
217
100
AcDbPolyline
 62
7
  6
CONTINUOUS
 90
11
 70
0
 10
-2.26261677
 20
24.8503909653
 10
-2.2727448722
 20
24.8553936465
 10
-2.3063170922
 20
24.8711151597
 10
-2.3394816504
 20
24.8853369877
 10
-2.3720000091
 20
24.8980047192
 10
-2.4038274188
 20
24.9091547102
 10
-2.4349208476
 20
24.9188308393
 10
-2.4650280614
 20
24.9270398648
 10
-2.4940303882
 20
24.9338424017
 10
-2.5219536966
 20
24.9393224529
 10
-2.5487580538
 20
24.9435483795
  0
LINE
  5
452
100
AcDbEntity
  8
217
100
AcDbLine
 62
250
  6
CONTINUOUS
 10
6.9033768299
 20
20.8789017816
 11
6.9007282134
 21
20.8802102459
  0
LINE
  5
453
100
AcDbEntity
  8
217
100
AcDbLine
 62
250
  6
CONTINUOUS
 10
-10.7896115702
 20
29.7253959816
 11
-10.7922512914
 21
29.7266998996
  0
LINE
  5
454
100
AcDbEntity
  8
217
100
AcDbLine
 62
7
  6
CONTINUOUS
 10
-12.6476286083
 20
28.9997236405
 11
-9.941113875
 21
27.6464662738
  0
LINE
  5
455
100
AcDbEntity
  8
217
100
AcDbLine
 62
7
  6
CONTINUOUS
 10
-4.323245247
 20
24.8375319598
 11
-1.6167251286
 21
23.4842719006
  0
LINE
  5
456
100
AcDbEntity
  8
217
100
AcDbLine
 62
7
  6
CONTINUOUS
 10
5.0300355363
 20
20.1608915682
 11
7.7365556547
 21
18.807631509
  0
LINE
  5
457
100
AcDbEntity
  8
217
100
AcDbLine
 62
7
  6
CONTINUOUS
 10
13.3544242827
 20
15.998697195
 11
16.060939016
 21
14.6454398283
  0
LINE
  5
458
100
AcDbEntity
  8
217
100
AcDbLine
 62
7
  6
CONTINUOUS
 10
-4.1734037155
 20
24.9079807918
 11
-2.5995723204
 21
24.1210650943
  0
LINE
  5
459
100
AcDbEntity
  8
217
100
AcDbLine
 62
7
  6
CONTINUOUS
 10
13.5042658142
 20
16.069146027
 11
15.0780972092
 21
15.2822303295
  0
LINE
  5
45A
100
AcDbEntity
  8
217
100
AcDbLine
 62
7
  6
CONTINUOUS
 10
7.8838045176
 20
18.8793766753
 11
6.3099731225
 21
19.6662923728
  0
LINE
  5
45B
100
AcDbEntity
  8
217
100
AcDbLine
 62
7
  6
CONTINUOUS
 10
-9.7938650121
 20
27.7182114401
 11
-11.3676964071
 21
28.5051271377
  0
LINE
  5
45C
100
AcDbEntity
  8
0
100
AcDbLine
 62
250
  6
CONTINUOUS
 10
14.1108972088
 20
16.0991345347
 11
9.3632889564
 21
18.4729386609
  0
LINE
  5
45D
100
AcDbEntity
  8
0
100
AcDbLine
 62
250
  6
CONTINUOUS
 10
-3.5667723209
 20
24.9379692995
 11
-8.3143805733
 21
27.3117734257
  0
LINE
  5
45E
100
AcDbEntity
  8
0
100
AcDbLine
 62
7
  6
CONTINUOUS
 10
-8.1085455483
 20
27.2771540989
 11
-3.4424659874
 21
24.9441143185
  0
LINE
  5
45F
100
AcDbEntity
  8
0
100
AcDbLine
 62
7
  6
CONTINUOUS
 10
9.5691239813
 20
18.4383193341
 11
14.2352035422
 21
16.1052795536
  0
LINE
  5
460
100
AcDbEntity
  8
217
100
AcDbLine
 62
250
  6
CONTINUOUS
 10
-9.8378415537
 20
28.5880901295
 11
-8.358800967
 21
27.8485698361
  0
LINE
  5
461
100
AcDbEntity
  8
217
100
AcDbLine
 62
250
  6
CONTINUOUS
 10
-2.5487580538
 20
24.9435483795
 11
-1.7331597325
 21
24.5357492189
  0
LINE
  5
462
100
AcDbEntity
  8
217
100
AcDbLine
 62
250
  6
CONTINUOUS
 10
7.8398279759
 20
19.7492553647
 11
9.3188685627
 21
19.0097350713
  0
LINE
  5
463
100
AcDbEntity
  8
217
100
AcDbLine
 62
250
  6
CONTINUOUS
 10
15.1289114759
 20
16.1047136147
 11
15.9445097972
 21
15.6969144541
  0
LINE
  5
464
100
AcDbEntity
  8
217
100
AcDbLine
 62
7
  6
CONTINUOUS
 10
-9.6735464874
 20
28.5558558322
 11
-8.3167169578
 21
27.8774410673
  0
LINE
  5
465
100
AcDbEntity
  8
217
100
AcDbLine
 62
7
  6
CONTINUOUS
 10
-2.2622528348
 20
24.8502090059
 11
-1.6821561419
 21
24.5601606594
  0
LINE
  5
466
100
AcDbEntity
  8
217
100
AcDbLine
 62
7
  6
CONTINUOUS
 10
8.0041230422
 20
19.7170210673
 11
9.3609525719
 21
19.0386063025
  0
LINE
  5
467
100
AcDbEntity
  8
217
100
AcDbLine
 62
7
  6
CONTINUOUS
 10
15.4154166948
 20
16.011374241
 11
15.9955133878
 21
15.7213258945
  0
LINE
  5
468
100
AcDbEntity
  8
217
100
AcDbLine
 62
7
  6
CONTINUOUS
 10
19.1440549069
 20
14.4369532927
 11
18.2350587458
 21
14.8914513732
  0
LINE
  5
469
100
AcDbEntity
  8
217
100
AcDbLine
 62
7
  6
CONTINUOUS
 10
1.0700308675
 20
23.4739653123
 11
0.4576174769
 21
23.7801500388
  0
LINE
  5
46A
100
AcDbEntity
  8
217
100
AcDbLine
 62
7
  6
CONTINUOUS
 10
-11.322767036
 20
29.6703642641
 11
-11.6295251683
 21
29.8237433302
  0
LINE
  5
46B
100
AcDbEntity
  8
217
100
AcDbLine
 62
250
  6
CONTINUOUS
 10
-0.1480265278
 20
24.2127572339
 11
-1.2533207052
 21
24.7654107332
  0
LINE
  5
46C
100
AcDbEntity
  8
217
100
AcDbLine
 62
250
  6
CONTINUOUS
 10
17.5426909343
 20
15.3674049135
 11
16.4243488245
 21
15.9265759684
  0
LINE
  5
46D
100
AcDbEntity
  8
217
100
AcDbLine
 62
250
  6
CONTINUOUS
 10
7.6562247378
 20
20.3106380117
 11
6.5509173878
 21
20.8632852075
  0
LINE
  5
46E
100
AcDbEntity
  8
217
100
AcDbLine
 62
250
  6
CONTINUOUS
 10
-10.0214447919
 20
29.1494727766
 11
-11.1397935845
 21
29.7086406895
  0
LINE
  5
46F
100
AcDbEntity
  8
217
100
AcDbLine
 62
7
  6
CONTINUOUS
 10
18.0272672225
 20
15.3169565853
 11
16.7722471289
 21
15.9444666321
  0
LINE
  5
470
100
AcDbEntity
  8
217
100
AcDbLine
 62
7
  6
CONTINUOUS
 10
8.0041230422
 20
20.3285286754
 11
6.9033753578
 21
20.8789025176
  0
LINE
  5
471
100
AcDbEntity
  8
217
100
AcDbLine
 62
7
  6
CONTINUOUS
 10
0.1953238499
 20
24.2329282716
 11
-0.9054224007
 21
24.7833013969
  0
LINE
  5
472
100
AcDbEntity
  8
217
100
AcDbLine
 62
7
  6
CONTINUOUS
 10
-9.6735464874
 20
29.1673634403
 11
-10.7896123082
 21
29.7253963506
  0
LINE
  5
473
100
AcDbEntity
  8
217
100
AcDbLine
 62
7
  6
CONTINUOUS
 10
7.5572482567
 20
21.2581887591
 11
2.2574872636
 21
23.9080692557
  0
LWPOLYLINE
  5
474
100
AcDbEntity
  8
217
100
AcDbPolyline
 62
7
  6
CONTINUOUS
 90
4
 70
0
 10
18.0277281451
 20
15.3167260508
 10
18.0332253201
 20
15.313914052
 10
18.043306203
 20
15.3084204274
 10
18.0524696523
 20
15.3029826178
  0
LINE
  5
475
100
AcDbEntity
  8
RACCORDO
100
AcDbLine
 62
7
  6
CONTINUOUS
 10
13.3385617544
 20
15.6006110292
 11
13.3295454889
 21
15.6052986877
  0
LWPOLYLINE
  5
476
100
AcDbEntity
  8
RACCORDO
100
AcDbPolyline
 62
250
  6
CONTINUOUS
 90
19
 70
0
 10
-4.7008956996
 20
26.5486390171
 10
-4.6382597898
 20
26.5150323941
 10
-4.5761942976
 20
26.4750469394
 10
-4.5151714059
 20
26.4289868577
 10
-4.4556553353
 20
26.3772025402
 10
-4.3980989051
 20
26.3200879775
 10
-4.3429400774
 20
26.2580777896
 10
-4.290598481
 20
26.1916437678
 10
-4.2414722984
 20
26.1212913423
 10
-4.1959353075
 20
26.047555851
 10
-4.1543339311
 20
25.970998327
 10
-4.1169845925
 20
25.8922011711
 10
-4.0841713736
 20
25.8117638103
 10
-4.0561438739
 20
25.730298199
 10
-4.0331152734
 20
25.6484240824
 10
-4.0152607102
 20
25.566764234
 10
-4.0027159881
 20
25.485939849
 10
-3.9955765258
 20
25.4065658191
 10
-3.9938966147
 20
25.3292459702
  0
LWPOLYLINE
  5
477
100
AcDbEntity
  8
RACCORDO
100
AcDbPolyline
 62
7
  6
CONTINUOUS
 90
14
 70
0
 10
13.3295454889
 20
15.6052986877
 10
13.3212103009
 20
15.6099849279
 10
13.3135561905
 20
15.6146697497
 10
13.3065562914
 20
15.6193731449
 10
13.3002374698
 20
15.6240751216
 10
13.2946803246
 20
15.6287157046
 10
13.2898946126
 20
15.6332941075
 10
13.2858705769
 20
15.6378111165
 10
13.2826595455
 20
15.6422091158
 10
13.2802719329
 20
15.6464865808
 10
13.2786973245
 20
15.6506450361
 10
13.2779558051
 20
15.654631439
 10
13.2780580464
 20
15.6584435856
 10
13.2783382109
 20
15.6599456943
  0
LINE
  5
478
100
AcDbEntity
  8
RACCORDO
100
AcDbLine
 62
7
  6
CONTINUOUS
 10
19.0588803445
 20
11.9177835483
 11
18.7741029646
 21
12.4089518737
  0
LWPOLYLINE
  5
479
100
AcDbEntity
  8
RACCORDO
100
AcDbPolyline
 62
7
  6
CONTINUOUS
 90
10
 70
0
 10
19.3944954267
 20
11.0945406161
 10
19.3694392105
 20
11.1885241394
 10
19.3412529275
 20
11.2820545353
 10
19.3099365778
 20
11.3751318039
 10
19.275394855
 20
11.4679891374
 10
19.2377230654
 20
11.5603933437
 10
19.1972071277
 20
11.6516448456
 10
19.1539423481
 20
11.7415104508
 10
19.1078334203
 20
11.8302233517
 10
19.0588803445
 20
11.9177835483
  0
LINE
  5
47A
100
AcDbEntity
  8
0
100
AcDbLine
 62
7
  6
CONTINUOUS
 10
-7.6222978403
 20
22.8674164249
 11
-4.1315571373
 21
23.2236683951
  0
LINE
  5
47B
100
AcDbEntity
  8
0
100
AcDbLine
 62
7
  6
CONTINUOUS
 10
-7.5348946354
 20
23.2405736688
 11
-3.2811588091
 21
23.674694074
  0
LINE
  5
47C
100
AcDbEntity
  8
RACCORDO
100
AcDbLine
 62
7
  6
CONTINUOUS
 10
-6.32022638
 20
24.0031152834
 11
-8.2704720647
 21
23.8040804863
  0
LINE
  5
47D
100
AcDbEntity
  8
RACCORDO
100
AcDbLine
 62
7
  6
CONTINUOUS
 10
-4.323245247
 20
24.5262082785
 11
-4.3460294291
 21
24.5238830098
  0
LWPOLYLINE
  5
47E
100
AcDbEntity
  8
RACCORDO
100
AcDbPolyline
 62
7
  6
CONTINUOUS
 90
25
 70
0
 10
-8.2704720647
 20
23.8040804863
 10
-8.2796441694
 20
23.8033331801
 10
-8.2892964901
 20
23.8028934372
 10
-8.2994290267
 20
23.8027612575
 10
-8.3100891455
 20
23.8029387031
 10
-8.3212294803
 20
23.803423712
 10
-8.3327079322
 20
23.8042100976
 10
-8.3445288325
 20
23.8053017205
 10
-8.3566878498
 20
23.8066947202
 10
-8.3690298917
 20
23.8083713285
 10
-8.3815573028
 20
23.8103351783
 10
-8.3942677384
 20
23.8125826367
 10
-8.4069990726
 20
23.8150850365
 10
-8.4197515731
 20
23.8178456435
 10
-8.4325249721
 20
23.8208611919
 10
-8.4451563405
 20
23.8240932175
 10
-8.457643859
 20
23.8275444931
 10
-8.4699893469
 20
23.8312122458
 10
-8.4820353331
 20
23.8350496921
 10
-8.4937779812
 20
23.8390590058
 10
-8.5052211278
 20
23.8432380131
 10
-8.5162188114
 20
23.8475334093
 10
-8.5267223783
 20
23.8519274261
 10
-8.5367804823
 20
23.8564378319
 10
-8.5463931234
 20
23.8610646267
  0
LINE
  5
47F
100
AcDbEntity
  8
217
100
AcDbLine
 62
7
  6
CONTINUOUS
 10
-2.9617933483
 20
24.9678761205
 11
-4.1734037155
 21
24.9079807918
  0
LWPOLYLINE
  5
480
100
AcDbEntity
  8
217
100
AcDbPolyline
 62
250
  6
CONTINUOUS
 90
12
 70
0
 10
2.169906922
 20
23.9100988414
 10
2.1627599451
 20
23.9131636079
 10
2.1556274121
 20
23.9157255239
 10
2.1485288173
 20
23.9177775873
 10
2.1414835626
 20
23.9193141894
 10
2.1345109039
 20
23.9203311304
 10
2.1276298988
 20
23.9208256307
 10
2.1208593543
 20
23.9207963389
 10
2.1142177756
 20
23.920243335
 10
2.1077233153
 20
23.9191681304
 10
2.101393724
 20
23.9175736639
 10
2.0952532107
 20
23.9154669937
  0
LWPOLYLINE
  5
481
100
AcDbEntity
  8
217
100
AcDbPolyline
 62
250
  6
CONTINUOUS
 90
12
 70
0
 10
2.2563090947
 20
23.9086259924
 10
2.2503996337
 20
23.9111678212
 10
2.2438556744
 20
23.913305007
 10
2.2370759658
 20
23.9148682892
 10
2.2300814701
 20
23.9158529462
 10
2.222893693
 20
23.9162559923
 10
2.215533036
 20
23.9160760475
 10
2.2080243483
 20
23.9153134887
 10
2.2003968888
 20
23.9139719368
 10
2.1926766292
 20
23.9120574472
 10
2.1848858322
 20
23.9095770072
 10
1.0700308675
 20
23.4739653123
  0
LINE
  5
482
100
AcDbEntity
  8
RACCORDO
100
AcDbLine
 62
250
  6
CONTINUOUS
 10
3.1940444563
 20
24.4623385113
 11
4.2452314847
 21
23.9367449971
  0
LINE
  5
483
100
AcDbEntity
  8
RACCORDO
100
AcDbLine
 62
7
  6
CONTINUOUS
 10
3.3222400592
 20
24.4701806408
 11
4.3193844685
 21
23.9716084361
  0
LINE
  5
484
100
AcDbEntity
  8
DRAFT
100
AcDbLine
 62
7
  6
CONTINUOUS
 10
6.8410915729
 20
22.9322377227
 11
7.2786566396
 21
22.7134551893
  0
LINE
  5
485
100
AcDbEntity
  8
RACCORDO
100
AcDbLine
 62
250
  6
CONTINUOUS
 10
1.8724906139
 20
25.7642566952
 11
2.4233772049
 21
25.4888133997
  0
LINE
  5
486
100
AcDbEntity
  8
RACCORDO
100
AcDbLine
 62
7
  6
CONTINUOUS
 10
2.0669468082
 20
25.906828368
 11
2.9428133646
 21
25.4688950898
  0
LWPOLYLINE
  5
487
100
AcDbEntity
  8
RACCORDO
100
AcDbPolyline
 62
7
  6
CONTINUOUS
 90
14
 70
0
 10
2.0685300185
 20
25.9060457862
 10
2.0574864134
 20
25.9117448206
 10
2.0158287421
 20
25.9366927106
 10
1.9762507041
 20
25.966202681
 10
1.9395166938
 20
25.9999314467
 10
1.9066216521
 20
26.036987323
 10
1.8778581239
 20
26.0768716796
 10
1.8534156148
 20
26.11912871
 10
1.8337024053
 20
26.1626356435
 10
1.8186381988
 20
26.2068239422
 10
1.8080762152
 20
26.2511873728
 10
1.8018879744
 20
26.2946074501
 10
1.7996706039
 20
26.3366593192
 10
1.7996510896
 20
26.3409557864
  0
LWPOLYLINE
  5
488
100
AcDbEntity
  8
RACCORDO
100
AcDbPolyline
 62
250
  6
CONTINUOUS
 90
16
 70
0
 10
1.8724906139
 20
25.7642566952
 10
1.8349366023
 20
25.784807252
 10
1.7978614363
 20
25.8099080244
 10
1.7616711497
 20
25.8392841249
 10
1.7267621102
 20
25.872613818
 10
1.6935166053
 20
25.9095321145
 10
1.6622986683
 20
25.9496347926
 10
1.6334502043
 20
25.992482687
 10
1.6072871776
 20
26.037606554
 10
1.5840961035
 20
26.0845123098
 10
1.5641310093
 20
26.1326862743
 10
1.5476106023
 20
26.1816008515
 10
1.5347158477
 20
26.2307203982
 10
1.5255880352
 20
26.2795069662
 10
1.520327213
 20
26.3274261919
 10
1.5189910712
 20
26.3739532185
  0
LWPOLYLINE
  5
489
100
AcDbEntity
  8
RACCORDO
100
AcDbPolyline
 62
250
  6
CONTINUOUS
 90
7
 70
0
 10
27.8223198634
 20
14.7338804921
 10
27.8216468651
 20
14.7941763787
 10
27.8192732268
 20
14.8552364423
 10
27.8151981887
 20
14.916989772
 10
27.8094288752
 20
14.9793622199
 10
27.8019757494
 20
15.0422782649
 10
27.7928492842
 20
15.1056623778
  0
LWPOLYLINE
  5
48A
100
AcDbEntity
  8
RACCORDO
100
AcDbPolyline
 62
7
  6
CONTINUOUS
 90
8
 70
0
 10
28.1029811084
 20
15.0811911547
 10
28.1027872764
 20
15.1096183467
 10
28.1013343725
 20
15.1641016541
 10
28.0984684391
 20
15.218744876
 10
28.0942006162
 20
15.2735165331
 10
28.0885502461
 20
15.3283492659
 10
28.0815345438
 20
15.3832101583
 10
28.0755929696
 20
15.4230490905
  0
LINE
  5
48B
100
AcDbEntity
  8
RACCORDO
100
AcDbLine
 62
250
  6
CONTINUOUS
 10
27.822326364
 20
-16.3781028121
 11
27.822326364
 21
14.733877354
  0
LINE
  5
48C
100
AcDbEntity
  8
RACCORDO
100
AcDbLine
 62
7
  6
CONTINUOUS
 10
28.1029865636
 20
-16.0307736269
 11
28.1029865636
 21
15.0812065451
  0
LWPOLYLINE
  5
48D
100
AcDbEntity
  8
RACCORDO
100
AcDbPolyline
 62
7
  6
CONTINUOUS
 90
5
 70
0
 10
19.2753948551
 20
-21.5605272648
 10
19.3099365779
 20
-21.502211654
 10
19.3412529276
 20
-21.4404507351
 10
19.3694392106
 20
-21.3751066222
 10
19.3944954268
 20
-21.306179315
  0
LWPOLYLINE
  5
48E
100
AcDbEntity
  8
RACCORDO
100
AcDbPolyline
 62
250
  6
CONTINUOUS
 90
10
 70
0
 10
27.822326364
 20
-16.3781028121
 10
27.8795219536
 20
-16.3458104455
 10
27.9309381605
 20
-16.31117341
 10
27.9761923184
 20
-16.2744494926
 10
28.0149476222
 20
-16.2359120119
 10
28.0469156346
 20
-16.1958477839
 10
28.0718584329
 20
-16.1545549877
 10
28.0895903798
 20
-16.1123409458
 10
28.0999795048
 20
-16.0695198373
 10
28.1029865636
 20
-16.0307736269
  0
LWPOLYLINE
  5
48F
100
AcDbEntity
  8
RACCORDO
100
AcDbPolyline
 62
250
  6
CONTINUOUS
 90
7
 70
0
 10
19.394495706
 20
-21.3061795658
 10
20.7693700981
 20
-20.5569392411
 10
22.1541916492
 20
-19.8015655675
 10
23.5489562345
 20
-19.0400638833
 10
24.95365904
 20
-18.2724393412
 10
26.3682941859
 20
-17.4986967383
 10
27.7928560102
 20
-16.7188410934
  0
LINE
  5
490
100
AcDbEntity
  8
RACCORDO
100
AcDbLine
 62
7
  6
CONTINUOUS
 10
23.784248177
 20
-19.1101921164
 11
27.5611395943
 21
-17.082261308
  0
LWPOLYLINE
  5
491
100
AcDbEntity
  8
RACCORDO
100
AcDbPolyline
 62
7
  6
CONTINUOUS
 90
3
 70
0
 10
19.3037617379
 20
-21.5126364254
 10
20.0471298845
 20
-21.1143009898
 10
23.784248177
 20
-19.1101921164
  0
LINE
  5
492
100
AcDbEntity
  8
DRAFT
100
AcDbLine
 62
7
  6
CONTINUOUS
 10
15.0002626902
 20
-24.0317934339
 11
18.5907379118
 21
-22.1330909924
  0
LINE
  5
493
100
AcDbEntity
  8
RACCORDO
100
AcDbLine
 62
250
  6
CONTINUOUS
 10
15.0002626902
 20
-23.1324777981
 11
27.822326364
 21
-16.3781028121
  0
LINE
  5
494
100
AcDbEntity
  8
RACCORDO
100
AcDbLine
 62
250
  6
CONTINUOUS
 10
15.0002626902
 20
-23.931795734
 11
19.0588803445
 21
-21.7938071652
  0
LWPOLYLINE
  5
495
100
AcDbEntity
  8
217
100
AcDbPolyline
 62
250
  6
CONTINUOUS
 90
31
 70
0
 10
7.14116942
 20
-27.5778166518
 10
7.1316364853
 20
-27.5826287686
 10
7.1216636096
 20
-27.5871869704
 10
7.1112775244
 20
-27.5914790393
 10
7.1005060687
 20
-27.5954934707
 10
7.0893781146
 20
-27.5992195044
 10
7.0779234895
 20
-27.6026471529
 10
7.0661728967
 20
-27.6057672288
 10
7.0541578326
 20
-27.6085713689
 10
7.0419105027
 20
-27.6110520571
 10
7.0294637349
 20
-27.6132026439
 10
7.0168508917
 20
-27.615017365
 10
7.0041057807
 20
-27.6164913561
 10
6.9912625644
 20
-27.6176206663
 10
6.9783556677
 20
-27.6184022686
 10
6.9654196865
 20
-27.618834068
 10
6.9524892948
 20
-27.618914907
 10
6.9395991513
 20
-27.618644569
 10
6.926783807
 20
-27.6180237787
 10
6.9140776124
 20
-27.6170541999
 10
6.9015146254
 20
-27.6157384316
 10
6.88912852
 20
-27.6140800005
 10
6.8769524961
 20
-27.612083352
 10
6.8650191907
 20
-27.6097538379
 10
6.8533605898
 20
-27.6070977023
 10
6.8420079435
 20
-27.6041220647
 10
6.8309916815
 20
-27.6008349011
 10
6.8203413321
 20
-27.5972450224
 10
6.8100854426
 20
-27.5933620511
 10
6.8002515031
 20
-27.5891963951
 10
6.7908658727
 20
-27.58475922
  0
LINE
  5
496
100
AcDbEntity
  8
217
100
AcDbLine
 62
7
  6
CONTINUOUS
 10
17.8068380821
 20
-22.6118894948
 11
15.7201604331
 21
-23.6510996489
  0
LINE
  5
497
100
AcDbEntity
  8
RACCORDO
100
AcDbLine
 62
7
  6
CONTINUOUS
 10
-10.1334355119
 20
24.6545858209
 11
-8.7410819628
 21
24.7966842285
  0
LINE
  5
498
100
AcDbEntity
  8
RACCORDO
100
AcDbLine
 62
7
  6
CONTINUOUS
 10
-10.6039244426
 20
24.9708066752
 11
-8.6536787579
 21
25.1698414723
  0
LINE
  5
499
100
AcDbEntity
  8
RACCORDO
100
AcDbLine
 62
7
  6
CONTINUOUS
 10
-10.3507350328
 20
26.0183696097
 11
-12.3009807175
 21
25.8193348126
  0
LINE
  5
49A
100
AcDbEntity
  8
RACCORDO
100
AcDbLine
 62
7
  6
CONTINUOUS
 10
-14.1639441646
 20
26.6698401473
 11
-12.7715906156
 21
26.8119385548
  0
LINE
  5
49B
100
AcDbEntity
  8
RACCORDO
100
AcDbLine
 62
7
  6
CONTINUOUS
 10
-8.3143805733
 20
27.3117734257
 11
-9.649330288
 21
27.1755334393
  0
LWPOLYLINE
  5
49C
100
AcDbEntity
  8
RACCORDO
100
AcDbPolyline
 62
7
  6
CONTINUOUS
 90
25
 70
0
 10
-8.6536787579
 20
25.1698414723
 10
-8.6445066533
 20
25.1705887785
 10
-8.6348543326
 20
25.1710285214
 10
-8.624721796
 20
25.1711607011
 10
-8.6140616771
 20
25.1709832555
 10
-8.6029213423
 20
25.1704982466
 10
-8.5914428904
 20
25.169711861
 10
-8.5796219902
 20
25.1686202381
 10
-8.5674629729
 20
25.1672272384
 10
-8.555120931
 20
25.1655506301
 10
-8.5425935199
 20
25.1635867803
 10
-8.5298830843
 20
25.1613393219
 10
-8.5171517501
 20
25.1588369221
 10
-8.5043992496
 20
25.1560763151
 10
-8.4916258506
 20
25.1530607666
 10
-8.4789944821
 20
25.1498287411
 10
-8.4665069637
 20
25.1463774655
 10
-8.4541614758
 20
25.1427097128
 10
-8.4421154896
 20
25.1388722665
 10
-8.4303728414
 20
25.1348629528
 10
-8.4189296949
 20
25.1306839455
 10
-8.4079320113
 20
25.1263885493
 10
-8.3974284444
 20
25.1219945324
 10
-8.3873703404
 20
25.1174841266
 10
-8.3777576993
 20
25.1128573319
  0
LWPOLYLINE
  5
49D
100
AcDbEntity
  8
RACCORDO
100
AcDbPolyline
 62
7
  6
CONTINUOUS
 90
25
 70
0
 10
-12.3009807175
 20
25.8193348126
 10
-12.3101528222
 20
25.8185875065
 10
-12.3198051428
 20
25.8181477636
 10
-12.3299376794
 20
25.8180155838
 10
-12.3405977983
 20
25.8181930295
 10
-12.3517381331
 20
25.8186780383
 10
-12.363216585
 20
25.819464424
 10
-12.3750374852
 20
25.8205560469
 10
-12.3871965026
 20
25.8219490466
 10
-12.3995385445
 20
25.8236256549
 10
-12.4120659555
 20
25.8255895047
 10
-12.4247763912
 20
25.827836963
 10
-12.4375077254
 20
25.8303393629
 10
-12.4502602258
 20
25.8330999699
 10
-12.4630336249
 20
25.8361155183
 10
-12.4756649933
 20
25.8393475438
 10
-12.4881525118
 20
25.8427988195
 10
-12.5004979996
 20
25.8464665722
 10
-12.5125439859
 20
25.8503040185
 10
-12.524286634
 20
25.8543133322
 10
-12.5357297805
 20
25.8584923394
 10
-12.5467274641
 20
25.8627877356
 10
-12.557231031
 20
25.8671817525
 10
-12.567289135
 20
25.8716921583
 10
-12.5769017761
 20
25.876318953
  0
LWPOLYLINE
  5
49E
100
AcDbEntity
  8
RACCORDO
100
AcDbPolyline
 62
7
  6
CONTINUOUS
 90
25
 70
0
 10
-9.649330288
 20
27.1755334393
 10
-9.6585023927
 20
27.1747861331
 10
-9.6681547134
 20
27.1743463902
 10
-9.67828725
 20
27.1742142105
 10
-9.6889473688
 20
27.1743916561
 10
-9.7000877036
 20
27.174876665
 10
-9.7115661556
 20
27.1756630506
 10
-9.7233870558
 20
27.1767546735
 10
-9.7355460731
 20
27.1781476733
 10
-9.747888115
 20
27.1798242815
 10
-9.7604155261
 20
27.1817881313
 10
-9.7731259617
 20
27.1840355897
 10
-9.7858572959
 20
27.1865379895
 10
-9.7986097964
 20
27.1892985965
 10
-9.8113831954
 20
27.192314145
 10
-9.8240145638
 20
27.1955461705
 10
-9.8365020823
 20
27.1989974461
 10
-9.8488475702
 20
27.2026651988
 10
-9.8608935564
 20
27.2065026451
 10
-9.8726362045
 20
27.2105119588
 10
-9.8840793511
 20
27.2146909661
 10
-9.8950770347
 20
27.2189863623
 10
-9.9055806016
 20
27.2233803792
 10
-9.9156387056
 20
27.227890785
 10
-9.9252513467
 20
27.2325175797
  0
LWPOLYLINE
  5
49F
100
AcDbEntity
  8
RACCORDO
100
AcDbPolyline
 62
7
  6
CONTINUOUS
 90
25
 70
0
 10
-12.6841874107
 20
27.1850957987
 10
-12.675015306
 20
27.1858431048
 10
-12.6653629854
 20
27.1862828478
 10
-12.6552304488
 20
27.1864150275
 10
-12.6445703299
 20
27.1862375819
 10
-12.6334299951
 20
27.185752573
 10
-12.6219515432
 20
27.1849661874
 10
-12.610130643
 20
27.1838745644
 10
-12.5979716256
 20
27.1824815647
 10
-12.5856295837
 20
27.1808049565
 10
-12.5731021727
 20
27.1788411067
 10
-12.560391737
 20
27.1765936483
 10
-12.5476604028
 20
27.1740912485
 10
-12.5349079024
 20
27.1713306415
 10
-12.5221345033
 20
27.168315093
 10
-12.5095031349
 20
27.1650830675
 10
-12.4970156165
 20
27.1616317919
 10
-12.4846701286
 20
27.1579640392
 10
-12.4726241423
 20
27.1541265928
 10
-12.4608814942
 20
27.1501172792
 10
-12.4494383477
 20
27.1459382719
 10
-12.4384406641
 20
27.1416428757
 10
-12.4279370972
 20
27.1372488588
 10
-12.4178789932
 20
27.132738453
 10
-12.4082663521
 20
27.1281116583
  0
LINE
  5
4A0
100
AcDbEntity
  8
217
100
AcDbLine
 62
7
  6
CONTINUOUS
 10
-8.6032188203
 20
27.7885888565
 11
-9.7938650121
 21
27.7182114401
  0
LWPOLYLINE
  5
4A1
100
AcDbEntity
  8
0
100
AcDbPolyline
 62
7
  6
CONTINUOUS
 90
7
 70
0
 10
-8.2281950718
 20
27.3118029854
 10
-8.2421436145
 20
27.3130504654
 10
-8.2562584402
 20
27.3137969827
 10
-8.2705395489
 20
27.3140425374
 10
-8.2849869406
 20
27.3137871295
 10
-8.2996006155
 20
27.3130307589
 10
-8.3143805733
 20
27.3117734257
  0
LWPOLYLINE
  5
4A2
100
AcDbEntity
  8
RACCORDO
100
AcDbPolyline
 62
250
  6
CONTINUOUS
 90
9
 70
0
 10
-2.1555621789
 20
31.0066488028
 10
-2.191528337
 20
31.0223399575
 10
-2.2426669459
 20
31.0375819718
 10
-2.2965190926
 20
31.0459317402
 10
-2.352655385
 20
31.0473166933
 10
-2.4105655156
 20
31.0417407157
 10
-2.4697800148
 20
31.0292860369
 10
-2.5298844004
 20
31.0100759078
 10
-2.5904314163
 20
30.9842836517
  0
LINE
  5
4A3
100
AcDbEntity
  8
RACCORDO
100
AcDbLine
 62
250
  6
CONTINUOUS
 10
-2.5904314163
 20
30.9842836517
 11
0.8119919858
 21
29.2830719506
  0
LINE
  5
4A4
100
AcDbEntity
  8
RACCORDO
100
AcDbLine
 62
250
  6
CONTINUOUS
 10
27.1002053333
 20
16.1389652769
 11
15.3627098493
 21
22.0077130189
  0
LINE
  5
4A5
100
AcDbEntity
  8
RACCORDO
100
AcDbLine
 62
7
  6
CONTINUOUS
 10
-2.1555585358
 20
31.0066469813
 11
1.2468648664
 21
29.3054352802
  0
LINE
  5
4A6
100
AcDbEntity
  8
RACCORDO
100
AcDbLine
 62
7
  6
CONTINUOUS
 10
27.5350781354
 20
16.1613286457
 11
15.7938190011
 21
22.0319582128
  0
LINE
  5
4A7
100
AcDbEntity
  8
RACCORDO
100
AcDbLine
 62
250
  6
CONTINUOUS
 10
10.5820326027
 20
24.787772052
 11
13.7840911594
 21
23.1867427736
  0
LINE
  5
4A8
100
AcDbEntity
  8
RACCORDO
100
AcDbLine
 62
7
  6
CONTINUOUS
 10
10.7956993798
 20
24.8008385484
 11
13.9075139395
 21
23.2449312686
  0
LINE
  5
4A9
100
AcDbEntity
  8
0
100
AcDbLine
 62
250
  6
CONTINUOUS
 10
15.3627098493
 20
23.1335460438
 11
14.5418322151
 21
23.5439848609
  0
LINE
  5
4AA
100
AcDbEntity
  8
0
100
AcDbLine
 62
250
  6
CONTINUOUS
 10
9.9679417018
 20
25.8309301175
 11
9.1470640676
 21
26.2413689346
  0
LINE
  5
4AB
100
AcDbEntity
  8
RACCORDO
100
AcDbLine
 62
7
  6
CONTINUOUS
 10
15.7938190011
 20
23.1577912378
 11
14.890688222
 21
23.6093566273
  0
LINE
  5
4AC
100
AcDbEntity
  8
RACCORDO
100
AcDbLine
 62
7
  6
CONTINUOUS
 10
10.488831456
 20
25.8102850103
 11
9.5857006769
 21
26.2618503999
  0
LWPOLYLINE
  5
4AD
100
AcDbEntity
  8
RACCORDO
100
AcDbPolyline
 62
250
  6
CONTINUOUS
 90
19
 70
0
 10
0.8119919858
 20
29.2830719506
 10
0.8747262052
 20
29.249407302
 10
0.9368882395
 20
29.2093436264
 10
0.9980036391
 20
29.1631864551
 10
1.0576061492
 20
29.111287626
 10
1.1152405442
 20
29.0540432193
 10
1.1704661898
 20
28.9918907467
 10
1.2228651847
 20
28.9252997042
 10
1.2720335054
 20
28.8547826774
 10
1.317585967
 20
28.7808949786
 10
1.35917157
 20
28.7042142601
 10
1.3964831792
 20
28.6253159625
 10
1.4292463386
 20
28.5447842015
 10
1.4572352611
 20
28.4631558324
 10
1.4802032492
 20
28.3811290885
 10
1.4979357402
 20
28.2995411052
 10
1.5103302625
 20
28.2190767523
 10
1.5173523144
 20
28.1402633836
 10
1.5189910712
 20
28.063678904
  0
LWPOLYLINE
  5
4AE
100
AcDbEntity
  8
RACCORDO
100
AcDbPolyline
 62
7
  6
CONTINUOUS
 90
13
 70
0
 10
27.5350781354
 20
16.1613286457
 10
27.6065352565
 20
16.121875309
 10
27.6749424752
 20
16.0764317142
 10
27.7396704351
 20
16.0252872899
 10
27.7999657865
 20
15.9689782345
 10
27.8554810598
 20
15.9078108457
 10
27.9061461959
 20
15.8417189313
 10
27.9515312956
 20
15.7709646622
 10
27.9909801025
 20
15.6962990004
 10
28.0240761614
 20
15.6183382198
 10
28.050492893
 20
15.5377272845
 10
28.0699889635
 20
15.45513427
 10
28.0755459876
 20
15.4233793068
  0
LWPOLYLINE
  5
4AF
100
AcDbEntity
  8
RACCORDO
100
AcDbPolyline
 62
250
  6
CONTINUOUS
 90
7
 70
0
 10
27.7928495005
 20
-16.7188362101
 10
27.801975667
 20
-16.6647644925
 10
27.8094285472
 20
-16.6095180552
 10
27.8151978564
 20
-16.5531620901
 10
27.819273309
 20
-16.4957617852
 10
27.8216472356
 20
-16.4373838574
 10
27.8223201358
 20
-16.3780998053
  0
LWPOLYLINE
  5
4B0
100
AcDbEntity
  8
RACCORDO
100
AcDbPolyline
 62
7
  6
CONTINUOUS
 90
9
 70
0
 10
28.0706902701
 20
-16.385847929
 10
28.0732606796
 20
-16.3718494963
 10
28.0814410268
 20
-16.3223916483
 10
28.0883335779
 20
-16.2722617608
 10
28.0939214223
 20
-16.2214851879
 10
28.098186233
 20
-16.1701039756
 10
28.1011122653
 20
-16.1181400285
 10
28.1026874288
 20
-16.0655991761
 10
28.1029813377
 20
-16.0307679396
  0
LWPOLYLINE
  5
4B1
100
AcDbEntity
  8
RACCORDO
100
AcDbPolyline
 62
7
  6
CONTINUOUS
 90
13
 70
0
 10
28.0706917035
 20
-16.3858750163
 10
28.0544517531
 20
-16.4576837833
 10
28.0326245114
 20
-16.5291091702
 10
28.0051435187
 20
-16.5995917636
 10
27.9719491044
 20
-16.6686734563
 10
27.9331713288
 20
-16.7356277351
 10
27.8891904641
 20
-16.7995745381
 10
27.8402671574
 20
-16.860050001
 10
27.7867227334
 20
-16.9166067651
 10
27.7291507655
 20
-16.9686482695
 10
27.6678909461
 20
-17.0159441793
 10
27.6033219532
 20
-17.0582617148
 10
27.5611917651
 20
-17.0822331924
  0
LWPOLYLINE
  5
4B2
100
AcDbEntity
  8
RACCORDO
100
AcDbPolyline
 62
7
  6
CONTINUOUS
 90
6
 70
0
 10
19.0588803445
 20
-21.7938071652
 10
19.1078334204
 20
-21.7552000445
 10
19.1539423481
 20
-21.7125960714
 10
19.1972071278
 20
-21.6659952457
 10
19.2377230655
 20
-21.6152596815
 10
19.2753948551
 20
-21.5605272648
  0
LINE
  5
4B3
100
AcDbEntity
  8
RACCORDO
100
AcDbLine
 62
7
  6
CONTINUOUS
 10
18.5907379118
 20
-22.1330909924
 11
19.0588803445
 21
-21.7938071652
  0
LWPOLYLINE
  5
4B4
100
AcDbEntity
  8
RACCORDO
100
AcDbPolyline
 62
250
  6
CONTINUOUS
 90
8
 70
0
 10
27.5742175462
 20
-17.0748867321
 10
27.6201690226
 20
-17.0429931548
 10
27.6620972044
 20
-17.0038847265
 10
27.6987602395
 20
-16.9583460258
 10
27.7302445057
 20
-16.9069862136
 10
27.7567687381
 20
-16.8500415042
 10
27.7778372174
 20
-16.7873973797
 10
27.792855927
 20
-16.718841075
  0
LWPOLYLINE
  5
4B5
100
AcDbEntity
  8
RACCORDO
100
AcDbPolyline
 62
250
  6
CONTINUOUS
 90
9
 70
0
 10
27.792855927
 20
-16.718841075
 10
27.8500210833
 20
-16.6856342688
 10
27.90152198
 20
-16.6488282916
 10
27.9469758683
 20
-16.6086966813
 10
27.9860449401
 20
-16.5655376913
 10
28.0184388387
 20
-16.5196720741
 10
28.0439168162
 20
-16.4714406978
 10
28.062289524
 20
-16.4212020098
 10
28.0706917035
 20
-16.3858750163
  0
LINE
  5
4B6
100
AcDbEntity
  8
217
100
AcDbLine
 62
7
  6
CONTINUOUS
 10
19.156287926
 20
-23.9739546937
 11
15.0002626902
 21
-26.080590244
  0
LINE
  5
4B7
100
AcDbEntity
  8
217
100
AcDbLine
 62
7
  6
CONTINUOUS
 10
9.7811156837
 20
-28.0778225296
 11
9.9641170584
 21
-27.9856162556
  0
LINE
  5
4B8
100
AcDbEntity
  8
RACCORDO
100
AcDbLine
 62
7
  6
CONTINUOUS
 10
-14.6344330954
 20
26.9860610016
 11
-12.6841874107
 21
27.1850957987
  0
LINE
  5
4B9
100
AcDbEntity
  8
0
100
AcDbLine
 62
7
  6
CONTINUOUS
 10
-16.0201760096
 20
27.4832143559
 11
-11.3748202481
 21
27.9573020304
  0
LINE
  5
4BA
100
AcDbEntity
  8
217
100
AcDbLine
 62
7
  6
CONTINUOUS
 10
-9.8378415537
 20
28.5880901295
 11
-11.3676964071
 21
28.5051271377
  0
LWPOLYLINE
  5
4BB
100
AcDbEntity
  8
217
100
AcDbPolyline
 62
7
  6
CONTINUOUS
 90
10
 70
0
 10
-9.8378415537
 20
28.5880901295
 10
-9.8182555336
 20
28.5886412902
 10
-9.7990134668
 20
28.5881705073
 10
-9.7801153534
 20
28.5866777807
 10
-9.7615362594
 20
28.584158268
 10
-9.7433011187
 20
28.5806168117
 10
-9.7254847333
 20
28.576067939
 10
-9.7080888232
 20
28.5705075118
 10
-9.6911116684
 20
28.5639396683
 10
-9.6735485625
 20
28.5558568459
  0
LWPOLYLINE
  5
4BC
100
AcDbEntity
  8
RACCORDO
100
AcDbPolyline
 62
250
  6
CONTINUOUS
 90
16
 70
0
 10
27.792855927
 20
15.1056607614
 10
27.7769130293
 20
15.1896270698
 10
27.756140682
 20
15.2750206457
 10
27.7302445046
 20
15.3607513221
 10
27.6985700048
 20
15.44532549
 10
27.6614850598
 20
15.5280174597
 10
27.6201690209
 20
15.6089075266
 10
27.5743253853
 20
15.6871327757
 10
27.5240243646
 20
15.761483995
 10
27.470762713
 20
15.8317936489
 10
27.4141758127
 20
15.8978729561
 10
27.3542750905
 20
15.9585114324
 10
27.2930648883
 20
16.012941112
 10
27.2310178359
 20
16.0612147427
 10
27.1669475114
 20
16.1033476924
 10
27.1002052549
 20
16.1389653161
  0
LINE
  5
4BD
100
AcDbEntity
  8
RACCORDO
100
AcDbLine
 62
7
  6
CONTINUOUS
 10
28.0755557997
 20
15.4233174829
 11
28.0755459876
 21
15.4233793068
  0
LINE
  5
4BE
100
AcDbEntity
  8
217
100
AcDbLine
 62
7
  6
CONTINUOUS
 10
19.156287926
 20
-25.1533215078
 11
17.8241106649
 21
-25.9490190502
  0
LINE
  5
4BF
100
AcDbEntity
  8
217
100
AcDbLine
 62
7
  6
CONTINUOUS
 10
15.0002626902
 20
-27.3496684633
 11
17.8241106649
 21
-25.9490190502
  0
LWPOLYLINE
  5
4C0
100
AcDbEntity
  8
217
100
AcDbPolyline
 62
7
  6
CONTINUOUS
 90
14
 70
0
 10
13.1606919928
 20
-29.4965774434
 10
13.1862596458
 20
-29.4843130034
 10
13.2152050752
 20
-29.4692474275
 10
13.2444828195
 20
-29.452748056
 10
13.2738890438
 20
-29.4349314646
 10
13.3033607636
 20
-29.4157600671
 10
13.3328425224
 20
-29.3952328302
 10
13.3621493452
 20
-29.3735361394
 10
13.3912065027
 20
-29.3506550998
 10
13.419966283
 20
-29.3265857238
 10
13.4482929096
 20
-29.3015429775
 10
13.4761021373
 20
-29.2755990794
 10
13.5033553034
 20
-29.2486791872
 10
13.5299881088
 20
-29.2207837461
  0
LWPOLYLINE
  5
4C1
100
AcDbEntity
  8
217
100
AcDbPolyline
 62
250
  6
CONTINUOUS
 90
19
 70
0
 10
13.4611619771
 20
-30.7022096803
 10
13.4631990327
 20
-30.7012382184
 10
13.4702170284
 20
-30.697404774
 10
13.4769229713
 20
-30.6929626655
 10
13.4832984879
 20
-30.6879240635
 10
13.4893261101
 20
-30.682302773
 10
13.494989323
 20
-30.6761141957
 10
13.5002726099
 20
-30.6693752873
 10
13.5051614953
 20
-30.6621045115
 10
13.5096425843
 20
-30.6543217892
 10
13.5137035991
 20
-30.646048444
 10
13.5173334131
 20
-30.6373071438
 10
13.5205220809
 20
-30.6281218386
 10
13.523260866
 20
-30.618517695
 10
13.5255422644
 20
-30.608521027
 10
13.5273600254
 20
-30.5981592243
 10
13.5287091684
 20
-30.5874606769
 10
13.529585997
 20
-30.5764546974
 10
13.5299881088
 20
-30.5651714407
  0
LINE
  5
4C2
100
AcDbEntity
  8
217
100
AcDbLine
 62
7
  6
CONTINUOUS
 10
9.7122707686
 20
-31.0891841822
 11
13.1615569261
 21
-29.4961895293
  0
LINE
  5
4C3
100
AcDbEntity
  8
217
100
AcDbLine
 62
250
  6
CONTINUOUS
 10
15.0002626902
 20
-29.8861499158
 11
13.5299881088
 21
-30.5651714407
  0
LINE
  5
4C4
100
AcDbEntity
  8
217
100
AcDbLine
 62
7
  6
CONTINUOUS
 10
14.9326756076
 20
-30.022615924
 11
13.4611431935
 21
-30.7022183577
  0
LWPOLYLINE
  5
4C5
100
AcDbEntity
  8
217
100
AcDbPolyline
 62
250
  6
CONTINUOUS
 90
31
 70
0
 10
13.5299881088
 20
-29.2207837461
 10
9.7715755886
 20
-30.9565107619
 10
9.7615955787
 20
-30.9606315235
 10
9.7512024041
 20
-30.964488505
 10
9.7404239224
 20
-30.9680713682
 10
9.7292890239
 20
-30.9713705096
 10
9.7178275543
 20
-30.9743770865
 10
9.7060702346
 20
-30.97708304
 10
9.6940485789
 20
-30.9794811172
 10
9.6817948096
 20
-30.9815648902
 10
9.6693417714
 20
-30.9833287739
 10
9.6567228432
 20
-30.9847680404
 10
9.6439718482
 20
-30.9858788319
 10
9.631122964
 20
-30.9866581711
 10
9.6182106304
 20
-30.9871039689
 10
9.6052694572
 20
-30.9872150307
 10
9.5923341316
 20
-30.9869910586
 10
9.5794393251
 20
-30.9864326529
 10
9.5666196005
 20
-30.9855413105
 10
9.5539093196
 20
-30.9843194204
 10
9.5413425506
 20
-30.9827702578
 10
9.5289529771
 20
-30.980897975
 10
9.5167738078
 20
-30.9787075904
 10
9.5048376875
 20
-30.9762049751
 10
9.4931766093
 20
-30.973396837
 10
9.4818218294
 20
-30.9702907029
 10
9.4708037827
 20
-30.9668948985
 10
9.4601520017
 20
-30.9632185258
 10
9.4498950373
 20
-30.9592714388
 10
9.4400603818
 20
-30.9550642172
 10
9.4306743958
 20
-30.9506081379
  0
LWPOLYLINE
  5
4C6
100
AcDbEntity
  8
217
100
AcDbPolyline
 62
250
  6
CONTINUOUS
 90
64
 70
0
 10
13.5299881088
 20
-30.5651714407
 10
13.5035571074
 20
-30.5770618723
 10
13.4762331429
 20
-30.5884553371
 10
13.4480538858
 20
-30.599335654
 10
13.4190586933
 20
-30.6096866292
 10
13.3892870336
 20
-30.6194942681
 10
13.358778298
 20
-30.6287466977
 10
13.3275735486
 20
-30.637430853
 10
13.2957164812
 20
-30.6455339425
 10
13.2632518112
 20
-30.6530456451
 10
13.2302245107
 20
-30.6599550775
 10
13.1966797284
 20
-30.6662522778
 10
13.1626636588
 20
-30.6719296122
 10
13.1282233065
 20
-30.6769787837
 10
13.0934058511
 20
-30.681392379
 10
13.0582586056
 20
-30.6851653686
 10
13.0228295427
 20
-30.6882921365
 10
12.9871677437
 20
-30.6907678287
 10
12.951322758
 20
-30.6925899033
 10
12.9153440902
 20
-30.693755463
 10
12.8792810314
 20
-30.6942624647
 10
12.8431830942
 20
-30.6941110432
 10
12.8070998411
 20
-30.6933010587
 10
12.7710809869
 20
-30.6918332054
 10
12.7351762384
 20
-30.6897102535
 10
12.6994351538
 20
-30.6869348527
 10
12.6639067024
 20
-30.6835104442
 10
12.6286393745
 20
-30.6794423433
 10
12.5936814652
 20
-30.6747358621
 10
12.5590812686
 20
-30.6693971562
 10
12.5248866337
 20
-30.6634341421
 10
12.4911447291
 20
-30.6568548709
 10
12.4579018
 20
-30.6496680924
 10
12.4252033756
 20
-30.6418840733
 10
12.3930943284
 20
-30.6335133614
 10
12.3616189172
 20
-30.6245672623
 10
12.330820537
 20
-30.6150584152
 10
12.3007416115
 20
-30.6049998593
 10
12.2714234199
 20
-30.5944052397
 10
12.2429061593
 20
-30.5832892661
 10
12.2152290085
 20
-30.5716671992
 10
12.1884300743
 20
-30.5595549272
 10
12.1625462226
 20
-30.5469691686
 10
12.1376130511
 20
-30.5339272867
 10
12.1136648482
 20
-30.5204471677
 10
12.0907345545
 20
-30.5065472871
 10
12.0688537342
 20
-30.492246897
 10
12.0480524449
 20
-30.477565658
 10
12.028359216
 20
-30.4625235106
 10
12.009801098
 20
-30.4471412738
 10
11.9924036772
 20
-30.431440211
 10
11.976190949
 20
-30.4154416601
 10
11.9611852551
 20
-30.3991679071
 10
11.9474071815
 20
-30.3826414207
 10
11.9348756108
 20
-30.3658844083
 10
11.9236077519
 20
-30.3489201243
 10
11.913619182
 20
-30.3317721661
 10
11.9049237235
 20
-30.3144637118
 10
11.8975333692
 20
-30.297019016
 10
11.8914582172
 20
-30.2794622171
 10
11.8867065701
 20
-30.2618166266
 10
11.8832849832
 20
-30.2441068022
 10
11.8811982268
 20
-30.2263575013
 10
11.8804468378
 20
-30.2075357188
  0
ELLIPSE
  5
4C7
100
AcDbEntity
  8
0
100
AcDbEllipse
 62
7
  6
CONTINUOUS
 10
8.2599975611
 20
22.7754155411
 30
0.0
 11
3.1924773487
 21
-0.0447601796
 31
0.0
 40
0.4892378494
 41
-1.7859212711
 42
-0.7859403793
  0
ELLIPSE
  5
4C8
100
AcDbEntity
  8
DRAFT
100
AcDbEllipse
 62
7
  6
CONTINUOUS
 10
9.2373424235
 20
21.7341122974
 30
0.0
 11
2.7699345329
 21
-0.0389263939
 31
0.0
 40
0.4892375088
 41
0.4131434334
 42
2.3630697256
  0
ELLIPSE
  5
4C9
100
AcDbEntity
  8
RACCORDO
100
AcDbEllipse
 62
7
  6
CONTINUOUS
 10
9.1346156569
 20
25.3693589211
 30
0.0
 11
0.4535199836
 21
0.8912633791
 31
0.0
 40
0.6176975122
 41
0.0042494192
 42
0.671624092
  0
ELLIPSE
  5
4CA
100
AcDbEntity
  8
0
100
AcDbEllipse
 62
7
  6
CONTINUOUS
 10
10.228587856
 20
24.8223728216
 30
0.0
 11
0.4349639225
 21
0.9005141702
 31
0.0
 40
0.6016116119
 41
-0.8943064336
 42
-0.5560969278
  0
ELLIPSE
  5
4CB
100
AcDbEntity
  8
0
100
AcDbEllipse
 62
7
  6
CONTINUOUS
 10
14.1210278017
 20
22.8761528487
 30
0.0
 11
0.8008611109
 21
0.7100037797
 31
0.0
 40
0.2918786833
 41
0.1175142821
 42
0.7839282561
  0
ELLIPSE
  5
4CC
100
AcDbEntity
  8
0
100
AcDbEllipse
 62
7
  6
CONTINUOUS
 10
8.2827482689
 20
21.710235237
 30
0.0
 11
2.7499350056
 21
-0.0386453369
 31
0.0
 40
0.4892375088
 41
2.3805230181
 42
2.8057863962
  0
ELLIPSE
  5
4CD
100
AcDbEntity
  8
RACCORDO
100
AcDbEllipse
 62
7
  6
CONTINUOUS
 10
2.7040719337
 20
24.4702318165
 30
0.0
 11
0.4349639225
 21
0.9005141702
 31
0.0
 40
0.6016116119
 41
-0.8943064336
 42
-0.6077015194
  0
ELLIPSE
  5
4CE
100
AcDbEntity
  8
RACCORDO
100
AcDbEllipse
 62
7
  6
CONTINUOUS
 10
2.8195001884
 20
24.4125176891
 30
0.0
 11
-0.3067168502
 21
1.1100869106
 31
0.0
 40
0.6713087359
 41
5.1398651574
 42
6.4066032775
  0
ELLIPSE
  5
4CF
100
AcDbEntity
  8
RACCORDO
100
AcDbEllipse
 62
7
  6
CONTINUOUS
 10
15.3504768301
 20
22.2614283345
 30
0.0
 11
0.4410298232
 21
0.8975092442
 31
0.0
 40
0.607010042
 41
5.3929141747
 42
6.946257209
  0
ELLIPSE
  5
4D0
100
AcDbEntity
  8
RACCORDO
100
AcDbEllipse
 62
7
  6
CONTINUOUS
 10
15.3504768301
 20
21.1355953096
 30
0.0
 11
0.4410298232
 21
0.8975092442
 31
0.0
 40
0.607010042
 41
-0.004302771
 42
0.6630719018
  0
ELLIPSE
  5
4D1
100
AcDbEntity
  8
0
100
AcDbEllipse
 62
7
  6
CONTINUOUS
 10
10.3640646853
 20
24.7546344069
 30
0.0
 11
-0.3067168502
 21
1.1100869106
 31
0.0
 40
0.6713087359
 41
5.191469749
 42
6.4066032775
  0
ELLIPSE
  5
4D2
100
AcDbEntity
  8
0
100
AcDbEllipse
 62
7
  6
CONTINUOUS
 10
8.2599975611
 20
22.7754155411
 30
0.0
 11
3.1924773487
 21
-0.0447601796
 31
0.0
 40
0.4892378494
 41
2.3704044426
 42
3.3718926333
  0
ELLIPSE
  5
4D3
100
AcDbEntity
  8
RACCORDO
100
AcDbEllipse
 62
7
  6
CONTINUOUS
 10
10.5759699492
 20
24.3516862693
 30
0.0
 11
0.2174819613
 21
0.4502570851
 31
0.0
 40
0.6016116119
 41
-0.0077858765
 42
0.6590366007
  0
ELLIPSE
  5
4D4
100
AcDbEntity
  8
RACCORDO
100
AcDbEllipse
 62
7
  6
CONTINUOUS
 10
3.1904068642
 20
24.2006870417
 30
0.0
 11
0.1304891768
 21
0.2701542511
 31
0.0
 40
0.6016116119
 41
-0.0081904995
 42
0.6590366007
  0
ELLIPSE
  5
4D5
100
AcDbEntity
  8
217
100
AcDbEllipse
 62
7
  6
CONTINUOUS
 10
18.4369481257
 20
-24.8069565984
 30
0.0
 11
0.9995622574
 21
0.0550003223
 31
0.0
 40
0.537912504
 41
-0.7975345496
 42
-0.0295738954
  0
ELLIPSE
  5
4D6
100
AcDbEntity
  8
217
100
AcDbEllipse
 62
7
  6
CONTINUOUS
 10
18.4369481257
 20
12.958188648
 30
0.0
 11
0.9999934239
 21
0.0071767279
 31
0.0
 40
0.5053247124
 41
-0.7715714568
 42
-0.0036126509
  0
ELLIPSE
  5
4D7
100
AcDbEntity
  8
217
100
AcDbEllipse
 62
7
  6
CONTINUOUS
 10
-25.0738917411
 20
21.9229457636
 30
0.0
 11
0.2499940914
 21
-0.0035132124
 31
0.0
 40
0.4892375088
 41
-3.134742287
 42
-2.3493192548
  0
ELLIPSE
  5
4D8
100
AcDbEntity
  8
217
100
AcDbEllipse
 62
7
  6
CONTINUOUS
 10
9.6074510911
 20
4.5822743475
 30
0.0
 11
0.2499940914
 21
-0.0035132124
 31
0.0
 40
0.4892375088
 41
-2.3493192548
 42
-0.7959762205
  0
ELLIPSE
  5
4D9
100
AcDbEntity
  8
217
100
AcDbEllipse
 62
7
  6
CONTINUOUS
 10
17.6743097211
 20
14.599008145
 30
0.0
 11
0.3528238586
 21
0.7180073954
 31
0.0
 40
0.607010042
 41
-0.8799729566
 42
-0.0596047805
  0
ELLIPSE
  5
4DA
100
AcDbEntity
  8
217
100
AcDbEllipse
 62
7
  6
CONTINUOUS
 10
13.7628325544
 20
11.9594710047
 30
0.0
 11
-0.1118058166
 21
0.2236562478
 31
0.0
 40
0.6122670695
 41
-0.6845534703
 42
0.0147413084
  0
ELLIPSE
  5
4DB
100
AcDbEntity
  8
217
100
AcDbEllipse
 62
7
  6
CONTINUOUS
 10
-20.0368513896
 20
28.8593129767
 30
0.0
 11
-0.1118504554
 21
0.2236675568
 31
0.0
 40
0.6121897086
 41
-0.6846338794
 42
0.0190161684
  0
ELLIPSE
  5
4DC
100
AcDbEntity
  8
217
100
AcDbEllipse
 62
7
  6
CONTINUOUS
 10
15.4167854456
 20
15.7751668003
 30
0.0
 11
0.9980068092
 21
-0.2399287748
 31
0.0
 40
0.2630210944
 41
1.9259507046
 42
2.410616134
  0
ELLIPSE
  5
4DD
100
AcDbEntity
  8
217
100
AcDbEllipse
 62
7
  6
CONTINUOUS
 10
-2.260884084
 20
24.6140015651
 30
0.0
 11
0.9980068092
 21
-0.2399287748
 31
0.0
 40
0.2630210944
 41
1.9259507046
 42
2.410616134
  0
ELLIPSE
  5
4DE
100
AcDbEntity
  8
217
100
AcDbEllipse
 62
7
  6
CONTINUOUS
 10
-4.4659007687
 20
24.3803383013
 30
0.0
 11
0.0907039967
 21
0.1782526758
 31
0.0
 40
0.6176975122
 41
5.2965683363
 42
5.4014663649
  0
ELLIPSE
  5
4DF
100
AcDbEntity
  8
217
100
AcDbEllipse
 62
7
  6
CONTINUOUS
 10
13.211768761
 20
15.5415035365
 30
0.0
 11
0.0907039967
 21
0.1782526758
 31
0.0
 40
0.6176975122
 41
5.2965683363
 42
5.4014663649
  0
ELLIPSE
  5
4E0
100
AcDbEntity
  8
217
100
AcDbEllipse
 62
7
  6
CONTINUOUS
 10
14.8234590668
 20
-29.7976821492
 30
0.0
 11
-0.1118504554
 21
0.2236675568
 31
0.0
 40
0.6121897086
 41
-3.1606803254
 42
-2.2557347926
  0
ELLIPSE
  5
4E1
100
AcDbEntity
  8
217
100
AcDbEllipse
 62
7
  6
CONTINUOUS
 10
14.8234590668
 20
11.4291577485
 30
0.0
 11
-0.1117903878
 21
0.2236141634
 31
0.0
 40
0.6125552124
 41
-2.255296188
 42
-0.6848044477
  0
ELLIPSE
  5
4E2
100
AcDbEntity
  8
217
100
AcDbEllipse
 62
7
  6
CONTINUOUS
 10
-18.9762248772
 20
28.3289997205
 30
0.0
 11
-0.1117757714
 21
0.2236295575
 31
0.0
 40
0.612449815
 41
-2.2552827073
 42
-0.6846386796
  0
ELLIPSE
  5
4E3
100
AcDbEntity
  8
217
100
AcDbEllipse
 62
7
  6
CONTINUOUS
 10
-12.3366319495
 20
29.5254416754
 30
0.0
 11
0.9997399525
 21
-0.04956984
 31
0.0
 40
0.4600399604
 41
0.8082042476
 42
2.3615472818
  0
ELLIPSE
  5
4E4
100
AcDbEntity
  8
217
100
AcDbEllipse
 62
7
  6
CONTINUOUS
 10
9.6074510911
 20
-27.9878390996
 30
0.0
 11
0.2499931864
 21
0.0036147773
 31
0.0
 40
0.5106100819
 41
-2.3635775243
 42
-0.81023449
  0
ELLIPSE
  5
4E5
100
AcDbEntity
  8
217
100
AcDbEllipse
 62
7
  6
CONTINUOUS
 10
8.3612002602
 20
19.302959393
 30
0.0
 11
0.9980068092
 21
-0.2399287748
 31
0.0
 40
0.2630210944
 41
-0.7135232271
 42
-0.2288577977
  0
ELLIPSE
  5
4E6
100
AcDbEntity
  8
217
100
AcDbEllipse
 62
7
  6
CONTINUOUS
 10
-72.6979424764
 20
-33.7342120631
 30
0.0
 11
84.1588312191
 21
58.907711616
 31
0.0
 40
0.1402573537
 41
0.748607667
 42
0.790808016
  0
ELLIPSE
  5
4E7
100
AcDbEntity
  8
217
100
AcDbEllipse
 62
7
  6
CONTINUOUS
 10
-24.9002006945
 20
21.3562387909
 30
0.0
 11
-0.1098985543
 21
0.2275784384
 31
0.0
 40
0.6085747011
 41
-0.6677344043
 42
0.1137445241
  0
ELLIPSE
  5
4E8
100
AcDbEntity
  8
217
100
AcDbEllipse
 62
7
  6
CONTINUOUS
 10
-9.3164692694
 20
28.1417941578
 30
0.0
 11
0.9980068092
 21
-0.2399287748
 31
0.0
 40
0.2630210944
 41
-0.7135232271
 42
-0.2288577977
  0
ELLIPSE
  5
4E9
100
AcDbEntity
  8
217
100
AcDbEllipse
 62
7
  6
CONTINUOUS
 10
-2.6066907763
 20
23.8060232597
 30
0.0
 11
-0.0894446533
 21
0.1789249983
 31
0.0
 40
0.6122670695
 41
-0.6845534614
 42
0.0147293285
  0
ELLIPSE
  5
4EA
100
AcDbEntity
  8
217
100
AcDbEllipse
 62
7
  6
CONTINUOUS
 10
-72.6979424764
 20
-33.7342120631
 30
0.0
 11
84.1588312191
 21
58.907711616
 31
0.0
 40
0.1402573537
 41
-0.6391438932
 42
-0.5969435447
  0
ELLIPSE
  5
4EB
100
AcDbEntity
  8
217
100
AcDbEllipse
 62
7
  6
CONTINUOUS
 10
6.0187724036
 20
19.1380017151
 30
0.0
 11
0.0907039967
 21
0.1782526758
 31
0.0
 40
0.6176975122
 41
-1.4621159447
 42
-0.8817189423
  0
ELLIPSE
  5
4EC
100
AcDbEntity
  8
217
100
AcDbEllipse
 62
7
  6
CONTINUOUS
 10
15.0709787534
 20
14.9671884949
 30
0.0
 11
-0.0894446533
 21
0.1789249983
 31
0.0
 40
0.6122670695
 41
-0.6845534615
 42
0.0147293276
  0
ELLIPSE
  5
4ED
100
AcDbEntity
  8
217
100
AcDbEllipse
 62
7
  6
CONTINUOUS
 10
-11.6588971261
 20
27.97683648
 30
0.0
 11
0.0907039967
 21
0.1782526758
 31
0.0
 40
0.6176975122
 41
-1.4621159447
 42
-0.8817189423
  0
ELLIPSE
  5
4EE
100
AcDbEntity
  8
217
100
AcDbEllipse
 62
7
  6
CONTINUOUS
 10
-11.6576683457
 20
28.3315120444
 30
0.0
 11
-0.0894206171
 21
0.178903646
 31
0.0
 40
0.612449815
 41
-2.2552827073
 42
-0.6846386891
  0
ELLIPSE
  5
4EF
100
AcDbEntity
  8
217
100
AcDbEllipse
 62
7
  6
CONTINUOUS
 10
6.020001184
 20
19.4926772796
 30
0.0
 11
-0.0894206171
 21
0.178903646
 31
0.0
 40
0.612449815
 41
-2.2552827073
 42
-0.6846386891
  0
ELLIPSE
  5
4F0
100
AcDbEntity
  8
217
100
AcDbEllipse
 62
7
  6
CONTINUOUS
 10
-10.0813010657
 20
27.1880384498
 30
0.0
 11
0.0882059646
 21
0.1795018488
 31
0.0
 40
0.607010042
 41
-0.9951691611
 42
-0.8902711325
  0
ELLIPSE
  5
4F1
100
AcDbEntity
  8
217
100
AcDbEllipse
 62
7
  6
CONTINUOUS
 10
7.5963684639
 20
18.349203685
 30
0.0
 11
0.0882059646
 21
0.1795018488
 31
0.0
 40
0.607010042
 41
-0.9951691611
 42
-0.8902711325
  0
ELLIPSE
  5
4F2
100
AcDbEntity
  8
217
100
AcDbEllipse
 62
7
  6
CONTINUOUS
 10
18.4369481257
 20
-23.6264936086
 30
0.0
 11
0.9999938762
 21
-0.0070751823
 31
0.0
 40
0.4946372042
 41
-0.7644452153
 42
0.7888978189
  0
ELLIPSE
  5
4F3
100
AcDbEntity
  8
217
100
AcDbEllipse
 62
7
  6
CONTINUOUS
 10
18.4369481257
 20
14.1386516378
 30
0.0
 11
0.9997399525
 21
-0.04956984
 31
0.0
 40
0.4600399604
 41
-0.7451387867
 42
0.8082042476
  0
ELLIPSE
  5
4F4
100
AcDbEntity
  8
217
100
AcDbEllipse
 62
7
  6
CONTINUOUS
 10
-18.7153137518
 20
24.7732850492
 30
0.0
 11
0.8189522118
 21
0.0118416423
 31
0.0
 40
0.5106100819
 41
3.1342250968
 42
5.4816774634
  0
ELLIPSE
  5
4F5
100
AcDbEntity
  8
217
100
AcDbEllipse
 62
7
  6
CONTINUOUS
 10
-8.7322466095
 20
19.752079647
 30
0.0
 11
0.7778693197
 21
0.0112476041
 31
0.0
 40
0.5106100819
 41
3.1342083312
 42
5.4729508172
  0
ELLIPSE
  5
4F6
100
AcDbEntity
  8
217
100
AcDbEllipse
 62
7
  6
CONTINUOUS
 10
-1.0378966383
 20
15.9049046614
 30
0.0
 11
0.7778693197
 21
0.0112476041
 31
0.0
 40
0.5106100819
 41
3.1342030325
 42
5.4816774634
  0
ELLIPSE
  5
4F7
100
AcDbEntity
  8
217
100
AcDbEllipse
 62
7
  6
CONTINUOUS
 10
9.0032720707
 20
10.9139921379
 30
0.0
 11
0.8189522118
 21
0.0118416423
 31
0.0
 40
0.5106100819
 41
3.1342250968
 42
5.4816774634
  0
ELLIPSE
  5
4F8
100
AcDbEntity
  8
217
100
AcDbEllipse
 62
7
  6
CONTINUOUS
 10
-20.9332939443
 20
26.7160114281
 30
0.0
 11
0.9733503474
 21
0.0140741627
 31
0.0
 40
0.5106100819
 41
3.1342630312
 42
5.4816774634
  0
ELLIPSE
  5
4F9
100
AcDbEntity
  8
217
100
AcDbEllipse
 62
7
  6
CONTINUOUS
 10
12.8538237141
 20
9.822452599
 30
0.0
 11
0.9733503474
 21
0.0140741627
 31
0.0
 40
0.5106100819
 41
3.1342803705
 42
4.7400553827
  0
ELLIPSE
  5
4FA
100
AcDbEntity
  8
217
100
AcDbEllipse
 62
7
  6
CONTINUOUS
 10
9.7873134351
 20
4.0124817261
 30
0.0
 11
-0.1092649321
 21
0.2270579893
 31
0.0
 40
0.6121735965
 41
-2.2369946326
 42
-0.669228889
  0
ELLIPSE
  5
4FB
100
AcDbEntity
  8
217
100
AcDbEllipse
 62
7
  6
CONTINUOUS
 10
9.7873134351
 20
-27.2443554316
 30
0.0
 11
-0.1098985543
 21
0.2275784384
 31
0.0
 40
0.6085747011
 41
-3.255392031
 42
-2.2415613143
  0
ENDSEC
  0
SECTION
  2
OBJECTS
  0
DICTIONARY
  5
C
100
AcDbDictionary
280
0
281
1
  3
ACAD_GROUP
350
D
  3
ACAD_MLINESTYLE
350
17
  3
ACAD_LAYOUT
350
1A
  3
ACAD_PLOTSETTINGS
350
19
  3
ACAD_PLOTSTYLENAME
350
E
  0
DICTIONARY
  5
D
102
{ACAD_REACTORS
330
C
102
}
100
AcDbDictionary
280
0
281
1
  0
ACDBDICTIONARYWDFLT
  5
E
102
{ACAD_REACTORS
330
C
102
}
100
AcDbDictionary
281
1
  3
Normal
350
F
100
AcDbDictionaryWithDefault
340
F
  0
DICTIONARY
  5
17
102
{ACAD_REACTORS
330
C
102
}
100
AcDbDictionary
280
0
281
1
  3
Standard
350
18
  0
DICTIONARY
  5
19
102
{ACAD_REACTORS
330
C
102
}
100
AcDbDictionary
281
1
  0
DICTIONARY
  5
1A
102
{ACAD_REACTORS
330
C
102
}
100
AcDbDictionary
281
1
  3
Model
350
4FC
  3
Layout1
350
4FD
  0
ACDBPLACEHOLDER
  5
F
102
{ACAD_REACTORS
330
E
102
}
  0
MLINESTYLE
  5
18
102
{ACAD_REACTORS
330
17
102
}
100
AcDbMlineStyle
  2
STANDARD
 70
0
  3

 62
256
 51
90.0
 52
90.0
 71
2
 49
0.5
 62
256
  6
BYLAYER
 49
-0.5
 62
256
  6
BYLAYER
  0
LAYOUT
  5
4FC
102
{ACAD_REACTORS
330
1A
102
}
100
AcDbPlotSettings
  1

  2
none_device
  4
ISO_A4_(297.00_x_210.00_MM)
  6

 40
0.0
 41
0.0
 42
0.0
 43
0.0
 44
297.0
 45
210.0
 46
0.0
 47
0.0
 48
0.0
 49
0.0
140
0.0
141
0.0
142
1.0
143
1.0
 70
1024
 72
1
 73
0
 74
0
  7

 75
0
147
1.0
148
0.0
149
0.0
100
AcDbLayout
  1
Model
 70
0
 71
0
 10
0.0
 20
0.0
 11
297.0
 21
210.0
 12
0.0
 22
0.0
 32
0.0
 14
0.0
 24
0.0
 34
0.0
 15
0.0
 25
0.0
 35
0.0
146
0.0
 13
0.0
 23
0.0
 33
0.0
 16
1.0
 26
0.0
 36
0.0
 17
0.0
 27
1.0
 37
0.0
 76
0
330
226
345
0
346
0
  0
LAYOUT
  5
4FD
102
{ACAD_REACTORS
330
1A
102
}
100
AcDbPlotSettings
  1

  2
none_device
  4
ISO_A4_(297.00_x_210.00_MM)
  6

 40
0.0
 41
0.0
 42
0.0
 43
0.0
 44
297.0
 45
210.0
 46
0.0
 47
0.0
 48
0.0
 49
0.0
140
0.0
141
0.0
142
1.0
143
1.0
 70
0
 72
1
 73
0
 74
0
  7

 75
0
147
1.0
148
0.0
149
0.0
100
AcDbLayout
  1
Layout1
 70
0
 71
1
 10
0.0
 20
0.0
 11
297.0
 21
210.0
 12
0.0
 22
0.0
 32
0.0
 14
0.0
 24
0.0
 34
0.0
 15
0.0
 25
0.0
 35
0.0
146
0.0
 13
0.0
 23
0.0
 33
0.0
 16
1.0
 26
0.0
 36
0.0
 17
0.0
 27
1.0
 37
0.0
 76
0
330
227
345
0
346
0
  0
ENDSEC
  0
EOF
