  0
SECTION
  2
HEADER
  9
$ACADVER
  1
AC1024
  9
$DWGCODEPAGE
  3
ANSI_1252
  9
$EXTMAX
 10
558.8
 20
431.8
 30
0.0
  9
$EXTMIN
 10
0.0
 20
0.0
 30
0.0
  9
$LIMMIN
 10
0.0
 20
0.0
  9
$LIMMAX
 10
558.8
 20
431.8
  9
$VIEWCTR
 10
279.4
 20
215.9
  9
$VIEWSIZE
 40
431.8
  9
$CLAYER
  8
0
  9
$LTSCALE
 40
30.734
  9
$CELTYPE
  6
BYLAYER
  9
$DIMSCALE
 40
1.0
  9
$DIMASZ
 40
3.0
  9
$DIMEXO
 40
0.5
  9
$DIMDLI
 40
21.2344
  9
$DIMEXE
 40
1.5
  9
$DIMCEN
 40
5.0292
  9
$DIMLFAC
 40
1.0
  9
$DIMBLK
  1
_FILLED
  9
$DIMALT
 70
0
  9
$DIMALTF
 40
0.0393700787
  9
$DIMTXT
 40
3.0
  9
$DIMTOL
 70
1
  9
$DIMLIM
 70
0
  9
$DIMTFAC
 40
1.0
  9
$DIMTP
 40
0.01
  9
$DIMTM
 40
0.01
  9
$DIMGAP
 40
0.625
  9
$DIMDSEP
 70
44
  9
$AUNITS
 70
0
  9
$PDMODE
 70
3
  9
$PDSIZE
 40
3.0
  9
$HANDSEED
  5
5B2
  9
$TILEMODE
 70
1
  9
$MEASUREMENT
 70
1
  9
$INSUNITS
 70
4
  0
ENDSEC
  0
SECTION
  2
CLASSES
  0
CLASS
  1
ACDBDICTIONARYWDFLT
  2
AcDbDictionaryWithDefault
  3
AutoCAD 2000
 90
0
 91
1
280
0
281
0
  0
CLASS
  1
ACDBPLACEHOLDER
  2
AcDbPlaceHolder
  3
AutoCAD 2000
 90
0
 91
1
280
0
281
0
  0
CLASS
  1
LAYOUT
  2
AcDbLayout
  3
AutoCAD 2000
 90
0
 91
0
280
0
281
0
  0
ENDSEC
  0
SECTION
  2
TABLES
  0
TABLE
  2
VPORT
  5
8
100
AcDbSymbolTable
 70
2
  0
VPORT
  5
1F4
100
AcDbSymbolTableRecord
100
AcDbViewportTableRecord
  2
*ACTIVE
 70
0
 10
0.0
 20
0.0
 11
1.0
 21
1.0
 12
279.4
 22
215.9
 13
0.0
 23
0.0
 14
1.0
 24
1.0
 15
0.0
 25
0.0
 16
0.0
 26
0.0
 36
1.0
 17
0.0
 27
0.0
 37
0.0
 40
431.8
 41
1.2941176471
 42
50.0
 43
0.0
 44
0.0
 50
0.0
 51
0.0
 71
0
 72
100
 73
1
 74
1
 75
0
 76
0
 77
0
 78
0
  0
ENDTAB
  0
TABLE
  2
LTYPE
  5
5
100
AcDbSymbolTable
 70
6
  0
LTYPE
  5
14
100
AcDbSymbolTableRecord
100
AcDbLinetypeTableRecord
  2
BYBLOCK
 70
0
  3

 72
65
 73
0
 40
0.0
  0
LTYPE
  5
15
100
AcDbSymbolTableRecord
100
AcDbLinetypeTableRecord
  2
BYLAYER
 70
0
  3

 72
65
 73
0
 40
0.0
  0
LTYPE
  5
16
100
AcDbSymbolTableRecord
100
AcDbLinetypeTableRecord
  2
CONTINUOUS
 70
64
  3
Solid line
 72
65
 73
0
 40
0.0
  0
LTYPE
  5
1F5
100
AcDbSymbolTableRecord
100
AcDbLinetypeTableRecord
  2
CENTER
 70
64
  3
____ _ ____ _ ____ _ ____ _ ____ _ ____ _ ____
 72
65
 73
4
 40
0.6
 49
0.375
 74
0
 49
-0.075
 74
0
 49
0.075
 74
0
 49
-0.075
 74
0
  0
LTYPE
  5
1F6
100
AcDbSymbolTableRecord
100
AcDbLinetypeTableRecord
  2
HIDDEN
 70
64
  3
- - - - - - - - - - - - - - - - - - - -
 72
65
 73
2
 40
0.2
 49
0.1
 74
0
 49
-0.1
 74
0
  0
LTYPE
  5
1F7
100
AcDbSymbolTableRecord
100
AcDbLinetypeTableRecord
  2
PHANTOM
 70
64
  3
_____ _ _ _____ _ _ _____ _ _ _____
 72
65
 73
6
 40
0.8
 49
0.45
 74
0
 49
-0.05
 74
0
 49
0.1
 74
0
 49
-0.05
 74
0
 49
0.1
 74
0
 49
-0.05
 74
0
  0
LTYPE
  5
1F8
100
AcDbSymbolTableRecord
100
AcDbLinetypeTableRecord
  2
DOT
 70
64
  3
. . . . . . . . . . . . . . . . . . . .
 72
65
 73
2
 40
0.2
 49
0.1
 74
0
 49
-0.1
 74
0
  0
LTYPE
  5
1F9
100
AcDbSymbolTableRecord
100
AcDbLinetypeTableRecord
  2
DASHED
 70
64
  3
- - - - - - - - - - - - - - - - - - - -
 72
65
 73
2
 40
0.2
 49
0.1
 74
0
 49
-0.1
 74
0
  0
ENDTAB
  0
TABLE
  2
LAYER
  5
2
100
AcDbSymbolTable
 70
36
  0
LAYER
  5
10
100
AcDbSymbolTableRecord
100
AcDbLayerTableRecord
  2
0
 70
0
 62
7
  6
CONTINUOUS
370
-3
390
F
  0
LAYER
  5
1FA
100
AcDbSymbolTableRecord
100
AcDbLayerTableRecord
  2
DEFAULT_1
 70
0
 62
7
  6
CENTER
370
-3
390
F
  0
LAYER
  5
1FB
100
AcDbSymbolTableRecord
100
AcDbLayerTableRecord
  2
DEFAULT_2
 70
0
 62
7
  6
HIDDEN
370
-3
390
F
  0
LAYER
  5
1FC
100
AcDbSymbolTableRecord
100
AcDbLayerTableRecord
  2
DEFAULT_3
 70
0
 62
7
  6
PHANTOM
370
-3
390
F
  0
LAYER
  5
1FD
100
AcDbSymbolTableRecord
100
AcDbLayerTableRecord
  2
ASSI
 70
0
 62
7
  6
CONTINUOUS
370
-3
390
F
  0
LAYER
  5
1FE
100
AcDbSymbolTableRecord
100
AcDbLayerTableRecord
  2
COORDINATE
 70
0
 62
7
  6
CONTINUOUS
370
-3
390
F
  0
LAYER
  5
1FF
100
AcDbSymbolTableRecord
100
AcDbLayerTableRecord
  2
COORD_ORIGINE
 70
0
 62
7
  6
CONTINUOUS
370
-3
390
F
  0
LAYER
  5
200
100
AcDbSymbolTableRecord
100
AcDbLayerTableRecord
  2
COPY_PUBLISH
 70
0
 62
7
  6
CONTINUOUS
370
-3
390
F
  0
LAYER
  5
201
100
AcDbSymbolTableRecord
100
AcDbLayerTableRecord
  2
COSMETIC
 70
0
 62
7
  6
CONTINUOUS
370
-3
390
F
  0
LAYER
  5
202
100
AcDbSymbolTableRecord
100
AcDbLayerTableRecord
  2
COSMETICHE
 70
0
 62
7
  6
CONTINUOUS
370
-3
390
F
  0
LAYER
  5
203
100
AcDbSymbolTableRecord
100
AcDbLayerTableRecord
  2
COSMETICI
 70
0
 62
7
  6
CONTINUOUS
370
-3
390
F
  0
LAYER
  5
204
100
AcDbSymbolTableRecord
100
AcDbLayerTableRecord
  2
CURVE
 70
0
 62
7
  6
CONTINUOUS
370
-3
390
F
  0
LAYER
  5
205
100
AcDbSymbolTableRecord
100
AcDbLayerTableRecord
  2
DRAFT
 70
0
 62
7
  6
CONTINUOUS
370
-3
390
F
  0
LAYER
  5
206
100
AcDbSymbolTableRecord
100
AcDbLayerTableRecord
  2
IMPORT
 70
0
 62
7
  6
CONTINUOUS
370
-3
390
F
  0
LAYER
  5
207
100
AcDbSymbolTableRecord
100
AcDbLayerTableRecord
  2
IMPORT_IGES
 70
0
 62
7
  6
CONTINUOUS
370
-3
390
F
  0
LAYER
  5
208
100
AcDbSymbolTableRecord
100
AcDbLayerTableRecord
  2
NOTE
 70
0
 62
7
  6
CONTINUOUS
370
-3
390
F
  0
LAYER
  5
209
100
AcDbSymbolTableRecord
100
AcDbLayerTableRecord
  2
PIANI
 70
0
 62
7
  6
CONTINUOUS
370
-3
390
F
  0
LAYER
  5
20A
100
AcDbSymbolTableRecord
100
AcDbLayerTableRecord
  2
PIANI_DI_RIFERIMENTO
 70
0
 62
7
  6
CONTINUOUS
370
-3
390
F
  0
LAYER
  5
20B
100
AcDbSymbolTableRecord
100
AcDbLayerTableRecord
  2
PIANI_ORIGINE
 70
0
 62
7
  6
CONTINUOUS
370
-3
390
F
  0
LAYER
  5
20C
100
AcDbSymbolTableRecord
100
AcDbLayerTableRecord
  2
PUNTI
 70
0
 62
7
  6
CONTINUOUS
370
-3
390
F
  0
LAYER
  5
20D
100
AcDbSymbolTableRecord
100
AcDbLayerTableRecord
  2
RACCORDO
 70
0
 62
7
  6
CONTINUOUS
370
-3
390
F
  0
LAYER
  5
20E
100
AcDbSymbolTableRecord
100
AcDbLayerTableRecord
  2
SIMBOLI
 70
0
 62
7
  6
CONTINUOUS
370
-3
390
F
  0
LAYER
  5
20F
100
AcDbSymbolTableRecord
100
AcDbLayerTableRecord
  2
SMUSSO
 70
0
 62
7
  6
CONTINUOUS
370
-3
390
F
  0
LAYER
  5
210
100
AcDbSymbolTableRecord
100
AcDbLayerTableRecord
  2
SNAPLINE
 70
0
 62
7
  6
CONTINUOUS
370
-3
390
F
  0
LAYER
  5
211
100
AcDbSymbolTableRecord
100
AcDbLayerTableRecord
  2
SUPERFICI
 70
0
 62
7
  6
CONTINUOUS
370
-3
390
F
  0
LAYER
  5
212
100
AcDbSymbolTableRecord
100
AcDbLayerTableRecord
  2
TRASH
 70
0
 62
7
  6
CONTINUOUS
370
-3
390
F
  0
LAYER
  5
213
100
AcDbSymbolTableRecord
100
AcDbLayerTableRecord
  2
XSEC_DATUMS
 70
0
 62
7
  6
CONTINUOUS
370
-3
390
F
  0
ENDTAB
  0
TABLE
  2
STYLE
  5
3
100
AcDbSymbolTable
 70
1
  0
STYLE
  5
11
100
AcDbSymbolTableRecord
100
AcDbTextStyleTableRecord
  2
STANDARD
 70
0
 40
0.0
 41
0.8
 50
0.0
 71
0
 42
0.2
  3
txt
  4

  0
STYLE
  5
214
100
AcDbSymbolTableRecord
100
AcDbTextStyleTableRecord
  2
TEXTSTYLE_1
 70
0
 40
0.0
 41
0.8
 50
0.0
 71
0
 42
0.2
  3
gdt
  4

  0
ENDTAB
  0
TABLE
  2
VIEW
  5
6
100
AcDbSymbolTable
 70
0
  0
ENDTAB
  0
TABLE
  2
UCS
  5
7
100
AcDbSymbolTable
 70
0
  0
ENDTAB
  0
TABLE
  2
APPID
  5
9
100
AcDbSymbolTable
 70
1
  0
APPID
  5
215
100
AcDbSymbolTableRecord
100
AcDbRegAppTableRecord
  2
ACAD
 70
0
  0
ENDTAB
  0
TABLE
  2
BLOCK_RECORD
  5
1
100
AcDbSymbolTable
 70
0
  0
BLOCK_RECORD
  5
216
100
AcDbSymbolTableRecord
100
AcDbBlockTableRecord
  2
*Model_Space
  0
BLOCK_RECORD
  5
217
100
AcDbSymbolTableRecord
100
AcDbBlockTableRecord
  2
*Paper_Space
  0
BLOCK_RECORD
  5
218
100
AcDbSymbolTableRecord
100
AcDbBlockTableRecord
  2
_FILLED
  0
ENDTAB
  0
TABLE
  2
DIMSTYLE
  5
A
100
AcDbSymbolTable
 70
1
100
AcDbDimStyleTable
 71
0
  0
DIMSTYLE
105
219
100
AcDbSymbolTableRecord
100
AcDbDimStyleTableRecord
  2
STANDARD
 70
0
  3

  4

 40
1.0
 41
3.0
 42
0.5
 43
0.38
 44
1.5
 45
0.0
 46
0.0
 47
0.01
 48
0.01
140
3.0
141
0.09
142
0.0
143
25.4
144
1.0
145
0.0
146
1.0
147
0.625
 71
1
 72
0
 73
0
 74
0
 75
0
 76
0
 77
1
 78
8
 79
2
170
0
171
1
172
0
173
0
174
0
175
0
176
0
177
0
178
0
270
2
179
2
271
2
272
2
273
2
274
2
275
0
280
0
281
0
282
0
283
1
284
8
285
0
286
0
287
3
288
0
340
11
278
44
341
218
342
218
343
218
344
218
  0
ENDTAB
  0
ENDSEC
  0
SECTION
  2
BLOCKS
  0
BLOCK
  5
20
100
AcDbEntity
  8
0
100
AcDbBlockBegin
  2
*Model_Space
 70
0
 10
0.0
 20
0.0
 30
0.0
  3
*Model_Space
  1

  0
ENDBLK
  5
21
100
AcDbEntity
  8
0
100
AcDbBlockEnd
  0
BLOCK
  5
1C
100
AcDbEntity
  8
0
100
AcDbBlockBegin
  2
*Paper_Space
 70
0
 10
0.0
 20
0.0
 30
0.0
  3
*Paper_Space
  1

  0
ENDBLK
  5
1D
100
AcDbEntity
  8
0
100
AcDbBlockEnd
  0
BLOCK
  5
21A
100
AcDbEntity
  8
0
100
AcDbBlockBegin
  2
_FILLED
 70
64
 10
0.0
 20
0.0
  3
_FILLED
  1

  0
SOLID
  5
21B
100
AcDbEntity
  8
0
  6
BYBLOCK
 62
0
100
AcDbTrace
 10
0.0
 20
0.0
 11
-1.0
 21
0.3166666667
 12
-1.0
 22
-0.3166666667
 13
-1.0
 23
-0.3166666667
  0
ENDBLK
  5
21C
100
AcDbEntity
  8
0
  6
BYBLOCK
 62
0
100
AcDbBlockEnd
  0
ENDSEC
  0
SECTION
  2
ENTITIES
  0
LINE
  5
21D
100
AcDbEntity
  8
RACCORDO
100
AcDbLine
 62
7
  6
CONTINUOUS
 10
-22.453670887
 20
-21.3515369795
 11
-18.8686062831
 21
-23.4215083503
  0
LINE
  5
21E
100
AcDbEntity
  8
RACCORDO
100
AcDbLine
 62
7
  6
CONTINUOUS
 10
-13.5728589914
 20
-26.4792064653
 11
-5.4499975845
 21
-31.1692448383
  0
LINE
  5
21F
100
AcDbEntity
  8
RACCORDO
100
AcDbLine
 62
250
  6
CONTINUOUS
 10
-22.5054415422
 20
-21.2371027642
 11
-18.9483785435
 21
-23.2909063592
  0
LINE
  5
220
100
AcDbEntity
  8
RACCORDO
100
AcDbLine
 62
250
  6
CONTINUOUS
 10
-13.4937676406
 20
-26.4403303322
 11
-5.5017682398
 21
-31.054810623
  0
LWPOLYLINE
  5
221
100
AcDbEntity
  8
RACCORDO
100
AcDbPolyline
 62
7
  6
CONTINUOUS
 90
27
 70
0
 10
-7.9323838818
 20
-28.6660913941
 10
-7.9214566055
 20
-28.6722239164
 10
-7.9052351963
 20
-28.680692578
 10
-7.8886523995
 20
-28.6886051523
 10
-7.8717184417
 20
-28.6959496226
 10
-7.8544365852
 20
-28.7027172463
 10
-7.8368210122
 20
-28.7088947142
 10
-7.8188860384
 20
-28.7144694199
 10
-7.8006340957
 20
-28.7194328247
 10
-7.782078777
 20
-28.7237732323
 10
-7.7632355961
 20
-28.7274791181
 10
-7.7441082758
 20
-28.7305414436
 10
-7.7247112796
 20
-28.732949605
 10
-7.705058561
 20
-28.7346937985
 10
-7.6851509413
 20
-28.7357651232
 10
-7.6650022283
 20
-28.7361536031
 10
-7.6446250165
 20
-28.7358501535
 10
-7.6240156312
 20
-28.7348448558
 10
-7.6031854713
 20
-28.7331274652
 10
-7.5821471519
 20
-28.730688643
 10
-7.5608961513
 20
-28.7275165044
 10
-7.5394441542
 20
-28.7236003074
 10
-7.5178012013
 20
-28.7189295857
 10
-7.4959580362
 20
-28.713488734
 10
-7.4739180177
 20
-28.707263169
 10
-7.4516999321
 20
-28.7002430637
 10
-7.4353192022
 20
-28.6945900612
  0
LINE
  5
222
100
AcDbEntity
  8
RACCORDO
100
AcDbLine
 62
7
  6
CONTINUOUS
 10
-7.9323408919
 20
-28.6661163272
 11
-12.9395596767
 21
-25.775010956
  0
LINE
  5
223
100
AcDbEntity
  8
RACCORDO
100
AcDbLine
 62
7
  6
CONTINUOUS
 10
-19.8749578706
 20
-21.7705989598
 11
-24.8508419436
 21
-18.8975858586
  0
LINE
  5
224
100
AcDbEntity
  8
RACCORDO
100
AcDbLine
 62
250
  6
CONTINUOUS
 10
-19.8599954187
 20
-21.4726400647
 11
-25.0546705309
 21
-18.473296653
  0
LINE
  5
225
100
AcDbEntity
  8
RACCORDO
100
AcDbLine
 62
250
  6
CONTINUOUS
 10
-8.1415770226
 20
-28.2387048738
 11
-13.3449864653
 21
-25.2343245822
  0
LINE
  5
226
100
AcDbEntity
  8
RACCORDO
100
AcDbLine
 62
7
  6
CONTINUOUS
 10
-5.5048538885
 20
-28.4264957276
 11
-5.956249729
 21
-28.1658654266
  0
LINE
  5
227
100
AcDbEntity
  8
RACCORDO
100
AcDbLine
 62
7
  6
CONTINUOUS
 10
-5.1451292005
 20
-28.2259216607
 11
-5.5195263718
 21
-28.0097494263
  0
LWPOLYLINE
  5
228
100
AcDbEntity
  8
RACCORDO
100
AcDbPolyline
 62
7
  6
CONTINUOUS
 90
85
 70
0
 10
-18.6327611556
 20
-23.807440562
 10
-18.5894843314
 20
-23.8774070398
 10
-18.5413938112
 20
-23.9533155576
 10
-18.4924601616
 20
-24.0286666244
 10
-18.442702255
 20
-24.10343105
 10
-18.3921324828
 20
-24.1775904948
 10
-18.3407575558
 20
-24.2511339992
 10
-18.288591612
 20
-24.3240395265
 10
-18.2356501116
 20
-24.3962835121
 10
-18.1819409451
 20
-24.467851994
 10
-18.1274785671
 20
-24.5387222716
 10
-18.0722780279
 20
-24.608871028
 10
-18.0163472322
 20
-24.6782834198
 10
-17.9597009159
 20
-24.7469362668
 10
-17.9023536445
 20
-24.814806431
 10
-17.8443123665
 20
-24.881879322
 10
-17.7855911382
 20
-24.9481321883
 10
-17.7262048061
 20
-25.0135409969
 10
-17.6661607199
 20
-25.0780898134
 10
-17.6054721937
 20
-25.141756166
 10
-17.5441543963
 20
-25.2045151295
 10
-17.4822165836
 20
-25.2663480127
 10
-17.4196726945
 20
-25.3272312031
 10
-17.3565368702
 20
-25.3871404187
 10
-17.2928175298
 20
-25.4460570437
 10
-17.2285259985
 20
-25.5039590917
 10
-17.1636784185
 20
-25.5608198395
 10
-17.0982890244
 20
-25.6166147922
 10
-17.0323680468
 20
-25.6713222597
 10
-16.9659322161
 20
-25.7249149554
 10
-16.899003956
 20
-25.7773616733
 10
-16.8315959688
 20
-25.8286386536
 10
-16.7637220763
 20
-25.8787213559
 10
-16.6954045544
 20
-25.9275791944
 10
-16.6266464019
 20
-25.9751948764
 10
-16.5574703132
 20
-26.0215374435
 10
-16.4879262951
 20
-26.0665589525
 10
-16.418017365
 20
-26.1102431127
 10
-16.3477658407
 20
-26.1525615113
 10
-16.2772491714
 20
-26.193454506
 10
-16.2064787166
 20
-26.2329040894
 10
-16.1354682084
 20
-26.270890876
 10
-16.0642971459
 20
-26.3073618018
 10
-15.9929691447
 20
-26.3423061169
 10
-15.921505059
 20
-26.3757041562
 10
-15.8500087761
 20
-26.4075002693
 10
-15.7784857507
 20
-26.437687664
 10
-15.706954627
 20
-26.4662533669
 10
-15.6355378654
 20
-26.4931464774
 10
-15.5642461209
 20
-26.5183646651
 10
-15.4930926895
 20
-26.541904094
 10
-15.4222031396
 20
-26.563727368
 10
-15.3515924376
 20
-26.583838046
 10
-15.2812696981
 20
-26.6022409201
 10
-15.2113513739
 20
-26.6189159289
 10
-15.1418503623
 20
-26.6338741359
 10
-15.0727783725
 20
-26.647126493
 10
-15.0042503099
 20
-26.6586676179
 10
-14.9362949924
 20
-26.6685136837
 10
-14.8689087668
 20
-26.6766857428
 10
-14.8021587755
 20
-26.6831971894
 10
-14.736081671
 20
-26.6880690738
 10
-14.6706670111
 20
-26.6913265033
 10
-14.6059134907
 20
-26.6929921733
 10
-14.5418354515
 20
-26.6930881683
 10
-14.478447412
 20
-26.6916369365
 10
-14.4157514044
 20
-26.6886602633
 10
-14.353762244
 20
-26.6841803163
 10
-14.2924963964
 20
-26.6782201499
 10
-14.2319613336
 20
-26.670801963
 10
-14.1721830987
 20
-26.6619504872
 10
-14.113168355
 20
-26.6516888375
 10
-14.0548986263
 20
-26.6400344004
 10
-13.9974029686
 20
-26.6270126979
 10
-13.9406867911
 20
-26.6126450015
 10
-13.8847001741
 20
-26.5969361726
 10
-13.8294629326
 20
-26.5799067223
 10
-13.7749929375
 20
-26.5615772378
 10
-13.7212419817
 20
-26.541944134
 10
-13.6682308743
 20
-26.521025351
 10
-13.6159786743
 20
-26.4988389332
 10
-13.5644392875
 20
-26.4753729592
 10
-13.5136135313
 20
-26.4506320413
 10
-13.4635459337
 20
-26.42464269
 10
-13.4228587052
 20
-26.4022921047
  0
LINE
  5
229
100
AcDbEntity
  8
RACCORDO
100
AcDbLine
 62
7
  6
CONTINUOUS
 10
-18.9368156557
 20
-23.3098472503
 11
-18.6327611621
 21
-23.8074405637
  0
LINE
  5
22A
100
AcDbEntity
  8
RACCORDO
100
AcDbLine
 62
7
  6
CONTINUOUS
 10
-19.2443441305
 20
-22.8059319088
 11
-18.9368156557
 21
-23.3098472503
  0
LINE
  5
22B
100
AcDbEntity
  8
RACCORDO
100
AcDbLine
 62
7
  6
CONTINUOUS
 10
-19.551602057
 20
-22.3018186422
 11
-19.2443441305
 21
-22.8059319088
  0
LINE
  5
22C
100
AcDbEntity
  8
RACCORDO
100
AcDbLine
 62
7
  6
CONTINUOUS
 10
-19.8885226533
 20
-21.7482994874
 11
-19.551602057
 21
-22.3018186422
  0
LWPOLYLINE
  5
22D
100
AcDbEntity
  8
RACCORDO
100
AcDbPolyline
 62
7
  6
CONTINUOUS
 90
33
 70
0
 10
-25.1278845057
 20
-18.3718240978
 10
-25.1269491673
 20
-18.3923749059
 10
-25.1253094083
 20
-18.4157722306
 10
-25.1230718308
 20
-18.4388263763
 10
-25.1202372926
 20
-18.4615438257
 10
-25.1168098932
 20
-18.4839034038
 10
-25.112800342
 20
-18.505856244
 10
-25.1082142934
 20
-18.5273980941
 10
-25.1030578849
 20
-18.5485222137
 10
-25.0973495597
 20
-18.5691787453
 10
-25.0910988066
 20
-18.5893639239
 10
-25.084315579
 20
-18.6090732025
 10
-25.0770269777
 20
-18.6282584202
 10
-25.0692518679
 20
-18.6469058793
 10
-25.0610004633
 20
-18.665024815
 10
-25.0522924866
 20
-18.6826024861
 10
-25.0431490701
 20
-18.6996270528
 10
-25.0335819138
 20
-18.7161064748
 10
-25.023597073
 20
-18.7320551994
 10
-25.013212056
 20
-18.7474670196
 10
-25.0024413018
 20
-18.7623416671
 10
-24.9912840997
 20
-18.7766980736
 10
-24.9797558414
 20
-18.7905312264
 10
-24.9678719424
 20
-18.8038368468
 10
-24.955629348
 20
-18.8166305069
 10
-24.9430435724
 20
-18.828906036
 10
-24.93012958
 20
-18.8406585759
 10
-24.9168811377
 20
-18.8519013063
 10
-24.9033133085
 20
-18.8626274242
 10
-24.8894410471
 20
-18.8728312253
 10
-24.8752555874
 20
-18.8825232871
 10
-24.8607630249
 20
-18.8917011727
 10
-24.8508095997
 20
-18.8976044229
  0
LWPOLYLINE
  5
22E
100
AcDbEntity
  8
RACCORDO
100
AcDbPolyline
 62
7
  6
CONTINUOUS
 90
28
 70
0
 10
-25.1278958591
 20
9.0052241987
 10
-25.1605111838
 20
7.9776601489
 10
-25.1908003408
 20
6.9455201182
 10
-25.218566285
 20
5.9147874457
 10
-25.2438087816
 20
4.8854705967
 10
-25.2665276047
 20
3.8575781551
 10
-25.2867225623
 20
2.8311189934
 10
-25.3043934702
 20
1.8061020671
 10
-25.3195401556
 20
0.7825361113
 10
-25.332162494
 20
-0.2395703685
 10
-25.342260374
 20
-1.2602086925
 10
-25.3498336873
 20
-2.2793701266
 10
-25.3548823656
 20
-3.2970461255
 10
-25.3574063632
 20
-4.3132279878
 10
-25.357405636
 20
-5.3279070264
 10
-25.3548801726
 20
-6.3410747403
 10
-25.3498299939
 20
-7.3527224804
 10
-25.3422551226
 20
-8.3628415873
 10
-25.3321556038
 20
-9.3714235871
 10
-25.3195315228
 20
-10.3784598618
 10
-25.3043829679
 20
-11.383941851
 10
-25.2867100405
 20
-12.387861189
 10
-25.2665128901
 20
-13.3902093332
 10
-25.243791678
 20
-14.3909775353
 10
-25.2185465726
 20
-15.390157145
 10
-25.1907777767
 20
-16.387739838
 10
-25.160485502
 20
-17.3837174143
 10
-25.1278845359
 20
-18.3718241578
  0
LINE
  5
22F
100
AcDbEntity
  8
RACCORDO
100
AcDbLine
 62
7
  6
CONTINUOUS
 10
-19.1650845237
 20
17.0676630938
 11
-22.4601562416
 21
15.0299413164
  0
LINE
  5
230
100
AcDbEntity
  8
RACCORDO
100
AcDbLine
 62
250
  6
CONTINUOUS
 10
-19.1650845237
 20
16.9779334375
 11
-22.3317500257
 21
15.0196199901
  0
LINE
  5
231
100
AcDbEntity
  8
RACCORDO
100
AcDbLine
 62
7
  6
CONTINUOUS
 10
-18.8428960912
 20
18.6077364546
 11
-17.4177547841
 21
19.459831613
  0
LINE
  5
232
100
AcDbEntity
  8
RACCORDO
100
AcDbLine
 62
250
  6
CONTINUOUS
 10
-18.7146032784
 20
18.5972824643
 11
-17.2916244955
 21
19.4480846446
  0
LINE
  5
233
100
AcDbEntity
  8
ASSI
100
AcDbLine
 62
250
  6
CONTINUOUS
 10
-10.6652243817
 20
22.0544674515
 11
-14.4955213871
 21
19.8428943718
  0
LINE
  5
234
100
AcDbEntity
  8
ASSI
100
AcDbLine
 62
250
  6
CONTINUOUS
 10
-10.4884746103
 20
21.7483278676
 11
-14.3218029425
 21
19.5350045319
  0
LINE
  5
235
100
AcDbEntity
  8
RACCORDO
100
AcDbLine
 62
250
  6
CONTINUOUS
 10
-16.2310181798
 20
18.8357038505
 11
-17.7045558454
 21
18.0140937353
  0
LINE
  5
236
100
AcDbEntity
  8
RACCORDO
100
AcDbLine
 62
250
  6
CONTINUOUS
 10
-16.0542145564
 20
18.529502085
 11
-17.5308912527
 21
17.7061417198
  0
LINE
  5
237
100
AcDbEntity
  8
ASSI
100
AcDbLine
 62
7
  6
CONTINUOUS
 10
-11.6450188916
 20
22.5643544467
 11
-17.4144689036
 21
19.4617309369
  0
LINE
  5
238
100
AcDbEntity
  8
ASSI
100
AcDbLine
 62
250
  6
CONTINUOUS
 10
-11.5235272168
 20
22.5500407515
 11
-17.2916783475
 21
19.4481157381
  0
LINE
  5
239
100
AcDbEntity
  8
ASSI
100
AcDbLine
 62
250
  6
CONTINUOUS
 10
-14.4955213871
 20
19.8428943718
 11
-16.2972838578
 21
18.8739648224
  0
LINE
  5
23A
100
AcDbEntity
  8
ASSI
100
AcDbLine
 62
250
  6
CONTINUOUS
 10
-14.3218029425
 20
19.53488017
 11
-16.0631118952
 21
18.5984605662
  0
LINE
  5
23B
100
AcDbEntity
  8
RACCORDO
100
AcDbLine
 62
7
  6
CONTINUOUS
 10
-22.5786648469
 20
-21.1350341159
 11
-22.5786648469
 21
-20.2095124371
  0
LINE
  5
23C
100
AcDbEntity
  8
RACCORDO
100
AcDbLine
 62
7
  6
CONTINUOUS
 10
-22.5786648469
 20
12.2531071632
 11
-22.5786648469
 21
14.8173148525
  0
LINE
  5
23D
100
AcDbEntity
  8
RACCORDO
100
AcDbLine
 62
250
  6
CONTINUOUS
 10
-22.5054415422
 20
-21.2371027642
 11
-22.5054415422
 21
-20.2517906556
  0
LINE
  5
23E
100
AcDbEntity
  8
RACCORDO
100
AcDbLine
 62
250
  6
CONTINUOUS
 10
-22.5054415422
 20
12.0887440118
 11
-22.5054415422
 21
14.7152462042
  0
LWPOLYLINE
  5
23F
100
AcDbEntity
  8
RACCORDO
100
AcDbPolyline
 62
7
  6
CONTINUOUS
 90
46
 70
0
 10
-24.6046260749
 20
10.0278293706
 10
-24.6195839343
 20
10.0155786251
 10
-24.6393529348
 20
9.9987402998
 10
-24.6588336595
 20
9.9814081312
 10
-24.6780170827
 20
9.9636012619
 10
-24.6968991908
 20
9.9453344866
 10
-24.7154778509
 20
9.9266196042
 10
-24.7337465405
 20
9.9074724603
 10
-24.7516979776
 20
9.8879093308
 10
-24.7693268938
 20
9.8679436944
 10
-24.7866259956
 20
9.8475915376
 10
-24.8035881176
 20
9.8268681503
 10
-24.8202073392
 20
9.8057871538
 10
-24.8364759199
 20
9.784364519
 10
-24.8523865193
 20
9.7626151104
 10
-24.8679333065
 20
9.7405519968
 10
-24.8831077354
 20
9.7181917798
 10
-24.8979029441
 20
9.6955483024
 10
-24.9123150907
 20
9.6726309108
 10
-24.9263359357
 20
9.6494548699
 10
-24.9399577235
 20
9.6260348299
 10
-24.9531764276
 20
9.6023789239
 10
-24.9659835785
 20
9.5785019431
 10
-24.9783710784
 20
9.5544186248
 10
-24.9903342795
 20
9.5301363377
 10
-25.0018644193
 20
9.5056696527
 10
-25.0129530452
 20
9.481033244
 10
-25.0235947477
 20
9.4562337701
 10
-25.0337807918
 20
9.431284829
 10
-25.0435018178
 20
9.406201844
 10
-25.0527506703
 20
9.3809932502
 10
-25.0615191837
 20
9.3556698513
 10
-25.0697964126
 20
9.3302497238
 10
-25.0775714486
 20
9.3047510776
 10
-25.0848352724
 20
9.2791873038
 10
-25.0915778291
 20
9.2535738243
 10
-25.0977881889
 20
9.2279302602
 10
-25.1034570483
 20
9.2022705114
 10
-25.108574492
 20
9.1766090025
 10
-25.113130178
 20
9.1509640589
 10
-25.1171143083
 20
9.1253500458
 10
-25.1205168137
 20
9.0997805782
 10
-25.1233275493
 20
9.0742699303
 10
-25.1255359107
 20
9.0488309415
 10
-25.1271310966
 20
9.0234785479
 10
-25.1278959319
 20
9.0052210501
  0
LINE
  5
240
100
AcDbEntity
  8
RACCORDO
100
AcDbLine
 62
7
  6
CONTINUOUS
 10
-24.6046277999
 20
10.0278280108
 11
-22.2372375393
 21
11.9338552938
  0
LINE
  5
241
100
AcDbEntity
  8
RACCORDO
100
AcDbLine
 62
250
  6
CONTINUOUS
 10
-24.4785417511
 20
10.0163922916
 11
-22.1555096176
 21
11.886706071
  0
LINE
  5
242
100
AcDbEntity
  8
RACCORDO
100
AcDbLine
 62
7
  6
CONTINUOUS
 10
-16.5757799611
 20
15.5924128294
 11
-10.0438069163
 21
19.6318829419
  0
LINE
  5
243
100
AcDbEntity
  8
DRAFT
100
AcDbLine
 62
7
  6
CONTINUOUS
 10
-11.6655733631
 20
19.9559178552
 11
-16.0542145564
 21
17.4219798347
  0
LINE
  5
244
100
AcDbEntity
  8
RACCORDO
100
AcDbLine
 62
7
  6
CONTINUOUS
 10
-16.0542145564
 20
17.4219798347
 11
-17.5308912527
 21
16.5693680444
  0
LINE
  5
245
100
AcDbEntity
  8
ASSI
100
AcDbLine
 62
7
  6
CONTINUOUS
 10
-10.2860634258
 20
20.6977736567
 11
-11.6655733631
 21
19.9559178552
  0
LINE
  5
246
100
AcDbEntity
  8
RACCORDO
100
AcDbLine
 62
7
  6
CONTINUOUS
 10
-10.0438069163
 20
19.6318829419
 11
-8.3108503526
 21
20.5638109013
  0
LINE
  5
247
100
AcDbEntity
  8
RACCORDO
100
AcDbLine
 62
7
  6
CONTINUOUS
 10
-19.1650845237
 20
16.9604086997
 11
-19.1650845237
 21
18.1066603292
  0
LINE
  5
248
100
AcDbEntity
  8
RACCORDO
100
AcDbLine
 62
7
  6
CONTINUOUS
 10
-7.3347833363
 20
17.29211372
 11
-10.9596872365
 21
15.0877112694
  0
LINE
  5
249
100
AcDbEntity
  8
RACCORDO
100
AcDbLine
 62
7
  6
CONTINUOUS
 10
-12.9065294302
 20
13.9037836893
 11
-13.0136553973
 21
13.838637481
  0
LINE
  5
24A
100
AcDbEntity
  8
0
100
AcDbLine
 62
7
  6
CONTINUOUS
 10
-14.1450262472
 20
15.9982035519
 11
-13.5351401526
 21
16.3503441393
  0
LINE
  5
24B
100
AcDbEntity
  8
RACCORDO
100
AcDbLine
 62
7
  6
CONTINUOUS
 10
-15.5708643317
 20
15.0121871396
 11
-14.4269059275
 21
15.6726921949
  0
LINE
  5
24C
100
AcDbEntity
  8
RACCORDO
100
AcDbLine
 62
7
  6
CONTINUOUS
 10
-12.8605933479
 20
16.5770584492
 11
-8.8068082351
 21
18.9176554066
  0
LINE
  5
24D
100
AcDbEntity
  8
RACCORDO
100
AcDbLine
 62
7
  6
CONTINUOUS
 10
-7.0975180093
 20
19.8632480129
 11
-8.7710147102
 21
18.8969886739
  0
LINE
  5
24E
100
AcDbEntity
  8
RACCORDO
100
AcDbLine
 62
7
  6
CONTINUOUS
 10
-8.9481868857
 20
18.2236727087
 11
-10.4684110287
 21
17.3459172518
  0
LINE
  5
24F
100
AcDbEntity
  8
RACCORDO
100
AcDbLine
 62
7
  6
CONTINUOUS
 10
-14.4876996523
 20
15.025238069
 11
-15.5708643317
 21
14.399834432
  0
LINE
  5
250
100
AcDbEntity
  8
ASSI
100
AcDbLine
 62
7
  6
CONTINUOUS
 10
-5.6802685056
 20
18.2365768113
 11
-5.8593066201
 21
18.1349808191
  0
LINE
  5
251
100
AcDbEntity
  8
ASSI
100
AcDbLine
 62
7
  6
CONTINUOUS
 10
9.339937984
 20
27.3284313918
 11
-6.3311503789
 21
18.9010272065
  0
LINE
  5
252
100
AcDbEntity
  8
ASSI
100
AcDbLine
 62
250
  6
CONTINUOUS
 10
9.5829213336
 20
27.2998040014
 11
-6.1883039069
 21
18.8185494439
  0
LINE
  5
253
100
AcDbEntity
  8
0
100
AcDbLine
 62
7
  6
CONTINUOUS
 10
-13.4586171932
 20
16.3848507341
 11
-8.8417253883
 21
17.8687417722
  0
LINE
  5
254
100
AcDbEntity
  8
RACCORDO
100
AcDbLine
 62
7
  6
CONTINUOUS
 10
-12.0977688326
 20
15.8689207592
 11
-10.0957668041
 21
16.5123737562
  0
LINE
  5
255
100
AcDbEntity
  8
RACCORDO
100
AcDbLine
 62
7
  6
CONTINUOUS
 10
-11.8636523555
 20
15.6096493997
 11
-10.1569851716
 21
16.1581803696
  0
LINE
  5
256
100
AcDbEntity
  8
RACCORDO
100
AcDbLine
 62
250
  6
CONTINUOUS
 10
-17.5308912527
 20
16.5693680444
 11
-17.5308912527
 21
17.7061417198
  0
LINE
  5
257
100
AcDbEntity
  8
RACCORDO
100
AcDbLine
 62
7
  6
CONTINUOUS
 10
-16.7752426103
 20
14.6880260919
 11
-16.7752426103
 21
15.3003787995
  0
LINE
  5
258
100
AcDbEntity
  8
RACCORDO
100
AcDbLine
 62
7
  6
CONTINUOUS
 10
-16.0542145564
 20
17.4219798347
 11
-16.0542145564
 21
18.529502085
  0
LINE
  5
259
100
AcDbEntity
  8
ASSI
100
AcDbLine
 62
7
  6
CONTINUOUS
 10
-9.6190696677
 20
14.5682976111
 11
-9.5841875086
 21
14.5898692615
  0
LINE
  5
25A
100
AcDbEntity
  8
ASSI
100
AcDbLine
 62
7
  6
CONTINUOUS
 10
-12.4872772723
 20
13.5347133487
 11
-12.3788492732
 21
13.59910778
  0
LINE
  5
25B
100
AcDbEntity
  8
ASSI
100
AcDbLine
 62
7
  6
CONTINUOUS
 10
-10.4083447414
 20
14.7693730226
 11
-8.9927681236
 21
15.6100714769
  0
LINE
  5
25C
100
AcDbEntity
  8
ASSI
100
AcDbLine
 62
7
  6
CONTINUOUS
 10
-6.1296720454
 20
17.3104389577
 11
-5.8593066201
 21
17.4710065967
  0
LINE
  5
25D
100
AcDbEntity
  8
RACCORDO
100
AcDbLine
 62
250
  6
CONTINUOUS
 10
-18.285755559
 20
7.9357688254
 11
-16.4579721668
 21
9.0173177622
  0
LINE
  5
25E
100
AcDbEntity
  8
RACCORDO
100
AcDbLine
 62
7
  6
CONTINUOUS
 10
-16.8263705962
 20
8.8097279899
 11
-19.4325120626
 21
7.2731090369
  0
LINE
  5
25F
100
AcDbEntity
  8
DRAFT
100
AcDbLine
 62
7
  6
CONTINUOUS
 10
-16.8220071623
 20
8.8071691429
 11
-16.4579721668
 21
9.0173177622
  0
LINE
  5
260
100
AcDbEntity
  8
ASSI
100
AcDbLine
 62
7
  6
CONTINUOUS
 10
-9.5841875086
 20
14.5898692615
 11
-8.3631193818
 21
15.2465201848
  0
LINE
  5
261
100
AcDbEntity
  8
RACCORDO
100
AcDbLine
 62
7
  6
CONTINUOUS
 10
-5.7847955114
 20
17.42128392
 11
-7.1126660252
 21
16.994500006
  0
LINE
  5
262
100
AcDbEntity
  8
RACCORDO
100
AcDbLine
 62
7
  6
CONTINUOUS
 10
-7.7623144262
 20
15.1650675982
 11
-9.7643164547
 21
14.5216146012
  0
LINE
  5
263
100
AcDbEntity
  8
CURVE
100
AcDbLine
 62
250
  6
CONTINUOUS
 10
6.1212715473
 20
-16.4092509661
 11
5.9426451199
 21
-16.4215748746
  0
LINE
  5
264
100
AcDbEntity
  8
CURVE
100
AcDbLine
 62
250
  6
CONTINUOUS
 10
6.657150867
 20
-15.4275066832
 11
6.8357773131
 21
-15.4151827634
  0
LINE
  5
265
100
AcDbEntity
  8
RACCORDO
100
AcDbLine
 62
250
  6
CONTINUOUS
 10
-8.6961193677
 20
-18.0720376355
 11
-13.3703076769
 21
-9.9761060082
  0
LINE
  5
266
100
AcDbEntity
  8
RACCORDO
100
AcDbLine
 62
250
  6
CONTINUOUS
 10
-8.6398417887
 20
-17.4855585955
 11
-13.0741453518
 21
-9.805119536
  0
LINE
  5
267
100
AcDbEntity
  8
0
100
AcDbLine
 62
7
  6
CONTINUOUS
 10
-14.4811655399
 20
14.8129588442
 11
-14.4983642627
 21
15.3717082709
  0
LINE
  5
268
100
AcDbEntity
  8
RACCORDO
100
AcDbLine
 62
250
  6
CONTINUOUS
 10
-15.5708643317
 20
14.399834432
 11
-15.5708643317
 21
15.0121871396
  0
LINE
  5
269
100
AcDbEntity
  8
RACCORDO
100
AcDbLine
 62
250
  6
CONTINUOUS
 10
-15.0287379647
 20
-4.3955024199
 11
-15.0287379647
 21
4.3587201468
  0
LINE
  5
26A
100
AcDbEntity
  8
RACCORDO
100
AcDbLine
 62
250
  6
CONTINUOUS
 10
-14.6808244929
 20
-4.3986581089
 11
-14.6808244929
 21
4.0064910624
  0
LINE
  5
26B
100
AcDbEntity
  8
ASSI
100
AcDbLine
 62
7
  6
CONTINUOUS
 10
-14.3218029425
 20
19.5350045319
 11
-14.3218029425
 21
18.4222492717
  0
LINE
  5
26C
100
AcDbEntity
  8
RACCORDO
100
AcDbLine
 62
250
  6
CONTINUOUS
 10
-12.0977688326
 20
15.8689207592
 11
-12.1169612701
 21
15.7578783595
  0
LINE
  5
26D
100
AcDbEntity
  8
0
100
AcDbLine
 62
7
  6
CONTINUOUS
 10
-9.1436638522
 20
11.7311522644
 11
-9.1766300454
 21
11.7107887436
  0
LINE
  5
26E
100
AcDbEntity
  8
ASSI
100
AcDbLine
 62
7
  6
CONTINUOUS
 10
-5.8415463135
 20
13.3212144949
 11
-5.4350768327
 21
13.5559051139
  0
LINE
  5
26F
100
AcDbEntity
  8
ASSI
100
AcDbLine
 62
7
  6
CONTINUOUS
 10
-5.9419492258
 20
12.201831944
 11
-4.5159284288
 21
13.0252003451
  0
LINE
  5
270
100
AcDbEntity
  8
RACCORDO
100
AcDbLine
 62
7
  6
CONTINUOUS
 10
-17.3946159075
 20
6.1375965413
 11
-17.3945501785
 21
6.1376311947
  0
LINE
  5
271
100
AcDbEntity
  8
RACCORDO
100
AcDbLine
 62
250
  6
CONTINUOUS
 10
-17.3721503486
 20
6.1486466645
 11
-17.4283671998
 21
6.119010074
  0
LINE
  5
272
100
AcDbEntity
  8
RACCORDO
100
AcDbLine
 62
250
  6
CONTINUOUS
 10
-16.8712802261
 20
6.1785554876
 11
-22.2733428423
 21
3.3306778903
  0
LWPOLYLINE
  5
273
100
AcDbEntity
  8
RACCORDO
100
AcDbPolyline
 62
7
  6
CONTINUOUS
 90
79
 70
0
 10
-17.3946194616
 20
6.1375944192
 10
-17.379327608
 20
6.1453437924
 10
-17.3585916685
 20
6.1548861751
 10
-17.3374306922
 20
6.1635500142
 10
-17.3158573571
 20
6.1713435193
 10
-17.2938165742
 20
6.1782976959
 10
-17.2711834887
 20
6.1844525347
 10
-17.2479242468
 20
6.1898081962
 10
-17.2240528259
 20
6.1943528196
 10
-17.1995216425
 20
6.1980856902
 10
-17.174317027
 20
6.2009956198
 10
-17.1484674364
 20
6.203067504
 10
-17.1219977957
 20
6.2042894813
 10
-17.0949166915
 20
6.204652342
 10
-17.0672626817
 20
6.2041482285
 10
-17.0391135295
 20
6.2027748593
 10
-17.0104997712
 20
6.2005336483
 10
-16.981460379
 20
6.1974287316
 10
-16.9520890629
 20
6.193474547
 10
-16.9225038563
 20
6.1886983077
 10
-16.8926676808
 20
6.1831061491
 10
-16.8624300583
 20
6.1766724156
 10
-16.8318220349
 20
6.1694004522
 10
-16.800872468
 20
6.161294635
 10
-16.7694069339
 20
6.1523000285
 10
-16.7373833257
 20
6.1423867752
 10
-16.70488822
 20
6.1315645263
 10
-16.6719296625
 20
6.119820918
 10
-16.6385287909
 20
6.1071485716
 10
-16.6047112932
 20
6.0935430422
 10
-16.5704891604
 20
6.0789949618
 10
-16.5358857609
 20
6.0635002182
 10
-16.5009246748
 20
6.0470560594
 10
-16.4656155497
 20
6.0296535396
 10
-16.4299813106
 20
6.0112903585
 10
-16.3940455539
 20
5.9919657806
 10
-16.3578165312
 20
5.9716711585
 10
-16.3213174663
 20
5.9504061475
 10
-16.2845711313
 20
5.928171261
 10
-16.247583096
 20
5.9049568773
 10
-16.2103735114
 20
5.880762112
 10
-16.1729677816
 20
5.8555903944
 10
-16.1353778364
 20
5.8294368053
 10
-16.0976214704
 20
5.8023003306
 10
-16.0597262967
 20
5.7741877021
 10
-16.0217178532
 20
5.7451054941
 10
-15.9836184357
 20
5.715058581
 10
-15.9454509878
 20
5.6840530297
 10
-15.9072410487
 20
5.6520981659
 10
-15.8690108566
 20
5.6192014094
 10
-15.8307829875
 20
5.5853710853
 10
-15.79258257
 20
5.5506188749
 10
-15.7544310493
 20
5.5149540317
 10
-15.7163511573
 20
5.4783875795
 10
-15.6783690532
 20
5.4409349389
 10
-15.6405064501
 20
5.402608295
 10
-15.6027849024
 20
5.3634202562
 10
-15.5652294341
 20
5.3233879872
 10
-15.5278610099
 20
5.2825255238
 10
-15.4907008172
 20
5.2408477511
 10
-15.4537733269
 20
5.1983741312
 10
-15.4170983097
 20
5.1551199683
 10
-15.3806968108
 20
5.1111027132
 10
-15.3445942704
 20
5.0663460997
 10
-15.3088103098
 20
5.0208680918
 10
-15.2733644639
 20
4.9746872914
 10
-15.2382810406
 20
4.9278294192
 10
-15.2035787403
 20
4.8803141333
 10
-15.1692760495
 20
4.8321616499
 10
-15.1353959354
 20
4.7833993757
 10
-15.1019563724
 20
4.7340489561
 10
-15.0689746171
 20
4.684131977
 10
-15.0364716253
 20
4.6336765006
 10
-15.004464092
 20
4.582705251
 10
-14.972967675
 20
4.531240342
 10
-14.9420008427
 20
4.4793093347
 10
-14.9115800326
 20
4.4269376685
 10
-14.8817204688
 20
4.3741500718
 10
-14.8559682209
 20
4.3274608976
  0
LINE
  5
274
100
AcDbEntity
  8
RACCORDO
100
AcDbLine
 62
7
  6
CONTINUOUS
 10
-8.0672601798
 20
13.5417555773
 11
-6.0652581513
 21
14.1852085742
  0
LINE
  5
275
100
AcDbEntity
  8
RACCORDO
100
AcDbLine
 62
7
  6
CONTINUOUS
 10
-7.8331437028
 20
13.2824842178
 11
-6.1264765188
 21
13.8310151876
  0
LINE
  5
276
100
AcDbEntity
  8
RACCORDO
100
AcDbLine
 62
7
  6
CONTINUOUS
 10
-3.7318057734
 20
12.8379024162
 11
-5.7338078019
 21
12.1944494193
  0
LINE
  5
277
100
AcDbEntity
  8
ASSI
100
AcDbLine
 62
7
  6
CONTINUOUS
 10
2.4514812494
 20
-18.0781019551
 11
2.5689711257
 21
-18.1459391372
  0
LINE
  5
278
100
AcDbEntity
  8
0
100
AcDbLine
 62
7
  6
CONTINUOUS
 10
-11.297950389
 20
12.9356125236
 11
-11.2991850246
 21
12.9757231743
  0
LINE
  5
279
100
AcDbEntity
  8
RACCORDO
100
AcDbLine
 62
250
  6
CONTINUOUS
 10
-10.0957668041
 20
16.5123737562
 11
-10.1569851716
 21
16.1581803696
  0
LINE
  5
27A
100
AcDbEntity
  8
RACCORDO
100
AcDbLine
 62
250
  6
CONTINUOUS
 10
-9.8162763424
 20
16.4750949063
 11
-9.8774947099
 21
16.1209015196
  0
LINE
  5
27B
100
AcDbEntity
  8
ASSI
100
AcDbLine
 62
7
  6
CONTINUOUS
 10
-6.3652241662
 20
12.4349258747
 11
-5.8415463135
 21
13.3212144949
  0
LINE
  5
27C
100
AcDbEntity
  8
RACCORDO
100
AcDbLine
 62
7
  6
CONTINUOUS
 10
-12.3542882414
 20
3.1862313134
 11
-10.4824669562
 21
5.1468375359
  0
LINE
  5
27D
100
AcDbEntity
  8
RACCORDO
100
AcDbLine
 62
7
  6
CONTINUOUS
 10
-6.4990701434
 20
9.7742468715
 11
0.0329029014
 21
13.813716984
  0
LINE
  5
27E
100
AcDbEntity
  8
0
100
AcDbLine
 62
250
  6
CONTINUOUS
 10
-5.7304124761
 20
10.647021265
 11
-6.0130828884
 21
10.4724131509
  0
LINE
  5
27F
100
AcDbEntity
  8
RACCORDO
100
AcDbLine
 62
7
  6
CONTINUOUS
 10
-7.4982225041
 20
10.6540956531
 11
-7.3891663393
 21
10.7181273894
  0
LINE
  5
280
100
AcDbEntity
  8
RACCORDO
100
AcDbLine
 62
7
  6
CONTINUOUS
 10
-3.6817005735
 20
12.8949458306
 11
-1.7170284239
 21
14.0484924406
  0
LINE
  5
281
100
AcDbEntity
  8
0
100
AcDbLine
 62
7
  6
CONTINUOUS
 10
-5.659744873
 20
11.0989084319
 11
-5.0498587783
 21
11.4510490193
  0
LINE
  5
282
100
AcDbEntity
  8
0
100
AcDbLine
 62
7
  6
CONTINUOUS
 10
-5.659744873
 20
10.7723203212
 11
-5.0498587783
 21
11.1244609086
  0
LINE
  5
283
100
AcDbEntity
  8
RACCORDO
100
AcDbLine
 62
250
  6
CONTINUOUS
 10
-13.40844981
 20
5.1196739182
 11
-11.5579721668
 21
6.1881191737
  0
LINE
  5
284
100
AcDbEntity
  8
RACCORDO
100
AcDbLine
 62
7
  6
CONTINUOUS
 10
-5.494154514
 20
9.1940211817
 11
2.9433982835
 21
14.0657487876
  0
LINE
  5
285
100
AcDbEntity
  8
RACCORDO
100
AcDbLine
 62
250
  6
CONTINUOUS
 10
-15.0287379647
 20
4.3587201468
 11
-24.1082242893
 21
-0.5642070956
  0
LINE
  5
286
100
AcDbEntity
  8
RACCORDO
100
AcDbLine
 62
7
  6
CONTINUOUS
 10
1.7300659403
 20
14.766311676
 11
-0.0028906235
 21
13.8343837167
  0
LINE
  5
287
100
AcDbEntity
  8
ASSI
100
AcDbLine
 62
7
  6
CONTINUOUS
 10
17.620109365
 20
22.8120419586
 11
18.2838253612
 21
23.1689669427
  0
LINE
  5
288
100
AcDbEntity
  8
ASSI
100
AcDbLine
 62
250
  6
CONTINUOUS
 10
17.5687873443
 20
22.6888650532
 11
18.4296153709
 21
23.1517905084
  0
LINE
  5
289
100
AcDbEntity
  8
0
100
AcDbLine
 62
7
  6
CONTINUOUS
 10
-4.973335819
 20
11.4855556142
 11
-2.3883348133
 21
12.316387262
  0
LINE
  5
28A
100
AcDbEntity
  8
0
100
AcDbLine
 62
7
  6
CONTINUOUS
 10
-5.0345541865
 20
11.1313622276
 11
-3.5146175966
 21
11.6198770942
  0
LINE
  5
28B
100
AcDbEntity
  8
CURVE
100
AcDbLine
 62
250
  6
CONTINUOUS
 10
6.1212715473
 20
-11.2130008811
 11
5.9426451199
 21
-11.2253244744
  0
LINE
  5
28C
100
AcDbEntity
  8
CURVE
100
AcDbLine
 62
250
  6
CONTINUOUS
 10
6.657150867
 20
-10.2312565194
 11
6.8357773131
 21
-10.218932915
  0
LINE
  5
28D
100
AcDbEntity
  8
CURVE
100
AcDbLine
 62
250
  6
CONTINUOUS
 10
5.7640186924
 20
-13.2216714709
 11
6.0319583709
 21
-13.2504242007
  0
LINE
  5
28E
100
AcDbEntity
  8
CURVE
100
AcDbLine
 62
250
  6
CONTINUOUS
 10
7.0144037592
 20
-12.6630179171
 11
6.1212715473
 21
-12.5356827295
  0
LINE
  5
28F
100
AcDbEntity
  8
CURVE
100
AcDbLine
 62
250
  6
CONTINUOUS
 10
6.1212715473
 20
-17.1650691989
 11
5.7640186924
 21
-17.0007623593
  0
LINE
  5
290
100
AcDbEntity
  8
CURVE
100
AcDbLine
 62
250
  6
CONTINUOUS
 10
5.9426451199
 20
-16.4215748746
 11
5.7640186924
 21
-16.3394214746
  0
LINE
  5
291
100
AcDbEntity
  8
CURVE
100
AcDbLine
 62
250
  6
CONTINUOUS
 10
6.8357773131
 20
-15.4151827634
 11
7.0144037592
 21
-15.4973361524
  0
LWPOLYLINE
  5
292
100
AcDbEntity
  8
RACCORDO
100
AcDbPolyline
 62
7
  6
CONTINUOUS
 90
52
 70
0
 10
-10.3417533998
 20
-3.8689557598
 10
-10.280272756
 20
-3.9805511108
 10
-10.2160211412
 20
-4.0996399146
 10
-10.1528585126
 20
-4.2192877008
 10
-10.0908020601
 20
-4.3394604452
 10
-10.0298677031
 20
-4.4601249944
 10
-9.9700717132
 20
-4.5812467085
 10
-9.9114283852
 20
-4.7027941961
 10
-9.8539524308
 20
-4.824733943
 10
-9.7976603237
 20
-4.9470279337
 10
-9.7425658297
 20
-5.0696430533
 10
-9.6886822045
 20
-5.1925458049
 10
-9.6360246521
 20
-5.3156973967
 10
-9.5846056608
 20
-5.4390642987
 10
-9.5344370494
 20
-5.5626130382
 10
-9.4855324936
 20
-5.6863047111
 10
-9.4379031726
 20
-5.8101055606
 10
-9.3915595898
 20
-5.9339819027
 10
-9.3465138828
 20
-6.0578947548
 10
-9.3027758667
 20
-6.1818102558
 10
-9.2603546621
 20
-6.3056946992
 10
-9.2192608345
 20
-6.4295091534
 10
-9.1795027663
 20
-6.55321988
 10
-9.1410882039
 20
-6.6767931354
 10
-9.1040262122
 20
-6.8001898009
 10
-9.0683237687
 20
-6.9233761336
 10
-9.0339871161
 20
-7.046318718
 10
-9.0010236529
 20
-7.1689787481
 10
-8.9694388705
 20
-7.2913227484
 10
-8.9392375274
 20
-7.4133175891
 10
-8.9104253484
 20
-7.534924799
 10
-8.8830062952
 20
-7.6561113277
 10
-8.8569836157
 20
-7.7768444031
 10
-8.832361368
 20
-7.8970857813
 10
-8.8091421323
 20
-8.0168019633
 10
-8.7873273895
 20
-8.1359616585
 10
-8.7669190166
 20
-8.2545297068
 10
-8.7479179889
 20
-8.3724736294
 10
-8.730324385
 20
-8.4897622734
 10
-8.7141383107
 20
-8.6063621632
 10
-8.699359141
 20
-8.7222421833
 10
-8.6859855666
 20
-8.8373712104
 10
-8.6740162162
 20
-8.9517154187
 10
-8.6634489323
 20
-9.0652441082
 10
-8.654280772
 20
-9.1779270721
 10
-8.6465086588
 20
-9.2897308649
 10
-8.6401288259
 20
-9.4006253759
 10
-8.635136697
 20
-9.510582483
 10
-8.6315274349
 20
-9.6195713313
 10
-8.6292956465
 20
-9.7275622411
 10
-8.6284350444
 20
-9.8345253578
 10
-8.6288768643
 20
-9.934724207
  0
LWPOLYLINE
  5
293
100
AcDbEntity
  8
RACCORDO
100
AcDbPolyline
 62
7
  6
CONTINUOUS
 90
10
 70
0
 10
-14.8559682124
 20
4.3274608976
 10
-14.3609021003
 20
3.4201986285
 10
-13.8611963181
 20
2.5065524283
 10
-13.3605963739
 20
1.5933942801
 10
-12.8591031352
 20
0.6807257205
 10
-12.3567173256
 20
-0.2314519637
 10
-11.8534396156
 20
-1.1431375791
 10
-11.3492707262
 20
-2.054329837
 10
-10.8442115127
 20
-2.9650271939
 10
-10.3417533958
 20
-3.8689557572
  0
LINE
  5
294
100
AcDbEntity
  8
0
100
AcDbLine
 62
7
  6
CONTINUOUS
 10
-9.177864681
 20
11.7508993943
 11
-9.1766300454
 21
11.7107887436
  0
LWPOLYLINE
  5
295
100
AcDbEntity
  8
ASSI
100
AcDbPolyline
 62
7
  6
CONTINUOUS
 90
24
 70
0
 10
-9.9063304369
 20
21.5424474437
 10
-9.9065724613
 20
21.5640019598
 10
-9.9080397491
 20
21.5992435484
 10
-9.9108323663
 20
21.6337851356
 10
-9.9149559521
 20
21.667676231
 10
-9.9204021523
 20
21.7008149558
 10
-9.9271174223
 20
21.7329584384
 10
-9.9350577888
 20
21.7640410799
 10
-9.9442038652
 20
21.7941032209
 10
-9.9545039941
 20
21.8230734731
 10
-9.965905905
 20
21.8509074421
 10
-9.9783809478
 20
21.8776268331
 10
-9.9919069553
 20
21.9032512617
 10
-10.0064442239
 20
21.9277621549
 10
-10.021951035
 20
21.9511407827
 10
-10.0384023309
 20
21.9733930909
 10
-10.0557518288
 20
21.9944954084
 10
-10.0739528306
 20
22.0144274455
 10
-10.0929770331
 20
22.0331907773
 10
-10.1127739783
 20
22.0507645267
 10
-10.1332887987
 20
22.0671281165
 10
-10.1544843198
 20
22.0822789138
 10
-10.1763102658
 20
22.0962052148
 10
-10.1840350738
 20
22.1007571956
  0
LWPOLYLINE
  5
296
100
AcDbEntity
  8
RACCORDO
100
AcDbPolyline
 62
7
  6
CONTINUOUS
 90
49
 70
0
 10
-8.6288756928
 20
-18.7059103162
 10
-8.6284307557
 20
-18.8009819466
 10
-8.6292147116
 20
-18.9011176142
 10
-8.6312878522
 20
-19.0001541767
 10
-8.6346418093
 20
-19.0980536359
 10
-8.6392680113
 20
-19.194803175
 10
-8.645159436
 20
-19.290411134
 10
-8.6523078658
 20
-19.3848544035
 10
-8.6607042262
 20
-19.4781084993
 10
-8.6703420429
 20
-19.5701768846
 10
-8.6812126046
 20
-19.6610355816
 10
-8.6933062869
 20
-19.7506602747
 10
-8.7066166809
 20
-19.8390511865
 10
-8.7211342682
 20
-19.9261843753
 10
-8.7368487418
 20
-20.0120364488
 10
-8.7537536038
 20
-20.0966057738
 10
-8.7718371052
 20
-20.1798628322
 10
-8.7910892504
 20
-20.2617909013
 10
-8.8115077513
 20
-20.3424041587
 10
-8.8330782148
 20
-20.4216656238
 10
-8.855792616
 20
-20.4995661776
 10
-8.8796620244
 20
-20.5761556531
 10
-8.9046751137
 20
-20.651402396
 10
-8.9308237735
 20
-20.7252878798
 10
-8.95812992
 20
-20.7978724233
 10
-8.9865834196
 20
-20.8691204567
 10
-9.0161790149
 20
-20.9390117917
 10
-9.0469534284
 20
-21.0076182107
 10
-9.0789017816
 20
-21.0749059487
 10
-9.1120196799
 20
-21.140844848
 10
-9.1463530306
 20
-21.2054988757
 10
-9.1819005973
 20
-21.2688310688
 10
-9.2186609833
 20
-21.3308065298
 10
-9.2566886852
 20
-21.3914788378
 10
-9.2959944493
 20
-21.4508192968
 10
-9.3365732316
 20
-21.5087768314
 10
-9.3784635256
 20
-21.5653611492
 10
-9.4216754007
 20
-21.6205369328
 10
-9.4662107585
 20
-21.6742599098
 10
-9.5121020697
 20
-21.7265210788
 10
-9.5593541895
 20
-21.7772766982
 10
-9.6079821838
 20
-21.8264952592
 10
-9.6580417435
 20
-21.8741811625
 10
-9.7095432491
 20
-21.9202903517
 10
-9.7625099975
 20
-21.9647903664
 10
-9.8170281797
 20
-22.0076944414
 10
-9.8731470893
 20
-22.0489762855
 10
-9.9308733285
 20
-22.0885752787
 10
-9.9707632661
 20
-22.1143324873
  0
LINE
  5
297
100
AcDbEntity
  8
ASSI
100
AcDbLine
 62
250
  6
CONTINUOUS
 10
-9.9764954507
 20
20.8100728733
 11
-9.9764954507
 21
21.4421819029
  0
LINE
  5
298
100
AcDbEntity
  8
ASSI
100
AcDbLine
 62
7
  6
CONTINUOUS
 10
-9.9063304008
 20
20.8242469038
 11
-9.9063304008
 21
21.5424536622
  0
LINE
  5
299
100
AcDbEntity
  8
RACCORDO
100
AcDbLine
 62
7
  6
CONTINUOUS
 10
-8.8068082351
 20
18.4657713203
 11
-8.8068082351
 21
18.9176554066
  0
LWPOLYLINE
  5
29A
100
AcDbEntity
  8
RACCORDO
100
AcDbPolyline
 62
7
  6
CONTINUOUS
 90
10
 70
0
 10
-8.6288768629
 20
-9.9347244316
 10
-8.638019027
 20
-10.909823945
 10
-8.6449267973
 20
-11.8899778391
 10
-8.6495322541
 20
-12.8687431376
 10
-8.6518353092
 20
-13.8461110746
 10
-8.6518359192
 20
-14.8220743781
 10
-8.649534049
 20
-15.7966263565
 10
-8.6449296717
 20
-16.769759747
 10
-8.6380228054
 20
-17.7414658467
 10
-8.6288756906
 20
-18.7059099947
  0
LINE
  5
29B
100
AcDbEntity
  8
RACCORDO
100
AcDbLine
 62
250
  6
CONTINUOUS
 10
-7.765666677
 20
15.2910985856
 11
-7.7889281491
 21
15.1565138207
  0
LINE
  5
29C
100
AcDbEntity
  8
RACCORDO
100
AcDbLine
 62
250
  6
CONTINUOUS
 10
-8.0672601798
 20
13.5417555773
 11
-8.0864526173
 21
13.4307131775
  0
LINE
  5
29D
100
AcDbEntity
  8
RACCORDO
100
AcDbLine
 62
250
  6
CONTINUOUS
 10
-6.0652581513
 20
14.1852085742
 11
-6.1264765188
 21
13.8310151876
  0
LINE
  5
29E
100
AcDbEntity
  8
RACCORDO
100
AcDbLine
 62
250
  6
CONTINUOUS
 10
-5.7857676897
 20
14.1479297243
 11
-5.8469860572
 21
13.7937363377
  0
LINE
  5
29F
100
AcDbEntity
  8
RACCORDO
100
AcDbLine
 62
7
  6
CONTINUOUS
 10
-1.2957201731
 20
10.1511708851
 11
-2.7208614802
 21
9.2990757268
  0
LINE
  5
2A0
100
AcDbEntity
  8
RACCORDO
100
AcDbLine
 62
250
  6
CONTINUOUS
 10
-1.1695898844
 20
10.1394239167
 11
-2.5925686673
 21
9.2886217364
  0
LINE
  5
2A1
100
AcDbEntity
  8
RACCORDO
100
AcDbLine
 62
7
  6
CONTINUOUS
 10
1.2699015826
 20
12.4871367411
 11
-5.494154514
 21
8.5816684741
  0
LINE
  5
2A2
100
AcDbEntity
  8
DRAFT
100
AcDbLine
 62
7
  6
CONTINUOUS
 10
3.2847177232
 20
13.6504703235
 11
1.2699015826
 21
12.4871367411
  0
LINE
  5
2A3
100
AcDbEntity
  8
ASSI
100
AcDbLine
 62
7
  6
CONTINUOUS
 10
0.5106692963
 20
11.1176593222
 11
-1.1767336235
 21
10.1433706791
  0
LINE
  5
2A4
100
AcDbEntity
  8
ASSI
100
AcDbLine
 62
250
  6
CONTINUOUS
 10
0.6366175864
 20
11.1057869788
 11
-1.1033242064
 21
10.1011629448
  0
LINE
  5
2A5
100
AcDbEntity
  8
ASSI
100
AcDbLine
 62
250
  6
CONTINUOUS
 10
-0.1089297167
 20
9.5270120291
 11
5.4613090815
 21
12.7432091428
  0
LINE
  5
2A6
100
AcDbEntity
  8
ASSI
100
AcDbLine
 62
250
  6
CONTINUOUS
 10
0.0678200546
 20
9.2208724452
 11
5.6380588529
 21
12.4370695589
  0
LINE
  5
2A7
100
AcDbEntity
  8
RACCORDO
100
AcDbLine
 62
250
  6
CONTINUOUS
 10
-1.5825212343
 20
8.7054330074
 11
-0.1089835687
 21
9.5270431226
  0
LINE
  5
2A8
100
AcDbEntity
  8
RACCORDO
100
AcDbLine
 62
250
  6
CONTINUOUS
 10
-1.4088566417
 20
8.3974809919
 11
0.0678200546
 21
9.2208413571
  0
LINE
  5
2A9
100
AcDbEntity
  8
ASSI
100
AcDbLine
 62
7
  6
CONTINUOUS
 10
0.5129461905
 20
11.1189284885
 11
0.5106692861
 21
11.1176593163
  0
LINE
  5
2AA
100
AcDbEntity
  8
ASSI
100
AcDbLine
 62
7
  6
CONTINUOUS
 10
4.4815145716
 20
13.253096138
 11
0.5129462426
 21
11.1189285185
  0
LINE
  5
2AB
100
AcDbEntity
  8
ASSI
100
AcDbLine
 62
250
  6
CONTINUOUS
 10
4.6030062463
 20
13.2387824428
 11
0.6366175864
 21
11.1057869788
  0
LINE
  5
2AC
100
AcDbEntity
  8
0
100
AcDbLine
 62
7
  6
CONTINUOUS
 10
19.7101398142
 20
-4.2375573439
 11
19.7607439107
 21
-4.2257231473
  0
LINE
  5
2AD
100
AcDbEntity
  8
CURVE
100
AcDbLine
 62
250
  6
CONTINUOUS
 10
5.9426451199
 20
-11.2253244744
 11
5.7640186924
 21
-11.1431711531
  0
LINE
  5
2AE
100
AcDbEntity
  8
0
100
AcDbLine
 62
7
  6
CONTINUOUS
 10
-6.0010723358
 20
10.0822161859
 11
-6.0130828884
 21
10.4724131509
  0
LINE
  5
2AF
100
AcDbEntity
  8
0
100
AcDbLine
 62
7
  6
CONTINUOUS
 10
-5.7184079498
 20
10.2570200822
 11
-5.7304124761
 21
10.647021265
  0
LINE
  5
2B0
100
AcDbEntity
  8
RACCORDO
100
AcDbLine
 62
7
  6
CONTINUOUS
 10
-7.1970707767
 20
17.9882131729
 11
-7.1970707767
 21
17.5363290866
  0
LINE
  5
2B1
100
AcDbEntity
  8
RACCORDO
100
AcDbLine
 62
7
  6
CONTINUOUS
 10
-6.7561985696
 20
19.6591507031
 11
-6.7561985696
 21
19.1464447047
  0
LINE
  5
2B2
100
AcDbEntity
  8
RACCORDO
100
AcDbLine
 62
7
  6
CONTINUOUS
 10
-6.6985327926
 20
8.869860134
 11
-6.6985327926
 21
9.4822128415
  0
LINE
  5
2B3
100
AcDbEntity
  8
ASSI
100
AcDbLine
 62
250
  6
CONTINUOUS
 10
-5.8593066201
 20
18.1349808191
 11
-5.8593066201
 21
17.4710065967
  0
LINE
  5
2B4
100
AcDbEntity
  8
ASSI
100
AcDbLine
 62
7
  6
CONTINUOUS
 10
-5.6951002121
 20
13.405770358
 11
-5.6951002121
 21
12.3443589982
  0
LINE
  5
2B5
100
AcDbEntity
  8
0
100
AcDbLine
 62
250
  6
CONTINUOUS
 10
-5.659744873
 20
10.7723203212
 11
-5.659744873
 21
11.0989084319
  0
LINE
  5
2B6
100
AcDbEntity
  8
ASSI
100
AcDbLine
 62
7
  6
CONTINUOUS
 10
-5.5726984196
 20
18.3955692885
 11
-5.5726984196
 21
17.8722056947
  0
LINE
  5
2B7
100
AcDbEntity
  8
RACCORDO
100
AcDbLine
 62
250
  6
CONTINUOUS
 10
-5.5017682398
 20
4.8975383454
 11
-5.5017682398
 21
2.271036153
  0
LINE
  5
2B8
100
AcDbEntity
  8
RACCORDO
100
AcDbLine
 62
250
  6
CONTINUOUS
 10
-5.5017682398
 20
-28.4283084306
 11
-5.5017682398
 21
-31.054810623
  0
LINE
  5
2B9
100
AcDbEntity
  8
RACCORDO
100
AcDbLine
 62
250
  6
CONTINUOUS
 10
-5.494154514
 20
8.5816684741
 11
-5.494154514
 21
9.1940211817
  0
LINE
  5
2BA
100
AcDbEntity
  8
RACCORDO
100
AcDbLine
 62
250
  6
CONTINUOUS
 10
-5.1513269518
 20
4.8957725474
 11
-5.1513269518
 21
2.4733568361
  0
LINE
  5
2BB
100
AcDbEntity
  8
RACCORDO
100
AcDbLine
 62
250
  6
CONTINUOUS
 10
-5.1513269518
 20
-28.6341607097
 11
-5.1513269518
 21
-31.056576421
  0
LINE
  5
2BC
100
AcDbEntity
  8
RACCORDO
100
AcDbLine
 62
250
  6
CONTINUOUS
 10
-5.1420435518
 20
2.3929633585
 11
-5.1420435518
 21
2.0633224366
  0
LINE
  5
2BD
100
AcDbEntity
  8
RACCORDO
100
AcDbLine
 62
250
  6
CONTINUOUS
 10
-5.1420435518
 20
-27.8748102089
 11
-5.1420435518
 21
-28.2277343637
  0
LINE
  5
2BE
100
AcDbEntity
  8
0
100
AcDbLine
 62
250
  6
CONTINUOUS
 10
-5.0498587783
 20
11.1244609086
 11
-5.0498587783
 21
11.4510490193
  0
LINE
  5
2BF
100
AcDbEntity
  8
0
100
AcDbLine
 62
250
  6
CONTINUOUS
 10
-5.0345541865
 20
11.1313622276
 11
-4.973335819
 21
11.4855556142
  0
LINE
  5
2C0
100
AcDbEntity
  8
RACCORDO
100
AcDbLine
 62
250
  6
CONTINUOUS
 10
-3.7351580242
 20
12.9639334036
 11
-3.7584194964
 21
12.8293486388
  0
LINE
  5
2C1
100
AcDbEntity
  8
RACCORDO
100
AcDbLine
 62
250
  6
CONTINUOUS
 10
-5.3280767232
 20
5.2019121313
 11
-2.0484047231
 21
7.0955473614
  0
LINE
  5
2C2
100
AcDbEntity
  8
RACCORDO
100
AcDbLine
 62
250
  6
CONTINUOUS
 10
-5.1513269518
 20
4.8957725474
 11
-1.4088566417
 21
7.0566208354
  0
LINE
  5
2C3
100
AcDbEntity
  8
ASSI
100
AcDbLine
 62
250
  6
CONTINUOUS
 10
22.9377545105
 20
20.5488474694
 11
22.1064625482
 21
20.0688682609
  0
LINE
  5
2C4
100
AcDbEntity
  8
ASSI
100
AcDbLine
 62
250
  6
CONTINUOUS
 10
23.1498542361
 20
20.1814799688
 11
22.6709809999
 21
19.9049836145
  0
LINE
  5
2C5
100
AcDbEntity
  8
0
100
AcDbLine
 62
7
  6
CONTINUOUS
 10
20.9558922119
 20
-2.8450562265
 11
20.6092720481
 21
-2.9261162883
  0
LINE
  5
2C6
100
AcDbEntity
  8
CURVE
100
AcDbLine
 62
250
  6
CONTINUOUS
 10
7.0144037592
 20
-11.2458585235
 11
6.8357773131
 21
-11.1637052134
  0
LINE
  5
2C7
100
AcDbEntity
  8
CURVE
100
AcDbLine
 62
250
  6
CONTINUOUS
 10
6.8357773131
 20
-10.218932915
 11
7.0144037592
 21
-10.3010862251
  0
LINE
  5
2C8
100
AcDbEntity
  8
DRAFT
100
AcDbLine
 62
7
  6
CONTINUOUS
 10
-11.1939371713
 20
5.5575920664
 11
-11.5579721668
 21
6.1881191737
  0
LINE
  5
2C9
100
AcDbEntity
  8
RACCORDO
100
AcDbLine
 62
250
  6
CONTINUOUS
 10
-4.7916022639
 20
2.673930903
 11
-4.7916022639
 21
1.8903032184
  0
LINE
  5
2CA
100
AcDbEntity
  8
RACCORDO
100
AcDbLine
 62
250
  6
CONTINUOUS
 10
-4.7916022639
 20
-27.6499589581
 11
-4.7916022639
 21
-28.4335866428
  0
LINE
  5
2CB
100
AcDbEntity
  8
RACCORDO
100
AcDbLine
 62
7
  6
CONTINUOUS
 10
-3.0430499127
 20
7.6517479718
 11
-3.0430499127
 21
8.7979996013
  0
LINE
  5
2CC
100
AcDbEntity
  8
RACCORDO
100
AcDbLine
 62
250
  6
CONTINUOUS
 10
-5.1445933832
 20
2.0648162341
 11
-7.5501635773
 21
0.2421588965
  0
LINE
  5
2CD
100
AcDbEntity
  8
RACCORDO
100
AcDbLine
 62
250
  6
CONTINUOUS
 10
-4.7916022639
 20
1.8903032184
 11
-7.3458044729
 21
-0.0449699279
  0
LINE
  5
2CE
100
AcDbEntity
  8
ASSI
100
AcDbLine
 62
250
  6
CONTINUOUS
 10
24.864200534
 20
18.4765849105
 11
17.8470822512
 21
14.4249748477
  0
LINE
  5
2CF
100
AcDbEntity
  8
ASSI
100
AcDbLine
 62
250
  6
CONTINUOUS
 10
6.2202030624
 20
6.9819947375
 11
18.4790161985
 21
14.0601041065
  0
LINE
  5
2D0
100
AcDbEntity
  8
ASSI
100
AcDbLine
 62
250
  6
CONTINUOUS
 10
25.2177000767
 20
17.8643057427
 11
18.6943864297
 21
14.0978132668
  0
LINE
  5
2D1
100
AcDbEntity
  8
RACCORDO
100
AcDbLine
 62
250
  6
CONTINUOUS
 10
-5.1513269518
 20
2.4733568361
 11
-4.7916022639
 21
2.673930903
  0
LINE
  5
2D2
100
AcDbEntity
  8
RACCORDO
100
AcDbLine
 62
7
  6
CONTINUOUS
 10
-5.331485973
 20
2.2873346982
 11
-4.9717612851
 21
2.4879087651
  0
LINE
  5
2D3
100
AcDbEntity
  8
RACCORDO
100
AcDbLine
 62
250
  6
CONTINUOUS
 10
-15.0287379647
 20
-4.3955024199
 11
-24.1082242872
 21
-9.3184234859
  0
LINE
  5
2D4
100
AcDbEntity
  8
CURVE
100
AcDbLine
 62
250
  6
CONTINUOUS
 10
7.3628440119
 20
5.5771960658
 11
5.6499780517
 21
5.0758760272
  0
LINE
  5
2D5
100
AcDbEntity
  8
CURVE
100
AcDbLine
 62
250
  6
CONTINUOUS
 10
6.345470352
 20
4.474874623
 11
7.1624947665
 21
4.7139983722
  0
LINE
  5
2D6
100
AcDbEntity
  8
CURVE
100
AcDbLine
 62
250
  6
CONTINUOUS
 10
5.4943774393
 20
4.2257765425
 11
6.0670533976
 21
4.3933883658
  0
LINE
  5
2D7
100
AcDbEntity
  8
RACCORDO
100
AcDbLine
 62
250
  6
CONTINUOUS
 10
-13.3449864653
 20
2.1420336189
 11
-8.1415770226
 21
-0.8623531411
  0
LINE
  5
2D8
100
AcDbEntity
  8
RACCORDO
100
AcDbLine
 62
250
  6
CONTINUOUS
 10
-25.0546705309
 20
8.9030550797
 11
-19.8599954187
 21
5.9037181363
  0
LINE
  5
2D9
100
AcDbEntity
  8
RACCORDO
100
AcDbLine
 62
250
  6
CONTINUOUS
 10
-19.5626782667
 20
7.1780310694
 11
-24.4785417511
 21
10.0163922916
  0
LINE
  5
2DA
100
AcDbEntity
  8
RACCORDO
100
AcDbLine
 62
250
  6
CONTINUOUS
 10
-7.5501635773
 20
0.2421588965
 11
-12.474766408
 21
3.0855595946
  0
LINE
  5
2DB
100
AcDbEntity
  8
RACCORDO
100
AcDbLine
 62
7
  6
CONTINUOUS
 10
-1.576834557
 20
14.7431592177
 11
-1.576834557
 21
14.2912751314
  0
LINE
  5
2DC
100
AcDbEntity
  8
RACCORDO
100
AcDbLine
 62
250
  6
CONTINUOUS
 10
-1.4088566417
 20
8.3974809919
 11
-1.4088566417
 21
7.0566208354
  0
LINE
  5
2DD
100
AcDbEntity
  8
RACCORDO
100
AcDbLine
 62
250
  6
CONTINUOUS
 10
-1.4088566417
 20
-29.0439969992
 11
-1.4088566417
 21
-30.3848571557
  0
LINE
  5
2DE
100
AcDbEntity
  8
RACCORDO
100
AcDbLine
 62
7
  6
CONTINUOUS
 10
0.0678200546
 20
9.2208413571
 11
0.0678200546
 21
-29.5614967905
  0
LINE
  5
2DF
100
AcDbEntity
  8
ASSI
100
AcDbLine
 62
7
  6
CONTINUOUS
 10
0.0678200546
 20
-29.5615278786
 11
0.0678200546
 21
-19.6567731703
  0
LINE
  5
2E0
100
AcDbEntity
  8
ASSI
100
AcDbLine
 62
7
  6
CONTINUOUS
 10
0.0678200546
 20
-0.6838822631
 11
0.0678200546
 21
9.2208724452
  0
LINE
  5
2E1
100
AcDbEntity
  8
ASSI
100
AcDbLine
 62
7
  6
CONTINUOUS
 10
21.6967599252
 20
14.2699436416
 11
25.2177000767
 21
16.4056408019
  0
LINE
  5
2E2
100
AcDbEntity
  8
CURVE
100
AcDbLine
 62
250
  6
CONTINUOUS
 10
9.2472342268
 20
5.8155394835
 11
8.8502865895
 21
5.5782036079
  0
LINE
  5
2E3
100
AcDbEntity
  8
ASSI
100
AcDbLine
 62
250
  6
CONTINUOUS
 10
6.1500380124
 20
6.1250961038
 11
18.8325157412
 21
13.4478249388
  0
LINE
  5
2E4
100
AcDbEntity
  8
0
100
AcDbLine
 62
7
  6
CONTINUOUS
 10
21.6628611521
 20
13.5659562043
 11
20.9558922119
 21
13.1577611987
  0
LINE
  5
2E5
100
AcDbEntity
  8
0
100
AcDbLine
 62
7
  6
CONTINUOUS
 10
21.6628611521
 20
12.9944270105
 11
20.9558922119
 21
12.5862320049
  0
LINE
  5
2E6
100
AcDbEntity
  8
CURVE
100
AcDbLine
 62
250
  6
CONTINUOUS
 10
6.4967557093
 20
4.1557094192
 11
6.8674891186
 21
4.2642130514
  0
LINE
  5
2E7
100
AcDbEntity
  8
CURVE
100
AcDbLine
 62
250
  6
CONTINUOUS
 10
6.9457318547
 20
3.5205860119
 11
6.5374078712
 21
3.4010782991
  0
LINE
  5
2E8
100
AcDbEntity
  8
CURVE
100
AcDbLine
 62
250
  6
CONTINUOUS
 10
6.1383721393
 20
3.2842884512
 11
5.5775452478
 21
3.1201458809
  0
LINE
  5
2E9
100
AcDbEntity
  8
CURVE
100
AcDbLine
 62
250
  6
CONTINUOUS
 10
5.73746945
 20
2.7996573724
 11
6.2912605239
 21
2.9617380792
  0
LINE
  5
2EA
100
AcDbEntity
  8
CURVE
100
AcDbLine
 62
250
  6
CONTINUOUS
 10
6.6902962558
 20
3.078527927
 11
7.1144247831
 21
3.2026639547
  0
LINE
  5
2EB
100
AcDbEntity
  8
CURVE
100
AcDbLine
 62
250
  6
CONTINUOUS
 10
5.504367189
 20
1.9598612885
 11
6.3009182774
 21
2.1929989692
  0
LINE
  5
2EC
100
AcDbEntity
  8
CURVE
100
AcDbLine
 62
250
  6
CONTINUOUS
 10
5.644366067
 20
1.629953701
 11
6.4553013391
 21
1.8672966577
  0
LINE
  5
2ED
100
AcDbEntity
  8
CURVE
100
AcDbLine
 62
250
  6
CONTINUOUS
 10
5.2799447515
 20
-0.3739715095
 11
4.5469299431
 21
-0.5784096894
  0
LINE
  5
2EE
100
AcDbEntity
  8
RACCORDO
100
AcDbLine
 62
7
  6
CONTINUOUS
 10
-5.5048538885
 20
2.2727866798
 11
-11.1939371713
 21
5.5575920664
  0
LINE
  5
2EF
100
AcDbEntity
  8
RACCORDO
100
AcDbLine
 62
7
  6
CONTINUOUS
 10
-16.8220071623
 20
8.8071691429
 11
-22.5023558935
 21
12.0869313088
  0
LINE
  5
2F0
100
AcDbEntity
  8
RACCORDO
100
AcDbLine
 62
7
  6
CONTINUOUS
 10
-5.1445933832
 20
2.0648162341
 11
-5.5017646167
 21
2.271042428
  0
LINE
  5
2F1
100
AcDbEntity
  8
DRAFT
100
AcDbLine
 62
7
  6
CONTINUOUS
 10
1.2699015826
 20
12.4871367411
 11
1.2699015826
 21
13.0994894487
  0
LINE
  5
2F2
100
AcDbEntity
  8
DRAFT
100
AcDbLine
 62
7
  6
CONTINUOUS
 10
2.464139368
 20
0.6784351451
 11
2.464139368
 21
-18.0704557491
  0
LINE
  5
2F3
100
AcDbEntity
  8
ASSI
100
AcDbLine
 62
7
  6
CONTINUOUS
 10
2.5689711257
 20
0.7961712844
 11
2.5689711257
 21
-18.1459391372
  0
LINE
  5
2F4
100
AcDbEntity
  8
CURVE
100
AcDbLine
 62
250
  6
CONTINUOUS
 10
8.7510496854
 20
4.7023993654
 11
9.2472342268
 21
4.9990692067
  0
LINE
  5
2F5
100
AcDbEntity
  8
CURVE
100
AcDbLine
 62
250
  6
CONTINUOUS
 10
8.4533389315
 20
4.0578428325
 11
8.2548651232
 21
3.9391749009
  0
LINE
  5
2F6
100
AcDbEntity
  8
CURVE
100
AcDbLine
 62
250
  6
CONTINUOUS
 10
17.7816085013
 20
8.7896061448
 11
16.0449625752
 21
7.7512616817
  0
LINE
  5
2F7
100
AcDbEntity
  8
CURVE
100
AcDbLine
 62
250
  6
CONTINUOUS
 10
8.4533389315
 20
2.7748181396
 11
8.2548651232
 21
2.6561502081
  0
LINE
  5
2F8
100
AcDbEntity
  8
CURVE
100
AcDbLine
 62
250
  6
CONTINUOUS
 10
12.7048203991
 20
4.7561177295
 11
12.3223476622
 21
4.5274364292
  0
LINE
  5
2F9
100
AcDbEntity
  8
CURVE
100
AcDbLine
 62
250
  6
CONTINUOUS
 10
17.7816085013
 20
7.7690182988
 11
16.0449625752
 21
6.7306738357
  0
LINE
  5
2FA
100
AcDbEntity
  8
CURVE
100
AcDbLine
 62
250
  6
CONTINUOUS
 10
12.7048203991
 20
4.6215666938
 11
12.5588969876
 21
4.5343187614
  0
LINE
  5
2FB
100
AcDbEntity
  8
ASSI
100
AcDbLine
 62
7
  6
CONTINUOUS
 10
0.0678200546
 20
-0.6838822631
 11
2.5689711257
 21
0.7961712844
  0
LINE
  5
2FC
100
AcDbEntity
  8
DRAFT
100
AcDbLine
 62
7
  6
CONTINUOUS
 10
0.0678200546
 20
-0.7395843188
 11
2.464139368
 21
0.6784351451
  0
LINE
  5
2FD
100
AcDbEntity
  8
RACCORDO
100
AcDbLine
 62
250
  6
CONTINUOUS
 10
-13.3703076769
 20
-9.9761060082
 11
-22.2733426603
 21
-15.1165898108
  0
LINE
  5
2FE
100
AcDbEntity
  8
RACCORDO
100
AcDbLine
 62
250
  6
CONTINUOUS
 10
-13.0741453518
 20
-9.805119536
 11
-13.3703076769
 21
-9.9761060082
  0
LINE
  5
2FF
100
AcDbEntity
  8
0
100
AcDbLine
 62
250
  6
CONTINUOUS
 10
12.7146774002
 20
4.7506216964
 11
12.3252913735
 21
4.5257950847
  0
LINE
  5
300
100
AcDbEntity
  8
0
100
AcDbLine
 62
250
  6
CONTINUOUS
 10
12.7146774002
 20
4.6160706606
 11
12.5661163868
 21
4.5302933934
  0
LINE
  5
301
100
AcDbEntity
  8
ASSI
100
AcDbLine
 62
7
  6
CONTINUOUS
 10
20.6033999687
 20
9.9011825665
 11
21.3029299275
 21
10.2979710658
  0
LINE
  5
302
100
AcDbEntity
  8
ASSI
100
AcDbLine
 62
7
  6
CONTINUOUS
 10
24.4983593446
 20
12.103424453
 11
21.2810152789
 21
10.3106364977
  0
LINE
  5
303
100
AcDbEntity
  8
ASSI
100
AcDbLine
 62
7
  6
CONTINUOUS
 10
24.848667491
 20
11.9011609197
 11
20.9256432284
 21
9.715123347
  0
LINE
  5
304
100
AcDbEntity
  8
CURVE
100
AcDbLine
 62
250
  6
CONTINUOUS
 10
5.4698944612
 20
0.8304163814
 11
7.0170922695
 21
1.2832470677
  0
LINE
  5
305
100
AcDbEntity
  8
CURVE
100
AcDbLine
 62
250
  6
CONTINUOUS
 10
4.2387291854
 20
0.0717996359
 11
7.3628440119
 21
0.9861657371
  0
LINE
  5
306
100
AcDbEntity
  8
CURVE
100
AcDbLine
 62
250
  6
CONTINUOUS
 10
5.4983975096
 20
-0.3241641827
 11
7.1431098043
 21
0.1572078409
  0
LINE
  5
307
100
AcDbEntity
  8
CURVE
100
AcDbLine
 62
250
  6
CONTINUOUS
 10
5.6021337979
 20
-0.6881235944
 11
6.9160557071
 21
-0.3035647144
  0
LINE
  5
308
100
AcDbEntity
  8
CURVE
100
AcDbLine
 62
250
  6
CONTINUOUS
 10
6.9340842081
 20
-1.0435870059
 11
5.5009708269
 21
-1.4630288167
  0
LINE
  5
309
100
AcDbEntity
  8
CURVE
100
AcDbLine
 62
250
  6
CONTINUOUS
 10
8.3541020688
 20
0.8492665343
 11
8.7510496854
 21
0.8533251894
  0
LINE
  5
30A
100
AcDbEntity
  8
0
100
AcDbLine
 62
7
  6
CONTINUOUS
 10
21.6628611521
 20
-3.0083904146
 11
20.8932436371
 21
-2.8597071265
  0
LINE
  5
30B
100
AcDbEntity
  8
RACCORDO
100
AcDbLine
 62
250
  6
CONTINUOUS
 10
-22.5054415422
 20
14.7152462042
 11
-5.5017682398
 21
4.8975383454
  0
LINE
  5
30C
100
AcDbEntity
  8
DRAFT
100
AcDbLine
 62
7
  6
CONTINUOUS
 10
2.464139368
 20
0.6784351451
 11
2.4164956078
 21
0.7059440551
  0
LINE
  5
30D
100
AcDbEntity
  8
RACCORDO
100
AcDbLine
 62
250
  6
CONTINUOUS
 10
-22.3317500257
 20
15.0196199901
 11
-5.3280767232
 21
5.2019121313
  0
LINE
  5
30E
100
AcDbEntity
  8
CURVE
100
AcDbLine
 62
250
  6
CONTINUOUS
 10
6.6273797958
 20
-8.737420401
 11
6.538066582
 21
-8.5703742058
  0
LINE
  5
30F
100
AcDbEntity
  8
CURVE
100
AcDbLine
 62
250
  6
CONTINUOUS
 10
4.554842286
 20
-2.9343255133
 11
4.2387291854
 21
-2.267420366
  0
LINE
  5
310
100
AcDbEntity
  8
CURVE
100
AcDbLine
 62
250
  6
CONTINUOUS
 10
6.7166930281
 20
-8.2116333562
 11
6.6273797958
 21
-8.0130942365
  0
LINE
  5
311
100
AcDbEntity
  8
RACCORDO
100
AcDbLine
 62
7
  6
CONTINUOUS
 10
3.2847177232
 20
13.6504703235
 11
3.2847177232
 21
13.8616514779
  0
LINE
  5
312
100
AcDbEntity
  8
CURVE
100
AcDbLine
 62
250
  6
CONTINUOUS
 10
5.2799447515
 20
-0.9935867202
 11
5.2799447515
 21
-0.3739715095
  0
LINE
  5
313
100
AcDbEntity
  8
CURVE
100
AcDbLine
 62
250
  6
CONTINUOUS
 10
5.2799447515
 20
1.1499024951
 11
5.2799447515
 21
2.1123249985
  0
LINE
  5
314
100
AcDbEntity
  8
CURVE
100
AcDbLine
 62
250
  6
CONTINUOUS
 10
5.2799447515
 20
3.3942527331
 11
5.2799447515
 21
4.5249848688
  0
LINE
  5
315
100
AcDbEntity
  8
CURVE
100
AcDbLine
 62
250
  6
CONTINUOUS
 10
8.8502865895
 20
5.5782036079
 11
8.6518127398
 21
5.2262585409
  0
LINE
  5
316
100
AcDbEntity
  8
CURVE
100
AcDbLine
 62
250
  6
CONTINUOUS
 10
8.2548651232
 20
3.9391749009
 11
8.0563913149
 21
3.5872298586
  0
LINE
  5
317
100
AcDbEntity
  8
CURVE
100
AcDbLine
 62
250
  6
CONTINUOUS
 10
9.2472342268
 20
4.9990692067
 11
9.4457080558
 21
5.3510142613
  0
LINE
  5
318
100
AcDbEntity
  8
0
100
AcDbLine
 62
7
  6
CONTINUOUS
 10
20.6092720481
 20
12.2670237899
 11
20.9558922119
 21
12.5862320049
  0
LINE
  5
319
100
AcDbEntity
  8
RACCORDO
100
AcDbLine
 62
7
  6
CONTINUOUS
 10
20.5086030786
 20
10.6071913474
 11
20.5767555946
 21
10.6641863151
  0
LINE
  5
31A
100
AcDbEntity
  8
RACCORDO
100
AcDbLine
 62
7
  6
CONTINUOUS
 10
20.4364419483
 20
10.5470439381
 11
20.5761857359
 21
10.6637059358
  0
LINE
  5
31B
100
AcDbEntity
  8
0
100
AcDbLine
 62
7
  6
CONTINUOUS
 10
20.0443292564
 20
10.2209418075
 11
20.0457677372
 21
10.2221381294
  0
LINE
  5
31C
100
AcDbEntity
  8
RACCORDO
100
AcDbLine
 62
7
  6
CONTINUOUS
 10
19.9091991105
 20
10.1128639453
 11
20.0445293702
 21
10.2236485493
  0
LINE
  5
31D
100
AcDbEntity
  8
RACCORDO
100
AcDbLine
 62
250
  6
CONTINUOUS
 10
19.9091991105
 20
10.1128639453
 11
19.9106151907
 21
10.1139965343
  0
LINE
  5
31E
100
AcDbEntity
  8
RACCORDO
100
AcDbLine
 62
7
  6
CONTINUOUS
 10
19.9075674271
 20
10.1115724667
 11
19.9091991105
 21
10.1128639453
  0
LINE
  5
31F
100
AcDbEntity
  8
RACCORDO
100
AcDbLine
 62
250
  6
CONTINUOUS
 10
19.9091991105
 20
10.1128639453
 11
19.9106213682
 21
10.1139571038
  0
LINE
  5
320
100
AcDbEntity
  8
ASSI
100
AcDbLine
 62
250
  6
CONTINUOUS
 10
18.972845841
 20
5.6026366285
 11
25.2177000767
 21
9.451736009
  0
LINE
  5
321
100
AcDbEntity
  8
ASSI
100
AcDbLine
 62
7
  6
CONTINUOUS
 10
18.972845841
 20
5.4375209645
 11
25.1203809915
 21
9.2266364259
  0
LINE
  5
322
100
AcDbEntity
  8
CURVE
100
AcDbLine
 62
250
  6
CONTINUOUS
 10
9.2472342268
 20
1.9664652102
 11
8.8502865895
 21
1.7291293347
  0
LINE
  5
323
100
AcDbEntity
  8
CURVE
100
AcDbLine
 62
250
  6
CONTINUOUS
 10
12.4520685513
 20
3.6362295434
 11
12.3223476622
 21
3.5586691352
  0
LINE
  5
324
100
AcDbEntity
  8
CURVE
100
AcDbLine
 62
250
  6
CONTINUOUS
 10
8.7510496854
 20
0.8533251894
 11
9.2472342268
 21
1.1499950307
  0
LINE
  5
325
100
AcDbEntity
  8
CURVE
100
AcDbLine
 62
250
  6
CONTINUOUS
 10
8.0563913149
 20
-0.0285670606
 11
9.4457080558
 21
0.80210851
  0
LINE
  5
326
100
AcDbEntity
  8
ASSI
100
AcDbLine
 62
7
  6
CONTINUOUS
 10
25.2177000767
 20
10.8162705426
 11
21.6967599257
 21
8.741611832
  0
LINE
  5
327
100
AcDbEntity
  8
0
100
AcDbLine
 62
250
  6
CONTINUOUS
 10
12.4573569999
 20
3.6332808282
 11
12.3252913735
 21
3.5570277907
  0
LINE
  5
328
100
AcDbEntity
  8
ASSI
100
AcDbLine
 62
7
  6
CONTINUOUS
 10
19.1973612698
 20
4.7059722609
 11
17.243042055
 21
3.6169616032
  0
LINE
  5
329
100
AcDbEntity
  8
CURVE
100
AcDbLine
 62
250
  6
CONTINUOUS
 10
5.2799447515
 20
-1.9626781529
 11
7.3628440119
 21
-1.3530583471
  0
LINE
  5
32A
100
AcDbEntity
  8
CURVE
100
AcDbLine
 62
250
  6
CONTINUOUS
 10
4.2387291854
 20
-2.267420366
 11
4.8591813314
 21
-2.0858268458
  0
LINE
  5
32B
100
AcDbEntity
  8
CURVE
100
AcDbLine
 62
250
  6
CONTINUOUS
 10
5.1763855741
 20
-2.7550327698
 11
4.554842286
 21
-2.9343255133
  0
LINE
  5
32C
100
AcDbEntity
  8
CURVE
100
AcDbLine
 62
250
  6
CONTINUOUS
 10
7.3628440119
 20
-2.1345004161
 11
5.6021337979
 21
-2.6424023548
  0
LINE
  5
32D
100
AcDbEntity
  8
CURVE
100
AcDbLine
 62
250
  6
CONTINUOUS
 10
8.3541020688
 20
4.6983406129
 11
8.7510496854
 21
4.7023993654
  0
LINE
  5
32E
100
AcDbEntity
  8
CURVE
100
AcDbLine
 62
250
  6
CONTINUOUS
 10
8.0563913149
 20
1.9542893051
 11
8.3541020688
 21
1.8990139218
  0
LINE
  5
32F
100
AcDbEntity
  8
CURVE
100
AcDbLine
 62
250
  6
CONTINUOUS
 10
8.0563913149
 20
3.2373141926
 11
8.3541020688
 21
3.1820386147
  0
LINE
  5
330
100
AcDbEntity
  8
CURVE
100
AcDbLine
 62
250
  6
CONTINUOUS
 10
9.4457080558
 20
2.5516875702
 11
8.4533389315
 21
2.7748181396
  0
LINE
  5
331
100
AcDbEntity
  8
RACCORDO
100
AcDbLine
 62
7
  6
CONTINUOUS
 10
19.8008640664
 20
-5.8865092071
 11
19.7169053355
 21
-5.8380324881
  0
LINE
  5
332
100
AcDbEntity
  8
ASSI
100
AcDbLine
 62
250
  6
CONTINUOUS
 10
20.9256432284
 20
-6.2876940781
 11
20.6033999687
 21
-6.1016348587
  0
LINE
  5
333
100
AcDbEntity
  8
DRAFT
100
AcDbLine
 62
7
  6
CONTINUOUS
 10
-13.0136553973
 20
13.838637481
 11
-7.4982225041
 21
10.6540956531
  0
LINE
  5
334
100
AcDbEntity
  8
0
100
AcDbLine
 62
7
  6
CONTINUOUS
 10
-9.1766300454
 20
11.7107887436
 11
-11.297950389
 21
12.9356125236
  0
LINE
  5
335
100
AcDbEntity
  8
0
100
AcDbLine
 62
7
  6
CONTINUOUS
 10
-14.4811655399
 20
14.8129588442
 11
-11.2991850246
 21
12.9757231743
  0
LINE
  5
336
100
AcDbEntity
  8
0
100
AcDbLine
 62
7
  6
CONTINUOUS
 10
-6.1395206846
 20
9.9965976502
 11
-9.177864681
 21
11.7508993943
  0
LINE
  5
337
100
AcDbEntity
  8
ASSI
100
AcDbLine
 62
7
  6
CONTINUOUS
 10
21.2810234902
 20
-5.692197857
 11
21.3029299275
 21
-5.7048463594
  0
LINE
  5
338
100
AcDbEntity
  8
ASSI
100
AcDbLine
 62
250
  6
CONTINUOUS
 10
16.5411711886
 20
-2.9549854724
 11
16.7305758687
 21
-3.064345361
  0
LINE
  5
339
100
AcDbEntity
  8
CURVE
100
AcDbLine
 62
250
  6
CONTINUOUS
 10
8.4533389315
 20
-0.2577856622
 11
8.0563913149
 21
-0.0285670606
  0
LINE
  5
33A
100
AcDbEntity
  8
CURVE
100
AcDbLine
 62
250
  6
CONTINUOUS
 10
8.0563913149
 20
1.0211803756
 11
8.3541020688
 21
0.8492665343
  0
LINE
  5
33B
100
AcDbEntity
  8
CURVE
100
AcDbLine
 62
250
  6
CONTINUOUS
 10
5.1763855741
 20
-2.7550327698
 11
4.8591813314
 21
-2.0858268458
  0
LINE
  5
33C
100
AcDbEntity
  8
CURVE
100
AcDbLine
 62
250
  6
CONTINUOUS
 10
4.2387291854
 20
0.0717996359
 11
4.5469299431
 21
-0.5784096894
  0
LINE
  5
33D
100
AcDbEntity
  8
CURVE
100
AcDbLine
 62
250
  6
CONTINUOUS
 10
5.2799447515
 20
-1.9626781529
 11
5.6021337979
 21
-2.6424023548
  0
LWPOLYLINE
  5
33E
100
AcDbEntity
  8
ASSI
100
AcDbPolyline
 62
7
  6
CONTINUOUS
 90
24
 70
0
 10
6.2202030241
 20
12.231189728
 10
6.2199302789
 20
12.254063929
 10
6.2184046079
 20
12.2894255868
 10
6.2155431535
 20
12.3240759373
 10
6.2113406462
 20
12.3580649514
 10
6.2058060209
 20
12.3912904244
 10
6.1989940663
 20
12.4235088515
 10
6.1909493088
 20
12.4546553951
 10
6.1816919793
 20
12.4847696399
 10
6.1712757285
 20
12.5137772079
 10
6.1597552326
 20
12.5416318066
 10
6.1471594635
 20
12.5683576575
 10
6.1335097974
 20
12.5939780546
 10
6.1188470138
 20
12.6184741733
 10
6.1032135085
 20
12.6418274624
 10
6.0866323415
 20
12.6640476547
 10
6.0691502291
 20
12.6851106105
 10
6.0508143163
 20
12.7049956654
 10
6.0316499658
 20
12.7237073126
 10
6.0117076957
 20
12.7412237271
 10
5.9910425321
 20
12.7575236002
 10
5.9696878414
 20
12.7726062328
 10
5.9476922717
 20
12.7864592592
 10
5.9425030232
 20
12.7894962042
  0
LINE
  5
33F
100
AcDbEntity
  8
CURVE
100
AcDbLine
 62
250
  6
CONTINUOUS
 10
5.7640186924
 20
-12.938239466
 11
5.7640186924
 21
-13.2216714709
  0
LINE
  5
340
100
AcDbEntity
  8
CURVE
100
AcDbLine
 62
250
  6
CONTINUOUS
 10
5.7640186924
 20
-16.3394214746
 11
5.7640186924
 21
-16.2449441659
  0
LINE
  5
341
100
AcDbEntity
  8
CURVE
100
AcDbLine
 62
250
  6
CONTINUOUS
 10
5.7640186924
 20
-12.3713757717
 11
5.7640186924
 21
-11.8045120773
  0
LINE
  5
342
100
AcDbEntity
  8
CURVE
100
AcDbLine
 62
250
  6
CONTINUOUS
 10
5.7640186924
 20
-11.1431711531
 11
5.7640186924
 21
-11.0486942386
  0
LINE
  5
343
100
AcDbEntity
  8
ASSI
100
AcDbLine
 62
250
  6
CONTINUOUS
 10
6.1500380124
 20
-25.1984357285
 11
6.1500380124
 21
-19.1926082381
  0
LINE
  5
344
100
AcDbEntity
  8
ASSI
100
AcDbLine
 62
250
  6
CONTINUOUS
 10
6.1500380124
 20
6.1250961038
 11
6.1500380124
 21
12.1309235942
  0
LINE
  5
345
100
AcDbEntity
  8
ASSI
100
AcDbLine
 62
7
  6
CONTINUOUS
 10
6.2202030624
 20
12.2311953535
 11
6.2202030624
 21
6.4314719063
  0
LINE
  5
346
100
AcDbEntity
  8
ASSI
100
AcDbLine
 62
7
  6
CONTINUOUS
 10
6.2202030624
 20
-19.2984405221
 11
6.2202030624
 21
-25.0981639693
  0
LINE
  5
347
100
AcDbEntity
  8
CURVE
100
AcDbLine
 62
250
  6
CONTINUOUS
 10
6.2998979748
 20
-11.6730631217
 11
6.2998979748
 21
-12.0509723564
  0
LINE
  5
348
100
AcDbEntity
  8
CURVE
100
AcDbLine
 62
250
  6
CONTINUOUS
 10
6.657150867
 20
-14.9236279138
 11
6.657150867
 21
-14.4197489868
  0
LINE
  5
349
100
AcDbEntity
  8
CURVE
100
AcDbLine
 62
250
  6
CONTINUOUS
 10
7.0144037592
 20
-10.3010862251
 11
7.0144037592
 21
-10.3955631396
  0
LINE
  5
34A
100
AcDbEntity
  8
CURVE
100
AcDbLine
 62
250
  6
CONTINUOUS
 10
7.0144037592
 20
-12.0016769929
 11
7.0144037592
 21
-12.6630179171
  0
LINE
  5
34B
100
AcDbEntity
  8
CURVE
100
AcDbLine
 62
250
  6
CONTINUOUS
 10
7.0144037592
 20
-15.4973361524
 11
7.0144037592
 21
-15.5918134611
  0
LINE
  5
34C
100
AcDbEntity
  8
CURVE
100
AcDbLine
 62
250
  6
CONTINUOUS
 10
7.0144037592
 20
-11.6237677582
 11
7.0144037592
 21
-11.2458585235
  0
LINE
  5
34D
100
AcDbEntity
  8
CURVE
100
AcDbLine
 62
250
  6
CONTINUOUS
 10
7.3628440119
 20
5.5771960658
 11
7.3628440119
 21
4.1492548694
  0
LINE
  5
34E
100
AcDbEntity
  8
0
100
AcDbLine
 62
250
  6
CONTINUOUS
 10
7.3628440119
 20
5.5771960658
 11
7.3628440119
 21
4.1492548694
  0
LINE
  5
34F
100
AcDbEntity
  8
CURVE
100
AcDbLine
 62
250
  6
CONTINUOUS
 10
7.3628440119
 20
3.04037801
 11
7.3628440119
 21
1.8231947355
  0
LINE
  5
350
100
AcDbEntity
  8
0
100
AcDbLine
 62
250
  6
CONTINUOUS
 10
7.3628440119
 20
3.04037801
 11
7.3628440119
 21
1.8231947355
  0
LINE
  5
351
100
AcDbEntity
  8
CURVE
100
AcDbLine
 62
250
  6
CONTINUOUS
 10
7.3628440119
 20
-2.1345004161
 11
7.3628440119
 21
-1.3530583471
  0
LINE
  5
352
100
AcDbEntity
  8
0
100
AcDbLine
 62
250
  6
CONTINUOUS
 10
7.3628440119
 20
-2.1345004161
 11
7.3628440119
 21
-1.3530583471
  0
LINE
  5
353
100
AcDbEntity
  8
CURVE
100
AcDbLine
 62
250
  6
CONTINUOUS
 10
7.3628440119
 20
-0.4445351289
 11
7.3628440119
 21
0.9861657371
  0
LINE
  5
354
100
AcDbEntity
  8
0
100
AcDbLine
 62
250
  6
CONTINUOUS
 10
7.3628440119
 20
-0.4445351289
 11
7.3628440119
 21
0.9861657371
  0
LINE
  5
355
100
AcDbEntity
  8
CURVE
100
AcDbLine
 62
250
  6
CONTINUOUS
 10
8.0563913149
 20
3.5872298586
 11
8.0563913149
 21
3.2373141926
  0
LINE
  5
356
100
AcDbEntity
  8
CURVE
100
AcDbLine
 62
250
  6
CONTINUOUS
 10
8.0563913149
 20
2.3042051658
 11
8.0563913149
 21
1.9542893051
  0
LINE
  5
357
100
AcDbEntity
  8
CURVE
100
AcDbLine
 62
250
  6
CONTINUOUS
 10
12.7281087467
 20
7.5344485805
 11
11.1330826594
 21
4.3462312382
  0
LINE
  5
358
100
AcDbEntity
  8
CURVE
100
AcDbLine
 62
250
  6
CONTINUOUS
 10
8.2548651232
 20
2.6561502081
 11
8.0563913149
 21
2.3042051658
  0
LINE
  5
359
100
AcDbEntity
  8
CURVE
100
AcDbLine
 62
250
  6
CONTINUOUS
 10
8.8502865895
 20
1.7291293347
 11
8.6518127398
 21
1.3771841703
  0
LINE
  5
35A
100
AcDbEntity
  8
CURVE
100
AcDbLine
 62
250
  6
CONTINUOUS
 10
9.2472342268
 20
1.1499950307
 11
9.4457080558
 21
1.5019401827
  0
LINE
  5
35B
100
AcDbEntity
  8
CURVE
100
AcDbLine
 62
250
  6
CONTINUOUS
 10
12.2689330968
 20
5.2355304382
 11
12.7391542163
 21
5.9804979431
  0
LINE
  5
35C
100
AcDbEntity
  8
0
100
AcDbLine
 62
250
  6
CONTINUOUS
 10
12.2709113265
 20
5.2344274236
 11
12.7496318098
 21
5.9746558822
  0
LINE
  5
35D
100
AcDbEntity
  8
CURVE
100
AcDbLine
 62
250
  6
CONTINUOUS
 10
16.0449625752
 20
6.7306738357
 11
17.7816085013
 21
8.7896061448
  0
LINE
  5
35E
100
AcDbEntity
  8
ASSI
100
AcDbLine
 62
250
  6
CONTINUOUS
 10
17.0846923936
 20
3.6844763368
 11
18.8325157412
 21
4.7617706195
  0
LINE
  5
35F
100
AcDbEntity
  8
ASSI
100
AcDbLine
 62
7
  6
CONTINUOUS
 10
16.9855111695
 20
3.4582228755
 11
18.735196656
 21
4.5366710365
  0
LINE
  5
360
100
AcDbEntity
  8
ASSI
100
AcDbLine
 62
7
  6
CONTINUOUS
 10
19.4876883589
 20
3.8441549472
 11
16.5411711886
 21
2.1079659802
  0
LINE
  5
361
100
AcDbEntity
  8
ASSI
100
AcDbLine
 62
7
  6
CONTINUOUS
 10
19.587719623
 20
3.2097311451
 11
16.5411711886
 21
1.4444358199
  0
LINE
  5
362
100
AcDbEntity
  8
0
100
AcDbLine
 62
7
  6
CONTINUOUS
 10
19.7101398142
 20
11.7652600812
 11
19.7607439107
 21
11.7770942779
  0
LINE
  5
363
100
AcDbEntity
  8
0
100
AcDbLine
 62
7
  6
CONTINUOUS
 10
20.9558922119
 20
13.1577611987
 11
20.6092720481
 21
13.0767011368
  0
LINE
  5
364
100
AcDbEntity
  8
CURVE
100
AcDbLine
 62
250
  6
CONTINUOUS
 10
9.4457080558
 20
3.8347122631
 11
8.4533389315
 21
4.0578428325
  0
LINE
  5
365
100
AcDbEntity
  8
ASSI
100
AcDbLine
 62
250
  6
CONTINUOUS
 10
18.7227411261
 20
-2.0299028316
 11
18.7228579211
 21
-2.0299702045
  0
LINE
  5
366
100
AcDbEntity
  8
0
100
AcDbLine
 62
250
  6
CONTINUOUS
 10
-6.0130828884
 20
10.4724131509
 11
-14.4983642627
 21
15.3717082709
  0
LINE
  5
367
100
AcDbEntity
  8
0
100
AcDbLine
 62
7
  6
CONTINUOUS
 10
19.7607439107
 20
-4.2257231473
 11
19.7234726512
 21
-4.2042031892
  0
LINE
  5
368
100
AcDbEntity
  8
0
100
AcDbLine
 62
250
  6
CONTINUOUS
 10
-5.659744873
 20
11.0989084319
 11
-14.1450262472
 21
15.9982035519
  0
LINE
  5
369
100
AcDbEntity
  8
0
100
AcDbLine
 62
7
  6
CONTINUOUS
 10
20.6092720481
 20
-3.7357936353
 11
20.0997148628
 21
-3.4415817028
  0
LINE
  5
36A
100
AcDbEntity
  8
ASSI
100
AcDbLine
 62
7
  6
CONTINUOUS
 10
21.5146930075
 20
-4.1391905246
 11
22.0531737826
 21
-4.4501025754
  0
LINE
  5
36B
100
AcDbEntity
  8
0
100
AcDbLine
 62
250
  6
CONTINUOUS
 10
-5.0498587783
 20
11.4510490193
 11
-13.5351401526
 21
16.3503441393
  0
LINE
  5
36C
100
AcDbEntity
  8
0
100
AcDbLine
 62
250
  6
CONTINUOUS
 10
-4.973335819
 20
11.4855556142
 11
-13.4586171932
 21
16.3848507341
  0
LINE
  5
36D
100
AcDbEntity
  8
ASSI
100
AcDbLine
 62
250
  6
CONTINUOUS
 10
17.8464652691
 20
-1.6867139659
 11
18.4783992163
 21
-2.051584707
  0
LINE
  5
36E
100
AcDbEntity
  8
0
100
AcDbLine
 62
7
  6
CONTINUOUS
 10
20.9558922119
 20
-3.4165854202
 11
20.3418531841
 21
-3.0620469813
  0
LINE
  5
36F
100
AcDbEntity
  8
RACCORDO
100
AcDbLine
 62
7
  6
CONTINUOUS
 10
-6.0132982636
 20
12.2317282692
 11
-8.063907929
 21
13.4157245898
  0
LINE
  5
370
100
AcDbEntity
  8
RACCORDO
100
AcDbLine
 62
7
  6
CONTINUOUS
 10
-10.0438069163
 20
14.5588934512
 11
-12.0944165818
 21
15.7428897718
  0
LINE
  5
371
100
AcDbEntity
  8
ASSI
100
AcDbLine
 62
7
  6
CONTINUOUS
 10
18.3327216736
 20
-1.8047104248
 11
18.7228579211
 21
-2.0299702045
  0
LINE
  5
372
100
AcDbEntity
  8
0
100
AcDbLine
 62
7
  6
CONTINUOUS
 10
20.6092720481
 20
-2.9261162883
 11
20.4905360739
 21
-2.8575596249
  0
LINE
  5
373
100
AcDbEntity
  8
ASSI
100
AcDbLine
 62
7
  6
CONTINUOUS
 10
-9.5841875086
 20
14.5898692615
 11
-9.5726605307
 21
14.583213729
  0
LINE
  5
374
100
AcDbEntity
  8
ASSI
100
AcDbLine
 62
7
  6
CONTINUOUS
 10
-5.6951002121
 20
12.3443589982
 11
-5.542151878
 21
12.256048547
  0
LINE
  5
375
100
AcDbEntity
  8
ASSI
100
AcDbLine
 62
7
  6
CONTINUOUS
 10
-17.2916783475
 20
19.4481157381
 11
-16.2972838578
 21
18.8739648224
  0
LINE
  5
376
100
AcDbEntity
  8
ASSI
100
AcDbLine
 62
7
  6
CONTINUOUS
 10
-1.1033242064
 20
10.1011629448
 11
-0.1089297167
 21
9.5270120291
  0
LINE
  5
377
100
AcDbEntity
  8
RACCORDO
100
AcDbLine
 62
7
  6
CONTINUOUS
 10
-0.1089835687
 20
9.5270431226
 11
-1.1695898844
 21
10.1394239167
  0
LINE
  5
378
100
AcDbEntity
  8
RACCORDO
100
AcDbLine
 62
7
  6
CONTINUOUS
 10
-16.2310181798
 20
18.8357038505
 11
-17.2916244955
 21
19.4480846446
  0
LINE
  5
379
100
AcDbEntity
  8
CURVE
100
AcDbLine
 62
250
  6
CONTINUOUS
 10
9.4457080558
 20
1.8518559461
 11
9.2472342268
 21
1.9664652102
  0
LINE
  5
37A
100
AcDbEntity
  8
CURVE
100
AcDbLine
 62
250
  6
CONTINUOUS
 10
8.0563913149
 20
4.8702547462
 11
8.3541020688
 21
4.6983406129
  0
LINE
  5
37B
100
AcDbEntity
  8
ASSI
100
AcDbLine
 62
7
  6
CONTINUOUS
 10
20.9493765369
 20
-5.5003649795
 11
21.2810234902
 21
-5.692197857
  0
LINE
  5
37C
100
AcDbEntity
  8
CURVE
100
AcDbLine
 62
250
  6
CONTINUOUS
 10
6.3009182774
 20
2.1929989692
 11
6.4553013391
 21
1.8672966577
  0
LINE
  5
37D
100
AcDbEntity
  8
CURVE
100
AcDbLine
 62
250
  6
CONTINUOUS
 10
6.7701579941
 20
1.9514093685
 11
6.2912605239
 21
2.9617380792
  0
LINE
  5
37E
100
AcDbEntity
  8
CURVE
100
AcDbLine
 62
250
  6
CONTINUOUS
 10
6.1383721393
 20
3.2842884512
 11
5.848238083
 21
3.8963835303
  0
LINE
  5
37F
100
AcDbEntity
  8
CURVE
100
AcDbLine
 62
250
  6
CONTINUOUS
 10
6.6902962558
 20
3.078527927
 11
7.0054286482
 21
2.4136956557
  0
LINE
  5
380
100
AcDbEntity
  8
CURVE
100
AcDbLine
 62
250
  6
CONTINUOUS
 10
6.0670533976
 20
4.3933883658
 11
6.5374078712
 21
3.4010782991
  0
LINE
  5
381
100
AcDbEntity
  8
CURVE
100
AcDbLine
 62
250
  6
CONTINUOUS
 10
6.345470352
 20
4.474874623
 11
6.4967557093
 21
4.1557094192
  0
LINE
  5
382
100
AcDbEntity
  8
CURVE
100
AcDbLine
 62
250
  6
CONTINUOUS
 10
8.6518127398
 20
5.2262585409
 11
8.6518127398
 21
4.7208245415
  0
LINE
  5
383
100
AcDbEntity
  8
CURVE
100
AcDbLine
 62
250
  6
CONTINUOUS
 10
8.6518127398
 20
1.3771841703
 11
8.6518127398
 21
0.8717502682
  0
LINE
  5
384
100
AcDbEntity
  8
CURVE
100
AcDbLine
 62
250
  6
CONTINUOUS
 10
9.4457080558
 20
4.6511825399
 11
9.4457080558
 21
3.8347122631
  0
LINE
  5
385
100
AcDbEntity
  8
CURVE
100
AcDbLine
 62
250
  6
CONTINUOUS
 10
9.4457080558
 20
3.368157847
 11
9.4457080558
 21
2.5516875702
  0
LINE
  5
386
100
AcDbEntity
  8
CURVE
100
AcDbLine
 62
250
  6
CONTINUOUS
 10
9.4457080558
 20
1.5019401827
 11
9.4457080558
 21
1.8518559461
  0
LINE
  5
387
100
AcDbEntity
  8
CURVE
100
AcDbLine
 62
250
  6
CONTINUOUS
 10
9.4457080558
 20
5.3510142613
 11
9.4457080558
 21
5.7009303167
  0
LINE
  5
388
100
AcDbEntity
  8
CURVE
100
AcDbLine
 62
250
  6
CONTINUOUS
 10
6.538066582
 20
-8.5703742058
 11
6.7166930281
 21
-8.2116333562
  0
LINE
  5
389
100
AcDbEntity
  8
CURVE
100
AcDbLine
 62
250
  6
CONTINUOUS
 10
5.7640186924
 20
-11.0486942386
 11
5.9426451199
 21
-10.7529386405
  0
LINE
  5
38A
100
AcDbEntity
  8
ASSI
100
AcDbLine
 62
250
  6
CONTINUOUS
 10
24.8635835518
 20
2.3792926536
 11
17.8464652691
 21
-1.6867139659
  0
LINE
  5
38B
100
AcDbEntity
  8
ASSI
100
AcDbLine
 62
250
  6
CONTINUOUS
 10
18.4783992163
 20
-2.051584707
 11
16.7305758687
 21
-3.064345361
  0
LINE
  5
38C
100
AcDbEntity
  8
CURVE
100
AcDbLine
 62
250
  6
CONTINUOUS
 10
7.0144037592
 20
-9.2618357509
 11
5.7640186924
 21
-9.631534845
  0
LINE
  5
38D
100
AcDbEntity
  8
CURVE
100
AcDbLine
 62
250
  6
CONTINUOUS
 10
12.7391542163
 20
6.0766985535
 11
12.2689330968
 21
6.2593735512
  0
LINE
  5
38E
100
AcDbEntity
  8
0
100
AcDbLine
 62
250
  6
CONTINUOUS
 10
12.7496318098
 20
6.0708564925
 11
12.2709113265
 21
6.2582705366
  0
LINE
  5
38F
100
AcDbEntity
  8
ASSI
100
AcDbLine
 62
7
  6
CONTINUOUS
 10
-6.5106426807
 20
13.7075423516
 11
-5.8415463135
 21
13.3212144949
  0
LINE
  5
390
100
AcDbEntity
  8
ASSI
100
AcDbLine
 62
7
  6
CONTINUOUS
 10
-6.3224879546
 20
13.7680161776
 11
-5.6951002121
 21
13.405770358
  0
LINE
  5
391
100
AcDbEntity
  8
ASSI
100
AcDbLine
 62
7
  6
CONTINUOUS
 10
24.848667491
 20
-4.1016565054
 11
24.4983593446
 21
-3.8993929721
  0
LINE
  5
392
100
AcDbEntity
  8
RACCORDO
100
AcDbLine
 62
7
  6
CONTINUOUS
 10
-9.8774947099
 20
16.1209015196
 11
-8.0576492707
 21
15.0701455711
  0
LINE
  5
393
100
AcDbEntity
  8
RACCORDO
100
AcDbLine
 62
7
  6
CONTINUOUS
 10
-5.8469860572
 20
13.7937363377
 11
-4.027140618
 21
12.7429803891
  0
LINE
  5
394
100
AcDbEntity
  8
RACCORDO
100
AcDbLine
 62
7
  6
CONTINUOUS
 10
-9.8162763424
 20
16.4750949063
 11
-7.765666677
 21
15.2910985856
  0
LINE
  5
395
100
AcDbEntity
  8
RACCORDO
100
AcDbLine
 62
7
  6
CONTINUOUS
 10
-5.7857676897
 20
14.1479297243
 11
-3.7351580242
 21
12.9639334036
  0
LINE
  5
396
100
AcDbEntity
  8
RACCORDO
100
AcDbLine
 62
7
  6
CONTINUOUS
 10
-8.8417253883
 20
17.8687417722
 11
-7.3921564869
 21
17.0317788559
  0
LINE
  5
397
100
AcDbEntity
  8
CURVE
100
AcDbLine
 62
250
  6
CONTINUOUS
 10
9.4457080558
 20
5.7009303167
 11
9.2472342268
 21
5.8155394835
  0
LINE
  5
398
100
AcDbEntity
  8
0
100
AcDbLine
 62
250
  6
CONTINUOUS
 10
11.1145301098
 20
4.0682833168
 11
12.7383866906
 21
2.771330059
  0
LINE
  5
399
100
AcDbEntity
  8
CURVE
100
AcDbLine
 62
250
  6
CONTINUOUS
 10
11.1330826594
 20
4.0579388493
 11
12.7281087467
 21
2.7770607999
  0
LINE
  5
39A
100
AcDbEntity
  8
CURVE
100
AcDbLine
 62
250
  6
CONTINUOUS
 10
12.2689330968
 20
3.5895230943
 11
12.2689330968
 21
4.3609487059
  0
LINE
  5
39B
100
AcDbEntity
  8
CURVE
100
AcDbLine
 62
250
  6
CONTINUOUS
 10
12.2689330968
 20
4.5582895718
 11
12.2689330968
 21
5.2355304382
  0
LINE
  5
39C
100
AcDbEntity
  8
0
100
AcDbLine
 62
250
  6
CONTINUOUS
 10
12.2709113265
 20
3.5884200797
 11
12.2709113265
 21
4.3598456913
  0
LINE
  5
39D
100
AcDbEntity
  8
0
100
AcDbLine
 62
250
  6
CONTINUOUS
 10
12.2709113265
 20
4.5571865572
 11
12.2709113265
 21
5.2344274236
  0
LINE
  5
39E
100
AcDbEntity
  8
CURVE
100
AcDbLine
 62
250
  6
CONTINUOUS
 10
12.5054831167
 20
4.4395918425
 11
12.5054831167
 21
3.7309568776
  0
LINE
  5
39F
100
AcDbEntity
  8
0
100
AcDbLine
 62
250
  6
CONTINUOUS
 10
12.5117370469
 20
4.4361047974
 11
12.5117370469
 21
3.7274698324
  0
LINE
  5
3A0
100
AcDbEntity
  8
CURVE
100
AcDbLine
 62
250
  6
CONTINUOUS
 10
12.5135843779
 20
4.641777287
 11
12.5135843779
 21
5.3504130685
  0
LINE
  5
3A1
100
AcDbEntity
  8
0
100
AcDbLine
 62
250
  6
CONTINUOUS
 10
12.5199847404
 20
4.6382085947
 11
12.5199847404
 21
5.3468443761
  0
LINE
  5
3A2
100
AcDbEntity
  8
CURVE
100
AcDbLine
 62
250
  6
CONTINUOUS
 10
12.7582349645
 20
5.6222706753
 11
12.7582349645
 21
4.8508442472
  0
LINE
  5
3A3
100
AcDbEntity
  8
CURVE
100
AcDbLine
 62
250
  6
CONTINUOUS
 10
12.7582349645
 20
3.8192871231
 11
12.7582349645
 21
4.5907127347
  0
LINE
  5
3A4
100
AcDbEntity
  8
0
100
AcDbLine
 62
250
  6
CONTINUOUS
 10
12.7690574473
 20
5.6162363122
 11
12.7690574473
 21
4.8448098841
  0
LINE
  5
3A5
100
AcDbEntity
  8
0
100
AcDbLine
 62
250
  6
CONTINUOUS
 10
12.7690574473
 20
3.81325276
 11
12.7690574473
 21
4.5846783716
  0
LINE
  5
3A6
100
AcDbEntity
  8
CURVE
100
AcDbLine
 62
250
  6
CONTINUOUS
 10
13.0245819843
 20
3.0811712634
 11
13.0245819843
 21
7.5848621337
  0
LINE
  5
3A7
100
AcDbEntity
  8
0
100
AcDbLine
 62
250
  6
CONTINUOUS
 10
13.0402187557
 20
3.0724525657
 11
13.0402187557
 21
7.576143436
  0
LINE
  5
3A8
100
AcDbEntity
  8
CURVE
100
AcDbLine
 62
250
  6
CONTINUOUS
 10
7.0144037592
 20
-10.3955631396
 11
6.8357773131
 21
-10.6913187488
  0
LINE
  5
3A9
100
AcDbEntity
  8
CURVE
100
AcDbLine
 62
250
  6
CONTINUOUS
 10
6.4785244395
 20
-11.3773075014
 11
6.2998979748
 21
-11.6730631217
  0
LINE
  5
3AA
100
AcDbEntity
  8
CURVE
100
AcDbLine
 62
250
  6
CONTINUOUS
 10
5.9426451199
 20
-12.6424838679
 11
5.7640186924
 21
-12.938239466
  0
LINE
  5
3AB
100
AcDbEntity
  8
CURVE
100
AcDbLine
 62
250
  6
CONTINUOUS
 10
5.7640186924
 20
-16.2449441659
 11
5.9426451199
 21
-15.949188489
  0
LINE
  5
3AC
100
AcDbEntity
  8
CURVE
100
AcDbLine
 62
250
  6
CONTINUOUS
 10
5.9426451199
 20
-10.7529386405
 11
6.1212715473
 21
-10.5516599569
  0
LINE
  5
3AD
100
AcDbEntity
  8
CURVE
100
AcDbLine
 62
250
  6
CONTINUOUS
 10
6.8357773131
 20
-10.6913187488
 11
6.657150867
 21
-10.8925974436
  0
LINE
  5
3AE
100
AcDbEntity
  8
CURVE
100
AcDbLine
 62
250
  6
CONTINUOUS
 10
5.7640186924
 20
-10.3873533144
 11
7.0144037592
 21
-9.2618357509
  0
LINE
  5
3AF
100
AcDbEntity
  8
RACCORDO
100
AcDbLine
 62
250
  6
CONTINUOUS
 10
-9.2848394549
 20
-21.4339784465
 11
-14.5710988313
 21
-24.7636532163
  0
LINE
  5
3B0
100
AcDbEntity
  8
RACCORDO
100
AcDbLine
 62
250
  6
CONTINUOUS
 10
-9.8983254131
 20
-22.0662480892
 11
-10.0602799484
 21
-22.1682589576
  0
LINE
  5
3B1
100
AcDbEntity
  8
RACCORDO
100
AcDbLine
 62
7
  6
CONTINUOUS
 10
-9.9706615261
 20
-22.1142686809
 11
-9.9707649006
 21
-22.1143337918
  0
LINE
  5
3B2
100
AcDbEntity
  8
ASSI
100
AcDbLine
 62
7
  6
CONTINUOUS
 10
21.6967599252
 20
-1.7328737835
 11
25.2177000767
 21
0.4028233767
  0
LINE
  5
3B3
100
AcDbEntity
  8
CURVE
100
AcDbLine
 62
250
  6
CONTINUOUS
 10
6.1212715473
 20
-10.5516599569
 11
6.657150867
 21
-10.2312565194
  0
LINE
  5
3B4
100
AcDbEntity
  8
CURVE
100
AcDbLine
 62
250
  6
CONTINUOUS
 10
6.657150867
 20
-10.8925974436
 11
6.1212715473
 21
-11.2130008811
  0
LINE
  5
3B5
100
AcDbEntity
  8
CURVE
100
AcDbLine
 62
250
  6
CONTINUOUS
 10
6.8357773131
 20
-11.1637052134
 11
6.4785244395
 21
-11.3773075014
  0
LINE
  5
3B6
100
AcDbEntity
  8
CURVE
100
AcDbLine
 62
250
  6
CONTINUOUS
 10
6.2998979748
 20
-12.0509723564
 11
5.7640186924
 21
-12.3713757717
  0
LINE
  5
3B7
100
AcDbEntity
  8
ASSI
100
AcDbLine
 62
250
  6
CONTINUOUS
 10
25.2177000767
 20
1.7673579104
 11
18.6935106679
 21
-2.0130254684
  0
LINE
  5
3B8
100
AcDbEntity
  8
ASSI
100
AcDbLine
 62
250
  6
CONTINUOUS
 10
18.8325157412
 20
-2.6635194503
 11
17.0846923936
 21
-3.6762801042
  0
LINE
  5
3B9
100
AcDbEntity
  8
RACCORDO
100
AcDbLine
 62
250
  6
CONTINUOUS
 10
-8.6352210307
 20
-18.0368765007
 11
-17.4283669505
 21
-23.113902679
  0
LINE
  5
3BA
100
AcDbEntity
  8
0
100
AcDbLine
 62
7
  6
CONTINUOUS
 10
21.6628611521
 20
-2.4368612209
 11
20.9558922119
 21
-2.8450562265
  0
LINE
  5
3BB
100
AcDbEntity
  8
0
100
AcDbLine
 62
7
  6
CONTINUOUS
 10
21.6628611521
 20
-3.0083904146
 11
20.9558922119
 21
-3.4165854202
  0
LINE
  5
3BC
100
AcDbEntity
  8
ASSI
100
AcDbLine
 62
7
  6
CONTINUOUS
 10
-5.304465181
 20
15.9882643443
 11
-3.6108615089
 21
15.0103988099
  0
LINE
  5
3BD
100
AcDbEntity
  8
RACCORDO
100
AcDbLine
 62
250
  6
CONTINUOUS
 10
-8.9481868857
 20
18.2236727087
 11
-7.3347833363
 21
17.29211372
  0
LINE
  5
3BE
100
AcDbEntity
  8
RACCORDO
100
AcDbLine
 62
250
  6
CONTINUOUS
 10
-1.7170284239
 20
14.0484924406
 11
-0.6157100427
 21
13.41260501
  0
LINE
  5
3BF
100
AcDbEntity
  8
DRAFT
100
AcDbLine
 62
7
  6
CONTINUOUS
 10
2.1317925713
 20
11.9894916862
 11
1.2699015826
 21
12.4871367411
  0
LINE
  5
3C0
100
AcDbEntity
  8
DRAFT
100
AcDbLine
 62
7
  6
CONTINUOUS
 10
-10.5558920845
 20
19.3152017925
 11
-11.6655733631
 21
19.9559178552
  0
LINE
  5
3C1
100
AcDbEntity
  8
RACCORDO
100
AcDbLine
 62
250
  6
CONTINUOUS
 10
-8.8068082351
 20
18.4657713203
 11
-7.1970707767
 21
17.5363290866
  0
LINE
  5
3C2
100
AcDbEntity
  8
RACCORDO
100
AcDbLine
 62
250
  6
CONTINUOUS
 10
-1.576834557
 20
14.2912751314
 11
-0.3449890153
 21
13.5800229543
  0
LINE
  5
3C3
100
AcDbEntity
  8
DRAFT
100
AcDbLine
 62
7
  6
CONTINUOUS
 10
1.2699015826
 20
13.0994894487
 11
-1.576834557
 21
14.7431592177
  0
LINE
  5
3C4
100
AcDbEntity
  8
DRAFT
100
AcDbLine
 62
7
  6
CONTINUOUS
 10
-7.1970707767
 20
17.9882131729
 11
-10.0438069163
 21
19.6318829419
  0
LINE
  5
3C5
100
AcDbEntity
  8
0
100
AcDbLine
 62
250
  6
CONTINUOUS
 10
-1.2354928305
 20
14.7945735682
 11
-5.7847955114
 21
17.42128392
  0
LINE
  5
3C6
100
AcDbEntity
  8
0
100
AcDbLine
 62
7
  6
CONTINUOUS
 10
-5.5072129183
 20
17.4057063104
 11
-1.0367390301
 21
14.8245107156
  0
LINE
  5
3C7
100
AcDbEntity
  8
ASSI
100
AcDbLine
 62
7
  6
CONTINUOUS
 10
-0.0091784844
 20
14.9621605085
 11
-0.0327025152
 21
14.975742989
  0
LINE
  5
3C8
100
AcDbEntity
  8
ASSI
100
AcDbLine
 62
7
  6
CONTINUOUS
 10
-5.6802685056
 20
18.2365768113
 11
-5.7037925363
 21
18.2501592918
  0
LINE
  5
3C9
100
AcDbEntity
  8
ASSI
100
AcDbLine
 62
250
  6
CONTINUOUS
 10
19.5999524387
 20
3.7983809975
 11
19.8198616526
 21
3.6714086346
  0
LINE
  5
3CA
100
AcDbEntity
  8
ASSI
100
AcDbLine
 62
250
  6
CONTINUOUS
 10
-6.9390549055
 20
19.2087389519
 11
-5.5736201514
 21
18.4203540377
  0
LINE
  5
3CB
100
AcDbEntity
  8
ASSI
100
AcDbLine
 62
250
  6
CONTINUOUS
 10
0.5287245337
 20
14.8969366969
 11
1.2251904768
 21
14.4948059901
  0
LINE
  5
3CC
100
AcDbEntity
  8
RACCORDO
100
AcDbLine
 62
7
  6
CONTINUOUS
 10
-6.8375857618
 20
19.1934366495
 11
-5.6163368874
 21
18.4883028552
  0
LINE
  5
3CD
100
AcDbEntity
  8
RACCORDO
100
AcDbLine
 62
7
  6
CONTINUOUS
 10
0.7779847877
 20
14.7963016597
 11
1.2640054445
 21
14.5156794237
  0
LINE
  5
3CE
100
AcDbEntity
  8
ASSI
100
AcDbLine
 62
7
  6
CONTINUOUS
 10
-8.8842982742
 20
20.6767076468
 11
-8.5065225925
 21
20.4585847028
  0
LINE
  5
3CF
100
AcDbEntity
  8
ASSI
100
AcDbLine
 62
7
  6
CONTINUOUS
 10
3.2847177232
 20
13.6504703235
 11
4.2116122713
 21
13.1152930281
  0
LINE
  5
3D0
100
AcDbEntity
  8
RACCORDO
100
AcDbLine
 62
250
  6
CONTINUOUS
 10
2.9433982835
 20
14.0657487876
 11
1.7300659403
 21
14.766311676
  0
LINE
  5
3D1
100
AcDbEntity
  8
RACCORDO
100
AcDbLine
 62
250
  6
CONTINUOUS
 10
-7.0975180093
 20
19.8632480129
 11
-8.3108503526
 21
20.5638109013
  0
LINE
  5
3D2
100
AcDbEntity
  8
ASSI
100
AcDbLine
 62
7
  6
CONTINUOUS
 10
19.1973612698
 20
4.7059722609
 11
18.9585195421
 21
4.8438764811
  0
LINE
  5
3D3
100
AcDbEntity
  8
ASSI
100
AcDbLine
 62
250
  6
CONTINUOUS
 10
21.6967599142
 20
-7.2612056092
 11
20.9256432284
 21
-6.2876940781
  0
LINE
  5
3D4
100
AcDbEntity
  8
ASSI
100
AcDbLine
 62
250
  6
CONTINUOUS
 10
16.4008410887
 20
-3.26878677
 11
16.4008410887
 21
2.4592305692
  0
LINE
  5
3D5
100
AcDbEntity
  8
CURVE
100
AcDbLine
 62
250
  6
CONTINUOUS
 10
7.0144037592
 20
-15.5918134611
 11
6.8357773131
 21
-15.8875691491
  0
LINE
  5
3D6
100
AcDbEntity
  8
CURVE
100
AcDbLine
 62
250
  6
CONTINUOUS
 10
5.9426451199
 20
-15.949188489
 11
6.1212715473
 21
-15.7479101207
  0
LINE
  5
3D7
100
AcDbEntity
  8
CURVE
100
AcDbLine
 62
250
  6
CONTINUOUS
 10
6.8357773131
 20
-15.8875691491
 11
6.657150867
 21
-16.0888475285
  0
LINE
  5
3D8
100
AcDbEntity
  8
CURVE
100
AcDbLine
 62
250
  6
CONTINUOUS
 10
5.7640186924
 20
-15.2056940858
 11
7.0144037592
 21
-14.0801769953
  0
LINE
  5
3D9
100
AcDbEntity
  8
CURVE
100
AcDbLine
 62
250
  6
CONTINUOUS
 10
6.1212715473
 20
-12.5356827295
 11
5.9426451199
 21
-12.6424838679
  0
LINE
  5
3DA
100
AcDbEntity
  8
CURVE
100
AcDbLine
 62
250
  6
CONTINUOUS
 10
16.0449625752
 20
-8.7822614234
 11
17.7816085013
 21
-7.7439169602
  0
LINE
  5
3DB
100
AcDbEntity
  8
RACCORDO
100
AcDbLine
 62
250
  6
CONTINUOUS
 10
-13.4228646442
 20
-26.4022955438
 11
-13.40844955
 21
-26.3940716961
  0
LINE
  5
3DC
100
AcDbEntity
  8
ASSI
100
AcDbLine
 62
7
  6
CONTINUOUS
 10
20.6033999687
 20
-6.1016348587
 11
21.3029299275
 21
-5.7048463594
  0
LINE
  5
3DD
100
AcDbEntity
  8
RACCORDO
100
AcDbLine
 62
250
  6
CONTINUOUS
 10
-13.4084495676
 20
-26.394071706
 11
-12.6283485877
 21
-25.9547003385
  0
LINE
  5
3DE
100
AcDbEntity
  8
DRAFT
100
AcDbLine
 62
7
  6
CONTINUOUS
 10
-12.6282564235
 20
-25.9547535529
 11
-13.4229042289
 21
-26.4023178395
  0
LINE
  5
3DF
100
AcDbEntity
  8
ASSI
100
AcDbLine
 62
7
  6
CONTINUOUS
 10
24.4983593446
 20
-3.8993929721
 11
21.2810152789
 21
-5.6921809274
  0
LINE
  5
3E0
100
AcDbEntity
  8
ASSI
100
AcDbLine
 62
7
  6
CONTINUOUS
 10
24.848667491
 20
-4.1016565054
 11
20.9256432284
 21
-6.2876940781
  0
LINE
  5
3E1
100
AcDbEntity
  8
CURVE
100
AcDbLine
 62
250
  6
CONTINUOUS
 10
7.0144037592
 20
-14.835995307
 11
5.7640186924
 21
-15.2056940858
  0
LINE
  5
3E2
100
AcDbEntity
  8
ASSI
100
AcDbLine
 62
7
  6
CONTINUOUS
 10
-0.0327025152
 20
14.975742989
 11
-1.576834557
 21
14.7431592177
  0
LWPOLYLINE
  5
3E3
100
AcDbEntity
  8
ASSI
100
AcDbPolyline
 62
7
  6
CONTINUOUS
 90
23
 70
0
 10
5.0940177769
 20
13.2793868757
 10
5.0710169364
 20
13.2916872795
 10
5.0472441503
 20
13.3028726202
 10
5.0227389996
 20
13.3128980636
 10
4.997546409
 20
13.3217217908
 10
4.9717099413
 20
13.329307455
 10
4.9452716803
 20
13.3356223496
 10
4.918273384
 20
13.340637913
 10
4.8907572755
 20
13.3443284539
 10
4.8627666296
 20
13.3466707719
 10
4.8343385976
 20
13.3476457172
 10
4.8055134609
 20
13.3472354982
 10
4.7763271784
 20
13.3454247493
 10
4.7468011747
 20
13.3421982427
 10
4.7169686697
 20
13.3375412413
 10
4.6868601658
 20
13.3314405901
 10
4.6564843026
 20
13.3238772453
 10
4.625872393
 20
13.3148367088
 10
4.595049499
 20
13.3043028254
 10
4.5640102758
 20
13.2922461095
 10
4.5327704448
 20
13.2786405351
 10
4.5013718625
 20
13.2634702202
 10
4.48151548
 20
13.2530965868
  0
LWPOLYLINE
  5
3E4
100
AcDbEntity
  8
ASSI
100
AcDbPolyline
 62
7
  6
CONTINUOUS
 90
23
 70
0
 10
-11.0325156862
 20
22.5906451844
 10
-11.0555165267
 20
22.6029455882
 10
-11.0792893129
 20
22.6141309289
 10
-11.1037944636
 20
22.6241563723
 10
-11.1289870542
 20
22.6329800995
 10
-11.1548235219
 20
22.6405657637
 10
-11.1812617829
 20
22.6468806583
 10
-11.2082600792
 20
22.6518962217
 10
-11.2357761877
 20
22.6555867626
 10
-11.2637668336
 20
22.6579290806
 10
-11.2921948656
 20
22.6589040259
 10
-11.3210200022
 20
22.6584938069
 10
-11.3502062847
 20
22.656683058
 10
-11.3797322885
 20
22.6534565514
 10
-11.4095647935
 20
22.64879955
 10
-11.4396732973
 20
22.6426988988
 10
-11.4700491606
 20
22.635135554
 10
-11.5006610702
 20
22.6260950175
 10
-11.5314839641
 20
22.6155611341
 10
-11.5625231874
 20
22.6035044182
 10
-11.5937630183
 20
22.5898988438
 10
-11.6251616007
 20
22.5747285289
 10
-11.6450179831
 20
22.5643548955
  0
LINE
  5
3E5
100
AcDbEntity
  8
ASSI
100
AcDbLine
 62
7
  6
CONTINUOUS
 10
5.9425009238
 20
12.7894974416
 11
5.9426080671
 21
12.7894356057
  0
LINE
  5
3E6
100
AcDbEntity
  8
ASSI
100
AcDbLine
 62
7
  6
CONTINUOUS
 10
-10.1839253954
 20
22.100693914
 11
-10.1840368527
 21
22.1007582386
  0
LINE
  5
3E7
100
AcDbEntity
  8
ASSI
100
AcDbLine
 62
250
  6
CONTINUOUS
 10
-11.5235272168
 20
22.5500407515
 11
-10.6652243817
 21
22.0544674515
  0
LINE
  5
3E8
100
AcDbEntity
  8
ASSI
100
AcDbLine
 62
250
  6
CONTINUOUS
 10
4.6030062463
 20
13.2387824428
 11
5.4613090815
 21
12.7432091428
  0
LINE
  5
3E9
100
AcDbEntity
  8
RACCORDO
100
AcDbLine
 62
7
  6
CONTINUOUS
 10
3.182983733
 20
14.0894763843
 11
1.978163936
 21
14.7851242352
  0
LINE
  5
3EA
100
AcDbEntity
  8
RACCORDO
100
AcDbLine
 62
7
  6
CONTINUOUS
 10
-6.8579325598
 20
19.8869756096
 11
-8.0627523569
 21
20.5826234605
  0
LINE
  5
3EB
100
AcDbEntity
  8
ASSI
100
AcDbLine
 62
7
  6
CONTINUOUS
 10
-11.0325156862
 20
22.5906451844
 11
-10.1839253534
 21
22.1006938897
  0
LINE
  5
3EC
100
AcDbEntity
  8
ASSI
100
AcDbLine
 62
7
  6
CONTINUOUS
 10
5.0940177769
 20
13.2793868757
 11
5.9426081084
 21
12.7894355818
  0
LINE
  5
3ED
100
AcDbEntity
  8
ASSI
100
AcDbLine
 62
250
  6
CONTINUOUS
 10
20.5877742028
 20
4.8480913832
 11
24.8635835518
 21
2.3792926536
  0
LINE
  5
3EE
100
AcDbEntity
  8
ASSI
100
AcDbLine
 62
7
  6
CONTINUOUS
 10
21.0920900302
 20
4.7196676399
 11
25.1080422566
 21
2.4009071561
  0
LINE
  5
3EF
100
AcDbEntity
  8
ASSI
100
AcDbLine
 62
250
  6
CONTINUOUS
 10
20.0659990918
 20
6.1113005823
 11
21.4271341347
 21
5.3253982675
  0
LINE
  5
3F0
100
AcDbEntity
  8
ASSI
100
AcDbLine
 62
7
  6
CONTINUOUS
 10
20.1478060603
 20
6.1617234009
 11
21.564155447
 21
5.343941016
  0
LWPOLYLINE
  5
3F1
100
AcDbEntity
  8
ASSI
100
AcDbPolyline
 62
7
  6
CONTINUOUS
 90
14
 70
0
 10
16.5506330295
 20
-3.1452636484
 10
16.5505922288
 20
-3.1451635506
 10
16.5502336207
 20
-3.1442133769
 10
16.5495647164
 20
-3.1422265204
 10
16.5486673445
 20
-3.1392025811
 10
16.5476341301
 20
-3.1352155924
 10
16.5465310738
 20
-3.1302880576
 10
16.5454131931
 20
-3.1244191294
 10
16.5443379629
 20
-3.1176452058
 10
16.5433548747
 20
-3.1099919917
 10
16.5425064668
 20
-3.1014593326
 10
16.5418324836
 20
-3.0920207086
 10
16.5413749871
 20
-3.0816660392
 10
16.5411763895
 20
-3.0704217353
  0
LINE
  5
3F2
100
AcDbEntity
  8
ASSI
100
AcDbLine
 62
7
  6
CONTINUOUS
 10
16.5411763895
 20
-3.0704217353
 11
16.5411711886
 21
2.6597740877
  0
LINE
  5
3F3
100
AcDbEntity
  8
CURVE
100
AcDbLine
 62
250
  6
CONTINUOUS
 10
17.7816085013
 20
-7.7439169602
 11
17.7816085013
 21
-7.0149256243
  0
LINE
  5
3F4
100
AcDbEntity
  8
ASSI
100
AcDbLine
 62
250
  6
CONTINUOUS
 10
18.8325157412
 20
-11.3495737695
 11
18.8325157412
 21
-2.6635194503
  0
LINE
  5
3F5
100
AcDbEntity
  8
ASSI
100
AcDbLine
 62
250
  6
CONTINUOUS
 10
18.8325157412
 20
4.7617706195
 11
18.8325157412
 21
13.4478249388
  0
LINE
  5
3F6
100
AcDbEntity
  8
ASSI
100
AcDbLine
 62
7
  6
CONTINUOUS
 10
18.972845841
 20
-11.149030251
 11
18.972845841
 21
-2.4629759318
  0
LINE
  5
3F7
100
AcDbEntity
  8
ASSI
100
AcDbLine
 62
7
  6
CONTINUOUS
 10
18.972845841
 20
4.962314138
 11
18.972845841
 21
13.6483684573
  0
LWPOLYLINE
  5
3F8
100
AcDbEntity
  8
ASSI
100
AcDbPolyline
 62
7
  6
CONTINUOUS
 90
48
 70
0
 10
16.5411711953
 20
2.6597784587
 10
16.541181023
 20
2.6627918883
 10
16.5414261866
 20
2.6753906542
 10
16.5420311218
 20
2.6888985612
 10
16.5430362486
 20
2.7033150116
 10
16.5444788508
 20
2.7186083085
 10
16.5463890982
 20
2.7347131026
 10
16.5487974643
 20
2.7516019345
 10
16.5517325032
 20
2.7692456715
 10
16.5552118631
 20
2.7875694859
 10
16.5592554757
 20
2.8065330693
 10
16.5638822544
 20
2.8261010876
 10
16.5690997809
 20
2.8462019709
 10
16.5749189111
 20
2.8667909109
 10
16.581348544
 20
2.8878239723
 10
16.5883861779
 20
2.9092285774
 10
16.596034635
 20
2.9309592278
 10
16.6042923338
 20
2.9529635489
 10
16.6131426626
 20
2.9751580543
 10
16.6225787886
 20
2.9974942591
 10
16.6325892937
 20
3.0199173156
 10
16.6431420621
 20
3.0423351651
 10
16.6542192065
 20
3.0646957142
 10
16.6658009069
 20
3.0869477388
 10
16.6778440169
 20
3.1090026645
 10
16.6903222654
 20
3.1308112675
 10
16.70320731
 20
3.1523254055
 10
16.716446098
 20
3.1734618529
 10
16.7300052276
 20
3.1941770335
 10
16.7438496919
 20
3.2144286572
 10
16.757917663
 20
3.2341411556
 10
16.7721683528
 20
3.2532762939
 10
16.7865640828
 20
3.2718031895
 10
16.8010422541
 20
3.2896640555
 10
16.815559152
 20
3.3068304392
 10
16.8300745716
 20
3.3232812647
 10
16.8445278511
 20
3.3389764741
 10
16.8588769334
 20
3.3539009566
 10
16.8730780958
 20
3.3680409212
 10
16.8870663662
 20
3.3813655521
 10
16.9008018015
 20
3.3938728119
 10
16.9142397954
 20
3.4055589659
 10
16.9273072514
 20
3.4164000428
 10
16.9399644044
 20
3.4264054102
 10
16.952172264
 20
3.4355871782
 10
16.963859519
 20
3.4439372209
 10
16.974979704
 20
3.4514709946
 10
16.9855111695
 20
3.4582228755
  0
LINE
  5
3F9
100
AcDbEntity
  8
0
100
AcDbLine
 62
7
  6
CONTINUOUS
 10
20.6092720481
 20
-3.7357936353
 11
20.9558922119
 21
-3.4165854202
  0
LINE
  5
3FA
100
AcDbEntity
  8
RACCORDO
100
AcDbLine
 62
7
  6
CONTINUOUS
 10
20.5086030786
 20
-5.3956260777
 11
20.5767555946
 21
-5.3386311101
  0
LINE
  5
3FB
100
AcDbEntity
  8
RACCORDO
100
AcDbLine
 62
7
  6
CONTINUOUS
 10
20.4364419483
 20
-5.455773487
 11
20.5761857359
 21
-5.3391114893
  0
LINE
  5
3FC
100
AcDbEntity
  8
0
100
AcDbLine
 62
7
  6
CONTINUOUS
 10
20.0443292564
 20
-5.7818756177
 11
20.0457677372
 21
-5.7806792957
  0
LINE
  5
3FD
100
AcDbEntity
  8
RACCORDO
100
AcDbLine
 62
7
  6
CONTINUOUS
 10
19.9091991105
 20
-5.8899534798
 11
20.0445293702
 21
-5.7791688758
  0
LINE
  5
3FE
100
AcDbEntity
  8
RACCORDO
100
AcDbLine
 62
250
  6
CONTINUOUS
 10
19.9091991105
 20
-5.8899534798
 11
19.9106151907
 21
-5.8888208908
  0
LINE
  5
3FF
100
AcDbEntity
  8
RACCORDO
100
AcDbLine
 62
7
  6
CONTINUOUS
 10
19.9075674271
 20
-5.8912449584
 11
19.9091991105
 21
-5.8899534798
  0
LINE
  5
400
100
AcDbEntity
  8
RACCORDO
100
AcDbLine
 62
250
  6
CONTINUOUS
 10
19.9091991105
 20
-5.8899534798
 11
19.9106213682
 21
-5.8888603213
  0
LINE
  5
401
100
AcDbEntity
  8
ASSI
100
AcDbLine
 62
250
  6
CONTINUOUS
 10
18.972845841
 20
-10.5071233575
 11
25.2177000767
 21
-6.6452118234
  0
LINE
  5
402
100
AcDbEntity
  8
ASSI
100
AcDbLine
 62
7
  6
CONTINUOUS
 10
18.972845841
 20
-10.672040007
 11
25.1210129659
 21
-6.8699212325
  0
LINE
  5
403
100
AcDbEntity
  8
DRAFT
100
AcDbLine
 62
7
  6
CONTINUOUS
 10
0.0678200546
 20
-19.5179655835
 11
2.464139368
 21
-18.0704557491
  0
LINE
  5
404
100
AcDbEntity
  8
ASSI
100
AcDbLine
 62
7
  6
CONTINUOUS
 10
0.0678200546
 20
-19.6567731703
 11
2.5689711257
 21
-18.1459391372
  0
LINE
  5
405
100
AcDbEntity
  8
CURVE
100
AcDbLine
 62
250
  6
CONTINUOUS
 10
6.1212715473
 20
-15.7479101207
 11
6.657150867
 21
-15.4275066832
  0
LINE
  5
406
100
AcDbEntity
  8
CURVE
100
AcDbLine
 62
250
  6
CONTINUOUS
 10
6.657150867
 20
-16.0888475285
 11
6.1212715473
 21
-16.4092509661
  0
LINE
  5
407
100
AcDbEntity
  8
CURVE
100
AcDbLine
 62
250
  6
CONTINUOUS
 10
5.7640186924
 20
-17.0007623593
 11
7.0144037592
 21
-16.2531543459
  0
LINE
  5
408
100
AcDbEntity
  8
ASSI
100
AcDbLine
 62
7
  6
CONTINUOUS
 10
25.2177000767
 20
-5.1865468826
 11
21.6967599257
 21
-7.2612055932
  0
LINE
  5
409
100
AcDbEntity
  8
ASSI
100
AcDbLine
 62
7
  6
CONTINUOUS
 10
-5.6802685056
 20
18.2365768113
 11
-7.1970707767
 21
17.9882131729
  0
LINE
  5
40A
100
AcDbEntity
  8
0
100
AcDbLine
 62
7
  6
CONTINUOUS
 10
21.6628611521
 20
12.9944270105
 11
20.8932436371
 21
13.1431102987
  0
LINE
  5
40B
100
AcDbEntity
  8
RACCORDO
100
AcDbLine
 62
7
  6
CONTINUOUS
 10
19.8008640664
 20
10.116308218
 11
19.7169053355
 21
10.164784937
  0
LINE
  5
40C
100
AcDbEntity
  8
ASSI
100
AcDbLine
 62
250
  6
CONTINUOUS
 10
20.9256432284
 20
9.715123347
 11
20.6033999687
 21
9.9011825665
  0
LINE
  5
40D
100
AcDbEntity
  8
ASSI
100
AcDbLine
 62
7
  6
CONTINUOUS
 10
24.848667491
 20
-4.1016565054
 11
25.2115835671
 21
-4.5531728094
  0
LINE
  5
40E
100
AcDbEntity
  8
ASSI
100
AcDbLine
 62
7
  6
CONTINUOUS
 10
19.1973612698
 20
4.7059722609
 11
19.4827951512
 21
4.3508542057
  0
LWPOLYLINE
  5
40F
100
AcDbEntity
  8
ASSI
100
AcDbPolyline
 62
7
  6
CONTINUOUS
 90
17
 70
0
 10
19.6133847451
 20
3.6181244982
 10
19.613413301
 20
3.6180739575
 10
19.6132988259
 20
3.6182986748
 10
19.6127978753
 20
3.6193649982
 10
19.6119860912
 20
3.6212910272
 10
19.6109454572
 20
3.6240583828
 10
19.6097359356
 20
3.627683867
 10
19.6084185407
 20
3.6321674684
 10
19.6070630072
 20
3.6374524006
 10
19.6057203852
 20
3.6435156719
 10
19.6044317347
 20
3.6503588428
 10
19.603238597
 20
3.6579682898
 10
19.6021800195
 20
3.6663240243
 10
19.6012900078
 20
3.6754236769
 10
19.6005995256
 20
3.6852997334
 10
19.6001429949
 20
3.6959626165
 10
19.5999554097
 20
3.7073851361
  0
LINE
  5
410
100
AcDbEntity
  8
ASSI
100
AcDbLine
 62
250
  6
CONTINUOUS
 10
19.4876883589
 20
3.8441549472
 11
19.4876883589
 21
3.5486004414
  0
LINE
  5
411
100
AcDbEntity
  8
ASSI
100
AcDbLine
 62
7
  6
CONTINUOUS
 10
19.5999524387
 20
4.0558646927
 11
19.5999554097
 21
3.7073851361
  0
LINE
  5
412
100
AcDbEntity
  8
RACCORDO
100
AcDbLine
 62
7
  6
CONTINUOUS
 10
19.7607439107
 20
11.7770942779
 11
19.7607439107
 21
10.2628585738
  0
LINE
  5
413
100
AcDbEntity
  8
RACCORDO
100
AcDbLine
 62
7
  6
CONTINUOUS
 10
19.7607439107
 20
-4.2257231473
 11
19.7607439107
 21
-5.7399588513
  0
LINE
  5
414
100
AcDbEntity
  8
RACCORDO
100
AcDbLine
 62
7
  6
CONTINUOUS
 10
20.6092720481
 20
13.2957719836
 11
20.6092720481
 21
13.0767011368
  0
LINE
  5
415
100
AcDbEntity
  8
RACCORDO
100
AcDbLine
 62
7
  6
CONTINUOUS
 10
20.6092720481
 20
12.2670237899
 11
20.6092720481
 21
10.7527575784
  0
LINE
  5
416
100
AcDbEntity
  8
RACCORDO
100
AcDbLine
 62
7
  6
CONTINUOUS
 10
20.6092720481
 20
-2.7070454416
 11
20.6092720481
 21
-2.9261162883
  0
LINE
  5
417
100
AcDbEntity
  8
RACCORDO
100
AcDbLine
 62
7
  6
CONTINUOUS
 10
20.6092720481
 20
-3.7357936353
 11
20.6092720481
 21
-5.2500598467
  0
LINE
  5
418
100
AcDbEntity
  8
ASSI
100
AcDbLine
 62
7
  6
CONTINUOUS
 10
20.9493765369
 20
-5.9053894777
 11
20.9493765369
 21
-5.5003649795
  0
LINE
  5
419
100
AcDbEntity
  8
ASSI
100
AcDbLine
 62
7
  6
CONTINUOUS
 10
20.9493765369
 20
10.0974279475
 11
20.9493765369
 21
10.5024524456
  0
LINE
  5
41A
100
AcDbEntity
  8
0
100
AcDbLine
 62
7
  6
CONTINUOUS
 10
21.6628611521
 20
-3.0083904146
 11
21.6628611521
 21
-2.4368612209
  0
LINE
  5
41B
100
AcDbEntity
  8
0
100
AcDbLine
 62
7
  6
CONTINUOUS
 10
21.6628611521
 20
12.9944270105
 11
21.6628611521
 21
13.5659562043
  0
LINE
  5
41C
100
AcDbEntity
  8
0
100
AcDbLine
 62
7
  6
CONTINUOUS
 10
22.0251508033
 20
13.6516043347
 11
21.9158694926
 21
13.0157589741
  0
LINE
  5
41D
100
AcDbEntity
  8
ASSI
100
AcDbLine
 62
250
  6
CONTINUOUS
 10
18.8325157412
 20
-11.3495737695
 11
6.1500380124
 21
-19.1926082381
  0
LINE
  5
41E
100
AcDbEntity
  8
ASSI
100
AcDbLine
 62
7
  6
CONTINUOUS
 10
18.7358286304
 20
-11.5742831787
 11
6.2217711235
 21
-19.3131640557
  0
LINE
  5
41F
100
AcDbEntity
  8
RACCORDO
100
AcDbLine
 62
7
  6
CONTINUOUS
 10
-6.9390549055
 20
19.2087389519
 11
-8.7710147102
 21
18.8969886739
  0
LINE
  5
420
100
AcDbEntity
  8
0
100
AcDbLine
 62
7
  6
CONTINUOUS
 10
19.7607439107
 20
11.7770942779
 11
19.7234726512
 21
11.7986142359
  0
LINE
  5
421
100
AcDbEntity
  8
0
100
AcDbLine
 62
7
  6
CONTINUOUS
 10
20.6092720481
 20
12.2670237899
 11
20.0997148628
 21
12.5612357224
  0
LINE
  5
422
100
AcDbEntity
  8
ASSI
100
AcDbLine
 62
7
  6
CONTINUOUS
 10
22.0531737826
 20
11.5527148497
 11
21.5146930075
 21
11.8636269005
  0
LINE
  5
423
100
AcDbEntity
  8
0
100
AcDbLine
 62
7
  6
CONTINUOUS
 10
20.9558922119
 20
12.5862320049
 11
20.3418531841
 21
12.9407704439
  0
LINE
  5
424
100
AcDbEntity
  8
ASSI
100
AcDbLine
 62
250
  6
CONTINUOUS
 10
17.8470822512
 20
14.4249748477
 11
18.4790161985
 21
14.0601041065
  0
LINE
  5
425
100
AcDbEntity
  8
ASSI
100
AcDbLine
 62
7
  6
CONTINUOUS
 10
18.3322859822
 20
14.306885527
 11
18.7228579211
 21
14.0813741845
  0
LINE
  5
426
100
AcDbEntity
  8
0
100
AcDbLine
 62
7
  6
CONTINUOUS
 10
20.6092720481
 20
13.0767011368
 11
20.4905360739
 21
13.1452578002
  0
LINE
  5
427
100
AcDbEntity
  8
ASSI
100
AcDbLine
 62
7
  6
CONTINUOUS
 10
20.9493765369
 20
10.5024524456
 11
21.3029299275
 21
10.2979710658
  0
LINE
  5
428
100
AcDbEntity
  8
ASSI
100
AcDbLine
 62
250
  6
CONTINUOUS
 10
23.1498542361
 20
20.1814799688
 11
23.1498542361
 21
19.6284882096
  0
LINE
  5
429
100
AcDbEntity
  8
ASSI
100
AcDbLine
 62
7
  6
CONTINUOUS
 10
23.234052296
 20
20.3018060799
 11
23.234052296
 21
19.5798733051
  0
LINE
  5
42A
100
AcDbEntity
  8
0
100
AcDbLine
 62
7
  6
CONTINUOUS
 10
22.0251508033
 20
-2.3512130905
 11
21.9158694926
 21
-2.987058451
  0
LINE
  5
42B
100
AcDbEntity
  8
RACCORDO
100
AcDbLine
 62
250
  6
CONTINUOUS
 10
-5.1451292005
 20
-28.2259216607
 11
-5.5048538885
 21
-28.4264957276
  0
LINE
  5
42C
100
AcDbEntity
  8
RACCORDO
100
AcDbLine
 62
250
  6
CONTINUOUS
 10
-4.7916022639
 20
-28.4335866428
 11
-5.1513269518
 21
-28.6341607097
  0
LINE
  5
42D
100
AcDbEntity
  8
RACCORDO
100
AcDbLine
 62
250
  6
CONTINUOUS
 10
-7.3458044729
 20
-28.5630125565
 11
-4.7916022639
 21
-27.6499589581
  0
LINE
  5
42E
100
AcDbEntity
  8
ASSI
100
AcDbLine
 62
7
  6
CONTINUOUS
 10
24.848667491
 20
11.9011609197
 11
24.4983593446
 21
12.103424453
  0
LINE
  5
42F
100
AcDbEntity
  8
ASSI
100
AcDbLine
 62
250
  6
CONTINUOUS
 10
21.6967599142
 20
8.7416118159
 11
20.9256432284
 21
9.715123347
  0
LINE
  5
430
100
AcDbEntity
  8
ASSI
100
AcDbLine
 62
7
  6
CONTINUOUS
 10
24.4983593446
 20
-3.8993929721
 11
24.4983593446
 21
-0.0335072317
  0
LINE
  5
431
100
AcDbEntity
  8
ASSI
100
AcDbLine
 62
7
  6
CONTINUOUS
 10
24.4983593446
 20
12.103424453
 11
24.4983593446
 21
15.9693101934
  0
LINE
  5
432
100
AcDbEntity
  8
ASSI
100
AcDbLine
 62
250
  6
CONTINUOUS
 10
25.2177000767
 20
17.8643057427
 11
25.2177000767
 21
16.4056408019
  0
LINE
  5
433
100
AcDbEntity
  8
ASSI
100
AcDbLine
 62
250
  6
CONTINUOUS
 10
25.2177000767
 20
1.7673579104
 11
25.2177000767
 21
0.4028233767
  0
LINE
  5
434
100
AcDbEntity
  8
ASSI
100
AcDbLine
 62
250
  6
CONTINUOUS
 10
25.2177000767
 20
-5.1865468826
 11
25.2177000767
 21
-6.6452118234
  0
LINE
  5
435
100
AcDbEntity
  8
ASSI
100
AcDbLine
 62
250
  6
CONTINUOUS
 10
25.2177000767
 20
9.451736009
 11
25.2177000767
 21
10.8162705426
  0
LINE
  5
436
100
AcDbEntity
  8
ASSI
100
AcDbLine
 62
7
  6
CONTINUOUS
 10
25.3580301765
 20
18.0648492612
 11
25.3580301765
 21
16.5420906569
  0
LINE
  5
437
100
AcDbEntity
  8
ASSI
100
AcDbLine
 62
7
  6
CONTINUOUS
 10
25.3580301765
 20
1.9679014289
 11
25.3580301765
 21
0.5392732318
  0
LINE
  5
438
100
AcDbEntity
  8
ASSI
100
AcDbLine
 62
7
  6
CONTINUOUS
 10
25.3580301765
 20
-4.9219097006
 11
25.3580301765
 21
-6.4446683049
  0
LINE
  5
439
100
AcDbEntity
  8
ASSI
100
AcDbLine
 62
7
  6
CONTINUOUS
 10
25.3580301765
 20
9.6522795274
 11
25.3580301765
 21
11.0809077245
  0
LWPOLYLINE
  5
43A
100
AcDbEntity
  8
ASSI
100
AcDbPolyline
 62
7
  6
CONTINUOUS
 90
40
 70
0
 10
5.5897051213
 20
-26.2291696075
 10
5.6067975204
 20
-26.2183539261
 10
5.6346938231
 20
-26.1996358635
 10
5.662153692
 20
-26.179893829
 10
5.6891579352
 20
-26.1591720295
 10
5.7156993189
 20
-26.1375043723
 10
5.7417737972
 20
-26.1149193392
 10
5.7673652955
 20
-26.0914532551
 10
5.7924569505
 20
-26.0671419921
 10
5.8170360822
 20
-26.0420167878
 10
5.8410848717
 20
-26.0161122598
 10
5.8645851523
 20
-25.9894635428
 10
5.8875186501
 20
-25.9621045188
 10
5.9098657619
 20
-25.934071234
 10
5.9316076143
 20
-25.9053976141
 10
5.9527250855
 20
-25.8761185706
 10
5.9731980818
 20
-25.8462692606
 10
5.9930068892
 20
-25.8158850989
 10
6.0121307377
 20
-25.7850024519
 10
6.0305497066
 20
-25.7536570523
 10
6.0482437431
 20
-25.721884554
 10
6.065192122
 20
-25.6897221763
 10
6.0813750668
 20
-25.6572057253
 10
6.0967726971
 20
-25.6243709418
 10
6.1113650229
 20
-25.5912545883
 10
6.1251323269
 20
-25.5578920417
 10
6.1380552805
 20
-25.5243188824
 10
6.15011428
 20
-25.4905697033
 10
6.1612904107
 20
-25.4566783869
 10
6.1715633451
 20
-25.4226805339
 10
6.1809139154
 20
-25.3886094249
 10
6.1893217937
 20
-25.3544989679
 10
6.1967669352
 20
-25.3203824806
 10
6.2032294461
 20
-25.2862870425
 10
6.2086877004
 20
-25.2522458318
 10
6.2131192321
 20
-25.218291591
 10
6.2165019485
 20
-25.1844425441
 10
6.2188107633
 20
-25.1507226206
 10
6.2200181605
 20
-25.1171715213
 10
6.2202030233
 20
-25.0981511571
  0
LINE
  5
43B
100
AcDbEntity
  8
ASSI
100
AcDbLine
 62
250
  6
CONTINUOUS
 10
5.6380588529
 20
-26.1168086505
 11
0.0678200546
 21
-29.5615278786
  0
LINE
  5
43C
100
AcDbEntity
  8
ASSI
100
AcDbLine
 62
7
  6
CONTINUOUS
 10
5.5897152975
 20
-26.229163355
 11
0.0182221913
 21
-29.674658266
  0
LINE
  5
43D
100
AcDbEntity
  8
RACCORDO
100
AcDbLine
 62
250
  6
CONTINUOUS
 10
-1.4088566417
 20
-30.3848571557
 11
0.0678200546
 21
-29.5614967905
  0
LINE
  5
43E
100
AcDbEntity
  8
RACCORDO
100
AcDbLine
 62
7
  6
CONTINUOUS
 10
-1.4607734281
 20
-30.499374425
 11
0.0149648594
 21
-29.6765372946
  0
LINE
  5
43F
100
AcDbEntity
  8
RACCORDO
100
AcDbLine
 62
250
  6
CONTINUOUS
 10
-1.4088566417
 20
-29.0439969992
 11
-5.1513269518
 21
-31.056576421
  0
LINE
  5
440
100
AcDbEntity
  8
RACCORDO
100
AcDbLine
 62
7
  6
CONTINUOUS
 10
-1.7322860168
 20
-29.304557908
 11
-5.2065850484
 21
-31.1729234945
  0
LINE
  5
441
100
AcDbEntity
  8
RACCORDO
100
AcDbLine
 62
7
  6
CONTINUOUS
 10
-7.4353164288
 20
-28.6945890992
 11
-4.9971324449
 21
-27.823008669
  0
LINE
  5
442
100
AcDbEntity
  8
ASSI
100
AcDbLine
 62
7
  6
CONTINUOUS
 10
24.848667491
 20
11.9011609197
 11
25.2115835671
 21
11.4496446158
  0
LINE
  5
443
100
AcDbEntity
  8
ASSI
100
AcDbLine
 62
250
  6
CONTINUOUS
 10
24.864200534
 20
18.4765849105
 11
22.1064625482
 21
20.0688682609
  0
LINE
  5
444
100
AcDbEntity
  8
ASSI
100
AcDbLine
 62
250
  6
CONTINUOUS
 10
17.5687873443
 20
22.6888650532
 11
9.5829213336
 21
27.2998040014
  0
LINE
  5
445
100
AcDbEntity
  8
ASSI
100
AcDbLine
 62
7
  6
CONTINUOUS
 10
9.8267630562
 20
27.3210740793
 11
17.6284056419
 21
22.8165034279
  0
LINE
  5
446
100
AcDbEntity
  8
ASSI
100
AcDbLine
 62
7
  6
CONTINUOUS
 10
22.5256431143
 20
19.9888998881
 11
25.1080422566
 21
18.4978549884
  0
LINE
  5
447
100
AcDbEntity
  8
ASSI
100
AcDbLine
 62
250
  6
CONTINUOUS
 10
18.4296153709
 20
23.1517905084
 11
22.9377545105
 21
20.5488474694
  0
LINE
  5
448
100
AcDbEntity
  8
ASSI
100
AcDbLine
 62
7
  6
CONTINUOUS
 10
18.5759204045
 20
23.1645525552
 11
23.084059544
 21
20.5616095162
  0
ARC
  5
449
100
AcDbEntity
  8
RACCORDO
100
AcDbCircle
 62
250
  6
CONTINUOUS
 10
-7.6649871008
 20
4.3593463648
 40
7.3637508905
100
AcDbArc
 50
178.0169525919
 51
180.0048724691
  0
ARC
  5
44A
100
AcDbEntity
  8
RACCORDO
100
AcDbCircle
 62
250
  6
CONTINUOUS
 10
-4.9820270746
 20
-15.9277192791
 40
4.288657456
100
AcDbArc
 50
209.9998400014
 51
211.6214375031
  0
ARC
  5
44B
100
AcDbEntity
  8
RACCORDO
100
AcDbCircle
 62
250
  6
CONTINUOUS
 10
-11.3726367074
 20
-19.8885177941
 40
2.6304942568
100
AcDbArc
 50
299.9273310241
 51
302.2037527831
  0
ARC
  5
44C
100
AcDbEntity
  8
RACCORDO
100
AcDbCircle
 62
250
  6
CONTINUOUS
 10
-16.8995370387
 20
5.1986277127
 40
1.06149189
100
AcDbArc
 50
117.8009022857
 51
119.8806685444
  0
ARC
  5
44D
100
AcDbEntity
  8
RACCORDO
100
AcDbCircle
 62
7
  6
CONTINUOUS
 10
-22.3286648469
 20
14.8173148525
 40
0.25
100
AcDbArc
 50
121.7332683128
 51
179.9993351588
  0
ARC
  5
44E
100
AcDbEntity
  8
RACCORDO
100
AcDbCircle
 62
7
  6
CONTINUOUS
 10
-22.3286648469
 20
-21.1350341159
 40
0.25
100
AcDbArc
 50
180.0009619066
 51
239.9984015652
  0
ARC
  5
44F
100
AcDbEntity
  8
RACCORDO
100
AcDbCircle
 62
7
  6
CONTINUOUS
 10
-5.3249915445
 20
-30.9527419746
 40
0.25
100
AcDbArc
 50
239.999067588
 51
298.2699256376
  0
ARC
  5
450
100
AcDbEntity
  8
RACCORDO
100
AcDbCircle
 62
250
  6
CONTINUOUS
 10
-25.0378539893
 20
-18.3687387235
 40
0.0900832764
100
AcDbArc
 50
181.9628138552
 51
182.8645334056
  0
ARC
  5
451
100
AcDbEntity
  8
RACCORDO
100
AcDbCircle
 62
7
  6
CONTINUOUS
 10
-26.3833698239
 20
50.8844952442
 40
73.2551749372
100
AcDbArc
 50
309.3297950049
 51
309.727212087
  0
ARC
  5
452
100
AcDbEntity
  8
RACCORDO
100
AcDbCircle
 62
7
  6
CONTINUOUS
 10
-26.3833698234
 20
66.8873126688
 40
73.2551749365
100
AcDbArc
 50
309.3297950049
 51
309.727212087
  0
ARC
  5
453
100
AcDbEntity
  8
RACCORDO
100
AcDbCircle
 62
7
  6
CONTINUOUS
 10
-16.1305610913
 20
36.9845659948
 40
55.8463677568
100
AcDbArc
 50
309.4714855483
 51
309.9476076886
  0
ARC
  5
454
100
AcDbEntity
  8
RACCORDO
100
AcDbCircle
 62
7
  6
CONTINUOUS
 10
-16.1305610912
 20
52.9873834198
 40
55.8463677566
100
AcDbArc
 50
309.4714855483
 51
309.9476076886
  0
ARC
  5
455
100
AcDbEntity
  8
ASSI
100
AcDbCircle
 62
250
  6
CONTINUOUS
 10
-11.2008312983
 20
22.2920586332
 40
0.3427535904
100
AcDbArc
 50
61.112352494
 51
62.4607733064
  0
ARC
  5
456
100
AcDbEntity
  8
ASSI
100
AcDbCircle
 62
250
  6
CONTINUOUS
 10
-11.2005573903
 20
22.2925572782
 40
0.3421846693
100
AcDbArc
 50
59.9989009844
 51
61.1121738467
  0
ARC
  5
457
100
AcDbEntity
  8
RACCORDO
100
AcDbCircle
 62
7
  6
CONTINUOUS
 10
11.562693444
 20
-0.1909429131
 40
32.6360217083
100
AcDbArc
 50
239.2128858328
 51
239.9264163507
  0
ARC
  5
458
100
AcDbEntity
  8
RACCORDO
100
AcDbCircle
 62
7
  6
CONTINUOUS
 10
11.2029687559
 20
-0.39151698
 40
32.6360217082
100
AcDbArc
 50
239.2128858328
 51
239.9264163507
  0
ARC
  5
459
100
AcDbEntity
  8
RACCORDO
100
AcDbCircle
 62
250
  6
CONTINUOUS
 10
17.5734109535
 20
-1.585827378
 40
4.5170568365
100
AcDbArc
 50
350.2445378608
 51
352.1044773605
  0
ARC
  5
45A
100
AcDbEntity
  8
RACCORDO
100
AcDbCircle
 62
250
  6
CONTINUOUS
 10
17.5734109535
 20
14.4169900471
 40
4.5170568365
100
AcDbArc
 50
350.2445378608
 51
352.1044773605
  0
ARC
  5
45B
100
AcDbEntity
  8
RACCORDO
100
AcDbCircle
 62
7
  6
CONTINUOUS
 10
17.1689475058
 20
-2.3267961173
 40
4.4950356408
100
AcDbArc
 50
307.5356162805
 51
309.767885352
  0
ARC
  5
45C
100
AcDbEntity
  8
RACCORDO
100
AcDbCircle
 62
7
  6
CONTINUOUS
 10
17.1689475058
 20
13.6760213079
 40
4.4950356409
100
AcDbArc
 50
307.5356162805
 51
309.767885352
  0
ARC
  5
45D
100
AcDbEntity
  8
RACCORDO
100
AcDbCircle
 62
250
  6
CONTINUOUS
 10
17.1967103846
 20
-2.3602330281
 40
4.4515753842
100
AcDbArc
 50
307.5643307088
 51
309.7685289991
  0
ARC
  5
45E
100
AcDbEntity
  8
RACCORDO
100
AcDbCircle
 62
250
  6
CONTINUOUS
 10
17.1967103846
 20
13.642584397
 40
4.4515753843
100
AcDbArc
 50
307.5643307088
 51
309.768528999
  0
ARC
  5
45F
100
AcDbEntity
  8
RACCORDO
100
AcDbCircle
 62
250
  6
CONTINUOUS
 10
17.7828284502
 20
-1.6155535558
 40
4.3055412288
100
AcDbArc
 50
352.1134904501
 51
353.6565383944
  0
ARC
  5
460
100
AcDbEntity
  8
RACCORDO
100
AcDbCircle
 62
250
  6
CONTINUOUS
 10
17.7828284503
 20
14.3872638693
 40
4.3055412287
100
AcDbArc
 50
352.1134904501
 51
353.6565383944
  0
ARC
  5
461
100
AcDbEntity
  8
RACCORDO
100
AcDbCircle
 62
250
  6
CONTINUOUS
 10
17.9289289753
 20
-1.6323677886
 40
4.158477478
100
AcDbArc
 50
353.6643766759
 51
354.2402768638
  0
ARC
  5
462
100
AcDbEntity
  8
RACCORDO
100
AcDbCircle
 62
250
  6
CONTINUOUS
 10
17.9289289755
 20
14.3704496366
 40
4.1584774779
100
AcDbArc
 50
353.6643766758
 51
354.2402768638
  0
ARC
  5
463
100
AcDbEntity
  8
ASSI
100
AcDbCircle
 62
7
  6
CONTINUOUS
 10
24.8580301765
 20
9.6522795274
 40
0.5
100
AcDbArc
 50
301.648706657
 51
359.9983372151
  0
ARC
  5
464
100
AcDbEntity
  8
ASSI
100
AcDbCircle
 62
7
  6
CONTINUOUS
 10
24.8580301765
 20
1.9679014289
 40
0.5
100
AcDbArc
 50
0.0016371639
 51
59.9990485455
  0
ARC
  5
465
100
AcDbEntity
  8
ASSI
100
AcDbCircle
 62
7
  6
CONTINUOUS
 10
24.8580301765
 20
-6.4446683049
 40
0.5
100
AcDbArc
 50
301.733226725
 51
359.9999869249
  0
ARC
  5
466
100
AcDbEntity
  8
ASSI
100
AcDbCircle
 62
7
  6
CONTINUOUS
 10
18.472845841
 20
4.962314138
 40
0.5
100
AcDbArc
 50
301.6481223283
 51
359.999987924
  0
ARC
  5
467
100
AcDbEntity
  8
ASSI
100
AcDbCircle
 62
7
  6
CONTINUOUS
 10
18.472845841
 20
-2.4629759318
 40
0.5
100
AcDbArc
 50
0.015492905
 51
60.013852391
  0
ARC
  5
468
100
AcDbEntity
  8
ASSI
100
AcDbCircle
 62
7
  6
CONTINUOUS
 10
18.472845841
 20
-11.149030251
 40
0.5
100
AcDbArc
 50
301.733226725
 51
359.9999869249
  0
ARC
  5
469
100
AcDbEntity
  8
ASSI
100
AcDbCircle
 62
7
  6
CONTINUOUS
 10
18.472845841
 20
13.6483684573
 40
0.5
100
AcDbArc
 50
0.0007993011
 51
59.9992007504
  0
ARC
  5
46A
100
AcDbEntity
  8
ASSI
100
AcDbCircle
 62
250
  6
CONTINUOUS
 10
4.9257021648
 20
12.9808003245
 40
0.3427535904
100
AcDbArc
 50
61.1123524941
 51
62.4607733063
  0
ARC
  5
46B
100
AcDbEntity
  8
ASSI
100
AcDbCircle
 62
250
  6
CONTINUOUS
 10
4.9259760728
 20
12.9812989695
 40
0.3421846693
100
AcDbArc
 50
59.9989009843
 51
61.1121738467
  0
ARC
  5
46C
100
AcDbEntity
  8
ASSI
100
AcDbCircle
 62
250
  6
CONTINUOUS
 10
18.6474560426
 20
4.6790179347
 40
0.1672155549
100
AcDbArc
 50
301.6490926938
 51
303.2783734246
  0
ARC
  5
46D
100
AcDbEntity
  8
ASSI
100
AcDbCircle
 62
250
  6
CONTINUOUS
 10
25.0333734055
 20
-6.7282099074
 40
0.1666216623
100
AcDbArc
 50
301.7341899269
 51
303.2993971433
  0
ARC
  5
46E
100
AcDbEntity
  8
ASSI
100
AcDbCircle
 62
250
  6
CONTINUOUS
 10
18.64818907
 20
-11.4325718536
 40
0.1666216623
100
AcDbArc
 50
301.7341899269
 51
303.2993971433
  0
ARC
  5
46F
100
AcDbEntity
  8
ASSI
100
AcDbCircle
 62
250
  6
CONTINUOUS
 10
6.1368054312
 20
-25.0981646623
 40
0.0833975022
100
AcDbArc
 50
358.8876050723
 51
0.0004761069
  0
ARC
  5
470
100
AcDbEntity
  8
ASSI
100
AcDbCircle
 62
7
  6
CONTINUOUS
 10
21.5288515035
 20
5.282846494
 40
0.0705613717
100
AcDbArc
 50
46.5192984896
 51
59.9781975474
  0
ARC
  5
471
100
AcDbEntity
  8
ASSI
100
AcDbCircle
 62
7
  6
CONTINUOUS
 10
24.8580301765
 20
18.0648492612
 40
0.5
100
AcDbArc
 50
0.0017845497
 51
59.9991014511
  0
ARC
  5
472
100
AcDbEntity
  8
ASSI
100
AcDbCircle
 62
7
  6
CONTINUOUS
 10
9.5767509761
 20
26.8880683521
 40
0.5
100
AcDbArc
 50
59.9984015652
 51
118.2707944545
  0
ARC
  5
473
100
AcDbEntity
  8
ASSI
100
AcDbCircle
 62
7
  6
CONTINUOUS
 10
22.934052296
 20
20.3018060799
 40
0.3
100
AcDbArc
 50
0.0
 51
59.9978726949
  0
ARC
  5
474
100
AcDbEntity
  8
ASSI
100
AcDbCircle
 62
7
  6
CONTINUOUS
 10
18.4259131564
 20
22.9047491188
 40
0.3
100
AcDbArc
 50
59.9983256604
 51
118.2699256376
  0
ARC
  5
475
100
AcDbEntity
  8
ASSI
100
AcDbCircle
 62
250
  6
CONTINUOUS
 10
9.7433830804
 20
27.1766667447
 40
0.1667502669
100
AcDbArc
 50
59.9981068013
 51
61.4579308662
  0
ARC
  5
476
100
AcDbEntity
  8
RACCORDO
100
AcDbCircle
 62
250
  6
CONTINUOUS
 10
919.6442417885
 20
512.9909245241
 40
1063.8073780825
100
AcDbArc
 50
208.5596769838
 51
209.0637574765
  0
ARC
  5
477
100
AcDbEntity
  8
RACCORDO
100
AcDbCircle
 62
250
  6
CONTINUOUS
 10
871.14219513
 20
519.4256264805
 40
1042.3319232923
100
AcDbArc
 50
211.2605671816
 51
211.4058044127
  0
ARC
  5
478
100
AcDbEntity
  8
RACCORDO
100
AcDbCircle
 62
250
  6
CONTINUOUS
 10
890.313951826
 20
495.7629733926
 40
1029.6898120002
100
AcDbArc
 50
208.4984125073
 51
208.6454389689
  0
ARC
  5
479
100
AcDbEntity
  8
RACCORDO
100
AcDbCircle
 62
250
  6
CONTINUOUS
 10
891.0752037695
 20
497.0128267193
 40
1029.5870790589
100
AcDbArc
 50
208.5390558622
 51
208.6616038499
  0
ARC
  5
47A
100
AcDbEntity
  8
RACCORDO
100
AcDbCircle
 62
250
  6
CONTINUOUS
 10
850.4826595759
 20
508.1549513978
 40
1017.6031374157
100
AcDbArc
 50
210.9453103508
 51
211.4717855965
  0
ARC
  5
47B
100
AcDbEntity
  8
RACCORDO
100
AcDbCircle
 62
250
  6
CONTINUOUS
 10
849.7991247387
 20
507.1208189489
 40
1017.5885842867
100
AcDbArc
 50
210.9150269139
 51
211.4420003976
  0
SPLINE
  5
47C
100
AcDbEntity
  8
RACCORDO
100
AcDbSpline
 62
7
  6
CONTINUOUS
 70
0
 71
3
 72
11
 73
7
 74
0
 42
0.0000001
 43
0.0000001
 44
0.0000000001
 40
0.0
 40
0.0
 40
0.0
 40
0.0
 40
0.244792267
 40
0.5008413059
 40
0.7564457182
 40
1.0
 40
1.0
 40
1.0
 40
1.0
 10
20.5767545329
 20
-5.3386295068
 30
0.0
 10
20.7473754244
 20
-5.192489154
 30
0.0
 10
21.0669197642
 20
-4.858012394
 30
0.0
 10
21.458611251
 20
-4.2814774498
 30
0.0
 10
21.7542405267
 20
-3.6515217062
 30
0.0
 10
21.8780094303
 20
-3.2073444704
 30
0.0
 10
21.9158694926
 20
-2.987058451
 30
0.0
  0
SPLINE
  5
47D
100
AcDbEntity
  8
RACCORDO
100
AcDbSpline
 62
7
  6
CONTINUOUS
 70
0
 71
3
 72
9
 73
5
 74
0
 42
0.0000001
 43
0.0000001
 44
0.0000000001
 40
0.0
 40
0.0
 40
0.0
 40
0.0
 40
0.2602535788
 40
1.0
 40
1.0
 40
1.0
 40
1.0
 10
22.0251269575
 20
-2.3513518317
 30
0.0
 10
22.037702077
 20
-2.2781969574
 30
0.0
 10
22.0792779133
 20
-1.9960488206
 30
0.0
 10
22.0930292598
 20
-1.7093398164
 30
0.0
 10
22.0830693587
 20
-1.4985894078
 30
0.0
  0
SPLINE
  5
47E
100
AcDbEntity
  8
RACCORDO
100
AcDbSpline
 62
7
  6
CONTINUOUS
 70
0
 71
3
 72
11
 73
7
 74
0
 42
0.0000001
 43
0.0000001
 44
0.0000000001
 40
0.0
 40
0.0
 40
0.0
 40
0.0
 40
0.2920039866
 40
0.5501387502
 40
0.7811786998
 40
1.0
 40
1.0
 40
1.0
 40
1.0
 10
19.8008640664
 20
-5.8865092071
 30
0.0
 10
19.8103889579
 20
-5.8920087601
 30
0.0
 10
19.829318664
 20
-5.9008468835
 30
0.0
 10
19.8584748386
 20
-5.9068344084
 30
0.0
 10
19.8855017641
 20
-5.9041383666
 30
0.0
 10
19.9010305794
 20
-5.8962652291
 30
0.0
 10
19.9075679849
 20
-5.8912458335
 30
0.0
  0
SPLINE
  5
47F
100
AcDbEntity
  8
RACCORDO
100
AcDbSpline
 62
7
  6
CONTINUOUS
 70
0
 71
3
 72
9
 73
5
 74
0
 42
0.0000001
 43
0.0000001
 44
0.0000000001
 40
0.0
 40
0.0
 40
0.0
 40
0.0
 40
0.5467527867
 40
1.0
 40
1.0
 40
1.0
 40
1.0
 10
19.7607439107
 20
-5.7399925101
 30
0.0
 10
19.7607439107
 20
-5.7577156091
 30
0.0
 10
19.7568333143
 20
-5.7905385128
 30
0.0
 10
19.7389168656
 20
-5.8196024298
 30
0.0
 10
19.7276575985
 20
-5.8290410013
 30
0.0
  0
SPLINE
  5
480
100
AcDbEntity
  8
RACCORDO
100
AcDbSpline
 62
250
  6
CONTINUOUS
 70
0
 71
3
 72
9
 73
5
 74
0
 42
0.0000001
 43
0.0000001
 44
0.0000000001
 40
0.0
 40
0.0
 40
0.0
 40
0.0
 40
0.2635523335
 40
1.0
 40
1.0
 40
1.0
 40
1.0
 10
19.7607439107
 20
-5.7399588513
 30
0.0
 10
19.7268183965
 20
-5.7495476162
 30
0.0
 10
19.5969424247
 20
-5.7814501401
 30
0.0
 10
19.4618058467
 20
-5.7941575435
 30
0.0
 10
19.3634297606
 20
-5.7889787345
 30
0.0
  0
SPLINE
  5
481
100
AcDbEntity
  8
RACCORDO
100
AcDbSpline
 62
250
  6
CONTINUOUS
 70
0
 71
3
 72
9
 73
5
 74
0
 42
0.0000001
 43
0.0000001
 44
0.0000000001
 40
0.0
 40
0.0
 40
0.0
 40
0.0
 40
0.2617546674
 40
1.0
 40
1.0
 40
1.0
 40
1.0
 10
19.7276575985
 20
-5.8290410013
 30
0.0
 10
19.6966131916
 20
-5.8383035987
 30
0.0
 10
19.5770247143
 20
-5.8701440279
 30
0.0
 10
19.453147202
 20
-5.887072529
 30
0.0
 10
19.3617875021
 20
-5.8885048335
 30
0.0
  0
SPLINE
  5
482
100
AcDbEntity
  8
RACCORDO
100
AcDbSpline
 62
250
  6
CONTINUOUS
 70
0
 71
3
 72
11
 73
7
 74
0
 42
0.0000001
 43
0.0000001
 44
0.0000000001
 40
0.0
 40
0.0
 40
0.0
 40
0.0
 40
0.4531201818
 40
0.5814696156
 40
0.7156105524
 40
1.0
 40
1.0
 40
1.0
 40
1.0
 10
21.7668231228
 20
-1.6901691626
 30
0.0
 10
21.8671927431
 20
-1.8635403276
 30
0.0
 10
21.9366389802
 20
-2.1214398063
 30
0.0
 10
21.9591089797
 20
-2.4365120022
 30
0.0
 10
21.9579330697
 20
-2.6786262999
 30
0.0
 10
21.9371628615
 20
-2.8631438023
 30
0.0
 10
21.9158685671
 20
-2.98705875
 30
0.0
  0
SPLINE
  5
483
100
AcDbEntity
  8
RACCORDO
100
AcDbSpline
 62
7
  6
CONTINUOUS
 70
0
 71
3
 72
9
 73
5
 74
0
 42
0.0000001
 43
0.0000001
 44
0.0000000001
 40
0.0
 40
0.0
 40
0.0
 40
0.0
 40
0.4535712049
 40
1.0
 40
1.0
 40
1.0
 40
1.0
 10
20.5767545123
 20
-5.338629479
 30
0.0
 10
20.5878373684
 20
-5.3291350733
 30
0.0
 10
20.6054116628
 20
-5.3002112429
 30
0.0
 10
20.6092720481
 20
-5.2676442915
 30
0.0
 10
20.6092720481
 20
-5.2500629981
 30
0.0
  0
SPLINE
  5
484
100
AcDbEntity
  8
RACCORDO
100
AcDbSpline
 62
250
  6
CONTINUOUS
 70
0
 71
3
 72
16
 73
12
 74
0
 42
0.0000001
 43
0.0000001
 44
0.0000000001
 40
0.0
 40
0.0
 40
0.0
 40
0.0
 40
0.0926067118
 40
0.1437513583
 40
0.1983088904
 40
0.3172331118
 40
0.4475591209
 40
0.5856662975
 40
0.7270092142
 40
0.8666894321
 40
1.0
 40
1.0
 40
1.0
 40
1.0
 10
21.6808390135
 20
-1.7428101714
 30
0.0
 10
21.7486021322
 20
-1.8430874456
 30
0.0
 10
21.8254034159
 20
-2.0187615198
 30
0.0
 10
21.8809381292
 20
-2.2721351035
 30
0.0
 10
21.9097537447
 20
-2.5649744617
 30
0.0
 10
21.88520458
 20
-2.9638055901
 30
0.0
 10
21.7708259758
 20
-3.4588366087
 30
0.0
 10
21.5764380992
 20
-3.959660562
 30
0.0
 10
21.3118497784
 20
-4.4410800704
 30
0.0
 10
20.9905074228
 20
-4.8787619236
 30
0.0
 10
20.7405735217
 20
-5.1355474674
 30
0.0
 10
20.6092720481
 20
-5.2500598467
 30
0.0
  0
SPLINE
  5
485
100
AcDbEntity
  8
RACCORDO
100
AcDbSpline
 62
250
  6
CONTINUOUS
 70
0
 71
3
 72
9
 73
5
 74
0
 42
0.0000001
 43
0.0000001
 44
0.0000000001
 40
0.0
 40
0.0
 40
0.0
 40
0.0
 40
0.2581888368
 40
1.0
 40
1.0
 40
1.0
 40
1.0
 10
22.0664123879
 20
-2.0496997263
 30
0.0
 10
22.0711696561
 20
-2.0025287753
 30
0.0
 10
22.0864404337
 20
-1.8195385159
 30
0.0
 10
22.0887455427
 20
-1.6353612823
 30
0.0
 10
22.0817481428
 20
-1.4993251687
 30
0.0
  0
SPLINE
  5
486
100
AcDbEntity
  8
RACCORDO
100
AcDbSpline
 62
7
  6
CONTINUOUS
 70
0
 71
3
 72
11
 73
7
 74
0
 42
0.0000001
 43
0.0000001
 44
0.0000000001
 40
0.0
 40
0.0
 40
0.0
 40
0.0
 40
0.244792267
 40
0.5008413059
 40
0.7564457182
 40
1.0
 40
1.0
 40
1.0
 40
1.0
 10
20.5767545329
 20
10.6641879184
 30
0.0
 10
20.7473754244
 20
10.8103282711
 30
0.0
 10
21.0669197642
 20
11.1448050312
 30
0.0
 10
21.458611251
 20
11.7213399753
 30
0.0
 10
21.7542405267
 20
12.351295719
 30
0.0
 10
21.8780094303
 20
12.7954729547
 30
0.0
 10
21.9158694926
 20
13.0157589741
 30
0.0
  0
SPLINE
  5
487
100
AcDbEntity
  8
RACCORDO
100
AcDbSpline
 62
7
  6
CONTINUOUS
 70
0
 71
3
 72
9
 73
5
 74
0
 42
0.0000001
 43
0.0000001
 44
0.0000000001
 40
0.0
 40
0.0
 40
0.0
 40
0.0
 40
0.2602535788
 40
1.0
 40
1.0
 40
1.0
 40
1.0
 10
22.0251269575
 20
13.6514655935
 30
0.0
 10
22.037702077
 20
13.7246204678
 30
0.0
 10
22.0792779133
 20
14.0067686046
 30
0.0
 10
22.0930292598
 20
14.2934776087
 30
0.0
 10
22.0830693587
 20
14.5042280173
 30
0.0
  0
SPLINE
  5
488
100
AcDbEntity
  8
RACCORDO
100
AcDbSpline
 62
7
  6
CONTINUOUS
 70
0
 71
3
 72
11
 73
7
 74
0
 42
0.0000001
 43
0.0000001
 44
0.0000000001
 40
0.0
 40
0.0
 40
0.0
 40
0.0
 40
0.2920039866
 40
0.5501387502
 40
0.7811786998
 40
1.0
 40
1.0
 40
1.0
 40
1.0
 10
19.8008640664
 20
10.116308218
 30
0.0
 10
19.8103889579
 20
10.1108086651
 30
0.0
 10
19.829318664
 20
10.1019705417
 30
0.0
 10
19.8584748386
 20
10.0959830167
 30
0.0
 10
19.8855017641
 20
10.0986790585
 30
0.0
 10
19.9010305794
 20
10.106552196
 30
0.0
 10
19.9075679849
 20
10.1115715917
 30
0.0
  0
SPLINE
  5
489
100
AcDbEntity
  8
RACCORDO
100
AcDbSpline
 62
7
  6
CONTINUOUS
 70
0
 71
3
 72
9
 73
5
 74
0
 42
0.0000001
 43
0.0000001
 44
0.0000000001
 40
0.0
 40
0.0
 40
0.0
 40
0.0
 40
0.5467527867
 40
1.0
 40
1.0
 40
1.0
 40
1.0
 10
19.7607439107
 20
10.2628249151
 30
0.0
 10
19.7607439107
 20
10.245101816
 30
0.0
 10
19.7568333143
 20
10.2122789124
 30
0.0
 10
19.7389168656
 20
10.1832149953
 30
0.0
 10
19.7276575985
 20
10.1737764238
 30
0.0
  0
SPLINE
  5
48A
100
AcDbEntity
  8
RACCORDO
100
AcDbSpline
 62
250
  6
CONTINUOUS
 70
0
 71
3
 72
9
 73
5
 74
0
 42
0.0000001
 43
0.0000001
 44
0.0000000001
 40
0.0
 40
0.0
 40
0.0
 40
0.0
 40
0.2635523335
 40
1.0
 40
1.0
 40
1.0
 40
1.0
 10
19.7607439107
 20
10.2628585738
 30
0.0
 10
19.7268183965
 20
10.2532698089
 30
0.0
 10
19.5969424247
 20
10.221367285
 30
0.0
 10
19.4618058467
 20
10.2086598816
 30
0.0
 10
19.3634297606
 20
10.2138386906
 30
0.0
  0
SPLINE
  5
48B
100
AcDbEntity
  8
RACCORDO
100
AcDbSpline
 62
250
  6
CONTINUOUS
 70
0
 71
3
 72
9
 73
5
 74
0
 42
0.0000001
 43
0.0000001
 44
0.0000000001
 40
0.0
 40
0.0
 40
0.0
 40
0.0
 40
0.2617546674
 40
1.0
 40
1.0
 40
1.0
 40
1.0
 10
19.7276575985
 20
10.1737764238
 30
0.0
 10
19.6966131916
 20
10.1645138264
 30
0.0
 10
19.5770247143
 20
10.1326733972
 30
0.0
 10
19.453147202
 20
10.1157448961
 30
0.0
 10
19.3617875021
 20
10.1143125916
 30
0.0
  0
SPLINE
  5
48C
100
AcDbEntity
  8
RACCORDO
100
AcDbSpline
 62
250
  6
CONTINUOUS
 70
0
 71
3
 72
11
 73
7
 74
0
 42
0.0000001
 43
0.0000001
 44
0.0000000001
 40
0.0
 40
0.0
 40
0.0
 40
0.0
 40
0.4531201818
 40
0.5814696156
 40
0.7156105524
 40
1.0
 40
1.0
 40
1.0
 40
1.0
 10
21.7668231228
 20
14.3126482625
 30
0.0
 10
21.8671927431
 20
14.1392770975
 30
0.0
 10
21.9366389802
 20
13.8813776188
 30
0.0
 10
21.9591089797
 20
13.566305423
 30
0.0
 10
21.9579330697
 20
13.3241911253
 30
0.0
 10
21.9371628615
 20
13.1396736228
 30
0.0
 10
21.9158685671
 20
13.0157586752
 30
0.0
  0
SPLINE
  5
48D
100
AcDbEntity
  8
RACCORDO
100
AcDbSpline
 62
7
  6
CONTINUOUS
 70
0
 71
3
 72
9
 73
5
 74
0
 42
0.0000001
 43
0.0000001
 44
0.0000000001
 40
0.0
 40
0.0
 40
0.0
 40
0.0
 40
0.4535712049
 40
1.0
 40
1.0
 40
1.0
 40
1.0
 10
20.5767545123
 20
10.6641879461
 30
0.0
 10
20.5878373684
 20
10.6736823518
 30
0.0
 10
20.6054116628
 20
10.7026061823
 30
0.0
 10
20.6092720481
 20
10.7351731336
 30
0.0
 10
20.6092720481
 20
10.7527544271
 30
0.0
  0
SPLINE
  5
48E
100
AcDbEntity
  8
RACCORDO
100
AcDbSpline
 62
250
  6
CONTINUOUS
 70
0
 71
3
 72
16
 73
12
 74
0
 42
0.0000001
 43
0.0000001
 44
0.0000000001
 40
0.0
 40
0.0
 40
0.0
 40
0.0
 40
0.0926067118
 40
0.1437513583
 40
0.1983088904
 40
0.3172331118
 40
0.4475591209
 40
0.5856662975
 40
0.7270092142
 40
0.8666894321
 40
1.0
 40
1.0
 40
1.0
 40
1.0
 10
21.6808390135
 20
14.2600072537
 30
0.0
 10
21.7486021322
 20
14.1597299795
 30
0.0
 10
21.8254034159
 20
13.9840559054
 30
0.0
 10
21.8809381292
 20
13.7306823216
 30
0.0
 10
21.9097537447
 20
13.4378429634
 30
0.0
 10
21.88520458
 20
13.039011835
 30
0.0
 10
21.7708259758
 20
12.5439808164
 30
0.0
 10
21.5764380992
 20
12.0431568631
 30
0.0
 10
21.3118497784
 20
11.5617373547
 30
0.0
 10
20.9905074228
 20
11.1240555015
 30
0.0
 10
20.7405735217
 20
10.8672699577
 30
0.0
 10
20.6092720481
 20
10.7527575784
 30
0.0
  0
SPLINE
  5
48F
100
AcDbEntity
  8
RACCORDO
100
AcDbSpline
 62
250
  6
CONTINUOUS
 70
0
 71
3
 72
9
 73
5
 74
0
 42
0.0000001
 43
0.0000001
 44
0.0000000001
 40
0.0
 40
0.0
 40
0.0
 40
0.0
 40
0.2581888368
 40
1.0
 40
1.0
 40
1.0
 40
1.0
 10
22.0664123879
 20
13.9531176988
 30
0.0
 10
22.0711696561
 20
14.0002886498
 30
0.0
 10
22.0864404337
 20
14.1832789092
 30
0.0
 10
22.0887455427
 20
14.3674561429
 30
0.0
 10
22.0817481428
 20
14.5034922564
 30
0.0
  0
SPLINE
  5
490
100
AcDbEntity
  8
RACCORDO
100
AcDbSpline
 62
7
  6
CONTINUOUS
 70
0
 71
3
 72
11
 73
7
 74
0
 42
0.0000001
 43
0.0000001
 44
0.0000000001
 40
0.0
 40
0.0
 40
0.0
 40
0.0
 40
0.2026746694
 40
0.428452547
 40
0.6923038138
 40
1.0
 40
1.0
 40
1.0
 40
1.0
 10
-3.6761503279
 20
12.8854918432
 30
0.0
 10
-3.677032375
 20
12.8803917013
 30
0.0
 10
-3.6812143197
 20
12.869928169
 30
0.0
 10
-3.6933631708
 20
12.8567118977
 30
0.0
 10
-3.7106846549
 20
12.8457058794
 30
0.0
 10
-3.7243248095
 20
12.8403068337
 30
0.0
 10
-3.7318057734
 20
12.8379024162
 30
0.0
  0
SPLINE
  5
491
100
AcDbEntity
  8
RACCORDO
100
AcDbSpline
 62
7
  6
CONTINUOUS
 70
0
 71
3
 72
11
 73
7
 74
0
 42
0.0000001
 43
0.0000001
 44
0.0000000001
 40
0.0
 40
0.0
 40
0.0
 40
0.0
 40
0.2026746694
 40
0.428452547
 40
0.6923038138
 40
1.0
 40
1.0
 40
1.0
 40
1.0
 10
-7.7066589807
 20
15.2126570251
 30
0.0
 10
-7.7075410277
 20
15.2075568833
 30
0.0
 10
-7.7117229724
 20
15.1970933509
 30
0.0
 10
-7.7238718235
 20
15.1838770796
 30
0.0
 10
-7.7411933077
 20
15.1728710614
 30
0.0
 10
-7.7548334623
 20
15.1674720156
 30
0.0
 10
-7.7623144262
 20
15.1650675982
 30
0.0
  0
SPLINE
  5
492
100
AcDbEntity
  8
0
100
AcDbSpline
 62
7
  6
CONTINUOUS
 70
0
 71
3
 72
9
 73
5
 74
0
 42
0.0000001
 43
0.0000001
 44
0.0000000001
 40
0.0
 40
0.0
 40
0.0
 40
0.0
 40
0.4822648076
 40
1.0
 40
1.0
 40
1.0
 40
1.0
 10
-5.5071993823
 20
17.4056982529
 30
0.0
 10
-5.5341557201
 20
17.4212678718
 30
0.0
 10
-5.5962880048
 20
17.4435738208
 30
0.0
 10
-5.6618824188
 20
17.4445541152
 30
0.0
 10
-5.6951002121
 20
17.440890088
 30
0.0
  0
SPLINE
  5
493
100
AcDbEntity
  8
0
100
AcDbSpline
 62
7
  6
CONTINUOUS
 70
0
 71
3
 72
9
 73
5
 74
0
 42
0.0000001
 43
0.0000001
 44
0.0000000001
 40
0.0
 40
0.0
 40
0.0
 40
0.0
 40
0.2412969237
 40
1.0
 40
1.0
 40
1.0
 40
1.0
 10
-5.695100212
 20
17.440890088
 30
0.0
 10
-5.70244755
 20
17.4400796535
 30
0.0
 10
-5.7328013001
 20
17.4358717496
 30
0.0
 10
-5.7626681766
 20
17.428395751
 30
0.0
 10
-5.7847955114
 20
17.42128392
 30
0.0
  0
SPLINE
  5
494
100
AcDbEntity
  8
0
100
AcDbSpline
 62
7
  6
CONTINUOUS
 70
0
 71
3
 72
9
 73
5
 74
0
 42
0.0000001
 43
0.0000001
 44
0.0000000001
 40
0.0
 40
0.0
 40
0.0
 40
0.0
 40
0.2613207761
 40
1.0
 40
1.0
 40
1.0
 40
1.0
 10
-13.5351401526
 20
16.3503441393
 30
0.0
 10
-13.5288013636
 20
16.3540040766
 30
0.0
 10
-13.5042268232
 20
16.3674404608
 30
0.0
 10
-13.4783149873
 20
16.3785197692
 30
0.0
 10
-13.4586171932
 20
16.3848507341
 30
0.0
  0
SPLINE
  5
495
100
AcDbEntity
  8
0
100
AcDbSpline
 62
7
  6
CONTINUOUS
 70
0
 71
3
 72
11
 73
7
 74
0
 42
0.0000001
 43
0.0000001
 44
0.0000000001
 40
0.0
 40
0.0
 40
0.0
 40
0.0
 40
0.2350442466
 40
0.4977441997
 40
0.7616762779
 40
1.0
 40
1.0
 40
1.0
 40
1.0
 10
-14.4983642627
 20
15.3717082709
 30
0.0
 10
-14.5001646019
 20
15.4301974135
 30
0.0
 10
-14.4805758462
 20
15.5548164998
 30
0.0
 10
-14.4055075237
 20
15.7305361347
 30
0.0
 10
-14.2933951023
 20
15.8862863532
 30
0.0
 10
-14.1964095693
 20
15.9685354657
 30
0.0
 10
-14.1450262472
 20
15.9982035519
 30
0.0
  0
SPLINE
  5
496
100
AcDbEntity
  8
RACCORDO
100
AcDbSpline
 62
7
  6
CONTINUOUS
 70
0
 71
3
 72
11
 73
7
 74
0
 42
0.0000001
 43
0.0000001
 44
0.0000000001
 40
0.0
 40
0.0
 40
0.0
 40
0.0
 40
0.2239228089
 40
0.4860814715
 40
0.7556798442
 40
1.0
 40
1.0
 40
1.0
 40
1.0
 10
-7.1126660252
 20
16.994500006
 30
0.0
 10
-7.1331368875
 20
16.9879205733
 30
0.0
 10
-7.1799563373
 20
16.9812949538
 30
0.0
 10
-7.2527024567
 20
16.9850415616
 30
0.0
 10
-7.3257951735
 20
17.001096105
 30
0.0
 10
-7.3718391049
 20
17.0200478542
 30
0.0
 10
-7.3921564869
 20
17.0317788559
 30
0.0
  0
SPLINE
  5
497
100
AcDbEntity
  8
RACCORDO
100
AcDbSpline
 62
7
  6
CONTINUOUS
 70
0
 71
3
 72
11
 73
7
 74
0
 42
0.0000001
 43
0.0000001
 44
0.0000000001
 40
0.0
 40
0.0
 40
0.0
 40
0.0
 40
0.2239228089
 40
0.4860814715
 40
0.7556798442
 40
1.0
 40
1.0
 40
1.0
 40
1.0
 10
-9.7643164547
 20
14.5216146012
 30
0.0
 10
-9.7847873169
 20
14.5150351685
 30
0.0
 10
-9.8316067667
 20
14.5084095491
 30
0.0
 10
-9.9043528862
 20
14.5121561568
 30
0.0
 10
-9.977445603
 20
14.5282107003
 30
0.0
 10
-10.0234895344
 20
14.5471624494
 30
0.0
 10
-10.0438069163
 20
14.5588934512
 30
0.0
  0
SPLINE
  5
498
100
AcDbEntity
  8
RACCORDO
100
AcDbSpline
 62
7
  6
CONTINUOUS
 70
0
 71
3
 72
11
 73
7
 74
0
 42
0.0000001
 43
0.0000001
 44
0.0000000001
 40
0.0
 40
0.0
 40
0.0
 40
0.0
 40
0.3202377699
 40
0.5897040997
 40
0.8108126189
 40
1.0
 40
1.0
 40
1.0
 40
1.0
 10
-8.063907929
 20
13.4157245898
 30
0.0
 10
-8.0734778148
 20
13.4212501219
 30
0.0
 10
-8.0904942167
 20
13.4325955615
 30
0.0
 10
-8.1106185649
 20
13.4523357081
 30
0.0
 10
-8.1226001136
 20
13.4730122747
 30
0.0
 10
-8.1240281574
 20
13.4877333058
 30
0.0
 10
-8.1229156253
 20
13.4941661503
 30
0.0
  0
SPLINE
  5
499
100
AcDbEntity
  8
RACCORDO
100
AcDbSpline
 62
7
  6
CONTINUOUS
 70
0
 71
3
 72
11
 73
7
 74
0
 42
0.0000001
 43
0.0000001
 44
0.0000000001
 40
0.0
 40
0.0
 40
0.0
 40
0.0
 40
0.2239228089
 40
0.4860814715
 40
0.7556798442
 40
1.0
 40
1.0
 40
1.0
 40
1.0
 10
-5.7338078019
 20
12.1944494193
 30
0.0
 10
-5.7542786642
 20
12.1878699866
 30
0.0
 10
-5.8010981139
 20
12.1812443671
 30
0.0
 10
-5.8738442334
 20
12.1849909749
 30
0.0
 10
-5.9469369502
 20
12.2010455183
 30
0.0
 10
-5.9929808816
 20
12.2199972675
 30
0.0
 10
-6.0132982636
 20
12.2317282692
 30
0.0
  0
SPLINE
  5
49A
100
AcDbEntity
  8
RACCORDO
100
AcDbSpline
 62
7
  6
CONTINUOUS
 70
0
 71
3
 72
11
 73
7
 74
0
 42
0.0000001
 43
0.0000001
 44
0.0000000001
 40
0.0
 40
0.0
 40
0.0
 40
0.0
 40
0.3202377699
 40
0.5897040997
 40
0.8108126189
 40
1.0
 40
1.0
 40
1.0
 40
1.0
 10
-12.0944165818
 20
15.7428897718
 30
0.0
 10
-12.1039864675
 20
15.7484153039
 30
0.0
 10
-12.1210028695
 20
15.7597607435
 30
0.0
 10
-12.1411272177
 20
15.7795008901
 30
0.0
 10
-12.1531087663
 20
15.8001774566
 30
0.0
 10
-12.1545368102
 20
15.8148984878
 30
0.0
 10
-12.1534242781
 20
15.8213313323
 30
0.0
  0
SPLINE
  5
49B
100
AcDbEntity
  8
0
100
AcDbSpline
 62
7
  6
CONTINUOUS
 70
0
 71
3
 72
9
 73
5
 74
0
 42
0.0000001
 43
0.0000001
 44
0.0000000001
 40
0.0
 40
0.0
 40
0.0
 40
0.0
 40
0.2613207761
 40
1.0
 40
1.0
 40
1.0
 40
1.0
 10
-5.0498587783
 20
11.4510490193
 30
0.0
 10
-5.0435199894
 20
11.4547089566
 30
0.0
 10
-5.018945449
 20
11.4681453409
 30
0.0
 10
-4.993033613
 20
11.4792246493
 30
0.0
 10
-4.973335819
 20
11.4855556142
 30
0.0
  0
SPLINE
  5
49C
100
AcDbEntity
  8
RACCORDO
100
AcDbSpline
 62
7
  6
CONTINUOUS
 70
0
 71
3
 72
11
 73
7
 74
0
 42
0.0000001
 43
0.0000001
 44
0.0000000001
 40
0.0
 40
0.0
 40
0.0
 40
0.0
 40
0.2026746694
 40
0.428452547
 40
0.6923038138
 40
1.0
 40
1.0
 40
1.0
 40
1.0
 10
-12.1534242781
 20
15.8213313323
 30
0.0
 10
-12.152542231
 20
15.8264314741
 30
0.0
 10
-12.1483602863
 20
15.8368950065
 30
0.0
 10
-12.1362114352
 20
15.8501112778
 30
0.0
 10
-12.1188899511
 20
15.861117296
 30
0.0
 10
-12.1052497965
 20
15.8665163418
 30
0.0
 10
-12.0977688326
 20
15.8689207592
 30
0.0
  0
SPLINE
  5
49D
100
AcDbEntity
  8
RACCORDO
100
AcDbSpline
 62
7
  6
CONTINUOUS
 70
0
 71
3
 72
11
 73
7
 74
0
 42
0.0000001
 43
0.0000001
 44
0.0000000001
 40
0.0
 40
0.0
 40
0.0
 40
0.0
 40
0.2026746694
 40
0.428452547
 40
0.6923038138
 40
1.0
 40
1.0
 40
1.0
 40
1.0
 10
-8.1229156253
 20
13.4941661503
 30
0.0
 10
-8.1220335783
 20
13.4992662921
 30
0.0
 10
-8.1178516336
 20
13.5097298245
 30
0.0
 10
-8.1057027825
 20
13.5229460958
 30
0.0
 10
-8.0883812983
 20
13.5339521141
 30
0.0
 10
-8.0747411437
 20
13.5393511598
 30
0.0
 10
-8.0672601798
 20
13.5417555773
 30
0.0
  0
SPLINE
  5
49E
100
AcDbEntity
  8
0
100
AcDbSpline
 62
7
  6
CONTINUOUS
 70
0
 71
3
 72
11
 73
7
 74
0
 42
0.0000001
 43
0.0000001
 44
0.0000000001
 40
0.0
 40
0.0
 40
0.0
 40
0.0
 40
0.2350442466
 40
0.4977441997
 40
0.7616762779
 40
1.0
 40
1.0
 40
1.0
 40
1.0
 10
-6.0130828884
 20
10.4724131509
 30
0.0
 10
-6.0148832277
 20
10.5309022935
 30
0.0
 10
-5.995294472
 20
10.6555213798
 30
0.0
 10
-5.9202261495
 20
10.8312410148
 30
0.0
 10
-5.808113728
 20
10.9869912333
 30
0.0
 10
-5.7111281951
 20
11.0692403458
 30
0.0
 10
-5.659744873
 20
11.0989084319
 30
0.0
  0
SPLINE
  5
49F
100
AcDbEntity
  8
RACCORDO
100
AcDbSpline
 62
7
  6
CONTINUOUS
 70
0
 71
3
 72
11
 73
7
 74
0
 42
0.0000001
 43
0.0000001
 44
0.0000000001
 40
0.0
 40
0.0
 40
0.0
 40
0.0
 40
0.2239228089
 40
0.4860814715
 40
0.7556798442
 40
1.0
 40
1.0
 40
1.0
 40
1.0
 10
-10.0957668041
 20
16.5123737562
 30
0.0
 10
-10.0752959419
 20
16.5189531889
 30
0.0
 10
-10.0284764921
 20
16.5255788084
 30
0.0
 10
-9.9557303726
 20
16.5218322006
 30
0.0
 10
-9.8826376558
 20
16.5057776571
 30
0.0
 10
-9.8365937244
 20
16.486825908
 30
0.0
 10
-9.8162763424
 20
16.4750949063
 30
0.0
  0
SPLINE
  5
4A0
100
AcDbEntity
  8
RACCORDO
100
AcDbSpline
 62
7
  6
CONTINUOUS
 70
0
 71
3
 72
11
 73
7
 74
0
 42
0.0000001
 43
0.0000001
 44
0.0000000001
 40
0.0
 40
0.0
 40
0.0
 40
0.0
 40
0.3202377699
 40
0.5897040997
 40
0.8108126189
 40
1.0
 40
1.0
 40
1.0
 40
1.0
 10
-7.765666677
 20
15.2910985856
 30
0.0
 10
-7.7560967912
 20
15.2855730535
 30
0.0
 10
-7.7390803893
 20
15.274227614
 30
0.0
 10
-7.7189560411
 20
15.2544874673
 30
0.0
 10
-7.7069744924
 20
15.2338109008
 30
0.0
 10
-7.7055464486
 20
15.2190898696
 30
0.0
 10
-7.7066589807
 20
15.2126570251
 30
0.0
  0
SPLINE
  5
4A1
100
AcDbEntity
  8
RACCORDO
100
AcDbSpline
 62
7
  6
CONTINUOUS
 70
0
 71
3
 72
11
 73
7
 74
0
 42
0.0000001
 43
0.0000001
 44
0.0000000001
 40
0.0
 40
0.0
 40
0.0
 40
0.0
 40
0.3202377699
 40
0.5897040997
 40
0.8108126189
 40
1.0
 40
1.0
 40
1.0
 40
1.0
 10
-3.7351580242
 20
12.9639334036
 30
0.0
 10
-3.7255881385
 20
12.9584078715
 30
0.0
 10
-3.7085717365
 20
12.947062432
 30
0.0
 10
-3.6884473883
 20
12.9273222853
 30
0.0
 10
-3.6764658397
 20
12.9066457188
 30
0.0
 10
-3.6750377958
 20
12.8919246877
 30
0.0
 10
-3.6761503279
 20
12.8854918432
 30
0.0
  0
SPLINE
  5
4A2
100
AcDbEntity
  8
RACCORDO
100
AcDbSpline
 62
7
  6
CONTINUOUS
 70
0
 71
3
 72
11
 73
7
 74
0
 42
0.0000001
 43
0.0000001
 44
0.0000000001
 40
0.0
 40
0.0
 40
0.0
 40
0.0
 40
0.2239228089
 40
0.4860814715
 40
0.7556798442
 40
1.0
 40
1.0
 40
1.0
 40
1.0
 10
-6.0652581513
 20
14.1852085742
 30
0.0
 10
-6.0447872891
 20
14.1917880069
 30
0.0
 10
-5.9979678393
 20
14.1984136264
 30
0.0
 10
-5.9252217198
 20
14.1946670186
 30
0.0
 10
-5.852129003
 20
14.1786124752
 30
0.0
 10
-5.8060850716
 20
14.159660726
 30
0.0
 10
-5.7857676897
 20
14.1479297243
 30
0.0
  0
SPLINE
  5
4A3
100
AcDbEntity
  8
RACCORDO
100
AcDbSpline
 62
7
  6
CONTINUOUS
 70
0
 71
3
 72
19
 73
15
 74
0
 42
0.0000001
 43
0.0000001
 44
0.0000000001
 40
0.0
 40
0.0
 40
0.0
 40
0.0
 40
0.0560471744
 40
0.1121656463
 40
0.1686065746
 40
0.2258379604
 40
0.2844173097
 40
0.3448156336
 40
0.4716090723
 40
0.6052476732
 40
0.7412754496
 40
0.8085082541
 40
0.8743325888
 40
1.0
 40
1.0
 40
1.0
 40
1.0
 10
-3.0424233276
 20
-30.0090693714
 30
0.0
 10
-3.0406182235
 20
-30.044674054
 30
0.0
 10
-3.0291026285
 20
-30.1157616662
 30
0.0
 10
-2.9896941503
 20
-30.2162804377
 30
0.0
 10
-2.9310263357
 20
-30.3077174936
 30
0.0
 10
-2.8562551331
 20
-30.3884794099
 30
0.0
 10
-2.7680319335
 20
-30.4582511826
 30
0.0
 10
-2.6331216838
 20
-30.5379913534
 30
0.0
 10
-2.4400404184
 20
-30.6092989186
 30
0.0
 10
-2.1899226062
 20
-30.6500847829
 30
0.0
 10
-1.9744594408
 20
-30.6475877601
 30
0.0
 10
-1.8048482653
 20
-30.6229635419
 30
0.0
 10
-1.6447635976
 20
-30.5843131466
 30
0.0
 10
-1.5305886447
 20
-30.5383017557
 30
0.0
 10
-1.4607734281
 20
-30.499374425
 30
0.0
  0
SPLINE
  5
4A4
100
AcDbEntity
  8
RACCORDO
100
AcDbSpline
 62
7
  6
CONTINUOUS
 70
0
 71
3
 72
13
 73
9
 74
0
 42
0.0000001
 43
0.0000001
 44
0.0000000001
 40
0.0
 40
0.0
 40
0.0
 40
0.0
 40
0.2583245925
 40
0.507989576
 40
0.6313797632
 40
0.7543430355
 40
0.8771822422
 40
1.0
 40
1.0
 40
1.0
 40
1.0
 10
-2.7208614802
 20
9.2990757268
 30
0.0
 10
-2.7668901009
 20
9.271555112
 30
0.0
 10
-2.8529198881
 20
9.2092496003
 30
0.0
 10
-2.9406272563
 20
9.1099752487
 30
0.0
 10
-2.99241722
 20
9.0206314558
 30
0.0
 10
-3.021224846
 20
8.9493027349
 30
0.0
 10
-3.0390277868
 20
8.8745846244
 30
0.0
 10
-3.0430499127
 20
8.8234967269
 30
0.0
 10
-3.0430499127
 20
8.7979996013
 30
0.0
  0
SPLINE
  5
4A5
100
AcDbEntity
  8
RACCORDO
100
AcDbSpline
 62
7
  6
CONTINUOUS
 70
0
 71
3
 72
13
 73
9
 74
0
 42
0.0000001
 43
0.0000001
 44
0.0000000001
 40
0.0
 40
0.0
 40
0.0
 40
0.0
 40
0.2583245925
 40
0.507989576
 40
0.6313797632
 40
0.7543430355
 40
0.8771822422
 40
1.0
 40
1.0
 40
1.0
 40
1.0
 10
-18.8428960912
 20
18.6077364546
 30
0.0
 10
-18.888924712
 20
18.5802158399
 30
0.0
 10
-18.9749544991
 20
18.5179103282
 30
0.0
 10
-19.0626618673
 20
18.4186359765
 30
0.0
 10
-19.114451831
 20
18.3292921837
 30
0.0
 10
-19.143259457
 20
18.2579634627
 30
0.0
 10
-19.1610623979
 20
18.1832453523
 30
0.0
 10
-19.1650845237
 20
18.1321574548
 30
0.0
 10
-19.1650845237
 20
18.1066603292
 30
0.0
  0
SPLINE
  5
4A6
100
AcDbEntity
  8
RACCORDO
100
AcDbSpline
 62
7
  6
CONTINUOUS
 70
0
 71
3
 72
11
 73
7
 74
0
 42
0.0000001
 43
0.0000001
 44
0.0000000001
 40
0.0
 40
0.0
 40
0.0
 40
0.0
 40
0.265165252
 40
0.5204553416
 40
0.7645302621
 40
1.0
 40
1.0
 40
1.0
 40
1.0
 10
-22.578664855
 20
12.2531071616
 30
0.0
 10
-22.5786648874
 20
12.2365242216
 30
0.0
 10
-22.5762994022
 20
12.2038920467
 30
0.0
 10
-22.563849542
 20
12.1573499835
 30
0.0
 10
-22.5410517533
 20
12.1167415532
 30
0.0
 10
-22.5180825475
 20
12.096297507
 30
0.0
 10
-22.5054415422
 20
12.0887440118
 30
0.0
  0
SPLINE
  5
4A7
100
AcDbEntity
  8
RACCORDO
100
AcDbSpline
 62
7
  6
CONTINUOUS
 70
0
 71
3
 72
11
 73
7
 74
0
 42
0.0000001
 43
0.0000001
 44
0.0000000001
 40
0.0
 40
0.0
 40
0.0
 40
0.0
 40
0.2661356052
 40
0.5216236479
 40
0.7652710867
 40
1.0
 40
1.0
 40
1.0
 40
1.0
 10
-5.3314859699
 20
2.2873346888
 30
0.0
 10
-5.3452893943
 20
2.2796382534
 30
0.0
 10
-5.3734942165
 20
2.2664550456
 30
0.0
 10
-5.4178554097
 20
2.2551220546
 30
0.0
 10
-5.4620017966
 20
2.25499963
 30
0.0
 10
-5.4895920061
 20
2.2642511196
 30
0.0
 10
-5.5017682398
 20
2.271036153
 30
0.0
  0
SPLINE
  5
4A8
100
AcDbEntity
  8
ASSI
100
AcDbSpline
 62
7
  6
CONTINUOUS
 70
0
 71
3
 72
9
 73
5
 74
0
 42
0.0000001
 43
0.0000001
 44
0.0000000001
 40
0.0
 40
0.0
 40
0.0
 40
0.0
 40
0.7491380933
 40
1.0
 40
1.0
 40
1.0
 40
1.0
 10
0.5287245337
 20
14.8969366969
 30
0.0
 10
0.5943282963
 20
14.8821160986
 30
0.0
 10
0.6794234634
 20
14.8500537229
 30
0.0
 10
0.7584804609
 20
14.8075635213
 30
0.0
 10
0.7779848195
 20
14.7963017127
 30
0.0
  0
SPLINE
  5
4A9
100
AcDbEntity
  8
ASSI
100
AcDbSpline
 62
7
  6
CONTINUOUS
 70
0
 71
3
 72
11
 73
7
 74
0
 42
0.0000001
 43
0.0000001
 44
0.0000000001
 40
0.0
 40
0.0
 40
0.0
 40
0.0
 40
0.2767909224
 40
0.523891111
 40
0.7595348607
 40
1.0
 40
1.0
 40
1.0
 40
1.0
 10
-5.5736201514
 20
18.4203540377
 30
0.0
 10
-5.5744929666
 20
18.4279980382
 30
0.0
 10
-5.5774318669
 20
18.4423933445
 30
0.0
 10
-5.5865301384
 20
18.4616932283
 30
0.0
 10
-5.5996811667
 20
18.4771862931
 30
0.0
 10
-5.6105483981
 20
18.4849609542
 30
0.0
 10
-5.6163368828
 20
18.4883029235
 30
0.0
  0
LINE
  5
4AA
100
AcDbEntity
  8
RACCORDO
100
AcDbLine
 62
250
  6
CONTINUOUS
 10
-14.6086884896
 20
-25.968200311
 11
-13.3449864653
 21
-25.2343245822
  0
SPLINE
  5
4AB
100
AcDbEntity
  8
DRAFT
100
AcDbSpline
 62
7
  6
CONTINUOUS
 70
0
 71
3
 72
22
 73
18
 74
0
 42
0.0000001
 43
0.0000001
 44
0.0000000001
 40
0.0
 40
0.0
 40
0.0
 40
0.0
 40
0.1550094055
 40
0.2313101697
 40
0.3061555105
 40
0.3791063433
 40
0.4497644474
 40
0.517784369
 40
0.5828866603
 40
0.6448728569
 40
0.7036425079
 40
0.7592121457
 40
0.811735342
 40
0.8615211908
 40
0.9090457326
 40
0.9549477183
 40
1.0
 40
1.0
 40
1.0
 40
1.0
 10
-11.5579721668
 20
6.1881191737
 30
0.0
 10
-11.7175538131
 20
6.4645226927
 30
0.0
 10
-11.9791624649
 20
6.8641506055
 30
0.0
 10
-12.3691540803
 20
7.3597253745
 30
0.0
 10
-12.6758976432
 20
7.7048291648
 30
0.0
 10
-12.995383402
 20
8.0218769726
 30
0.0
 10
-13.3245927965
 20
8.3078686631
 30
0.0
 10
-13.6603965725
 20
8.5600702473
 30
0.0
 10
-13.9996252582
 20
8.7760764499
 30
0.0
 10
-14.3390946556
 20
8.9538164702
 30
0.0
 10
-14.6756414724
 20
9.0915643794
 30
0.0
 10
-15.006148801
 20
9.1879359835
 30
0.0
 10
-15.3275620556
 20
9.2418754445
 30
0.0
 10
-15.6368633724
 20
9.2526526898
 30
0.0
 10
-15.931074705
 20
9.2198559801
 30
0.0
 10
-16.2070647521
 20
9.1435575376
 30
0.0
 10
-16.3776350393
 20
9.0636944475
 30
0.0
 10
-16.4579721668
 20
9.0173177622
 30
0.0
  0
SPLINE
  5
4AC
100
AcDbEntity
  8
RACCORDO
100
AcDbSpline
 62
250
  6
CONTINUOUS
 70
0
 71
3
 72
21
 73
17
 74
0
 42
0.0000001
 43
0.0000001
 44
0.0000000001
 40
0.0
 40
0.0
 40
0.0
 40
0.0
 40
0.1561977404
 40
0.3087411721
 40
0.3824399355
 40
0.4538043348
 40
0.5224450066
 40
0.5880369171
 40
0.6503356491
 40
0.7091961463
 40
0.7645941019
 40
0.8166496169
 40
0.8656509578
 40
0.9120729197
 40
0.9565797093
 40
1.0
 40
1.0
 40
1.0
 40
1.0
 10
-18.4860286551
 20
-23.7294726939
 30
0.0
 10
-18.3541685122
 20
-23.945444583
 30
0.0
 10
-18.0702581554
 20
-24.3585811596
 30
0.0
 10
-17.664633323
 20
-24.8287818488
 30
0.0
 10
-17.3180514246
 20
-25.1643231376
 30
0.0
 10
-17.0544551451
 20
-25.3891522781
 30
0.0
 10
-16.7868102524
 20
-25.5878590789
 30
0.0
 10
-16.5176664893
 20
-25.7585365254
 30
0.0
 10
-16.2495796889
 20
-25.8995402314
 30
0.0
 10
-15.9850638474
 20
-26.0095003956
 30
0.0
 10
-15.7265693547
 20
-26.0873193086
 30
0.0
 10
-15.4764638078
 20
-26.1321570985
 30
0.0
 10
-15.2370512832
 20
-26.1434205946
 30
0.0
 10
-15.0105763469
 20
-26.1207413895
 30
0.0
 10
-14.7994088596
 20
-26.0641057665
 30
0.0
 10
-14.6695159054
 20
-26.0035271091
 30
0.0
 10
-14.6086884896
 20
-25.968200311
 30
0.0
  0
SPLINE
  5
4AD
100
AcDbEntity
  8
RACCORDO
100
AcDbSpline
 62
250
  6
CONTINUOUS
 70
0
 71
3
 72
9
 73
5
 74
0
 42
0.0000001
 43
0.0000001
 44
0.0000000001
 40
0.0
 40
0.0
 40
0.0
 40
0.0
 40
0.4949820571
 40
1.0
 40
1.0
 40
1.0
 40
1.0
 10
-25.0546705309
 20
-18.473296653
 30
0.0
 10
-25.2094515758
 20
-13.958377979
 30
0.0
 10
-25.3610664144
 20
-4.8308665051
 30
0.0
 10
-25.2063778834
 20
4.296386528
 30
0.0
 10
-25.0546705309
 20
8.9030550797
 30
0.0
  0
LINE
  5
4AE
100
AcDbEntity
  8
RACCORDO
100
AcDbLine
 62
250
  6
CONTINUOUS
 10
-18.4860286551
 20
6.7012593437
 11
-19.8599954187
 21
5.9037181363
  0
SPLINE
  5
4AF
100
AcDbEntity
  8
RACCORDO
100
AcDbSpline
 62
250
  6
CONTINUOUS
 70
0
 71
3
 72
21
 73
17
 74
0
 42
0.0000001
 43
0.0000001
 44
0.0000000001
 40
0.0
 40
0.0
 40
0.0
 40
0.0
 40
0.153887853
 40
0.3036339286
 40
0.3759145426
 40
0.4459401636
 40
0.5134009128
 40
0.5780558945
 40
0.6397478827
 40
0.698419356
 40
0.7541293083
 40
0.807069419
 40
0.8575764762
 40
0.9061358021
 40
0.9533688565
 40
1.0
 40
1.0
 40
1.0
 40
1.0
 10
-14.6086884896
 20
4.4625317266
 30
0.0
 10
-14.7291126257
 20
4.6843395651
 30
0.0
 10
-14.9923819557
 20
5.1085904777
 30
0.0
 10
-15.37910291
 20
5.5909792664
 30
0.0
 10
-15.7146027224
 20
5.9333085914
 30
0.0
 10
-15.9722327654
 20
6.16178079
 30
0.0
 10
-16.2363287799
 20
6.3627461874
 30
0.0
 10
-16.5044036787
 20
6.534255601
 30
0.0
 10
-16.7739224663
 20
6.6746363443
 30
0.0
 10
-17.0423466755
 20
6.7825067107
 30
0.0
 10
-17.3071495842
 20
6.8567745383
 30
0.0
 10
-17.5658286883
 20
6.8966316096
 30
0.0
 10
-17.8158885074
 20
6.9015597004
 30
0.0
 10
-18.054853604
 20
6.8713360645
 30
0.0
 10
-18.2801491059
 20
6.8061595473
 30
0.0
 10
-18.4198856385
 20
6.7396544172
 30
0.0
 10
-18.4860286551
 20
6.7012593437
 30
0.0
  0
SPLINE
  5
4B0
100
AcDbEntity
  8
RACCORDO
100
AcDbSpline
 62
250
  6
CONTINUOUS
 70
0
 71
3
 72
25
 73
21
 74
0
 42
0.0000001
 43
0.0000001
 44
0.0000000001
 40
0.0
 40
0.0
 40
0.0
 40
0.0
 40
0.0598350841
 40
0.1134057101
 40
0.1617113609
 40
0.1846227789
 40
0.2071547291
 40
0.2297246383
 40
0.2527464661
 40
0.3014517516
 40
0.3555625088
 40
0.4159707874
 40
0.4825167176
 40
0.5542770619
 40
0.6298106052
 40
0.7073535008
 40
0.7849840374
 40
0.8607737878
 40
0.9329383954
 40
1.0
 40
1.0
 40
1.0
 40
1.0
 10
-2.5925686673
 20
9.2886217364
 30
0.0
 10
-2.6230260062
 20
9.2704112257
 30
0.0
 10
-2.6781829823
 20
9.2311250097
 30
0.0
 10
-2.7436513074
 20
9.1599317359
 30
0.0
 10
-2.7782867069
 20
9.093192244
 30
0.0
 10
-2.7913396904
 20
9.0389101081
 30
0.0
 10
-2.794160992
 20
8.9984779265
 30
0.0
 10
-2.7901072775
 20
8.9580861023
 30
0.0
 10
-2.7753869026
 20
8.903897675
 30
0.0
 10
-2.738730115
 20
8.8375714034
 30
0.0
 10
-2.6711741817
 20
8.7671160492
 30
0.0
 10
-2.5821937914
 20
8.7059285166
 30
0.0
 10
-2.4750016923
 20
8.6558925593
 30
0.0
 10
-2.353406555
 20
8.6186207056
 30
0.0
 10
-2.2217836616
 20
8.5954241617
 30
0.0
 10
-2.0849233741
 20
8.5871367661
 30
0.0
 10
-1.9478389863
 20
8.594059914
 30
0.0
 10
-1.8155364155
 20
8.6159476289
 30
0.0
 10
-1.6928815358
 20
8.6519853854
 30
0.0
 10
-1.6172584049
 20
8.6860643741
 30
0.0
 10
-1.5825212343
 20
8.7054330074
 30
0.0
  0
SPLINE
  5
4B1
100
AcDbEntity
  8
RACCORDO
100
AcDbSpline
 62
250
  6
CONTINUOUS
 70
0
 71
3
 72
25
 73
21
 74
0
 42
0.0000001
 43
0.0000001
 44
0.0000000001
 40
0.0
 40
0.0
 40
0.0
 40
0.0
 40
0.0670616028
 40
0.1392262118
 40
0.2150159626
 40
0.2926464993
 40
0.370189395
 40
0.4457229384
 40
0.5174832827
 40
0.584029213
 40
0.6444374916
 40
0.6985482487
 40
0.7472535342
 40
0.7702753621
 40
0.7928452713
 40
0.8153772215
 40
0.8382886395
 40
0.8865942903
 40
0.9401649164
 40
1.0
 40
1.0
 40
1.0
 40
1.0
 10
-17.7045558454
 20
18.0140937353
 30
0.0
 10
-17.739293015
 20
17.9947251025
 30
0.0
 10
-17.8149161399
 20
17.9606461007
 30
0.0
 10
-17.9375710237
 20
17.9246083551
 30
0.0
 10
-18.0698735948
 20
17.9027206381
 30
0.0
 10
-18.2069579833
 20
17.8957974913
 30
0.0
 10
-18.343818271
 20
17.9040848872
 30
0.0
 10
-18.4754411645
 20
17.9272814316
 30
0.0
 10
-18.5970363018
 20
17.9645532855
 30
0.0
 10
-18.7042284009
 20
18.0145892431
 30
0.0
 10
-18.793208791
 20
18.0757767759
 30
0.0
 10
-18.8607647243
 20
18.1462321302
 30
0.0
 10
-18.8974215119
 20
18.2125584019
 30
0.0
 10
-18.9121418868
 20
18.2667468292
 30
0.0
 10
-18.9161956015
 20
18.3071386535
 30
0.0
 10
-18.9133742999
 20
18.3475708351
 30
0.0
 10
-18.9003213166
 20
18.4018529711
 30
0.0
 10
-18.8656859174
 20
18.4685924633
 30
0.0
 10
-18.8002175915
 20
18.539785736
 30
0.0
 10
-18.745060617
 20
18.5790719537
 30
0.0
 10
-18.7146032784
 20
18.5972824643
 30
0.0
  0
SPLINE
  5
4B2
100
AcDbEntity
  8
RACCORDO
100
AcDbSpline
 62
250
  6
CONTINUOUS
 70
0
 71
3
 72
11
 73
7
 74
0
 42
0.0000001
 43
0.0000001
 44
0.0000000001
 40
0.0
 40
0.0
 40
0.0
 40
0.0
 40
0.2185605812
 40
0.4521500006
 40
0.7111792476
 40
1.0
 40
1.0
 40
1.0
 40
1.0
 10
-18.8428960867
 20
18.607736447
 30
0.0
 10
-18.8344906117
 20
18.6127622407
 30
0.0
 10
-18.815143934
 20
18.62015078
 30
0.0
 10
-18.7828711485
 20
18.6215337082
 30
0.0
 10
-18.7483877365
 20
18.6138503435
 30
0.0
 10
-18.7259066105
 20
18.6035849377
 30
0.0
 10
-18.7146032784
 20
18.5972824643
 30
0.0
  0
SPLINE
  5
4B3
100
AcDbEntity
  8
RACCORDO
100
AcDbSpline
 62
250
  6
CONTINUOUS
 70
0
 71
3
 72
21
 73
17
 74
0
 42
0.0000001
 43
0.0000001
 44
0.0000000001
 40
0.0
 40
0.0
 40
0.0
 40
0.0
 40
0.0434394723
 40
0.0879749521
 40
0.1344297061
 40
0.1834625702
 40
0.2355440396
 40
0.2909595421
 40
0.3498277034
 40
0.4121240226
 40
0.4777043567
 40
0.5463259771
 40
0.617666169
 40
0.6913381981
 40
0.8438316144
 40
1.0
 40
1.0
 40
1.0
 40
1.0
 10
-14.7186786344
 20
-25.8006192468
 30
0.0
 10
-14.7761429661
 20
-25.8337878363
 30
0.0
 10
-14.8988180364
 20
-25.8906232329
 30
0.0
 10
-15.0981397935
 20
-25.9436349329
 30
0.0
 10
-15.3118391454
 20
-25.9646859557
 30
0.0
 10
-15.5376866906
 20
-25.9537955855
 30
0.0
 10
-15.7735711179
 20
-25.9113154734
 30
0.0
 10
-16.0173256633
 20
-25.8378054112
 30
0.0
 10
-16.2667252182
 20
-25.7340570711
 30
0.0
 10
-16.5194683531
 20
-25.601102822
 30
0.0
 10
-16.7731946528
 20
-25.4402285322
 30
0.0
 10
-17.0255055674
 20
-25.252977259
 30
0.0
 10
-17.2740080017
 20
-25.0411369778
 30
0.0
 10
-17.6007733392
 20
-24.7249958638
 30
0.0
 10
-17.9832950503
 20
-24.2819661008
 30
0.0
 10
-18.2511206385
 20
-23.8926973169
 30
0.0
 10
-18.3755482303
 20
-23.6891885735
 30
0.0
  0
SPLINE
  5
4B4
100
AcDbEntity
  8
RACCORDO
100
AcDbSpline
 62
250
  6
CONTINUOUS
 70
0
 71
3
 72
9
 73
5
 74
0
 42
0.0000001
 43
0.0000001
 44
0.0000000001
 40
0.0
 40
0.0
 40
0.0
 40
0.0
 40
0.2515411428
 40
1.0
 40
1.0
 40
1.0
 40
1.0
 10
-10.2081711634
 20
-23.1952344532
 30
0.0
 10
-10.5862968328
 20
-23.4138043474
 30
0.0
 10
-12.0895987119
 20
-24.2826131911
 30
0.0
 10
-13.5931661193
 20
-25.150962597
 30
0.0
 10
-14.7186786344
 20
-25.8006192468
 30
0.0
  0
SPLINE
  5
4B5
100
AcDbEntity
  8
RACCORDO
100
AcDbSpline
 62
250
  6
CONTINUOUS
 70
0
 71
3
 72
11
 73
7
 74
0
 42
0.0000001
 43
0.0000001
 44
0.0000000001
 40
0.0
 40
0.0
 40
0.0
 40
0.0
 40
0.2177768421
 40
0.4509589938
 40
0.7102040988
 40
1.0
 40
1.0
 40
1.0
 40
1.0
 10
-22.5786647178
 20
-21.135038313
 30
0.0
 10
-22.5786641535
 20
-21.1445604848
 30
0.0
 10
-22.5751492731
 20
-21.1644114984
 30
0.0
 10
-22.5600970835
 20
-21.1920582645
 30
0.0
 10
-22.5363198461
 20
-21.2170644045
 30
0.0
 10
-22.5164149165
 20
-21.2307668754
 30
0.0
 10
-22.5054415422
 20
-21.2371027642
 30
0.0
  0
SPLINE
  5
4B6
100
AcDbEntity
  8
RACCORDO
100
AcDbSpline
 62
250
  6
CONTINUOUS
 70
0
 71
3
 72
17
 73
13
 74
0
 42
0.0000001
 43
0.0000001
 44
0.0000000001
 40
0.0
 40
0.0
 40
0.0
 40
0.0
 40
0.1501635631
 40
0.2921351697
 40
0.425926663
 40
0.5519041915
 40
0.6708431365
 40
0.7839665651
 40
0.8388991339
 40
0.8930368706
 40
0.9466443279
 40
1.0
 40
1.0
 40
1.0
 40
1.0
 10
-8.394561488
 20
-19.0322216112
 30
0.0
 10
-8.3920209356
 20
-19.2702910588
 30
0.0
 10
-8.4057402328
 20
-19.7339512145
 30
0.0
 10
-8.4878439383
 20
-20.4052839437
 30
0.0
 10
-8.6303790885
 20
-21.0274072869
 30
0.0
 10
-8.83244811
 20
-21.5944807591
 30
0.0
 10
-9.0926351112
 20
-22.1010269409
 30
0.0
 10
-9.3592489488
 20
-22.4722728292
 30
0.0
 10
-9.5985096425
 20
-22.7313210959
 30
0.0
 10
-9.7889914247
 20
-22.9057025577
 30
0.0
 10
-9.9917503426
 20
-23.0615386267
 30
0.0
 10
-10.1349315824
 20
-23.1528992573
 30
0.0
 10
-10.2081711634
 20
-23.1952344532
 30
0.0
  0
SPLINE
  5
4B7
100
AcDbEntity
  8
RACCORDO
100
AcDbSpline
 62
250
  6
CONTINUOUS
 70
0
 71
3
 72
9
 73
5
 74
0
 42
0.0000001
 43
0.0000001
 44
0.0000000001
 40
0.0
 40
0.0
 40
0.0
 40
0.0
 40
0.2512222895
 40
1.0
 40
1.0
 40
1.0
 40
1.0
 10
-8.394561488
 20
-10.261489431
 30
0.0
 10
-8.4022980245
 20
-10.995924205
 30
0.0
 10
-8.4254567859
 20
-13.9194449627
 30
0.0
 10
-8.4179230844
 20
-16.8432136864
 30
0.0
 10
-8.394561488
 20
-19.0322216112
 30
0.0
  0
SPLINE
  5
4B8
100
AcDbEntity
  8
RACCORDO
100
AcDbSpline
 62
250
  6
CONTINUOUS
 70
0
 71
3
 72
11
 73
7
 74
0
 42
0.0000001
 43
0.0000001
 44
0.0000000001
 40
0.0
 40
0.0
 40
0.0
 40
0.0
 40
0.2177723784
 40
0.4509513659
 40
0.7101974214
 40
1.0
 40
1.0
 40
1.0
 40
1.0
 10
-5.4499975199
 20
-31.1692447264
 30
0.0
 10
-5.4582427614
 20
-31.1644839307
 30
0.0
 10
-5.4736751101
 20
-31.151516112
 30
0.0
 10
-5.4900895281
 20
-31.1246598675
 30
0.0
 10
-5.4998549334
 20
-31.091568057
 30
0.0
 10
-5.5017682398
 20
-31.0674807625
 30
0.0
 10
-5.5017682398
 20
-31.054810623
 30
0.0
  0
SPLINE
  5
4B9
100
AcDbEntity
  8
RACCORDO
100
AcDbSpline
 62
250
  6
CONTINUOUS
 70
0
 71
3
 72
15
 73
11
 74
0
 42
0.0000001
 43
0.0000001
 44
0.0000000001
 40
0.0
 40
0.0
 40
0.0
 40
0.0
 40
0.1330261355
 40
0.2653252681
 40
0.3960623329
 40
0.5244291171
 40
0.6496618845
 40
0.7710604518
 40
0.8880091452
 40
1.0
 40
1.0
 40
1.0
 40
1.0
 10
-10.2081711634
 20
-3.7881654074
 30
0.0
 10
-10.0618414077
 20
-4.0514602354
 30
0.0
 10
-9.7849598552
 20
-4.5850975901
 30
0.0
 10
-9.4179421749
 20
-5.4039225111
 30
0.0
 10
-9.1027053239
 20
-6.2328107869
 30
0.0
 10
-8.8420783441
 20
-7.0637199917
 30
0.0
 10
-8.6383683013
 20
-7.8886533825
 30
0.0
 10
-8.4933792471
 20
-8.6997222928
 30
0.0
 10
-8.4083979714
 20
-9.4891144814
 30
0.0
 10
-8.3918904661
 20
-10.007910797
 30
0.0
 10
-8.394561488
 20
-10.261489431
 30
0.0
  0
SPLINE
  5
4BA
100
AcDbEntity
  8
RACCORDO
100
AcDbSpline
 62
250
  6
CONTINUOUS
 70
0
 71
3
 72
21
 73
17
 74
0
 42
0.0000001
 43
0.0000001
 44
0.0000000001
 40
0.0
 40
0.0
 40
0.0
 40
0.0
 40
0.0466217991
 40
0.0938556811
 40
0.1424235844
 40
0.1929437001
 40
0.2458981136
 40
0.3016208819
 40
0.3603016505
 40
0.4219982323
 40
0.486652794
 40
0.554108496
 40
0.6241254739
 40
0.6963952923
 40
0.8461205328
 40
1.0
 40
1.0
 40
1.0
 40
1.0
 10
-18.3755482303
 20
6.5238749198
 30
0.0
 10
-18.313119498
 20
6.5599099379
 30
0.0
 10
-18.181254492
 20
6.6222831351
 30
0.0
 10
-17.9687411444
 20
6.6832692932
 30
0.0
 10
-17.74338764
 20
6.7113573626
 30
0.0
 10
-17.5076122033
 20
6.7063716153
 30
0.0
 10
-17.2637382562
 20
6.668531026
 30
0.0
 10
-17.0141077575
 20
6.5983276369
 30
0.0
 10
-16.7610690198
 20
6.4965249416
 30
0.0
 10
-16.5069929601
 20
6.3641508109
 30
0.0
 10
-16.2542621989
 20
6.2025022178
 30
0.0
 10
-16.005256179
 20
6.0131482347
 30
0.0
 10
-15.7623108658
 20
5.7979152099
 30
0.0
 10
-15.4458728046
 20
5.4754513467
 30
0.0
 10
-15.0809774148
 20
5.0210597759
 30
0.0
 10
-14.8324195138
 20
4.6214090263
 30
0.0
 10
-14.7186786344
 20
4.4124442465
 30
0.0
  0
SPLINE
  5
4BB
100
AcDbEntity
  8
RACCORDO
100
AcDbSpline
 62
250
  6
CONTINUOUS
 70
0
 71
3
 72
9
 73
5
 74
0
 42
0.0000001
 43
0.0000001
 44
0.0000000001
 40
0.0
 40
0.0
 40
0.0
 40
0.0
 40
0.2486139503
 40
1.0
 40
1.0
 40
1.0
 40
1.0
 10
-23.2208429236
 20
3.7251881799
 30
0.0
 10
-22.8193749041
 20
3.9572366115
 30
0.0
 10
-21.2044809381
 20
4.8904857766
 30
0.0
 10
-19.5893127132
 20
5.8232603586
 30
0.0
 10
-18.3755482303
 20
6.5238749198
 30
0.0
  0
SPLINE
  5
4BC
100
AcDbEntity
  8
RACCORDO
100
AcDbSpline
 62
250
  6
CONTINUOUS
 70
0
 71
3
 72
11
 73
7
 74
0
 42
0.0000001
 43
0.0000001
 44
0.0000000001
 40
0.0
 40
0.0
 40
0.0
 40
0.0
 40
0.2135266931
 40
0.4447581696
 40
0.7054471672
 40
1.0
 40
1.0
 40
1.0
 40
1.0
 10
-25.1278958476
 20
9.0052210474
 30
0.0
 10
-25.1282034784
 20
8.9958611466
 30
0.0
 10
-25.1251120135
 20
8.9761002808
 30
0.0
 10
-25.110153796
 20
8.9484954497
 30
0.0
 10
-25.0860849658
 20
8.9233571717
 30
0.0
 10
-25.0658620679
 20
8.9095110996
 30
0.0
 10
-25.05467038
 20
8.9030584011
 30
0.0
  0
SPLINE
  5
4BD
100
AcDbEntity
  8
RACCORDO
100
AcDbSpline
 62
250
  6
CONTINUOUS
 70
0
 71
3
 72
12
 73
8
 74
0
 42
0.0000001
 43
0.0000001
 44
0.0000000001
 40
0.0
 40
0.0
 40
0.0
 40
0.0
 40
0.0973039502
 40
0.1983079602
 40
0.422426066
 40
0.6886218515
 40
1.0
 40
1.0
 40
1.0
 40
1.0
 10
-24.6046260599
 20
10.027829352
 30
0.0
 10
-24.6012525151
 20
10.0305453966
 30
0.0
 10
-24.5937123246
 20
10.0353027513
 30
0.0
 10
-24.5758760194
 20
10.0416525553
 30
0.0
 10
-24.5490007263
 20
10.0426601422
 30
0.0
 10
-24.5140946332
 20
10.0340463672
 30
0.0
 10
-24.4906635024
 20
10.0231139297
 30
0.0
 10
-24.4785441066
 20
10.0163903951
 30
0.0
  0
SPLINE
  5
4BE
100
AcDbEntity
  8
RACCORDO
100
AcDbSpline
 62
250
  6
CONTINUOUS
 70
0
 71
3
 72
11
 73
7
 74
0
 42
0.0000001
 43
0.0000001
 44
0.0000000001
 40
0.0
 40
0.0
 40
0.0
 40
0.0
 40
0.2216264609
 40
0.4568583308
 40
0.714895068
 40
1.0
 40
1.0
 40
1.0
 40
1.0
 10
-25.1278247052
 20
-18.3732406095
 30
0.0
 10
-25.1273487105
 20
-18.3827534177
 30
0.0
 10
-25.1231472131
 20
-18.402318211
 30
0.0
 10
-25.107914792
 20
-18.4294291117
 30
0.0
 10
-25.0846156253
 20
-18.4538225958
 30
0.0
 10
-25.0652779603
 20
-18.4671670586
 30
0.0
 10
-25.0546704136
 20
-18.4732998171
 30
0.0
  0
SPLINE
  5
4BF
100
AcDbEntity
  8
RACCORDO
100
AcDbSpline
 62
250
  6
CONTINUOUS
 70
0
 71
3
 72
17
 73
13
 74
0
 42
0.0000001
 43
0.0000001
 44
0.0000000001
 40
0.0
 40
0.0
 40
0.0
 40
0.0
 40
0.1470183036
 40
0.286811568
 40
0.419444352
 40
0.5452809627
 40
0.6650199507
 40
0.7797134886
 40
0.8356345182
 40
0.8908426998
 40
0.9455550967
 40
1.0
 40
1.0
 40
1.0
 40
1.0
 10
-25.2215021979
 20
-0.5458247562
 30
0.0
 10
-25.2187900984
 20
-0.3041376352
 30
0.0
 10
-25.1935821522
 20
0.1674712847
 30
0.0
 10
-25.0912796253
 20
0.8505431589
 30
0.0
 10
-24.9262574647
 20
1.4855626175
 30
0.0
 10
-24.6998613209
 20
2.0663821344
 30
0.0
 10
-24.4140808355
 20
2.5872064644
 30
0.0
 10
-24.1258400763
 20
2.9701609901
 30
0.0
 10
-23.8692726694
 20
3.2389561594
 30
0.0
 10
-23.6657355479
 20
3.4208285522
 30
0.0
 10
-23.4500587605
 20
3.5840992562
 30
0.0
 10
-23.298338116
 20
3.6803958245
 30
0.0
 10
-23.2208429236
 20
3.7251881799
 30
0.0
  0
SPLINE
  5
4C0
100
AcDbEntity
  8
RACCORDO
100
AcDbSpline
 62
250
  6
CONTINUOUS
 70
0
 71
3
 72
11
 73
7
 74
0
 42
0.0000001
 43
0.0000001
 44
0.0000000001
 40
0.0
 40
0.0
 40
0.0
 40
0.0
 40
0.216790827
 40
0.4495601982
 40
0.7091867628
 40
1.0
 40
1.0
 40
1.0
 40
1.0
 10
-22.4601562265
 20
15.0299412919
 30
0.0
 10
-22.4518789153
 20
15.0350603178
 30
0.0
 10
-22.4326556707
 20
15.0426143154
 30
0.0
 10
-22.4004006844
 20
15.0440581866
 30
0.0
 10
-22.3657774698
 20
15.0363188062
 30
0.0
 10
-22.3431543505
 20
15.0259749003
 30
0.0
 10
-22.3317500257
 20
15.0196199901
 30
0.0
  0
SPLINE
  5
4C1
100
AcDbEntity
  8
RACCORDO
100
AcDbSpline
 62
250
  6
CONTINUOUS
 70
0
 71
3
 72
9
 73
5
 74
0
 42
0.0000001
 43
0.0000001
 44
0.0000000001
 40
0.0
 40
0.0
 40
0.0
 40
0.0
 40
0.2488531533
 40
1.0
 40
1.0
 40
1.0
 40
1.0
 10
-25.2215021979
 20
-9.3165569364
 30
0.0
 10
-25.2297658285
 20
-8.5890536954
 30
0.0
 10
-25.2546070415
 20
-5.6655401799
 30
0.0
 10
-25.2461419219
 20
-2.7417487811
 30
0.0
 10
-25.2215021979
 20
-0.5458247562
 30
0.0
  0
SPLINE
  5
4C2
100
AcDbEntity
  8
RACCORDO
100
AcDbSpline
 62
250
  6
CONTINUOUS
 70
0
 71
3
 72
13
 73
9
 74
0
 42
0.0000001
 43
0.0000001
 44
0.0000000001
 40
0.0
 40
0.0
 40
0.0
 40
0.0
 40
0.1085062864
 40
0.2190620816
 40
0.3334119322
 40
0.4530111046
 40
0.7115925093
 40
1.0
 40
1.0
 40
1.0
 40
1.0
 10
-24.8508419061
 20
-18.8975857803
 30
0.0
 10
-24.8662154186
 20
-18.8887094132
 30
0.0
 10
-24.895826954
 20
-18.8681866482
 30
0.0
 10
-24.9352322612
 20
-18.8301596938
 30
0.0
 10
-24.9694921296
 20
-18.7851437226
 30
0.0
 10
-25.0089275594
 20
-18.714610735
 30
0.0
 10
-25.0430110585
 20
-18.6099083028
 30
0.0
 10
-25.053046802
 20
-18.5204532558
 30
0.0
 10
-25.0546705297
 20
-18.4732966537
 30
0.0
  0
SPLINE
  5
4C3
100
AcDbEntity
  8
RACCORDO
100
AcDbSpline
 62
7
  6
CONTINUOUS
 70
0
 71
3
 72
11
 73
7
 74
0
 42
0.0000001
 43
0.0000001
 44
0.0000000001
 40
0.0
 40
0.0
 40
0.0
 40
0.0
 40
0.402038088
 40
0.5321162944
 40
0.6751083958
 40
1.0
 40
1.0
 40
1.0
 40
1.0
 10
-19.8885226352
 20
-21.7482994705
 30
0.0
 10
-19.9083054368
 20
-21.7157762563
 30
0.0
 10
-19.9111606714
 20
-21.6603529529
 30
0.0
 10
-19.9010017022
 20
-21.5977748952
 30
0.0
 10
-19.8872713002
 20
-21.5426507473
 30
0.0
 10
-19.8719207286
 20
-21.5009971723
 30
0.0
 10
-19.8599954187
 20
-21.4726400647
 30
0.0
  0
SPLINE
  5
4C4
100
AcDbEntity
  8
RACCORDO
100
AcDbSpline
 62
250
  6
CONTINUOUS
 70
0
 71
3
 72
15
 73
11
 74
0
 42
0.0000001
 43
0.0000001
 44
0.0000000001
 40
0.0
 40
0.0
 40
0.0
 40
0.0
 40
0.1338428687
 40
0.2666954354
 40
0.3977193792
 40
0.5261187892
 40
0.6511567618
 40
0.7721730626
 40
0.8886033038
 40
1.0
 40
1.0
 40
1.0
 40
1.0
 10
-23.2208429236
 20
-15.6818808659
 30
0.0
 10
-23.3754565624
 20
-15.4236936819
 30
0.0
 10
-23.6692523771
 20
-14.9005116182
 30
0.0
 10
-24.0625644937
 20
-14.0968711412
 30
0.0
 10
-24.4039527122
 20
-13.2830358995
 30
0.0
 10
-24.6899812258
 20
-12.4666986692
 30
0.0
 10
-24.9177865548
 20
-11.6555403869
 30
0.0
 10
-25.0850757466
 20
-10.8571707581
 30
0.0
 10
-25.1901517839
 20
-10.0791793751
 30
0.0
 10
-25.2186570969
 20
-9.5670130555
 30
0.0
 10
-25.2215021979
 20
-9.3165569364
 30
0.0
  0
SPLINE
  5
4C5
100
AcDbEntity
  8
RACCORDO
100
AcDbSpline
 62
7
  6
CONTINUOUS
 70
0
 71
3
 72
11
 73
7
 74
0
 42
0.0000001
 43
0.0000001
 44
0.0000000001
 40
0.0
 40
0.0
 40
0.0
 40
0.0
 40
0.2328274603
 40
0.4768506657
 40
0.7327967956
 40
1.0
 40
1.0
 40
1.0
 40
1.0
 10
-12.9395596717
 20
-25.7750109426
 30
0.0
 10
-12.9859128406
 20
-25.7482470741
 30
0.0
 10
-13.0745800302
 20
-25.6820462017
 30
0.0
 10
-13.1871058532
 20
-25.5554137035
 30
0.0
 10
-13.2796271248
 20
-25.4043178878
 30
0.0
 10
-13.3256713779
 20
-25.2926365149
 30
0.0
 10
-13.3449864653
 20
-25.2343245822
 30
0.0
  0
SPLINE
  5
4C6
100
AcDbEntity
  8
RACCORDO
100
AcDbSpline
 62
7
  6
CONTINUOUS
 70
0
 71
3
 72
9
 73
5
 74
0
 42
0.0000001
 43
0.0000001
 44
0.0000000001
 40
0.0
 40
0.0
 40
0.0
 40
0.0
 40
0.2417806114
 40
1.0
 40
1.0
 40
1.0
 40
1.0
 10
-12.3542882414
 20
3.1862313134
 30
0.0
 10
-12.3630357813
 20
3.1770688569
 30
0.0
 10
-12.4002962116
 20
3.1402131972
 30
0.0
 10
-12.4417537942
 20
3.1076568872
 30
0.0
 10
-12.474766408
 20
3.0855595946
 30
0.0
  0
SPLINE
  5
4C7
100
AcDbEntity
  8
RACCORDO
100
AcDbSpline
 62
250
  6
CONTINUOUS
 70
0
 71
3
 72
22
 73
18
 74
0
 42
0.0000001
 43
0.0000001
 44
0.0000000001
 40
0.0
 40
0.0
 40
0.0
 40
0.0
 40
0.0428084623
 40
0.0873591171
 40
0.1350690311
 40
0.1868595471
 40
0.2431478796
 40
0.3039207025
 40
0.3688251481
 40
0.4372508301
 40
0.5083982706
 40
0.5813365791
 40
0.7283744618
 40
0.8005264383
 40
0.8704019853
 40
0.937130081
 40
1.0
 40
1.0
 40
1.0
 40
1.0
 10
-3.0430498816
 20
8.7979996013
 30
0.0
 10
-3.0430496757
 20
8.7707509007
 30
0.0
 10
-3.0358243534
 20
8.7149108122
 30
0.0
 10
-3.0040354476
 20
8.6342308192
 30
0.0
 10
-2.9524281606
 20
8.5576803277
 30
0.0
 10
-2.8824460782
 20
8.4867577683
 30
0.0
 10
-2.7956834759
 20
8.4227011842
 30
0.0
 10
-2.6939634901
 20
8.3666985149
 30
0.0
 10
-2.5793853284
 20
8.3198327947
 30
0.0
 10
-2.4543255451
 20
8.2830476211
 30
0.0
 10
-2.3213712515
 20
8.257092932
 30
0.0
 10
-2.1369205181
 20
8.2376295115
 30
0.0
 10
-1.9499435433
 20
8.2415217459
 30
0.0
 10
-1.7678094372
 20
8.2688683153
 30
0.0
 10
-1.6385130613
 20
8.3004057541
 30
0.0
 10
-1.5184768171
 20
8.3424042874
 30
0.0
 10
-1.4438089344
 20
8.3779924115
 30
0.0
 10
-1.4088566417
 20
8.3974809919
 30
0.0
  0
SPLINE
  5
4C8
100
AcDbEntity
  8
RACCORDO
100
AcDbSpline
 62
250
  6
CONTINUOUS
 70
0
 71
3
 72
21
 73
17
 74
0
 42
0.0000001
 43
0.0000001
 44
0.0000000001
 40
0.0
 40
0.0
 40
0.0
 40
0.0
 40
0.0428894632
 40
0.0879131642
 40
0.1363060506
 40
0.1888227086
 40
0.2457570289
 40
0.3070181717
 40
0.3722136082
 40
0.4407220929
 40
0.5842743027
 40
0.7303880421
 40
0.8019878534
 40
0.8713160665
 40
0.9375450912
 40
1.0
 40
1.0
 40
1.0
 40
1.0
 10
-3.0421084378
 20
-30.0089347975
 30
0.0
 10
-3.040050969
 20
-30.0358026545
 30
0.0
 10
-3.0287973985
 20
-30.0905394796
 30
0.0
 10
-2.992197293
 20
-30.1686904864
 30
0.0
 10
-2.9368707733
 20
-30.2425006648
 30
0.0
 10
-2.864207222
 20
-30.3106044931
 30
0.0
 10
-2.7757523585
 20
-30.3718448521
 30
0.0
 10
-2.6732852899
 20
-30.4251081655
 30
0.0
 10
-2.558838756
 20
-30.4693974346
 30
0.0
 10
-2.3907586239
 20
-30.5160156789
 30
0.0
 10
-2.1665727497
 20
-30.5462469175
 30
0.0
 10
-1.9386115819
 20
-30.5397360219
 30
0.0
 10
-1.7602366768
 20
-30.5118890793
 30
0.0
 10
-1.6337431648
 20
-30.4804335143
 30
0.0
 10
-1.5162588333
 20
-30.438931945
 30
0.0
 10
-1.4431283101
 20
-30.4039662359
 30
0.0
 10
-1.4088566417
 20
-30.3848571557
 30
0.0
  0
SPLINE
  5
4C9
100
AcDbEntity
  8
RACCORDO
100
AcDbSpline
 62
250
  6
CONTINUOUS
 70
0
 71
3
 72
11
 73
7
 74
0
 42
0.0000001
 43
0.0000001
 44
0.0000000001
 40
0.0
 40
0.0
 40
0.0
 40
0.0
 40
0.2363025076
 40
0.4980513264
 40
0.7608569356
 40
1.0
 40
1.0
 40
1.0
 40
1.0
 10
-14.6808244929
 20
-4.3986581089
 30
0.0
 10
-14.7053861732
 20
-4.3844765026
 30
0.0
 10
-14.7624043602
 20
-4.3635935614
 30
0.0
 10
-14.8537719177
 20
-4.3530353815
 30
0.0
 10
-14.9456521848
 20
-4.3620123654
 30
0.0
 10
-15.0035055134
 20
-4.3818213111
 30
0.0
 10
-15.0287379647
 20
-4.3955024199
 30
0.0
  0
SPLINE
  5
4CA
100
AcDbEntity
  8
RACCORDO
100
AcDbSpline
 62
250
  6
CONTINUOUS
 70
0
 71
3
 72
9
 73
5
 74
0
 42
0.0000001
 43
0.0000001
 44
0.0000000001
 40
0.0
 40
0.0
 40
0.0
 40
0.0
 40
0.5226372987
 40
1.0
 40
1.0
 40
1.0
 40
1.0
 10
-14.8942329513
 20
4.3962846783
 30
0.0
 10
-14.9185973148
 20
4.3942010513
 30
0.0
 10
-14.9649734123
 20
4.3862294823
 30
0.0
 10
-15.0091034107
 20
4.3693660593
 30
0.0
 10
-15.0287379647
 20
4.3587201468
 30
0.0
  0
SPLINE
  5
4CB
100
AcDbEntity
  8
RACCORDO
100
AcDbSpline
 62
250
  6
CONTINUOUS
 70
0
 71
3
 72
9
 73
5
 74
0
 42
0.0000001
 43
0.0000001
 44
0.0000000001
 40
0.0
 40
0.0
 40
0.0
 40
0.0
 40
0.2396667645
 40
1.0
 40
1.0
 40
1.0
 40
1.0
 10
-10.2072332591
 20
-4.1163684855
 30
0.0
 10
-10.2348718685
 20
-4.1070557832
 30
0.0
 10
-10.3490915767
 20
-4.0649507544
 30
0.0
 10
-10.4586530961
 20
-4.0106376358
 30
0.0
 10
-10.5387816632
 20
-3.9643724054
 30
0.0
  0
SPLINE
  5
4CC
100
AcDbEntity
  8
RACCORDO
100
AcDbSpline
 62
250
  6
CONTINUOUS
 70
0
 71
3
 72
13
 73
9
 74
0
 42
0.0000001
 43
0.0000001
 44
0.0000000001
 40
0.0
 40
0.0
 40
0.0
 40
0.0
 40
0.2700149602
 40
0.5288269599
 40
0.6522757304
 40
0.7713160291
 40
0.8867454488
 40
1.0
 40
1.0
 40
1.0
 40
1.0
 10
-10.2081711634
 20
-23.1952344532
 30
0.0
 10
-10.260989857
 20
-23.1070435389
 30
0.0
 10
-10.3376215
 20
-22.9165700246
 30
0.0
 10
-10.3502706759
 20
-22.6629798798
 30
0.0
 10
-10.3053889767
 20
-22.4763189603
 30
0.0
 10
-10.2469158238
 20
-22.3520762888
 30
0.0
 10
-10.1652025164
 20
-22.2465638498
 30
0.0
 10
-10.0967737847
 20
-22.1912184703
 30
0.0
 10
-10.0602781946
 20
-22.168257948
 30
0.0
  0
SPLINE
  5
4CD
100
AcDbEntity
  8
RACCORDO
100
AcDbSpline
 62
250
  6
CONTINUOUS
 70
0
 71
3
 72
12
 73
8
 74
0
 42
0.0000001
 43
0.0000001
 44
0.0000000001
 40
0.0
 40
0.0
 40
0.0
 40
0.0
 40
0.2881206313
 40
0.5467486109
 40
0.7803619228
 40
0.8911530333
 40
1.0
 40
1.0
 40
1.0
 40
1.0
 10
-8.3945614872
 20
-19.0322216108
 30
0.0
 10
-8.4294430715
 20
-19.0120656288
 30
0.0
 10
-8.4927937081
 20
-18.9683514495
 30
0.0
 10
-8.5685766337
 20
-18.8885945729
 30
0.0
 10
-8.609501076
 20
-18.8133674674
 30
0.0
 10
-8.6257952438
 20
-18.7518716647
 30
0.0
 10
-8.6287130587
 20
-18.7211289231
 30
0.0
 10
-8.6288755644
 20
-18.7059103148
 30
0.0
  0
SPLINE
  5
4CE
100
AcDbEntity
  8
RACCORDO
100
AcDbSpline
 62
250
  6
CONTINUOUS
 70
0
 71
3
 72
12
 73
8
 74
0
 42
0.0000001
 43
0.0000001
 44
0.0000000001
 40
0.0
 40
0.0
 40
0.0
 40
0.0
 40
0.2910622754
 40
0.5505543778
 40
0.7829378803
 40
0.8925376835
 40
1.0
 40
1.0
 40
1.0
 40
1.0
 10
-8.394561488
 20
-10.261489431
 30
0.0
 10
-8.4299040036
 20
-10.2410995166
 30
0.0
 10
-8.4939321603
 20
-10.1970847747
 30
0.0
 10
-8.570332931
 20
-10.1170123983
 30
0.0
 10
-8.611134145
 20
-10.0416371773
 30
0.0
 10
-8.626678764
 20
-9.9803088254
 30
0.0
 10
-8.6290352999
 20
-9.9497881703
 30
0.0
 10
-8.6288767797
 20
-9.9347244325
 30
0.0
  0
SPLINE
  5
4CF
100
AcDbEntity
  8
RACCORDO
100
AcDbSpline
 62
250
  6
CONTINUOUS
 70
0
 71
3
 72
20
 73
16
 74
0
 42
0.0000001
 43
0.0000001
 44
0.0000000001
 40
0.0
 40
0.0
 40
0.0
 40
0.0
 40
0.2279198809
 40
0.4284631366
 40
0.6003491242
 40
0.7425144917
 40
0.8021654358
 40
0.8540668173
 40
0.8981419126
 40
0.9343247269
 40
0.9625661369
 40
0.982841747
 40
0.9951705364
 40
0.998427013
 40
1.0
 40
1.0
 40
1.0
 40
1.0
 10
-10.2081711627
 20
-3.7881654071
 30
0.0
 10
-10.2184516167
 20
-3.794105412
 30
0.0
 10
-10.237763801
 20
-3.8052960145
 30
0.0
 10
-10.2647714513
 20
-3.8210653044
 30
0.0
 10
-10.2878621474
 20
-3.8346830784
 30
0.0
 10
-10.3045715905
 20
-3.8446720302
 30
0.0
 10
-10.3158662418
 20
-3.8515370766
 30
0.0
 10
-10.3227678192
 20
-3.85578988
 30
0.0
 10
-10.3286004096
 20
-3.859450969
 30
0.0
 10
-10.3333500114
 20
-3.8625065873
 30
0.0
 10
-10.3370258497
 20
-3.8649696604
 30
0.0
 10
-10.3395907944
 20
-3.8667853413
 30
0.0
 10
-10.3410800825
 20
-3.867995695
 30
0.0
 10
-10.3416679177
 20
-3.8686060794
 30
0.0
 10
-10.3417932131
 20
-3.8688841392
 30
0.0
 10
-10.34175339
 20
-3.8689557539
 30
0.0
  0
SPLINE
  5
4D0
100
AcDbEntity
  8
RACCORDO
100
AcDbSpline
 62
250
  6
CONTINUOUS
 70
0
 71
3
 72
19
 73
15
 74
0
 42
0.0000001
 43
0.0000001
 44
0.0000000001
 40
0.0
 40
0.0
 40
0.0
 40
0.0
 40
0.2273284276
 40
0.4274695812
 40
0.5991172241
 40
0.7411706568
 40
0.8008079371
 40
0.8527231846
 40
0.896839728
 40
0.9330940887
 40
0.9614492636
 40
0.9818985021
 40
0.9945329429
 40
1.0
 40
1.0
 40
1.0
 40
1.0
 10
-14.7186786344
 20
4.4124442465
 30
0.0
 10
-14.7292967027
 20
4.4063141991
 30
0.0
 10
-14.7492408995
 20
4.3947489454
 30
0.0
 10
-14.7771109468
 20
4.3783977351
 30
0.0
 10
-14.800919453
 20
4.364214236
 30
0.0
 10
-14.8181237627
 20
4.3537505986
 30
0.0
 10
-14.8297288918
 20
4.3465131556
 30
0.0
 10
-14.836812239
 20
4.3420015528
 30
0.0
 10
-14.8427778069
 20
4.3380997466
 30
0.0
 10
-14.8476394051
 20
4.3347872332
 30
0.0
 10
-14.851332604
 20
4.3321465003
 30
0.0
 10
-14.8540067557
 20
4.3300028108
 30
0.0
 10
-14.8553913764
 20
4.3287417295
 30
0.0
 10
-14.8561092568
 20
4.3277198353
 30
0.0
 10
-14.8559681158
 20
4.3274609549
 30
0.0
  0
SPLINE
  5
4D1
100
AcDbEntity
  8
RACCORDO
100
AcDbSpline
 62
250
  6
CONTINUOUS
 70
0
 71
3
 72
14
 73
10
 74
0
 42
0.0000001
 43
0.0000001
 44
0.0000000001
 40
0.0
 40
0.0
 40
0.0
 40
0.0
 40
0.2735139677
 40
0.4065719273
 40
0.5349892733
 40
0.6580522864
 40
0.7758221462
 40
0.8892270197
 40
1.0
 40
1.0
 40
1.0
 40
1.0
 10
-18.3755482243
 20
6.5238749229
 30
0.0
 10
-18.326076327
 20
6.4329791248
 30
0.0
 10
-18.2306757897
 20
6.30795179
 30
0.0
 10
-18.0719010648
 20
6.1812772164
 30
0.0
 10
-17.9434977734
 20
6.111095491
 30
0.0
 10
-17.8096782473
 20
6.0679610635
 30
0.0
 10
-17.675344168
 20
6.0537182061
 30
0.0
 10
-17.5457690665
 20
6.0692389098
 30
0.0
 10
-17.4654572739
 20
6.0994973421
 30
0.0
 10
-17.4283650953
 20
6.1190112561
 30
0.0
  0
SPLINE
  5
4D2
100
AcDbEntity
  8
RACCORDO
100
AcDbSpline
 62
250
  6
CONTINUOUS
 70
0
 71
3
 72
15
 73
11
 74
0
 42
0.0000001
 43
0.0000001
 44
0.0000000001
 40
0.0
 40
0.0
 40
0.0
 40
0.0
 40
0.1374803501
 40
0.2733316092
 40
0.4059321322
 40
0.5340489207
 40
0.6570283897
 40
0.7749543607
 40
0.8887274782
 40
1.0
 40
1.0
 40
1.0
 40
1.0
 10
-23.2208429236
 20
3.7251881799
 30
0.0
 10
-23.195660703
 20
3.6798829697
 30
0.0
 10
-23.1384519047
 20
3.5935679953
 30
0.0
 10
-23.0344777111
 20
3.4804113661
 30
0.0
 10
-22.9161783081
 20
3.387814595
 30
0.0
 10
-22.7878702768
 20
3.3193167898
 30
0.0
 10
-22.6542123558
 20
3.2775890702
 30
0.0
 10
-22.5200960423
 20
3.2644540742
 30
0.0
 10
-22.3907083012
 20
3.2806936701
 30
0.0
 10
-22.3104665622
 20
3.3111325987
 30
0.0
 10
-22.2733447066
 20
3.3306768169
 30
0.0
  0
SPLINE
  5
4D3
100
AcDbEntity
  8
RACCORDO
100
AcDbSpline
 62
250
  6
CONTINUOUS
 70
0
 71
3
 72
15
 73
11
 74
0
 42
0.0000001
 43
0.0000001
 44
0.0000000001
 40
0.0
 40
0.0
 40
0.0
 40
0.0
 40
0.1139432463
 40
0.2368051098
 40
0.3661085335
 40
0.4988434418
 40
0.6317382278
 40
0.7615094408
 40
0.8851105145
 40
1.0
 40
1.0
 40
1.0
 40
1.0
 10
-25.2215021972
 20
-0.5458247558
 30
0.0
 10
-25.1835650687
 20
-0.567746795
 30
0.0
 10
-25.1007696117
 20
-0.606628979
 30
0.0
 10
-24.9660545717
 20
-0.6486899519
 30
0.0
 10
-24.8201682874
 20
-0.6755919787
 30
0.0
 10
-24.6683803877
 20
-0.6863514432
 30
0.0
 10
-24.5161416084
 20
-0.6805912362
 30
0.0
 10
-24.3689205871
 20
-0.65850939
 30
0.0
 10
-24.2320379726
 20
-0.620916036
 30
0.0
 10
-24.1472916239
 20
-0.5848329817
 30
0.0
 10
-24.1082242591
 20
-0.5642038559
 30
0.0
  0
SPLINE
  5
4D4
100
AcDbEntity
  8
RACCORDO
100
AcDbSpline
 62
250
  6
CONTINUOUS
 70
0
 71
3
 72
15
 73
11
 74
0
 42
0.0000001
 43
0.0000001
 44
0.0000000001
 40
0.0
 40
0.0
 40
0.0
 40
0.0
 40
0.1136140545
 40
0.2360247654
 40
0.3648847058
 40
0.4972958041
 40
0.6300816572
 40
0.7600374083
 40
0.8841773952
 40
1.0
 40
1.0
 40
1.0
 40
1.0
 10
-25.2215021979
 20
-9.3165569364
 30
0.0
 10
-25.183600103
 20
-9.3384239704
 30
0.0
 10
-25.1008170098
 20
-9.3770135482
 30
0.0
 10
-24.9660364694
 20
-9.4180846755
 30
0.0
 10
-24.8200930938
 20
-9.4434344055
 30
0.0
 10
-24.6682559647
 20
-9.4521388541
 30
0.0
 10
-24.5159726783
 20
-9.4438971891
 30
0.0
 10
-24.3687114804
 20
-9.4189953261
 30
0.0
 10
-24.2317945537
 20
-9.3783432188
 30
0.0
 10
-24.1472055201
 20
-9.3401142633
 30
0.0
 10
-24.108224265
 20
-9.318426419
 30
0.0
  0
SPLINE
  5
4D5
100
AcDbEntity
  8
RACCORDO
100
AcDbSpline
 62
250
  6
CONTINUOUS
 70
0
 71
3
 72
11
 73
7
 74
0
 42
0.0000001
 43
0.0000001
 44
0.0000000001
 40
0.0
 40
0.0
 40
0.0
 40
0.0
 40
0.199603302
 40
0.4593025535
 40
0.7401438651
 40
1.0
 40
1.0
 40
1.0
 40
1.0
 10
-23.220842923
 20
-15.6818808655
 30
0.0
 10
-23.1572811646
 20
-15.6451536417
 30
0.0
 10
-23.0116032265
 20
-15.5596358034
 30
0.0
 10
-22.777549422
 20
-15.4206522443
 30
0.0
 10
-22.5250853809
 20
-15.269274592
 30
0.0
 10
-22.3549530724
 20
-15.1663215159
 30
0.0
 10
-22.2733447025
 20
-15.1165864073
 30
0.0
  0
SPLINE
  5
4D6
100
AcDbEntity
  8
RACCORDO
100
AcDbSpline
 62
250
  6
CONTINUOUS
 70
0
 71
3
 72
12
 73
8
 74
0
 42
0.0000001
 43
0.0000001
 44
0.0000000001
 40
0.0
 40
0.0
 40
0.0
 40
0.0
 40
0.0892480134
 40
0.19817975
 40
0.457778958
 40
0.7393246805
 40
1.0
 40
1.0
 40
1.0
 40
1.0
 10
-18.3755482303
 20
-23.6891885735
 30
0.0
 10
-18.346995446
 20
-23.6727045847
 30
0.0
 10
-18.2838035442
 20
-23.6357358295
 30
0.0
 10
-18.1383783784
 20
-23.5494235665
 30
0.0
 10
-17.9327461726
 20
-23.4253770803
 30
0.0
 10
-17.6801002972
 20
-23.2707575744
 30
0.0
 10
-17.5099263369
 20
-23.1651002337
 30
0.0
 10
-17.4283651071
 20
-23.1139057008
 30
0.0
  0
SPLINE
  5
4D7
100
AcDbEntity
  8
RACCORDO
100
AcDbSpline
 62
250
  6
CONTINUOUS
 70
0
 71
3
 72
13
 73
9
 74
0
 42
0.0000001
 43
0.0000001
 44
0.0000000001
 40
0.0
 40
0.0
 40
0.0
 40
0.0
 40
0.2691875711
 40
0.5277324477
 40
0.6512838346
 40
0.7705632177
 40
0.8863382721
 40
1.0
 40
1.0
 40
1.0
 40
1.0
 10
-14.7186786285
 20
-25.800619243
 30
0.0
 10
-14.7727101707
 20
-25.7122422778
 30
0.0
 10
-14.851327462
 20
-25.5205308228
 30
0.0
 10
-14.8648004925
 20
-25.264543242
 30
0.0
 10
-14.8196078038
 20
-25.0757934333
 30
0.0
 10
-14.7604034038
 20
-24.9499606165
 30
0.0
 10
-14.6775403407
 20
-24.8430339827
 30
0.0
 10
-14.6081282025
 20
-24.7869344486
 30
0.0
 10
-14.5711007725
 20
-24.7636543041
 30
0.0
  0
SPLINE
  5
4D8
100
AcDbEntity
  8
RACCORDO
100
AcDbSpline
 62
250
  6
CONTINUOUS
 70
0
 71
3
 72
11
 73
7
 74
0
 42
0.0000001
 43
0.0000001
 44
0.0000000001
 40
0.0
 40
0.0
 40
0.0
 40
0.0
 40
0.2918446198
 40
0.5517062546
 40
0.784045086
 40
1.0
 40
1.0
 40
1.0
 40
1.0
 10
-1.4088566417
 20
-30.3848571557
 30
0.0
 10
-1.4088566417
 20
-30.3976443336
 30
0.0
 10
-1.410764428
 20
-30.4219006729
 30
0.0
 10
-1.4205409289
 20
-30.4551533138
 30
0.0
 10
-1.4369939943
 20
-30.4819770442
 30
0.0
 10
-1.452509139
 20
-30.4947665759
 30
0.0
 10
-1.4607734321
 20
-30.4993744178
 30
0.0
  0
SPLINE
  5
4D9
100
AcDbEntity
  8
RACCORDO
100
AcDbSpline
 62
250
  6
CONTINUOUS
 70
0
 71
3
 72
11
 73
7
 74
0
 42
0.0000001
 43
0.0000001
 44
0.0000000001
 40
0.0
 40
0.0
 40
0.0
 40
0.0
 40
0.2888207524
 40
0.5478499994
 40
0.7814394188
 40
1.0
 40
1.0
 40
1.0
 40
1.0
 10
-2.5925686673
 20
9.2886217364
 30
0.0
 10
-2.6038719994
 20
9.2949242098
 30
0.0
 10
-2.6263531255
 20
9.3051896156
 30
0.0
 10
-2.6608365375
 20
9.3128729803
 30
0.0
 10
-2.6931093229
 20
9.3114900521
 30
0.0
 10
-2.7124560007
 20
9.3041015128
 30
0.0
 10
-2.7208614756
 20
9.2990757191
 30
0.0
  0
SPLINE
  5
4DA
100
AcDbEntity
  8
RACCORDO
100
AcDbSpline
 62
250
  6
CONTINUOUS
 70
0
 71
3
 72
13
 73
9
 74
0
 42
0.0000001
 43
0.0000001
 44
0.0000000001
 40
0.0
 40
0.0
 40
0.0
 40
0.0
 40
0.11358612
 40
0.236481832
 40
0.4989076447
 40
0.7619304235
 40
0.8855240677
 40
1.0
 40
1.0
 40
1.0
 40
1.0
 10
-1.5825212343
 20
8.7054330074
 30
0.0
 10
-1.5706128956
 20
8.6983129853
 30
0.0
 10
-1.5471017847
 20
8.6812908494
 30
0.0
 10
-1.5031093482
 20
8.6389111611
 30
0.0
 10
-1.4566898419
 20
8.573849289
 30
0.0
 10
-1.4250234062
 20
8.5003835731
 30
0.0
 10
-1.411371835
 20
8.4405726415
 30
0.0
 10
-1.4088566417
 20
8.4114642365
 30
0.0
 10
-1.4088566417
 20
8.3974809919
 30
0.0
  0
SPLINE
  5
4DB
100
AcDbEntity
  8
RACCORDO
100
AcDbSpline
 62
250
  6
CONTINUOUS
 70
0
 71
3
 72
13
 73
9
 74
0
 42
0.0000001
 43
0.0000001
 44
0.0000000001
 40
0.0
 40
0.0
 40
0.0
 40
0.0
 40
0.1144759323
 40
0.2380695765
 40
0.5010923553
 40
0.763518168
 40
0.88641388
 40
1.0
 40
1.0
 40
1.0
 40
1.0
 10
-17.5308912527
 20
17.7061417198
 30
0.0
 10
-17.5308912527
 20
17.7201249644
 30
0.0
 10
-17.533406446
 20
17.7492333694
 30
0.0
 10
-17.5470580173
 20
17.8090443009
 30
0.0
 10
-17.5787244529
 20
17.8825100168
 30
0.0
 10
-17.6251439593
 20
17.9475718889
 30
0.0
 10
-17.6691363957
 20
17.9899515773
 30
0.0
 10
-17.6926475067
 20
18.0069737131
 30
0.0
 10
-17.7045558454
 20
18.0140937353
 30
0.0
  0
SPLINE
  5
4DC
100
AcDbEntity
  8
RACCORDO
100
AcDbSpline
 62
250
  6
CONTINUOUS
 70
0
 71
3
 72
12
 73
8
 74
0
 42
0.0000001
 43
0.0000001
 44
0.0000000001
 40
0.0
 40
0.0
 40
0.0
 40
0.0
 40
0.2381529817
 40
0.5007934545
 40
0.7628413407
 40
0.8858899771
 40
1.0
 40
1.0
 40
1.0
 40
1.0
 10
-5.1513269518
 20
4.8957725474
 30
0.0
 10
-5.1765052722
 20
4.8817337053
 30
0.0
 10
-5.2346066043
 20
4.8613356934
 30
0.0
 10
-5.3270618423
 20
4.8518395432
 30
0.0
 10
-5.4057613553
 20
4.8606930593
 30
0.0
 10
-5.4636698359
 20
4.8784269397
 30
0.0
 10
-5.4898063014
 20
4.8906316721
 30
0.0
 10
-5.5017682398
 20
4.8975383454
 30
0.0
  0
SPLINE
  5
4DD
100
AcDbEntity
  8
RACCORDO
100
AcDbSpline
 62
250
  6
CONTINUOUS
 70
0
 71
3
 72
13
 73
9
 74
0
 42
0.0000001
 43
0.0000001
 44
0.0000000001
 40
0.0
 40
0.0
 40
0.0
 40
0.0
 40
0.1138132808
 40
0.2370251806
 40
0.5000061691
 40
0.7629837771
 40
0.8861917156
 40
1.0
 40
1.0
 40
1.0
 40
1.0
 10
-5.3280767232
 20
5.2019121313
 30
0.0
 10
-5.3161625776
 20
5.1947844484
 30
0.0
 10
-5.292610866
 20
5.1777812294
 30
0.0
 10
-5.2484044199
 20
5.135559087
 30
0.0
 10
-5.2014736777
 20
5.0709111175
 30
0.0
 10
-5.1689523244
 20
4.9979443648
 30
0.0
 10
-5.1544909481
 20
4.9385507155
 30
0.0
 10
-5.1515422375
 20
4.9096537383
 30
0.0
 10
-5.1513269518
 20
4.8957725474
 30
0.0
  0
SPLINE
  5
4DE
100
AcDbEntity
  8
RACCORDO
100
AcDbSpline
 62
250
  6
CONTINUOUS
 70
0
 71
3
 72
12
 73
8
 74
0
 42
0.0000001
 43
0.0000001
 44
0.0000000001
 40
0.0
 40
0.0
 40
0.0
 40
0.0
 40
0.1141063549
 40
0.2371528168
 40
0.4992003916
 40
0.7618438909
 40
1.0
 40
1.0
 40
1.0
 40
1.0
 10
-5.5017682398
 20
4.8975383454
 30
0.0
 10
-5.5017682398
 20
4.9113504875
 30
0.0
 10
-5.4992688799
 20
4.9400867193
 30
0.0
 10
-5.4856715192
 20
4.9991024197
 30
0.0
 10
-5.4539884901
 20
5.0716840334
 30
0.0
 10
-5.3995377059
 20
5.1470050002
 30
0.0
 10
-5.352823232
 20
5.1871250483
 30
0.0
 10
-5.3280767232
 20
5.2019121313
 30
0.0
  0
SPLINE
  5
4DF
100
AcDbEntity
  8
RACCORDO
100
AcDbSpline
 62
250
  6
CONTINUOUS
 70
0
 71
3
 72
12
 73
8
 74
0
 42
0.0000001
 43
0.0000001
 44
0.0000000001
 40
0.0
 40
0.0
 40
0.0
 40
0.0
 40
0.2381560513
 40
0.5007995663
 40
0.7628471629
 40
0.8858936349
 40
1.0
 40
1.0
 40
1.0
 40
1.0
 10
-22.3317500257
 20
15.0196199901
 30
0.0
 10
-22.3564965285
 20
15.0048329106
 30
0.0
 10
-22.4032109994
 20
14.9647128677
 30
0.0
 10
-22.4576617857
 20
14.8893919053
 30
0.0
 10
-22.4893448192
 20
14.8168102869
 30
0.0
 10
-22.5029421819
 20
14.7577945818
 30
0.0
 10
-22.5054415422
 20
14.7290583475
 30
0.0
 10
-22.5054415422
 20
14.7152462042
 30
0.0
  0
SPLINE
  5
4E0
100
AcDbEntity
  8
RACCORDO
100
AcDbSpline
 62
250
  6
CONTINUOUS
 70
0
 71
3
 72
11
 73
7
 74
0
 42
0.0000001
 43
0.0000001
 44
0.0000000001
 40
0.0
 40
0.0
 40
0.0
 40
0.0
 40
0.289796976
 40
0.5490417684
 40
0.7822230995
 40
1.0
 40
1.0
 40
1.0
 40
1.0
 10
-22.5054415422
 20
14.7152462042
 30
0.0
 10
-22.5164153043
 20
14.7215823169
 30
0.0
 10
-22.5363208649
 20
14.7352853009
 30
0.0
 10
-22.5600985738
 20
14.7602925362
 30
0.0
 10
-22.5751505177
 20
14.7879405724
 30
0.0
 10
-22.5786646337
 20
14.8077923769
 30
0.0
 10
-22.5786647179
 20
14.8173148525
 30
0.0
  0
SPLINE
  5
4E1
100
AcDbEntity
  8
RACCORDO
100
AcDbSpline
 62
250
  6
CONTINUOUS
 70
0
 71
3
 72
11
 73
7
 74
0
 42
0.0000001
 43
0.0000001
 44
0.0000000001
 40
0.0
 40
0.0
 40
0.0
 40
0.0
 40
0.2898025767
 40
0.5490486331
 40
0.7822276207
 40
1.0
 40
1.0
 40
1.0
 40
1.0
 10
-22.5054415422
 20
-21.2371027642
 30
0.0
 10
-22.5054415422
 20
-21.2497729036
 30
0.0
 10
-22.5035282359
 20
-21.2738601981
 30
0.0
 10
-22.4937628305
 20
-21.3069520084
 30
0.0
 10
-22.4773484128
 20
-21.3338082535
 30
0.0
 10
-22.4619160637
 20
-21.3467760716
 30
0.0
 10
-22.4536708224
 20
-21.3515368677
 30
0.0
  0
SPLINE
  5
4E2
100
AcDbEntity
  8
RACCORDO
100
AcDbSpline
 62
250
  6
CONTINUOUS
 70
0
 71
3
 72
12
 73
8
 74
0
 42
0.0000001
 43
0.0000001
 44
0.0000000001
 40
0.0
 40
0.0
 40
0.0
 40
0.0
 40
0.1141100921
 40
0.2371587305
 40
0.4992066248
 40
0.7618470942
 40
1.0
 40
1.0
 40
1.0
 40
1.0
 10
-5.5017682398
 20
-31.054810623
 30
0.0
 10
-5.4898062941
 20
-31.0617173005
 30
0.0
 10
-5.4636698202
 20
-31.0739220357
 30
0.0
 10
-5.405761329
 20
-31.0916559143
 30
0.0
 10
-5.3270618146
 20
-31.1005094255
 30
0.0
 10
-5.2346065857
 20
-31.0910132697
 30
0.0
 10
-5.1765052642
 20
-31.0706152586
 30
0.0
 10
-5.1513269518
 20
-31.056576421
 30
0.0
  0
SPLINE
  5
4E3
100
AcDbEntity
  8
RACCORDO
100
AcDbSpline
 62
250
  6
CONTINUOUS
 70
0
 71
3
 72
11
 73
7
 74
0
 42
0.0000001
 43
0.0000001
 44
0.0000000001
 40
0.0
 40
0.0
 40
0.0
 40
0.0
 40
0.2908075283
 40
0.5504319332
 40
0.78320361
 40
1.0
 40
1.0
 40
1.0
 40
1.0
 10
-5.1513269518
 20
-31.056576421
 30
0.0
 10
-5.1515259321
 20
-31.0696281609
 30
0.0
 10
-5.153879688
 20
-31.0943883034
 30
0.0
 10
-5.1644878515
 20
-31.1282372026
 30
0.0
 10
-5.1818634563
 20
-31.1554450597
 30
0.0
 10
-5.198014477
 20
-31.1683146909
 30
0.0
 10
-5.2065850619
 20
-31.1729234694
 30
0.0
  0
SPLINE
  5
4E4
100
AcDbEntity
  8
RACCORDO
100
AcDbSpline
 62
7
  6
CONTINUOUS
 70
0
 71
3
 72
9
 73
5
 74
0
 42
0.0000001
 43
0.0000001
 44
0.0000000001
 40
0.0
 40
0.0
 40
0.0
 40
0.0
 40
0.4964662123
 40
1.0
 40
1.0
 40
1.0
 40
1.0
 10
-1.4088566417
 20
-29.0439969992
 30
0.0
 10
-1.4548975482
 20
-29.0953681952
 30
0.0
 10
-1.5552751666
 20
-29.1922410339
 30
0.0
 10
-1.6706656553
 20
-29.2714195813
 30
0.0
 10
-1.7322859728
 20
-29.3045580033
 30
0.0
  0
SPLINE
  5
4E5
100
AcDbEntity
  8
RACCORDO
100
AcDbSpline
 62
7
  6
CONTINUOUS
 70
0
 71
3
 72
12
 73
8
 74
0
 42
0.0000001
 43
0.0000001
 44
0.0000000001
 40
0.0
 40
0.0
 40
0.0
 40
0.0
 40
0.1464436286
 40
0.2890654277
 40
0.5559693413
 40
0.7937057804
 40
1.0
 40
1.0
 40
1.0
 40
1.0
 10
-2.0484047231
 20
7.0955473614
 30
0.0
 10
-2.0171270208
 20
7.096440669
 30
0.0
 10
-1.9553160426
 20
7.0957537574
 30
0.0
 10
-1.836703236
 20
7.0889238179
 30
0.0
 10
-1.6989982446
 20
7.0758382847
 30
0.0
 10
-1.5477802287
 20
7.0616360741
 30
0.0
 10
-1.4529353025
 20
7.0566481516
 30
0.0
 10
-1.4088566417
 20
7.0566208354
 30
0.0
  0
SPLINE
  5
4E6
100
AcDbEntity
  8
RACCORDO
100
AcDbSpline
 62
7
  6
CONTINUOUS
 70
0
 71
3
 72
10
 73
6
 74
0
 42
0.0000001
 43
0.0000001
 44
0.0000000001
 40
0.0
 40
0.0
 40
0.0
 40
0.0
 40
0.5073371655
 40
0.7567857723
 40
1.0
 40
1.0
 40
1.0
 40
1.0
 10
-5.1513269518
 20
2.4733568361
 30
0.0
 10
-5.1738161097
 20
2.4352916011
 30
0.0
 10
-5.2135522088
 20
2.3817094905
 30
0.0
 10
-5.277436517
 20
2.3221898054
 30
0.0
 10
-5.312974024
 20
2.2976564752
 30
0.0
 10
-5.3314859699
 20
2.2873346888
 30
0.0
  0
SPLINE
  5
4E7
100
AcDbEntity
  8
RACCORDO
100
AcDbSpline
 62
7
  6
CONTINUOUS
 70
0
 71
3
 72
10
 73
6
 74
0
 42
0.0000001
 43
0.0000001
 44
0.0000000001
 40
0.0
 40
0.0
 40
0.0
 40
0.0
 40
0.5073371655
 40
0.7567857723
 40
1.0
 40
1.0
 40
1.0
 40
1.0
 10
-4.7916022639
 20
2.673930903
 30
0.0
 10
-4.8140914217
 20
2.635865668
 30
0.0
 10
-4.8538275209
 20
2.5822835574
 30
0.0
 10
-4.9177118291
 20
2.5227638723
 30
0.0
 10
-4.953249336
 20
2.4982305421
 30
0.0
 10
-4.9717612819
 20
2.4879087557
 30
0.0
  0
SPLINE
  5
4E8
100
AcDbEntity
  8
RACCORDO
100
AcDbSpline
 62
7
  6
CONTINUOUS
 70
0
 71
3
 72
11
 73
7
 74
0
 42
0.0000001
 43
0.0000001
 44
0.0000000001
 40
0.0
 40
0.0
 40
0.0
 40
0.0
 40
0.1990832288
 40
0.4482612663
 40
0.7304380872
 40
1.0
 40
1.0
 40
1.0
 40
1.0
 10
-4.7916022639
 20
1.8903032184
 30
0.0
 10
-4.815743146
 20
1.8998352347
 30
0.0
 10
-4.8694387457
 20
1.9229586294
 30
0.0
 10
-4.9556367367
 20
1.9634607935
 30
0.0
 10
-5.0487646315
 20
2.0107073604
 30
0.0
 10
-5.111832974
 20
2.045368376
 30
0.0
 10
-5.1420435518
 20
2.0633224366
 30
0.0
  0
SPLINE
  5
4E9
100
AcDbEntity
  8
RACCORDO
100
AcDbSpline
 62
250
  6
CONTINUOUS
 70
0
 71
3
 72
13
 73
9
 74
0
 42
0.0000001
 43
0.0000001
 44
0.0000000001
 40
0.0
 40
0.0
 40
0.0
 40
0.0
 40
0.1077514661
 40
0.2274839851
 40
0.4900182361
 40
0.7579193626
 40
0.884006594
 40
1.0
 40
1.0
 40
1.0
 40
1.0
 10
-7.3458044729
 20
-0.0449699279
 30
0.0
 10
-7.3479779663
 20
-0.0321887795
 30
0.0
 10
-7.3548472472
 20
-0.0055778351
 30
0.0
 10
-7.3765862079
 20
0.049337731
 30
0.0
 10
-7.4166893989
 20
0.1170869267
 30
0.0
 10
-7.4681496334
 20
0.1776022249
 30
0.0
 10
-7.5142824611
 20
0.2181945379
 30
0.0
 10
-7.538202696
 20
0.2349697367
 30
0.0
 10
-7.5501660165
 20
0.2421570483
 30
0.0
  0
SPLINE
  5
4EA
100
AcDbEntity
  8
RACCORDO
100
AcDbSpline
 62
250
  6
CONTINUOUS
 70
0
 71
3
 72
13
 73
9
 74
0
 42
0.0000001
 43
0.0000001
 44
0.0000000001
 40
0.0
 40
0.0
 40
0.0
 40
0.0
 40
0.1134316482
 40
0.2362380258
 40
0.4986254749
 40
0.7617609831
 40
0.8854446952
 40
1.0
 40
1.0
 40
1.0
 40
1.0
 10
-7.7912732156
 20
-0.8722469567
 30
0.0
 10
-7.8034657256
 20
-0.8784988025
 30
0.0
 10
-7.8299949301
 20
-0.8893597233
 30
0.0
 10
-7.8884386215
 20
-0.9044641475
 30
0.0
 10
-7.9672092985
 20
-0.9103362476
 30
0.0
 10
-8.045613747
 20
-0.8999873533
 30
0.0
 10
-8.1034585158
 20
-0.8816131302
 30
0.0
 10
-8.1295976148
 20
-0.8692764226
 30
0.0
 10
-8.1415769019
 20
-0.8623498396
 30
0.0
  0
SPLINE
  5
4EB
100
AcDbEntity
  8
RACCORDO
100
AcDbSpline
 62
250
  6
CONTINUOUS
 70
0
 71
3
 72
11
 73
7
 74
0
 42
0.0000001
 43
0.0000001
 44
0.0000000001
 40
0.0
 40
0.0
 40
0.0
 40
0.0
 40
0.2406269157
 40
0.5035368503
 40
0.764519369
 40
1.0
 40
1.0
 40
1.0
 40
1.0
 10
-7.7912732156
 20
-28.2325014177
 30
0.0
 10
-7.8162674038
 20
-28.2475577098
 30
0.0
 10
-7.8740672976
 20
-28.2700839342
 30
0.0
 10
-7.9667235085
 20
-28.2821491965
 30
0.0
 10
-8.0591352128
 20
-28.2735194553
 30
0.0
 10
-8.1168399694
 20
-28.2529719182
 30
0.0
 10
-8.1415768683
 20
-28.238708019
 30
0.0
  0
SPLINE
  5
4EC
100
AcDbEntity
  8
RACCORDO
100
AcDbSpline
 62
250
  6
CONTINUOUS
 70
0
 71
3
 72
11
 73
7
 74
0
 42
0.0000001
 43
0.0000001
 44
0.0000000001
 40
0.0
 40
0.0
 40
0.0
 40
0.0
 40
0.2835151163
 40
0.5416504414
 40
0.7774899264
 40
1.0
 40
1.0
 40
1.0
 40
1.0
 10
-7.3458044729
 20
-28.5630125565
 30
0.0
 10
-7.3480344958
 20
-28.5786129418
 30
0.0
 10
-7.354993885
 20
-28.608152369
 30
0.0
 10
-7.3741767476
 20
-28.6473575685
 30
0.0
 10
-7.4010322519
 20
-28.6775367041
 30
0.0
 10
-7.4236701422
 20
-28.6904258508
 30
0.0
 10
-7.4353164726
 20
-28.6945889767
 30
0.0
  0
SPLINE
  5
4ED
100
AcDbEntity
  8
RACCORDO
100
AcDbSpline
 62
7
  6
CONTINUOUS
 70
0
 71
3
 72
11
 73
7
 74
0
 42
0.0000001
 43
0.0000001
 44
0.0000000001
 40
0.0
 40
0.0
 40
0.0
 40
0.0
 40
0.254431092
 40
0.5079556503
 40
0.7576994442
 40
1.0
 40
1.0
 40
1.0
 40
1.0
 10
-4.7916022639
 20
-27.6499589581
 30
0.0
 10
-4.8043763413
 20
-27.66924785
 30
0.0
 10
-4.8324450957
 20
-27.7061251886
 30
0.0
 10
-4.8813004092
 20
-27.7550189459
 30
0.0
 10
-4.9359727437
 20
-27.7955390638
 30
0.0
 10
-4.976385959
 20
-27.8155923933
 30
0.0
 10
-4.9971324444
 20
-27.8230086708
 30
0.0
  0
SPLINE
  5
4EE
100
AcDbEntity
  8
RACCORDO
100
AcDbSpline
 62
250
  6
CONTINUOUS
 70
0
 71
3
 72
18
 73
14
 74
0
 42
0.0000001
 43
0.0000001
 44
0.0000000001
 40
0.0
 40
0.0
 40
0.0
 40
0.0
 40
0.2283637025
 40
0.4288474633
 40
0.6003721598
 40
0.7420501256
 40
0.853144477
 40
0.897047275
 40
0.9331202816
 40
0.9613369693
 40
0.9817109639
 40
0.9943529835
 40
1.0
 40
1.0
 40
1.0
 40
1.0
 10
-18.4860286551
 20
-23.7294726939
 30
0.0
 10
-18.4970230837
 20
-23.7357867528
 30
0.0
 10
-18.5176937366
 20
-23.7476023877
 30
0.0
 10
-18.5467208926
 20
-23.7639866338
 30
0.0
 10
-18.5716571781
 20
-23.7778286195
 30
0.0
 10
-18.5923646687
 20
-23.789054736
 30
0.0
 10
-18.6069641152
 20
-23.7966940931
 30
0.0
 10
-18.6164555417
 20
-23.8014154903
 30
0.0
 10
-18.6219027769
 20
-23.803986245
 30
0.0
 10
-18.6261624932
 20
-23.805873199
 30
0.0
 10
-18.6294449079
 20
-23.8070922394
 30
0.0
 10
-18.6313208732
 20
-23.8076631509
 30
0.0
 10
-18.6325975196
 20
-23.8077079865
 30
0.0
 10
-18.6327611311
 20
-23.807440547
 30
0.0
  0
SPLINE
  5
4EF
100
AcDbEntity
  8
RACCORDO
100
AcDbSpline
 62
250
  6
CONTINUOUS
 70
0
 71
3
 72
15
 73
11
 74
0
 42
0.0000001
 43
0.0000001
 44
0.0000000001
 40
0.0
 40
0.0
 40
0.0
 40
0.0
 40
0.1358704767
 40
0.2700323187
 40
0.4012154795
 40
0.5285112821
 40
0.6515168891
 40
0.7704409044
 40
0.8861335458
 40
1.0
 40
1.0
 40
1.0
 40
1.0
 10
-14.6086884912
 20
-25.968200312
 30
0.0
 10
-14.5754964149
 20
-26.0223848583
 30
0.0
 10
-14.5008283912
 20
-26.1250220398
 30
0.0
 10
-14.3669262072
 20
-26.2576107594
 30
0.0
 10
-14.2160288626
 20
-26.3638370083
 30
0.0
 10
-14.0534826754
 20
-26.4397461849
 30
0.0
 10
-13.8850368152
 20
-26.4824520954
 30
0.0
 10
-13.7167173524
 20
-26.4901263323
 30
0.0
 10
-13.5548462363
 20
-26.4622358247
 30
0.0
 10
-13.454844338
 20
-26.420216289
 30
0.0
 10
-13.4084514351
 20
-26.3940727853
 30
0.0
  0
SPLINE
  5
4F0
100
AcDbEntity
  8
RACCORDO
100
AcDbSpline
 62
250
  6
CONTINUOUS
 70
0
 71
3
 72
13
 73
9
 74
0
 42
0.0000001
 43
0.0000001
 44
0.0000000001
 40
0.0
 40
0.0
 40
0.0
 40
0.0
 40
0.2858549069
 40
0.5434745132
 40
0.6632864936
 40
0.7783204136
 40
0.8900001888
 40
1.0
 40
1.0
 40
1.0
 40
1.0
 10
-8.1415770238
 20
-28.2387048732
 30
0.0
 10
-8.1399075777
 20
-28.2859608271
 30
0.0
 10
-8.1295458191
 20
-28.3758240076
 30
0.0
 10
-8.0945097293
 20
-28.4809401007
 30
0.0
 10
-8.0540881102
 20
-28.5519323113
 30
0.0
 10
-8.0189155341
 20
-28.5974575726
 30
0.0
 10
-7.9784739036
 20
-28.6360633715
 30
0.0
 10
-7.9481390222
 20
-28.6569917413
 30
0.0
 10
-7.9323823898
 20
-28.6660922633
 30
0.0
  0
SPLINE
  5
4F1
100
AcDbEntity
  8
RACCORDO
100
AcDbSpline
 62
250
  6
CONTINUOUS
 70
0
 71
3
 72
15
 73
11
 74
0
 42
0.0000001
 43
0.0000001
 44
0.0000000001
 40
0.0
 40
0.0
 40
0.0
 40
0.0
 40
0.1203055451
 40
0.2465539115
 40
0.3765864848
 40
0.5080110365
 40
0.6383525717
 40
0.7651997623
 40
0.886355355
 40
1.0
 40
1.0
 40
1.0
 40
1.0
 10
-7.5501635881
 20
0.2421589026
 30
0.0
 10
-7.5912483095
 20
0.2107933749
 30
0.0
 10
-7.6713622695
 20
0.1410375455
 30
0.0
 10
-7.7810308579
 20
0.0216898329
 30
0.0
 10
-7.8807085889
 20
-0.1121302685
 30
0.0
 10
-7.9675687645
 20
-0.2566415652
 30
0.0
 10
-8.0391748095
 20
-0.4077811288
 30
0.0
 10
-8.0935107694
 20
-0.5613143685
 30
0.0
 10
-8.1290464448
 20
-0.7129036474
 30
0.0
 10
-8.1399189592
 20
-0.8135541598
 30
0.0
 10
-8.1415770238
 20
-0.8623531404
 30
0.0
  0
SPLINE
  5
4F2
100
AcDbEntity
  8
RACCORDO
100
AcDbSpline
 62
7
  6
CONTINUOUS
 70
0
 71
3
 72
15
 73
11
 74
0
 42
0.0000001
 43
0.0000001
 44
0.0000000001
 40
0.0
 40
0.0
 40
0.0
 40
0.0
 40
0.1291319063
 40
0.2642558771
 40
0.4012622095
 40
0.5363821325
 40
0.6663391896
 40
0.7883738941
 40
0.900206786
 40
1.0
 40
1.0
 40
1.0
 40
1.0
 10
-12.474766408
 20
3.0855595946
 30
0.0
 10
-12.5211141853
 20
3.0545362895
 30
0.0
 10
-12.6135844953
 20
2.9874573571
 30
0.0
 10
-12.7473087554
 20
2.8770705863
 30
0.0
 10
-12.8764035058
 20
2.7574643802
 30
0.0
 10
-12.9971634522
 20
2.6325418574
 30
0.0
 10
-13.1065383086
 20
2.5059664232
 30
0.0
 10
-13.2020814296
 20
2.3810768052
 30
0.0
 10
-13.2818307224
 20
2.2609135704
 30
0.0
 10
-13.3262005883
 20
2.1808251511
 30
0.0
 10
-13.3449864653
 20
2.1420336189
 30
0.0
  0
SPLINE
  5
4F3
100
AcDbEntity
  8
RACCORDO
100
AcDbSpline
 62
250
  6
CONTINUOUS
 70
0
 71
3
 72
12
 73
8
 74
0
 42
0.0000001
 43
0.0000001
 44
0.0000000001
 40
0.0
 40
0.0
 40
0.0
 40
0.0
 40
0.0943769256
 40
0.2066045035
 40
0.4677272633
 40
0.7455932325
 40
1.0
 40
1.0
 40
1.0
 40
1.0
 10
-14.6086884896
 20
4.4625317266
 30
0.0
 10
-14.5713620811
 20
4.4839778221
 30
0.0
 10
-14.4894198115
 20
4.5305268965
 30
0.0
 10
-14.3033052123
 20
4.6348281999
 30
0.0
 10
-14.0431947471
 20
4.7782837653
 30
0.0
 10
-13.725178431
 20
4.9510147056
 30
0.0
 10
-13.5110665875
 20
5.0654884276
 30
0.0
 10
-13.4084514392
 20
5.1196769002
 30
0.0
  0
SPLINE
  5
4F4
100
AcDbEntity
  8
RACCORDO
100
AcDbSpline
 62
7
  6
CONTINUOUS
 70
0
 71
3
 72
9
 73
5
 74
0
 42
0.0000001
 43
0.0000001
 44
0.0000000001
 40
0.0
 40
0.0
 40
0.0
 40
0.0
 40
0.2422552178
 40
1.0
 40
1.0
 40
1.0
 40
1.0
 10
-19.5626782667
 20
7.1780310694
 30
0.0
 10
-19.5530629326
 20
7.1868249367
 30
0.0
 10
-19.5122913454
 20
7.2219394153
 30
0.0
 10
-19.4676206946
 20
7.2524084762
 30
0.0
 10
-19.4325120626
 20
7.2731090369
 30
0.0
  0
SPLINE
  5
4F5
100
AcDbEntity
  8
RACCORDO
100
AcDbSpline
 62
250
  6
CONTINUOUS
 70
0
 71
3
 72
15
 73
11
 74
0
 42
0.0000001
 43
0.0000001
 44
0.0000000001
 40
0.0
 40
0.0
 40
0.0
 40
0.0
 40
0.1384078859
 40
0.2747305847
 40
0.4074107881
 40
0.5353139304
 40
0.6579089018
 40
0.7754139322
 40
0.8888591867
 40
1.0
 40
1.0
 40
1.0
 40
1.0
 10
-18.4860286567
 20
6.7012593429
 30
0.0
 10
-18.516422168
 20
6.7570259276
 30
0.0
 10
-18.5684297801
 20
6.8725040614
 30
0.0
 10
-18.6182029556
 20
7.0534728261
 30
0.0
 10
-18.6377486702
 20
7.235404646
 30
0.0
 10
-18.6262074707
 20
7.4117983036
 30
0.0
 10
-18.5837834229
 20
7.576356924
 30
0.0
 10
-18.511664349
 20
7.7230724023
 30
0.0
 10
-18.4122678428
 20
7.8462711029
 30
0.0
 10
-18.3296380713
 20
7.9097880006
 30
0.0
 10
-18.2857535237
 20
7.9357700016
 30
0.0
  0
SPLINE
  5
4F6
100
AcDbEntity
  8
RACCORDO
100
AcDbSpline
 62
7
  6
CONTINUOUS
 70
0
 71
3
 72
13
 73
9
 74
0
 42
0.0000001
 43
0.0000001
 44
0.0000000001
 40
0.0
 40
0.0
 40
0.0
 40
0.0
 40
0.2335525474
 40
0.3583645448
 40
0.4864069919
 40
0.6160995845
 40
0.745912102
 40
1.0
 40
1.0
 40
1.0
 40
1.0
 10
-19.5626782667
 20
7.1780310694
 30
0.0
 10
-19.6411772175
 20
7.106238519
 30
0.0
 10
-19.7398058801
 20
6.9710649371
 30
0.0
 10
-19.8288817141
 20
6.7679464704
 30
0.0
 10
-19.8771829786
 20
6.5999398812
 30
0.0
 10
-19.9045936478
 20
6.4251129154
 30
0.0
 10
-19.9133680138
 20
6.1910112212
 30
0.0
 10
-19.8896260137
 20
6.0155919775
 30
0.0
 10
-19.8599954187
 20
5.9037181363
 30
0.0
  0
SPLINE
  5
4F7
100
AcDbEntity
  8
RACCORDO
100
AcDbSpline
 62
250
  6
CONTINUOUS
 70
0
 71
3
 72
15
 73
11
 74
0
 42
0.0000001
 43
0.0000001
 44
0.0000000001
 40
0.0
 40
0.0
 40
0.0
 40
0.0
 40
0.1138903414
 40
0.2353961845
 40
0.3625959654
 40
0.4932024233
 40
0.6247258334
 40
0.7546240776
 40
0.8804493155
 40
1.0
 40
1.0
 40
1.0
 40
1.0
 10
-25.0546705297
 20
8.903055079
 30
0.0
 10
-25.0530540696
 20
8.9519167931
 30
0.0
 10
-25.042452993
 20
9.0527424273
 30
0.0
 10
-25.0078480711
 20
9.2048012223
 30
0.0
 10
-24.9549371269
 20
9.3590965775
 30
0.0
 10
-24.8852083398
 20
9.5112667934
 30
0.0
 10
-24.8006247892
 20
9.6570440209
 30
0.0
 10
-24.703560486
 20
9.7923281126
 30
0.0
 10
-24.5967692578
 20
9.9132963634
 30
0.0
 10
-24.5186339537
 20
9.9843583683
 30
0.0
 10
-24.4785417404
 20
10.0163922854
 30
0.0
  0
SPLINE
  5
4F8
100
AcDbEntity
  8
RACCORDO
100
AcDbSpline
 62
250
  6
CONTINUOUS
 70
0
 71
3
 72
9
 73
5
 74
0
 42
0.0000001
 43
0.0000001
 44
0.0000000001
 40
0.0
 40
0.0
 40
0.0
 40
0.0
 40
0.504845772
 40
1.0
 40
1.0
 40
1.0
 40
1.0
 10
-8.1415770226
 20
-0.8623531411
 30
0.0
 10
-8.2987192318
 20
-5.4673141854
 30
0.0
 10
-8.4588608208
 20
-14.5947019999
 30
0.0
 10
-8.3017923083
 20
-23.7223573664
 30
0.0
 10
-8.1415770226
 20
-28.2387048738
 30
0.0
  0
SPLINE
  5
4F9
100
AcDbEntity
  8
RACCORDO
100
AcDbSpline
 62
250
  6
CONTINUOUS
 70
0
 71
3
 72
22
 73
18
 74
0
 42
0.0000001
 43
0.0000001
 44
0.0000000001
 40
0.0
 40
0.0
 40
0.0
 40
0.0
 40
0.0628699194
 40
0.129598015
 40
0.199473562
 40
0.2716255385
 40
0.4186634212
 40
0.4916017296
 40
0.5627491701
 40
0.6311748521
 40
0.6960792976
 40
0.7568521205
 40
0.813140453
 40
0.864930969
 40
0.9126408829
 40
0.9571915377
 40
1.0
 40
1.0
 40
1.0
 40
1.0
 10
-17.5308912527
 20
17.7061417198
 30
0.0
 10
-17.5658435457
 20
17.6866531393
 30
0.0
 10
-17.6405114286
 20
17.651065015
 30
0.0
 10
-17.760547673
 20
17.6090664818
 30
0.0
 10
-17.8898440489
 20
17.577529043
 30
0.0
 10
-18.071978155
 20
17.5501824738
 30
0.0
 10
-18.2589551297
 20
17.5462902394
 30
0.0
 10
-18.443405863
 20
17.56575366
 30
0.0
 10
-18.5763601565
 20
17.591708349
 30
0.0
 10
-18.7014199398
 20
17.6284935226
 30
0.0
 10
-18.8159981014
 20
17.6753592429
 30
0.0
 10
-18.9177180871
 20
17.7313619122
 30
0.0
 10
-19.0044806894
 20
17.7954184963
 30
0.0
 10
-19.0744627717
 20
17.8663410557
 30
0.0
 10
-19.1260700587
 20
17.9428915471
 30
0.0
 10
-19.1578589645
 20
18.0235715401
 30
0.0
 10
-19.1650842867
 20
18.0794116286
 30
0.0
 10
-19.1650844926
 20
18.1066603292
 30
0.0
  0
LINE
  5
4FA
100
AcDbEntity
  8
RACCORDO
100
AcDbLine
 62
250
  6
CONTINUOUS
 10
-18.285755559
 20
7.9357688254
 11
-19.4325120626
 21
7.2731090369
  0
SPLINE
  5
4FB
100
AcDbEntity
  8
RACCORDO
100
AcDbSpline
 62
250
  6
CONTINUOUS
 70
0
 71
3
 72
20
 73
16
 74
0
 42
0.0000001
 43
0.0000001
 44
0.0000000001
 40
0.0
 40
0.0
 40
0.0
 40
0.0
 40
0.1553062118
 40
0.3065031446
 40
0.450010323
 40
0.5179809644
 40
0.5830175329
 40
0.6449291634
 40
0.7036236952
 40
0.7591264087
 40
0.8116000725
 40
0.8613627807
 40
0.9088987246
 40
0.9548526861
 40
1.0
 40
1.0
 40
1.0
 40
1.0
 10
-8.6493078008
 20
-12.8039195911
 30
0.0
 10
-8.7360299204
 20
-12.6517219066
 30
0.0
 10
-8.8905438544
 20
-12.3414755227
 30
0.0
 10
-9.0635826274
 20
-11.8631640866
 30
0.0
 10
-9.1543571653
 20
-11.4629026782
 30
0.0
 10
-9.190096934
 20
-11.1528172936
 30
0.0
 10
-9.1982948197
 20
-10.9328736458
 30
0.0
 10
-9.1882864663
 20
-10.7234479159
 30
0.0
 10
-9.1601277378
 20
-10.5264885857
 30
0.0
 10
-9.1140251771
 20
-10.3438403268
 30
0.0
 10
-9.0503236455
 20
-10.1772260904
 30
0.0
 10
-8.9695104659
 20
-10.0282647571
 30
0.0
 10
-8.8722158041
 20
-9.8984691377
 30
0.0
 10
-8.7593409351
 20
-9.7892920745
 30
0.0
 10
-8.6741011226
 20
-9.7308751315
 30
0.0
 10
-8.6297962454
 20
-9.7057728492
 30
0.0
  0
SPLINE
  5
4FC
100
AcDbEntity
  8
RACCORDO
100
AcDbSpline
 62
250
  6
CONTINUOUS
 70
0
 71
3
 72
23
 73
19
 74
0
 42
0.0000001
 43
0.0000001
 44
0.0000000001
 40
0.0
 40
0.0
 40
0.0
 40
0.0
 40
0.0604234712
 40
0.1244010658
 40
0.1913860739
 40
0.2606991016
 40
0.3315668754
 40
0.4031571445
 40
0.4746111624
 40
0.5450751352
 40
0.6137318708
 40
0.6798338413
 40
0.7427391613
 40
0.8019523887
 40
0.857172398
 40
0.9083489908
 40
0.9557462662
 40
1.0
 40
1.0
 40
1.0
 40
1.0
 10
-10.8216243757
 20
-4.4542703535
 30
0.0
 10
-10.9099312976
 20
-4.4032830435
 30
0.0
 10
-11.085567441
 20
-4.2873724478
 30
0.0
 10
-11.3359674243
 20
-4.0826376229
 30
0.0
 10
-11.5771696884
 20
-3.845241348
 30
0.0
 10
-11.804863761
 20
-3.5794263276
 30
0.0
 10
-12.0150238077
 20
-3.2899088618
 30
0.0
 10
-12.2039038565
 20
-2.9818478661
 30
0.0
 10
-12.3681381755
 20
-2.6607342393
 30
0.0
 10
-12.5047990901
 20
-2.3322911871
 30
0.0
 10
-12.6114528333
 20
-2.00236344
 30
0.0
 10
-12.6861996139
 20
-1.6768032537
 30
0.0
 10
-12.7277000406
 20
-1.3613558743
 30
0.0
 10
-12.735173803
 20
-1.061541233
 30
0.0
 10
-12.7083904715
 20
-0.7825694314
 30
0.0
 10
-12.6475559383
 20
-0.529222539
 30
0.0
 10
-12.5534236746
 20
-0.3060596732
 30
0.0
 10
-12.4666090001
 20
-0.1765072701
 30
0.0
 10
-12.4184309028
 20
-0.1194436464
 30
0.0
  0
SPLINE
  5
4FD
100
AcDbEntity
  8
RACCORDO
100
AcDbSpline
 62
250
  6
CONTINUOUS
 70
0
 71
3
 72
11
 73
7
 74
0
 42
0.0000001
 43
0.0000001
 44
0.0000000001
 40
0.0
 40
0.0
 40
0.0
 40
0.0
 40
0.2244064385
 40
0.4648467573
 40
0.7232050757
 40
1.0
 40
1.0
 40
1.0
 40
1.0
 10
-9.9066628025
 20
-4.7129140786
 30
0.0
 10
-9.9785984058
 20
-4.7167331957
 30
0.0
 10
-10.1285990061
 20
-4.7102496745
 30
0.0
 10
-10.3566019972
 20
-4.6622848487
 30
0.0
 10
-10.5912510008
 20
-4.5769457428
 30
0.0
 10
-10.7446756322
 20
-4.4986995935
 30
0.0
 10
-10.8216243757
 20
-4.4542703535
 30
0.0
  0
SPLINE
  5
4FE
100
AcDbEntity
  8
RACCORDO
100
AcDbSpline
 62
250
  6
CONTINUOUS
 70
0
 71
3
 72
14
 73
10
 74
0
 42
0.0000001
 43
0.0000001
 44
0.0000000001
 40
0.0
 40
0.0
 40
0.0
 40
0.0
 40
0.2659387563
 40
0.3968414216
 40
0.5252463025
 40
0.6504001857
 40
0.7716199406
 40
0.8883129794
 40
1.0
 40
1.0
 40
1.0
 40
1.0
 10
-13.0741453518
 20
-9.805119536
 30
0.0
 10
-13.3267951231
 20
-9.367517296
 30
0.0
 10
-13.6676316293
 20
-8.6924842269
 30
0.0
 10
-14.0383885148
 20
-7.7654778413
 30
0.0
 10
-14.2687325765
 20
-7.0717286892
 30
0.0
 10
-14.4505202479
 20
-6.3827260167
 30
0.0
 10
-14.582027498
 20
-5.7049642292
 30
0.0
 10
-14.6619825444
 20
-5.0449649858
 30
0.0
 10
-14.6808244929
 20
-4.6108701278
 30
0.0
 10
-14.6808244929
 20
-4.3986581089
 30
0.0
  0
SPLINE
  5
4FF
100
AcDbEntity
  8
RACCORDO
100
AcDbSpline
 62
250
  6
CONTINUOUS
 70
0
 71
3
 72
23
 73
19
 74
0
 42
0.0000001
 43
0.0000001
 44
0.0000000001
 40
0.0
 40
0.0
 40
0.0
 40
0.0
 40
0.1540905691
 40
0.2298541004
 40
0.3041397471
 40
0.376534465
 40
0.4466683975
 40
0.5142266428
 40
0.5789622204
 40
0.6407105061
 40
0.6994052368
 40
0.7550956559
 40
0.7818781039
 40
0.8079898367
 40
0.8583634623
 40
0.9067231252
 40
0.9536910966
 40
1.0
 40
1.0
 40
1.0
 40
1.0
 10
-13.4084497947
 20
5.119673927
 30
0.0
 10
-13.5615398036
 20
5.3977006664
 30
0.0
 10
-13.8141834907
 20
5.7998247246
 30
0.0
 10
-14.1941095738
 20
6.2982634873
 30
0.0
 10
-14.4942019472
 20
6.6449287367
 30
0.0
 10
-14.8080922329
 20
6.9630536478
 30
0.0
 10
-15.1328379122
 20
7.2496068245
 30
0.0
 10
-15.4653685475
 20
7.5018278693
 30
0.0
 10
-15.8025498801
 20
7.7172926839
 30
0.0
 10
-16.1412267156
 20
7.8939226906
 30
0.0
 10
-16.4781908649
 20
8.0299825777
 30
0.0
 10
-16.7586142688
 20
8.1094419625
 30
0.0
 10
-16.9785794387
 20
8.1506494792
 30
0.0
 10
-17.1898138646
 20
8.1765847077
 30
0.0
 10
-17.4477697599
 20
8.182765863
 30
0.0
 10
-17.746801932
 20
8.1462776561
 30
0.0
 10
-18.0285175731
 20
8.065990822
 30
0.0
 10
-18.2031644491
 20
7.9834866173
 30
0.0
 10
-18.2857555416
 20
7.9357688357
 30
0.0
  0
LINE
  5
500
100
AcDbEntity
  8
RACCORDO
100
AcDbLine
 62
250
  6
CONTINUOUS
 10
-13.4084495676
 20
-26.394071706
 11
-12.6382751716
 21
-25.9489844741
  0
SPLINE
  5
501
100
AcDbEntity
  8
RACCORDO
100
AcDbSpline
 62
250
  6
CONTINUOUS
 70
0
 71
3
 72
20
 73
16
 74
0
 42
0.0000001
 43
0.0000001
 44
0.0000000001
 40
0.0
 40
0.0
 40
0.0
 40
0.0
 40
0.0429874231
 40
0.0871531136
 40
0.1333312113
 40
0.1821811237
 40
0.234166487
 40
0.2895617042
 40
0.3484727322
 40
0.4108623183
 40
0.4765742941
 40
0.5453549558
 40
0.6906588603
 40
0.8435190417
 40
1.0
 40
1.0
 40
1.0
 40
1.0
 10
-14.5710988574
 20
-24.7636532327
 30
0.0
 10
-14.6154953782
 20
-24.7891476528
 30
0.0
 10
-14.7104189403
 20
-24.8327259757
 30
0.0
 10
-14.8647755987
 20
-24.8729508823
 30
0.0
 10
-15.0305034348
 20
-24.8883443165
 30
0.0
 10
-15.2058855631
 20
-24.8789546505
 30
0.0
 10
-15.3893002547
 20
-24.8450778413
 30
0.0
 10
-15.5790776401
 20
-24.7871624502
 30
0.0
 10
-15.7734976618
 20
-24.7058318339
 30
0.0
 10
-15.970772843
 20
-24.6018927756
 30
0.0
 10
-16.1690768515
 20
-24.476345438
 30
0.0
 10
-16.4372159878
 20
-24.2781108764
 30
0.0
 10
-16.7616638881
 20
-23.9834630054
 30
0.0
 10
-17.1184720144
 20
-23.5748593722
 30
0.0
 10
-17.3299325681
 20
-23.2721464257
 30
0.0
 10
-17.4283669745
 20
-23.1139026929
 30
0.0
  0
SPLINE
  5
502
100
AcDbEntity
  8
RACCORDO
100
AcDbSpline
 62
250
  6
CONTINUOUS
 70
0
 71
3
 72
9
 73
5
 74
0
 42
0.0000001
 43
0.0000001
 44
0.0000000001
 40
0.0
 40
0.0
 40
0.0
 40
0.0
 40
0.2515395421
 40
1.0
 40
1.0
 40
1.0
 40
1.0
 10
-10.0602799484
 20
-22.1682589576
 30
0.0
 10
-10.4384266296
 20
-22.3859949216
 30
0.0
 10
-11.9418242591
 20
-23.2514889399
 30
0.0
 10
-13.4454980825
 20
-24.1165032051
 30
0.0
 10
-14.5710988313
 20
-24.7636532163
 30
0.0
  0
SPLINE
  5
503
100
AcDbEntity
  8
RACCORDO
100
AcDbSpline
 62
250
  6
CONTINUOUS
 70
0
 71
3
 72
15
 73
11
 74
0
 42
0.0000001
 43
0.0000001
 44
0.0000000001
 40
0.0
 40
0.0
 40
0.0
 40
0.0
 40
0.1453520309
 40
0.277695528
 40
0.398809136
 40
0.5124437492
 40
0.6240126976
 40
0.7394494731
 40
0.8637337507
 40
1.0
 40
1.0
 40
1.0
 40
1.0
 10
-7.7912732156
 20
-28.2325014177
 30
0.0
 10
-7.7901233201
 20
-28.2649085708
 30
0.0
 10
-7.7833547741
 20
-28.3268322246
 30
0.0
 10
-7.7574139779
 20
-28.4125605394
 30
0.0
 10
-7.7164407566
 20
-28.4844245785
 30
0.0
 10
-7.6611251328
 20
-28.5398330775
 30
0.0
 10
-7.5932026516
 20
-28.576309796
 30
0.0
 10
-7.5155106865
 20
-28.5924523955
 30
0.0
 10
-7.4309986304
 20
-28.5883179049
 30
0.0
 10
-7.3744310397
 20
-28.5732454704
 30
0.0
 10
-7.3458044729
 20
-28.5630125565
 30
0.0
  0
SPLINE
  5
504
100
AcDbEntity
  8
RACCORDO
100
AcDbSpline
 62
250
  6
CONTINUOUS
 70
0
 71
3
 72
15
 73
11
 74
0
 42
0.0000001
 43
0.0000001
 44
0.0000000001
 40
0.0
 40
0.0
 40
0.0
 40
0.0
 40
0.1338674133
 40
0.2667410299
 40
0.3977811543
 40
0.5261898982
 40
0.6512281024
 40
0.7722334239
 40
0.8886400005
 40
1.0
 40
1.0
 40
1.0
 40
1.0
 10
-22.2733426596
 20
-15.1165898104
 30
0.0
 10
-22.4147927445
 20
-14.8815057608
 30
0.0
 10
-22.6836592556
 20
-14.4051229381
 30
0.0
 10
-23.0438323053
 20
-13.6732836728
 30
0.0
 10
-23.3566741481
 20
-12.9320705678
 30
0.0
 10
-23.618994265
 20
-12.1884865887
 30
0.0
 10
-23.8281257317
 20
-11.4495360479
 30
0.0
 10
-23.9819273454
 20
-10.7221683225
 30
0.0
 10
-24.0788098812
 20
-10.013323065
 30
0.0
 10
-24.1053833943
 20
-9.546635909
 30
0.0
 10
-24.1082243029
 20
-9.3184234944
 30
0.0
  0
SPLINE
  5
505
100
AcDbEntity
  8
RACCORDO
100
AcDbSpline
 62
250
  6
CONTINUOUS
 70
0
 71
3
 72
15
 73
11
 74
0
 42
0.0000001
 43
0.0000001
 44
0.0000000001
 40
0.0
 40
0.0
 40
0.0
 40
0.0
 40
0.1334366763
 40
0.2660182676
 40
0.3969067539
 40
0.5252977263
 40
0.6504380532
 40
0.771644678
 40
0.8883250771
 40
1.0
 40
1.0
 40
1.0
 40
1.0
 10
-13.3703076769
 20
-9.9761060082
 30
0.0
 10
-13.5011739099
 20
-9.7494390441
 30
0.0
 10
-13.7493517777
 20
-9.2900750284
 30
0.0
 10
-14.0800297099
 20
-8.5848220627
 30
0.0
 10
-14.3656182974
 20
-7.8707397514
 30
0.0
 10
-14.6033701913
 20
-7.1546797825
 30
0.0
 10
-14.7910162266
 20
-6.4434753347
 30
0.0
 10
-14.9267585622
 20
-5.7438851372
 30
0.0
 10
-15.0092891622
 20
-5.0626267206
 30
0.0
 10
-15.0287379647
 20
-4.6145497892
 30
0.0
 10
-15.0287379647
 20
-4.3955024199
 30
0.0
  0
SPLINE
  5
506
100
AcDbEntity
  8
RACCORDO
100
AcDbSpline
 62
250
  6
CONTINUOUS
 70
0
 71
3
 72
20
 73
16
 74
0
 42
0.0000001
 43
0.0000001
 44
0.0000000001
 40
0.0
 40
0.0
 40
0.0
 40
0.0
 40
0.0576451478
 40
0.1182573993
 40
0.1814777308
 40
0.2468599697
 40
0.3819361653
 40
0.5190099606
 40
0.6532973445
 40
0.7180143979
 40
0.7804128558
 40
0.8400730436
 40
0.8966697761
 40
0.9499976086
 40
1.0
 40
1.0
 40
1.0
 40
1.0
 10
-10.5387816632
 20
-3.9643724054
 30
0.0
 10
-10.6028094446
 20
-3.9274035669
 30
0.0
 10
-10.7303567884
 20
-3.8448319761
 30
0.0
 10
-10.9139461492
 20
-3.7013370209
 30
0.0
 10
-11.092620205
 20
-3.5367291767
 30
0.0
 10
-11.3235948705
 20
-3.2893544901
 30
0.0
 10
-11.5845067899
 20
-2.9420345561
 30
0.0
 10
-11.840927042
 20
-2.4865937198
 30
0.0
 10
-12.0015920951
 20
-2.0849686115
 30
0.0
 10
-12.0916309527
 20
-1.7617389794
 30
0.0
 10
-12.138025526
 20
-1.526452451
 30
0.0
 10
-12.1635046187
 20
-1.2984461826
 30
0.0
 10
-12.1677111624
 20
-1.0806315719
 30
0.0
 10
-12.1505624652
 20
-0.8758533932
 30
0.0
 10
-12.124121473
 20
-0.7455660771
 30
0.0
 10
-12.1070787589
 20
-0.6837403348
 30
0.0
  0
SPLINE
  5
507
100
AcDbEntity
  8
RACCORDO
100
AcDbSpline
 62
250
  6
CONTINUOUS
 70
0
 71
3
 72
9
 73
5
 74
0
 42
0.0000001
 43
0.0000001
 44
0.0000000001
 40
0.0
 40
0.0
 40
0.0
 40
0.0
 40
0.2488532243
 40
1.0
 40
1.0
 40
1.0
 40
1.0
 10
-24.1082242872
 20
-9.3184234859
 30
0.0
 10
-24.1164728287
 20
-8.5922899724
 30
0.0
 10
-24.1412686752
 20
-5.6742816072
 30
0.0
 10
-24.1328190313
 20
-2.7559958501
 30
0.0
 10
-24.1082242893
 20
-0.5642070956
 30
0.0
  0
SPLINE
  5
508
100
AcDbEntity
  8
RACCORDO
100
AcDbSpline
 62
250
  6
CONTINUOUS
 70
0
 71
3
 72
9
 73
5
 74
0
 42
0.0000001
 43
0.0000001
 44
0.0000000001
 40
0.0
 40
0.0
 40
0.0
 40
0.0
 40
0.5048457223
 40
1.0
 40
1.0
 40
1.0
 40
1.0
 10
-7.7912732156
 20
-0.8722469567
 30
0.0
 10
-7.9483246678
 20
-5.4744997929
 30
0.0
 10
-8.1083737082
 20
-14.5965207526
 30
0.0
 10
-7.9513959379
 20
-23.7188091098
 30
0.0
 10
-7.7912732156
 20
-28.2325014177
 30
0.0
  0
SPLINE
  5
509
100
AcDbEntity
  8
RACCORDO
100
AcDbSpline
 62
250
  6
CONTINUOUS
 70
0
 71
3
 72
15
 73
11
 74
0
 42
0.0000001
 43
0.0000001
 44
0.0000000001
 40
0.0
 40
0.0
 40
0.0
 40
0.0
 40
0.1469314272
 40
0.2866619906
 40
0.4192611073
 40
0.5450981402
 40
0.664875499
 40
0.7796461393
 40
0.8907994783
 40
1.0
 40
1.0
 40
1.0
 40
1.0
 10
-24.1082243065
 20
-0.5642071049
 30
0.0
 10
-24.1055162405
 20
-0.3437299624
 30
0.0
 10
-24.0819830188
 20
0.0865037232
 30
0.0
 10
-23.9876341555
 20
0.7095891017
 30
0.0
 10
-23.835890855
 20
1.2888023211
 30
0.0
 10
-23.6280398526
 20
1.8185023716
 30
0.0
 10
-23.3658852792
 20
2.2934507207
 30
0.0
 10
-23.0517236795
 20
2.7087398935
 30
0.0
 10
-22.6887074047
 20
3.0597010449
 30
0.0
 10
-22.4153586142
 20
3.2489114578
 30
0.0
 10
-22.2733428417
 20
3.3306778906
 30
0.0
  0
SPLINE
  5
50A
100
AcDbEntity
  8
RACCORDO
100
AcDbSpline
 62
250
  6
CONTINUOUS
 70
0
 71
3
 72
9
 73
5
 74
0
 42
0.0000001
 43
0.0000001
 44
0.0000000001
 40
0.0
 40
0.0
 40
0.0
 40
0.0
 40
0.248615135
 40
1.0
 40
1.0
 40
1.0
 40
1.0
 10
-22.2733428423
 20
3.3306778903
 30
0.0
 10
-21.871896341
 20
3.561864531
 30
0.0
 10
-20.2570996788
 20
4.4916477522
 30
0.0
 10
-18.642040908
 20
5.4209757527
 30
0.0
 10
-17.4283671998
 20
6.119010074
 30
0.0
  0
SPLINE
  5
50B
100
AcDbEntity
  8
RACCORDO
100
AcDbSpline
 62
250
  6
CONTINUOUS
 70
0
 71
3
 72
15
 73
11
 74
0
 42
0.0000001
 43
0.0000001
 44
0.0000000001
 40
0.0
 40
0.0
 40
0.0
 40
0.0
 40
0.1204301502
 40
0.2467477498
 40
0.3768017357
 40
0.5082094468
 40
0.63850718
 40
0.765296556
 40
0.8863950377
 40
1.0
 40
1.0
 40
1.0
 40
1.0
 10
-7.3458044729
 20
-0.0449699279
 30
0.0
 10
-7.3767405795
 20
-0.0684099388
 30
0.0
 10
-7.4370708064
 20
-0.1205617281
 30
0.0
 10
-7.5196798105
 20
-0.2098667218
 30
0.0
 10
-7.5947639298
 20
-0.3100460654
 30
0.0
 10
-7.6601939441
 20
-0.4182696685
 30
0.0
 10
-7.7141342964
 20
-0.5314952893
 30
0.0
 10
-7.7550659263
 20
-0.6465511322
 30
0.0
 10
-7.781835458
 20
-0.7601866534
 30
0.0
 10
-7.7900242378
 20
-0.8356545927
 30
0.0
 10
-7.7912732156
 20
-0.8722469567
 30
0.0
  0
SPLINE
  5
50C
100
AcDbEntity
  8
ASSI
100
AcDbSpline
 62
7
  6
CONTINUOUS
 70
0
 71
3
 72
19
 73
15
 74
0
 42
0.0000001
 43
0.0000001
 44
0.0000000001
 40
0.0
 40
0.0
 40
0.0
 40
0.0
 40
0.0583069335
 40
0.1198259601
 40
0.1841370246
 40
0.2507198521
 40
0.3881861626
 40
0.5270615852
 40
0.6619174194
 40
0.7263052908
 40
0.7879139563
 40
0.8463192383
 40
0.9012261913
 40
1.0
 40
1.0
 40
1.0
 40
1.0
 10
21.6967599252
 20
-1.7328737835
 30
0.0
 10
21.5992739276
 20
-1.7920058787
 30
0.0
 10
21.4052976662
 20
-1.9242456199
 30
0.0
 10
21.1273108226
 20
-2.1537681438
 30
0.0
 10
20.8577863333
 20
-2.4169147436
 30
0.0
 10
20.5113563027
 20
-2.8116395239
 30
0.0
 10
20.125202239
 20
-3.3628458125
 30
0.0
 10
19.7556452853
 20
-4.079520724
 30
0.0
 10
19.5351770017
 20
-4.705616145
 30
0.0
 10
19.4225573951
 20
-5.2036221721
 30
0.0
 10
19.3724398977
 20
-5.5611471455
 30
0.0
 10
19.3561287275
 20
-5.9034870149
 30
0.0
 10
19.3789102711
 20
-6.3177780883
 30
0.0
 10
19.4465707885
 20
-6.6155393555
 30
0.0
 10
19.5196694871
 20
-6.7943230594
 30
0.0
  0
SPLINE
  5
50D
100
AcDbEntity
  8
ASSI
100
AcDbSpline
 62
7
  6
CONTINUOUS
 70
0
 71
3
 72
19
 73
15
 74
0
 42
0.0000001
 43
0.0000001
 44
0.0000000001
 40
0.0
 40
0.0
 40
0.0
 40
0.0
 40
0.0583069335
 40
0.1198259601
 40
0.1841370246
 40
0.2507198521
 40
0.3881861626
 40
0.5270615852
 40
0.6619174194
 40
0.7263052908
 40
0.7879139563
 40
0.8463192383
 40
0.9012261913
 40
1.0
 40
1.0
 40
1.0
 40
1.0
 10
21.6967599252
 20
14.2699436416
 30
0.0
 10
21.5992739276
 20
14.2108115464
 30
0.0
 10
21.4052976662
 20
14.0785718052
 30
0.0
 10
21.1273108226
 20
13.8490492814
 30
0.0
 10
20.8577863333
 20
13.5859026815
 30
0.0
 10
20.5113563027
 20
13.1911779012
 30
0.0
 10
20.125202239
 20
12.6399716126
 30
0.0
 10
19.7556452853
 20
11.9232967011
 30
0.0
 10
19.5351770017
 20
11.2972012802
 30
0.0
 10
19.4225573951
 20
10.7991952531
 30
0.0
 10
19.3724398977
 20
10.4416702796
 30
0.0
 10
19.3561287275
 20
10.0993304103
 30
0.0
 10
19.3789102711
 20
9.6850393369
 30
0.0
 10
19.4465707885
 20
9.3872780697
 30
0.0
 10
19.5196694871
 20
9.2084943657
 30
0.0
  0
SPLINE
  5
50E
100
AcDbEntity
  8
ASSI
100
AcDbSpline
 62
7
  6
CONTINUOUS
 70
0
 71
3
 72
10
 73
6
 74
0
 42
0.0000001
 43
0.0000001
 44
0.0000000001
 40
0.0
 40
0.0
 40
0.0
 40
0.0
 40
0.2427190567
 40
0.4923540802
 40
1.0
 40
1.0
 40
1.0
 40
1.0
 10
21.5774055031
 20
5.3340462295
 30
0.0
 10
21.6901590149
 20
5.2270203248
 30
0.0
 10
21.9083165479
 20
4.9984966489
 30
0.0
 10
22.3076226892
 20
4.4970595297
 30
0.0
 10
22.5605027321
 20
4.0795612738
 30
0.0
 10
22.7051531795
 20
3.7883650817
 30
0.0
  0
SPLINE
  5
50F
100
AcDbEntity
  8
ASSI
100
AcDbSpline
 62
7
  6
CONTINUOUS
 70
0
 71
3
 72
9
 73
5
 74
0
 42
0.0000001
 43
0.0000001
 44
0.0000000001
 40
0.0
 40
0.0
 40
0.0
 40
0.0
 40
0.4968546179
 40
1.0
 40
1.0
 40
1.0
 40
1.0
 10
19.5845137678
 20
9.5981379327
 30
0.0
 10
19.5477286827
 20
9.6193773221
 30
0.0
 10
19.4765926301
 20
9.6673525273
 30
0.0
 10
19.4127416082
 20
9.7246381213
 30
0.0
 10
19.3826717596
 20
9.7553958122
 30
0.0
  0
SPLINE
  5
510
100
AcDbEntity
  8
ASSI
100
AcDbSpline
 62
7
  6
CONTINUOUS
 70
0
 71
3
 72
9
 73
5
 74
0
 42
0.0000001
 43
0.0000001
 44
0.0000000001
 40
0.0
 40
0.0
 40
0.0
 40
0.0
 40
0.4968546179
 40
1.0
 40
1.0
 40
1.0
 40
1.0
 10
19.5845137678
 20
-6.4046794924
 30
0.0
 10
19.5477286827
 20
-6.3834401031
 30
0.0
 10
19.4765926301
 20
-6.3354648979
 30
0.0
 10
19.4127416082
 20
-6.2781793039
 30
0.0
 10
19.3826717596
 20
-6.2474216129
 30
0.0
  0
SPLINE
  5
511
100
AcDbEntity
  8
ASSI
100
AcDbSpline
 62
7
  6
CONTINUOUS
 70
0
 71
3
 72
24
 73
20
 74
0
 42
0.0000001
 43
0.0000001
 44
0.0000000001
 40
0.0
 40
0.0
 40
0.0
 40
0.0
 40
0.0304226185
 40
0.0618336888
 40
0.1274429588
 40
0.1962308574
 40
0.2673908351
 40
0.340008707
 40
0.4131080927
 40
0.4856926459
 40
0.5567873651
 40
0.6254808236
 40
0.6909702951
 40
0.7526122951
 40
0.8099817205
 40
0.8629426127
 40
0.9117298257
 40
0.9570273871
 40
1.0
 40
1.0
 40
1.0
 40
1.0
 10
21.2810152789
 20
10.3106364977
 30
0.0
 10
21.3285804207
 20
10.3381000144
 30
0.0
 10
21.4232947973
 20
10.397341266
 30
0.0
 10
21.6117190052
 20
10.5295325194
 30
0.0
 10
21.8419804034
 20
10.7217594143
 30
0.0
 10
22.1030399017
 20
10.9862187723
 30
0.0
 10
22.34745488
 20
11.2827194581
 30
0.0
 10
22.5703228081
 20
11.6051954252
 30
0.0
 10
22.7671423703
 20
11.947163814
 30
0.0
 10
22.9339391055
 20
12.3017101125
 30
0.0
 10
23.067345386
 20
12.6616810239
 30
0.0
 10
23.164670535
 20
13.0198308861
 30
0.0
 10
23.2239456958
 20
13.3689885895
 30
0.0
 10
23.2439425377
 20
13.7022189126
 30
0.0
 10
23.2241409211
 20
14.0129790485
 30
0.0
 10
23.1646747562
 20
14.2952084508
 30
0.0
 10
23.0661365392
 20
14.5433725714
 30
0.0
 10
22.9298330828
 20
14.7520677328
 30
0.0
 10
22.8130966738
 20
14.8632196028
 30
0.0
 10
22.7506380118
 20
14.909239864
 30
0.0
  0
SPLINE
  5
512
100
AcDbEntity
  8
ASSI
100
AcDbSpline
 62
250
  6
CONTINUOUS
 70
0
 71
3
 72
15
 73
11
 74
0
 42
0.0000001
 43
0.0000001
 44
0.0000000001
 40
0.0
 40
0.0
 40
0.0
 40
0.0
 40
0.114105404
 40
0.2372566257
 40
0.3668921609
 40
0.4999077607
 40
0.6329370806
 40
0.762611895
 40
0.8858226555
 40
1.0
 40
1.0
 40
1.0
 40
1.0
 10
17.0846923936
 20
3.6844763368
 30
0.0
 10
17.0375992819
 20
3.6554497001
 30
0.0
 10
16.9447701917
 20
3.5866434261
 30
0.0
 10
16.81734468
 20
3.4619096322
 30
0.0
 10
16.7001196593
 20
3.3156095757
 30
0.0
 10
16.597429298
 20
3.1531238045
 30
0.0
 10
16.5130260407
 20
2.9804092104
 30
0.0
 10
16.4500142527
 20
2.8037872502
 30
0.0
 10
16.4107034047
 20
2.6297761234
 30
0.0
 10
16.4008412323
 20
2.5145854869
 30
0.0
 10
16.4008410887
 20
2.4592305692
 30
0.0
  0
SPLINE
  5
513
100
AcDbEntity
  8
ASSI
100
AcDbSpline
 62
250
  6
CONTINUOUS
 70
0
 71
3
 72
15
 73
11
 74
0
 42
0.0000001
 43
0.0000001
 44
0.0000000001
 40
0.0
 40
0.0
 40
0.0
 40
0.0
 40
0.1467606418
 40
0.2777686958
 40
0.3950753256
 40
0.5038880132
 40
0.611996414
 40
0.7274298558
 40
0.8559130996
 40
1.0
 40
1.0
 40
1.0
 40
1.0
 10
16.4008410887
 20
-3.26878677
 30
0.0
 10
16.4008412187
 20
-3.3189431548
 30
0.0
 10
16.4081998175
 20
-3.4141872981
 30
0.0
 10
16.4457246366
 20
-3.5450541134
 30
0.0
 10
16.5089345985
 20
-3.6514441835
 30
0.0
 10
16.5968782786
 20
-3.7277994262
 30
0.0
 10
16.7053013093
 20
-3.7686939938
 30
0.0
 10
16.8273503717
 20
-3.7725906279
 30
0.0
 10
16.9574587265
 20
-3.741387453
 30
0.0
 10
17.0420854054
 20
-3.7009677498
 30
0.0
 10
17.0846923936
 20
-3.6762801042
 30
0.0
  0
SPLINE
  5
514
100
AcDbEntity
  8
ASSI
100
AcDbSpline
 62
7
  6
CONTINUOUS
 70
0
 71
3
 72
14
 73
10
 74
0
 42
0.0000001
 43
0.0000001
 44
0.0000000001
 40
0.0
 40
0.0
 40
0.0
 40
0.0
 40
0.2882847843
 40
0.4212761508
 40
0.5471500808
 40
0.6666566269
 40
0.7809230399
 40
0.891441015
 40
1.0
 40
1.0
 40
1.0
 40
1.0
 10
20.9256432284
 20
9.715123347
 30
0.0
 10
20.8075646329
 20
9.6493260873
 30
0.0
 10
20.6265219599
 20
9.5664506342
 30
0.0
 10
20.3788467979
 20
9.4979166768
 30
0.0
 10
20.2030643575
 20
9.4707035233
 30
0.0
 10
20.0339598471
 20
9.4666784911
 30
0.0
 10
19.8730715495
 20
9.4860304496
 30
0.0
 10
19.7220445695
 20
9.5287028639
 30
0.0
 10
19.6285954373
 20
9.5726855588
 30
0.0
 10
19.5845137678
 20
9.5981379327
 30
0.0
  0
SPLINE
  5
515
100
AcDbEntity
  8
ASSI
100
AcDbSpline
 62
7
  6
CONTINUOUS
 70
0
 71
3
 72
24
 73
20
 74
0
 42
0.0000001
 43
0.0000001
 44
0.0000000001
 40
0.0
 40
0.0
 40
0.0
 40
0.0
 40
0.0304226185
 40
0.0618336888
 40
0.1274429588
 40
0.1962308574
 40
0.2673908351
 40
0.340008707
 40
0.4131080927
 40
0.4856926459
 40
0.5567873651
 40
0.6254808236
 40
0.6909702951
 40
0.7526122951
 40
0.8099817205
 40
0.8629426127
 40
0.9117298257
 40
0.9570273871
 40
1.0
 40
1.0
 40
1.0
 40
1.0
 10
21.2810152789
 20
-5.6921809274
 30
0.0
 10
21.3285804207
 20
-5.6647174107
 30
0.0
 10
21.4232947973
 20
-5.6054761592
 30
0.0
 10
21.6117190052
 20
-5.4732849057
 30
0.0
 10
21.8419804034
 20
-5.2810580109
 30
0.0
 10
22.1030399017
 20
-5.0165986529
 30
0.0
 10
22.34745488
 20
-4.720097967
 30
0.0
 10
22.5703228081
 20
-4.397622
 30
0.0
 10
22.7671423703
 20
-4.0556536111
 30
0.0
 10
22.9339391055
 20
-3.7011073126
 30
0.0
 10
23.067345386
 20
-3.3411364012
 30
0.0
 10
23.164670535
 20
-2.982986539
 30
0.0
 10
23.2239456958
 20
-2.6338288356
 30
0.0
 10
23.2439425377
 20
-2.3005985125
 30
0.0
 10
23.2241409211
 20
-1.9898383767
 30
0.0
 10
23.1646747562
 20
-1.7076089744
 30
0.0
 10
23.0661365392
 20
-1.4594448537
 30
0.0
 10
22.9298330828
 20
-1.2507496924
 30
0.0
 10
22.8130966738
 20
-1.1395978223
 30
0.0
 10
22.7506380118
 20
-1.0935775611
 30
0.0
  0
SPLINE
  5
516
100
AcDbEntity
  8
ASSI
100
AcDbSpline
 62
250
  6
CONTINUOUS
 70
0
 71
3
 72
11
 73
7
 74
0
 42
0.0000001
 43
0.0000001
 44
0.0000000001
 40
0.0
 40
0.0
 40
0.0
 40
0.0
 40
0.2187451274
 40
0.452336812
 40
0.7112154016
 40
1.0
 40
1.0
 40
1.0
 40
1.0
 10
25.3580300353
 20
18.0648492612
 30
0.0
 10
25.3580301576
 20
18.0462339005
 30
0.0
 10
25.3513352119
 20
18.0074878744
 30
0.0
 10
25.3225794542
 20
17.9533194146
 30
0.0
 10
25.2770320016
 20
17.9040926953
 30
0.0
 10
25.23879312
 20
17.8769173202
 30
0.0
 10
25.2177000767
 20
17.8643057427
 30
0.0
  0
SPLINE
  5
517
100
AcDbEntity
  8
ASSI
100
AcDbSpline
 62
250
  6
CONTINUOUS
 70
0
 71
3
 72
11
 73
7
 74
0
 42
0.0000001
 43
0.0000001
 44
0.0000000001
 40
0.0
 40
0.0
 40
0.0
 40
0.0
 40
0.2188079492
 40
0.4524327542
 40
0.7112938269
 40
1.0
 40
1.0
 40
1.0
 40
1.0
 10
25.1203849915
 20
9.2266390397
 30
0.0
 10
25.1362665928
 20
9.2364282437
 30
0.0
 10
25.1658013502
 20
9.2625102269
 30
0.0
 10
25.1968992245
 20
9.3155119365
 30
0.0
 10
25.2149518644
 20
9.3802299781
 30
0.0
 10
25.2180316511
 20
9.4271223178
 30
0.0
 10
25.2177000767
 20
9.451736009
 30
0.0
  0
SPLINE
  5
518
100
AcDbEntity
  8
ASSI
100
AcDbSpline
 62
250
  6
CONTINUOUS
 70
0
 71
3
 72
11
 73
7
 74
0
 42
0.0000001
 43
0.0000001
 44
0.0000000001
 40
0.0
 40
0.0
 40
0.0
 40
0.0
 40
0.2187451274
 40
0.452336812
 40
0.7112154015
 40
1.0
 40
1.0
 40
1.0
 40
1.0
 10
25.3580300353
 20
1.9679014289
 30
0.0
 10
25.3580301576
 20
1.9492860682
 30
0.0
 10
25.3513352119
 20
1.910540042
 30
0.0
 10
25.3225794542
 20
1.8563715823
 30
0.0
 10
25.2770320016
 20
1.807144863
 30
0.0
 10
25.23879312
 20
1.7799694879
 30
0.0
 10
25.2177000767
 20
1.7673579104
 30
0.0
  0
SPLINE
  5
519
100
AcDbEntity
  8
ASSI
100
AcDbSpline
 62
250
  6
CONTINUOUS
 70
0
 71
3
 72
11
 73
7
 74
0
 42
0.0000001
 43
0.0000001
 44
0.0000000001
 40
0.0
 40
0.0
 40
0.0
 40
0.0
 40
0.2187452007
 40
0.4523369165
 40
0.7112143003
 40
1.0
 40
1.0
 40
1.0
 40
1.0
 10
23.234052286
 20
20.3018060799
 30
0.0
 10
23.2340521509
 20
20.2906368587
 30
0.0
 10
23.2300354735
 20
20.2673892285
 30
0.0
 10
23.2127817932
 20
20.2348882705
 30
0.0
 10
23.1854534635
 20
20.205352165
 30
0.0
 10
23.1625101115
 20
20.1890469448
 30
0.0
 10
23.1498542361
 20
20.1814799688
 30
0.0
  0
SPLINE
  5
51A
100
AcDbEntity
  8
ASSI
100
AcDbSpline
 62
250
  6
CONTINUOUS
 70
0
 71
3
 72
11
 73
7
 74
0
 42
0.0000001
 43
0.0000001
 44
0.0000000001
 40
0.0
 40
0.0
 40
0.0
 40
0.0
 40
0.2187355069
 40
0.4523226873
 40
0.7112033532
 40
1.0
 40
1.0
 40
1.0
 40
1.0
 10
18.5759203996
 20
23.1645525467
 30
0.0
 10
18.5662479496
 20
23.1701371434
 30
0.0
 10
18.5441067964
 20
23.1782822901
 30
0.0
 10
18.5073331872
 20
23.1795889958
 30
0.0
 10
18.468089481
 20
23.1706873896
 30
0.0
 10
18.4424967634
 20
23.1589684421
 30
0.0
 10
18.4296153709
 20
23.1517905084
 30
0.0
  0
SPLINE
  5
51B
100
AcDbEntity
  8
ASSI
100
AcDbSpline
 62
7
  6
CONTINUOUS
 70
0
 71
3
 72
14
 73
10
 74
0
 42
0.0000001
 43
0.0000001
 44
0.0000000001
 40
0.0
 40
0.0
 40
0.0
 40
0.0
 40
0.2882847843
 40
0.4212761508
 40
0.5471500808
 40
0.6666566269
 40
0.7809230399
 40
0.891441015
 40
1.0
 40
1.0
 40
1.0
 40
1.0
 10
20.9256432284
 20
-6.2876940781
 30
0.0
 10
20.8075646329
 20
-6.3534913378
 30
0.0
 10
20.6265219599
 20
-6.4363667909
 30
0.0
 10
20.3788467979
 20
-6.5049007483
 30
0.0
 10
20.2030643575
 20
-6.5321139018
 30
0.0
 10
20.0339598471
 20
-6.536138934
 30
0.0
 10
19.8730715495
 20
-6.5167869756
 30
0.0
 10
19.7220445695
 20
-6.4741145612
 30
0.0
 10
19.6285954373
 20
-6.4301318663
 30
0.0
 10
19.5845137678
 20
-6.4046794924
 30
0.0
  0
SPLINE
  5
51C
100
AcDbEntity
  8
ASSI
100
AcDbSpline
 62
250
  6
CONTINUOUS
 70
0
 71
3
 72
11
 73
7
 74
0
 42
0.0000001
 43
0.0000001
 44
0.0000000001
 40
0.0
 40
0.0
 40
0.0
 40
0.0
 40
0.21874507
 40
0.4523377763
 40
0.711215503
 40
1.0
 40
1.0
 40
1.0
 40
1.0
 10
19.599952425
 20
3.7090266065
 30
0.0
 10
19.5999512784
 20
3.6941349443
 30
0.0
 10
19.5945941726
 20
3.6631397291
 30
0.0
 10
19.5715887697
 20
3.6198077255
 30
0.0
 10
19.5351519446
 20
3.5804285051
 30
0.0
 10
19.5045620824
 20
3.5586892782
 30
0.0
 10
19.4876883589
 20
3.5486004414
 30
0.0
  0
SPLINE
  5
51D
100
AcDbEntity
  8
ASSI
100
AcDbSpline
 62
250
  6
CONTINUOUS
 70
0
 71
3
 72
11
 73
7
 74
0
 42
0.0000001
 43
0.0000001
 44
0.0000000001
 40
0.0
 40
0.0
 40
0.0
 40
0.0
 40
0.2176621113
 40
0.452781391
 40
0.7125586306
 40
1.0
 40
1.0
 40
1.0
 40
1.0
 10
19.6079799165
 20
3.633759618
 30
0.0
 10
19.623108091
 20
3.6282589191
 30
0.0
 10
19.6564829135
 20
3.6216433148
 30
0.0
 10
19.7095300431
 20
3.6254807434
 30
0.0
 10
19.7653129472
 20
3.6421693422
 30
0.0
 10
19.8016057155
 20
3.660521711
 30
0.0
 10
19.8198652294
 20
3.6714065694
 30
0.0
  0
SPLINE
  5
51E
100
AcDbEntity
  8
ASSI
100
AcDbSpline
 62
250
  6
CONTINUOUS
 70
0
 71
3
 72
11
 73
7
 74
0
 42
0.0000001
 43
0.0000001
 44
0.0000000001
 40
0.0
 40
0.0
 40
0.0
 40
0.0
 40
0.2897450519
 40
0.5487358929
 40
0.7818414421
 40
1.0
 40
1.0
 40
1.0
 40
1.0
 10
5.4613090815
 20
12.7432091428
 30
0.0
 10
5.503615847
 20
12.7674203629
 30
0.0
 10
5.5876483284
 20
12.8070821529
 30
0.0
 10
5.7167412079
 20
12.8378033956
 30
0.0
 10
5.8378143228
 20
12.8344333591
 30
0.0
 10
5.9107099426
 20
12.8078366903
 30
0.0
 10
5.9425009647
 20
12.7894973951
 30
0.0
  0
SPLINE
  5
51F
100
AcDbEntity
  8
ASSI
100
AcDbSpline
 62
250
  6
CONTINUOUS
 70
0
 71
3
 72
15
 73
11
 74
0
 42
0.0000001
 43
0.0000001
 44
0.0000000001
 40
0.0
 40
0.0
 40
0.0
 40
0.0
 40
0.1439877305
 40
0.2723932414
 40
0.387788292
 40
0.4959048471
 40
0.604762809
 40
0.7221301826
 40
0.853194974
 40
1.0
 40
1.0
 40
1.0
 40
1.0
 10
5.6380588529
 20
12.4370695589
 30
0.0
 10
5.669977068
 20
12.455498435
 30
0.0
 10
5.7333686129
 20
12.4856515972
 30
0.0
 10
5.8308054926
 20
12.5088381199
 30
0.0
 10
5.922184679
 20
12.5057480102
 30
0.0
 10
6.0033377763
 20
12.4749733329
 30
0.0
 10
6.0691476397
 20
12.4176802103
 30
0.0
 10
6.1164482056
 20
12.337927
 30
0.0
 10
6.1445302887
 20
12.2398625981
 30
0.0
 10
6.1500376922
 20
12.1685011583
 30
0.0
 10
6.1500380124
 20
12.1309235942
 30
0.0
  0
SPLINE
  5
520
100
AcDbEntity
  8
ASSI
100
AcDbSpline
 62
250
  6
CONTINUOUS
 70
0
 71
3
 72
11
 73
7
 74
0
 42
0.0000001
 43
0.0000001
 44
0.0000000001
 40
0.0
 40
0.0
 40
0.0
 40
0.0
 40
0.2377358904
 40
0.5000059626
 40
0.7622727798
 40
1.0
 40
1.0
 40
1.0
 40
1.0
 10
5.4613090815
 20
12.7432091428
 30
0.0
 10
5.4867259037
 20
12.7290283812
 30
0.0
 10
5.534837913
 20
12.6895066409
 30
0.0
 10
5.5906795884
 20
12.6138059748
 30
0.0
 10
5.6283171634
 20
12.5275963674
 30
0.0
 10
5.638487159
 20
12.4661704801
 30
0.0
 10
5.6380588529
 20
12.4370695589
 30
0.0
  0
SPLINE
  5
521
100
AcDbEntity
  8
ASSI
100
AcDbSpline
 62
250
  6
CONTINUOUS
 70
0
 71
3
 72
11
 73
7
 74
0
 42
0.0000001
 43
0.0000001
 44
0.0000000001
 40
0.0
 40
0.0
 40
0.0
 40
0.0
 40
0.2195553878
 40
0.4569519998
 40
0.7165362584
 40
1.0
 40
1.0
 40
1.0
 40
1.0
 10
16.543240065
 20
-3.1090550474
 30
0.0
 10
16.5573551321
 20
-3.1118720955
 30
0.0
 10
16.5875640009
 20
-3.1139678942
 30
0.0
 10
16.634308687
 20
-3.1069955263
 30
0.0
 10
16.6829488862
 20
-3.0903997778
 30
0.0
 10
16.7146468732
 20
-3.0739085667
 30
0.0
 10
16.7305791721
 20
-3.064343378
 30
0.0
  0
SPLINE
  5
522
100
AcDbEntity
  8
ASSI
100
AcDbSpline
 62
250
  6
CONTINUOUS
 70
0
 71
3
 72
15
 73
11
 74
0
 42
0.0000001
 43
0.0000001
 44
0.0000000001
 40
0.0
 40
0.0
 40
0.0
 40
0.0
 40
0.1141557509
 40
0.2373356275
 40
0.3669780413
 40
0.4999817225
 40
0.6329869888
 40
0.7626348848
 40
0.8858258887
 40
1.0
 40
1.0
 40
1.0
 40
1.0
 10
6.1500380124
 20
-25.1984357285
 30
0.0
 10
6.150037659
 20
-25.2399035089
 30
0.0
 10
6.1426587659
 20
-25.3261929197
 30
0.0
 10
6.1132402119
 20
-25.4565496084
 30
0.0
 10
6.0660820521
 20
-25.5888710775
 30
0.0
 10
6.002908637
 20
-25.7182849382
 30
0.0
 10
5.9260381323
 20
-25.8400647049
 30
0.0
 10
5.8382738075
 20
-25.9497555745
 30
0.0
 10
5.7428535956
 20
-26.0433323682
 30
0.0
 10
5.6733329352
 20
-26.094994226
 30
0.0
 10
5.6380588529
 20
-26.1168086505
 30
0.0
  0
SPLINE
  5
523
100
AcDbEntity
  8
ASSI
100
AcDbSpline
 62
250
  6
CONTINUOUS
 70
0
 71
3
 72
11
 73
7
 74
0
 42
0.0000001
 43
0.0000001
 44
0.0000000001
 40
0.0
 40
0.0
 40
0.0
 40
0.0
 40
0.2888156531
 40
0.5476986117
 40
0.7812785748
 40
1.0
 40
1.0
 40
1.0
 40
1.0
 10
-11.5235272168
 20
22.5500407515
 30
0.0
 10
-11.5340721574
 20
22.5563417533
 30
0.0
 10
-11.5550860366
 20
22.5667438631
 30
0.0
 10
-11.5875361443
 20
22.5751449039
 30
0.0
 10
-11.6181856168
 20
22.5749840016
 30
0.0
 10
-11.6368247609
 20
22.5687609016
 30
0.0
 10
-11.6450179436
 20
22.564354822
 30
0.0
  0
SPLINE
  5
524
100
AcDbEntity
  8
ASSI
100
AcDbSpline
 62
7
  6
CONTINUOUS
 70
0
 71
3
 72
11
 73
7
 74
0
 42
0.0000001
 43
0.0000001
 44
0.0000000001
 40
0.0
 40
0.0
 40
0.0
 40
0.0
 40
0.2875527674
 40
0.5462917925
 40
0.7805097211
 40
1.0
 40
1.0
 40
1.0
 40
1.0
 10
0.6366175864
 20
11.1057869788
 30
0.0
 10
0.6258631744
 20
11.1119964414
 30
0.0
 10
0.604424791
 20
11.1222072859
 30
0.0
 10
0.5714010625
 20
11.1302764707
 30
0.0
 10
0.5402439211
 20
11.1298089987
 30
0.0
 10
0.5212945763
 20
11.1234180289
 30
0.0
 10
0.5129462833
 20
11.1189284052
 30
0.0
  0
SPLINE
  5
525
100
AcDbEntity
  8
ASSI
100
AcDbSpline
 62
7
  6
CONTINUOUS
 70
0
 71
3
 72
10
 73
6
 74
0
 42
0.0000001
 43
0.0000001
 44
0.0000000001
 40
0.0
 40
0.0
 40
0.0
 40
0.0
 40
0.2345354932
 40
0.4827600995
 40
1.0
 40
1.0
 40
1.0
 40
1.0
 10
22.5256431775
 20
19.9888998816
 30
0.0
 10
22.4964142486
 20
20.0057763016
 30
0.0
 10
22.4321644504
 20
20.0335827763
 30
0.0
 10
22.2922997924
 20
20.0687830114
 30
0.0
 10
22.180724051
 20
20.0739362453
 30
0.0
 10
22.1064625482
 20
20.0688682609
 30
0.0
  0
SPLINE
  5
526
100
AcDbEntity
  8
ASSI
100
AcDbSpline
 62
250
  6
CONTINUOUS
 70
0
 71
3
 72
11
 73
7
 74
0
 42
0.0000001
 43
0.0000001
 44
0.0000000001
 40
0.0
 40
0.0
 40
0.0
 40
0.0
 40
0.2187451404
 40
0.4523368405
 40
0.7112154514
 40
1.0
 40
1.0
 40
1.0
 40
1.0
 10
18.9728456997
 20
13.6483684573
 30
0.0
 10
18.9728458216
 20
13.6297530954
 30
0.0
 10
18.9661508758
 20
13.5910070669
 30
0.0
 10
18.9373951144
 20
13.5368386039
 30
0.0
 10
18.8918476606
 20
13.4876118873
 30
0.0
 10
18.8536087809
 20
13.4604365141
 30
0.0
 10
18.8325157412
 20
13.4478249388
 30
0.0
  0
SPLINE
  5
527
100
AcDbEntity
  8
ASSI
100
AcDbSpline
 62
250
  6
CONTINUOUS
 70
0
 71
3
 72
11
 73
7
 74
0
 42
0.0000001
 43
0.0000001
 44
0.0000000001
 40
0.0
 40
0.0
 40
0.0
 40
0.0
 40
0.2187800645
 40
0.4528377161
 40
0.7118362666
 40
1.0
 40
1.0
 40
1.0
 40
1.0
 10
18.7392084381
 20
4.5392233007
 30
0.0
 10
18.7545168365
 20
4.5492707225
 30
0.0
 10
18.7828578976
 20
4.5755787839
 30
0.0
 10
18.8126111287
 20
4.6280463921
 30
0.0
 10
18.8298914416
 20
4.6916665797
 30
0.0
 10
18.8328406128
 20
4.7376544965
 30
0.0
 10
18.8325157412
 20
4.7617706195
 30
0.0
  0
SPLINE
  5
528
100
AcDbEntity
  8
ASSI
100
AcDbSpline
 62
250
  6
CONTINUOUS
 70
0
 71
3
 72
11
 73
7
 74
0
 42
0.0000001
 43
0.0000001
 44
0.0000000001
 40
0.0
 40
0.0
 40
0.0
 40
0.0
 40
0.2187451273
 40
0.4523368119
 40
0.7112154014
 40
1.0
 40
1.0
 40
1.0
 40
1.0
 10
16.5411710473
 20
2.6597740877
 30
0.0
 10
16.5411711696
 20
2.641158727
 30
0.0
 10
16.534476224
 20
2.6024127009
 30
0.0
 10
16.5057204663
 20
2.5482442411
 30
0.0
 10
16.4601730137
 20
2.4990175218
 30
0.0
 10
16.4219341321
 20
2.4718421468
 30
0.0
 10
16.4008410887
 20
2.4592305692
 30
0.0
  0
SPLINE
  5
529
100
AcDbEntity
  8
ASSI
100
AcDbSpline
 62
250
  6
CONTINUOUS
 70
0
 71
3
 72
11
 73
7
 74
0
 42
0.0000001
 43
0.0000001
 44
0.0000000001
 40
0.0
 40
0.0
 40
0.0
 40
0.0
 40
0.2888156531
 40
0.5476986117
 40
0.7812785748
 40
1.0
 40
1.0
 40
1.0
 40
1.0
 10
4.6030062463
 20
13.2387824428
 30
0.0
 10
4.5924613058
 20
13.2450834446
 30
0.0
 10
4.5714474266
 20
13.2554855544
 30
0.0
 10
4.5389973188
 20
13.2638865952
 30
0.0
 10
4.5083478464
 20
13.2637256929
 30
0.0
 10
4.4897087023
 20
13.2575025929
 30
0.0
 10
4.4815155195
 20
13.2530965133
 30
0.0
  0
SPLINE
  5
52A
100
AcDbEntity
  8
ASSI
100
AcDbSpline
 62
250
  6
CONTINUOUS
 70
0
 71
3
 72
11
 73
7
 74
0
 42
0.0000001
 43
0.0000001
 44
0.0000000001
 40
0.0
 40
0.0
 40
0.0
 40
0.0
 40
0.2187451403
 40
0.4523368403
 40
0.711215451
 40
1.0
 40
1.0
 40
1.0
 40
1.0
 10
18.9728456997
 20
-2.4629759318
 30
0.0
 10
18.9728458216
 20
-2.4815912936
 30
0.0
 10
18.9661508758
 20
-2.5203373221
 30
0.0
 10
18.9373951144
 20
-2.574505785
 30
0.0
 10
18.8918476606
 20
-2.6237325016
 30
0.0
 10
18.8536087809
 20
-2.6509078749
 30
0.0
 10
18.8325157412
 20
-2.6635194503
 30
0.0
  0
SPLINE
  5
52B
100
AcDbEntity
  8
ASSI
100
AcDbSpline
 62
250
  6
CONTINUOUS
 70
0
 71
3
 72
11
 73
7
 74
0
 42
0.0000001
 43
0.0000001
 44
0.0000000001
 40
0.0
 40
0.0
 40
0.0
 40
0.0
 40
0.2186988827
 40
0.4526981046
 40
0.7117146024
 40
1.0
 40
1.0
 40
1.0
 40
1.0
 10
25.1248510347
 20
-6.8674744818
 30
0.0
 10
25.1401236026
 20
-6.8574425518
 30
0.0
 10
25.1683920542
 20
-6.8311681851
 30
0.0
 10
25.1980279198
 20
-6.7787632388
 30
0.0
 10
25.2151870752
 20
-6.7152204681
 30
0.0
 10
25.2180608952
 20
-6.6692958818
 30
0.0
 10
25.2177000767
 20
-6.6452118234
 30
0.0
  0
SPLINE
  5
52C
100
AcDbEntity
  8
ASSI
100
AcDbSpline
 62
250
  6
CONTINUOUS
 70
0
 71
3
 72
11
 73
7
 74
0
 42
0.0000001
 43
0.0000001
 44
0.0000000001
 40
0.0
 40
0.0
 40
0.0
 40
0.0
 40
0.218707878
 40
0.4526839722
 40
0.7116897012
 40
1.0
 40
1.0
 40
1.0
 40
1.0
 10
9.8230570081
 20
27.3231512721
 30
0.0
 10
9.8069757415
 20
27.3318979895
 30
0.0
 10
9.7704004294
 20
27.3444341158
 30
0.0
 10
9.710102464
 20
27.3457790465
 30
0.0
 10
9.6458884293
 20
27.3308005999
 30
0.0
 10
9.6040013505
 20
27.311550477
 30
0.0
 10
9.5829213336
 20
27.2998040014
 30
0.0
  0
SPLINE
  5
52D
100
AcDbEntity
  8
ASSI
100
AcDbSpline
 62
250
  6
CONTINUOUS
 70
0
 71
3
 72
11
 73
7
 74
0
 42
0.0000001
 43
0.0000001
 44
0.0000000001
 40
0.0
 40
0.0
 40
0.0
 40
0.0
 40
0.2181585148
 40
0.4512643019
 40
0.7102552314
 40
1.0
 40
1.0
 40
1.0
 40
1.0
 10
-10.1840368118
 20
22.1007581919
 30
0.0
 10
-10.2158277989
 20
22.1190968168
 30
0.0
 10
-10.2887230531
 20
22.1456922364
 30
0.0
 10
-10.409795002
 20
22.1490612685
 30
0.0
 10
-10.538886488
 20
22.1183398694
 30
0.0
 10
-10.6229180594
 20
22.0786783928
 30
0.0
 10
-10.6652243817
 20
22.0544674515
 30
0.0
  0
SPLINE
  5
52E
100
AcDbEntity
  8
ASSI
100
AcDbSpline
 62
7
  6
CONTINUOUS
 70
0
 71
3
 72
14
 73
10
 74
0
 42
0.0000001
 43
0.0000001
 44
0.0000000001
 40
0.0
 40
0.0
 40
0.0
 40
0.0
 40
0.0562637436
 40
0.1150457102
 40
0.2387169487
 40
0.3686259
 40
0.5016992549
 40
0.7636109362
 40
1.0
 40
1.0
 40
1.0
 40
1.0
 10
-14.3218029425
 20
19.5350045319
 30
0.0
 10
-14.3218029425
 20
19.5418927853
 30
0.0
 10
-14.3221023999
 20
19.5559873216
 30
0.0
 10
-14.3251773663
 20
19.5850809874
 30
0.0
 10
-14.3333768116
 20
19.6225614434
 30
0.0
 10
-14.3491876877
 20
19.6672989121
 30
0.0
 10
-14.3775963194
 20
19.7250805884
 30
0.0
 10
-14.4231213685
 20
19.7883354889
 30
0.0
 10
-14.4704584761
 20
19.8284233611
 30
0.0
 10
-14.4955213871
 20
19.8428943718
 30
0.0
  0
SPLINE
  5
52F
100
AcDbEntity
  8
ASSI
100
AcDbSpline
 62
250
  6
CONTINUOUS
 70
0
 71
3
 72
11
 73
7
 74
0
 42
0.0000001
 43
0.0000001
 44
0.0000000001
 40
0.0
 40
0.0
 40
0.0
 40
0.0
 40
0.2377272203
 40
0.4999940375
 40
0.7622641097
 40
1.0
 40
1.0
 40
1.0
 40
1.0
 10
-10.4884746103
 20
21.7483278676
 30
0.0
 10
-10.4880463042
 20
21.7774287888
 30
0.0
 10
-10.4982162998
 20
21.8388546761
 30
0.0
 10
-10.5358538748
 20
21.9250642835
 30
0.0
 10
-10.5916955502
 20
22.0007649496
 30
0.0
 10
-10.6398075595
 20
22.0402866899
 30
0.0
 10
-10.6652243817
 20
22.0544674515
 30
0.0
  0
SPLINE
  5
530
100
AcDbEntity
  8
ASSI
100
AcDbSpline
 62
250
  6
CONTINUOUS
 70
0
 71
3
 72
15
 73
11
 74
0
 42
0.0000001
 43
0.0000001
 44
0.0000000001
 40
0.0
 40
0.0
 40
0.0
 40
0.0
 40
0.1468050295
 40
0.2778698215
 40
0.3952371956
 40
0.5040951581
 40
0.6122117142
 40
0.7276067668
 40
0.8560122827
 40
1.0
 40
1.0
 40
1.0
 40
1.0
 10
-9.9764954507
 20
21.4421819029
 30
0.0
 10
-9.9764957678
 20
21.4797594677
 30
0.0
 10
-9.9820031721
 20
21.5511209085
 30
0.0
 10
-10.010085256
 20
21.6491853106
 30
0.0
 10
-10.0573858228
 20
21.7289385205
 30
0.0
 10
-10.1231956877
 20
21.7862316414
 30
0.0
 10
-10.2043487868
 20
21.8170063164
 30
0.0
 10
-10.2957279736
 20
21.8200964207
 30
0.0
 10
-10.3931648559
 20
21.7969098985
 30
0.0
 10
-10.4565563774
 20
21.7667567058
 30
0.0
 10
-10.4884746103
 20
21.7483278676
 30
0.0
  0
SPLINE
  5
531
100
AcDbEntity
  8
ASSI
100
AcDbSpline
 62
250
  6
CONTINUOUS
 70
0
 71
3
 72
11
 73
7
 74
0
 42
0.0000001
 43
0.0000001
 44
0.0000000001
 40
0.0
 40
0.0
 40
0.0
 40
0.0
 40
0.2887859
 40
0.5476623001
 40
0.7812550917
 40
1.0
 40
1.0
 40
1.0
 40
1.0
 10
-9.9764954507
 20
21.4421819029
 30
0.0
 10
-9.96594939
 20
21.4484874161
 30
0.0
 10
-9.9468308717
 20
21.4620743652
 30
0.0
 10
-9.924057872
 20
21.4866861275
 30
0.0
 10
-9.9096796293
 20
21.5137683598
 30
0.0
 10
-9.9063311413
 20
21.5331402214
 30
0.0
 10
-9.90633053
 20
21.5424474437
 30
0.0
  0
SPLINE
  5
532
100
AcDbEntity
  8
ASSI
100
AcDbSpline
 62
250
  6
CONTINUOUS
 70
0
 71
3
 72
11
 73
7
 74
0
 42
0.0000001
 43
0.0000001
 44
0.0000000001
 40
0.0
 40
0.0
 40
0.0
 40
0.0
 40
0.2377894522
 40
0.5001155655
 40
0.7623786001
 40
1.0
 40
1.0
 40
1.0
 40
1.0
 10
16.7305758687
 20
-3.064345361
 30
0.0
 10
16.781416472
 20
-3.0927089527
 30
0.0
 10
16.8776710587
 20
-3.1717256971
 30
0.0
 10
16.9894800203
 20
-3.3230355241
 30
0.0
 10
17.0649470828
 20
-3.4953292231
 30
0.0
 10
17.0854636013
 20
-3.6181090062
 30
0.0
 10
17.0846923936
 20
-3.6762801042
 30
0.0
  0
SPLINE
  5
533
100
AcDbEntity
  8
ASSI
100
AcDbSpline
 62
7
  6
CONTINUOUS
 70
0
 71
3
 72
9
 73
5
 74
0
 42
0.0000001
 43
0.0000001
 44
0.0000000001
 40
0.0
 40
0.0
 40
0.0
 40
0.0
 40
0.4998147962
 40
1.0
 40
1.0
 40
1.0
 40
1.0
 10
6.1500380124
 20
6.1250961038
 30
0.0
 10
6.1714996828
 20
6.1731669345
 30
0.0
 10
6.2060480595
 20
6.2732995158
 30
0.0
 10
6.2202029813
 20
6.3787887213
 30
0.0
 10
6.220203278
 20
6.4314718998
 30
0.0
  0
SPLINE
  5
534
100
AcDbEntity
  8
ASSI
100
AcDbSpline
 62
250
  6
CONTINUOUS
 70
0
 71
3
 72
11
 73
7
 74
0
 42
0.0000001
 43
0.0000001
 44
0.0000000001
 40
0.0
 40
0.0
 40
0.0
 40
0.0
 40
0.2187197718
 40
0.4526078981
 40
0.7115803558
 40
1.0
 40
1.0
 40
1.0
 40
1.0
 10
6.2201872159
 20
-25.0997837193
 30
0.0
 10
6.220008809
 20
-25.1089717728
 30
0.0
 10
6.2163789553
 20
-25.1280392234
 30
0.0
 10
6.2019134854
 20
-25.1546367043
 30
0.0
 10
6.1793193652
 20
-25.1788289944
 30
0.0
 10
6.1604389937
 20
-25.1922169587
 30
0.0
 10
6.1500380124
 20
-25.1984357285
 30
0.0
  0
SPLINE
  5
535
100
AcDbEntity
  8
ASSI
100
AcDbSpline
 62
7
  6
CONTINUOUS
 70
0
 71
3
 72
11
 73
7
 74
0
 42
0.0000001
 43
0.0000001
 44
0.0000000001
 40
0.0
 40
0.0
 40
0.0
 40
0.0
 40
0.1675399826
 40
0.3887888182
 40
0.6669535504
 40
1.0
 40
1.0
 40
1.0
 40
1.0
 10
6.2202032764
 20
-19.2984404567
 30
0.0
 10
6.2202030906
 20
-19.2912398695
 30
0.0
 10
6.2150943841
 20
-19.2747470483
 30
0.0
 10
6.200083876
 20
-19.2503241637
 30
0.0
 10
6.1777461466
 20
-19.2222618218
 30
0.0
 10
6.1599390066
 20
-19.2029452848
 30
0.0
 10
6.1500380124
 20
-19.1926082381
 30
0.0
  0
SPLINE
  5
536
100
AcDbEntity
  8
ASSI
100
AcDbSpline
 62
250
  6
CONTINUOUS
 70
0
 71
3
 72
11
 73
7
 74
0
 42
0.0000001
 43
0.0000001
 44
0.0000000001
 40
0.0
 40
0.0
 40
0.0
 40
0.0
 40
0.2377358096
 40
0.5000059625
 40
0.7622728605
 40
1.0
 40
1.0
 40
1.0
 40
1.0
 10
24.864200534
 20
18.4765849105
 30
0.0
 10
24.9150341632
 20
18.4482233957
 30
0.0
 10
25.0112581963
 20
18.3691799363
 30
0.0
 10
25.1229416417
 20
18.2177786288
 30
0.0
 10
25.198216723
 20
18.0453593443
 30
0.0
 10
25.2185566887
 20
17.9225075679
 30
0.0
 10
25.2177000767
 20
17.8643057427
 30
0.0
  0
SPLINE
  5
537
100
AcDbEntity
  8
ASSI
100
AcDbSpline
 62
7
  6
CONTINUOUS
 70
0
 71
3
 72
10
 73
6
 74
0
 42
0.0000001
 43
0.0000001
 44
0.0000000001
 40
0.0
 40
0.0
 40
0.0
 40
0.0
 40
0.506689588
 40
0.756131235
 40
1.0
 40
1.0
 40
1.0
 40
1.0
 10
17.8470822512
 20
14.4249748477
 30
0.0
 10
17.9322017259
 20
14.4245347393
 30
0.0
 10
18.0598967302
 20
14.4104870086
 30
0.0
 10
18.2211621089
 20
14.3623030942
 30
0.0
 10
18.2968068852
 20
14.3273707115
 30
0.0
 10
18.3322859904
 20
14.3068855365
 30
0.0
  0
SPLINE
  5
538
100
AcDbEntity
  8
ASSI
100
AcDbSpline
 62
250
  6
CONTINUOUS
 70
0
 71
3
 72
11
 73
7
 74
0
 42
0.0000001
 43
0.0000001
 44
0.0000000001
 40
0.0
 40
0.0
 40
0.0
 40
0.0
 40
0.2888969711
 40
0.5478156484
 40
0.7813617664
 40
1.0
 40
1.0
 40
1.0
 40
1.0
 10
24.8635835518
 20
2.3792926536
 30
0.0
 10
24.8851001553
 20
2.3913257833
 30
0.0
 10
24.9278525726
 20
2.4109802486
 30
0.0
 10
24.9934258831
 20
2.4259493834
 30
0.0
 10
25.0548786377
 20
2.4238311644
 30
0.0
 10
25.0918795791
 20
2.4102385158
 30
0.0
 10
25.1080372953
 20
2.4009098548
 30
0.0
  0
SPLINE
  5
539
100
AcDbEntity
  8
ASSI
100
AcDbSpline
 62
7
  6
CONTINUOUS
 70
0
 71
3
 72
14
 73
10
 74
0
 42
0.0000001
 43
0.0000001
 44
0.0000000001
 40
0.0
 40
0.0
 40
0.0
 40
0.0
 40
0.1106623065
 40
0.1708980102
 40
0.232837578
 40
0.3592049311
 40
0.4869983919
 40
0.7434680893
 40
1.0
 40
1.0
 40
1.0
 40
1.0
 10
20.5877742028
 20
4.8480913832
 30
0.0
 10
20.6049642153
 20
4.8578664772
 30
0.0
 10
20.6355643932
 20
4.865779906
 30
0.0
 10
20.6770859618
 20
4.8674887835
 30
0.0
 10
20.721506537
 20
4.8646208149
 30
0.0
 10
20.7771935624
 20
4.8542590923
 30
0.0
 10
20.8649024116
 20
4.8287812728
 30
0.0
 10
20.9711318461
 20
4.7852551609
 30
0.0
 10
21.0523912767
 20
4.7425900331
 30
0.0
 10
21.092090145
 20
4.7196678188
 30
0.0
  0
SPLINE
  5
53A
100
AcDbEntity
  8
ASSI
100
AcDbSpline
 62
250
  6
CONTINUOUS
 70
0
 71
3
 72
11
 73
7
 74
0
 42
0.0000001
 43
0.0000001
 44
0.0000000001
 40
0.0
 40
0.0
 40
0.0
 40
0.0
 40
0.2887949805
 40
0.5476769956
 40
0.78126467
 40
1.0
 40
1.0
 40
1.0
 40
1.0
 10
24.864200534
 20
18.4765849105
 30
0.0
 10
24.8856688878
 20
18.4885477802
 30
0.0
 10
24.9283223088
 20
18.5080789215
 30
0.0
 10
24.9937267881
 20
18.5229154083
 30
0.0
 10
25.0550146901
 20
18.5207383639
 30
0.0
 10
25.091916374
 20
18.5071650607
 30
0.0
 10
25.1080368966
 20
18.49785792
 30
0.0
  0
SPLINE
  5
53B
100
AcDbEntity
  8
ASSI
100
AcDbSpline
 62
250
  6
CONTINUOUS
 70
0
 71
3
 72
11
 73
7
 74
0
 42
0.0000001
 43
0.0000001
 44
0.0000000001
 40
0.0
 40
0.0
 40
0.0
 40
0.0
 40
0.2377895349
 40
0.5001155655
 40
0.7623785174
 40
1.0
 40
1.0
 40
1.0
 40
1.0
 10
24.8635835518
 20
2.3792926536
 30
0.0
 10
24.9144241696
 20
2.3509290538
 30
0.0
 10
25.0106787204
 20
2.271912266
 30
0.0
 10
25.1224875984
 20
2.1206024298
 30
0.0
 10
25.1979547105
 20
1.9483087986
 30
0.0
 10
25.2184712846
 20
1.825529025
 30
0.0
 10
25.2177000767
 20
1.7673579104
 30
0.0
  0
SPLINE
  5
53C
100
AcDbEntity
  8
ASSI
100
AcDbSpline
 62
7
  6
CONTINUOUS
 70
0
 71
3
 72
10
 73
6
 74
0
 42
0.0000001
 43
0.0000001
 44
0.0000000001
 40
0.0
 40
0.0
 40
0.0
 40
0.0
 40
0.5067204778
 40
0.7561645742
 40
1.0
 40
1.0
 40
1.0
 40
1.0
 10
17.8464652691
 20
-1.6867139659
 30
0.0
 10
17.9317638842
 20
-1.6870675697
 30
0.0
 10
18.0597414957
 20
-1.7010283822
 30
0.0
 10
18.2213674367
 20
-1.7492078204
 30
0.0
 10
18.2971751078
 20
-1.7841862791
 30
0.0
 10
18.3327216819
 20
-1.8047104151
 30
0.0
  0
SPLINE
  5
53D
100
AcDbEntity
  8
ASSI
100
AcDbSpline
 62
250
  6
CONTINUOUS
 70
0
 71
3
 72
11
 73
7
 74
0
 42
0.0000001
 43
0.0000001
 44
0.0000000001
 40
0.0
 40
0.0
 40
0.0
 40
0.0
 40
0.2187265828
 40
0.4523085417
 40
0.711189483
 40
1.0
 40
1.0
 40
1.0
 40
1.0
 10
5.5897152353
 20
-26.2291632545
 30
0.0
 10
5.5976264175
 20
-26.2242710474
 30
0.0
 10
5.6123330633
 20
-26.2112420489
 30
0.0
 10
5.6277951556
 20
-26.1847831318
 30
0.0
 10
5.6367440026
 20
-26.1524851512
 30
0.0
 10
5.6382428374
 20
-26.1290893244
 30
0.0
 10
5.6380588529
 20
-26.1168086505
 30
0.0
  0
SPLINE
  5
53E
100
AcDbEntity
  8
ASSI
100
AcDbSpline
 62
250
  6
CONTINUOUS
 70
0
 71
3
 72
11
 73
7
 74
0
 42
0.0000001
 43
0.0000001
 44
0.0000000001
 40
0.0
 40
0.0
 40
0.0
 40
0.0
 40
0.2377357269
 40
0.5000059625
 40
0.7622729432
 40
1.0
 40
1.0
 40
1.0
 40
1.0
 10
18.4790161985
 20
14.0601041065
 30
0.0
 10
18.5298498133
 20
14.0317425999
 30
0.0
 10
18.6260738823
 20
13.9526991839
 30
0.0
 10
18.7377574113
 20
13.8012978856
 30
0.0
 10
18.8130324429
 20
13.6288785331
 30
0.0
 10
18.8333723529
 20
13.5060267474
 30
0.0
 10
18.8325157412
 20
13.4478249388
 30
0.0
  0
SPLINE
  5
53F
100
AcDbEntity
  8
ASSI
100
AcDbSpline
 62
250
  6
CONTINUOUS
 70
0
 71
3
 72
11
 73
7
 74
0
 42
0.0000001
 43
0.0000001
 44
0.0000000001
 40
0.0
 40
0.0
 40
0.0
 40
0.0
 40
0.2887948341
 40
0.547676898
 40
0.7812646674
 40
1.0
 40
1.0
 40
1.0
 40
1.0
 10
18.4790161985
 20
14.0601041065
 30
0.0
 10
18.5004844693
 20
14.07206693
 30
0.0
 10
18.5431377314
 20
14.0915980135
 30
0.0
 10
18.608541966
 20
14.1064345334
 30
0.0
 10
18.6698296712
 20
14.1042576641
 30
0.0
 10
18.7067312934
 20
14.0906845748
 30
0.0
 10
18.7228518106
 20
14.0813775492
 30
0.0
  0
SPLINE
  5
540
100
AcDbEntity
  8
ASSI
100
AcDbSpline
 62
250
  6
CONTINUOUS
 70
0
 71
3
 72
11
 73
7
 74
0
 42
0.0000001
 43
0.0000001
 44
0.0000000001
 40
0.0
 40
0.0
 40
0.0
 40
0.0
 40
0.2882853976
 40
0.5473018954
 40
0.7813011173
 40
1.0
 40
1.0
 40
1.0
 40
1.0
 10
18.8325157412
 20
-11.3495737695
 30
0.0
 10
18.8328765596
 20
-11.373657828
 30
0.0
 10
18.8300027397
 20
-11.4195824143
 30
0.0
 10
18.8128435843
 20
-11.483125185
 30
0.0
 10
18.7832077187
 20
-11.5355301313
 30
0.0
 10
18.7549392671
 20
-11.5618044979
 30
0.0
 10
18.7396666992
 20
-11.571836428
 30
0.0
  0
SPLINE
  5
541
100
AcDbEntity
  8
ASSI
100
AcDbSpline
 62
250
  6
CONTINUOUS
 70
0
 71
3
 72
11
 73
7
 74
0
 42
0.0000001
 43
0.0000001
 44
0.0000000001
 40
0.0
 40
0.0
 40
0.0
 40
0.0
 40
0.2887845865
 40
0.5476631794
 40
0.7812548743
 40
1.0
 40
1.0
 40
1.0
 40
1.0
 10
18.8325157412
 20
-11.3495737695
 30
0.0
 10
18.8536087743
 20
-11.3369621981
 30
0.0
 10
18.8918476391
 20
-11.3097868371
 30
0.0
 10
18.9373950792
 20
-11.2605601474
 30
0.0
 10
18.9661508432
 20
-11.2063917221
 30
0.0
 10
18.9728458097
 20
-11.1676457175
 30
0.0
 10
18.9728456998
 20
-11.1490303651
 30
0.0
  0
SPLINE
  5
542
100
AcDbEntity
  8
ASSI
100
AcDbSpline
 62
250
  6
CONTINUOUS
 70
0
 71
3
 72
11
 73
7
 74
0
 42
0.0000001
 43
0.0000001
 44
0.0000000001
 40
0.0
 40
0.0
 40
0.0
 40
0.0
 40
0.2187449226
 40
0.4523376055
 40
0.7112139681
 40
1.0
 40
1.0
 40
1.0
 40
1.0
 10
6.2202029332
 20
12.231189728
 30
0.0
 10
6.2202023881
 20
12.2218824623
 30
0.0
 10
6.2168540056
 20
12.2025104893
 30
0.0
 10
6.2024757967
 20
12.1754280782
 30
0.0
 10
6.1797027321
 20
12.1508161614
 30
0.0
 10
6.1605841265
 20
12.1372291393
 30
0.0
 10
6.1500380124
 20
12.1309235942
 30
0.0
  0
SPLINE
  5
543
100
AcDbEntity
  8
ASSI
100
AcDbSpline
 62
250
  6
CONTINUOUS
 70
0
 71
3
 72
11
 73
7
 74
0
 42
0.0000001
 43
0.0000001
 44
0.0000000001
 40
0.0
 40
0.0
 40
0.0
 40
0.0
 40
0.2193053514
 40
0.4540108409
 40
0.7129726092
 40
1.0
 40
1.0
 40
1.0
 40
1.0
 10
-11.0423571935
 20
22.5959763554
 30
0.0
 10
-11.0748882316
 20
22.6129394217
 30
0.0
 10
-11.148425827
 20
22.6370967139
 30
0.0
 10
-11.269061248
 20
22.6395788034
 30
0.0
 10
-11.3974296006
 20
22.6104451179
 30
0.0
 10
-11.4813217939
 20
22.572940006
 30
0.0
 10
-11.5235272168
 20
22.5500407515
 30
0.0
  0
SPLINE
  5
544
100
AcDbEntity
  8
ASSI
100
AcDbSpline
 62
250
  6
CONTINUOUS
 70
0
 71
3
 72
11
 73
7
 74
0
 42
0.0000001
 43
0.0000001
 44
0.0000000001
 40
0.0
 40
0.0
 40
0.0
 40
0.0
 40
0.2193053514
 40
0.4540108409
 40
0.7129726092
 40
1.0
 40
1.0
 40
1.0
 40
1.0
 10
5.0841762697
 20
13.2847180467
 30
0.0
 10
5.0516452316
 20
13.301681113
 30
0.0
 10
4.9781076361
 20
13.3258384052
 30
0.0
 10
4.8574722151
 20
13.3283204947
 30
0.0
 10
4.7291038626
 20
13.2991868092
 30
0.0
 10
4.6452116693
 20
13.2616816973
 30
0.0
 10
4.6030062463
 20
13.2387824428
 30
0.0
  0
SPLINE
  5
545
100
AcDbEntity
  8
ASSI
100
AcDbSpline
 62
250
  6
CONTINUOUS
 70
0
 71
3
 72
11
 73
7
 74
0
 42
0.0000001
 43
0.0000001
 44
0.0000000001
 40
0.0
 40
0.0
 40
0.0
 40
0.0
 40
0.2888121601
 40
0.5476984966
 40
0.7812785012
 40
1.0
 40
1.0
 40
1.0
 40
1.0
 10
9.5829213336
 20
27.2998040014
 30
0.0
 10
9.5618315352
 20
27.3124059557
 30
0.0
 10
9.5198034449
 20
27.3332103784
 30
0.0
 10
9.454902721
 20
27.3500124704
 30
0.0
 10
9.3936027915
 20
27.349690663
 30
0.0
 10
9.3563246643
 20
27.3372432997
 30
0.0
 10
9.3399380035
 20
27.3284313557
 30
0.0
  0
SPLINE
  5
546
100
AcDbEntity
  8
ASSI
100
AcDbSpline
 62
250
  6
CONTINUOUS
 70
0
 71
3
 72
11
 73
7
 74
0
 42
0.0000001
 43
0.0000001
 44
0.0000000001
 40
0.0
 40
0.0
 40
0.0
 40
0.0
 40
0.2376213999
 40
0.4998844344
 40
0.7622105478
 40
1.0
 40
1.0
 40
1.0
 40
1.0
 10
18.8325157412
 20
-2.6635194503
 30
0.0
 10
18.8332869489
 20
-2.6053483522
 30
0.0
 10
18.8127704303
 20
-2.4825685692
 30
0.0
 10
18.7373033679
 20
-2.3102748702
 30
0.0
 10
18.6254944063
 20
-2.1589650432
 30
0.0
 10
18.5292398196
 20
-2.0799482987
 30
0.0
 10
18.4783992163
 20
-2.051584707
 30
0.0
  0
SPLINE
  5
547
100
AcDbEntity
  8
ASSI
100
AcDbSpline
 62
250
  6
CONTINUOUS
 70
0
 71
3
 72
11
 73
7
 74
0
 42
0.0000001
 43
0.0000001
 44
0.0000000001
 40
0.0
 40
0.0
 40
0.0
 40
0.0
 40
0.2888824972
 40
0.5478052745
 40
0.7813632689
 40
1.0
 40
1.0
 40
1.0
 40
1.0
 10
18.4783992163
 20
-2.051584707
 30
0.0
 10
18.4999040046
 20
-2.039558185
 30
0.0
 10
18.5426331095
 20
-2.0199122728
 30
0.0
 10
18.608170174
 20
-2.0049386082
 30
0.0
 10
18.6695928813
 20
-2.0070309565
 30
0.0
 10
18.7065842929
 20
-2.0205915305
 30
0.0
 10
18.7227410547
 20
-2.0299029553
 30
0.0
  0
SPLINE
  5
548
100
AcDbEntity
  8
ASSI
100
AcDbSpline
 62
250
  6
CONTINUOUS
 70
0
 71
3
 72
11
 73
7
 74
0
 42
0.0000001
 43
0.0000001
 44
0.0000000001
 40
0.0
 40
0.0
 40
0.0
 40
0.0
 40
0.2887845875
 40
0.5476631801
 40
0.7812548742
 40
1.0
 40
1.0
 40
1.0
 40
1.0
 10
18.8325157412
 20
4.7617706195
 30
0.0
 10
18.8536087751
 20
4.7743821914
 30
0.0
 10
18.8918476412
 20
4.8015575535
 30
0.0
 10
18.9373950823
 20
4.8507842454
 30
0.0
 10
18.9661508457
 20
4.9049526733
 30
0.0
 10
18.9728458106
 20
4.9436986796
 30
0.0
 10
18.9728456998
 20
4.9623140326
 30
0.0
  0
SPLINE
  5
549
100
AcDbEntity
  8
ASSI
100
AcDbSpline
 62
250
  6
CONTINUOUS
 70
0
 71
3
 72
11
 73
7
 74
0
 42
0.0000001
 43
0.0000001
 44
0.0000000001
 40
0.0
 40
0.0
 40
0.0
 40
0.0
 40
0.2887845865
 40
0.5476631794
 40
0.7812548743
 40
1.0
 40
1.0
 40
1.0
 40
1.0
 10
25.2177000767
 20
-6.6452118234
 30
0.0
 10
25.2387931098
 20
-6.6326002519
 30
0.0
 10
25.2770319746
 20
-6.6054248909
 30
0.0
 10
25.3225794147
 20
-6.5561982013
 30
0.0
 10
25.3513351787
 20
-6.502029776
 30
0.0
 10
25.3580301452
 20
-6.4632837713
 30
0.0
 10
25.3580300353
 20
-6.444668419
 30
0.0
  0
SPLINE
  5
54A
100
AcDbEntity
  8
ASSI
100
AcDbSpline
 62
7
  6
CONTINUOUS
 70
0
 71
3
 72
17
 73
13
 74
0
 42
0.0000001
 43
0.0000001
 44
0.0000000001
 40
0.0
 40
0.0
 40
0.0
 40
0.0
 40
0.1241611198
 40
0.2398518252
 40
0.2959055626
 40
0.3515078972
 40
0.4073089152
 40
0.4639474081
 40
0.5818345229
 40
0.7091903617
 40
0.8482973716
 40
1.0
 40
1.0
 40
1.0
 40
1.0
 10
19.5196694871
 20
-6.7943230594
 30
0.0
 10
19.5600733109
 20
-6.8931421274
 30
0.0
 10
19.6561366877
 20
-7.0775766796
 30
0.0
 10
19.8237913366
 20
-7.2725739773
 30
0.0
 10
19.9779151797
 20
-7.3936388289
 30
0.0
 10
20.1021820521
 20
-7.467213857
 30
0.0
 10
20.2355298459
 20
-7.5239424102
 30
0.0
 10
20.4267181209
 20
-7.57743749
 30
0.0
 10
20.6880430916
 20
-7.5991798635
 30
0.0
 10
21.0175902795
 20
-7.5541738235
 30
0.0
 10
21.3606612512
 20
-7.4412285014
 30
0.0
 10
21.5843770618
 20
-7.3274254324
 30
0.0
 10
21.6967599257
 20
-7.2612055932
 30
0.0
  0
SPLINE
  5
54B
100
AcDbEntity
  8
ASSI
100
AcDbSpline
 62
7
  6
CONTINUOUS
 70
0
 71
3
 72
17
 73
13
 74
0
 42
0.0000001
 43
0.0000001
 44
0.0000000001
 40
0.0
 40
0.0
 40
0.0
 40
0.0
 40
0.1241611198
 40
0.2398518252
 40
0.2959055626
 40
0.3515078972
 40
0.4073089152
 40
0.4639474081
 40
0.5818345229
 40
0.7091903617
 40
0.8482973716
 40
1.0
 40
1.0
 40
1.0
 40
1.0
 10
19.5196694871
 20
9.2084943657
 30
0.0
 10
19.5600733109
 20
9.1096752978
 30
0.0
 10
19.6561366877
 20
8.9252407455
 30
0.0
 10
19.8237913366
 20
8.7302434478
 30
0.0
 10
19.9779151797
 20
8.6091785963
 30
0.0
 10
20.1021820521
 20
8.5356035681
 30
0.0
 10
20.2355298459
 20
8.4788750149
 30
0.0
 10
20.4267181209
 20
8.4253799351
 30
0.0
 10
20.6880430916
 20
8.4036375616
 30
0.0
 10
21.0175902795
 20
8.4486436016
 30
0.0
 10
21.3606612512
 20
8.5615889237
 30
0.0
 10
21.5843770618
 20
8.6753919927
 30
0.0
 10
21.6967599257
 20
8.741611832
 30
0.0
  0
SPLINE
  5
54C
100
AcDbEntity
  8
ASSI
100
AcDbSpline
 62
250
  6
CONTINUOUS
 70
0
 71
3
 72
11
 73
7
 74
0
 42
0.0000001
 43
0.0000001
 44
0.0000000001
 40
0.0
 40
0.0
 40
0.0
 40
0.0
 40
0.2887834465
 40
0.5476623646
 40
0.7812549977
 40
1.0
 40
1.0
 40
1.0
 40
1.0
 10
16.4008410887
 20
-3.26878677
 30
0.0
 10
16.4219332017
 20
-3.2561757488
 30
0.0
 10
16.4601705581
 20
-3.2290016509
 30
0.0
 10
16.505716876
 20
-3.17977763
 30
0.0
 10
16.5344732263
 20
-3.1256122919
 30
0.0
 10
16.5411700133
 20
-3.0868682116
 30
0.0
 10
16.5411710471
 20
-3.0682536084
 30
0.0
  0
SPLINE
  5
54D
100
AcDbEntity
  8
ASSI
100
AcDbSpline
 62
250
  6
CONTINUOUS
 70
0
 71
3
 72
11
 73
7
 74
0
 42
0.0000001
 43
0.0000001
 44
0.0000000001
 40
0.0
 40
0.0
 40
0.0
 40
0.0
 40
0.2887058125
 40
0.5475675166
 40
0.7811920113
 40
1.0
 40
1.0
 40
1.0
 40
1.0
 10
17.0846923936
 20
3.6844763368
 30
0.0
 10
17.0850239739
 20
3.6598622148
 30
0.0
 10
17.0819440347
 20
3.6129689531
 30
0.0
 10
17.0638907124
 20
3.5482498343
 30
0.0
 10
17.0327916151
 20
3.4952472234
 30
0.0
 10
17.0032552298
 20
3.4691661119
 30
0.0
 10
16.9873732883
 20
3.4593767865
 30
0.0
  0
SPLINE
  5
54E
100
AcDbEntity
  8
ASSI
100
AcDbSpline
 62
7
  6
CONTINUOUS
 70
0
 71
3
 72
13
 73
9
 74
0
 42
0.0000001
 43
0.0000001
 44
0.0000000001
 40
0.0
 40
0.0
 40
0.0
 40
0.0
 40
0.2277309592
 40
0.459060058
 40
0.580121744
 40
0.708370504
 40
0.8472777156
 40
1.0
 40
1.0
 40
1.0
 40
1.0
 10
19.8198616526
 20
3.6714086346
 30
0.0
 10
19.8170867608
 20
3.630286878
 30
0.0
 10
19.8115651378
 20
3.547378373
 30
0.0
 10
19.787919133
 20
3.4439944425
 30
0.0
 10
19.7503417269
 20
3.3651297391
 30
0.0
 10
19.7096885718
 20
3.3073806862
 30
0.0
 10
19.655333399
 20
3.2537234278
 30
0.0
 10
19.6116349442
 20
3.2235885896
 30
0.0
 10
19.587719623
 20
3.2097311451
 30
0.0
  0
SPLINE
  5
54F
100
AcDbEntity
  8
ASSI
100
AcDbSpline
 62
7
  6
CONTINUOUS
 70
0
 71
3
 72
12
 73
8
 74
0
 42
0.0000001
 43
0.0000001
 44
0.0000000001
 40
0.0
 40
0.0
 40
0.0
 40
0.0
 40
0.350339482
 40
0.6358091607
 40
0.8518785064
 40
0.9337058038
 40
1.0
 40
1.0
 40
1.0
 40
1.0
 10
17.5687873443
 20
22.6888650532
 30
0.0
 10
17.5725380478
 20
22.7042395536
 30
0.0
 10
17.5797737759
 20
22.7320613137
 30
0.0
 10
17.5916993207
 20
22.7686273952
 30
0.0
 10
17.6025387947
 20
22.792869011
 30
0.0
 10
17.6122721528
 20
22.8062019589
 30
0.0
 10
17.6174717499
 20
22.8106239473
 30
0.0
 10
17.6201092765
 20
22.8120421042
 30
0.0
  0
SPLINE
  5
550
100
AcDbEntity
  8
ASSI
100
AcDbSpline
 62
7
  6
CONTINUOUS
 70
0
 71
3
 72
11
 73
7
 74
0
 42
0.0000001
 43
0.0000001
 44
0.0000000001
 40
0.0
 40
0.0
 40
0.0
 40
0.0
 40
0.3057129874
 40
0.5712513556
 40
0.799094646
 40
1.0
 40
1.0
 40
1.0
 40
1.0
 10
21.4271341351
 20
5.3253982673
 30
0.0
 10
21.4398803288
 20
5.3326465437
 30
0.0
 10
21.4647676572
 20
5.3444356172
 30
0.0
 10
21.5020015185
 20
5.3545713306
 30
0.0
 10
21.535726082
 20
5.355311853
 30
0.0
 10
21.555810432
 20
5.3487591629
 30
0.0
 10
21.5641554398
 20
5.3439410048
 30
0.0
  0
SPLINE
  5
551
100
AcDbEntity
  8
ASSI
100
AcDbSpline
 62
250
  6
CONTINUOUS
 70
0
 71
3
 72
11
 73
7
 74
0
 42
0.0000001
 43
0.0000001
 44
0.0000000001
 40
0.0
 40
0.0
 40
0.0
 40
0.0
 40
0.2888142372
 40
0.5476985234
 40
0.7812784663
 40
1.0
 40
1.0
 40
1.0
 40
1.0
 10
18.4296153709
 20
23.1517905084
 30
0.0
 10
18.416961403
 20
23.1593517341
 30
0.0
 10
18.3917445473
 20
23.1718344216
 30
0.0
 10
18.3528040899
 20
23.1819154445
 30
0.0
 10
18.3160242317
 20
23.1817225542
 30
0.0
 10
18.2936574037
 20
23.1742540233
 30
0.0
 10
18.2838253773
 20
23.1689669126
 30
0.0
  0
SPLINE
  5
552
100
AcDbEntity
  8
ASSI
100
AcDbSpline
 62
250
  6
CONTINUOUS
 70
0
 71
3
 72
11
 73
7
 74
0
 42
0.0000001
 43
0.0000001
 44
0.0000000001
 40
0.0
 40
0.0
 40
0.0
 40
0.0
 40
0.2377271668
 40
0.499994001
 40
0.7622640955
 40
1.0
 40
1.0
 40
1.0
 40
1.0
 10
23.1498542361
 20
20.1814799688
 30
0.0
 10
23.1503682034
 20
20.2164010674
 30
0.0
 10
23.1381641291
 20
20.2901120992
 30
0.0
 10
23.0929992989
 20
20.393563754
 30
0.0
 10
23.0259890495
 20
20.4844044032
 30
0.0
 10
22.9682546998
 20
20.531830554
 30
0.0
 10
22.9377545105
 20
20.5488474694
 30
0.0
  0
SPLINE
  5
553
100
AcDbEntity
  8
ASSI
100
AcDbSpline
 62
250
  6
CONTINUOUS
 70
0
 71
3
 72
11
 73
7
 74
0
 42
0.0000001
 43
0.0000001
 44
0.0000000001
 40
0.0
 40
0.0
 40
0.0
 40
0.0
 40
0.2887967626
 40
0.5476773773
 40
0.7812645234
 40
1.0
 40
1.0
 40
1.0
 40
1.0
 10
22.9377545105
 20
20.5488474694
 30
0.0
 10
22.9506359082
 20
20.556025406
 30
0.0
 10
22.9762286293
 20
20.5677443547
 30
0.0
 10
23.0154723377
 20
20.5766459572
 30
0.0
 10
23.0522459412
 20
20.5753392508
 30
0.0
 10
23.0743870898
 20
20.5671941025
 30
0.0
 10
23.0840595391
 20
20.5616095076
 30
0.0
  0
SPLINE
  5
554
100
AcDbEntity
  8
ASSI
100
AcDbSpline
 62
250
  6
CONTINUOUS
 70
0
 71
3
 72
11
 73
7
 74
0
 42
0.0000001
 43
0.0000001
 44
0.0000000001
 40
0.0
 40
0.0
 40
0.0
 40
0.0
 40
0.2887829842
 40
0.5476620341
 40
0.7812550477
 40
1.0
 40
1.0
 40
1.0
 40
1.0
 10
25.2177000767
 20
9.451736009
 30
0.0
 10
25.2387918165
 20
9.4643468071
 30
0.0
 10
25.2770285612
 20
9.4915203927
 30
0.0
 10
25.322574424
 20
9.5407433314
 30
0.0
 10
25.3513310119
 20
9.5949074177
 30
0.0
 10
25.3580285373
 20
9.6336507175
 30
0.0
 10
25.3580300347
 20
9.6522650169
 30
0.0
  0
SPLINE
  5
555
100
AcDbEntity
  8
ASSI
100
AcDbSpline
 62
250
  6
CONTINUOUS
 70
0
 71
3
 72
11
 73
7
 74
0
 42
0.0000001
 43
0.0000001
 44
0.0000000001
 40
0.0
 40
0.0
 40
0.0
 40
0.0
 40
0.2817498126
 40
0.5413338822
 40
0.7796905276
 40
1.0
 40
1.0
 40
1.0
 40
1.0
 10
19.4876883589
 20
3.5486004414
 30
0.0
 10
19.4876884929
 20
3.5148143807
 30
0.0
 10
19.4914731225
 20
3.4497979908
 30
0.0
 10
19.5100867783
 20
3.3578006165
 30
0.0
 10
19.5411626596
 20
3.276993571
 30
0.0
 10
19.5709855562
 20
3.2301738635
 30
0.0
 10
19.587719623
 20
3.2097311451
 30
0.0
  0
SPLINE
  5
556
100
AcDbEntity
  8
ASSI
100
AcDbSpline
 62
250
  6
CONTINUOUS
 70
0
 71
3
 72
10
 73
6
 74
0
 42
0.0000001
 43
0.0000001
 44
0.0000000001
 40
0.0
 40
0.0
 40
0.0
 40
0.0
 40
0.2416424944
 40
0.4907536403
 40
1.0
 40
1.0
 40
1.0
 40
1.0
 10
21.4275012851
 20
5.3256070495
 30
0.0
 10
21.5326519156
 20
5.2264865118
 30
0.0
 10
21.7372617425
 20
5.0154686139
 30
0.0
 10
22.1172591528
 20
4.5531903256
 30
0.0
 10
22.3636350164
 20
4.1696265347
 30
0.0
 10
22.5085884012
 20
3.9018029024
 30
0.0
  0
LINE
  5
557
100
AcDbEntity
  8
ASSI
100
AcDbLine
 62
7
  6
CONTINUOUS
 10
20.5877742028
 20
4.8480913832
 11
21.4271341347
 21
5.3253982675
  0
SPLINE
  5
558
100
AcDbEntity
  8
0
100
AcDbSpline
 62
250
  6
CONTINUOUS
 70
0
 71
3
 72
98
 73
94
 74
0
 42
0.0000001
 43
0.0000001
 44
0.0000000001
 40
0.0
 40
0.0
 40
0.0
 40
0.0
 40
0.03125
 40
0.046875
 40
0.0625
 40
0.0703125
 40
0.078125
 40
0.08203125
 40
0.0859375
 40
0.09375
 40
0.109375
 40
0.125
 40
0.140625
 40
0.15625
 40
0.1640625
 40
0.16796875
 40
0.171875
 40
0.1796875
 40
0.1875
 40
0.21875
 40
0.234375
 40
0.2421875
 40
0.24609375
 40
0.25
 40
0.25390625
 40
0.2578125
 40
0.265625
 40
0.28125
 40
0.3125
 40
0.3203125
 40
0.328125
 40
0.33203125
 40
0.3359375
 40
0.34375
 40
0.359375
 40
0.375
 40
0.390625
 40
0.40625
 40
0.4140625
 40
0.41796875
 40
0.421875
 40
0.4296875
 40
0.4375
 40
0.46875
 40
0.484375
 40
0.4921875
 40
0.49609375
 40
0.5
 40
0.50390625
 40
0.5078125
 40
0.515625
 40
0.53125
 40
0.5625
 40
0.5703125
 40
0.578125
 40
0.58203125
 40
0.5859375
 40
0.59375
 40
0.609375
 40
0.625
 40
0.640625
 40
0.65625
 40
0.6640625
 40
0.66796875
 40
0.671875
 40
0.6796875
 40
0.6875
 40
0.71875
 40
0.734375
 40
0.7421875
 40
0.74609375
 40
0.75
 40
0.75390625
 40
0.7578125
 40
0.765625
 40
0.78125
 40
0.8125
 40
0.8203125
 40
0.828125
 40
0.83203125
 40
0.8359375
 40
0.84375
 40
0.859375
 40
0.875
 40
0.890625
 40
0.90625
 40
0.9140625
 40
0.91796875
 40
0.921875
 40
0.9296875
 40
0.9375
 40
0.96875
 40
1.0
 40
1.0
 40
1.0
 40
1.0
 10
13.0402187557
 20
7.576143436
 30
0.0
 10
13.0397824105
 20
7.5808516276
 30
0.0
 10
13.0391267114
 20
7.587912953
 30
0.0
 10
13.0382571711
 20
7.5973319018
 30
0.0
 10
13.0377038642
 20
7.6032107277
 30
0.0
 10
13.0372836634
 20
7.6079320674
 30
0.0
 10
13.0369698482
 20
7.6108412156
 30
0.0
 10
13.0368360403
 20
7.6132640183
 30
0.0
 10
13.0362742071
 20
7.615338236
 30
0.0
 10
13.0350920404
 20
7.6188060709
 30
0.0
 10
13.033507938
 20
7.6238455018
 30
0.0
 10
13.0315591835
 20
7.6298533806
 30
0.0
 10
13.0296342237
 20
7.6358824031
 30
0.0
 10
13.0279906347
 20
7.6408689744
 30
0.0
 10
13.0269125694
 20
7.6444293137
 30
0.0
 10
13.026184174
 20
7.6463555244
 30
0.0
 10
13.0250328249
 20
7.6478741333
 30
0.0
 10
13.0237382876
 20
7.6499118311
 30
0.0
 10
13.0205116271
 20
7.6546865188
 30
0.0
 10
13.0167944608
 20
7.6603064275
 30
0.0
 10
13.0130402813
 20
7.6658793309
 30
0.0
 10
13.0111903487
 20
7.6687066267
 30
0.0
 10
13.0100919768
 20
7.6702589209
 30
0.0
 10
13.0093842415
 20
7.6716013821
 30
0.0
 10
13.0082329655
 20
7.6722625328
 30
0.0
 10
13.0068526484
 20
7.673381729
 30
0.0
 10
13.004364952
 20
7.6752294586
 30
0.0
 10
12.99944299
 20
7.6790075584
 30
0.0
 10
12.9944890089
 20
7.6827332703
 30
0.0
 10
12.9902731869
 20
7.6859799682
 30
0.0
 10
12.9884810958
 20
7.6872689879
 30
0.0
 10
12.9871295748
 20
7.6884479313
 30
0.0
 10
12.9854778452
 20
7.6890869811
 30
0.0
 10
12.9824477657
 20
7.6899543253
 30
0.0
 10
12.978192474
 20
7.6913255333
 30
0.0
 10
12.9730528133
 20
7.692910386
 30
0.0
 10
12.967928966
 20
7.6945261945
 30
0.0
 10
12.963634141
 20
7.6958200129
 30
0.0
 10
12.9606732447
 20
7.6968227888
 30
0.0
 10
12.9589108219
 20
7.6972451479
 30
0.0
 10
12.956883101
 20
7.6971003659
 30
0.0
 10
12.9544391624
 20
7.6971133695
 30
0.0
 10
12.9484987637
 20
7.696983783
 30
0.0
 10
12.9415960197
 20
7.6968980525
 30
0.0
 10
12.93467569
 20
7.6967566566
 30
0.0
 10
12.931225271
 20
7.6967301846
 30
0.0
 10
12.9292394081
 20
7.6966471939
 30
0.0
 10
12.9277898109
 20
7.6967759063
 30
0.0
 10
12.9261881115
 20
7.696174729
 30
0.0
 10
12.9241055667
 20
7.6956277646
 30
0.0
 10
12.9204363986
 20
7.6945518348
 30
0.0
 10
12.9131161036
 20
7.6924882027
 30
0.0
 10
12.9057864201
 20
7.6903701743
 30
0.0
 10
12.899511066
 20
7.6886082652
 30
0.0
 10
12.8968887529
 20
7.6878107998
 30
0.0
 10
12.8948083765
 20
7.687319481
 30
0.0
 10
12.8926641699
 20
7.6862922172
 30
0.0
 10
12.8888821476
 20
7.6842453584
 30
0.0
 10
12.8834947868
 20
7.6814523816
 30
0.0
 10
12.8770232146
 20
7.678040974
 30
0.0
 10
12.8705537542
 20
7.674659137
 30
0.0
 10
12.865161114
 20
7.6717922337
 30
0.0
 10
12.8613883308
 20
7.6698747463
 30
0.0
 10
12.8592293417
 20
7.6686404883
 30
0.0
 10
12.8570586674
 20
7.6668846825
 30
0.0
 10
12.8543492901
 20
7.6648682885
 30
0.0
 10
12.8478437711
 20
7.6598812987
 30
0.0
 10
12.8402521437
 20
7.6541209374
 30
0.0
 10
12.8326687188
 20
7.6483163844
 30
0.0
 10
12.8288658157
 20
7.6454457194
 30
0.0
 10
12.8267107404
 20
7.6437574613
 30
0.0
 10
12.8250435947
 20
7.6426258702
 30
0.0
 10
12.8235707999
 20
7.6409798082
 30
0.0
 10
12.8215392754
 20
7.638964518
 30
0.0
 10
12.8180157587
 20
7.6353540882
 30
0.0
 10
12.8109448515
 20
7.6281951316
 30
0.0
 10
12.8038905821
 20
7.6209994451
 30
0.0
 10
12.7978254658
 20
7.6148662042
 30
0.0
 10
12.7953214107
 20
7.6122706936
 30
0.0
 10
12.7932646425
 20
7.6102868206
 30
0.0
 10
12.7914035096
 20
7.6079648004
 30
0.0
 10
12.7882374866
 20
7.603744079
 30
0.0
 10
12.7836666431
 20
7.5977971259
 30
0.0
 10
12.7782039006
 20
7.5906233499
 30
0.0
 10
12.7727288046
 20
7.5834670647
 30
0.0
 10
12.7681888447
 20
7.5774763847
 30
0.0
 10
12.7649687753
 20
7.5733321853
 30
0.0
 10
12.7631941167
 20
7.5708877299
 30
0.0
 10
12.7616655864
 20
7.5681559368
 30
0.0
 10
12.7596707941
 20
7.5648394107
 30
0.0
 10
12.7549525508
 20
7.5567988938
 30
0.0
 10
12.7478458629
 20
7.5447723511
 30
0.0
 10
12.7415407224
 20
7.5340681805
 30
0.0
 10
12.7383866627
 20
7.528717834
 30
0.0
  0
SPLINE
  5
559
100
AcDbEntity
  8
0
100
AcDbSpline
 62
250
  6
CONTINUOUS
 70
0
 71
3
 72
94
 73
90
 74
0
 42
0.0000001
 43
0.0000001
 44
0.0000000001
 40
0.0
 40
0.0
 40
0.0
 40
0.0
 40
0.03125
 40
0.046875
 40
0.0625
 40
0.0703125
 40
0.078125
 40
0.08203125
 40
0.0859375
 40
0.09375
 40
0.109375
 40
0.125
 40
0.140625
 40
0.15625
 40
0.1640625
 40
0.16796875
 40
0.171875
 40
0.1796875
 40
0.1875
 40
0.21875
 40
0.234375
 40
0.2421875
 40
0.24609375
 40
0.25
 40
0.25390625
 40
0.2578125
 40
0.265625
 40
0.28125
 40
0.3125
 40
0.3203125
 40
0.328125
 40
0.33203125
 40
0.3359375
 40
0.34375
 40
0.359375
 40
0.375
 40
0.390625
 40
0.40625
 40
0.4140625
 40
0.41796875
 40
0.421875
 40
0.4296875
 40
0.4375
 40
0.46875
 40
0.484375
 40
0.4921875
 40
0.5
 40
0.5078125
 40
0.515625
 40
0.53125
 40
0.5625
 40
0.5703125
 40
0.578125
 40
0.58203125
 40
0.5859375
 40
0.59375
 40
0.609375
 40
0.625
 40
0.640625
 40
0.65625
 40
0.6640625
 40
0.66796875
 40
0.671875
 40
0.6796875
 40
0.6875
 40
0.71875
 40
0.734375
 40
0.7421875
 40
0.75
 40
0.7578125
 40
0.765625
 40
0.78125
 40
0.8125
 40
0.8203125
 40
0.828125
 40
0.83203125
 40
0.8359375
 40
0.84375
 40
0.859375
 40
0.875
 40
0.890625
 40
0.90625
 40
0.9140625
 40
0.91796875
 40
0.921875
 40
0.9296875
 40
0.9375
 40
0.96875
 40
1.0
 40
1.0
 40
1.0
 40
1.0
 10
12.7383866906
 20
2.771330059
 30
0.0
 10
12.7414821913
 20
2.7696415308
 30
0.0
 10
12.7461261914
 20
2.7671102623
 30
0.0
 10
12.7523151952
 20
2.7637291426
 30
0.0
 10
12.7561895648
 20
2.7616286407
 30
0.0
 10
12.7592748282
 20
2.7599192879
 30
0.0
 10
12.7612355774
 20
2.7589169716
 30
0.0
 10
12.7627298319
 20
2.7579638864
 30
0.0
 10
12.7644954982
 20
2.7575629062
 30
0.0
 10
12.7677115668
 20
2.7571178313
 30
0.0
 10
12.7722396152
 20
2.7563469019
 30
0.0
 10
12.7777033338
 20
2.7554836991
 30
0.0
 10
12.7831529469
 20
2.754589019
 30
0.0
 10
12.7877162588
 20
2.7538967829
 30
0.0
 10
12.7908706163
 20
2.7533139946
 30
0.0
 10
12.7927350204
 20
2.7531333559
 30
0.0
 10
12.7948324673
 20
2.7535263569
 30
0.0
 10
12.7973745969
 20
2.7538214079
 30
0.0
 10
12.8035414984
 20
2.7546921339
 30
0.0
 10
12.8107123334
 20
2.7556421416
 30
0.0
 10
12.817897252
 20
2.7566473891
 30
0.0
 10
12.821482916
 20
2.7571066567
 30
0.0
 10
12.8235415039
 20
2.7574355289
 30
0.0
 10
12.8250584751
 20
2.7574952696
 30
0.0
 10
12.8266785067
 20
2.7582694472
 30
0.0
 10
12.8288026016
 20
2.7590524693
 30
0.0
 10
12.8325365028
 20
2.7605389825
 30
0.0
 10
12.8399922057
 20
2.7634256927
 30
0.0
 10
12.8474535648
 20
2.7663654025
 30
0.0
 10
12.8538455375
 20
2.7688332375
 30
0.0
 10
12.8565119626
 20
2.7699227913
 30
0.0
 10
12.858638003
 20
2.7706525319
 30
0.0
 10
12.8607899595
 20
2.7719008507
 30
0.0
 10
12.8645679182
 20
2.7743264808
 30
0.0
 10
12.8699587524
 20
2.7776648186
 30
0.0
 10
12.8764302441
 20
2.7817286721
 30
0.0
 10
12.8829017725
 20
2.7857640896
 30
0.0
 10
12.8882925147
 20
2.7891735177
 30
0.0
 10
12.8920706343
 20
2.7914747398
 30
0.0
 10
12.8942223335
 20
2.7929221113
 30
0.0
 10
12.8963468364
 20
2.7948677475
 30
0.0
 10
12.8990116605
 20
2.7971296611
 30
0.0
 10
12.9054005507
 20
2.8026967228
 30
0.0
 10
12.9128464546
 20
2.8091640517
 30
0.0
 10
12.9203216142
 20
2.8155929493
 30
0.0
 10
12.9245483308
 20
2.8193513969
 30
0.0
 10
12.927844419
 20
2.8219268373
 30
0.0
 10
12.9306587061
 20
2.8254334631
 30
0.0
 10
12.9345790206
 20
2.8297843019
 30
0.0
 10
12.9413625912
 20
2.8375480747
 30
0.0
 10
12.9481672202
 20
2.8452652567
 30
0.0
 10
12.9540096197
 20
2.8518728179
 30
0.0
 10
12.956417491
 20
2.8546600982
 30
0.0
 10
12.9584063105
 20
2.8568087277
 30
0.0
 10
12.9601662098
 20
2.859254832
 30
0.0
 10
12.9631395824
 20
2.8636738275
 30
0.0
 10
12.9674433619
 20
2.869913969
 30
0.0
 10
12.9725819138
 20
2.8774349995
 30
0.0
 10
12.9777346326
 20
2.8849409218
 30
0.0
 10
12.982002995
 20
2.8912188338
 30
0.0
 10
12.9850383474
 20
2.8955717309
 30
0.0
 10
12.9866990792
 20
2.8981235927
 30
0.0
 10
12.988082221
 20
2.9009181832
 30
0.0
 10
12.9899058306
 20
2.9043284671
 30
0.0
 10
12.9942063131
 20
2.9125813236
 30
0.0
 10
12.9992286132
 20
2.9221885177
 30
0.0
 10
13.0043023598
 20
2.9317994739
 30
0.0
 10
13.0071099726
 20
2.9372994945
 30
0.0
 10
13.0094759962
 20
2.9413992982
 30
0.0
 10
13.0108465991
 20
2.9455959264
 30
0.0
 10
13.013021072
 20
2.9511576305
 30
0.0
 10
13.0166668471
 20
2.9609066282
 30
0.0
 10
13.0203590559
 20
2.9706482581
 30
0.0
 10
13.0235382714
 20
2.9790025751
 30
0.0
 10
13.0248167248
 20
2.9824798015
 30
0.0
 10
13.0259489684
 20
2.9852701215
 30
0.0
 10
13.0266802639
 20
2.988029277
 30
0.0
 10
13.0277735927
 20
2.9928432982
 30
0.0
 10
13.0294336585
 20
2.9997282136
 30
0.0
 10
13.0313806775
 20
3.0079860941
 30
0.0
 10
13.0333508686
 20
3.0162476591
 30
0.0
 10
13.0349530043
 20
3.0231233632
 30
0.0
 10
13.0361477108
 20
3.0279535042
 30
0.0
 10
13.0367168019
 20
3.030686868
 30
0.0
 10
13.0368582789
 20
3.0333196337
 30
0.0
 10
13.0371812886
 20
3.0366449764
 30
0.0
 10
13.0378361847
 20
3.0445974914
 30
0.0
 10
13.038869474
 20
3.056538249
 30
0.0
 10
13.0397672518
 20
3.0671473856
 30
0.0
 10
13.0402187284
 20
3.0724525626
 30
0.0
  0
SPLINE
  5
55A
100
AcDbEntity
  8
0
100
AcDbSpline
 62
250
  6
CONTINUOUS
 70
0
 71
3
 72
51
 73
47
 74
0
 42
0.0000001
 43
0.0000001
 44
0.0000000001
 40
0.0
 40
0.0
 40
0.0
 40
0.0
 40
0.0625
 40
0.09375
 40
0.109375
 40
0.125
 40
0.140625
 40
0.15625
 40
0.1875
 40
0.21875
 40
0.234375
 40
0.25
 40
0.265625
 40
0.28125
 40
0.3125
 40
0.34375
 40
0.359375
 40
0.375
 40
0.390625
 40
0.40625
 40
0.4375
 40
0.46875
 40
0.484375
 40
0.5
 40
0.515625
 40
0.53125
 40
0.5625
 40
0.59375
 40
0.609375
 40
0.625
 40
0.640625
 40
0.65625
 40
0.6875
 40
0.71875
 40
0.734375
 40
0.75
 40
0.765625
 40
0.78125
 40
0.8125
 40
0.84375
 40
0.859375
 40
0.875
 40
0.890625
 40
0.90625
 40
0.9375
 40
1.0
 40
1.0
 40
1.0
 40
1.0
 10
12.2709113265
 20
3.5884200797
 30
0.0
 10
12.2710839364
 20
3.5864870591
 30
0.0
 10
12.2713510477
 20
3.5835941352
 30
0.0
 10
12.2716339902
 20
3.5801959328
 30
0.0
 10
12.2718366534
 20
3.5782871379
 30
0.0
 10
12.2718739019
 20
3.5767630434
 30
0.0
 10
12.2723496553
 20
3.5755924249
 30
0.0
 10
12.2728301699
 20
3.5739074484
 30
0.0
 10
12.2734882249
 20
3.5718486764
 30
0.0
 10
12.2741089123
 20
3.5697553
 30
0.0
 10
12.2746492151
 20
3.5681256904
 30
0.0
 10
12.274945604
 20
3.5667889714
 30
0.0
 10
12.2756554695
 20
3.565887754
 30
0.0
 10
12.2764568957
 20
3.5645332491
 30
0.0
 10
12.277512945
 20
3.5628979762
 30
0.0
 10
12.2785332544
 20
3.5612223727
 30
0.0
 10
12.2793918645
 20
3.5599323967
 30
0.0
 10
12.2799301782
 20
3.5588375928
 30
0.0
 10
12.2808698863
 20
3.5582268229
 30
0.0
 10
12.2819821548
 20
3.5572424894
 30
0.0
 10
12.2834240711
 20
3.5560767899
 30
0.0
 10
12.2848355091
 20
3.5548646881
 30
0.0
 10
12.2859965428
 20
3.5539545982
 30
0.0
 10
12.2867899551
 20
3.5531210975
 30
0.0
 10
12.287876878
 20
3.552861534
 30
0.0
 10
12.2892231907
 20
3.5523140697
 30
0.0
 10
12.2909441895
 20
3.5517052438
 30
0.0
 10
12.2926414039
 20
3.5510461244
 30
0.0
 10
12.2940257717
 20
3.5505791297
 30
0.0
 10
12.2949985295
 20
3.5500781575
 30
0.0
 10
12.2962200613
 20
3.5501499394
 30
0.0
 10
12.2977615985
 20
3.5500446775
 30
0.0
 10
12.2997203737
 20
3.5499884991
 30
0.0
 10
12.3016606994
 20
3.5498819384
 30
0.0
 10
12.3032317558
 20
3.5498572883
 30
0.0
 10
12.30436473
 20
3.5496872349
 30
0.0
 10
12.3056695788
 20
3.5500931453
 30
0.0
 10
12.3073491352
 20
3.5504322595
 30
0.0
 10
12.3094707092
 20
3.5509319897
 30
0.0
 10
12.3115790719
 20
3.5513809948
 30
0.0
 10
12.3132797662
 20
3.5518012692
 30
0.0
 10
12.3145212015
 20
3.5519636991
 30
0.0
 10
12.3158919763
 20
3.5527066977
 30
0.0
 10
12.3176745482
 20
3.5534947966
 30
0.0
 10
12.3208152027
 20
3.5549689223
 30
0.0
 10
12.3234999396
 20
3.5561999035
 30
0.0
 10
12.3252913759
 20
3.5570277921
 30
0.0
  0
SPLINE
  5
55B
100
AcDbEntity
  8
0
100
AcDbSpline
 62
250
  6
CONTINUOUS
 70
0
 71
3
 72
37
 73
33
 74
0
 42
0.0000001
 43
0.0000001
 44
0.0000000001
 40
0.0
 40
0.0
 40
0.0
 40
0.0
 40
0.0625
 40
0.09375
 40
0.125
 40
0.15625
 40
0.1875
 40
0.21875
 40
0.25
 40
0.28125
 40
0.3125
 40
0.34375
 40
0.375
 40
0.40625
 40
0.4375
 40
0.46875
 40
0.5
 40
0.53125
 40
0.5625
 40
0.59375
 40
0.625
 40
0.65625
 40
0.6875
 40
0.71875
 40
0.75
 40
0.78125
 40
0.8125
 40
0.84375
 40
0.875
 40
0.90625
 40
0.9375
 40
1.0
 40
1.0
 40
1.0
 40
1.0
 10
12.4573569999
 20
3.6332808282
 30
0.0
 10
12.4591174121
 20
3.6344965745
 30
0.0
 10
12.4617626552
 20
3.6362960365
 30
0.0
 10
12.4652711469
 20
3.6387919489
 30
0.0
 10
12.4679487632
 20
3.6404223088
 30
0.0
 10
12.4704506388
 20
3.6429706514
 30
0.0
 10
12.4730057478
 20
3.6452593853
 30
0.0
 10
12.475523664
 20
3.6476685715
 30
0.0
 10
12.478137118
 20
3.6498555574
 30
0.0
 10
12.4804056133
 20
3.6528108919
 30
0.0
 10
12.4827744284
 20
3.6555482406
 30
0.0
 10
12.4850869231
 20
3.6583891842
 30
0.0
 10
12.4875243795
 20
3.6610337336
 30
0.0
 10
12.4895183092
 20
3.6643602653
 30
0.0
 10
12.4916436964
 20
3.6674991548
 30
0.0
 10
12.4936867801
 20
3.6707066308
 30
0.0
 10
12.4959276205
 20
3.6738274029
 30
0.0
 10
12.4974597373
 20
3.6772264038
 30
0.0
 10
12.4991951415
 20
3.6805482579
 30
0.0
 10
12.5008261197
 20
3.6839004705
 30
0.0
 10
12.5026715146
 20
3.687208396
 30
0.0
 10
12.5037636684
 20
3.6906631114
 30
0.0
 10
12.5050725192
 20
3.6940799442
 30
0.0
 10
12.5062678228
 20
3.6975015175
 30
0.0
 10
12.5077006183
 20
3.7009420112
 30
0.0
 10
12.5082969937
 20
3.704302083
 30
0.0
 10
12.5091331627
 20
3.707687412
 30
0.0
 10
12.5098465776
 20
3.711052134
 30
0.0
 10
12.5108112154
 20
3.7144740269
 30
0.0
 10
12.5108937159
 20
3.7176878433
 30
0.0
 10
12.5113132384
 20
3.722045941
 30
0.0
 10
12.5115582379
 20
3.7252980872
 30
0.0
 10
12.5117370469
 20
3.7274698352
 30
0.0
  0
SPLINE
  5
55C
100
AcDbEntity
  8
0
100
AcDbSpline
 62
250
  6
CONTINUOUS
 70
0
 71
3
 72
37
 73
33
 74
0
 42
0.0000001
 43
0.0000001
 44
0.0000000001
 40
0.0
 40
0.0
 40
0.0
 40
0.0
 40
0.0625
 40
0.09375
 40
0.125
 40
0.15625
 40
0.1875
 40
0.21875
 40
0.25
 40
0.28125
 40
0.3125
 40
0.34375
 40
0.375
 40
0.40625
 40
0.4375
 40
0.46875
 40
0.5
 40
0.53125
 40
0.5625
 40
0.59375
 40
0.625
 40
0.65625
 40
0.6875
 40
0.71875
 40
0.75
 40
0.78125
 40
0.8125
 40
0.84375
 40
0.875
 40
0.90625
 40
0.9375
 40
1.0
 40
1.0
 40
1.0
 40
1.0
 10
12.5661163868
 20
4.5302933934
 30
0.0
 10
12.5643559746
 20
4.5290776471
 30
0.0
 10
12.5617107316
 20
4.5272781851
 30
0.0
 10
12.5582022399
 20
4.5247822727
 30
0.0
 10
12.5555246236
 20
4.5231519128
 30
0.0
 10
12.553022748
 20
4.5206035702
 30
0.0
 10
12.550467639
 20
4.5183148363
 30
0.0
 10
12.5479497228
 20
4.5159056501
 30
0.0
 10
12.5453362687
 20
4.5137186642
 30
0.0
 10
12.5430677735
 20
4.5107633297
 30
0.0
 10
12.5406989584
 20
4.508025981
 30
0.0
 10
12.5383864637
 20
4.5051850374
 30
0.0
 10
12.5359490072
 20
4.502540488
 30
0.0
 10
12.5339550776
 20
4.4992139563
 30
0.0
 10
12.5318296903
 20
4.4960750668
 30
0.0
 10
12.5297866067
 20
4.4928675908
 30
0.0
 10
12.5275457662
 20
4.4897468187
 30
0.0
 10
12.5260136495
 20
4.4863478178
 30
0.0
 10
12.5242782452
 20
4.4830259637
 30
0.0
 10
12.5226472671
 20
4.4796737511
 30
0.0
 10
12.5208018721
 20
4.4763658256
 30
0.0
 10
12.5197097184
 20
4.4729111102
 30
0.0
 10
12.5184008675
 20
4.4694942774
 30
0.0
 10
12.5172055639
 20
4.4660727041
 30
0.0
 10
12.5157727685
 20
4.4626322104
 30
0.0
 10
12.515176393
 20
4.4592721386
 30
0.0
 10
12.514340224
 20
4.4558868096
 30
0.0
 10
12.5136268091
 20
4.4525220876
 30
0.0
 10
12.5126621714
 20
4.4491001947
 30
0.0
 10
12.5125796709
 20
4.4458863783
 30
0.0
 10
12.5121601484
 20
4.4415282806
 30
0.0
 10
12.5119151489
 20
4.4382761344
 30
0.0
 10
12.5117363398
 20
4.4361043864
 30
0.0
  0
SPLINE
  5
55D
100
AcDbEntity
  8
0
100
AcDbSpline
 62
250
  6
CONTINUOUS
 70
0
 71
3
 72
51
 73
47
 74
0
 42
0.0000001
 43
0.0000001
 44
0.0000000001
 40
0.0
 40
0.0
 40
0.0
 40
0.0
 40
0.0625
 40
0.09375
 40
0.109375
 40
0.125
 40
0.140625
 40
0.15625
 40
0.1875
 40
0.21875
 40
0.234375
 40
0.25
 40
0.265625
 40
0.28125
 40
0.3125
 40
0.34375
 40
0.359375
 40
0.375
 40
0.390625
 40
0.40625
 40
0.4375
 40
0.46875
 40
0.484375
 40
0.5
 40
0.515625
 40
0.53125
 40
0.5625
 40
0.59375
 40
0.609375
 40
0.625
 40
0.640625
 40
0.65625
 40
0.6875
 40
0.71875
 40
0.734375
 40
0.75
 40
0.765625
 40
0.78125
 40
0.8125
 40
0.84375
 40
0.859375
 40
0.875
 40
0.890625
 40
0.90625
 40
0.9375
 40
1.0
 40
1.0
 40
1.0
 40
1.0
 10
12.7690574473
 20
4.5846783716
 30
0.0
 10
12.7688848373
 20
4.5866113922
 30
0.0
 10
12.7686177261
 20
4.5895043161
 30
0.0
 10
12.7683347835
 20
4.5929025186
 30
0.0
 10
12.7681321203
 20
4.5948113134
 30
0.0
 10
12.7680948719
 20
4.5963354079
 30
0.0
 10
12.7676191185
 20
4.5975060264
 30
0.0
 10
12.7671386038
 20
4.5991910029
 30
0.0
 10
12.7664805488
 20
4.6012497749
 30
0.0
 10
12.7658598615
 20
4.6033431513
 30
0.0
 10
12.7653195586
 20
4.6049727609
 30
0.0
 10
12.7650231698
 20
4.6063094799
 30
0.0
 10
12.7643133043
 20
4.6072106973
 30
0.0
 10
12.7635118781
 20
4.6085652022
 30
0.0
 10
12.7624558287
 20
4.6102004751
 30
0.0
 10
12.7614355194
 20
4.6118760786
 30
0.0
 10
12.7605769092
 20
4.6131660546
 30
0.0
 10
12.7600385955
 20
4.6142608585
 30
0.0
 10
12.7590988875
 20
4.6148716284
 30
0.0
 10
12.757986619
 20
4.6158559619
 30
0.0
 10
12.7565447027
 20
4.6170216614
 30
0.0
 10
12.7551332647
 20
4.6182337632
 30
0.0
 10
12.7539722309
 20
4.6191438531
 30
0.0
 10
12.7531788187
 20
4.6199773538
 30
0.0
 10
12.7520918957
 20
4.6202369173
 30
0.0
 10
12.750745583
 20
4.6207843816
 30
0.0
 10
12.7490245842
 20
4.6213932075
 30
0.0
 10
12.7473273698
 20
4.6220523269
 30
0.0
 10
12.7459430021
 20
4.6225193216
 30
0.0
 10
12.7449702443
 20
4.6230202939
 30
0.0
 10
12.7437487125
 20
4.6229485119
 30
0.0
 10
12.7422071752
 20
4.6230537738
 30
0.0
 10
12.7402484001
 20
4.6231099522
 30
0.0
 10
12.7383080744
 20
4.6232165129
 30
0.0
 10
12.7367370179
 20
4.6232411631
 30
0.0
 10
12.7356040437
 20
4.6234112164
 30
0.0
 10
12.7342991949
 20
4.6230053061
 30
0.0
 10
12.7326196385
 20
4.6226661918
 30
0.0
 10
12.7304980646
 20
4.6221664616
 30
0.0
 10
12.7283897018
 20
4.6217174565
 30
0.0
 10
12.7266890076
 20
4.6212971821
 30
0.0
 10
12.7254475723
 20
4.6211347523
 30
0.0
 10
12.7240767975
 20
4.6203917536
 30
0.0
 10
12.7222942256
 20
4.6196036548
 30
0.0
 10
12.7191535711
 20
4.618129529
 30
0.0
 10
12.7164688342
 20
4.6168985478
 30
0.0
 10
12.7146773979
 20
4.6160706593
 30
0.0
  0
SPLINE
  5
55E
100
AcDbEntity
  8
0
100
AcDbSpline
 62
250
  6
CONTINUOUS
 70
0
 71
3
 72
49
 73
45
 74
0
 42
0.0000001
 43
0.0000001
 44
0.0000000001
 40
0.0
 40
0.0
 40
0.0
 40
0.0
 40
0.0625
 40
0.09375
 40
0.125
 40
0.15625
 40
0.1875
 40
0.21875
 40
0.234375
 40
0.25
 40
0.265625
 40
0.28125
 40
0.3125
 40
0.34375
 40
0.359375
 40
0.375
 40
0.390625
 40
0.40625
 40
0.4375
 40
0.46875
 40
0.484375
 40
0.5
 40
0.515625
 40
0.53125
 40
0.5625
 40
0.59375
 40
0.609375
 40
0.625
 40
0.640625
 40
0.65625
 40
0.6875
 40
0.71875
 40
0.734375
 40
0.75
 40
0.765625
 40
0.78125
 40
0.8125
 40
0.84375
 40
0.859375
 40
0.875
 40
0.890625
 40
0.90625
 40
0.9375
 40
1.0
 40
1.0
 40
1.0
 40
1.0
 10
12.7496318098
 20
5.9746558822
 30
0.0
 10
12.7509867829
 20
5.9770697104
 30
0.0
 10
12.7530411523
 20
5.9806805244
 30
0.0
 10
12.7556926728
 20
5.9855346565
 30
0.0
 10
12.7579004097
 20
5.989075972
 30
0.0
 10
12.75927558
 20
5.9929945647
 30
0.0
 10
12.7608675304
 20
5.9968109941
 30
0.0
 10
12.7621653609
 20
6.0000174986
 30
0.0
 10
12.7631643429
 20
6.0025710318
 30
0.0
 10
12.7640487032
 20
6.0045055048
 30
0.0
 10
12.7644122098
 20
6.006368521
 30
0.0
 10
12.7650796617
 20
6.0088776943
 30
0.0
 10
12.7658452869
 20
6.0120041647
 30
0.0
 10
12.7666572005
 20
6.0151391808
 30
0.0
 10
12.7672505911
 20
6.0176346809
 30
0.0
 10
12.7678362818
 20
6.0195387171
 30
0.0
 10
12.7678874515
 20
6.021319365
 30
0.0
 10
12.7681432627
 20
6.0237372289
 30
0.0
 10
12.7683924419
 20
6.0267405299
 30
0.0
 10
12.7686894793
 20
6.0297653628
 30
0.0
 10
12.7688687175
 20
6.0321487756
 30
0.0
 10
12.7691496062
 20
6.0340327767
 30
0.0
 10
12.7688738508
 20
6.0355492387
 30
0.0
 10
12.768701484
 20
6.0377002166
 30
0.0
 10
12.7684128332
 20
6.0403400722
 30
0.0
 10
12.7681728176
 20
6.0430141096
 30
0.0
 10
12.7679226344
 20
6.0451103964
 30
0.0
 10
12.7678803282
 20
6.046790932
 30
0.0
 10
12.7672857825
 20
6.0480596571
 30
0.0
 10
12.7666867245
 20
6.0498960649
 30
0.0
 10
12.7658659784
 20
6.0521352933
 30
0.0
 10
12.7650908395
 20
6.0544186794
 30
0.0
 10
12.7644188101
 20
6.0561844349
 30
0.0
 10
12.7640431786
 20
6.0576651169
 30
0.0
 10
12.763179944
 20
6.0585508141
 30
0.0
 10
12.762200021
 20
6.0599405526
 30
0.0
 10
12.7609112014
 20
6.0615991207
 30
0.0
 10
12.7596642243
 20
6.0633110978
 30
0.0
 10
12.7586173533
 20
6.0646153819
 30
0.0
 10
12.7579549627
 20
6.0657574423
 30
0.0
 10
12.756826166
 20
6.0662767621
 30
0.0
 10
12.7554838373
 20
6.0671864688
 30
0.0
 10
12.7530584807
 20
6.0686766053
 30
0.0
 10
12.7510057573
 20
6.0699887852
 30
0.0
 10
12.7496314631
 20
6.0708558118
 30
0.0
  0
SPLINE
  5
55F
100
AcDbEntity
  8
0
100
AcDbSpline
 62
250
  6
CONTINUOUS
 70
0
 71
3
 72
51
 73
47
 74
0
 42
0.0000001
 43
0.0000001
 44
0.0000000001
 40
0.0
 40
0.0
 40
0.0
 40
0.0
 40
0.0625
 40
0.09375
 40
0.109375
 40
0.125
 40
0.140625
 40
0.15625
 40
0.1875
 40
0.21875
 40
0.234375
 40
0.25
 40
0.265625
 40
0.28125
 40
0.3125
 40
0.34375
 40
0.359375
 40
0.375
 40
0.390625
 40
0.40625
 40
0.4375
 40
0.46875
 40
0.484375
 40
0.5
 40
0.515625
 40
0.53125
 40
0.5625
 40
0.59375
 40
0.609375
 40
0.625
 40
0.640625
 40
0.65625
 40
0.6875
 40
0.71875
 40
0.734375
 40
0.75
 40
0.765625
 40
0.78125
 40
0.8125
 40
0.84375
 40
0.859375
 40
0.875
 40
0.890625
 40
0.90625
 40
0.9375
 40
1.0
 40
1.0
 40
1.0
 40
1.0
 10
12.2709113265
 20
4.5571865572
 30
0.0
 10
12.2710839364
 20
4.5552535366
 30
0.0
 10
12.2713510477
 20
4.5523606127
 30
0.0
 10
12.2716339902
 20
4.5489624103
 30
0.0
 10
12.2718366534
 20
4.5470536154
 30
0.0
 10
12.2718739019
 20
4.5455295209
 30
0.0
 10
12.2723496553
 20
4.5443589024
 30
0.0
 10
12.2728301699
 20
4.542673926
 30
0.0
 10
12.2734882249
 20
4.5406151539
 30
0.0
 10
12.2741089123
 20
4.5385217776
 30
0.0
 10
12.2746492151
 20
4.536892168
 30
0.0
 10
12.274945604
 20
4.5355554489
 30
0.0
 10
12.2756554695
 20
4.5346542315
 30
0.0
 10
12.2764568957
 20
4.5332997266
 30
0.0
 10
12.277512945
 20
4.5316644537
 30
0.0
 10
12.2785332544
 20
4.5299888502
 30
0.0
 10
12.2793918645
 20
4.5286988742
 30
0.0
 10
12.2799301782
 20
4.5276040703
 30
0.0
 10
12.2808698863
 20
4.5269933004
 30
0.0
 10
12.2819821548
 20
4.5260089669
 30
0.0
 10
12.2834240711
 20
4.5248432674
 30
0.0
 10
12.2848355091
 20
4.5236311656
 30
0.0
 10
12.2859965428
 20
4.5227210757
 30
0.0
 10
12.2867899551
 20
4.521887575
 30
0.0
 10
12.287876878
 20
4.5216280115
 30
0.0
 10
12.2892231907
 20
4.5210805472
 30
0.0
 10
12.2909441895
 20
4.5204717213
 30
0.0
 10
12.2926414039
 20
4.5198126019
 30
0.0
 10
12.2940257717
 20
4.5193456072
 30
0.0
 10
12.2949985295
 20
4.518844635
 30
0.0
 10
12.2962200613
 20
4.518916417
 30
0.0
 10
12.2977615985
 20
4.518811155
 30
0.0
 10
12.2997203737
 20
4.5187549767
 30
0.0
 10
12.3016606994
 20
4.518648416
 30
0.0
 10
12.3032317558
 20
4.5186237658
 30
0.0
 10
12.30436473
 20
4.5184537124
 30
0.0
 10
12.3056695788
 20
4.5188596228
 30
0.0
 10
12.3073491352
 20
4.519198737
 30
0.0
 10
12.3094707092
 20
4.5196984672
 30
0.0
 10
12.3115790719
 20
4.5201474723
 30
0.0
 10
12.3132797662
 20
4.5205677468
 30
0.0
 10
12.3145212015
 20
4.5207301766
 30
0.0
 10
12.3158919763
 20
4.5214731753
 30
0.0
 10
12.3176745482
 20
4.5222612741
 30
0.0
 10
12.3208152027
 20
4.5237353999
 30
0.0
 10
12.3234999396
 20
4.524966381
 30
0.0
 10
12.3252913759
 20
4.5257942696
 30
0.0
  0
SPLINE
  5
560
100
AcDbEntity
  8
0
100
AcDbSpline
 62
250
  6
CONTINUOUS
 70
0
 71
3
 72
37
 73
33
 74
0
 42
0.0000001
 43
0.0000001
 44
0.0000000001
 40
0.0
 40
0.0
 40
0.0
 40
0.0
 40
0.0625
 40
0.09375
 40
0.125
 40
0.15625
 40
0.1875
 40
0.21875
 40
0.25
 40
0.28125
 40
0.3125
 40
0.34375
 40
0.375
 40
0.40625
 40
0.4375
 40
0.46875
 40
0.5
 40
0.53125
 40
0.5625
 40
0.59375
 40
0.625
 40
0.65625
 40
0.6875
 40
0.71875
 40
0.75
 40
0.78125
 40
0.8125
 40
0.84375
 40
0.875
 40
0.90625
 40
0.9375
 40
1.0
 40
1.0
 40
1.0
 40
1.0
 10
12.7146774002
 20
4.7506216964
 30
0.0
 10
12.7164377895
 20
4.7518374268
 30
0.0
 10
12.7190829982
 20
4.7536368654
 30
0.0
 10
12.7225914443
 20
4.7561327454
 30
0.0
 10
12.7252690258
 20
4.7577630841
 30
0.0
 10
12.7277708689
 20
4.7603113936
 30
0.0
 10
12.7303259446
 20
4.7626000977
 30
0.0
 10
12.7328438281
 20
4.7650092525
 30
0.0
 10
12.7354572482
 20
4.76719621
 30
0.0
 10
12.7377257139
 20
4.7701515061
 30
0.0
 10
12.7400944982
 20
4.7728888192
 30
0.0
 10
12.7424069628
 20
4.7757297259
 30
0.0
 10
12.7448443876
 20
4.7783742408
 30
0.0
 10
12.7468382913
 20
4.7817007293
 30
0.0
 10
12.7489636509
 20
4.784839578
 30
0.0
 10
12.751006708
 20
4.7880470123
 30
0.0
 10
12.7532475193
 20
4.7911677439
 30
0.0
 10
12.7547796162
 20
4.7945667006
 30
0.0
 10
12.7565149978
 20
4.7978885115
 30
0.0
 10
12.7581459548
 20
4.8012406804
 30
0.0
 10
12.7599913257
 20
4.8045485629
 30
0.0
 10
12.7610834653
 20
4.8080032334
 30
0.0
 10
12.7623922991
 20
4.8114200217
 30
0.0
 10
12.7635875872
 20
4.8148415506
 30
0.0
 10
12.7650203639
 20
4.8182819996
 30
0.0
 10
12.7656167317
 20
4.8216420277
 30
0.0
 10
12.7664528898
 20
4.8250273127
 30
0.0
 10
12.7671662954
 20
4.8283919909
 30
0.0
 10
12.7681309206
 20
4.8318138393
 30
0.0
 10
12.76821342
 20
4.8350276139
 30
0.0
 10
12.7686329371
 20
4.839385655
 30
0.0
 10
12.7688779334
 20
4.8426377589
 30
0.0
 10
12.7690567401
 20
4.8448094786
 30
0.0
  0
SPLINE
  5
561
100
AcDbEntity
  8
CURVE
100
AcDbSpline
 62
250
  6
CONTINUOUS
 70
0
 71
3
 72
24
 73
20
 74
0
 42
0.0000001
 43
0.0000001
 44
0.0000000001
 40
0.0
 40
0.0
 40
0.0
 40
0.0
 40
0.1246385371
 40
0.2494971729
 40
0.3746251773
 40
0.4371569975
 40
0.46844438
 40
0.499732031
 40
0.531020682
 40
0.562309249
 40
0.5935986267
 40
0.6248881761
 40
0.6561779372
 40
0.6874678556
 40
0.7187580412
 40
0.7500483721
 40
0.8125907624
 40
0.8751495207
 40
1.0
 40
1.0
 40
1.0
 40
1.0
 10
5.8482381266
 20
3.8963842827
 30
0.0
 10
5.8329947762
 20
3.9132664355
 30
0.0
 10
5.7952660138
 20
3.9386976928
 30
0.0
 10
5.7190632553
 20
3.9288014591
 30
0.0
 10
5.6546316181
 20
3.9126174827
 30
0.0
 10
5.6117526507
 20
3.9107624025
 30
0.0
 10
5.5890807796
 20
3.9144358852
 30
0.0
 10
5.5731861373
 20
3.9197001577
 30
0.0
 10
5.5587574637
 20
3.9278427934
 30
0.0
 10
5.5465530098
 20
3.9395914254
 30
0.0
 10
5.5358984665
 20
3.953442037
 30
0.0
 10
5.5256800077
 20
3.967857247
 30
0.0
 10
5.5163893594
 20
3.9834478605
 30
0.0
 10
5.5085658855
 20
4.0007224031
 30
0.0
 10
5.5018636671
 20
4.0191583993
 30
0.0
 10
5.4939529199
 20
4.0447402608
 30
0.0
 10
5.4874020888
 20
4.0798323296
 30
0.0
 10
5.4834801709
 20
4.1406649196
 30
0.0
 10
5.4873921505
 20
4.1910588441
 30
0.0
 10
5.494376452
 20
4.2257765798
 30
0.0
  0
SPLINE
  5
562
100
AcDbEntity
  8
CURVE
100
AcDbSpline
 62
250
  6
CONTINUOUS
 70
0
 71
3
 72
15
 73
11
 74
0
 42
0.0000001
 43
0.0000001
 44
0.0000000001
 40
0.0
 40
0.0
 40
0.0
 40
0.0
 40
0.125
 40
0.25
 40
0.375
 40
0.5
 40
0.625
 40
0.75
 40
0.875
 40
1.0
 40
1.0
 40
1.0
 40
1.0
 10
5.6499780517
 20
5.0758760272
 30
0.0
 10
5.6296567492
 20
5.0617056271
 30
0.0
 10
5.5891989041
 20
5.0300921085
 30
0.0
 10
5.5304921815
 20
4.9739491741
 30
0.0
 10
5.4748721281
 20
4.9101572796
 30
0.0
 10
5.4234589282
 20
4.8399937865
 30
0.0
 10
5.3772696456
 20
4.7648504638
 30
0.0
 10
5.3372211028
 20
4.6862146376
 30
0.0
 10
5.3041138116
 20
4.6056684054
 30
0.0
 10
5.2870942427
 20
4.5517117642
 30
0.0
 10
5.2799448747
 20
4.5249848883
 30
0.0
  0
SPLINE
  5
563
100
AcDbEntity
  8
CURVE
100
AcDbSpline
 62
250
  6
CONTINUOUS
 70
0
 71
3
 72
19
 73
15
 74
0
 42
0.0000001
 43
0.0000001
 44
0.0000000001
 40
0.0
 40
0.0
 40
0.0
 40
0.0
 40
0.0833333333
 40
0.1666666667
 40
0.25
 40
0.3333333333
 40
0.4166666667
 40
0.5
 40
0.5833333333
 40
0.6666666667
 40
0.75
 40
0.8333333333
 40
0.9166666667
 40
1.0
 40
1.0
 40
1.0
 40
1.0
 10
6.9457318547
 20
3.5205860119
 30
0.0
 10
6.9620707379
 20
3.525368104
 30
0.0
 10
6.9954498984
 20
3.5382642837
 30
0.0
 10
7.0462610597
 20
3.5670977284
 30
0.0
 10
7.0966971304
 20
3.6047710235
 30
0.0
 10
7.1455792187
 20
3.6504103194
 30
0.0
 10
7.1917830661
 20
3.7029633912
 30
0.0
 10
7.2342412008
 20
3.761217
 30
0.0
 10
7.2719739514
 20
3.8238266126
 30
0.0
 10
7.3041103497
 20
3.8893474896
 30
0.0
 10
7.3299086913
 20
3.9562660899
 30
0.0
 10
7.3487735313
 20
4.0230427119
 30
0.0
 10
7.3602694607
 20
4.0881181407
 30
0.0
 10
7.3628439183
 20
4.1294110386
 30
0.0
 10
7.3628439183
 20
4.1492548134
 30
0.0
  0
SPLINE
  5
564
100
AcDbEntity
  8
CURVE
100
AcDbSpline
 62
250
  6
CONTINUOUS
 70
0
 71
3
 72
16
 73
12
 74
0
 42
0.0000001
 43
0.0000001
 44
0.0000000001
 40
0.0
 40
0.0
 40
0.0
 40
0.0
 40
0.1111111111
 40
0.2222222222
 40
0.3333333333
 40
0.4444444444
 40
0.5555555556
 40
0.6666666667
 40
0.7777777778
 40
0.8888888889
 40
1.0
 40
1.0
 40
1.0
 40
1.0
 10
7.1624963559
 20
4.7139989844
 30
0.0
 10
7.1597916709
 20
4.6948085957
 30
0.0
 10
7.1519586089
 20
4.6554265087
 30
0.0
 10
7.1332797875
 20
4.5951470757
 30
0.0
 10
7.108144208
 20
4.5351465508
 30
0.0
 10
7.0772042816
 20
4.4769950509
 30
0.0
 10
7.0412585719
 20
4.422190041
 30
0.0
 10
7.0012373407
 20
4.3721498546
 30
0.0
 10
6.9581707017
 20
4.328165139
 30
0.0
 10
6.9131870355
 20
4.2913808809
 30
0.0
 10
6.8826566688
 20
4.2722717569
 30
0.0
 10
6.8674891186
 20
4.2642130514
 30
0.0
  0
SPLINE
  5
565
100
AcDbEntity
  8
CURVE
100
AcDbSpline
 62
250
  6
CONTINUOUS
 70
0
 71
3
 72
15
 73
11
 74
0
 42
0.0000001
 43
0.0000001
 44
0.0000000001
 40
0.0
 40
0.0
 40
0.0
 40
0.0
 40
0.125
 40
0.25
 40
0.375
 40
0.5
 40
0.625
 40
0.75
 40
0.875
 40
1.0
 40
1.0
 40
1.0
 40
1.0
 10
5.6443649777
 20
1.6299508587
 30
0.0
 10
5.6297069326
 20
1.6312573427
 30
0.0
 10
5.6017581337
 20
1.6375944417
 30
0.0
 10
5.5653062641
 20
1.6579922352
 30
0.0
 10
5.5352666438
 20
1.6887278311
 30
0.0
 10
5.5124790524
 20
1.7289572764
 30
0.0
 10
5.4975639063
 20
1.7775758509
 30
0.0
 10
5.4909327979
 20
1.8332563049
 30
0.0
 10
5.4927621727
 20
1.8944478154
 30
0.0
 10
5.4996014368
 20
1.9378561857
 30
0.0
 10
5.504367189
 20
1.9598612885
 30
0.0
  0
SPLINE
  5
566
100
AcDbEntity
  8
CURVE
100
AcDbSpline
 62
250
  6
CONTINUOUS
 70
0
 71
3
 72
28
 73
24
 74
0
 42
0.0000001
 43
0.0000001
 44
0.0000000001
 40
0.0
 40
0.0
 40
0.0
 40
0.0
 40
0.0688382007
 40
0.1376561956
 40
0.2061014336
 40
0.24043244
 40
0.2748599388
 40
0.3092947605
 40
0.3436236434
 40
0.4122367144
 40
0.4466597207
 40
0.4810830992
 40
0.5155058167
 40
0.5499282577
 40
0.6187111961
 40
0.6874834223
 40
0.7562512024
 40
0.8250722293
 40
0.8594919923
 40
0.8939116513
 40
0.9283312965
 40
0.9627504769
 40
1.0
 40
1.0
 40
1.0
 40
1.0
 10
7.0054278396
 20
2.4136964904
 30
0.0
 10
7.0179882524
 20
2.4141198393
 30
0.0
 10
7.0456409286
 20
2.4235085855
 30
0.0
 10
7.0863827849
 20
2.4395710952
 30
0.0
 10
7.1196651137
 20
2.4429847854
 30
0.0
 10
7.1378483193
 20
2.4284398496
 30
0.0
 10
7.1467463206
 20
2.411323536
 30
0.0
 10
7.1509049505
 20
2.3894384682
 30
0.0
 10
7.1479106539
 20
2.3546297641
 30
0.0
 10
7.134196282
 20
2.317058224
 30
0.0
 10
7.1181956638
 20
2.2808674612
 30
0.0
 10
7.1059299443
 20
2.2536153112
 30
0.0
 10
7.0931103681
 20
2.2265416467
 30
0.0
 10
7.0746094065
 20
2.1909624761
 30
0.0
 10
7.0482642177
 20
2.1481736427
 30
0.0
 10
7.0124812264
 20
2.1009228227
 30
0.0
 10
6.9729923226
 20
2.0604340107
 30
0.0
 10
6.9388309803
 20
2.0318584402
 30
0.0
 10
6.9113826883
 20
2.0098429369
 30
0.0
 10
6.8907054695
 20
1.9938871688
 30
0.0
 10
6.8698318389
 20
1.9794424872
 30
0.0
 10
6.8483746753
 20
1.9672656386
 30
0.0
 10
6.8338440326
 20
1.9610976071
 30
0.0
 10
6.8263750459
 20
1.9584943979
 30
0.0
  0
SPLINE
  5
567
100
AcDbEntity
  8
CURVE
100
AcDbSpline
 62
250
  6
CONTINUOUS
 70
0
 71
3
 72
13
 73
9
 74
0
 42
0.0000001
 43
0.0000001
 44
0.0000000001
 40
0.0
 40
0.0
 40
0.0
 40
0.0
 40
0.1666666667
 40
0.3333333333
 40
0.5
 40
0.6666666667
 40
0.8333333333
 40
1.0
 40
1.0
 40
1.0
 40
1.0
 10
7.3628440119
 20
3.04037801
 30
0.0
 10
7.3572736043
 20
3.0607824338
 30
0.0
 10
7.3428367011
 20
3.0986476367
 30
0.0
 10
7.3119368367
 20
3.1448420961
 30
0.0
 10
7.2725786763
 20
3.1793064622
 30
0.0
 10
7.2257891136
 20
3.2011198254
 30
0.0
 10
7.1728073586
 20
3.2097227175
 30
0.0
 10
7.1342292498
 20
3.2064906353
 30
0.0
 10
7.114424548
 20
3.2026630111
 30
0.0
  0
SPLINE
  5
568
100
AcDbEntity
  8
CURVE
100
AcDbSpline
 62
250
  6
CONTINUOUS
 70
0
 71
3
 72
15
 73
11
 74
0
 42
0.0000001
 43
0.0000001
 44
0.0000000001
 40
0.0
 40
0.0
 40
0.0
 40
0.0
 40
0.125
 40
0.25
 40
0.375
 40
0.5
 40
0.625
 40
0.75
 40
0.875
 40
1.0
 40
1.0
 40
1.0
 40
1.0
 10
7.0170922695
 20
1.2832470677
 30
0.0
 10
7.0366816672
 20
1.2974160586
 30
0.0
 10
7.0756158365
 20
1.3289657151
 30
0.0
 10
7.1318303653
 20
1.384767564
 30
0.0
 10
7.1847367923
 20
1.4479172933
 30
0.0
 10
7.2332068908
 20
1.5170761381
 30
0.0
 10
7.2762257483
 20
1.5907919174
 30
0.0
 10
7.3128892022
 20
1.6675198698
 30
0.0
 10
7.342421996
 20
1.7456261669
 30
0.0
 10
7.3569549152
 20
1.7975739127
 30
0.0
 10
7.3628448177
 20
1.8231949205
 30
0.0
  0
SPLINE
  5
569
100
AcDbEntity
  8
CURVE
100
AcDbSpline
 62
250
  6
CONTINUOUS
 70
0
 71
3
 72
14
 73
10
 74
0
 42
0.0000001
 43
0.0000001
 44
0.0000000001
 40
0.0
 40
0.0
 40
0.0
 40
0.0
 40
0.0625825444
 40
0.1251639471
 40
0.2503216362
 40
0.5004171263
 40
0.7498739656
 40
0.8748487925
 40
1.0
 40
1.0
 40
1.0
 40
1.0
 10
5.2799455178
 20
1.149903126
 30
0.0
 10
5.2815265568
 20
1.1404521855
 30
0.0
 10
5.2843826294
 20
1.1213046867
 30
0.0
 10
5.290906945
 20
1.0836631281
 30
0.0
 10
5.3036465201
 20
1.0189091628
 30
0.0
 10
5.3289917629
 20
0.9326939371
 30
0.0
 10
5.372058717
 20
0.8639996202
 30
0.0
 10
5.4228769252
 20
0.8339731288
 30
0.0
 10
5.4536785446
 20
0.8298159743
 30
0.0
 10
5.4698953804
 20
0.8304160407
 30
0.0
  0
SPLINE
  5
56A
100
AcDbEntity
  8
CURVE
100
AcDbSpline
 62
250
  6
CONTINUOUS
 70
0
 71
3
 72
19
 73
15
 74
0
 42
0.0000001
 43
0.0000001
 44
0.0000000001
 40
0.0
 40
0.0
 40
0.0
 40
0.0
 40
0.0833333333
 40
0.1666666667
 40
0.25
 40
0.3333333333
 40
0.4166666667
 40
0.5
 40
0.5833333333
 40
0.6666666667
 40
0.75
 40
0.8333333333
 40
0.9166666667
 40
1.0
 40
1.0
 40
1.0
 40
1.0
 10
5.73746945
 20
2.7996573724
 30
0.0
 10
5.7195932739
 20
2.7945429165
 30
0.0
 10
5.6830558538
 20
2.7806491882
 30
0.0
 10
5.6273935605
 20
2.7493628141
 30
0.0
 10
5.5721064059
 20
2.7083395163
 30
0.0
 10
5.5184940496
 20
2.6585362207
 30
0.0
 10
5.4677966244
 20
2.6011077637
 30
0.0
 10
5.4211921325
 20
2.5373875318
 30
0.0
 10
5.3797620847
 20
2.468854667
 30
0.0
 10
5.3444682752
 20
2.397099657
 30
0.0
 10
5.3161299522
 20
2.323789557
 30
0.0
 10
5.2954049357
 20
2.2506207996
 30
0.0
 10
5.282774311
 20
2.179311648
 30
0.0
 10
5.2799456182
 20
2.1340661981
 30
0.0
 10
5.2799456182
 20
2.1123255168
 30
0.0
  0
SPLINE
  5
56B
100
AcDbEntity
  8
CURVE
100
AcDbSpline
 62
250
  6
CONTINUOUS
 70
0
 71
3
 72
15
 73
11
 74
0
 42
0.0000001
 43
0.0000001
 44
0.0000000001
 40
0.0
 40
0.0
 40
0.0
 40
0.0
 40
0.125
 40
0.25
 40
0.375
 40
0.5
 40
0.625
 40
0.75
 40
0.875
 40
1.0
 40
1.0
 40
1.0
 40
1.0
 10
5.6021352149
 20
-0.6881205601
 30
0.0
 10
5.5887566646
 20
-0.6841414623
 30
0.0
 10
5.5635884126
 20
-0.6726603633
 30
0.0
 10
5.5317575886
 20
-0.6453671013
 30
0.0
 10
5.5066139432
 20
-0.6086869675
 30
0.0
 10
5.4888155036
 20
-0.5635636885
 30
0.0
 10
5.4788144289
 20
-0.5111543443
 30
0.0
 10
5.4768696295
 20
-0.4527965917
 30
0.0
 10
5.4830247011
 20
-0.3900082983
 30
0.0
 10
5.4924377784
 20
-0.3462134852
 30
0.0
 10
5.4983975096
 20
-0.3241641827
 30
0.0
  0
SPLINE
  5
56C
100
AcDbEntity
  8
CURVE
100
AcDbSpline
 62
250
  6
CONTINUOUS
 70
0
 71
3
 72
16
 73
12
 74
0
 42
0.0000001
 43
0.0000001
 44
0.0000000001
 40
0.0
 40
0.0
 40
0.0
 40
0.0
 40
0.1111111111
 40
0.2222222222
 40
0.3333333333
 40
0.4444444444
 40
0.5555555556
 40
0.6666666667
 40
0.7777777778
 40
0.8888888889
 40
1.0
 40
1.0
 40
1.0
 40
1.0
 10
7.1431112471
 20
0.157208866
 30
0.0
 10
7.1445112515
 20
0.1408564037
 30
0.0
 10
7.1447633551
 20
0.1062657549
 30
0.0
 10
7.1374633011
 20
0.05055915
 30
0.0
 10
7.1227116575
 20
-0.0073580193
 30
0.0
 10
7.1009523515
 20
-0.0657172523
 30
0.0
 10
7.0728426187
 20
-0.1227615432
 30
0.0
 10
7.0392324873
 20
-0.1767658925
 30
0.0
 10
7.0011323694
 20
-0.2261030777
 30
0.0
 10
6.9597101686
 20
-0.2692706416
 30
0.0
 10
6.930671562
 20
-0.2930976824
 30
0.0
 10
6.9160557071
 20
-0.3035647144
 30
0.0
  0
SPLINE
  5
56D
100
AcDbEntity
  8
CURVE
100
AcDbSpline
 62
250
  6
CONTINUOUS
 70
0
 71
3
 72
14
 73
10
 74
0
 42
0.0000001
 43
0.0000001
 44
0.0000000001
 40
0.0
 40
0.0
 40
0.0
 40
0.0
 40
0.2501745994
 40
0.4999622887
 40
0.6249304231
 40
0.6874750479
 40
0.7500187504
 40
0.8749197134
 40
1.0
 40
1.0
 40
1.0
 40
1.0
 10
5.2799455178
 20
-0.9935872011
 30
0.0
 10
5.281947778
 20
-1.0504153765
 30
0.0
 10
5.2834702276
 20
-1.1654330533
 30
0.0
 10
5.3021655208
 20
-1.2990989802
 30
0.0
 10
5.3348749704
 20
-1.3741577981
 30
0.0
 10
5.3601560819
 20
-1.4090340031
 30
0.0
 10
5.3902315964
 20
-1.4372266389
 30
0.0
 10
5.4358551509
 20
-1.4596889861
 30
0.0
 10
5.4785723874
 20
-1.4641732202
 30
0.0
 10
5.5009699973
 20
-1.4630295586
 30
0.0
  0
SPLINE
  5
56E
100
AcDbEntity
  8
CURVE
100
AcDbSpline
 62
250
  6
CONTINUOUS
 70
0
 71
3
 72
17
 73
13
 74
0
 42
0.0000001
 43
0.0000001
 44
0.0000000001
 40
0.0
 40
0.0
 40
0.0
 40
0.0
 40
0.1
 40
0.2
 40
0.3
 40
0.4
 40
0.5
 40
0.6
 40
0.7
 40
0.8
 40
0.9
 40
1.0
 40
1.0
 40
1.0
 40
1.0
 10
6.9340842081
 20
-1.0435870059
 30
0.0
 10
6.9528526317
 20
-1.0356718438
 30
0.0
 10
6.9908703939
 20
-1.0162641316
 30
0.0
 10
7.0478451455
 20
-0.9771631637
 30
0.0
 10
7.1035635281
 20
-0.9289155764
 30
0.0
 10
7.1567715387
 20
-0.8725999407
 30
0.0
 10
7.206291661
 20
-0.8094654264
 30
0.0
 10
7.2510228274
 20
-0.7409144955
 30
0.0
 10
7.2899714942
 20
-0.6684712224
 30
0.0
 10
7.3222734319
 20
-0.593739111
 30
0.0
 10
7.3472074201
 20
-0.5183993217
 30
0.0
 10
7.3585581755
 20
-0.4688306271
 30
0.0
 10
7.3628438709
 20
-0.4445351748
 30
0.0
  0
SPLINE
  5
56F
100
AcDbEntity
  8
CURVE
100
AcDbSpline
 62
250
  6
CONTINUOUS
 70
0
 71
3
 72
21
 73
17
 74
0
 42
0.0000001
 43
0.0000001
 44
0.0000000001
 40
0.0
 40
0.0
 40
0.0
 40
0.0
 40
0.0714285714
 40
0.1428571429
 40
0.2142857143
 40
0.2857142857
 40
0.3571428571
 40
0.4285714286
 40
0.5
 40
0.5714285714
 40
0.6428571429
 40
0.7142857143
 40
0.7857142857
 40
0.8571428571
 40
0.9285714286
 40
1.0
 40
1.0
 40
1.0
 40
1.0
 10
12.7281087467
 20
2.7770607999
 30
0.0
 10
12.7343785663
 20
2.7720258168
 30
0.0
 10
12.7482547898
 20
2.7640077838
 30
0.0
 10
12.7723424475
 20
2.7585854854
 30
0.0
 10
12.7989994008
 20
2.7599103144
 30
0.0
 10
12.8274082237
 20
2.7679480128
 30
0.0
 10
12.8567077279
 20
2.7824527517
 30
0.0
 10
12.8860071249
 20
2.8029842431
 30
0.0
 10
12.9144163097
 20
2.8289185265
 30
0.0
 10
12.9410720436
 20
2.8594676502
 30
0.0
 10
12.9651644146
 20
2.8937033145
 30
0.0
 10
12.9859613841
 20
2.930585549
 30
0.0
 10
13.0028310464
 20
2.9689927229
 30
0.0
 10
13.0152608243
 20
3.0077615108
 30
0.0
 10
13.0228730448
 20
3.0457002854
 30
0.0
 10
13.0245819575
 20
3.0697049323
 30
0.0
 10
13.0245819575
 20
3.0811712474
 30
0.0
  0
SPLINE
  5
570
100
AcDbEntity
  8
CURVE
100
AcDbSpline
 62
250
  6
CONTINUOUS
 70
0
 71
3
 72
15
 73
11
 74
0
 42
0.0000001
 43
0.0000001
 44
0.0000000001
 40
0.0
 40
0.0
 40
0.0
 40
0.0
 40
0.125
 40
0.25
 40
0.375
 40
0.5
 40
0.625
 40
0.75
 40
0.875
 40
1.0
 40
1.0
 40
1.0
 40
1.0
 10
11.1330826594
 20
4.3462312382
 30
0.0
 10
11.1259578662
 20
4.3319898369
 30
0.0
 10
11.1131646647
 20
4.3028667019
 30
0.0
 10
11.0990452804
 20
4.2588245442
 30
0.0
 10
11.0903936133
 20
4.2156998685
 30
0.0
 10
11.0874811877
 20
4.1748198224
 30
0.0
 10
11.0903936133
 20
4.1374224677
 30
0.0
 10
11.0990452804
 20
4.1046434941
 30
0.0
 10
11.1131646647
 20
4.077485359
 30
0.0
 10
11.1259578662
 20
4.0636603913
 30
0.0
 10
11.1330826594
 20
4.0579388493
 30
0.0
  0
SPLINE
  5
571
100
AcDbEntity
  8
CURVE
100
AcDbSpline
 62
250
  6
CONTINUOUS
 70
0
 71
3
 72
14
 73
10
 74
0
 42
0.0000001
 43
0.0000001
 44
0.0000000001
 40
0.0
 40
0.0
 40
0.0
 40
0.0
 40
0.1428571429
 40
0.2857142857
 40
0.4285714286
 40
0.5714285714
 40
0.7142857143
 40
0.8571428571
 40
1.0
 40
1.0
 40
1.0
 40
1.0
 10
12.7391542163
 20
5.9804979431
 30
0.0
 10
12.7425461213
 20
5.9858717103
 30
0.0
 10
12.7486449861
 20
5.9972414693
 30
0.0
 10
12.7550588856
 20
6.0149276596
 30
0.0
 10
12.758372053
 20
6.0321999643
 30
0.0
 10
12.7583719969
 20
6.0479769831
 30
0.0
 10
12.7550587208
 20
6.0612872899
 30
0.0
 10
12.7486447228
 20
6.0713035888
 30
0.0
 10
12.7425458031
 20
6.0753802053
 30
0.0
 10
12.7391538743
 20
6.0766978698
 30
0.0
  0
SPLINE
  5
572
100
AcDbEntity
  8
CURVE
100
AcDbSpline
 62
250
  6
CONTINUOUS
 70
0
 71
3
 72
8
 73
4
 74
0
 42
0.0000001
 43
0.0000001
 44
0.0000000001
 40
0.0
 40
0.0
 40
0.0
 40
0.0
 40
1.0
 40
1.0
 40
1.0
 40
1.0
 10
6.8263750459
 20
1.9584943979
 30
0.0
 10
6.8064577481
 20
1.9515525069
 30
0.0
 10
6.7871324996
 20
1.9488957762
 30
0.0
 10
6.7701579539
 20
1.9514084151
 30
0.0
  0
SPLINE
  5
573
100
AcDbEntity
  8
0
100
AcDbSpline
 62
7
  6
CONTINUOUS
 70
0
 71
3
 72
9
 73
5
 74
0
 42
0.0000001
 43
0.0000001
 44
0.0000000001
 40
0.0
 40
0.0
 40
0.0
 40
0.0
 40
0.2613147724
 40
1.0
 40
1.0
 40
1.0
 40
1.0
 10
-5.0498587783
 20
11.1244609086
 30
0.0
 10
-5.0485910498
 20
11.1251928792
 30
0.0
 10
-5.0436761312
 20
11.1278801353
 30
0.0
 10
-5.038493777
 20
11.1300960244
 30
0.0
 10
-5.0345541865
 20
11.1313622276
 30
0.0
  0
SPLINE
  5
574
100
AcDbEntity
  8
0
100
AcDbSpline
 62
7
  6
CONTINUOUS
 70
0
 71
3
 72
11
 73
7
 74
0
 42
0.0000001
 43
0.0000001
 44
0.0000000001
 40
0.0
 40
0.0
 40
0.0
 40
0.0
 40
0.2350145903
 40
0.4977438103
 40
0.7617063241
 40
1.0
 40
1.0
 40
1.0
 40
1.0
 10
-5.7304124761
 20
10.647021265
 30
0.0
 10
-5.7307724996
 20
10.6587176528
 30
0.0
 10
-5.7268531797
 20
10.6836407491
 30
0.0
 10
-5.7118462948
 20
10.7187897473
 30
0.0
 10
-5.6894159606
 20
10.7499366028
 30
0.0
 10
-5.6700202727
 20
10.7663874342
 30
0.0
 10
-5.659744873
 20
10.7723203212
 30
0.0
  0
SPLINE
  5
575
100
AcDbEntity
  8
RACCORDO
100
AcDbSpline
 62
7
  6
CONTINUOUS
 70
0
 71
3
 72
11
 73
7
 74
0
 42
0.0000001
 43
0.0000001
 44
0.0000000001
 40
0.0
 40
0.0
 40
0.0
 40
0.0
 40
0.2443201558
 40
0.5139185285
 40
0.7760771911
 40
1.0
 40
1.0
 40
1.0
 40
1.0
 10
-9.8774947099
 20
16.1209015196
 30
0.0
 10
-9.8978120919
 20
16.1326325214
 30
0.0
 10
-9.9438560233
 20
16.1515842705
 30
0.0
 10
-10.0169487401
 20
16.167638814
 30
0.0
 10
-10.0896948596
 20
16.1713854217
 30
0.0
 10
-10.1365143093
 20
16.1647598023
 30
0.0
 10
-10.1569851716
 20
16.1581803696
 30
0.0
  0
SPLINE
  5
576
100
AcDbEntity
  8
RACCORDO
100
AcDbSpline
 62
7
  6
CONTINUOUS
 70
0
 71
3
 72
11
 73
7
 74
0
 42
0.0000001
 43
0.0000001
 44
0.0000000001
 40
0.0
 40
0.0
 40
0.0
 40
0.0
 40
0.2443201558
 40
0.5139185285
 40
0.7760771911
 40
1.0
 40
1.0
 40
1.0
 40
1.0
 10
-5.8469860572
 20
13.7937363377
 30
0.0
 10
-5.8673034391
 20
13.8054673394
 30
0.0
 10
-5.9133473705
 20
13.8244190886
 30
0.0
 10
-5.9864400873
 20
13.840473632
 30
0.0
 10
-6.0591862068
 20
13.8442202398
 30
0.0
 10
-6.1060056566
 20
13.8375946203
 30
0.0
 10
-6.1264765188
 20
13.8310151876
 30
0.0
  0
ELLIPSE
  5
577
100
AcDbEntity
  8
RACCORDO
100
AcDbEllipse
 62
7
  6
CONTINUOUS
 10
-8.317128414
 20
20.1521374389
 30
0.0
 11
0.2566641185
 21
0.42914135
 31
0.0
 40
0.5873179545
 41
0.0090366245
 42
0.7770298169
  0
ELLIPSE
  5
578
100
AcDbEntity
  8
ASSI
100
AcDbEllipse
 62
7
  6
CONTINUOUS
 10
3.5045054901
 20
12.7212699765
 30
0.0
 11
0.9999644838
 21
-0.0148582918
 31
0.0
 40
0.5672251703
 41
0.7845171059
 42
0.7938262603
  0
ELLIPSE
  5
579
100
AcDbEntity
  8
ASSI
100
AcDbEllipse
 62
7
  6
CONTINUOUS
 10
-9.5914050553
 20
20.2826845951
 30
0.0
 11
0.9999644838
 21
-0.0148582918
 31
0.0
 40
0.5672251703
 41
0.7938262603
 42
2.3471692945
  0
ELLIPSE
  5
57A
100
AcDbEntity
  8
RACCORDO
100
AcDbEllipse
 62
7
  6
CONTINUOUS
 10
-5.5048538885
 20
2.476904249
 30
0.0
 11
-0.1250441211
 21
0.2165028652
 31
0.0
 40
0.5773316475
 41
-3.9271914475
 42
-3.909738155
  0
ELLIPSE
  5
57B
100
AcDbEntity
  8
RACCORDO
100
AcDbEllipse
 62
7
  6
CONTINUOUS
 10
-22.5023558935
 20
12.291048878
 30
0.0
 11
-0.1250441211
 21
0.2165028652
 31
0.0
 40
0.5773316475
 41
-3.94464474
 42
-3.9271914475
  0
ELLIPSE
  5
57C
100
AcDbEntity
  8
ASSI
100
AcDbEllipse
 62
7
  6
CONTINUOUS
 10
-6.5726984196
 20
17.8288044207
 30
0.0
 11
0.9994570776
 21
0.0611710027
 31
0.0
 40
0.5386160666
 41
-0.2075841683
 42
-0.0329536488
  0
ELLIPSE
  5
57D
100
AcDbEntity
  8
RACCORDO
100
AcDbEllipse
 62
7
  6
CONTINUOUS
 10
-16.2310181798
 20
18.6315862813
 30
0.0
 11
-0.1250441211
 21
0.2165028652
 31
0.0
 40
0.5773316475
 41
-2.3563951207
 42
-0.7855987939
  0
ELLIPSE
  5
57E
100
AcDbEntity
  8
RACCORDO
100
AcDbEllipse
 62
7
  6
CONTINUOUS
 10
-0.1089835687
 20
9.3229255534
 30
0.0
 11
-0.1250441211
 21
0.2165028652
 31
0.0
 40
0.5773316475
 41
-2.3563951207
 42
-0.7855987939
  0
ELLIPSE
  5
57F
100
AcDbEntity
  8
RACCORDO
100
AcDbEllipse
 62
7
  6
CONTINUOUS
 10
-0.1089835687
 20
-29.4594125943
 30
0.0
 11
-0.1250441211
 21
0.2165028652
 31
0.0
 40
0.5773316475
 41
-3.1503206286
 42
-2.3563951207
  0
ELLIPSE
  5
580
100
AcDbEntity
  8
RACCORDO
100
AcDbEllipse
 62
7
  6
CONTINUOUS
 10
-1.1695898844
 20
9.9353063475
 30
0.0
 11
-0.1250441211
 21
0.2165028652
 31
0.0
 40
0.5773316475
 41
-0.7855987939
 42
0.008727975
  0
ELLIPSE
  5
581
100
AcDbEntity
  8
RACCORDO
100
AcDbEllipse
 62
7
  6
CONTINUOUS
 10
-17.2916244955
 20
19.2439670754
 30
0.0
 11
-0.1250441211
 21
0.2165028652
 31
0.0
 40
0.5773316475
 41
-0.0027775398
 42
0.008727975
  0
ELLIPSE
  5
582
100
AcDbEntity
  8
RACCORDO
100
AcDbEllipse
 62
7
  6
CONTINUOUS
 10
-17.2916244955
 20
19.2439670754
 30
0.0
 11
-0.1250441211
 21
0.2165028652
 31
0.0
 40
0.5773316475
 41
-0.7855987939
 42
-0.0749712424
  0
ELLIPSE
  5
583
100
AcDbEntity
  8
RACCORDO
100
AcDbEllipse
 62
7
  6
CONTINUOUS
 10
1.7237878788
 20
14.3546382137
 30
0.0
 11
0.2566641185
 21
0.42914135
 31
0.0
 40
0.5873179545
 41
0.0090366245
 42
0.7770298169
  0
ELLIPSE
  5
584
100
AcDbEntity
  8
ASSI
100
AcDbEllipse
 62
7
  6
CONTINUOUS
 10
0.4857988544
 20
14.5390393234
 30
0.0
 11
0.9964681619
 21
-0.2402284003
 31
0.0
 40
0.349548336
 41
1.6119278893
 42
2.1726755134
  0
ELLIPSE
  5
585
100
AcDbEntity
  8
RACCORDO
100
AcDbEllipse
 62
7
  6
CONTINUOUS
 10
-1.7195186039
 20
14.2103492745
 30
0.0
 11
0.1013551837
 21
0.1724202299
 31
0.0
 40
0.5824629877
 41
-2.3341482821
 42
-0.7808052478
  0
ELLIPSE
  5
586
100
AcDbEntity
  8
ASSI
100
AcDbEllipse
 62
7
  6
CONTINUOUS
 10
-6.5726984196
 20
17.875581585
 30
0.0
 11
0.9999964998
 21
0.004558572
 31
0.0
 40
0.5804023981
 41
-0.7791156384
 42
-0.1772763287
  0
ELLIPSE
  5
587
100
AcDbEntity
  8
RACCORDO
100
AcDbEllipse
 62
7
  6
CONTINUOUS
 10
-8.9506981103
 20
18.3855416935
 30
0.0
 11
0.1026656474
 21
0.17165654
 31
0.0
 40
0.5873179545
 41
-2.3296562517
 42
-0.7763132174
  0
ELLIPSE
  5
588
100
AcDbEntity
  8
ASSI
100
AcDbEllipse
 62
7
  6
CONTINUOUS
 10
-6.5726984196
 20
18.6145271857
 30
0.0
 11
0.9964681619
 21
-0.2402284003
 31
0.0
 40
0.349548336
 41
-0.4337383161
 42
0.1270093081
  0
ELLIPSE
  5
589
100
AcDbEntity
  8
RACCORDO
100
AcDbEllipse
 62
7
  6
CONTINUOUS
 10
-7.1035806628
 20
19.4514501767
 30
0.0
 11
0.2435694555
 21
0.4367051162
 31
0.0
 40
0.5671693725
 41
5.4894081695
 42
7.0427512038
  0
ELLIPSE
  5
58A
100
AcDbEntity
  8
RACCORDO
100
AcDbEllipse
 62
7
  6
CONTINUOUS
 10
2.93733563
 20
13.6539509514
 30
0.0
 11
0.2435694555
 21
0.4367051162
 31
0.0
 40
0.5671693725
 41
5.4894081695
 42
7.0427512038
  0
ELLIPSE
  5
58B
100
AcDbEntity
  8
RACCORDO
100
AcDbEllipse
 62
7
  6
CONTINUOUS
 10
-5.5048538885
 20
-28.6306132968
 30
0.0
 11
-0.1250441211
 21
0.2165028652
 31
0.0
 40
0.5773316475
 41
-0.8030520864
 42
-0.7855987939
  0
ELLIPSE
  5
58C
100
AcDbEntity
  8
RACCORDO
100
AcDbEllipse
 62
7
  6
CONTINUOUS
 10
-5.1451292005
 20
-28.4300392299
 30
0.0
 11
-0.1250441211
 21
0.2165028652
 31
0.0
 40
0.5773316475
 41
-0.8030520864
 42
-0.7855987939
  0
ELLIPSE
  5
58D
100
AcDbEntity
  8
RACCORDO
100
AcDbEllipse
 62
7
  6
CONTINUOUS
 10
-16.0645517126
 20
15.3075406887
 30
0.0
 11
0.7106618745
 21
0.010934761
 31
0.0
 40
0.5873737521
 41
8.6477955758
 42
11.7544816443
  0
ELLIPSE
  5
58E
100
AcDbEntity
  8
RACCORDO
100
AcDbEllipse
 62
7
  6
CONTINUOUS
 10
-5.9878418949
 20
9.4893747308
 30
0.0
 11
0.7106618745
 21
0.010934761
 31
0.0
 40
0.5873737521
 41
8.6477955758
 42
11.7544816443
  0
ELLIPSE
  5
58F
100
AcDbEntity
  8
RACCORDO
100
AcDbEllipse
 62
7
  6
CONTINUOUS
 10
-5.1451292005
 20
1.8578591966
 30
0.0
 11
-0.1229125255
 21
0.2195188137
 31
0.0
 40
0.5789510426
 41
-0.7861407413
 42
-0.771718032
  0
ELLIPSE
  5
590
100
AcDbEntity
  8
RACCORDO
100
AcDbEllipse
 62
7
  6
CONTINUOUS
 10
-7.3372294423
 20
17.4539451061
 30
0.0
 11
0.0986764002
 21
0.1739670903
 31
0.0
 40
0.5721543156
 41
-2.3430780393
 42
-0.789735005
  0
ELLIPSE
  5
591
100
AcDbEntity
  8
RACCORDO
100
AcDbEllipse
 62
7
  6
CONTINUOUS
 10
-7.0341042442
 20
18.8450163031
 30
0.0
 11
0.1948555644
 21
0.349364093
 31
0.0
 40
0.5671693725
 41
-0.0084272956
 42
0.4279533387
  0
ELLIPSE
  5
592
100
AcDbEntity
  8
RACCORDO
100
AcDbEllipse
 62
7
  6
CONTINUOUS
 10
-16.0645517126
 20
14.6951879811
 30
0.0
 11
0.7106618745
 21
0.010934761
 31
0.0
 40
0.5873737521
 41
3.1325551394
 42
5.4712963372
  0
ELLIPSE
  5
593
100
AcDbEntity
  8
RACCORDO
100
AcDbEllipse
 62
7
  6
CONTINUOUS
 10
-5.9878418949
 20
8.8770220232
 30
0.0
 11
0.7106618745
 21
0.010934761
 31
0.0
 40
0.5873737521
 41
3.1325551394
 42
5.4712963372
  0
ELLIPSE
  5
594
100
AcDbEntity
  8
RACCORDO
100
AcDbEllipse
 62
7
  6
CONTINUOUS
 10
-18.2007643401
 20
16.9701265031
 30
0.0
 11
0.9642808027
 21
0.0148371264
 31
0.0
 40
0.5873737521
 41
3.1325551395
 42
5.4712963372
  0
ELLIPSE
  5
595
100
AcDbEntity
  8
RACCORDO
100
AcDbEllipse
 62
7
  6
CONTINUOUS
 10
-2.0787297291
 20
7.6614657752
 30
0.0
 11
0.9642808027
 21
0.0148371264
 31
0.0
 40
0.5873737521
 41
3.1325551395
 42
4.7348036819
  0
ELLIPSE
  5
596
100
AcDbEntity
  8
ASSI
100
AcDbEllipse
 62
7
  6
CONTINUOUS
 10
22.5591359577
 20
11.8318276948
 30
0.0
 11
0.2142803152
 21
3.0687556778
 31
0.0
 40
0.0751331912
 41
-0.956493166
 42
-0.687487287
  0
ELLIPSE
  5
597
100
AcDbEntity
  8
ASSI
100
AcDbEllipse
 62
7
  6
CONTINUOUS
 10
22.5591359577
 20
-4.1709897303
 30
0.0
 11
0.2142803152
 21
3.0687556778
 31
0.0
 40
0.0751331912
 41
-0.956493166
 42
-0.687487287
  0
ELLIPSE
  5
598
100
AcDbEntity
  8
ASSI
100
AcDbEllipse
 62
7
  6
CONTINUOUS
 10
20.9493765369
 20
-3.2415348158
 30
0.0
 11
1.3653925048
 21
2.406232738
 31
0.0
 40
0.5722717666
 41
-2.3604340017
 42
-0.9241406144
  0
ELLIPSE
  5
599
100
AcDbEntity
  8
ASSI
100
AcDbEllipse
 62
7
  6
CONTINUOUS
 10
20.9493765369
 20
-3.2415348158
 30
0.0
 11
1.3653925048
 21
2.406232738
 31
0.0
 40
0.5722717666
 41
-0.6551347354
 42
-0.2872543095
  0
ELLIPSE
  5
59A
100
AcDbEntity
  8
ASSI
100
AcDbEllipse
 62
7
  6
CONTINUOUS
 10
20.9493765369
 20
12.7612826094
 30
0.0
 11
1.3653925048
 21
2.406232738
 31
0.0
 40
0.5722717666
 41
-2.3604340017
 42
-0.9241406144
  0
ELLIPSE
  5
59B
100
AcDbEntity
  8
ASSI
100
AcDbEllipse
 62
7
  6
CONTINUOUS
 10
20.9493765369
 20
12.7612826094
 30
0.0
 11
1.3653925048
 21
2.406232738
 31
0.0
 40
0.5722717666
 41
-0.6551347354
 42
-0.2872543095
  0
ELLIPSE
  5
59C
100
AcDbEntity
  8
ASSI
100
AcDbEllipse
 62
7
  6
CONTINUOUS
 10
-5.6580185716
 20
15.7912528185
 30
0.0
 11
0.4999822419
 21
-0.0074291459
 31
0.0
 40
0.5672251703
 41
0.7938262603
 42
2.3471692945
  0
ELLIPSE
  5
59D
100
AcDbEntity
  8
ASSI
100
AcDbEllipse
 62
7
  6
CONTINUOUS
 10
24.8580301765
 20
16.3703652915
 30
0.0
 11
0.4983159056
 21
0.1815655119
 31
0.0
 40
0.225831151
 41
-0.8500433631
 42
-0.0820984903
  0
ELLIPSE
  5
59E
100
AcDbEntity
  8
ASSI
100
AcDbEllipse
 62
7
  6
CONTINUOUS
 10
24.8580301765
 20
0.3675478663
 30
0.0
 11
0.4983159056
 21
0.1815655119
 31
0.0
 40
0.225831151
 41
-0.8500433631
 42
-0.0820984903
  0
ELLIPSE
  5
59F
100
AcDbEntity
  8
ASSI
100
AcDbEllipse
 62
7
  6
CONTINUOUS
 10
-3.9644148995
 20
14.8133872841
 30
0.0
 11
0.4999822419
 21
-0.0074291459
 31
0.0
 40
0.5672251703
 41
0.0084280968
 42
0.7938262603
  0
ELLIPSE
  5
5A0
100
AcDbEntity
  8
ASSI
100
AcDbEllipse
 62
7
  6
CONTINUOUS
 10
20.6370407714
 20
12.1658996386
 30
0.0
 11
1.3572098686
 21
2.3918124692
 31
0.0
 40
0.5722717666
 41
-3.0320435289
 42
-2.3778872942
  0
ELLIPSE
  5
5A1
100
AcDbEntity
  8
ASSI
100
AcDbEllipse
 62
7
  6
CONTINUOUS
 10
20.6370407714
 20
-3.8369177866
 30
0.0
 11
1.3572098686
 21
2.3918124692
 31
0.0
 40
0.5722717666
 41
-3.0320435289
 42
-2.3778872942
  0
ELLIPSE
  5
5A2
100
AcDbEntity
  8
ASSI
100
AcDbEllipse
 62
7
  6
CONTINUOUS
 10
-0.1089835687
 20
9.3228944606
 30
0.0
 11
-0.1250060456
 21
0.2165028604
 31
0.0
 40
0.5775075436
 41
-2.3560905478
 42
-0.7855988075
  0
ELLIPSE
  5
5A3
100
AcDbEntity
  8
ASSI
100
AcDbEllipse
 62
7
  6
CONTINUOUS
 10
-17.2916244955
 20
19.2439359826
 30
0.0
 11
-0.1250441155
 21
0.2165688207
 31
0.0
 40
0.5771558487
 41
5.497891145
 42
6.295481078
  0
ELLIPSE
  5
5A4
100
AcDbEntity
  8
ASSI
100
AcDbEllipse
 62
7
  6
CONTINUOUS
 10
-0.1089835687
 20
-29.4593815014
 30
0.0
 11
-0.1250441155
 21
0.2165688207
 31
0.0
 40
0.5771558487
 41
3.1329836525
 42
3.9267902317
  0
ELLIPSE
  5
5A5
100
AcDbEntity
  8
ASSI
100
AcDbEllipse
 62
7
  6
CONTINUOUS
 10
19.1999524387
 20
4.1932449851
 30
0.0
 11
-0.3399040073
 21
0.306665501
 31
0.0
 40
0.6876152892
 41
-3.3542710976
 42
-1.8009280633
  0
ELLIPSE
  5
5A6
100
AcDbEntity
  8
ASSI
100
AcDbEllipse
 62
7
  6
CONTINUOUS
 10
24.8580301765
 20
11.25263309
 30
0.0
 11
-0.4248800091
 21
0.3833318762
 31
0.0
 40
0.6876152892
 41
-3.3542710976
 42
-1.8009280633
  0
ELLIPSE
  5
5A7
100
AcDbEntity
  8
ASSI
100
AcDbEllipse
 62
7
  6
CONTINUOUS
 10
24.8580301765
 20
-4.7501843352
 30
0.0
 11
-0.4248800091
 21
0.3833318762
 31
0.0
 40
0.6876152892
 41
-3.3542710976
 42
-1.8009280633
  0
ELLIPSE
  5
5A8
100
AcDbEntity
  8
CURVE
100
AcDbEllipse
 62
250
  6
CONTINUOUS
 10
12.4520685513
 20
3.69902019
 30
0.0
 11
0.0374407042
 21
0.0671690956
 31
0.0
 40
0.5671664259
 41
-2.3648702036
 42
-0.7940738768
  0
ELLIPSE
  5
5A9
100
AcDbEntity
  8
CURVE
100
AcDbEllipse
 62
250
  6
CONTINUOUS
 10
12.3223476622
 20
3.6214597818
 30
0.0
 11
0.0374407042
 21
0.0671690956
 31
0.0
 40
0.5671664259
 41
-3.9356665304
 42
-2.3648702036
  0
ELLIPSE
  5
5AA
100
AcDbEntity
  8
CURVE
100
AcDbEllipse
 62
250
  6
CONTINUOUS
 10
5.6773906526
 20
3.6318865217
 30
0.0
 11
0.2788177423
 21
0.5002025472
 31
0.0
 40
0.5671664259
 41
-3.9356665304
 42
-2.6189061941
  0
ELLIPSE
  5
5AB
100
AcDbEntity
  8
CURVE
100
AcDbEllipse
 62
250
  6
CONTINUOUS
 10
12.8567079334
 20
7.4844898652
 30
0.0
 11
0.1176705759
 21
0.2111024976
 31
0.0
 40
0.5671664259
 41
-0.7940738768
 42
1.649389146
  0
ELLIPSE
  5
5AC
100
AcDbEntity
  8
CURVE
100
AcDbEllipse
 62
250
  6
CONTINUOUS
 10
12.3223476622
 20
4.5902262594
 30
0.0
 11
0.0374407042
 21
0.0671690956
 31
0.0
 40
0.5671664259
 41
-3.9356665304
 42
-2.3648702036
  0
ELLIPSE
  5
5AD
100
AcDbEntity
  8
CURVE
100
AcDbEllipse
 62
250
  6
CONTINUOUS
 10
12.7048203991
 20
4.8189075597
 30
0.0
 11
0.0374402173
 21
0.0671682222
 31
0.0
 40
0.5671664259
 41
-2.3648702036
 42
-0.7940738768
  0
ELLIPSE
  5
5AE
100
AcDbEntity
  8
CURVE
100
AcDbEllipse
 62
250
  6
CONTINUOUS
 10
12.7048203991
 20
4.5587760472
 30
0.0
 11
0.0374407042
 21
0.0671690956
 31
0.0
 40
0.5671664259
 41
-0.7940738768
 42
0.77672245
  0
ELLIPSE
  5
5AF
100
AcDbEntity
  8
CURVE
100
AcDbEllipse
 62
250
  6
CONTINUOUS
 10
12.5588969876
 20
4.4715281148
 30
0.0
 11
0.0374407042
 21
0.0671690956
 31
0.0
 40
0.5671664259
 41
0.77672245
 42
2.3475187768
  0
ENDSEC
  0
SECTION
  2
OBJECTS
  0
DICTIONARY
  5
C
100
AcDbDictionary
280
0
281
1
  3
ACAD_GROUP
350
D
  3
ACAD_MLINESTYLE
350
17
  3
ACAD_LAYOUT
350
1A
  3
ACAD_PLOTSETTINGS
350
19
  3
ACAD_PLOTSTYLENAME
350
E
  0
DICTIONARY
  5
D
102
{ACAD_REACTORS
330
C
102
}
100
AcDbDictionary
280
0
281
1
  0
ACDBDICTIONARYWDFLT
  5
E
102
{ACAD_REACTORS
330
C
102
}
100
AcDbDictionary
281
1
  3
Normal
350
F
100
AcDbDictionaryWithDefault
340
F
  0
DICTIONARY
  5
17
102
{ACAD_REACTORS
330
C
102
}
100
AcDbDictionary
280
0
281
1
  3
Standard
350
18
  0
DICTIONARY
  5
19
102
{ACAD_REACTORS
330
C
102
}
100
AcDbDictionary
281
1
  0
DICTIONARY
  5
1A
102
{ACAD_REACTORS
330
C
102
}
100
AcDbDictionary
281
1
  3
Model
350
5B0
  3
Layout1
350
5B1
  0
ACDBPLACEHOLDER
  5
F
102
{ACAD_REACTORS
330
E
102
}
  0
MLINESTYLE
  5
18
102
{ACAD_REACTORS
330
17
102
}
100
AcDbMlineStyle
  2
STANDARD
 70
0
  3

 62
256
 51
90.0
 52
90.0
 71
2
 49
0.5
 62
256
  6
BYLAYER
 49
-0.5
 62
256
  6
BYLAYER
  0
LAYOUT
  5
5B0
102
{ACAD_REACTORS
330
1A
102
}
100
AcDbPlotSettings
  1

  2
none_device
  4
ANSI_C_(22.00_x_17.00_Inches)
  6

 40
0.0
 41
0.0
 42
0.0
 43
0.0
 44
558.8
 45
431.8
 46
0.0
 47
0.0
 48
0.0
 49
0.0
140
0.0
141
0.0
142
1.0
143
1.0
 70
1024
 72
1
 73
0
 74
0
  7

 75
0
147
1.0
148
0.0
149
0.0
100
AcDbLayout
  1
Model
 70
0
 71
0
 10
0.0
 20
0.0
 11
558.8
 21
431.8
 12
0.0
 22
0.0
 32
0.0
 14
0.0
 24
0.0
 34
0.0
 15
0.0
 25
0.0
 35
0.0
146
0.0
 13
0.0
 23
0.0
 33
0.0
 16
1.0
 26
0.0
 36
0.0
 17
0.0
 27
1.0
 37
0.0
 76
0
330
216
345
0
346
0
  0
LAYOUT
  5
5B1
102
{ACAD_REACTORS
330
1A
102
}
100
AcDbPlotSettings
  1

  2
none_device
  4
ANSI_C_(22.00_x_17.00_Inches)
  6

 40
0.0
 41
0.0
 42
0.0
 43
0.0
 44
558.8
 45
431.8
 46
0.0
 47
0.0
 48
0.0
 49
0.0
140
0.0
141
0.0
142
1.0
143
1.0
 70
0
 72
1
 73
0
 74
0
  7

 75
0
147
1.0
148
0.0
149
0.0
100
AcDbLayout
  1
Layout1
 70
0
 71
1
 10
0.0
 20
0.0
 11
558.8
 21
431.8
 12
0.0
 22
0.0
 32
0.0
 14
0.0
 24
0.0
 34
0.0
 15
0.0
 25
0.0
 35
0.0
146
0.0
 13
0.0
 23
0.0
 33
0.0
 16
1.0
 26
0.0
 36
0.0
 17
0.0
 27
1.0
 37
0.0
 76
0
330
217
345
0
346
0
  0
ENDSEC
  0
EOF
