  0
SECTION
  2
HEADER
  9
$ACADVER
  1
AC1015
  9
$DWGCODEPAGE
  3
ANSI_1252
  9
$EXTMAX
 10
297.0
 20
210.0
 30
0.0
  9
$EXTMIN
 10
0.0
 20
0.0
 30
0.0
  9
$LIMMIN
 10
0.0
 20
0.0
  9
$LIMMAX
 10
297.0
 20
210.0
  9
$VIEWCTR
 10
148.5
 20
105.0
  9
$VIEWSIZE
 40
210.0
  9
$CLAYER
  8
0
  9
$LTSCALE
 40
16.335
  9
$CELTYPE
  6
BYLAYER
  9
$DIMSCALE
 40
1.0
  9
$DIMASZ
 40
3.0
  9
$DIMEXO
 40
1.85625
  9
$DIMDLI
 40
11.286
  9
$DIMEXE
 40
5.346
  9
$DIMCEN
 40
2.673
  9
$DIMLFAC
 40
1.0
  9
$DIMBLK
  1
_FILLED
  9
$DIMTXT
 40
3.0
  9
$DIMTOL
 70
1
  9
$DIMLIM
 70
0
  9
$DIMTFAC
 40
1.0
  9
$DIMTP
 40
0.01
  9
$DIMTM
 40
0.01
  9
$PDMODE
 70
3
  9
$PDSIZE
 40
3.0
  9
$HANDSEED
  5
41D
  9
$TILEMODE
 70
1
  9
$MEASUREMENT
 70
1
  9
$INSUNITS
 70
4
  0
ENDSEC
  0
SECTION
  2
CLASSES
  0
CLASS
  1
ACDBDICTIONARYWDFLT
  2
AcDbDictionaryWithDefault
  3
AutoCAD 2000
 90
0
280
0
281
0
  0
CLASS
  1
ACDBPLACEHOLDER
  2
AcDbPlaceHolder
  3
AutoCAD 2000
 90
0
280
0
281
0
  0
CLASS
  1
LAYOUT
  2
AcDbLayout
  3
AutoCAD 2000
 90
0
280
0
281
0
  0
ENDSEC
  0
SECTION
  2
TABLES
  0
TABLE
  2
VPORT
  5
8
100
AcDbSymbolTable
 70
2
  0
VPORT
  5
1F4
100
AcDbSymbolTableRecord
100
AcDbViewportTableRecord
  2
*ACTIVE
 70
0
 10
0.0
 20
0.0
 11
1.0
 21
1.0
 12
148.5
 22
105.0
 13
0.0
 23
0.0
 14
1.0
 24
1.0
 15
0.0
 25
0.0
 16
0.0
 26
0.0
 36
1.0
 17
0.0
 27
0.0
 37
0.0
 40
210.0
 41
1.4142857143
 42
50.0
 43
0.0
 44
0.0
 50
0.0
 51
0.0
 71
0
 72
100
 73
1
 74
1
 75
0
 76
0
 77
0
 78
0
  0
ENDTAB
  0
TABLE
  2
LTYPE
  5
5
100
AcDbSymbolTable
 70
6
  0
LTYPE
  5
14
100
AcDbSymbolTableRecord
100
AcDbLinetypeTableRecord
  2
BYBLOCK
 70
0
  3

 72
65
 73
0
 40
0.0
  0
LTYPE
  5
15
100
AcDbSymbolTableRecord
100
AcDbLinetypeTableRecord
  2
BYLAYER
 70
0
  3

 72
65
 73
0
 40
0.0
  0
LTYPE
  5
16
100
AcDbSymbolTableRecord
100
AcDbLinetypeTableRecord
  2
CONTINUOUS
 70
64
  3
Solid line
 72
65
 73
0
 40
0.0
  0
LTYPE
  5
1F5
100
AcDbSymbolTableRecord
100
AcDbLinetypeTableRecord
  2
CENTER
 70
64
  3
____ _ ____ _ ____ _ ____ _ ____ _ ____ _ ____
 72
65
 73
4
 40
0.6
 49
0.375
 74
0
 49
-0.075
 74
0
 49
0.075
 74
0
 49
-0.075
 74
0
  0
LTYPE
  5
1F6
100
AcDbSymbolTableRecord
100
AcDbLinetypeTableRecord
  2
HIDDEN
 70
64
  3
- - - - - - - - - - - - - - - - - - - -
 72
65
 73
2
 40
0.2
 49
0.1
 74
0
 49
-0.1
 74
0
  0
LTYPE
  5
1F7
100
AcDbSymbolTableRecord
100
AcDbLinetypeTableRecord
  2
PHANTOM
 70
64
  3
_____ _ _ _____ _ _ _____ _ _ _____
 72
65
 73
6
 40
0.8
 49
0.45
 74
0
 49
-0.05
 74
0
 49
0.1
 74
0
 49
-0.05
 74
0
 49
0.1
 74
0
 49
-0.05
 74
0
  0
LTYPE
  5
1F8
100
AcDbSymbolTableRecord
100
AcDbLinetypeTableRecord
  2
DOT
 70
64
  3
. . . . . . . . . . . . . . . . . . . .
 72
65
 73
2
 40
0.2
 49
0.1
 74
0
 49
-0.1
 74
0
  0
LTYPE
  5
1F9
100
AcDbSymbolTableRecord
100
AcDbLinetypeTableRecord
  2
DASHED
 70
64
  3
- - - - - - - - - - - - - - - - - - - -
 72
65
 73
2
 40
0.2
 49
0.1
 74
0
 49
-0.1
 74
0
  0
ENDTAB
  0
TABLE
  2
LAYER
  5
2
100
AcDbSymbolTable
 70
36
  0
LAYER
  5
10
100
AcDbSymbolTableRecord
100
AcDbLayerTableRecord
  2
0
 70
0
 62
7
  6
CONTINUOUS
370
-3
390
F
  0
LAYER
  5
1FA
100
AcDbSymbolTableRecord
100
AcDbLayerTableRecord
  2
DEFAULT_1
 70
0
 62
7
  6
CENTER
370
-3
390
F
  0
LAYER
  5
1FB
100
AcDbSymbolTableRecord
100
AcDbLayerTableRecord
  2
DEFAULT_2
 70
0
 62
7
  6
HIDDEN
370
-3
390
F
  0
LAYER
  5
1FC
100
AcDbSymbolTableRecord
100
AcDbLayerTableRecord
  2
DEFAULT_3
 70
0
 62
7
  6
PHANTOM
370
-3
390
F
  0
LAYER
  5
1FD
100
AcDbSymbolTableRecord
100
AcDbLayerTableRecord
  2
ASSI
 70
0
 62
7
  6
CONTINUOUS
370
-3
390
F
  0
LAYER
  5
1FE
100
AcDbSymbolTableRecord
100
AcDbLayerTableRecord
  2
COORDINATE
 70
0
 62
7
  6
CONTINUOUS
370
-3
390
F
  0
LAYER
  5
1FF
100
AcDbSymbolTableRecord
100
AcDbLayerTableRecord
  2
COORD_ORIGINE
 70
0
 62
7
  6
CONTINUOUS
370
-3
390
F
  0
LAYER
  5
200
100
AcDbSymbolTableRecord
100
AcDbLayerTableRecord
  2
COSMETICHE
 70
0
 62
7
  6
CONTINUOUS
370
-3
390
F
  0
LAYER
  5
201
100
AcDbSymbolTableRecord
100
AcDbLayerTableRecord
  2
COSMETICI
 70
0
 62
7
  6
CONTINUOUS
370
-3
390
F
  0
LAYER
  5
202
100
AcDbSymbolTableRecord
100
AcDbLayerTableRecord
  2
CURVE
 70
0
 62
7
  6
CONTINUOUS
370
-3
390
F
  0
LAYER
  5
203
100
AcDbSymbolTableRecord
100
AcDbLayerTableRecord
  2
DRAFT
 70
0
 62
7
  6
CONTINUOUS
370
-3
390
F
  0
LAYER
  5
204
100
AcDbSymbolTableRecord
100
AcDbLayerTableRecord
  2
IGES
 70
0
 62
7
  6
CONTINUOUS
370
-3
390
F
  0
LAYER
  5
205
100
AcDbSymbolTableRecord
100
AcDbLayerTableRecord
  2
INCISIONI_LASER
 70
0
 62
7
  6
CONTINUOUS
370
-3
390
F
  0
LAYER
  5
206
100
AcDbSymbolTableRecord
100
AcDbLayerTableRecord
  2
NOTE
 70
0
 62
7
  6
CONTINUOUS
370
-3
390
F
  0
LAYER
  5
207
100
AcDbSymbolTableRecord
100
AcDbLayerTableRecord
  2
PIANI
 70
0
 62
7
  6
CONTINUOUS
370
-3
390
F
  0
LAYER
  5
208
100
AcDbSymbolTableRecord
100
AcDbLayerTableRecord
  2
PIANI_DI_RIFERIMENTO
 70
0
 62
7
  6
CONTINUOUS
370
-3
390
F
  0
LAYER
  5
209
100
AcDbSymbolTableRecord
100
AcDbLayerTableRecord
  2
PIANI_ORIGINE
 70
0
 62
7
  6
CONTINUOUS
370
-3
390
F
  0
LAYER
  5
20A
100
AcDbSymbolTableRecord
100
AcDbLayerTableRecord
  2
PIANI_SFORMI
 70
0
 62
7
  6
CONTINUOUS
370
-3
390
F
  0
LAYER
  5
20B
100
AcDbSymbolTableRecord
100
AcDbLayerTableRecord
  2
PUNTI
 70
0
 62
7
  6
CONTINUOUS
370
-3
390
F
  0
LAYER
  5
20C
100
AcDbSymbolTableRecord
100
AcDbLayerTableRecord
  2
RACCORDO
 70
0
 62
7
  6
CONTINUOUS
370
-3
390
F
  0
LAYER
  5
20D
100
AcDbSymbolTableRecord
100
AcDbLayerTableRecord
  2
SMUSSO
 70
0
 62
7
  6
CONTINUOUS
370
-3
390
F
  0
LAYER
  5
20E
100
AcDbSymbolTableRecord
100
AcDbLayerTableRecord
  2
SNAPLINE
 70
0
 62
7
  6
CONTINUOUS
370
-3
390
F
  0
LAYER
  5
20F
100
AcDbSymbolTableRecord
100
AcDbLayerTableRecord
  2
SUPERFICI
 70
0
 62
7
  6
CONTINUOUS
370
-3
390
F
  0
LAYER
  5
210
100
AcDbSymbolTableRecord
100
AcDbLayerTableRecord
  2
TRASH
 70
0
 62
7
  6
CONTINUOUS
370
-3
390
F
  0
LAYER
  5
211
100
AcDbSymbolTableRecord
100
AcDbLayerTableRecord
  2
XSEC_DATUMS
 70
0
 62
7
  6
CONTINUOUS
370
-3
390
F
  0
ENDTAB
  0
TABLE
  2
STYLE
  5
3
100
AcDbSymbolTable
 70
1
  0
STYLE
  5
11
100
AcDbSymbolTableRecord
100
AcDbTextStyleTableRecord
  2
STANDARD
 70
0
 40
0.0
 41
0.8
 50
0.0
 71
0
 42
0.2
  3
txt
  4

  0
STYLE
  5
212
100
AcDbSymbolTableRecord
100
AcDbTextStyleTableRecord
  2
TEXTSTYLE_1
 70
0
 40
0.0
 41
0.8
 50
0.0
 71
0
 42
0.2
  3
gdt
  4

  0
ENDTAB
  0
TABLE
  2
VIEW
  5
6
100
AcDbSymbolTable
 70
0
  0
ENDTAB
  0
TABLE
  2
UCS
  5
7
100
AcDbSymbolTable
 70
0
  0
ENDTAB
  0
TABLE
  2
APPID
  5
9
100
AcDbSymbolTable
 70
1
  0
APPID
  5
213
100
AcDbSymbolTableRecord
100
AcDbRegAppTableRecord
  2
ACAD
 70
0
  0
ENDTAB
  0
TABLE
  2
BLOCK_RECORD
  5
1
100
AcDbSymbolTable
 70
0
  0
BLOCK_RECORD
  5
214
100
AcDbSymbolTableRecord
100
AcDbBlockTableRecord
  2
*Model_Space
  0
BLOCK_RECORD
  5
215
100
AcDbSymbolTableRecord
100
AcDbBlockTableRecord
  2
*Paper_Space
  0
ENDTAB
  0
TABLE
  2
DIMSTYLE
  5
A
100
AcDbSymbolTable
 70
1
100
AcDbDimStyleTable
 71
0
  0
DIMSTYLE
105
216
100
AcDbSymbolTableRecord
100
AcDbDimStyleTableRecord
  2
STANDARD
 70
0
  3

  4

 40
1.0
 41
3.0
 42
0.0625
 43
0.38
 44
0.18
 45
0.0
 46
0.0
 47
0.01
 48
0.01
140
3.0
141
0.09
142
0.0
143
25.4
144
1.0
145
0.0
146
1.0
147
0.09
 71
1.0
 72
0.0
 73
0
 74
0
 75
0
 76
0
 77
1
 78
8
170
0
171
2
172
0
173
0
174
0
175
0
176
0
177
0
178
0
270
2
271
2
272
2
273
2
274
2
275
0
280
0
281
0
282
0
283
1
284
8
285
0
286
0
287
3
288
0
340
11
  0
ENDTAB
  0
ENDSEC
  0
SECTION
  2
BLOCKS
  0
BLOCK
  5
20
100
AcDbEntity
  8
0
100
AcDbBlockBegin
  2
*Model_Space
 70
0
 10
0.0
 20
0.0
 30
0.0
  3
*Model_Space
  1

  0
ENDBLK
  5
21
100
AcDbEntity
  8
0
100
AcDbBlockEnd
  0
BLOCK
  5
1C
100
AcDbEntity
  8
0
100
AcDbBlockBegin
  2
*Paper_Space
 70
0
 10
0.0
 20
0.0
 30
0.0
  3
*Paper_Space
  1

  0
ENDBLK
  5
1D
100
AcDbEntity
  8
0
100
AcDbBlockEnd
  0
ENDSEC
  0
SECTION
  2
ENTITIES
  0
LWPOLYLINE
  5
217
100
AcDbEntity
  8
RACCORDO
100
AcDbPolyline
 62
7
  6
CONTINUOUS
 90
33
 70
0
 10
-14.4250283359
 20
23.0322308959
 10
-14.4404372526
 20
23.0237278294
 10
-14.4611310568
 20
23.0116820109
 10
-14.4812007368
 20
22.9992556502
 10
-14.5006617296
 20
22.9864379803
 10
-14.5194879549
 20
22.9732447287
 10
-14.5376162439
 20
22.9597227709
 10
-14.5550493129
 20
22.9458761736
 10
-14.5717858688
 20
22.9317116553
 10
-14.5877680205
 20
22.9172878957
 10
-14.6030013053
 20
22.9026148011
 10
-14.6174917481
 20
22.8877016821
 10
-14.631193617
 20
22.8726158192
 10
-14.6441012855
 20
22.8573921549
 10
-14.6562443578
 20
22.8420257711
 10
-14.667634116
 20
22.826530731
 10
-14.6782736735
 20
22.8109333623
 10
-14.6881811354
 20
22.7952398824
 10
-14.6973842491
 20
22.7794357927
 10
-14.7058896033
 20
22.7635368715
 10
-14.7137038929
 20
22.7475601558
 10
-14.7208469615
 20
22.7314935027
 10
-14.7273236762
 20
22.7153520654
 10
-14.7331378232
 20
22.6991549882
 10
-14.7383017329
 20
22.6828969587
 10
-14.7428193006
 20
22.6665944952
 10
-14.7466942481
 20
22.6502671072
 10
-14.749934717
 20
22.6339148429
 10
-14.7525444194
 20
22.6175564705
 10
-14.7545282777
 20
22.6012101807
 10
-14.7558931718
 20
22.584875599
 10
-14.7566436173
 20
22.5685648595
 10
-14.756806038
 20
22.5566224159
  0
LINE
  5
218
100
AcDbEntity
  8
RACCORDO
100
AcDbLine
 62
7
  6
CONTINUOUS
 10
-12.9977853135
 20
23.8022612785
 11
-14.4250307966
 21
23.0322295969
  0
LINE
  5
219
100
AcDbEntity
  8
RACCORDO
100
AcDbLine
 62
253
  6
CONTINUOUS
 10
-12.8833999106
 20
23.796505335
 11
-14.3094100202
 21
23.0271401658
  0
LINE
  5
21A
100
AcDbEntity
  8
RACCORDO
100
AcDbLine
 62
7
  6
CONTINUOUS
 10
-14.7568060868
 20
21.5541911107
 11
-18.0390923651
 21
19.7833223623
  0
LINE
  5
21B
100
AcDbEntity
  8
RACCORDO
100
AcDbLine
 62
253
  6
CONTINUOUS
 10
-14.7568060868
 20
21.4867216182
 11
-17.9234715888
 21
19.7782329312
  0
LINE
  5
21C
100
AcDbEntity
  8
RACCORDO
100
AcDbLine
 62
253
  6
CONTINUOUS
 10
-13.2993625872
 20
22.5221164493
 11
-11.8226858909
 21
23.2661483252
  0
LINE
  5
21D
100
AcDbEntity
  8
RACCORDO
100
AcDbLine
 62
253
  6
CONTINUOUS
 10
-13.1226128158
 20
22.2172681876
 11
-11.6459361195
 21
22.9613000635
  0
LINE
  5
21E
100
AcDbEntity
  8
RACCORDO
100
AcDbLine
 62
253
  6
CONTINUOUS
 10
-11.8226912757
 20
23.2661510176
 11
-6.2524524774
 21
26.0290305259
  0
LINE
  5
21F
100
AcDbEntity
  8
RACCORDO
100
AcDbLine
 62
253
  6
CONTINUOUS
 10
-11.6552453638
 20
23.0351914633
 11
-5.6967383891
 21
25.9906548495
  0
LINE
  5
220
100
AcDbEntity
  8
RACCORDO
100
AcDbLine
 62
7
  6
CONTINUOUS
 10
-13.0059924402
 20
23.8209147718
 11
-7.0329907659
 21
26.5794448834
  0
LINE
  5
221
100
AcDbEntity
  8
RACCORDO
100
AcDbLine
 62
253
  6
CONTINUOUS
 10
-12.9187498648
 20
23.8141803122
 11
-7.1505987342
 21
26.4781036542
  0
LWPOLYLINE
  5
222
100
AcDbEntity
  8
RACCORDO
100
AcDbPolyline
 62
7
  6
CONTINUOUS
 90
46
 70
0
 10
-20.1879599115
 20
14.6322857388
 10
-20.2032572238
 20
14.6207806194
 10
-20.2235143321
 20
14.6048500977
 10
-20.2434847945
 20
14.5883487697
 10
-20.2631615405
 20
14.5712922733
 10
-20.2825375943
 20
14.5536964543
 10
-20.3016033079
 20
14.5355790735
 10
-20.3203521329
 20
14.5169552826
 10
-20.3387765822
 20
14.4978408137
 10
-20.3568642098
 20
14.4782563234
 10
-20.3746078942
 20
14.4582177263
 10
-20.392000541
 20
14.4377403235
 10
-20.4090294674
 20
14.4168462621
 10
-20.4256870618
 20
14.3955524174
 10
-20.4419666965
 20
14.3738737469
 10
-20.4578572457
 20
14.3518318531
 10
-20.4733496799
 20
14.3294460113
 10
-20.4884391245
 20
14.3067291924
 10
-20.5031205121
 20
14.2836947728
 10
-20.5173861396
 20
14.2603594486
 10
-20.5312293879
 20
14.236738312
 10
-20.5446459762
 20
14.2128424315
 10
-20.5576283627
 20
14.1886874951
 10
-20.5701693437
 20
14.1642892422
 10
-20.5822640101
 20
14.1396584267
 10
-20.5939046594
 20
14.1148105673
 10
-20.6050838994
 20
14.0897613699
 10
-20.6157961835
 20
14.064521325
 10
-20.6260338872
 20
14.0391054448
 10
-20.6357891228
 20
14.0135298031
 10
-20.6450552979
 20
13.9878059261
 10
-20.6538252058
 20
13.9619472527
 10
-20.6620900512
 20
13.9359713418
 10
-20.6698411828
 20
13.9098952881
 10
-20.6770709946
 20
13.8837340014
 10
-20.6837711526
 20
13.8575036042
 10
-20.689933065
 20
13.8312220603
 10
-20.6955489668
 20
13.8049045625
 10
-20.7006106048
 20
13.778566693
 10
-20.7051097815
 20
13.7522257378
 10
-20.7090383664
 20
13.7258975247
 10
-20.7123880988
 20
13.6995969764
 10
-20.7151509382
 20
13.6733379164
 10
-20.7173182391
 20
13.6471342256
 10
-20.7188812308
 20
13.6210029447
 10
-20.7196316246
 20
13.6021094539
  0
LINE
  5
223
100
AcDbEntity
  8
RACCORDO
100
AcDbLine
 62
7
  6
CONTINUOUS
 10
-20.1879617098
 20
14.632284443
 11
-17.8716105219
 21
16.3407259549
  0
LINE
  5
224
100
AcDbEntity
  8
RACCORDO
100
AcDbLine
 62
253
  6
CONTINUOUS
 10
-20.0702656697
 20
14.6289578714
 11
-17.7472311807
 21
16.3423287002
  0
LWPOLYLINE
  5
225
100
AcDbEntity
  8
0
100
AcDbPolyline
 62
7
  6
CONTINUOUS
 90
33
 70
0
 10
-12.0901148095
 20
20.4082148792
 10
-12.1040439618
 20
20.400523136
 10
-12.122857585
 20
20.3895451493
 10
-12.1410672543
 20
20.3782200033
 10
-12.1586877434
 20
20.3665412143
 10
-12.1757014901
 20
20.3545229471
 10
-12.1920612339
 20
20.342204313
 10
-12.2077714828
 20
20.3295905556
 10
-12.2228333474
 20
20.3166891134
 10
-12.2372024053
 20
20.3035496761
 10
-12.2508845432
 20
20.2901829888
 10
-12.2638865584
 20
20.2765988734
 10
-12.276173532
 20
20.2628545488
 10
-12.2877405133
 20
20.2489836977
 10
-12.2986146447
 20
20.2349832975
 10
-12.3088110272
 20
20.2208614156
 10
-12.3183323232
 20
20.2066432298
 10
-12.3271944661
 20
20.1923360123
 10
-12.3354256133
 20
20.1779219729
 10
-12.3430310715
 20
20.1634167415
 10
-12.3500163874
 20
20.1488367132
 10
-12.3564017641
 20
20.134165107
 10
-12.3621912549
 20
20.1194148284
 10
-12.3673866885
 20
20.1046056277
 10
-12.3719986886
 20
20.0897313377
 10
-12.3760299844
 20
20.0748068496
 10
-12.3794828589
 20
20.0598512977
 10
-12.3823637813
 20
20.0448655262
 10
-12.3846752506
 20
20.0298668921
 10
-12.3864208411
 20
20.0148728265
 10
-12.3876060431
 20
19.9998846365
 10
-12.3882344863
 20
19.9849143088
 10
-12.3883461847
 20
19.9753675933
  0
LINE
  5
226
100
AcDbEntity
  8
0
100
AcDbLine
 62
7
  6
CONTINUOUS
 10
-12.0901162898
 20
20.4082141138
 11
-9.7860613312
 21
21.6513046229
  0
LINE
  5
227
100
AcDbEntity
  8
0
100
AcDbLine
 62
7
  6
CONTINUOUS
 10
-8.4358821734
 20
22.3797572539
 11
-5.6484539435
 21
23.8836387323
  0
LINE
  5
228
100
AcDbEntity
  8
0
100
AcDbLine
 62
253
  6
CONTINUOUS
 10
-11.9744955134
 20
20.4031246827
 11
-9.820414603
 21
21.5653007521
  0
LINE
  5
229
100
AcDbEntity
  8
0
100
AcDbLine
 62
253
  6
CONTINUOUS
 10
-8.2816544421
 20
22.3954971606
 11
-5.5340685362
 21
23.8778827912
  0
LINE
  5
22A
100
AcDbEntity
  8
0
100
AcDbLine
 62
7
  6
CONTINUOUS
 10
-7.2572949262
 20
24.0899769333
 11
-11.6459361195
 21
21.8787353338
  0
LINE
  5
22B
100
AcDbEntity
  8
RACCORDO
100
AcDbLine
 62
7
  6
CONTINUOUS
 10
-11.6459361195
 20
21.8787353338
 11
-13.1226128158
 21
21.1347034579
  0
LINE
  5
22C
100
AcDbEntity
  8
0
100
AcDbLine
 62
253
  6
CONTINUOUS
 10
-4.4641962165
 20
23.3429466313
 11
-5.8525854833
 21
22.6433988743
  0
LINE
  5
22D
100
AcDbEntity
  8
0
100
AcDbLine
 62
253
  6
CONTINUOUS
 10
-9.5010208119
 20
20.8051141716
 11
-11.1334535851
 21
19.9826037185
  0
LINE
  5
22E
100
AcDbEntity
  8
0
100
AcDbLine
 62
7
  6
CONTINUOUS
 10
-9.3831944197
 20
22.1072011262
 11
-9.0196262871
 21
22.2889851925
  0
LINE
  5
22F
100
AcDbEntity
  8
RACCORDO
100
AcDbLine
 62
7
  6
CONTINUOUS
 10
-5.5436758965
 20
23.8823282234
 11
-4.1152488999
 21
24.5965417217
  0
LINE
  5
230
100
AcDbEntity
  8
0
100
AcDbLine
 62
7
  6
CONTINUOUS
 10
-7.1634745492
 20
24.0430667448
 11
-5.8777583008
 21
24.6638676192
  0
LINE
  5
231
100
AcDbEntity
  8
RACCORDO
100
AcDbLine
 62
7
  6
CONTINUOUS
 10
-3.0049853
 20
24.2304163604
 11
3.9908785449
 21
27.461338119
  0
LINE
  5
232
100
AcDbEntity
  8
RACCORDO
100
AcDbLine
 62
253
  6
CONTINUOUS
 10
-2.8827552319
 20
24.1693013264
 11
4.2066882574
 21
27.4434412658
  0
LINE
  5
233
100
AcDbEntity
  8
RACCORDO
100
AcDbLine
 62
7
  6
CONTINUOUS
 10
-3.0458906443
 20
-24.5233474997
 11
-0.6433904618
 21
-23.873246153
  0
LINE
  5
234
100
AcDbEntity
  8
RACCORDO
100
AcDbLine
 62
253
  6
CONTINUOUS
 10
-2.937526036
 20
-24.3719437944
 11
-0.5600471402
 21
-23.7286130496
  0
LWPOLYLINE
  5
235
100
AcDbEntity
  8
RACCORDO
100
AcDbPolyline
 62
7
  6
CONTINUOUS
 90
24
 70
0
 10
-3.4705954667
 20
-24.4886155132
 10
-3.4605569073
 20
-24.4935069375
 10
-3.4439281751
 20
-24.5010575686
 10
-3.4270055803
 20
-24.5080633395
 10
-3.4097982624
 20
-24.5145162407
 10
-3.3923065145
 20
-24.520411186
 10
-3.3745431654
 20
-24.5257381791
 10
-3.3565223828
 20
-24.5304875601
 10
-3.338245568
 20
-24.5346535022
 10
-3.3197267276
 20
-24.5382268448
 10
-3.3009792717
 20
-24.5411990589
 10
-3.2820024519
 20
-24.5435639128
 10
-3.262809681
 20
-24.5453130731
 10
-3.2434144637
 20
-24.5464386281
 10
-3.2238146502
 20
-24.5469332678
 10
-3.204022829
 20
-24.546788946
 10
-3.1840524184
 20
-24.545998148
 10
-3.1639008926
 20
-24.5445522709
 10
-3.143580874
 20
-24.5424431128
 10
-3.1231039547
 20
-24.5396630173
 10
-3.1024642687
 20
-24.536201216
 10
-3.0816673754
 20
-24.5320474303
 10
-3.0607323068
 20
-24.5271946835
 10
-3.0458946186
 20
-24.5233485243
  0
LINE
  5
236
100
AcDbEntity
  8
RACCORDO
100
AcDbLine
 62
7
  6
CONTINUOUS
 10
-18.0321898089
 20
-18.9791794816
 11
-1.0285165064
 21
-27.4810161329
  0
LINE
  5
237
100
AcDbEntity
  8
RACCORDO
100
AcDbLine
 62
253
  6
CONTINUOUS
 10
-18.0971631053
 20
-18.8439610315
 11
-1.0934898029
 21
-27.3457976828
  0
LINE
  5
238
100
AcDbEntity
  8
RACCORDO
100
AcDbLine
 62
7
  6
CONTINUOUS
 10
-20.3904443937
 20
-16.0286911737
 11
-3.4705560496
 21
-24.4886353457
  0
LINE
  5
239
100
AcDbEntity
  8
RACCORDO
100
AcDbLine
 62
7
  6
CONTINUOUS
 10
-3.4705962037
 20
-24.4886152663
 11
-3.47056054
 21
-24.4886331005
  0
LINE
  5
23A
100
AcDbEntity
  8
RACCORDO
100
AcDbLine
 62
253
  6
CONTINUOUS
 10
-20.6463919852
 20
-15.5234020899
 11
-3.7332984734
 21
-23.9799488457
  0
LWPOLYLINE
  5
23B
100
AcDbEntity
  8
RACCORDO
100
AcDbPolyline
 62
7
  6
CONTINUOUS
 90
36
 70
0
 10
-20.7196234038
 20
-15.4345862533
 10
-20.7188741273
 20
-15.4527712049
 10
-20.7173429817
 20
-15.477196893
 10
-20.7152184257
 20
-15.5013506863
 10
-20.712498238
 20
-15.525234407
 10
-20.7091832578
 20
-15.5488232838
 10
-20.7052802727
 20
-15.5720658091
 10
-20.7007915193
 20
-15.5949538392
 10
-20.6957196734
 20
-15.6174772912
 10
-20.6900781577
 20
-15.6395848799
 10
-20.6838724578
 20
-15.6612693542
 10
-20.6771085156
 20
-15.6825225879
 10
-20.6698071354
 20
-15.703295276
 10
-20.6619777765
 20
-15.7235811246
 10
-20.6536300096
 20
-15.7433744365
 10
-20.6447920555
 20
-15.7626299792
 10
-20.6354829082
 20
-15.7813328537
 10
-20.6257114819
 20
-15.7994904831
 10
-20.6154956422
 20
-15.8170924135
 10
-20.6048559619
 20
-15.8341262876
 10
-20.5938029595
 20
-15.8505979189
 10
-20.5823394328
 20
-15.8665216397
 10
-20.5704800484
 20
-15.8818926439
 10
-20.5582401949
 20
-15.8967065051
 10
-20.5456220754
 20
-15.910974157
 10
-20.5326409524
 20
-15.9246897722
 10
-20.5193120405
 20
-15.937848464
 10
-20.5056363297
 20
-15.950459274
 10
-20.491629668
 20
-15.9625160151
 10
-20.4773074759
 20
-15.9740135929
 10
-20.4626689422
 20
-15.9849595631
 10
-20.4477296937
 20
-15.9953481591
 10
-20.4325059947
 20
-16.0051739269
 10
-20.4169968225
 20
-16.0144420896
 10
-20.4012121729
 20
-16.0231499971
 10
-20.3904037849
 20
-16.0287113536
  0
LWPOLYLINE
  5
23C
100
AcDbEntity
  8
RACCORDO
100
AcDbPolyline
 62
7
  6
CONTINUOUS
 90
28
 70
0
 10
-20.7196316031
 20
13.6021113839
 10
-20.7522460982
 20
12.516002893
 10
-20.782533105
 20
11.4248190054
 10
-20.8102971252
 20
10.3348330654
 10
-20.8355378646
 20
9.2460555435
 10
-20.8582551147
 20
8.1584955031
 10
-20.8784486905
 20
7.0721614144
 10
-20.8961184082
 20
5.9870619937
 10
-20.911264107
 20
4.9032068424
 10
-20.923885636
 20
3.8206057586
 10
-20.9339828629
 20
2.7392681428
 10
-20.9415557024
 20
1.6592031532
 10
-20.9466040787
 20
0.5804202223
 10
-20.9491279294
 20
-0.4970714452
 10
-20.9491272342
 20
-1.5732626395
 10
-20.9466019848
 20
-2.6481439228
 10
-20.9415521837
 20
-3.7217060949
 10
-20.9339778767
 20
-4.7939400094
 10
-20.923879122
 20
-5.8648363107
 10
-20.9112559877
 20
-6.9343859199
 10
-20.8961085888
 20
-8.0025795644
 10
-20.878437059
 20
-9.0694076012
 10
-20.8582415416
 20
-10.1348605862
 10
-20.8355222032
 20
-11.1989299863
 10
-20.8102792111
 20
-12.2616075244
 10
-20.7825127565
 20
-13.3228843455
 10
-20.7522231161
 20
-14.382750269
 10
-20.719623387
 20
-15.4345875384
  0
LINE
  5
23D
100
AcDbEntity
  8
0
100
AcDbLine
 62
7
  6
CONTINUOUS
 10
-4.2675420448
 20
21.0702215546
 11
-4.9878221688
 21
20.688206655
  0
LINE
  5
23E
100
AcDbEntity
  8
0
100
AcDbLine
 62
7
  6
CONTINUOUS
 10
-8.2033514002
 20
18.9827867279
 11
-8.6053769604
 21
18.7695644704
  0
LINE
  5
23F
100
AcDbEntity
  8
0
100
AcDbLine
 62
253
  6
CONTINUOUS
 10
-4.2874464452
 20
23.0380983696
 11
-4.8722339399
 21
22.7434498946
  0
LINE
  5
240
100
AcDbEntity
  8
0
100
AcDbLine
 62
253
  6
CONTINUOUS
 10
-9.1086291014
 20
20.6089183164
 11
-10.9567012277
 21
19.6777567599
  0
LINE
  5
241
100
AcDbEntity
  8
RACCORDO
100
AcDbLine
 62
7
  6
CONTINUOUS
 10
-6.2902765582
 20
21.5959154525
 11
-6.7221894714
 21
21.3782936969
  0
LINE
  5
242
100
AcDbEntity
  8
RACCORDO
100
AcDbLine
 62
7
  6
CONTINUOUS
 10
-8.6772466781
 20
20.3932271047
 11
-10.9567038138
 21
19.24470978
  0
LINE
  5
243
100
AcDbEntity
  8
RACCORDO
100
AcDbLine
 62
7
  6
CONTINUOUS
 10
-2.8424566938
 20
23.9601456186
 11
-4.3368808028
 21
23.212933564
  0
LINE
  5
244
100
AcDbEntity
  8
RACCORDO
100
AcDbLine
 62
7
  6
CONTINUOUS
 10
-1.0934898029
 20
-24.4676378597
 11
-1.7067801662
 21
-24.160992678
  0
LINE
  5
245
100
AcDbEntity
  8
DRAFT
100
AcDbLine
 62
7
  6
CONTINUOUS
 10
-0.5600471402
 20
-24.3808058004
 11
-1.2479736597
 21
-24.0368425407
  0
LINE
  5
246
100
AcDbEntity
  8
RACCORDO
100
AcDbLine
 62
7
  6
CONTINUOUS
 10
-18.17038641
 20
-18.7555726839
 11
-18.17038641
 21
-17.1387201655
  0
LINE
  5
247
100
AcDbEntity
  8
RACCORDO
100
AcDbLine
 62
7
  6
CONTINUOUS
 10
-18.17038641
 20
16.6851423215
 11
-18.17038641
 21
19.5633021446
  0
LINE
  5
248
100
AcDbEntity
  8
RACCORDO
100
AcDbLine
 62
253
  6
CONTINUOUS
 10
-18.0971631053
 20
-18.8439610315
 11
-18.0971631053
 21
-17.1753318178
  0
LINE
  5
249
100
AcDbEntity
  8
RACCORDO
100
AcDbLine
 62
253
  6
CONTINUOUS
 10
-18.0971631053
 20
16.5967539738
 11
-18.0971631053
 21
19.4749137969
  0
LINE
  5
24A
100
AcDbEntity
  8
RACCORDO
100
AcDbLine
 62
7
  6
CONTINUOUS
 10
-17.9234989868
 20
16.3024552437
 11
-17.9234989868
 21
16.5099219146
  0
LINE
  5
24B
100
AcDbEntity
  8
RACCORDO
100
AcDbLine
 62
253
  6
CONTINUOUS
 10
-2.9951724579
 20
17.3940807313
 11
-2.8370631946
 21
17.473135363
  0
LINE
  5
24C
100
AcDbEntity
  8
0
100
AcDbLine
 62
7
  6
CONTINUOUS
 10
6.4913528179
 20
21.6408986095
 11
10.733993505
 21
23.762218953
  0
LINE
  5
24D
100
AcDbEntity
  8
0
100
AcDbLine
 62
7
  6
CONTINUOUS
 10
-0.8979130455
 20
17.8645604391
 11
-0.5343449129
 21
18.0463445054
  0
LINE
  5
24E
100
AcDbEntity
  8
0
100
AcDbLine
 62
7
  6
CONTINUOUS
 10
-0.8979130455
 20
17.5181502775
 11
-0.5343449129
 21
17.6999343438
  0
LINE
  5
24F
100
AcDbEntity
  8
DRAFT
100
AcDbLine
 62
7
  6
CONTINUOUS
 10
7.5709512097
 20
21.7476851035
 11
10.733993505
 21
23.3292062511
  0
LINE
  5
250
100
AcDbEntity
  8
0
100
AcDbLine
 62
253
  6
CONTINUOUS
 10
-1.1100450799
 20
17.1522766392
 11
-1.3928877923
 21
17.010855283
  0
LINE
  5
251
100
AcDbEntity
  8
DRAFT
100
AcDbLine
 62
7
  6
CONTINUOUS
 10
6.4913528179
 20
21.241895509
 11
7.5709512097
 21
21.7701557559
  0
LINE
  5
252
100
AcDbEntity
  8
RACCORDO
100
AcDbLine
 62
7
  6
CONTINUOUS
 10
6.0914954613
 20
22.6890528329
 11
10.0260083005
 21
24.5337812443
  0
LINE
  5
253
100
AcDbEntity
  8
RACCORDO
100
AcDbLine
 62
253
  6
CONTINUOUS
 10
-15.0977845925
 20
-10.6803472003
 11
-13.8773587913
 21
-11.2905601009
  0
LINE
  5
254
100
AcDbEntity
  8
RACCORDO
100
AcDbLine
 62
253
  6
CONTINUOUS
 10
-10.8700283569
 20
-12.7942253181
 11
-9.6496025557
 21
-13.4044382187
  0
LINE
  5
255
100
AcDbEntity
  8
RACCORDO
100
AcDbLine
 62
253
  6
CONTINUOUS
 10
-14.7458100282
 20
-10.4606801475
 11
-13.7021541911
 21
-10.9825080661
  0
LINE
  5
256
100
AcDbEntity
  8
RACCORDO
100
AcDbLine
 62
253
  6
CONTINUOUS
 10
-10.6948237569
 20
-12.4861732832
 11
-9.7278286566
 21
-12.9696708333
  0
LINE
  5
257
100
AcDbEntity
  8
DRAFT
100
AcDbLine
 62
7
  6
CONTINUOUS
 10
-15.1107593473
 20
2.6549617136
 11
-15.1107593473
 21
0.9214435473
  0
LINE
  5
258
100
AcDbEntity
  8
RACCORDO
100
AcDbLine
 62
7
  6
CONTINUOUS
 10
-14.7568060868
 20
21.4714953854
 11
-14.7568060868
 21
22.5566616326
  0
LINE
  5
259
100
AcDbEntity
  8
RACCORDO
100
AcDbLine
 62
7
  6
CONTINUOUS
 10
-14.7568060868
 20
22.5566582711
 11
-14.7568060839
 21
22.5566201489
  0
LINE
  5
25A
100
AcDbEntity
  8
DRAFT
100
AcDbLine
 62
7
  6
CONTINUOUS
 10
-14.5450739224
 20
-8.655744287
 11
-14.5450739224
 21
-10.3599217932
  0
LWPOLYLINE
  5
25B
100
AcDbEntity
  8
0
100
AcDbPolyline
 62
7
  6
CONTINUOUS
 90
33
 70
0
 10
-2.0491985167
 20
15.3877567328
 10
-2.063127669
 20
15.3800649896
 10
-2.0819412921
 20
15.3690870029
 10
-2.1001509615
 20
15.3577618569
 10
-2.1177714505
 20
15.3460830679
 10
-2.1347851972
 20
15.3340648007
 10
-2.151144941
 20
15.3217461666
 10
-2.1668551899
 20
15.3091324091
 10
-2.1819170545
 20
15.296230967
 10
-2.1962861124
 20
15.2830915297
 10
-2.2099682503
 20
15.2697248424
 10
-2.2229702655
 20
15.2561407269
 10
-2.2352572392
 20
15.2423964024
 10
-2.2468242205
 20
15.2285255513
 10
-2.2576983519
 20
15.214525151
 10
-2.2678947343
 20
15.2004032692
 10
-2.2774160304
 20
15.1861850834
 10
-2.2862781732
 20
15.1718778659
 10
-2.2945093204
 20
15.1574638265
 10
-2.3021147787
 20
15.142958595
 10
-2.3091000945
 20
15.1283785668
 10
-2.3154854713
 20
15.1137069605
 10
-2.321274962
 20
15.098956682
 10
-2.3264703957
 20
15.0841474813
 10
-2.3310823958
 20
15.0692731913
 10
-2.3351136916
 20
15.0543487032
 10
-2.338566566
 20
15.0393931512
 10
-2.3414474884
 20
15.0244073798
 10
-2.3437589578
 20
15.0094087456
 10
-2.3455045483
 20
14.9944146801
 10
-2.3466897503
 20
14.97942649
 10
-2.3473181935
 20
14.9644561624
 10
-2.3474298918
 20
14.9549094469
  0
LINE
  5
25C
100
AcDbEntity
  8
0
100
AcDbLine
 62
7
  6
CONTINUOUS
 10
-2.0491999969
 20
15.3877559674
 11
4.3924618753
 21
18.8631803301
  0
LINE
  5
25D
100
AcDbEntity
  8
0
100
AcDbLine
 62
253
  6
CONTINUOUS
 10
-1.9335792205
 20
15.3826665363
 11
4.5068477566
 21
18.8574246447
  0
LINE
  5
25E
100
AcDbEntity
  8
0
100
AcDbLine
 62
7
  6
CONTINUOUS
 10
0.4196609777
 20
17.8106669031
 11
-1.1100450799
 21
17.0266287846
  0
LINE
  5
25F
100
AcDbEntity
  8
0
100
AcDbLine
 62
7
  6
CONTINUOUS
 10
-1.5218824251
 20
16.8155449782
 11
-3.0899440672
 21
16.0118480238
  0
LINE
  5
260
100
AcDbEntity
  8
0
100
AcDbLine
 62
253
  6
CONTINUOUS
 10
5.5767200763
 20
18.3224884849
 11
-1.0925372923
 21
14.9621455721
  0
LINE
  5
261
100
AcDbEntity
  8
0
100
AcDbLine
 62
7
  6
CONTINUOUS
 10
-1.1100450799
 20
16.8924690181
 11
-1.3928877923
 21
16.7510476619
  0
LINE
  5
262
100
AcDbEntity
  8
0
100
AcDbLine
 62
7
  6
CONTINUOUS
 10
7.0641093107
 20
20.8543685976
 11
7.5590840575
 21
21.101855971
  0
LINE
  5
263
100
AcDbEntity
  8
RACCORDO
100
AcDbLine
 62
253
  6
CONTINUOUS
 10
6.5417837127
 20
20.575636371
 11
6.1154763467
 21
20.362482688
  0
LINE
  5
264
100
AcDbEntity
  8
RACCORDO
100
AcDbLine
 62
7
  6
CONTINUOUS
 10
6.4637185325
 20
20.4544183394
 11
6.2000056431
 21
20.3225618947
  0
LINE
  5
265
100
AcDbEntity
  8
RACCORDO
100
AcDbLine
 62
7
  6
CONTINUOUS
 10
5.925667393
 20
19.5760835752
 11
4.4972442419
 21
18.8618719997
  0
LINE
  5
266
100
AcDbEntity
  8
RACCORDO
100
AcDbLine
 62
7
  6
CONTINUOUS
 10
9.9725866311
 20
21.1843074758
 11
8.8502735531
 21
20.6231509367
  0
LINE
  5
267
100
AcDbEntity
  8
RACCORDO
100
AcDbLine
 62
7
  6
CONTINUOUS
 10
8.0215193792
 20
20.2087738498
 11
7.512900163
 21
19.9544642417
  0
LINE
  5
268
100
AcDbEntity
  8
RACCORDO
100
AcDbLine
 62
253
  6
CONTINUOUS
 10
12.9967352048
 20
22.3749729029
 11
12.8195977032
 21
22.286404152
  0
LINE
  5
269
100
AcDbEntity
  8
RACCORDO
100
AcDbLine
 62
7
  6
CONTINUOUS
 10
10.6797174886
 20
20.8307661233
 11
9.5573803343
 21
20.2695975462
  0
LINE
  5
26A
100
AcDbEntity
  8
RACCORDO
100
AcDbLine
 62
7
  6
CONTINUOUS
 10
5.7040317136
 20
18.1924735294
 11
7.1984595991
 21
18.9396874722
  0
LINE
  5
26B
100
AcDbEntity
  8
0
100
AcDbLine
 62
7
  6
CONTINUOUS
 10
9.5244498568
 20
20.0942136848
 11
9.1726927692
 21
19.918335141
  0
LINE
  5
26C
100
AcDbEntity
  8
0
100
AcDbLine
 62
7
  6
CONTINUOUS
 10
9.5244498568
 20
19.9881476676
 11
9.459459969
 21
19.9556527237
  0
LINE
  5
26D
100
AcDbEntity
  8
RACCORDO
100
AcDbLine
 62
7
  6
CONTINUOUS
 10
10.780297471
 20
20.344651828
 11
14.6362999398
 21
22.2286354246
  0
LINE
  5
26E
100
AcDbEntity
  8
RACCORDO
100
AcDbLine
 62
7
  6
CONTINUOUS
 10
-14.5450739224
 20
-10.3599217932
 11
-13.4994751867
 21
-10.882721161
  0
LINE
  5
26F
100
AcDbEntity
  8
RACCORDO
100
AcDbLine
 62
7
  6
CONTINUOUS
 10
-10.4995038335
 20
-12.3827068376
 11
-9.7306528425
 21
-12.7671323331
  0
LINE
  5
270
100
AcDbEntity
  8
RACCORDO
100
AcDbLine
 62
7
  6
CONTINUOUS
 10
-9.750768409
 20
-11.0528970437
 11
-14.9271623514
 21
-8.4647000725
  0
LINE
  5
271
100
AcDbEntity
  8
RACCORDO
100
AcDbLine
 62
253
  6
CONTINUOUS
 10
-9.6790188397
 20
-10.9885497481
 11
-15.1277185133
 21
-8.2641999113
  0
LWPOLYLINE
  5
272
100
AcDbEntity
  8
RACCORDO
100
AcDbPolyline
 62
7
  6
CONTINUOUS
 90
73
 70
0
 10
-10.9154134211
 20
-12.8166051207
 10
-10.8936676685
 20
-12.8592939099
 10
-10.8689678563
 20
-12.9092497471
 10
-10.8449328376
 20
-12.9594775583
 10
-10.8215741026
 20
-13.0099521659
 10
-10.7989034456
 20
-13.0606469397
 10
-10.7769325435
 20
-13.1115336296
 10
-10.7556718231
 20
-13.1625859895
 10
-10.7351314007
 20
-13.2137776621
 10
-10.7153215354
 20
-13.2650799163
 10
-10.6962512428
 20
-13.3164662061
 10
-10.6779292139
 20
-13.367909942
 10
-10.6603642065
 20
-13.4193820698
 10
-10.6435637478
 20
-13.4708559117
 10
-10.6275350375
 20
-13.5223047938
 10
-10.6122852616
 20
-13.57369947
 10
-10.597820375
 20
-13.6250133486
 10
-10.5841460388
 20
-13.6762197655
 10
-10.5712678394
 20
-13.7272892339
 10
-10.5591901233
 20
-13.778195263
 10
-10.5479168957
 20
-13.8289115061
 10
-10.5374519924
 20
-13.8794086289
 10
-10.5277980976
 20
-13.9296603175
 10
-10.5189574881
 20
-13.9796407954
 10
-10.5109321005
 20
-14.0293215337
 10
-10.5037228413
 20
-14.0786770083
 10
-10.4973303164
 20
-14.1276817154
 10
-10.491754653
 20
-14.176307222
 10
-10.48699498
 20
-14.2245284055
 10
-10.4830500589
 20
-14.272320787
 10
-10.4799180321
 20
-14.3196570346
 10
-10.4775963307
 20
-14.3665091268
 10
-10.4760816025
 20
-14.412857328
 10
-10.4753699261
 20
-14.4586865891
 10
-10.4754572442
 20
-14.5039707816
 10
-10.4763391422
 20
-14.5486896496
 10
-10.4780112006
 20
-14.5928361564
 10
-10.4804684279
 20
-14.6363871368
 10
-10.4837055282
 20
-14.679320214
 10
-10.4877179715
 20
-14.7216283108
 10
-10.4924997723
 20
-14.7632891223
 10
-10.498044566
 20
-14.8042802978
 10
-10.5043474
 20
-14.8445933768
 10
-10.5114010509
 20
-14.8842063677
 10
-10.5191979698
 20
-14.9230978057
 10
-10.5277326135
 20
-14.9612587374
 10
-10.5369945872
 20
-14.998660827
 10
-10.5469766149
 20
-15.0352909106
 10
-10.5576787795
 20
-15.071160309
 10
-10.5690893518
 20
-15.1062386178
 10
-10.5812020349
 20
-15.1405144747
 10
-10.5940286279
 20
-15.1740221318
 10
-10.6075614851
 20
-15.2067374468
 10
-10.6217932963
 20
-15.238638503
 10
-10.6367413627
 20
-15.2697551271
 10
-10.6523995839
 20
-15.3000615094
 10
-10.6687620435
 20
-15.329533333
 10
-10.6858513471
 20
-15.3581947456
 10
-10.7036672438
 20
-15.386024343
 10
-10.7222019693
 20
-15.4129893775
 10
-10.7414710111
 20
-15.4390913016
 10
-10.7614740918
 20
-15.4643063474
 10
-10.7822064897
 20
-15.4886054697
 10
-10.8036803609
 20
-15.5119801111
 10
-10.8258916671
 20
-15.5344018867
 10
-10.8488441376
 20
-15.5558509623
 10
-10.8725669366
 20
-15.5763287954
 10
-10.8970604107
 20
-15.5958068944
 10
-10.9223339607
 20
-15.6142646836
 10
-10.9484390292
 20
-15.6317073457
 10
-10.975402271
 20
-15.6481142781
 10
-11.0032204142
 20
-15.6634459454
 10
-11.0082257781
 20
-15.666041062
  0
LINE
  5
273
100
AcDbEntity
  8
RACCORDO
100
AcDbLine
 62
253
  6
CONTINUOUS
 10
-13.1226128158
 20
21.1347034579
 11
-13.1226128158
 21
22.2172681876
  0
LINE
  5
274
100
AcDbEntity
  8
RACCORDO
100
AcDbLine
 62
7
  6
CONTINUOUS
 10
-12.388346191
 20
19.5397536825
 11
-12.388346191
 21
19.9754047661
  0
LINE
  5
275
100
AcDbEntity
  8
0
100
AcDbLine
 62
7
  6
CONTINUOUS
 10
-12.3883461883
 20
19.9753684591
 11
-12.388346191
 21
19.9754026054
  0
LINE
  5
276
100
AcDbEntity
  8
RACCORDO
100
AcDbLine
 62
7
  6
CONTINUOUS
 10
-11.6459361195
 20
21.8787353338
 11
-11.6459361195
 21
22.9613000635
  0
LINE
  5
277
100
AcDbEntity
  8
RACCORDO
100
AcDbLine
 62
253
  6
CONTINUOUS
 10
-7.4809277644
 20
21.8386392323
 11
-7.4976127978
 21
21.767404532
  0
LWPOLYLINE
  5
278
100
AcDbEntity
  8
RACCORDO
100
AcDbPolyline
 62
7
  6
CONTINUOUS
 90
33
 70
0
 10
1.6970062751
 20
14.9712135904
 10
1.6815973585
 20
14.9627105239
 10
1.6609035543
 20
14.9506647054
 10
1.6408338743
 20
14.9382383446
 10
1.6213728814
 20
14.9254206747
 10
1.6025466562
 20
14.9122274232
 10
1.5844183672
 20
14.8987054654
 10
1.5669852982
 20
14.884858868
 10
1.5502487422
 20
14.8706943498
 10
1.5342665906
 20
14.8562705901
 10
1.5190333058
 20
14.8415974956
 10
1.504542863
 20
14.8266843765
 10
1.4908409941
 20
14.8115985137
 10
1.4779333256
 20
14.7963748494
 10
1.4657902532
 20
14.7810084656
 10
1.454400495
 20
14.7655134254
 10
1.4437609376
 20
14.7499160568
 10
1.4338534756
 20
14.7342225769
 10
1.424650362
 20
14.7184184871
 10
1.4161450077
 20
14.7025195659
 10
1.4083307181
 20
14.6865428502
 10
1.4011876496
 20
14.6704761972
 10
1.3947109349
 20
14.6543347599
 10
1.3888967879
 20
14.6381376827
 10
1.3837328781
 20
14.6218796532
 10
1.3792153105
 20
14.6055771897
 10
1.375340363
 20
14.5892498017
 10
1.3720998941
 20
14.5728975374
 10
1.3694901916
 20
14.556539165
 10
1.3675063334
 20
14.5401928752
 10
1.3661414392
 20
14.5238582934
 10
1.3653909937
 20
14.5075475539
 10
1.365228573
 20
14.4956051104
  0
LINE
  5
279
100
AcDbEntity
  8
RACCORDO
100
AcDbLine
 62
7
  6
CONTINUOUS
 10
3.1242492976
 20
15.741243973
 11
1.6970038144
 21
14.9712122914
  0
LINE
  5
27A
100
AcDbEntity
  8
RACCORDO
100
AcDbLine
 62
253
  6
CONTINUOUS
 10
3.2386347005
 20
15.7354880295
 11
1.8126245908
 21
14.9661228603
  0
LINE
  5
27B
100
AcDbEntity
  8
0
100
AcDbLine
 62
253
  6
CONTINUOUS
 10
5.7534698477
 20
18.0176402232
 11
-0.9157849348
 21
14.6572986135
  0
LINE
  5
27C
100
AcDbEntity
  8
RACCORDO
100
AcDbLine
 62
7
  6
CONTINUOUS
 10
5.7534698477
 20
17.5845945464
 11
-0.9157875209
 21
14.2242516336
  0
LINE
  5
27D
100
AcDbEntity
  8
RACCORDO
100
AcDbLine
 62
253
  6
CONTINUOUS
 10
2.8226720239
 20
14.4610991438
 11
4.2993487202
 21
15.2051310197
  0
LINE
  5
27E
100
AcDbEntity
  8
RACCORDO
100
AcDbLine
 62
253
  6
CONTINUOUS
 10
2.9994217952
 20
14.1562508821
 11
4.4760984915
 21
14.900282758
  0
LINE
  5
27F
100
AcDbEntity
  8
RACCORDO
100
AcDbLine
 62
7
  6
CONTINUOUS
 10
7.728789685
 20
18.5553334623
 11
5.7703908504
 21
17.576134045
  0
LINE
  5
280
100
AcDbEntity
  8
RACCORDO
100
AcDbLine
 62
253
  6
CONTINUOUS
 10
4.3346986744
 20
15.1874560425
 11
9.9049374727
 21
17.9503355508
  0
LINE
  5
281
100
AcDbEntity
  8
RACCORDO
100
AcDbLine
 62
253
  6
CONTINUOUS
 10
4.4760984915
 20
14.9435774332
 11
10.460651561
 21
17.9119598744
  0
LINE
  5
282
100
AcDbEntity
  8
RACCORDO
100
AcDbLine
 62
7
  6
CONTINUOUS
 10
3.1743090769
 20
15.7528011176
 11
9.1243991842
 21
18.5007499084
  0
LINE
  5
283
100
AcDbEntity
  8
RACCORDO
100
AcDbLine
 62
253
  6
CONTINUOUS
 10
3.2386400853
 20
15.7354853371
 11
9.0067912159
 21
18.3994086792
  0
LWPOLYLINE
  5
284
100
AcDbEntity
  8
RACCORDO
100
AcDbPolyline
 62
7
  6
CONTINUOUS
 90
7
 70
0
 10
-9.7468642935
 20
-11.4341686742
 10
-9.7439027145
 20
-11.7041871145
 10
-9.7407789894
 20
-11.9741204498
 10
-9.73749312
 20
-12.2439685334
 10
-9.7340451083
 20
-12.5137312205
 10
-9.7304349562
 20
-12.783408364
 10
-9.7250475238
 20
-13.164995058
  0
LINE
  5
285
100
AcDbEntity
  8
RACCORDO
100
AcDbLine
 62
7
  6
CONTINUOUS
 10
-9.7507806708
 20
-11.0516630892
 11
-9.7468642935
 21
-11.4341686742
  0
LINE
  5
286
100
AcDbEntity
  8
0
100
AcDbLine
 62
253
  6
CONTINUOUS
 10
-10.9567038138
 20
19.24470978
 11
-10.9567012277
 21
19.6777567599
  0
LINE
  5
287
100
AcDbEntity
  8
0
100
AcDbLine
 62
7
  6
CONTINUOUS
 10
-9.8781691666
 20
20.993688349
 11
-9.8781691666
 21
21.2534959701
  0
LWPOLYLINE
  5
288
100
AcDbEntity
  8
RACCORDO
100
AcDbPolyline
 62
7
  6
CONTINUOUS
 90
7
 70
0
 10
-9.1647577342
 20
-0.7043733071
 10
-9.1683674749
 20
-0.9777180228
 10
-9.1718150815
 20
-1.2509835035
 10
-9.1751005518
 20
-1.5241696001
 10
-9.1782238835
 20
-1.7972761655
 10
-9.1811850746
 20
-2.070303051
 10
-9.1850808765
 20
-2.4547246744
  0
LINE
  5
289
100
AcDbEntity
  8
RACCORDO
100
AcDbLine
 62
7
  6
CONTINUOUS
 10
-9.1593947912
 20
-0.3189806984
 11
-9.1647577342
 21
-0.7043733071
  0
LINE
  5
28A
100
AcDbEntity
  8
RACCORDO
100
AcDbLine
 62
253
  6
CONTINUOUS
 10
-5.5306820797
 20
22.0376740294
 11
-5.6180852846
 21
21.6645167855
  0
LINE
  5
28B
100
AcDbEntity
  8
RACCORDO
100
AcDbLine
 62
253
  6
CONTINUOUS
 10
-5.2547610211
 20
21.980689889
 11
-5.3421642259
 21
21.6075326452
  0
LINE
  5
28C
100
AcDbEntity
  8
0
100
AcDbLine
 62
7
  6
CONTINUOUS
 10
-1.5654865905
 20
16.8373470609
 11
-1.603092782
 21
16.7739212851
  0
LINE
  5
28D
100
AcDbEntity
  8
0
100
AcDbLine
 62
7
  6
CONTINUOUS
 10
8.0544498568
 20
20.239185698
 11
8.0215193792
 21
20.2087738498
  0
LINE
  5
28E
100
AcDbEntity
  8
RACCORDO
100
AcDbLine
 62
253
  6
CONTINUOUS
 10
-0.9197982863
 20
11.27639628
 11
2.3598737138
 21
12.9288775013
  0
LINE
  5
28F
100
AcDbEntity
  8
RACCORDO
100
AcDbLine
 62
253
  6
CONTINUOUS
 10
-0.7430485149
 20
10.9715480183
 11
2.9994217952
 21
12.8572127764
  0
LWPOLYLINE
  5
290
100
AcDbEntity
  8
RACCORDO
100
AcDbPolyline
 62
7
  6
CONTINUOUS
 90
136
 70
0
 10
-13.2452786347
 20
5.2637249551
 10
-13.2417918124
 20
5.2654111349
 10
-13.2113883371
 20
5.2792783572
 10
-13.1805775741
 20
5.2918610078
 10
-13.1493824341
 20
5.3031715074
 10
-13.1178119541
 20
5.3132279957
 10
-13.0858606608
 20
5.322050801
 10
-13.0535410939
 20
5.3296523817
 10
-13.0208735421
 20
5.336043993
 10
-12.9878645481
 20
5.3412388765
 10
-12.9545290847
 20
5.345248126
 10
-12.920890147
 20
5.3480824579
 10
-12.8869683835
 20
5.3497529905
 10
-12.8527851754
 20
5.3502718403
 10
-12.8183632876
 20
5.3496516785
 10
-12.7837275318
 20
5.3479055909
 10
-12.7489229347
 20
5.3450501192
 10
-12.7139532544
 20
5.3410995742
 10
-12.6787806612
 20
5.3360597038
 10
-12.6434328947
 20
5.3299425339
 10
-12.60792936
 20
5.3227592692
 10
-12.5722164765
 20
5.3145034686
 10
-12.5363019725
 20
5.3051780437
 10
-12.5002230165
 20
5.2947936263
 10
-12.4639677291
 20
5.2833471616
 10
-12.4275556362
 20
5.2708442728
 10
-12.3910120383
 20
5.2572929743
 10
-12.3543323371
 20
5.2426901423
 10
-12.3175370245
 20
5.2270419673
 10
-12.280650085
 20
5.2103565531
 10
-12.2436710066
 20
5.1926309608
 10
-12.2066195573
 20
5.1738715539
 10
-12.1695199993
 20
5.1540873724
 10
-12.1323776141
 20
5.1332776111
 10
-12.0952138881
 20
5.1114505908
 10
-12.0580509058
 20
5.0886154267
 10
-12.0208940773
 20
5.064771096
 10
-11.9837622532
 20
5.0399251523
 10
-11.9466797058
 20
5.0140891479
 10
-11.9096593385
 20
4.9872672467
 10
-11.8727205061
 20
4.9594687832
 10
-11.8358864607
 20
4.9307064178
 10
-11.7991753294
 20
4.9009894754
 10
-11.7626079081
 20
4.8703303992
 10
-11.7262052576
 20
4.8387423096
 10
-11.6899852733
 20
4.8062360841
 10
-11.6539674177
 20
4.7728249405
 10
-11.618173215
 20
4.7385244523
 10
-11.5826229992
 20
4.7033497236
 10
-11.5473363901
 20
4.667316353
 10
-11.5123336013
 20
4.6304410331
 10
-11.4776351375
 20
4.5927413934
 10
-11.4432603378
 20
4.5542351039
 10
-11.4092283236
 20
4.5149401204
 10
-11.3755585415
 20
4.4748753374
 10
-11.3422693701
 20
4.4340596736
 10
-11.3093793795
 20
4.3925128399
 10
-11.2769075691
 20
4.3502556803
 10
-11.2448714955
 20
4.3073085247
 10
-11.2132888475
 20
4.2636924798
 10
-11.1821780569
 20
4.2194302859
 10
-11.151555926
 20
4.1745438193
 10
-11.1214389954
 20
4.12905523
 10
-11.0918445234
 20
4.0829883338
 10
-11.0627882367
 20
4.0363660501
 10
-11.0342857126
 20
3.9892117727
 10
-11.0063532026
 20
3.9415506175
 10
-10.9790052585
 20
3.8934063596
 10
-10.952256433
 20
3.844803557
 10
-10.9261221595
 20
3.7957690384
 10
-10.9006159341
 20
3.7463277099
 10
-10.8757509536
 20
3.6965047729
 10
-10.8515413486
 20
3.6463279832
 10
-10.8279993551
 20
3.595822997
 10
-10.8051368714
 20
3.545015727
 10
-10.7829666549
 20
3.4939347254
 10
-10.7614995466
 20
3.4426060933
 10
-10.7407461384
 20
3.3910564449
 10
-10.7207179174
 20
3.339315453
 10
-10.7014243455
 20
3.2874097633
 10
-10.682874505
 20
3.2353662837
 10
-10.6650783778
 20
3.1832153711
 10
-10.6480439515
 20
3.1309840208
 10
-10.6317787425
 20
3.0786992954
 10
-10.6162910707
 20
3.0263918813
 10
-10.6015875031
 20
2.9740894049
 10
-10.587673792
 20
2.9218184463
 10
-10.5745561411
 20
2.8696082918
 10
-10.5622395406
 20
2.8174865046
 10
-10.5507281736
 20
2.7654795354
 10
-10.5400262754
 20
2.7136151437
 10
-10.5301371752
 20
2.6619201228
 10
-10.5210636291
 20
2.6104212205
 10
-10.5128083147
 20
2.5591462693
 10
-10.5053730075
 20
2.5081219707
 10
-10.4987587894
 20
2.4573743968
 10
-10.4929666099
 20
2.4069305844
 10
-10.4879966652
 20
2.3568172277
 10
-10.4838483364
 20
2.3070593507
 10
-10.4805207727
 20
2.2576816931
 10
-10.4780125421
 20
2.2087096851
 10
-10.4763215057
 20
2.1601683597
 10
-10.475445246
 20
2.1120821359
 10
-10.4753807058
 20
2.0644759981
 10
-10.4761240804
 20
2.0173738662
 10
-10.4776713251
 20
1.9707988906
 10
-10.4800175562
 20
1.9247780724
 10
-10.4831573858
 20
1.8793314068
 10
-10.4870859891
 20
1.8344722428
 10
-10.4917973018
 20
1.7902251199
 10
-10.4972847314
 20
1.7466110493
 10
-10.5035432627
 20
1.7036393824
 10
-10.5105657485
 20
1.6613336269
 10
-10.5183445231
 20
1.6197144995
 10
-10.5268746524
 20
1.5787888799
 10
-10.5361471175
 20
1.5385829694
 10
-10.5461539654
 20
1.499113357
 10
-10.5568934365
 20
1.4603751315
 10
-10.5683568015
 20
1.4223912595
 10
-10.5805351237
 20
1.3851814639
 10
-10.593428608
 20
1.3487395901
 10
-10.6070272352
 20
1.3130908217
 10
-10.6213226276
 20
1.2782524709
 10
-10.6363202945
 20
1.2442111337
 10
-10.652008355
 20
1.2109960614
 10
-10.668380591
 20
1.1786211426
 10
-10.685455508
 20
1.1470568198
 10
-10.7032252141
 20
1.1163288058
 10
-10.7216827521
 20
1.0864586261
 10
-10.7408539279
 20
1.0574193765
 10
-10.7607329627
 20
1.0292383933
 10
-10.7813147951
 20
1.0019399887
 10
-10.8026327316
 20
0.9755021862
 10
-10.8246975515
 20
0.9499388332
 10
-10.8474939658
 20
0.9252938071
 10
-10.8682665206
 20
0.9042811827
  0
LINE
  5
291
100
AcDbEntity
  8
RACCORDO
100
AcDbLine
 62
7
  6
CONTINUOUS
 10
-8.275884501
 20
20.0344367529
 11
-8.173760854
 21
18.5537564172
  0
LINE
  5
292
100
AcDbEntity
  8
RACCORDO
100
AcDbLine
 62
253
  6
CONTINUOUS
 10
-3.2041513556
 20
20.9553850563
 11
-3.2245826151
 21
20.8681563042
  0
LINE
  5
293
100
AcDbEntity
  8
RACCORDO
100
AcDbLine
 62
253
  6
CONTINUOUS
 10
-3.4504191116
 20
19.8233849059
 11
-3.4671041451
 21
19.7521502057
  0
LINE
  5
294
100
AcDbEntity
  8
0
100
AcDbLine
 62
7
  6
CONTINUOUS
 10
9.5244498568
 20
20.239185698
 11
9.5573803343
 21
20.2695975462
  0
LINE
  5
295
100
AcDbEntity
  8
RACCORDO
100
AcDbLine
 62
253
  6
CONTINUOUS
 10
-0.7363149463
 20
7.836870583
 11
-3.1418875796
 21
6.1647688264
  0
LINE
  5
296
100
AcDbEntity
  8
RACCORDO
100
AcDbLine
 62
7
  6
CONTINUOUS
 10
-13.3856986557
 20
2.1015641876
 11
-12.3595089702
 21
2.6450633294
  0
LWPOLYLINE
  5
297
100
AcDbEntity
  8
RACCORDO
100
AcDbPolyline
 62
7
  6
CONTINUOUS
 90
3
 70
0
 10
-12.3595089702
 20
2.6450633294
 10
-11.3074966257
 20
3.2019820823
 10
-10.778046057
 20
3.4821693979
  0
LINE
  5
298
100
AcDbEntity
  8
RACCORDO
100
AcDbLine
 62
7
  6
CONTINUOUS
 10
-15.1107593473
 20
0.9214435473
 11
-15.3392821691
 21
0.806737808
  0
LINE
  5
299
100
AcDbEntity
  8
RACCORDO
100
AcDbLine
 62
7
  6
CONTINUOUS
 10
-13.3896155362
 20
2.0996049657
 11
-13.385698687
 21
2.101564171
  0
LINE
  5
29A
100
AcDbEntity
  8
0
100
AcDbLine
 62
7
  6
CONTINUOUS
 10
-10.651687742
 20
3.142156695
 11
-15.1107593473
 21
0.9214435473
  0
LINE
  5
29B
100
AcDbEntity
  8
RACCORDO
100
AcDbLine
 62
253
  6
CONTINUOUS
 10
10.6083825653
 20
14.4346730491
 11
20.4556199829
 21
19.3189754031
  0
LINE
  5
29C
100
AcDbEntity
  8
RACCORDO
100
AcDbLine
 62
253
  6
CONTINUOUS
 10
20.8091195256
 20
18.7092788797
 11
10.5241845054
 21
13.6078752881
  0
LINE
  5
29D
100
AcDbEntity
  8
RACCORDO
100
AcDbLine
 62
7
  6
CONTINUOUS
 10
-0.5600471402
 20
8.1817493819
 11
-0.7430485149
 21
8.0933881952
  0
LINE
  5
29E
100
AcDbEntity
  8
RACCORDO
100
AcDbLine
 62
7
  6
CONTINUOUS
 10
-13.594016996
 20
2.0032600609
 11
-13.389615521
 21
2.0996049737
  0
LINE
  5
29F
100
AcDbEntity
  8
RACCORDO
100
AcDbLine
 62
7
  6
CONTINUOUS
 10
-5.4284137809
 20
25.4458837399
 11
-5.4284137809
 21
24.7888899041
  0
LINE
  5
2A0
100
AcDbEntity
  8
RACCORDO
100
AcDbLine
 62
253
  6
CONTINUOUS
 10
-1.5001734269
 20
20.022419703
 11
-1.5875766318
 21
19.6492624592
  0
LINE
  5
2A1
100
AcDbEntity
  8
RACCORDO
100
AcDbLine
 62
253
  6
CONTINUOUS
 10
-1.2242523683
 20
19.9654355626
 11
-1.3116555732
 21
19.5922783188
  0
LINE
  5
2A2
100
AcDbEntity
  8
0
100
AcDbLine
 62
253
  6
CONTINUOUS
 10
-0.4687925092
 20
17.7199946556
 11
-0.3813893043
 21
18.0931518995
  0
LINE
  5
2A3
100
AcDbEntity
  8
RACCORDO
100
AcDbLine
 62
253
  6
CONTINUOUS
 10
-0.5600471402
 20
7.5295566311
 11
-2.937526036
 21
5.8769826939
  0
LINE
  5
2A4
100
AcDbEntity
  8
RACCORDO
100
AcDbLine
 62
253
  6
CONTINUOUS
 10
-15.6934039383
 20
0.5924663523
 11
-9.1133334148
 21
-2.6975689094
  0
LINE
  5
2A5
100
AcDbEntity
  8
RACCORDO
100
AcDbLine
 62
253
  6
CONTINUOUS
 10
-15.3414245245
 20
0.8056750957
 11
-9.18326785
 21
-2.2734032415
  0
LINE
  5
2A6
100
AcDbEntity
  8
DRAFT
100
AcDbLine
 62
7
  6
CONTINUOUS
 10
-15.1107593473
 20
0.9214435473
 11
-9.1808942552
 21
-2.0434889987
  0
LINE
  5
2A7
100
AcDbEntity
  8
RACCORDO
100
AcDbLine
 62
7
  6
CONTINUOUS
 10
-9.1594193402
 20
-0.32070829
 11
-10.8050845075
 21
0.5021242937
  0
LINE
  5
2A8
100
AcDbEntity
  8
RACCORDO
100
AcDbLine
 62
7
  6
CONTINUOUS
 10
-13.812414942
 20
2.0057895109
 11
-15.4596924433
 21
2.8294282615
  0
LINE
  5
2A9
100
AcDbEntity
  8
RACCORDO
100
AcDbLine
 62
253
  6
CONTINUOUS
 10
-10.8050834523
 20
0.502123766
 11
-10.8051112248
 21
0.5021376576
  0
LINE
  5
2AA
100
AcDbEntity
  8
0
100
AcDbLine
 62
7
  6
CONTINUOUS
 10
-4.2874464452
 20
22.8031311241
 11
-4.2874464452
 21
23.0380983696
  0
LINE
  5
2AB
100
AcDbEntity
  8
0
100
AcDbLine
 62
7
  6
CONTINUOUS
 10
-2.7876085439
 20
22.4124419641
 11
-2.7876085439
 21
22.0930270745
  0
LINE
  5
2AC
100
AcDbEntity
  8
RACCORDO
100
AcDbLine
 62
7
  6
CONTINUOUS
 10
-2.3474298982
 20
14.5192955361
 11
-2.3474298982
 21
14.9549466197
  0
LINE
  5
2AD
100
AcDbEntity
  8
0
100
AcDbLine
 62
7
  6
CONTINUOUS
 10
-2.3474298955
 20
14.9549103127
 11
-2.3474298982
 21
14.954944459
  0
LINE
  5
2AE
100
AcDbEntity
  8
RACCORDO
100
AcDbLine
 62
7
  6
CONTINUOUS
 10
-2.3121266079
 20
23.5757916087
 11
-2.3121266079
 21
23.1743797852
  0
LINE
  5
2AF
100
AcDbEntity
  8
RACCORDO
100
AcDbLine
 62
7
  6
CONTINUOUS
 10
-3.0972961049
 20
16.0155240427
 11
-2.9951724579
 21
17.3940807313
  0
LINE
  5
2B0
100
AcDbEntity
  8
RACCORDO
100
AcDbLine
 62
7
  6
CONTINUOUS
 10
-2.8147534705
 20
16.1528946756
 11
-2.7212399789
 21
17.4152237551
  0
LINE
  5
2B1
100
AcDbEntity
  8
RACCORDO
100
AcDbLine
 62
253
  6
CONTINUOUS
 10
0.8263572972
 20
18.9401307299
 11
0.8059260376
 21
18.8529019778
  0
LINE
  5
2B2
100
AcDbEntity
  8
RACCORDO
100
AcDbLine
 62
253
  6
CONTINUOUS
 10
-9.0839171307
 20
-0.251746518
 11
-10.8700283569
 21
0.6413090951
  0
LINE
  5
2B3
100
AcDbEntity
  8
RACCORDO
100
AcDbLine
 62
253
  6
CONTINUOUS
 10
-13.8773587913
 20
2.1449743123
 11
-15.6634700174
 21
3.0380299253
  0
LINE
  5
2B4
100
AcDbEntity
  8
0
100
AcDbLine
 62
253
  6
CONTINUOUS
 10
-1.4497134893
 20
22.491523053
 11
-1.4497134893
 21
22.1348739028
  0
LINE
  5
2B5
100
AcDbEntity
  8
0
100
AcDbLine
 62
7
  6
CONTINUOUS
 10
-1.3928877923
 20
16.7510476619
 11
-1.3928877923
 21
17.010855283
  0
LINE
  5
2B6
100
AcDbEntity
  8
0
100
AcDbLine
 62
7
  6
CONTINUOUS
 10
-1.1629639384
 20
22.5978365802
 11
-1.1629639384
 21
22.1643516564
  0
LINE
  5
2B7
100
AcDbEntity
  8
0
100
AcDbLine
 62
7
  6
CONTINUOUS
 10
-1.1100450799
 20
16.8924690181
 11
-1.1100450799
 21
17.1522766392
  0
LINE
  5
2B8
100
AcDbEntity
  8
RACCORDO
100
AcDbLine
 62
253
  6
CONTINUOUS
 10
-1.0934898029
 20
10.9730771457
 11
-1.0934898029
 21
8.0949173226
  0
LINE
  5
2B9
100
AcDbEntity
  8
RACCORDO
100
AcDbLine
 62
253
  6
CONTINUOUS
 10
-1.0934898029
 20
-24.4676378597
 11
-1.0934898029
 21
-27.3457976828
  0
LINE
  5
2BA
100
AcDbEntity
  8
0
100
AcDbLine
 62
253
  6
CONTINUOUS
 10
-0.9157875209
 20
14.2242516336
 11
-0.9157849348
 21
14.6572986135
  0
LINE
  5
2BB
100
AcDbEntity
  8
0
100
AcDbLine
 62
253
  6
CONTINUOUS
 10
-0.8979130455
 20
17.5181502775
 11
-0.8979130455
 21
17.8645604391
  0
LINE
  5
2BC
100
AcDbEntity
  8
DRAFT
100
AcDbLine
 62
7
  6
CONTINUOUS
 10
-0.7564916893
 20
17.2078396348
 11
-0.7564916893
 21
17.5888609557
  0
LINE
  5
2BD
100
AcDbEntity
  8
RACCORDO
100
AcDbLine
 62
253
  6
CONTINUOUS
 10
-0.7430485149
 20
10.9715480183
 11
-0.7430485149
 21
8.0933881952
  0
LINE
  5
2BE
100
AcDbEntity
  8
RACCORDO
100
AcDbLine
 62
253
  6
CONTINUOUS
 10
-0.7430485149
 20
-24.4691669871
 11
-0.7430485149
 21
-27.3473268102
  0
LINE
  5
2BF
100
AcDbEntity
  8
RACCORDO
100
AcDbLine
 62
7
  6
CONTINUOUS
 10
-0.5600471402
 20
8.1817493819
 11
-0.5600471402
 21
7.5295566311
  0
LINE
  5
2C0
100
AcDbEntity
  8
RACCORDO
100
AcDbLine
 62
7
  6
CONTINUOUS
 10
-0.5600471402
 20
-23.7286130496
 11
-0.5600471402
 21
-24.3808058004
  0
LINE
  5
2C1
100
AcDbEntity
  8
0
100
AcDbLine
 62
253
  6
CONTINUOUS
 10
-0.5343449129
 20
17.6999343438
 11
-0.5343449129
 21
18.0463445054
  0
LINE
  5
2C2
100
AcDbEntity
  8
RACCORDO
100
AcDbLine
 62
253
  6
CONTINUOUS
 10
2.8074759019
 20
19.3764612406
 11
2.7907908684
 21
19.3052265403
  0
LWPOLYLINE
  5
2C3
100
AcDbEntity
  8
RACCORDO
100
AcDbPolyline
 62
7
  6
CONTINUOUS
 90
81
 70
0
 10
1.3652285785
 20
-26.5636384655
 10
1.3653941286
 20
-26.5754890773
 10
1.3661711987
 20
-26.5918497827
 10
1.3675871098
 20
-26.6082161339
 10
1.3696453647
 20
-26.6245785029
 10
1.3723537814
 20
-26.6409477628
 10
1.3757170744
 20
-26.6573050059
 10
1.3797386345
 20
-26.6736293532
 10
1.3844297592
 20
-26.6899290394
 10
1.3897967697
 20
-26.7061874412
 10
1.3958429485
 20
-26.7223821544
 10
1.4025801778
 20
-26.7385137647
 10
1.410014349
 20
-26.7545648314
 10
1.4181498816
 20
-26.7705162028
 10
1.4270009066
 20
-26.7863678361
 10
1.4365761912
 20
-26.802106957
 10
1.4468797492
 20
-26.8177132081
 10
1.4579228232
 20
-26.8331780141
 10
1.4697131151
 20
-26.8484876023
 10
1.4822577866
 20
-26.8636274936
 10
1.4955712701
 20
-26.8785912472
 10
1.5096617515
 20
-26.8933649556
 10
1.524540627
 20
-26.9079379512
 10
1.5402326847
 20
-26.9223104741
 10
1.5567685382
 20
-26.9364846109
 10
1.5741459847
 20
-26.9504328249
 10
1.5923409177
 20
-26.9641141397
 10
1.6114170641
 20
-26.9775544206
 10
1.6313365448
 20
-26.9907046189
 10
1.6518999586
 20
-27.0034266706
 10
1.6730891259
 20
-27.0157157657
 10
1.6949079499
 20
-27.0275788412
 10
1.7171526099
 20
-27.0389180516
 10
1.7397385118
 20
-27.0497144282
 10
1.7627055307
 20
-27.0600087935
 10
1.7860151575
 20
-27.0698023244
 10
1.8096328755
 20
-27.0790984168
 10
1.8335507303
 20
-27.0879104344
 10
1.8577649325
 20
-27.096251383
 10
1.882256141
 20
-27.1041269092
 10
1.9070043217
 20
-27.1115422617
 10
1.932002525
 20
-27.1185056641
 10
1.9572317457
 20
-27.1250208012
 10
1.9826726844
 20
-27.1310913121
 10
2.0083161008
 20
-27.1367223523
 10
2.0341440644
 20
-27.141916653
 10
2.0601366756
 20
-27.146676412
 10
2.0862798192
 20
-27.1510043869
 10
2.1125537493
 20
-27.1549024525
 10
2.1389405184
 20
-27.1583724373
 10
2.1654269659
 20
-27.1614165532
 10
2.1919907509
 20
-27.1640359767
 10
2.2186168631
 20
-27.1662323081
 10
2.2453021255
 20
-27.1680078374
 10
2.2720273384
 20
-27.1693631232
 10
2.2987749214
 20
-27.1702986275
 10
2.3255438013
 20
-27.1708152662
 10
2.3523155132
 20
-27.1709126767
 10
2.3790719518
 20
-27.1705905814
 10
2.4058126161
 20
-27.1698482094
 10
2.4325198577
 20
-27.1686842463
 10
2.4591745879
 20
-27.1670977114
 10
2.485774353
 20
-27.1650861342
 10
2.5123036962
 20
-27.1626471513
 10
2.5387408395
 20
-27.1597791798
 10
2.5650744386
 20
-27.1564790784
 10
2.5912866156
 20
-27.1527442702
 10
2.6173576869
 20
-27.1485723842
 10
2.6432750253
 20
-27.1439593834
 10
2.6690205259
 20
-27.1389020988
 10
2.6945743976
 20
-27.1333972497
 10
2.7199240295
 20
-27.1274396151
 10
2.7450507749
 20
-27.1210250252
 10
2.7699350905
 20
-27.1141488419
 10
2.7945663919
 20
-27.1068036552
 10
2.8189247751
 20
-27.098983822
 10
2.8429908744
 20
-27.090682781
 10
2.8667589361
 20
-27.0818884591
 10
2.8902146962
 20
-27.0725897422
 10
2.9133311636
 20
-27.0627799321
 10
2.9305824798
 20
-27.0550124111
  0
LINE
  5
2C4
100
AcDbEntity
  8
RACCORDO
100
AcDbLine
 62
7
  6
CONTINUOUS
 10
1.3652285242
 20
-26.5636876624
 11
1.3652285242
 21
-26.4789066612
  0
LINE
  5
2C5
100
AcDbEntity
  8
RACCORDO
100
AcDbLine
 62
7
  6
CONTINUOUS
 10
1.3652285242
 20
13.4104781554
 11
1.3652285242
 21
14.4956443271
  0
LINE
  5
2C6
100
AcDbEntity
  8
RACCORDO
100
AcDbLine
 62
7
  6
CONTINUOUS
 10
1.3652285242
 20
14.4956409656
 11
1.3652285271
 21
14.4956028434
  0
LINE
  5
2C7
100
AcDbEntity
  8
0
100
AcDbLine
 62
7
  6
CONTINUOUS
 10
2.830260084
 20
19.6035076501
 11
2.830260084
 21
19.2840927606
  0
LINE
  5
2C8
100
AcDbEntity
  8
RACCORDO
100
AcDbLine
 62
253
  6
CONTINUOUS
 10
2.9994217952
 20
14.1562508821
 11
2.9994217952
 21
12.8572127764
  0
LINE
  5
2C9
100
AcDbEntity
  8
RACCORDO
100
AcDbLine
 62
253
  6
CONTINUOUS
 10
2.9994217952
 20
-25.6189299997
 11
2.9994217952
 21
-26.9179681054
  0
LINE
  5
2CA
100
AcDbEntity
  8
RACCORDO
100
AcDbLine
 62
7
  6
CONTINUOUS
 10
4.4760984915
 20
-26.2792845469
 11
4.4760984915
 21
14.9435774332
  0
LINE
  5
2CB
100
AcDbEntity
  8
RACCORDO
100
AcDbLine
 62
7
  6
CONTINUOUS
 10
-14.5450739224
 20
-10.3599217932
 11
-14.7458100282
 21
-10.4606801475
  0
LINE
  5
2CC
100
AcDbEntity
  8
DRAFT
100
AcDbLine
 62
7
  6
CONTINUOUS
 10
-12.8375178703
 20
-9.509522313
 11
-14.5450739224
 21
-10.3599217932
  0
LINE
  5
2CD
100
AcDbEntity
  8
RACCORDO
100
AcDbLine
 62
253
  6
CONTINUOUS
 10
-20.6463919852
 20
13.5145461847
 11
-3.7332984734
 21
5.0579994288
  0
LINE
  5
2CE
100
AcDbEntity
  8
RACCORDO
100
AcDbLine
 62
253
  6
CONTINUOUS
 10
-20.0702656697
 20
14.6289578714
 11
-3.1418875796
 21
6.1647688264
  0
LINE
  5
2CF
100
AcDbEntity
  8
0
100
AcDbLine
 62
7
  6
CONTINUOUS
 10
5.7534698477
 20
17.5845945464
 11
5.7534698477
 21
18.0176402232
  0
LINE
  5
2D0
100
AcDbEntity
  8
DRAFT
100
AcDbLine
 62
253
  6
CONTINUOUS
 10
6.4913528179
 20
21.241895509
 11
6.4913528179
 21
21.6408986095
  0
LINE
  5
2D1
100
AcDbEntity
  8
RACCORDO
100
AcDbLine
 62
253
  6
CONTINUOUS
 10
7.16310426
 20
21.0517056615
 11
7.16310426
 21
21.5705914253
  0
LINE
  5
2D2
100
AcDbEntity
  8
RACCORDO
100
AcDbLine
 62
7
  6
CONTINUOUS
 10
-10.6132803627
 20
-12.3766111285
 11
-10.8103034811
 21
-12.4809797993
  0
LINE
  5
2D3
100
AcDbEntity
  8
RACCORDO
100
AcDbLine
 62
7
  6
CONTINUOUS
 10
-10.6093635169
 20
-12.3746519239
 11
-10.6132803948
 21
-12.3766111436
  0
LINE
  5
2D4
100
AcDbEntity
  8
RACCORDO
100
AcDbLine
 62
7
  6
CONTINUOUS
 10
-9.7408819401
 20
-11.9652240743
 11
-10.6093635012
 21
-12.3746519165
  0
LINE
  5
2D5
100
AcDbEntity
  8
RACCORDO
100
AcDbLine
 62
7
  6
CONTINUOUS
 10
-0.7363149463
 20
7.836870583
 11
-17.7472311807
 21
16.3423287002
  0
LINE
  5
2D6
100
AcDbEntity
  8
RACCORDO
100
AcDbLine
 62
7
  6
CONTINUOUS
 10
-1.0934898029
 20
8.0949173226
 11
-18.0971631053
 21
16.5967539738
  0
LINE
  5
2D7
100
AcDbEntity
  8
DRAFT
100
AcDbLine
 62
7
  6
CONTINUOUS
 10
7.5709512097
 20
21.7701557559
 11
7.5709512097
 21
21.7476851035
  0
LINE
  5
2D8
100
AcDbEntity
  8
0
100
AcDbLine
 62
7
  6
CONTINUOUS
 10
8.0215193792
 20
20.2087738498
 11
8.0215193792
 21
19.8986546815
  0
LINE
  5
2D9
100
AcDbEntity
  8
0
100
AcDbLine
 62
7
  6
CONTINUOUS
 10
8.0544498568
 20
20.239185698
 11
8.0544498568
 21
19.8968660588
  0
LINE
  5
2DA
100
AcDbEntity
  8
0
100
AcDbLine
 62
7
  6
CONTINUOUS
 10
8.2660529976
 20
20.748371501
 11
8.2660529976
 21
19.8867161515
  0
LINE
  5
2DB
100
AcDbEntity
  8
0
100
AcDbLine
 62
7
  6
CONTINUOUS
 10
8.7894498568
 20
20.606685698
 11
8.7894498568
 21
19.8896635679
  0
LINE
  5
2DC
100
AcDbEntity
  8
0
100
AcDbLine
 62
7
  6
CONTINUOUS
 10
8.8502735531
 20
20.6231509367
 11
8.8502735531
 21
19.8931979024
  0
LINE
  5
2DD
100
AcDbEntity
  8
0
100
AcDbLine
 62
7
  6
CONTINUOUS
 10
9.5244498568
 20
20.239185698
 11
9.5244498568
 21
19.9653575628
  0
LINE
  5
2DE
100
AcDbEntity
  8
RACCORDO
100
AcDbLine
 62
253
  6
CONTINUOUS
 10
-18.0971631053
 20
19.4749137969
 11
-1.0934898029
 21
10.9730771457
  0
LINE
  5
2DF
100
AcDbEntity
  8
RACCORDO
100
AcDbLine
 62
253
  6
CONTINUOUS
 10
10.5241845054
 20
17.8751433211
 11
10.5241845054
 21
13.6078752881
  0
LINE
  5
2E0
100
AcDbEntity
  8
RACCORDO
100
AcDbLine
 62
253
  6
CONTINUOUS
 10
10.5241845054
 20
-18.6806059941
 11
10.5241845054
 21
-22.947874027
  0
LINE
  5
2E1
100
AcDbEntity
  8
RACCORDO
100
AcDbLine
 62
7
  6
CONTINUOUS
 10
10.6083825653
 20
17.7162022582
 11
10.6083825653
 21
13.9474327546
  0
LINE
  5
2E2
100
AcDbEntity
  8
RACCORDO
100
AcDbLine
 62
7
  6
CONTINUOUS
 10
10.6083825653
 20
-18.8117659494
 11
10.6083825653
 21
-22.5805354529
  0
LINE
  5
2E3
100
AcDbEntity
  8
0
100
AcDbLine
 62
7
  6
CONTINUOUS
 10
10.733993505
 20
23.3292062511
 11
10.733993505
 21
23.762218953
  0
LINE
  5
2E4
100
AcDbEntity
  8
RACCORDO
100
AcDbLine
 62
253
  6
CONTINUOUS
 10
-17.9234715888
 20
19.7782329312
 11
-0.9197982863
 21
11.27639628
  0
LINE
  5
2E5
100
AcDbEntity
  8
0
100
AcDbLine
 62
7
  6
CONTINUOUS
 10
-8.6053769604
 20
18.7695644704
 11
-3.0899440672
 21
16.0118480238
  0
LINE
  5
2E6
100
AcDbEntity
  8
DRAFT
100
AcDbLine
 62
253
  6
CONTINUOUS
 10
6.4913528179
 20
21.6408986095
 11
6.0914954613
 21
22.6890528329
  0
LINE
  5
2E7
100
AcDbEntity
  8
0
100
AcDbLine
 62
7
  6
CONTINUOUS
 10
7.7605834154
 20
20.5061315452
 11
7.5590840575
 21
21.101855971
  0
LINE
  5
2E8
100
AcDbEntity
  8
RACCORDO
100
AcDbLine
 62
7
  6
CONTINUOUS
 10
-1.3928877923
 20
16.7510476619
 11
-2.8542892526
 21
17.481748392
  0
LINE
  5
2E9
100
AcDbEntity
  8
RACCORDO
100
AcDbLine
 62
7
  6
CONTINUOUS
 10
-8.4167677063
 20
20.2629876188
 11
-9.8781691666
 21
20.993688349
  0
LINE
  5
2EA
100
AcDbEntity
  8
0
100
AcDbLine
 62
253
  6
CONTINUOUS
 10
-1.3928877923
 20
17.010855283
 11
-9.8781691666
 21
21.2534959701
  0
LINE
  5
2EB
100
AcDbEntity
  8
RACCORDO
100
AcDbLine
 62
7
  6
CONTINUOUS
 10
4.3346986744
 20
15.1874560425
 11
3.2386347005
 21
15.7354880295
  0
LINE
  5
2EC
100
AcDbEntity
  8
RACCORDO
100
AcDbLine
 62
7
  6
CONTINUOUS
 10
-11.8226858909
 20
23.2661483252
 11
-12.9187498648
 21
23.8141803122
  0
LINE
  5
2ED
100
AcDbEntity
  8
0
100
AcDbLine
 62
253
  6
CONTINUOUS
 10
-0.8979130455
 20
17.8645604391
 11
-9.3831944197
 21
22.1072011262
  0
LINE
  5
2EE
100
AcDbEntity
  8
0
100
AcDbLine
 62
253
  6
CONTINUOUS
 10
-0.5343449129
 20
18.0463445054
 11
-9.0196262871
 21
22.2889851925
  0
LINE
  5
2EF
100
AcDbEntity
  8
0
100
AcDbLine
 62
253
  6
CONTINUOUS
 10
-0.3813893043
 20
18.0931518995
 11
-8.8666706786
 21
22.3357925866
  0
LINE
  5
2F0
100
AcDbEntity
  8
RACCORDO
100
AcDbLine
 62
7
  6
CONTINUOUS
 10
-1.3928877923
 20
18.7136428574
 11
-3.4434974578
 21
19.7389476901
  0
LINE
  5
2F1
100
AcDbEntity
  8
RACCORDO
100
AcDbLine
 62
7
  6
CONTINUOUS
 10
-5.4233964451
 20
20.7288971837
 11
-7.4740061105
 21
21.7542020165
  0
LINE
  5
2F2
100
AcDbEntity
  8
0
100
AcDbLine
 62
7
  6
CONTINUOUS
 10
8.8502735531
 20
20.6231509367
 11
8.7894498568
 21
20.606685698
  0
LINE
  5
2F3
100
AcDbEntity
  8
0
100
AcDbLine
 62
7
  6
CONTINUOUS
 10
-0.4687925092
 20
17.7199946556
 11
2.9133453353
 21
18.0651630233
  0
LINE
  5
2F4
100
AcDbEntity
  8
0
100
AcDbLine
 62
7
  6
CONTINUOUS
 10
-0.3813893043
 20
18.0931518995
 11
3.7459509283
 21
18.5143728421
  0
LINE
  5
2F5
100
AcDbEntity
  8
RACCORDO
100
AcDbLine
 62
7
  6
CONTINUOUS
 10
0.833278951
 20
18.8556935141
 11
-1.1169667337
 21
18.656658717
  0
LINE
  5
2F6
100
AcDbEntity
  8
RACCORDO
100
AcDbLine
 62
7
  6
CONTINUOUS
 10
-5.3421642259
 20
21.6075326452
 11
-3.7551218374
 21
20.8140114509
  0
LINE
  5
2F7
100
AcDbEntity
  8
RACCORDO
100
AcDbLine
 62
7
  6
CONTINUOUS
 10
-1.3116555732
 20
19.5922783188
 11
0.2753868153
 21
18.7987571245
  0
LINE
  5
2F8
100
AcDbEntity
  8
RACCORDO
100
AcDbLine
 62
7
  6
CONTINUOUS
 10
-5.2547610211
 20
21.980689889
 11
-3.2041513556
 21
20.9553850563
  0
LINE
  5
2F9
100
AcDbEntity
  8
RACCORDO
100
AcDbLine
 62
7
  6
CONTINUOUS
 10
-1.2242523683
 20
19.9654355626
 11
0.8263572972
 21
18.9401307299
  0
LINE
  5
2FA
100
AcDbEntity
  8
0
100
AcDbLine
 62
7
  6
CONTINUOUS
 10
6.4195432948
 20
17.2515578228
 11
5.7534698477
 21
17.5845945464
  0
LINE
  5
2FB
100
AcDbEntity
  8
0
100
AcDbLine
 62
7
  6
CONTINUOUS
 10
-6.2237969844
 20
23.5732279624
 11
-7.2572949262
 21
24.0899769333
  0
LINE
  5
2FC
100
AcDbEntity
  8
RACCORDO
100
AcDbLine
 62
7
  6
CONTINUOUS
 10
-4.2213149171
 20
22.8098802611
 11
-2.7717460156
 21
22.0850958104
  0
LINE
  5
2FD
100
AcDbEntity
  8
RACCORDO
100
AcDbLine
 62
7
  6
CONTINUOUS
 10
4.0459678724
 20
18.6762388664
 11
2.8143975557
 21
19.2920240247
  0
LINE
  5
2FE
100
AcDbEntity
  8
RACCORDO
100
AcDbLine
 62
7
  6
CONTINUOUS
 10
10.733993505
 20
23.762218953
 11
10.5774843898
 21
24.1724794808
  0
LINE
  5
2FF
100
AcDbEntity
  8
RACCORDO
100
AcDbLine
 62
253
  6
CONTINUOUS
 10
20.8091195256
 20
18.7092788797
 11
20.8091195256
 21
-13.1316475968
  0
LINE
  5
300
100
AcDbEntity
  8
RACCORDO
100
AcDbLine
 62
7
  6
CONTINUOUS
 10
20.9494496255
 20
18.8829434724
 11
20.9494496255
 21
-12.9579830042
  0
LINE
  5
301
100
AcDbEntity
  8
RACCORDO
100
AcDbLine
 62
7
  6
CONTINUOUS
 10
2.830260084
 20
19.3787865092
 11
2.8074759019
 21
19.3764612406
  0
LINE
  5
302
100
AcDbEntity
  8
RACCORDO
100
AcDbLine
 62
7
  6
CONTINUOUS
 10
-2.9799301808
 20
19.5071640516
 11
-1.5875766318
 21
19.6492624592
  0
LINE
  5
303
100
AcDbEntity
  8
RACCORDO
100
AcDbLine
 62
7
  6
CONTINUOUS
 10
-3.4504191116
 20
19.8233849059
 11
-1.5001734269
 21
20.022419703
  0
LINE
  5
304
100
AcDbEntity
  8
0
100
AcDbLine
 62
7
  6
CONTINUOUS
 10
4.1917119827
 20
19.670810317
 11
2.830260084
 21
19.6035076501
  0
LINE
  5
305
100
AcDbEntity
  8
RACCORDO
100
AcDbLine
 62
7
  6
CONTINUOUS
 10
-5.6836680151
 20
25.9844102932
 11
-5.6967383891
 21
25.9906548495
  0
LINE
  5
306
100
AcDbEntity
  8
RACCORDO
100
AcDbLine
 62
7
  6
CONTINUOUS
 10
9.2944263862
 20
18.4950724618
 11
9.3079611634
 21
18.4885956955
  0
LINE
  5
307
100
AcDbEntity
  8
0
100
AcDbLine
 62
7
  6
CONTINUOUS
 10
-4.3194625646
 20
23.1783689745
 11
-2.7876085439
 21
22.4124419641
  0
LINE
  5
308
100
AcDbEntity
  8
0
100
AcDbLine
 62
7
  6
CONTINUOUS
 10
2.830260084
 20
19.6035076501
 11
4.353238522
 21
18.8420184311
  0
LINE
  5
309
100
AcDbEntity
  8
0
100
AcDbLine
 62
7
  6
CONTINUOUS
 10
5.5767200763
 20
18.3224884849
 11
4.5068477566
 21
18.8574246447
  0
LINE
  5
30A
100
AcDbEntity
  8
0
100
AcDbLine
 62
7
  6
CONTINUOUS
 10
-4.4641962165
 20
23.3429466313
 11
-5.5340685362
 21
23.8778827912
  0
LINE
  5
30B
100
AcDbEntity
  8
0
100
AcDbLine
 62
253
  6
CONTINUOUS
 10
3.8590931179
 20
19.6543674764
 11
-1.1608752423
 21
22.1643516564
  0
LINE
  5
30C
100
AcDbEntity
  8
0
100
AcDbLine
 62
7
  6
CONTINUOUS
 10
-0.9550402173
 20
22.1297323296
 11
3.9833994513
 21
19.6605124953
  0
LINE
  5
30D
100
AcDbEntity
  8
0
100
AcDbLine
 62
253
  6
CONTINUOUS
 10
-2.6378100208
 20
23.2935474104
 11
-1.1861279283
 21
22.5677063641
  0
LINE
  5
30E
100
AcDbEntity
  8
0
100
AcDbLine
 62
253
  6
CONTINUOUS
 10
4.6786319733
 20
19.6353264133
 11
5.3613925212
 21
19.2939461394
  0
LINE
  5
30F
100
AcDbEntity
  8
0
100
AcDbLine
 62
7
  6
CONTINUOUS
 10
-2.4940518379
 20
23.2653424002
 11
-1.1643396884
 21
22.6004863255
  0
LINE
  5
310
100
AcDbEntity
  8
0
100
AcDbLine
 62
7
  6
CONTINUOUS
 10
4.9443597048
 20
19.5461366289
 11
5.4050666026
 21
19.31578318
  0
LINE
  5
311
100
AcDbEntity
  8
RACCORDO
100
AcDbLine
 62
7
  6
CONTINUOUS
 10
-4.4821099022
 20
24.6607832559
 11
-4.2344378668
 21
24.5369472382
  0
LINE
  5
312
100
AcDbEntity
  8
RACCORDO
100
AcDbLine
 62
7
  6
CONTINUOUS
 10
7.728789685
 20
18.5553334623
 11
8.4556540872
 21
18.1919012611
  0
LINE
  5
313
100
AcDbEntity
  8
RACCORDO
100
AcDbLine
 62
253
  6
CONTINUOUS
 10
7.1984595991
 20
18.9396874722
 11
5.925667393
 21
19.5760835752
  0
LINE
  5
314
100
AcDbEntity
  8
RACCORDO
100
AcDbLine
 62
253
  6
CONTINUOUS
 10
-2.8424566938
 20
23.9601456186
 11
-4.1152488999
 21
24.5965417217
  0
LINE
  5
315
100
AcDbEntity
  8
RACCORDO
100
AcDbLine
 62
7
  6
CONTINUOUS
 10
7.5338697957
 20
18.9609888126
 11
6.2610775896
 21
19.5973849156
  0
LINE
  5
316
100
AcDbEntity
  8
RACCORDO
100
AcDbLine
 62
7
  6
CONTINUOUS
 10
-2.5070464971
 20
23.981446959
 11
-3.7798387033
 21
24.6178430621
  0
LINE
  5
317
100
AcDbEntity
  8
RACCORDO
100
AcDbLine
 62
253
  6
CONTINUOUS
 10
-7.1505987342
 20
26.4781036542
 11
-6.2524524774
 21
26.0290305259
  0
LINE
  5
318
100
AcDbEntity
  8
RACCORDO
100
AcDbLine
 62
253
  6
CONTINUOUS
 10
9.0067912159
 20
18.3994086792
 11
9.9049374727
 21
17.9503355508
  0
LINE
  5
319
100
AcDbEntity
  8
RACCORDO
100
AcDbLine
 62
7
  6
CONTINUOUS
 10
-6.8495384302
 20
26.5673732722
 11
-5.6837550099
 21
25.984481562
  0
LINE
  5
31A
100
AcDbEntity
  8
RACCORDO
100
AcDbLine
 62
7
  6
CONTINUOUS
 10
9.3078395095
 20
18.4886843023
 11
10.4736229298
 21
17.9057925921
  0
LINE
  5
31B
100
AcDbEntity
  8
0
100
AcDbLine
 62
7
  6
CONTINUOUS
 10
7.7710782508
 20
20.5008841275
 11
8.0544498568
 21
20.239185698
  0
LINE
  5
31C
100
AcDbEntity
  8
RACCORDO
100
AcDbLine
 62
253
  6
CONTINUOUS
 10
10.5241845054
 20
-18.6806059941
 11
20.8091195256
 21
-13.1316475968
  0
LINE
  5
31D
100
AcDbEntity
  8
RACCORDO
100
AcDbLine
 62
7
  6
CONTINUOUS
 10
10.6183399369
 20
-18.8302218312
 11
20.6868615357
 21
-13.3980234397
  0
LINE
  5
31E
100
AcDbEntity
  8
RACCORDO
100
AcDbLine
 62
7
  6
CONTINUOUS
 10
-0.7430485149
 20
-24.4691669871
 11
-0.5600471402
 21
-24.3808058004
  0
LINE
  5
31F
100
AcDbEntity
  8
RACCORDO
100
AcDbLine
 62
7
  6
CONTINUOUS
 10
-3.1972297018
 20
20.8709478405
 11
-5.1474753865
 21
20.6719130434
  0
LINE
  5
320
100
AcDbEntity
  8
RACCORDO
100
AcDbLine
 62
7
  6
CONTINUOUS
 10
-7.0104388336
 20
21.522418378
 11
-5.6180852846
 21
21.6645167855
  0
LINE
  5
321
100
AcDbEntity
  8
RACCORDO
100
AcDbLine
 62
7
  6
CONTINUOUS
 10
-1.1608752423
 20
22.1643516564
 11
-2.495824957
 21
22.02811167
  0
LINE
  5
322
100
AcDbEntity
  8
RACCORDO
100
AcDbLine
 62
7
  6
CONTINUOUS
 10
-7.4809277644
 20
21.8386392323
 11
-5.5306820797
 21
22.0376740294
  0
LINE
  5
323
100
AcDbEntity
  8
0
100
AcDbLine
 62
7
  6
CONTINUOUS
 10
-8.8666706786
 20
22.3357925866
 11
-4.2213149171
 21
22.8098802611
  0
LINE
  5
324
100
AcDbEntity
  8
0
100
AcDbLine
 62
7
  6
CONTINUOUS
 10
-1.4497134893
 20
22.491523053
 11
-2.7876085439
 21
22.4124419641
  0
LINE
  5
325
100
AcDbEntity
  8
0
100
AcDbLine
 62
7
  6
CONTINUOUS
 10
8.7894498568
 20
20.606685698
 11
8.2660529976
 21
20.748371501
  0
LINE
  5
326
100
AcDbEntity
  8
0
100
AcDbLine
 62
7
  6
CONTINUOUS
 10
7.7710782508
 20
20.5008841275
 11
7.0641093107
 21
20.8543685976
  0
LINE
  5
327
100
AcDbEntity
  8
0
100
AcDbLine
 62
7
  6
CONTINUOUS
 10
8.2660529976
 20
20.748371501
 11
7.5590840575
 21
21.101855971
  0
LINE
  5
328
100
AcDbEntity
  8
0
100
AcDbLine
 62
7
  6
CONTINUOUS
 10
9.7706963886
 20
20.0117728968
 11
9.5244498568
 21
20.239185698
  0
LINE
  5
329
100
AcDbEntity
  8
RACCORDO
100
AcDbLine
 62
253
  6
CONTINUOUS
 10
4.4760984915
 20
-26.2792845469
 11
10.460651561
 21
-23.0504808701
  0
LINE
  5
32A
100
AcDbEntity
  8
RACCORDO
100
AcDbLine
 62
7
  6
CONTINUOUS
 10
4.4263081266
 20
-26.386313532
 11
10.2049082651
 21
-23.2686261864
  0
LINE
  5
32B
100
AcDbEntity
  8
RACCORDO
100
AcDbLine
 62
253
  6
CONTINUOUS
 10
2.9994217952
 20
-25.6189299997
 11
-0.7430485149
 21
-27.3473268102
  0
LINE
  5
32C
100
AcDbEntity
  8
RACCORDO
100
AcDbLine
 62
7
  6
CONTINUOUS
 10
2.6321061058
 20
-25.8938206112
 11
-0.81189343
 21
-27.4843737271
  0
LINE
  5
32D
100
AcDbEntity
  8
0
100
AcDbLine
 62
7
  6
CONTINUOUS
 10
-2.6378100208
 20
23.2935474104
 11
-4.3307751641
 21
23.2017390581
  0
LINE
  5
32E
100
AcDbEntity
  8
RACCORDO
100
AcDbLine
 62
253
  6
CONTINUOUS
 10
2.9994217952
 20
-26.9179681054
 11
4.4760984915
 21
-26.2359898717
  0
LINE
  5
32F
100
AcDbEntity
  8
RACCORDO
100
AcDbLine
 62
7
  6
CONTINUOUS
 10
2.9305768801
 20
-27.0550150223
 11
4.4085196878
 21
-26.3724520564
  0
LINE
  5
330
100
AcDbEntity
  8
0
100
AcDbLine
 62
7
  6
CONTINUOUS
 10
10.733993505
 20
23.3292062511
 11
13.7758957293
 21
21.808255139
  0
LINE
  5
331
100
AcDbEntity
  8
RACCORDO
100
AcDbLine
 62
253
  6
CONTINUOUS
 10
12.9967352048
 20
22.3749729029
 11
13.9550786678
 21
21.8958011714
  0
LINE
  5
332
100
AcDbEntity
  8
RACCORDO
100
AcDbLine
 62
7
  6
CONTINUOUS
 10
13.1308992835
 20
22.383493439
 11
14.0315542391
 21
21.9331659612
  0
LINE
  5
333
100
AcDbEntity
  8
RACCORDO
100
AcDbLine
 62
253
  6
CONTINUOUS
 10
4.2066882574
 20
27.4434412658
 11
10.0260083005
 21
24.5337812443
  0
LINE
  5
334
100
AcDbEntity
  8
RACCORDO
100
AcDbLine
 62
253
  6
CONTINUOUS
 10
14.6362999398
 20
22.2286354246
 11
20.4556199829
 21
19.3189754031
  0
LINE
  5
335
100
AcDbEntity
  8
RACCORDO
100
AcDbLine
 62
7
  6
CONTINUOUS
 10
4.4241246977
 20
27.4546229306
 11
10.2434447408
 21
24.5449629091
  0
LINE
  5
336
100
AcDbEntity
  8
RACCORDO
100
AcDbLine
 62
7
  6
CONTINUOUS
 10
14.8072048352
 20
22.2630828619
 11
20.6730564232
 21
19.3301570679
  0
ARC
  5
337
100
AcDbEntity
  8
RACCORDO
100
AcDbCircle
 62
253
  6
CONTINUOUS
 10
453.7000599576
 20
-7.040809082
 40
462.8337723423
100
AcDbArc
 50
179.159528527
 51
179.4623275167
  0
ARC
  5
338
100
AcDbEntity
  8
RACCORDO
100
AcDbCircle
 62
253
  6
CONTINUOUS
 10
437.8133196197
 20
-1.0044279526
 40
458.6895549005
100
AcDbArc
 50
178.1861045074
 51
181.8138954926
  0
ARC
  5
339
100
AcDbEntity
  8
RACCORDO
100
AcDbCircle
 62
253
  6
CONTINUOUS
 10
439.5773679041
 20
-3.7571245277
 40
455.2915490488
100
AcDbArc
 50
179.144837791
 51
179.4526210917
  0
ARC
  5
33A
100
AcDbEntity
  8
RACCORDO
100
AcDbCircle
 62
253
  6
CONTINUOUS
 10
439.5440198277
 20
-3.7567320521
 40
454.9061921898
100
AcDbArc
 50
179.179520886
 51
179.4252178734
  0
ARC
  5
33B
100
AcDbEntity
  8
RACCORDO
100
AcDbCircle
 62
253
  6
CONTINUOUS
 10
436.3394338078
 20
-6.7658738987
 40
446.0384412727
100
AcDbArc
 50
180.5424310916
 51
180.8527869493
  0
ARC
  5
33C
100
AcDbEntity
  8
RACCORDO
100
AcDbCircle
 62
253
  6
CONTINUOUS
 10
438.9991774189
 20
-9.4609747085
 40
442.9704796257
100
AcDbArc
 50
178.1217146571
 51
181.8782853429
  0
ARC
  5
33D
100
AcDbEntity
  8
RACCORDO
100
AcDbCircle
 62
253
  6
CONTINUOUS
 10
439.0845832249
 20
-9.4625726324
 40
442.7054441348
100
AcDbArc
 50
178.121695708
 51
181.878304292
  0
ARC
  5
33E
100
AcDbEntity
  8
RACCORDO
100
AcDbCircle
 62
253
  6
CONTINUOUS
 10
423.9237125281
 20
-4.03300121
 40
439.0718188889
100
AcDbArc
 50
180.5521501718
 51
180.8674649675
  0
ARC
  5
33F
100
AcDbEntity
  8
RACCORDO
100
AcDbCircle
 62
253
  6
CONTINUOUS
 10
423.8936792692
 20
-4.0355326804
 40
438.6897694567
100
AcDbArc
 50
180.588562296
 51
180.8394111386
  0
ARC
  5
340
100
AcDbEntity
  8
RACCORDO
100
AcDbCircle
 62
253
  6
CONTINUOUS
 10
9.185686559
 20
16.1569840657
 40
5.1371300347
100
AcDbArc
 50
81.4061726964
 51
82.3566746421
  0
ARC
  5
341
100
AcDbEntity
  8
RACCORDO
100
AcDbCircle
 62
253
  6
CONTINUOUS
 10
9.2095665793
 20
16.3123697211
 40
4.9799206262
100
AcDbArc
 50
79.7008453796
 51
81.410692138
  0
ARC
  5
342
100
AcDbEntity
  8
RACCORDO
100
AcDbCircle
 62
253
  6
CONTINUOUS
 10
9.2334197645
 20
16.4463857919
 40
4.8437992346
100
AcDbArc
 50
79.2404816381
 51
79.6950307545
  0
ARC
  5
343
100
AcDbEntity
  8
0
100
AcDbCircle
 62
7
  6
CONTINUOUS
 10
9.2131109016
 20
16.2748465314
 40
4.8006530443
100
AcDbArc
 50
71.9505017638
 51
72.1550006804
  0
ARC
  5
344
100
AcDbEntity
  8
RACCORDO
100
AcDbCircle
 62
7
  6
CONTINUOUS
 10
9.0361183035
 20
18.0198122849
 40
3.3340348525
100
AcDbArc
 50
72.2231343582
 51
73.5077828481
  0
ARC
  5
345
100
AcDbEntity
  8
RACCORDO
100
AcDbCircle
 62
7
  6
CONTINUOUS
 10
11.8813985407
 20
19.8856566655
 40
2.7929268972
100
AcDbArc
 50
63.4242633018
 51
65.8899833911
  0
ARC
  5
346
100
AcDbEntity
  8
RACCORDO
100
AcDbCircle
 62
7
  6
CONTINUOUS
 10
-11.3054895136
 20
-14.7506371102
 40
0.9501100831
100
AcDbArc
 50
287.9975378152
 51
292.2512706939
  0
ARC
  5
347
100
AcDbEntity
  8
RACCORDO
100
AcDbCircle
 62
7
  6
CONTINUOUS
 10
-12.6933114528
 20
4.4787965658
 40
0.9473064458
100
AcDbArc
 50
120.7333855441
 51
125.0464405253
  0
ARC
  5
348
100
AcDbEntity
  8
0
100
AcDbCircle
 62
7
  6
CONTINUOUS
 10
6.3788403528
 20
20.6686339312
 40
0.6928442606
100
AcDbArc
 50
180.0005910537
 51
184.8133128953
  0
ARC
  5
349
100
AcDbEntity
  8
RACCORDO
100
AcDbCircle
 62
7
  6
CONTINUOUS
 10
20.4472650405
 20
-12.9553622637
 40
0.5033442134
100
AcDbArc
 50
298.4250817263
 51
313.2349797897
  0
ARC
  5
34A
100
AcDbEntity
  8
RACCORDO
100
AcDbCircle
 62
7
  6
CONTINUOUS
 10
4.2001716048
 20
27.0068151499
 40
0.5006714842
100
AcDbArc
 50
63.3901506174
 51
72.2369936182
  0
ARC
  5
34B
100
AcDbEntity
  8
RACCORDO
100
AcDbCircle
 62
7
  6
CONTINUOUS
 10
4.2005170408
 20
27.0074232948
 40
0.4999869665
100
AcDbArc
 50
72.2534304627
 51
114.7896391664
  0
ARC
  5
34C
100
AcDbEntity
  8
RACCORDO
100
AcDbCircle
 62
7
  6
CONTINUOUS
 10
20.4497086972
 20
-12.9580216056
 40
0.4997328648
100
AcDbArc
 50
313.2397150097
 51
0.0027245394
  0
ARC
  5
34D
100
AcDbEntity
  8
RACCORDO
100
AcDbCircle
 62
7
  6
CONTINUOUS
 10
20.4498163274
 20
18.8831734793
 40
0.4995664055
100
AcDbArc
 50
0.005829989
 51
63.5080520651
  0
ARC
  5
34E
100
AcDbEntity
  8
RACCORDO
100
AcDbCircle
 62
7
  6
CONTINUOUS
 10
-15.4533040782
 20
1.0339074257
 40
0.2541791317
100
AcDbArc
 50
296.1141070628
 51
296.6531692538
  0
ARC
  5
34F
100
AcDbEntity
  8
RACCORDO
100
AcDbCircle
 62
7
  6
CONTINUOUS
 10
-10.6932806517
 20
-12.7019001936
 40
0.2500003379
100
AcDbArc
 50
117.9119851107
 51
207.3110345862
  0
ARC
  5
350
100
AcDbEntity
  8
RACCORDO
100
AcDbCircle
 62
7
  6
CONTINUOUS
 10
-13.7006117801
 20
2.2293967724
 40
0.2500003088
100
AcDbArc
 50
243.4350449433
 51
295.2404136764
  0
ARC
  5
351
100
AcDbEntity
  8
RACCORDO
100
AcDbCircle
 62
7
  6
CONTINUOUS
 10
-17.9203861822
 20
19.5633021135
 40
0.2500001355
100
AcDbArc
 50
118.3479221887
 51
179.9996298368
  0
ARC
  5
352
100
AcDbEntity
  8
RACCORDO
100
AcDbCircle
 62
7
  6
CONTINUOUS
 10
-10.6932811642
 20
0.7257310986
 40
0.249999956
100
AcDbArc
 50
134.4220632478
 51
243.4352313402
  0
ARC
  5
353
100
AcDbEntity
  8
RACCORDO
100
AcDbCircle
 62
7
  6
CONTINUOUS
 10
-17.9203864921
 20
-18.755572888
 40
0.2499997927
100
AcDbArc
 50
179.9995799018
 51
243.4352469652
  0
ARC
  5
354
100
AcDbEntity
  8
RACCORDO
100
AcDbCircle
 62
7
  6
CONTINUOUS
 10
-0.9167130705
 20
-27.257409554
 40
0.2499997858
100
AcDbArc
 50
243.4350669002
 51
294.7890711321
  0
SPLINE
  5
355
100
AcDbEntity
  8
RACCORDO
100
AcDbSpline
 62
7
  6
CONTINUOUS
 70
0
 71
3
 72
9
 73
5
 74
3
 42
0.0000001
 43
0.0000001
 44
0.0000000001
 12
-0.2369273322
 22
0.3871430786
 32
0.0
 13
-0.3588527581
 23
0.2779190927
 33
0.0
 40
0.0
 40
0.0
 40
0.0
 40
0.0
 40
0.484324845
 40
1.0
 40
1.0
 40
1.0
 40
1.0
 10
11.0915903492
 20
20.4967311767
 30
0.0
 10
11.0533404181
 20
20.5592321806
 30
0.0
 10
10.9597334325
 20
20.6795905858
 30
0.0
 10
10.8464328503
 20
20.7809011279
 30
0.0
 10
10.7847490331
 20
20.8286731183
 30
0.0
 11
11.0915903492
 21
20.4967311767
 31
0.0
 11
10.9580485026
 21
20.6713492447
 31
0.0
 11
10.7847490331
 21
20.8286731183
 31
0.0
  0
SPLINE
  5
356
100
AcDbEntity
  8
RACCORDO
100
AcDbSpline
 62
7
  6
CONTINUOUS
 70
0
 71
3
 72
20
 73
16
 74
14
 42
0.0000001
 43
0.0000001
 44
0.0000000001
 12
-3.8724787435
 22
1.1470412474
 32
0.0
 13
-0.9404246267
 23
-3.9277724939
 33
0.0
 40
0.0
 40
0.0
 40
0.0
 40
0.0
 40
0.1365634771
 40
0.2799030304
 40
0.42406346
 40
0.4945572988
 40
0.5630122136
 40
0.6288131353
 40
0.6914696141
 40
0.7506604219
 40
0.8062821699
 40
0.8584824683
 40
0.9076948429
 40
0.9546280406
 40
1.0
 40
1.0
 40
1.0
 40
1.0
 10
9.9826011194
 20
21.2166792944
 30
0.0
 10
9.8063213986
 20
21.2688939415
 30
0.0
 10
9.4361875971
 20
21.3473186927
 30
0.0
 10
8.865700732
 20
21.3919360919
 30
0.0
 10
8.3828164256
 20
21.3700626262
 30
0.0
 10
8.0053047392
 20
21.3159348244
 30
0.0
 10
7.7355180128
 20
21.2582526519
 30
0.0
 10
7.4807992215
 20
21.1838797029
 30
0.0
 10
7.2445423426
 20
21.0935565537
 30
0.0
 10
7.0297633724
 20
20.9880360384
 30
0.0
 10
6.8391314416
 20
20.8678936234
 30
0.0
 10
6.6751497862
 20
20.7334568641
 30
0.0
 10
6.5404990077
 20
20.5847575521
 30
0.0
 10
6.4389549448
 20
20.4222621543
 30
0.0
 10
6.3957334306
 20
20.3044826798
 30
0.0
 10
6.3815104612
 20
20.2450791018
 30
0.0
 11
9.9826011194
 21
21.2166792944
 31
0.0
 11
9.4436207654
 21
21.3337620086
 31
0.0
 11
8.8665495165
 21
21.379964064
 31
0.0
 11
8.2849425972
 21
21.3529665944
 31
0.0
 11
8.0031512732
 21
21.3123072781
 31
0.0
 11
7.7328613937
 21
21.2541550385
 31
0.0
 11
7.4778953098
 21
21.1791985463
 31
0.0
 11
7.2417514782
 21
21.0882397826
 31
0.0
 11
7.0275438268
 21
20.982106374
 31
0.0
 11
6.8380145653
 21
20.8615089187
 31
0.0
 11
6.6756988949
 21
20.7269683543
 31
0.0
 11
6.5432198806
 21
20.5787989938
 31
0.0
 11
6.4437836581
 21
20.4174210595
 31
0.0
 11
6.3815104612
 21
20.2450791018
 31
0.0
  0
SPLINE
  5
357
100
AcDbEntity
  8
0
100
AcDbSpline
 62
7
  6
CONTINUOUS
 70
0
 71
3
 72
9
 73
5
 74
3
 42
0.0000001
 43
0.0000001
 44
0.0000000001
 12
0.5666265155
 22
-0.1169167295
 32
0.0
 13
0.5507273443
 23
-0.177297834
 33
0.0
 40
0.0
 40
0.0
 40
0.0
 40
0.0
 40
0.2560959683
 40
1.0
 40
1.0
 40
1.0
 40
1.0
 10
10.1246328113
 20
20.9908180512
 30
0.0
 10
10.1730030667
 20
20.9808374169
 30
0.0
 10
10.3613750349
 20
20.9394900859
 30
0.0
 10
10.5476746584
 20
20.8884995974
 30
0.0
 10
10.6842374224
 20
20.8445354062
 30
0.0
 11
10.1246328113
 21
20.9908180512
 31
0.0
 11
10.2693497549
 21
20.9590271994
 31
0.0
 11
10.6842374224
 21
20.8445354062
 31
0.0
  0
SPLINE
  5
358
100
AcDbEntity
  8
0
100
AcDbSpline
 62
7
  6
CONTINUOUS
 70
0
 71
3
 72
9
 73
5
 74
3
 42
0.0000001
 43
0.0000001
 44
0.0000000001
 12
0.4816628222
 22
-0.1720621363
 32
0.0
 13
0.4552362266
 23
-0.233161813
 33
0.0
 40
0.0
 40
0.0
 40
0.0
 40
0.0
 40
0.2589657441
 40
1.0
 40
1.0
 40
1.0
 40
1.0
 10
10.8240407751
 20
20.7971006516
 30
0.0
 10
10.8656188321
 20
20.7822479185
 30
0.0
 10
11.0253133275
 20
20.7225452808
 30
0.0
 10
11.1814894514
 20
20.653202104
 30
0.0
 10
11.2939379975
 20
20.5956084738
 30
0.0
 11
10.8240407751
 21
20.7971006516
 31
0.0
 11
10.9480936863
 21
20.7506795166
 31
0.0
 11
11.2939379975
 21
20.5956084738
 31
0.0
  0
LINE
  5
359
100
AcDbEntity
  8
RACCORDO
100
AcDbLine
 62
7
  6
CONTINUOUS
 10
10.1563593983
 20
20.5690870779
 11
10.1163033721
 21
21.0980565829
  0
SPLINE
  5
35A
100
AcDbEntity
  8
RACCORDO
100
AcDbSpline
 62
7
  6
CONTINUOUS
 70
0
 71
3
 72
11
 73
7
 74
5
 42
0.0000001
 43
0.0000001
 44
0.0000000001
 12
-0.0091965143
 22
0.1213845556
 32
0.0
 13
-0.1159122395
 23
0.037190576
 33
0.0
 40
0.0
 40
0.0
 40
0.0
 40
0.0
 40
0.2875712464
 40
0.5443003888
 40
0.7770422694
 40
1.0
 40
1.0
 40
1.0
 40
1.0
 10
10.1163033721
 20
21.0980565829
 30
0.0
 10
10.115421821
 20
21.1096921522
 30
0.0
 10
10.1116831052
 20
21.1316653797
 30
0.0
 10
10.098849494
 20
21.1608950078
 30
0.0
 10
10.0794053402
 20
21.1830035165
 30
0.0
 10
10.0626490834
 20
21.1918901923
 30
0.0
 10
10.0540345734
 20
21.1946541678
 30
0.0
 11
10.1163033721
 21
21.0980565829
 31
0.0
 11
10.1100055377
 21
21.1324921711
 31
0.0
 11
10.0970021689
 21
21.1609107638
 31
0.0
 11
10.0780117025
 21
21.1819364101
 31
0.0
 11
10.0540345734
 21
21.1946541678
 31
0.0
  0
SPLINE
  5
35B
100
AcDbEntity
  8
RACCORDO
100
AcDbSpline
 62
7
  6
CONTINUOUS
 70
0
 71
3
 72
11
 73
7
 74
5
 42
0.0000001
 43
0.0000001
 44
0.0000000001
 12
0.0994753131
 22
0.0497376566
 32
0.0
 13
0.0879181239
 23
-0.0681144323
 33
0.0
 40
0.0
 40
0.0
 40
0.0
 40
0.0
 40
0.2811285838
 40
0.5357918237
 40
0.771062621
 40
1.0
 40
1.0
 40
1.0
 40
1.0
 10
10.679156515
 20
20.8304856365
 30
0.0
 10
10.6884782996
 20
20.8351465288
 30
0.0
 10
10.7071355017
 20
20.8424446488
 30
0.0
 10
10.7357771294
 20
20.846382351
 30
0.0
 10
10.7625342581
 20
20.8421950807
 30
0.0
 10
10.7780389443
 20
20.8338696571
 30
0.0
 10
10.7847481926
 20
20.8286716772
 30
0.0
 11
10.679156515
 21
20.8304856365
 31
0.0
 11
10.7083998664
 21
20.8415492105
 31
0.0
 11
10.7365074506
 21
20.845034347
 31
0.0
 11
10.7623144086
 21
20.8407142019
 31
0.0
 11
10.7847481926
 21
20.8286716772
 31
0.0
  0
SPLINE
  5
35C
100
AcDbEntity
  8
RACCORDO
100
AcDbSpline
 62
7
  6
CONTINUOUS
 70
0
 71
3
 72
9
 73
5
 74
3
 42
0.0000001
 43
0.0000001
 44
0.0000000001
 12
-0.0802121386
 22
0.0257361574
 32
0.0
 13
-0.0753463309
 23
-0.0376731654
 33
0.0
 40
0.0
 40
0.0
 40
0.0
 40
0.0
 40
0.4661274369
 40
1.0
 40
1.0
 40
1.0
 40
1.0
 10
10.0540345734
 20
21.1946541678
 30
0.0
 10
10.0415715473
 20
21.1986529441
 30
0.0
 10
10.0124562711
 20
21.2002499012
 30
0.0
 10
9.9854581801
 20
21.1907432502
 30
0.0
 10
9.9720497338
 20
21.1840390271
 30
0.0
 11
10.0540345734
 21
21.1946541678
 31
0.0
 11
10.0148887001
 21
21.1977291811
 31
0.0
 11
9.9720497338
 21
21.1840390271
 31
0.0
  0
SPLINE
  5
35D
100
AcDbEntity
  8
RACCORDO
100
AcDbSpline
 62
253
  6
CONTINUOUS
 70
0
 71
3
 72
25
 73
21
 74
19
 42
0.0000001
 43
0.0000001
 44
0.0000000001
 12
-0.4286585541
 22
3.9349762714
 32
0.0
 13
3.777639044
 23
-1.1820446971
 33
0.0
 40
0.0
 40
0.0
 40
0.0
 40
0.0
 40
0.0192319485
 40
0.0385181267
 40
0.058122214
 40
0.0782891711
 40
0.1210735572
 40
0.1682276792
 40
0.2204309324
 40
0.277862026
 40
0.3403159615
 40
0.4073013017
 40
0.4781142574
 40
0.551895837
 40
0.627679573
 40
0.7044285964
 40
0.7810747933
 40
0.856548846
 40
0.9298137511
 40
1.0
 40
1.0
 40
1.0
 40
1.0
 10
6.5635082901
 20
20.1785420954
 30
0.0
 10
6.5607603104
 20
20.2037678491
 30
0.0
 10
6.5586722617
 20
20.2547337763
 30
0.0
 10
6.5660772521
 20
20.3312901503
 30
0.0
 10
6.583967242
 20
20.4073681569
 30
0.0
 10
6.6223503734
 20
20.5095837251
 30
0.0
 10
6.6980836197
 20
20.6351076092
 30
0.0
 10
6.8256156571
 20
20.7739118333
 30
0.0
 10
6.9888717809
 20
20.9021738655
 30
0.0
 10
7.1848630985
 20
21.0178872316
 30
0.0
 10
7.4101203047
 20
21.1191917311
 30
0.0
 10
7.6606152709
 20
21.2043177657
 30
0.0
 10
7.9318184042
 20
21.2717390389
 30
0.0
 10
8.2187852792
 20
21.3202204767
 30
0.0
 10
8.5162540775
 20
21.3488679134
 30
0.0
 10
8.8187593823
 20
21.3571513477
 30
0.0
 10
9.1207127594
 20
21.3448893254
 30
0.0
 10
9.4165795124
 20
21.3124473744
 30
0.0
 10
9.7008482787
 20
21.2599143946
 30
0.0
 10
9.884207193
 20
21.2119619035
 30
0.0
 10
9.9725866311
 20
21.1843074758
 30
0.0
 11
6.5635082901
 21
20.1785420954
 31
0.0
 11
6.5604191315
 21
20.2546043559
 31
0.0
 11
6.5677154931
 21
20.3305944916
 31
0.0
 11
6.5853623008
 21
20.4061592824
 31
0.0
 11
6.6132746709
 21
20.4809462121
 31
0.0
 11
6.6993397419
 21
20.6267980012
 31
0.0
 11
6.8243088069
 21
20.7654350519
 31
0.0
 11
6.9858555479
 21
20.8942767492
 31
0.0
 11
7.180972706
 21
21.0109250781
 31
0.0
 11
7.406028474
 21
21.1132090416
 31
0.0
 11
7.6568335906
 21
21.1992248078
 31
0.0
 11
7.9287191486
 21
21.2673714285
 31
0.0
 11
8.2166240037
 21
21.3163802009
 31
0.0
 11
8.5151941516
 21
21.3453405259
 31
0.0
 11
8.8188710886
 21
21.3537097763
 31
0.0
 11
9.1220039095
 21
21.3413368322
 31
0.0
 11
9.4189340676
 21
21.3084521188
 31
0.0
 11
9.7040871046
 21
21.2556463597
 31
0.0
 11
9.9725866311
 21
21.1843074758
 31
0.0
  0
SPLINE
  5
35E
100
AcDbEntity
  8
RACCORDO
100
AcDbSpline
 62
253
  6
CONTINUOUS
 70
0
 71
3
 72
11
 73
7
 74
5
 42
0.0000001
 43
0.0000001
 44
0.0000000001
 12
0.3883121516
 22
-0.3102469705
 32
0.0
 13
0.1728301009
 23
-0.4660142338
 33
0.0
 40
0.0
 40
0.0
 40
0.0
 40
0.0
 40
0.2756218915
 40
0.5328658655
 40
0.7735018138
 40
1.0
 40
1.0
 40
1.0
 40
1.0
 10
10.6797174886
 20
20.8307661233
 30
0.0
 10
10.7153932652
 20
20.8022625043
 30
0.0
 10
10.78144162
 20
20.7433580827
 30
0.0
 10
10.8669808796
 20
20.6475377866
 30
0.0
 10
10.9348840378
 20
20.5481145084
 30
0.0
 10
10.9682178733
 20
20.4778041544
 30
0.0
 10
10.9812664414
 20
20.4426203615
 30
0.0
 11
10.6797174886
 21
20.8307661233
 31
0.0
 11
10.7818145704
 21
20.7394253228
 31
0.0
 11
10.866578324
 21
20.6437027404
 31
0.0
 11
10.9334348802
 21
20.5445302309
 31
0.0
 11
10.9812664414
 21
20.4426203615
 31
0.0
  0
SPLINE
  5
35F
100
AcDbEntity
  8
RACCORDO
100
AcDbSpline
 62
7
  6
CONTINUOUS
 70
0
 71
3
 72
10
 73
6
 74
4
 42
0.0000001
 43
0.0000001
 44
0.0000000001
 12
0.0827521408
 22
0.0413841751
 32
0.0
 13
0.0827553829
 23
-0.0413776915
 33
0.0
 40
0.0
 40
0.0
 40
0.0
 40
0.0
 40
0.2277190328
 40
0.465906024
 40
1.0
 40
1.0
 40
1.0
 40
1.0
 10
-2.9437413526
 20
17.4874235945
 30
0.0
 10
-2.9374599402
 20
17.4905649159
 30
0.0
 10
-2.9236133381
 20
17.4951722793
 30
0.0
 10
-2.8925245263
 20
17.4967393175
 30
0.0
 10
-2.8690223031
 20
17.4891149172
 30
0.0
 10
-2.8542892526
 20
17.481748392
 30
0.0
 11
-2.9437413526
 21
17.4874235945
 31
0.0
 11
-2.9237720626
 21
17.4941425114
 31
0.0
 11
-2.9017721573
 21
17.4954352471
 31
0.0
 11
-2.8542892526
 21
17.481748392
 31
0.0
  0
SPLINE
  5
360
100
AcDbEntity
  8
RACCORDO
100
AcDbSpline
 62
7
  6
CONTINUOUS
 70
0
 71
3
 72
11
 73
7
 74
5
 42
0.0000001
 43
0.0000001
 44
0.0000000001
 12
-0.0141023425
 22
-0.0602215812
 32
0.0
 13
-0.0615311388
 23
-0.0062796384
 33
0.0
 40
0.0
 40
0.0
 40
0.0
 40
0.0
 40
0.1668656033
 40
0.3782755326
 40
0.6547498671
 40
1.0
 40
1.0
 40
1.0
 40
1.0
 10
0.8865868693
 20
18.8807946527
 30
0.0
 10
0.8858024707
 20
18.8774450159
 30
0.0
 10
0.8813534474
 20
18.8704755155
 30
0.0
 10
0.8695545551
 20
18.8634475929
 30
0.0
 10
0.8530805722
 20
18.8583150313
 30
0.0
 10
0.8403601623
 20
18.8564161961
 30
0.0
 10
0.833278951
 20
18.8556935141
 30
0.0
 11
0.8865868693
 21
18.8807946527
 31
0.0
 11
0.8814166256
 21
18.8718623119
 31
0.0
 11
0.8705664526
 21
18.864564921
 31
0.0
 11
0.8543561229
 21
18.859120645
 31
0.0
 11
0.833278951
 21
18.8556935141
 31
0.0
  0
SPLINE
  5
361
100
AcDbEntity
  8
RACCORDO
100
AcDbSpline
 62
7
  6
CONTINUOUS
 70
0
 71
3
 72
11
 73
7
 74
5
 42
0.0000001
 43
0.0000001
 44
0.0000000001
 12
-0.0141023425
 22
-0.0602215812
 32
0.0
 13
-0.0615311388
 23
-0.0062796384
 33
0.0
 40
0.0
 40
0.0
 40
0.0
 40
0.0
 40
0.1668656033
 40
0.3782755326
 40
0.6547498671
 40
1.0
 40
1.0
 40
1.0
 40
1.0
 10
-3.1439217834
 20
20.8960489791
 30
0.0
 10
-3.1447061821
 20
20.8926993423
 30
0.0
 10
-3.1491552054
 20
20.8857298418
 30
0.0
 10
-3.1609540976
 20
20.8787019193
 30
0.0
 10
-3.1774280805
 20
20.8735693577
 30
0.0
 10
-3.1901484905
 20
20.8716705225
 30
0.0
 10
-3.1972297018
 20
20.8709478405
 30
0.0
 11
-3.1439217834
 21
20.8960489791
 31
0.0
 11
-3.1490920272
 21
20.8871166383
 31
0.0
 11
-3.1599422002
 21
20.8798192474
 31
0.0
 11
-3.1761525298
 21
20.8743749714
 31
0.0
 11
-3.1972297018
 21
20.8709478405
 31
0.0
  0
SPLINE
  5
362
100
AcDbEntity
  8
0
100
AcDbSpline
 62
7
  6
CONTINUOUS
 70
0
 71
3
 72
9
 73
5
 74
3
 42
0.0000001
 43
0.0000001
 44
0.0000000001
 12
-0.1118101648
 22
0.055879438
 32
0.0
 13
-0.1242781571
 23
0.0133777507
 33
0.0
 40
0.0
 40
0.0
 40
0.0
 40
0.0
 40
0.4951303412
 40
1.0
 40
1.0
 40
1.0
 40
1.0
 10
-0.955101889
 20
22.1297638963
 30
0.0
 10
-0.973555424
 20
22.1389864314
 30
0.0
 10
-1.0126322689
 20
22.1541864628
 30
0.0
 10
-1.0537749839
 20
22.162129876
 30
0.0
 10
-1.0746897408
 20
22.1643812162
 30
0.0
 11
-0.955101889
 21
22.1297638963
 31
0.0
 11
-1.0127581435
 21
22.1522594355
 31
0.0
 11
-1.0746897408
 21
22.1643812162
 31
0.0
  0
SPLINE
  5
363
100
AcDbEntity
  8
0
100
AcDbSpline
 62
7
  6
CONTINUOUS
 70
0
 71
3
 72
9
 73
5
 74
3
 42
0.0000001
 43
0.0000001
 44
0.0000000001
 12
-0.0857796487
 22
0.0092336319
 32
0.0
 13
-0.0858293689
 23
-0.0087594251
 33
0.0
 40
0.0
 40
0.0
 40
0.0
 40
0.0
 40
0.2447357831
 40
1.0
 40
1.0
 40
1.0
 40
1.0
 10
-1.0746897408
 20
22.1643812162
 30
0.0
 10
-1.081687524
 20
22.1651344829
 30
0.0
 10
-1.110363348
 20
22.1674189139
 30
0.0
 10
-1.1392672919
 20
22.1665568832
 30
0.0
 10
-1.1608752423
 20
22.1643516564
 30
0.0
 11
-1.0746897408
 21
22.1643812162
 31
0.0
 11
-1.0957371878
 21
22.1660641877
 31
0.0
 11
-1.1608752423
 21
22.1643516564
 31
0.0
  0
SPLINE
  5
364
100
AcDbEntity
  8
RACCORDO
100
AcDbSpline
 62
7
  6
CONTINUOUS
 70
0
 71
3
 72
12
 73
8
 74
6
 42
0.0000001
 43
0.0000001
 44
0.0000000001
 12
-0.2829741468
 22
-0.0288792855
 32
0.0
 13
-0.2544144349
 23
0.1272072175
 33
0.0
 40
0.0
 40
0.0
 40
0.0
 40
0.0
 40
0.1019075767
 40
0.2190147433
 40
0.4829783949
 40
0.755955919
 40
1.0
 40
1.0
 40
1.0
 40
1.0
 10
-2.495824957
 20
22.02811167
 30
0.0
 10
-2.5054373602
 20
22.027130664
 30
0.0
 10
-2.5262338947
 20
22.0263540413
 30
0.0
 10
-2.5720064761
 20
22.0285578091
 30
0.0
 10
-2.6334855783
 20
22.0379677059
 30
0.0
 10
-2.7051732255
 20
22.0568965773
 30
0.0
 10
-2.7510499033
 20
22.0747477542
 30
0.0
 10
-2.7717460156
 20
22.0850958104
 30
0.0
 11
-2.495824957
 21
22.02811167
 31
0.0
 11
-2.524781919
 21
22.0267924412
 31
0.0
 11
-2.5580608245
 21
22.0282412813
 31
0.0
 11
-2.6323519649
 21
22.0391162202
 31
0.0
 11
-2.7073882254
 21
22.0590808759
 31
0.0
 11
-2.7717460156
 21
22.0850958104
 31
0.0
  0
SPLINE
  5
365
100
AcDbEntity
  8
0
100
AcDbSpline
 62
7
  6
CONTINUOUS
 70
0
 71
3
 72
9
 73
5
 74
3
 42
0.0000001
 43
0.0000001
 44
0.0000000001
 12
0.1434906965
 22
0.0717453483
 32
0.0
 13
0.1595984812
 23
0.0162880254
 33
0.0
 40
0.0
 40
0.0
 40
0.0
 40
0.0
 40
0.2656286414
 40
1.0
 40
1.0
 40
1.0
 40
1.0
 10
-9.0196262871
 20
22.2889851925
 30
0.0
 10
-9.0069212075
 20
22.2953377323
 30
0.0
 10
-8.9582486366
 20
22.3174378309
 30
0.0
 10
-8.9057388631
 20
22.3318054335
 30
0.0
 10
-8.8666706786
 20
22.3357925866
 30
0.0
 11
-9.0196262871
 21
22.2889851925
 31
0.0
 11
-8.9807928022
 21
22.3065329767
 31
0.0
 11
-8.8666706786
 21
22.3357925866
 31
0.0
  0
SPLINE
  5
366
100
AcDbEntity
  8
RACCORDO
100
AcDbSpline
 62
7
  6
CONTINUOUS
 70
0
 71
3
 72
11
 73
7
 74
5
 42
0.0000001
 43
0.0000001
 44
0.0000000001
 12
-0.0785128046
 22
0.0392564023
 32
0.0
 13
0.0200143647
 23
0.085467835
 33
0.0
 40
0.0
 40
0.0
 40
0.0
 40
0.0
 40
0.3613423716
 40
0.514786202
 40
0.6488090208
 40
1.0
 40
1.0
 40
1.0
 40
1.0
 10
2.8143975557
 20
19.2920240247
 30
0.0
 10
2.8049408881
 20
19.2967523585
 30
0.0
 10
2.79176609
 20
19.3040314782
 30
0.0
 10
2.7761865831
 20
19.3151725883
 30
0.0
 10
2.7623685478
 20
19.3269459595
 30
0.0
 10
2.7518250288
 20
19.3413549244
 30
0.0
 10
2.7541679836
 20
19.3513601019
 30
0.0
 11
2.8143975557
 21
19.2920240247
 31
0.0
 11
2.7868462109
 21
19.3077400909
 31
0.0
 11
2.7759148768
 21
19.315609519
 31
0.0
 11
2.7670637473
 21
19.3233594517
 31
0.0
 11
2.7541679836
 21
19.3513601019
 31
0.0
  0
SPLINE
  5
367
100
AcDbEntity
  8
0
100
AcDbSpline
 62
7
  6
CONTINUOUS
 70
0
 71
3
 72
15
 73
11
 74
9
 42
0.0000001
 43
0.0000001
 44
0.0000000001
 12
0.0
 22
1.0301786292
 32
0.0
 13
0.9214197775
 23
0.4607098888
 33
0.0
 40
0.0
 40
0.0
 40
0.0
 40
0.0
 40
0.1197400429
 40
0.2468321982
 40
0.3784575399
 40
0.511666381
 40
0.6432400042
 40
0.7701010525
 40
0.8897103295
 40
1.0
 40
1.0
 40
1.0
 40
1.0
 10
-9.8781691666
 20
21.2534959701
 30
0.0
 10
-9.8781691666
 20
21.2946138479
 30
0.0
 10
-9.871158658
 20
21.3794583033
 30
0.0
 10
-9.8427365484
 20
21.5066213965
 30
0.0
 10
-9.7970344608
 20
21.6335720845
 30
0.0
 10
-9.7358413908
 20
21.7555252961
 30
0.0
 10
-9.66138994
 20
21.8679227807
 30
0.0
 10
-9.5764713263
 20
21.966619385
 30
0.0
 10
-9.4842254391
 20
22.0478468109
 30
0.0
 10
-9.417068781
 20
22.0902639456
 30
0.0
 10
-9.3831944197
 20
22.1072011262
 30
0.0
 11
-9.8781691666
 21
21.2534959701
 31
0.0
 11
-9.8686549408
 21
21.3764821415
 31
0.0
 11
-9.8404854733
 21
21.5043434858
 31
0.0
 11
-9.7947488759
 21
21.6319948729
 31
0.0
 11
-9.7331944197
 21
21.7546440485
 31
0.0
 11
-9.6581812887
 21
21.8675391185
 31
0.0
 11
-9.5726262553
 21
21.9663322983
 31
0.0
 11
-9.4797280418
 21
22.0472818159
 31
0.0
 11
-9.3831944197
 21
22.1072011262
 31
0.0
  0
SPLINE
  5
368
100
AcDbEntity
  8
RACCORDO
100
AcDbSpline
 62
7
  6
CONTINUOUS
 70
0
 71
3
 72
11
 73
7
 74
5
 42
0.0000001
 43
0.0000001
 44
0.0000000001
 12
0.24902617
 22
-0.124513085
 32
0.0
 13
0.0191573084
 23
-0.2777598589
 33
0.0
 40
0.0
 40
0.0
 40
0.0
 40
0.0
 40
0.2279059286
 40
0.4839745214
 40
0.7487298764
 40
1.0
 40
1.0
 40
1.0
 40
1.0
 10
-8.4167677063
 20
20.2629876188
 30
0.0
 10
-8.3978495261
 20
20.2535285287
 30
0.0
 10
-8.3614950977
 20
20.2257273694
 30
0.0
 10
-8.3185130562
 20
20.1704228723
 30
0.0
 10
-8.2877618677
 20
20.1050936515
 30
0.0
 10
-8.2774890541
 20
20.0577010043
 30
0.0
 10
-8.275884501
 20
20.0344367529
 30
0.0
 11
-8.4167677063
 21
20.2629876188
 31
0.0
 11
-8.3655112274
 21
20.2255827969
 31
0.0
 11
-8.3212248229
 21
20.169711277
 31
0.0
 11
-8.2899307468
 21
20.1029707066
 31
0.0
 11
-8.275884501
 21
20.0344367529
 31
0.0
  0
SPLINE
  5
369
100
AcDbEntity
  8
RACCORDO
100
AcDbSpline
 62
7
  6
CONTINUOUS
 70
0
 71
3
 72
12
 73
8
 74
6
 42
0.0000001
 43
0.0000001
 44
0.0000000001
 12
-0.2829741468
 22
-0.0288792855
 32
0.0
 13
-0.2544144349
 23
0.1272072175
 33
0.0
 40
0.0
 40
0.0
 40
0.0
 40
0.0
 40
0.1019075767
 40
0.2190147433
 40
0.4829783949
 40
0.755955919
 40
1.0
 40
1.0
 40
1.0
 40
1.0
 10
-1.1169667337
 20
18.656658717
 30
0.0
 10
-1.1265791369
 20
18.655677711
 30
0.0
 10
-1.1473756714
 20
18.6549010882
 30
0.0
 10
-1.1931482528
 20
18.657104856
 30
0.0
 10
-1.254627355
 20
18.6665147529
 30
0.0
 10
-1.3263150022
 20
18.6854436242
 30
0.0
 10
-1.37219168
 20
18.7032948012
 30
0.0
 10
-1.3928877923
 20
18.7136428574
 30
0.0
 11
-1.1169667337
 21
18.656658717
 31
0.0
 11
-1.1459236957
 21
18.6553394882
 31
0.0
 11
-1.1792026012
 21
18.6567883283
 31
0.0
 11
-1.2534937416
 21
18.6676632672
 31
0.0
 11
-1.3285300021
 21
18.6876279228
 31
0.0
 11
-1.3928877923
 21
18.7136428574
 31
0.0
  0
SPLINE
  5
36A
100
AcDbEntity
  8
RACCORDO
100
AcDbSpline
 62
7
  6
CONTINUOUS
 70
0
 71
3
 72
12
 73
8
 74
6
 42
0.0000001
 43
0.0000001
 44
0.0000000001
 12
-0.2829741468
 22
-0.0288792855
 32
0.0
 13
-0.2544144349
 23
0.1272072175
 33
0.0
 40
0.0
 40
0.0
 40
0.0
 40
0.0
 40
0.1019075767
 40
0.2190147433
 40
0.4829783949
 40
0.755955919
 40
1.0
 40
1.0
 40
1.0
 40
1.0
 10
-5.1474753865
 20
20.6719130434
 30
0.0
 10
-5.1570877896
 20
20.6709320374
 30
0.0
 10
-5.1778843242
 20
20.6701554146
 30
0.0
 10
-5.2236569055
 20
20.6723591824
 30
0.0
 10
-5.2851360078
 20
20.6817690792
 30
0.0
 10
-5.3568236549
 20
20.7006979506
 30
0.0
 10
-5.4027003328
 20
20.7185491276
 30
0.0
 10
-5.4233964451
 20
20.7288971837
 30
0.0
 11
-5.1474753865
 21
20.6719130434
 31
0.0
 11
-5.1764323484
 21
20.6705938145
 31
0.0
 11
-5.209711254
 21
20.6720426547
 31
0.0
 11
-5.2840023943
 21
20.6829175936
 31
0.0
 11
-5.3590386549
 21
20.7028822492
 31
0.0
 11
-5.4233964451
 21
20.7288971837
 31
0.0
  0
SPLINE
  5
36B
100
AcDbEntity
  8
RACCORDO
100
AcDbSpline
 62
7
  6
CONTINUOUS
 70
0
 71
3
 72
11
 73
7
 74
5
 42
0.0000001
 43
0.0000001
 44
0.0000000001
 12
-0.0785128046
 22
0.0392564023
 32
0.0
 13
0.0200143647
 23
0.085467835
 33
0.0
 40
0.0
 40
0.0
 40
0.0
 40
0.0
 40
0.3613423716
 40
0.514786202
 40
0.6488090208
 40
1.0
 40
1.0
 40
1.0
 40
1.0
 10
-3.4434974578
 20
19.7389476901
 30
0.0
 10
-3.4529541254
 20
19.7436760239
 30
0.0
 10
-3.4661289235
 20
19.7509551436
 30
0.0
 10
-3.4817084304
 20
19.7620962537
 30
0.0
 10
-3.4955264657
 20
19.7738696249
 30
0.0
 10
-3.5060699847
 20
19.7882785897
 30
0.0
 10
-3.5037270299
 20
19.7982837673
 30
0.0
 11
-3.4434974578
 21
19.7389476901
 31
0.0
 11
-3.4710488026
 21
19.7546637563
 31
0.0
 11
-3.4819801367
 21
19.7625331843
 31
0.0
 11
-3.4908312662
 21
19.7702831171
 31
0.0
 11
-3.5037270299
 21
19.7982837673
 31
0.0
  0
SPLINE
  5
36C
100
AcDbEntity
  8
RACCORDO
100
AcDbSpline
 62
7
  6
CONTINUOUS
 70
0
 71
3
 72
11
 73
7
 74
5
 42
0.0000001
 43
0.0000001
 44
0.0000000001
 12
-0.0785128046
 22
0.0392564023
 32
0.0
 13
0.0200143647
 23
0.085467835
 33
0.0
 40
0.0
 40
0.0
 40
0.0
 40
0.0
 40
0.3613423716
 40
0.514786202
 40
0.6488090208
 40
1.0
 40
1.0
 40
1.0
 40
1.0
 10
-7.4740061105
 20
21.7542020165
 30
0.0
 10
-7.4834627782
 20
21.7589303503
 30
0.0
 10
-7.4966375763
 20
21.76620947
 30
0.0
 10
-7.5122170832
 20
21.7773505801
 30
0.0
 10
-7.5260351185
 20
21.7891239513
 30
0.0
 10
-7.5365786375
 20
21.8035329161
 30
0.0
 10
-7.5342356827
 20
21.8135380937
 30
0.0
 11
-7.4740061105
 21
21.7542020165
 31
0.0
 11
-7.5015574554
 21
21.7699180827
 31
0.0
 11
-7.5124887894
 21
21.7777875107
 31
0.0
 11
-7.521339919
 21
21.7855374434
 31
0.0
 11
-7.5342356827
 21
21.8135380937
 31
0.0
  0
SPLINE
  5
36D
100
AcDbEntity
  8
RACCORDO
100
AcDbSpline
 62
7
  6
CONTINUOUS
 70
0
 71
3
 72
11
 73
7
 74
5
 42
0.0000001
 43
0.0000001
 44
0.0000000001
 12
0.0141023425
 22
0.0602215812
 32
0.0
 13
0.0615311388
 23
0.0062796384
 33
0.0
 40
0.0
 40
0.0
 40
0.0
 40
0.0
 40
0.1668656033
 40
0.3782755326
 40
0.6547498671
 40
1.0
 40
1.0
 40
1.0
 40
1.0
 10
2.7541679836
 20
19.3513601019
 30
0.0
 10
2.7549523822
 20
19.3547097387
 30
0.0
 10
2.7594014055
 20
19.3616792392
 30
0.0
 10
2.7712002978
 20
19.3687071617
 30
0.0
 10
2.7876742806
 20
19.3738397233
 30
0.0
 10
2.8003946906
 20
19.3757385586
 30
0.0
 10
2.8074759019
 20
19.3764612406
 30
0.0
 11
2.7541679836
 21
19.3513601019
 31
0.0
 11
2.7593382273
 21
19.3602924427
 31
0.0
 11
2.7701884003
 21
19.3675898336
 31
0.0
 11
2.78639873
 21
19.3730341096
 31
0.0
 11
2.8074759019
 21
19.3764612406
 31
0.0
  0
SPLINE
  5
36E
100
AcDbEntity
  8
RACCORDO
100
AcDbSpline
 62
7
  6
CONTINUOUS
 70
0
 71
3
 72
11
 73
7
 74
5
 42
0.0000001
 43
0.0000001
 44
0.0000000001
 12
0.0141023425
 22
0.0602215812
 32
0.0
 13
0.0615311388
 23
0.0062796384
 33
0.0
 40
0.0
 40
0.0
 40
0.0
 40
0.0
 40
0.1668656033
 40
0.3782755326
 40
0.6547498671
 40
1.0
 40
1.0
 40
1.0
 40
1.0
 10
-7.5342356827
 20
21.8135380937
 30
0.0
 10
-7.5334512841
 20
21.8168877305
 30
0.0
 10
-7.5290022608
 20
21.8238572309
 30
0.0
 10
-7.5172033685
 20
21.8308851534
 30
0.0
 10
-7.5007293856
 20
21.8360177151
 30
0.0
 10
-7.4880089757
 20
21.8379165503
 30
0.0
 10
-7.4809277644
 20
21.8386392323
 30
0.0
 11
-7.5342356827
 21
21.8135380937
 31
0.0
 11
-7.529065439
 21
21.8224704345
 31
0.0
 11
-7.518215266
 21
21.8297678254
 31
0.0
 11
-7.5020049363
 21
21.8352121014
 31
0.0
 11
-7.4809277644
 21
21.8386392323
 31
0.0
  0
SPLINE
  5
36F
100
AcDbEntity
  8
RACCORDO
100
AcDbSpline
 62
7
  6
CONTINUOUS
 70
0
 71
3
 72
11
 73
7
 74
5
 42
0.0000001
 43
0.0000001
 44
0.0000000001
 12
0.0785128046
 22
-0.0392564023
 32
0.0
 13
-0.0200143647
 23
-0.085467835
 33
0.0
 40
0.0
 40
0.0
 40
0.0
 40
0.0
 40
0.3613423716
 40
0.514786202
 40
0.6488090208
 40
1.0
 40
1.0
 40
1.0
 40
1.0
 10
0.8263572972
 20
18.9401307299
 30
0.0
 10
0.8358139648
 20
18.9354023961
 30
0.0
 10
0.8489887629
 20
18.9281232764
 30
0.0
 10
0.8645682698
 20
18.9169821663
 30
0.0
 10
0.8783863051
 20
18.9052087951
 30
0.0
 10
0.8889298241
 20
18.8907998303
 30
0.0
 10
0.8865868693
 20
18.8807946527
 30
0.0
 11
0.8263572972
 21
18.9401307299
 31
0.0
 11
0.853908642
 21
18.9244146637
 31
0.0
 11
0.864839976
 21
18.9165452357
 31
0.0
 11
0.8736911056
 21
18.9087953029
 31
0.0
 11
0.8865868693
 21
18.8807946527
 31
0.0
  0
SPLINE
  5
370
100
AcDbEntity
  8
RACCORDO
100
AcDbSpline
 62
7
  6
CONTINUOUS
 70
0
 71
3
 72
11
 73
7
 74
5
 42
0.0000001
 43
0.0000001
 44
0.0000000001
 12
0.0785128046
 22
-0.0392564023
 32
0.0
 13
-0.0200143647
 23
-0.085467835
 33
0.0
 40
0.0
 40
0.0
 40
0.0
 40
0.0
 40
0.3613423716
 40
0.514786202
 40
0.6488090208
 40
1.0
 40
1.0
 40
1.0
 40
1.0
 10
-3.2041513556
 20
20.9553850563
 30
0.0
 10
-3.1946946879
 20
20.9506567225
 30
0.0
 10
-3.1815198899
 20
20.9433776028
 30
0.0
 10
-3.165940383
 20
20.9322364927
 30
0.0
 10
-3.1521223476
 20
20.9204631215
 30
0.0
 10
-3.1415788287
 20
20.9060541566
 30
0.0
 10
-3.1439217834
 20
20.8960489791
 30
0.0
 11
-3.2041513556
 21
20.9553850563
 31
0.0
 11
-3.1766000108
 21
20.9396689901
 31
0.0
 11
-3.1656686767
 21
20.9317995621
 31
0.0
 11
-3.1568175471
 21
20.9240496293
 31
0.0
 11
-3.1439217834
 21
20.8960489791
 31
0.0
  0
SPLINE
  5
371
100
AcDbEntity
  8
RACCORDO
100
AcDbSpline
 62
7
  6
CONTINUOUS
 70
0
 71
3
 72
12
 73
8
 74
6
 42
0.0000001
 43
0.0000001
 44
0.0000000001
 12
0.2829741468
 22
0.0288792855
 32
0.0
 13
0.2544144349
 23
-0.1272072175
 33
0.0
 40
0.0
 40
0.0
 40
0.0
 40
0.0
 40
0.1019075767
 40
0.2190147433
 40
0.4829783949
 40
0.755955919
 40
1.0
 40
1.0
 40
1.0
 40
1.0
 10
-1.5001734269
 20
20.022419703
 30
0.0
 10
-1.4905610237
 20
20.023400709
 30
0.0
 10
-1.4697644892
 20
20.0241773318
 30
0.0
 10
-1.4239919078
 20
20.021973564
 30
0.0
 10
-1.3625128056
 20
20.0125636671
 30
0.0
 10
-1.2908251584
 20
19.9936347958
 30
0.0
 10
-1.2449484806
 20
19.9757836188
 30
0.0
 10
-1.2242523683
 20
19.9654355626
 30
0.0
 11
-1.5001734269
 21
20.022419703
 31
0.0
 11
-1.471216465
 21
20.0237389318
 31
0.0
 11
-1.4379375594
 21
20.0222900917
 31
0.0
 11
-1.3636464191
 21
20.0114151528
 31
0.0
 11
-1.2886101585
 21
19.9914504972
 31
0.0
 11
-1.2242523683
 21
19.9654355626
 31
0.0
  0
SPLINE
  5
372
100
AcDbEntity
  8
RACCORDO
100
AcDbSpline
 62
7
  6
CONTINUOUS
 70
0
 71
3
 72
12
 73
8
 74
6
 42
0.0000001
 43
0.0000001
 44
0.0000000001
 12
0.2829741468
 22
0.0288792855
 32
0.0
 13
0.2544144349
 23
-0.1272072175
 33
0.0
 40
0.0
 40
0.0
 40
0.0
 40
0.0
 40
0.1019075767
 40
0.2190147433
 40
0.4829783949
 40
0.755955919
 40
1.0
 40
1.0
 40
1.0
 40
1.0
 10
-5.5306820797
 20
22.0376740294
 30
0.0
 10
-5.5210696765
 20
22.0386550354
 30
0.0
 10
-5.500273142
 20
22.0394316582
 30
0.0
 10
-5.4545005606
 20
22.0372278903
 30
0.0
 10
-5.3930214584
 20
22.0278179935
 30
0.0
 10
-5.3213338112
 20
22.0088891221
 30
0.0
 10
-5.2754571334
 20
21.9910379452
 30
0.0
 10
-5.2547610211
 20
21.980689889
 30
0.0
 11
-5.5306820797
 21
22.0376740294
 31
0.0
 11
-5.5017251177
 21
22.0389932582
 31
0.0
 11
-5.4684462122
 21
22.0375444181
 31
0.0
 11
-5.3941550718
 21
22.0266694792
 31
0.0
 11
-5.3191188113
 21
22.0067048236
 31
0.0
 11
-5.2547610211
 21
21.980689889
 31
0.0
  0
SPLINE
  5
373
100
AcDbEntity
  8
0
100
AcDbSpline
 62
7
  6
CONTINUOUS
 70
0
 71
3
 72
9
 73
5
 74
3
 42
0.0000001
 43
0.0000001
 44
0.0000000001
 12
0.1434906965
 22
0.0717453483
 32
0.0
 13
0.1595984812
 23
0.0162880254
 33
0.0
 40
0.0
 40
0.0
 40
0.0
 40
0.0
 40
0.2656286414
 40
1.0
 40
1.0
 40
1.0
 40
1.0
 10
-0.5343449129
 20
18.0463445054
 30
0.0
 10
-0.5216398333
 20
18.0526970452
 30
0.0
 10
-0.4729672623
 20
18.0747971438
 30
0.0
 10
-0.4204574888
 20
18.0891647463
 30
0.0
 10
-0.3813893043
 20
18.0931518995
 30
0.0
 11
-0.5343449129
 21
18.0463445054
 31
0.0
 11
-0.495511428
 21
18.0638922896
 31
0.0
 11
-0.3813893043
 21
18.0931518995
 31
0.0
  0
SPLINE
  5
374
100
AcDbEntity
  8
RACCORDO
100
AcDbSpline
 62
7
  6
CONTINUOUS
 70
0
 71
3
 72
11
 73
7
 74
5
 42
0.0000001
 43
0.0000001
 44
0.0000000001
 12
0.0141023425
 22
0.0602215812
 32
0.0
 13
0.0615311388
 23
0.0062796384
 33
0.0
 40
0.0
 40
0.0
 40
0.0
 40
0.0
 40
0.1668656033
 40
0.3782755326
 40
0.6547498671
 40
1.0
 40
1.0
 40
1.0
 40
1.0
 10
-3.5037270299
 20
19.7982837673
 30
0.0
 10
-3.5029426313
 20
19.8016334041
 30
0.0
 10
-3.498493608
 20
19.8086029046
 30
0.0
 10
-3.4866947157
 20
19.8156308271
 30
0.0
 10
-3.4702207329
 20
19.8207633887
 30
0.0
 10
-3.4575003229
 20
19.8226622239
 30
0.0
 10
-3.4504191116
 20
19.8233849059
 30
0.0
 11
-3.5037270299
 21
19.7982837673
 31
0.0
 11
-3.4985567862
 21
19.8072161081
 31
0.0
 11
-3.4877066132
 21
19.814513499
 31
0.0
 11
-3.4714962835
 21
19.819957775
 31
0.0
 11
-3.4504191116
 21
19.8233849059
 31
0.0
  0
SPLINE
  5
375
100
AcDbEntity
  8
0
100
AcDbSpline
 62
7
  6
CONTINUOUS
 70
0
 71
3
 72
15
 73
11
 74
9
 42
0.0000001
 43
0.0000001
 44
0.0000000001
 12
0.0
 22
1.0301786292
 32
0.0
 13
0.9214197775
 23
0.4607098888
 33
0.0
 40
0.0
 40
0.0
 40
0.0
 40
0.0
 40
0.1197400429
 40
0.2468321982
 40
0.3784575399
 40
0.511666381
 40
0.6432400042
 40
0.7701010525
 40
0.8897103295
 40
1.0
 40
1.0
 40
1.0
 40
1.0
 10
-1.3928877923
 20
17.010855283
 30
0.0
 10
-1.3928877923
 20
17.0519731608
 30
0.0
 10
-1.3858772837
 20
17.1368176162
 30
0.0
 10
-1.3574551742
 20
17.2639807094
 30
0.0
 10
-1.3117530866
 20
17.3909313974
 30
0.0
 10
-1.2505600166
 20
17.512884609
 30
0.0
 10
-1.1761085658
 20
17.6252820936
 30
0.0
 10
-1.0911899521
 20
17.7239786978
 30
0.0
 10
-0.9989440649
 20
17.8052061238
 30
0.0
 10
-0.9317874067
 20
17.8476232584
 30
0.0
 10
-0.8979130455
 20
17.8645604391
 30
0.0
 11
-1.3928877923
 21
17.010855283
 31
0.0
 11
-1.3833735666
 21
17.1338414544
 31
0.0
 11
-1.355204099
 21
17.2617027987
 31
0.0
 11
-1.3094675017
 21
17.3893541857
 31
0.0
 11
-1.2479130455
 21
17.5120033614
 31
0.0
 11
-1.1728999144
 21
17.6248984314
 31
0.0
 11
-1.087344881
 21
17.7236916112
 31
0.0
 11
-0.9944466675
 21
17.8046411288
 31
0.0
 11
-0.8979130455
 21
17.8645604391
 31
0.0
  0
SPLINE
  5
376
100
AcDbEntity
  8
RACCORDO
100
AcDbSpline
 62
7
  6
CONTINUOUS
 70
0
 71
3
 72
11
 73
7
 74
5
 42
0.0000001
 43
0.0000001
 44
0.0000000001
 12
0.0082142376
 22
0.110883155
 32
0.0
 13
0.0994447751
 23
0.0497321272
 33
0.0
 40
0.0
 40
0.0
 40
0.0
 40
0.0
 40
0.28547012
 40
0.5436107393
 40
0.7786012075
 40
1.0
 40
1.0
 40
1.0
 40
1.0
 10
-2.9951724579
 20
17.3940807313
 30
0.0
 10
-2.9943908181
 20
17.4046320072
 30
0.0
 10
-2.9912299093
 20
17.424672603
 30
0.0
 10
-2.9807668004
 20
17.451843747
 30
0.0
 10
-2.9650197279
 20
17.4735664796
 30
0.0
 10
-2.951080337
 20
17.4837533835
 30
0.0
 10
-2.9437413526
 20
17.4874235945
 30
0.0
 11
-2.9951724579
 21
17.3940807313
 31
0.0
 11
-2.9899281238
 21
17.4253850506
 31
0.0
 11
-2.9792935831
 21
17.4520440911
 31
0.0
 11
-2.9636912054
 21
17.4730019566
 31
0.0
 11
-2.9437413526
 21
17.4874235945
 31
0.0
  0
SPLINE
  5
377
100
AcDbEntity
  8
RACCORDO
100
AcDbSpline
 62
7
  6
CONTINUOUS
 70
0
 71
3
 72
13
 73
9
 74
7
 42
0.0000001
 43
0.0000001
 44
0.0000000001
 12
0.3114379145
 22
0.1557189572
 32
0.0
 13
0.3114407092
 23
-0.1557133677
 33
0.0
 40
0.0
 40
0.0
 40
0.0
 40
0.0
 40
0.2789440509
 40
0.5347829202
 40
0.6555551908
 40
0.7725785266
 40
0.8869690197
 40
1.0
 40
1.0
 40
1.0
 40
1.0
 10
-4.1152488999
 20
24.5965417217
 30
0.0
 10
-4.0862909821
 20
24.6110206806
 30
0.0
 10
-4.0284030329
 20
24.634435843
 30
0.0
 10
-3.9529750141
 20
24.6485881476
 30
0.0
 10
-3.8955489785
 20
24.6489107131
 30
0.0
 10
-3.854851944
 20
24.6439689772
 30
0.0
 10
-3.816048483
 20
24.6338694155
 30
0.0
 10
-3.7915753817
 20
24.6237111055
 30
0.0
 10
-3.7798412321
 20
24.617844294
 30
0.0
 11
-4.1152488999
 21
24.5965417217
 31
0.0
 11
-4.0249105654
 21
24.632217997
 31
0.0
 11
-3.9372129795
 21
24.6478656128
 31
0.0
 11
-3.8951605517
 21
24.6480124089
 31
0.0
 11
-3.8547193422
 21
24.6430272316
 31
0.0
 11
-3.8161855371
 21
24.6329465846
 31
0.0
 11
-3.7798412321
 21
24.617844294
 31
0.0
  0
SPLINE
  5
378
100
AcDbEntity
  8
RACCORDO
100
AcDbSpline
 62
7
  6
CONTINUOUS
 70
0
 71
3
 72
14
 73
10
 74
8
 42
0.0000001
 43
0.0000001
 44
0.0000000001
 12
0.0
 22
0.473258469
 32
0.0
 13
-0.4232990415
 23
0.2116400244
 33
0.0
 40
0.0
 40
0.0
 40
0.0
 40
0.0
 40
0.2891515188
 40
0.4227190443
 40
0.5489646044
 40
0.6685092765
 40
0.7824372297
 40
0.8922922112
 40
1.0
 40
1.0
 40
1.0
 40
1.0
 10
7.728789685
 20
18.5553334623
 30
0.0
 10
7.728789685
 20
18.6009479306
 30
0.0
 10
7.7230989686
 20
18.6679937179
 30
0.0
 10
7.7013487533
 20
18.7519864302
 30
0.0
 10
7.6792596575
 20
18.8077950905
 30
0.0
 10
7.6512015939
 20
18.8573487914
 30
0.0
 10
7.617457216
 20
18.90001764
 30
0.0
 10
7.5784264297
 20
18.9351963209
 30
0.0
 10
7.5490648015
 20
18.9533916181
 30
0.0
 10
7.5338672669
 20
18.9609900445
 30
0.0
 11
7.728789685
 21
18.5553334623
 31
0.0
 11
7.7158306895
 21
18.6915618806
 31
0.0
 11
7.6997809763
 21
18.7527023658
 31
0.0
 11
7.6775873583
 21
18.8081741703
 31
0.0
 11
7.6495217703
 21
18.8572976188
 31
0.0
 11
7.615928379
 21
18.8994706755
 31
0.0
 11
7.5772187688
 21
18.9341766609
 31
0.0
 11
7.5338672669
 21
18.9609900445
 31
0.0
  0
SPLINE
  5
379
100
AcDbEntity
  8
0
100
AcDbSpline
 62
7
  6
CONTINUOUS
 70
0
 71
3
 72
15
 73
11
 74
9
 42
0.0000001
 43
0.0000001
 44
0.0000000001
 12
1.2922354902
 22
0.6239486536
 32
0.0
 13
1.2878595918
 23
-0.6329313994
 33
0.0
 40
0.0
 40
0.0
 40
0.0
 40
0.0
 40
0.1131866876
 40
0.2364024826
 40
0.3667036236
 40
0.5006272683
 40
0.6344651513
 40
0.7645146735
 40
0.8873304965
 40
1.0
 40
1.0
 40
1.0
 40
1.0
 10
-5.8777583008
 20
24.6638676192
 30
0.0
 10
-5.8290036826
 20
24.6874085129
 30
0.0
 10
-5.7232485378
 20
24.7286097198
 30
0.0
 10
-5.5529570781
 20
24.7720288678
 30
0.0
 10
-5.3692130081
 20
24.7985752243
 30
0.0
 10
-5.1787144245
 20
24.8072515713
 30
0.0
 10
-4.9883755071
 20
24.7977452771
 30
0.0
 10
-4.8051033058
 20
24.7703994477
 30
0.0
 10
-4.6355769237
 20
24.7262407817
 30
0.0
 10
-4.5304774025
 20
24.6845539447
 30
0.0
 10
-4.4821099022
 20
24.6607832559
 30
0.0
 11
-5.8777583008
 21
24.6638676192
 31
0.0
 11
-5.7268120551
 21
24.7238335195
 31
0.0
 11
-5.5556565356
 21
24.7682024173
 31
0.0
 11
-5.3706538204
 21
24.7953248652
 31
0.0
 11
-5.1786799909
 21
24.804192778
 31
0.0
 11
-4.9868704434
 21
24.7944767071
 31
0.0
 11
-4.8023544707
 21
24.7665376263
 31
0.0
 11
-4.6319900635
 21
24.7214139727
 31
0.0
 11
-4.4821099022
 21
24.6607832559
 31
0.0
  0
SPLINE
  5
37A
100
AcDbEntity
  8
0
100
AcDbSpline
 62
7
  6
CONTINUOUS
 70
0
 71
3
 72
9
 73
5
 74
3
 42
0.0000001
 43
0.0000001
 44
0.0000000001
 12
0.0000120986
 22
0.0027750828
 32
0.0
 13
-0.0024813519
 23
0.0012426279
 33
0.0
 40
0.0
 40
0.0
 40
0.0
 40
0.0
 40
0.5139560421
 40
1.0
 40
1.0
 40
1.0
 40
1.0
 10
-1.1629639232
 20
22.5981770047
 30
0.0
 10
-1.1629618505
 20
22.5986524282
 30
0.0
 10
-1.163138417
 20
22.5996239965
 30
0.0
 10
-1.1638976312
 20
22.6002649835
 30
0.0
 10
-1.1642996466
 20
22.6004663074
 30
0.0
 11
-1.1629639232
 21
22.5981770047
 31
0.0
 11
-1.1632972522
 21
22.5995637917
 31
0.0
 11
-1.1642996466
 21
22.6004663074
 31
0.0
  0
SPLINE
  5
37B
100
AcDbEntity
  8
0
100
AcDbSpline
 62
7
  6
CONTINUOUS
 70
0
 71
3
 72
9
 73
5
 74
3
 42
0.0000001
 43
0.0000001
 44
0.0000000001
 12
-0.2511390194
 22
0.1255594153
 32
0.0
 13
-0.2771561913
 23
0.0449490765
 33
0.0
 40
0.0
 40
0.0
 40
0.0
 40
0.0
 40
0.2535684313
 40
1.0
 40
1.0
 40
1.0
 40
1.0
 10
4.9442901841
 20
19.546171392
 30
0.0
 10
4.9230632084
 20
19.5567840266
 30
0.0
 10
4.8381463548
 20
19.596063052
 30
0.0
 10
4.7475913502
 20
19.6241426101
 30
0.0
 10
4.6786319733
 20
19.6353264133
 30
0.0
 11
4.9442901841
 21
19.546171392
 31
0.0
 11
4.8796362257
 21
19.5759837768
 31
0.0
 11
4.6786319733
 21
19.6353264133
 31
0.0
  0
SPLINE
  5
37C
100
AcDbEntity
  8
RACCORDO
100
AcDbSpline
 62
7
  6
CONTINUOUS
 70
0
 71
3
 72
14
 73
10
 74
8
 42
0.0000001
 43
0.0000001
 44
0.0000000001
 12
0.0
 22
0.473258469
 32
0.0
 13
-0.4232990415
 23
0.2116400244
 33
0.0
 40
0.0
 40
0.0
 40
0.0
 40
0.0
 40
0.2891515188
 40
0.4227190443
 40
0.5489646044
 40
0.6685092765
 40
0.7824372297
 40
0.8922922112
 40
1.0
 40
1.0
 40
1.0
 40
1.0
 10
-2.3121266079
 20
23.5757916087
 30
0.0
 10
-2.3121266079
 20
23.6214060771
 30
0.0
 10
-2.3178173243
 20
23.6884518644
 30
0.0
 10
-2.3395675396
 20
23.7724445767
 30
0.0
 10
-2.3616566353
 20
23.8282532369
 30
0.0
 10
-2.389714699
 20
23.8778069378
 30
0.0
 10
-2.4234590768
 20
23.9204757865
 30
0.0
 10
-2.4624898631
 20
23.9556544673
 30
0.0
 10
-2.4918514914
 20
23.9738497646
 30
0.0
 10
-2.507049026
 20
23.9814481909
 30
0.0
 11
-2.3121266079
 21
23.5757916087
 31
0.0
 11
-2.3250856034
 21
23.712020027
 31
0.0
 11
-2.3411353165
 21
23.7731605122
 31
0.0
 11
-2.3633289345
 21
23.8286323167
 31
0.0
 11
-2.3913945225
 21
23.8777557652
 31
0.0
 11
-2.4249879138
 21
23.9199288219
 31
0.0
 11
-2.463697524
 21
23.9546348073
 31
0.0
 11
-2.507049026
 21
23.9814481909
 31
0.0
  0
SPLINE
  5
37D
100
AcDbEntity
  8
RACCORDO
100
AcDbSpline
 62
7
  6
CONTINUOUS
 70
0
 71
3
 72
13
 73
9
 74
7
 42
0.0000001
 43
0.0000001
 44
0.0000000001
 12
0.3114379145
 22
0.1557189572
 32
0.0
 13
0.3114407092
 23
-0.1557133677
 33
0.0
 40
0.0
 40
0.0
 40
0.0
 40
0.0
 40
0.2789440509
 40
0.5347829202
 40
0.6555551908
 40
0.7725785266
 40
0.8869690197
 40
1.0
 40
1.0
 40
1.0
 40
1.0
 10
5.925667393
 20
19.5760835752
 30
0.0
 10
5.9546253108
 20
19.5905625341
 30
0.0
 10
6.0125132599
 20
19.6139776965
 30
0.0
 10
6.0879412788
 20
19.6281300012
 30
0.0
 10
6.1453673144
 20
19.6284525667
 30
0.0
 10
6.1860643488
 20
19.6235108307
 30
0.0
 10
6.2248678098
 20
19.6134112691
 30
0.0
 10
6.2493409112
 20
19.6032529591
 30
0.0
 10
6.2610750607
 20
19.5973861476
 30
0.0
 11
5.925667393
 21
19.5760835752
 31
0.0
 11
6.0160057275
 21
19.6117598506
 31
0.0
 11
6.1037033133
 21
19.6274074664
 31
0.0
 11
6.1457557411
 21
19.6275542625
 31
0.0
 11
6.1861969507
 21
19.6225690852
 31
0.0
 11
6.2247307557
 21
19.6124884382
 31
0.0
 11
6.2610750607
 21
19.5973861476
 31
0.0
  0
SPLINE
  5
37E
100
AcDbEntity
  8
RACCORDO
100
AcDbSpline
 62
7
  6
CONTINUOUS
 70
0
 71
3
 72
12
 73
8
 74
6
 42
0.0000001
 43
0.0000001
 44
0.0000000001
 12
-0.107722197
 22
0.0538610985
 32
0.0
 13
0.0000000791
 23
0.1204370776
 33
0.0
 40
0.0
 40
0.0
 40
0.0
 40
0.0
 40
0.3022918211
 40
0.5649554651
 40
0.7926872651
 40
0.8977790292
 40
1.0
 40
1.0
 40
1.0
 40
1.0
 10
-18.0971631053
 20
16.5967539738
 30
0.0
 10
-18.1080176184
 20
16.6021812304
 30
0.0
 10
-18.1276351436
 20
16.6138306744
 30
0.0
 10
-18.1514511848
 20
16.6353149669
 30
0.0
 10
-18.1644993395
 20
16.6558798554
 30
0.0
 10
-18.1695545961
 20
16.6726944931
 30
0.0
 10
-18.1703862882
 20
16.6810392601
 30
0.0
 10
-18.1703862855
 20
16.6851429918
 30
0.0
 11
-18.0971631053
 21
16.5967539738
 31
0.0
 11
-18.128254321
 21
16.6156964237
 31
0.0
 11
-18.1513565009
 21
16.6373072354
 31
0.0
 11
-18.1655829142
 21
16.6607565174
 31
0.0
 11
-18.1691826333
 21
16.672890778
 31
0.0
 11
-18.1703862855
 21
16.6851429918
 31
0.0
  0
SPLINE
  5
37F
100
AcDbEntity
  8
RACCORDO
100
AcDbSpline
 62
7
  6
CONTINUOUS
 70
0
 71
3
 72
15
 73
11
 74
9
 42
0.0000001
 43
0.0000001
 44
0.0000000001
 12
-0.3245924067
 22
-0.1567276218
 32
0.0
 13
-0.3223957542
 23
0.1611978771
 33
0.0
 40
0.0
 40
0.0
 40
0.0
 40
0.0
 40
0.1133111045
 40
0.2366974105
 40
0.3671788552
 40
0.5012449143
 40
0.6351405769
 40
0.7651222104
 40
0.887714495
 40
1.0
 40
1.0
 40
1.0
 40
1.0
 10
-0.7430485149
 20
8.0933881952
 30
0.0
 10
-0.7553084896
 20
8.0874685352
 30
0.0
 10
-0.7819115044
 20
8.0771178163
 30
0.0
 10
-0.8247533178
 20
8.066239519
 30
0.0
 10
-0.8709763544
 20
8.0596288702
 30
0.0
 10
-0.9188775544
 20
8.0575373398
 30
0.0
 10
-0.9666990927
 20
8.0600406784
 30
0.0
 10
-1.0126867467
 20
8.0670478495
 30
0.0
 10
-1.0551470497
 20
8.0782926049
 30
0.0
 10
-1.0814230128
 20
8.0888839276
 30
0.0
 10
-1.0934898029
 20
8.0949173226
 30
0.0
 11
-0.7430485149
 21
8.0933881952
 31
0.0
 11
-0.7810116071
 21
8.0783234079
 31
0.0
 11
-0.8240738045
 21
8.0672044959
 31
0.0
 11
-0.8706180412
 21
8.0604488105
 31
0.0
 11
-0.9188947403
 21
8.0583104949
 31
0.0
 11
-0.9670894492
 21
8.0608697571
 31
0.0
 11
-1.013390791
 21
8.068030568
 31
0.0
 11
-1.0560583262
 21
8.079523556
 31
0.0
 11
-1.0934898029
 21
8.0949173226
 31
0.0
  0
SPLINE
  5
380
100
AcDbEntity
  8
RACCORDO
100
AcDbSpline
 62
253
  6
CONTINUOUS
 70
0
 71
3
 72
12
 73
8
 74
6
 42
0.0000001
 43
0.0000001
 44
0.0000000001
 12
0.0038773868
 22
-0.1204523235
 32
0.0
 13
0.107756466
 23
-0.0539661043
 33
0.0
 40
0.0
 40
0.0
 40
0.0
 40
0.0
 40
0.104792993
 40
0.2120765587
 40
0.4419820695
 40
0.702996124
 40
1.0
 40
1.0
 40
1.0
 40
1.0
 10
-20.7196232569
 20
-15.4345875342
 30
0.0
 10
-20.7194878159
 20
-15.438795054
 30
0.0
 10
-20.7184199528
 20
-15.4473045818
 30
0.0
 10
-20.713059849
 20
-15.4643178735
 30
0.0
 10
-20.6999898564
 20
-15.4849801083
 30
0.0
 10
-20.6764195266
 20
-15.5064854896
 30
0.0
 10
-20.6570600145
 20
-15.5180593758
 30
0.0
 10
-20.6463919851
 20
-15.5234020899
 30
0.0
 11
-20.7196232569
 21
-15.4345875342
 31
0.0
 11
-20.7180652536
 21
-15.4471201609
 31
0.0
 11
-20.714215105
 21
-15.4594628436
 31
0.0
 11
-20.6998011138
 21
-15.4831253569
 31
0.0
 11
-20.6769126936
 21
-15.5047031768
 31
0.0
 11
-20.6463919851
 21
-15.5234020899
 31
0.0
  0
SPLINE
  5
381
100
AcDbEntity
  8
RACCORDO
100
AcDbSpline
 62
253
  6
CONTINUOUS
 70
0
 71
3
 72
25
 73
21
 74
19
 42
0.0000001
 43
0.0000001
 44
0.0000000001
 12
0.0003010741
 22
-1.8596690413
 32
0.0
 13
1.6643999846
 23
0.829543082
 33
0.0
 40
0.0
 40
0.0
 40
0.0
 40
0.0
 40
0.019270199
 40
0.0388112348
 40
0.0588979941
 40
0.0797727905
 40
0.1245797823
 40
0.174379487
 40
0.2295883381
 40
0.2901149582
 40
0.3554917947
 40
0.4249768271
 40
0.4976305865
 40
0.5723775072
 40
0.6480584456
 40
0.7234784332
 40
0.7974525537
 40
0.8688523669
 40
0.9366550984
 40
1.0
 40
1.0
 40
1.0
 40
1.0
 10
1.3652285585
 20
14.4956027752
 30
0.0
 10
1.3652304924
 20
14.4836573777
 30
0.0
 10
1.3669797158
 20
14.4595636936
 30
0.0
 10
1.3748089299
 20
14.4237865255
 30
0.0
 10
1.3877858261
 20
14.3884779722
 30
0.0
 10
1.4123906724
 20
14.3412070482
 30
0.0
 10
1.4566151822
 20
14.2841454617
 30
0.0
 10
1.5266480235
 20
14.2225231395
 30
0.0
 10
1.6133604868
 20
14.1670403115
 30
0.0
 10
1.714974784
 20
14.1187323151
 30
0.0
 10
1.829431614
 20
14.0785198108
 30
0.0
 10
1.9543719504
 20
14.0472244271
 30
0.0
 10
2.0871953718
 20
14.0254968258
 30
0.0
 10
2.2251180592
 20
14.0137956824
 30
0.0
 10
2.3652389036
 20
14.012369071
 30
0.0
 10
2.5046071177
 20
14.021247591
 30
0.0
 10
2.6402869416
 20
14.0402417851
 30
0.0
 10
2.7694354052
 20
14.0689521265
 30
0.0
 10
2.8893319215
 20
14.1067653624
 30
0.0
 10
2.9642780441
 20
14.1387351071
 30
0.0
 10
2.9994217952
 20
14.1562508821
 30
0.0
 11
1.3652285585
 21
14.4956027752
 31
0.0
 11
1.3678081257
 21
14.4598595443
 31
0.0
 11
1.3755222644
 21
14.4243478915
 31
0.0
 11
1.3883298568
 21
14.3892574221
 31
0.0
 11
1.4061625729
 21
14.3547754966
 31
0.0
 11
1.4564964367
 21
14.288369519
 31
0.0
 11
1.5254507787
 21
14.2265464607
 31
0.0
 11
1.6115552553
 21
14.1706251987
 31
0.0
 11
1.7129732404
 21
14.1217986739
 31
0.0
 11
1.8275412065
 21
14.0811083486
 31
0.0
 11
1.9528152023
 21
14.0494220952
 31
0.0
 11
2.0861229556
 21
14.0274156948
 31
0.0
 11
2.22462083
 21
14.015558215
 31
0.0
 11
2.3653547976
 21
14.0141021303
 31
0.0
 11
2.5053235001
 21
14.0230781525
 31
0.0
 11
2.641542123
 21
14.0422945984
 31
0.0
 11
2.7711061
 21
14.0713412958
 31
0.0
 11
2.8912528343
 21
14.1095984821
 31
0.0
 11
2.9994217952
 21
14.1562508821
 31
0.0
  0
SPLINE
  5
382
100
AcDbEntity
  8
RACCORDO
100
AcDbSpline
 62
253
  6
CONTINUOUS
 70
0
 71
3
 72
14
 73
10
 74
8
 42
0.0000001
 43
0.0000001
 44
0.0000000001
 12
-0.5312060692
 22
0.2656055341
 32
0.0
 13
-0.0191984018
 23
0.5935971774
 33
0.0
 40
0.0
 40
0.0
 40
0.0
 40
0.0
 40
0.1079587533
 40
0.2180860626
 40
0.3322181049
 40
0.4518395624
 40
0.5780152908
 40
0.7113846618
 40
1.0
 40
1.0
 40
1.0
 40
1.0
 10
-20.3904443144
 20
-16.028691105
 30
0.0
 10
-20.4095604294
 20
-16.0191329576
 30
0.0
 10
-20.4465465116
 20
-15.9963603728
 30
0.0
 10
-20.4960105565
 20
-15.9525682711
 30
0.0
 10
-20.5391805707
 20
-15.8995653023
 30
0.0
 10
-20.5755861318
 20
-15.8380385628
 30
0.0
 10
-20.6048885338
 20
-15.7687033844
 30
0.0
 10
-20.6348842372
 20
-15.6642110448
 30
0.0
 10
-20.6445450007
 20
-15.5805091732
 30
0.0
 10
-20.6463919852
 20
-15.5234020899
 30
0.0
 11
-20.3904443144
 21
-16.028691105
 31
0.0
 11
-20.4450722774
 21
-15.9951226381
 31
0.0
 11
-20.4941513766
 21
-15.9518893895
 31
0.0
 11
-20.537132216
 21
-15.8994746762
 31
0.0
 11
-20.5735338483
 21
-15.8384649755
 31
0.0
 11
-20.6029487611
 21
-15.7695427387
 31
0.0
 11
-20.6250475101
 21
-15.6934787969
 31
0.0
 11
-20.6463919852
 21
-15.5234020899
 31
0.0
  0
SPLINE
  5
383
100
AcDbEntity
  8
RACCORDO
100
AcDbSpline
 62
7
  6
CONTINUOUS
 70
0
 71
3
 72
13
 73
9
 74
7
 42
0.0000001
 43
0.0000001
 44
0.0000000001
 12
-0.3114407092
 22
0.1557133677
 32
0.0
 13
-0.3114379145
 23
-0.1557189572
 33
0.0
 40
0.0
 40
0.0
 40
0.0
 40
0.0
 40
0.1130309803
 40
0.2274214734
 40
0.3444448092
 40
0.4652170798
 40
0.7210559491
 40
1.0
 40
1.0
 40
1.0
 40
1.0
 10
7.5338672669
 20
18.9609900445
 30
0.0
 10
7.5221331173
 20
18.966856856
 30
0.0
 10
7.497660016
 20
18.9770151661
 30
0.0
 10
7.4588565549
 20
18.9871147277
 30
0.0
 10
7.4181595205
 20
18.9920564636
 30
0.0
 10
7.3607334849
 20
18.9917338982
 30
0.0
 10
7.2853054661
 20
18.9775815935
 30
0.0
 10
7.2274175169
 20
18.9541664311
 30
0.0
 10
7.1984595991
 20
18.9396874722
 30
0.0
 11
7.5338672669
 21
18.9609900445
 31
0.0
 11
7.4975229618
 21
18.9760923351
 31
0.0
 11
7.4589891568
 21
18.9861729821
 31
0.0
 11
7.4185479473
 21
18.9911581594
 31
0.0
 11
7.3764955194
 21
18.9910113633
 31
0.0
 11
7.2887979336
 21
18.9753637475
 31
0.0
 11
7.1984595991
 21
18.9396874722
 31
0.0
  0
LINE
  5
384
100
AcDbEntity
  8
RACCORDO
100
AcDbLine
 62
253
  6
CONTINUOUS
 10
1.3652285552
 20
-26.5636842588
 11
1.3652288091
 21
-26.564026467
  0
SPLINE
  5
385
100
AcDbEntity
  8
RACCORDO
100
AcDbSpline
 62
253
  6
CONTINUOUS
 70
0
 71
3
 72
25
 73
21
 74
19
 42
0.0000001
 43
0.0000001
 44
0.0000000001
 12
0.002730474
 22
-1.8516496478
 32
0.0
 13
1.6775427204
 23
0.7838777296
 33
0.0
 40
0.0
 40
0.0
 40
0.0
 40
0.0
 40
0.01877146
 40
0.0378753601
 40
0.0575966875
 40
0.0781824188
 40
0.1226378969
 40
0.1723524282
 40
0.2276851776
 40
0.2884861293
 40
0.3542340215
 40
0.4241389722
 40
0.4972188901
 40
0.5723600542
 40
0.6483690512
 40
0.7240201642
 40
0.7981010659
 40
0.8694592227
 40
0.9370512749
 40
1.0
 40
1.0
 40
1.0
 40
1.0
 10
1.3652288091
 20
-26.564026467
 30
0.0
 10
1.3652458941
 20
-26.5756125228
 30
0.0
 10
1.3670336598
 20
-26.5990230325
 30
0.0
 10
1.3749172577
 20
-26.6338057914
 30
0.0
 10
1.3879438779
 20
-26.6682042916
 30
0.0
 10
1.4126606089
 20
-26.7144546068
 30
0.0
 10
1.4570257043
 20
-26.7704256075
 30
0.0
 10
1.5270634103
 20
-26.8311041464
 30
0.0
 10
1.6137549852
 20
-26.8861208413
 30
0.0
 10
1.7153358154
 20
-26.9344401185
 30
0.0
 10
1.8297524979
 20
-26.9751327709
 30
0.0
 10
1.9546468441
 20
-27.007361682
 30
0.0
 10
2.0874187286
 20
-27.0304537612
 30
0.0
 10
2.2252847146
 20
-27.0439202532
 30
0.0
 10
2.3653445441
 20
-27.0474754137
 30
0.0
 10
2.5046487241
 20
-27.0410438821
 30
0.0
 10
2.6402631967
 20
-27.0247640331
 30
0.0
 10
2.7693472283
 20
-26.998979553
 30
0.0
 10
2.8891833087
 20
-26.9642429854
 30
0.0
 10
2.9642220701
 20
-26.93441614
 30
0.0
 10
2.9994217952
 20
-26.9179681054
 30
0.0
 11
1.3652288091
 21
-26.564026467
 31
0.0
 11
1.3678522424
 21
-26.5986855267
 31
0.0
 11
1.3756071888
 21
-26.6331987747
 31
0.0
 11
1.3884523381
 21
-26.6673820384
 31
0.0
 11
1.4063191966
 21
-26.7010529023
 31
0.0
 11
1.4567106115
 21
-26.7661423716
 31
0.0
 11
1.5257077126
 21
-26.8270795355
 31
0.0
 11
1.6118400513
 21
-26.8825651409
 31
0.0
 11
1.7132714217
 21
-26.9314161909
 31
0.0
 11
1.8278391953
 21
-26.9725912687
 31
0.0
 11
1.9531007648
 21
-27.0052126411
 31
0.0
 11
2.0863855919
 21
-27.0285849579
 31
0.0
 11
2.2248520922
 21
-27.0422102743
 31
0.0
 11
2.3655485279
 21
-27.045798557
 31
0.0
 11
2.5054759894
 21
-27.0392736538
 31
0.0
 11
2.6416521811
 21
-27.0227748919
 31
0.0
 11
2.771175035
 21
-26.9966542868
 31
0.0
 11
2.8912843471
 21
-26.9614688955
 31
0.0
 11
2.9994217952
 21
-26.9179681054
 31
0.0
  0
SPLINE
  5
386
100
AcDbEntity
  8
0
100
AcDbSpline
 62
253
  6
CONTINUOUS
 70
0
 71
3
 72
11
 73
7
 74
5
 42
0.0000001
 43
0.0000001
 44
0.0000000001
 12
0.1055510121
 22
0.0569417599
 32
0.0
 13
0.1080154741
 23
-0.052115617
 33
0.0
 40
0.0
 40
0.0
 40
0.0
 40
0.0
 40
0.2263403237
 40
0.4635482612
 40
0.7199136686
 40
1.0
 40
1.0
 40
1.0
 40
1.0
 10
-12.0901148018
 20
20.4082148649
 30
0.0
 10
-12.0821513184
 20
20.412510937
 30
0.0
 10
-12.0644559352
 20
20.4189442698
 30
0.0
 10
-12.0354400288
 20
20.4210131578
 30
0.0
 10
-12.0047080756
 20
20.4157840482
 30
0.0
 10
-11.984580066
 20
20.4079903067
 30
0.0
 10
-11.9744955134
 20
20.4031246827
 30
0.0
 11
-12.0901148018
 21
20.4082148649
 31
0.0
 11
-12.0646352884
 21
20.4175772434
 31
0.0
 11
-12.0362784985
 21
20.4198599673
 31
0.0
 11
-12.0059201394
 21
20.4149925117
 31
0.0
 11
-11.9744955134
 21
20.4031246827
 31
0.0
  0
SPLINE
  5
387
100
AcDbEntity
  8
RACCORDO
100
AcDbSpline
 62
7
  6
CONTINUOUS
 70
0
 71
3
 72
11
 73
7
 74
5
 42
0.0000001
 43
0.0000001
 44
0.0000000001
 12
-0.2567266215
 22
0.1283721651
 32
0.0
 13
-0.1455775195
 23
0.2473765485
 33
0.0
 40
0.0
 40
0.0
 40
0.0
 40
0.0
 40
0.2435276834
 40
0.4935816768
 40
0.7465848734
 40
1.0
 40
1.0
 40
1.0
 40
1.0
 10
-14.9271576993
 20
-8.4647023993
 30
0.0
 10
-14.9479977124
 20
-8.454281674
 30
0.0
 10
-14.9879607445
 20
-8.4285003977
 30
0.0
 10
-15.0412439248
 20
-8.3806114559
 30
0.0
 10
-15.0884118814
 20
-8.3254742963
 30
0.0
 10
-15.1154213315
 20
-8.2850962311
 30
0.0
 10
-15.1277185133
 20
-8.2641999113
 30
0.0
 11
-14.9271576993
 21
-8.4647023993
 31
0.0
 11
-14.9862793229
 21
-8.4274101401
 31
0.0
 11
-15.0399127208
 21
-8.3797139007
 31
0.0
 11
-15.0872463008
 21
-8.3246390689
 31
0.0
 11
-15.1277185133
 21
-8.2641999113
 31
0.0
  0
SPLINE
  5
388
100
AcDbEntity
  8
RACCORDO
100
AcDbSpline
 62
7
  6
CONTINUOUS
 70
0
 71
3
 72
16
 73
12
 74
10
 42
0.0000001
 43
0.0000001
 44
0.0000000001
 12
-0.0009450754
 22
0.0963374156
 32
0.0
 13
0.0779050722
 23
0.056679719
 33
0.0
 40
0.0
 40
0.0
 40
0.0
 40
0.0
 40
0.0171205275
 40
0.0404691584
 40
0.1073162625
 40
0.2004155645
 40
0.3179631377
 40
0.4581596665
 40
0.6194239125
 40
0.8004132049
 40
1.0
 40
1.0
 40
1.0
 40
1.0
 10
-9.7507806834
 20
-11.0516630966
 30
0.0
 10
-9.7507860768
 20
-11.0511133141
 30
0.0
 10
-9.7504391302
 20
-11.0498239238
 30
0.0
 10
-9.7487938154
 20
-11.0467918564
 30
0.0
 10
-9.7450157955
 20
-11.0422223394
 30
0.0
 10
-9.7387433993
 20
-11.0359021555
 30
0.0
 10
-9.7303536565
 20
-11.0283679844
 30
0.0
 10
-9.7200281918
 20
-11.0197396455
 30
0.0
 10
-9.7078850072
 20
-11.0101142065
 30
0.0
 10
-9.6940403381
 20
-10.9995724043
 30
0.0
 10
-9.6842017809
 20
-10.9923205893
 30
0.0
 10
-9.6790188397
 20
-10.9885497481
 30
0.0
 11
-9.7507806834
 21
-11.0516630966
 31
0.0
 11
-9.7504435747
 21
-11.0500484863
 31
0.0
 11
-9.7494287959
 21
-11.0480409327
 31
0.0
 11
-9.7455012448
 21
-11.0429369781
 31
0.0
 11
-9.7392421454
 21
-11.0365125394
 31
0.0
 11
-9.7308561519
 21
-11.0289016508
 31
0.0
 11
-9.7205129823
 21
-11.0202152787
 31
0.0
 11
-9.7083525047
 21
-11.010545403
 31
0.0
 11
-9.6944896574
 21
-10.9999687195
 31
0.0
 11
-9.6790188397
 21
-10.9885497481
 31
0.0
  0
SPLINE
  5
389
100
AcDbEntity
  8
RACCORDO
100
AcDbSpline
 62
253
  6
CONTINUOUS
 70
0
 71
3
 72
36
 73
32
 74
30
 42
0.0000001
 43
0.0000001
 44
0.0000000001
 12
-5.4211871604
 22
-2.7846718005
 32
0.0
 13
4.3029854984
 23
4.3160147203
 33
0.0
 40
0.0
 40
0.0
 40
0.0
 40
0.0
 40
0.0226531646
 40
0.0456809936
 40
0.0693969877
 40
0.0940661237
 40
0.1068304974
 40
0.1199047002
 40
0.1470321136
 40
0.1755407481
 40
0.2054565731
 40
0.2367571721
 40
0.2693786513
 40
0.3032221701
 40
0.3381597897
 40
0.3740398652
 40
0.4106917875
 40
0.4855305545
 40
0.5611235987
 40
0.6358398141
 40
0.7081184699
 40
0.742923156
 40
0.7766279483
 40
0.8091131866
 40
0.8402887818
 40
0.8700998813
 40
0.8985329175
 40
0.9256220368
 40
0.9514552245
 40
0.9761788781
 40
1.0
 40
1.0
 40
1.0
 40
1.0
 10
-11.0082232054
 20
-15.6660396631
 30
0.0
 10
-11.049158887
 20
-15.6870668727
 30
0.0
 10
-11.1351496597
 20
-15.7231026062
 30
0.0
 10
-11.27243187
 20
-15.7573158569
 30
0.0
 10
-11.4172727925
 20
-15.7717050965
 30
0.0
 10
-11.5417869139
 20
-15.7671884701
 30
0.0
 10
-11.643602653
 20
-15.7540808085
 30
0.0
 10
-11.7493829683
 20
-15.734061603
 30
0.0
 10
-11.8841088427
 20
-15.6964376552
 30
0.0
 10
-12.0461427776
 20
-15.6328610388
 30
0.0
 10
-12.2092055755
 20
-15.5508730824
 30
0.0
 10
-12.3719352751
 20
-15.4511855755
 30
0.0
 10
-12.532984452
 20
-15.3346446735
 30
0.0
 10
-12.6910045828
 20
-15.2022329374
 30
0.0
 10
-12.8446650853
 20
-15.0550655127
 30
0.0
 10
-12.9926725884
 20
-14.8943736152
 30
0.0
 10
-13.1820691085
 20
-14.6623201435
 30
0.0
 10
-13.3964619134
 20
-14.3474337156
 30
0.0
 10
-13.6111946619
 20
-13.94255806
 30
0.0
 10
-13.7780369338
 20
-13.5212743354
 30
0.0
 10
-13.8737020902
 20
-13.1635087194
 30
0.0
 10
-13.9206786048
 20
-12.8811963717
 30
0.0
 10
-13.9406063733
 20
-12.676820756
 30
0.0
 10
-13.94549827
 20
-12.478895422
 30
0.0
 10
-13.9352982566
 20
-12.2890674539
 30
0.0
 10
-13.9100745358
 20
-12.1089252959
 30
0.0
 10
-13.8700106294
 20
-11.939974994
 30
0.0
 10
-13.8154059236
 20
-11.7836407613
 30
0.0
 10
-13.746658523
 20
-11.6412482843
 30
0.0
 10
-13.6643177112
 20
-11.5140745
 30
0.0
 10
-13.599751308
 20
-11.4390186192
 30
0.0
 10
-13.565583994
 20
-11.4047478483
 30
0.0
 11
-11.0082232054
 21
-15.6660396631
 31
0.0
 11
-11.1355205335
 21
-15.7194835817
 31
0.0
 11
-11.2716377574
 21
-15.7536695293
 31
0.0
 11
-11.4154327068
 21
-15.7683122015
 31
0.0
 11
-11.5656963736
 21
-15.7632909026
 31
0.0
 11
-11.6428601139
 21
-15.7534143387
 31
0.0
 11
-11.7211622136
 21
-15.7386520283
 31
0.0
 11
-11.8805170316
 21
-15.694607292
 31
0.0
 11
-12.0424116655
 21
-15.6315330907
 31
0.0
 11
-12.2054725471
 21
-15.5499664403
 31
0.0
 11
-12.3683133908
 21
-15.4506007927
 31
0.0
 11
-12.5295471367
 21
-15.3342800388
 31
0.0
 11
-12.6877979801
 21
-15.2019908708
 31
0.0
 11
-12.8417134578
 21
-15.0548549813
 31
0.0
 11
-12.9899760931
 21
-14.8941185554
 31
0.0
 11
-13.1313153033
 21
-14.7211426289
 31
0.0
 11
-13.3884403915
 21
-14.3444166473
 31
0.0
 11
-13.6042684805
 21
-13.9373925653
 31
0.0
 11
-13.7713819352
 21
-13.5138030322
 31
0.0
 11
-13.8840278298
 21
-13.0879427257
 31
0.0
 11
-13.9186346441
 21
-12.8786655157
 31
0.0
 11
-13.93832282
 21
-12.6741953087
 31
0.0
 11
-13.9429222912
 21
-12.4762654936
 31
0.0
 11
-13.9323929958
 21
-12.2865559184
 31
0.0
 11
-13.9068261583
 21
-12.1066782506
 31
0.0
 11
-13.8664429517
 21
-11.9381625781
 31
0.0
 11
-13.8115927509
 21
-11.7824441284
 31
0.0
 11
-13.7427501731
 21
-11.6408508402
 31
0.0
 11
-13.6605108818
 21
-11.514592765
 31
0.0
 11
-13.565583994
 21
-11.4047478483
 31
0.0
  0
SPLINE
  5
38A
100
AcDbEntity
  8
RACCORDO
100
AcDbSpline
 62
7
  6
CONTINUOUS
 70
0
 71
3
 72
13
 73
9
 74
7
 42
0.0000001
 43
0.0000001
 44
0.0000000001
 12
-0.3114407092
 22
0.1557133677
 32
0.0
 13
-0.3114379145
 23
-0.1557189572
 33
0.0
 40
0.0
 40
0.0
 40
0.0
 40
0.0
 40
0.1130309803
 40
0.2274214734
 40
0.3444448092
 40
0.4652170798
 40
0.7210559491
 40
1.0
 40
1.0
 40
1.0
 40
1.0
 10
-2.507049026
 20
23.9814481909
 30
0.0
 10
-2.5187831755
 20
23.9873150025
 30
0.0
 10
-2.5432562769
 20
23.9974733125
 30
0.0
 10
-2.5820597379
 20
24.0075728741
 30
0.0
 10
-2.6227567723
 20
24.0125146101
 30
0.0
 10
-2.6801828079
 20
24.0121920446
 30
0.0
 10
-2.7556108268
 20
23.9980397399
 30
0.0
 10
-2.8134987759
 20
23.9746245775
 30
0.0
 10
-2.8424566938
 20
23.9601456186
 30
0.0
 11
-2.507049026
 21
23.9814481909
 31
0.0
 11
-2.543393331
 21
23.9965504816
 31
0.0
 11
-2.581927136
 21
24.0066311285
 31
0.0
 11
-2.6223683456
 21
24.0116163058
 31
0.0
 11
-2.6644207734
 21
24.0114695097
 31
0.0
 11
-2.7521183593
 21
23.9958218939
 31
0.0
 11
-2.8424566938
 21
23.9601456186
 31
0.0
  0
SPLINE
  5
38B
100
AcDbEntity
  8
0
100
AcDbSpline
 62
253
  6
CONTINUOUS
 70
0
 71
3
 72
29
 73
25
 74
23
 42
0.0000001
 43
0.0000001
 44
0.0000000001
 12
-1.2780509808
 22
-0.6439409799
 32
0.0
 13
1.2594865117
 23
0.6795351514
 33
0.0
 40
0.0
 40
0.0
 40
0.0
 40
0.0
 40
0.0683497165
 40
0.1425819719
 40
0.2209283653
 40
0.3013114208
 40
0.381511431
 40
0.4593205891
 40
0.532698437
 40
0.5999438079
 40
0.6599074758
 40
0.6870606292
 40
0.7123757834
 40
0.7360166291
 40
0.7582533515
 40
0.7794671115
 40
0.8001362548
 40
0.8207977219
 40
0.8419892491
 40
0.8641912863
 40
0.887787801
 40
0.9130518342
 40
0.9401499821
 40
1.0
 40
1.0
 40
1.0
 40
1.0
 10
-1.0925372923
 20
14.9621455721
 30
0.0
 10
-1.121655433
 20
14.947474511
 30
0.0
 10
-1.184864147
 20
14.9216637055
 30
0.0
 10
-1.2868085848
 20
14.8941197375
 30
0.0
 10
-1.3968000264
 20
14.8768657028
 30
0.0
 10
-1.5107862853
 20
14.8705541687
 30
0.0
 10
-1.6245913045
 20
14.8754169082
 30
0.0
 10
-1.7340290664
 20
14.8912717556
 30
0.0
 10
-1.8351204941
 20
14.9175399699
 30
0.0
 10
-1.9241916749
 20
14.9532619751
 30
0.0
 10
-1.9878640831
 20
14.9911327744
 30
0.0
 10
-2.0292238855
 20
15.0254369613
 30
0.0
 10
-2.0543381239
 20
15.0517890572
 30
0.0
 10
-2.0743267089
 20
15.0793898616
 30
0.0
 10
-2.0889648623
 20
15.1080114884
 30
0.0
 10
-2.09805438
 20
15.1373911593
 30
0.0
 10
-2.101444556
 20
15.1672162425
 30
0.0
 10
-2.099073047
 20
15.197129132
 30
0.0
 10
-2.0909894708
 20
15.226769935
 30
0.0
 10
-2.0773338796
 20
15.2558206237
 30
0.0
 10
-2.0582968262
 20
15.2840115243
 30
0.0
 10
-2.0340933935
 20
15.3111094216
 30
0.0
 10
-1.9939363122
 20
15.3466412813
 30
0.0
 10
-1.958705984
 20
15.3691098059
 30
0.0
 10
-1.9335792205
 20
15.3826665363
 30
0.0
 11
-1.0925372923
 21
14.9621455721
 31
0.0
 11
-1.1828500857
 21
14.924574909
 31
0.0
 11
-1.2852968669
 21
14.8964604566
 31
0.0
 11
-1.3960289544
 21
14.8788591183
 31
0.0
 11
-1.5108862799
 21
14.8724330023
 31
0.0
 11
-1.625552679
 21
14.877424602
 31
0.0
 11
-1.7357180648
 21
14.8936471938
 31
0.0
 11
-1.8372406611
 21
14.920491679
 31
0.0
 11
-1.9263030568
 21
14.956949306
 31
0.0
 11
-1.9995562792
 21
15.0016494881
 31
0.0
 11
-2.029367605
 21
15.0265757234
 31
0.0
 11
-2.0542464332
 21
15.0529113783
 31
0.0
 11
-2.0739585209
 21
15.0804083052
 31
0.0
 11
-2.0883183431
 21
15.1088074345
 31
0.0
 11
-2.0971908292
 21
15.1378412215
 31
0.0
 11
-2.100492619
 21
15.1672361724
 31
0.0
 11
-2.0981928418
 21
15.1967154227
 31
0.0
 11
-2.0903134179
 21
15.2260013506
 31
0.0
 11
-2.0769288046
 21
15.2548181917
 31
0.0
 11
-2.0581652356
 21
15.2828946415
 31
0.0
 11
-2.0341996437
 21
15.3099663536
 31
0.0
 11
-2.0052574987
 21
15.3357786163
 31
0.0
 11
-1.9335792205
 21
15.3826665363
 31
0.0
  0
SPLINE
  5
38C
100
AcDbEntity
  8
RACCORDO
100
AcDbSpline
 62
7
  6
CONTINUOUS
 70
0
 71
3
 72
11
 73
7
 74
5
 42
0.0000001
 43
0.0000001
 44
0.0000000001
 12
-0.2641582338
 22
0.1321308813
 32
0.0
 13
-0.145505818
 23
0.2570334593
 33
0.0
 40
0.0
 40
0.0
 40
0.0
 40
0.0
 40
0.2429245545
 40
0.4931165998
 40
0.7464323642
 40
1.0
 40
1.0
 40
1.0
 40
1.0
 10
-15.4596669539
 20
2.829415515
 30
0.0
 10
-15.4810571277
 20
2.8401147935
 30
0.0
 10
-15.5219961567
 20
2.8669017584
 30
0.0
 10
-15.576245188
 20
2.9168069984
 30
0.0
 10
-15.6240152994
 20
2.9742772775
 30
0.0
 10
-15.6511714954
 20
3.0163048031
 30
0.0
 10
-15.6634700174
 20
3.0380299253
 30
0.0
 11
-15.4596669539
 21
2.829415515
 31
0.0
 11
-15.5201550052
 21
2.8680072563
 31
0.0
 11
-15.5748272352
 21
2.9177235636
 31
0.0
 11
-15.622793795
 21
2.9751446636
 31
0.0
 11
-15.6634700174
 21
3.0380299253
 31
0.0
  0
SPLINE
  5
38D
100
AcDbEntity
  8
RACCORDO
100
AcDbSpline
 62
253
  6
CONTINUOUS
 70
0
 71
3
 72
12
 73
8
 74
6
 42
0.0000001
 43
0.0000001
 44
0.0000000001
 12
-0.144461951
 22
0.0722306193
 32
0.0
 13
0.0023892856
 23
0.1614955385
 33
0.0
 40
0.0
 40
0.0
 40
0.0
 40
0.0
 40
0.1073754785
 40
0.216978424
 40
0.4497047335
 40
0.7096849367
 40
1.0
 40
1.0
 40
1.0
 40
1.0
 10
-13.8124149419
 20
2.005789511
 30
0.0
 10
-13.8175854989
 20
2.0083747768
 30
0.0
 10
-13.8275697729
 20
2.0145902315
 30
0.0
 10
-13.845554414
 20
2.0309688793
 30
0.0
 10
-13.863358096
 20
2.058784516
 30
0.0
 10
-13.8754873774
 20
2.0995673731
 30
0.0
 10
-13.8775900065
 20
2.1293461165
 30
0.0
 10
-13.8773587913
 20
2.1449743123
 30
0.0
 11
-13.8124149419
 21
2.005789511
 31
0.0
 11
-13.8271472371
 21
2.0149395826
 31
0.0
 11
-13.8402643396
 21
2.0268271344
 31
0.0
 11
-13.8610059764
 21
2.0581747076
 31
0.0
 11
-13.8735841869
 21
2.098236768
 31
0.0
 11
-13.8773587913
 21
2.1449743123
 31
0.0
  0
SPLINE
  5
38E
100
AcDbEntity
  8
0
100
AcDbSpline
 62
253
  6
CONTINUOUS
 70
0
 71
3
 72
29
 73
25
 74
23
 42
0.0000001
 43
0.0000001
 44
0.0000000001
 12
-1.2780509808
 22
-0.6439409799
 32
0.0
 13
1.2594865117
 23
0.6795351514
 33
0.0
 40
0.0
 40
0.0
 40
0.0
 40
0.0
 40
0.0683497165
 40
0.1425819719
 40
0.2209283653
 40
0.3013114208
 40
0.381511431
 40
0.4593205891
 40
0.532698437
 40
0.5999438079
 40
0.6599074758
 40
0.6870606292
 40
0.7123757834
 40
0.7360166291
 40
0.7582533515
 40
0.7794671115
 40
0.8001362548
 40
0.8207977219
 40
0.8419892491
 40
0.8641912863
 40
0.887787801
 40
0.9130518342
 40
0.9401499821
 40
1.0
 40
1.0
 40
1.0
 40
1.0
 10
-11.1334535851
 20
19.9826037185
 30
0.0
 10
-11.1625717259
 20
19.9679326574
 30
0.0
 10
-11.2257804399
 20
19.9421218519
 30
0.0
 10
-11.3277248776
 20
19.914577884
 30
0.0
 10
-11.4377163193
 20
19.8973238492
 30
0.0
 10
-11.5517025781
 20
19.8910123151
 30
0.0
 10
-11.6655075974
 20
19.8958750546
 30
0.0
 10
-11.7749453593
 20
19.9117299021
 30
0.0
 10
-11.876036787
 20
19.9379981163
 30
0.0
 10
-11.9651079678
 20
19.9737201215
 30
0.0
 10
-12.0287803759
 20
20.0115909208
 30
0.0
 10
-12.0701401784
 20
20.0458951077
 30
0.0
 10
-12.0952544167
 20
20.0722472036
 30
0.0
 10
-12.1152430018
 20
20.099848008
 30
0.0
 10
-12.1298811551
 20
20.1284696348
 30
0.0
 10
-12.1389706729
 20
20.1578493057
 30
0.0
 10
-12.1423608488
 20
20.1876743889
 30
0.0
 10
-12.1399893398
 20
20.2175872784
 30
0.0
 10
-12.1319057637
 20
20.2472280814
 30
0.0
 10
-12.1182501724
 20
20.2762787701
 30
0.0
 10
-12.099213119
 20
20.3044696707
 30
0.0
 10
-12.0750096863
 20
20.331567568
 30
0.0
 10
-12.0348526051
 20
20.3670994277
 30
0.0
 10
-11.9996222768
 20
20.3895679524
 30
0.0
 10
-11.9744955134
 20
20.4031246827
 30
0.0
 11
-11.1334535851
 21
19.9826037185
 31
0.0
 11
-11.2237663786
 21
19.9450330554
 31
0.0
 11
-11.3262131598
 21
19.916918603
 31
0.0
 11
-11.4369452472
 21
19.8993172647
 31
0.0
 11
-11.5518025727
 21
19.8928911488
 31
0.0
 11
-11.6664689718
 21
19.8978827484
 31
0.0
 11
-11.7766343576
 21
19.9141053403
 31
0.0
 11
-11.878156954
 21
19.9409498254
 31
0.0
 11
-11.9672193496
 21
19.9774074524
 31
0.0
 11
-12.040472572
 21
20.0221076345
 31
0.0
 11
-12.0702838979
 21
20.0470338698
 31
0.0
 11
-12.0951627261
 21
20.0733695248
 31
0.0
 11
-12.1148748137
 21
20.1008664517
 31
0.0
 11
-12.129234636
 21
20.1292655809
 31
0.0
 11
-12.138107122
 21
20.1582993679
 31
0.0
 11
-12.1414089119
 21
20.1876943188
 31
0.0
 11
-12.1391091346
 21
20.2171735692
 31
0.0
 11
-12.1312297107
 21
20.246459497
 31
0.0
 11
-12.1178450974
 21
20.2752763381
 31
0.0
 11
-12.0990815284
 21
20.303352788
 31
0.0
 11
-12.0751159365
 21
20.3304245001
 31
0.0
 11
-12.0461737916
 21
20.3562367627
 31
0.0
 11
-11.9744955134
 21
20.4031246827
 31
0.0
  0
SPLINE
  5
38F
100
AcDbEntity
  8
RACCORDO
100
AcDbSpline
 62
253
  6
CONTINUOUS
 70
0
 71
3
 72
12
 73
8
 74
6
 42
0.0000001
 43
0.0000001
 44
0.0000000001
 12
-0.1444118141
 22
0.0722646755
 32
0.0
 13
0.0023888476
 23
0.1614659369
 33
0.0
 40
0.0
 40
0.0
 40
0.0
 40
0.0
 40
0.1073718304
 40
0.2169722366
 40
0.4496952979
 40
0.7096696824
 40
1.0
 40
1.0
 40
1.0
 40
1.0
 10
-10.8051112225
 20
0.5021376621
 30
0.0
 10
-10.8102798095
 20
0.5047240589
 30
0.0
 10
-10.820260094
 20
0.5109411159
 30
0.0
 10
-10.8382370293
 20
0.5273207318
 30
0.0
 10
-10.8560327589
 20
0.5551330219
 30
0.0
 10
-10.8681575289
 20
0.5959091853
 30
0.0
 10
-10.8702595418
 20
0.6256829428
 30
0.0
 10
-10.8700283569
 20
0.6413090951
 30
0.0
 11
-10.8051112225
 21
0.5021376621
 31
0.0
 11
-10.8198375993
 21
0.5112901199
 31
0.0
 11
-10.8329491291
 21
0.5231783775
 31
0.0
 11
-10.8536818162
 21
0.5545229813
 31
0.0
 11
-10.8662548563
 21
0.594577613
 31
0.0
 11
-10.8700283569
 21
0.6413090951
 31
0.0
  0
SPLINE
  5
390
100
AcDbEntity
  8
RACCORDO
100
AcDbSpline
 62
7
  6
CONTINUOUS
 70
0
 71
3
 72
31
 73
27
 74
25
 42
0.0000001
 43
0.0000001
 44
0.0000000001
 12
-4.257767956
 22
-4.1921616768
 32
0.0
 13
5.6827194391
 23
1.8464851117
 33
0.0
 40
0.0
 40
0.0
 40
0.0
 40
0.0
 40
0.0238969729
 40
0.0486534585
 40
0.0744530115
 40
0.1014263104
 40
0.1591060523
 40
0.1898951384
 40
0.2219136951
 40
0.2550832848
 40
0.2892986222
 40
0.3603052596
 40
0.4337497842
 40
0.5082332896
 40
0.5822851803
 40
0.6544643769
 40
0.7234623648
 40
0.7564429529
 40
0.7882571346
 40
0.818831507
 40
0.8481252544
 40
0.9028317572
 40
0.9284432522
 40
0.9530393323
 40
0.9768117544
 40
1.0
 40
1.0
 40
1.0
 40
1.0
 10
-13.3631176131
 20
-11.3051708037
 30
0.0
 10
-13.3970335349
 20
-11.3385641284
 30
0.0
 10
-13.461418425
 20
-11.4114436022
 30
0.0
 10
-13.5446913207
 20
-11.5345745405
 30
0.0
 10
-13.6155544775
 20
-11.6721647041
 30
0.0
 10
-13.6945036467
 20
-11.8778763579
 30
0.0
 10
-13.7437580447
 20
-12.1040438842
 30
0.0
 10
-13.7659831595
 20
-12.3431234433
 30
0.0
 10
-13.7690355732
 20
-12.5344588681
 30
0.0
 10
-13.7580840644
 20
-12.7322940983
 30
0.0
 10
-13.7245205241
 20
-13.0060537277
 30
0.0
 10
-13.6476325334
 20
-13.354473149
 30
0.0
 10
-13.505289244
 20
-13.7675646248
 30
0.0
 10
-13.3161175022
 20
-14.1681410047
 30
0.0
 10
-13.0859891582
 20
-14.5437431186
 30
0.0
 10
-12.8220611194
 20
-14.8826948849
 30
0.0
 10
-12.5769888144
 20
-15.1296450308
 30
0.0
 10
-12.3708205926
 20
-15.2987874329
 30
0.0
 10
-12.2155256576
 20
-15.4084688015
 30
0.0
 10
-12.058433566
 20
-15.5020157043
 30
0.0
 10
-11.8530782482
 20
-15.6018882154
 30
0.0
 10
-11.643969742
 20
-15.6706414786
 30
0.0
 10
-11.4368979146
 20
-15.7015933438
 30
0.0
 10
-11.2892024248
 20
-15.7056669012
 30
0.0
 10
-11.1470297268
 20
-15.690996008
 30
0.0
 10
-11.0558522806
 20
-15.6685303622
 30
0.0
 10
-11.0119281826
 20
-15.6542581121
 30
0.0
 11
-13.3631176131
 21
-11.3051708037
 31
0.0
 11
-13.4578763126
 21
-11.4119857084
 31
0.0
 11
-13.5410462304
 21
-11.534314892
 31
0.0
 11
-13.6119686842
 21
-11.6711885519
 31
0.0
 11
-13.6700790578
 21
-11.8215184501
 31
0.0
 11
-13.7461230721
 21
-12.1576714759
 31
0.0
 11
-13.7634522961
 21
-12.3408239009
 31
0.0
 11
-13.7667661695
 21
-12.5321119225
 31
0.0
 11
-13.7560382842
 21
-12.7300157254
 31
0.0
 11
-13.7313537262
 21
-12.93296293
 31
0.0
 11
-13.6410090473
 21
-13.3475100844
 31
0.0
 11
-13.498597542
 21
-13.762604547
 31
0.0
 11
-13.3086364075
 21
-14.1650800586
 31
0.0
 11
-13.0771510271
 21
-14.5421707371
 31
0.0
 11
-12.8114836595
 21
-14.8819156955
 31
0.0
 11
-12.5200609551
 21
-15.1735386723
 31
0.0
 11
-12.3675559498
 21
-15.2983459319
 31
0.0
 11
-12.2121264805
 21
-15.4077899663
 31
0.0
 11
-12.0550075127
 21
-15.5010012198
 31
0.0
 11
-11.8974474335
 21
-15.5772392966
 31
0.0
 11
-11.5860050384
 21
-15.6765118931
 31
0.0
 11
-11.434597233
 21
-15.6987579232
 31
0.0
 11
-11.2876777779
 21
-15.7024592194
 31
0.0
 11
-11.1464139805
 21
-15.6875865047
 31
0.0
 11
-11.0119281826
 21
-15.6542581121
 31
0.0
  0
SPLINE
  5
391
100
AcDbEntity
  8
RACCORDO
100
AcDbSpline
 62
7
  6
CONTINUOUS
 70
0
 71
3
 72
11
 73
7
 74
5
 42
0.0000001
 43
0.0000001
 44
0.0000000001
 12
-0.0024864053
 22
-0.2558216313
 32
0.0
 13
0.1268677336
 23
-0.2221609044
 33
0.0
 40
0.0
 40
0.0
 40
0.0
 40
0.0
 40
0.2398762371
 40
0.4881917444
 40
0.7422729323
 40
1.0
 40
1.0
 40
1.0
 40
1.0
 10
-9.1850808872
 20
-2.4547246718
 30
0.0
 10
-9.185279697
 20
-2.4751798486
 30
0.0
 10
-9.1815555615
 20
-2.5168894292
 30
0.0
 10
-9.1667009395
 20
-2.5785883448
 30
0.0
 10
-9.1439290674
 20
-2.6394285987
 30
0.0
 10
-9.1242324978
 20
-2.6784832833
 30
0.0
 10
-9.1133334148
 20
-2.6975689094
 30
0.0
 11
-9.1850808872
 21
-2.4547246718
 31
0.0
 11
-9.1801603123
 21
-2.5158955143
 31
0.0
 11
-9.1655956518
 21
-2.5777308699
 31
0.0
 11
-9.1429628381
 21
-2.6386659596
 31
0.0
 11
-9.1133334148
 21
-2.6975689094
 31
0.0
  0
SPLINE
  5
392
100
AcDbEntity
  8
RACCORDO
100
AcDbSpline
 62
7
  6
CONTINUOUS
 70
0
 71
3
 72
15
 73
11
 74
9
 42
0.0000001
 43
0.0000001
 44
0.0000000001
 12
0.0014607924
 22
0.1020023997
 32
0.0
 13
0.0827453407
 23
0.0596643281
 33
0.0
 40
0.0
 40
0.0
 40
0.0
 40
0.0
 40
0.0189566199
 40
0.0438608988
 40
0.1129614024
 40
0.207311662
 40
0.3251953207
 40
0.4648542573
 40
0.6247291496
 40
1.0
 40
1.0
 40
1.0
 40
1.0
 10
-9.1593948033
 20
-0.3189807051
 30
0.0
 10
-9.1593855728
 20
-0.3183361649
 30
0.0
 10
-9.1590080374
 20
-0.3168592532
 30
0.0
 10
-9.1572468088
 20
-0.313437057
 30
0.0
 10
-9.1532339846
 20
-0.3083865222
 30
0.0
 10
-9.1465806051
 20
-0.3015190818
 30
0.0
 10
-9.1377297586
 20
-0.2934518898
 30
0.0
 10
-9.1268710495
 20
-0.2843098168
 30
0.0
 10
-9.1088970774
 20
-0.2700409533
 30
0.0
 10
-9.0942677689
 20
-0.2592099457
 30
0.0
 10
-9.0839171307
 20
-0.251746518
 30
0.0
 11
-9.1593948033
 21
-0.3189807051
 31
0.0
 11
-9.1590020133
 21
-0.3170871973
 31
0.0
 11
-9.1578981965
 21
-0.3147989629
 31
0.0
 11
-9.1537034218
 21
-0.3091337851
 31
0.0
 11
-9.1470741236
 21
-0.302155829
 31
0.0
 11
-9.138230945
 21
-0.2940063243
 31
0.0
 11
-9.1273564591
 21
-0.2848018266
 31
0.0
 11
-9.114600831
 21
-0.2746388028
 31
0.0
 11
-9.0839171307
 21
-0.251746518
 31
0.0
  0
SPLINE
  5
393
100
AcDbEntity
  8
RACCORDO
100
AcDbSpline
 62
7
  6
CONTINUOUS
 70
0
 71
3
 72
14
 73
10
 74
8
 42
0.0000001
 43
0.0000001
 44
0.0000000001
 12
0.2823781672
 22
0.1495837526
 32
0.0
 13
-0.1437929661
 23
0.2853704807
 33
0.0
 40
0.0
 40
0.0
 40
0.0
 40
0.0
 40
0.0943233299
 40
0.1945416323
 40
0.3044678959
 40
0.4257524382
 40
0.5581411694
 40
0.6999524246
 40
1.0
 40
1.0
 40
1.0
 40
1.0
 10
-13.3856986666
 20
2.1015642089
 30
0.0
 10
-13.3768203836
 20
2.1062672881
 30
0.0
 10
-13.3600102506
 20
2.1190667967
 30
0.0
 10
-13.3410155948
 20
2.1458435454
 30
0.0
 10
-13.3283250944
 20
2.1791189185
 30
0.0
 10
-13.3221866266
 20
2.2175816703
 30
0.0
 10
-13.3226824158
 20
2.2598841902
 30
0.0
 10
-13.3322750902
 20
2.3204405308
 30
0.0
 10
-13.3487360362
 20
2.3652103914
 30
0.0
 10
-13.3631176132
 20
2.393751965
 30
0.0
 11
-13.3856986666
 21
2.1015642089
 31
0.0
 11
-13.3616182408
 21
2.1196920566
 31
0.0
 11
-13.3427728981
 21
2.1455849804
 31
0.0
 11
-13.3298788398
 21
2.178259915
 31
0.0
 11
-13.3234257657
 21
2.2164754873
 31
0.0
 11
-13.3236582359
 21
2.2587797765
 31
0.0
 11
-13.3305670444
 21
2.303565929
 31
0.0
 11
-13.3631176132
 21
2.393751965
 31
0.0
  0
LINE
  5
394
100
AcDbEntity
  8
RACCORDO
100
AcDbLine
 62
7
  6
CONTINUOUS
 10
-13.237292899
 20
5.2543439135
 11
-13.2380578382
 21
5.2538069936
  0
SPLINE
  5
395
100
AcDbEntity
  8
RACCORDO
100
AcDbSpline
 62
7
  6
CONTINUOUS
 70
0
 71
3
 72
19
 73
15
 74
13
 42
0.0000001
 43
0.0000001
 44
0.0000000001
 12
-2.5216077287
 22
-1.7717844664
 32
0.0
 13
1.3867836498
 23
-2.75219128
 33
0.0
 40
0.0
 40
0.0
 40
0.0
 40
0.0
 40
0.0467870978
 40
0.0948195021
 40
0.1446144928
 40
0.1965799375
 40
0.3079148557
 40
0.3676734862
 40
0.4301029456
 40
0.4950917942
 40
0.5624582095
 40
0.7032378121
 40
0.8500693798
 40
1.0
 40
1.0
 40
1.0
 40
1.0
 10
-13.2380578382
 20
5.2538069936
 30
0.0
 10
-13.277384074
 20
5.2261747759
 30
0.0
 10
-13.3529507626
 20
5.1640513086
 30
0.0
 10
-13.4532729147
 20
5.0538657758
 30
0.0
 10
-13.5408746224
 20
4.9268100891
 30
0.0
 10
-13.6420067515
 20
4.7321463186
 30
0.0
 10
-13.7115071927
 20
4.5117205093
 30
0.0
 10
-13.7516867056
 20
4.2750521239
 30
0.0
 10
-13.7675316992
 20
4.0831721359
 30
0.0
 10
-13.768219823
 20
3.8828874781
 30
0.0
 10
-13.7486593172
 20
3.6027749914
 30
0.0
 10
-13.6855699903
 20
3.2424554651
 30
0.0
 10
-13.5543819776
 20
2.8115562146
 30
0.0
 10
-13.432424724
 20
2.53129788
 30
0.0
 10
-13.3631176131
 20
2.3937519648
 30
0.0
 11
-13.2380578382
 21
5.2538069936
 31
0.0
 11
-13.3495750719
 21
5.1624027426
 31
0.0
 11
-13.4494818758
 21
5.0531738718
 31
0.0
 11
-13.5369193172
 21
4.9270600534
 31
0.0
 11
-13.6111352496
 21
4.7851455558
 31
0.0
 11
-13.7174692081
 21
4.4589220027
 31
0.0
 11
-13.7486726354
 21
4.2774182373
 31
0.0
 11
-13.7648337712
 21
4.085700713
 31
0.0
 11
-13.7658134115
 21
3.8854180028
 31
0.0
 11
-13.7516031988
 21
3.6782925073
 31
0.0
 11
-13.6782317055
 21
3.2506816243
 31
0.0
 11
-13.5472376792
 21
2.8175455359
 31
0.0
 11
-13.3631176131
 21
2.3937519648
 31
0.0
  0
SPLINE
  5
396
100
AcDbEntity
  8
0
100
AcDbSpline
 62
253
  6
CONTINUOUS
 70
0
 71
3
 72
11
 73
7
 74
5
 42
0.0000001
 43
0.0000001
 44
0.0000000001
 12
0.1055510121
 22
0.0569417599
 32
0.0
 13
0.1080154741
 23
-0.052115617
 33
0.0
 40
0.0
 40
0.0
 40
0.0
 40
0.0
 40
0.2263403237
 40
0.4635482612
 40
0.7199136686
 40
1.0
 40
1.0
 40
1.0
 40
1.0
 10
-2.049198509
 20
15.3877567185
 30
0.0
 10
-2.0412350256
 20
15.3920527906
 30
0.0
 10
-2.0235396424
 20
15.3984861233
 30
0.0
 10
-1.9945237359
 20
15.4005550113
 30
0.0
 10
-1.9637917828
 20
15.3953259018
 30
0.0
 10
-1.9436637732
 20
15.3875321603
 30
0.0
 10
-1.9335792205
 20
15.3826665363
 30
0.0
 11
-2.049198509
 21
15.3877567185
 31
0.0
 11
-2.0237189956
 21
15.3971190969
 31
0.0
 11
-1.9953622057
 21
15.3994018209
 31
0.0
 11
-1.9650038466
 21
15.3945343652
 31
0.0
 11
-1.9335792205
 21
15.3826665363
 31
0.0
  0
SPLINE
  5
397
100
AcDbEntity
  8
RACCORDO
100
AcDbSpline
 62
253
  6
CONTINUOUS
 70
0
 71
3
 72
11
 73
7
 74
5
 42
0.0000001
 43
0.0000001
 44
0.0000000001
 12
-0.1080144774
 22
0.0521151361
 32
0.0
 13
-0.1055507123
 23
-0.0569399848
 33
0.0
 40
0.0
 40
0.0
 40
0.0
 40
0.0
 40
0.2800861573
 40
0.5364516302
 40
0.773659715
 40
1.0
 40
1.0
 40
1.0
 40
1.0
 10
-14.3094100202
 20
23.0271401658
 30
0.0
 10
-14.3194944735
 20
23.0320057419
 30
0.0
 10
-14.3396222845
 20
23.0397994243
 30
0.0
 10
-14.3703539325
 20
23.0450285832
 30
0.0
 10
-14.3993695828
 20
23.0429599039
 30
0.0
 10
-14.4170648668
 20
23.0365268154
 30
0.0
 10
-14.4250283262
 20
23.032230878
 30
0.0
 11
-14.3094100202
 21
23.0271401658
 31
0.0
 11
-14.3408343254
 21
23.0390079079
 31
0.0
 11
-14.3711923955
 21
23.0438754236
 31
0.0
 11
-14.3995489566
 21
23.0415929079
 31
0.0
 11
-14.4250283262
 21
23.032230878
 31
0.0
  0
SPLINE
  5
398
100
AcDbEntity
  8
RACCORDO
100
AcDbSpline
 62
253
  6
CONTINUOUS
 70
0
 71
3
 72
30
 73
26
 74
24
 42
0.0000001
 43
0.0000001
 44
0.0000000001
 12
-1.512669452
 22
-0.8161338321
 32
0.0
 13
1.5349649609
 23
0.7733859784
 33
0.0
 40
0.0
 40
0.0
 40
0.0
 40
0.0
 40
0.0598464154
 40
0.0869429285
 40
0.1122054523
 40
0.13580055
 40
0.1580012528
 40
0.1791914989
 40
0.199851719
 40
0.2205196175
 40
0.2417320953
 40
0.2639674675
 40
0.2876068778
 40
0.3129205079
 40
0.3400720455
 40
0.3691318803
 40
0.4000923456
 40
0.4673336364
 40
0.5407070547
 40
0.6185115435
 40
0.6987067235
 40
0.7790849414
 40
0.8574266139
 40
0.9316543951
 40
1.0
 40
1.0
 40
1.0
 40
1.0
 10
-14.3094100202
 20
23.0271401658
 30
0.0
 10
-14.3395859683
 20
23.010859271
 30
0.0
 10
-14.3818957364
 20
22.9838757135
 30
0.0
 10
-14.4301222908
 20
22.9412037981
 30
0.0
 10
-14.4591893798
 20
22.9086606554
 30
0.0
 10
-14.4820519049
 20
22.8748048556
 30
0.0
 10
-14.498451576
 20
22.8399165014
 30
0.0
 10
-14.5081594809
 20
22.804319431
 30
0.0
 10
-14.5110074616
 20
22.7683956108
 30
0.0
 10
-14.5069360243
 20
22.7325772612
 30
0.0
 10
-14.4960200344
 20
22.6972937806
 30
0.0
 10
-14.4784404176
 20
22.6629208055
 30
0.0
 10
-14.4544353133
 20
22.6297731741
 30
0.0
 10
-14.4242740397
 20
22.5981276789
 30
0.0
 10
-14.3882567422
 20
22.5682450791
 30
0.0
 10
-14.3467219334
 20
22.5403739719
 30
0.0
 10
-14.2827308994
 20
22.5052619897
 30
0.0
 10
-14.1911430724
 20
22.4685410086
 30
0.0
 10
-14.0697675922
 20
22.4370025321
 30
0.0
 10
-13.9383297281
 20
22.4179593484
 30
0.0
 10
-13.8016583162
 20
22.41212015
 30
0.0
 10
-13.6647660967
 20
22.4196996949
 30
0.0
 10
-13.5326722975
 20
22.440420975
 30
0.0
 10
-13.4102423189
 20
22.4734998556
 30
0.0
 10
-13.3343319568
 20
22.5044972718
 30
0.0
 10
-13.2993625872
 20
22.5221164493
 30
0.0
 11
-14.3094100202
 21
23.0271401658
 31
0.0
 11
-14.3954918909
 21
22.9708302205
 31
0.0
 11
-14.4302498911
 21
22.9398310437
 31
0.0
 11
-14.4590313474
 21
22.9073193319
 31
0.0
 11
-14.4815654328
 21
22.8736009863
 31
0.0
 11
-14.497639662
 21
22.8389934637
 31
0.0
 11
-14.5071023946
 21
22.8038225906
 31
0.0
 11
-14.5098642457
 21
22.7684195503
 31
0.0
 11
-14.5058989536
 21
22.7331177514
 31
0.0
 11
-14.4952435951
 21
22.6982496875
 31
0.0
 11
-14.4779982576
 21
22.664143808
 31
0.0
 11
-14.4543251202
 21
22.6311214234
 31
0.0
 11
-14.4244469484
 21
22.5994936746
 31
0.0
 11
-14.3886450454
 21
22.5695585846
 31
0.0
 11
-14.3472566449
 21
22.5415982207
 31
0.0
 11
-14.3006716628
 21
22.51587604
 31
0.0
 11
-14.1937124522
 21
22.4720922886
 31
0.0
 11
-14.0717891423
 21
22.4398534356
 31
0.0
 11
-13.9394862306
 21
22.4203710069
 31
0.0
 11
-13.8017778741
 21
22.4143763666
 31
0.0
 11
-13.6638402161
 21
22.4220937432
 31
0.0
 11
-13.5308567692
 21
22.4432320456
 31
0.0
 11
-13.4078235468
 21
22.4769960518
 31
0.0
 11
-13.2993625872
 21
22.5221164493
 31
0.0
  0
SPLINE
  5
399
100
AcDbEntity
  8
RACCORDO
100
AcDbSpline
 62
253
  6
CONTINUOUS
 70
0
 71
3
 72
15
 73
11
 74
9
 42
0.0000001
 43
0.0000001
 44
0.0000000001
 12
0.3257876609
 22
-0.1688033956
 32
0.0
 13
0.0053559619
 23
-0.3668834965
 33
0.0
 40
0.0
 40
0.0
 40
0.0
 40
0.0
 40
0.1097453518
 40
0.2291467291
 40
0.3561676453
 40
0.4880391295
 40
0.6215797579
 40
0.7534734907
 40
0.8805360944
 40
1.0
 40
1.0
 40
1.0
 40
1.0
 10
-13.2993625872
 20
22.5221164493
 30
0.0
 10
-13.2874446934
 20
22.5159413199
 30
0.0
 10
-13.2638082548
 20
22.5005734342
 30
0.0
 10
-13.2313025168
 20
22.4713702529
 30
0.0
 10
-13.2012446231
 20
22.4360266367
 30
0.0
 10
-13.174760237
 20
22.3958645379
 30
0.0
 10
-13.1528289354
 20
22.3523813818
 30
0.0
 10
-13.1362729693
 20
22.3071994103
 30
0.0
 10
-13.1257113843
 20
22.2620194837
 30
0.0
 10
-13.1228260972
 20
22.2318779661
 30
0.0
 10
-13.1226128158
 20
22.2172681876
 30
0.0
 11
-13.2993625872
 21
22.5221164493
 31
0.0
 11
-13.265428927
 21
22.5004364482
 31
0.0
 11
-13.2326811102
 21
22.471333361
 31
0.0
 11
-13.2023759359
 21
22.4359244035
 31
0.0
 11
-13.1756779811
 21
22.395569914
 31
0.0
 11
-13.1536126973
 21
22.3518202578
 31
0.0
 11
-13.1370279032
 21
22.3063559829
 31
0.0
 11
-13.1265606247
 21
22.260924056
 31
0.0
 11
-13.1226128158
 21
22.2172681876
 31
0.0
  0
SPLINE
  5
39A
100
AcDbEntity
  8
RACCORDO
100
AcDbSpline
 62
253
  6
CONTINUOUS
 70
0
 71
3
 72
11
 73
7
 74
5
 42
0.0000001
 43
0.0000001
 44
0.0000000001
 12
-0.1080144774
 22
0.0521151361
 32
0.0
 13
-0.1055507123
 23
-0.0569399848
 33
0.0
 40
0.0
 40
0.0
 40
0.0
 40
0.0
 40
0.2800861573
 40
0.5364516302
 40
0.773659715
 40
1.0
 40
1.0
 40
1.0
 40
1.0
 10
1.8126245908
 20
14.9661228603
 30
0.0
 10
1.8025401375
 20
14.9709884363
 30
0.0
 10
1.7824123266
 20
14.9787821188
 30
0.0
 10
1.7516806785
 20
14.9840112776
 30
0.0
 10
1.7226650283
 20
14.9819425984
 30
0.0
 10
1.7049697443
 20
14.9755095099
 30
0.0
 10
1.6970062848
 20
14.9712135724
 30
0.0
 11
1.8126245908
 21
14.9661228603
 31
0.0
 11
1.7812002856
 21
14.9779906023
 31
0.0
 11
1.7508422156
 21
14.982858118
 31
0.0
 11
1.7224856545
 21
14.9805756024
 31
0.0
 11
1.6970062848
 21
14.9712135724
 31
0.0
  0
SPLINE
  5
39B
100
AcDbEntity
  8
RACCORDO
100
AcDbSpline
 62
253
  6
CONTINUOUS
 70
0
 71
3
 72
30
 73
26
 74
24
 42
0.0000001
 43
0.0000001
 44
0.0000000001
 12
-1.512669452
 22
-0.8161338321
 32
0.0
 13
1.5349649609
 23
0.7733859784
 33
0.0
 40
0.0
 40
0.0
 40
0.0
 40
0.0
 40
0.0598464154
 40
0.0869429285
 40
0.1122054523
 40
0.13580055
 40
0.1580012528
 40
0.1791914989
 40
0.199851719
 40
0.2205196175
 40
0.2417320953
 40
0.2639674675
 40
0.2876068778
 40
0.3129205079
 40
0.3400720455
 40
0.3691318803
 40
0.4000923456
 40
0.4673336364
 40
0.5407070547
 40
0.6185115435
 40
0.6987067235
 40
0.7790849414
 40
0.8574266139
 40
0.9316543951
 40
1.0
 40
1.0
 40
1.0
 40
1.0
 10
1.8126245908
 20
14.9661228603
 30
0.0
 10
1.7824486427
 20
14.9498419655
 30
0.0
 10
1.7401388747
 20
14.922858408
 30
0.0
 10
1.6919123202
 20
14.8801864926
 30
0.0
 10
1.6628452312
 20
14.8476433499
 30
0.0
 10
1.6399827061
 20
14.8137875501
 30
0.0
 10
1.6235830351
 20
14.7788991958
 30
0.0
 10
1.6138751302
 20
14.7433021254
 30
0.0
 10
1.6110271495
 20
14.7073783053
 30
0.0
 10
1.6150985868
 20
14.6715599557
 30
0.0
 10
1.6260145767
 20
14.6362764751
 30
0.0
 10
1.6435941934
 20
14.6019035
 30
0.0
 10
1.6675992977
 20
14.5687558686
 30
0.0
 10
1.6977605714
 20
14.5371103734
 30
0.0
 10
1.7337778689
 20
14.5072277736
 30
0.0
 10
1.7753126777
 20
14.4793566664
 30
0.0
 10
1.8393037117
 20
14.4442446842
 30
0.0
 10
1.9308915386
 20
14.4075237031
 30
0.0
 10
2.0522670189
 20
14.3759852265
 30
0.0
 10
2.183704883
 20
14.3569420428
 30
0.0
 10
2.3203762949
 20
14.3511028444
 30
0.0
 10
2.4572685144
 20
14.3586823894
 30
0.0
 10
2.5893623136
 20
14.3794036695
 30
0.0
 10
2.7117922922
 20
14.4124825501
 30
0.0
 10
2.7877026543
 20
14.4434799663
 30
0.0
 10
2.8226720239
 20
14.4610991438
 30
0.0
 11
1.8126245908
 21
14.9661228603
 31
0.0
 11
1.7265427201
 21
14.9098129149
 31
0.0
 11
1.6917847199
 21
14.8788137381
 31
0.0
 11
1.6630032636
 21
14.8463020264
 31
0.0
 11
1.6404691782
 21
14.8125836807
 31
0.0
 11
1.6243949491
 21
14.7779761582
 31
0.0
 11
1.6149322165
 21
14.7428052851
 31
0.0
 11
1.6121703654
 21
14.7074022448
 31
0.0
 11
1.6161356574
 21
14.6721004458
 31
0.0
 11
1.6267910159
 21
14.6372323819
 31
0.0
 11
1.6440363535
 21
14.6031265025
 31
0.0
 11
1.6677094909
 21
14.5701041178
 31
0.0
 11
1.6975876626
 21
14.5384763691
 31
0.0
 11
1.7333895656
 21
14.5085412791
 31
0.0
 11
1.7747779662
 21
14.4805809151
 31
0.0
 11
1.8213629482
 21
14.4548587345
 31
0.0
 11
1.9283221589
 21
14.4110749831
 31
0.0
 11
2.0502454687
 21
14.3788361301
 31
0.0
 11
2.1825483805
 21
14.3593537014
 31
0.0
 11
2.320256737
 21
14.3533590611
 31
0.0
 11
2.458194395
 21
14.3610764377
 31
0.0
 11
2.5911778419
 21
14.3822147401
 31
0.0
 11
2.7142110643
 21
14.4159787463
 31
0.0
 11
2.8226720239
 21
14.4610991438
 31
0.0
  0
SPLINE
  5
39C
100
AcDbEntity
  8
RACCORDO
100
AcDbSpline
 62
253
  6
CONTINUOUS
 70
0
 71
3
 72
15
 73
11
 74
9
 42
0.0000001
 43
0.0000001
 44
0.0000000001
 12
0.3257876609
 22
-0.1688033956
 32
0.0
 13
0.0053559619
 23
-0.3668834965
 33
0.0
 40
0.0
 40
0.0
 40
0.0
 40
0.0
 40
0.1097453518
 40
0.2291467291
 40
0.3561676453
 40
0.4880391295
 40
0.6215797579
 40
0.7534734907
 40
0.8805360944
 40
1.0
 40
1.0
 40
1.0
 40
1.0
 10
2.8226720239
 20
14.4610991438
 30
0.0
 10
2.8345899177
 20
14.4549240144
 30
0.0
 10
2.8582263563
 20
14.4395561287
 30
0.0
 10
2.8907320943
 20
14.4103529473
 30
0.0
 10
2.9207899879
 20
14.3750093312
 30
0.0
 10
2.9472743741
 20
14.3348472324
 30
0.0
 10
2.9692056757
 20
14.2913640763
 30
0.0
 10
2.9857616417
 20
14.2461821048
 30
0.0
 10
2.9963232268
 20
14.2010021782
 30
0.0
 10
2.9992085138
 20
14.1708606606
 30
0.0
 10
2.9994217952
 20
14.1562508821
 30
0.0
 11
2.8226720239
 21
14.4610991438
 31
0.0
 11
2.856605684
 21
14.4394191427
 31
0.0
 11
2.8893535009
 21
14.4103160555
 31
0.0
 11
2.9196586752
 21
14.374907098
 31
0.0
 11
2.9463566299
 21
14.3345526085
 31
0.0
 11
2.9684219138
 21
14.2908029523
 31
0.0
 11
2.9850067078
 21
14.2453386773
 31
0.0
 11
2.9954739863
 21
14.1999067505
 31
0.0
 11
2.9994217952
 21
14.1562508821
 31
0.0
  0
SPLINE
  5
39D
100
AcDbEntity
  8
RACCORDO
100
AcDbSpline
 62
253
  6
CONTINUOUS
 70
0
 71
3
 72
12
 73
8
 74
6
 42
0.0000001
 43
0.0000001
 44
0.0000000001
 12
0.0000012195
 22
-0.1204364197
 32
0.0
 13
0.1077216086
 23
-0.0538608043
 33
0.0
 40
0.0
 40
0.0
 40
0.0
 40
0.0
 40
0.1022209851
 40
0.2073126611
 40
0.4350447136
 40
0.6977084949
 40
1.0
 40
1.0
 40
1.0
 40
1.0
 10
-18.170386281
 20
19.5633021496
 30
0.0
 10
-18.1703862394
 20
19.5591984397
 30
0.0
 10
-18.1695544812
 20
19.5508537291
 30
0.0
 10
-18.1644990982
 20
19.5340392233
 30
0.0
 10
-18.1514509229
 20
19.5134745058
 30
0.0
 10
-18.1276349624
 20
19.4919903843
 30
0.0
 10
-18.1080175477
 20
19.4803410181
 30
0.0
 10
-18.0971631053
 20
19.4749137969
 30
0.0
 11
-18.170386281
 21
19.5633021496
 31
0.0
 11
-18.1691825204
 21
19.5510500122
 31
0.0
 11
-18.1655827214
 21
19.5389158586
 31
0.0
 11
-18.1513562496
 21
19.5154667517
 31
0.0
 11
-18.1282541311
 21
19.4938561031
 31
0.0
 11
-18.0971631053
 21
19.4749137969
 31
0.0
  0
SPLINE
  5
39E
100
AcDbEntity
  8
RACCORDO
100
AcDbSpline
 62
253
  6
CONTINUOUS
 70
0
 71
3
 72
12
 73
8
 74
6
 42
0.0000001
 43
0.0000001
 44
0.0000000001
 12
-0.0023216723
 22
-0.161276612
 32
0.0
 13
-0.1464269478
 23
-0.0676364153
 33
0.0
 40
0.0
 40
0.0
 40
0.0
 40
0.0
 40
0.290663652
 40
0.5507488421
 40
0.7833315054
 40
0.8927916993
 40
1.0
 40
1.0
 40
1.0
 40
1.0
 10
2.9994217952
 20
-26.9179681054
 30
0.0
 10
2.9991968533
 20
-26.9335938551
 30
0.0
 10
2.996234098
 20
-26.9632824416
 30
0.0
 10
2.9829513193
 20
-27.0036605672
 30
0.0
 10
2.9643788782
 20
-27.0309056715
 30
0.0
 10
2.9459567647
 20
-27.0467037383
 30
0.0
 10
2.9358151602
 20
-27.052595246
 30
0.0
 10
2.9305824321
 20
-27.0550123078
 30
0.0
 11
2.9994217952
 21
-26.9179681054
 31
0.0
 11
2.9942936369
 21
-26.9645688979
 31
0.0
 11
2.980578129
 21
-27.0042134146
 31
0.0
 11
2.9589741311
 21
-27.0348821243
 31
0.0
 11
2.9455436481
 21
-27.0463419739
 31
0.0
 11
2.9305824321
 21
-27.0550123078
 31
0.0
  0
SPLINE
  5
39F
100
AcDbEntity
  8
RACCORDO
100
AcDbSpline
 62
253
  6
CONTINUOUS
 70
0
 71
3
 72
15
 73
11
 74
9
 42
0.0000001
 43
0.0000001
 44
0.0000000001
 12
0.3257876633
 22
-0.1688033969
 32
0.0
 13
0.0053559619
 23
-0.3668834993
 33
0.0
 40
0.0
 40
0.0
 40
0.0
 40
0.0
 40
0.1097446769
 40
0.2291467408
 40
0.3561676445
 40
0.4880391048
 40
0.6215797676
 40
0.7534734879
 40
0.88053682
 40
1.0
 40
1.0
 40
1.0
 40
1.0
 10
-0.9197982863
 20
11.27639628
 30
0.0
 10
-0.9078804657
 20
11.2702211885
 30
0.0
 10
-0.8842440111
 20
11.2548533281
 30
0.0
 10
-0.8517382785
 20
11.2256501296
 30
0.0
 10
-0.8216803701
 20
11.1903064345
 30
0.0
 10
-0.7951958024
 20
11.1501444483
 30
0.0
 10
-0.7732646894
 20
11.1066611901
 30
0.0
 10
-0.7567086538
 20
11.0614791564
 30
0.0
 10
-0.7461470554
 20
11.016299227
 30
0.0
 10
-0.743261795
 20
10.9861577081
 30
0.0
 10
-0.7430485149
 20
10.9715480183
 30
0.0
 11
-0.9197982863
 21
11.27639628
 31
0.0
 11
-0.8858648209
 21
11.2547164335
 31
0.0
 11
-0.8531168187
 21
11.225613175
 31
0.0
 11
-0.8228116465
 21
11.1902042214
 31
0.0
 11
-0.7961136124
 21
11.1498497944
 31
0.0
 11
-0.7740484115
 21
11.1061000818
 31
0.0
 11
-0.7574636197
 21
11.0606358105
 31
0.0
 11
-0.7469962766
 21
11.015203624
 31
0.0
 11
-0.7430485149
 21
10.9715480183
 31
0.0
  0
SPLINE
  5
3A0
100
AcDbEntity
  8
RACCORDO
100
AcDbSpline
 62
7
  6
CONTINUOUS
 70
0
 71
3
 72
14
 73
10
 74
8
 42
0.0000001
 43
0.0000001
 44
0.0000000001
 12
0.6440148158
 22
0.0172316467
 32
0.0
 13
0.6404359618
 23
-0.0699556397
 33
0.0
 40
0.0
 40
0.0
 40
0.0
 40
0.0
 40
0.1457538065
 40
0.2878861608
 40
0.4245364593
 40
0.5546596656
 40
0.7930642812
 40
0.900614383
 40
1.0
 40
1.0
 40
1.0
 40
1.0
 10
2.3598737138
 20
12.9288775013
 30
0.0
 10
2.3911629174
 20
12.929714694
 30
0.0
 10
2.4530495091
 20
12.9284246625
 30
0.0
 10
2.5439444496
 20
12.921049797
 30
0.0
 10
2.6311478323
 20
12.9106074237
 30
0.0
 10
2.7385449609
 20
12.8952443215
 30
0.0
 10
2.8394942286
 20
12.8790496756
 30
0.0
 10
2.9341131958
 20
12.8651281068
 30
0.0
 10
2.9782050875
 20
12.8595303046
 30
0.0
 10
2.9994217952
 20
12.8572127764
 30
0.0
 11
2.3598737138
 21
12.9288775013
 31
0.0
 11
2.4537641773
 21
12.9274571957
 31
0.0
 11
2.5450570436
 21
12.9203628428
 31
0.0
 11
2.6324930654
 21
12.910099581
 31
0.0
 11
2.7154999103
 21
12.8983716385
 31
0.0
 11
2.8673102246
 21
12.8750512524
 31
0.0
 11
2.9358817357
 21
12.8651081832
 31
0.0
 11
2.9994217952
 21
12.8572127764
 31
0.0
  0
SPLINE
  5
3A1
100
AcDbEntity
  8
RACCORDO
100
AcDbSpline
 62
253
  6
CONTINUOUS
 70
0
 71
3
 72
11
 73
7
 74
5
 42
0.0000001
 43
0.0000001
 44
0.0000000001
 12
-0.1080169736
 22
0.0521163405
 32
0.0
 13
-0.1055492188
 23
-0.0569485904
 33
0.0
 40
0.0
 40
0.0
 40
0.0
 40
0.0
 40
0.2800850895
 40
0.5364522133
 40
0.7736597961
 40
1.0
 40
1.0
 40
1.0
 40
1.0
 10
-17.9234715888
 20
19.7782329312
 30
0.0
 10
-17.9335562367
 20
19.7830986012
 30
0.0
 10
-17.9536845484
 20
19.7908924232
 30
0.0
 10
-17.984416989
 20
19.7961215383
 30
0.0
 10
-18.0134332556
 20
19.7940522295
 30
0.0
 10
-18.0311289901
 20
19.7876188899
 30
0.0
 10
-18.039092334
 20
19.7833223047
 30
0.0
 11
-17.9234715888
 21
19.7782329312
 31
0.0
 11
-17.9548965243
 21
19.7901008388
 31
0.0
 11
-17.985255528
 21
19.7949682704
 31
0.0
 11
-18.013612649
 21
19.7926852669
 31
0.0
 11
-18.039092334
 21
19.7833223047
 31
0.0
  0
SPLINE
  5
3A2
100
AcDbEntity
  8
RACCORDO
100
AcDbSpline
 62
253
  6
CONTINUOUS
 70
0
 71
3
 72
15
 73
11
 74
9
 42
0.0000001
 43
0.0000001
 44
0.0000000001
 12
-0.3231811286
 22
-0.1684995309
 32
0.0
 13
0.0
 23
-0.364469661
 33
0.0
 40
0.0
 40
0.0
 40
0.0
 40
0.0
 40
0.1109515826
 40
0.2309090321
 40
0.357942966
 40
0.4894435191
 40
0.6224184851
 40
0.7537555064
 40
0.8804749186
 40
1.0
 40
1.0
 40
1.0
 40
1.0
 10
-17.9234715888
 20
19.7782329312
 30
0.0
 10
-17.9354240747
 20
19.772001168
 30
0.0
 10
-17.9590688558
 20
19.7566024227
 30
0.0
 10
-17.9915001156
 20
19.7274263112
 30
0.0
 10
-18.0213038741
 20
19.6922378094
 30
0.0
 10
-18.0473882321
 20
19.652327039
 30
0.0
 10
-18.068809746
 20
19.6091508208
 30
0.0
 10
-18.0847826159
 20
19.5642846808
 30
0.0
 10
-18.0947218177
 20
19.5193810183
 30
0.0
 10
-18.0971631053
 20
19.4894348856
 30
0.0
 10
-18.0971631053
 20
19.4749137969
 30
0.0
 11
-17.9234715888
 21
19.7782329312
 31
0.0
 11
-17.9575178962
 21
19.7564127553
 31
0.0
 11
-17.9901679227
 21
19.7273354691
 31
0.0
 11
-18.0201957351
 21
19.6920931386
 31
0.0
 11
-18.0464723918
 21
19.6520103885
 31
0.0
 11
-18.0680104816
 21
19.6085938025
 31
0.0
 11
-18.084000352
 21
19.563475027
 31
0.0
 11
-18.0938411357
 21
19.5183502177
 31
0.0
 11
-18.0971631053
 21
19.4749137969
 31
0.0
  0
SPLINE
  5
3A3
100
AcDbEntity
  8
RACCORDO
100
AcDbSpline
 62
253
  6
CONTINUOUS
 70
0
 71
3
 72
15
 73
11
 74
9
 42
0.0000001
 43
0.0000001
 44
0.0000000001
 12
-0.3231811286
 22
-0.1684995309
 32
0.0
 13
0.0
 23
-0.364469661
 33
0.0
 40
0.0
 40
0.0
 40
0.0
 40
0.0
 40
0.1109515826
 40
0.2309090321
 40
0.357942966
 40
0.4894435191
 40
0.6224184851
 40
0.7537555064
 40
0.8804749186
 40
1.0
 40
1.0
 40
1.0
 40
1.0
 10
-0.9197982863
 20
11.27639628
 30
0.0
 10
-0.9317507722
 20
11.2701645167
 30
0.0
 10
-0.9553955534
 20
11.2547657715
 30
0.0
 10
-0.9878268132
 20
11.22558966
 30
0.0
 10
-1.0176305716
 20
11.1904011582
 30
0.0
 10
-1.0437149296
 20
11.1504903877
 30
0.0
 10
-1.0651364435
 20
11.1073141695
 30
0.0
 10
-1.0811093135
 20
11.0624480295
 30
0.0
 10
-1.0910485152
 20
11.0175443671
 30
0.0
 10
-1.0934898029
 20
10.9875982343
 30
0.0
 10
-1.0934898029
 20
10.9730771457
 30
0.0
 11
-0.9197982863
 21
11.27639628
 31
0.0
 11
-0.9538445937
 21
11.254576104
 31
0.0
 11
-0.9864946203
 21
11.2254988178
 31
0.0
 11
-1.0165224327
 21
11.1902564874
 31
0.0
 11
-1.0427990894
 21
11.1501737373
 31
0.0
 11
-1.0643371792
 21
11.1067571513
 31
0.0
 11
-1.0803270495
 21
11.0616383758
 31
0.0
 11
-1.0901678332
 21
11.0165135665
 31
0.0
 11
-1.0934898029
 21
10.9730771457
 31
0.0
  0
SPLINE
  5
3A4
100
AcDbEntity
  8
RACCORDO
100
AcDbSpline
 62
253
  6
CONTINUOUS
 70
0
 71
3
 72
15
 73
11
 74
9
 42
0.0000001
 43
0.0000001
 44
0.0000000001
 12
-0.3245924067
 22
-0.1567276218
 32
0.0
 13
-0.3223957543
 23
0.1611978771
 33
0.0
 40
0.0
 40
0.0
 40
0.0
 40
0.0
 40
0.1133110106
 40
0.236697366
 40
0.3671788522
 40
0.5012448718
 40
0.6351404967
 40
0.7651221766
 40
0.8877145124
 40
1.0
 40
1.0
 40
1.0
 40
1.0
 10
-0.7430485149
 20
10.9715480183
 30
0.0
 10
-0.7553084795
 20
10.9656283632
 30
0.0
 10
-0.7819114881
 20
10.9552776439
 30
0.0
 10
-0.8247533005
 20
10.9443993432
 30
0.0
 10
-0.8709763436
 20
10.9377886952
 30
0.0
 10
-0.9188775392
 20
10.9356971662
 30
0.0
 10
-0.9666990739
 20
10.9382005008
 30
0.0
 10
-1.0126867359
 20
10.9452076678
 30
0.0
 10
-1.0551470484
 20
10.956452426
 30
0.0
 10
-1.0814230147
 20
10.9670437516
 30
0.0
 10
-1.0934898029
 20
10.9730771457
 30
0.0
 11
-0.7430485149
 21
10.9715480183
 31
0.0
 11
-0.7810115746
 21
10.9564832407
 31
0.0
 11
-0.8240737884
 21
10.945364321
 31
0.0
 11
-0.87061804
 21
10.9386086345
 31
0.0
 11
-0.9188947249
 21
10.9364703202
 31
0.0
 11
-0.9670894205
 21
10.9390295782
 31
0.0
 11
-1.0133907795
 21
10.9461903874
 31
0.0
 11
-1.0560583326
 21
10.9576833802
 31
0.0
 11
-1.0934898029
 21
10.9730771457
 31
0.0
  0
SPLINE
  5
3A5
100
AcDbEntity
  8
RACCORDO
100
AcDbSpline
 62
7
  6
CONTINUOUS
 70
0
 71
3
 72
11
 73
7
 74
5
 42
0.0000001
 43
0.0000001
 44
0.0000000001
 12
-0.3142850666
 22
-0.3378313209
 32
0.0
 13
-0.418868595
 23
-0.1935308881
 33
0.0
 40
0.0
 40
0.0
 40
0.0
 40
0.0
 40
0.2450917615
 40
0.4941544785
 40
0.7460974426
 40
1.0
 40
1.0
 40
1.0
 40
1.0
 10
2.9994217952
 20
-25.6189299997
 30
0.0
 10
2.9737455683
 20
-25.6465298909
 30
0.0
 10
2.9197539539
 20
-25.7001580285
 30
0.0
 10
2.8317491474
 20
-25.774029591
 30
0.0
 10
2.7361245859
 20
-25.8401958076
 30
0.0
 10
2.6675648667
 20
-25.8774375499
 30
0.0
 10
2.6321142642
 20
-25.8938168791
 30
0.0
 11
2.9994217952
 21
-25.6189299997
 31
0.0
 11
2.9191311038
 21
-25.6985704948
 31
0.0
 11
2.8310095907
 21
-25.7723375527
 31
0.0
 11
2.7352604664
 21
-25.8382641137
 31
0.0
 11
2.6321142642
 21
-25.8938168791
 31
0.0
  0
SPLINE
  5
3A6
100
AcDbEntity
  8
RACCORDO
100
AcDbSpline
 62
7
  6
CONTINUOUS
 70
0
 71
3
 72
15
 73
11
 74
9
 42
0.0000001
 43
0.0000001
 44
0.0000000001
 12
0.3223957542
 22
-0.1611978771
 32
0.0
 13
0.3245924067
 23
0.1567276218
 33
0.0
 40
0.0
 40
0.0
 40
0.0
 40
0.0
 40
0.112285505
 40
0.2348777896
 40
0.3648594231
 40
0.4987550857
 40
0.6328211448
 40
0.7633025895
 40
0.8866888955
 40
1.0
 40
1.0
 40
1.0
 40
1.0
 10
-1.0934898029
 20
-24.4676378597
 30
0.0
 10
-1.0814230128
 20
-24.4736712547
 30
0.0
 10
-1.0551470497
 20
-24.4842625774
 30
0.0
 10
-1.0126867467
 20
-24.4955073328
 30
0.0
 10
-0.9666990927
 20
-24.5025145039
 30
0.0
 10
-0.9188775544
 20
-24.5050178425
 30
0.0
 10
-0.8709763544
 20
-24.5029263121
 30
0.0
 10
-0.8247533178
 20
-24.4963156633
 30
0.0
 10
-0.7819115044
 20
-24.485437366
 30
0.0
 10
-0.7553084896
 20
-24.4750866471
 30
0.0
 10
-0.7430485149
 20
-24.4691669871
 30
0.0
 11
-1.0934898029
 21
-24.4676378597
 31
0.0
 11
-1.0560583262
 21
-24.4830316263
 31
0.0
 11
-1.013390791
 21
-24.4945246143
 31
0.0
 11
-0.9670894492
 21
-24.5016854252
 31
0.0
 11
-0.9188947403
 21
-24.5042446874
 31
0.0
 11
-0.8706180412
 21
-24.5021063718
 31
0.0
 11
-0.8240738045
 21
-24.4953506864
 31
0.0
 11
-0.7810116071
 21
-24.4842317744
 31
0.0
 11
-0.7430485149
 21
-24.4691669871
 31
0.0
  0
SPLINE
  5
3A7
100
AcDbEntity
  8
RACCORDO
100
AcDbSpline
 62
253
  6
CONTINUOUS
 70
0
 71
3
 72
15
 73
11
 74
9
 42
0.0000001
 43
0.0000001
 44
0.0000000001
 12
-0.3245924067
 22
-0.1567276218
 32
0.0
 13
-0.3223957543
 23
0.1611978771
 33
0.0
 40
0.0
 40
0.0
 40
0.0
 40
0.0
 40
0.1133110106
 40
0.236697366
 40
0.3671788522
 40
0.5012448718
 40
0.6351404967
 40
0.7651221766
 40
0.8877145124
 40
1.0
 40
1.0
 40
1.0
 40
1.0
 10
-0.7430485149
 20
-27.3473268102
 30
0.0
 10
-0.7553084795
 20
-27.3532464652
 30
0.0
 10
-0.7819114881
 20
-27.3635971846
 30
0.0
 10
-0.8247533005
 20
-27.3744754853
 30
0.0
 10
-0.8709763436
 20
-27.3810861333
 30
0.0
 10
-0.9188775392
 20
-27.3831776623
 30
0.0
 10
-0.9666990739
 20
-27.3806743277
 30
0.0
 10
-1.0126867359
 20
-27.3736671607
 30
0.0
 10
-1.0551470484
 20
-27.3624224025
 30
0.0
 10
-1.0814230147
 20
-27.3518310769
 30
0.0
 10
-1.0934898029
 20
-27.3457976828
 30
0.0
 11
-0.7430485149
 21
-27.3473268102
 31
0.0
 11
-0.7810115746
 21
-27.3623915877
 31
0.0
 11
-0.8240737884
 21
-27.3735105074
 31
0.0
 11
-0.87061804
 21
-27.380266194
 31
0.0
 11
-0.9188947249
 21
-27.3824045082
 31
0.0
 11
-0.9670894205
 21
-27.3798452503
 31
0.0
 11
-1.0133907795
 21
-27.3726844411
 31
0.0
 11
-1.0560583326
 21
-27.3611914483
 31
0.0
 11
-1.0934898029
 21
-27.3457976828
 31
0.0
  0
SPLINE
  5
3A8
100
AcDbEntity
  8
RACCORDO
100
AcDbSpline
 62
253
  6
CONTINUOUS
 70
0
 71
3
 72
12
 73
8
 74
6
 42
0.0000001
 43
0.0000001
 44
0.0000000001
 12
0.0
 22
-0.1575648598
 32
0.0
 13
0.1409309632
 23
-0.0704638109
 33
0.0
 40
0.0
 40
0.0
 40
0.0
 40
0.0
 40
0.2894962268
 40
0.5491179364
 40
0.7821792696
 40
0.8921645511
 40
1.0
 40
1.0
 40
1.0
 40
1.0
 10
-18.0971631053
 20
-18.8439610315
 30
0.0
 10
-18.0971631053
 20
-18.8591658423
 30
0.0
 10
-18.0947006227
 20
-18.8881197514
 30
0.0
 10
-18.0823620041
 20
-18.9276994838
 30
0.0
 10
-18.0647178729
 20
-18.9546595415
 30
0.0
 10
-18.0470425261
 20
-18.9705796894
 30
0.0
 10
-18.0372555315
 20
-18.9766465425
 30
0.0
 10
-18.0321897469
 20
-18.9791793748
 30
0.0
 11
-18.0971631053
 21
-18.8439610315
 31
0.0
 11
-18.0928435021
 21
-18.8893704741
 31
0.0
 11
-18.0800958266
 21
-18.9282407783
 31
0.0
 11
-18.0595430981
 21
-18.9586728489
 31
0.0
 11
-18.0466400471
 21
-18.970241504
 31
0.0
 11
-18.0321897469
 21
-18.9791793748
 31
0.0
  0
SPLINE
  5
3A9
100
AcDbEntity
  8
RACCORDO
100
AcDbSpline
 62
253
  6
CONTINUOUS
 70
0
 71
3
 72
12
 73
8
 74
6
 42
0.0000001
 43
0.0000001
 44
0.0000000001
 12
0.0
 22
-0.1575648598
 32
0.0
 13
0.1409309632
 23
-0.0704638109
 33
0.0
 40
0.0
 40
0.0
 40
0.0
 40
0.0
 40
0.2894962268
 40
0.5491179364
 40
0.7821792696
 40
0.8921645511
 40
1.0
 40
1.0
 40
1.0
 40
1.0
 10
-1.0934898029
 20
-27.3457976828
 30
0.0
 10
-1.0934898029
 20
-27.3610024936
 30
0.0
 10
-1.0910273203
 20
-27.3899564026
 30
0.0
 10
-1.0786887016
 20
-27.429536135
 30
0.0
 10
-1.0610445704
 20
-27.4564961928
 30
0.0
 10
-1.0433692236
 20
-27.4724163407
 30
0.0
 10
-1.033582229
 20
-27.4784831938
 30
0.0
 10
-1.0285164444
 20
-27.481016026
 30
0.0
 11
-1.0934898029
 21
-27.3457976828
 31
0.0
 11
-1.0891701996
 21
-27.3912071253
 31
0.0
 11
-1.0764225242
 21
-27.4300774295
 31
0.0
 11
-1.0558697956
 21
-27.4605095002
 31
0.0
 11
-1.0429667447
 21
-27.4720781552
 31
0.0
 11
-1.0285164444
 21
-27.481016026
 31
0.0
  0
SPLINE
  5
3AA
100
AcDbEntity
  8
RACCORDO
100
AcDbSpline
 62
253
  6
CONTINUOUS
 70
0
 71
3
 72
15
 73
11
 74
9
 42
0.0000001
 43
0.0000001
 44
0.0000000001
 12
-0.056581153
 22
0.3590610639
 32
0.0
 13
-0.3223720152
 23
0.1679361733
 33
0.0
 40
0.0
 40
0.0
 40
0.0
 40
0.0
 40
0.1138572649
 40
0.2377249473
 40
0.368572718
 40
0.502835381
 40
0.6367088522
 40
0.766415791
 40
0.8884737942
 40
1.0
 40
1.0
 40
1.0
 40
1.0
 10
-2.937526036
 20
5.8769826939
 30
0.0
 10
-2.9396734278
 20
5.8906099308
 30
0.0
 10
-2.9464330077
 20
5.9187230275
 30
0.0
 10
-2.962196631
 20
5.9606006181
 30
0.0
 10
-2.9835077732
 20
6.0027347155
 30
0.0
 10
-3.0095734226
 20
6.0435401889
 30
0.0
 10
-3.0394186897
 20
6.0814934591
 30
0.0
 10
-3.0719304366
 20
6.1151774223
 30
0.0
 10
-3.1058835461
 20
6.1433349343
 30
0.0
 10
-3.1299032704
 20
6.1585257317
 30
0.0
 10
-3.1418875796
 20
6.1647688264
 30
0.0
 11
-2.937526036
 21
5.8769826939
 31
0.0
 11
-2.94693007
 21
5.9172862922
 31
0.0
 11
-2.9626220293
 21
5.959488219
 31
0.0
 11
-2.984001531
 21
6.0019743253
 31
0.0
 11
-3.0102501346
 21
6.0431177351
 31
0.0
 11
-3.0403628309
 21
6.081343468
 31
0.0
 11
-3.0731869603
 21
6.1151880309
 31
0.0
 11
-3.1074655556
 21
6.1433556678
 31
0.0
 11
-3.1418875796
 21
6.1647688264
 31
0.0
  0
SPLINE
  5
3AB
100
AcDbEntity
  8
RACCORDO
100
AcDbSpline
 62
253
  6
CONTINUOUS
 70
0
 71
3
 72
15
 73
11
 74
9
 42
0.0000001
 43
0.0000001
 44
0.0000000001
 12
-1.0608636062
 22
-0.7428672463
 32
0.0
 13
-0.0416127784
 23
-1.2944310384
 33
0.0
 40
0.0
 40
0.0
 40
0.0
 40
0.0
 40
0.1164198388
 40
0.2393535648
 40
0.3670238291
 40
0.4973286896
 40
0.6279967999
 40
0.7567338013
 40
0.8813676054
 40
1.0
 40
1.0
 40
1.0
 40
1.0
 10
-3.1418875796
 20
6.1647688264
 30
0.0
 10
-3.183056103
 20
6.1359406647
 30
0.0
 10
-3.2634517799
 20
6.0704531568
 30
0.0
 10
-3.3731924404
 20
5.9556940592
 30
0.0
 10
-3.4728926389
 20
5.8245043421
 30
0.0
 10
-3.5597331695
 20
5.6805889627
 30
0.0
 10
-3.6312872715
 20
5.527987596
 30
0.0
 10
-3.6855394452
 20
5.3709783753
 30
0.0
 10
-3.7209588349
 20
5.2140027076
 30
0.0
 10
-3.7316529323
 20
5.1091865801
 30
0.0
 10
-3.7332984734
 20
5.0579994288
 30
0.0
 11
-3.1418875796
 21
6.1647688264
 31
0.0
 11
-3.2591751974
 21
6.0700228149
 31
0.0
 11
-3.3695293288
 21
5.9552611174
 31
0.0
 11
-3.4697832891
 21
5.8237759372
 31
0.0
 11
-3.5570601534
 21
5.6793393041
 31
0.0
 11
-3.628854923
 21
5.5260953588
 31
0.0
 11
-3.6831066072
 21
5.3684415196
 31
0.0
 11
-3.718257578
 21
5.2109022143
 31
0.0
 11
-3.7332984734
 21
5.0579994288
 31
0.0
  0
SPLINE
  5
3AC
100
AcDbEntity
  8
RACCORDO
100
AcDbSpline
 62
253
  6
CONTINUOUS
 70
0
 71
3
 72
15
 73
11
 74
9
 42
0.0000001
 43
0.0000001
 44
0.0000000001
 12
-0.7978224714
 22
-0.5545700892
 32
0.0
 13
-0.0313595097
 23
-0.9711257699
 33
0.0
 40
0.0
 40
0.0
 40
0.0
 40
0.0
 40
0.1165606933
 40
0.2395749434
 40
0.3672727528
 40
0.4975620373
 40
0.6281832405
 40
0.7568554437
 40
0.8814215653
 40
1.0
 40
1.0
 40
1.0
 40
1.0
 10
-2.937526036
 20
5.8769826939
 30
0.0
 10
-2.9685242828
 20
5.8554356692
 30
0.0
 10
-3.0290653507
 20
5.8064668995
 30
0.0
 10
-3.1117299028
 20
5.7205760309
 30
0.0
 10
-3.1868321267
 20
5.6223441509
 30
0.0
 10
-3.2522482752
 20
5.5145450257
 30
0.0
 10
-3.3061501059
 20
5.400204275
 30
0.0
 10
-3.3470188766
 20
5.2825270241
 30
0.0
 10
-3.3737008226
 20
5.1648422106
 30
0.0
 10
-3.3817552581
 20
5.0862457897
 30
0.0
 10
-3.3829947787
 20
5.0478609318
 30
0.0
 11
-2.937526036
 21
5.8769826939
 31
0.0
 11
-3.0258678835
 21
5.8061151542
 31
0.0
 11
-3.1089882064
 21
5.7202248949
 31
0.0
 11
-3.1845019601
 21
5.6217751791
 31
0.0
 11
-3.250242075
 21
5.5135897636
 31
0.0
 11
-3.3043213662
 21
5.3987723674
 31
0.0
 11
-3.345186923
 21
5.2806177515
 31
0.0
 11
-3.3716649482
 21
5.1625171069
 31
0.0
 11
-3.3829947787
 21
5.0478609318
 31
0.0
  0
SPLINE
  5
3AD
100
AcDbEntity
  8
RACCORDO
100
AcDbSpline
 62
253
  6
CONTINUOUS
 70
0
 71
3
 72
15
 73
11
 74
9
 42
0.0000001
 43
0.0000001
 44
0.0000000001
 12
-0.3296563426
 22
-0.1435023661
 32
0.0
 13
-0.3214669698
 23
0.161013107
 33
0.0
 40
0.0
 40
0.0
 40
0.0
 40
0.0
 40
0.1119072255
 40
0.2345014545
 40
0.3647228872
 40
0.4989606429
 40
0.6333401162
 40
0.7639776232
 40
0.8872341934
 40
1.0
 40
1.0
 40
1.0
 40
1.0
 10
-3.3829947787
 20
5.0478609318
 30
0.0
 10
-3.3952917542
 20
5.0425079479
 30
0.0
 10
-3.4219514543
 20
5.0332991826
 30
0.0
 10
-3.464745431
 20
5.0240196868
 30
0.0
 10
-3.510923455
 20
5.0188814742
 30
0.0
 10
-3.558782878
 20
5.0180831829
 30
0.0
 10
-3.6065654035
 20
5.0216541843
 30
0.0
 10
-3.6525149984
 20
5.0294634476
 30
0.0
 10
-3.694937276
 20
5.0412140785
 30
0.0
 10
-3.7212149794
 20
5.0519471712
 30
0.0
 10
-3.7332984734
 20
5.0579994288
 30
0.0
 11
-3.3829947787
 21
5.0478609318
 31
0.0
 11
-3.4209312009
 21
5.0344572657
 31
0.0
 11
-3.463967844
 21
5.0249370676
 31
0.0
 11
-3.5104885483
 21
5.0196576802
 31
0.0
 11
-3.5587445629
 21
5.0188177426
 31
0.0
 11
-3.6069222105
 21
5.0224486654
 31
0.0
 11
-3.6532107534
 21
5.03041414
 31
0.0
 11
-3.6958701743
 21
5.0424145553
 31
0.0
 11
-3.7332984734
 21
5.0579994288
 31
0.0
  0
SPLINE
  5
3AE
100
AcDbEntity
  8
RACCORDO
100
AcDbSpline
 62
253
  6
CONTINUOUS
 70
0
 71
3
 72
25
 73
21
 74
19
 42
0.0000001
 43
0.0000001
 44
0.0000000001
 12
0.0003010741
 22
-1.8596690413
 32
0.0
 13
1.6643999846
 23
0.829543082
 33
0.0
 40
0.0
 40
0.0
 40
0.0
 40
0.0
 40
0.019270199
 40
0.0388112348
 40
0.0588979941
 40
0.0797727905
 40
0.1245797823
 40
0.174379487
 40
0.2295883381
 40
0.2901149582
 40
0.3554917947
 40
0.4249768271
 40
0.4976305865
 40
0.5723775072
 40
0.6480584456
 40
0.7234784332
 40
0.7974525537
 40
0.8688523669
 40
0.9366550984
 40
1.0
 40
1.0
 40
1.0
 40
1.0
 10
-14.7568060526
 20
22.5566200807
 30
0.0
 10
-14.7568041187
 20
22.5446746832
 30
0.0
 10
-14.7550548953
 20
22.5205809991
 30
0.0
 10
-14.7472256811
 20
22.484803831
 30
0.0
 10
-14.7342487849
 20
22.4494952777
 30
0.0
 10
-14.7096439386
 20
22.4022243537
 30
0.0
 10
-14.6654194289
 20
22.3451627672
 30
0.0
 10
-14.5953865876
 20
22.283540445
 30
0.0
 10
-14.5086741242
 20
22.228057617
 30
0.0
 10
-14.407059827
 20
22.1797496206
 30
0.0
 10
-14.2926029971
 20
22.1395371163
 30
0.0
 10
-14.1676626606
 20
22.1082417327
 30
0.0
 10
-14.0348392393
 20
22.0865141313
 30
0.0
 10
-13.8969165519
 20
22.074812988
 30
0.0
 10
-13.7567957075
 20
22.0733863765
 30
0.0
 10
-13.6174274934
 20
22.0822648966
 30
0.0
 10
-13.4817476695
 20
22.1012590906
 30
0.0
 10
-13.3525992059
 20
22.1299694321
 30
0.0
 10
-13.2327026896
 20
22.167782668
 30
0.0
 10
-13.1577565669
 20
22.1997524127
 30
0.0
 10
-13.1226128158
 20
22.2172681876
 30
0.0
 11
-14.7568060526
 21
22.5566200807
 31
0.0
 11
-14.7542264854
 21
22.5208768498
 31
0.0
 11
-14.7465123466
 21
22.485365197
 31
0.0
 11
-14.7337047542
 21
22.4502747276
 31
0.0
 11
-14.7158720382
 21
22.4157928021
 31
0.0
 11
-14.6655381744
 21
22.3493868246
 31
0.0
 11
-14.5965838324
 21
22.2875637663
 31
0.0
 11
-14.5104793557
 21
22.2316425042
 31
0.0
 11
-14.4090613706
 21
22.1828159795
 31
0.0
 11
-14.2944934045
 21
22.1421256541
 31
0.0
 11
-14.1692194087
 21
22.1104394008
 31
0.0
 11
-14.0359116555
 21
22.0884330003
 31
0.0
 11
-13.8974137811
 21
22.0765755205
 31
0.0
 11
-13.7566798134
 21
22.0751194359
 31
0.0
 11
-13.616711111
 21
22.0840954581
 31
0.0
 11
-13.480492488
 21
22.1033119039
 31
0.0
 11
-13.3509285111
 21
22.1323586013
 31
0.0
 11
-13.2307817767
 21
22.1706157877
 31
0.0
 11
-13.1226128158
 21
22.2172681876
 31
0.0
  0
SPLINE
  5
3AF
100
AcDbEntity
  8
RACCORDO
100
AcDbSpline
 62
253
  6
CONTINUOUS
 70
0
 71
3
 72
12
 73
8
 74
6
 42
0.0000001
 43
0.0000001
 44
0.0000000001
 12
0.1464376734
 22
0.0676279629
 32
0.0
 13
0.0023217614
 23
0.1612828043
 33
0.0
 40
0.0
 40
0.0
 40
0.0
 40
0.0
 40
0.1072086642
 40
0.2166686711
 40
0.4492504527
 40
0.7093363208
 40
1.0
 40
1.0
 40
1.0
 40
1.0
 10
-0.8118934326
 20
-27.4843737215
 30
0.0
 10
-0.8066603035
 20
-27.4819569536
 30
0.0
 10
-0.7965179546
 20
-27.4760657801
 30
0.0
 10
-0.7780943345
 20
-27.4602680885
 30
0.0
 10
-0.7595202636
 20
-27.4330224732
 30
0.0
 10
-0.7462364812
 20
-27.3926429262
 30
0.0
 10
-0.7432734655
 20
-27.3629531613
 30
0.0
 10
-0.7430485149
 20
-27.3473268102
 30
0.0
 11
-0.8118934326
 21
-27.4843737215
 31
0.0
 11
-0.7969310538
 21
-27.475703953
 31
0.0
 11
-0.783499498
 21
-27.4642443628
 31
0.0
 11
-0.7618937244
 21
-27.4335753161
 31
0.0
 11
-0.7481770768
 21
-27.3939293736
 31
0.0
 11
-0.7430485149
 21
-27.3473268102
 31
0.0
  0
SPLINE
  5
3B0
100
AcDbEntity
  8
RACCORDO
100
AcDbSpline
 62
253
  6
CONTINUOUS
 70
0
 71
3
 72
15
 73
11
 74
9
 42
0.0000001
 43
0.0000001
 44
0.0000000001
 12
-0.3191967297
 22
-0.1692954546
 32
0.0
 13
-0.3232740742
 23
0.161373406
 33
0.0
 40
0.0
 40
0.0
 40
0.0
 40
0.0
 40
0.1147189927
 40
0.238902833
 40
0.3696462607
 40
0.5035376321
 40
0.6369429117
 40
0.7662618699
 40
0.8881874224
 40
1.0
 40
1.0
 40
1.0
 40
1.0
 10
-3.3829947787
 20
-23.9730061967
 30
0.0
 10
-3.3952007544
 20
-23.979479998
 30
0.0
 10
-3.4217102667
 20
-23.9909491568
 30
0.0
 10
-3.4645472681
 20
-24.0034037581
 30
0.0
 10
-3.5107677862
 20
-24.0114659295
 30
0.0
 10
-3.5586697034
 20
-24.0148320915
 30
0.0
 10
-3.6064969027
 20
-24.0133807562
 30
0.0
 10
-3.6524980658
 20
-24.0071634671
 30
0.0
 10
-3.6949813469
 20
-23.9964160525
 30
0.0
 10
-3.7212497457
 20
-23.9859633574
 30
0.0
 10
-3.7332984482
 20
-23.9799488319
 30
0.0
 11
-3.3829947787
 21
-23.9730061967
 31
0.0
 11
-3.4209312013
 21
-23.9897062379
 31
0.0
 11
-3.463967843
 21
-24.0023988445
 31
0.0
 11
-3.5104885445
 21
-24.0106075575
 31
0.0
 11
-3.5587445553
 21
-24.0140236038
 31
0.0
 11
-3.6069221983
 21
-24.0125187668
 31
0.0
 11
-3.6532107364
 21
-24.0061494313
 31
0.0
 11
-3.6958701528
 21
-23.9951552267
 31
0.0
 11
-3.7332984482
 21
-23.9799488319
 31
0.0
  0
SPLINE
  5
3B1
100
AcDbEntity
  8
RACCORDO
100
AcDbSpline
 62
253
  6
CONTINUOUS
 70
0
 71
3
 72
14
 73
10
 74
8
 42
0.0000001
 43
0.0000001
 44
0.0000000001
 12
0.0199152802
 22
-0.6001039901
 32
0.0
 13
0.537016015
 23
-0.2685800009
 33
0.0
 40
0.0
 40
0.0
 40
0.0
 40
0.0
 40
0.2860441372
 40
0.418698685
 40
0.544606399
 40
0.6644390177
 40
0.7792652349
 40
0.8905340143
 40
1.0
 40
1.0
 40
1.0
 40
1.0
 10
-3.7332984734
 20
-23.9799488457
 30
0.0
 10
-3.7313995904
 20
-24.0371675884
 30
0.0
 10
-3.7214332505
 20
-24.1211293711
 30
0.0
 10
-3.6906575544
 20
-24.2259026564
 30
0.0
 10
-3.6605590504
 20
-24.2956333691
 30
0.0
 10
-3.6231698247
 20
-24.3576374331
 30
0.0
 10
-3.5788467347
 20
-24.4111922094
 30
0.0
 10
-3.5280813517
 20
-24.4556073269
 30
0.0
 10
-3.4901911914
 20
-24.4788150371
 30
0.0
 10
-3.4705961956
 20
-24.4886151619
 30
0.0
 11
-3.7332984734
 21
-23.9799488457
 31
0.0
 11
-3.7113905921
 21
-24.1502965994
 31
0.0
 11
-3.6887087385
 21
-24.2266491467
 31
0.0
 11
-3.6585176949
 21
-24.2959582923
 31
0.0
 11
-3.6211555476
 21
-24.3574489889
 31
0.0
 11
-3.5770404982
 21
-24.4104335054
 31
0.0
 11
-3.526666111
 21
-24.4543190782
 31
0.0
 11
-3.4705961956
 21
-24.4886151619
 31
0.0
  0
SPLINE
  5
3B2
100
AcDbEntity
  8
RACCORDO
100
AcDbSpline
 62
253
  6
CONTINUOUS
 70
0
 71
3
 72
18
 73
14
 74
12
 42
0.0000001
 43
0.0000001
 44
0.0000000001
 12
0.0234690701
 22
-0.7041310621
 32
0.0
 13
0.6800662156
 23
0.1840143803
 33
0.0
 40
0.0
 40
0.0
 40
0.0
 40
0.0
 40
0.148089174
 40
0.2846994576
 40
0.4105572731
 40
0.4702194952
 40
0.5281977479
 40
0.5850234161
 40
0.6412942483
 40
0.6976415602
 40
0.7546919209
 40
0.8729426195
 40
1.0
 40
1.0
 40
1.0
 40
1.0
 10
-3.3829947787
 20
-23.9730061967
 30
0.0
 10
-3.3818362736
 20
-24.0077642591
 30
0.0
 10
-3.374942734
 20
-24.0745877901
 30
0.0
 10
-3.3490131246
 20
-24.1679633029
 30
0.0
 10
-3.3144105112
 20
-24.235988319
 30
0.0
 10
-3.2797600501
 20
-24.2816380118
 30
0.0
 10
-3.2510374413
 20
-24.3110167602
 30
0.0
 10
-3.2193347441
 20
-24.3358887143
 30
0.0
 10
-3.1848897931
 20
-24.3560579929
 30
0.0
 10
-3.1479649497
 20
-24.3713616229
 30
0.0
 10
-3.0952287747
 20
-24.3852982536
 30
0.0
 10
-3.0235743744
 20
-24.3896274374
 30
0.0
 10
-2.9663285133
 20
-24.3797372561
 30
0.0
 10
-2.937526036
 20
-24.3719437944
 30
0.0
 11
-3.3829947787
 21
-23.9730061967
 31
0.0
 11
-3.3716649562
 21
-24.0767212895
 31
0.0
 11
-3.3451869265
 21
-24.1692523993
 31
0.0
 11
-3.3043213675
 21
-24.2479436036
 31
0.0
 11
-3.2788447911
 21
-24.2813763235
 31
0.0
 11
-3.2502420746
 21
-24.3105372331
 31
0.0
 11
-3.218718911
 21
-24.3352169085
 31
0.0
 11
-3.1845019583
 21
-24.3552381551
 31
0.0
 11
-3.1478372132
 21
-24.3704572781
 31
0.0
 11
-3.1089882035
 21
-24.3807650835
 31
0.0
 11
-3.0258678792
 21
-24.3863869741
 31
0.0
 11
-2.937526036
 21
-24.3719437944
 31
0.0
  0
SPLINE
  5
3B3
100
AcDbEntity
  8
RACCORDO
100
AcDbSpline
 62
253
  6
CONTINUOUS
 70
0
 71
3
 72
13
 73
9
 74
7
 42
0.0000001
 43
0.0000001
 44
0.0000000001
 12
-0.0266747585
 22
-0.1950361497
 32
0.0
 13
-0.190018595
 23
-0.0514157174
 33
0.0
 40
0.0
 40
0.0
 40
0.0
 40
0.0
 40
0.2844426625
 40
0.5433011574
 40
0.66372182
 40
0.778993535
 40
0.8904956524
 40
1.0
 40
1.0
 40
1.0
 40
1.0
 10
-2.937526036
 20
-24.3719437944
 30
0.0
 10
-2.9400551825
 20
-24.390435995
 30
0.0
 10
-2.9483011592
 20
-24.425431278
 30
0.0
 10
-2.9682422985
 20
-24.4647787257
 30
0.0
 10
-2.9890376305
 20
-24.4898478387
 30
0.0
 10
-3.006288898
 20
-24.5048955868
 30
0.0
 10
-3.0252801268
 20
-24.5163515148
 30
0.0
 10
-3.0389547256
 20
-24.5214706206
 30
0.0
 10
-3.0458906797
 20
-24.5233473688
 30
0.0
 11
-2.937526036
 21
-24.3719437944
 31
0.0
 11
-2.9509034185
 21
-24.4263153698
 31
0.0
 11
-2.9745224334
 21
-24.4714677158
 31
0.0
 11
-2.9897241141
 21
-24.4896566475
 31
0.0
 11
-3.0068738855
 21
-24.5045155557
 31
0.0
 11
-3.0256966962
 21
-24.5158061609
 31
0.0
 11
-3.0458906797
 21
-24.5233473688
 31
0.0
  0
SPLINE
  5
3B4
100
AcDbEntity
  8
RACCORDO
100
AcDbSpline
 62
253
  6
CONTINUOUS
 70
0
 71
3
 72
15
 73
11
 74
9
 42
0.0000001
 43
0.0000001
 44
0.0000000001
 12
0.0404491833
 22
1.2921585651
 32
0.0
 13
1.0431321987
 23
0.7636655745
 33
0.0
 40
0.0
 40
0.0
 40
0.0
 40
0.0
 40
0.1189648059
 40
0.2440133542
 40
0.3731456647
 40
0.5040978436
 40
0.6344941694
 40
0.761993071
 40
0.8844349156
 40
1.0
 40
1.0
 40
1.0
 40
1.0
 10
-20.6463919852
 20
13.5145461847
 30
0.0
 10
-20.6447879754
 20
13.565786649
 30
0.0
 10
-20.6343631231
 20
13.6707469235
 30
0.0
 10
-20.5998718606
 20
13.8281209786
 30
0.0
 10
-20.5470438629
 20
13.985781641
 30
0.0
 10
-20.4773684503
 20
14.139267668
 30
0.0
 10
-20.3928084566
 20
14.2842729801
 30
0.0
 10
-20.2957279571
 20
14.4167270914
 30
0.0
 10
-20.1888728212
 20
14.5328907698
 30
0.0
 10
-20.1104488899
 20
14.5995401792
 30
0.0
 10
-20.0702656697
 20
14.6289578714
 30
0.0
 11
-20.6463919852
 21
13.5145461847
 31
0.0
 11
-20.6317398101
 21
13.6676433303
 31
0.0
 11
-20.5974972894
 21
13.8256368607
 31
0.0
 11
-20.5446476999
 21
13.9839917472
 31
0.0
 11
-20.4747084137
 21
14.1381634343
 31
0.0
 11
-20.3896871569
 21
14.2837278711
 31
0.0
 11
-20.2920241884
 21
14.4165085472
 31
0.0
 11
-20.1845220825
 21
14.5326962574
 31
0.0
 11
-20.0702656697
 21
14.6289578714
 31
0.0
  0
SPLINE
  5
3B5
100
AcDbEntity
  8
0
100
AcDbSpline
 62
253
  6
CONTINUOUS
 70
0
 71
3
 72
15
 73
11
 74
9
 42
0.0000001
 43
0.0000001
 44
0.0000000001
 12
-0.0053559621
 22
0.3668834965
 32
0.0
 13
-0.3257876608
 23
0.1688033958
 33
0.0
 40
0.0
 40
0.0
 40
0.0
 40
0.0
 40
0.1194639056
 40
0.2465265093
 40
0.3784202422
 40
0.5119608705
 40
0.6438323548
 40
0.770853271
 40
0.8902546482
 40
1.0
 40
1.0
 40
1.0
 40
1.0
 10
-10.9567038138
 20
19.6777554569
 30
0.0
 10
-10.9569170952
 20
19.6923652354
 30
0.0
 10
-10.9598023822
 20
19.7225067529
 30
0.0
 10
-10.9703639673
 20
19.7676866796
 30
0.0
 10
-10.9869199334
 20
19.8128686511
 30
0.0
 10
-11.008851235
 20
19.8563518072
 30
0.0
 10
-11.0353356211
 20
19.896513906
 30
0.0
 10
-11.0653935147
 20
19.9318575221
 30
0.0
 10
-11.0978992527
 20
19.9610607035
 30
0.0
 10
-11.1215356913
 20
19.9764285892
 30
0.0
 10
-11.1334535851
 20
19.9826037185
 30
0.0
 11
-10.9567038138
 21
19.6777554569
 31
0.0
 11
-10.9606516227
 21
19.7214113253
 31
0.0
 11
-10.9711189012
 21
19.7668432521
 31
0.0
 11
-10.9877036952
 21
19.8123075271
 31
0.0
 11
-11.0097689791
 21
19.8560571832
 31
0.0
 11
-11.0364669338
 21
19.8964116728
 31
0.0
 11
-11.0667721081
 21
19.9318206302
 31
0.0
 11
-11.099519925
 21
19.9609237175
 31
0.0
 11
-11.1334535851
 21
19.9826037185
 31
0.0
  0
SPLINE
  5
3B6
100
AcDbEntity
  8
0
100
AcDbSpline
 62
253
  6
CONTINUOUS
 70
0
 71
3
 72
15
 73
11
 74
9
 42
0.0000001
 43
0.0000001
 44
0.0000000001
 12
-0.0053559621
 22
0.3668834965
 32
0.0
 13
-0.3257876608
 23
0.1688033958
 33
0.0
 40
0.0
 40
0.0
 40
0.0
 40
0.0
 40
0.1194639056
 40
0.2465265093
 40
0.3784202422
 40
0.5119608705
 40
0.6438323548
 40
0.770853271
 40
0.8902546482
 40
1.0
 40
1.0
 40
1.0
 40
1.0
 10
-0.9157875209
 20
14.6572973105
 30
0.0
 10
-0.9160008023
 20
14.6719070889
 30
0.0
 10
-0.9188860894
 20
14.7020486065
 30
0.0
 10
-0.9294476744
 20
14.7472285331
 30
0.0
 10
-0.9460036405
 20
14.7924105046
 30
0.0
 10
-0.9679349421
 20
14.8358936607
 30
0.0
 10
-0.9944193283
 20
14.8760557596
 30
0.0
 10
-1.0244772219
 20
14.9113993757
 30
0.0
 10
-1.0569829599
 20
14.940602557
 30
0.0
 10
-1.0806193985
 20
14.9559704428
 30
0.0
 10
-1.0925372923
 20
14.9621455721
 30
0.0
 11
-0.9157875209
 21
14.6572973105
 31
0.0
 11
-0.9197353298
 21
14.7009531789
 31
0.0
 11
-0.9302026083
 21
14.7463851057
 31
0.0
 11
-0.9467874024
 21
14.7918493807
 31
0.0
 11
-0.9688526863
 21
14.8355990368
 31
0.0
 11
-0.995550641
 21
14.8759535264
 31
0.0
 11
-1.0258558153
 21
14.9113624838
 31
0.0
 11
-1.0586036321
 21
14.9404655711
 31
0.0
 11
-1.0925372923
 21
14.9621455721
 31
0.0
  0
SPLINE
  5
3B7
100
AcDbEntity
  8
0
100
AcDbSpline
 62
253
  6
CONTINUOUS
 70
0
 71
3
 72
24
 73
20
 74
18
 42
0.0000001
 43
0.0000001
 44
0.0000000001
 12
-1.4582798945
 22
-0.7256909197
 32
0.0
 13
-0.0002432139
 23
1.6288669382
 33
0.0
 40
0.0
 40
0.0
 40
0.0
 40
0.0
 40
0.0633405154
 40
0.1311437677
 40
0.2025487062
 40
0.2765318797
 40
0.3519640736
 40
0.4276595927
 40
0.5024225705
 40
0.5750928818
 40
0.6445940028
 40
0.7099853037
 40
0.7705234491
 40
0.825739653
 40
0.8755411332
 40
0.9203428725
 40
0.9612085499
 40
0.9807404284
 40
1.0
 40
1.0
 40
1.0
 40
1.0
 10
-10.9567012277
 20
19.6777567438
 30
0.0
 10
-10.9874906277
 20
19.6624348648
 30
0.0
 10
-11.0531501886
 20
19.6344734908
 30
0.0
 10
-11.1581859849
 20
19.6014133892
 30
0.0
 10
-11.2713269497
 20
19.5763247345
 30
0.0
 10
-11.3901897841
 20
19.5597437244
 30
0.0
 10
-11.5122837524
 20
19.5520188806
 30
0.0
 10
-11.635036932
 20
19.553315054
 30
0.0
 10
-11.7558642386
 20
19.5636046846
 30
0.0
 10
-11.8722240937
 20
19.5826693962
 30
0.0
 10
-11.9816779155
 20
19.610106855
 30
0.0
 10
-12.0819471575
 20
19.6453451328
 30
0.0
 10
-12.1709664723
 20
19.6876698079
 30
0.0
 10
-12.2469276339
 20
19.736255668
 30
0.0
 10
-12.3082882006
 20
19.7902541255
 30
0.0
 10
-12.3537158646
 20
19.8487638573
 30
0.0
 10
-12.377541415
 20
19.9014449513
 30
0.0
 10
-12.386809508
 20
19.9438174112
 30
0.0
 10
-12.388344611
 20
19.9649114139
 30
0.0
 10
-12.3883461724
 20
19.9753685071
 30
0.0
 11
-10.9567012277
 21
19.6777567438
 31
0.0
 11
-11.0514635044
 21
19.6369543531
 31
0.0
 11
-11.1567188727
 21
19.6035051649
 31
0.0
 11
-11.2702244008
 21
19.5781218579
 31
0.0
 11
-11.3895597828
 21
19.5613461423
 31
0.0
 11
-11.5121803119
 21
19.553535957
 31
0.0
 11
-11.635471153
 21
19.5548580613
 31
0.0
 11
-11.7568029177
 21
19.5652846688
 31
0.0
 11
-11.8735876885
 21
19.5845936776
 31
0.0
 11
-11.9833344833
 21
19.6123733514
 31
0.0
 11
-12.0837022075
 21
19.6480313725
 31
0.0
 11
-12.1725496964
 21
19.6908072617
 31
0.0
 11
-12.2479819041
 21
19.7397884688
 31
0.0
 11
-12.3083899222
 21
19.7939301661
 31
0.0
 11
-12.3524852549
 21
19.8520774689
 31
0.0
 11
-12.3793279733
 21
19.9129899851
 31
0.0
 11
-12.3860861319
 21
19.9440787418
 31
0.0
 11
-12.3883461724
 21
19.9753685071
 31
0.0
  0
SPLINE
  5
3B8
100
AcDbEntity
  8
0
100
AcDbSpline
 62
253
  6
CONTINUOUS
 70
0
 71
3
 72
24
 73
20
 74
18
 42
0.0000001
 43
0.0000001
 44
0.0000000001
 12
-1.4582798945
 22
-0.7256909197
 32
0.0
 13
-0.0002432139
 23
1.6288669382
 33
0.0
 40
0.0
 40
0.0
 40
0.0
 40
0.0
 40
0.0633405154
 40
0.1311437677
 40
0.2025487062
 40
0.2765318797
 40
0.3519640736
 40
0.4276595927
 40
0.5024225705
 40
0.5750928818
 40
0.6445940028
 40
0.7099853037
 40
0.7705234491
 40
0.825739653
 40
0.8755411332
 40
0.9203428725
 40
0.9612085499
 40
0.9807404284
 40
1.0
 40
1.0
 40
1.0
 40
1.0
 10
-0.9157849348
 20
14.6572985973
 30
0.0
 10
-0.9465743349
 20
14.6419767184
 30
0.0
 10
-1.0122338957
 20
14.6140153443
 30
0.0
 10
-1.117269692
 20
14.5809552428
 30
0.0
 10
-1.2304106568
 20
14.555866588
 30
0.0
 10
-1.3492734913
 20
14.539285578
 30
0.0
 10
-1.4713674595
 20
14.5315607342
 30
0.0
 10
-1.5941206392
 20
14.5328569076
 30
0.0
 10
-1.7149479458
 20
14.5431465382
 30
0.0
 10
-1.8313078008
 20
14.5622112498
 30
0.0
 10
-1.9407616227
 20
14.5896487086
 30
0.0
 10
-2.0410308647
 20
14.6248869864
 30
0.0
 10
-2.1300501795
 20
14.6672116615
 30
0.0
 10
-2.2060113411
 20
14.7157975216
 30
0.0
 10
-2.2673719077
 20
14.7697959791
 30
0.0
 10
-2.3127995718
 20
14.8283057109
 30
0.0
 10
-2.3366251222
 20
14.8809868049
 30
0.0
 10
-2.3458932151
 20
14.9233592648
 30
0.0
 10
-2.3474283181
 20
14.9444532675
 30
0.0
 10
-2.3474298795
 20
14.9549103606
 30
0.0
 11
-0.9157849348
 21
14.6572985973
 31
0.0
 11
-1.0105472115
 21
14.6164962066
 31
0.0
 11
-1.1158025799
 21
14.5830470185
 31
0.0
 11
-1.229308108
 21
14.5576637115
 31
0.0
 11
-1.3486434899
 21
14.5408879958
 31
0.0
 11
-1.4712640191
 21
14.5330778106
 31
0.0
 11
-1.5945548602
 21
14.5343999149
 31
0.0
 11
-1.7158866248
 21
14.5448265224
 31
0.0
 11
-1.8326713957
 21
14.5641355312
 31
0.0
 11
-1.9424181905
 21
14.5919152049
 31
0.0
 11
-2.0427859147
 21
14.627573226
 31
0.0
 11
-2.1316334035
 21
14.6703491153
 31
0.0
 11
-2.2070656112
 21
14.7193303223
 31
0.0
 11
-2.2674736294
 21
14.7734720197
 31
0.0
 11
-2.3115689621
 21
14.8316193225
 31
0.0
 11
-2.3384116804
 21
14.8925318386
 31
0.0
 11
-2.345169839
 21
14.9236205954
 31
0.0
 11
-2.3474298795
 21
14.9549103606
 31
0.0
  0
SPLINE
  5
3B9
100
AcDbEntity
  8
RACCORDO
100
AcDbSpline
 62
253
  6
CONTINUOUS
 70
0
 71
3
 72
12
 73
8
 74
6
 42
0.0000001
 43
0.0000001
 44
0.0000000001
 12
0.0000012195
 22
-0.1204364197
 32
0.0
 13
0.1077216086
 23
-0.0538608043
 33
0.0
 40
0.0
 40
0.0
 40
0.0
 40
0.0
 40
0.1022209851
 40
0.2073126611
 40
0.4350447136
 40
0.6977084949
 40
1.0
 40
1.0
 40
1.0
 40
1.0
 10
-18.170386281
 20
-18.7555726789
 30
0.0
 10
-18.1703862394
 20
-18.7596763887
 30
0.0
 10
-18.1695544812
 20
-18.7680210994
 30
0.0
 10
-18.1644990982
 20
-18.7848356052
 30
0.0
 10
-18.1514509229
 20
-18.8054003227
 30
0.0
 10
-18.1276349624
 20
-18.8268844442
 30
0.0
 10
-18.1080175477
 20
-18.8385338103
 30
0.0
 10
-18.0971631053
 20
-18.8439610315
 30
0.0
 11
-18.170386281
 21
-18.7555726789
 31
0.0
 11
-18.1691825204
 21
-18.7678248162
 31
0.0
 11
-18.1655827214
 21
-18.7799589699
 31
0.0
 11
-18.1513562496
 21
-18.8034080768
 31
0.0
 11
-18.1282541311
 21
-18.8250187254
 31
0.0
 11
-18.0971631053
 21
-18.8439610315
 31
0.0
  0
SPLINE
  5
3BA
100
AcDbEntity
  8
0
100
AcDbSpline
 62
7
  6
CONTINUOUS
 70
0
 71
3
 72
10
 73
6
 74
4
 42
0.0000001
 43
0.0000001
 44
0.0000000001
 12
0.1477089269
 22
0.008010155
 32
0.0
 13
0.1323083874
 23
-0.0661557275
 33
0.0
 40
0.0
 40
0.0
 40
0.0
 40
0.0
 40
0.5102719459
 40
0.7565433048
 40
1.0
 40
1.0
 40
1.0
 40
1.0
 10
-2.6378100208
 20
23.2935474104
 30
0.0
 10
-2.6126861137
 20
23.2949098629
 30
0.0
 10
-2.574931892
 20
23.292687805
 30
0.0
 10
-2.5271630125
 20
23.2800315863
 30
0.0
 10
-2.5047851422
 20
23.2707091516
 30
0.0
 10
-2.4940480213
 20
23.2653404667
 30
0.0
 11
-2.6378100208
 21
23.2935474104
 31
0.0
 11
-2.5624920119
 21
23.2885674077
 31
0.0
 11
-2.5272854594
 21
23.2792058768
 31
0.0
 11
-2.4940480213
 21
23.2653404667
 31
0.0
  0
SPLINE
  5
3BB
100
AcDbEntity
  8
0
100
AcDbSpline
 62
7
  6
CONTINUOUS
 70
0
 71
3
 72
12
 73
8
 74
6
 42
0.0000001
 43
0.0000001
 44
0.0000000001
 12
0.026761595
 22
0.027888544
 32
0.0
 13
0.0001685095
 23
0.0386513319
 33
0.0
 40
0.0
 40
0.0
 40
0.0
 40
0.0
 40
0.3929556305
 40
0.6850443019
 40
0.8833643114
 40
0.9507211455
 40
1.0
 40
1.0
 40
1.0
 40
1.0
 10
-1.1861279283
 20
22.5677063641
 30
0.0
 10
-1.1826225551
 20
22.5713593509
 30
0.0
 10
-1.1765797326
 20
22.5778022496
 30
0.0
 10
-1.1692274412
 20
22.5864788124
 30
0.0
 10
-1.1650326186
 20
22.5923675594
 30
0.0
 10
-1.163314209
 20
22.5960502648
 30
0.0
 10
-1.1629666912
 20
22.5975421069
 30
0.0
 10
-1.1629639232
 20
22.5981770047
 30
0.0
 11
-1.1861279283
 21
22.5677063641
 31
0.0
 11
-1.1758022338
 21
22.5788449284
 31
0.0
 11
-1.1685865733
 21
22.5875277907
 31
0.0
 11
-1.164353338
 21
22.5939182648
 31
0.0
 11
-1.1633119076
 21
22.5963043508
 31
0.0
 11
-1.1629639232
 21
22.5981770047
 31
0.0
  0
SPLINE
  5
3BC
100
AcDbEntity
  8
RACCORDO
100
AcDbSpline
 62
253
  6
CONTINUOUS
 70
0
 71
3
 72
12
 73
8
 74
6
 42
0.0000001
 43
0.0000001
 44
0.0000000001
 12
-0.0037308191
 22
-0.1199622452
 32
0.0
 13
0.1073867063
 23
-0.0535999495
 33
0.0
 40
0.0
 40
0.0
 40
0.0
 40
0.0
 40
0.099403677
 40
0.2021117869
 40
0.4275495252
 40
0.6920539816
 40
1.0
 40
1.0
 40
1.0
 40
1.0
 10
-20.7196315295
 20
13.602109451
 30
0.0
 10
-20.7197551485
 20
13.5981345549
 30
0.0
 10
-20.7191386303
 20
13.5900014129
 30
0.0
 10
-20.7143522501
 20
13.573471471
 30
0.0
 10
-20.7012974319
 20
13.5531097844
 30
0.0
 10
-20.6772576773
 20
13.5317417407
 30
0.0
 10
-20.6574150465
 20
13.5200481671
 30
0.0
 10
-20.6463919436
 20
13.5145462035
 30
0.0
 11
-20.7196315295
 21
13.602109451
 31
0.0
 11
-20.7187505302
 21
13.5902115702
 31
0.0
 11
-20.7153779493
 21
13.5783548454
 31
0.0
 11
-20.7013176256
 21
13.5552378915
 31
0.0
 11
-20.6780124852
 21
13.5336816407
 31
0.0
 11
-20.6463919436
 21
13.5145462035
 31
0.0
  0
SPLINE
  5
3BD
100
AcDbEntity
  8
RACCORDO
100
AcDbSpline
 62
253
  6
CONTINUOUS
 70
0
 71
3
 72
12
 73
8
 74
6
 42
0.0000001
 43
0.0000001
 44
0.0000000001
 12
0.0992709619
 22
0.0732135389
 32
0.0
 13
0.1112123528
 23
-0.0533550255
 33
0.0
 40
0.0
 40
0.0
 40
0.0
 40
0.0
 40
0.1045618225
 40
0.211655992
 40
0.4414072643
 40
0.7026119202
 40
1.0
 40
1.0
 40
1.0
 40
1.0
 10
-20.1879598434
 20
14.6322856465
 30
0.0
 10
-20.1844998591
 20
14.6348374268
 30
0.0
 10
-20.1769925449
 20
14.6393552285
 30
0.0
 10
-20.1599217701
 20
14.645767539
 30
0.0
 10
-20.1350169621
 20
14.6482142154
 30
0.0
 10
-20.1028161969
 20
14.6426573184
 30
0.0
 10
-20.081290079
 20
14.634246921
 30
0.0
 10
-20.0702656697
 20
14.6289578714
 30
0.0
 11
-20.1879598434
 21
14.6322856465
 31
0.0
 11
-20.1769168562
 21
14.6389489864
 31
0.0
 11
-20.1645642339
 21
14.6436303743
 31
0.0
 11
-20.136412505
 21
14.6468878173
 31
0.0
 11
-20.1045762661
 21
14.6419343036
 31
0.0
 11
-20.0702656697
 21
14.6289578714
 31
0.0
  0
SPLINE
  5
3BE
100
AcDbEntity
  8
RACCORDO
100
AcDbSpline
 62
253
  6
CONTINUOUS
 70
0
 71
3
 72
9
 73
5
 74
3
 42
0.0000001
 43
0.0000001
 44
0.0000000001
 12
-2.4846206841
 22
-1.3082697627
 32
0.0
 13
-2.4841453383
 23
-1.3091721254
 33
0.0
 40
0.0
 40
0.0
 40
0.0
 40
0.0
 40
0.25002826
 40
1.0
 40
1.0
 40
1.0
 40
1.0
 10
-10.8787308073
 20
3.7024657835
 30
0.0
 10
-11.085805936
 20
3.5934309794
 30
0.0
 10
-11.9139939416
 20
3.1573051862
 30
0.0
 10
-12.7421046448
 20
2.7210325957
 30
0.0
 10
-13.3631175788
 20
2.3937518967
 30
0.0
 11
-10.8787308073
 21
3.7024657835
 31
0.0
 11
-11.4999419155
 21
3.375334256
 31
0.0
 11
-13.3631175788
 21
2.3937518967
 31
0.0
  0
SPLINE
  5
3BF
100
AcDbEntity
  8
RACCORDO
100
AcDbSpline
 62
253
  6
CONTINUOUS
 70
0
 71
3
 72
16
 73
12
 74
10
 42
0.0000001
 43
0.0000001
 44
0.0000000001
 12
0.1421423077
 22
-0.290889135
 32
0.0
 13
-0.292835818
 23
-0.1380873209
 33
0.0
 40
0.0
 40
0.0
 40
0.0
 40
0.0
 40
0.0765729985
 40
0.1527621171
 40
0.3020117644
 40
0.4443561048
 40
0.5769613926
 40
0.6980371656
 40
0.8073186301
 40
0.9065955582
 40
1.0
 40
1.0
 40
1.0
 40
1.0
 10
-13.5655840542
 20
2.2977965525
 30
0.0
 10
-13.5619559666
 20
2.2903718014
 30
0.0
 10
-13.555243081
 20
2.2752988225
 30
0.0
 10
-13.5437374028
 20
2.2447904181
 30
0.0
 10
-13.5331151579
 20
2.2064292542
 30
0.0
 10
-13.5267092198
 20
2.1609581987
 30
0.0
 10
-13.5269757884
 20
2.1180423865
 30
0.0
 10
-13.5339568305
 20
2.0792638861
 30
0.0
 10
-13.5475449705
 20
2.0460334634
 30
0.0
 10
-13.567473737
 20
2.0197102652
 30
0.0
 10
-13.5848862833
 20
2.0075657856
 30
0.0
 10
-13.594003672
 20
2.0032664626
 30
0.0
 11
-13.5655840542
 21
2.2977965525
 31
0.0
 11
-13.5554506206
 21
2.2751708357
 31
0.0
 11
-13.5467580489
 21
2.25208617
 31
0.0
 11
-13.5339684459
 21
2.2054883152
 31
0.0
 11
-13.5277246104
 21
2.1598277546
 31
0.0
 11
-13.5282700819
 21
2.1168988528
 31
0.0
 11
-13.53558296
 21
2.078387456
 31
0.0
 11
-13.5493760692
 21
2.0458057498
 31
0.0
 11
-13.5691079777
 21
2.0204333786
 31
0.0
 11
-13.594003672
 21
2.0032664626
 31
0.0
  0
LINE
  5
3C0
100
AcDbEntity
  8
RACCORDO
100
AcDbLine
 62
253
  6
CONTINUOUS
 10
-13.3631176131
 20
2.3937519648
 11
-13.565583999
 21
2.2977965784
  0
SPLINE
  5
3C1
100
AcDbEntity
  8
RACCORDO
100
AcDbSpline
 62
253
  6
CONTINUOUS
 70
0
 71
3
 72
38
 73
34
 74
32
 42
0.0000001
 43
0.0000001
 44
0.0000000001
 12
-3.1186283831
 22
6.3876450912
 32
0.0
 13
3.0997310527
 23
-6.3968367342
 33
0.0
 40
0.0
 40
0.0
 40
0.0
 40
0.0
 40
0.0756872669
 40
0.1130461758
 40
0.1497896385
 40
0.1857236832
 40
0.2206733405
 40
0.2544879014
 40
0.2870466356
 40
0.3182650548
 40
0.3481016532
 40
0.3765651226
 40
0.3903060043
 40
0.4037335439
 40
0.4297113836
 40
0.4547056108
 40
0.4789740596
 40
0.5028268
 40
0.5266064898
 40
0.5506620479
 40
0.5753209249
 40
0.6008659091
 40
0.6275201933
 40
0.6554411356
 40
0.6847208537
 40
0.7153908868
 40
0.74742897
 40
0.7807662151
 40
0.8152942986
 40
0.8508720182
 40
0.8873314702
 40
0.92448364
 40
1.0
 40
1.0
 40
1.0
 40
1.0
 10
-13.8773575902
 20
2.1449737117
 30
0.0
 10
-13.9560377431
 20
2.306128178
 30
0.0
 10
-14.059093931
 20
2.5543392937
 30
0.0
 10
-14.163956971
 20
2.8935817728
 30
0.0
 10
-14.2248582739
 20
3.1472987999
 30
0.0
 10
-14.267729758
 20
3.3988825728
 30
0.0
 10
-14.2921597441
 20
3.6459702166
 30
0.0
 10
-14.2979027495
 20
3.8862181112
 30
0.0
 10
-14.2848907066
 20
4.117355449
 30
0.0
 10
-14.253223886
 20
4.3372047126
 30
0.0
 10
-14.2031786025
 20
4.5436689845
 30
0.0
 10
-14.1458326014
 20
4.7048423575
 30
0.0
 10
-14.0910109728
 20
4.8247960421
 30
0.0
 10
-14.0318674162
 20
4.9360389739
 30
0.0
 10
-13.9477561912
 20
5.0639148451
 30
0.0
 10
-13.8299980192
 20
5.1985497428
 30
0.0
 10
-13.6975922566
 20
5.3112914966
 30
0.0
 10
-13.5518608613
 20
5.4008662994
 30
0.0
 10
-13.3943359483
 20
5.4662694148
 30
0.0
 10
-13.2267203508
 20
5.5068061068
 30
0.0
 10
-13.0508061247
 20
5.5221204553
 30
0.0
 10
-12.8684060578
 20
5.5121652864
 30
0.0
 10
-12.6813223336
 20
5.4771543914
 30
0.0
 10
-12.4913449686
 20
5.417526135
 30
0.0
 10
-12.3002605409
 20
5.3339235267
 30
0.0
 10
-12.109854047
 20
5.2271930068
 30
0.0
 10
-11.9219047321
 20
5.0983808445
 30
0.0
 10
-11.7381717794
 20
4.948735089
 30
0.0
 10
-11.5603789638
 20
4.7796945568
 30
0.0
 10
-11.3902000942
 20
4.5928885812
 30
0.0
 10
-11.2292229364
 20
4.3900928266
 30
0.0
 10
-11.0278705999
 20
4.0995224055
 30
0.0
 10
-10.8967473117
 20
3.8659496679
 30
0.0
 10
-10.8187205097
 20
3.704927726
 30
0.0
 11
-13.8773575902
 21
2.1449737117
 31
0.0
 11
-14.083314453
 21
2.6419985871
 31
0.0
 11
-14.1616266038
 21
2.8957471408
 31
0.0
 11
-14.2224244797
 21
3.1497557343
 31
0.0
 11
-14.2651162123
 21
3.4015925612
 31
0.0
 11
-14.2892865975
 21
3.6488464402
 31
0.0
 11
-14.2947005659
 21
3.8891493221
 31
0.0
 11
-14.2813055994
 21
4.1201984404
 31
0.0
 11
-14.2492322803
 21
4.3397781
 31
0.0
 11
-14.1987925051
 21
4.5457802019
 31
0.0
 11
-14.1304770444
 21
4.7362246881
 31
0.0
 11
-14.0898167371
 21
4.8250334473
 31
0.0
 11
-14.0449497992
 21
4.9092775576
 31
0.0
 11
-13.9430423708
 21
5.0632694545
 31
0.0
 11
-13.8257447531
 21
5.1967108058
 31
0.0
 11
-13.6941967515
 21
5.3083077884
 31
0.0
 11
-13.5496758668
 21
5.3969740083
 31
0.0
 11
-13.3935855423
 21
5.4618429529
 31
0.0
 11
-13.2274407264
 21
5.5022761855
 31
0.0
 11
-13.0528532835
 21
5.5178711202
 31
0.0
 11
-12.8715157721
 21
5.5084654812
 31
0.0
 11
-12.6851846409
 21
5.4741395971
 31
0.0
 11
-12.4956627232
 21
5.4152167938
 31
0.0
 11
-12.3047811754
 21
5.3322598259
 31
0.0
 11
-12.1143812719
 21
5.2260668492
 31
0.0
 11
-11.9262961847
 21
5.0976622253
 31
0.0
 11
-11.7423328098
 21
4.9482878202
 31
0.0
 11
-11.5642543987
 21
4.7793890126
 31
0.0
 11
-11.3937632969
 21
4.5926013437
 31
0.0
 11
-11.2324851437
 21
4.3897328894
 31
0.0
 11
-11.0819534333
 21
4.1727467682
 31
0.0
 11
-10.8187205097
 21
3.704927726
 31
0.0
  0
SPLINE
  5
3C2
100
AcDbEntity
  8
RACCORDO
100
AcDbSpline
 62
253
  6
CONTINUOUS
 70
0
 71
3
 72
14
 73
10
 74
8
 42
0.0000001
 43
0.0000001
 44
0.0000000001
 12
-0.154908027
 22
0.2380098127
 32
0.0
 13
0.2028166202
 23
0.1987727002
 33
0.0
 40
0.0
 40
0.0
 40
0.0
 40
0.0
 40
0.2778721441
 40
0.4104361338
 40
0.537589717
 40
0.6592671024
 40
0.7760184833
 40
0.8890240509
 40
1.0
 40
1.0
 40
1.0
 40
1.0
 10
-10.8700283569
 20
0.6413090951
 30
0.0
 10
-10.8843765654
 20
0.6633545274
 30
0.0
 10
-10.9016333379
 20
0.6988738802
 30
0.0
 10
-10.9135162169
 20
0.7485053801
 30
0.0
 10
-10.9164148899
 20
0.7846582478
 30
0.0
 10
-10.9133023893
 20
0.8193039348
 30
0.0
 10
-10.9042109149
 20
0.8515231647
 30
0.0
 10
-10.8893470775
 20
0.8803948683
 30
0.0
 10
-10.875769072
 20
0.896928148
 30
0.0
 10
-10.868266483
 20
0.9042811443
 30
0.0
 11
-10.8700283569
 21
0.6413090951
 31
0.0
 11
-10.9039914367
 21
0.7125366092
 31
0.0
 11
-10.9126544408
 21
0.7491719329
 31
0.0
 11
-10.9154094871
 21
0.7851758704
 31
0.0
 11
-10.9121827302
 21
0.8195789354
 31
0.0
 11
-10.9030607423
 21
0.8514545427
 31
0.0
 11
-10.888289404
 21
0.8799443161
 31
0.0
 11
-10.868266483
 21
0.9042811443
 31
0.0
  0
SPLINE
  5
3C3
100
AcDbEntity
  8
RACCORDO
100
AcDbSpline
 62
253
  6
CONTINUOUS
 70
0
 71
3
 72
22
 73
18
 74
16
 42
0.0000001
 43
0.0000001
 44
0.0000000001
 12
-1.4318800518
 22
2.9398356636
 32
0.0
 13
2.940540011
 23
1.4304330307
 33
0.0
 40
0.0
 40
0.0
 40
0.0
 40
0.0
 40
0.1506537982
 40
0.2250123424
 40
0.2981358719
 40
0.3696337171
 40
0.4391540853
 40
0.506394952
 40
0.5711157894
 40
0.6331505082
 40
0.6924212047
 40
0.7489528991
 40
0.8028875071
 40
0.854495398
 40
0.9041800658
 40
0.9524710369
 40
1.0
 40
1.0
 40
1.0
 40
1.0
 10
-13.565583999
 20
2.2977965784
 30
0.0
 10
-13.6374900551
 20
2.4454290479
 30
0.0
 10
-13.7315145239
 20
2.6728636225
 30
0.0
 10
-13.8267683637
 20
2.9837181292
 30
0.0
 10
-13.8817985288
 20
3.2161684465
 30
0.0
 10
-13.920152989
 20
3.4465955773
 30
0.0
 10
-13.9414549723
 20
3.672800736
 30
0.0
 10
-13.9454854848
 20
3.8926030252
 30
0.0
 10
-13.9321912563
 20
4.1038924851
 30
0.0
 10
-13.9016813057
 20
4.3046410001
 30
0.0
 10
-13.8542192835
 20
4.4929204846
 30
0.0
 10
-13.7902204716
 20
4.6669142227
 30
0.0
 10
-13.7102413606
 20
4.8249228621
 30
0.0
 10
-13.6149904136
 20
4.9653634014
 30
0.0
 10
-13.5053169452
 20
5.0867801767
 30
0.0
 10
-13.3823141029
 20
5.1878250191
 30
0.0
 10
-13.2918657573
 20
5.2410624983
 30
0.0
 10
-13.2452788181
 20
5.2637248312
 30
0.0
 11
-13.565583999
 21
2.2977965784
 31
0.0
 11
-13.7534735907
 21
2.7531974393
 31
0.0
 11
-13.8246062483
 21
2.98571267
 31
0.0
 11
-13.8795378369
 21
3.2184315424
 31
0.0
 11
-13.9177223616
 21
3.4490903768
 31
0.0
 11
-13.9387803361
 21
3.6754447199
 31
0.0
 11
-13.9425025527
 21
3.8952909919
 31
0.0
 11
-13.9288519114
 21
4.1064875775
 31
0.0
 11
-13.8979643333
 21
4.306975899
 31
0.0
 11
-13.8501463752
 21
4.4947997948
 31
0.0
 11
-13.7858730197
 21
4.6681252062
 31
0.0
 11
-13.7057816198
 21
4.8252571072
 31
0.0
 11
-13.6106663411
 21
4.9646569556
 31
0.0
 11
-13.501469109
 21
5.0849571274
 31
0.0
 11
-13.379270571
 21
5.1849750482
 31
0.0
 11
-13.2452788181
 21
5.2637248312
 31
0.0
  0
SPLINE
  5
3C4
100
AcDbEntity
  8
RACCORDO
100
AcDbSpline
 62
253
  6
CONTINUOUS
 70
0
 71
3
 72
18
 73
14
 74
12
 42
0.0000001
 43
0.0000001
 44
0.0000000001
 12
0.3105388312
 22
0.155329927
 32
0.0
 13
0.3145828352
 23
0.1469673151
 33
0.0
 40
0.0
 40
0.0
 40
0.0
 40
0.0
 40
0.0459425319
 40
0.0967437523
 40
0.2109743853
 40
0.3384226026
 40
0.4743189621
 40
0.6135794513
 40
0.7510029038
 40
0.8174116219
 40
0.8814423149
 40
0.9424991229
 40
1.0
 40
1.0
 40
1.0
 40
1.0
 10
-13.8773587913
 20
2.1449743123
 30
0.0
 10
-13.8726031446
 20
2.1473530623
 30
0.0
 10
-13.8626197379
 20
2.152423495
 30
0.0
 10
-13.8407828245
 20
2.1633504732
 30
0.0
 10
-13.810482354
 20
2.1784440891
 30
0.0
 10
-13.7713055548
 20
2.1978070172
 30
0.0
 10
-13.7294867753
 20
2.2183623221
 30
0.0
 10
-13.68658677
 20
2.2393349673
 30
0.0
 10
-13.6508715917
 20
2.2566922985
 30
0.0
 10
-13.6229717772
 20
2.2702108673
 30
0.0
 10
-13.6030035272
 20
2.2798288492
 30
0.0
 10
-13.5839610024
 20
2.288992146
 30
0.0
 10
-13.5716136505
 20
2.2949796359
 30
0.0
 10
-13.5655840542
 20
2.2977965525
 30
0.0
 11
-13.8773587913
 21
2.1449743123
 31
0.0
 11
-13.8631143479
 21
2.1521553623
 31
0.0
 11
-13.8473466287
 21
2.1600623502
 31
0.0
 11
-13.8118430081
 21
2.1777445312
 31
0.0
 11
-13.7721752448
 21
2.1973598031
 31
0.0
 11
-13.7298288734
 21
2.2181756053
 31
0.0
 11
-13.686387485
 21
2.2394113809
 31
0.0
 11
-13.6434736207
 21
2.260273636
 31
0.0
 11
-13.6227201055
 21
2.2703226728
 31
0.0
 11
-13.6026928621
 21
2.2799769062
 31
0.0
 11
-13.5835947293
 21
2.2891805768
 31
0.0
 11
-13.5655840542
 21
2.2977965525
 31
0.0
  0
SPLINE
  5
3C5
100
AcDbEntity
  8
RACCORDO
100
AcDbSpline
 62
7
  6
CONTINUOUS
 70
0
 71
3
 72
12
 73
8
 74
6
 42
0.0000001
 43
0.0000001
 44
0.0000000001
 12
-0.3698206146
 22
-0.1812936335
 32
0.0
 13
-0.3338786839
 23
-0.2411632081
 33
0.0
 40
0.0
 40
0.0
 40
0.0
 40
0.0
 40
0.1270359114
 40
0.2678470786
 40
0.5480892305
 40
0.7963070788
 40
1.0
 40
1.0
 40
1.0
 40
1.0
 10
-15.3414245245
 20
0.8056750957
 30
0.0
 10
-15.3570846908
 20
0.7979981617
 30
0.0
 10
-15.3897367364
 20
0.7810647521
 30
0.0
 10
-15.4555836301
 20
0.7446382243
 30
0.0
 10
-15.5346288074
 20
0.6977473056
 30
0.0
 10
-15.6194658649
 20
0.6438181607
 30
0.0
 10
-15.6707343635
 20
0.6088407651
 30
0.0
 10
-15.6934039383
 20
0.5924663523
 30
0.0
 11
-15.3414245245
 21
0.8056750957
 31
0.0
 11
-15.3879510196
 21
0.7817403852
 31
0.0
 11
-15.4387368113
 21
0.7537353311
 31
0.0
 11
-15.5380792386
 21
0.6949692403
 31
0.0
 11
-15.6242944849
 21
0.6400285495
 31
0.0
 11
-15.6934039383
 21
0.5924663523
 31
0.0
  0
LINE
  5
3C6
100
AcDbEntity
  8
RACCORDO
100
AcDbLine
 62
253
  6
CONTINUOUS
 10
-9.7401528786
 20
-12.0247409133
 11
-10.4995038335
 21
-12.3827068376
  0
SPLINE
  5
3C7
100
AcDbEntity
  8
RACCORDO
100
AcDbSpline
 62
7
  6
CONTINUOUS
 70
0
 71
3
 72
11
 73
7
 74
5
 42
0.0000001
 43
0.0000001
 44
0.0000000001
 12
-0.1017904166
 22
0.0508953878
 32
0.0
 13
-0.1029443686
 23
-0.048518928
 33
0.0
 40
0.0
 40
0.0
 40
0.0
 40
0.0
 40
0.2788876293
 40
0.5351043745
 40
0.7729514039
 40
1.0
 40
1.0
 40
1.0
 40
1.0
 10
-10.4995037836
 20
-12.3827068626
 30
0.0
 10
-10.5089664796
 20
-12.3779754979
 30
0.0
 10
-10.5278876687
 20
-12.3702911567
 30
0.0
 10
-10.5568805948
 20
-12.3646522219
 30
0.0
 10
-10.5844837813
 20
-12.365676836
 30
0.0
 10
-10.6015723279
 20
-12.3709799642
 30
0.0
 10
-10.6093634527
 20
-12.3746520157
 30
0.0
 11
-10.4995037836
 21
-12.3827068626
 31
0.0
 11
-10.5290017501
 21
-12.37099252
 31
0.0
 11
-10.5576718419
 21
-12.365676345
 31
0.0
 11
-10.5847120698
 21
-12.3669073653
 31
0.0
 11
-10.6093634527
 21
-12.3746520157
 31
0.0
  0
SPLINE
  5
3C8
100
AcDbEntity
  8
RACCORDO
100
AcDbSpline
 62
253
  6
CONTINUOUS
 70
0
 71
3
 72
11
 73
7
 74
5
 42
0.0000001
 43
0.0000001
 44
0.0000000001
 12
-0.1079281168
 22
0.0518077414
 32
0.0
 13
-0.1057942632
 23
-0.0560365447
 33
0.0
 40
0.0
 40
0.0
 40
0.0
 40
0.0
 40
0.2792012242
 40
0.5353510324
 40
0.7729253286
 40
1.0
 40
1.0
 40
1.0
 40
1.0
 10
-10.6948237567
 20
-12.4861732833
 30
0.0
 10
-10.7048683108
 20
-12.4813516883
 30
0.0
 10
-10.7249155582
 20
-12.4735825003
 30
0.0
 10
-10.7555664261
 20
-12.468383786
 30
0.0
 10
-10.784562582
 20
-12.4703987508
 30
0.0
 10
-10.8022952966
 20
-12.4767380916
 30
0.0
 10
-10.8103030291
 20
-12.4809795849
 30
0.0
 11
-10.6948237567
 21
-12.4861732833
 31
0.0
 11
-10.7261003816
 21
-12.4743817464
 31
0.0
 11
-10.7563790847
 21
-12.4695241901
 31
0.0
 11
-10.7847342263
 21
-12.4717458028
 31
0.0
 11
-10.8103030291
 21
-12.4809795849
 31
0.0
  0
LINE
  5
3C9
100
AcDbEntity
  8
RACCORDO
100
AcDbLine
 62
253
  6
CONTINUOUS
 10
-10.4995037892
 20
-12.3827068598
 11
-10.6948237569
 21
-12.4861732832
  0
SPLINE
  5
3CA
100
AcDbEntity
  8
RACCORDO
100
AcDbSpline
 62
7
  6
CONTINUOUS
 70
0
 71
3
 72
17
 73
13
 74
11
 42
0.0000001
 43
0.0000001
 44
0.0000000001
 12
0.3527102307
 22
0.347275943
 32
0.0
 13
-0.4427237816
 23
0.221361109
 33
0.0
 40
0.0
 40
0.0
 40
0.0
 40
0.0
 40
0.0461248549
 40
0.0951849172
 40
0.147842959
 40
0.2043759906
 40
0.3283910721
 40
0.4642040243
 40
0.605978459
 40
0.7467952647
 40
0.8799043297
 40
1.0
 40
1.0
 40
1.0
 40
1.0
 10
-13.3631176132
 20
-11.3051708038
 30
0.0
 10
-13.3576947104
 20
-11.299831453
 30
0.0
 10
-13.3477138668
 20
-11.2875324405
 30
0.0
 10
-13.3362655527
 20
-11.2658498741
 30
0.0
 10
-13.3281133956
 20
-11.2409270915
 30
0.0
 10
-13.3216213635
 20
-11.2028876953
 30
0.0
 10
-13.3230003315
 20
-11.1501991397
 30
0.0
 10
-13.3379555288
 20
-11.0852873153
 30
0.0
 10
-13.3650974316
 20
-11.0214409254
 30
0.0
 10
-13.4024067013
 20
-10.9634671368
 30
0.0
 10
-13.447047867
 20
-10.9157172547
 30
0.0
 10
-13.4817521668
 20
-10.8915826397
 30
0.0
 10
-13.4994752366
 20
-10.8827211361
 30
0.0
 11
-13.3631176132
 21
-11.3051708038
 31
0.0
 11
-13.3486345559
 21
-11.2875217267
 31
0.0
 11
-13.3371575303
 21
-11.2661213036
 31
0.0
 11
-13.3289142528
 21
-11.2413944866
 31
0.0
 11
-13.3240698775
 21
-11.2138342928
 31
0.0
 11
-13.3248951373
 21
-11.1524548696
 31
0.0
 11
-13.3395695744
 21
-11.0868513755
 31
0.0
 11
-13.3669292284
 21
-11.0222290169
 31
0.0
 11
-13.4048029481
 21
-10.9637150992
 31
0.0
 11
-13.4501851221
 21
-10.915950425
 31
0.0
 11
-13.4994752366
 21
-10.8827211361
 31
0.0
  0
LINE
  5
3CB
100
AcDbEntity
  8
RACCORDO
100
AcDbLine
 62
253
  6
CONTINUOUS
 10
-11.8084441837
 20
-10.0240592327
 11
-13.4994751867
 21
-10.882721161
  0
LINE
  5
3CC
100
AcDbEntity
  8
RACCORDO
100
AcDbLine
 62
253
  6
CONTINUOUS
 10
-11.3215535778
 20
-10.2675036857
 11
-13.3631175787
 21
-11.3051707699
  0
LINE
  5
3CD
100
AcDbEntity
  8
RACCORDO
100
AcDbLine
 62
253
  6
CONTINUOUS
 10
-13.3631176131
 20
-11.3051708037
 11
-13.565583994
 21
-11.4047478483
  0
SPLINE
  5
3CE
100
AcDbEntity
  8
RACCORDO
100
AcDbSpline
 62
253
  6
CONTINUOUS
 70
0
 71
3
 72
18
 73
14
 74
12
 42
0.0000001
 43
0.0000001
 44
0.0000000001
 12
0.3470735421
 22
0.3494265358
 32
0.0
 13
-0.4379520989
 23
0.2252929352
 33
0.0
 40
0.0
 40
0.0
 40
0.0
 40
0.0
 40
0.0454285352
 40
0.0939819161
 40
0.1463332802
 40
0.2027375548
 40
0.3269252228
 40
0.4632572471
 40
0.6056437955
 40
0.7469282513
 40
0.8801403052
 40
0.9420055361
 40
1.0
 40
1.0
 40
1.0
 40
1.0
 10
-13.5655840542
 20
-11.4047478779
 30
0.0
 10
-13.5603283733
 20
-11.399456566
 30
0.0
 10
-13.5506683713
 20
-11.3872539468
 30
0.0
 10
-13.5396959441
 20
-11.3657422771
 30
0.0
 10
-13.5319596644
 20
-11.3409897093
 30
0.0
 10
-13.525947813
 20
-11.3031137254
 30
0.0
 10
-13.5277528898
 20
-11.2506294608
 30
0.0
 10
-13.5428695312
 20
-11.1858995086
 30
0.0
 10
-13.5698582511
 20
-11.1220881087
 30
0.0
 10
-13.6066796013
 20
-11.0640452019
 30
0.0
 10
-13.6442092003
 20
-11.0230021779
 30
0.0
 10
-13.6768789012
 20
-10.9972259107
 30
0.0
 10
-13.6936879255
 20
-10.9868633137
 30
0.0
 10
-13.7021541912
 20
-10.982508066
 30
0.0
 11
-13.5655840542
 21
-11.4047478779
 31
0.0
 11
-13.5516000946
 21
-11.38728276
 31
0.0
 11
-13.5405835734
 21
-11.366058901
 31
0.0
 11
-13.5327479274
 21
-11.3414951971
 31
0.0
 11
-13.5282521765
 21
-11.3140821438
 31
0.0
 11
-13.5295676419
 21
-11.2529335251
 31
0.0
 11
-13.5444254946
 21
-11.1874541627
 31
0.0
 11
-13.5716491334
 21
-11.1228283443
 31
0.0
 11
-13.609083313
 21
-11.0641727946
 31
0.0
 11
-13.6537632344
 21
-11.0161309107
 31
0.0
 11
-13.6777345148
 21
-10.9973233264
 31
0.0
 11
-13.7021541912
 21
-10.982508066
 31
0.0
  0
LINE
  5
3CF
100
AcDbEntity
  8
RACCORDO
100
AcDbLine
 62
253
  6
CONTINUOUS
 10
-13.4994752311
 20
-10.8827211389
 11
-13.7021541911
 21
-10.9825080661
  0
SPLINE
  5
3D0
100
AcDbEntity
  8
RACCORDO
100
AcDbSpline
 62
253
  6
CONTINUOUS
 70
0
 71
3
 72
38
 73
34
 74
32
 42
0.0000001
 43
0.0000001
 44
0.0000000001
 12
3.2443293071
 22
-6.2855137219
 32
0.0
 13
-3.2082183852
 23
6.3040217476
 33
0.0
 40
0.0
 40
0.0
 40
0.0
 40
0.0
 40
0.0764587844
 40
0.1140843552
 40
0.1509946087
 40
0.1869811523
 40
0.2218564125
 40
0.2554596641
 40
0.2876636777
 40
0.318382234
 40
0.3475783509
 40
0.3752733656
 40
0.4015558489
 40
0.4265891984
 40
0.4506148051
 40
0.4739472038
 40
0.4969576428
 40
0.5200458459
 40
0.5436048046
 40
0.5679872563
 40
0.593481472
 40
0.6067212136
 40
0.6203117305
 40
0.6485874571
 40
0.6783825097
 40
0.70969412
 40
0.7424644862
 40
0.7765896261
 40
0.8119274961
 40
0.8483053026
 40
0.8855260096
 40
0.9233743384
 40
1.0
 40
1.0
 40
1.0
 40
1.0
 10
-10.870029558
 20
-12.7942247176
 30
0.0
 10
-10.787343733
 20
-12.9544189637
 30
0.0
 10
-10.6778208419
 20
-13.2010292362
 30
0.0
 10
-10.5634163791
 20
-13.5383271748
 30
0.0
 10
-10.4952246088
 20
-13.7900337158
 30
0.0
 10
-10.4448627899
 20
-14.0392890923
 30
0.0
 10
-10.4128026289
 20
-14.2837130924
 30
0.0
 10
-10.399353886
 20
-14.5209545782
 30
0.0
 10
-10.4046566269
 20
-14.7487463327
 30
0.0
 10
-10.4286855211
 20
-14.9649175627
 30
0.0
 10
-10.4712585552
 20
-15.1674127227
 30
0.0
 10
-10.5320420507
 20
-15.3543016843
 30
0.0
 10
-10.6105603416
 20
-15.5237804368
 30
0.0
 10
-10.7061875454
 20
-15.6741646909
 30
0.0
 10
-10.8181258035
 20
-15.8038817417
 30
0.0
 10
-10.9453559967
 20
-15.9114880896
 30
0.0
 10
-11.0865970908
 20
-15.9957318577
 30
0.0
 10
-11.2403140727
 20
-16.0556512896
 30
0.0
 10
-11.4048057167
 20
-16.0906488219
 30
0.0
 10
-11.5782896278
 20
-16.1004890007
 30
0.0
 10
-11.727053645
 20
-16.0879298056
 30
0.0
 10
-11.848518403
 20
-16.0659809126
 30
0.0
 10
-11.9748132053
 20
-16.0351581377
 30
0.0
 10
-12.1351932268
 20
-15.9808227763
 30
0.0
 10
-12.3270630856
 20
-15.8928658533
 30
0.0
 10
-12.5190853215
 20
-15.7821841083
 30
0.0
 10
-12.7094178954
 20
-15.6498696427
 30
0.0
 10
-12.8962470258
 20
-15.497205394
 30
0.0
 10
-13.0777739655
 20
-15.3256666089
 30
0.0
 10
-13.2522388819
 20
-15.136912902
 30
0.0
 10
-13.4179605098
 20
-14.9327489809
 30
0.0
 10
-13.6258736572
 20
-14.6415336478
 30
0.0
 10
-13.7626737894
 20
-14.4078787197
 30
0.0
 10
-13.8446177415
 20
-14.2468621074
 30
0.0
 11
-10.870029558
 21
-12.7942247176
 31
0.0
 11
-10.6509088927
 21
-13.2886723018
 31
0.0
 11
-10.5655463334
 21
-13.54075291
 31
0.0
 11
-10.4974523459
 21
-13.7927985244
 31
0.0
 11
-10.4472748879
 21
-14.0423520961
 31
0.0
 11
-10.4154907291
 21
-14.2869835039
 31
0.0
 11
-10.4024016305
 21
-14.5243129489
 31
0.0
 11
-10.4081320878
 21
-14.7520335657
 31
0.0
 11
-10.4326277555
 21
-14.9679338264
 31
0.0
 11
-10.4756568379
 21
-15.1699179663
 31
0.0
 11
-10.5368110103
 21
-15.3560266526
 31
0.0
 11
-10.6155100283
 21
-15.5244545355
 31
0.0
 11
-10.7110055004
 21
-15.6735684083
 31
0.0
 11
-10.8223882577
 21
-15.8019219197
 31
0.0
 11
-10.9485954271
 21
-15.9082701717
 31
0.0
 11
-11.088420047
 21
-15.9915813466
 31
0.0
 11
-11.2405216039
 21
-16.0510469085
 31
0.0
 11
-11.4034378808
 21
-16.0860901184
 31
0.0
 11
-11.5755986476
 21
-16.0963710553
 31
0.0
 11
-11.7553397612
 21
-16.0817915026
 31
0.0
 11
-11.8475112393
 21
-16.0652143064
 31
0.0
 11
-11.94091941
 21
-16.0424946678
 31
0.0
 11
-12.1305343971
 21
-15.9788655822
 31
0.0
 11
-12.3223380923
 21
-15.8915259481
 31
0.0
 11
-12.5144584438
 21
-15.7813292167
 31
0.0
 11
-12.7050168045
 21
-15.6493512772
 31
0.0
 11
-12.8921467251
 21
-15.4968799861
 31
0.0
 11
-13.0740129249
 21
-15.3254023162
 31
0.0
 11
-13.248829657
 21
-15.13658894
 31
0.0
 11
-13.4148791204
 21
-14.9322783013
 31
0.0
 11
-13.5705283073
 21
-14.7144574757
 31
0.0
 11
-13.8446177415
 21
-14.2468621074
 31
0.0
  0
SPLINE
  5
3D1
100
AcDbEntity
  8
RACCORDO
100
AcDbSpline
 62
253
  6
CONTINUOUS
 70
0
 71
3
 72
13
 73
9
 74
7
 42
0.0000001
 43
0.0000001
 44
0.0000000001
 12
0.2013134319
 22
-0.2971978839
 32
0.0
 13
0.3222159498
 23
0.1582104983
 33
0.0
 40
0.0
 40
0.0
 40
0.0
 40
0.0
 40
0.2681532726
 40
0.5306186411
 40
0.6560285724
 40
0.775973616
 40
0.890367689
 40
1.0
 40
1.0
 40
1.0
 40
1.0
 10
-13.8773587913
 20
-11.2905601009
 30
0.0
 10
-13.8593645061
 20
-11.3171249626
 30
0.0
 10
-13.8153900786
 20
-11.3644331148
 30
0.0
 10
-13.7461181753
 20
-11.4042212402
 30
0.0
 10
-13.6872666918
 20
-11.4204328795
 30
0.0
 10
-13.6441109391
 20
-11.4241685308
 30
0.0
 10
-13.6029363882
 20
-11.4194483883
 30
0.0
 10
-13.5773591473
 20
-11.4105295388
 30
0.0
 10
-13.5655840542
 20
-11.4047478779
 30
0.0
 11
-13.8773587913
 21
-11.2905601009
 31
0.0
 11
-13.81183997
 21
-11.3610771886
 31
0.0
 11
-13.7298172238
 21
-11.4074318044
 31
0.0
 11
-13.6863724478
 21
-11.4192265968
 31
0.0
 11
-13.6434608377
 21
-11.4227461967
 31
0.0
 11
-13.6026895719
 21
-11.4178591071
 31
0.0
 11
-13.5655840542
 21
-11.4047478779
 31
0.0
  0
SPLINE
  5
3D2
100
AcDbEntity
  8
RACCORDO
100
AcDbSpline
 62
253
  6
CONTINUOUS
 70
0
 71
3
 72
15
 73
11
 74
9
 42
0.0000001
 43
0.0000001
 44
0.0000000001
 12
-0.0451694921
 22
-0.0228285341
 32
0.0
 13
-0.0481216952
 23
-0.0156756956
 33
0.0
 40
0.0
 40
0.0
 40
0.0
 40
0.0
 40
0.2500064811
 40
0.5000143147
 40
0.6250151801
 40
0.7500269828
 40
0.8125243042
 40
0.8750122528
 40
0.9375458174
 40
1.0
 40
1.0
 40
1.0
 40
1.0
 10
-10.8700283569
 20
-12.7942253181
 30
0.0
 10
-10.8737925788
 20
-12.7961277453
 30
0.0
 10
-10.8813208701
 20
-12.7999329334
 30
0.0
 10
-10.8907411518
 20
-12.8046697796
 30
0.0
 10
-10.8982912844
 20
-12.8084316128
 30
0.0
 10
-10.9030116786
 20
-12.8107798124
 30
0.0
 10
-10.9067961899
 20
-12.8126407663
 30
0.0
 10
-10.9096519052
 20
-12.8140036462
 30
0.0
 10
-10.9124842207
 20
-12.815405159
 30
0.0
 10
-10.9144115386
 20
-12.8162788616
 30
0.0
 10
-10.915413339
 20
-12.8166051992
 30
0.0
 11
-10.8700283569
 21
-12.7942253181
 31
0.0
 11
-10.8813228414
 21
-12.7999289995
 31
0.0
 11
-10.8926298611
 21
-12.8056079429
 31
0.0
 11
-10.89829144
 21
-12.8084309456
 31
0.0
 11
-10.9039587334
 21
-12.811243704
 31
0.0
 11
-10.9067991672
 21
-12.8126353378
 31
0.0
 11
-10.9096474217
 21
-12.8140098029
 31
0.0
 11
-10.9124951944
 21
-12.8153905659
 31
0.0
 11
-10.915413339
 21
-12.8166051992
 31
0.0
  0
SPLINE
  5
3D3
100
AcDbEntity
  8
RACCORDO
100
AcDbSpline
 62
7
  6
CONTINUOUS
 70
0
 71
3
 72
11
 73
7
 74
5
 42
0.0000001
 43
0.0000001
 44
0.0000000001
 12
-0.1294037198
 22
0.2180704293
 32
0.0
 13
-0.0036888256
 23
0.2535476827
 33
0.0
 40
0.0
 40
0.0
 40
0.0
 40
0.0
 40
0.2568009895
 40
0.5104482398
 40
0.7589972205
 40
1.0
 40
1.0
 40
1.0
 40
1.0
 10
-9.6496025557
 20
-13.4044382187
 30
0.0
 10
-9.6606795568
 20
-13.385771318
 30
0.0
 10
-9.6807888296
 20
-13.3474931125
 30
0.0
 10
-9.7043423498
 20
-13.2876718802
 30
0.0
 10
-9.7201878555
 20
-13.2267209354
 30
0.0
 10
-9.724751196
 20
-13.1853636209
 30
0.0
 10
-9.7250475351
 20
-13.1649950555
 30
0.0
 11
-9.6496025557
 21
-13.4044382187
 31
0.0
 11
-9.679832637
 21
-13.3467622238
 31
0.0
 11
-9.7032563791
 21
-13.2868606796
 31
0.0
 11
-9.7188345639
 21
-13.2257905772
 31
0.0
 11
-9.7250475351
 21
-13.1649950555
 31
0.0
  0
SPLINE
  5
3D4
100
AcDbEntity
  8
RACCORDO
100
AcDbSpline
 62
253
  6
CONTINUOUS
 70
0
 71
3
 72
15
 73
11
 74
9
 42
0.0000001
 43
0.0000001
 44
0.0000000001
 12
-0.3296292776
 22
-0.168337778
 32
0.0
 13
0.0055575214
 23
-0.3700840203
 33
0.0
 40
0.0
 40
0.0
 40
0.0
 40
0.0
 40
0.1107952603
 40
0.2308100939
 40
0.3580594757
 40
0.4898397297
 40
0.6230451318
 40
0.7544496228
 40
0.8809793974
 40
1.0
 40
1.0
 40
1.0
 40
1.0
 10
-10.6948237567
 20
-12.4861732833
 30
0.0
 10
-10.7069975439
 20
-12.4923902926
 30
0.0
 10
-10.7310969952
 20
-12.5078846777
 30
0.0
 10
-10.7641214061
 20
-12.5374429279
 30
0.0
 10
-10.7944382446
 20
-12.5732303732
 30
0.0
 10
-10.8208994916
 20
-12.6138904053
 30
0.0
 10
-10.8425153051
 20
-12.6578888533
 30
0.0
 10
-10.858466289
 20
-12.7035656738
 30
0.0
 10
-10.868148187
 20
-12.7491816851
 30
0.0
 10
-10.8702488434
 20
-12.7795427771
 30
0.0
 10
-10.8700283569
 20
-12.7942253181
 30
0.0
 11
-10.6948237567
 21
-12.4861732833
 31
0.0
 11
-10.7294865217
 21
-12.5080859149
 31
0.0
 11
-10.7627406058
 21
-12.5375367859
 31
0.0
 11
-10.7932932362
 21
-12.5733806702
 31
0.0
 11
-10.8199558998
 21
-12.6142234031
 31
0.0
 11
-10.8416914333
 21
-12.6584763988
 31
0.0
 11
-10.8576544786
 21
-12.7044183154
 31
0.0
 11
-10.8672242127
 21
-12.7502620675
 31
0.0
 11
-10.8700283569
 21
-12.7942253181
 31
0.0
  0
SPLINE
  5
3D5
100
AcDbEntity
  8
RACCORDO
100
AcDbSpline
 62
253
  6
CONTINUOUS
 70
0
 71
3
 72
15
 73
11
 74
9
 42
0.0000001
 43
0.0000001
 44
0.0000000001
 12
-0.3296292776
 22
-0.168337778
 32
0.0
 13
0.0055575214
 23
-0.3700840203
 33
0.0
 40
0.0
 40
0.0
 40
0.0
 40
0.0
 40
0.110813918
 40
0.230848821
 40
0.3581060645
 40
0.4898770398
 40
0.6230684748
 40
0.7544589466
 40
0.8809779499
 40
1.0
 40
1.0
 40
1.0
 40
1.0
 10
-13.7021541912
 20
-10.982508066
 30
0.0
 10
-13.7143300285
 20
-10.9887261223
 30
0.0
 10
-13.7384333121
 20
-11.0042235319
 30
0.0
 10
-13.7714609692
 20
-11.0337868462
 30
0.0
 10
-13.8017777588
 20
-11.0695773664
 30
0.0
 10
-13.8282362973
 20
-11.1102368626
 30
0.0
 10
-13.8498489165
 20
-11.1542317111
 30
0.0
 10
-13.8657976637
 20
-11.1999042173
 30
0.0
 10
-13.8754786565
 20
-11.2455174432
 30
0.0
 10
-13.8775792805
 20
-11.2758773813
 30
0.0
 10
-13.8773587913
 20
-11.2905601009
 30
0.0
 11
-13.7021541912
 21
-10.982508066
 31
0.0
 11
-13.7368224827
 21
-11.004424879
 31
0.0
 11
-13.7700810921
 21
-11.0338818442
 31
0.0
 11
-13.8006340265
 21
-11.0697292928
 31
0.0
 11
-13.8272931598
 21
-11.110570229
 31
0.0
 11
-13.8490252222
 21
-11.15481917
 31
0.0
 11
-13.8649858892
 21
-11.2007564199
 31
0.0
 11
-13.8745545754
 21
-11.246596318
 31
0.0
 11
-13.8773587913
 21
-11.2905601009
 31
0.0
  0
SPLINE
  5
3D6
100
AcDbEntity
  8
RACCORDO
100
AcDbSpline
 62
7
  6
CONTINUOUS
 70
0
 71
3
 72
12
 73
8
 74
6
 42
0.0000001
 43
0.0000001
 44
0.0000000001
 12
-0.3645938348
 22
-0.190957623
 32
0.0
 13
-0.3325367957
 23
-0.2425134174
 33
0.0
 40
0.0
 40
0.0
 40
0.0
 40
0.0
 40
0.1281643239
 40
0.2701369265
 40
0.5515721138
 40
0.7989672322
 40
1.0
 40
1.0
 40
1.0
 40
1.0
 10
-14.749011586
 20
-10.4623220589
 30
0.0
 10
-14.7645875602
 20
-10.4704800437
 30
0.0
 10
-14.7970860355
 20
-10.4883079118
 30
0.0
 10
-14.8625771016
 20
-10.526222243
 30
0.0
 10
-14.941016785
 20
-10.5743852616
 30
0.0
 10
-15.0249186553
 20
-10.6290499539
 30
0.0
 10
-15.075500995
 20
-10.6640961525
 30
0.0
 10
-15.0977845925
 20
-10.6803472003
 30
0.0
 11
-14.749011586
 21
-10.4623220589
 31
0.0
 11
-14.7953294769
 21
-10.4875634171
 31
0.0
 11
-14.8459322253
 21
-10.5167814603
 31
0.0
 11
-14.9447009126
 21
-10.5772933299
 31
0.0
 11
-15.0299539549
 21
-10.632966803
 31
0.0
 11
-15.0977845925
 21
-10.6803472003
 31
0.0
  0
SPLINE
  5
3D7
100
AcDbEntity
  8
RACCORDO
100
AcDbSpline
 62
253
  6
CONTINUOUS
 70
0
 71
3
 72
18
 73
14
 74
12
 42
0.0000001
 43
0.0000001
 44
0.0000000001
 12
1.4138571245
 22
-2.917741261
 32
0.0
 13
-2.314639298
 23
-2.2703856401
 33
0.0
 40
0.0
 40
0.0
 40
0.0
 40
0.0
 40
0.146038327
 40
0.2897795267
 40
0.4287305028
 40
0.5607256759
 40
0.6236179668
 40
0.6842170962
 40
0.7981645602
 40
0.8516639188
 40
0.9029690846
 40
0.9523079427
 40
1.0
 40
1.0
 40
1.0
 40
1.0
 10
-10.8187205097
 20
3.704927726
 30
0.0
 10
-10.7498947333
 20
3.5628937086
 30
0.0
 10
-10.6282561927
 20
3.2735368557
 30
0.0
 10
-10.4953931494
 20
2.8287044379
 30
0.0
 10
-10.416127854
 20
2.3865845819
 30
0.0
 10
-10.3963372554
 20
2.0252015943
 30
0.0
 10
-10.4103987638
 20
1.7491965013
 30
0.0
 10
-10.4425683437
 20
1.4944638003
 30
0.0
 10
-10.5024328996
 20
1.2538056938
 30
0.0
 10
-10.5923616927
 20
1.0347901828
 30
0.0
 10
-10.6714923457
 20
0.8878040199
 30
0.0
 10
-10.7631388389
 20
0.7558463776
 30
0.0
 10
-10.8332333442
 20
0.6774030278
 30
0.0
 10
-10.8700299809
 20
0.6413099071
 30
0.0
 11
-10.8187205097
 21
3.704927726
 31
0.0
 11
-10.6353776881
 21
3.2683715943
 31
0.0
 11
-10.5025882126
 21
2.8216443377
 31
0.0
 11
-10.4241947075
 21
2.3780030983
 31
0.0
 11
-10.4024607934
 21
1.9505935528
 31
0.0
 11
-10.4131017178
 21
1.7469586501
 31
0.0
 11
-10.4380128663
 21
1.5520665507
 31
0.0
 11
-10.5298229071
 21
1.1942095156
 31
0.0
 11
-10.596056364
 21
1.0338942962
 31
0.0
 11
-10.675234117
 21
0.887602387
 31
0.0
 11
-10.7667795819
 21
0.7564172813
 31
0.0
 11
-10.8700299809
 21
0.6413099071
 31
0.0
  0
SPLINE
  5
3D8
100
AcDbEntity
  8
RACCORDO
100
AcDbSpline
 62
253
  6
CONTINUOUS
 70
0
 71
3
 72
19
 73
15
 74
13
 42
0.0000001
 43
0.0000001
 44
0.0000000001
 12
-1.419935117
 22
2.7901161276
 32
0.0
 13
2.2106629739
 23
2.2167392625
 33
0.0
 40
0.0
 40
0.0
 40
0.0
 40
0.0
 40
0.1484768807
 40
0.2937811706
 40
0.4334433681
 40
0.5005201879
 40
0.5654476742
 40
0.6280579376
 40
0.6882336702
 40
0.8010024204
 40
0.8538047049
 40
0.9043814154
 40
0.9529947491
 40
1.0
 40
1.0
 40
1.0
 40
1.0
 10
-13.8446177415
 20
-14.2468621074
 30
0.0
 10
-13.9148935871
 20
-14.1087728609
 30
0.0
 10
-14.0402005356
 20
-13.8282688182
 30
0.0
 10
-14.1809870689
 20
-13.3975879574
 30
0.0
 10
-14.2560278783
 20
-13.0370041864
 30
0.0
 10
-14.2877601383
 20
-12.7551186951
 30
0.0
 10
-14.2972545807
 20
-12.5520989723
 30
0.0
 10
-14.2926878305
 20
-12.356066393
 30
0.0
 10
-14.2684224528
 20
-12.1113209851
 30
0.0
 10
-14.2169659041
 20
-11.8798683748
 30
0.0
 10
-14.1356786068
 20
-11.6690942224
 30
0.0
 10
-14.0629828233
 20
-11.5277370676
 30
0.0
 10
-13.9777569235
 20
-11.4007803969
 30
0.0
 10
-13.9119947566
 20
-11.325293708
 30
0.0
 10
-13.8773571673
 20
-11.2905609129
 30
0.0
 11
-13.8446177415
 21
-14.2468621074
 31
0.0
 11
-14.0339205065
 21
-13.8223265101
 31
0.0
 11
-14.1745473385
 21
-13.3897122
 31
0.0
 11
-14.2624093556
 21
-12.9613977683
 31
0.0
 11
-14.2856927641
 21
-12.7526985668
 31
0.0
 11
-14.2949509435
 21
-12.5496443427
 31
0.0
 11
-14.2901165041
 21
-12.3536932063
 31
0.0
 11
-14.2712245614
 21
-12.1662537532
 31
0.0
 11
-14.1919196959
 21
-11.8222369718
 31
0.0
 11
-14.1320849932
 21
-11.6681406007
 31
0.0
 11
-14.059344355
 21
-11.5275002774
 31
0.0
 11
-13.9742294009
 21
-11.4013351751
 31
0.0
 11
-13.8773571673
 21
-11.2905609129
 31
0.0
  0
SPLINE
  5
3D9
100
AcDbEntity
  8
RACCORDO
100
AcDbSpline
 62
7
  6
CONTINUOUS
 70
0
 71
3
 72
9
 73
5
 74
3
 42
0.0000001
 43
0.0000001
 44
0.0000000001
 12
0.9261465984
 22
0.0090992306
 32
0.0
 13
0.8454653701
 23
-0.3781780345
 33
0.0
 40
0.0
 40
0.0
 40
0.0
 40
0.0
 40
0.4853698555
 40
1.0
 40
1.0
 40
1.0
 40
1.0
 10
12.1239144953
 20
22.6371273396
 30
0.0
 10
12.2737557089
 20
22.6385995037
 30
0.0
 10
12.5835890462
 20
22.6017713063
 30
0.0
 10
12.8772473676
 20
22.4998103173
 30
0.0
 10
13.0222813561
 20
22.4349363784
 30
0.0
 11
12.1239144953
 21
22.6371273396
 31
0.0
 11
12.5707126599
 21
22.5875046732
 31
0.0
 11
13.0222813561
 21
22.4349363784
 31
0.0
  0
SPLINE
  5
3DA
100
AcDbEntity
  8
RACCORDO
100
AcDbSpline
 62
7
  6
CONTINUOUS
 70
0
 71
3
 72
8
 73
4
 74
2
 42
0.0000001
 43
0.0000001
 44
0.0000000001
 12
0.0011412746
 22
-0.3768018041
 32
0.0
 13
-0.1863287599
 23
-0.3275095346
 33
0.0
 40
0.0
 40
0.0
 40
0.0
 40
0.0
 40
1.0
 40
1.0
 40
1.0
 40
1.0
 10
10.6085145863
 20
-22.580628415
 30
0.0
 10
10.6088950111
 20
-22.7062290164
 30
0.0
 10
10.586294092
 20
-22.8387041821
 30
0.0
 10
10.5241845054
 20
-22.947874027
 30
0.0
 11
10.6085145863
 21
-22.580628415
 31
0.0
 11
10.5241845054
 21
-22.947874027
 31
0.0
  0
SPLINE
  5
3DB
100
AcDbEntity
  8
RACCORDO
100
AcDbSpline
 62
7
  6
CONTINUOUS
 70
0
 71
3
 72
9
 73
5
 74
3
 42
0.0000001
 43
0.0000001
 44
0.0000000001
 12
-1.1534028326
 22
0.7415481012
 32
0.0
 13
-1.3497311752
 23
0.2417797253
 33
0.0
 40
0.0
 40
0.0
 40
0.0
 40
0.0
 40
0.4615897199
 40
1.0
 40
1.0
 40
1.0
 40
1.0
 10
11.4032957665
 20
20.6487169915
 30
0.0
 10
11.2258294697
 20
20.762813985
 30
0.0
 10
10.8063869595
 20
20.955453756
 30
0.0
 10
10.3614769887
 20
21.0682345325
 30
0.0
 10
10.1192406087
 20
21.1116267624
 30
0.0
 11
11.4032957665
 21
20.6487169915
 31
0.0
 11
10.8331825418
 21
20.9236398987
 31
0.0
 11
10.1192406087
 21
21.1116267624
 31
0.0
  0
SPLINE
  5
3DC
100
AcDbEntity
  8
RACCORDO
100
AcDbSpline
 62
7
  6
CONTINUOUS
 70
0
 71
3
 72
9
 73
5
 74
3
 42
0.0000001
 43
0.0000001
 44
0.0000000001
 12
-0.0739396632
 22
0.0334965366
 32
0.0
 13
-0.0807891598
 23
0.0078869144
 33
0.0
 40
0.0
 40
0.0
 40
0.0
 40
0.0
 40
0.2775794409
 40
1.0
 40
1.0
 40
1.0
 40
1.0
 10
-6.8629635639
 20
26.5737674369
 30
0.0
 10
-6.8698049407
 20
26.5768667535
 30
0.0
 10
-6.8947719335
 20
26.5872547492
 30
0.0
 10
-6.9213465602
 20
26.5941970402
 30
0.0
 10
-6.9408011435
 20
26.5960962633
 30
0.0
 11
-6.8629635639
 21
26.5737674369
 31
0.0
 11
-6.8837894573
 21
26.5823682488
 31
0.0
 11
-6.9408011435
 21
26.5960962633
 31
0.0
  0
SPLINE
  5
3DD
100
AcDbEntity
  8
RACCORDO
100
AcDbSpline
 62
7
  6
CONTINUOUS
 70
0
 71
3
 72
9
 73
5
 74
3
 42
0.0000001
 43
0.0000001
 44
0.0000000001
 12
-0.0926298187
 22
0.0090428401
 32
0.0
 13
-0.0841884215
 23
-0.0396782806
 33
0.0
 40
0.0
 40
0.0
 40
0.0
 40
0.0
 40
0.2609632801
 40
1.0
 40
1.0
 40
1.0
 40
1.0
 10
-6.9408011435
 20
26.5960962633
 30
0.0
 10
-6.9488588039
 20
26.5968828797
 30
0.0
 10
-6.9799285167
 20
26.5979327444
 30
0.0
 10
-7.0110524455
 20
26.5898394232
 30
0.0
 10
-7.0317918904
 20
26.5800648544
 30
0.0
 11
-6.9408011435
 21
26.5960962633
 31
0.0
 11
-6.9650786045
 21
26.5968081643
 31
0.0
 11
-7.0317918904
 21
26.5800648544
 31
0.0
  0
SPLINE
  5
3DE
100
AcDbEntity
  8
RACCORDO
100
AcDbSpline
 62
7
  6
CONTINUOUS
 70
0
 71
3
 72
9
 73
5
 74
3
 42
0.0000001
 43
0.0000001
 44
0.0000000001
 12
-0.0739396632
 22
0.0334965366
 32
0.0
 13
-0.0807891598
 23
0.0078869144
 33
0.0
 40
0.0
 40
0.0
 40
0.0
 40
0.0
 40
0.2775794409
 40
1.0
 40
1.0
 40
1.0
 40
1.0
 10
9.2944263862
 20
18.4950724618
 30
0.0
 10
9.2875850094
 20
18.4981717785
 30
0.0
 10
9.2626180166
 20
18.5085597741
 30
0.0
 10
9.2360433899
 20
18.5155020652
 30
0.0
 10
9.2165888066
 20
18.5174012882
 30
0.0
 11
9.2944263862
 21
18.4950724618
 31
0.0
 11
9.2736004928
 21
18.5036732738
 31
0.0
 11
9.2165888066
 21
18.5174012882
 31
0.0
  0
SPLINE
  5
3DF
100
AcDbEntity
  8
RACCORDO
100
AcDbSpline
 62
7
  6
CONTINUOUS
 70
0
 71
3
 72
9
 73
5
 74
3
 42
0.0000001
 43
0.0000001
 44
0.0000000001
 12
-0.0926298187
 22
0.0090428401
 32
0.0
 13
-0.0841884215
 23
-0.0396782806
 33
0.0
 40
0.0
 40
0.0
 40
0.0
 40
0.0
 40
0.2609632801
 40
1.0
 40
1.0
 40
1.0
 40
1.0
 10
9.2165888066
 20
18.5174012882
 30
0.0
 10
9.2085311462
 20
18.5181879046
 30
0.0
 10
9.1774614334
 20
18.5192377694
 30
0.0
 10
9.1463375046
 20
18.5111444481
 30
0.0
 10
9.1255980597
 20
18.5013698793
 30
0.0
 11
9.2165888066
 21
18.5174012882
 31
0.0
 11
9.1923113456
 21
18.5181131892
 31
0.0
 11
9.1255980597
 21
18.5013698793
 31
0.0
  0
SPLINE
  5
3E0
100
AcDbEntity
  8
RACCORDO
100
AcDbSpline
 62
7
  6
CONTINUOUS
 70
0
 71
3
 72
9
 73
5
 74
3
 42
0.0000001
 43
0.0000001
 44
0.0000000001
 12
-0.1889278858
 22
-0.2809143354
 32
0.0
 13
-0.2984925899
 23
-0.1597146945
 33
0.0
 40
0.0
 40
0.0
 40
0.0
 40
0.0
 40
0.2499709772
 40
1.0
 40
1.0
 40
1.0
 40
1.0
 10
10.460651561
 20
-23.0504808701
 30
0.0
 10
10.4449093983
 20
-23.0738876804
 30
0.0
 10
10.373688415
 20
-23.1619990652
 30
0.0
 10
10.2792632314
 20
-23.2289153794
 30
0.0
 10
10.2046371962
 20
-23.2688455982
 30
0.0
 11
10.460651561
 21
-23.0504808701
 31
0.0
 11
10.4078531149
 21
-23.116613874
 31
0.0
 11
10.2046371962
 21
-23.2688455982
 31
0.0
  0
SPLINE
  5
3E1
100
AcDbEntity
  8
RACCORDO
100
AcDbSpline
 62
7
  6
CONTINUOUS
 70
0
 71
3
 72
9
 73
5
 74
3
 42
0.0000001
 43
0.0000001
 44
0.0000000001
 12
0.0431003726
 22
-0.0311256607
 32
0.0
 13
0.035267325
 23
-0.0397827181
 33
0.0
 40
0.0
 40
0.0
 40
0.0
 40
0.0
 40
0.2662422685
 40
1.0
 40
1.0
 40
1.0
 40
1.0
 10
10.5241845054
 20
17.8751433211
 30
0.0
 10
10.5280095524
 20
17.8723809989
 30
0.0
 10
10.5421249236
 20
17.8616682987
 30
0.0
 10
10.5551876256
 20
17.8495221802
 30
0.0
 10
10.5638135164
 20
17.8397918879
 30
0.0
 11
10.5241845054
 21
17.8751433211
 31
0.0
 11
10.5354511509
 21
17.8665750439
 31
0.0
 11
10.5638135164
 21
17.8397918879
 31
0.0
  0
SPLINE
  5
3E2
100
AcDbEntity
  8
RACCORDO
100
AcDbSpline
 62
7
  6
CONTINUOUS
 70
0
 71
3
 72
9
 73
5
 74
3
 42
0.0000001
 43
0.0000001
 44
0.0000000001
 12
0.0873189584
 22
-0.0984986958
 32
0.0
 13
-0.0008586804
 23
-0.1316277183
 33
0.0
 40
0.0
 40
0.0
 40
0.0
 40
0.0
 40
0.5118300909
 40
1.0
 40
1.0
 40
1.0
 40
1.0
 10
10.5638135164
 20
17.8397918879
 30
0.0
 10
10.5787110066
 20
17.8229870224
 30
0.0
 10
10.6023556
 20
17.7844262132
 30
0.0
 10
10.6086543136
 20
17.739923872
 30
0.0
 10
10.6085145863
 20
17.7185049749
 30
0.0
 11
10.5638135164
 21
17.8397918879
 31
0.0
 11
10.5983709345
 21
17.7819573541
 31
0.0
 11
10.6085145863
 21
17.7185049749
 31
0.0
  0
SPLINE
  5
3E3
100
AcDbEntity
  8
RACCORDO
100
AcDbSpline
 62
253
  6
CONTINUOUS
 70
0
 71
3
 72
9
 73
5
 74
3
 42
0.0000001
 43
0.0000001
 44
0.0000000001
 12
-0.1235732965
 22
0.0617686863
 32
0.0
 13
-0.1235661125
 23
-0.0617830563
 33
0.0
 40
0.0
 40
0.0
 40
0.0
 40
0.0
 40
0.4648811358
 40
1.0
 40
1.0
 40
1.0
 40
1.0
 10
13.1309164848
 20
22.3835278456
 30
0.0
 10
13.11176752
 20
22.3930995446
 30
0.0
 10
13.0637763025
 20
22.4007457411
 30
0.0
 10
13.0187760574
 20
22.3859933292
 30
0.0
 10
12.9967352048
 20
22.3749729029
 30
0.0
 11
13.1309164848
 21
22.3835278456
 31
0.0
 11
13.067793489
 21
22.3953680262
 31
0.0
 11
12.9967352048
 21
22.3749729029
 31
0.0
  0
SPLINE
  5
3E4
100
AcDbEntity
  8
RACCORDO
100
AcDbSpline
 62
253
  6
CONTINUOUS
 70
0
 71
3
 72
9
 73
5
 74
3
 42
0.0000001
 43
0.0000001
 44
0.0000000001
 12
0.8681954594
 22
-0.0541044429
 32
0.0
 13
0.7780440319
 23
-0.3890220185
 33
0.0
 40
0.0
 40
0.0
 40
0.0
 40
0.0
 40
0.2348444432
 40
1.0
 40
1.0
 40
1.0
 40
1.0
 10
12.164053808
 20
22.6146015394
 30
0.0
 10
12.2320174344
 20
22.6103661635
 30
0.0
 10
12.5203334621
 20
22.5748619288
 30
0.0
 10
12.7982936333
 20
22.4741936892
 30
0.0
 10
12.9967352048
 20
22.3749729029
 30
0.0
 11
12.164053808
 21
22.6146015394
 31
0.0
 11
12.3668651231
 21
22.5900962995
 31
0.0
 11
12.9967352048
 21
22.3749729029
 31
0.0
  0
SPLINE
  5
3E5
100
AcDbEntity
  8
RACCORDO
100
AcDbSpline
 62
7
  6
CONTINUOUS
 70
0
 71
3
 72
9
 73
5
 74
3
 42
0.0000001
 43
0.0000001
 44
0.0000000001
 12
-0.0016111209
 22
-0.351949062
 32
0.0
 13
-0.1509806656
 23
-0.3179238534
 33
0.0
 40
0.0
 40
0.0
 40
0.0
 40
0.0
 40
0.2472727927
 40
1.0
 40
1.0
 40
1.0
 40
1.0
 10
10.6084299777
 20
13.9478852822
 30
0.0
 10
10.6082971822
 20
13.9188761397
 30
0.0
 10
10.5991914349
 20
13.801621568
 30
0.0
 10
10.5620669236
 20
13.6876452663
 30
0.0
 10
10.5241845054
 20
13.6078752881
 30
0.0
 11
10.6084299777
 21
13.9478852822
 31
0.0
 11
10.6020808004
 21
13.8610888549
 31
0.0
 11
10.5241845054
 21
13.6078752881
 31
0.0
  0
SPLINE
  5
3E6
100
AcDbEntity
  8
RACCORDO
100
AcDbSpline
 62
253
  6
CONTINUOUS
 70
0
 71
3
 72
9
 73
5
 74
3
 42
0.0000001
 43
0.0000001
 44
0.0000000001
 12
-0.2000065474
 22
0.0998105438
 32
0.0
 13
-0.2016239025
 23
-0.0965016352
 33
0.0
 40
0.0
 40
0.0
 40
0.0
 40
0.0
 40
0.465318608
 40
1.0
 40
1.0
 40
1.0
 40
1.0
 10
4.4240638139
 20
27.4546380095
 30
0.0
 10
4.3930415578
 20
27.470119244
 30
0.0
 10
4.3157676415
 20
27.4836175124
 30
0.0
 10
4.242623107
 20
27.4606404754
 30
0.0
 10
4.2066882574
 20
27.4434412658
 30
0.0
 11
4.4240638139
 21
27.4546380095
 31
0.0
 11
4.322021675
 21
27.4747835505
 31
0.0
 11
4.2066882574
 21
27.4434412658
 31
0.0
  0
SPLINE
  5
3E7
100
AcDbEntity
  8
RACCORDO
100
AcDbSpline
 62
253
  6
CONTINUOUS
 70
0
 71
3
 72
9
 73
5
 74
3
 42
0.0000001
 43
0.0000001
 44
0.0000000001
 12
0.2019190923
 22
0.0931739322
 32
0.0
 13
0.1975103417
 23
-0.1021878974
 33
0.0
 40
0.0
 40
0.0
 40
0.0
 40
0.0
 40
0.4651168136
 40
1.0
 40
1.0
 40
1.0
 40
1.0
 10
3.9908840772
 20
27.4613261362
 30
0.0
 10
4.0221893988
 20
27.4757717237
 30
0.0
 10
4.0994597694
 20
27.4867781386
 30
0.0
 10
4.1714732704
 20
27.4616607952
 30
0.0
 10
4.2066882574
 20
27.4434412658
 30
0.0
 11
3.9908840772
 21
27.4613261362
 31
0.0
 11
4.0929316582
 21
27.4781954765
 31
0.0
 11
4.2066882574
 21
27.4434412658
 31
0.0
  0
SPLINE
  5
3E8
100
AcDbEntity
  8
RACCORDO
100
AcDbSpline
 62
253
  6
CONTINUOUS
 70
0
 71
3
 72
9
 73
5
 74
3
 42
0.0000001
 43
0.0000001
 44
0.0000000001
 12
-0.1998880011
 22
0.0992859367
 32
0.0
 13
-0.2013172806
 23
-0.0963548792
 33
0.0
 40
0.0
 40
0.0
 40
0.0
 40
0.0
 40
0.4653409399
 40
1.0
 40
1.0
 40
1.0
 40
1.0
 10
20.6726814316
 20
19.3303285321
 30
0.0
 10
20.6416760749
 20
19.3457291358
 30
0.0
 10
20.5645179645
 20
19.3590996497
 30
0.0
 10
20.4914986856
 20
19.3361477394
 30
0.0
 10
20.4556199829
 20
19.3189754031
 30
0.0
 11
20.6726814316
 21
19.3303285321
 31
0.0
 11
20.5707626513
 21
19.3503074935
 31
0.0
 11
20.4556199829
 21
19.3189754031
 31
0.0
  0
SPLINE
  5
3E9
100
AcDbEntity
  8
RACCORDO
100
AcDbSpline
 62
253
  6
CONTINUOUS
 70
0
 71
3
 72
11
 73
7
 74
5
 42
0.0000001
 43
0.0000001
 44
0.0000000001
 12
-0.0000663618
 22
-0.2337948404
 32
0.0
 13
-0.2076163176
 23
-0.1074964952
 33
0.0
 40
0.0
 40
0.0
 40
0.0
 40
0.0
 40
0.2077048996
 40
0.4362310551
 40
0.6992955131
 40
1.0
 40
1.0
 40
1.0
 40
1.0
 10
20.9494494728
 20
-12.9579983255
 30
0.0
 10
20.9494448783
 20
-12.9741851035
 30
0.0
 10
20.9424545504
 20
-13.0084252467
 30
0.0
 10
20.9132857509
 20
-13.0554499664
 30
0.0
 10
20.8675645363
 20
-13.0977316283
 30
0.0
 10
20.8299299117
 20
-13.120872704
 30
0.0
 10
20.8091195256
 20
-13.1316475968
 30
0.0
 11
20.9494494728
 21
-12.9579983255
 31
0.0
 11
20.9402478351
 21
-13.0056788884
 31
0.0
 11
20.9130271057
 21
-13.0516528868
 31
0.0
 11
20.8686259822
 21
-13.0942107702
 31
0.0
 11
20.8091195256
 21
-13.1316475968
 31
0.0
  0
SPLINE
  5
3EA
100
AcDbEntity
  8
RACCORDO
100
AcDbSpline
 62
253
  6
CONTINUOUS
 70
0
 71
3
 72
11
 73
7
 74
5
 42
0.0000001
 43
0.0000001
 44
0.0000000001
 12
-0.0000375378
 22
-0.2338099221
 32
0.0
 13
-0.2076297049
 23
-0.1075034267
 33
0.0
 40
0.0
 40
0.0
 40
0.0
 40
0.0
 40
0.2077048703
 40
0.4362286223
 40
0.6992924903
 40
1.0
 40
1.0
 40
1.0
 40
1.0
 10
20.9494494762
 20
18.8829434382
 30
0.0
 10
20.9494468773
 20
18.8667556183
 30
0.0
 10
20.942459731
 20
18.8325125045
 30
0.0
 10
20.9132918169
 20
18.7854830392
 30
0.0
 10
20.8675685934
 20
18.7431974562
 30
0.0
 10
20.8299314628
 20
18.7200545757
 30
0.0
 10
20.8091195256
 20
18.7092788797
 30
0.0
 11
20.9494494762
 21
18.8829434382
 31
0.0
 11
20.9402522092
 21
18.8352588501
 31
0.0
 11
20.9130328508
 21
18.7892806895
 31
0.0
 11
20.8686301536
 21
18.746718916
 31
0.0
 11
20.8091195256
 21
18.7092788797
 31
0.0
  0
SPLINE
  5
3EB
100
AcDbEntity
  8
RACCORDO
100
AcDbSpline
 62
7
  6
CONTINUOUS
 70
0
 71
3
 72
9
 73
5
 74
3
 42
0.0000001
 43
0.0000001
 44
0.0000000001
 12
-0.1423405668
 22
-0.0670855784
 32
0.0
 13
-0.0999214162
 23
-0.1215607765
 33
0.0
 40
0.0
 40
0.0
 40
0.0
 40
0.0
 40
0.2251408329
 40
1.0
 40
1.0
 40
1.0
 40
1.0
 10
9.1255980597
 20
18.5013698793
 30
0.0
 10
9.1149158351
 20
18.4963353117
 30
0.0
 10
9.069479195
 20
18.4696476269
 30
0.0
 10
9.0325995577
 20
18.4308061732
 30
0.0
 10
9.0067912159
 20
18.3994086792
 30
0.0
 11
9.1255980597
 21
18.5013698793
 31
0.0
 11
9.0948902898
 21
18.4837022815
 31
0.0
 11
9.0067912159
 21
18.3994086792
 31
0.0
  0
SPLINE
  5
3EC
100
AcDbEntity
  8
RACCORDO
100
AcDbSpline
 62
7
  6
CONTINUOUS
 70
0
 71
3
 72
9
 73
5
 74
3
 42
0.0000001
 43
0.0000001
 44
0.0000000001
 12
-0.1423405668
 22
-0.0670855784
 32
0.0
 13
-0.0999214162
 23
-0.1215607765
 33
0.0
 40
0.0
 40
0.0
 40
0.0
 40
0.0
 40
0.2251408329
 40
1.0
 40
1.0
 40
1.0
 40
1.0
 10
-7.0317918904
 20
26.5800648544
 30
0.0
 10
-7.042474115
 20
26.5750302867
 30
0.0
 10
-7.0879107552
 20
26.548342602
 30
0.0
 10
-7.1247903924
 20
26.5095011483
 30
0.0
 10
-7.1505987342
 20
26.4781036542
 30
0.0
 11
-7.0317918904
 21
26.5800648544
 31
0.0
 11
-7.0624996603
 21
26.5623972565
 31
0.0
 11
-7.1505987342
 21
26.4781036542
 31
0.0
  0
SPLINE
  5
3ED
100
AcDbEntity
  8
RACCORDO
100
AcDbSpline
 62
253
  6
CONTINUOUS
 70
0
 71
3
 72
9
 73
5
 74
3
 42
0.0000001
 43
0.0000001
 44
0.0000000001
 12
-1.1533891083
 22
0.8553710473
 32
0.0
 13
-1.4107079345
 23
0.2680842912
 33
0.0
 40
0.0
 40
0.0
 40
0.0
 40
0.0
 40
0.4606951922
 40
1.0
 40
1.0
 40
1.0
 40
1.0
 10
11.464668607
 20
20.6789446373
 30
0.0
 10
11.2875483347
 20
20.810299747
 30
0.0
 10
10.8554688289
 20
21.0306770259
 30
0.0
 10
10.3912958215
 20
21.1568350687
 30
0.0
 10
10.1376952976
 20
21.2050281178
 30
0.0
 11
11.464668607
 21
20.6789446373
 31
0.0
 11
10.8826229061
 21
20.9933561564
 31
0.0
 11
10.1376952976
 21
21.2050281178
 31
0.0
  0
SPLINE
  5
3EE
100
AcDbEntity
  8
0
100
AcDbSpline
 62
7
  6
CONTINUOUS
 70
0
 71
3
 72
11
 73
7
 74
5
 42
0.0000001
 43
0.0000001
 44
0.0000000001
 12
0.0000728564
 22
1.3235210393
 32
0.0
 13
1.1837932072
 23
0.5918966036
 33
0.0
 40
0.0
 40
0.0
 40
0.0
 40
0.0
 40
0.2065358893
 40
0.4344465051
 40
0.6977051737
 40
1.0
 40
1.0
 40
1.0
 40
1.0
 10
5.6859960923
 20
20.668626784
 30
0.0
 10
5.6860011081
 20
20.7597449823
 30
0.0
 10
5.7260899496
 20
20.9529039687
 30
0.0
 10
5.8942277097
 20
21.2165538204
 30
0.0
 10
6.1563535365
 20
21.453051766
 30
0.0
 10
6.3720679639
 20
21.5812561825
 30
0.0
 10
6.4913528179
 20
21.6408986095
 30
0.0
 11
5.6859960923
 21
20.668626784
 31
0.0
 11
5.7387191111
 21
20.9368487407
 31
0.0
 11
5.8951604917
 21
21.1947547238
 31
0.0
 11
6.1497154684
 21
21.4326708957
 31
0.0
 11
6.4913528179
 21
21.6408986095
 31
0.0
  0
SPLINE
  5
3EF
100
AcDbEntity
  8
DRAFT
100
AcDbSpline
 62
7
  6
CONTINUOUS
 70
0
 71
3
 72
16
 73
12
 74
10
 42
0.0000001
 43
0.0000001
 44
0.0000000001
 12
4.4332276095
 22
1.5039185248
 32
0.0
 13
1.8384815906
 23
-4.3052599699
 33
0.0
 40
0.0
 40
0.0
 40
0.0
 40
0.0
 40
0.1340124787
 40
0.2770841431
 40
0.4229619233
 40
0.5652137777
 40
0.6977259099
 40
0.8155728545
 40
0.8680973751
 40
0.9161767304
 40
1.0
 40
1.0
 40
1.0
 40
1.0
 10
7.5709512097
 20
21.7476851035
 30
0.0
 10
7.7689871499
 20
21.8148663866
 30
0.0
 10
8.1902420125
 20
21.9200495663
 30
0.0
 10
8.8475507803
 20
21.995052711
 30
0.0
 10
9.5220551719
 20
21.9899756834
 30
0.0
 10
10.1747620568
 20
21.905262567
 30
0.0
 10
10.7682803664
 20
21.7457248079
 30
0.0
 10
11.2022542591
 20
21.5509965438
 30
0.0
 10
11.4867429381
 20
21.3614065848
 30
0.0
 10
11.7041173995
 20
21.1726581739
 30
0.0
 10
11.8298117165
 20
21.0020133618
 30
0.0
 10
11.8811808959
 20
20.881719706
 30
0.0
 11
7.5709512097
 21
21.7476851035
 31
0.0
 11
8.1786565657
 21
21.9034998204
 31
0.0
 11
8.843911313
 21
21.9811588743
 31
0.0
 11
9.5267999717
 21
21.9759285626
 31
0.0
 11
10.1869313134
 21
21.8882063135
 31
0.0
 11
10.7849152563
 21
21.7231736973
 31
0.0
 11
11.2852104092
 21
21.4906613311
 31
0.0
 11
11.489140959
 21
21.3532831911
 31
0.0
 11
11.6580322568
 21
21.2045027457
 31
0.0
 11
11.8811808959
 21
20.881719706
 31
0.0
  0
SPLINE
  5
3F0
100
AcDbEntity
  8
RACCORDO
100
AcDbSpline
 62
7
  6
CONTINUOUS
 70
0
 71
3
 72
9
 73
5
 74
3
 42
0.0000001
 43
0.0000001
 44
0.0000000001
 12
0.3940159183
 22
0.0726570921
 32
0.0
 13
0.394932254
 23
-0.0674989749
 33
0.0
 40
0.0
 40
0.0
 40
0.0
 40
0.0
 40
0.5177195318
 40
1.0
 40
1.0
 40
1.0
 40
1.0
 10
-6.2524524774
 20
26.0290305259
 30
0.0
 10
-6.1844558985
 20
26.0415691911
 30
0.0
 10
-6.0509161584
 20
26.0548436767
 30
0.0
 10
-5.9168036151
 20
26.0462056079
 30
0.0
 10
-5.8533142443
 20
26.0353544622
 30
0.0
 11
-6.2524524774
 21
26.0290305259
 31
0.0
 11
-6.0460301046
 21
26.0494408131
 31
0.0
 11
-5.8533142443
 21
26.0353544622
 31
0.0
  0
SPLINE
  5
3F1
100
AcDbEntity
  8
RACCORDO
100
AcDbSpline
 62
7
  6
CONTINUOUS
 70
0
 71
3
 72
9
 73
5
 74
3
 42
0.0000001
 43
0.0000001
 44
0.0000000001
 12
0.160714054
 22
-0.027468088
 32
0.0
 13
0.1486082504
 23
-0.067075263
 33
0.0
 40
0.0
 40
0.0
 40
0.0
 40
0.0
 40
0.2757988143
 40
1.0
 40
1.0
 40
1.0
 40
1.0
 10
-5.8533142443
 20
26.0353544622
 30
0.0
 10
-5.8385393291
 20
26.0328292401
 30
0.0
 10
-5.7852651331
 20
26.0222648973
 30
0.0
 10
-5.7326124795
 20
26.0068468445
 30
0.0
 10
-5.6967383891
 20
25.9906548495
 30
0.0
 11
-5.8533142443
 21
26.0353544622
 31
0.0
 11
-5.8092006865
 21
26.0266327763
 31
0.0
 11
-5.6967383891
 21
25.9906548495
 31
0.0
  0
SPLINE
  5
3F2
100
AcDbEntity
  8
RACCORDO
100
AcDbSpline
 62
7
  6
CONTINUOUS
 70
0
 71
3
 72
9
 73
5
 74
3
 42
0.0000001
 43
0.0000001
 44
0.0000000001
 12
0.3940159183
 22
0.0726570921
 32
0.0
 13
0.394932254
 23
-0.0674989749
 33
0.0
 40
0.0
 40
0.0
 40
0.0
 40
0.0
 40
0.5177195318
 40
1.0
 40
1.0
 40
1.0
 40
1.0
 10
9.9049374727
 20
17.9503355508
 30
0.0
 10
9.9729340516
 20
17.962874216
 30
0.0
 10
10.1064737917
 20
17.9761487017
 30
0.0
 10
10.240586335
 20
17.9675106329
 30
0.0
 10
10.3040757058
 20
17.9566594871
 30
0.0
 11
9.9049374727
 21
17.9503355508
 31
0.0
 11
10.1113598455
 21
17.970745838
 31
0.0
 11
10.3040757058
 21
17.9566594871
 31
0.0
  0
SPLINE
  5
3F3
100
AcDbEntity
  8
RACCORDO
100
AcDbSpline
 62
7
  6
CONTINUOUS
 70
0
 71
3
 72
9
 73
5
 74
3
 42
0.0000001
 43
0.0000001
 44
0.0000000001
 12
0.160714054
 22
-0.027468088
 32
0.0
 13
0.1486082504
 23
-0.067075263
 33
0.0
 40
0.0
 40
0.0
 40
0.0
 40
0.0
 40
0.2757988143
 40
1.0
 40
1.0
 40
1.0
 40
1.0
 10
10.3040757058
 20
17.9566594871
 30
0.0
 10
10.318850621
 20
17.9541342651
 30
0.0
 10
10.372124817
 20
17.9435699222
 30
0.0
 10
10.4247774706
 20
17.9281518694
 30
0.0
 10
10.460651561
 20
17.9119598744
 30
0.0
 11
10.3040757058
 21
17.9566594871
 31
0.0
 11
10.3481892636
 21
17.9479378012
 31
0.0
 11
10.460651561
 21
17.9119598744
 31
0.0
  0
SPLINE
  5
3F4
100
AcDbEntity
  8
RACCORDO
100
AcDbSpline
 62
253
  6
CONTINUOUS
 70
0
 71
3
 72
11
 73
7
 74
5
 42
0.0000001
 43
0.0000001
 44
0.0000000001
 12
0.0043306428
 22
-0.3071122177
 32
0.0
 13
-0.2703777307
 23
-0.1457139371
 33
0.0
 40
0.0
 40
0.0
 40
0.0
 40
0.0
 40
0.28806671
 40
0.5480551503
 40
0.7818193667
 40
1.0
 40
1.0
 40
1.0
 40
1.0
 10
20.8091195256
 20
-13.1316475968
 30
0.0
 10
20.8095353636
 20
-13.1611371989
 30
0.0
 10
20.8054782968
 20
-13.2175023314
 30
0.0
 10
20.782734744
 20
-13.2950544586
 30
0.0
 10
20.7434480258
 20
-13.3577282438
 30
0.0
 10
20.7065212383
 20
-13.3874186556
 30
0.0
 10
20.6868575102
 20
-13.3980159753
 30
0.0
 11
20.8091195256
 21
-13.1316475968
 31
0.0
 11
20.8019866249
 21
-13.2198372089
 31
0.0
 11
20.7783998299
 21
-13.2961278038
 31
0.0
 11
20.7393810857
 21
-13.3563991215
 31
0.0
 11
20.6868575102
 21
-13.3980159753
 31
0.0
  0
SPLINE
  5
3F5
100
AcDbEntity
  8
RACCORDO
100
AcDbSpline
 62
253
  6
CONTINUOUS
 70
0
 71
3
 72
11
 73
7
 74
5
 42
0.0000001
 43
0.0000001
 44
0.0000000001
 12
0.6624878394
 22
-0.3201248338
 32
0.0
 13
-0.0102250312
 23
-0.7357074795
 33
0.0
 40
0.0
 40
0.0
 40
0.0
 40
0.0
 40
0.2304222112
 40
0.4885148342
 40
0.7529147175
 40
1.0
 40
1.0
 40
1.0
 40
1.0
 10
20.4556199829
 20
19.3189754031
 30
0.0
 10
20.5065039539
 20
19.2943874457
 30
0.0
 10
20.6037854243
 20
19.2200949883
 30
0.0
 10
20.715541105
 20
19.070934481
 30
0.0
 10
20.7904936596
 20
18.8958538611
 30
0.0
 10
20.8099616772
 20
18.7698730432
 30
0.0
 10
20.8091195256
 20
18.7092788797
 30
0.0
 11
20.4556199829
 21
19.3189754031
 31
0.0
 11
20.5927641681
 21
19.2192999909
 31
0.0
 11
20.708098365
 21
19.068436949
 31
0.0
 11
20.7840707086
 21
18.8893450164
 31
0.0
 11
20.8091195256
 21
18.7092788797
 31
0.0
  0
SPLINE
  5
3F6
100
AcDbEntity
  8
RACCORDO
100
AcDbSpline
 62
7
  6
CONTINUOUS
 70
0
 71
3
 72
10
 73
6
 74
4
 42
0.0000001
 43
0.0000001
 44
0.0000000001
 12
0.1088926157
 22
-0.1165363646
 32
0.0
 13
0.002588776
 23
-0.1594729578
 33
0.0
 40
0.0
 40
0.0
 40
0.0
 40
0.0
 40
0.603147629
 40
0.8270629324
 40
1.0
 40
1.0
 40
1.0
 40
1.0
 10
10.5241845054
 20
-18.6806059941
 30
0.0
 10
10.5460772797
 20
-18.704035538
 30
0.0
 10
10.5753681353
 20
-18.7373538549
 30
0.0
 10
10.6021456569
 20
-18.7833480952
 30
0.0
 10
10.6082807459
 20
-18.8041544986
 30
0.0
 10
10.6084299777
 20
-18.8133474272
 30
0.0
 11
10.5241845054
 21
-18.6806059941
 31
0.0
 11
10.5849993865
 21
-18.7551424558
 31
0.0
 11
10.6020808004
 21
-18.7865057097
 31
0.0
 11
10.6084299777
 21
-18.8133474272
 31
0.0
  0
SPLINE
  5
3F7
100
AcDbEntity
  8
0
100
AcDbSpline
 62
7
  6
CONTINUOUS
 70
0
 71
3
 72
9
 73
5
 74
3
 42
0.0000001
 43
0.0000001
 44
0.0000000001
 12
0.0614960128
 22
0.0307480064
 32
0.0
 13
0.0683993491
 23
0.0069805823
 33
0.0
 40
0.0
 40
0.0
 40
0.0
 40
0.0
 40
0.2656286414
 40
1.0
 40
1.0
 40
1.0
 40
1.0
 10
-0.5343449129
 20
17.6999343438
 30
0.0
 10
-0.5288998788
 20
17.7026568609
 30
0.0
 10
-0.5080402055
 20
17.7121283317
 30
0.0
 10
-0.4855360169
 20
17.7182858757
 30
0.0
 10
-0.4687925092
 20
17.7199946556
 30
0.0
 11
-0.5343449129
 21
17.6999343438
 31
0.0
 11
-0.5177019908
 21
17.7074548228
 31
0.0
 11
-0.4687925092
 21
17.7199946556
 31
0.0
  0
SPLINE
  5
3F8
100
AcDbEntity
  8
0
100
AcDbSpline
 62
7
  6
CONTINUOUS
 70
0
 71
3
 72
11
 73
7
 74
5
 42
0.0000001
 43
0.0000001
 44
0.0000000001
 12
0.0
 22
0.4404642974
 32
0.0
 13
0.3939632442
 23
0.1969816221
 33
0.0
 40
0.0
 40
0.0
 40
0.0
 40
0.0
 40
0.246822998
 40
0.5117832723
 40
0.7702964853
 40
1.0
 40
1.0
 40
1.0
 40
1.0
 10
-1.1100450799
 20
17.1522766392
 30
0.0
 10
-1.1100450799
 20
17.1885155454
 30
0.0
 10
-1.097545669
 20
17.2637879275
 30
0.0
 10
-1.0522441706
 20
17.3684550433
 30
0.0
 10
-0.9857159155
 20
17.4579817104
 30
0.0
 10
-0.9280779595
 20
17.5030678206
 30
0.0
 10
-0.8979130455
 20
17.5181502775
 30
0.0
 11
-1.1100450799
 21
17.1522766392
 31
0.0
 11
-1.0938952587
 21
17.2597871417
 31
0.0
 11
-1.0479060768
 21
17.3670493366
 31
0.0
 11
-0.9791018663
 21
17.4577764565
 31
0.0
 11
-0.8979130455
 21
17.5181502775
 31
0.0
  0
SPLINE
  5
3F9
100
AcDbEntity
  8
RACCORDO
100
AcDbSpline
 62
7
  6
CONTINUOUS
 70
0
 71
3
 72
12
 73
8
 74
6
 42
0.0000001
 43
0.0000001
 44
0.0000000001
 12
-0.2544144349
 22
0.1272072175
 32
0.0
 13
-0.2829741468
 23
-0.0288792855
 33
0.0
 40
0.0
 40
0.0
 40
0.0
 40
0.0
 40
0.244044081
 40
0.5170216051
 40
0.7809852567
 40
0.8980924233
 40
1.0
 40
1.0
 40
1.0
 40
1.0
 10
-1.3116555732
 20
19.5922783188
 30
0.0
 10
-1.3323516855
 20
19.6026263749
 30
0.0
 10
-1.3782283633
 20
19.6204775519
 30
0.0
 10
-1.4499160105
 20
19.6394064233
 30
0.0
 10
-1.5113951127
 20
19.6488163201
 30
0.0
 10
-1.5571676941
 20
19.6510200879
 30
0.0
 10
-1.5779642286
 20
19.6502434652
 30
0.0
 10
-1.5875766318
 20
19.6492624592
 30
0.0
 11
-1.3116555732
 21
19.5922783188
 31
0.0
 11
-1.3760133634
 21
19.6182932533
 31
0.0
 11
-1.4510496239
 21
19.638257909
 31
0.0
 11
-1.5253407643
 21
19.6491328479
 31
0.0
 11
-1.5586196699
 21
19.650581688
 31
0.0
 11
-1.5875766318
 21
19.6492624592
 31
0.0
  0
SPLINE
  5
3FA
100
AcDbEntity
  8
RACCORDO
100
AcDbSpline
 62
7
  6
CONTINUOUS
 70
0
 71
3
 72
12
 73
8
 74
6
 42
0.0000001
 43
0.0000001
 44
0.0000000001
 12
-0.2544144349
 22
0.1272072175
 32
0.0
 13
-0.2829741468
 23
-0.0288792855
 33
0.0
 40
0.0
 40
0.0
 40
0.0
 40
0.0
 40
0.244044081
 40
0.5170216051
 40
0.7809852567
 40
0.8980924233
 40
1.0
 40
1.0
 40
1.0
 40
1.0
 10
-5.3421642259
 20
21.6075326452
 30
0.0
 10
-5.3628603383
 20
21.6178807013
 30
0.0
 10
-5.4087370161
 20
21.6357318783
 30
0.0
 10
-5.4804246633
 20
21.6546607497
 30
0.0
 10
-5.5419037655
 20
21.6640706465
 30
0.0
 10
-5.5876763469
 20
21.6662744143
 30
0.0
 10
-5.6084728814
 20
21.6654977915
 30
0.0
 10
-5.6180852846
 20
21.6645167855
 30
0.0
 11
-5.3421642259
 21
21.6075326452
 31
0.0
 11
-5.4065220162
 21
21.6335475797
 31
0.0
 11
-5.4815582767
 21
21.6535122353
 31
0.0
 11
-5.5558494171
 21
21.6643871742
 31
0.0
 11
-5.5891283226
 21
21.6658360144
 31
0.0
 11
-5.6180852846
 21
21.6645167855
 31
0.0
  0
ELLIPSE
  5
3FB
100
AcDbEntity
  8
RACCORDO
100
AcDbEllipse
 62
7
  6
CONTINUOUS
 10
-12.8833460586
 20
23.5799390781
 30
0.0
 11
-0.1118504554
 21
0.2236675568
 31
0.0
 40
0.6121897086
 41
-0.6846338794
 42
0.0190037523
  0
ELLIPSE
  5
3FC
100
AcDbEntity
  8
0
100
AcDbEllipse
 62
7
  6
CONTINUOUS
 10
5.5766662243
 20
18.1059760799
 30
0.0
 11
-0.1117903878
 21
0.2236141634
 31
0.0
 40
0.6125552124
 41
-2.255296188
 42
-0.6848044477
  0
ELLIPSE
  5
3FD
100
AcDbEntity
  8
RACCORDO
100
AcDbEllipse
 62
7
  6
CONTINUOUS
 10
3.2386885525
 20
15.5189217726
 30
0.0
 11
-0.1118504554
 21
0.2236675568
 31
0.0
 40
0.6121897086
 41
-0.6846338794
 42
0.0190037523
  0
ELLIPSE
  5
3FE
100
AcDbEntity
  8
0
100
AcDbEllipse
 62
7
  6
CONTINUOUS
 10
-5.5340146842
 20
23.6613165342
 30
0.0
 11
-0.1118504554
 21
0.2236675568
 31
0.0
 40
0.6121897086
 41
-0.6846338794
 42
0.0189951825
  0
ELLIPSE
  5
3FF
100
AcDbEntity
  8
0
100
AcDbEllipse
 62
7
  6
CONTINUOUS
 10
4.5069016086
 20
18.6408583878
 30
0.0
 11
-0.1118504554
 21
0.2236675568
 31
0.0
 40
0.6121897086
 41
-0.6846338794
 42
0.0190264205
  0
ELLIPSE
  5
400
100
AcDbEntity
  8
0
100
AcDbEllipse
 62
7
  6
CONTINUOUS
 10
4.892621247
 20
19.3169357616
 30
0.0
 11
0.9980068092
 21
-0.2399287748
 31
0.0
 40
0.2630210944
 41
1.8496016353
 42
2.410616134
  0
ELLIPSE
  5
401
100
AcDbEntity
  8
RACCORDO
100
AcDbEllipse
 62
7
  6
CONTINUOUS
 10
-11.8227397429
 20
23.0496359203
 30
0.0
 11
-0.1117903878
 21
0.2236141634
 31
0.0
 40
0.6125552124
 41
-2.255296188
 42
-0.6848044477
  0
ELLIPSE
  5
402
100
AcDbEntity
  8
RACCORDO
100
AcDbEllipse
 62
7
  6
CONTINUOUS
 10
4.2992948682
 20
14.9886186147
 30
0.0
 11
-0.1117903878
 21
0.2236141634
 31
0.0
 40
0.6125552124
 41
-2.255296188
 42
-0.6848044477
  0
ELLIPSE
  5
403
100
AcDbEntity
  8
RACCORDO
100
AcDbEllipse
 62
7
  6
CONTINUOUS
 10
4.2992948682
 20
-26.1475221051
 30
0.0
 11
-0.1118504554
 21
0.2236675568
 31
0.0
 40
0.6121897086
 41
-3.1605932472
 42
-2.2557347926
  0
ELLIPSE
  5
404
100
AcDbEntity
  8
RACCORDO
100
AcDbEllipse
 62
7
  6
CONTINUOUS
 10
-14.7442539177
 20
-10.6764136617
 30
0.0
 11
0.1133799959
 21
0.2228158448
 31
0.0
 40
0.6176975122
 41
0.6978040307
 42
0.7157609183
  0
ELLIPSE
  5
405
100
AcDbEntity
  8
RACCORDO
100
AcDbEllipse
 62
7
  6
CONTINUOUS
 10
-0.7368507636
 20
7.6172921813
 30
0.0
 11
-0.1092649321
 21
0.2270579893
 31
0.0
 40
0.6121735965
 41
-2.2369946326
 42
-0.669228889
  0
ELLIPSE
  5
406
100
AcDbEntity
  8
RACCORDO
100
AcDbEllipse
 62
7
  6
CONTINUOUS
 10
-0.7368507636
 20
-23.6395449765
 30
0.0
 11
-0.1098985543
 21
0.2275784384
 31
0.0
 40
0.6085747011
 41
-3.2553715609
 42
-2.2415613143
  0
ELLIPSE
  5
407
100
AcDbEntity
  8
0
100
AcDbEllipse
 62
7
  6
CONTINUOUS
 10
-4.4642500685
 20
23.1264342264
 30
0.0
 11
-0.1117903878
 21
0.2236141634
 31
0.0
 40
0.6125552124
 41
-2.255296188
 42
-0.6848044477
  0
ELLIPSE
  5
408
100
AcDbEntity
  8
RACCORDO
100
AcDbEllipse
 62
7
  6
CONTINUOUS
 10
-11.5435491498
 20
19.5487807217
 30
0.0
 11
0.8447740167
 21
0.0122150128
 31
0.0
 40
0.5106100819
 41
3.1342175571
 42
5.4729508172
  0
ELLIPSE
  5
409
100
AcDbEntity
  8
RACCORDO
100
AcDbEllipse
 62
7
  6
CONTINUOUS
 10
-1.5026328569
 20
14.5283225753
 30
0.0
 11
0.8447740167
 21
0.0122150128
 31
0.0
 40
0.5106100819
 41
3.1342175571
 42
5.4729508172
  0
ELLIPSE
  5
40A
100
AcDbEntity
  8
RACCORDO
100
AcDbEllipse
 62
7
  6
CONTINUOUS
 10
-13.7924859032
 20
21.4817948089
 30
0.0
 11
0.9642939016
 21
0.013943211
 31
0.0
 40
0.5106100819
 41
3.134239217
 42
5.4729508172
  0
ELLIPSE
  5
40B
100
AcDbEntity
  8
RACCORDO
100
AcDbEllipse
 62
7
  6
CONTINUOUS
 10
2.3295487079
 20
13.4207775034
 30
0.0
 11
0.9642939016
 21
0.013943211
 31
0.0
 40
0.5106100819
 41
3.134206196
 42
4.7364581619
  0
ELLIPSE
  5
40C
100
AcDbEntity
  8
RACCORDO
100
AcDbEllipse
 62
7
  6
CONTINUOUS
 10
-17.7466953634
 20
16.1222144812
 30
0.0
 11
-0.1098985543
 21
0.2275784384
 31
0.0
 40
0.6085747011
 41
-0.6677344043
 42
0.11377396
  0
ELLIPSE
  5
40D
100
AcDbEntity
  8
0
100
AcDbEllipse
 62
7
  6
CONTINUOUS
 10
-2.1629639384
 20
22.8447283543
 30
0.0
 11
0.9980068092
 21
-0.2399287748
 31
0.0
 40
0.2630210944
 41
-0.7135232271
 42
-0.1525087284
  0
ELLIPSE
  5
40E
100
AcDbEntity
  8
DRAFT
100
AcDbEllipse
 62
7
  6
CONTINUOUS
 10
8.4358964662
 20
20.2696236848
 30
0.0
 11
2.7499831596
 21
-0.0194567514
 31
0.0
 40
0.4946372042
 41
8.6428794529
 42
9.2162656501
  0
ELLIPSE
  5
40F
100
AcDbEntity
  8
RACCORDO
100
AcDbEllipse
 62
7
  6
CONTINUOUS
 10
10.0342119828
 20
-22.5875761828
 30
0.0
 11
0.4349639225
 21
0.9005141702
 31
0.0
 40
0.6016116119
 41
-1.8042498947
 42
-1.6823471858
  0
ELLIPSE
  5
410
100
AcDbEntity
  8
RACCORDO
100
AcDbEllipse
 62
7
  6
CONTINUOUS
 10
-6.1231779673
 20
25.0861590519
 30
0.0
 11
0.4349639225
 21
0.9005141702
 31
0.0
 40
0.6016116119
 41
-0.8943064336
 42
-0.0084400539
  0
ELLIPSE
  5
411
100
AcDbEntity
  8
RACCORDO
100
AcDbEllipse
 62
7
  6
CONTINUOUS
 10
-7.3045546742
 20
25.6768474054
 30
0.0
 11
0.4599538472
 21
0.8880129227
 31
0.0
 40
0.6229838795
 41
0.0088192745
 42
0.0327525565
  0
ELLIPSE
  5
412
100
AcDbEntity
  8
RACCORDO
100
AcDbEllipse
 62
7
  6
CONTINUOUS
 10
14.4260365262
 20
21.894650022
 30
0.0
 11
0.3953408599
 21
0.3579464779
 31
0.0
 40
0.2845239558
 41
0.1099288154
 42
0.7776147693
  0
ELLIPSE
  5
413
100
AcDbEntity
  8
DRAFT
100
AcDbEllipse
 62
7
  6
CONTINUOUS
 10
8.4122679283
 20
21.5055431924
 30
0.0
 11
3.3156582597
 21
-0.0464872396
 31
0.0
 40
0.4892378494
 41
2.3529505014
 42
5.5146988691
  0
ELLIPSE
  5
414
100
AcDbEntity
  8
RACCORDO
100
AcDbEllipse
 62
7
  6
CONTINUOUS
 10
10.2239309992
 20
23.9957027855
 30
0.0
 11
-0.1574327495
 21
0.5532318638
 31
0.0
 40
0.6808569061
 41
4.8400973205
 42
6.3934403548
  0
ELLIPSE
  5
415
100
AcDbEntity
  8
RACCORDO
100
AcDbEllipse
 62
7
  6
CONTINUOUS
 10
4.3346555928
 20
-26.2085103336
 30
0.0
 11
-0.0894803643
 21
0.1789340454
 31
0.0
 40
0.6121897086
 41
2.6787273577
 42
4.0274505145
  0
ELLIPSE
  5
416
100
AcDbEntity
  8
RACCORDO
100
AcDbEllipse
 62
7
  6
CONTINUOUS
 10
10.0342119828
 20
17.0074640769
 30
0.0
 11
0.4349639225
 21
0.9005141702
 31
0.0
 40
0.6016116119
 41
6.1769196258
 42
6.2988223348
  0
ELLIPSE
  5
417
100
AcDbEntity
  8
RACCORDO
100
AcDbEllipse
 62
7
  6
CONTINUOUS
 10
-12.9187067832
 20
23.6409273066
 30
0.0
 11
-0.0894803643
 21
0.1789340454
 31
0.0
 40
0.6121897086
 41
5.5985514278
 42
6.7506246571
  0
ELLIPSE
  5
418
100
AcDbEntity
  8
RACCORDO
100
AcDbEllipse
 62
7
  6
CONTINUOUS
 10
-11.8227343573
 20
23.0929410936
 30
0.0
 11
-0.0894323102
 21
0.1788913307
 31
0.0
 40
0.6125552124
 41
-2.0723636335
 42
-0.6848044477
  0
ELLIPSE
  5
419
100
AcDbEntity
  8
RACCORDO
100
AcDbEllipse
 62
7
  6
CONTINUOUS
 10
4.3346555928
 20
15.0142461186
 30
0.0
 11
-0.0894323102
 21
0.1788913307
 31
0.0
 40
0.6125552124
 41
4.0278891191
 42
5.5983808594
  0
ELLIPSE
  5
41A
100
AcDbEntity
  8
RACCORDO
100
AcDbEllipse
 62
7
  6
CONTINUOUS
 10
3.2386831669
 20
15.5622323316
 30
0.0
 11
-0.0894803643
 21
0.1789340454
 31
0.0
 40
0.6121897086
 41
5.5985514278
 42
6.261965316
  0
ENDSEC
  0
SECTION
  2
OBJECTS
  0
DICTIONARY
  5
C
100
AcDbDictionary
280
0
281
1
  3
ACAD_GROUP
350
D
  3
ACAD_MLINESTYLE
350
17
  3
ACAD_LAYOUT
350
1A
  3
ACAD_PLOTSETTINGS
350
19
  3
ACAD_PLOTSTYLENAME
350
E
  0
DICTIONARY
  5
D
102
{ACAD_REACTORS
330
C
102
}
100
AcDbDictionary
280
0
281
1
  0
ACDBDICTIONARYWDFLT
  5
E
102
{ACAD_REACTORS
330
C
102
}
100
AcDbDictionary
281
1
  3
Normal
350
F
100
AcDbDictionaryWithDefault
340
F
  0
DICTIONARY
  5
17
102
{ACAD_REACTORS
330
C
102
}
100
AcDbDictionary
280
0
281
1
  3
Standard
350
18
  0
DICTIONARY
  5
19
102
{ACAD_REACTORS
330
C
102
}
100
AcDbDictionary
281
1
  0
DICTIONARY
  5
1A
102
{ACAD_REACTORS
330
C
102
}
100
AcDbDictionary
281
1
  3
Model
350
41B
  3
Layout1
350
41C
  0
ACDBPLACEHOLDER
  5
F
102
{ACAD_REACTORS
330
E
102
}
  0
MLINESTYLE
  5
18
102
{ACAD_REACTORS
330
17
102
}
100
AcDbMlineStyle
  2
STANDARD
 70
0
  3

 62
256
 51
90.0
 52
90.0
 71
2
 49
0.5
 62
256
  6
BYLAYER
 49
-0.5
 62
256
  6
BYLAYER
  0
LAYOUT
  5
41B
102
{ACAD_REACTORS
330
1A
102
}
100
AcDbPlotSettings
  1

  2
none_device
  4
ISO_A4_(297.00_x_210.00_MM)
  6

 40
0.0
 41
0.0
 42
0.0
 43
0.0
 44
297.0
 45
210.0
 46
0.0
 47
0.0
 48
0.0
 49
0.0
140
0.0
141
0.0
142
1.0
143
1.0
 70
1024
 72
1
 73
0
 74
0
  7

 75
0
147
1.0
148
0.0
149
0.0
100
AcDbLayout
  1
Model
 70
0
 71
0
 10
0.0
 20
0.0
 11
297.0
 21
210.0
 12
0.0
 22
0.0
 32
0.0
 14
0.0
 24
0.0
 34
0.0
 15
0.0
 25
0.0
 35
0.0
146
0.0
 13
0.0
 23
0.0
 33
0.0
 16
1.0
 26
0.0
 36
0.0
 17
0.0
 27
1.0
 37
0.0
 76
0
330
214
345
0
346
0
  0
LAYOUT
  5
41C
102
{ACAD_REACTORS
330
1A
102
}
100
AcDbPlotSettings
  1

  2
none_device
  4
ISO_A4_(297.00_x_210.00_MM)
  6

 40
0.0
 41
0.0
 42
0.0
 43
0.0
 44
297.0
 45
210.0
 46
0.0
 47
0.0
 48
0.0
 49
0.0
140
0.0
141
0.0
142
1.0
143
1.0
 70
0
 72
1
 73
0
 74
0
  7

 75
0
147
1.0
148
0.0
149
0.0
100
AcDbLayout
  1
Layout1
 70
0
 71
1
 10
0.0
 20
0.0
 11
297.0
 21
210.0
 12
0.0
 22
0.0
 32
0.0
 14
0.0
 24
0.0
 34
0.0
 15
0.0
 25
0.0
 35
0.0
146
0.0
 13
0.0
 23
0.0
 33
0.0
 16
1.0
 26
0.0
 36
0.0
 17
0.0
 27
1.0
 37
0.0
 76
0
330
215
345
0
346
0
  0
ENDSEC
  0
EOF
