  0
SECTION
  2
HEADER
  9
$ACADVER
  1
AC1024
  9
$DWGCODEPAGE
  3
ANSI_1252
  9
$EXTMAX
 10
297.0
 20
210.0
 30
0.0
  9
$EXTMIN
 10
0.0
 20
0.0
 30
0.0
  9
$LIMMIN
 10
0.0
 20
0.0
  9
$LIMMAX
 10
297.0
 20
210.0
  9
$VIEWCTR
 10
148.5
 20
105.0
  9
$VIEWSIZE
 40
210.0
  9
$CLAYER
  8
0
  9
$LTSCALE
 40
16.335
  9
$CELTYPE
  6
BYLAYER
  9
$DIMSCALE
 40
1.0
  9
$DIMASZ
 40
3.0
  9
$DIMEXO
 40
0.5
  9
$DIMDLI
 40
11.286
  9
$DIMEXE
 40
1.5
  9
$DIMCEN
 40
2.673
  9
$DIMLFAC
 40
1.0
  9
$DIMBLK
  1
_FILLED
  9
$DIMALT
 70
0
  9
$DIMALTF
 40
0.0393700787
  9
$DIMTXT
 40
3.0
  9
$DIMTOL
 70
1
  9
$DIMLIM
 70
0
  9
$DIMTFAC
 40
1.0
  9
$DIMTP
 40
0.01
  9
$DIMTM
 40
0.01
  9
$DIMGAP
 40
0.625
  9
$DIMDSEP
 70
44
  9
$AUNITS
 70
0
  9
$PDMODE
 70
3
  9
$PDSIZE
 40
3.0
  9
$HANDSEED
  5
51A
  9
$TILEMODE
 70
1
  9
$MEASUREMENT
 70
1
  9
$INSUNITS
 70
4
  0
ENDSEC
  0
SECTION
  2
CLASSES
  0
CLASS
  1
ACDBDICTIONARYWDFLT
  2
AcDbDictionaryWithDefault
  3
AutoCAD 2000
 90
0
 91
1
280
0
281
0
  0
CLASS
  1
ACDBPLACEHOLDER
  2
AcDbPlaceHolder
  3
AutoCAD 2000
 90
0
 91
1
280
0
281
0
  0
CLASS
  1
LAYOUT
  2
AcDbLayout
  3
AutoCAD 2000
 90
0
 91
0
280
0
281
0
  0
ENDSEC
  0
SECTION
  2
TABLES
  0
TABLE
  2
VPORT
  5
8
100
AcDbSymbolTable
 70
2
  0
VPORT
  5
1F4
100
AcDbSymbolTableRecord
100
AcDbViewportTableRecord
  2
*ACTIVE
 70
0
 10
0.0
 20
0.0
 11
1.0
 21
1.0
 12
148.5
 22
105.0
 13
0.0
 23
0.0
 14
1.0
 24
1.0
 15
0.0
 25
0.0
 16
0.0
 26
0.0
 36
1.0
 17
0.0
 27
0.0
 37
0.0
 40
210.0
 41
1.4142857143
 42
50.0
 43
0.0
 44
0.0
 50
0.0
 51
0.0
 71
0
 72
100
 73
1
 74
1
 75
0
 76
0
 77
0
 78
0
  0
ENDTAB
  0
TABLE
  2
LTYPE
  5
5
100
AcDbSymbolTable
 70
6
  0
LTYPE
  5
14
100
AcDbSymbolTableRecord
100
AcDbLinetypeTableRecord
  2
BYBLOCK
 70
0
  3

 72
65
 73
0
 40
0.0
  0
LTYPE
  5
15
100
AcDbSymbolTableRecord
100
AcDbLinetypeTableRecord
  2
BYLAYER
 70
0
  3

 72
65
 73
0
 40
0.0
  0
LTYPE
  5
16
100
AcDbSymbolTableRecord
100
AcDbLinetypeTableRecord
  2
CONTINUOUS
 70
64
  3
Solid line
 72
65
 73
0
 40
0.0
  0
LTYPE
  5
1F5
100
AcDbSymbolTableRecord
100
AcDbLinetypeTableRecord
  2
CENTER
 70
64
  3
____ _ ____ _ ____ _ ____ _ ____ _ ____ _ ____
 72
65
 73
4
 40
0.6
 49
0.375
 74
0
 49
-0.075
 74
0
 49
0.075
 74
0
 49
-0.075
 74
0
  0
LTYPE
  5
1F6
100
AcDbSymbolTableRecord
100
AcDbLinetypeTableRecord
  2
HIDDEN
 70
64
  3
- - - - - - - - - - - - - - - - - - - -
 72
65
 73
2
 40
0.2
 49
0.1
 74
0
 49
-0.1
 74
0
  0
LTYPE
  5
1F7
100
AcDbSymbolTableRecord
100
AcDbLinetypeTableRecord
  2
PHANTOM
 70
64
  3
_____ _ _ _____ _ _ _____ _ _ _____
 72
65
 73
6
 40
0.8
 49
0.45
 74
0
 49
-0.05
 74
0
 49
0.1
 74
0
 49
-0.05
 74
0
 49
0.1
 74
0
 49
-0.05
 74
0
  0
LTYPE
  5
1F8
100
AcDbSymbolTableRecord
100
AcDbLinetypeTableRecord
  2
DOT
 70
64
  3
. . . . . . . . . . . . . . . . . . . .
 72
65
 73
2
 40
0.2
 49
0.1
 74
0
 49
-0.1
 74
0
  0
LTYPE
  5
1F9
100
AcDbSymbolTableRecord
100
AcDbLinetypeTableRecord
  2
DASHED
 70
64
  3
- - - - - - - - - - - - - - - - - - - -
 72
65
 73
2
 40
0.2
 49
0.1
 74
0
 49
-0.1
 74
0
  0
ENDTAB
  0
TABLE
  2
LAYER
  5
2
100
AcDbSymbolTable
 70
36
  0
LAYER
  5
10
100
AcDbSymbolTableRecord
100
AcDbLayerTableRecord
  2
0
 70
0
 62
7
  6
CONTINUOUS
370
-3
390
F
  0
LAYER
  5
1FA
100
AcDbSymbolTableRecord
100
AcDbLayerTableRecord
  2
DEFAULT_1
 70
0
 62
7
  6
CENTER
370
-3
390
F
  0
LAYER
  5
1FB
100
AcDbSymbolTableRecord
100
AcDbLayerTableRecord
  2
DEFAULT_2
 70
0
 62
7
  6
HIDDEN
370
-3
390
F
  0
LAYER
  5
1FC
100
AcDbSymbolTableRecord
100
AcDbLayerTableRecord
  2
DEFAULT_3
 70
0
 62
7
  6
PHANTOM
370
-3
390
F
  0
LAYER
  5
1FD
100
AcDbSymbolTableRecord
100
AcDbLayerTableRecord
  2
ASSI
 70
0
 62
7
  6
CONTINUOUS
370
-3
390
F
  0
LAYER
  5
1FE
100
AcDbSymbolTableRecord
100
AcDbLayerTableRecord
  2
COORDINATE
 70
0
 62
7
  6
CONTINUOUS
370
-3
390
F
  0
LAYER
  5
1FF
100
AcDbSymbolTableRecord
100
AcDbLayerTableRecord
  2
COORD_ORIGINE
 70
0
 62
7
  6
CONTINUOUS
370
-3
390
F
  0
LAYER
  5
200
100
AcDbSymbolTableRecord
100
AcDbLayerTableRecord
  2
COSMETICHE
 70
0
 62
7
  6
CONTINUOUS
370
-3
390
F
  0
LAYER
  5
201
100
AcDbSymbolTableRecord
100
AcDbLayerTableRecord
  2
COSMETICI
 70
0
 62
7
  6
CONTINUOUS
370
-3
390
F
  0
LAYER
  5
202
100
AcDbSymbolTableRecord
100
AcDbLayerTableRecord
  2
CURVE
 70
0
 62
7
  6
CONTINUOUS
370
-3
390
F
  0
LAYER
  5
203
100
AcDbSymbolTableRecord
100
AcDbLayerTableRecord
  2
C_CONTATTI
 70
0
 62
7
  6
CONTINUOUS
370
-3
390
F
  0
LAYER
  5
204
100
AcDbSymbolTableRecord
100
AcDbLayerTableRecord
  2
C_COPERCHIO
 70
0
 62
7
  6
CONTINUOUS
370
-3
390
F
  0
LAYER
  5
205
100
AcDbSymbolTableRecord
100
AcDbLayerTableRecord
  2
C_CORPO
 70
0
 62
7
  6
CONTINUOUS
370
-3
390
F
  0
LAYER
  5
206
100
AcDbSymbolTableRecord
100
AcDbLayerTableRecord
  2
C_OTTURATORE
 70
0
 62
7
  6
CONTINUOUS
370
-3
390
F
  0
LAYER
  5
207
100
AcDbSymbolTableRecord
100
AcDbLayerTableRecord
  2
DRAFT
 70
0
 62
7
  6
CONTINUOUS
370
-3
390
F
  0
LAYER
  5
208
100
AcDbSymbolTableRecord
100
AcDbLayerTableRecord
  2
IGES_INCISIONI
 70
0
 62
7
  6
CONTINUOUS
370
-3
390
F
  0
LAYER
  5
209
100
AcDbSymbolTableRecord
100
AcDbLayerTableRecord
  2
IGES_SCRITTE
 70
0
 62
7
  6
CONTINUOUS
370
-3
390
F
  0
LAYER
  5
20A
100
AcDbSymbolTableRecord
100
AcDbLayerTableRecord
  2
INTF_1
 70
0
 62
7
  6
CONTINUOUS
370
-3
390
F
  0
LAYER
  5
20B
100
AcDbSymbolTableRecord
100
AcDbLayerTableRecord
  2
INTF_11
 70
0
 62
7
  6
CONTINUOUS
370
-3
390
F
  0
LAYER
  5
20C
100
AcDbSymbolTableRecord
100
AcDbLayerTableRecord
  2
NOTE
 70
0
 62
7
  6
CONTINUOUS
370
-3
390
F
  0
LAYER
  5
20D
100
AcDbSymbolTableRecord
100
AcDbLayerTableRecord
  2
PIANI
 70
0
 62
7
  6
CONTINUOUS
370
-3
390
F
  0
LAYER
  5
20E
100
AcDbSymbolTableRecord
100
AcDbLayerTableRecord
  2
PIANI_DI_RIFERIMENTO
 70
0
 62
7
  6
CONTINUOUS
370
-3
390
F
  0
LAYER
  5
20F
100
AcDbSymbolTableRecord
100
AcDbLayerTableRecord
  2
PIANI_ORIGINE
 70
0
 62
7
  6
CONTINUOUS
370
-3
390
F
  0
LAYER
  5
210
100
AcDbSymbolTableRecord
100
AcDbLayerTableRecord
  2
PIANI_SFORMI
 70
0
 62
7
  6
CONTINUOUS
370
-3
390
F
  0
LAYER
  5
211
100
AcDbSymbolTableRecord
100
AcDbLayerTableRecord
  2
PUNTI
 70
0
 62
7
  6
CONTINUOUS
370
-3
390
F
  0
LAYER
  5
212
100
AcDbSymbolTableRecord
100
AcDbLayerTableRecord
  2
RACCORDO
 70
0
 62
7
  6
CONTINUOUS
370
-3
390
F
  0
LAYER
  5
213
100
AcDbSymbolTableRecord
100
AcDbLayerTableRecord
  2
SCRITTE
 70
0
 62
7
  6
CONTINUOUS
370
-3
390
F
  0
LAYER
  5
214
100
AcDbSymbolTableRecord
100
AcDbLayerTableRecord
  2
SMUSSO
 70
0
 62
7
  6
CONTINUOUS
370
-3
390
F
  0
LAYER
  5
215
100
AcDbSymbolTableRecord
100
AcDbLayerTableRecord
  2
SUPERFICI
 70
0
 62
7
  6
CONTINUOUS
370
-3
390
F
  0
LAYER
  5
216
100
AcDbSymbolTableRecord
100
AcDbLayerTableRecord
  2
TRASH
 70
0
 62
7
  6
CONTINUOUS
370
-3
390
F
  0
LAYER
  5
217
100
AcDbSymbolTableRecord
100
AcDbLayerTableRecord
  2
XSEC_DATUMS
 70
0
 62
7
  6
CONTINUOUS
370
-3
390
F
  0
ENDTAB
  0
TABLE
  2
STYLE
  5
3
100
AcDbSymbolTable
 70
1
  0
STYLE
  5
11
100
AcDbSymbolTableRecord
100
AcDbTextStyleTableRecord
  2
STANDARD
 70
0
 40
0.0
 41
0.8
 50
0.0
 71
0
 42
0.2
  3
txt
  4

  0
STYLE
  5
218
100
AcDbSymbolTableRecord
100
AcDbTextStyleTableRecord
  2
TEXTSTYLE_1
 70
0
 40
0.0
 41
0.8
 50
0.0
 71
0
 42
0.2
  3
gdt
  4

  0
ENDTAB
  0
TABLE
  2
VIEW
  5
6
100
AcDbSymbolTable
 70
0
  0
ENDTAB
  0
TABLE
  2
UCS
  5
7
100
AcDbSymbolTable
 70
0
  0
ENDTAB
  0
TABLE
  2
APPID
  5
9
100
AcDbSymbolTable
 70
1
  0
APPID
  5
219
100
AcDbSymbolTableRecord
100
AcDbRegAppTableRecord
  2
ACAD
 70
0
  0
ENDTAB
  0
TABLE
  2
BLOCK_RECORD
  5
1
100
AcDbSymbolTable
 70
0
  0
BLOCK_RECORD
  5
21A
100
AcDbSymbolTableRecord
100
AcDbBlockTableRecord
  2
*Model_Space
  0
BLOCK_RECORD
  5
21B
100
AcDbSymbolTableRecord
100
AcDbBlockTableRecord
  2
*Paper_Space
  0
BLOCK_RECORD
  5
21C
100
AcDbSymbolTableRecord
100
AcDbBlockTableRecord
  2
_FILLED
  0
ENDTAB
  0
TABLE
  2
DIMSTYLE
  5
A
100
AcDbSymbolTable
 70
1
100
AcDbDimStyleTable
 71
0
  0
DIMSTYLE
105
21D
100
AcDbSymbolTableRecord
100
AcDbDimStyleTableRecord
  2
STANDARD
 70
0
  3

  4

 40
1.0
 41
3.0
 42
0.5
 43
0.38
 44
1.5
 45
0.0
 46
0.0
 47
0.01
 48
0.01
140
3.0
141
0.09
142
0.0
143
25.4
144
1.0
145
0.0
146
1.0
147
0.625
 71
1
 72
0
 73
0
 74
0
 75
0
 76
0
 77
1
 78
8
 79
2
170
0
171
1
172
0
173
0
174
0
175
0
176
0
177
0
178
0
270
2
179
2
271
2
272
2
273
2
274
2
275
0
280
0
281
0
282
0
283
1
284
8
285
0
286
0
287
3
288
0
340
11
278
44
341
21C
342
21C
343
21C
344
21C
  0
ENDTAB
  0
ENDSEC
  0
SECTION
  2
BLOCKS
  0
BLOCK
  5
20
100
AcDbEntity
  8
0
100
AcDbBlockBegin
  2
*Model_Space
 70
0
 10
0.0
 20
0.0
 30
0.0
  3
*Model_Space
  1

  0
ENDBLK
  5
21
100
AcDbEntity
  8
0
100
AcDbBlockEnd
  0
BLOCK
  5
1C
100
AcDbEntity
  8
0
100
AcDbBlockBegin
  2
*Paper_Space
 70
0
 10
0.0
 20
0.0
 30
0.0
  3
*Paper_Space
  1

  0
ENDBLK
  5
1D
100
AcDbEntity
  8
0
100
AcDbBlockEnd
  0
BLOCK
  5
21E
100
AcDbEntity
  8
0
100
AcDbBlockBegin
  2
_FILLED
 70
64
 10
0.0
 20
0.0
  3
_FILLED
  1

  0
SOLID
  5
21F
100
AcDbEntity
  8
0
  6
BYBLOCK
 62
0
100
AcDbTrace
 10
0.0
 20
0.0
 11
-1.0
 21
0.1333333333
 12
-1.0
 22
-0.1333333333
 13
-1.0
 23
-0.1333333333
  0
ENDBLK
  5
220
100
AcDbEntity
  8
0
  6
BYBLOCK
 62
0
100
AcDbBlockEnd
  0
ENDSEC
  0
SECTION
  2
ENTITIES
  0
LWPOLYLINE
  5
221
100
AcDbEntity
  8
C_COPERCHIO
100
AcDbPolyline
 62
250
  6
CONTINUOUS
 90
112
 70
0
 10
-16.763281638
 20
22.1545399506
 10
-16.7769799312
 20
22.1469426748
 10
-16.7902458272
 20
22.1391689691
 10
-16.803079326
 20
22.1312188334
 10
-16.8154901319
 20
22.1230855924
 10
-16.8274685407
 20
22.1147759214
 10
-16.8389854397
 20
22.1063098466
 10
-16.850039455
 20
22.0976871442
 10
-16.8606319606
 20
22.0889080378
 10
-16.8707379663
 20
22.0799932243
 10
-16.8803562754
 20
22.0709424192
 10
-16.8894880845
 20
22.061755907
 10
-16.8981119938
 20
22.0524552377
 10
-16.9062268116
 20
22.0430401508
 10
-16.9138337295
 20
22.0335109068
 10
-16.9209149225
 20
22.0238898385
 10
-16.9274691722
 20
22.014176704
 10
-16.9334976969
 20
22.0043717451
 10
-16.9389863264
 20
21.9944980191
 10
-16.9439337795
 20
21.9845553799
 10
-16.9483413374
 20
21.9745439736
 10
-16.9521986728
 20
21.9644872954
 10
-16.9555044937
 20
21.954385237
 10
-16.958260092
 20
21.9442379067
 10
-16.9604590157
 20
21.9340691245
 10
-16.9620999579
 20
21.9238788489
 10
-16.9631842255
 20
21.9136671215
 10
-16.9637092882
 20
21.9034578862
 10
-16.9636738327
 20
21.8932511334
 10
-16.9630791723
 20
21.8830468729
 10
-16.961926717
 20
21.8728690779
 10
-16.9602151587
 20
21.8627178269
 10
-16.9579458055
 20
21.8525930414
 10
-16.9551239922
 20
21.8425184602
 10
-16.9517484173
 20
21.8324941875
 10
-16.9478203822
 20
21.822520119
 10
-16.9433491262
 20
21.8126196797
 10
-16.9383333817
 20
21.8027930582
 10
-16.9327744163
 20
21.7930400658
 10
-16.9266852709
 20
21.7833835619
 10
-16.9200646905
 20
21.7738237571
 10
-16.9129139302
 20
21.7643604407
 10
-16.9052497968
 20
21.7550158403
 10
-16.8970710994
 20
21.7457902511
 10
-16.8883790289
 20
21.7366833778
 10
-16.879193965
 20
21.7277165627
 10
-16.8695147338
 20
21.7188901189
 10
-16.8593425091
 20
21.7102037332
 10
-16.8487011925
 20
21.7016778088
 10
-16.8375897036
 20
21.6933127381
 10
-16.8260091226
 20
21.6851081287
 10
-16.8139865923
 20
21.677083206
 10
-16.801521053
 20
21.6692383772
 10
-16.7886135643
 20
21.6615732351
 10
-16.7752944477
 20
21.654105784
 10
-16.7615627625
 20
21.6468365015
 10
-16.7474194494
 20
21.6397649101
 10
-16.7328976518
 20
21.632907581
 10
-16.717996454
 20
21.6262650042
 10
-16.7027167716
 20
21.6198366897
 10
-16.6870944948
 20
21.6136377381
 10
-16.6711288486
 20
21.6076686987
 10
-16.6548206079
 20
21.6019290223
 10
-16.6382079878
 20
21.5964321612
 10
-16.6212902434
 20
21.5911786754
 10
-16.6040681196
 20
21.5861680049
 10
-16.5865820665
 20
21.5814119224
 10
-16.5688314951
 20
21.5769110335
 10
-16.5508169945
 20
21.5726647325
 10
-16.5325807819
 20
21.5686829756
 10
-16.5141223046
 20
21.5649663769
 10
-16.4954421153
 20
21.5615143222
 10
-16.4765840897
 20
21.5583349254
 10
-16.4575478412
 20
21.5554288314
 10
-16.4383337564
 20
21.5527953952
 10
-16.4189868707
 20
21.5504407953
 10
-16.399506842
 20
21.5483656826
 10
-16.3798940123
 20
21.5465694062
 10
-16.3601944435
 20
21.5450561918
 10
-16.3404079576
 20
21.5438267058
 10
-16.3205347326
 20
21.5428802818
 10
-16.3006213639
 20
21.5422191459
 10
-16.2806677263
 20
21.5418439675
 10
-16.2606739452
 20
21.5417540773
 10
-16.240686992
 20
21.5419496931
 10
-16.2207069126
 20
21.5424314851
 10
-16.2007336611
 20
21.5431987831
 10
-16.1808140722
 20
21.5442497939
 10
-16.1609482555
 20
21.5455851839
 10
-16.1411361015
 20
21.5472042869
 10
-16.1214241163
 20
21.5491033105
 10
-16.1018125387
 20
21.551282912
 10
-16.0823011301
 20
21.5537424342
 10
-16.0629356801
 20
21.5564761136
 10
-16.0437165013
 20
21.559484601
 10
-16.0246432811
 20
21.5627672455
 10
-16.005760872
 20
21.5663163314
 10
-15.9870697712
 20
21.5701324759
 10
-15.9685694815
 20
21.5742150617
 10
-15.9503033631
 20
21.578554521
 10
-15.9322719539
 20
21.5831514556
 10
-15.914474716
 20
21.5880052637
 10
-15.896953396
 20
21.5931045718
 10
-15.8797085753
 20
21.598449986
 10
-15.8627396724
 20
21.6040409003
 10
-15.8460866899
 20
21.6098641233
 10
-15.8297499589
 20
21.615920418
 10
-15.8137291482
 20
21.6222090214
 10
-15.7980632665
 20
21.6287144528
 10
-15.7827653169
 20
21.6354315519
 10
-15.7678222964
 20
21.642365479
 10
-15.753234205
 20
21.6495162341
  0
LWPOLYLINE
  5
222
100
AcDbEntity
  8
C_COPERCHIO
100
AcDbPolyline
 62
7
  6
CONTINUOUS
 90
33
 70
0
 10
-16.8788999537
 20
22.1596306808
 10
-16.8943089165
 20
22.1511275882
 10
-16.9150027141
 20
22.139081772
 10
-16.9350723873
 20
22.1266554141
 10
-16.9545333731
 20
22.1138377476
 10
-16.9733595912
 20
22.1006445002
 10
-16.9914878733
 20
22.0871225468
 10
-17.0089209358
 20
22.0732759541
 10
-17.0256574856
 20
22.059111441
 10
-17.0416396319
 20
22.0446876864
 10
-17.0568729121
 20
22.0300145968
 10
-17.0713633509
 20
22.0151014828
 10
-17.0850652166
 20
22.0000156247
 10
-17.0979728827
 20
21.9847919648
 10
-17.1101159533
 20
21.9694255851
 10
-17.12150571
 20
21.9539305494
 10
-17.1321452661
 20
21.9383331854
 10
-17.142052727
 20
21.9226397104
 10
-17.1512558398
 20
21.9068356258
 10
-17.1597611936
 20
21.8909367099
 10
-17.1675754831
 20
21.8749599997
 10
-17.1747185519
 20
21.8588933523
 10
-17.1811952672
 20
21.8427519207
 10
-17.1870094152
 20
21.8265548492
 10
-17.1921733263
 20
21.8102968254
 10
-17.1966908958
 20
21.7939943676
 10
-17.2005658456
 20
21.7776669852
 10
-17.2038063171
 20
21.7613147264
 10
-17.2064160226
 20
21.7449563593
 10
-17.2083998842
 20
21.7286100747
 10
-17.2097647822
 20
21.712275498
 10
-17.2105152318
 20
21.6959647634
 10
-17.2106776558
 20
21.6840222008
  0
LWPOLYLINE
  5
223
100
AcDbEntity
  8
C_COPERCHIO
100
AcDbPolyline
 62
250
  6
CONTINUOUS
 90
40
 70
0
 10
-20.3773432065
 20
18.905632716
 10
-20.3843721199
 20
18.9017965841
 10
-20.3913867197
 20
18.8976251976
 10
-20.3983758795
 20
18.8931249232
 10
-20.4053290598
 20
18.8883022538
 10
-20.4122346364
 20
18.8831649571
 10
-20.4190799622
 20
18.8777223145
 10
-20.4258536106
 20
18.8719834555
 10
-20.4325454153
 20
18.8659570387
 10
-20.4391448249
 20
18.8596525609
 10
-20.4456414138
 20
18.8530799673
 10
-20.452024826
 20
18.8462497203
 10
-20.4582848601
 20
18.8391727309
 10
-20.464411556
 20
18.8318602642
 10
-20.4703952268
 20
18.8243238867
 10
-20.4762264008
 20
18.8165755286
 10
-20.4818958343
 20
18.8086274697
 10
-20.4873945252
 20
18.8004923277
 10
-20.4927137466
 20
18.792183012
 10
-20.4978450587
 20
18.7837127055
 10
-20.5027803221
 20
18.7750948431
 10
-20.5075117073
 20
18.766343095
 10
-20.5120317085
 20
18.7574713436
 10
-20.5163331541
 20
18.7484936631
 10
-20.5204092188
 20
18.7394242979
 10
-20.5242534359
 20
18.7302776356
 10
-20.5278597066
 20
18.7210681857
 10
-20.5312223091
 20
18.7118105594
 10
-20.5343359088
 20
18.7025194424
 10
-20.5371955658
 20
18.6932095742
 10
-20.5397967428
 20
18.6838957258
 10
-20.5421353131
 20
18.6745926731
 10
-20.5442075666
 20
18.6653151737
 10
-20.5460102158
 20
18.6560779462
 10
-20.5475404012
 20
18.6468956419
 10
-20.5487956947
 20
18.6377828299
 10
-20.5497741042
 20
18.6287539744
 10
-20.5504740779
 20
18.6198234009
 10
-20.5508945063
 20
18.6110052738
 10
-20.5510347231
 20
18.6023135818
  0
LINE
  5
224
100
AcDbEntity
  8
C_COPERCHIO
100
AcDbLine
 62
7
  6
CONTINUOUS
 10
-15.4516516016
 20
22.9296639388
 11
-16.8789024144
 21
22.1596293817
  0
LINE
  5
225
100
AcDbEntity
  8
C_COPERCHIO
100
AcDbLine
 62
250
  6
CONTINUOUS
 10
-15.3372715283
 20
22.9239051199
 11
-16.763281638
 21
22.1545399506
  0
LINE
  5
226
100
AcDbEntity
  8
C_COPERCHIO
100
AcDbLine
 62
7
  6
CONTINUOUS
 10
-17.2106777046
 20
20.6815908955
 11
-20.4929639829
 21
18.9107221472
  0
LINE
  5
227
100
AcDbEntity
  8
C_COPERCHIO
100
AcDbLine
 62
250
  6
CONTINUOUS
 10
-17.2106777046
 20
20.614121403
 11
-20.3773432065
 21
18.905632716
  0
LINE
  5
228
100
AcDbEntity
  8
C_COPERCHIO
100
AcDbLine
 62
250
  6
CONTINUOUS
 10
-15.753234205
 20
21.6495162341
 11
-14.2765575087
 21
22.39354811
  0
LINE
  5
229
100
AcDbEntity
  8
C_COPERCHIO
100
AcDbLine
 62
250
  6
CONTINUOUS
 10
-15.5764844336
 20
21.3446679725
 11
-14.0998077373
 21
22.0886998484
  0
LINE
  5
22A
100
AcDbEntity
  8
C_CORPO
100
AcDbLine
 62
250
  6
CONTINUOUS
 10
-8.6073894682
 20
25.1069629972
 11
-14.2765844326
 21
22.393561572
  0
LINE
  5
22B
100
AcDbEntity
  8
C_CORPO
100
AcDbLine
 62
250
  6
CONTINUOUS
 10
-8.4684362549
 20
24.8618395468
 11
-14.1090094276
 21
22.1621371408
  0
LINE
  5
22C
100
AcDbEntity
  8
C_CORPO
100
AcDbLine
 62
7
  6
CONTINUOUS
 10
-9.690794237
 20
25.6126621803
 11
-15.4599596323
 21
22.9482704172
  0
LINE
  5
22D
100
AcDbEntity
  8
C_CORPO
100
AcDbLine
 62
250
  6
CONTINUOUS
 10
-9.604470352
 20
25.6055034391
 11
-15.3726214826
 21
22.941580097
  0
LINE
  5
22E
100
AcDbEntity
  8
C_COPERCHIO
100
AcDbLine
 62
7
  6
CONTINUOUS
 10
-20.4860614267
 20
-19.8517796968
 11
-3.4823881242
 21
-28.353616348
  0
LINE
  5
22F
100
AcDbEntity
  8
C_COPERCHIO
100
AcDbLine
 62
250
  6
CONTINUOUS
 10
-20.5510347231
 20
-19.7165612467
 11
-3.5473614206
 21
-28.2183978979
  0
LWPOLYLINE
  5
230
100
AcDbEntity
  8
C_COPERCHIO
100
AcDbPolyline
 62
250
  6
CONTINUOUS
 90
20
 70
0
 10
-23.1734252437
 20
-16.3087799239
 10
-23.1729382153
 20
-16.3139834803
 10
-23.1720557275
 20
-16.3191634957
 10
-23.1707791801
 20
-16.3243117533
 10
-23.169110598
 20
-16.3294200872
 10
-23.1670526278
 20
-16.3344803946
 10
-23.1646085339
 20
-16.3394846487
 10
-23.1617821931
 20
-16.344424912
 10
-23.1585780885
 20
-16.3492933481
 10
-23.1550013024
 20
-16.3540822349
 10
-23.1510575084
 20
-16.3587839762
 10
-23.1467529619
 20
-16.3633911142
 10
-23.1420944909
 20
-16.3678963411
 10
-23.1370894846
 20
-16.3722925106
 10
-23.1317458818
 20
-16.3765726497
 10
-23.1260721587
 20
-16.3807299693
 10
-23.1200773147
 20
-16.3847578749
 10
-23.1137708588
 20
-16.3886499776
 10
-23.1071627943
 20
-16.3924001038
 10
-23.1002636029
 20
-16.396002305
  0
LWPOLYLINE
  5
231
100
AcDbEntity
  8
C_COPERCHIO
100
AcDbPolyline
 62
7
  6
CONTINUOUS
 90
36
 70
0
 10
-23.1734950216
 20
-16.3071864684
 10
-23.1727457426
 20
-16.3253714695
 10
-23.1712145964
 20
-16.3497971494
 10
-23.1690900401
 20
-16.3739509347
 10
-23.1663698525
 20
-16.3978346475
 10
-23.1630548728
 20
-16.4214235167
 10
-23.1591518886
 20
-16.4446660345
 10
-23.1546631365
 20
-16.4675540573
 10
-23.1495912921
 20
-16.4900775023
 10
-23.1439497784
 20
-16.5121850842
 10
-23.1377440808
 20
-16.533869552
 10
-23.1309801413
 20
-16.5551227794
 10
-23.123678764
 20
-16.5758954616
 10
-23.1158494085
 20
-16.5961813046
 10
-23.1075016452
 20
-16.6159746111
 10
-23.098663695
 20
-16.6352301489
 10
-23.0893545518
 20
-16.6539330189
 10
-23.07958313
 20
-16.672090644
 10
-23.0693672949
 20
-16.6896925706
 10
-23.0587276195
 20
-16.7067264412
 10
-23.0476746222
 20
-16.7231980694
 10
-23.0362111009
 20
-16.7391217874
 10
-23.024351722
 20
-16.7544927892
 10
-23.0121118742
 20
-16.7693066483
 10
-22.9994937607
 20
-16.7835742984
 10
-22.9865126438
 20
-16.7972899121
 10
-22.9731837382
 20
-16.810448603
 10
-22.9595080339
 20
-16.8230594122
 10
-22.9455013787
 20
-16.835116153
 10
-22.9311791934
 20
-16.8466137308
 10
-22.9165406666
 20
-16.8575597014
 10
-22.9016014252
 20
-16.867948298
 10
-22.8863777334
 20
-16.8777740669
 10
-22.8708685684
 20
-16.8870422312
 10
-22.8550839263
 20
-16.8957501405
 10
-22.8442754027
 20
-16.9013115688
  0
LWPOLYLINE
  5
232
100
AcDbEntity
  8
C_COPERCHIO
100
AcDbPolyline
 62
250
  6
CONTINUOUS
 90
28
 70
0
 10
-23.1002636029
 20
-16.396002305
 10
-23.133047465
 20
-15.3379943881
 10
-23.1633105763
 20
-14.2785664969
 10
-23.1910526739
 20
-13.2177276841
 10
-23.2162735131
 20
-12.1554870168
 10
-23.2389728783
 20
-11.0918535688
 10
-23.2591505825
 20
-10.0268364195
 10
-23.2768064516
 20
-8.9604446674
 10
-23.2919403308
 20
-7.8926874249
 10
-23.3045520957
 20
-6.8235738102
 10
-23.3146416376
 20
-5.7531129577
 10
-23.3222088679
 20
-4.6813140123
 10
-23.3272537243
 20
-3.6081861247
 10
-23.329776164
 20
-2.5337384624
 10
-23.329776164
 20
-1.4579802043
 10
-23.3272537243
 20
-0.3809205341
 10
-23.3222088679
 20
0.6974313484
 10
-23.3146416376
 20
1.7770662307
 10
-23.3045520957
 20
2.8579748931
 10
-23.2919403308
 20
3.9401481041
 10
-23.2768064516
 20
5.0235766185
 10
-23.2591505825
 20
6.1082511798
 10
-23.2389728783
 20
7.1941625232
 10
-23.2162735131
 20
8.2813013739
 10
-23.1910526739
 20
9.3696584445
 10
-23.1633105763
 20
10.4592244391
 10
-23.133047465
 20
11.5499900526
 10
-23.1002636029
 20
12.6419459695
  0
LWPOLYLINE
  5
233
100
AcDbEntity
  8
C_COPERCHIO
100
AcDbPolyline
 62
7
  6
CONTINUOUS
 90
28
 70
0
 10
-23.1735032209
 20
12.7295111688
 10
-23.2061177174
 20
11.6434026266
 10
-23.2364047241
 20
10.5522187433
 10
-23.264168744
 20
9.4622328077
 10
-23.2894094832
 20
8.3734552902
 10
-23.3121267331
 20
7.285895254
 10
-23.3323203088
 20
6.1995611696
 10
-23.3499900264
 20
5.1144617532
 10
-23.365135725
 20
4.0306066063
 10
-23.377757254
 20
2.9480055268
 10
-23.3878544808
 20
1.8666679152
 10
-23.3954273202
 20
0.7866029299
 10
-23.4004756965
 20
-0.2921799967
 10
-23.4029995471
 20
-1.36967166
 10
-23.402998852
 20
-2.4458628501
 10
-23.4004736026
 20
-3.5207441291
 10
-23.3954238016
 20
-4.594306297
 10
-23.3878494946
 20
-5.6665402073
 10
-23.37775074
 20
-6.7374365045
 10
-23.3651276058
 20
-7.8069861095
 10
-23.3499802071
 20
-8.8751797498
 10
-23.3323086774
 20
-9.9420077824
 10
-23.3121131601
 20
-11.0074607633
 10
-23.2893938219
 20
-12.0715301593
 10
-23.26415083
 20
-13.1342076933
 10
-23.2363843756
 20
-14.1954845103
 10
-23.2060947355
 20
-15.2553504297
 10
-23.1734950047
 20
-16.3071877535
  0
LWPOLYLINE
  5
234
100
AcDbEntity
  8
C_COPERCHIO
100
AcDbPolyline
 62
250
  6
CONTINUOUS
 90
52
 70
0
 10
-23.1002636029
 20
12.6419459695
 10
-23.0992846324
 20
12.6654549846
 10
-23.0978128521
 20
12.6891762117
 10
-23.0958493328
 20
12.7130928642
 10
-23.0933955427
 20
12.7371878791
 10
-23.0904532178
 20
12.7614443512
 10
-23.0870243295
 20
12.7858455546
 10
-23.0831112969
 20
12.8103744823
 10
-23.0787169294
 20
12.8350135589
 10
-23.0738442894
 20
12.8597450787
 10
-23.0684969025
 20
12.8845514906
 10
-23.0626785753
 20
12.909415336
 10
-23.0563933158
 20
12.9343189688
 10
-23.0496456577
 20
12.9592447527
 10
-23.0424404148
 20
12.984175122
 10
-23.0347825039
 20
13.0090925166
 10
-23.0266773923
 20
13.0339794293
 10
-23.0181308969
 20
13.0588181938
 10
-23.0091489368
 20
13.0835910468
 10
-22.9997379788
 20
13.1082804635
 10
-22.9899047425
 20
13.1328690496
 10
-22.9796559926
 20
13.1573393298
 10
-22.968999077
 20
13.1816740606
 10
-22.9579416324
 20
13.2058560411
 10
-22.9464912963
 20
13.2298680071
 10
-22.9346563152
 20
13.2536929734
 10
-22.9224451409
 20
13.2773141793
 10
-22.9098661298
 20
13.3007148956
 10
-22.8969282784
 20
13.3238786714
 10
-22.8836408763
 20
13.3467891138
 10
-22.8700131021
 20
13.3694298329
 10
-22.856054747
 20
13.3917848519
 10
-22.8417757976
 20
13.4138384268
 10
-22.8271860823
 20
13.4355748226
 10
-22.8122960441
 20
13.4569787606
 10
-22.7971163743
 20
13.4780351166
 10
-22.7816576016
 20
13.4987287466
 10
-22.7659308753
 20
13.5190450131
 10
-22.7499474149
 20
13.53896968
 10
-22.7337181419
 20
13.5584886053
 10
-22.7172546639
 20
13.5775880875
 10
-22.7005688122
 20
13.5962546358
 10
-22.683672092
 20
13.614474865
 10
-22.6665765732
 20
13.6322360094
 10
-22.6492945588
 20
13.6495255137
 10
-22.6318381242
 20
13.6663308118
 10
-22.6142199655
 20
13.682639947
 10
-22.5964525501
 20
13.6984416299
 10
-22.5785477798
 20
13.7137248076
 10
-22.5605182084
 20
13.7284787354
 10
-22.5423770419
 20
13.7426930175
 10
-22.5241372875
 20
13.7563576563
  0
LWPOLYLINE
  5
235
100
AcDbEntity
  8
C_COPERCHIO
100
AcDbPolyline
 62
250
  6
CONTINUOUS
 90
200
 70
0
 10
-14.6420990887
 20
19.5989466153
 10
-14.6452683748
 20
19.5955539264
 10
-14.6483765738
 20
19.5921603167
 10
-14.6514236857
 20
19.5887657862
 10
-14.6544094543
 20
19.5853700997
 10
-14.6573341359
 20
19.5819734924
 10
-14.6601984994
 20
19.5785766703
 10
-14.6630025376
 20
19.5751796418
 10
-14.6657462578
 20
19.5717823986
 10
-14.6684304511
 20
19.5683856222
 10
-14.6710551108
 20
19.5649893207
 10
-14.6736202436
 20
19.5615934861
 10
-14.6761266605
 20
19.5581987752
 10
-14.6785743556
 20
19.5548051963
 10
-14.6809633349
 20
19.5514127412
 10
-14.6832944275
 20
19.5480220425
 10
-14.685567628
 20
19.5446331084
 10
-14.6877829418
 20
19.5412459308
 10
-14.6899412139
 20
19.5378611181
 10
-14.6920424397
 20
19.5344786784
 10
-14.6940866238
 20
19.5310986037
 10
-14.6960746256
 20
19.5277214783
 10
-14.698006441
 20
19.52434731
 10
-14.6998820741
 20
19.5209760911
 10
-14.7017023964
 20
19.5176083817
 10
-14.7034674044
 20
19.5142441898
 10
-14.7051771017
 20
19.5108835075
 10
-14.7068323698
 20
19.5075268722
 10
-14.7084332058
 20
19.5041742916
 10
-14.7099796127
 20
19.500825758
 10
-14.7114724805
 20
19.4974817855
 10
-14.712911807
 20
19.4941423819
 10
-14.7142975945
 20
19.4908075393
 10
-14.71563074
 20
19.4874777487
 10
-14.7169112418
 20
19.4841530183
 10
-14.7181391017
 20
19.4808333397
 10
-14.7193152225
 20
19.4775191789
 10
-14.7204396031
 20
19.4742105434
 10
-14.7215122447
 20
19.4709074258
 10
-14.7225340531
 20
19.4676102692
 10
-14.7235050299
 20
19.4643190711
 10
-14.7244251734
 20
19.4610338341
 10
-14.7252953844
 20
19.4577550096
 10
-14.7261156666
 20
19.4544825729
 10
-14.7268860162
 20
19.4512165487
 10
-14.7276073225
 20
19.4479574624
 10
-14.7282795809
 20
19.4447053059
 10
-14.7289027961
 20
19.4414600872
 10
-14.7294778714
 20
19.4382223557
 10
-14.7300047981
 20
19.4349921195
 10
-14.7304835851
 20
19.4317693705
 10
-14.7309151615
 20
19.4285546333
 10
-14.7312995198
 20
19.4253479155
 10
-14.7316366677
 20
19.4221492095
 10
-14.731927558
 20
19.4189590177
 10
-14.7321721834
 20
19.4157773471
 10
-14.7323705513
 20
19.4126041905
 10
-14.7325236354
 20
19.4094400293
 10
-14.7326314294
 20
19.4062848747
 10
-14.7326939398
 20
19.4031387154
 10
-14.7327121592
 20
19.4000019985
 10
-14.7326860885
 20
19.3968748015
 10
-14.7326157268
 20
19.3937570468
 10
-14.7325020642
 20
19.3906489489
 10
-14.7323451087
 20
19.3875505205
 10
-14.7321448522
 20
19.3844617489
 10
-14.7319022606
 20
19.3813828093
 10
-14.7316173395
 20
19.3783136906
 10
-14.7312900833
 20
19.3752544039
 10
-14.7309214407
 20
19.3722051586
 10
-14.7305114177
 20
19.3691659603
 10
-14.7300600082
 20
19.3661368032
 10
-14.7295681428
 20
19.3631178791
 10
-14.729035828
 20
19.3601091939
 10
-14.7284630572
 20
19.3571107417
 10
-14.7278507414
 20
19.3541226953
 10
-14.7271988873
 20
19.3511450603
 10
-14.7265074883
 20
19.3481778313
 10
-14.7257774349
 20
19.3452211649
 10
-14.7250087344
 20
19.3422750671
 10
-14.7242013795
 20
19.3393395321
 10
-14.7233562389
 20
19.3364146987
 10
-14.722473322
 20
19.333500577
 10
-14.7215526193
 20
19.330597157
 10
-14.7205949714
 20
19.3277045479
 10
-14.7196003849
 20
19.3248227494
 10
-14.7185688532
 20
19.3219517619
 10
-14.7175011977
 20
19.3190916957
 10
-14.7163974256
 20
19.3162425538
 10
-14.7152575298
 20
19.3134043333
 10
-14.7140823098
 20
19.3105771356
 10
-14.7128717731
 20
19.3077609644
 10
-14.7116259122
 20
19.3049558159
 10
-14.7103455034
 20
19.3021617804
 10
-14.7090305547
 20
19.2993788613
 10
-14.7076810581
 20
19.2966070552
 10
-14.706297767
 20
19.2938464421
 10
-14.7048806892
 20
19.2910970253
 10
-14.7034298169
 20
19.2883588014
 10
-14.7019458793
 20
19.2856318405
 10
-14.7004288861
 20
19.2829161478
 10
-14.6988788276
 20
19.280211718
 10
-14.6972964052
 20
19.2775186052
 10
-14.6956816298
 20
19.2748368161
 10
-14.6940344904
 20
19.272166344
 10
-14.6923556553
 20
19.2695072237
 10
-14.6906451309
 20
19.2668594538
 10
-14.6889029108
 20
19.2642230358
 10
-14.6871296441
 20
19.2615980081
 10
-14.685325339
 20
19.2589843724
 10
-14.6834899874
 20
19.2563821271
 10
-14.6816242145
 20
19.2537913058
 10
-14.6797280278
 20
19.2512119096
 10
-14.6778014198
 20
19.2486439375
 10
-14.6758449928
 20
19.2460874198
 10
-14.6738587545
 20
19.2435423579
 10
-14.6718426972
 20
19.2410087504
 10
-14.6697973992
 20
19.2384866234
 10
-14.667722869
 20
19.2359759787
 10
-14.6656190982
 20
19.2334768144
 10
-14.6634866403
 20
19.2309891513
 10
-14.6613255061
 20
19.2285129937
 10
-14.6591356849
 20
19.2260483374
 10
-14.6569176974
 20
19.2235951906
 10
-14.654671554
 20
19.221153556
 10
-14.6523972444
 20
19.2187234309
 10
-14.6500952582
 20
19.2163048151
 10
-14.6477656028
 20
19.2138977078
 10
-14.6454082708
 20
19.2115021097
 10
-14.6430237306
 20
19.2091180233
 10
-14.6406119895
 20
19.2067454478
 10
-14.6381730401
 20
19.2043843838
 10
-14.635707329
 20
19.2020348352
 10
-14.6332148625
 20
19.1996968007
 10
-14.6306956343
 20
19.1973702816
 10
-14.6281500725
 20
19.1950552858
 10
-14.6255781846
 20
19.1927518133
 10
-14.622979963
 20
19.1904598641
 10
-14.6203558131
 20
19.1881794461
 10
-14.6177057431
 20
19.1859105597
 10
-14.6150297447
 20
19.1836532044
 10
-14.6123281986
 20
19.1814073866
 10
-14.6096011152
 20
19.1791731082
 10
-14.6068484839
 20
19.1769503672
 10
-14.6040706536
 20
19.1747391638
 10
-14.6012676335
 20
19.1725394985
 10
-14.5984394143
 20
19.1703513708
 10
-14.5955863177
 20
19.1681747796
 10
-14.5927083521
 20
19.1660097248
 10
-14.5898055091
 20
19.1638562064
 10
-14.5868780839
 20
19.161714224
 10
-14.5839260808
 20
19.159583774
 10
-14.5809494956
 20
19.1574648598
 10
-14.5779486113
 20
19.1553574912
 10
-14.5749234326
 20
19.1532616653
 10
-14.5718739549
 20
19.151177385
 10
-14.5688004478
 20
19.1491046681
 10
-14.5657029178
 20
19.1470435134
 10
-14.5625813583
 20
19.1449939221
 10
-14.5594360191
 20
19.1429559159
 10
-14.5562669078
 20
19.1409294941
 10
-14.5530740168
 20
19.1389146573
 10
-14.5498575728
 20
19.136911429
 10
-14.5466175841
 20
19.1349198087
 10
-14.5433540423
 20
19.132939797
 10
-14.5400671499
 20
19.130971419
 10
-14.5367569152
 20
19.1290146741
 10
-14.5334233298
 20
19.1270695628
 10
-14.5300665712
 20
19.1251361126
 10
-14.5266866495
 20
19.1232143235
 10
-14.5232835546
 20
19.1213041954
 10
-14.5198574331
 20
19.1194057554
 10
-14.5164082838
 20
19.1175189973
 10
-14.5129361079
 20
19.1156439274
 10
-14.5094410558
 20
19.1137805914
 10
-14.505923131
 20
19.1119289861
 10
-14.50238233
 20
19.1100891147
 10
-14.4988187932
 20
19.108261033
 10
-14.4952325257
 20
19.1064447385
 10
-14.4916235224
 20
19.1046402336
 10
-14.4879919086
 20
19.102847581
 10
-14.48433769
 20
19.1010667786
 10
-14.480660861
 20
19.0992978286
 10
-14.4769615301
 20
19.0975407998
 10
-14.4732397021
 20
19.0957956897
 10
-14.4694953722
 20
19.094062501
 10
-14.4657286341
 20
19.0923413098
 10
-14.4619394959
 20
19.0906321152
 10
-14.4581279495
 20
19.0889349183
 10
-14.4542940643
 20
19.0872497991
 10
-14.4504378505
 20
19.0855767568
 10
-14.4465592978
 20
19.0839157923
 10
-14.4426584452
 20
19.0822669875
 10
-14.438735286
 20
19.0806303348
 10
-14.4347898268
 20
19.0790058419
 10
-14.4308221268
 20
19.0773936141
 10
-14.4268321879
 20
19.0757936477
 10
-14.4228200081
 20
19.0742059464
 10
-14.4187856402
 20
19.0726306262
 10
-14.4147290868
 20
19.0710676839
  0
LWPOLYLINE
  5
236
100
AcDbEntity
  8
C_COPERCHIO
100
AcDbPolyline
 62
250
  6
CONTINUOUS
 90
6
 70
0
 10
-14.4147290868
 20
19.0710676839
 10
-14.4106503451
 20
19.0695171227
 10
-14.4065494605
 20
19.0679790689
 10
-14.402426435
 20
19.066453519
 10
-14.3982812665
 20
19.0649404765
 10
-14.3899246199
 20
19.0619523205
  0
LWPOLYLINE
  5
237
100
AcDbEntity
  8
C_COPERCHIO
100
AcDbPolyline
 62
7
  6
CONTINUOUS
 90
28
 70
0
 10
-14.642249329
 20
19.5988296761
 10
-14.6596545212
 20
19.5848640839
 10
-14.6762657653
 20
19.5706993917
 10
-14.6920970591
 20
19.5563428693
 10
-14.7071611278
 20
19.5418021967
 10
-14.7214719827
 20
19.5270830394
 10
-14.7350432985
 20
19.51219031
 10
-14.7478852164
 20
19.4971319162
 10
-14.7600077974
 20
19.4819154629
 10
-14.7714208005
 20
19.4665484502
 10
-14.7821312857
 20
19.4510418246
 10
-14.7921465751
 20
19.435406525
 10
-14.801473405
 20
19.4196548316
 10
-14.8101168688
 20
19.403802839
 10
-14.8180835786
 20
19.3878654429
 10
-14.8253802789
 20
19.3718586431
 10
-14.8320112058
 20
19.3558066409
 10
-14.837985449
 20
19.3397254143
 10
-14.8433150698
 20
19.3236229863
 10
-14.8480039755
 20
19.3075344487
 10
-14.852065123
 20
19.2914706625
 10
-14.8555185968
 20
19.2754040558
 10
-14.8583701625
 20
19.2593589835
 10
-14.860627795
 20
19.2433561151
 10
-14.8623054848
 20
19.2273604722
 10
-14.8634075268
 20
19.2113942373
 10
-14.8639397151
 20
19.195478453
 10
-14.8639951358
 20
19.1884294972
  0
LWPOLYLINE
  5
238
100
AcDbEntity
  8
C_COPERCHIO
100
AcDbPolyline
 62
7
  6
CONTINUOUS
 90
46
 70
0
 10
-22.6418315293
 20
13.7596855237
 10
-22.6571288855
 20
13.7481803706
 10
-22.6773859911
 20
13.7322498493
 10
-22.6973564508
 20
13.7157485219
 10
-22.7170331943
 20
13.6986920261
 10
-22.7364092455
 20
13.6810962081
 10
-22.7554749566
 20
13.6629788283
 10
-22.7742237791
 20
13.6443550385
 10
-22.7926482261
 20
13.6252405709
 10
-22.8107358513
 20
13.605656082
 10
-22.8284795334
 20
13.5856174865
 10
-22.8458721779
 20
13.5651400853
 10
-22.8629011021
 20
13.5442460257
 10
-22.8795586945
 20
13.5229521828
 10
-22.8958383271
 20
13.5012735143
 10
-22.9117288743
 20
13.4792316226
 10
-22.9272213066
 20
13.4568457828
 10
-22.9423107494
 20
13.4341289661
 10
-22.9569921353
 20
13.4110945488
 10
-22.9712577612
 20
13.387759227
 10
-22.985101008
 20
13.3641380928
 10
-22.9985175948
 20
13.3402422148
 10
-23.01149998
 20
13.3160872809
 10
-23.0240409597
 20
13.2916890306
 10
-23.0361356249
 20
13.2670582177
 10
-23.0477762732
 20
13.242210361
 10
-23.0589555122
 20
13.2171611663
 10
-23.0696677954
 20
13.1919211241
 10
-23.0799054982
 20
13.1665052467
 10
-23.0896607332
 20
13.1409296078
 10
-23.0989269077
 20
13.1152057335
 10
-23.1076968152
 20
13.089347063
 10
-23.1159616603
 20
13.063371155
 10
-23.1237127917
 20
13.0372951041
 10
-23.1309426033
 20
13.0111338202
 10
-23.1376427614
 20
12.9849034259
 10
-23.1438046739
 20
12.9586218847
 10
-23.149420576
 20
12.9323043898
 10
-23.1544822144
 20
12.905966523
 10
-23.1589813916
 20
12.8796255705
 10
-23.1629099772
 20
12.8532973602
 10
-23.1662597104
 20
12.8269968146
 10
-23.1690225508
 20
12.8007377571
 10
-23.1711898527
 20
12.7745340689
 10
-23.1727528457
 20
12.7484027905
 10
-23.1735032424
 20
12.7295092388
  0
LINE
  5
239
100
AcDbEntity
  8
C_COPERCHIO
100
AcDbLine
 62
7
  6
CONTINUOUS
 10
-22.6418333276
 20
13.7596842278
 11
-20.3254794197
 21
15.4681277459
  0
LINE
  5
23A
100
AcDbEntity
  8
C_COPERCHIO
100
AcDbLine
 62
250
  6
CONTINUOUS
 10
-22.5241372875
 20
13.7563576563
 11
-20.2011027985
 21
15.4697284851
  0
LWPOLYLINE
  5
23B
100
AcDbEntity
  8
C_COPERCHIO
100
AcDbPolyline
 62
250
  6
CONTINUOUS
 90
21
 70
0
 10
-22.6418315438
 20
13.7596855434
 10
-22.6399310741
 20
13.7610384133
 10
-22.6354489707
 20
13.7638719409
 10
-22.6307374166
 20
13.7663736206
 10
-22.6258040244
 20
13.7685394104
 10
-22.6206567654
 20
13.7703658108
 10
-22.6153039563
 20
13.7718498709
 10
-22.6097542457
 20
13.7729891928
 10
-22.6040166008
 20
13.7737819357
 10
-22.5981002921
 20
13.7742268185
 10
-22.5920148788
 20
13.7743231227
 10
-22.5857701936
 20
13.7740706924
 10
-22.5793763262
 20
13.7734699357
 10
-22.5728436076
 20
13.7725218231
 10
-22.566182593
 20
13.7712278866
 10
-22.559404045
 20
13.7695902168
 10
-22.5525189161
 20
13.7676114599
 10
-22.5455383308
 20
13.765294813
 10
-22.538473568
 20
13.7626440193
 10
-22.5313360428
 20
13.7596633617
 10
-22.5241372875
 20
13.7563576563
  0
LINE
  5
23C
100
AcDbEntity
  8
C_COPERCHIO
100
AcDbLine
 62
7
  6
CONTINUOUS
 10
-14.6420990887
 20
19.5989466153
 11
-12.0947077446
 21
20.9733226869
  0
LINE
  5
23D
100
AcDbEntity
  8
C_COPERCHIO
100
AcDbLine
 62
7
  6
CONTINUOUS
 10
-11.2545066505
 20
21.4266304528
 11
-6.6800409048
 21
23.8946596686
  0
LWPOLYLINE
  5
23E
100
AcDbEntity
  8
C_CORPO
100
AcDbPolyline
 62
250
  6
CONTINUOUS
 90
19
 70
0
 10
-7.9126234019
 20
24.4470311701
 10
-7.9065892916
 20
24.450182827
 10
-7.9008358711
 20
24.4534630864
 10
-7.8953740922
 20
24.456865704
 10
-7.8902143519
 20
24.4603842028
 10
-7.8853664719
 20
24.4640118852
 10
-7.8808396805
 20
24.4677418456
 10
-7.8766425947
 20
24.4715669839
 10
-7.872783204
 20
24.4754800186
 10
-7.8692688548
 20
24.4794735012
 10
-7.866106237
 20
24.4835398298
 10
-7.8633013708
 20
24.4876712639
 10
-7.8608595954
 20
24.4918599392
 10
-7.8587855589
 20
24.4960978821
 10
-7.8570832093
 20
24.5003770256
 10
-7.8557557872
 20
24.504689224
 10
-7.8548058194
 20
24.5090262689
 10
-7.8542351143
 20
24.5133799045
 10
-7.8540447582
 20
24.5177418432
  0
LINE
  5
23F
100
AcDbEntity
  8
C_COPERCHIO
100
AcDbLine
 62
7
  6
CONTINUOUS
 10
-8.3316566067
 20
23.9124505748
 11
-15.5764844336
 21
20.2621032428
  0
LINE
  5
240
100
AcDbEntity
  8
C_COPERCHIO
100
AcDbLine
 62
7
  6
CONTINUOUS
 10
-13.5241614346
 20
19.0399777882
 11
-11.896567444
 21
19.8600501934
  0
LINE
  5
241
100
AcDbEntity
  8
C_COPERCHIO
100
AcDbLine
 62
7
  6
CONTINUOUS
 10
-8.1607379428
 20
21.7423689425
 11
-6.8166078911
 21
22.4196164445
  0
LINE
  5
242
100
AcDbEntity
  8
0
100
AcDbLine
 62
7
  6
CONTINUOUS
 10
-11.8370660375
 20
21.1912996408
 11
-11.4734979049
 21
21.3730837071
  0
LWPOLYLINE
  5
243
100
AcDbEntity
  8
0
100
AcDbPolyline
 62
7
  6
CONTINUOUS
 90
10
 70
0
 10
-11.4734979049
 20
21.3730837071
 10
-11.4561886036
 20
21.3813653234
 10
-11.4389422871
 20
21.3888815069
 10
-11.4217589553
 20
21.3956322575
 10
-11.4046178433
 20
21.4016239297
 10
-11.3875397161
 20
21.4068501692
 10
-11.3705868684
 20
21.4112919123
 10
-11.3537800649
 20
21.4149428049
 10
-11.3370985409
 20
21.4178092012
 10
-11.3205422963
 20
21.4198911012
  0
LINE
  5
244
100
AcDbEntity
  8
C_COPERCHIO
100
AcDbLine
 62
7
  6
CONTINUOUS
 10
-5.4997622621
 20
-25.3959477148
 11
-3.0972589326
 21
-24.7458455166
  0
LWPOLYLINE
  5
245
100
AcDbEntity
  8
C_COPERCHIO
100
AcDbPolyline
 62
7
  6
CONTINUOUS
 90
40
 70
0
 10
-3.5473614206
 20
-25.3402380749
 10
-3.5401643864
 20
-25.343694909
 10
-3.5327210034
 20
-25.3469965483
 10
-3.5250312716
 20
-25.3501429929
 10
-3.5170805625
 20
-25.3531392432
 10
-3.5088835045
 20
-25.3559802988
 10
-3.5004839838
 20
-25.3586511582
 10
-3.4918853914
 20
-25.3611498369
 10
-3.4830843362
 20
-25.3634783194
 10
-3.4741145309
 20
-25.3656275583
 10
-3.4649689195
 20
-25.3675980201
 10
-3.4556545579
 20
-25.3693892383
 10
-3.4462263261
 20
-25.3709907657
 10
-3.4366915425
 20
-25.3724005315
 10
-3.4270428886
 20
-25.3736206065
 10
-3.4173132896
 20
-25.3746467562
 10
-3.4074932942
 20
-25.3754788737
 10
-3.3975923536
 20
-25.376117066
 10
-3.3876717466
 20
-25.3765574191
 10
-3.3777410911
 20
-25.3767986758
 10
-3.3677907692
 20
-25.3768420934
 10
-3.3578532052
 20
-25.3766875304
 10
-3.3479187387
 20
-25.3763338135
 10
-3.3379970301
 20
-25.3757821161
 10
-3.3281494854
 20
-25.3750358165
 10
-3.3183855507
 20
-25.3740947256
 10
-3.3086957798
 20
-25.3729590325
 10
-3.2991132408
 20
-25.3716326839
 10
-3.2896305439
 20
-25.3701136731
 10
-3.2802550789
 20
-25.3684040067
 10
-3.2710420818
 20
-25.3665136515
 10
-3.2619986238
 20
-25.3644430123
 10
-3.2531176338
 20
-25.3621916842
 10
-3.2444331351
 20
-25.3597684192
 10
-3.2359416678
 20
-25.3571712624
 10
-3.2276466918
 20
-25.3544021688
 10
-3.21959261
 20
-25.3514757543
 10
-3.2117942234
 20
-25.3483968911
 10
-3.204236731
 20
-25.3451607071
 10
-3.1969201327
 20
-25.3417672023
  0
LWPOLYLINE
  5
246
100
AcDbEntity
  8
C_COPERCHIO
100
AcDbPolyline
 62
7
  6
CONTINUOUS
 90
24
 70
0
 10
-5.9244670845
 20
-25.3612157284
 10
-5.9144283836
 20
-25.3661072198
 10
-5.8977996575
 20
-25.3736578426
 10
-5.8808770691
 20
-25.3806636055
 10
-5.863669758
 20
-25.3871164994
 10
-5.8461780172
 20
-25.3930114378
 10
-5.8284146756
 20
-25.3983384246
 10
-5.8103939007
 20
-25.4030877998
 10
-5.7921170939
 20
-25.4072537367
 10
-5.7735982618
 20
-25.4108270747
 10
-5.7548508144
 20
-25.4137992847
 10
-5.7358740034
 20
-25.4161641351
 10
-5.7166812416
 20
-25.4179132925
 10
-5.6972860334
 20
-25.4190388452
 10
-5.6776862294
 20
-25.4195334833
 10
-5.6578944179
 20
-25.4193891605
 10
-5.6379240172
 20
-25.4185983621
 10
-5.6177725014
 20
-25.4171524853
 10
-5.5974524931
 20
-25.4150433282
 10
-5.5769755843
 20
-25.4122632343
 10
-5.5563359089
 20
-25.4088014353
 10
-5.5355390263
 20
-25.4046476526
 10
-5.5146039686
 20
-25.3997949096
 10
-5.4997662363
 20
-25.3959487395
  0
LINE
  5
247
100
AcDbEntity
  8
C_COPERCHIO
100
AcDbLine
 62
7
  6
CONTINUOUS
 10
-22.8443159618
 20
-16.9012914137
 11
-5.9244321396
 21
-25.3612333247
  0
LINE
  5
248
100
AcDbEntity
  8
C_COPERCHIO
100
AcDbLine
 62
7
  6
CONTINUOUS
 10
-5.9244678215
 20
-25.3612154815
 11
-5.9244321067
 21
-25.3612333412
  0
LINE
  5
249
100
AcDbEntity
  8
C_COPERCHIO
100
AcDbLine
 62
250
  6
CONTINUOUS
 10
-23.1002636029
 20
-16.396002305
 11
-6.1871700912
 21
-24.8525490609
  0
LINE
  5
24A
100
AcDbEntity
  8
C_COPERCHIO
100
AcDbLine
 62
7
  6
CONTINUOUS
 10
-3.5473614206
 20
-25.3402380749
 11
-4.160651784
 21
-25.0335928932
  0
LINE
  5
24B
100
AcDbEntity
  8
C_COPERCHIO
100
AcDbLine
 62
7
  6
CONTINUOUS
 10
-3.013918758
 20
-25.2534060156
 11
-3.7018452775
 21
-24.9094427558
  0
LWPOLYLINE
  5
24C
100
AcDbEntity
  8
C_COPERCHIO
100
AcDbPolyline
 62
250
  6
CONTINUOUS
 90
33
 70
0
 10
-22.8443159618
 20
-16.9012914137
 10
-22.8560546953
 20
-16.8951536014
 10
-22.8700130506
 20
-16.887127174
 10
-22.8836408244
 20
-16.8784756814
 10
-22.8969282257
 20
-16.8692053271
 10
-22.909866077
 20
-16.8593225734
 10
-22.9224450892
 20
-16.8488345024
 10
-22.9346562651
 20
-16.8377485893
 10
-22.9464912484
 20
-16.8260725213
 10
-22.9579415877
 20
-16.8138145861
 10
-22.9689990358
 20
-16.8009835433
 10
-22.9796559543
 20
-16.7875883979
 10
-22.9899047066
 20
-16.7736386915
 10
-22.9997379448
 20
-16.7591443423
 10
-23.0091489043
 20
-16.7441155086
 10
-23.0181308651
 20
-16.7285628414
 10
-23.0266773609
 20
-16.7124974224
 10
-23.0347824729
 20
-16.6959306136
 10
-23.042440384
 20
-16.6788742393
 10
-23.0496456271
 20
-16.6613403646
 10
-23.0563932867
 20
-16.6433412257
 10
-23.0626785496
 20
-16.6248895458
 10
-23.0684968808
 20
-16.6059984556
 10
-23.0738442707
 20
-16.5866812717
 10
-23.0787169119
 20
-16.5669516227
 10
-23.08311128
 20
-16.5468235579
 10
-23.0870243136
 20
-16.5263114696
 10
-23.0904532028
 20
-16.5054300992
 10
-23.0933955289
 20
-16.484194059
 10
-23.0958493221
 20
-16.4626179265
 10
-23.0978128456
 20
-16.4407168107
 10
-23.0992846298
 20
-16.4185063651
 10
-23.1002636029
 20
-16.396002305
  0
LWPOLYLINE
  5
24D
100
AcDbEntity
  8
C_COPERCHIO
100
AcDbPolyline
 62
250
  6
CONTINUOUS
 90
21
 70
0
 10
-20.6242580278
 20
-19.6281728991
 10
-20.6241558545
 20
-19.63174628
 10
-20.6236730473
 20
-19.6367190688
 10
-20.6227945764
 20
-19.6416783054
 10
-20.6215218345
 20
-19.646616122
 10
-20.61985684
 20
-19.651524684
 10
-20.6178022336
 20
-19.6563962042
 10
-20.6153612738
 20
-19.6612229548
 10
-20.6125378328
 20
-19.6659972779
 10
-20.609336389
 20
-19.6707115994
 10
-20.6057620205
 20
-19.6753584407
 10
-20.6018203983
 20
-19.6799304288
 10
-20.5975177751
 20
-19.6844203107
 10
-20.5928609761
 20
-19.6888209637
 10
-20.5878573891
 20
-19.6931254065
 10
-20.58251495
 20
-19.6973268114
 10
-20.5768421351
 20
-19.7014185124
 10
-20.5708479489
 20
-19.7053940149
 10
-20.5645419029
 20
-19.7092470116
 10
-20.5579339999
 20
-19.7129713915
 10
-20.5510347231
 20
-19.7165612467
  0
LWPOLYLINE
  5
24E
100
AcDbEntity
  8
C_COPERCHIO
100
AcDbPolyline
 62
250
  6
CONTINUOUS
 90
21
 70
0
 10
-23.1735160013
 20
12.7290352725
 10
-23.1734252036
 20
12.724301718
 10
-23.1729381742
 20
12.7195640762
 10
-23.1720556854
 20
12.714829862
 10
-23.1707791372
 20
12.7101065848
 10
-23.1691105543
 20
12.7054017366
 10
-23.1670525835
 20
12.7007227801
 10
-23.1646084891
 20
12.696077137
 10
-23.1617821479
 20
12.6914721764
 10
-23.158578043
 20
12.6869152025
 10
-23.1550012568
 20
12.6824134435
 10
-23.1510574627
 20
12.6779740401
 10
-23.1467529163
 20
12.673604034
 10
-23.1420944454
 20
12.669310357
 10
-23.1370894394
 20
12.6650998196
 10
-23.131745837
 20
12.6609791004
 10
-23.1260721143
 20
12.6569547359
 10
-23.1200772709
 20
12.6530331093
 10
-23.1137708157
 20
12.6492204412
 10
-23.1071627519
 20
12.6455227791
 10
-23.1002635614
 20
12.6419459883
  0
LWPOLYLINE
  5
24F
100
AcDbEntity
  8
C_COPERCHIO
100
AcDbPolyline
 62
250
  6
CONTINUOUS
 90
24
 70
0
 10
-20.5510347231
 20
-19.7165612467
 10
-20.5508945063
 20
-19.725112722
 10
-20.5504740779
 20
-19.7335104206
 10
-20.5497741042
 20
-19.7417410205
 10
-20.5487956947
 20
-19.7497914665
 10
-20.5475404012
 20
-19.757648985
 10
-20.5460102158
 20
-19.7653011039
 10
-20.5442075666
 20
-19.7727356822
 10
-20.5421353131
 20
-19.779940928
 10
-20.5397967428
 20
-19.7869054105
 10
-20.5371955658
 20
-19.7936180818
 10
-20.5343359088
 20
-19.800068293
 10
-20.5312223091
 20
-19.8062458103
 10
-20.5278597066
 20
-19.8121408342
 10
-20.5242534359
 20
-19.8177440134
 10
-20.5204092188
 20
-19.8230464586
 10
-20.5163331541
 20
-19.8280397591
 10
-20.5120317085
 20
-19.8327159939
 10
-20.5075117073
 20
-19.8370677442
 10
-20.5027803221
 20
-19.841088107
 10
-20.4978450587
 20
-19.8447707061
 10
-20.4927137466
 20
-19.8481097004
 10
-20.4873945252
 20
-19.8510997948
 10
-20.4860614267
 20
-19.8517796968
  0
LINE
  5
250
100
AcDbEntity
  8
C_COPERCHIO
100
AcDbLine
 62
7
  6
CONTINUOUS
 10
-20.6242580278
 20
-19.6281728991
 11
-20.6242580278
 21
-18.0113203807
  0
LINE
  5
251
100
AcDbEntity
  8
C_COPERCHIO
100
AcDbLine
 62
7
  6
CONTINUOUS
 10
-20.6242580278
 20
15.8125421063
 11
-20.6242580278
 21
18.6907019294
  0
LINE
  5
252
100
AcDbEntity
  8
C_COPERCHIO
100
AcDbLine
 62
250
  6
CONTINUOUS
 10
-20.5510347231
 20
-19.7165612467
 11
-20.5510347231
 21
-18.047932033
  0
LINE
  5
253
100
AcDbEntity
  8
C_COPERCHIO
100
AcDbLine
 62
250
  6
CONTINUOUS
 10
-20.5510347231
 20
15.7241537587
 11
-20.5510347231
 21
18.6023135818
  0
LINE
  5
254
100
AcDbEntity
  8
C_COPERCHIO
100
AcDbLine
 62
7
  6
CONTINUOUS
 10
-5.3319588705
 20
23.2206186515
 11
-6.6856979388
 21
22.4902453671
  0
LINE
  5
255
100
AcDbEntity
  8
C_COPERCHIO
100
AcDbLine
 62
7
  6
CONTINUOUS
 10
-5.2426639576
 20
21.6326444778
 11
-5.110617973
 21
21.7027053841
  0
LINE
  5
256
100
AcDbEntity
  8
C_COPERCHIO
100
AcDbLine
 62
7
  6
CONTINUOUS
 10
-6.7643127471
 20
20.1757696115
 11
-7.5445117053
 21
19.7618119565
  0
LINE
  5
257
100
AcDbEntity
  8
C_COPERCHIO
100
AcDbLine
 62
7
  6
CONTINUOUS
 10
-10.6601097169
 20
18.1087391946
 11
-11.0592485782
 21
17.8969642553
  0
LINE
  5
258
100
AcDbEntity
  8
C_COPERCHIO
100
AcDbLine
 62
7
  6
CONTINUOUS
 10
-9.0400206887
 20
20.6498183225
 11
-9.2944858748
 21
20.5216046044
  0
LINE
  5
259
100
AcDbEntity
  8
C_COPERCHIO
100
AcDbLine
 62
7
  6
CONTINUOUS
 10
-11.2495430815
 20
19.5365380122
 11
-13.5241614346
 21
18.3904587354
  0
LINE
  5
25A
100
AcDbEntity
  8
C_CORPO
100
AcDbLine
 62
7
  6
CONTINUOUS
 10
0.8175575511
 20
23.5401472207
 11
-3.6182916005
 21
21.4915250835
  0
LINE
  5
25B
100
AcDbEntity
  8
C_COPERCHIO
100
AcDbLine
 62
250
  6
CONTINUOUS
 10
-5.3913976538
 20
-25.2445440096
 11
-3.013918758
 21
-24.6012132648
  0
LWPOLYLINE
  5
25C
100
AcDbEntity
  8
C_COPERCHIO
100
AcDbPolyline
 62
250
  6
CONTINUOUS
 90
21
 70
0
 10
-20.6242580278
 20
18.6907019294
 10
-20.6241558545
 20
18.6871285485
 10
-20.6236730473
 20
18.6821557596
 10
-20.6227945764
 20
18.6771965231
 10
-20.6215218345
 20
18.6722587065
 10
-20.61985684
 20
18.6673501445
 10
-20.6178022336
 20
18.6624786243
 10
-20.6153612738
 20
18.6576518736
 10
-20.6125378328
 20
18.6528775506
 10
-20.609336389
 20
18.648163229
 10
-20.6057620205
 20
18.6435163878
 10
-20.6018203983
 20
18.6389443996
 10
-20.5975177751
 20
18.6344545178
 10
-20.5928609761
 20
18.6300538647
 10
-20.5878573891
 20
18.625749422
 10
-20.58251495
 20
18.6215480171
 10
-20.5768421351
 20
18.6174563161
 10
-20.5708479489
 20
18.6134808136
 10
-20.5645419029
 20
18.6096278169
 10
-20.5579339999
 20
18.605903437
 10
-20.5510347231
 20
18.6023135818
  0
LWPOLYLINE
  5
25D
100
AcDbEntity
  8
C_COPERCHIO
100
AcDbPolyline
 62
7
  6
CONTINUOUS
 90
48
 70
0
 10
-18.4224199008
 20
-3.0813356615
 10
-18.4223456481
 20
-3.0895485579
 10
-18.4221406415
 20
-3.0977946516
 10
-18.4218050207
 20
-3.1060711154
 10
-18.4213385809
 20
-3.1143751036
 10
-18.4207477664
 20
-3.1227044867
 10
-18.4200327445
 20
-3.1310566804
 10
-18.4191933976
 20
-3.1394290489
 10
-18.4182356278
 20
-3.1478195658
 10
-18.4171596238
 20
-3.15622586
 10
-18.4159653439
 20
-3.1646454779
 10
-18.4146582391
 20
-3.1730764164
 10
-18.4132385163
 20
-3.1815164914
 10
-18.4117062021
 20
-3.1899634087
 10
-18.4100663823
 20
-3.1984151187
 10
-18.4083192819
 20
-3.2068696039
 10
-18.4064649908
 20
-3.2153247089
 10
-18.4045083118
 20
-3.2237782732
 10
-18.4024494921
 20
-3.23222842
 10
-18.4002886807
 20
-3.2406731256
 10
-18.3980304685
 20
-3.2491100866
 10
-18.395675134
 20
-3.2575375366
 10
-18.3932228791
 20
-3.2659535881
 10
-18.3906781298
 20
-3.27435582
 10
-18.3880411849
 20
-3.2827426158
 10
-18.3853123122
 20
-3.2911121656
 10
-18.3824958575
 20
-3.2994618133
 10
-18.3795921568
 20
-3.3077900496
 10
-18.3766015368
 20
-3.3160951714
 10
-18.3735283159
 20
-3.3243742822
 10
-18.3703728711
 20
-3.3326259859
 10
-18.3671355947
 20
-3.3408486732
 10
-18.3638208344
 20
-3.3490391773
 10
-18.3604290167
 20
-3.3571962133
 10
-18.3569606039
 20
-3.3653182664
 10
-18.3534200268
 20
-3.3734018759
 10
-18.3498077709
 20
-3.3814458683
 10
-18.3461243735
 20
-3.3894488278
 10
-18.3423743953
 20
-3.3974069888
 10
-18.3385583922
 20
-3.4053192891
 10
-18.3346769807
 20
-3.4131844219
 10
-18.3307348876
 20
-3.4209983234
 10
-18.3267327524
 20
-3.4287600437
 10
-18.3226712729
 20
-3.4364683992
 10
-18.3185553625
 20
-3.4441190592
 10
-18.3143871852
 20
-3.4517099623
 10
-18.3101661054
 20
-3.459241297
 10
-18.3058929028
 20
-3.4667121796
  0
LINE
  5
25E
100
AcDbEntity
  8
C_COPERCHIO
100
AcDbLine
 62
7
  6
CONTINUOUS
 10
-20.3773706045
 20
15.4298550285
 11
-20.3773706045
 21
15.6373216994
  0
LINE
  5
25F
100
AcDbEntity
  8
C_COPERCHIO
100
AcDbLine
 62
7
  6
CONTINUOUS
 10
-19.2263319009
 20
5.1495465582
 11
-19.2263319009
 21
-1.7430229067
  0
LINE
  5
260
100
AcDbEntity
  8
C_OTTURATORE
100
AcDbLine
 62
7
  6
CONTINUOUS
 10
-18.571168644
 20
4.8219649298
 11
-18.571168644
 21
-2.0706045352
  0
LINE
  5
261
100
AcDbEntity
  8
C_OTTURATORE
100
AcDbLine
 62
250
  6
CONTINUOUS
 10
-18.551032195
 20
4.8118967053
 11
-18.551032195
 21
-2.0806727597
  0
LWPOLYLINE
  5
262
100
AcDbEntity
  8
C_COPERCHIO
100
AcDbPolyline
 62
250
  6
CONTINUOUS
 90
13
 70
0
 10
-20.4272132464
 20
-2.4060520078
 10
-20.425107007
 20
-1.7186727926
 10
-20.4219558135
 20
-1.0307771038
 10
-20.417759677
 20
-0.3423673334
 10
-20.412518612
 20
0.346554125
 10
-20.4062326367
 20
1.0359848759
 10
-20.398901773
 20
1.7259225218
 10
-20.3905260464
 20
2.4163646637
 10
-20.381105486
 20
3.1073089009
 10
-20.3706401245
 20
3.7987528306
 10
-20.3591299984
 20
4.4906940487
 10
-20.3465751477
 20
5.183130149
 10
-20.332975616
 20
5.876058724
  0
LWPOLYLINE
  5
263
100
AcDbEntity
  8
C_COPERCHIO
100
AcDbPolyline
 62
7
  6
CONTINUOUS
 90
9
 70
0
 10
-18.4224199008
 20
-3.0813356615
 10
-18.4200099082
 20
-2.4087824789
 10
-18.4151119933
 20
-1.4913019499
 10
-18.4083565506
 20
-0.5729125185
 10
-18.3997436298
 20
0.3463801583
 10
-18.389273292
 20
1.266570393
 10
-18.3769456102
 20
2.1876524674
 10
-18.3627606688
 20
3.1096206828
 10
-18.346718563
 20
4.03246936
  0
LWPOLYLINE
  5
264
100
AcDbEntity
  8
C_COPERCHIO
100
AcDbPolyline
 62
250
  6
CONTINUOUS
 90
10
 70
0
 10
-19.860596348
 20
-2.0601551303
 10
-19.8572419268
 20
-1.2212128049
 10
-19.8523310225
 20
-0.38151294
 10
-19.8458636351
 20
0.4589444645
 10
-19.8378397148
 20
1.3001636486
 10
-19.8282593114
 20
2.1421403723
 10
-19.8171225746
 20
2.9848619151
 10
-19.8044295544
 20
3.8283240368
 10
-19.7901802008
 20
4.6725309776
 10
-19.7761150087
 20
5.4244381121
  0
LINE
  5
265
100
AcDbEntity
  8
C_COPERCHIO
100
AcDbLine
 62
7
  6
CONTINUOUS
 10
-18.346718563
 20
4.03246936
 11
-18.3338432197
 21
4.7062962756
  0
LWPOLYLINE
  5
266
100
AcDbEntity
  8
C_COPERCHIO
100
AcDbPolyline
 62
250
  6
CONTINUOUS
 90
10
 70
0
 10
-18.2116552725
 20
4.8153985522
 10
-18.2295558323
 20
3.8916031054
 10
-18.2455991553
 20
2.968684596
 10
-18.2597851424
 20
2.0466487292
 10
-18.2721137059
 20
1.1255012045
 10
-18.2825847694
 20
0.2052477164
 10
-18.2911982684
 20
-0.7141060465
 10
-18.2979541496
 20
-1.6325544008
 10
-18.3028523711
 20
-2.5500916691
 10
-18.3058929028
 20
-3.4667121796
  0
LWPOLYLINE
  5
267
100
AcDbEntity
  8
C_COPERCHIO
100
AcDbPolyline
 62
7
  6
CONTINUOUS
 90
32
 70
0
 10
-18.3338442091
 20
4.7062968553
 10
-18.3338093289
 20
4.7068658252
 10
-18.3336397874
 20
4.7078952178
 10
-18.3333376331
 20
4.7090007871
 10
-18.3329030676
 20
4.7101797987
 10
-18.3323359485
 20
4.7114292798
 10
-18.3316427759
 20
4.7127504083
 10
-18.3308237753
 20
4.7141406141
 10
-18.3298788881
 20
4.7155971085
 10
-18.3288140674
 20
4.7171210375
 10
-18.3276295565
 20
4.7187099757
 10
-18.3263253699
 20
4.7203612968
 10
-18.3249070068
 20
4.7220760977
 10
-18.3233747256
 20
4.7238520797
 10
-18.3217286067
 20
4.7256867575
 10
-18.3199737829
 20
4.7275811614
 10
-18.3181105282
 20
4.7295331026
 10
-18.3161389839
 20
4.7315402172
 10
-18.3140640009
 20
4.733603449
 10
-18.311885873
 20
4.7357207016
 10
-18.3096047989
 20
4.7378897161
 10
-18.3072254193
 20
4.7401113351
 10
-18.304748058
 20
4.7423835372
 10
-18.3021729647
 20
4.7447041569
 10
-18.2995046173
 20
4.7470739348
 10
-18.2967433577
 20
4.7494909286
 10
-18.2938895006
 20
4.7519530409
 10
-18.2909474486
 20
4.7544608678
 10
-18.2879175796
 20
4.7570125257
 10
-18.2848002661
 20
4.7596059822
 10
-18.2815998886
 20
4.7622416739
 10
-18.2783168648
 20
4.7649177718
  0
LINE
  5
268
100
AcDbEntity
  8
C_COPERCHIO
100
AcDbLine
 62
7
  6
CONTINUOUS
 10
-3.660623298
 20
21.8340834995
 11
-3.6434608387
 21
21.8459851847
  0
LINE
  5
269
100
AcDbEntity
  8
C_COPERCHIO
100
AcDbLine
 62
7
  6
CONTINUOUS
 10
-3.6434608387
 20
21.8459851847
 11
-3.6341994361
 21
21.852313481
  0
LINE
  5
26A
100
AcDbEntity
  8
C_COPERCHIO
100
AcDbLine
 62
7
  6
CONTINUOUS
 10
-3.6341994361
 20
21.852313481
 11
-3.626897836
 21
21.8572424866
  0
LWPOLYLINE
  5
26B
100
AcDbEntity
  8
C_COPERCHIO
100
AcDbPolyline
 62
7
  6
CONTINUOUS
 90
6
 70
0
 10
-3.626897836
 20
21.8572424866
 10
-3.6217191238
 20
21.8606741397
 10
-3.6199843983
 20
21.8618026243
 10
-3.618842604
 20
21.8625213905
 10
-3.6183234293
 20
21.8628231288
 10
-3.6182939223
 20
21.8628320474
  0
LINE
  5
26C
100
AcDbEntity
  8
C_CORPO
100
AcDbLine
 62
7
  6
CONTINUOUS
 10
3.0828870455
 20
22.1830531662
 11
-1.1322347167
 21
20.0754922851
  0
LINE
  5
26D
100
AcDbEntity
  8
C_CORPO
100
AcDbLine
 62
7
  6
CONTINUOUS
 10
-0.0801552498
 20
20.1685193166
 11
3.0828870455
 21
21.7500404643
  0
LINE
  5
26E
100
AcDbEntity
  8
C_CORPO
100
AcDbLine
 62
7
  6
CONTINUOUS
 10
-0.0801552498
 20
20.190989969
 11
-0.7286236181
 21
19.8736867358
  0
LINE
  5
26F
100
AcDbEntity
  8
C_CORPO
100
AcDbLine
 62
7
  6
CONTINUOUS
 10
2.4235189105
 20
22.8271745441
 11
-1.5109939287
 21
20.9824461327
  0
LWPOLYLINE
  5
270
100
AcDbEntity
  8
C_CORPO
100
AcDbPolyline
 62
7
  6
CONTINUOUS
 90
92
 70
0
 10
-0.0801552498
 20
20.1685193166
 10
-0.0289317527
 20
20.1854880599
 10
0.022974545
 20
20.2018767759
 10
0.0755636434
 20
20.2176854645
 10
0.1288634491
 20
20.2329216614
 10
0.1828460556
 20
20.247577831
 10
0.2374277424
 20
20.2616313662
 10
0.2926041808
 20
20.275080194
 10
0.3483796997
 20
20.2879263874
 10
0.4046835648
 20
20.3001535588
 10
0.46152415
 20
20.3117623365
 10
0.5188930815
 20
20.3227520921
 10
0.576694504
 20
20.3331045535
 10
0.6349192041
 20
20.3428171707
 10
0.6935763953
 20
20.3518924937
 10
0.7525978619
 20
20.3603198995
 10
0.8119959451
 20
20.3681000132
 10
0.8717583036
 20
20.3752322097
 10
0.9317796992
 20
20.3817039915
 10
0.9920469966
 20
20.3875130741
 10
1.052573331
 20
20.3926617419
 10
1.1132928692
 20
20.3971443504
 10
1.1742207689
 20
20.4009609186
 10
1.2353418724
 20
20.4041114275
 10
1.2965448739
 20
20.4065901761
 10
1.3578139902
 20
20.4083956653
 10
1.4191650046
 20
20.4095293942
 10
1.4805339612
 20
20.4099901591
 10
1.5419374419
 20
20.4097770079
 10
1.6033588649
 20
20.4088908926
 10
1.6646845285
 20
20.4073334657
 10
1.7258974616
 20
20.4051042846
 10
1.7870146354
 20
20.4022037918
 10
1.8479732617
 20
20.3986349671
 10
1.908789842
 20
20.3943957796
 10
1.9694478747
 20
20.3894882602
 10
2.0298350675
 20
20.3839214817
 10
2.0899347768
 20
20.3776960689
 10
2.1497636461
 20
20.370811397
 10
2.2092593137
 20
20.3632746647
 10
2.2684367163
 20
20.3550829149
 10
2.3272809173
 20
20.3462391046
 10
2.3856847448
 20
20.3367593033
 10
2.4436333199
 20
20.3266449552
 10
2.5011415216
 20
20.3158946159
 10
2.5581468147
 20
20.3045200223
 10
2.6146612393
 20
20.2925176954
 10
2.6706727553
 20
20.2798911142
 10
2.7260827075
 20
20.2666624524
 10
2.7808792115
 20
20.2528334846
 10
2.8350741517
 20
20.2384024362
 10
2.8886045264
 20
20.2233861577
 10
2.9414784242
 20
20.2077812783
 10
2.9936877565
 20
20.1915911688
 10
3.0451452563
 20
20.1748427917
 10
3.0958429365
 20
20.1575375516
 10
3.1457887842
 20
20.139674044
 10
3.1949194938
 20
20.121275018
 10
3.2432385362
 20
20.1023380305
 10
3.2907424405
 20
20.0828655245
 10
3.3373574884
 20
20.0628875788
 10
3.383080062
 20
20.0424043596
 10
3.4279137792
 20
20.0214157005
 10
3.4717957752
 20
19.9999511808
 10
3.5147248145
 20
19.9780101829
 10
3.5567021326
 20
19.9555933243
 10
3.597668571
 20
19.9327320374
 10
3.6376244626
 20
19.9094245135
 10
3.6765694744
 20
19.8856725613
 10
3.7144434495
 20
19.8615130401
 10
3.7512415015
 20
19.8369476853
 10
3.7869685167
 20
19.8119747615
 10
3.8215789969
 20
19.7866259214
 10
3.855075751
 20
19.7608971715
 10
3.8874559701
 20
19.7347925053
 10
3.9186657289
 20
19.7083555564
 10
3.9486982859
 20
19.6815903691
 10
3.9775603827
 20
19.654492899
 10
4.0052183184
 20
19.627094647
 10
4.0316756419
 20
19.5993896709
 10
4.0569288044
 20
19.5713839129
 10
4.0809334582
 20
19.5431267006
 10
4.1036826453
 20
19.514624054
 10
4.1251833238
 20
19.4858699532
 10
4.1454120202
 20
19.4568956656
 10
4.1643716228
 20
19.4276937519
 10
4.1820592433
 20
19.3982716514
 10
4.1984427429
 20
19.3686829501
 10
4.2135162076
 20
19.3389351163
 10
4.2272855513
 20
19.3090206816
 10
4.2397363769
 20
19.278970827
 10
4.2478474286
 20
19.2569740992
  0
LINE
  5
271
100
AcDbEntity
  8
C_COPERCHIO
100
AcDbLine
 62
250
  6
CONTINUOUS
 10
-12.6173240892
 20
-15.1290495406
 11
-17.0013861326
 21
-12.9370185189
  0
LINE
  5
272
100
AcDbEntity
  8
C_COPERCHIO
100
AcDbLine
 62
250
  6
CONTINUOUS
 10
-12.7439195744
 20
-14.4291797303
 11
-16.4357649618
 21
-12.5832570366
  0
LWPOLYLINE
  5
273
100
AcDbEntity
  8
C_COPERCHIO
100
AcDbPolyline
 62
250
  6
CONTINUOUS
 90
7
 70
0
 10
-17.0013861326
 20
-12.9370185189
 10
-17.0089590829
 20
-12.4929621921
 10
-17.0160870081
 20
-12.0486723964
 10
-17.0227698977
 20
-11.6041497901
 10
-17.0290077417
 20
-11.1593950314
 10
-17.0348005308
 20
-10.7144087791
 10
-17.0401482566
 20
-10.2691916923
  0
LWPOLYLINE
  5
274
100
AcDbEntity
  8
C_COPERCHIO
100
AcDbPolyline
 62
250
  6
CONTINUOUS
 90
7
 70
0
 10
-16.4416603118
 20
-12.5862799669
 10
-16.4479752166
 20
-12.1997367106
 10
-16.4539528456
 20
-11.8130155102
 10
-16.4595931988
 20
-11.4261163657
 10
-16.4648962763
 20
-11.039039277
 10
-16.469862078
 20
-10.6517842443
 10
-16.4744906039
 20
-10.2643512674
  0
LWPOLYLINE
  5
275
100
AcDbEntity
  8
C_COPERCHIO
100
AcDbPolyline
 62
250
  6
CONTINUOUS
 90
85
 70
0
 10
-17.2106777017
 20
21.6840199338
 10
-17.2105581215
 20
21.6763457035
 10
-17.209755522
 20
21.6626499772
 10
-17.2081983128
 20
21.6489772077
 10
-17.2058877269
 20
21.6353379833
 10
-17.2028255809
 20
21.6217427981
 10
-17.1990142733
 20
21.6082025651
 10
-17.1944567864
 20
21.5947277453
 10
-17.1891566987
 20
21.5813287585
 10
-17.183118178
 20
21.5680163872
 10
-17.1763459736
 20
21.5548009696
 10
-17.168845389
 20
21.5416926975
 10
-17.1606222832
 20
21.5287020289
 10
-17.1516830833
 20
21.5158390258
 10
-17.1420348062
 20
21.5031136646
 10
-17.1316850355
 20
21.4905361332
 10
-17.1206419045
 20
21.4781162315
 10
-17.1089140515
 20
21.4658635603
 10
-17.0965106303
 20
21.4537878341
 10
-17.0834413323
 20
21.4418984371
 10
-17.0697164154
 20
21.4302046183
 10
-17.0553466635
 20
21.4187156803
 10
-17.0403433644
 20
21.4074406074
 10
-17.0247182477
 20
21.3963881418
 10
-17.0084835023
 20
21.3855669825
 10
-16.9916518102
 20
21.3749855724
 10
-16.9742363826
 20
21.3646521737
 10
-16.956250901
 20
21.354574943
 10
-16.9377094898
 20
21.3447617964
 10
-16.9186266403
 20
21.3352203728
 10
-16.8990172356
 20
21.3259581136
 10
-16.878896593
 20
21.3169822844
 10
-16.8582805051
 20
21.3082999275
 10
-16.8371851658
 20
21.2999178241
 10
-16.8156271387
 20
21.2918425993
 10
-16.7936232703
 20
21.2840805746
 10
-16.7711907223
 20
21.2766377262
 10
-16.7483470187
 20
21.2695199386
 10
-16.7251100887
 20
21.2627328359
 10
-16.701498183
 20
21.256281633
 10
-16.6775298369
 20
21.2501714778
 10
-16.6532237816
 20
21.2444071971
 10
-16.6285989799
 20
21.2389931347
 10
-16.6036746715
 20
21.2339336284
 10
-16.5784704181
 20
21.229232726
 10
-16.553006016
 20
21.2248939299
 10
-16.5273014523
 20
21.2209207661
 10
-16.5013768168
 20
21.2173164305
 10
-16.4752523427
 20
21.2140835111
 10
-16.4489484491
 20
21.2112246767
 10
-16.4224857768
 20
21.2087422847
 10
-16.3958851025
 20
21.2066380253
 10
-16.3691672968
 20
21.2049137035
 10
-16.3423532505
 20
21.2035707947
 10
-16.3154639088
 20
21.2026100573
 10
-16.2885202913
 20
21.2020324148
 10
-16.2615435431
 20
21.2018384685
 10
-16.2345548616
 20
21.2020280495
 10
-16.2075754275
 20
21.2026011908
 10
-16.1806263326
 20
21.203557603
 10
-16.1537286307
 20
21.2048961897
 10
-16.12690337
 20
21.206616101
 10
-16.1001715849
 20
21.2087161649
 10
-16.0735542242
 20
21.2111943626
 10
-16.0470721446
 20
21.2140489596
 10
-16.0207460854
 20
21.2172779091
 10
-15.9945966611
 20
21.2208782871
 10
-15.9686443157
 20
21.2248474972
 10
-15.9429094231
 20
21.2291826255
 10
-15.917412259
 20
21.2338798387
 10
-15.8921728609
 20
21.2389356641
 10
-15.8672109325
 20
21.2443463591
 10
-15.8425459453
 20
21.2501072676
 10
-15.8181972118
 20
21.2562141095
 10
-15.7941838187
 20
21.2626623175
 10
-15.7705245336
 20
21.2694464068
 10
-15.747237795
 20
21.2765613321
 10
-15.7243419527
 20
21.2840017182
 10
-15.7018551935
 20
21.2917611915
 10
-15.6797953364
 20
21.2998338218
 10
-15.6581794323
 20
21.3082135836
 10
-15.6370240249
 20
21.3168936007
 10
-15.6163455786
 20
21.3258671404
 10
-15.5961604382
 20
21.3351276005
 10
-15.5764844336
 20
21.3446679725
  0
LWPOLYLINE
  5
276
100
AcDbEntity
  8
C_COPERCHIO
100
AcDbPolyline
 62
250
  6
CONTINUOUS
 90
44
 70
0
 10
-16.4744906039
 20
-10.2643512674
 10
-16.4747132406
 20
-10.216165346
 10
-16.4740984448
 20
-10.168356157
 10
-16.4726438924
 20
-10.1209461785
 10
-16.4703474262
 20
-10.0739503329
 10
-16.4672073785
 20
-10.0273986494
 10
-16.4632239318
 20
-9.9813354178
 10
-16.4583974082
 20
-9.9357820343
 10
-16.4527286003
 20
-9.8907597336
 10
-16.4462213858
 20
-9.8463107359
 10
-16.4388785364
 20
-9.8024557463
 10
-16.4307030631
 20
-9.759213775
 10
-16.421702031
 20
-9.7166224646
 10
-16.4118817491
 20
-9.6747062582
 10
-16.4012461965
 20
-9.6334768836
 10
-16.3898005251
 20
-9.5929516148
 10
-16.3775516886
 20
-9.5531512621
 10
-16.364504965
 20
-9.5140892804
 10
-16.3506628521
 20
-9.4757720105
 10
-16.3360306863
 20
-9.4382141577
 10
-16.3206159055
 20
-9.4014346659
 10
-16.3044238287
 20
-9.3654465428
 10
-16.2874604537
 20
-9.3302638095
 10
-16.269734186
 20
-9.2959044803
 10
-16.2512544617
 20
-9.2623870115
 10
-16.2320297561
 20
-9.2297265901
 10
-16.2120685017
 20
-9.1979373041
 10
-16.1913808856
 20
-9.1670350099
 10
-16.1699766473
 20
-9.137033766
 10
-16.1478651083
 20
-9.1079461299
 10
-16.1250564216
 20
-9.0797849457
 10
-16.1015608757
 20
-9.0525625368
 10
-16.0773890357
 20
-9.026290757
 10
-16.0525519123
 20
-9.000981119
 10
-16.0270606073
 20
-8.9766446271
 10
-16.0009265864
 20
-8.9532919191
 10
-15.9741618253
 20
-8.9309333109
 10
-15.9467784131
 20
-8.9095786186
 10
-15.9187884724
 20
-8.8892370179
 10
-15.8902044036
 20
-8.8699172343
 10
-15.8610394473
 20
-8.8516279977
 10
-15.8313060799
 20
-8.8343769209
 10
-15.801015795
 20
-8.8181706195
 10
-15.7918785425
 20
-8.8135417841
  0
LWPOLYLINE
  5
277
100
AcDbEntity
  8
C_COPERCHIO
100
AcDbPolyline
 62
250
  6
CONTINUOUS
 90
151
 70
0
 10
-17.0401482566
 20
-10.2691916923
 10
-17.040314092
 20
-10.2137323176
 10
-17.0395148386
 20
-10.1587555039
 10
-17.0377504992
 20
-10.1042612539
 10
-17.0350214518
 20
-10.0502151915
 10
-17.031327315
 20
-9.9966516936
 10
-17.0266669908
 20
-9.9436739128
 10
-17.0210373815
 20
-9.8912843276
 10
-17.0144416674
 20
-9.8394805048
 10
-17.0068882435
 20
-9.7883582675
 10
-16.9983743132
 20
-9.7379206373
 10
-16.9889028297
 20
-9.6881646759
 10
-16.9784908851
 20
-9.6391773045
 10
-16.9671381687
 20
-9.5909674293
 10
-16.9548452174
 20
-9.5435262629
 10
-16.9416304541
 20
-9.4969142168
 10
-16.9274945275
 20
-9.4511361046
 10
-16.9124370598
 20
-9.4061872542
 10
-16.896474978
 20
-9.3621138706
 10
-16.8796069179
 20
-9.3189139621
 10
-16.8618345449
 20
-9.2765896773
 10
-16.8431793693
 20
-9.235193451
 10
-16.8236392417
 20
-9.1947241144
 10
-16.8032166478
 20
-9.155183011
 10
-16.781940094
 20
-9.1166263655
 10
-16.7598086406
 20
-9.0790562974
 10
-16.7368236005
 20
-9.0424708804
 10
-16.7130169004
 20
-9.0069202922
 10
-16.6883880212
 20
-8.9724067817
 10
-16.6629378838
 20
-8.9389283073
 10
-16.636700611
 20
-8.9065286296
 10
-16.6096754284
 20
-8.8752093357
 10
-16.5818635322
 20
-8.8449690557
 10
-16.5533020324
 20
-8.8158471303
 10
-16.5239901505
 20
-8.7878451286
 10
-16.4939291003
 20
-8.7609617053
 10
-16.4631590071
 20
-8.7352318434
 10
-16.4316793411
 20
-8.710657278
 10
-16.399491074
 20
-8.6872365009
 10
-16.3666366053
 20
-8.6649996414
 10
-16.3331159878
 20
-8.6439485732
 10
-16.2989296102
 20
-8.6240816489
 10
-16.264120394
 20
-8.6054237251
 10
-16.2286879722
 20
-8.5879762006
 10
-16.1926331448
 20
-8.5717378983
 10
-16.1560005973
 20
-8.5567298187
 10
-16.1187885907
 20
-8.5429530961
 10
-16.0809992823
 20
-8.5304068101
 10
-16.0426832121
 20
-8.5191088839
 10
-16.0038375
 20
-8.5090610255
 10
-15.9644654248
 20
-8.5002617306
 10
-15.924626773
 20
-8.4927241076
 10
-15.8843232195
 20
-8.4864508659
 10
-15.8435534639
 20
-8.4814394873
 10
-15.8023728317
 20
-8.4776952397
 10
-15.7607829287
 20
-8.4752198019
 10
-15.7187824904
 20
-8.4740116691
 10
-15.6764225353
 20
-8.4740713331
 10
-15.6337021015
 20
-8.4754001283
 10
-15.5906224527
 20
-8.4779968742
 10
-15.5472379408
 20
-8.481858288
 10
-15.5035472899
 20
-8.4869861038
 10
-15.4595520348
 20
-8.4933787193
 10
-15.4153107353
 20
-8.5010278444
 10
-15.370823209
 20
-8.5099352475
 10
-15.3260898507
 20
-8.5200992683
 10
-15.2811700764
 20
-8.5315064679
 10
-15.236063828
 20
-8.5441585381
 10
-15.1907713257
 20
-8.5580538698
 10
-15.1453523923
 20
-8.573174067
 10
-15.0998070095
 20
-8.5895207497
 10
-15.0541353051
 20
-8.6070923536
 10
-15.008397308
 20
-8.6258657004
 10
-14.9625931209
 20
-8.6458422924
 10
-14.9167226964
 20
-8.6670206554
 10
-14.8708458242
 20
-8.6893731392
 10
-14.8249625009
 20
-8.712901239
 10
-14.77907273
 20
-8.7376034596
 10
-14.7332362987
 20
-8.763447659
 10
-14.6874531028
 20
-8.790435386
 10
-14.6417231912
 20
-8.8185650638
 10
-14.5961065671
 20
-8.8477998553
 10
-14.5506032418
 20
-8.8781412528
 10
-14.5052130945
 20
-8.9095877083
 10
-14.4599959171
 20
-8.9420978178
 10
-14.414951747
 20
-8.975673064
 10
-14.3700803845
 20
-9.0103118818
 10
-14.3254412549
 20
-9.0459682898
 10
-14.2810345346
 20
-9.0826436627
 10
-14.2368598349
 20
-9.1203365178
 10
-14.1929757239
 20
-9.1589965822
 10
-14.1493834777
 20
-9.198624051
 10
-14.1060815613
 20
-9.2392185974
 10
-14.0631243182
 20
-9.2807291618
 10
-14.0205126822
 20
-9.3231558438
 10
-13.9782454177
 20
-9.36649839
 10
-13.9363736097
 20
-9.4107052091
 10
-13.8948956178
 20
-9.4557792798
 10
-13.8538127413
 20
-9.5017174495
 10
-13.8131804727
 20
-9.5484589287
 10
-13.7729971593
 20
-9.5960076815
 10
-13.7332640794
 20
-9.6443595528
 10
-13.6940411265
 20
-9.6934415756
 10
-13.6553312816
 20
-9.7432520251
 10
-13.6171311648
 20
-9.7937924225
 10
-13.5794911361
 20
-9.8449946733
 10
-13.5424128134
 20
-9.8968578984
 10
-13.5058941602
 20
-9.9493827631
 10
-13.4699800653
 20
-10.0025034949
 10
-13.4346708587
 20
-10.0562207469
 10
-13.3999657772
 20
-10.1105336444
 10
-13.3659080832
 20
-10.1653741308
 10
-13.3324977407
 20
-10.2207436493
 10
-13.2997343443
 20
-10.2766405304
 10
-13.2676606191
 20
-10.3329920572
 10
-13.2362770928
 20
-10.3897989736
 10
-13.2055827959
 20
-10.4470603087
 10
-13.1756182304
 20
-10.5047007847
 10
-13.1463841576
 20
-10.5627207678
 10
-13.1178793811
 20
-10.621119668
 10
-13.0901414943
 20
-10.679820786
 10
-13.063171254
 20
-10.7388245276
 10
-13.0369674816
 20
-10.7981302697
 10
-13.0115648983
 20
-10.8576597859
 10
-12.9869639997
 20
-10.9174144097
 10
-12.9631638884
 20
-10.9773926002
 10
-12.9401972319
 20
-11.0375118372
 10
-12.918064963
 20
-11.0977728862
 10
-12.8967657757
 20
-11.1581747886
 10
-12.8763290219
 20
-11.2186324592
 10
-12.8567569009
 20
-11.2791421731
 10
-12.838046877
 20
-11.3397074806
 10
-12.8202212421
 20
-11.400254232
 10
-12.8032813856
 20
-11.4607788187
 10
-12.7872256167
 20
-11.5212846924
 10
-12.7720716469
 20
-11.5817083141
 10
-12.7578187139
 20
-11.6420550414
 10
-12.7444673089
 20
-11.702319375
 10
-12.7320370668
 20
-11.7624215124
 10
-12.7205281544
 20
-11.822369866
 10
-12.7099401789
 20
-11.8821559047
 10
-12.7002919961
 20
-11.9416744422
 10
-12.6915863956
 20
-12.0009254507
 10
-12.6838204316
 20
-12.059908875
 10
-12.6770044285
 20
-12.118519525
 10
-12.6711414692
 20
-12.1767564522
 10
-12.6662283886
 20
-12.2346205602
 10
-12.6622662147
 20
-12.2920094762
 10
-12.6592553054
 20
-12.3488890828
 10
-12.6571953059
 20
-12.4052934963
 10
-12.6560862133
 20
-12.461222714
  0
LINE
  5
278
100
AcDbEntity
  8
C_COPERCHIO
100
AcDbLine
 62
7
  6
CONTINUOUS
 10
-17.2106777046
 20
20.5988869747
 11
-17.2106777046
 21
21.6840580129
  0
LINE
  5
279
100
AcDbEntity
  8
C_COPERCHIO
100
AcDbLine
 62
7
  6
CONTINUOUS
 10
-17.2106777046
 20
21.6840580691
 11
-17.2106777017
 21
21.6840199338
  0
LINE
  5
27A
100
AcDbEntity
  8
C_COPERCHIO
100
AcDbLine
 62
250
  6
CONTINUOUS
 10
-15.5764844336
 20
20.2621032428
 11
-15.5764844336
 21
21.3446679725
  0
LWPOLYLINE
  5
27B
100
AcDbEntity
  8
RACCORDO
100
AcDbPolyline
 62
7
  6
CONTINUOUS
 90
12
 70
0
 10
-9.9881074668
 20
20.8976389622
 10
-9.9874461059
 20
20.8997731819
 10
-9.9856896172
 20
20.9031947932
 10
-9.983101451
 20
20.9063951228
 10
-9.9796921263
 20
20.9093769694
 10
-9.9755051302
 20
20.9121022985
 10
-9.9705305009
 20
20.9145678242
 10
-9.9647782002
 20
20.9167768324
 10
-9.9583216007
 20
20.9187011464
 10
-9.95118516
 20
20.9203313741
 10
-9.9433444205
 20
20.9216769076
 10
-9.9347993821
 20
20.922737747
  0
LINE
  5
27C
100
AcDbEntity
  8
C_COPERCHIO
100
AcDbLine
 62
7
  6
CONTINUOUS
 10
0.5119974537
 20
18.8913976708
 11
0.3775722621
 21
18.8225263679
  0
LINE
  5
27D
100
AcDbEntity
  8
C_COPERCHIO
100
AcDbLine
 62
7
  6
CONTINUOUS
 10
-5.5438156849
 20
15.1392478087
 11
-4.0182139726
 21
15.9208734578
  0
LINE
  5
27E
100
AcDbEntity
  8
C_COPERCHIO
100
AcDbLine
 62
7
  6
CONTINUOUS
 10
-3.5639166976
 20
16.1536277865
 11
-2.138019075
 21
16.8841711163
  0
LINE
  5
27F
100
AcDbEntity
  8
C_CORPO
100
AcDbLine
 62
250
  6
CONTINUOUS
 10
-3.210363307
 20
16.6363859135
 11
-3.4612365202
 21
16.5099820311
  0
LINE
  5
280
100
AcDbEntity
  8
RACCORDO
100
AcDbLine
 62
250
  6
CONTINUOUS
 10
-5.4490440757
 20
16.478179246
 11
-5.2909348124
 21
16.5572338776
  0
LINE
  5
281
100
AcDbEntity
  8
0
100
AcDbLine
 62
7
  6
CONTINUOUS
 10
-3.3517846633
 20
16.9486589537
 11
-2.9882165307
 21
17.13044302
  0
LINE
  5
282
100
AcDbEntity
  8
0
100
AcDbLine
 62
7
  6
CONTINUOUS
 10
-3.3517846633
 20
16.6022487922
 11
-2.9882165307
 21
16.7840328585
  0
LINE
  5
283
100
AcDbEntity
  8
C_CONTATTI
100
AcDbLine
 62
7
  6
CONTINUOUS
 10
2.3214801717
 20
19.3799750839
 11
1.435420345
 21
18.9369451706
  0
LINE
  5
284
100
AcDbEntity
  8
0
100
AcDbLine
 62
250
  6
CONTINUOUS
 10
-3.5639166976
 20
16.2363751539
 11
-3.8467594101
 21
16.0949537976
  0
LINE
  5
285
100
AcDbEntity
  8
0
100
AcDbLine
 62
7
  6
CONTINUOUS
 10
-3.5639166976
 20
15.9765675327
 11
-3.8467594101
 21
15.8351461765
  0
LINE
  5
286
100
AcDbEntity
  8
C_CONTATTI
100
AcDbLine
 62
7
  6
CONTINUOUS
 10
3.0286110291
 20
19.0264337315
 11
2.5415568693
 21
18.7829066516
  0
LINE
  5
287
100
AcDbEntity
  8
C_CORPO
100
AcDbLine
 62
250
  6
CONTINUOUS
 10
-2.859188375
 20
16.8105712686
 11
-3.210363307
 21
16.6363859135
  0
LINE
  5
288
100
AcDbEntity
  8
C_CORPO
100
AcDbLine
 62
7
  6
CONTINUOUS
 10
6.9365764108
 20
20.570645794
 11
3.0805739421
 21
18.6866621973
  0
LWPOLYLINE
  5
289
100
AcDbEntity
  8
0
100
AcDbPolyline
 62
7
  6
CONTINUOUS
 90
10
 70
0
 10
-2.9882165307
 20
17.13044302
 10
-2.9709072294
 20
17.1387246363
 10
-2.9536609128
 20
17.1462408198
 10
-2.936477581
 20
17.1529915704
 10
-2.9193364691
 20
17.1589832426
 10
-2.9022583419
 20
17.164209482
 10
-2.8853054941
 20
17.1686512252
 10
-2.8684986907
 20
17.1723021177
 10
-2.8518171667
 20
17.175168514
 10
-2.8352609221
 20
17.1772504141
  0
LWPOLYLINE
  5
28A
100
AcDbEntity
  8
0
100
AcDbPolyline
 62
7
  6
CONTINUOUS
 90
10
 70
0
 10
-2.9882165307
 20
16.7840328585
 10
-2.9807982587
 20
16.7875821226
 10
-2.9734069802
 20
16.7908033441
 10
-2.9660426951
 20
16.7936965229
 10
-2.9586965043
 20
16.7962643825
 10
-2.9513773069
 20
16.7985041994
 10
-2.9441118007
 20
16.8004078036
 10
-2.936908885
 20
16.8019724718
 10
-2.9297596604
 20
16.8032009274
 10
-2.922664127
 20
16.8040931702
  0
LWPOLYLINE
  5
28B
100
AcDbEntity
  8
C_CONTATTI
100
AcDbPolyline
 62
7
  6
CONTINUOUS
 90
11
 70
0
 10
3.0280500555
 20
19.0261532447
 10
3.040053671
 20
19.0315753117
 10
3.0518758843
 20
19.0357335896
 10
3.0635166956
 20
19.0386280783
 10
3.0750951721
 20
19.0402623985
 10
3.0864922465
 20
19.0406329296
 10
3.097350717
 20
19.0397288099
 10
3.1075938704
 20
19.0375176978
 10
3.1172984198
 20
19.0340319349
 10
3.1263373026
 20
19.0293576842
 10
3.1336399632
 20
19.0243363178
  0
LWPOLYLINE
  5
28C
100
AcDbEntity
  8
RACCORDO
100
AcDbPolyline
 62
7
  6
CONTINUOUS
 90
12
 70
0
 10
-5.3975940384
 20
16.5715320388
 10
-5.3901062396
 20
16.5747744373
 10
-5.382840942
 20
16.5770679941
 10
-5.375287861
 20
16.5786508555
 10
-5.3674502488
 20
16.5795310528
 10
-5.3594173493
 20
16.5796985636
 10
-5.3511869304
 20
16.5791452419
 10
-5.3427612242
 20
16.5778792336
 10
-5.3342361711
 20
16.5759149544
 10
-5.3256437511
 20
16.5732572095
 10
-5.3169519842
 20
16.5699011935
 10
-5.3081608704
 20
16.5658469066
  0
LWPOLYLINE
  5
28D
100
AcDbEntity
  8
C_COPERCHIO
100
AcDbPolyline
 62
250
  6
CONTINUOUS
 90
46
 70
0
 10
-17.0401482566
 20
-10.2691916923
 10
-17.0301049046
 20
-10.274038128
 10
-17.0197292224
 20
-10.2787004615
 10
-17.0090338513
 20
-10.2831730126
 10
-16.9980318218
 20
-10.2874503322
 10
-16.9867365382
 20
-10.2915272089
 10
-16.9751617622
 20
-10.2953986757
 10
-16.9633215958
 20
-10.2990600159
 10
-16.9512304644
 20
-10.3025067687
 10
-16.9389030992
 20
-10.3057347347
 10
-16.9263545192
 20
-10.3087399812
 10
-16.913600013
 20
-10.3115188467
 10
-16.9006551198
 20
-10.3140679456
 10
-16.8875356112
 20
-10.3163841723
 10
-16.8742574711
 20
-10.3184647047
 10
-16.860836877
 20
-10.3203070081
 10
-16.8472901798
 20
-10.3219088379
 10
-16.833633884
 20
-10.3232682426
 10
-16.8198846278
 20
-10.3243835658
 10
-16.8060591625
 20
-10.3252534487
 10
-16.7921743322
 20
-10.3258768316
 10
-16.7782470536
 20
-10.326252955
 10
-16.7642942948
 20
-10.3263813605
 10
-16.7503330552
 20
-10.3262618918
 10
-16.7363803443
 20
-10.3258946944
 10
-16.7224531615
 20
-10.3252802156
 10
-16.7085684747
 20
-10.3244192042
 10
-16.6947432005
 20
-10.3233127092
 10
-16.6809941826
 20
-10.3219620785
 10
-16.6673381723
 20
-10.3203689579
 10
-16.6537918072
 20
-10.3185352882
 10
-16.6403715915
 20
-10.3164633034
 10
-16.6270938756
 20
-10.3141555281
 10
-16.6139748365
 20
-10.3116147738
 10
-16.6010304576
 20
-10.3088441361
 10
-16.5882765096
 20
-10.3058469906
 10
-16.5757285313
 20
-10.3026269888
 10
-16.5634018105
 20
-10.2991880538
 10
-16.5513113654
 20
-10.2955343754
 10
-16.5394719262
 20
-10.291670405
 10
-16.5278979176
 20
-10.2876008504
 10
-16.5166034407
 20
-10.2833306696
 10
-16.505602256
 20
-10.2788650653
 10
-16.4949077669
 20
-10.2742094779
 10
-16.4845330028
 20
-10.2693695798
 10
-14.3241725613
 20
-9.1891922461
  0
LWPOLYLINE
  5
28E
100
AcDbEntity
  8
C_COPERCHIO
100
AcDbPolyline
 62
250
  6
CONTINUOUS
 90
24
 70
0
 10
-12.6560862133
 20
-12.461222714
 10
-12.6657849984
 20
-12.4561980811
 10
-12.6751274005
 20
-12.4510013725
 10
-12.6841020375
 20
-12.4456389196
 10
-12.6926979751
 20
-12.4401172557
 10
-12.7009047404
 20
-12.4344431081
 10
-12.7087123349
 20
-12.4286233899
 10
-12.716111246
 20
-12.4226651915
 10
-12.7230924595
 20
-12.416575772
 10
-12.7296474697
 20
-12.4103625505
 10
-12.7357682905
 20
-12.4040330968
 10
-12.7414474644
 20
-12.3975951224
 10
-12.7466780724
 20
-12.391056471
 10
-12.7514537418
 20
-12.3844251089
 10
-12.755768654
 20
-12.3777091153
 10
-12.7596175521
 20
-12.3709166728
 10
-12.7629957468
 20
-12.3640560569
 10
-12.7658991222
 20
-12.3571356261
 10
-12.7683241411
 20
-12.3501638119
 10
-12.7702678489
 20
-12.3431491084
 10
-12.7717278775
 20
-12.336100062
 10
-12.7727024481
 20
-12.3290252608
 10
-12.7731903734
 20
-12.3219333244
 10
-12.7732447856
 20
-12.3195641042
  0
LWPOLYLINE
  5
28F
100
AcDbEntity
  8
C_COPERCHIO
100
AcDbPolyline
 62
7
  6
CONTINUOUS
 90
48
 70
0
 10
-12.7386472059
 20
-14.7464645454
 10
-12.7385392753
 20
-14.7513651138
 10
-12.7382520603
 20
-14.7596812534
 10
-12.7378325944
 20
-14.7680249651
 10
-12.7372807258
 20
-14.7763934108
 10
-12.7366029532
 20
-14.784784488
 10
-12.7357994939
 20
-14.7931956219
 10
-12.7348702807
 20
-14.801624186
 10
-12.7338212654
 20
-14.8100681755
 10
-12.7326526838
 20
-14.8185252306
 10
-12.7313645422
 20
-14.826992908
 10
-12.7299623384
 20
-14.8354692212
 10
-12.7284463239
 20
-14.8439519987
 10
-12.7268165713
 20
-14.8524389578
 10
-12.7250782119
 20
-14.8609280602
 10
-12.723231513
 20
-14.8694173025
 10
-12.7212766089
 20
-14.8779045417
 10
-12.7192183485
 20
-14.886387624
 10
-12.7170570192
 20
-14.8948646878
 10
-12.7147928132
 20
-14.903333723
 10
-12.7124303687
 20
-14.9117924286
 10
-12.7099700034
 20
-14.9202390544
 10
-12.7074119609
 20
-14.9286717282
 10
-12.7047607163
 20
-14.9370880287
 10
-12.7020166058
 20
-14.9454863572
 10
-12.699179938
 20
-14.9538649205
 10
-12.6962551122
 20
-14.9622210586
 10
-12.693242501
 20
-14.9705532817
 10
-12.6901424711
 20
-14.9788599051
 10
-12.6869593988
 20
-14.9871380264
 10
-12.683693697
 20
-14.9953862708
 10
-12.6803457974
 20
-15.0036030492
 10
-12.6769201115
 20
-15.0117851878
 10
-12.6734171009
 20
-15.0199314251
 10
-12.6698372669
 20
-15.0280402688
 10
-12.6661851107
 20
-15.0361082512
 10
-12.6624611523
 20
-15.0441342245
 10
-12.6586659677
 20
-15.0521167981
 10
-12.6548041949
 20
-15.0600522009
 10
-12.6508764241
 20
-15.0679393989
 10
-12.6468833099
 20
-15.0757771138
 10
-12.6428296636
 20
-15.0835612798
 10
-12.6387161586
 20
-15.0912909777
 10
-12.6345435302
 20
-15.0989650563
 10
-12.6303167827
 20
-15.1065791882
 10
-12.6260381338
 20
-15.1141313375
 10
-12.6217069647
 20
-15.1216217376
 10
-12.6173240892
 20
-15.1290495406
  0
LWPOLYLINE
  5
290
100
AcDbEntity
  8
C_COPERCHIO
100
AcDbPolyline
 62
7
  6
CONTINUOUS
 90
9
 70
0
 10
-12.7386469073
 20
-14.7464644691
 10
-12.7444820354
 20
-14.3951912807
 10
-12.7491843845
 20
-14.0989818403
 10
-12.753688943
 20
-13.8026691633
 10
-12.7579957082
 20
-13.5062534455
 10
-12.7621046774
 20
-13.2097348854
 10
-12.7660158481
 20
-12.9131136791
 10
-12.7697292183
 20
-12.6163900203
 10
-12.7732447856
 20
-12.3195641042
  0
LWPOLYLINE
  5
291
100
AcDbEntity
  8
C_COPERCHIO
100
AcDbPolyline
 62
250
  6
CONTINUOUS
 90
7
 70
0
 10
-12.6560862133
 20
-12.461222714
 10
-12.6507384875
 20
-12.9064398008
 10
-12.6449456983
 20
-13.3514260531
 10
-12.6387078543
 20
-13.7961808117
 10
-12.6320249648
 20
-14.2407034181
 10
-12.6248970395
 20
-14.6849932137
 10
-12.6173240892
 20
-15.1290495406
  0
LWPOLYLINE
  5
292
100
AcDbEntity
  8
C_COPERCHIO
100
AcDbPolyline
 62
250
  6
CONTINUOUS
 90
200
 70
0
 10
-14.8639942453
 20
19.187652221
 10
-14.8639539875
 20
19.1831944401
 10
-14.8638538921
 20
19.1787491805
 10
-14.8636939941
 20
19.1743167016
 10
-14.863474333
 20
19.1698972639
 10
-14.8631949516
 20
19.165491076
 10
-14.8628558975
 20
19.1610983963
 10
-14.8624572231
 20
19.1567194845
 10
-14.8619989828
 20
19.1523545504
 10
-14.8614812371
 20
19.1480038517
 10
-14.8609040508
 20
19.1436676469
 10
-14.8602674907
 20
19.139346146
 10
-14.8595716302
 20
19.1350396091
 10
-14.8588165465
 20
19.1307482898
 10
-14.8580023159
 20
19.1264723882
 10
-14.8571290251
 20
19.1222121654
 10
-14.8561967624
 20
19.1179678712
 10
-14.8552056111
 20
19.1137396881
 10
-14.8541556663
 20
19.1095278641
 10
-14.8530470303
 20
19.1053326594
 10
-14.8518798009
 20
19.1011542749
 10
-14.8506540863
 20
19.096992962
 10
-14.8493699999
 20
19.0928489744
 10
-14.8480276515
 20
19.0887225161
 10
-14.8466271613
 20
19.0846138362
 10
-14.8451686547
 20
19.0805231873
 10
-14.8436522549
 20
19.0764507779
 10
-14.8420780943
 20
19.0723968561
 10
-14.8404463103
 20
19.0683616718
 10
-14.8387570387
 20
19.0643454349
 10
-14.8370104244
 20
19.0603483925
 10
-14.8352066169
 20
19.0563707915
 10
-14.8333457631
 20
19.0524128407
 10
-14.8314280225
 20
19.0484747892
 10
-14.8294535544
 20
19.0445568776
 10
-14.8274225105
 20
19.0406593003
 10
-14.8253350608
 20
19.0367823027
 10
-14.8231913766
 20
19.0329261247
 10
-14.8209916151
 20
19.0290909521
 10
-14.8187359542
 20
19.0252770226
 10
-14.816424579
 20
19.0214845793
 10
-14.8140576607
 20
19.017713815
 10
-14.8116353889
 20
19.0139649658
 10
-14.8091579594
 20
19.0102382715
 10
-14.8066255572
 20
19.0065339298
 10
-14.8040383823
 20
19.0028521731
 10
-14.8013966426
 20
18.9991932397
 10
-14.7987005399
 20
18.9955573345
 10
-14.7959502874
 20
18.9919446897
 10
-14.7931461028
 20
18.9883555383
 10
-14.7902882001
 20
18.9847900847
 10
-14.7873768047
 20
18.9812485595
 10
-14.7844121451
 20
18.9777311915
 10
-14.7813944443
 20
18.9742381813
 10
-14.7783239417
 20
18.9707697593
 10
-14.7752008744
 20
18.9673261484
 10
-14.7720254664
 20
18.9639075372
 10
-14.768797966
 20
18.9605141509
 10
-14.7655186225
 20
18.9571462116
 10
-14.762187665
 20
18.9538039022
 10
-14.7588053517
 20
18.9504874443
 10
-14.7553719425
 20
18.9471970574
 10
-14.7518876725
 20
18.9439329206
 10
-14.7483528046
 20
18.9406952475
 10
-14.7447676137
 20
18.9374842594
 10
-14.7411323562
 20
18.9343001451
 10
-14.7374473066
 20
18.9311431163
 10
-14.733712749
 20
18.9280133895
 10
-14.729928959
 20
18.9249111593
 10
-14.7260962245
 20
18.9218366364
 10
-14.7222148374
 20
18.918790031
 10
-14.7182850836
 20
18.9157715356
 10
-14.7143072631
 20
18.912781358
 10
-14.7102816765
 20
18.9098197038
 10
-14.7062086155
 20
18.9068867595
 10
-14.702088391
 20
18.9039827298
 10
-14.6979213127
 20
18.9011078158
 10
-14.6937076751
 20
18.8982621971
 10
-14.689447799
 20
18.8954460746
 10
-14.6851420035
 20
18.8926596454
 10
-14.680790584
 20
18.8899030822
 10
-14.6763938731
 20
18.8871765834
 10
-14.6719521968
 20
18.8844803407
 10
-14.6674658428
 20
18.8818145159
 10
-14.6629351378
 20
18.879179295
 10
-14.6583604306
 20
18.8765748748
 10
-14.6537420451
 20
18.8740014318
 10
-14.6490803243
 20
18.8714591521
 10
-14.6443756194
 20
18.868948224
 10
-14.6396282707
 20
18.8664688251
 10
-14.6348386333
 20
18.8640211388
 10
-14.6300070649
 20
18.8616053473
 10
-14.6251339143
 20
18.8592216249
 10
-14.6202195468
 20
18.856870151
 10
-14.6152643279
 20
18.8545511026
 10
-14.6102686111
 20
18.8522646492
 10
-14.6052327698
 20
18.850010965
 10
-14.6001571787
 20
18.8477902229
 10
-14.5950421974
 20
18.8456025882
 10
-14.5898882124
 20
18.8434482324
 10
-14.5846956022
 20
18.8413273219
 10
-14.579464718
 20
18.8392400123
 10
-14.5741959569
 20
18.8371864716
 10
-14.5688897027
 20
18.8351668606
 10
-14.5635462884
 20
18.8331813238
 10
-14.558166096
 20
18.8312300163
 10
-14.5527495387
 20
18.8293131033
 10
-14.5472969989
 20
18.8274307427
 10
-14.5418088799
 20
18.8255830897
 10
-14.5362855895
 20
18.8237702995
 10
-14.5307275214
 20
18.8219925274
 10
-14.5251350876
 20
18.8202499242
 10
-14.5195087026
 20
18.8185426396
 10
-14.5138487674
 20
18.8168708251
 10
-14.5081557013
 20
18.8152346264
 10
-14.5024299266
 20
18.8136341878
 10
-14.4966718518
 20
18.8120696575
 10
-14.4908819038
 20
18.8105411758
 10
-14.4850605119
 20
18.8090488817
 10
-14.4792080913
 20
18.8075929194
 10
-14.4733250863
 20
18.8061734261
 10
-14.4674119228
 20
18.8047905333
 10
-14.4614689908
 20
18.8034443739
 10
-14.4554967373
 20
18.802135079
 10
-14.4494955981
 20
18.8008627763
 10
-14.4434659478
 20
18.7996275921
 10
-14.437408215
 20
18.7984296478
 10
-14.4313228654
 20
18.7972690713
 10
-14.4252103318
 20
18.7961459966
 10
-14.4190710668
 20
18.7950605432
 10
-14.4129055248
 20
18.7940128296
 10
-14.406714145
 20
18.7930029855
 10
-14.4004973867
 20
18.792031125
 10
-14.3942557098
 20
18.7910973608
 10
-14.387989557
 20
18.7902018177
 10
-14.3816993935
 20
18.7893446043
 10
-14.3753856849
 20
18.7885258275
 10
-14.3690488777
 20
18.7877456075
 10
-14.3626894421
 20
18.7870040471
 10
-14.3563078496
 20
18.7863012476
 10
-14.3499045504
 20
18.7856373245
 10
-14.3434800323
 20
18.785012376
 10
-14.33703476
 20
18.7844264962
 10
-14.3305691501
 20
18.7838797936
 10
-14.324083682
 20
18.7833723592
 10
-14.3175788379
 20
18.7829042836
 10
-14.3110550406
 20
18.7824756724
 10
-14.3045127635
 20
18.7820866109
 10
-14.2979525035
 20
18.7817371847
 10
-14.2913747213
 20
18.7814274977
 10
-14.2847799059
 20
18.7811576302
 10
-14.2781685476
 20
18.7809276609
 10
-14.2715411113
 20
18.7807376891
 10
-14.2648980893
 20
18.7805877891
 10
-14.2582399772
 20
18.7804780337
 10
-14.2515672461
 20
18.7804085174
 10
-14.2448803934
 20
18.7803793085
 10
-14.2381799176
 20
18.7803904737
 10
-14.2314662936
 20
18.7804421025
 10
-14.2247400238
 20
18.7805342571
 10
-14.2180016092
 20
18.780666998
 10
-14.2112515233
 20
18.7808404099
 10
-14.2044902821
 20
18.7810545485
 10
-14.19771838
 20
18.7813094684
 10
-14.1909362595
 20
18.7816052513
 10
-14.1841444253
 20
18.7819419474
 10
-14.1773433889
 20
18.7823196056
 10
-14.1705336049
 20
18.7827383031
 10
-14.1637155782
 20
18.7831980849
 10
-14.1568898257
 20
18.7836989935
 10
-14.1500568209
 20
18.7842411009
 10
-14.1432170753
 20
18.7848244457
 10
-14.1363711045
 20
18.7854490644
 10
-14.1295193888
 20
18.7861150237
 10
-14.1226624417
 20
18.7868223562
 10
-14.1158007816
 20
18.7875710919
 10
-14.1089348966
 20
18.7883612919
 10
-14.1020653047
 20
18.7891929821
 10
-14.0951925242
 20
18.7900661864
 10
-14.088317044
 20
18.7909809606
 10
-14.0814393868
 20
18.7919373237
 10
-14.0745600698
 20
18.7929352938
 10
-14.0676795754
 20
18.7939749224
 10
-14.0607984313
 20
18.7950562216
 10
-14.0539171525
 20
18.7961792039
 10
-14.0470362032
 20
18.797343919
 10
-14.0401561046
 20
18.7985503742
 10
-14.0332773809
 20
18.7997985748
 10
-14.0264005004
 20
18.8010885655
 10
-14.0195259849
 20
18.8024203476
 10
-14.0126543602
 20
18.8037939202
 10
-14.0057861015
 20
18.8052093221
 10
-13.9989217291
 20
18.806666549
 10
-13.9920617718
 20
18.808165593
 10
-13.9852067185
 20
18.809706485
 10
-13.9783570929
 20
18.8112892139
 10
-13.9715134213
 20
18.8129137658
 10
-13.9646761966
 20
18.8145801651
 10
-13.9578459448
 20
18.8162883935
 10
-13.9510231902
 20
18.8180384313
  0
LWPOLYLINE
  5
293
100
AcDbEntity
  8
C_COPERCHIO
100
AcDbPolyline
 62
250
  6
CONTINUOUS
 90
71
 70
0
 10
-13.9510231902
 20
18.8180384313
 10
-13.9442084235
 20
18.8198302975
 10
-13.9374021746
 20
18.8216639664
 10
-13.9306049636
 20
18.8235394127
 10
-13.9238172673
 20
18.8254566536
 10
-13.9170396128
 20
18.8274156577
 10
-13.9102725223
 20
18.8294163927
 10
-13.903516465
 20
18.831458873
 10
-13.8967719525
 20
18.8335430656
 10
-13.8900395215
 20
18.8356689274
 10
-13.8833196783
 20
18.8378364552
 10
-13.8766128945
 20
18.8400456232
 10
-13.8699197449
 20
18.842296368
 10
-13.8632408892
 20
18.8445886253
 10
-13.856576789
 20
18.8469223651
 10
-13.849928024
 20
18.8492975107
 10
-13.8432954267
 20
18.8517139174
 10
-13.8366795094
 20
18.8541715257
 10
-13.8300807913
 20
18.8566702658
 10
-13.8235001079
 20
18.8592099661
 10
-13.816937958
 20
18.8617905596
 10
-13.8103948628
 20
18.864411962
 10
-13.8038716837
 20
18.8670739641
 10
-13.7973688934
 20
18.869776496
 10
-13.7908870248
 20
18.8725194537
 10
-13.7844270196
 20
18.8753025631
 10
-13.7779893832
 20
18.8781257242
 10
-13.7715745971
 20
18.8809888381
 10
-13.7651835549
 20
18.883891617
 10
-13.7588169004
 20
18.8868338786
 10
-13.7524749552
 20
18.8898155816
 10
-13.746158124
 20
18.8928366428
 10
-13.739866894
 20
18.8958969425
 10
-13.7336017336
 20
18.8989963676
 10
-13.7273630172
 20
18.9021348443
 10
-13.7211511872
 20
18.9053122683
 10
-13.7149667465
 20
18.9085285017
 10
-13.7088101589
 20
18.9117834179
 10
-13.7026818918
 20
18.9150768908
 10
-13.6965824094
 20
18.918408792
 10
-13.6905121665
 20
18.9217789892
 10
-13.6844716268
 20
18.9251873482
 10
-13.6784612443
 20
18.9286337368
 10
-13.6724814555
 20
18.9321180223
 10
-13.666532716
 20
18.9356400657
 10
-13.6606154736
 20
18.9391997282
 10
-13.6547301514
 20
18.9427968753
 10
-13.6488771949
 20
18.9464313638
 10
-13.6430570474
 20
18.9501030483
 10
-13.6372701249
 20
18.953811788
 10
-13.631516864
 20
18.9575574356
 10
-13.6257977021
 20
18.9613398392
 10
-13.6201130524
 20
18.965158849
 10
-13.6144633464
 20
18.9690143107
 10
-13.608849011
 20
18.9729060686
 10
-13.6032704496
 20
18.9768339687
 10
-13.5977280852
 20
18.9807978516
 10
-13.592222337
 20
18.9847975561
 10
-13.5867535997
 20
18.9888329231
 10
-13.5813222879
 20
18.9929037884
 10
-13.5759288127
 20
18.9970099855
 10
-13.5705735602
 20
19.0011513501
 10
-13.5652569366
 20
19.0053277127
 10
-13.5599793445
 20
19.009538902
 10
-13.5547411614
 20
19.0137847485
 10
-13.549542785
 20
19.0180650779
 10
-13.5443846091
 20
19.0223797138
 10
-13.5392670016
 20
19.0267284825
 10
-13.5341903431
 20
19.0311112061
 10
-13.5291550268
 20
19.0355277021
 10
-13.5241614346
 20
19.0399777882
  0
LINE
  5
294
100
AcDbEntity
  8
C_COPERCHIO
100
AcDbLine
 62
7
  6
CONTINUOUS
 10
-14.8639951362
 20
18.6665791932
 11
-14.8639951362
 21
19.1884224916
  0
LINE
  5
295
100
AcDbEntity
  8
C_COPERCHIO
100
AcDbLine
 62
7
  6
CONTINUOUS
 10
-14.0998077373
 20
21.0061351187
 11
-14.0998077373
 21
22.0886998484
  0
LINE
  5
296
100
AcDbEntity
  8
C_COPERCHIO
100
AcDbLine
 62
250
  6
CONTINUOUS
 10
-13.5241614346
 20
18.3904587354
 11
-13.5241614346
 21
19.0399777882
  0
LWPOLYLINE
  5
297
100
AcDbEntity
  8
0
100
AcDbPolyline
 62
7
  6
CONTINUOUS
 90
19
 70
0
 10
-12.3320407843
 20
20.3375944847
 10
-12.3300390915
 20
20.3920836253
 10
-12.3244171396
 20
20.4471948371
 10
-12.3151749288
 20
20.5029281201
 10
-12.3021876512
 20
20.5597149097
 10
-12.2855801145
 20
20.6171237706
 10
-12.2657267425
 20
20.673860397
 10
-12.2425538023
 20
20.7299095183
 10
-12.2161350266
 20
20.785286405
 10
-12.1870660375
 20
20.8387425632
 10
-12.1552866323
 20
20.8902343611
 10
-12.1208570136
 20
20.9398054304
 10
-12.0845534109
 20
20.9863381715
 10
-12.0463332547
 20
21.0297635652
 10
-12.0062391145
 20
21.0701506306
 10
-11.9651749288
 20
21.1065888251
 10
-11.9234420105
 20
21.1387746346
 10
-11.8807390468
 20
21.1670115731
 10
-11.8370660375
 20
21.1912996408
  0
LINE
  5
298
100
AcDbEntity
  8
RACCORDO
100
AcDbLine
 62
250
  6
CONTINUOUS
 10
-9.9347993821
 20
20.922737747
 11
-9.9514844156
 21
20.8515030467
  0
LWPOLYLINE
  5
299
100
AcDbEntity
  8
C_COPERCHIO
100
AcDbPolyline
 62
250
  6
CONTINUOUS
 90
200
 70
0
 10
-4.5258929678
 20
14.5408435548
 10
-4.5290622538
 20
14.5374508659
 10
-4.5321704528
 20
14.5340572562
 10
-4.5352175647
 20
14.5306627257
 10
-4.5382033333
 20
14.5272670392
 10
-4.5411280149
 20
14.5238704319
 10
-4.5439923784
 20
14.5204736098
 10
-4.5467964166
 20
14.5170765813
 10
-4.5495401368
 20
14.5136793381
 10
-4.5522243301
 20
14.5102825617
 10
-4.5548489898
 20
14.5068862602
 10
-4.5574141226
 20
14.5034904256
 10
-4.5599205395
 20
14.5000957147
 10
-4.5623682347
 20
14.4967021358
 10
-4.564757214
 20
14.4933096807
 10
-4.5670883065
 20
14.489918982
 10
-4.569361507
 20
14.4865300479
 10
-4.5715768208
 20
14.4831428703
 10
-4.5737350929
 20
14.4797580576
 10
-4.5758363187
 20
14.4763756179
 10
-4.5778805028
 20
14.4729955432
 10
-4.5798685046
 20
14.4696184178
 10
-4.58180032
 20
14.4662442495
 10
-4.5836759531
 20
14.4628730306
 10
-4.5854962754
 20
14.4595053213
 10
-4.5872612835
 20
14.4561411293
 10
-4.5889709807
 20
14.452780447
 10
-4.5906262488
 20
14.4494238117
 10
-4.5922270849
 20
14.4460712311
 10
-4.5937734917
 20
14.4427226975
 10
-4.5952663595
 20
14.439378725
 10
-4.596705686
 20
14.4360393214
 10
-4.5980914735
 20
14.4327044789
 10
-4.5994246191
 20
14.4293746882
 10
-4.6007051208
 20
14.4260499578
 10
-4.6019329807
 20
14.4227302792
 10
-4.6031091015
 20
14.4194161184
 10
-4.6042334822
 20
14.4161074829
 10
-4.6053061237
 20
14.4128043653
 10
-4.6063279321
 20
14.4095072087
 10
-4.6072989089
 20
14.4062160106
 10
-4.6082190524
 20
14.4029307736
 10
-4.6090892634
 20
14.3996519491
 10
-4.6099095456
 20
14.3963795124
 10
-4.6106798952
 20
14.3931134882
 10
-4.6114012016
 20
14.3898544019
 10
-4.61207346
 20
14.3866022454
 10
-4.6126966751
 20
14.3833570267
 10
-4.6132717504
 20
14.3801192952
 10
-4.6137986772
 20
14.376889059
 10
-4.6142774641
 20
14.37366631
 10
-4.6147090406
 20
14.3704515728
 10
-4.6150933989
 20
14.367244855
 10
-4.6154305467
 20
14.364046149
 10
-4.615721437
 20
14.3608559572
 10
-4.6159660625
 20
14.3576742866
 10
-4.6161644303
 20
14.35450113
 10
-4.6163175144
 20
14.3513369688
 10
-4.6164253085
 20
14.3481818142
 10
-4.6164878188
 20
14.345035655
 10
-4.6165060382
 20
14.341898938
 10
-4.6164799675
 20
14.338771741
 10
-4.6164096058
 20
14.3356539863
 10
-4.6162959432
 20
14.3325458884
 10
-4.6161389877
 20
14.32944746
 10
-4.6159387312
 20
14.3263586884
 10
-4.6156961396
 20
14.3232797488
 10
-4.6154112185
 20
14.3202106301
 10
-4.6150839623
 20
14.3171513434
 10
-4.6147153197
 20
14.3141020981
 10
-4.6143052967
 20
14.3110628998
 10
-4.6138538872
 20
14.3080337427
 10
-4.6133620218
 20
14.3050148186
 10
-4.612829707
 20
14.3020061334
 10
-4.6122569362
 20
14.2990076812
 10
-4.6116446204
 20
14.2960196348
 10
-4.6109927664
 20
14.2930419998
 10
-4.6103013673
 20
14.2900747708
 10
-4.6095713139
 20
14.2871181044
 10
-4.6088026134
 20
14.2841720066
 10
-4.6079952586
 20
14.2812364716
 10
-4.607150118
 20
14.2783116382
 10
-4.606267201
 20
14.2753975165
 10
-4.6053464983
 20
14.2724940965
 10
-4.6043888504
 20
14.2696014874
 10
-4.6033942639
 20
14.2667196889
 10
-4.6023627322
 20
14.2638487014
 10
-4.6012950767
 20
14.2609886352
 10
-4.6001913047
 20
14.2581394933
 10
-4.5990514088
 20
14.2553012728
 10
-4.5978761888
 20
14.2524740751
 10
-4.5966656521
 20
14.2496579039
 10
-4.5954197912
 20
14.2468527554
 10
-4.5941393825
 20
14.2440587199
 10
-4.5928244337
 20
14.2412758008
 10
-4.5914749372
 20
14.2385039947
 10
-4.590091646
 20
14.2357433816
 10
-4.5886745682
 20
14.2329939648
 10
-4.5872236959
 20
14.2302557409
 10
-4.5857397584
 20
14.22752878
 10
-4.5842227651
 20
14.2248130873
 10
-4.5826727066
 20
14.2221086575
 10
-4.5810902842
 20
14.2194155447
 10
-4.5794755088
 20
14.2167337556
 10
-4.5778283694
 20
14.2140632835
 10
-4.5761495343
 20
14.2114041632
 10
-4.5744390099
 20
14.2087563933
 10
-4.5726967898
 20
14.2061199753
 10
-4.5709235232
 20
14.2034949476
 10
-4.569119218
 20
14.2008813119
 10
-4.5672838664
 20
14.1982790666
 10
-4.5654180935
 20
14.1956882453
 10
-4.5635219068
 20
14.1931088491
 10
-4.5615952988
 20
14.190540877
 10
-4.5596388718
 20
14.1879843593
 10
-4.5576526335
 20
14.1854392974
 10
-4.5556365762
 20
14.1829056899
 10
-4.5535912783
 20
14.1803835629
 10
-4.551516748
 20
14.1778729182
 10
-4.5494129772
 20
14.1753737539
 10
-4.5472805193
 20
14.1728860908
 10
-4.5451193851
 20
14.1704099332
 10
-4.5429295639
 20
14.1679452769
 10
-4.5407115764
 20
14.1654921301
 10
-4.538465433
 20
14.1630504955
 10
-4.5361911234
 20
14.1606203704
 10
-4.5338891373
 20
14.1582017546
 10
-4.5315594818
 20
14.1557946473
 10
-4.5292021498
 20
14.1533990492
 10
-4.5268176096
 20
14.1510149628
 10
-4.5244058685
 20
14.1486423873
 10
-4.5219669191
 20
14.1462813233
 10
-4.519501208
 20
14.1439317747
 10
-4.5170087415
 20
14.1415937402
 10
-4.5144895133
 20
14.1392672211
 10
-4.5119439515
 20
14.1369522253
 10
-4.5093720636
 20
14.1346487528
 10
-4.506773842
 20
14.1323568036
 10
-4.5041496921
 20
14.1300763856
 10
-4.5014996221
 20
14.1278074992
 10
-4.4988236238
 20
14.1255501439
 10
-4.4961220776
 20
14.1233043261
 10
-4.4933949942
 20
14.1210700477
 10
-4.4906423629
 20
14.1188473067
 10
-4.4878645326
 20
14.1166361033
 10
-4.4850615125
 20
14.114436438
 10
-4.4822332933
 20
14.1122483103
 10
-4.4793801967
 20
14.1100717191
 10
-4.4765022311
 20
14.1079066643
 10
-4.4735993881
 20
14.1057531459
 10
-4.4706719629
 20
14.1036111635
 10
-4.4677199598
 20
14.1014807135
 10
-4.4647433746
 20
14.0993617993
 10
-4.4617424903
 20
14.0972544307
 10
-4.4587173116
 20
14.0951586049
 10
-4.4556678339
 20
14.0930743245
 10
-4.4525943268
 20
14.0910016076
 10
-4.4494967968
 20
14.0889404529
 10
-4.4463752373
 20
14.0868908616
 10
-4.4432298981
 20
14.0848528554
 10
-4.4400607869
 20
14.0828264336
 10
-4.4368678958
 20
14.0808115968
 10
-4.4336514519
 20
14.0788083685
 10
-4.4304114631
 20
14.0768167482
 10
-4.4271479213
 20
14.0748367365
 10
-4.4238610289
 20
14.0728683585
 10
-4.4205507942
 20
14.0709116136
 10
-4.4172172088
 20
14.0689665023
 10
-4.4138604502
 20
14.0670330521
 10
-4.4104805285
 20
14.065111263
 10
-4.4070774336
 20
14.0632011349
 10
-4.4036513121
 20
14.0613026949
 10
-4.4002021628
 20
14.0594159368
 10
-4.3967299869
 20
14.0575408669
 10
-4.3932349348
 20
14.0556775309
 10
-4.38971701
 20
14.0538259256
 10
-4.386176209
 20
14.0519860542
 10
-4.3826126722
 20
14.0501579725
 10
-4.3790264047
 20
14.048341678
 10
-4.3754174014
 20
14.0465371731
 10
-4.3717857876
 20
14.0447445205
 10
-4.368131569
 20
14.0429637182
 10
-4.36445474
 20
14.0411947681
 10
-4.3607554091
 20
14.0394377393
 10
-4.3570335811
 20
14.0376926292
 10
-4.3532892512
 20
14.0359594405
 10
-4.3495225131
 20
14.0342382494
 10
-4.3457333749
 20
14.0325290547
 10
-4.3419218285
 20
14.0308318578
 10
-4.3380879433
 20
14.0291467386
 10
-4.3342317295
 20
14.0274736963
 10
-4.3303531768
 20
14.0258127318
 10
-4.3264523242
 20
14.024163927
 10
-4.322529165
 20
14.0225272743
 10
-4.3185837058
 20
14.0209027814
 10
-4.3146160058
 20
14.0192905536
 10
-4.3106260669
 20
14.0176905872
 10
-4.3066138871
 20
14.0161028859
 10
-4.3025795193
 20
14.0145275658
 10
-4.2985229658
 20
14.0129646234
  0
LWPOLYLINE
  5
29A
100
AcDbEntity
  8
C_COPERCHIO
100
AcDbPolyline
 62
250
  6
CONTINUOUS
 90
7
 70
0
 10
-4.2985229658
 20
14.0129646234
 10
-4.2944442241
 20
14.0114140622
 10
-4.2903433396
 20
14.0098760085
 10
-4.286220314
 20
14.0083504585
 10
-4.2820751455
 20
14.006837416
 10
-4.2779078732
 20
14.0053370177
 10
-4.2695070208
 20
14.0023741464
  0
LWPOLYLINE
  5
29B
100
AcDbEntity
  8
C_COPERCHIO
100
AcDbPolyline
 62
7
  6
CONTINUOUS
 90
28
 70
0
 10
-4.5260432081
 20
14.5407266157
 10
-4.5434484003
 20
14.5267610233
 10
-4.5600596445
 20
14.512596331
 10
-4.5758909384
 20
14.4982398085
 10
-4.5909550071
 20
14.4836991359
 10
-4.6052658621
 20
14.4689799785
 10
-4.6188371779
 20
14.454087249
 10
-4.6316790958
 20
14.4390288553
 10
-4.6438016768
 20
14.4238124019
 10
-4.6552146799
 20
14.4084453892
 10
-4.665925165
 20
14.3929387636
 10
-4.6759404544
 20
14.377303464
 10
-4.6852672843
 20
14.3615517706
 10
-4.6939107481
 20
14.3456997781
 10
-4.7018774578
 20
14.329762382
 10
-4.7091741581
 20
14.3137555822
 10
-4.7158050849
 20
14.2977035801
 10
-4.7217793281
 20
14.2816223535
 10
-4.7271089489
 20
14.2655199255
 10
-4.7317978546
 20
14.249431388
 10
-4.7358590021
 20
14.2333676017
 10
-4.7393124759
 20
14.2173009951
 10
-4.7421640416
 20
14.2012559228
 10
-4.744421674
 20
14.1852530544
 10
-4.7460993639
 20
14.1692574116
 10
-4.7472014058
 20
14.1532911766
 10
-4.7477335941
 20
14.1373753924
 10
-4.7477890148
 20
14.1303264367
  0
LWPOLYLINE
  5
29C
100
AcDbEntity
  8
C_COPERCHIO
100
AcDbPolyline
 62
7
  6
CONTINUOUS
 90
3
 70
0
 10
-18.2783168648
 20
4.7649177718
 10
-18.2715086069
 20
4.7703854962
 10
-18.2679882552
 20
4.7731755945
  0
LINE
  5
29D
100
AcDbEntity
  8
C_COPERCHIO
100
AcDbLine
 62
7
  6
CONTINUOUS
 10
-18.2679882552
 20
4.7731755945
 11
-18.2607216001
 21
4.7788607128
  0
LINE
  5
29E
100
AcDbEntity
  8
C_COPERCHIO
100
AcDbLine
 62
7
  6
CONTINUOUS
 10
-18.2607216001
 20
4.7788607128
 11
-18.2531678482
 21
4.7846787307
  0
LINE
  5
29F
100
AcDbEntity
  8
C_COPERCHIO
100
AcDbLine
 62
7
  6
CONTINUOUS
 10
-18.2531678482
 20
4.7846787307
 11
-18.2453437953
 21
4.7906199326
  0
LINE
  5
2A0
100
AcDbEntity
  8
C_COPERCHIO
100
AcDbLine
 62
7
  6
CONTINUOUS
 10
-18.2453437953
 20
4.7906199326
 11
-18.2372626662
 21
4.7966729971
  0
LINE
  5
2A1
100
AcDbEntity
  8
C_COPERCHIO
100
AcDbLine
 62
7
  6
CONTINUOUS
 10
-18.2372626662
 20
4.7966729971
 11
-18.2289423488
 21
4.8028279104
  0
LINE
  5
2A2
100
AcDbEntity
  8
C_COPERCHIO
100
AcDbLine
 62
7
  6
CONTINUOUS
 10
-18.2289423488
 20
4.8028279104
 11
-18.2204030003
 21
4.8090739578
  0
LINE
  5
2A3
100
AcDbEntity
  8
C_COPERCHIO
100
AcDbLine
 62
7
  6
CONTINUOUS
 10
-18.2204030003
 20
4.8090739578
 11
-18.2116552725
 21
4.8153985522
  0
LWPOLYLINE
  5
2A4
100
AcDbEntity
  8
C_COPERCHIO
100
AcDbPolyline
 62
7
  6
CONTINUOUS
 90
33
 70
0
 10
-0.7568653427
 20
14.0986133752
 10
-0.7722743054
 20
14.0901102827
 10
-0.7929681031
 20
14.0780644664
 10
-0.8130377763
 20
14.0656381085
 10
-0.8324987621
 20
14.0528204421
 10
-0.8513249801
 20
14.0396271947
 10
-0.8694532623
 20
14.0261052412
 10
-0.8868863248
 20
14.0122586486
 10
-0.9036228746
 20
13.9980941354
 10
-0.9196050208
 20
13.9836703809
 10
-0.934838301
 20
13.9689972913
 10
-0.9493287399
 20
13.9540841772
 10
-0.9630306055
 20
13.9389983192
 10
-0.9759382717
 20
13.9237746593
 10
-0.9880813423
 20
13.9084082796
 10
-0.999471099
 20
13.8929132438
 10
-1.0101106551
 20
13.8773158799
 10
-1.0200181159
 20
13.8616224049
 10
-1.0292212288
 20
13.8458183203
 10
-1.0377265826
 20
13.8299194044
 10
-1.0455408721
 20
13.8139426942
 10
-1.0526839408
 20
13.7978760467
 10
-1.0591606561
 20
13.7817346151
 10
-1.0649748041
 20
13.7655375437
 10
-1.0701387153
 20
13.7492795199
 10
-1.0746562848
 20
13.7329770621
 10
-1.0785312345
 20
13.7166496797
 10
-1.0817717061
 20
13.7002974209
 10
-1.0843814116
 20
13.6839390538
 10
-1.0863652732
 20
13.6675927692
 10
-1.0877301711
 20
13.6512581925
 10
-1.0884806208
 20
13.6349474579
 10
-1.0886430447
 20
13.6230048953
  0
LINE
  5
2A5
100
AcDbEntity
  8
C_COPERCHIO
100
AcDbLine
 62
7
  6
CONTINUOUS
 10
-4.5258929678
 20
14.5408435548
 11
1.9515161956
 21
18.0355544012
  0
LINE
  5
2A6
100
AcDbEntity
  8
C_COPERCHIO
100
AcDbLine
 62
7
  6
CONTINUOUS
 10
0.6703830094
 20
14.8686466333
 11
-0.7568678033
 21
14.0986120762
  0
LINE
  5
2A7
100
AcDbEntity
  8
C_COPERCHIO
100
AcDbLine
 62
250
  6
CONTINUOUS
 10
0.7847630827
 20
14.8628878143
 11
-0.6412470269
 21
14.0935226451
  0
LINE
  5
2A8
100
AcDbEntity
  8
C_COPERCHIO
100
AcDbLine
 62
7
  6
CONTINUOUS
 10
-19.2263319009
 20
4.9152603781
 11
-18.9936482348
 21
5.0332047252
  0
LINE
  5
2A9
100
AcDbEntity
  8
C_COPERCHIO
100
AcDbLine
 62
7
  6
CONTINUOUS
 10
3.4889152618
 20
18.8101815853
 11
2.0870774196
 21
18.1038576879
  0
LINE
  5
2AA
100
AcDbEntity
  8
C_COPERCHIO
100
AcDbLine
 62
7
  6
CONTINUOUS
 10
-3.4079553136
 20
13.9818747277
 11
4.836997296
 21
18.1361405682
  0
LINE
  5
2AB
100
AcDbEntity
  8
C_COPERCHIO
100
AcDbLine
 62
7
  6
CONTINUOUS
 10
5.3860014202
 20
17.7632403375
 11
-3.4079553136
 21
13.3323556749
  0
LINE
  5
2AC
100
AcDbEntity
  8
C_CORPO
100
AcDbLine
 62
7
  6
CONTINUOUS
 10
0.7196819001
 20
14.8802083879
 11
6.3651727118
 21
17.5822644841
  0
LINE
  5
2AD
100
AcDbEntity
  8
C_CORPO
100
AcDbLine
 62
250
  6
CONTINUOUS
 10
0.7847900067
 20
14.8628743524
 11
6.4539849711
 21
17.5762757775
  0
LWPOLYLINE
  5
2AE
100
AcDbEntity
  8
C_CORPO
100
AcDbPolyline
 62
250
  6
CONTINUOUS
 90
26
 70
0
 10
6.4539849711
 20
17.5762757775
 10
6.4732453086
 20
17.585172578
 10
6.4924819944
 20
17.5934150677
 10
6.5116807436
 20
17.6009971444
 10
6.5308271972
 20
17.6079131611
 10
6.5499072426
 20
17.6141580439
 10
6.5689070212
 20
17.6197272596
 10
6.5878125767
 20
17.6246166964
 10
6.6066097117
 20
17.6288226613
 10
6.6252843087
 20
17.6323419906
 10
6.6438224464
 20
17.635172067
 10
6.6622104139
 20
17.6373108037
 10
6.6804345638
 20
17.6387566167
 10
6.6984813393
 20
17.6395084343
 10
6.7163373644
 20
17.6395657036
 10
6.7339894582
 20
17.6389283804
 10
6.751424559
 20
17.6375969269
 10
6.7686296674
 20
17.635572326
 10
6.785591937
 20
17.6328560872
 10
6.8022987451
 20
17.6294502355
 10
6.8187377137
 20
17.6253572979
 10
6.8348966498
 20
17.6205803115
 10
6.8507635642
 20
17.6151228197
 10
6.866326663
 20
17.6089888783
 10
6.8815743723
 20
17.6021830504
 10
6.8888578517
 20
17.5986391071
  0
LWPOLYLINE
  5
2AF
100
AcDbEntity
  8
C_CORPO
100
AcDbPolyline
 62
250
  6
CONTINUOUS
 90
16
 70
0
 10
6.3673830628
 20
17.5832798907
 10
6.3724226472
 20
17.5852915602
 10
6.3776127918
 20
17.5869540629
 10
6.3829436171
 20
17.5882642343
 10
6.3884049754
 20
17.5892195803
 10
6.3939864708
 20
17.5898182823
 10
6.3996774786
 20
17.5900592007
 10
6.4054671655
 20
17.5899418769
 10
6.4113445107
 20
17.5894665342
 10
6.4172983262
 20
17.5886340774
 10
6.4233172786
 20
17.5874460912
 10
6.4293899105
 20
17.5859048369
 10
6.4355046622
 20
17.5840132485
 10
6.4416498941
 20
17.5817749266
 10
6.4478139082
 20
17.5791941321
 10
6.4539849711
 20
17.5762757775
  0
LINE
  5
2B0
100
AcDbEntity
  8
0
100
AcDbLine
 62
7
  6
CONTINUOUS
 10
-12.3320407843
 20
20.0777868636
 11
-12.3320407843
 21
20.3375944847
  0
LINE
  5
2B1
100
AcDbEntity
  8
C_COPERCHIO
100
AcDbLine
 62
7
  6
CONTINUOUS
 10
-10.2460757798
 20
-0.0912520969
 11
-10.2460757798
 21
-5.497029374
  0
LWPOLYLINE
  5
2B2
100
AcDbEntity
  8
C_COPERCHIO
100
AcDbPolyline
 62
250
  6
CONTINUOUS
 90
10
 70
0
 10
-11.4446546783
 20
-6.1582137786
 10
-11.4410666392
 20
-5.4050859738
 10
-11.436226309
 20
-4.6513425595
 10
-11.4301337081
 20
-3.8969866767
 10
-11.4227888618
 20
-3.1420214688
 10
-11.4141918006
 20
-2.3864500819
 10
-11.4043425604
 20
-1.6302756649
 10
-11.3932411823
 20
-0.8735013689
 10
-11.3808877125
 20
-0.1161303474
 10
-11.3672822024
 20
0.6418342435
  0
LWPOLYLINE
  5
2B3
100
AcDbEntity
  8
C_COPERCHIO
100
AcDbPolyline
 62
250
  6
CONTINUOUS
 90
5
 70
0
 10
-10.8774737037
 20
-5.812728336
 10
-10.8715792484
 20
-4.799305952
 10
-10.8634177398
 20
-3.7847889503
 10
-10.8529891779
 20
-2.7691773309
 10
-10.8402935628
 20
-1.7524710937
  0
LWPOLYLINE
  5
2B4
100
AcDbEntity
  8
C_COPERCHIO
100
AcDbPolyline
 62
250
  6
CONTINUOUS
 90
3
 70
0
 10
-10.8402935628
 20
-1.7524710937
 10
-10.8253308944
 20
-0.7346702387
 10
-10.8096851951
 20
0.1905526107
  0
LINE
  5
2B5
100
AcDbEntity
  8
RACCORDO
100
AcDbLine
 62
250
  6
CONTINUOUS
 10
-7.9845536975
 20
21.121772544
 11
-8.0719569023
 21
20.7486153002
  0
LINE
  5
2B6
100
AcDbEntity
  8
RACCORDO
100
AcDbLine
 62
250
  6
CONTINUOUS
 10
-7.7086326388
 20
21.0647884037
 11
-7.7960358437
 21
20.6916311598
  0
LINE
  5
2B7
100
AcDbEntity
  8
RACCORDO
100
AcDbLine
 62
250
  6
CONTINUOUS
 10
-5.6580229734
 20
20.0394835709
 11
-5.6784542329
 21
19.9522548188
  0
LINE
  5
2B8
100
AcDbEntity
  8
RACCORDO
100
AcDbLine
 62
250
  6
CONTINUOUS
 10
-5.9042907294
 20
18.9074834206
 11
-5.9209757629
 21
18.8362487203
  0
LWPOLYLINE
  5
2B9
100
AcDbEntity
  8
RACCORDO
100
AcDbPolyline
 62
7
  6
CONTINUOUS
 90
12
 70
0
 10
-5.9575988141
 20
18.8823846358
 10
-5.9569374532
 20
18.8845188555
 10
-5.9551809644
 20
18.8879404668
 10
-5.9525927982
 20
18.8911407964
 10
-5.9491834735
 20
18.894122643
 10
-5.9449964774
 20
18.8968479721
 10
-5.9400218481
 20
18.8993134978
 10
-5.9342695474
 20
18.901522506
 10
-5.9278129479
 20
18.9034468201
 10
-5.9206765072
 20
18.9050770477
 10
-5.9128357677
 20
18.9064225812
 10
-5.9042907294
 20
18.9074834206
  0
LWPOLYLINE
  5
2BA
100
AcDbEntity
  8
RACCORDO
100
AcDbPolyline
 62
7
  6
CONTINUOUS
 90
12
 70
0
 10
-5.5977932348
 20
19.9801451398
 10
-5.5984545957
 20
19.9780109202
 10
-5.6002110845
 20
19.9745893089
 10
-5.6027992507
 20
19.9713889793
 10
-5.6062085754
 20
19.9684071327
 10
-5.6103955715
 20
19.9656818035
 10
-5.6153702008
 20
19.9632162779
 10
-5.6211225015
 20
19.9610072697
 10
-5.627579101
 20
19.9590829556
 10
-5.6347155417
 20
19.9574527279
 10
-5.6425562812
 20
19.9561071944
 10
-5.6511013195
 20
19.9550463551
  0
LINE
  5
2BB
100
AcDbEntity
  8
C_CORPO
100
AcDbLine
 62
250
  6
CONTINUOUS
 10
-4.3173545654
 20
15.7676119885
 11
-4.1788588135
 21
16.0011958782
  0
LWPOLYLINE
  5
2BC
100
AcDbEntity
  8
C_COPERCHIO
100
AcDbPolyline
 62
250
  6
CONTINUOUS
 90
112
 70
0
 10
-0.6412470269
 20
14.0935226451
 10
-0.6549453201
 20
14.0859253693
 10
-0.6682112161
 20
14.0781516635
 10
-0.681044715
 20
14.0702015278
 10
-0.6934555209
 20
14.0620682868
 10
-0.7054339296
 20
14.0537586159
 10
-0.7169508287
 20
14.045292541
 10
-0.7280048439
 20
14.0366698386
 10
-0.7385973496
 20
14.0278907323
 10
-0.7487033553
 20
14.0189759188
 10
-0.7583216643
 20
14.0099251137
 10
-0.7674534735
 20
14.0007386014
 10
-0.7760773828
 20
13.9914379322
 10
-0.7841922006
 20
13.9820228452
 10
-0.7917991185
 20
13.9724936013
 10
-0.7988803114
 20
13.9628725329
 10
-0.8054345611
 20
13.9531593985
 10
-0.8114630859
 20
13.9433544396
 10
-0.8169517153
 20
13.9334807136
 10
-0.8218991685
 20
13.9235380744
 10
-0.8263067264
 20
13.9135266681
 10
-0.8301640617
 20
13.9034699898
 10
-0.8334698826
 20
13.8933679315
 10
-0.8362254809
 20
13.8832206012
 10
-0.8384244047
 20
13.873051819
 10
-0.8400653468
 20
13.8628615434
 10
-0.8411496144
 20
13.852649816
 10
-0.8416746772
 20
13.8424405807
 10
-0.8416392216
 20
13.8322338279
 10
-0.8410445612
 20
13.8220295673
 10
-0.839892106
 20
13.8118517724
 10
-0.8381805476
 20
13.8017005213
 10
-0.8359111944
 20
13.7915757359
 10
-0.8330893811
 20
13.7815011546
 10
-0.8297138062
 20
13.771476882
 10
-0.8257857712
 20
13.7615028135
 10
-0.8213145151
 20
13.7516023742
 10
-0.8162987707
 20
13.7417757526
 10
-0.8107398052
 20
13.7320227603
 10
-0.8046506599
 20
13.7223662564
 10
-0.7980300795
 20
13.7128064516
 10
-0.7908793191
 20
13.7033431352
 10
-0.7832151857
 20
13.6939985348
 10
-0.7750364883
 20
13.6847729455
 10
-0.7663444178
 20
13.6756660723
 10
-0.7571593539
 20
13.6666992572
 10
-0.7474801227
 20
13.6578728133
 10
-0.7373078981
 20
13.6491864277
 10
-0.7266665815
 20
13.6406605033
 10
-0.7155550925
 20
13.6322954326
 10
-0.7039745116
 20
13.6240908232
 10
-0.6919519813
 20
13.6160659005
 10
-0.6794864419
 20
13.6082210716
 10
-0.6665789532
 20
13.6005559295
 10
-0.6532598366
 20
13.5930884784
 10
-0.6395281514
 20
13.585819196
 10
-0.6253848383
 20
13.5787476046
 10
-0.6108630407
 20
13.5718902754
 10
-0.5959618429
 20
13.5652476987
 10
-0.5806821606
 20
13.5588193842
 10
-0.5650598838
 20
13.5526204325
 10
-0.5490942375
 20
13.5466513932
 10
-0.5327859968
 20
13.5409117168
 10
-0.5161733768
 20
13.5354148557
 10
-0.4992556323
 20
13.5301613699
 10
-0.4820335085
 20
13.5251506994
 10
-0.4645474555
 20
13.5203946169
 10
-0.4467968841
 20
13.5158937279
 10
-0.4287823834
 20
13.511647427
 10
-0.4105461708
 20
13.5076656701
 10
-0.3920876935
 20
13.5039490713
 10
-0.3734075042
 20
13.5004970167
 10
-0.3545494786
 20
13.4973176198
 10
-0.3355132302
 20
13.4944115258
 10
-0.3162991454
 20
13.4917780896
 10
-0.2969522597
 20
13.4894234897
 10
-0.2774722309
 20
13.4873483771
 10
-0.2578594013
 20
13.4855521007
 10
-0.2381598325
 20
13.4840388863
 10
-0.2183733466
 20
13.4828094003
 10
-0.1985001215
 20
13.4818629762
 10
-0.1785867529
 20
13.4812018403
 10
-0.1586331153
 20
13.480826662
 10
-0.1386393341
 20
13.4807367718
 10
-0.118652381
 20
13.4809323875
 10
-0.0986723015
 20
13.4814141796
 10
-0.07869905
 20
13.4821814775
 10
-0.0587794612
 20
13.4832324884
 10
-0.0389136445
 20
13.4845678784
 10
-0.0191014904
 20
13.4861869813
 10
0.0006104948
 20
13.488086005
 10
0.0202220723
 20
13.4902656064
 10
0.039733481
 20
13.4927251286
 10
0.059098931
 20
13.495458808
 10
0.0783181098
 20
13.4984672954
 10
0.0973913299
 20
13.50174994
 10
0.116273739
 20
13.5052990259
 10
0.1349648398
 20
13.5091151704
 10
0.1534651295
 20
13.5131977562
 10
0.171731248
 20
13.5175372155
 10
0.1897626572
 20
13.5221341501
 10
0.207559895
 20
13.5269879581
 10
0.225081215
 20
13.5320872663
 10
0.2423260358
 20
13.5374326805
 10
0.2592949386
 20
13.5430235948
 10
0.2759479211
 20
13.5488468177
 10
0.2922846522
 20
13.5549031125
 10
0.3083054629
 20
13.5611917159
 10
0.3239713445
 20
13.5676971473
 10
0.3392692941
 20
13.5744142464
 10
0.3542123147
 20
13.5813481735
 10
0.3688004061
 20
13.5884989286
  0
LWPOLYLINE
  5
2BD
100
AcDbEntity
  8
C_COPERCHIO
100
AcDbPolyline
 62
250
  6
CONTINUOUS
 90
40
 70
0
 10
-3.3736699041
 20
10.4037960648
 10
-3.3806988174
 20
10.3999599328
 10
-3.3877134172
 20
10.3957885464
 10
-3.394702577
 20
10.3912882719
 10
-3.4016557573
 20
10.3864656025
 10
-3.4085613339
 20
10.3813283058
 10
-3.4154066597
 20
10.3758856632
 10
-3.4221803082
 20
10.3701468043
 10
-3.4288721128
 20
10.3641203875
 10
-3.4354715224
 20
10.3578159097
 10
-3.4419681114
 20
10.3512433161
 10
-3.4483515236
 20
10.344413069
 10
-3.4546115576
 20
10.3373360797
 10
-3.4607382535
 20
10.3300236129
 10
-3.4667219244
 20
10.3224872355
 10
-3.4725530983
 20
10.3147388774
 10
-3.4782225319
 20
10.3067908185
 10
-3.4837212228
 20
10.2986556764
 10
-3.4890404441
 20
10.2903463608
 10
-3.4941717562
 20
10.2818760543
 10
-3.4991070196
 20
10.2732581918
 10
-3.5038384048
 20
10.2645064438
 10
-3.508358406
 20
10.2556346923
 10
-3.5126598516
 20
10.2466570119
 10
-3.5167359163
 20
10.2375876467
 10
-3.5205801334
 20
10.2284409844
 10
-3.5241864041
 20
10.2192315345
 10
-3.5275490066
 20
10.2099739081
 10
-3.5306626063
 20
10.2006827912
 10
-3.5335222633
 20
10.1913729229
 10
-3.5361234403
 20
10.1820590746
 10
-3.5384620106
 20
10.1727560219
 10
-3.5405342642
 20
10.1634785225
 10
-3.5423369134
 20
10.1542412949
 10
-3.5438670988
 20
10.1450589907
 10
-3.5451223923
 20
10.1359461787
 10
-3.5461008017
 20
10.1269173232
 10
-3.5468007754
 20
10.1179867497
 10
-3.5472212038
 20
10.1091686226
 10
-3.5473614206
 20
10.1004769305
  0
LINE
  5
2BE
100
AcDbEntity
  8
C_COPERCHIO
100
AcDbLine
 62
7
  6
CONTINUOUS
 10
-18.571168644
 20
3.9761773295
 11
-19.2263319009
 21
3.641593194
  0
LINE
  5
2BF
100
AcDbEntity
  8
C_COPERCHIO
100
AcDbLine
 62
250
  6
CONTINUOUS
 10
0.3688004061
 20
13.5884989286
 11
1.8454771024
 21
14.3325308045
  0
LINE
  5
2C0
100
AcDbEntity
  8
C_COPERCHIO
100
AcDbLine
 62
250
  6
CONTINUOUS
 10
0.5455501774
 20
13.2836506669
 11
2.0222268737
 21
14.0276825428
  0
LINE
  5
2C1
100
AcDbEntity
  8
C_COPERCHIO
100
AcDbLine
 62
250
  6
CONTINUOUS
 10
-3.3736699041
 20
10.4037960648
 11
-0.0939979039
 21
12.0562772861
  0
LINE
  5
2C2
100
AcDbEntity
  8
C_COPERCHIO
100
AcDbLine
 62
250
  6
CONTINUOUS
 10
-3.1969201327
 20
10.0989478031
 11
0.5455501774
 21
11.9846125613
  0
LINE
  5
2C3
100
AcDbEntity
  8
C_CORPO
100
AcDbLine
 62
7
  6
CONTINUOUS
 10
12.0631431666
 20
17.6929251056
 11
8.1947088155
 21
15.7587079301
  0
LINE
  5
2C4
100
AcDbEntity
  8
C_CORPO
100
AcDbLine
 62
7
  6
CONTINUOUS
 10
8.9001008713
 20
15.6783912561
 11
12.0631431666
 21
17.2599124037
  0
LINE
  5
2C5
100
AcDbEntity
  8
C_CORPO
100
AcDbLine
 62
250
  6
CONTINUOUS
 10
1.8808270567
 20
14.3148558274
 11
7.4510658549
 21
17.0777353356
  0
LINE
  5
2C6
100
AcDbEntity
  8
C_CORPO
100
AcDbLine
 62
250
  6
CONTINUOUS
 10
2.0222268737
 20
14.070977218
 11
7.592465672
 21
16.8338567263
  0
LINE
  5
2C7
100
AcDbEntity
  8
C_COPERCHIO
100
AcDbLine
 62
7
  6
CONTINUOUS
 10
-18.571168644
 20
4.6164484234
 11
-19.2263319009
 21
4.2958693021
  0
LINE
  5
2C8
100
AcDbEntity
  8
C_CORPO
100
AcDbLine
 62
7
  6
CONTINUOUS
 10
8.9001008713
 20
15.7008619085
 11
8.1947088155
 21
15.3557052425
  0
LWPOLYLINE
  5
2C9
100
AcDbEntity
  8
C_CORPO
100
AcDbPolyline
 62
250
  6
CONTINUOUS
 90
58
 70
0
 10
7.592465672
 20
16.8338567263
 10
7.6076197109
 20
16.8411146982
 10
7.6227340563
 20
16.8478403073
 10
7.6378087083
 20
16.8540335536
 10
7.6528551597
 20
16.8596984287
 10
7.6678619177
 20
16.864830941
 10
7.6827945032
 20
16.8694191163
 10
7.6976524332
 20
16.8734615729
 10
7.7124361908
 20
16.8769596924
 10
7.7271127466
 20
16.8799056458
 10
7.7416818189
 20
16.8822981826
 10
7.7561436894
 20
16.8841385533
 10
7.7704661746
 20
16.8854226804
 10
7.7846489439
 20
16.8861493291
 10
7.798692328
 20
16.886319734
 10
7.8125651348
 20
16.885933522
 10
7.8262670228
 20
16.884989451
 10
7.8397983336
 20
16.8834887631
 10
7.8531288998
 20
16.8814348106
 10
7.8662582512
 20
16.8788263613
 10
7.8791868581
 20
16.8756646474
 10
7.8918859638
 20
16.8719567181
 10
7.9043550645
 20
16.8677013537
 10
7.916594664
 20
16.862899774
 10
7.9285775172
 20
16.8575626866
 10
7.9403030379
 20
16.8516889075
 10
7.9517718124
 20
16.8452796208
 10
7.9629583548
 20
16.8383490868
 10
7.9738620568
 20
16.8308961302
 10
7.9844835267
 20
16.8229219261
 10
7.9947991028
 20
16.814444261
 10
8.0048080824
 20
16.8054620312
 10
8.0145111681
 20
16.7959763404
 10
8.0238868064
 20
16.7860082852
 10
8.0329342804
 20
16.7755567809
 10
8.0416543071
 20
16.7646229123
 10
8.0500274828
 20
16.7532310307
 10
8.0580530293
 20
16.741380125
 10
8.0657317249
 20
16.7290712063
 10
8.0730465011
 20
16.7163316599
 10
8.0799965565
 20
16.7031605053
 10
8.0865826924
 20
16.689558723
 10
8.092790244
 20
16.6755566394
 10
8.0986183518
 20
16.6611534047
 10
8.1040678754
 20
16.6463498686
 10
8.1091267279
 20
16.6311789073
 10
8.1137940519
 20
16.6156396853
 10
8.118070705
 20
16.599733038
 10
8.121947173
 20
16.5834943488
 10
8.1254225662
 20
16.5669228257
 10
8.1284977745
 20
16.5500192606
 10
8.1311659526
 20
16.5328214121
 10
8.1334261866
 20
16.5153281874
 10
8.1352793904
 20
16.4975406792
 10
8.1367214615
 20
16.4794999251
 10
8.1377510323
 20
16.4612196042
 10
8.1383694703
 20
16.4426860373
 10
8.1385767755
 20
16.4238992244
  0
LWPOLYLINE
  5
2CA
100
AcDbEntity
  8
C_CORPO
100
AcDbPolyline
 62
250
  6
CONTINUOUS
 90
26
 70
0
 10
7.4510658549
 20
17.0777353356
 10
7.4700580977
 20
17.0867673242
 10
7.4890273922
 20
17.0951445459
 10
7.5079594512
 20
17.1028608997
 10
7.5268397176
 20
17.109910838
 10
7.5456542722
 20
17.1162891902
 10
7.5643898404
 20
17.1219911305
 10
7.5830324653
 20
17.127012549
 10
7.6015679461
 20
17.1313497546
 10
7.6199827459
 20
17.1349992912
 10
7.6382629496
 20
17.1379585421
 10
7.6563948368
 20
17.1402254259
 10
7.6743653183
 20
17.1417980749
 10
7.6921608399
 20
17.1426754197
 10
7.7097680216
 20
17.1428569149
 10
7.7271742316
 20
17.1423422446
 10
7.7443664144
 20
17.1411318734
 10
7.7613315646
 20
17.1392267931
 10
7.7780573675
 20
17.1366282514
 10
7.7945312099
 20
17.1333382758
 10
7.8107407064
 20
17.1293594037
 10
7.8266741719
 20
17.1246944245
 10
7.8423196277
 20
17.1193468841
 10
7.8576652735
 20
17.1133208497
 10
7.8727000186
 20
17.1066206506
 10
7.8798175002
 20
17.1031592783
  0
LINE
  5
2CB
100
AcDbEntity
  8
C_CORPO
100
AcDbLine
 62
7
  6
CONTINUOUS
 10
11.4037750316
 20
18.3370464836
 11
8.139684916
 21
16.8066512302
  0
LWPOLYLINE
  5
2CC
100
AcDbEntity
  8
C_COPERCHIO
100
AcDbPolyline
 62
250
  6
CONTINUOUS
 90
40
 70
0
 10
-3.1969201327
 20
10.0989478031
 10
-3.2042116928
 20
10.0955646698
 10
-3.211768517
 20
10.0923284821
 10
-3.219578823
 20
10.0892444753
 10
-3.2276310724
 20
10.0863174197
 10
-3.2359120443
 20
10.0835523291
 10
-3.2444066766
 20
10.0809543195
 10
-3.2531007534
 20
10.0785277094
 10
-3.2619811889
 20
10.0762761225
 10
-3.2710339854
 20
10.0742031111
 10
-3.2802448533
 20
10.0723119561
 10
-3.2895991217
 20
10.0706056781
 10
-3.2990818452
 20
10.0690870058
 10
-3.3086779321
 20
10.0677583534
 10
-3.3183722059
 20
10.0666218194
 10
-3.328149321
 20
10.065679203
 10
-3.3379937809
 20
10.0649319994
 10
-3.3478899563
 20
10.0643813962
 10
-3.3578221425
 20
10.064028268
 10
-3.3677745814
 20
10.0638731753
 10
-3.3777314872
 20
10.0639163648
 10
-3.3876770649
 20
10.0641577684
 10
-3.397595538
 20
10.0645970039
 10
-3.4074711712
 20
10.0652333748
 10
-3.4172882951
 20
10.0660658721
 10
-3.4270313356
 20
10.0670931753
 10
-3.4366848369
 20
10.0683136551
 10
-3.4462334829
 20
10.0697253757
 10
-3.4556621261
 20
10.0713260976
 10
-3.4649558086
 20
10.0731132818
 10
-3.4740997849
 20
10.0750840929
 10
-3.4830795486
 20
10.0772354045
 10
-3.4918808547
 20
10.079563804
 10
-3.5004897401
 20
10.0820655975
 10
-3.50889255
 20
10.0847368171
 10
-3.5170759519
 20
10.0875732245
 10
-3.525026957
 20
10.0905703176
 10
-3.5327329504
 20
10.0937233406
 10
-3.5401817102
 20
10.0970272921
 10
-3.5473614206
 20
10.1004769305
  0
LWPOLYLINE
  5
2CD
100
AcDbEntity
  8
C_CORPO
100
AcDbPolyline
 62
7
  6
CONTINUOUS
 90
92
 70
0
 10
8.9001008713
 20
15.6783912561
 10
8.9513243684
 20
15.6953599994
 10
9.0032306661
 20
15.7117487153
 10
9.0558197644
 20
15.7275574039
 10
9.1091195702
 20
15.7427936009
 10
9.1631021766
 20
15.7574497705
 10
9.2176838634
 20
15.7715033057
 10
9.2728603019
 20
15.7849521335
 10
9.3286358207
 20
15.7977983269
 10
9.3849396859
 20
15.8100254983
 10
9.4417802711
 20
15.8216342759
 10
9.4991492026
 20
15.8326240316
 10
9.556950625
 20
15.842976493
 10
9.6151753252
 20
15.8526891102
 10
9.6738325164
 20
15.8617644331
 10
9.732853983
 20
15.870191839
 10
9.7922520661
 20
15.8779719526
 10
9.8520144247
 20
15.8851041492
 10
9.9120358203
 20
15.891575931
 10
9.9723031177
 20
15.8973850136
 10
10.0328294521
 20
15.9025336813
 10
10.0935489903
 20
15.9070162899
 10
10.1544768899
 20
15.910832858
 10
10.2155979934
 20
15.913983367
 10
10.276800995
 20
15.9164621156
 10
10.3380701113
 20
15.9182676048
 10
10.3994211256
 20
15.9194013337
 10
10.4607900822
 20
15.9198620986
 10
10.522193563
 20
15.9196489473
 10
10.5836149859
 20
15.9187628321
 10
10.6449406496
 20
15.9172054051
 10
10.7061535827
 20
15.914976224
 10
10.7672707565
 20
15.9120757312
 10
10.8282293828
 20
15.9085069066
 10
10.889045963
 20
15.9042677191
 10
10.9497039958
 20
15.8993601997
 10
11.0100911886
 20
15.8937934212
 10
11.0701908978
 20
15.8875680084
 10
11.1300197672
 20
15.8806833365
 10
11.1895154348
 20
15.8731466041
 10
11.2486928374
 20
15.8649548544
 10
11.3075370384
 20
15.8561110441
 10
11.3659408659
 20
15.8466312428
 10
11.423889441
 20
15.8365168946
 10
11.4813976427
 20
15.8257665554
 10
11.5384029358
 20
15.8143919618
 10
11.5949173604
 20
15.8023896349
 10
11.6509288764
 20
15.7897630537
 10
11.7063388286
 20
15.7765343919
 10
11.7611353325
 20
15.7627054241
 10
11.8153302727
 20
15.7482743757
 10
11.8688606475
 20
15.7332580972
 10
11.9217345452
 20
15.7176532178
 10
11.9739438776
 20
15.7014631082
 10
12.0254013774
 20
15.6847147312
 10
12.0760990576
 20
15.6674094911
 10
12.1260449052
 20
15.6495459835
 10
12.1751756148
 20
15.6311469575
 10
12.2234946572
 20
15.6122099699
 10
12.2709985616
 20
15.592737464
 10
12.3176136095
 20
15.5727595182
 10
12.3633361831
 20
15.552276299
 10
12.4081699003
 20
15.53128764
 10
12.4520518962
 20
15.5098231203
 10
12.4949809356
 20
15.4878821223
 10
12.5369582537
 20
15.4654652637
 10
12.5779246921
 20
15.4426039769
 10
12.6178805836
 20
15.419296453
 10
12.6568255955
 20
15.3955445008
 10
12.6946995706
 20
15.3713849796
 10
12.7314976226
 20
15.3468196248
 10
12.7672246378
 20
15.321846701
 10
12.801835118
 20
15.2964978609
 10
12.8353318721
 20
15.270769111
 10
12.8677120912
 20
15.2446644448
 10
12.8989218499
 20
15.2182274959
 10
12.928954407
 20
15.1914623085
 10
12.9578165037
 20
15.1643648384
 10
12.9854744394
 20
15.1369665865
 10
13.011931763
 20
15.1092616104
 10
13.0371849254
 20
15.0812558524
 10
13.0611895792
 20
15.0529986401
 10
13.0839387664
 20
15.0244959935
 10
13.1054394449
 20
14.9957418927
 10
13.1256681412
 20
14.9667676051
 10
13.1446277439
 20
14.9375656914
 10
13.1623153644
 20
14.9081435909
 10
13.1786988639
 20
14.8785548896
 10
13.1937723286
 20
14.8488070558
 10
13.2075416724
 20
14.8188926211
 10
13.219992498
 20
14.7888427665
 10
13.2281035497
 20
14.7668460387
  0
LINE
  5
2CE
100
AcDbEntity
  8
C_COPERCHIO
100
AcDbLine
 62
250
  6
CONTINUOUS
 10
-18.3058929028
 20
-3.4667121796
 11
-20.4272132464
 21
-2.4060520078
  0
LINE
  5
2CF
100
AcDbEntity
  8
C_COPERCHIO
100
AcDbLine
 62
250
  6
CONTINUOUS
 10
-18.4213445537
 20
-2.7807136304
 11
-19.8615304885
 21
-2.060620663
  0
LINE
  5
2D0
100
AcDbEntity
  8
C_COPERCHIO
100
AcDbLine
 62
250
  6
CONTINUOUS
 10
-9.3233343347
 20
-7.2188739504
 11
-11.4446546783
 21
-6.1582137786
  0
LINE
  5
2D1
100
AcDbEntity
  8
C_COPERCHIO
100
AcDbLine
 62
7
  6
CONTINUOUS
 10
-19.2263319009
 20
-1.7430229067
 11
-18.4186117734
 21
-2.1468829705
  0
LINE
  5
2D2
100
AcDbEntity
  8
C_COPERCHIO
100
AcDbLine
 62
250
  6
CONTINUOUS
 10
-9.4379589717
 20
-6.5339845482
 11
-10.8789765211
 21
-5.8134757735
  0
LINE
  5
2D3
100
AcDbEntity
  8
RACCORDO
100
AcDbLine
 62
7
  6
CONTINUOUS
 10
-10.7297561188
 20
19.1185352675
 11
-10.6307256631
 21
17.6827027977
  0
LWPOLYLINE
  5
2D4
100
AcDbEntity
  8
C_CORPO
100
AcDbPolyline
 62
7
  6
CONTINUOUS
 90
34
 70
0
 10
-7.8540447582
 20
24.5177418483
 10
-7.8543789836
 20
24.5440782972
 10
-7.8553815861
 20
24.5701271399
 10
-7.8570525162
 20
24.5958736656
 10
-7.8593925935
 20
24.6213107506
 10
-7.8624014426
 20
24.6464155901
 10
-7.8660755354
 20
24.6711513683
 10
-7.8704155387
 20
24.6955165932
 10
-7.8754181445
 20
24.719485254
 10
-7.881067411
 20
24.7429879935
 10
-7.8873565375
 20
24.7660126682
 10
-7.8942793015
 20
24.7885496607
 10
-7.9018113433
 20
24.810538873
 10
-7.9099400496
 20
24.8319685892
 10
-7.9186552366
 20
24.8528344155
 10
-7.9279278325
 20
24.8730918357
 10
-7.9377371244
 20
24.8927249589
 10
-7.9480720861
 20
24.9117389577
 10
-7.9589131713
 20
24.9301228046
 10
-7.9702395364
 20
24.9478660077
 10
-7.9820368419
 20
24.9649696703
 10
-7.9942941755
 20
24.9814386878
 10
-8.006990248
 20
24.9972637438
 10
-8.0201096877
 20
25.0124443034
 10
-8.0336515824
 20
25.0269947205
 10
-8.0475961004
 20
25.0409068355
 10
-8.0619265179
 20
25.0541769073
 10
-8.0766490109
 20
25.0668207207
 10
-8.0917453324
 20
25.0788302693
 10
-8.1071977057
 20
25.0901991647
 10
-8.1230158
 20
25.1009399265
 10
-8.1391917577
 20
25.1110496968
 10
-8.1556982134
 20
25.1205141277
 10
-8.1725165876
 20
25.1293263268
  0
LWPOLYLINE
  5
2D5
100
AcDbEntity
  8
C_CORPO
100
AcDbPolyline
 62
250
  6
CONTINUOUS
 90
58
 70
0
 10
-7.9126234019
 20
24.4470311701
 10
-7.9128344319
 20
24.4658212888
 10
-7.9134639505
 20
24.4843617048
 10
-7.9145119577
 20
24.502652418
 10
-7.9159798468
 20
24.5207071037
 10
-7.9178662245
 20
24.5385120867
 10
-7.9201669106
 20
24.5560263415
 10
-7.9228828367
 20
24.5732488021
 10
-7.9260130712
 20
24.5901805344
 10
-7.9295506395
 20
24.606783711
 10
-7.9334964474
 20
24.6230575473
 10
-7.9378495891
 20
24.6390028279
 10
-7.9426003719
 20
24.6545840785
 10
-7.9477496693
 20
24.6698004699
 10
-7.9532966079
 20
24.6846528313
 10
-7.9592288748
 20
24.6991081773
 10
-7.9655473453
 20
24.7131656648
 10
-7.9722511441
 20
24.7268261368
 10
-7.9793253319
 20
24.7400591363
 10
-7.9867707244
 20
24.7528636879
 10
-7.994586506
 20
24.7652407671
 10
-8.0027552912
 20
24.7771628426
 10
-8.0112778733
 20
24.7886289101
 10
-8.0201534589
 20
24.7996399739
 10
-8.0293622822
 20
24.8101715165
 10
-8.038905072
 20
24.8202224566
 10
-8.0487810994
 20
24.8297938754
 10
-8.0589684128
 20
24.8388644983
 10
-8.069467725
 20
24.8474332259
 10
-8.0802783231
 20
24.8555011575
 10
-8.0913761166
 20
24.8630503167
 10
-8.1027617234
 20
24.8700795334
 10
-8.1144345256
 20
24.8765899777
 10
-8.1263685788
 20
24.8825671824
 10
-8.1385644791
 20
24.8880099689
 10
-8.1510216303
 20
24.8929195159
 10
-8.1637122995
 20
24.8972848918
 10
-8.1766369983
 20
24.9011048818
 10
-8.1897952149
 20
24.9043807008
 10
-8.2031576815
 20
24.9071050615
 10
-8.2167248755
 20
24.9092767368
 10
-8.2304963194
 20
24.9108969538
 10
-8.2444413119
 20
24.9119621074
 10
-8.2585601999
 20
24.9124709594
 10
-8.2728526364
 20
24.9124247479
 10
-8.2872868795
 20
24.911823583
 10
-8.3018632627
 20
24.9106662348
 10
-8.3165814525
 20
24.9089539331
 10
-8.3314087059
 20
24.906690477
 10
-8.3463453113
 20
24.9038746178
 10
-8.3613909803
 20
24.9005076042
 10
-8.3765121045
 20
24.8965969813
 10
-8.3917093305
 20
24.8921413008
 10
-8.4069820116
 20
24.8871420111
 10
-8.4222945994
 20
24.8816110019
 10
-8.4376352445
 20
24.8755522363
 10
-8.4530157964
 20
24.8689617513
 10
-8.4684362549
 20
24.8618395468
  0
LWPOLYLINE
  5
2D6
100
AcDbEntity
  8
C_COPERCHIO
100
AcDbPolyline
 62
7
  6
CONTINUOUS
 90
48
 70
0
 10
-9.4394623907
 20
-6.833881291
 10
-9.4393894871
 20
-6.8420820254
 10
-9.4391862902
 20
-6.8503160015
 10
-9.438852936
 20
-6.8585804018
 10
-9.4383892173
 20
-6.8668723905
 10
-9.4378015509
 20
-6.8751898493
 10
-9.4370901001
 20
-6.8835302024
 10
-9.4362547447
 20
-6.8918908226
 10
-9.4353013616
 20
-6.9002696947
 10
-9.4342301353
 20
-6.9086644548
 10
-9.4330410215
 20
-6.9170726571
 10
-9.4317394474
 20
-6.9254923098
 10
-9.4303256162
 20
-6.9339212351
 10
-9.4287995512
 20
-6.9423571458
 10
-9.4271663159
 20
-6.9507980041
 10
-9.4254261312
 20
-6.9592417981
 10
-9.4235790838
 20
-6.9676863788
 10
-9.4216299549
 20
-6.9761295982
 10
-9.4195789875
 20
-6.9845695845
 10
-9.4174263268
 20
-6.9930043197
 10
-9.4151765426
 20
-7.0014315142
 10
-9.412829909
 20
-7.0098494059
 10
-9.4103866239
 20
-7.0182561121
 10
-9.4078510922
 20
-7.0266492265
 10
-9.4052236083
 20
-7.0350271359
 10
-9.4025044353
 20
-7.0433880347
 10
-9.3996978976
 20
-7.0517292833
 10
-9.3968043266
 20
-7.0600493749
 10
-9.3938240438
 20
-7.0683466102
 10
-9.3907613454
 20
-7.0766181106
 10
-9.3876166033
 20
-7.0848624816
 10
-9.3843902044
 20
-7.0930781173
 10
-9.3810864732
 20
-7.1012618699
 10
-9.3777058304
 20
-7.1094124557
 10
-9.3742487327
 20
-7.1175283623
 10
-9.3707195859
 20
-7.1256061494
 10
-9.3671188698
 20
-7.1336446439
 10
-9.3634471151
 20
-7.1416424314
 10
-9.3597088563
 20
-7.1495957678
 10
-9.355904643
 20
-7.1575035905
 10
-9.3520350845
 20
-7.165364593
 10
-9.3481048803
 20
-7.1731747334
 10
-9.3441146626
 20
-7.1809330604
 10
-9.340065122
 20
-7.1886383898
 10
-9.3359611432
 20
-7.196286412
 10
-9.3318048751
 20
-7.2038750714
 10
-9.3275956816
 20
-7.2114045463
 10
-9.3233343347
 20
-7.2188739504
  0
LWPOLYLINE
  5
2D7
100
AcDbEntity
  8
C_CORPO
100
AcDbPolyline
 62
250
  6
CONTINUOUS
 90
37
 70
0
 10
-8.4684362549
 20
24.8618395468
 10
-8.4684631978
 20
24.869514626
 10
-8.468759293
 20
24.877309697
 10
-8.4693239769
 20
24.8852099215
 10
-8.4701561746
 20
24.8932002609
 10
-8.4712543018
 20
24.9012655053
 10
-8.4726162684
 20
24.9093903019
 10
-8.4742394816
 20
24.9175591847
 10
-8.4761208517
 20
24.9257566038
 10
-8.4782567972
 20
24.933966955
 10
-8.4806432524
 20
24.9421746093
 10
-8.4832756745
 20
24.9503639431
 10
-8.4861490525
 20
24.9585193675
 10
-8.4892579168
 20
24.9666253581
 10
-8.4925963494
 20
24.9746664847
 10
-8.4961579955
 20
24.9826274407
 10
-8.4999360753
 20
24.9904930718
 10
-8.503923397
 20
24.9982484055
 10
-8.5081123705
 20
25.0058786789
 10
-8.5124950218
 20
25.0133693674
 10
-8.5170630084
 20
25.0207062121
 10
-8.5218076348
 20
25.0278752469
 10
-8.5267198692
 20
25.0348628251
 10
-8.5317903612
 20
25.0416556454
 10
-8.5370094585
 20
25.0482407774
 10
-8.5423672265
 20
25.0546056858
 10
-8.5478534662
 20
25.0607382547
 10
-8.5534577344
 20
25.0666268104
 10
-8.5591693629
 20
25.0722601437
 10
-8.5649774794
 20
25.0776275312
 10
-8.5708710277
 20
25.0827187559
 10
-8.5768387893
 20
25.0875241262
 10
-8.582869404
 20
25.0920344949
 10
-8.5889513923
 20
25.0962412762
 10
-8.5950731769
 20
25.1001364622
 10
-8.6012231044
 20
25.1037126384
 10
-8.6073894682
 20
25.1069629972
  0
LINE
  5
2D8
100
AcDbEntity
  8
C_OTTURATORE
100
AcDbLine
 62
7
  6
CONTINUOUS
 10
-9.514148722
 20
-0.4572156258
 11
-9.514148722
 21
-1.5529720509
  0
LINE
  5
2D9
100
AcDbEntity
  8
C_OTTURATORE
100
AcDbLine
 62
7
  6
CONTINUOUS
 10
-9.514148722
 20
-2.2161644968
 11
-9.514148722
 21
-5.862992903
  0
LINE
  5
2DA
100
AcDbEntity
  8
C_CORPO
100
AcDbLine
 62
250
  6
CONTINUOUS
 10
-7.9126234019
 20
24.040465618
 11
-7.9126234019
 21
24.4470311701
  0
LINE
  5
2DB
100
AcDbEntity
  8
C_CORPO
100
AcDbLine
 62
7
  6
CONTINUOUS
 10
-7.8540447582
 20
24.0486866424
 11
-7.8540447582
 21
24.5177418483
  0
LWPOLYLINE
  5
2DC
100
AcDbEntity
  8
C_COPERCHIO
100
AcDbPolyline
 62
7
  6
CONTINUOUS
 90
9
 70
0
 10
-9.4394623907
 20
-6.833881291
 10
-9.4369040043
 20
-6.3244712661
 10
-9.4320639816
 20
-5.5707754075
 10
-9.4259717794
 20
-4.8164685507
 10
-9.4186274275
 20
-4.0615538267
 10
-9.4100309607
 20
-3.306034385
 10
-9.4001824195
 20
-2.5499133938
 10
-9.3890818495
 20
-1.793194008
 10
-9.3767293012
 20
-1.0358793685
  0
LINE
  5
2DD
100
AcDbEntity
  8
C_COPERCHIO
100
AcDbLine
 62
7
  6
CONTINUOUS
 10
-9.3767293012
 20
-1.0358793685
 11
-9.3677406955
 21
-0.5274884612
  0
LWPOLYLINE
  5
2DE
100
AcDbEntity
  8
C_COPERCHIO
100
AcDbPolyline
 62
250
  6
CONTINUOUS
 90
10
 70
0
 10
-9.2459618589
 20
-0.4188259283
 10
-9.2595673689
 20
-1.1767905192
 10
-9.2719208387
 20
-1.9341615407
 10
-9.2830222168
 20
-2.6909358367
 10
-9.292871457
 20
-3.4471102537
 10
-9.3014685182
 20
-4.2026816406
 10
-9.3088133646
 20
-4.9576468485
 10
-9.3149059655
 20
-5.7120027313
 10
-9.3197462956
 20
-6.4657461456
 10
-9.3233343347
 20
-7.2188739504
  0
LWPOLYLINE
  5
2DF
100
AcDbEntity
  8
C_COPERCHIO
100
AcDbPolyline
 62
7
  6
CONTINUOUS
 90
32
 70
0
 10
-9.3677417296
 20
-0.5274878563
 10
-9.3677118293
 20
-0.5269657245
 10
-9.3675499037
 20
-0.5259488511
 10
-9.3672554521
 20
-0.5248556253
 10
-9.3668286717
 20
-0.523688779
 10
-9.3662694153
 20
-0.522451283
 10
-9.3655841822
 20
-0.5211419628
 10
-9.3647731939
 20
-0.5197633868
 10
-9.363836387
 20
-0.5183183415
 10
-9.3627797142
 20
-0.5168056839
 10
-9.3616034149
 20
-0.5152278379
 10
-9.3603074993
 20
-0.5135874282
 10
-9.3588974659
 20
-0.5118833602
 10
-9.3573735696
 20
-0.5101179314
 10
-9.3557358867
 20
-0.5082936255
 10
-9.3539895494
 20
-0.5064094142
 10
-9.352134828
 20
-0.5044674852
 10
-9.3501718604
 20
-0.5024702012
 10
-9.3481054964
 20
-0.5004166199
 10
-9.3459360265
 20
-0.4983088367
 10
-9.343663646
 20
-0.4961491094
 10
-9.3412929944
 20
-0.4939365965
 10
-9.3388243923
 20
-0.4916733187
 10
-9.3362580863
 20
-0.4893614406
 10
-9.3335985528
 20
-0.4870002224
 10
-9.3308461308
 20
-0.4845916058
 10
-9.328001132
 20
-0.4821376875
 10
-9.325067957
 20
-0.4796378718
 10
-9.3220469812
 20
-0.477094042
 10
-9.3189385741
 20
-0.4745082298
 10
-9.3157471138
 20
-0.4718799988
 10
-9.3124730158
 20
-0.4692111779
  0
LWPOLYLINE
  5
2E0
100
AcDbEntity
  8
C_OTTURATORE
100
AcDbPolyline
 62
7
  6
CONTINUOUS
 90
23
 70
0
 10
-9.829712121
 20
-0.2994339264
 10
-9.8450852652
 20
-0.3771368825
 10
-9.8629565403
 20
-0.4866685354
 10
-9.8770511275
 20
-0.5965494222
 10
-9.8872793581
 20
-0.7065437476
 10
-9.8935530648
 20
-0.8163819284
 10
-9.8957915747
 20
-0.9257776233
 10
-9.8939231888
 20
-1.0344748518
 10
-9.8878787356
 20
-1.1422621072
 10
-9.8776030472
 20
-1.2488000918
 10
-9.8630751759
 20
-1.3536602821
 10
-9.8442734627
 20
-1.4566017183
 10
-9.8211909924
 20
-1.5573516066
 10
-9.7938855244
 20
-1.6554698122
 10
-9.762407403
 20
-1.7506818628
 10
-9.7267877036
 20
-1.8428136361
 10
-9.6870996838
 20
-1.9316063559
 10
-9.64341136
 20
-2.0168563014
 10
-9.595803197
 20
-2.0983620498
 10
-9.5443988081
 20
-2.1758839821
 10
-9.4892992788
 20
-2.2492536048
 10
-9.4306380827
 20
-2.3182826231
 10
-9.3972929531
 20
-2.3529401498
  0
LINE
  5
2E1
100
AcDbEntity
  8
RACCORDO
100
AcDbLine
 62
250
  6
CONTINUOUS
 10
-3.9540450447
 20
19.1065182177
 11
-4.0414482496
 21
18.7333609738
  0
LINE
  5
2E2
100
AcDbEntity
  8
RACCORDO
100
AcDbLine
 62
250
  6
CONTINUOUS
 10
-3.6781239861
 20
19.0495340773
 11
-3.765527191
 21
18.6763768334
  0
LINE
  5
2E3
100
AcDbEntity
  8
C_COPERCHIO
100
AcDbLine
 62
7
  6
CONTINUOUS
 10
-20.4138790531
 20
-2.3964572139
 11
-20.4272132464
 21
-2.4060520078
  0
LWPOLYLINE
  5
2E4
100
AcDbEntity
  8
C_COPERCHIO
100
AcDbPolyline
 62
250
  6
CONTINUOUS
 90
52
 70
0
 10
-5.5957591974
 20
5.2921686112
 10
-5.6144834244
 20
5.2787462087
 10
-5.63310576
 20
5.2647725112
 10
-5.6516131975
 20
5.2502575164
 10
-5.6699928601
 20
5.2352117849
 10
-5.6882318645
 20
5.2196458965
 10
-5.7063173207
 20
5.20357041
 10
-5.7242367586
 20
5.1869966136
 10
-5.7419774846
 20
5.1699364651
 10
-5.759526444
 20
5.152402041
 10
-5.7768713201
 20
5.1344058897
 10
-5.7940000568
 20
5.1159607839
 10
-5.8109002101
 20
5.0970796394
 10
-5.8275599354
 20
5.0777759402
 10
-5.8439676386
 20
5.0580633948
 10
-5.8601115006
 20
5.0379556961
 10
-5.8759802881
 20
5.0174670735
 10
-5.8915628656
 20
4.9966121713
 10
-5.9068478483
 20
4.9754057056
 10
-5.9218245271
 20
4.9538627916
 10
-5.9364824769
 20
4.9319987169
 10
-5.9508110656
 20
4.9098288147
 10
-5.9648002886
 20
4.8873688199
 10
-5.9784403727
 20
4.8646347185
 10
-5.9917213911
 20
4.8416425263
 10
-6.0046340334
 20
4.8184086256
 10
-6.0171693238
 20
4.7949494777
 10
-6.0293182204
 20
4.7712814691
 10
-6.0410722503
 20
4.7474213501
 10
-6.0524231881
 20
4.7233861161
 10
-6.0633627733
 20
4.6991927201
 10
-6.0738833462
 20
4.6748583514
 10
-6.0839775819
 20
4.6504002651
 10
-6.0936381628
 20
4.6258356598
 10
-6.1028583454
 20
4.601181918
 10
-6.1116316866
 20
4.5764565764
 10
-6.119951786
 20
4.5516771576
 10
-6.1278128007
 20
4.5268613149
 10
-6.1352092892
 20
4.5020265685
 10
-6.1421359307
 20
4.4771902763
 10
-6.1485878857
 20
4.4523699912
 10
-6.154560646
 20
4.4275833624
 10
-6.1600498765
 20
4.4028478722
 10
-6.1650517439
 20
4.3781809661
 10
-6.1695627489
 20
4.3536002083
 10
-6.1735795816
 20
4.3291231806
 10
-6.1770994045
 20
4.3047674446
 10
-6.1801198263
 20
4.2805500209
 10
-6.1826387115
 20
4.2564875535
 10
-6.1846542692
 20
4.2325969202
 10
-6.1861650861
 20
4.2088952115
 10
-6.1871700912
 20
4.1853992136
  0
LINE
  5
2E5
100
AcDbEntity
  8
C_COPERCHIO
100
AcDbLine
 62
7
  6
CONTINUOUS
 10
-20.399802802
 20
-2.3864643662
 11
-20.4138790531
 21
-2.3964572139
  0
LINE
  5
2E6
100
AcDbEntity
  8
C_COPERCHIO
100
AcDbLine
 62
7
  6
CONTINUOUS
 10
-20.3850042011
 20
-2.3760920858
 11
-20.399802802
 21
-2.3864643662
  0
LINE
  5
2E7
100
AcDbEntity
  8
C_COPERCHIO
100
AcDbLine
 62
250
  6
CONTINUOUS
 10
-3.1901865641
 20
6.9642703679
 11
-5.5957591974
 21
5.2921686112
  0
LINE
  5
2E8
100
AcDbEntity
  8
C_COPERCHIO
100
AcDbLine
 62
7
  6
CONTINUOUS
 10
-20.369504563
 20
-2.3653596078
 11
-20.3850042011
 21
-2.3760920858
  0
LINE
  5
2E9
100
AcDbEntity
  8
C_COPERCHIO
100
AcDbLine
 62
7
  6
CONTINUOUS
 10
-20.3533262434
 20
-2.3542864727
 11
-20.369504563
 21
-2.3653596078
  0
LINE
  5
2EA
100
AcDbEntity
  8
C_COPERCHIO
100
AcDbLine
 62
7
  6
CONTINUOUS
 10
-20.3364922274
 20
-2.3428923265
 11
-20.3533262434
 21
-2.3542864727
  0
LINE
  5
2EB
100
AcDbEntity
  8
C_COPERCHIO
100
AcDbLine
 62
7
  6
CONTINUOUS
 10
-20.3190258537
 20
-2.3311968152
 11
-20.3364922274
 21
-2.3428923265
  0
LINE
  5
2EC
100
AcDbEntity
  8
C_COPERCHIO
100
AcDbLine
 62
7
  6
CONTINUOUS
 10
-20.300950656
 20
-2.3192195569
 11
-20.3190258537
 21
-2.3311968152
  0
LINE
  5
2ED
100
AcDbEntity
  8
C_COPERCHIO
100
AcDbLine
 62
7
  6
CONTINUOUS
 10
-20.2822902979
 20
-2.3069801719
 11
-20.300950656
 21
-2.3192195569
  0
LINE
  5
2EE
100
AcDbEntity
  8
C_COPERCHIO
100
AcDbLine
 62
7
  6
CONTINUOUS
 10
-20.2630683893
 20
-2.2944982344
 11
-20.2822902979
 21
-2.3069801719
  0
LINE
  5
2EF
100
AcDbEntity
  8
C_COPERCHIO
100
AcDbLine
 62
7
  6
CONTINUOUS
 10
-20.2433091172
 20
-2.2817937513
 11
-20.2630683893
 21
-2.2944982344
  0
LINE
  5
2F0
100
AcDbEntity
  8
C_COPERCHIO
100
AcDbLine
 62
7
  6
CONTINUOUS
 10
-20.2230369761
 20
-2.2688870479
 11
-20.2433091172
 21
-2.2817937513
  0
LINE
  5
2F1
100
AcDbEntity
  8
C_COPERCHIO
100
AcDbLine
 62
7
  6
CONTINUOUS
 10
-20.2022769064
 20
-2.2557989265
 11
-20.2230369761
 21
-2.2688870479
  0
LINE
  5
2F2
100
AcDbEntity
  8
C_COPERCHIO
100
AcDbLine
 62
7
  6
CONTINUOUS
 10
-20.1810547223
 20
-2.2425510088
 11
-20.2022769064
 21
-2.2557989265
  0
LINE
  5
2F3
100
AcDbEntity
  8
C_COPERCHIO
100
AcDbLine
 62
7
  6
CONTINUOUS
 10
-20.1593976527
 20
-2.229166146
 11
-20.1810547223
 21
-2.2425510088
  0
LINE
  5
2F4
100
AcDbEntity
  8
C_COPERCHIO
100
AcDbLine
 62
7
  6
CONTINUOUS
 10
-20.1373350387
 20
-2.2156689231
 11
-20.1593976527
 21
-2.229166146
  0
LINE
  5
2F5
100
AcDbEntity
  8
C_COPERCHIO
100
AcDbLine
 62
7
  6
CONTINUOUS
 10
-20.1148991864
 20
-2.2020862549
 11
-20.1373350387
 21
-2.2156689231
  0
LINE
  5
2F6
100
AcDbEntity
  8
C_COPERCHIO
100
AcDbLine
 62
7
  6
CONTINUOUS
 10
-20.0921264639
 20
-2.1884481265
 11
-20.1148991864
 21
-2.2020862549
  0
LINE
  5
2F7
100
AcDbEntity
  8
C_COPERCHIO
100
AcDbLine
 62
7
  6
CONTINUOUS
 10
-20.0690586958
 20
-2.1747885034
 11
-20.0921264639
 21
-2.1884481265
  0
LINE
  5
2F8
100
AcDbEntity
  8
C_COPERCHIO
100
AcDbLine
 62
7
  6
CONTINUOUS
 10
-20.0457453107
 20
-2.161146671
 11
-20.0690586958
 21
-2.1747885034
  0
LINE
  5
2F9
100
AcDbEntity
  8
C_COPERCHIO
100
AcDbLine
 62
7
  6
CONTINUOUS
 10
-20.0222468794
 20
-2.1475693364
 11
-20.0457453107
 21
-2.161146671
  0
LINE
  5
2FA
100
AcDbEntity
  8
C_COPERCHIO
100
AcDbLine
 62
7
  6
CONTINUOUS
 10
-19.9986375448
 20
-2.1341120028
 11
-20.0222468794
 21
-2.1475693364
  0
LINE
  5
2FB
100
AcDbEntity
  8
C_COPERCHIO
100
AcDbLine
 62
7
  6
CONTINUOUS
 10
-19.9828796551
 20
-2.1252404249
 11
-19.9986375448
 21
-2.1341120028
  0
LINE
  5
2FC
100
AcDbEntity
  8
C_COPERCHIO
100
AcDbLine
 62
7
  6
CONTINUOUS
 10
-19.9671487742
 20
-2.1164716499
 11
-19.9828796551
 21
-2.1252404249
  0
LINE
  5
2FD
100
AcDbEntity
  8
C_COPERCHIO
100
AcDbLine
 62
7
  6
CONTINUOUS
 10
-19.9514760773
 20
-2.1078371466
 11
-19.9671487742
 21
-2.1164716499
  0
LINE
  5
2FE
100
AcDbEntity
  8
C_COPERCHIO
100
AcDbLine
 62
7
  6
CONTINUOUS
 10
-19.9359064419
 20
-2.0993627757
 11
-19.9514760773
 21
-2.1078371466
  0
LINE
  5
2FF
100
AcDbEntity
  8
C_COPERCHIO
100
AcDbLine
 62
7
  6
CONTINUOUS
 10
-19.9204939488
 20
-2.0910785177
 11
-19.9359064419
 21
-2.0993627757
  0
LINE
  5
300
100
AcDbEntity
  8
C_COPERCHIO
100
AcDbLine
 62
7
  6
CONTINUOUS
 10
-19.9052843099
 20
-2.0830245596
 11
-19.9204939488
 21
-2.0910785177
  0
LINE
  5
301
100
AcDbEntity
  8
C_CONTATTI
100
AcDbLine
 62
7
  6
CONTINUOUS
 10
8.3932589722
 20
14.5599081452
 11
8.8882337191
 21
14.8073955187
  0
LINE
  5
302
100
AcDbEntity
  8
C_CONTATTI
100
AcDbLine
 62
7
  6
CONTINUOUS
 10
11.3017362927
 20
14.8898470234
 11
10.1794232147
 21
14.3286904844
  0
LINE
  5
303
100
AcDbEntity
  8
C_CONTATTI
100
AcDbLine
 62
7
  6
CONTINUOUS
 10
9.3506690408
 20
13.9143133974
 11
9.0899587252
 21
13.7839582396
  0
LINE
  5
304
100
AcDbEntity
  8
C_CONTATTI
100
AcDbLine
 62
7
  6
CONTINUOUS
 10
12.0088671501
 20
14.5363056709
 11
10.8865299959
 21
13.9751370938
  0
LINE
  5
305
100
AcDbEntity
  8
C_CORPO
100
AcDbLine
 62
7
  6
CONTINUOUS
 10
15.9168325319
 20
16.0805177334
 11
12.0608300631
 21
14.1965341368
  0
LINE
  5
306
100
AcDbEntity
  8
C_COPERCHIO
100
AcDbLine
 62
7
  6
CONTINUOUS
 10
-3.013918758
 20
7.3091491667
 11
-3.1969201327
 21
7.22078798
  0
LWPOLYLINE
  5
307
100
AcDbEntity
  8
C_COPERCHIO
100
AcDbPolyline
 62
7
  6
CONTINUOUS
 90
40
 70
0
 10
-3.1969201327
 20
7.22078798
 10
-3.204236731
 20
7.2173944752
 10
-3.2117942234
 20
7.2141582912
 10
-3.21959261
 20
7.211079428
 10
-3.2276466918
 20
7.2081530135
 10
-3.2359416678
 20
7.2053839199
 10
-3.2444331351
 20
7.2027867631
 10
-3.2531176338
 20
7.2003634981
 10
-3.2619986238
 20
7.19811217
 10
-3.2710420818
 20
7.1960415308
 10
-3.2802550789
 20
7.1941511756
 10
-3.2896305439
 20
7.1924415092
 10
-3.2991132408
 20
7.1909224984
 10
-3.3086957798
 20
7.1895961498
 10
-3.3183855507
 20
7.1884604567
 10
-3.3281494854
 20
7.1875193658
 10
-3.3379970301
 20
7.1867730662
 10
-3.3479187387
 20
7.1862213688
 10
-3.3578532052
 20
7.1858676519
 10
-3.3677907692
 20
7.1857130889
 10
-3.3777410911
 20
7.1857565065
 10
-3.3876717466
 20
7.1859977632
 10
-3.3975923536
 20
7.1864381163
 10
-3.4074932942
 20
7.1870763086
 10
-3.4173132896
 20
7.1879084261
 10
-3.4270428886
 20
7.1889345758
 10
-3.4366915425
 20
7.1901546508
 10
-3.4462263261
 20
7.1915644166
 10
-3.4556545579
 20
7.193165944
 10
-3.4649689195
 20
7.1949571622
 10
-3.4741145309
 20
7.196927624
 10
-3.4830843362
 20
7.1990768629
 10
-3.4918853914
 20
7.2014053454
 10
-3.5004839838
 20
7.2039040241
 10
-3.5088835045
 20
7.2065748835
 10
-3.5170805625
 20
7.2094159391
 10
-3.5250312716
 20
7.2124121894
 10
-3.5327210034
 20
7.215558634
 10
-3.5401643864
 20
7.2188602733
 10
-3.5473614206
 20
7.2223171074
  0
LWPOLYLINE
  5
308
100
AcDbEntity
  8
C_CONTATTI
100
AcDbPolyline
 62
7
  6
CONTINUOUS
 90
11
 70
0
 10
12.0083061766
 20
14.5360251841
 10
12.020309792
 20
14.5414472511
 10
12.0321320054
 20
14.545605529
 10
12.0437728167
 20
14.5485000178
 10
12.0553512932
 20
14.550134338
 10
12.0667483676
 20
14.5505048691
 10
12.077606838
 20
14.5496007494
 10
12.0878499915
 20
14.5473896373
 10
12.0975545409
 20
14.5439038744
 10
12.1065934237
 20
14.5392296237
 10
12.1138960842
 20
14.5342082572
  0
LINE
  5
309
100
AcDbEntity
  8
C_OTTURATORE
100
AcDbLine
 62
7
  6
CONTINUOUS
 10
-9.4341891478
 20
-5.901709596
 11
-9.444439623
 21
-5.8978474525
  0
LINE
  5
30A
100
AcDbEntity
  8
C_COPERCHIO
100
AcDbLine
 62
7
  6
CONTINUOUS
 10
-10.2460757798
 20
-5.497029374
 11
-9.4341972331
 21
-5.9029686474
  0
LWPOLYLINE
  5
30B
100
AcDbEntity
  8
C_OTTURATORE
100
AcDbPolyline
 62
7
  6
CONTINUOUS
 90
18
 70
0
 10
-9.3900378039
 20
-1.8583608582
 10
-9.4044532237
 20
-1.8318658174
 10
-9.4389547009
 20
-1.7593847026
 10
-9.47020134
 20
-1.6838988069
 10
-9.4981319083
 20
-1.6056414064
 10
-9.5227222082
 20
-1.5247791779
 10
-9.5439287259
 20
-1.4415740874
 10
-9.5617358009
 20
-1.3562435428
 10
-9.5761560138
 20
-1.2688746439
 10
-9.5871727223
 20
-1.179715424
 10
-9.5947834182
 20
-1.089010948
 10
-9.5990028184
 20
-0.9968208726
 10
-9.5998308008
 20
-0.9033154068
 10
-9.5972748902
 20
-0.8088234108
 10
-9.5913621123
 20
-0.7136323851
 10
-9.5821316568
 20
-0.6179973269
 10
-9.5696354243
 20
-0.5221869798
 10
-9.5555827271
 20
-0.4364986233
  0
LWPOLYLINE
  5
30C
100
AcDbEntity
  8
C_COPERCHIO
100
AcDbPolyline
 62
250
  6
CONTINUOUS
 90
52
 70
0
 10
-5.8368663964
 20
-24.8456064118
 10
-5.8361080587
 20
-24.8625102485
 10
-5.8349707073
 20
-24.8791776755
 10
-5.8334543423
 20
-24.895608693
 10
-5.8315573511
 20
-24.9118149533
 10
-5.8292813462
 20
-24.927784804
 10
-5.8266311656
 20
-24.9434832883
 10
-5.8236060154
 20
-24.9589095179
 10
-5.8202066893
 20
-24.9740643811
 10
-5.8164404067
 20
-24.9889155863
 10
-5.8123063917
 20
-25.0034624384
 10
-5.80780542
 20
-25.0177056325
 10
-5.8029470387
 20
-25.0316149625
 10
-5.7977305046
 20
-25.0451896959
 10
-5.7921565609
 20
-25.0584305652
 10
-5.7862369835
 20
-25.0713095617
 10
-5.7799710189
 20
-25.083825963
 10
-5.7733594206
 20
-25.0959804917
 10
-5.7664162247
 20
-25.1077473068
 10
-5.7591407357
 20
-25.1191255658
 10
-5.7515336491
 20
-25.1301161113
 10
-5.7436110881
 20
-25.1406956309
 10
-5.7353723745
 20
-25.1508632603
 10
-5.7268181865
 20
-25.1606198638
 10
-5.7179666825
 20
-25.1699447213
 10
-5.7088172529
 20
-25.1788368981
 10
-5.6993705072
 20
-25.1872973289
 10
-5.6896464328
 20
-25.1953080985
 10
-5.6796444212
 20
-25.2028682715
 10
-5.6693650809
 20
-25.2099787833
 10
-5.6588302249
 20
-25.2166245245
 10
-5.6480393185
 20
-25.2228045022
 10
-5.6369928963
 20
-25.2285197093
 10
-5.6257143752
 20
-25.2337580154
 10
-5.6142032409
 20
-25.2385184129
 10
-5.6024600077
 20
-25.2428019093
 10
-5.5905096351
 20
-25.246599396
 10
-5.5783517242
 20
-25.2499098298
 10
-5.565986674
 20
-25.252734254
 10
-5.5534406411
 20
-25.2550666894
 10
-5.5407132192
 20
-25.2569061022
 10
-5.5278048147
 20
-25.2582535262
 10
-5.5147428036
 20
-25.2591060831
 10
-5.5015268141
 20
-25.2594627102
 10
-5.488157218
 20
-25.2593244701
 10
-5.474662507
 20
-25.2586916727
 10
-5.4610420363
 20
-25.2575631544
 10
-5.4472964507
 20
-25.2559400787
 10
-5.433456177
 20
-25.2538262463
 10
-5.4195313574
 20
-25.2512229241
 10
-5.4055118496
 20
-25.2481288452
 10
-5.3913976538
 20
-25.2445440096
  0
LWPOLYLINE
  5
30D
100
AcDbEntity
  8
C_COPERCHIO
100
AcDbPolyline
 62
250
  6
CONTINUOUS
 90
33
 70
0
 10
-6.1871700912
 20
-24.8525490609
 10
-6.1861650831
 20
-24.8750661385
 10
-6.1846542623
 20
-24.8972961024
 10
-6.1826387003
 20
-24.9192232374
 10
-6.1801198121
 20
-24.9408319175
 10
-6.1770993892
 20
-24.962107006
 10
-6.1735795655
 20
-24.9830338437
 10
-6.1695627317
 20
-25.003597832
 10
-6.1650517257
 20
-25.0237842158
 10
-6.1600498569
 20
-25.0435784786
 10
-6.1545606234
 20
-25.0629665843
 10
-6.1485878589
 20
-25.0819348911
 10
-6.1421359004
 20
-25.1004699189
 10
-6.1352092573
 20
-25.1185585495
 10
-6.1278127684
 20
-25.1361880471
 10
-6.1199517534
 20
-25.1533459733
 10
-6.1116316536
 20
-25.170020276
 10
-6.1028583118
 20
-25.186199118
 10
-6.0936381284
 20
-25.2018708966
 10
-6.083977546
 20
-25.2170245418
 10
-6.0738833081
 20
-25.2316493907
 10
-6.0633627328
 20
-25.2457350087
 10
-6.0524231444
 20
-25.259271489
 10
-6.0410722029
 20
-25.2722492785
 10
-6.0293181697
 20
-25.2846590607
 10
-6.0171692708
 20
-25.2964920865
 10
-6.0046339786
 20
-25.3077400577
 10
-5.9917213352
 20
-25.3183949443
 10
-5.9784403168
 20
-25.3284492815
 10
-5.9648002335
 20
-25.3378959768
 10
-5.950811011
 20
-25.3467281938
 10
-5.9364824221
 20
-25.354939738
 10
-5.9244678215
 20
-25.3612154815
  0
LINE
  5
30E
100
AcDbEntity
  8
C_COPERCHIO
100
AcDbLine
 62
7
  6
CONTINUOUS
 10
-6.8166078911
 20
21.9403055505
 11
-6.8166078911
 21
22.4196164445
  0
LINE
  5
30F
100
AcDbEntity
  8
C_COPERCHIO
100
AcDbLine
 62
7
  6
CONTINUOUS
 10
-5.2426639576
 20
21.6326444778
 11
-5.2426639576
 21
21.1777174871
  0
LWPOLYLINE
  5
310
100
AcDbEntity
  8
C_COPERCHIO
100
AcDbPolyline
 62
250
  6
CONTINUOUS
 90
18
 70
0
 10
-6.0587283847
 20
-6.6794196382
 10
-6.0665598355
 20
-7.7582912941
 10
-6.0717808251
 20
-8.8359162769
 10
-6.0743912865
 20
-9.9122945541
 10
-6.0743912867
 20
-10.9874261582
 10
-6.0717808255
 20
-12.0612835422
 10
-6.0665598362
 20
-13.1338666741
 10
-6.0587283855
 20
-14.205175586
 10
-6.0482866742
 20
-15.275182827
 10
-6.0352346352
 20
-16.343888365
 10
-6.0195723354
 20
-17.4112922322
 10
-6.0013001761
 20
-18.4773670746
 10
-5.9804180902
 20
-19.5421128664
 10
-5.9569261447
 20
-20.6055296335
 10
-5.9308249423
 20
-21.6675900992
 10
-5.9021146839
 20
-22.7282851714
 10
-5.8707951686
 20
-23.7876239423
 10
-5.8368663964
 20
-24.8456064118
  0
LWPOLYLINE
  5
311
100
AcDbEntity
  8
C_COPERCHIO
100
AcDbPolyline
 62
250
  6
CONTINUOUS
 90
21
 70
0
 10
-6.3699818045
 20
-3.429835705
 10
-6.3856530764
 20
-4.5129955231
 10
-6.3987126727
 20
-5.5949448184
 10
-6.4091604826
 20
-6.6756743468
 10
-6.4169964196
 20
-7.7551748758
 10
-6.4222204144
 20
-8.8334371891
 10
-6.4248324223
 20
-9.9104520751
 10
-6.4248324223
 20
-10.9862103332
 10
-6.4222204144
 20
-12.0607027796
 10
-6.4169964196
 20
-13.1339202365
 10
-6.4091604826
 20
-14.2058535352
 10
-6.3987126727
 20
-15.2764935216
 10
-6.3856530764
 20
-16.3458310521
 10
-6.3699818045
 20
-17.413856991
 10
-6.3516989953
 20
-18.4805622131
 10
-6.3308048012
 20
-19.5459376073
 10
-6.3072993986
 20
-20.6099740741
 10
-6.2811829952
 20
-21.6726625234
 10
-6.2524558134
 20
-22.7339938783
 10
-6.2211180911
 20
-23.793959075
 10
-6.1871700912
 20
-24.8525490609
  0
LWPOLYLINE
  5
312
100
AcDbEntity
  8
C_COPERCHIO
100
AcDbPolyline
 62
250
  6
CONTINUOUS
 90
5
 70
0
 10
-6.2811829952
 20
0.9147236052
 10
-6.3072993986
 20
-0.1731856834
 10
-6.3308048012
 20
-1.2599215154
 10
-6.3516989953
 20
-2.3454746138
 10
-6.3699818045
 20
-3.429835705
  0
LWPOLYLINE
  5
313
100
AcDbEntity
  8
C_COPERCHIO
100
AcDbPolyline
 62
250
  6
CONTINUOUS
 90
9
 70
0
 10
-5.9021146818
 20
1.9949300183
 10
-5.9308249397
 20
0.906509795
 10
-5.9569261421
 20
-0.1807563013
 10
-5.9804180879
 20
-1.2668589803
 10
-6.0013001743
 20
-2.3517703721
 10
-6.0195723338
 20
-3.4354904337
 10
-6.0352346338
 20
-4.518019208
 10
-6.048286673
 20
-5.5993289536
 10
-6.0587283847
 20
-6.6794196382
  0
LWPOLYLINE
  5
314
100
AcDbEntity
  8
C_COPERCHIO
100
AcDbPolyline
 62
250
  6
CONTINUOUS
 90
3
 70
0
 10
-6.2211180911
 20
3.0940253657
 10
-6.2524558134
 20
2.0037970576
 10
-6.2811829952
 20
0.9147236052
  0
LINE
  5
315
100
AcDbEntity
  8
C_COPERCHIO
100
AcDbLine
 62
250
  6
CONTINUOUS
 10
-5.8707951674
 20
3.0845136589
 11
-5.9021146818
 21
1.9949300183
  0
LINE
  5
316
100
AcDbEntity
  8
C_COPERCHIO
100
AcDbLine
 62
250
  6
CONTINUOUS
 10
-6.1871700912
 20
4.1853992136
 11
-6.2211180911
 21
3.0940253657
  0
LINE
  5
317
100
AcDbEntity
  8
C_COPERCHIO
100
AcDbLine
 62
250
  6
CONTINUOUS
 10
-5.8368663964
 20
4.1752607167
 11
-5.8707951674
 21
3.0845136589
  0
LINE
  5
318
100
AcDbEntity
  8
RACCORDO
100
AcDbLine
 62
7
  6
CONTINUOUS
 10
-5.5480745314
 20
15.1413772319
 11
-5.4490440757
 21
16.478179246
  0
LINE
  5
319
100
AcDbEntity
  8
RACCORDO
100
AcDbLine
 62
7
  6
CONTINUOUS
 10
-5.2652950634
 20
15.2819448572
 11
-5.1751115967
 21
16.4993222698
  0
LWPOLYLINE
  5
31A
100
AcDbEntity
  8
RACCORDO
100
AcDbPolyline
 62
7
  6
CONTINUOUS
 90
14
 70
0
 10
-5.4490440757
 20
16.478179246
 10
-5.4480002941
 20
16.488353512
 10
-5.4464376088
 20
16.4980905854
 10
-5.4443560197
 20
16.5073904663
 10
-5.441743642
 20
16.5162852559
 10
-5.4386123604
 20
16.5247428529
 10
-5.4349978299
 20
16.5326669539
 10
-5.4308945267
 20
16.5400514611
 10
-5.4263079745
 20
16.5469024722
 10
-5.4212903985
 20
16.5531419775
 10
-5.4158368723
 20
16.5587629874
 10
-5.4099523223
 20
16.5637724914
 10
-5.4037037538
 20
16.5681134482
 10
-5.3975940384
 20
16.5715320388
  0
LINE
  5
31B
100
AcDbEntity
  8
0
100
AcDbLine
 62
250
  6
CONTINUOUS
 10
-2.922664127
 20
16.8040931702
 11
-2.8352609221
 21
17.1772504141
  0
LINE
  5
31C
100
AcDbEntity
  8
RACCORDO
100
AcDbLine
 62
250
  6
CONTINUOUS
 10
-1.6275143206
 20
18.0242292446
 11
-1.6479455801
 21
17.9370004924
  0
LWPOLYLINE
  5
31D
100
AcDbEntity
  8
RACCORDO
100
AcDbPolyline
 62
7
  6
CONTINUOUS
 90
12
 70
0
 10
-1.5672845821
 20
17.9648908134
 10
-1.567945943
 20
17.9627565938
 10
-1.5697024318
 20
17.9593349825
 10
-1.572290598
 20
17.9561346529
 10
-1.5756999227
 20
17.9531528063
 10
-1.5798869188
 20
17.9504274772
 10
-1.5848615481
 20
17.9479619515
 10
-1.5906138488
 20
17.9457529433
 10
-1.5970704482
 20
17.9438286292
 10
-1.604206889
 20
17.9421984016
 10
-1.6120476285
 20
17.9408528681
 10
-1.6205926668
 20
17.9397920287
  0
LWPOLYLINE
  5
31E
100
AcDbEntity
  8
RACCORDO
100
AcDbPolyline
 62
7
  6
CONTINUOUS
 90
12
 70
0
 10
0.3002961994
 20
18.4354609705
 10
0.3009575603
 20
18.4375951901
 10
0.3027140491
 20
18.4410168014
 10
0.3053022153
 20
18.444217131
 10
0.30871154
 20
18.4471989776
 10
0.3128985361
 20
18.4499243067
 10
0.3178731654
 20
18.4523898324
 10
0.3236254661
 20
18.4545988406
 10
0.3300820656
 20
18.4565231547
 10
0.3372185063
 20
18.4581533823
 10
0.3450592458
 20
18.4594989158
 10
0.3536042841
 20
18.4605597552
  0
LWPOLYLINE
  5
31F
100
AcDbEntity
  8
C_CONTATTI
100
AcDbPolyline
 62
250
  6
CONTINUOUS
 90
34
 70
0
 10
8.1947088155
 20
14.5070836465
 10
8.2206764007
 20
14.5293901589
 10
8.2822389099
 20
14.5766320946
 10
8.348316509
 20
14.6221526938
 10
8.4189428533
 20
14.6659404937
 10
8.4940842876
 20
14.7080069572
 10
8.5731803101
 20
14.748032969
 10
8.6562757917
 20
14.7860078654
 10
8.7433258616
 20
14.82194231
 10
8.8336354056
 20
14.8555491792
 10
8.9272419004
 20
14.8868084598
 10
9.0241078693
 20
14.9157401649
 10
9.123425768
 20
14.9421172109
 10
9.2251536467
 20
14.9659082017
 10
9.3293334553
 20
14.9871445333
 10
9.4352834992
 20
15.0056933108
 10
9.5429601715
 20
15.021545986
 10
9.6524070791
 20
15.034711107
 10
9.7630733481
 20
15.0450814227
 10
9.8751593911
 20
15.0526502
 10
9.9884647954
 20
15.057424172
 10
10.1018374494
 20
15.0593162868
 10
10.2155222053
 20
15.0582380468
 10
10.3292742109
 20
15.0542779496
 10
10.4412067973
 20
15.0476144362
 10
10.5512778934
 20
15.0381206282
 10
10.6595295702
 20
15.025923404
 10
10.7642013723
 20
15.0115818397
 10
10.86514343
 20
14.9949775697
 10
10.9625056129
 20
14.9762289597
 10
11.0549770753
 20
14.9562501828
 10
11.1421208684
 20
14.9353459633
 10
11.2243739408
 20
14.9132115768
 10
11.3017362927
 20
14.8898470234
  0
LWPOLYLINE
  5
320
100
AcDbEntity
  8
C_COPERCHIO
100
AcDbPolyline
 62
7
  6
CONTINUOUS
 90
3
 70
0
 10
-9.3124730158
 20
-0.4692111779
 10
-9.3056826238
 20
-0.463757455
 10
-9.3021712073
 20
-0.4609740812
  0
LINE
  5
321
100
AcDbEntity
  8
C_COPERCHIO
100
AcDbLine
 62
7
  6
CONTINUOUS
 10
-9.3021712073
 20
-0.4609740812
 11
-9.2949224134
 21
-0.4553018583
  0
LINE
  5
322
100
AcDbEntity
  8
C_COPERCHIO
100
AcDbLine
 62
7
  6
CONTINUOUS
 10
-9.2949224134
 20
-0.4553018583
 11
-9.2873864932
 21
-0.4494959981
  0
LINE
  5
323
100
AcDbEntity
  8
C_COPERCHIO
100
AcDbLine
 62
7
  6
CONTINUOUS
 10
-9.2873864932
 20
-0.4494959981
 11
-9.2795802202
 21
-0.4435662157
  0
LINE
  5
324
100
AcDbEntity
  8
C_COPERCHIO
100
AcDbLine
 62
7
  6
CONTINUOUS
 10
-9.2795802202
 20
-0.4435662157
 11
-9.2715167979
 21
-0.4375238339
  0
LINE
  5
325
100
AcDbEntity
  8
C_COPERCHIO
100
AcDbLine
 62
7
  6
CONTINUOUS
 10
-9.2715167979
 20
-0.4375238339
 11
-9.2632140917
 21
-0.4313788683
  0
LINE
  5
326
100
AcDbEntity
  8
C_COPERCHIO
100
AcDbLine
 62
7
  6
CONTINUOUS
 10
-9.2632140917
 20
-0.4313788683
 11
-9.2546922345
 21
-0.4251420354
  0
LINE
  5
327
100
AcDbEntity
  8
C_COPERCHIO
100
AcDbLine
 62
7
  6
CONTINUOUS
 10
-9.2546922345
 20
-0.4251420354
 11
-9.2459618589
 21
-0.4188259283
  0
LWPOLYLINE
  5
328
100
AcDbEntity
  8
C_COPERCHIO
100
AcDbPolyline
 62
250
  6
CONTINUOUS
 90
52
 70
0
 10
-5.3913976538
 20
5.0043824787
 10
-5.4055133284
 20
4.9943362539
 10
-5.4195339473
 20
4.9838909665
 10
-5.4334595106
 20
4.9730466166
 10
-5.4473000392
 20
4.9617947623
 10
-5.4610455122
 20
4.9501438455
 10
-5.474665867
 20
4.9381191915
 10
-5.4881605795
 20
4.9257201741
 10
-5.5015301739
 20
4.9129474195
 10
-5.514746161
 20
4.8998281327
 10
-5.5278081712
 20
4.8863616091
 10
-5.5407165742
 20
4.8725485533
 10
-5.5534439896
 20
4.8584182838
 10
-5.5659900086
 20
4.8439701612
 10
-5.57835504
 20
4.8292048248
 10
-5.5905129291
 20
4.8141535116
 10
-5.6024632776
 20
4.7988155633
 10
-5.6142064838
 20
4.7831916382
 10
-5.6257175883
 20
4.7673149476
 10
-5.6369960784
 20
4.7511849782
 10
-5.6480424667
 20
4.7348022432
 10
-5.6588333326
 20
4.7182014936
 10
-5.6693681413
 20
4.7013822518
 10
-5.6796474275
 20
4.6843449953
 10
-5.6896493747
 20
4.6671259072
 10
-5.6993733725
 20
4.6497246426
 10
-5.7088200314
 20
4.6321415464
 10
-5.7179693662
 20
4.6144138368
 10
-5.726820766
 20
4.5965411706
 10
-5.7353748417
 20
4.578523891
 10
-5.7436134408
 20
4.560400245
 10
-5.7515358857
 20
4.5421700233
 10
-5.7591428539
 20
4.5238334353
 10
-5.7664182258
 20
4.5054293564
 10
-5.7733613071
 20
4.4869576132
 10
-5.779972792
 20
4.4684183791
 10
-5.7862386441
 20
4.4498510499
 10
-5.7921581101
 20
4.4312556299
 10
-5.7977319433
 20
4.4126321146
 10
-5.8029483677
 20
4.3940198874
 10
-5.80780664
 20
4.375418936
 10
-5.8123075035
 20
4.3568292725
 10
-5.8164414119
 20
4.3382903167
 10
-5.8202075888
 20
4.3198021202
 10
-5.8236068105
 20
4.3013646313
 10
-5.8266318596
 20
4.2830171153
 10
-5.8292819486
 20
4.2647592996
 10
-5.831557865
 20
4.2465914567
 10
-5.8334547536
 20
4.2285536687
 10
-5.8349709958
 20
4.2106592964
 10
-5.8361082101
 20
4.192894979
 10
-5.8368663964
 20
4.1752607167
  0
LINE
  5
329
100
AcDbEntity
  8
C_COPERCHIO
100
AcDbLine
 62
250
  6
CONTINUOUS
 10
-3.013918758
 20
6.6569564159
 11
-5.3913976538
 21
5.0043824787
  0
LINE
  5
32A
100
AcDbEntity
  8
C_OTTURATORE
100
AcDbLine
 62
7
  6
CONTINUOUS
 10
-18.571168644
 20
-1.5220884135
 11
-19.1044109875
 21
-1.8039833634
  0
LINE
  5
32B
100
AcDbEntity
  8
C_COPERCHIO
100
AcDbLine
 62
7
  6
CONTINUOUS
 10
-19.8903414533
 20
-2.0752360331
 11
-19.9052843099
 21
-2.0830245596
  0
LWPOLYLINE
  5
32C
100
AcDbEntity
  8
C_COPERCHIO
100
AcDbPolyline
 62
7
  6
CONTINUOUS
 90
4
 70
0
 10
-19.8615304885
 20
-2.060620663
 10
-19.8685865437
 20
-2.0641378633
 10
-19.875742143
 20
-2.0677511923
 10
-19.8903414533
 20
-2.0752360331
  0
LINE
  5
32D
100
AcDbEntity
  8
C_COPERCHIO
100
AcDbLine
 62
7
  6
CONTINUOUS
 10
-19.8615304885
 20
-2.060620663
 11
-19.2263319009
 21
-1.7430229067
  0
LINE
  5
32E
100
AcDbEntity
  8
C_CORPO
100
AcDbLine
 62
250
  6
CONTINUOUS
 10
8.1947088155
 20
10.8656861532
 11
17.3069841787
 21
15.38544191
  0
LINE
  5
32F
100
AcDbEntity
  8
C_CORPO
100
AcDbLine
 62
250
  6
CONTINUOUS
 10
8.1385767755
 20
10.0528093451
 11
17.6604837214
 21
14.7757453867
  0
LWPOLYLINE
  5
330
100
AcDbEntity
  8
C_COPERCHIO
100
AcDbPolyline
 62
250
  6
CONTINUOUS
 90
40
 70
0
 10
-5.8368663964
 20
4.1752607167
 10
-5.8441594245
 20
4.1722172655
 10
-5.8517163498
 20
4.1693212682
 10
-5.8595251855
 20
4.1665773184
 10
-5.8675735454
 20
4.1639897685
 10
-5.8758486633
 20
4.1615627229
 10
-5.8843374132
 20
4.1593000313
 10
-5.8930263303
 20
4.1572052827
 10
-5.9019016323
 20
4.1552817999
 10
-5.9109492413
 20
4.1535326339
 10
-5.9201548061
 20
4.1519605591
 10
-5.9295037248
 20
4.1505680692
 10
-5.9389811684
 20
4.149357373
 10
-5.9485721037
 20
4.1483303908
 10
-5.9582613176
 20
4.1474887516
 10
-5.9680334413
 20
4.1468337905
 10
-5.9778729743
 20
4.1463665462
 10
-5.9877643091
 20
4.1460877601
 10
-5.9976917562
 20
4.1459978742
 10
-6.0076395689
 20
4.1460970312
 10
-6.0175919679
 20
4.1463850737
 10
-6.0275331668
 20
4.146861545
 10
-6.037447397
 20
4.1475256891
 10
-6.0473189326
 20
4.1483764527
 10
-6.0571321155
 20
4.1494124862
 10
-6.06687138
 20
4.1506321463
 10
-6.0765212779
 20
4.1520334985
 10
-6.0860665025
 20
4.1536143198
 10
-6.0954919133
 20
4.1553721029
 10
-6.1047825598
 20
4.1573040595
 10
-6.1139237052
 20
4.1594071251
 10
-6.1229008499
 20
4.161677964
 10
-6.1316997545
 20
4.164112974
 10
-6.1403064621
 20
4.1667082929
 10
-6.148707321
 20
4.169459804
 10
-6.1568890057
 20
4.1723631428
 10
-6.1648385385
 20
4.175413704
 10
-6.1725433099
 20
4.178606649
 10
-6.1799910986
 20
4.181936913
 10
-6.1871700912
 20
4.1853992137
  0
LINE
  5
331
100
AcDbEntity
  8
C_OTTURATORE
100
AcDbLine
 62
7
  6
CONTINUOUS
 10
-9.4932915072
 20
-5.8734215104
 11
-9.434041035
 21
-5.8786452388
  0
LWPOLYLINE
  5
332
100
AcDbEntity
  8
C_COPERCHIO
100
AcDbPolyline
 62
250
  6
CONTINUOUS
 90
84
 70
0
 10
-1.088523511
 20
-27.443758274
 10
-1.0877209126
 20
-27.4570392959
 10
-1.0861637046
 20
-27.4703101436
 10
-1.0838531198
 20
-27.4835602597
 10
-1.0807909751
 20
-27.4967791192
 10
-1.0769796687
 20
-27.5099566909
 10
-1.0724221832
 20
-27.5230825452
 10
-1.0671220971
 20
-27.5361462308
 10
-1.061083578
 20
-27.5491377529
 10
-1.0543113749
 20
-27.5620468077
 10
-1.0468107916
 20
-27.574863169
 10
-1.0385876872
 20
-27.5875770623
 10
-1.029648489
 20
-27.6001784602
 10
-1.0200002138
 20
-27.6126573517
 10
-1.0096504449
 20
-27.6250041278
 10
-0.9986073155
 20
-27.6372090261
 10
-0.986879464
 20
-27.6492624082
 10
-0.9744760444
 20
-27.6611550263
 10
-0.9614067483
 20
-27.6728775336
 10
-0.9476818336
 20
-27.6844206436
 10
-0.9333120838
 20
-27.6957754078
 10
-0.9183087864
 20
-27.706932881
 10
-0.9026836714
 20
-27.7178842818
 10
-0.8864489277
 20
-27.7286211478
 10
-0.8696172376
 20
-27.7391350752
 10
-0.8522018122
 20
-27.7494177627
 10
-0.8342163327
 20
-27.7594611727
 10
-0.8156749235
 20
-27.7692574291
 10
-0.7965920759
 20
-27.7787988531
 10
-0.776982673
 20
-27.7880780032
 10
-0.7568620324
 20
-27.7970876536
 10
-0.7362459466
 20
-27.8058207222
 10
-0.7151506094
 20
-27.8142703089
 10
-0.6935925843
 20
-27.8224298277
 10
-0.671588718
 20
-27.830292918
 10
-0.649156172
 20
-27.8378533668
 10
-0.6263124702
 20
-27.8451053289
 10
-0.6030755419
 20
-27.8520431408
 10
-0.5794636379
 20
-27.8586612339
 10
-0.5554952939
 20
-27.864954498
 10
-0.5311892409
 20
-27.8709180686
 10
-0.5065644411
 20
-27.8765471353
 10
-0.4816401343
 20
-27.8818373975
 10
-0.4564358821
 20
-27.88678477
 10
-0.4309714816
 20
-27.8913851718
 10
-0.40526692
 20
-27.8956351119
 10
-0.379342287
 20
-27.8995313594
 10
-0.3532178148
 20
-27.9030706425
 10
-0.3269139221
 20
-27.9062503267
 10
-0.3004512503
 20
-27.9090680203
 10
-0.2738505767
 20
-27.9115212458
 10
-0.2471327725
 20
-27.9136082298
 10
-0.2203187281
 20
-27.9153274652
 10
-0.1934293881
 20
-27.9166773119
 10
-0.1664857715
 20
-27.9176568768
 10
-0.1395090238
 20
-27.9182655282
 10
-0.1125203434
 20
-27.9185024607
 10
-0.085540912
 20
-27.9183676686
 10
-0.0585918204
 20
-27.9178614144
 10
-0.0316941203
 20
-27.9169837389
 10
-0.0048688588
 20
-27.9157355176
 10
0.0218629284
 20
-27.9141178969
 10
0.0484802912
 20
-27.9121317637
 10
0.0749623726
 20
-27.9097788748
 10
0.1012884334
 20
-27.9070612546
 10
0.1274378581
 20
-27.9039806277
 10
0.1533902025
 20
-27.9005396111
 10
0.1791250931
 20
-27.8967410981
 10
0.2046222541
 20
-27.8925876605
 10
0.2298616464
 20
-27.888082787
 10
0.2548235683
 20
-27.8832302042
 10
0.2794885525
 20
-27.878033259
 10
0.3038372903
 20
-27.872496244
 10
0.327850691
 20
-27.8666237134
 10
0.3515099811
 20
-27.860419805
 10
0.3747967199
 20
-27.8538895795
 10
0.3976925601
 20
-27.8470383968
 10
0.420179317
 20
-27.8398712379
 10
0.4422391673
 20
-27.8323940336
 10
0.4638550646
 20
-27.8246128088
 10
0.4850104789
 20
-27.8165330442
 10
0.5056889496
 20
-27.8081610065
 10
0.5258741261
 20
-27.7995037626
 10
0.5455501774
 20
-27.7905683206
  0
LWPOLYLINE
  5
333
100
AcDbEntity
  8
C_COPERCHIO
100
AcDbPolyline
 62
250
  6
CONTINUOUS
 90
24
 70
0
 10
-3.5473614206
 20
-28.2183978979
 10
-3.5472212038
 20
-28.2269493732
 10
-3.5468007754
 20
-28.2353470719
 10
-3.5461008017
 20
-28.2435776717
 10
-3.5451223923
 20
-28.2516281178
 10
-3.5438670988
 20
-28.2594856362
 10
-3.5423369134
 20
-28.2671377551
 10
-3.5405342642
 20
-28.2745723334
 10
-3.5384620106
 20
-28.2817775792
 10
-3.5361234403
 20
-28.2887420617
 10
-3.5335222633
 20
-28.2954547331
 10
-3.5306626063
 20
-28.3019049442
 10
-3.5275490066
 20
-28.3080824616
 10
-3.5241864041
 20
-28.3139774854
 10
-3.5205801334
 20
-28.3195806646
 10
-3.5167359163
 20
-28.3248831099
 10
-3.5126598516
 20
-28.3298764103
 10
-3.508358406
 20
-28.3345526451
 10
-3.5038384048
 20
-28.3389043954
 10
-3.4991070196
 20
-28.3429247583
 10
-3.4941717562
 20
-28.3466073573
 10
-3.4890404441
 20
-28.3499463517
 10
-3.4837212228
 20
-28.352936446
 10
-3.4823881242
 20
-28.353616348
  0
LWPOLYLINE
  5
334
100
AcDbEntity
  8
C_CORPO
100
AcDbPolyline
 62
7
  6
CONTINUOUS
 90
6
 70
0
 10
-3.210363307
 20
16.6363859135
 10
-3.2104781651
 20
16.643415582
 10
-3.2108218689
 20
16.6505498731
 10
-3.2113941399
 20
16.6577771996
 10
-3.2121946281
 20
16.665087217
 10
-3.213100169
 20
16.6715910393
  0
LWPOLYLINE
  5
335
100
AcDbEntity
  8
C_COPERCHIO
100
AcDbPolyline
 62
250
  6
CONTINUOUS
 90
200
 70
0
 10
-4.7477881243
 20
14.1295491605
 10
-4.7477478666
 20
14.1250913796
 10
-4.7476477711
 20
14.12064612
 10
-4.7474878731
 20
14.1162136412
 10
-4.7472682121
 20
14.1117942034
 10
-4.7469888306
 20
14.1073880155
 10
-4.7466497766
 20
14.1029953358
 10
-4.7462511021
 20
14.098616424
 10
-4.7457928618
 20
14.0942514899
 10
-4.7452751161
 20
14.0899007913
 10
-4.7446979298
 20
14.0855645864
 10
-4.7440613697
 20
14.0812430855
 10
-4.7433655092
 20
14.0769365486
 10
-4.7426104255
 20
14.0726452293
 10
-4.7417961949
 20
14.0683693277
 10
-4.7409229041
 20
14.0641091049
 10
-4.7399906414
 20
14.0598648107
 10
-4.7389994901
 20
14.0556366276
 10
-4.7379495453
 20
14.0514248036
 10
-4.7368409093
 20
14.0472295989
 10
-4.7356736799
 20
14.0430512144
 10
-4.7344479654
 20
14.0388899015
 10
-4.7331638789
 20
14.0347459139
 10
-4.7318215305
 20
14.0306194556
 10
-4.7304210403
 20
14.0265107757
 10
-4.7289625337
 20
14.0224201268
 10
-4.7274461339
 20
14.0183477174
 10
-4.7258719733
 20
14.0142937956
 10
-4.7242401893
 20
14.0102586113
 10
-4.7225509177
 20
14.0062423744
 10
-4.7208043034
 20
14.002245332
 10
-4.7190004959
 20
13.998267731
 10
-4.7171396421
 20
13.9943097802
 10
-4.7152219015
 20
13.9903717287
 10
-4.7132474334
 20
13.9864538171
 10
-4.7112163895
 20
13.9825562398
 10
-4.7091289398
 20
13.9786792422
 10
-4.7069852556
 20
13.9748230642
 10
-4.7047854941
 20
13.9709878916
 10
-4.7025298332
 20
13.9671739621
 10
-4.700218458
 20
13.9633815188
 10
-4.6978515398
 20
13.9596107545
 10
-4.6954292679
 20
13.9558619053
 10
-4.6929518384
 20
13.9521352111
 10
-4.6904194363
 20
13.9484308693
 10
-4.6878322613
 20
13.9447491126
 10
-4.6851905217
 20
13.9410901793
 10
-4.682494419
 20
13.937454274
 10
-4.6797441664
 20
13.9338416292
 10
-4.6769399819
 20
13.9302524778
 10
-4.6740820791
 20
13.9266870242
 10
-4.6711706837
 20
13.923145499
 10
-4.6682060241
 20
13.919628131
 10
-4.6651883234
 20
13.9161351209
 10
-4.6621178208
 20
13.9126666988
 10
-4.6589947534
 20
13.9092230879
 10
-4.6558193454
 20
13.9058044767
 10
-4.652591845
 20
13.9024110904
 10
-4.6493125015
 20
13.8990431511
 10
-4.645981544
 20
13.8957008417
 10
-4.6425992307
 20
13.8923843838
 10
-4.6391658215
 20
13.8890939969
 10
-4.6356815515
 20
13.8858298601
 10
-4.6321466836
 20
13.882592187
 10
-4.6285614927
 20
13.8793811989
 10
-4.6249262352
 20
13.8761970846
 10
-4.6212411856
 20
13.8730400558
 10
-4.617506628
 20
13.869910329
 10
-4.613722838
 20
13.8668080988
 10
-4.6098901035
 20
13.8637335759
 10
-4.6060087164
 20
13.8606869705
 10
-4.6020789626
 20
13.8576684751
 10
-4.5981011421
 20
13.8546782976
 10
-4.5940755555
 20
13.8517166433
 10
-4.5900024945
 20
13.848783699
 10
-4.58588227
 20
13.8458796693
 10
-4.5817151917
 20
13.8430047553
 10
-4.5775015541
 20
13.8401591366
 10
-4.573241678
 20
13.8373430141
 10
-4.5689358825
 20
13.8345565849
 10
-4.564584463
 20
13.8318000217
 10
-4.5601877522
 20
13.8290735229
 10
-4.5557460758
 20
13.8263772802
 10
-4.5512597218
 20
13.8237114554
 10
-4.5467290168
 20
13.8210762345
 10
-4.5421543096
 20
13.8184718143
 10
-4.5375359241
 20
13.8158983713
 10
-4.5328742033
 20
13.8133560916
 10
-4.5281694984
 20
13.8108451635
 10
-4.5234221498
 20
13.8083657646
 10
-4.5186325123
 20
13.8059180783
 10
-4.5138009439
 20
13.8035022868
 10
-4.5089277933
 20
13.8011185644
 10
-4.5040134258
 20
13.7987670905
 10
-4.4990582069
 20
13.7964480421
 10
-4.4940624901
 20
13.7941615887
 10
-4.4890266488
 20
13.7919079045
 10
-4.4839510578
 20
13.7896871624
 10
-4.4788360765
 20
13.7874995277
 10
-4.4736820914
 20
13.7853451719
 10
-4.4684894812
 20
13.7832242614
 10
-4.463258597
 20
13.7811369518
 10
-4.4579898359
 20
13.7790834111
 10
-4.4526835817
 20
13.7770638001
 10
-4.4473401674
 20
13.7750782633
 10
-4.441959975
 20
13.7731269558
 10
-4.4365434177
 20
13.7712100428
 10
-4.431090878
 20
13.7693276822
 10
-4.4256027589
 20
13.7674800292
 10
-4.4200794685
 20
13.765667239
 10
-4.4145214005
 20
13.7638894669
 10
-4.4089289666
 20
13.7621468638
 10
-4.4033025816
 20
13.7604395791
 10
-4.3976426464
 20
13.7587677646
 10
-4.3919495803
 20
13.7571315659
 10
-4.3862238056
 20
13.7555311273
 10
-4.3804657308
 20
13.753966597
 10
-4.3746757828
 20
13.7524381153
 10
-4.368854391
 20
13.7509458212
 10
-4.3630019703
 20
13.7494898589
 10
-4.3571189653
 20
13.7480703657
 10
-4.3512058018
 20
13.7466874728
 10
-4.3452628698
 20
13.7453413134
 10
-4.3392906163
 20
13.7440320185
 10
-4.3332894771
 20
13.7427597158
 10
-4.3272598269
 20
13.7415245316
 10
-4.321202094
 20
13.7403265873
 10
-4.3151167444
 20
13.7391660108
 10
-4.3090042108
 20
13.7380429361
 10
-4.3028649458
 20
13.7369574827
 10
-4.2966994038
 20
13.7359097691
 10
-4.2905080241
 20
13.734899925
 10
-4.2842912657
 20
13.7339280645
 10
-4.2780495888
 20
13.7329943003
 10
-4.271783436
 20
13.7320987572
 10
-4.2654932725
 20
13.7312415438
 10
-4.2591795639
 20
13.730422767
 10
-4.2528427567
 20
13.729642547
 10
-4.2464833211
 20
13.7289009866
 10
-4.2401017286
 20
13.7281981871
 10
-4.2336984294
 20
13.727534264
 10
-4.2272739114
 20
13.7269093155
 10
-4.220828639
 20
13.7263234357
 10
-4.2143630291
 20
13.7257767331
 10
-4.207877561
 20
13.7252692987
 10
-4.2013727169
 20
13.7248012231
 10
-4.1948489197
 20
13.7243726119
 10
-4.1883066425
 20
13.7239835504
 10
-4.1817463826
 20
13.7236341242
 10
-4.1751686004
 20
13.7233244372
 10
-4.1685737849
 20
13.7230545697
 10
-4.1619624266
 20
13.7228246004
 10
-4.1553349903
 20
13.7226346286
 10
-4.1486919683
 20
13.7224847286
 10
-4.1420338562
 20
13.7223749732
 10
-4.1353611251
 20
13.7223054569
 10
-4.1286742724
 20
13.722276248
 10
-4.1219737966
 20
13.7222874132
 10
-4.1152601726
 20
13.722339042
 10
-4.1085339028
 20
13.7224311966
 10
-4.1017954882
 20
13.7225639375
 10
-4.0950454023
 20
13.7227373494
 10
-4.0882841611
 20
13.722951488
 10
-4.081512259
 20
13.7232064079
 10
-4.0747301385
 20
13.7235021908
 10
-4.0679383043
 20
13.7238388869
 10
-4.0611372679
 20
13.7242165451
 10
-4.0543274839
 20
13.7246352426
 10
-4.0475094572
 20
13.7250950244
 10
-4.0406837047
 20
13.725595933
 10
-4.0338506999
 20
13.7261380404
 10
-4.0270109543
 20
13.7267213852
 10
-4.0201649835
 20
13.7273460039
 10
-4.0133132678
 20
13.7280119632
 10
-4.0064563207
 20
13.7287192957
 10
-3.9995946606
 20
13.7294680314
 10
-3.9927287756
 20
13.7302582314
 10
-3.9858591838
 20
13.7310899216
 10
-3.9789864032
 20
13.7319631259
 10
-3.972110923
 20
13.7328779001
 10
-3.9652332658
 20
13.7338342632
 10
-3.9583539488
 20
13.7348322333
 10
-3.9514734544
 20
13.7358718619
 10
-3.9445923103
 20
13.7369531611
 10
-3.9377110315
 20
13.7380761434
 10
-3.9308300822
 20
13.7392408585
 10
-3.9239499837
 20
13.7404473137
 10
-3.9170712599
 20
13.7416955143
 10
-3.9101943795
 20
13.742985505
 10
-3.9033198639
 20
13.7443172872
 10
-3.8964482392
 20
13.7456908597
 10
-3.8895799805
 20
13.7471062616
 10
-3.8827156081
 20
13.7485634885
 10
-3.8758556508
 20
13.7500625325
 10
-3.8690005975
 20
13.7516034245
 10
-3.8621509719
 20
13.7531861534
 10
-3.8553073003
 20
13.7548107053
 10
-3.8484700756
 20
13.7564771046
 10
-3.8416398238
 20
13.758185333
 10
-3.8348170692
 20
13.7599353708
  0
LWPOLYLINE
  5
336
100
AcDbEntity
  8
C_COPERCHIO
100
AcDbPolyline
 62
250
  6
CONTINUOUS
 90
71
 70
0
 10
-3.8348170692
 20
13.7599353708
 10
-3.8280023026
 20
13.761727237
 10
-3.8211960536
 20
13.7635609059
 10
-3.8143988426
 20
13.7654363522
 10
-3.8076111463
 20
13.7673535931
 10
-3.8008334918
 20
13.7693125972
 10
-3.7940664013
 20
13.7713133322
 10
-3.787310344
 20
13.7733558125
 10
-3.7805658315
 20
13.7754400051
 10
-3.7738334005
 20
13.7775658669
 10
-3.7671135573
 20
13.7797333947
 10
-3.7604067735
 20
13.7819425627
 10
-3.7537136239
 20
13.7841933075
 10
-3.7470347682
 20
13.7864855648
 10
-3.740370668
 20
13.7888193046
 10
-3.7337219031
 20
13.7911944503
 10
-3.7270893057
 20
13.7936108569
 10
-3.7204733884
 20
13.7960684652
 10
-3.7138746703
 20
13.7985672053
 10
-3.7072939869
 20
13.8011069056
 10
-3.7007318371
 20
13.8036874991
 10
-3.6941887418
 20
13.8063089015
 10
-3.6876655627
 20
13.8089709037
 10
-3.6811627724
 20
13.8116734355
 10
-3.6746809038
 20
13.8144163932
 10
-3.6682208986
 20
13.8171995026
 10
-3.6617832622
 20
13.8200226638
 10
-3.6553684761
 20
13.8228857776
 10
-3.6489774339
 20
13.8257885565
 10
-3.6426107794
 20
13.8287308181
 10
-3.6362688342
 20
13.8317125211
 10
-3.629952003
 20
13.8347335823
 10
-3.6236607731
 20
13.837793882
 10
-3.6173956126
 20
13.8408933071
 10
-3.6111568962
 20
13.8440317838
 10
-3.6049450662
 20
13.8472092078
 10
-3.5987606255
 20
13.8504254412
 10
-3.5926040379
 20
13.8536803575
 10
-3.5864757709
 20
13.8569738303
 10
-3.5803762884
 20
13.8603057315
 10
-3.5743060455
 20
13.8636759287
 10
-3.5682655058
 20
13.8670842877
 10
-3.5622551233
 20
13.8705306764
 10
-3.5562753346
 20
13.8740149618
 10
-3.550326595
 20
13.8775370052
 10
-3.5444093527
 20
13.8810966677
 10
-3.5385240304
 20
13.8846938148
 10
-3.5326710739
 20
13.8883283033
 10
-3.5268509264
 20
13.8919999878
 10
-3.5210640039
 20
13.8957087276
 10
-3.515310743
 20
13.8994543752
 10
-3.5095915811
 20
13.9032367787
 10
-3.5039069315
 20
13.9070557885
 10
-3.4982572254
 20
13.9109112502
 10
-3.49264289
 20
13.9148030081
 10
-3.4870643286
 20
13.9187309082
 10
-3.4815219642
 20
13.9226947911
 10
-3.476016216
 20
13.9266944956
 10
-3.4705474787
 20
13.9307298626
 10
-3.4651161669
 20
13.9348007279
 10
-3.4597226917
 20
13.938906925
 10
-3.4543674392
 20
13.9430482896
 10
-3.4490508156
 20
13.9472246522
 10
-3.4437732235
 20
13.9514358415
 10
-3.4385350404
 20
13.9556816881
 10
-3.433336664
 20
13.9599620174
 10
-3.4281784881
 20
13.9642766534
 10
-3.4230608806
 20
13.968625422
 10
-3.4179842221
 20
13.9730081456
 10
-3.4129489058
 20
13.9774246416
 10
-3.4079553136
 20
13.9818747277
  0
LINE
  5
337
100
AcDbEntity
  8
C_COPERCHIO
100
AcDbLine
 62
7
  6
CONTINUOUS
 10
-4.8017917505
 20
22.8457005856
 11
-4.8018069807
 21
22.4545885766
  0
LINE
  5
338
100
AcDbEntity
  8
C_COPERCHIO
100
AcDbLine
 62
7
  6
CONTINUOUS
 10
-4.7477890152
 20
13.6084761327
 11
-4.7477890152
 21
14.1303194311
  0
LINE
  5
339
100
AcDbEntity
  8
C_COPERCHIO
100
AcDbLine
 62
250
  6
CONTINUOUS
 10
-3.9048998009
 20
21.7741108829
 11
-3.9048998009
 21
21.2188382446
  0
LINE
  5
33A
100
AcDbEntity
  8
0
100
AcDbLine
 62
7
  6
CONTINUOUS
 10
-3.8467594101
 20
15.8351461765
 11
-3.8467594101
 21
16.0949537976
  0
LINE
  5
33B
100
AcDbEntity
  8
C_COPERCHIO
100
AcDbLine
 62
7
  6
CONTINUOUS
 10
-3.6182916005
 20
21.8628293644
 11
-3.6182916005
 21
21.2484501711
  0
LINE
  5
33C
100
AcDbEntity
  8
0
100
AcDbLine
 62
7
  6
CONTINUOUS
 10
-3.5639166976
 20
15.9765675327
 11
-3.5639166976
 21
16.2363751539
  0
LINE
  5
33D
100
AcDbEntity
  8
C_COPERCHIO
100
AcDbLine
 62
250
  6
CONTINUOUS
 10
-3.5473614206
 20
10.1004769305
 11
-3.5473614206
 21
7.2223171074
  0
LINE
  5
33E
100
AcDbEntity
  8
C_COPERCHIO
100
AcDbLine
 62
250
  6
CONTINUOUS
 10
-3.5473614206
 20
-25.3402380749
 11
-3.5473614206
 21
-28.2183978979
  0
LINE
  5
33F
100
AcDbEntity
  8
C_COPERCHIO
100
AcDbLine
 62
250
  6
CONTINUOUS
 10
-3.4079553136
 20
13.3323556749
 11
-3.4079553136
 21
13.9818747277
  0
LINE
  5
340
100
AcDbEntity
  8
0
100
AcDbLine
 62
250
  6
CONTINUOUS
 10
-3.3517846633
 20
16.6022487922
 11
-3.3517846633
 21
16.9486589537
  0
LINE
  5
341
100
AcDbEntity
  8
C_CORPO
100
AcDbLine
 62
7
  6
CONTINUOUS
 10
-3.210363307
 20
16.6363859135
 11
-3.210363307
 21
16.3347670682
  0
LINE
  5
342
100
AcDbEntity
  8
C_COPERCHIO
100
AcDbLine
 62
250
  6
CONTINUOUS
 10
-3.1969201327
 20
10.0989478031
 11
-3.1969201327
 21
7.22078798
  0
LINE
  5
343
100
AcDbEntity
  8
C_COPERCHIO
100
AcDbLine
 62
250
  6
CONTINUOUS
 10
-3.1969201327
 20
-25.3417672023
 11
-3.1969201327
 21
-28.2199270253
  0
LINE
  5
344
100
AcDbEntity
  8
C_COPERCHIO
100
AcDbLine
 62
7
  6
CONTINUOUS
 10
-3.013918758
 20
7.3091491667
 11
-3.013918758
 21
6.6569564159
  0
LINE
  5
345
100
AcDbEntity
  8
C_COPERCHIO
100
AcDbLine
 62
7
  6
CONTINUOUS
 10
-3.013918758
 20
-24.6012132648
 11
-3.013918758
 21
-25.2534060156
  0
LINE
  5
346
100
AcDbEntity
  8
0
100
AcDbLine
 62
250
  6
CONTINUOUS
 10
-2.9882165307
 20
16.7840328585
 11
-2.9882165307
 21
17.13044302
  0
LWPOLYLINE
  5
347
100
AcDbEntity
  8
0
100
AcDbPolyline
 62
7
  6
CONTINUOUS
 90
19
 70
0
 10
-3.8467594101
 20
16.0949537976
 10
-3.8447577172
 20
16.1494429381
 10
-3.8391357654
 20
16.2045541499
 10
-3.8298935546
 20
16.260287433
 10
-3.8169062769
 20
16.3170742226
 10
-3.8002987403
 20
16.3744830835
 10
-3.7804453683
 20
16.4312197099
 10
-3.757272428
 20
16.4872688312
 10
-3.7308536524
 20
16.5426457179
 10
-3.7017846633
 20
16.596101876
 10
-3.6700052581
 20
16.647593674
 10
-3.6355756393
 20
16.6971647433
 10
-3.5992720367
 20
16.7436974843
 10
-3.5610518804
 20
16.787122878
 10
-3.5209577403
 20
16.8275099435
 10
-3.4798935546
 20
16.863948138
 10
-3.4381606363
 20
16.8961339474
 10
-3.3954576725
 20
16.924370886
 10
-3.3517846633
 20
16.9486589537
  0
LWPOLYLINE
  5
348
100
AcDbEntity
  8
0
100
AcDbPolyline
 62
7
  6
CONTINUOUS
 90
16
 70
0
 10
-3.5639166976
 20
16.2363751539
 10
-3.5626501654
 20
16.2646432825
 10
-3.5591893384
 20
16.2931353527
 10
-3.5535342169
 20
16.3218513644
 10
-3.5455755619
 20
16.3511085138
 10
-3.5354226123
 20
16.3805896047
 10
-3.5234030841
 20
16.4093430488
 10
-3.5094560729
 20
16.4373451035
 10
-3.4936424831
 20
16.4646195114
 10
-3.4764727446
 20
16.4902859111
 10
-3.4579026077
 20
16.5142918351
 10
-3.4379763221
 20
16.5366897509
 10
-3.4173370669
 20
16.5567567003
 10
-3.3961992353
 20
16.5742516973
 10
-3.374348434
 20
16.5894157279
 10
-3.3517846633
 20
16.6022487922
  0
LINE
  5
349
100
AcDbEntity
  8
RACCORDO
100
AcDbLine
 62
250
  6
CONTINUOUS
 10
0.3536042841
 20
18.4605597552
 11
0.3369192506
 21
18.3893250549
  0
LINE
  5
34A
100
AcDbEntity
  8
C_CONTATTI
100
AcDbLine
 62
7
  6
CONTINUOUS
 10
9.3835995183
 20
13.9447252456
 11
9.3506690408
 21
13.9143133974
  0
LINE
  5
34B
100
AcDbEntity
  8
C_CONTATTI
100
AcDbLine
 62
7
  6
CONTINUOUS
 10
10.8535995183
 20
13.9447252456
 11
10.8865299959
 21
13.9751370938
  0
LINE
  5
34C
100
AcDbEntity
  8
C_CORPO
100
AcDbLine
 62
250
  6
CONTINUOUS
 10
17.8008138213
 20
12.3238355438
 11
19.6673532942
 21
13.2699603112
  0
LINE
  5
34D
100
AcDbEntity
  8
C_CORPO
100
AcDbLine
 62
250
  6
CONTINUOUS
 10
17.6604837214
 20
11.7793330745
 11
19.8813040566
 21
12.9050382383
  0
LINE
  5
34E
100
AcDbEntity
  8
C_COPERCHIO
100
AcDbLine
 62
7
  6
CONTINUOUS
 10
-11.0402857118
 20
0.3058528691
 11
-9.3689131666
 21
-0.5298334035
  0
LINE
  5
34F
100
AcDbEntity
  8
C_COPERCHIO
100
AcDbLine
 62
250
  6
CONTINUOUS
 10
-11.3672822024
 20
0.6418342435
 11
-9.2459618589
 21
-0.4188259283
  0
LINE
  5
350
100
AcDbEntity
  8
C_COPERCHIO
100
AcDbLine
 62
7
  6
CONTINUOUS
 10
-20.0056452745
 20
5.539203245
 11
-18.3350408429
 21
4.7039010292
  0
LINE
  5
351
100
AcDbEntity
  8
C_COPERCHIO
100
AcDbLine
 62
250
  6
CONTINUOUS
 10
-20.332975616
 20
5.876058724
 11
-18.2116552725
 21
4.8153985522
  0
LWPOLYLINE
  5
352
100
AcDbEntity
  8
C_COPERCHIO
100
AcDbPolyline
 62
7
  6
CONTINUOUS
 90
55
 70
0
 10
-11.0402852841
 20
0.3058526552
 10
-11.0449458849
 20
0.3082143911
 10
-11.0524640631
 20
0.3121561821
 10
-11.0599436091
 20
0.3162388635
 10
-11.0673842194
 20
0.3204591045
 10
-11.0747859491
 20
0.324813708
 10
-11.0821450283
 20
0.3292980358
 10
-11.0894612743
 20
0.333908998
 10
-11.0967347875
 20
0.3386435908
 10
-11.1039620923
 20
0.3434976949
 10
-11.1111431039
 20
0.348468437
 10
-11.118277957
 20
0.3535529878
 10
-11.1253633786
 20
0.3587476353
 10
-11.1323993647
 20
0.3640496986
 10
-11.1393860774
 20
0.3694565037
 10
-11.1463203727
 20
0.3749646453
 10
-11.1532023165
 20
0.3805716129
 10
-11.1600320927
 20
0.3862748685
 10
-11.1668066232
 20
0.3920712184
 10
-11.1735260361
 20
0.3979583019
 10
-11.1801905346
 20
0.4039336985
 10
-11.1867970549
 20
0.4099943386
 10
-11.1933457835
 20
0.4161379925
 10
-11.1998369422
 20
0.4223623396
 10
-11.2062674373
 20
0.4286643505
 10
-11.2126375047
 20
0.4350419024
 10
-11.2189473944
 20
0.4414927648
 10
-11.2251939661
 20
0.4480138894
 10
-11.2313774925
 20
0.4546032313
 10
-11.2374982681
 20
0.4612586503
 10
-11.243553134
 20
0.4679770682
 10
-11.2495424354
 20
0.4747565465
 10
-11.2554664778
 20
0.4815949854
 10
-11.2613220079
 20
0.4884891536
 10
-11.2671094212
 20
0.495437178
 10
-11.272829067
 20
0.5024370167
 10
-11.2784776087
 20
0.5094852487
 10
-11.2840555025
 20
0.5165800654
 10
-11.2895631421
 20
0.5237194664
 10
-11.2949971035
 20
0.5308997849
 10
-11.3003579082
 20
0.5381192692
 10
-11.3056460027
 20
0.5453759541
 10
-11.310857881
 20
0.5526658755
 10
-11.3159941332
 20
0.5599873318
 10
-11.32105527
 20
0.5673383903
 10
-11.3260377197
 20
0.5747147479
 10
-11.3309421441
 20
0.5821147463
 10
-11.3357691307
 20
0.5895364874
 10
-11.3405150737
 20
0.596975304
 10
-11.3451807083
 20
0.6044295743
 10
-11.3497667124
 20
0.611897442
 10
-11.3542694952
 20
0.6193738749
 10
-11.3586884108
 20
0.6268560528
 10
-11.3630257079
 20
0.6343433959
 10
-11.3672822024
 20
0.6418342435
  0
LWPOLYLINE
  5
353
100
AcDbEntity
  8
C_COPERCHIO
100
AcDbPolyline
 62
7
  6
CONTINUOUS
 90
55
 70
0
 10
-20.0056449218
 20
5.5392030687
 10
-20.0110870818
 20
5.5419670987
 10
-20.0185982358
 20
5.545922469
 10
-20.0260706478
 20
5.5500185566
 10
-20.0335040197
 20
5.5542520278
 10
-20.0408984119
 20
5.5586196823
 10
-20.048250056
 20
5.5631168863
 10
-20.0555587739
 20
5.5677405477
 10
-20.0628246712
 20
5.5724876597
 10
-20.0700442733
 20
5.5773541072
 10
-20.0772174997
 20
5.5823370148
 10
-20.0843444902
 20
5.5874335506
 10
-20.0914219723
 20
5.5926400065
 10
-20.0984499462
 20
5.5979536995
 10
-20.1054285785
 20
5.6033719537
 10
-20.1123547258
 20
5.6088913667
 10
-20.1192284582
 20
5.6145094266
 10
-20.1260499633
 20
5.6202235935
 10
-20.132816164
 20
5.6260306763
 10
-20.1395271921
 20
5.6319283129
 10
-20.1461832545
 20
5.6379140814
 10
-20.1527812885
 20
5.6439849142
 10
-20.1593214836
 20
5.6501385804
 10
-20.1658040656
 20
5.6563727581
 10
-20.1722259418
 20
5.6626844194
 10
-20.1785873512
 20
5.6690714407
 10
-20.1848885473
 20
5.6755315903
 10
-20.191126391
 20
5.682061821
 10
-20.1973011581
 20
5.6886600873
 10
-20.2034131465
 20
5.6953242478
 10
-20.2094591985
 20
5.7020512254
 10
-20.2154396623
 20
5.7088390809
 10
-20.2213548465
 20
5.7156857138
 10
-20.2272014995
 20
5.7225878932
 10
-20.2329800196
 20
5.7295437457
 10
-20.2386907591
 20
5.7365512286
 10
-20.2443303834
 20
5.7436069214
 10
-20.2498993515
 20
5.7507090152
 10
-20.2553980596
 20
5.757855509
 10
-20.2608230866
 20
5.7650427361
 10
-20.2661749561
 20
5.7722689449
 10
-20.2714541175
 20
5.7795321698
 10
-20.2766570677
 20
5.7868284466
 10
-20.2817843991
 20
5.794156074
 10
-20.286836625
 20
5.8015131191
 10
-20.2918101771
 20
5.8088952786
 10
-20.2967057192
 20
5.8163008946
 10
-20.3015238415
 20
5.8237280692
 10
-20.306260942
 20
5.831172135
 10
-20.3109177579
 20
5.8386314707
 10
-20.3154949695
 20
5.8461042207
 10
-20.31998899
 20
5.8535853523
 10
-20.3243991766
 20
5.8610720459
 10
-20.3287277793
 20
5.8685637231
 10
-20.332975616
 20
5.876058724
  0
LWPOLYLINE
  5
354
100
AcDbEntity
  8
C_COPERCHIO
100
AcDbPolyline
 62
250
  6
CONTINUOUS
 90
40
 70
0
 10
-5.3913976538
 20
5.0043824787
 10
-5.3927927683
 20
5.0124181122
 10
-5.3944662274
 20
5.0205860464
 10
-5.3964153273
 20
5.0288730841
 10
-5.3986369188
 20
5.0372658353
 10
-5.4011274123
 20
5.0457507396
 10
-5.4038827837
 20
5.0543140873
 10
-5.4068985811
 20
5.0629420424
 10
-5.4101699317
 20
5.0716206641
 10
-5.4136915499
 20
5.0803359299
 10
-5.4174577455
 20
5.0890737582
 10
-5.4214624333
 20
5.0978200308
 10
-5.4256991429
 20
5.1065606158
 10
-5.4301610286
 20
5.1152813907
 10
-5.4348408812
 20
5.1239682649
 10
-5.4397311392
 20
5.1326072025
 10
-5.4448239012
 20
5.1411842451
 10
-5.4501109386
 20
5.1496855344
 10
-5.4555837087
 20
5.1580973344
 10
-5.461233369
 20
5.1664060537
 10
-5.4670507911
 20
5.1745982674
 10
-5.4730265753
 20
5.1826607391
 10
-5.4791510664
 20
5.1905804417
 10
-5.4854143687
 20
5.198344579
 10
-5.4918063622
 20
5.205940606
 10
-5.4983167191
 20
5.2133562494
 10
-5.5049349202
 20
5.2205795274
 10
-5.5116502721
 20
5.227598769
 10
-5.5184519246
 20
5.2344026328
 10
-5.5253288878
 20
5.2409801255
 10
-5.5322700503
 20
5.2473206194
 10
-5.5392641969
 20
5.2534138698
 10
-5.5463000267
 20
5.2592500317
 10
-5.5533661716
 20
5.2648196752
 10
-5.5604512145
 20
5.2701138011
 10
-5.5675437077
 20
5.2751238555
 10
-5.5746321915
 20
5.2798417432
 10
-5.5817052127
 20
5.2842598415
 10
-5.5887513429
 20
5.2883710117
 10
-5.5957591974
 20
5.2921686112
  0
LWPOLYLINE
  5
355
100
AcDbEntity
  8
C_COPERCHIO
100
AcDbPolyline
 62
250
  6
CONTINUOUS
 90
85
 70
0
 10
-1.0886430906
 20
13.6230026283
 10
-1.0885235104
 20
13.615328398
 10
-1.0877209109
 20
13.6016326717
 10
-1.0861637018
 20
13.5879599021
 10
-1.0838531158
 20
13.5743206777
 10
-1.0807909699
 20
13.5607254925
 10
-1.0769796622
 20
13.5471852596
 10
-1.0724221754
 20
13.5337104398
 10
-1.0671220877
 20
13.520311453
 10
-1.061083567
 20
13.5069990817
 10
-1.0543113626
 20
13.4937836641
 10
-1.0468107779
 20
13.480675392
 10
-1.0385876721
 20
13.4676847233
 10
-1.0296484722
 20
13.4548217202
 10
-1.0200001951
 20
13.442096359
 10
-1.0096504244
 20
13.4295188277
 10
-0.9986072934
 20
13.417098926
 10
-0.9868794405
 20
13.4048462548
 10
-0.9744760193
 20
13.3927705286
 10
-0.9614067212
 20
13.3808811316
 10
-0.9476818043
 20
13.3691873128
 10
-0.9333120525
 20
13.3576983748
 10
-0.9183087534
 20
13.3464233018
 10
-0.9026836367
 20
13.3353708363
 10
-0.8864488912
 20
13.324549677
 10
-0.8696171991
 20
13.3139682669
 10
-0.8522017715
 20
13.3036348682
 10
-0.8342162899
 20
13.2935576375
 10
-0.8156748787
 20
13.2837444909
 10
-0.7965920293
 20
13.2742030673
 10
-0.7769826245
 20
13.2649408081
 10
-0.756861982
 20
13.2559649789
 10
-0.736245894
 20
13.247282622
 10
-0.7151505548
 20
13.2389005186
 10
-0.6935925276
 20
13.2308252938
 10
-0.6715886593
 20
13.2230632691
 10
-0.6491561113
 20
13.2156204207
 10
-0.6263124077
 20
13.208502633
 10
-0.6030754777
 20
13.2017155304
 10
-0.5794635719
 20
13.1952643275
 10
-0.5554952259
 20
13.1891541723
 10
-0.5311891706
 20
13.1833898916
 10
-0.5065643688
 20
13.1779758292
 10
-0.4816400605
 20
13.1729163228
 10
-0.456435807
 20
13.1682154205
 10
-0.430971405
 20
13.1638766244
 10
-0.4052668412
 20
13.1599034605
 10
-0.3793422057
 20
13.156299125
 10
-0.3532177317
 20
13.1530662055
 10
-0.326913838
 20
13.1502073712
 10
-0.3004511658
 20
13.1477249792
 10
-0.2738504915
 20
13.1456207198
 10
-0.2471326858
 20
13.1438963979
 10
-0.2203186394
 20
13.1425534892
 10
-0.1934292977
 20
13.1415927517
 10
-0.1664856803
 20
13.1410151093
 10
-0.1395089321
 20
13.1408211629
 10
-0.1125202505
 20
13.141010744
 10
-0.0855408164
 20
13.1415838853
 10
-0.0585917216
 20
13.1425402974
 10
-0.0316940197
 20
13.1438788841
 10
-0.0048687589
 20
13.1455987955
 10
0.0218630261
 20
13.1476988594
 10
0.0484803868
 20
13.150177057
 10
0.0749624665
 20
13.153031654
 10
0.1012885257
 20
13.1562606036
 10
0.1274379499
 20
13.1598609815
 10
0.1533902953
 20
13.1638301917
 10
0.179125188
 20
13.16816532
 10
0.2046223521
 20
13.1728625332
 10
0.2298617501
 20
13.1779183585
 10
0.2548236786
 20
13.1833290536
 10
0.2794886657
 20
13.1890899621
 10
0.3038373993
 20
13.195196804
 10
0.3278507924
 20
13.201645012
 10
0.3515100775
 20
13.2084291013
 10
0.3747968161
 20
13.2155440265
 10
0.3976926583
 20
13.2229844127
 10
0.4201794175
 20
13.230743886
 10
0.4422392746
 20
13.2388165162
 10
0.4638551787
 20
13.2471962781
 10
0.4850105861
 20
13.2558762952
 10
0.5056890324
 20
13.2648498349
 10
0.5258741729
 20
13.274110295
 10
0.5455501774
 20
13.2836506669
  0
LWPOLYLINE
  5
356
100
AcDbEntity
  8
C_COPERCHIO
100
AcDbPolyline
 62
7
  6
CONTINUOUS
 90
81
 70
0
 10
-1.0886430393
 20
-27.4362386806
 10
-1.0884774855
 20
-27.448089422
 10
-1.0877004105
 20
-27.4644501256
 10
-1.0862844946
 20
-27.4808164747
 10
-1.084226235
 20
-27.4971788417
 10
-1.0815178138
 20
-27.5135480994
 10
-1.0781545165
 20
-27.5299053403
 10
-1.0741329521
 20
-27.5462296854
 10
-1.0694418232
 20
-27.5625293692
 10
-1.0640748086
 20
-27.5787877685
 10
-1.058028626
 20
-27.5949824791
 10
-1.0512913931
 20
-27.6111140865
 10
-1.0438572183
 20
-27.6271651502
 10
-1.0357216825
 20
-27.6431165184
 10
-1.0268706547
 20
-27.6589681482
 10
-1.0172953676
 20
-27.6747072653
 10
-1.0069918074
 20
-27.6903135122
 10
-0.9959487317
 20
-27.705778314
 10
-0.9841584386
 20
-27.7210878977
 10
-0.9716137664
 20
-27.7362277843
 10
-0.9583002823
 20
-27.7511915334
 10
-0.9442098003
 20
-27.7659652376
 10
-0.9293309244
 20
-27.7805382292
 10
-0.9136388663
 20
-27.7949107484
 10
-0.8971030126
 20
-27.8090848817
 10
-0.8797255657
 20
-27.8230330924
 10
-0.8615306324
 20
-27.8367144041
 10
-0.8424544856
 20
-27.8501546821
 10
-0.8225350046
 20
-27.8633048778
 10
-0.8019715906
 20
-27.8760269268
 10
-0.7807824236
 20
-27.8883160192
 10
-0.7589636
 20
-27.9001790921
 10
-0.7367189407
 20
-27.9115183
 10
-0.7141330399
 20
-27.9223146739
 10
-0.6911660223
 20
-27.9326090368
 10
-0.6678563971
 20
-27.9424025652
 10
-0.6442386807
 20
-27.9516986554
 10
-0.6203208278
 20
-27.9605106708
 10
-0.5961066276
 20
-27.9688516174
 10
-0.5716154212
 20
-27.9767271416
 10
-0.5468672427
 20
-27.9841424923
 10
-0.5218690417
 20
-27.991105893
 10
-0.4966398234
 20
-27.9976210284
 10
-0.4711988871
 20
-28.0036915379
 10
-0.4455554732
 20
-28.0093225767
 10
-0.4197275121
 20
-28.0145168761
 10
-0.3937349035
 20
-28.0192766339
 10
-0.3675917625
 20
-28.0236046078
 10
-0.3413178351
 20
-28.0275026723
 10
-0.3149310687
 20
-28.0309726563
 10
-0.288444624
 20
-28.0340167713
 10
-0.2618808417
 20
-28.0366361942
 10
-0.2352547324
 20
-28.038832525
 10
-0.2085694728
 20
-28.0406080537
 10
-0.1818442628
 20
-28.0419633391
 10
-0.1550966826
 20
-28.042898843
 10
-0.1283278056
 20
-28.0434154815
 10
-0.1015560967
 20
-28.0435128918
 10
-0.0747996609
 20
-28.0431907965
 10
-0.0480589996
 20
-28.0424484245
 10
-0.0213517609
 20
-28.0412844616
 10
0.0053029665
 20
-28.0396979268
 10
0.0319027287
 20
-28.0376863499
 10
0.0584320691
 20
-28.0352473674
 10
0.0848692095
 20
-28.0323793964
 10
0.1112028059
 20
-28.0290792956
 10
0.13741498
 20
-28.0253444881
 10
0.1634860486
 20
-28.0211726028
 10
0.1894033844
 20
-28.0165596029
 10
0.2151488824
 20
-28.0115023193
 10
0.2407027515
 20
-28.0059974712
 10
0.266052381
 20
-28.0000398378
 10
0.291179124
 20
-27.9936252492
 10
0.3160634373
 20
-27.9867490673
 10
0.3406947365
 20
-27.9794038821
 10
0.3650531175
 20
-27.9715840505
 10
0.3891192148
 20
-27.9632830112
 10
0.4128872746
 20
-27.9544886911
 10
0.4363430329
 20
-27.945189976
 10
0.4594594987
 20
-27.935380168
 10
0.476710862
 20
-27.9276126263
  0
LINE
  5
357
100
AcDbEntity
  8
C_COPERCHIO
100
AcDbLine
 62
7
  6
CONTINUOUS
 10
-1.0886430935
 20
-27.4362844729
 11
-1.0886430935
 21
-27.3515068764
  0
LINE
  5
358
100
AcDbEntity
  8
C_COPERCHIO
100
AcDbLine
 62
7
  6
CONTINUOUS
 10
-1.0886430935
 20
12.5378696691
 11
-1.0886430935
 21
13.6230407074
  0
LINE
  5
359
100
AcDbEntity
  8
C_COPERCHIO
100
AcDbLine
 62
7
  6
CONTINUOUS
 10
-1.0886430935
 20
13.6230407636
 11
-1.0886430906
 21
13.6230026283
  0
LINE
  5
35A
100
AcDbEntity
  8
C_CORPO
100
AcDbLine
 62
250
  6
CONTINUOUS
 10
-0.4531466494
 20
19.7359482514
 11
-0.4531466494
 21
20.0084808708
  0
LINE
  5
35B
100
AcDbEntity
  8
C_CORPO
100
AcDbLine
 62
7
  6
CONTINUOUS
 10
-0.0801552498
 20
20.190989969
 11
-0.0801552498
 21
20.1685193166
  0
LWPOLYLINE
  5
35C
100
AcDbEntity
  8
C_COPERCHIO
100
AcDbPolyline
 62
250
  6
CONTINUOUS
 90
27
 70
0
 10
-5.3913976538
 20
-25.2445440096
 10
-5.3927927684
 20
-25.2536461204
 10
-5.3944662277
 20
-25.2625882402
 10
-5.3964153279
 20
-25.2713559207
 10
-5.3986369196
 20
-25.2799349954
 10
-5.4011274133
 20
-25.2883116028
 10
-5.403882785
 20
-25.2964722083
 10
-5.4068985828
 20
-25.3044036264
 10
-5.4101699337
 20
-25.3120930419
 10
-5.4136915522
 20
-25.3195280306
 10
-5.4174577481
 20
-25.3266965794
 10
-5.4214624363
 20
-25.3335871058
 10
-5.4256991461
 20
-25.3401884762
 10
-5.4301610321
 20
-25.3464900247
 10
-5.434840885
 20
-25.3524815693
 10
-5.4397311433
 20
-25.3581534294
 10
-5.4448239055
 20
-25.3634964405
 10
-5.4501109431
 20
-25.3685019697
 10
-5.4555837134
 20
-25.3731619292
 10
-5.4612333738
 20
-25.3774687898
 10
-5.4670507959
 20
-25.3814155927
 10
-5.4730265803
 20
-25.3849959607
 10
-5.4791510713
 20
-25.3882041089
 10
-5.4854143736
 20
-25.3910348537
 10
-5.491806367
 20
-25.3934836214
 10
-5.4983167237
 20
-25.3955464553
 10
-5.4997622621
 20
-25.3959477148
  0
LINE
  5
35D
100
AcDbEntity
  8
C_COPERCHIO
100
AcDbLine
 62
7
  6
CONTINUOUS
 10
-11.4313051051
 20
-6.148614431
 11
-11.4446546783
 21
-6.1582137786
  0
LINE
  5
35E
100
AcDbEntity
  8
C_COPERCHIO
100
AcDbLine
 62
7
  6
CONTINUOUS
 10
-11.4172151778
 20
-6.1386195846
 11
-11.4313051051
 21
-6.148614431
  0
LINE
  5
35F
100
AcDbEntity
  8
C_COPERCHIO
100
AcDbLine
 62
7
  6
CONTINUOUS
 10
-11.4024046338
 20
-6.128247879
 11
-11.4172151778
 21
-6.1386195846
  0
LINE
  5
360
100
AcDbEntity
  8
C_COPERCHIO
100
AcDbLine
 62
7
  6
CONTINUOUS
 10
-11.3868947886
 20
-6.117518548
 11
-11.4024046338
 21
-6.128247879
  0
LINE
  5
361
100
AcDbEntity
  8
C_COPERCHIO
100
AcDbLine
 62
7
  6
CONTINUOUS
 10
-11.3707079807
 20
-6.1064511161
 11
-11.3868947886
 21
-6.117518548
  0
LINE
  5
362
100
AcDbEntity
  8
C_COPERCHIO
100
AcDbLine
 62
7
  6
CONTINUOUS
 10
-11.3538671618
 20
-6.0950652024
 11
-11.3707079807
 21
-6.1064511161
  0
LINE
  5
363
100
AcDbEntity
  8
C_COPERCHIO
100
AcDbLine
 62
7
  6
CONTINUOUS
 10
-11.3363956265
 20
-6.0833804189
 11
-11.3538671618
 21
-6.0950652024
  0
LINE
  5
364
100
AcDbEntity
  8
C_COPERCHIO
100
AcDbLine
 62
7
  6
CONTINUOUS
 10
-11.3183168558
 20
-6.0714163447
 11
-11.3363956265
 21
-6.0833804189
  0
LINE
  5
365
100
AcDbEntity
  8
C_COPERCHIO
100
AcDbLine
 62
7
  6
CONTINUOUS
 10
-11.2996544547
 20
-6.0591925581
 11
-11.3183168558
 21
-6.0714163447
  0
LINE
  5
366
100
AcDbEntity
  8
C_COPERCHIO
100
AcDbLine
 62
7
  6
CONTINUOUS
 10
-11.2804319707
 20
-6.0467285903
 11
-11.2996544547
 21
-6.0591925581
  0
LINE
  5
367
100
AcDbEntity
  8
C_COPERCHIO
100
AcDbLine
 62
7
  6
CONTINUOUS
 10
-11.2606735216
 20
-6.0340444013
 11
-11.2804319707
 21
-6.0467285903
  0
LINE
  5
368
100
AcDbEntity
  8
C_COPERCHIO
100
AcDbLine
 62
7
  6
CONTINUOUS
 10
-11.2404035292
 20
-6.0211602689
 11
-11.2606735216
 21
-6.0340444013
  0
LINE
  5
369
100
AcDbEntity
  8
C_COPERCHIO
100
AcDbLine
 62
7
  6
CONTINUOUS
 10
-11.2196468573
 20
-6.0080969468
 11
-11.2404035292
 21
-6.0211602689
  0
LINE
  5
36A
100
AcDbEntity
  8
C_COPERCHIO
100
AcDbLine
 62
7
  6
CONTINUOUS
 10
-11.1984292381
 20
-5.9948760057
 11
-11.2196468573
 21
-6.0080969468
  0
LINE
  5
36B
100
AcDbEntity
  8
C_COPERCHIO
100
AcDbLine
 62
7
  6
CONTINUOUS
 10
-11.17677781
 20
-5.9815202415
 11
-11.1984292381
 21
-5.9948760057
  0
LINE
  5
36C
100
AcDbEntity
  8
C_COPERCHIO
100
AcDbLine
 62
7
  6
CONTINUOUS
 10
-11.1547218112
 20
-5.9680541767
 11
-11.17677781
 21
-5.9815202415
  0
LINE
  5
36D
100
AcDbEntity
  8
C_COPERCHIO
100
AcDbLine
 62
7
  6
CONTINUOUS
 10
-11.1322934275
 20
-5.9545046524
 11
-11.1547218112
 21
-5.9680541767
  0
LINE
  5
36E
100
AcDbEntity
  8
C_COPERCHIO
100
AcDbLine
 62
7
  6
CONTINUOUS
 10
-11.1095288826
 20
-5.940901564
 11
-11.1322934275
 21
-5.9545046524
  0
LINE
  5
36F
100
AcDbEntity
  8
C_COPERCHIO
100
AcDbLine
 62
7
  6
CONTINUOUS
 10
-11.0864698232
 20
-5.9272787642
 11
-11.1095288826
 21
-5.940901564
  0
LINE
  5
370
100
AcDbEntity
  8
C_COPERCHIO
100
AcDbLine
 62
7
  6
CONTINUOUS
 10
-11.063165453
 20
-5.9136753926
 11
-11.0864698232
 21
-5.9272787642
  0
LINE
  5
371
100
AcDbEntity
  8
C_COPERCHIO
100
AcDbLine
 62
7
  6
CONTINUOUS
 10
-11.0396760452
 20
-5.9001379577
 11
-11.063165453
 21
-5.9136753926
  0
LINE
  5
372
100
AcDbEntity
  8
C_COPERCHIO
100
AcDbLine
 62
7
  6
CONTINUOUS
 10
-11.0160753595
 20
-5.886721702
 11
-11.0396760452
 21
-5.9001379577
  0
LINE
  5
373
100
AcDbEntity
  8
C_COPERCHIO
100
AcDbLine
 62
7
  6
CONTINUOUS
 10
-11.0003227972
 20
-5.8778779972
 11
-11.0160753595
 21
-5.886721702
  0
LINE
  5
374
100
AcDbEntity
  8
C_COPERCHIO
100
AcDbLine
 62
7
  6
CONTINUOUS
 10
-10.9845966629
 20
-5.8691373501
 11
-11.0003227972
 21
-5.8778779972
  0
LINE
  5
375
100
AcDbEntity
  8
C_COPERCHIO
100
AcDbLine
 62
7
  6
CONTINUOUS
 10
-10.9689279698
 20
-5.8605310704
 11
-10.9845966629
 21
-5.8691373501
  0
LINE
  5
376
100
AcDbEntity
  8
C_COPERCHIO
100
AcDbLine
 62
7
  6
CONTINUOUS
 10
-10.9533613493
 20
-5.8520848663
 11
-10.9689279698
 21
-5.8605310704
  0
LINE
  5
377
100
AcDbEntity
  8
C_COPERCHIO
100
AcDbLine
 62
7
  6
CONTINUOUS
 10
-10.9379506084
 20
-5.8438285282
 11
-10.9533613493
 21
-5.8520848663
  0
LINE
  5
378
100
AcDbEntity
  8
C_COPERCHIO
100
AcDbLine
 62
7
  6
CONTINUOUS
 10
-10.9227412409
 20
-5.8358020418
 11
-10.9379506084
 21
-5.8438285282
  0
LINE
  5
379
100
AcDbEntity
  8
C_COPERCHIO
100
AcDbLine
 62
7
  6
CONTINUOUS
 10
-10.9077968743
 20
-5.8280403359
 11
-10.9227412409
 21
-5.8358020418
  0
LINE
  5
37A
100
AcDbEntity
  8
C_COPERCHIO
100
AcDbLine
 62
7
  6
CONTINUOUS
 10
-10.2460757798
 20
-5.497029374
 11
-10.8774737037
 21
-5.812728336
  0
LINE
  5
37B
100
AcDbEntity
  8
C_COPERCHIO
100
AcDbLine
 62
7
  6
CONTINUOUS
 10
0.3775722621
 20
18.8225263679
 11
0.3775722621
 21
18.3675993773
  0
LINE
  5
37C
100
AcDbEntity
  8
C_COPERCHIO
100
AcDbLine
 62
250
  6
CONTINUOUS
 10
0.5455501774
 20
13.2836506669
 11
0.5455501774
 21
11.9846125613
  0
LINE
  5
37D
100
AcDbEntity
  8
C_COPERCHIO
100
AcDbLine
 62
250
  6
CONTINUOUS
 10
0.5455501774
 20
-26.4915302149
 11
0.5455501774
 21
-27.7905683206
  0
LINE
  5
37E
100
AcDbEntity
  8
C_COPERCHIO
100
AcDbLine
 62
7
  6
CONTINUOUS
 10
2.0222268737
 20
14.0276825428
 11
2.0222268737
 21
-27.1085900868
  0
LINE
  5
37F
100
AcDbEntity
  8
C_CORPO
100
AcDbLine
 62
7
  6
CONTINUOUS
 10
2.0222268737
 20
-27.151884762
 11
2.0222268737
 21
14.070977218
  0
LWPOLYLINE
  5
380
100
AcDbEntity
  8
C_COPERCHIO
100
AcDbPolyline
 62
250
  6
CONTINUOUS
 90
24
 70
0
 10
0.5455501774
 20
-27.7905683206
 10
0.5452830567
 20
-27.79927124
 10
0.5447347937
 20
-27.8078142587
 10
0.5439062773
 20
-27.8161835254
 10
0.5427988509
 20
-27.8243654703
 10
0.5414143101
 20
-27.8323468275
 10
0.5397548997
 20
-27.8401146561
 10
0.5378233101
 20
-27.8476563616
 10
0.5356226734
 20
-27.854959716
 10
0.5331565575
 20
-27.862012878
 10
0.5304289608
 20
-27.8688044116
 10
0.527444306
 20
-27.8753233053
 10
0.5242074321
 20
-27.8815589895
 10
0.5207235875
 20
-27.8875013537
 10
0.5169984207
 20
-27.8931407633
 10
0.5130379716
 20
-27.8984680746
 10
0.5088486616
 20
-27.90347465
 10
0.504437283
 20
-27.908152372
 10
0.4998109886
 20
-27.9124936562
 10
0.4949772791
 20
-27.9164914639
 10
0.4899439918
 20
-27.920139313
 10
0.4847192876
 20
-27.9234312891
 10
0.4793116377
 20
-27.9263620546
 10
0.4767108715
 20
-27.9276126468
  0
LINE
  5
381
100
AcDbEntity
  8
C_COPERCHIO
100
AcDbLine
 62
7
  6
CONTINUOUS
 10
-16.9883488794
 20
-12.9275631398
 11
-17.0013861326
 21
-12.9370185189
  0
LINE
  5
382
100
AcDbEntity
  8
C_COPERCHIO
100
AcDbLine
 62
7
  6
CONTINUOUS
 10
-16.9745696392
 20
-12.917691292
 11
-16.9883488794
 21
-12.9275631398
  0
LINE
  5
383
100
AcDbEntity
  8
C_COPERCHIO
100
AcDbLine
 62
7
  6
CONTINUOUS
 10
-16.9600672659
 20
-12.9074206653
 11
-16.9745696392
 21
-12.917691292
  0
LINE
  5
384
100
AcDbEntity
  8
C_COPERCHIO
100
AcDbLine
 62
7
  6
CONTINUOUS
 10
-16.9448622782
 20
-12.8967696675
 11
-16.9600672659
 21
-12.9074206653
  0
LINE
  5
385
100
AcDbEntity
  8
C_COPERCHIO
100
AcDbLine
 62
7
  6
CONTINUOUS
 10
-16.9289762911
 20
-12.885757098
 11
-16.9448622782
 21
-12.8967696675
  0
LINE
  5
386
100
AcDbEntity
  8
C_COPERCHIO
100
AcDbLine
 62
7
  6
CONTINUOUS
 10
-16.9124315934
 20
-12.8744019291
 11
-16.9289762911
 21
-12.885757098
  0
LINE
  5
387
100
AcDbEntity
  8
C_COPERCHIO
100
AcDbLine
 62
7
  6
CONTINUOUS
 10
-16.8952508629
 20
-12.8627231832
 11
-16.9124315934
 21
-12.8744019291
  0
LINE
  5
388
100
AcDbEntity
  8
C_COPERCHIO
100
AcDbLine
 62
7
  6
CONTINUOUS
 10
-16.8713938425
 20
-12.8466807874
 11
-16.8952508629
 21
-12.8627231832
  0
LINE
  5
389
100
AcDbEntity
  8
C_COPERCHIO
100
AcDbLine
 62
7
  6
CONTINUOUS
 10
-16.8465001972
 20
-12.8301430988
 11
-16.8713938425
 21
-12.8466807874
  0
LINE
  5
38A
100
AcDbEntity
  8
C_COPERCHIO
100
AcDbLine
 62
7
  6
CONTINUOUS
 10
-16.8206274172
 20
-12.8131534576
 11
-16.8465001972
 21
-12.8301430988
  0
LINE
  5
38B
100
AcDbEntity
  8
C_COPERCHIO
100
AcDbLine
 62
7
  6
CONTINUOUS
 10
-16.7938308354
 20
-12.7957597614
 11
-16.8206274172
 21
-12.8131534576
  0
LINE
  5
38C
100
AcDbEntity
  8
C_COPERCHIO
100
AcDbLine
 62
7
  6
CONTINUOUS
 10
-16.7661673646
 20
-12.7780116866
 11
-16.7938308354
 21
-12.7957597614
  0
LINE
  5
38D
100
AcDbEntity
  8
C_COPERCHIO
100
AcDbLine
 62
7
  6
CONTINUOUS
 10
-16.7377004003
 20
-12.7599570834
 11
-16.7661673646
 21
-12.7780116866
  0
LINE
  5
38E
100
AcDbEntity
  8
C_COPERCHIO
100
AcDbLine
 62
7
  6
CONTINUOUS
 10
-16.7084958106
 20
-12.7416536257
 11
-16.7377004003
 21
-12.7599570834
  0
LINE
  5
38F
100
AcDbEntity
  8
C_COPERCHIO
100
AcDbLine
 62
7
  6
CONTINUOUS
 10
-16.678628762
 20
-12.7231665869
 11
-16.7084958106
 21
-12.7416536257
  0
LINE
  5
390
100
AcDbEntity
  8
C_COPERCHIO
100
AcDbLine
 62
7
  6
CONTINUOUS
 10
-16.6558488154
 20
-12.709222221
 11
-16.678628762
 21
-12.7231665869
  0
LINE
  5
391
100
AcDbEntity
  8
C_COPERCHIO
100
AcDbLine
 62
7
  6
CONTINUOUS
 10
-16.6327929502
 20
-12.6952510267
 11
-16.6558488154
 21
-12.709222221
  0
LINE
  5
392
100
AcDbEntity
  8
C_COPERCHIO
100
AcDbLine
 62
7
  6
CONTINUOUS
 10
-16.6095166965
 20
-12.681296259
 11
-16.6327929502
 21
-12.6952510267
  0
LINE
  5
393
100
AcDbEntity
  8
C_COPERCHIO
100
AcDbLine
 62
7
  6
CONTINUOUS
 10
-16.5860882057
 20
-12.6674095579
 11
-16.6095166965
 21
-12.681296259
  0
LINE
  5
394
100
AcDbEntity
  8
C_COPERCHIO
100
AcDbLine
 62
7
  6
CONTINUOUS
 10
-16.5625919224
 20
-12.653653077
 11
-16.5860882057
 21
-12.6674095579
  0
LINE
  5
395
100
AcDbEntity
  8
C_COPERCHIO
100
AcDbLine
 62
7
  6
CONTINUOUS
 10
-16.5469432494
 20
-12.6445890578
 11
-16.5625919224
 21
-12.653653077
  0
LINE
  5
396
100
AcDbEntity
  8
C_COPERCHIO
100
AcDbLine
 62
7
  6
CONTINUOUS
 10
-16.5235800335
 20
-12.6312238644
 11
-16.5469432494
 21
-12.6445890578
  0
LINE
  5
397
100
AcDbEntity
  8
C_COPERCHIO
100
AcDbLine
 62
7
  6
CONTINUOUS
 10
-16.5081426478
 20
-12.62251029
 11
-16.5235800335
 21
-12.6312238644
  0
LINE
  5
398
100
AcDbEntity
  8
C_CORPO
100
AcDbLine
 62
250
  6
CONTINUOUS
 10
19.8813040566
 20
7.4033069619
 11
17.6604837214
 21
6.2292853472
  0
LINE
  5
399
100
AcDbEntity
  8
C_CORPO
100
AcDbLine
 62
7
  6
CONTINUOUS
 10
19.8057091966
 20
7.2422851024
 11
17.7982464975
 21
6.1810535555
  0
LINE
  5
39A
100
AcDbEntity
  8
C_COPERCHIO
100
AcDbLine
 62
7
  6
CONTINUOUS
 10
-15.7918785425
 20
-8.8135417841
 11
-15.7917726563
 21
-8.8134888332
  0
LWPOLYLINE
  5
39B
100
AcDbEntity
  8
C_COPERCHIO
100
AcDbPolyline
 62
7
  6
CONTINUOUS
 90
4
 70
0
 10
-10.8774737155
 20
-5.8127283419
 10
-10.8860357723
 20
-5.8169806793
 10
-10.8931939926
 20
-5.8205814296
 10
-10.9077968743
 20
-5.8280403359
  0
LWPOLYLINE
  5
39C
100
AcDbEntity
  8
C_COPERCHIO
100
AcDbPolyline
 62
7
  6
CONTINUOUS
 90
109
 70
0
 10
-15.7918810777
 20
-8.8135430777
 10
-15.7770051304
 20
-8.8063069737
 10
-15.7469811134
 20
-8.7929089738
 10
-15.7166675528
 20
-8.7809323898
 10
-15.6861166281
 20
-8.7703419049
 10
-15.6553208243
 20
-8.7610812177
 10
-15.6242083215
 20
-8.7530862227
 10
-15.5927911204
 20
-8.7463249972
 10
-15.5611019684
 20
-8.740771259
 10
-15.5290972733
 20
-8.7363881522
 10
-15.4967949549
 20
-8.7331535325
 10
-15.464228564
 20
-8.7310470702
 10
-15.4313767659
 20
-8.7300455406
 10
-15.3982659653
 20
-8.7301308076
 10
-15.3649269427
 20
-8.7312840461
 10
-15.3313425502
 20
-8.7334886034
 10
-15.2975678914
 20
-8.7367248427
 10
-15.2636071667
 20
-8.7409761285
 10
-15.2293600159
 20
-8.7462448839
 10
-15.1948453969
 20
-8.7525239189
 10
-15.1600960989
 20
-8.7598025127
 10
-15.1250235586
 20
-8.7680981341
 10
-15.0896231156
 20
-8.7774165014
 10
-15.0539460389
 20
-8.7877482115
 10
-15.0179824606
 20
-8.7990997389
 10
-14.9817536194
 20
-8.8114693398
 10
-14.9452850853
 20
-8.8248527714
 10
-14.9085709271
 20
-8.8392570715
 10
-14.8716318039
 20
-8.854680162
 10
-14.8344932257
 20
-8.8711170303
 10
-14.7971543969
 20
-8.8885738176
 10
-14.7596354573
 20
-8.9070478587
 10
-14.7219617991
 20
-8.9265331111
 10
-14.6841388202
 20
-8.9470331459
 10
-14.6461889134
 20
-8.9685428142
 10
-14.6081346784
 20
-8.9910561043
 10
-14.5699804934
 20
-9.0145772593
 10
-14.5317456641
 20
-9.0391019663
 10
-14.4934553663
 20
-9.0646215733
 10
-14.4551217463
 20
-9.0911351405
 10
-14.416763857
 20
-9.1186370925
 10
-14.378406733
 20
-9.1471170715
 10
-14.3400706329
 20
-9.1765670048
 10
-14.3017772893
 20
-9.2069771524
 10
-14.2635485041
 20
-9.2383372065
 10
-14.2254038435
 20
-9.2706376743
 10
-14.1873639262
 20
-9.303867641
 10
-14.1494509818
 20
-9.3380143345
 10
-14.111686232
 20
-9.3730647852
 10
-14.0740899794
 20
-9.4090061426
 10
-14.0366838859
 20
-9.4458238294
 10
-13.9994904267
 20
-9.4835013454
 10
-13.9625301271
 20
-9.5220232011
 10
-13.9258232928
 20
-9.5613736998
 10
-13.8893912662
 20
-9.601535036
 10
-13.8532536796
 20
-9.642490297
 10
-13.817430453
 20
-9.6842218156
 10
-13.7819425587
 20
-9.7267097135
 10
-13.7468084546
 20
-9.7699360442
 10
-13.7120477717
 20
-9.813880993
 10
-13.6776823592
 20
-9.8585208721
 10
-13.6437303699
 20
-9.9038354538
 10
-13.6102099377
 20
-9.9498040661
 10
-13.5771419098
 20
-9.9964013271
 10
-13.5445435533
 20
-10.0436054558
 10
-13.5124318793
 20
-10.0913945313
 10
-13.4808263522
 20
-10.1397420415
 10
-13.4497432206
 20
-10.1886248715
 10
-13.4191983241
 20
-10.238019987
 10
-13.3892095156
 20
-10.287900207
 10
-13.3597918646
 20
-10.3382414007
 10
-13.3309600558
 20
-10.3890194694
 10
-13.3027303827
 20
-10.4402066151
 10
-13.2751166324
 20
-10.4917779381
 10
-13.248132301
 20
-10.5437083746
 10
-13.2217922716
 20
-10.5959693182
 10
-13.196108996
 20
-10.648535239
 10
-13.1710946829
 20
-10.7013802912
 10
-13.1467628695
 20
-10.7544749131
 10
-13.1231246264
 20
-10.8077930371
 10
-13.1001907524
 20
-10.8613082586
 10
-13.0779733774
 20
-10.914990097
 10
-13.0564821489
 20
-10.9688120071
 10
-13.0357263234
 20
-11.022747289
 10
-13.0157164372
 20
-11.0767648812
 10
-12.9964606287
 20
-11.1308379402
 10
-12.9779665454
 20
-11.1849396314
 10
-12.9602429884
 20
-11.2390386137
 10
-12.9432966001
 20
-11.2931076409
 10
-12.9271332631
 20
-11.347120194
 10
-12.9117597009
 20
-11.4010457691
 10
-12.8971808481
 20
-11.4548574967
 10
-12.8834010075
 20
-11.5085287373
 10
-12.8704250815
 20
-11.5620290931
 10
-12.8582562846
 20
-11.6153321372
 10
-12.8468972413
 20
-11.6684113289
 10
-12.8363510926
 20
-11.7212358533
 10
-12.8266192947
 20
-11.7737797451
 10
-12.8177026535
 20
-11.8260169825
 10
-12.8096024097
 20
-11.8779164362
 10
-12.8023182375
 20
-11.9294522467
 10
-12.7958489585
 20
-11.9805993138
 10
-12.7901936026
 20
-12.0313273641
 10
-12.7853499083
 20
-12.0816117083
 10
-12.7813147962
 20
-12.1314285919
 10
-12.7780851234
 20
-12.180748916
 10
-12.7756567577
 20
-12.2295468124
 10
-12.774024483
 20
-12.2777987957
 10
-12.7732448017
 20
-12.3195636173
  0
LWPOLYLINE
  5
39D
100
AcDbEntity
  8
C_CORPO
100
AcDbPolyline
 62
7
  6
CONTINUOUS
 90
18
 70
0
 10
17.7982449496
 20
6.1810527373
 10
17.7971806202
 20
6.1806034856
 10
17.7951189506
 20
6.1801537317
 10
17.7925442001
 20
6.180018344
 10
17.7894409226
 20
6.1802102477
 10
17.7858006096
 20
6.1807384132
 10
17.7815990897
 20
6.1816041249
 10
17.7768203305
 20
6.182813006
 10
17.7714717649
 20
6.1843726591
 10
17.7655331761
 20
6.1862776911
 10
17.7589882007
 20
6.1885270207
 10
17.7518527838
 20
6.1911293424
 10
17.7441067115
 20
6.1940751039
 10
17.7357362946
 20
6.1973571222
 10
17.7267690916
 20
6.200984032
 10
17.7171784869
 20
6.204944598
 10
17.7069605394
 20
6.2092233377
 10
17.6961822413
 20
6.2138166837
  0
LINE
  5
39E
100
AcDbEntity
  8
C_COPERCHIO
100
AcDbLine
 62
250
  6
CONTINUOUS
 10
-23.1002636029
 20
12.6419459695
 11
-6.1871700912
 21
4.1853992136
  0
LINE
  5
39F
100
AcDbEntity
  8
C_COPERCHIO
100
AcDbLine
 62
250
  6
CONTINUOUS
 10
-22.5241372875
 20
13.7563576563
 11
-5.5957591974
 21
5.2921686112
  0
LINE
  5
3A0
100
AcDbEntity
  8
C_CONTATTI
100
AcDbLine
 62
7
  6
CONTINUOUS
 10
2.5023969337
 20
18.8024866194
 11
2.4651969126
 21
19.2937241911
  0
LINE
  5
3A1
100
AcDbEntity
  8
C_CORPO
100
AcDbLine
 62
7
  6
CONTINUOUS
 10
3.0828870455
 20
22.1830531662
 11
3.0828870455
 21
21.7500404643
  0
LWPOLYLINE
  5
3A2
100
AcDbEntity
  8
C_CORPO
100
AcDbPolyline
 62
7
  6
CONTINUOUS
 90
16
 70
0
 10
8.1385767755
 20
10.0528093451
 10
8.1455648366
 20
10.070563236
 10
8.1521421157
 20
10.0885174388
 10
8.1583054644
 20
10.1066579785
 10
8.1640799788
 20
10.1250170427
 10
8.1694338892
 20
10.1435336427
 10
8.174286696
 20
10.162051171
 10
8.1786425774
 20
10.1805589957
 10
8.1825089996
 20
10.1990332228
 10
8.1858269085
 20
10.2172939338
 10
8.1886034388
 20
10.235307738
 10
8.1908624835
 20
10.2530740436
 10
8.1925847785
 20
10.2704618079
 10
8.1937837256
 20
10.2874234926
 10
8.1944882984
 20
10.3039797119
 10
8.1947088865
 20
10.3195444062
  0
LWPOLYLINE
  5
3A3
100
AcDbEntity
  8
C_CORPO
100
AcDbPolyline
 62
250
  6
CONTINUOUS
 90
23
 70
0
 10
19.8057095465
 20
7.2422852874
 10
19.8099794455
 20
7.2446601406
 10
19.8163168032
 20
7.2486450606
 10
19.8224095864
 20
7.2530497722
 10
19.8282479145
 20
7.2578671322
 10
19.8338223194
 20
7.2630893284
 10
19.8391237613
 20
7.268707892
 10
19.8441436429
 20
7.2747137115
 10
19.8488738234
 20
7.2810970472
 10
19.853306632
 20
7.2878475475
 10
19.85743488
 20
7.294954265
 10
19.8612518728
 20
7.3024056749
 10
19.8647514203
 20
7.3101896934
 10
19.8679278474
 20
7.3182936971
 10
19.8707760028
 20
7.3267045438
 10
19.8732912678
 20
7.3354085939
 10
19.8754695634
 20
7.3443917321
 10
19.8773073571
 20
7.3536393904
 10
19.8788016684
 20
7.3631365721
 10
19.8799500742
 20
7.3728678756
 10
19.8807507121
 20
7.3828175199
 10
19.8812022836
 20
7.3929693697
 10
19.8813040566
 20
7.4033069619
  0
LINE
  5
3A4
100
AcDbEntity
  8
C_COPERCHIO
100
AcDbLine
 62
7
  6
CONTINUOUS
 10
-16.4928747857
 20
-12.6139920134
 11
-16.5081426478
 21
-12.62251029
  0
LINE
  5
3A5
100
AcDbEntity
  8
C_COPERCHIO
100
AcDbLine
 62
7
  6
CONTINUOUS
 10
-16.4778395147
 20
-12.6057047573
 11
-16.4928747857
 21
-12.6139920134
  0
LINE
  5
3A6
100
AcDbEntity
  8
C_COPERCHIO
100
AcDbLine
 62
7
  6
CONTINUOUS
 10
-16.4630895773
 20
-12.5976929644
 11
-16.4778395147
 21
-12.6057047573
  0
LWPOLYLINE
  5
3A7
100
AcDbEntity
  8
C_COPERCHIO
100
AcDbPolyline
 62
7
  6
CONTINUOUS
 90
3
 70
0
 10
-16.4416603235
 20
-12.586279973
 10
-16.4487077033
 20
-12.589993408
 10
-16.4630895773
 20
-12.5976929644
  0
LINE
  5
3A8
100
AcDbEntity
  8
C_COPERCHIO
100
AcDbLine
 62
7
  6
CONTINUOUS
 10
-16.4416603118
 20
-12.5862799669
 11
-16.4357649618
 21
-12.5832570366
  0
LINE
  5
3A9
100
AcDbEntity
  8
C_COPERCHIO
100
AcDbLine
 62
7
  6
CONTINUOUS
 10
-13.0816181264
 20
-10.9061836189
 11
-16.4357649618
 21
-12.5832570366
  0
LINE
  5
3AA
100
AcDbEntity
  8
C_COPERCHIO
100
AcDbLine
 62
7
  6
CONTINUOUS
 10
-3.1901865641
 20
6.9642703679
 11
-20.2011027985
 21
15.4697284851
  0
LINE
  5
3AB
100
AcDbEntity
  8
C_COPERCHIO
100
AcDbLine
 62
7
  6
CONTINUOUS
 10
-3.5473614206
 20
7.2223171074
 11
-20.5510347231
 21
15.7241537587
  0
LWPOLYLINE
  5
3AC
100
AcDbEntity
  8
C_COPERCHIO
100
AcDbPolyline
 62
7
  6
CONTINUOUS
 90
21
 70
0
 10
-20.5510347231
 20
15.7241537587
 10
-20.5579483913
 20
15.7277522758
 10
-20.56455167
 20
15.7314739673
 10
-20.5708445592
 20
15.7353188332
 10
-20.5768370598
 20
15.7392941878
 10
-20.5825191709
 20
15.7433927167
 10
-20.5878608898
 20
15.7475924771
 10
-20.5928582471
 20
15.7518917733
 10
-20.5975152121
 20
15.7562923009
 10
-20.6018136899
 20
15.7607772036
 10
-20.6057546136
 20
15.7653500092
 10
-20.60933705
 20
15.77000719
 10
-20.6125401048
 20
15.7747213059
 10
-20.6153596363
 20
15.7794886978
 10
-20.6177997863
 20
15.7843130247
 10
-20.6198520857
 20
15.7891778242
 10
-20.6215163208
 20
15.7940878219
 10
-20.6227927053
 20
15.7990382922
 10
-20.6236734117
 20
15.8039985957
 10
-20.624155925
 20
15.8089639234
 10
-20.6242580278
 20
15.8125408349
  0
LWPOLYLINE
  5
3AD
100
AcDbEntity
  8
C_CONTATTI
100
AcDbPolyline
 62
7
  6
CONTINUOUS
 90
12
 70
0
 10
2.4651969126
 20
19.2937241911
 10
2.463738939
 20
19.3068862532
 10
2.4613327678
 20
19.3193247816
 10
2.457978399
 20
19.3310397764
 10
2.4536280369
 20
19.3421506623
 10
2.4483294772
 20
19.3525380145
 10
2.442226107
 20
19.3618435592
 10
2.435319341
 20
19.369983432
 10
2.4276077645
 20
19.3770414973
 10
2.4192305214
 20
19.3829110748
 10
2.4101916386
 20
19.3875853255
 10
2.402930785
 20
19.3903279925
  0
LWPOLYLINE
  5
3AE
100
AcDbEntity
  8
C_CORPO
100
AcDbPolyline
 62
7
  6
CONTINUOUS
 90
16
 70
0
 10
8.194708894
 20
-16.9278544894
 10
8.1944901115
 20
-16.9216851113
 10
8.1937872967
 20
-16.914944051
 10
8.1925899549
 20
-16.9078683439
 10
8.1908691146
 20
-16.90044039
 10
8.1886113446
 20
-16.8926635939
 10
8.1858358084
 20
-16.8845677371
 10
8.1825185433
 20
-16.8761515036
 10
8.1786523983
 20
-16.867419647
 10
8.1742963892
 20
-16.8584246838
 10
8.1694429701
 20
-16.8491836419
 10
8.1640879641
 20
-16.8397019465
 10
8.1583119858
 20
-16.8300271426
 10
8.1521468485
 20
-16.8201883376
 10
8.1455673986
 20
-16.8101908091
 10
8.1385767755
 20
-16.800051156
  0
LINE
  5
3AF
100
AcDbEntity
  8
C_CORPO
100
AcDbLine
 62
250
  6
CONTINUOUS
 10
8.1385767755
 20
-23.1711410353
 11
8.1385767755
 21
-16.800051156
  0
LINE
  5
3B0
100
AcDbEntity
  8
C_CORPO
100
AcDbLine
 62
250
  6
CONTINUOUS
 10
8.1385767755
 20
10.0528093451
 11
8.1385767755
 21
16.4238992244
  0
LWPOLYLINE
  5
3B1
100
AcDbEntity
  8
C_CORPO
100
AcDbPolyline
 62
250
  6
CONTINUOUS
 90
19
 70
0
 10
8.1947088155
 20
16.4933634925
 10
8.1945903413
 20
16.489923564
 10
8.1941074037
 20
16.4856158194
 10
8.1932532862
 20
16.4813224999
 10
8.1920295787
 20
16.4770515977
 10
8.1904385592
 20
16.4728110629
 10
8.1884831893
 20
16.4686087893
 10
8.186167109
 20
16.4644525995
 10
8.1834946297
 20
16.4603502301
 10
8.1804707261
 20
16.4563093177
 10
8.1771010272
 20
16.4523373845
 10
8.1733918057
 20
16.4484418242
 10
8.1693499664
 20
16.4446298883
 10
8.1649830331
 20
16.4409086729
 10
8.1602991349
 20
16.4372851048
 10
8.1553069907
 20
16.4337659295
 10
8.1500158935
 20
16.4303576977
 10
8.1444356926
 20
16.427066754
 10
8.1385767755
 20
16.4238992244
  0
LINE
  5
3B2
100
AcDbEntity
  8
C_COPERCHIO
100
AcDbLine
 62
250
  6
CONTINUOUS
 10
-20.5510347231
 20
18.6023135818
 11
-3.5473614206
 21
10.1004769305
  0
LINE
  5
3B3
100
AcDbEntity
  8
C_COPERCHIO
100
AcDbLine
 62
250
  6
CONTINUOUS
 10
-20.3773432065
 20
18.905632716
 11
-3.3736699041
 21
10.4037960648
  0
LWPOLYLINE
  5
3B4
100
AcDbEntity
  8
C_COPERCHIO
100
AcDbPolyline
 62
250
  6
CONTINUOUS
 90
43
 70
0
 10
-3.3736699041
 20
10.4037960648
 10
-3.367175444
 20
10.4002819053
 10
-3.3606857504
 20
10.3964721753
 10
-3.3542098959
 20
10.3923722008
 10
-3.3477569343
 20
10.3879877138
 10
-3.341335887
 20
10.3833248441
 10
-3.334955731
 20
10.3783901105
 10
-3.328625386
 20
10.3731904121
 10
-3.3223537023
 20
10.3677330183
 10
-3.3161494478
 20
10.3620255587
 10
-3.3100212964
 20
10.3560760128
 10
-3.3039778157
 20
10.3498926982
 10
-3.2980274546
 20
10.3434842595
 10
-3.2921785321
 20
10.336859656
 10
-3.2864392252
 20
10.3300281493
 10
-3.2808175577
 20
10.3229992901
 10
-3.2753213891
 20
10.3157829051
 10
-3.2699584032
 20
10.3083890831
 10
-3.2647360978
 20
10.3008281611
 10
-3.2596617738
 20
10.2931107095
 10
-3.2547425255
 20
10.2852475179
 10
-3.2499852301
 20
10.2772495792
 10
-3.2453965387
 20
10.269128075
 10
-3.2409828663
 20
10.2608943596
 10
-3.2367503836
 20
10.2525599441
 10
-3.2327050078
 20
10.2441364803
 10
-3.2288523944
 20
10.2356357447
 10
-3.2251979296
 20
10.2270696218
 10
-3.2217467226
 20
10.2184500874
 10
-3.2185035983
 20
10.2097891919
 10
-3.2154730908
 20
10.2010990439
 10
-3.2126594367
 20
10.1923917924
 10
-3.2100665698
 20
10.1836796107
 10
-3.2076981151
 20
10.1749746788
 10
-3.2055573836
 20
10.1662891667
 10
-3.2036473683
 20
10.157635217
 10
-3.2019707395
 20
10.1490249285
 10
-3.2005298412
 20
10.1404703387
 10
-3.1993266877
 20
10.1319834073
 10
-3.1983629613
 20
10.1235759995
 10
-3.1976400092
 20
10.1152598693
 10
-3.1971588421
 20
10.107046643
 10
-3.1969201327
 20
10.0989478031
  0
LINE
  5
3B5
100
AcDbEntity
  8
C_CORPO
100
AcDbLine
 62
250
  6
CONTINUOUS
 10
-1.5109939287
 20
20.9824461327
 11
-1.1727261872
 21
20.0957380203
  0
LWPOLYLINE
  5
3B6
100
AcDbEntity
  8
C_CORPO
100
AcDbPolyline
 62
7
  6
CONTINUOUS
 90
36
 70
0
 10
8.1947087838
 20
16.4933634925
 10
8.1945466055
 20
16.5118628523
 10
8.1937932184
 20
16.5370972231
 10
8.1924231199
 20
16.5620857014
 10
8.1904318116
 20
16.5868288273
 10
8.1878174135
 20
16.6112956248
 10
8.18458402
 20
16.6354239274
 10
8.1807322657
 20
16.6592021432
 10
8.1762630728
 20
16.6826174079
 10
8.1711879594
 20
16.7056100546
 10
8.1655119277
 20
16.7281679078
 10
8.1592390931
 20
16.7502831066
 10
8.1523865314
 20
16.7719069177
 10
8.1449623877
 20
16.7930305595
 10
8.1369744629
 20
16.8136466614
 10
8.1284459277
 20
16.8337123788
 10
8.1193886121
 20
16.8532208475
 10
8.1098139907
 20
16.8721666865
 10
8.0997514046
 20
16.8905127788
 10
8.0892238869
 20
16.9082425787
 10
8.078240248
 20
16.9253655181
 10
8.0668118935
 20
16.9418840073
 10
8.0549582208
 20
16.9577892214
 10
8.0426927997
 20
16.973081924
 10
8.0300173632
 20
16.9877753523
 10
8.016947628
 20
17.0018640726
 10
8.0035006177
 20
17.0153428389
 10
7.9896783714
 20
17.0282207587
 10
7.9754977739
 20
17.0404912493
 10
7.9609756421
 20
17.0521491041
 10
7.9461127096
 20
17.0632018473
 10
7.9309258667
 20
17.07364332
 10
7.9154327921
 20
17.0834676913
 10
7.8996343048
 20
17.092680024
 10
7.8835420647
 20
17.1012775655
 10
6.8888578517
 20
17.5986391071
  0
LINE
  5
3B7
100
AcDbEntity
  8
C_CORPO
100
AcDbLine
 62
7
  6
CONTINUOUS
 10
8.1947088155
 20
16.4933650614
 11
8.1947088155
 21
10.3195444134
  0
LINE
  5
3B8
100
AcDbEntity
  8
C_CORPO
100
AcDbLine
 62
7
  6
CONTINUOUS
 10
8.1947088155
 20
-16.9278545503
 11
8.1947088155
 21
-23.1016751983
  0
LINE
  5
3B9
100
AcDbEntity
  8
C_CORPO
100
AcDbLine
 62
250
  6
CONTINUOUS
 10
8.5271094716
 20
14.7741047565
 11
8.5271094716
 21
15.5183528103
  0
LINE
  5
3BA
100
AcDbEntity
  8
C_CORPO
100
AcDbLine
 62
7
  6
CONTINUOUS
 10
8.9001008713
 20
15.7008619085
 11
8.9001008713
 21
15.6783912561
  0
LINE
  5
3BB
100
AcDbEntity
  8
C_CONTATTI
100
AcDbLine
 62
7
  6
CONTINUOUS
 10
9.3506690408
 20
13.9143133974
 11
9.3506690408
 21
13.7604065544
  0
LINE
  5
3BC
100
AcDbEntity
  8
C_CONTATTI
100
AcDbLine
 62
7
  6
CONTINUOUS
 10
9.3835995183
 20
13.9447252456
 11
9.3835995183
 21
13.7581011778
  0
LINE
  5
3BD
100
AcDbEntity
  8
C_CONTATTI
100
AcDbLine
 62
7
  6
CONTINUOUS
 10
9.5952026592
 20
14.4539110486
 11
9.5952026592
 21
13.7477956784
  0
LINE
  5
3BE
100
AcDbEntity
  8
C_CONTATTI
100
AcDbLine
 62
7
  6
CONTINUOUS
 10
10.1185995183
 20
14.3122252456
 11
10.1185995183
 21
13.7513418397
  0
LINE
  5
3BF
100
AcDbEntity
  8
C_CONTATTI
100
AcDbLine
 62
7
  6
CONTINUOUS
 10
10.1794232147
 20
14.3286904844
 11
10.1794232147
 21
13.7544717103
  0
LWPOLYLINE
  5
3C0
100
AcDbEntity
  8
C_CORPO
100
AcDbPolyline
 62
250
  6
CONTINUOUS
 90
58
 70
0
 10
8.1385767755
 20
-23.1711410353
 10
8.1383694703
 20
-23.1901425191
 10
8.1377510323
 20
-23.2093164973
 10
8.1367214615
 20
-23.22866297
 10
8.1352793904
 20
-23.2481970324
 10
8.1334261866
 20
-23.2679035893
 10
8.1311659526
 20
-23.2877373549
 10
8.1284977745
 20
-23.3076981827
 10
8.1254225662
 20
-23.3277862191
 10
8.1219471729
 20
-23.3479566173
 10
8.118070705
 20
-23.3682095067
 10
8.1137940519
 20
-23.3885447578
 10
8.1091267279
 20
-23.4089171354
 10
8.1040678754
 20
-23.4293266918
 10
8.0986183518
 20
-23.4497733746
 10
8.092790244
 20
-23.4702117918
 10
8.0865826924
 20
-23.4906419832
 10
8.0799965565
 20
-23.5110639089
 10
8.0730465011
 20
-23.5314320565
 10
8.0657317249
 20
-23.5517462754
 10
8.0580530293
 20
-23.5720067161
 10
8.0500274828
 20
-23.5921683186
 10
8.0416543071
 20
-23.6122308774
 10
8.0329342804
 20
-23.6321945979
 10
8.0238868064
 20
-23.6520150359
 10
8.0145111681
 20
-23.6716918487
 10
8.0048080824
 20
-23.691225379
 10
7.9947991028
 20
-23.7105722105
 10
7.9844835267
 20
-23.7297319674
 10
7.9738620568
 20
-23.7487050255
 10
7.9629583548
 20
-23.7674490962
 10
7.9517718124
 20
-23.7859636339
 10
7.9403030379
 20
-23.8042491842
 10
7.9285775172
 20
-23.8222650954
 10
7.916594664
 20
-23.8400107906
 10
7.9043550645
 20
-23.8574868467
 10
7.8918859638
 20
-23.8746543427
 10
7.8791868581
 20
-23.8915125809
 10
7.8662582512
 20
-23.9080622592
 10
7.8531288998
 20
-23.9242665499
 10
7.8397983336
 20
-23.9401247078
 10
7.8262670228
 20
-23.9556374782
 10
7.8125651348
 20
-23.9707702696
 10
7.798692328
 20
-23.9855221936
 10
7.7846489439
 20
-23.9998941385
 10
7.7704661746
 20
-24.0138541775
 10
7.7561436894
 20
-24.027401418
 10
7.7416818189
 20
-24.0405367526
 10
7.7271127466
 20
-24.0532309317
 10
7.7124361908
 20
-24.0654829968
 10
7.6976524332
 20
-24.0772939064
 10
7.6827945032
 20
-24.0886372867
 10
7.6678619177
 20
-24.0995122564
 10
7.6528551597
 20
-24.1099196969
 10
7.6378087083
 20
-24.1198358784
 10
7.6227340564
 20
-24.1292528911
 10
7.6076197109
 20
-24.1381786449
 10
7.592465672
 20
-24.1466131397
  0
LWPOLYLINE
  5
3C1
100
AcDbEntity
  8
C_CORPO
100
AcDbPolyline
 62
250
  6
CONTINUOUS
 90
19
 70
0
 10
8.1947088155
 20
-23.1016751983
 10
8.194590341
 20
-23.1051167011
 10
8.1941074029
 20
-23.1094244457
 10
8.1932532849
 20
-23.1137177651
 10
8.192029577
 20
-23.1179886673
 10
8.1904385571
 20
-23.1222292019
 10
8.1884831868
 20
-23.1264314753
 10
8.1861671062
 20
-23.1305876649
 10
8.1834946266
 20
-23.134690034
 10
8.1804707228
 20
-23.1387309461
 10
8.1771010239
 20
-23.1427028789
 10
8.1733918025
 20
-23.1465984389
 10
8.1693499633
 20
-23.1504103743
 10
8.1649830302
 20
-23.1541315893
 10
8.1602991322
 20
-23.1577551568
 10
8.1553069885
 20
-23.1612743317
 10
8.1500158919
 20
-23.164682563
 10
8.1444356917
 20
-23.1679735062
 10
8.1385767755
 20
-23.1711410353
  0
LWPOLYLINE
  5
3C2
100
AcDbEntity
  8
C_CORPO
100
AcDbPolyline
 62
7
  6
CONTINUOUS
 90
25
 70
0
 10
17.6604837214
 20
11.7793330745
 10
17.6729602972
 20
11.7981445985
 10
17.6848533587
 20
11.8170542266
 10
17.6961701054
 20
11.8360319391
 10
17.7069452034
 20
11.8550745511
 10
17.7171603709
 20
11.8741263886
 10
17.7267486861
 20
11.8930783778
 10
17.7357140901
 20
11.9118844169
 10
17.7440831548
 20
11.9305338553
 10
17.7518283214
 20
11.9489714349
 10
17.7589632637
 20
11.9671707853
 10
17.7655081701
 20
11.9851083807
 10
17.771447083
 20
12.0027351166
 10
17.7767963299
 20
12.0200341247
 10
17.7815761294
 20
12.0369801701
 10
17.7857790812
 20
12.0535143831
 10
17.7894211935
 20
12.0696210204
 10
17.792526602
 20
12.085283742
 10
17.7951037931
 20
12.1004471116
 10
17.7971682108
 20
12.1150838724
 10
17.7987471212
 20
12.1292020955
 10
17.799867788
 20
12.1428029505
 10
17.8005476239
 20
12.1558751484
 10
17.8008072071
 20
12.16841947
 10
17.8008138213
 20
14.9494099793
  0
LWPOLYLINE
  5
3C3
100
AcDbEntity
  8
C_COPERCHIO
100
AcDbPolyline
 62
250
  6
CONTINUOUS
 90
20
 70
0
 10
-20.3773432065
 20
18.905632716
 10
-20.3840639554
 20
18.908726161
 10
-20.3907709951
 20
18.9115147977
 10
-20.3974549489
 20
18.9139947273
 10
-20.4041064723
 20
18.9161624828
 10
-20.4107162661
 20
18.9180150336
 10
-20.4172750895
 20
18.9195497898
 10
-20.423773773
 20
18.9207646056
 10
-20.4302032311
 20
18.9216577827
 10
-20.4365544751
 20
18.9222280724
 10
-20.4428186257
 20
18.9224746774
 10
-20.4489869253
 20
18.922397253
 10
-20.4550507503
 20
18.9219959074
 10
-20.4610016231
 20
18.9212712016
 10
-20.4668312243
 20
18.9202241489
 10
-20.4725314036
 20
18.918856213
 10
-20.4780941921
 20
18.9171693065
 10
-20.4835118126
 20
18.9151657877
 10
-20.488776691
 20
18.9128484577
 10
-20.4929639829
 20
18.9107221472
  0
LINE
  5
3C4
100
AcDbEntity
  8
C_CONTATTI
100
AcDbLine
 62
7
  6
CONTINUOUS
 10
11.4855090618
 20
14.2746266267
 11
11.4454530336
 21
14.8035961306
  0
LINE
  5
3C5
100
AcDbEntity
  8
C_CONTATTI
100
AcDbLine
 62
7
  6
CONTINUOUS
 10
10.8535995183
 20
13.9447252456
 11
10.8535995183
 21
13.8287870429
  0
LINE
  5
3C6
100
AcDbEntity
  8
C_CORPO
100
AcDbLine
 62
7
  6
CONTINUOUS
 10
12.0631431666
 20
17.6929251056
 11
12.0631431666
 21
17.2599124037
  0
LINE
  5
3C7
100
AcDbEntity
  8
C_CONTATTI
100
AcDbLine
 62
7
  6
CONTINUOUS
 10
10.1794232147
 20
14.3286904844
 11
10.1185995183
 21
14.3122252456
  0
LWPOLYLINE
  5
3C8
100
AcDbEntity
  8
C_COPERCHIO
100
AcDbPolyline
 62
7
  6
CONTINUOUS
 90
16
 70
0
 10
-0.0939979039
 20
12.0562772861
 10
-0.0743136886
 20
12.0566325856
 10
-0.0547212765
 20
12.056598825
 10
-0.0352420649
 20
12.0562256218
 10
-0.0158990633
 20
12.0555747441
 10
0.0032970543
 20
12.0546807796
 10
0.0223465584
 20
12.0535443908
 10
0.0412380573
 20
12.052199945
 10
0.0599614518
 20
12.0506871562
 10
0.0785195055
 20
12.0490028905
 10
0.096905205
 20
12.0471745131
 10
0.1151117841
 20
12.0452336749
 10
0.1331418105
 20
12.0431755171
 10
0.150990863
 20
12.0410223365
 10
0.1686544877
 20
12.0387997641
 10
0.1861341134
 20
12.0365023602
  0
LWPOLYLINE
  5
3C9
100
AcDbEntity
  8
C_COPERCHIO
100
AcDbPolyline
 62
7
  6
CONTINUOUS
 90
4
 70
0
 10
0.507394038
 20
11.9891505925
 10
0.5203408218
 20
11.9875282609
 10
0.5330591349
 20
11.9860126753
 10
0.5455501774
 20
11.9846125613
  0
LINE
  5
3CA
100
AcDbEntity
  8
C_COPERCHIO
100
AcDbLine
 62
250
  6
CONTINUOUS
 10
-4.0202161469
 20
13.9447671178
 11
-4.0094531489
 21
13.943383394
  0
LINE
  5
3CB
100
AcDbEntity
  8
C_COPERCHIO
100
AcDbLine
 62
7
  6
CONTINUOUS
 10
0.4808049259
 20
11.9926711746
 11
0.507394038
 21
11.9891505925
  0
LINE
  5
3CC
100
AcDbEntity
  8
C_COPERCHIO
100
AcDbLine
 62
250
  6
CONTINUOUS
 10
-4.0308937035
 20
13.9462192934
 11
-4.0202161469
 21
13.9447671178
  0
LINE
  5
3CD
100
AcDbEntity
  8
C_COPERCHIO
100
AcDbLine
 62
7
  6
CONTINUOUS
 10
0.1861341134
 20
12.0365023602
 11
0.2205301877
 21
12.0317599574
  0
LINE
  5
3CE
100
AcDbEntity
  8
C_COPERCHIO
100
AcDbLine
 62
7
  6
CONTINUOUS
 10
0.4533244465
 20
11.996543699
 11
0.4808049259
 21
11.9926711746
  0
LINE
  5
3CF
100
AcDbEntity
  8
C_COPERCHIO
100
AcDbLine
 62
250
  6
CONTINUOUS
 10
-4.0414854503
 20
13.9477388528
 11
-4.0308937035
 21
13.9462192934
  0
LINE
  5
3D0
100
AcDbEntity
  8
C_COPERCHIO
100
AcDbLine
 62
7
  6
CONTINUOUS
 10
0.2205301877
 20
12.0317599574
 11
0.2541650802
 21
12.026876843
  0
LINE
  5
3D1
100
AcDbEntity
  8
C_COPERCHIO
100
AcDbLine
 62
7
  6
CONTINUOUS
 10
0.4249672945
 20
12.0007154035
 11
0.4533244465
 21
11.996543699
  0
LINE
  5
3D2
100
AcDbEntity
  8
C_COPERCHIO
100
AcDbLine
 62
250
  6
CONTINUOUS
 10
-4.0519911684
 20
13.9493250966
 11
-4.0414854503
 21
13.9477388528
  0
LINE
  5
3D3
100
AcDbEntity
  8
C_COPERCHIO
100
AcDbLine
 62
7
  6
CONTINUOUS
 10
0.2541650802
 20
12.026876843
 11
0.3031621997
 21
12.0194728449
  0
LINE
  5
3D4
100
AcDbEntity
  8
C_COPERCHIO
100
AcDbLine
 62
7
  6
CONTINUOUS
 10
0.3031621997
 20
12.0194728449
 11
0.4249672945
 21
12.0007154035
  0
LINE
  5
3D5
100
AcDbEntity
  8
C_COPERCHIO
100
AcDbLine
 62
250
  6
CONTINUOUS
 10
-4.0624105697
 20
13.9509769926
 11
-4.0519911684
 21
13.9493250966
  0
LINE
  5
3D6
100
AcDbEntity
  8
C_COPERCHIO
100
AcDbLine
 62
250
  6
CONTINUOUS
 10
-4.0727434574
 20
13.9526935639
 11
-4.0624105697
 21
13.9509769926
  0
LINE
  5
3D7
100
AcDbEntity
  8
C_COPERCHIO
100
AcDbLine
 62
250
  6
CONTINUOUS
 10
-4.0829896761
 20
13.9544741638
 11
-4.0727434574
 21
13.9526935639
  0
LINE
  5
3D8
100
AcDbEntity
  8
C_COPERCHIO
100
AcDbLine
 62
250
  6
CONTINUOUS
 10
-4.0931489642
 20
13.9563178298
 11
-4.0829896761
 21
13.9544741638
  0
LINE
  5
3D9
100
AcDbEntity
  8
C_COPERCHIO
100
AcDbLine
 62
250
  6
CONTINUOUS
 10
-4.1032211044
 20
13.9582236449
 11
-4.0931489642
 21
13.9563178298
  0
LINE
  5
3DA
100
AcDbEntity
  8
C_COPERCHIO
100
AcDbLine
 62
250
  6
CONTINUOUS
 10
-4.1132059621
 20
13.9601910077
 11
-4.1032211044
 21
13.9582236449
  0
LINE
  5
3DB
100
AcDbEntity
  8
C_COPERCHIO
100
AcDbLine
 62
250
  6
CONTINUOUS
 10
-4.1231033489
 20
13.9622190309
 11
-4.1132059621
 21
13.9601910077
  0
LINE
  5
3DC
100
AcDbEntity
  8
C_COPERCHIO
100
AcDbLine
 62
250
  6
CONTINUOUS
 10
-4.1329131237
 20
13.9643068752
 11
-4.1231033489
 21
13.9622190309
  0
LINE
  5
3DD
100
AcDbEntity
  8
C_COPERCHIO
100
AcDbLine
 62
250
  6
CONTINUOUS
 10
-4.1426351982
 20
13.9664539908
 11
-4.1329131237
 21
13.9643068752
  0
LINE
  5
3DE
100
AcDbEntity
  8
C_COPERCHIO
100
AcDbLine
 62
250
  6
CONTINUOUS
 10
-4.152269435
 20
13.9686595642
 11
-4.1426351982
 21
13.9664539908
  0
LINE
  5
3DF
100
AcDbEntity
  8
C_COPERCHIO
100
AcDbLine
 62
250
  6
CONTINUOUS
 10
-4.1618158299
 20
13.9709228539
 11
-4.152269435
 21
13.9686595642
  0
LINE
  5
3E0
100
AcDbEntity
  8
C_COPERCHIO
100
AcDbLine
 62
250
  6
CONTINUOUS
 10
-4.1712743734
 20
13.9732433744
 11
-4.1618158299
 21
13.9709228539
  0
LINE
  5
3E1
100
AcDbEntity
  8
C_COPERCHIO
100
AcDbLine
 62
250
  6
CONTINUOUS
 10
-4.1806450787
 20
13.9756204189
 11
-4.1712743734
 21
13.9732433744
  0
LINE
  5
3E2
100
AcDbEntity
  8
C_COPERCHIO
100
AcDbLine
 62
250
  6
CONTINUOUS
 10
-4.1899278537
 20
13.9780532977
 11
-4.1806450787
 21
13.9756204189
  0
LINE
  5
3E3
100
AcDbEntity
  8
C_COPERCHIO
100
AcDbLine
 62
250
  6
CONTINUOUS
 10
-4.1991226506
 20
13.9805415633
 11
-4.1899278537
 21
13.9780532977
  0
LINE
  5
3E4
100
AcDbEntity
  8
C_COPERCHIO
100
AcDbLine
 62
250
  6
CONTINUOUS
 10
-4.2082294024
 20
13.9830845587
 11
-4.1991226506
 21
13.9805415633
  0
LINE
  5
3E5
100
AcDbEntity
  8
C_COPERCHIO
100
AcDbLine
 62
250
  6
CONTINUOUS
 10
-4.2172480447
 20
13.9856816699
 11
-4.2082294024
 21
13.9830845587
  0
LINE
  5
3E6
100
AcDbEntity
  8
C_COPERCHIO
100
AcDbLine
 62
250
  6
CONTINUOUS
 10
-4.226178534
 20
13.9883324963
 11
-4.2172480447
 21
13.9856816699
  0
LINE
  5
3E7
100
AcDbEntity
  8
C_COPERCHIO
100
AcDbLine
 62
250
  6
CONTINUOUS
 10
-4.2350208038
 20
13.9910364505
 11
-4.226178534
 21
13.9883324963
  0
LINE
  5
3E8
100
AcDbEntity
  8
C_COPERCHIO
100
AcDbLine
 62
250
  6
CONTINUOUS
 10
-4.2437747758
 20
13.9937929841
 11
-4.2350208038
 21
13.9910364505
  0
LINE
  5
3E9
100
AcDbEntity
  8
C_COPERCHIO
100
AcDbLine
 62
250
  6
CONTINUOUS
 10
-4.2524404408
 20
13.9966017557
 11
-4.2437747758
 21
13.9937929841
  0
LINE
  5
3EA
100
AcDbEntity
  8
C_COPERCHIO
100
AcDbLine
 62
250
  6
CONTINUOUS
 10
-4.2610178633
 20
13.9994622929
 11
-4.2524404408
 21
13.9966017557
  0
LINE
  5
3EB
100
AcDbEntity
  8
C_COPERCHIO
100
AcDbLine
 62
250
  6
CONTINUOUS
 10
-4.2695070208
 20
14.0023741464
 11
-4.2610178633
 21
13.9994622929
  0
LINE
  5
3EC
100
AcDbEntity
  8
C_COPERCHIO
100
AcDbLine
 62
250
  6
CONTINUOUS
 10
-14.3899246199
 20
19.0619523205
 11
-14.3814795935
 21
19.059014885
  0
LINE
  5
3ED
100
AcDbEntity
  8
C_CORPO
100
AcDbLine
 62
7
  6
CONTINUOUS
 10
17.6961822413
 20
6.2138166837
 11
17.6604837214
 21
6.2292853472
  0
LWPOLYLINE
  5
3EE
100
AcDbEntity
  8
C_COPERCHIO
100
AcDbPolyline
 62
250
  6
CONTINUOUS
 90
19
 70
0
 10
-0.6412470269
 20
14.0935226451
 10
-0.6484843076
 20
14.0968414742
 10
-0.6557048517
 20
14.099806439
 10
-0.6628969521
 20
14.1024127321
 10
-0.6700489477
 20
14.1046561278
 10
-0.6771492424
 20
14.1065329886
 10
-0.684186324
 20
14.1080402716
 10
-0.6911487827
 20
14.1091755327
 10
-0.6980253297
 20
14.1099369312
 10
-0.7048048157
 20
14.1103232328
 10
-0.7114762485
 20
14.110333811
 10
-0.7180288112
 20
14.1099686487
 10
-0.7244518797
 20
14.1092283379
 10
-0.7307350398
 20
14.108114079
 10
-0.7368681041
 20
14.1066276785
 10
-0.7428411285
 20
14.1047715465
 10
-0.7486444287
 20
14.1025486925
 10
-0.7542685952
 20
14.0999627205
 10
-0.7568653546
 20
14.0986133973
  0
LWPOLYLINE
  5
3EF
100
AcDbEntity
  8
C_COPERCHIO
100
AcDbPolyline
 62
250
  6
CONTINUOUS
 90
19
 70
0
 10
-16.763281638
 20
22.1545399506
 10
-16.7705189186
 20
22.1578587797
 10
-16.7777394628
 20
22.1608237445
 10
-16.7849315632
 20
22.1634300376
 10
-16.7920835588
 20
22.1656734333
 10
-16.7991838535
 20
22.1675502942
 10
-16.806220935
 20
22.1690575771
 10
-16.8131833937
 20
22.1701928382
 10
-16.8200599408
 20
22.1709542368
 10
-16.8268394268
 20
22.1713405383
 10
-16.8335108596
 20
22.1713511165
 10
-16.8400634223
 20
22.1709859542
 10
-16.8464864908
 20
22.1702456434
 10
-16.8527696508
 20
22.1691313845
 10
-16.8589027151
 20
22.167644984
 10
-16.8648757396
 20
22.165788852
 10
-16.8706790397
 20
22.163565998
 10
-16.8763032063
 20
22.160980026
 10
-16.8788999657
 20
22.1596307028
  0
LINE
  5
3F0
100
AcDbEntity
  8
C_COPERCHIO
100
AcDbLine
 62
7
  6
CONTINUOUS
 10
-11.0592485782
 20
17.8969642553
 11
-5.5438156849
 21
15.1392478087
  0
LINE
  5
3F1
100
AcDbEntity
  8
RACCORDO
100
AcDbLine
 62
7
  6
CONTINUOUS
 10
-3.8467594101
 20
15.8351461765
 11
-5.3081608704
 21
16.5658469066
  0
LINE
  5
3F2
100
AcDbEntity
  8
RACCORDO
100
AcDbLine
 62
7
  6
CONTINUOUS
 10
-10.8706393241
 20
19.3470861335
 11
-12.3320407843
 21
20.0777868636
  0
LINE
  5
3F3
100
AcDbEntity
  8
0
100
AcDbLine
 62
250
  6
CONTINUOUS
 10
-3.8467594101
 20
16.0949537976
 11
-12.3320407843
 21
20.3375944847
  0
LWPOLYLINE
  5
3F4
100
AcDbEntity
  8
RACCORDO
100
AcDbPolyline
 62
7
  6
CONTINUOUS
 90
25
 70
0
 10
-10.8706393241
 20
19.3470861335
 10
-10.8618482102
 20
19.3423493065
 10
-10.8531564433
 20
19.3370135556
 10
-10.8445640234
 20
19.3310788806
 10
-10.8360389702
 20
19.3245181066
 10
-10.827613264
 20
19.3173584087
 10
-10.8193828451
 20
19.3096813115
 10
-10.8113499456
 20
19.3014809012
 10
-10.8035123334
 20
19.2927630917
 10
-10.7959592524
 20
19.2836271493
 10
-10.7886939548
 20
19.2740682949
 10
-10.7817131885
 20
19.2640913076
 10
-10.7750964406
 20
19.2538097917
 10
-10.7688478721
 20
19.2432202663
 10
-10.7629633222
 20
19.2323262124
 10
-10.7575097959
 20
19.2212516762
 10
-10.75249222
 20
19.209994595
 10
-10.7479056678
 20
19.1985570316
 10
-10.7438023646
 20
19.1870692213
 10
-10.740187834
 20
19.1755305897
 10
-10.7370565525
 20
19.1639417111
 10
-10.7344441747
 20
19.1524345438
 10
-10.7323625856
 20
19.1410530738
 10
-10.7307999003
 20
19.1297533151
 10
-10.7297561188
 20
19.1185352675
  0
LWPOLYLINE
  5
3F5
100
AcDbEntity
  8
C_COPERCHIO
100
AcDbPolyline
 62
250
  6
CONTINUOUS
 90
40
 70
0
 10
-15.753234205
 20
21.6495162341
 10
-15.7462402528
 20
21.6457194468
 10
-15.7392526383
 20
21.6415803321
 10
-15.7322826908
 20
21.6371056012
 10
-15.7253417114
 20
21.6323025091
 10
-15.718440954
 20
21.6271788437
 10
-15.7115916072
 20
21.6217429121
 10
-15.7048047764
 20
21.6160035282
 10
-15.6980914657
 20
21.6099699975
 10
-15.6914625597
 20
21.6036521028
 10
-15.6849288066
 20
21.5970600877
 10
-15.6785007998
 20
21.5902046402
 10
-15.6721889617
 20
21.5830968758
 10
-15.6660035261
 20
21.5757483187
 10
-15.6599545218
 20
21.5681708836
 10
-15.6540517567
 20
21.5603768565
 10
-15.6483048012
 20
21.5523788744
 10
-15.6427229734
 20
21.5441899049
 10
-15.6373153235
 20
21.5358232256
 10
-15.6320906193
 20
21.5272924019
 10
-15.627057332
 20
21.5186112655
 10
-15.6222236225
 20
21.5097938918
 10
-15.617597328
 20
21.5008545769
 10
-15.6131859495
 20
21.491807815
 10
-15.6089966395
 20
21.4826682742
 10
-15.6050361904
 20
21.4734507731
 10
-15.6013110235
 20
21.4641702567
 10
-15.5978271789
 20
21.4548417723
 10
-15.5945903051
 20
21.4454804447
 10
-15.5916056502
 20
21.4361014523
 10
-15.5888780536
 20
21.4267200019
 10
-15.5864119377
 20
21.4173513044
 10
-15.5842113009
 20
21.4080105498
 10
-15.5822797114
 20
21.3987128831
 10
-15.580620301
 20
21.3894733793
 10
-15.5792357601
 20
21.380307019
 10
-15.5781283337
 20
21.3712286644
 10
-15.5772998174
 20
21.3622530349
 10
-15.5767515544
 20
21.3533946834
 10
-15.5764844336
 20
21.3446679725
  0
LWPOLYLINE
  5
3F6
100
AcDbEntity
  8
C_COPERCHIO
100
AcDbPolyline
 62
250
  6
CONTINUOUS
 90
40
 70
0
 10
0.3688004061
 20
13.5884989286
 10
0.3757943582
 20
13.5847021413
 10
0.3827819728
 20
13.5805630266
 10
0.3897519202
 20
13.5760882956
 10
0.3966928996
 20
13.5712852036
 10
0.4035936571
 20
13.5661615381
 10
0.4104430039
 20
13.5607256066
 10
0.4172298347
 20
13.5549862226
 10
0.4239431454
 20
13.548952692
 10
0.4305720513
 20
13.5426347973
 10
0.4371058045
 20
13.5360427821
 10
0.4435338112
 20
13.5291873347
 10
0.4498456493
 20
13.5220795703
 10
0.456031085
 20
13.5147310131
 10
0.4620800892
 20
13.5071535781
 10
0.4679828544
 20
13.499359551
 10
0.4737298099
 20
13.4913615688
 10
0.4793116377
 20
13.4831725994
 10
0.4847192876
 20
13.4748059201
 10
0.4899439918
 20
13.4662750964
 10
0.4949772791
 20
13.45759396
 10
0.4998109886
 20
13.4487765862
 10
0.504437283
 20
13.4398372714
 10
0.5088486616
 20
13.4307905095
 10
0.5130379716
 20
13.4216509687
 10
0.5169984207
 20
13.4124334675
 10
0.5207235875
 20
13.4031529512
 10
0.5242074322
 20
13.3938244667
 10
0.527444306
 20
13.3844631392
 10
0.5304289608
 20
13.3750841468
 10
0.5331565575
 20
13.3657026964
 10
0.5356226734
 20
13.3563339988
 10
0.5378233101
 20
13.3469932443
 10
0.5397548997
 20
13.3376955776
 10
0.5414143101
 20
13.3284560737
 10
0.5427988509
 20
13.3192897135
 10
0.5439062773
 20
13.3102113589
 10
0.5447347937
 20
13.3012357294
 10
0.5452830567
 20
13.2923773778
 10
0.5455501774
 20
13.2836506669
  0
LINE
  5
3F7
100
AcDbEntity
  8
C_CORPO
100
AcDbLine
 62
7
  6
CONTINUOUS
 10
2.9749949998
 20
22.4658727807
 11
3.0828870455
 21
22.1830531662
  0
LINE
  5
3F8
100
AcDbEntity
  8
C_CONTATTI
100
AcDbLine
 62
7
  6
CONTINUOUS
 10
9.089733077
 20
14.2116710929
 11
8.8882337191
 21
14.8073955187
  0
LWPOLYLINE
  5
3F9
100
AcDbEntity
  8
C_CONTATTI
100
AcDbPolyline
 62
7
  6
CONTINUOUS
 90
12
 70
0
 10
11.4454530336
 20
14.8035961306
 10
11.44399506
 20
14.8167581926
 10
11.4415888888
 20
14.8291967211
 10
11.4382345201
 20
14.8409117159
 10
11.4338841579
 20
14.8520226017
 10
11.4285855982
 20
14.8624099539
 10
11.4224822281
 20
14.8717154987
 10
11.4155754621
 20
14.8798553715
 10
11.4078638856
 20
14.8869134367
 10
11.3994866425
 20
14.8927830143
 10
11.3904477597
 20
14.8974572649
 10
11.3831869061
 20
14.900199932
  0
LWPOLYLINE
  5
3FA
100
AcDbEntity
  8
C_COPERCHIO
100
AcDbPolyline
 62
250
  6
CONTINUOUS
 90
11
 70
0
 10
-3.4738423404
 20
13.9663829408
 10
-3.4672468472
 20
13.9677938246
 10
-3.46065167
 20
13.9692351082
 10
-3.4540568247
 20
13.970706788
 10
-3.4474636621
 20
13.9722092536
 10
-3.4408721664
 20
13.9737425088
 10
-3.4342823534
 20
13.9753065499
 10
-3.4276956218
 20
13.9769017545
 10
-3.4211124378
 20
13.9785282487
 10
-3.414532335
 20
13.9801859064
 10
-3.4079553136
 20
13.9818747277
  0
LINE
  5
3FB
100
AcDbEntity
  8
C_COPERCHIO
100
AcDbLine
 62
250
  6
CONTINUOUS
 10
-3.4870330188
 20
13.9636519614
 11
-3.4738423404
 21
13.9663829408
  0
LINE
  5
3FC
100
AcDbEntity
  8
C_COPERCHIO
100
AcDbLine
 62
250
  6
CONTINUOUS
 10
-3.5002197794
 20
13.961040972
 11
-3.4870330188
 21
13.9636519614
  0
LINE
  5
3FD
100
AcDbEntity
  8
C_COPERCHIO
100
AcDbLine
 62
250
  6
CONTINUOUS
 10
-3.5133988702
 20
13.958548739
 11
-3.5002197794
 21
13.961040972
  0
LINE
  5
3FE
100
AcDbEntity
  8
C_COPERCHIO
100
AcDbLine
 62
250
  6
CONTINUOUS
 10
-3.5265678256
 20
13.9561744338
 11
-3.5133988702
 21
13.958548739
  0
LINE
  5
3FF
100
AcDbEntity
  8
C_COPERCHIO
100
AcDbLine
 62
250
  6
CONTINUOUS
 10
-3.5397230028
 20
13.9539168027
 11
-3.5265678256
 21
13.9561744338
  0
LINE
  5
400
100
AcDbEntity
  8
C_COPERCHIO
100
AcDbLine
 62
250
  6
CONTINUOUS
 10
-3.5528609206
 20
13.9517745651
 11
-3.5397230028
 21
13.9539168027
  0
LINE
  5
401
100
AcDbEntity
  8
C_COPERCHIO
100
AcDbLine
 62
250
  6
CONTINUOUS
 10
-3.5659793027
 20
13.9497468613
 11
-3.5528609206
 21
13.9517745651
  0
LINE
  5
402
100
AcDbEntity
  8
C_COPERCHIO
100
AcDbLine
 62
250
  6
CONTINUOUS
 10
-3.5790747995
 20
13.9478323911
 11
-3.5659793027
 21
13.9497468613
  0
LINE
  5
403
100
AcDbEntity
  8
C_COPERCHIO
100
AcDbLine
 62
250
  6
CONTINUOUS
 10
-3.5921442351
 20
13.9460298336
 11
-3.5790747995
 21
13.9478323911
  0
LINE
  5
404
100
AcDbEntity
  8
C_COPERCHIO
100
AcDbLine
 62
250
  6
CONTINUOUS
 10
-3.6051855183
 20
13.9443383061
 11
-3.5921442351
 21
13.9460298336
  0
LINE
  5
405
100
AcDbEntity
  8
C_COPERCHIO
100
AcDbLine
 62
250
  6
CONTINUOUS
 10
-3.6181955609
 20
13.9427564795
 11
-3.6051855183
 21
13.9443383061
  0
LINE
  5
406
100
AcDbEntity
  8
C_COPERCHIO
100
AcDbLine
 62
250
  6
CONTINUOUS
 10
-3.6311713941
 20
13.9412830143
 11
-3.6181955609
 21
13.9427564795
  0
LINE
  5
407
100
AcDbEntity
  8
C_COPERCHIO
100
AcDbLine
 62
250
  6
CONTINUOUS
 10
-3.6441110769
 20
13.9399170146
 11
-3.6311713941
 21
13.9412830143
  0
LINE
  5
408
100
AcDbEntity
  8
C_COPERCHIO
100
AcDbLine
 62
250
  6
CONTINUOUS
 10
-3.6570116829
 20
13.938657137
 11
-3.6441110769
 21
13.9399170146
  0
LINE
  5
409
100
AcDbEntity
  8
C_COPERCHIO
100
AcDbLine
 62
250
  6
CONTINUOUS
 10
-3.6698708808
 20
13.9375019924
 11
-3.6570116829
 21
13.938657137
  0
LINE
  5
40A
100
AcDbEntity
  8
C_COPERCHIO
100
AcDbLine
 62
250
  6
CONTINUOUS
 10
-3.6826870734
 20
13.9364506646
 11
-3.6698708808
 21
13.9375019924
  0
LINE
  5
40B
100
AcDbEntity
  8
C_COPERCHIO
100
AcDbLine
 62
250
  6
CONTINUOUS
 10
-3.6954581836
 20
13.9355017687
 11
-3.6826870734
 21
13.9364506646
  0
LINE
  5
40C
100
AcDbEntity
  8
C_COPERCHIO
100
AcDbLine
 62
250
  6
CONTINUOUS
 10
-3.7081802435
 20
13.9346540472
 11
-3.6954581836
 21
13.9355017687
  0
LINE
  5
40D
100
AcDbEntity
  8
C_COPERCHIO
100
AcDbLine
 62
250
  6
CONTINUOUS
 10
-3.7208508253
 20
13.9339066275
 11
-3.7081802435
 21
13.9346540472
  0
LINE
  5
40E
100
AcDbEntity
  8
C_COPERCHIO
100
AcDbLine
 62
250
  6
CONTINUOUS
 10
-3.7334662295
 20
13.9332581825
 11
-3.7208508253
 21
13.9339066275
  0
LINE
  5
40F
100
AcDbEntity
  8
C_COPERCHIO
100
AcDbLine
 62
250
  6
CONTINUOUS
 10
-3.7460233403
 20
13.9327073012
 11
-3.7334662295
 21
13.9332581825
  0
LINE
  5
410
100
AcDbEntity
  8
C_COPERCHIO
100
AcDbLine
 62
250
  6
CONTINUOUS
 10
-3.7585201219
 20
13.9322530359
 11
-3.7460233403
 21
13.9327073012
  0
LINE
  5
411
100
AcDbEntity
  8
C_COPERCHIO
100
AcDbLine
 62
250
  6
CONTINUOUS
 10
-3.7709536364
 20
13.9318939461
 11
-3.7585201219
 21
13.9322530359
  0
LINE
  5
412
100
AcDbEntity
  8
C_COPERCHIO
100
AcDbLine
 62
250
  6
CONTINUOUS
 10
-3.783321113
 20
13.9316285547
 11
-3.7709536364
 21
13.9318939461
  0
LINE
  5
413
100
AcDbEntity
  8
C_COPERCHIO
100
AcDbLine
 62
250
  6
CONTINUOUS
 10
-3.7956209372
 20
13.9314558716
 11
-3.783321113
 21
13.9316285547
  0
LINE
  5
414
100
AcDbEntity
  8
C_COPERCHIO
100
AcDbLine
 62
250
  6
CONTINUOUS
 10
-3.807850955
 20
13.9313743958
 11
-3.7956209372
 21
13.9314558716
  0
LINE
  5
415
100
AcDbEntity
  8
C_COPERCHIO
100
AcDbLine
 62
250
  6
CONTINUOUS
 10
-3.8200097166
 20
13.9313826347
 11
-3.807850955
 21
13.9313743958
  0
LINE
  5
416
100
AcDbEntity
  8
C_COPERCHIO
100
AcDbLine
 62
250
  6
CONTINUOUS
 10
-3.8320962617
 20
13.9314796023
 11
-3.8200097166
 21
13.9313826347
  0
LINE
  5
417
100
AcDbEntity
  8
C_COPERCHIO
100
AcDbLine
 62
250
  6
CONTINUOUS
 10
-3.8441092624
 20
13.9316638281
 11
-3.8320962617
 21
13.9314796023
  0
LINE
  5
418
100
AcDbEntity
  8
C_COPERCHIO
100
AcDbLine
 62
250
  6
CONTINUOUS
 10
-3.8560474879
 20
13.9319338756
 11
-3.8441092624
 21
13.9316638281
  0
LINE
  5
419
100
AcDbEntity
  8
C_COPERCHIO
100
AcDbLine
 62
250
  6
CONTINUOUS
 10
-3.8679101321
 20
13.9322887941
 11
-3.8560474879
 21
13.9319338756
  0
LINE
  5
41A
100
AcDbEntity
  8
C_COPERCHIO
100
AcDbLine
 62
250
  6
CONTINUOUS
 10
-3.8796960063
 20
13.9327271679
 11
-3.8679101321
 21
13.9322887941
  0
LINE
  5
41B
100
AcDbEntity
  8
C_COPERCHIO
100
AcDbLine
 62
250
  6
CONTINUOUS
 10
-3.8914040393
 20
13.9332476156
 11
-3.8796960063
 21
13.9327271679
  0
LINE
  5
41C
100
AcDbEntity
  8
C_COPERCHIO
100
AcDbLine
 62
250
  6
CONTINUOUS
 10
-3.9030335459
 20
13.9338492246
 11
-3.8914040393
 21
13.9332476156
  0
LINE
  5
41D
100
AcDbEntity
  8
C_COPERCHIO
100
AcDbLine
 62
250
  6
CONTINUOUS
 10
-3.9145835355
 20
13.9345306369
 11
-3.9030335459
 21
13.9338492246
  0
LINE
  5
41E
100
AcDbEntity
  8
C_COPERCHIO
100
AcDbLine
 62
250
  6
CONTINUOUS
 10
-3.9260531724
 20
13.9352905363
 11
-3.9145835355
 21
13.9345306369
  0
LINE
  5
41F
100
AcDbEntity
  8
C_COPERCHIO
100
AcDbLine
 62
250
  6
CONTINUOUS
 10
-3.937441922
 20
13.9361280546
 11
-3.9260531724
 21
13.9352905363
  0
LINE
  5
420
100
AcDbEntity
  8
C_COPERCHIO
100
AcDbLine
 62
250
  6
CONTINUOUS
 10
-3.9487490233
 20
13.9370419029
 11
-3.937441922
 21
13.9361280546
  0
LINE
  5
421
100
AcDbEntity
  8
C_COPERCHIO
100
AcDbLine
 62
250
  6
CONTINUOUS
 10
-3.9599738284
 20
13.9380308374
 11
-3.9487490233
 21
13.9370419029
  0
LINE
  5
422
100
AcDbEntity
  8
C_COPERCHIO
100
AcDbLine
 62
250
  6
CONTINUOUS
 10
-3.9711159033
 20
13.9390940362
 11
-3.9599738284
 21
13.9380308374
  0
LINE
  5
423
100
AcDbEntity
  8
C_COPERCHIO
100
AcDbLine
 62
250
  6
CONTINUOUS
 10
-3.9821746025
 20
13.9402302785
 11
-3.9711159033
 21
13.9390940362
  0
LINE
  5
424
100
AcDbEntity
  8
C_COPERCHIO
100
AcDbLine
 62
250
  6
CONTINUOUS
 10
-3.9931493449
 20
13.9414383838
 11
-3.9821746025
 21
13.9402302785
  0
LWPOLYLINE
  5
425
100
AcDbEntity
  8
C_COPERCHIO
100
AcDbPolyline
 62
250
  6
CONTINUOUS
 90
3
 70
0
 10
-4.0094531489
 20
13.943383394
 10
-4.0040397624
 20
13.9427175748
 10
-3.9931493449
 20
13.9414383838
  0
LINE
  5
426
100
AcDbEntity
  8
C_COPERCHIO
100
AcDbLine
 62
250
  6
CONTINUOUS
 10
-14.2343717093
 20
19.0193004962
 11
-14.2244305871
 21
19.0173028032
  0
LINE
  5
427
100
AcDbEntity
  8
C_COPERCHIO
100
AcDbLine
 62
250
  6
CONTINUOUS
 10
-14.244225316
 20
19.0213585727
 11
-14.2343717093
 21
19.0193004962
  0
LINE
  5
428
100
AcDbEntity
  8
C_COPERCHIO
100
AcDbLine
 62
250
  6
CONTINUOUS
 10
-14.253991259
 20
19.0234761847
 11
-14.244225316
 21
19.0213585727
  0
LINE
  5
429
100
AcDbEntity
  8
C_COPERCHIO
100
AcDbLine
 62
250
  6
CONTINUOUS
 10
-14.2636694146
 20
19.0256525292
 11
-14.253991259
 21
19.0234761847
  0
LINE
  5
42A
100
AcDbEntity
  8
C_COPERCHIO
100
AcDbLine
 62
250
  6
CONTINUOUS
 10
-14.2732597355
 20
19.0278870879
 11
-14.2636694146
 21
19.0256525292
  0
LINE
  5
42B
100
AcDbEntity
  8
C_COPERCHIO
100
AcDbLine
 62
250
  6
CONTINUOUS
 10
-14.2827622044
 20
19.0301791087
 11
-14.2732597355
 21
19.0278870879
  0
LINE
  5
42C
100
AcDbEntity
  8
C_COPERCHIO
100
AcDbLine
 62
250
  6
CONTINUOUS
 10
-14.2921768288
 20
19.0325278911
 11
-14.2827622044
 21
19.0301791087
  0
LINE
  5
42D
100
AcDbEntity
  8
C_COPERCHIO
100
AcDbLine
 62
250
  6
CONTINUOUS
 10
-14.3015035819
 20
19.0349329697
 11
-14.2921768288
 21
19.0325278911
  0
LINE
  5
42E
100
AcDbEntity
  8
C_COPERCHIO
100
AcDbLine
 62
250
  6
CONTINUOUS
 10
-14.3107423787
 20
19.0373936488
 11
-14.3015035819
 21
19.0349329697
  0
LINE
  5
42F
100
AcDbEntity
  8
C_COPERCHIO
100
AcDbLine
 62
250
  6
CONTINUOUS
 10
-14.3198931531
 20
19.0399092793
 11
-14.3107423787
 21
19.0373936488
  0
LINE
  5
430
100
AcDbEntity
  8
C_COPERCHIO
100
AcDbLine
 62
250
  6
CONTINUOUS
 10
-14.3289558609
 20
19.0424794375
 11
-14.3198931531
 21
19.0399092793
  0
LINE
  5
431
100
AcDbEntity
  8
C_COPERCHIO
100
AcDbLine
 62
250
  6
CONTINUOUS
 10
-14.3379304378
 20
19.0451035016
 11
-14.3289558609
 21
19.0424794375
  0
LINE
  5
432
100
AcDbEntity
  8
C_COPERCHIO
100
AcDbLine
 62
250
  6
CONTINUOUS
 10
-14.3468168173
 20
19.0477808919
 11
-14.3379304378
 21
19.0451035016
  0
LINE
  5
433
100
AcDbEntity
  8
C_COPERCHIO
100
AcDbLine
 62
250
  6
CONTINUOUS
 10
-14.3556149552
 20
19.0505112312
 11
-14.3468168173
 21
19.0477808919
  0
LINE
  5
434
100
AcDbEntity
  8
C_COPERCHIO
100
AcDbLine
 62
250
  6
CONTINUOUS
 10
-14.3643247612
 20
19.0532939591
 11
-14.3556149552
 21
19.0505112312
  0
LINE
  5
435
100
AcDbEntity
  8
C_COPERCHIO
100
AcDbLine
 62
250
  6
CONTINUOUS
 10
-14.372946305
 20
19.0561286135
 11
-14.3643247612
 21
19.0532939591
  0
LINE
  5
436
100
AcDbEntity
  8
C_COPERCHIO
100
AcDbLine
 62
250
  6
CONTINUOUS
 10
-14.3814795935
 20
19.059014885
 11
-14.372946305
 21
19.0561286135
  0
LWPOLYLINE
  5
437
100
AcDbEntity
  8
RACCORDO
100
AcDbPolyline
 62
7
  6
CONTINUOUS
 90
25
 70
0
 10
-3.765527191
 20
18.6763768334
 10
-3.775139832
 20
18.6810036281
 10
-3.785197936
 20
18.6855140339
 10
-3.7957015029
 20
18.6899080508
 10
-3.8066991866
 20
18.694203447
 10
-3.8181423331
 20
18.6983824543
 10
-3.8298849812
 20
18.702391768
 10
-3.8419309675
 20
18.7062292143
 10
-3.8542764553
 20
18.709896967
 10
-3.8667639738
 20
18.7133482426
 10
-3.8793953422
 20
18.7165802681
 10
-3.8921687412
 20
18.7195958166
 10
-3.9049212417
 20
18.7223564236
 10
-3.9176525759
 20
18.7248588234
 10
-3.9303630115
 20
18.7271062818
 10
-3.9428904226
 20
18.7290701316
 10
-3.9552324645
 20
18.7307467398
 10
-3.9673914818
 20
18.7321397396
 10
-3.9792123821
 20
18.7332313625
 10
-3.990690834
 20
18.7340177481
 10
-4.0018311688
 20
18.734502757
 10
-4.0124912876
 20
18.7346802026
 10
-4.0226238242
 20
18.7345480229
 10
-4.0322761449
 20
18.73410828
 10
-4.0414482496
 20
18.7333609738
  0
LWPOLYLINE
  5
438
100
AcDbEntity
  8
RACCORDO
100
AcDbPolyline
 62
7
  6
CONTINUOUS
 90
25
 70
0
 10
-7.7960358437
 20
20.6916311598
 10
-7.8056484848
 20
20.6962579545
 10
-7.8157065888
 20
20.7007683603
 10
-7.8262101557
 20
20.7051623772
 10
-7.8372078393
 20
20.7094577734
 10
-7.8486509858
 20
20.7136367807
 10
-7.860393634
 20
20.7176460943
 10
-7.8724396202
 20
20.7214835407
 10
-7.8847851081
 20
20.7251512934
 10
-7.8972726265
 20
20.728602569
 10
-7.909903995
 20
20.7318345945
 10
-7.922677394
 20
20.734850143
 10
-7.9354298945
 20
20.73761075
 10
-7.9481612287
 20
20.7401131498
 10
-7.9608716643
 20
20.7423606082
 10
-7.9733990753
 20
20.744324458
 10
-7.9857411173
 20
20.7460010662
 10
-7.9979001346
 20
20.7473940659
 10
-8.0097210348
 20
20.7484856889
 10
-8.0211994867
 20
20.7492720745
 10
-8.0323398215
 20
20.7497570834
 10
-8.0429999404
 20
20.749934529
 10
-8.053132477
 20
20.7498023493
 10
-8.0627847976
 20
20.7493626063
 10
-8.0719569023
 20
20.7486153002
  0
LINE
  5
439
100
AcDbEntity
  8
C_CORPO
100
AcDbLine
 62
7
  6
CONTINUOUS
 10
-15.3726214826
 20
22.941580097
 11
-14.2765844326
 21
22.393561572
  0
LINE
  5
43A
100
AcDbEntity
  8
C_CORPO
100
AcDbLine
 62
7
  6
CONTINUOUS
 10
0.7847900067
 20
14.8628743524
 11
1.8808270567
 21
14.3148558274
  0
LINE
  5
43B
100
AcDbEntity
  8
C_COPERCHIO
100
AcDbLine
 62
7
  6
CONTINUOUS
 10
1.8454771024
 20
14.3325308045
 11
0.7847630827
 21
14.8628878143
  0
LINE
  5
43C
100
AcDbEntity
  8
C_COPERCHIO
100
AcDbLine
 62
7
  6
CONTINUOUS
 10
-14.2765575087
 20
22.39354811
 11
-15.3372715283
 21
22.9239051199
  0
LINE
  5
43D
100
AcDbEntity
  8
0
100
AcDbLine
 62
250
  6
CONTINUOUS
 10
-3.3517846633
 20
16.9486589537
 11
-11.8370660375
 21
21.1912996408
  0
LINE
  5
43E
100
AcDbEntity
  8
0
100
AcDbLine
 62
250
  6
CONTINUOUS
 10
-2.9882165307
 20
17.13044302
 11
-11.4734979049
 21
21.3730837071
  0
LINE
  5
43F
100
AcDbEntity
  8
0
100
AcDbLine
 62
250
  6
CONTINUOUS
 10
-2.8352609221
 20
17.1772504141
 11
-11.3205422963
 21
21.4198911012
  0
LINE
  5
440
100
AcDbEntity
  8
RACCORDO
100
AcDbLine
 62
7
  6
CONTINUOUS
 10
-3.8467594101
 20
17.797741372
 11
-5.8973690755
 21
18.8230462047
  0
LINE
  5
441
100
AcDbEntity
  8
RACCORDO
100
AcDbLine
 62
7
  6
CONTINUOUS
 10
-7.8772680629
 20
19.8129956984
 11
-9.9278777283
 21
20.8383005311
  0
LINE
  5
442
100
AcDbEntity
  8
RACCORDO
100
AcDbLine
 62
7
  6
CONTINUOUS
 10
-7.7960358437
 20
20.6916311598
 11
-6.2089934552
 21
19.8981099655
  0
LINE
  5
443
100
AcDbEntity
  8
RACCORDO
100
AcDbLine
 62
7
  6
CONTINUOUS
 10
-3.765527191
 20
18.6763768334
 11
-2.1784848024
 21
17.8828556392
  0
LINE
  5
444
100
AcDbEntity
  8
RACCORDO
100
AcDbLine
 62
7
  6
CONTINUOUS
 10
-7.7086326388
 20
21.0647884037
 11
-5.6580229734
 21
20.0394835709
  0
LINE
  5
445
100
AcDbEntity
  8
RACCORDO
100
AcDbLine
 62
7
  6
CONTINUOUS
 10
-3.6781239861
 20
19.0495340773
 11
-1.6275143206
 21
18.0242292446
  0
LWPOLYLINE
  5
446
100
AcDbEntity
  8
RACCORDO
100
AcDbPolyline
 62
7
  6
CONTINUOUS
 90
15
 70
0
 10
-9.9278777283
 20
20.8383005311
 10
-9.9368939938
 20
20.8429881897
 10
-9.9452291818
 20
20.8476744299
 10
-9.9528832922
 20
20.8523592516
 10
-9.9598831913
 20
20.8570626468
 10
-9.9662020128
 20
20.8617646236
 10
-9.9717591581
 20
20.8664052066
 10
-9.9765448701
 20
20.8709836094
 10
-9.9805689058
 20
20.8755006185
 10
-9.9837799372
 20
20.8798986178
 10
-9.9861675498
 20
20.8841760828
 10
-9.9877421582
 20
20.888334538
 10
-9.9884836775
 20
20.8923209409
 10
-9.9883814362
 20
20.8961330876
 10
-9.9881074668
 20
20.8976389622
  0
LWPOLYLINE
  5
447
100
AcDbEntity
  8
RACCORDO
100
AcDbPolyline
 62
7
  6
CONTINUOUS
 90
15
 70
0
 10
-5.8973690755
 20
18.8230462047
 10
-5.906385341
 20
18.8277338633
 10
-5.914720529
 20
18.8324201035
 10
-5.9223746394
 20
18.8371049253
 10
-5.9293745385
 20
18.8418083204
 10
-5.9356933601
 20
18.8465102972
 10
-5.9412505053
 20
18.8511508802
 10
-5.9460362173
 20
18.855729283
 10
-5.950060253
 20
18.8602462921
 10
-5.9532712844
 20
18.8646442914
 10
-5.955658897
 20
18.8689217564
 10
-5.9572335054
 20
18.8730802116
 10
-5.9579750248
 20
18.8770666145
 10
-5.9578727835
 20
18.8808787612
 10
-5.9575988141
 20
18.8823846358
  0
LWPOLYLINE
  5
448
100
AcDbEntity
  8
RACCORDO
100
AcDbPolyline
 62
7
  6
CONTINUOUS
 90
15
 70
0
 10
-5.6580229734
 20
20.0394835709
 10
-5.6490067079
 20
20.0347959124
 10
-5.6406715199
 20
20.0301096722
 10
-5.6330174095
 20
20.0254248504
 10
-5.6260175104
 20
20.0207214552
 10
-5.6196986888
 20
20.0160194785
 10
-5.6141415436
 20
20.0113788955
 10
-5.6093558316
 20
20.0068004926
 10
-5.6053317959
 20
20.0022834836
 10
-5.6021207645
 20
19.9978854843
 10
-5.5997331519
 20
19.9936080193
 10
-5.5981585435
 20
19.989449564
 10
-5.5974170241
 20
19.9854631611
 10
-5.5975192655
 20
19.9816510145
 10
-5.5977932348
 20
19.9801451398
  0
LWPOLYLINE
  5
449
100
AcDbEntity
  8
RACCORDO
100
AcDbPolyline
 62
7
  6
CONTINUOUS
 90
15
 70
0
 10
-1.6275143206
 20
18.0242292446
 10
-1.6184980551
 20
18.019541586
 10
-1.6101628672
 20
18.0148553458
 10
-1.6025087568
 20
18.010170524
 10
-1.5955088576
 20
18.0054671289
 10
-1.5891900361
 20
18.0007651521
 10
-1.5836328908
 20
17.9961245691
 10
-1.5788471788
 20
17.9915461663
 10
-1.5748231432
 20
17.9870291572
 10
-1.5716121118
 20
17.9826311579
 10
-1.5692244991
 20
17.9783536929
 10
-1.5676498908
 20
17.9741952377
 10
-1.5669083714
 20
17.9702088347
 10
-1.5670106127
 20
17.9663966881
 10
-1.5672845821
 20
17.9648908134
  0
LWPOLYLINE
  5
44A
100
AcDbEntity
  8
C_CONTATTI
100
AcDbPolyline
 62
7
  6
CONTINUOUS
 90
5
 70
0
 10
3.3496436881
 20
18.8181255436
 10
3.3060289702
 20
18.8679991389
 10
3.2514796384
 20
18.9232203086
 10
3.1918315153
 20
18.9770460525
 10
3.1336426033
 20
19.0243407428
  0
LWPOLYLINE
  5
44B
100
AcDbEntity
  8
C_CORPO
100
AcDbPolyline
 62
250
  6
CONTINUOUS
 90
45
 70
0
 10
17.6604761833
 20
14.7910673292
 10
17.6600306219
 20
14.8065821131
 10
17.6591475799
 20
14.8222708433
 10
17.6578281326
 20
14.8381144128
 10
17.6560738871
 20
14.8540935263
 10
17.6538869797
 20
14.8701887232
 10
17.6512700739
 20
14.8863804015
 10
17.6482263566
 20
14.9026488419
 10
17.6447595348
 20
14.9189742315
 10
17.6408738306
 20
14.9353366879
 10
17.6365739763
 20
14.9517162839
 10
17.6318652086
 20
14.968093071
 10
17.6267532621
 20
14.9844471045
 10
17.6212443626
 20
15.0007584672
 10
17.6153452193
 20
15.017007294
 10
17.6090630164
 20
15.0331737958
 10
17.6024054051
 20
15.0492382838
 10
17.5953804933
 20
15.0651811936
 10
17.5879968365
 20
15.0809831087
 10
17.5802634271
 20
15.0966247843
 10
17.5721896835
 20
15.1120871709
 10
17.5637854383
 20
15.1273514373
 10
17.555060927
 20
15.1423989935
 10
17.5460267748
 20
15.1572115134
 10
17.5366939843
 20
15.1717709574
 10
17.5270739215
 20
15.1860595938
 10
17.5171783026
 20
15.2000600208
 10
17.5070191791
 20
15.2137551879
 10
17.4966089235
 20
15.2271284159
 10
17.4859602142
 20
15.2401634179
 10
17.4750860201
 20
15.252844319
 10
17.4639995844
 20
15.2651556755
 10
17.4527144091
 20
15.2770824936
 10
17.4412442381
 20
15.288610248
 10
17.4296030406
 20
15.2997248994
 10
17.4178049941
 20
15.3104129115
 10
17.4058644672
 20
15.3206612677
 10
17.3937960019
 20
15.3304574867
 10
17.381614296
 20
15.3397896381
 10
17.3693341853
 20
15.3486463563
 10
17.3569706256
 20
15.3570168552
 10
17.3445386739
 20
15.3648909404
 10
17.3320534709
 20
15.3722590224
 10
17.3195302219
 20
15.3791121276
 10
15.9168325319
 20
16.0805177334
  0
LINE
  5
44C
100
AcDbEntity
  8
C_CORPO
100
AcDbLine
 62
250
  6
CONTINUOUS
 10
17.6604837214
 20
11.7793330745
 11
17.6604761833
 21
14.7910673292
  0
LINE
  5
44D
100
AcDbEntity
  8
C_CORPO
100
AcDbLine
 62
7
  6
CONTINUOUS
 10
17.8008138213
 20
6.1824107538
 11
17.8008138213
 21
-11.4890993174
  0
LWPOLYLINE
  5
44E
100
AcDbEntity
  8
C_CORPO
100
AcDbPolyline
 62
250
  6
CONTINUOUS
 90
25
 70
0
 10
17.8008138213
 20
14.9494099793
 10
17.8006741784
 20
14.9435018626
 10
17.8000301386
 20
14.9354182989
 10
17.7988633379
 20
14.9273493867
 10
17.797174998
 20
14.9193035755
 10
17.794966887
 20
14.9112892907
 10
17.7922413171
 20
14.9033149244
 10
17.7890011424
 20
14.8953888272
 10
17.7852497559
 20
14.887519299
 10
17.7809910859
 20
14.8797145803
 10
17.7762295919
 20
14.8719828442
 10
17.7709702601
 20
14.8643321869
 10
17.7652185977
 20
14.8567706199
 10
17.7589806277
 20
14.8493060615
 10
17.7522628824
 20
14.8419463282
 10
17.7450723961
 20
14.8346991269
 10
17.7374166987
 20
14.8275720465
 10
17.7293038067
 20
14.8205725504
 10
17.7207422159
 20
14.8137079681
 10
17.7117408914
 20
14.8069854879
 10
17.7023092593
 20
14.8004121494
 10
17.6924571959
 20
14.793994836
 10
17.682195018
 20
14.7877402675
 10
17.6715334717
 20
14.7816549937
 10
17.6604837214
 20
14.7757453867
  0
LWPOLYLINE
  5
44F
100
AcDbEntity
  8
C_CORPO
100
AcDbPolyline
 62
250
  6
CONTINUOUS
 90
25
 70
0
 10
17.8008138213
 20
-11.4890994183
 10
17.8006743782
 20
-11.4950032059
 10
17.800030593
 20
-11.5030869441
 10
17.7988640241
 20
-11.5111560366
 10
17.7971758927
 20
-11.5192020336
 10
17.7949679661
 20
-11.5272165091
 10
17.7922425562
 20
-11.5351910697
 10
17.7890025168
 20
-11.5431173643
 10
17.7852512406
 20
-11.5509870924
 10
17.7809926558
 20
-11.5587920123
 10
17.7762312219
 20
-11.5665239504
 10
17.7709719248
 20
-11.5741748099
 10
17.7652202722
 20
-11.5817365782
 10
17.758982287
 20
-11.5892013367
 10
17.7522645015
 20
-11.5965612681
 10
17.745073951
 20
-11.6038086645
 10
17.7374181655
 20
-11.6109359361
 10
17.7293051622
 20
-11.6179356194
 10
17.7207434371
 20
-11.6248003839
 10
17.7117419551
 20
-11.6315230416
 10
17.7023101436
 20
-11.6380965516
 10
17.6924578828
 20
-11.644514028
 10
17.6821954915
 20
-11.65076875
 10
17.6715337159
 20
-11.6568541682
 10
8.1385767755
 20
-16.800051156
  0
LINE
  5
450
100
AcDbEntity
  8
0
100
AcDbLine
 62
7
  6
CONTINUOUS
 10
-2.922664127
 20
16.8040931702
 11
0.2736270662
 21
17.1302947222
  0
LINE
  5
451
100
AcDbEntity
  8
0
100
AcDbLine
 62
7
  6
CONTINUOUS
 10
-2.8352609221
 20
17.1772504141
 11
1.1062326592
 21
17.579504541
  0
LINE
  5
452
100
AcDbEntity
  8
RACCORDO
100
AcDbLine
 62
7
  6
CONTINUOUS
 10
-1.6205926668
 20
17.9397920287
 11
-3.5708383515
 21
17.7407572316
  0
LINE
  5
453
100
AcDbEntity
  8
RACCORDO
100
AcDbLine
 62
7
  6
CONTINUOUS
 10
0.3775722621
 20
18.4630058376
 11
0.3536042841
 21
18.4605597552
  0
LWPOLYLINE
  5
454
100
AcDbEntity
  8
RACCORDO
100
AcDbPolyline
 62
7
  6
CONTINUOUS
 90
25
 70
0
 10
-3.5708383515
 20
17.7407572316
 10
-3.5800104562
 20
17.7400099255
 10
-3.5896627768
 20
17.7395701825
 10
-3.5997953134
 20
17.7394380028
 10
-3.6104554323
 20
17.7396154484
 10
-3.6215957671
 20
17.7401004573
 10
-3.633074219
 20
17.7408868429
 10
-3.6448951192
 20
17.7419784659
 10
-3.6570541365
 20
17.7433714656
 10
-3.6693961785
 20
17.7450480739
 10
-3.6819235895
 20
17.7470119237
 10
-3.6946340251
 20
17.749259382
 10
-3.7073653593
 20
17.7517617818
 10
-3.7201178598
 20
17.7545223888
 10
-3.7328912588
 20
17.7575379373
 10
-3.7455226273
 20
17.7607699628
 10
-3.7580101457
 20
17.7642212384
 10
-3.7703556336
 20
17.7678889912
 10
-3.7824016199
 20
17.7717264375
 10
-3.794144268
 20
17.7757357511
 10
-3.8055874145
 20
17.7799147584
 10
-3.8165850981
 20
17.7842101546
 10
-3.827088665
 20
17.7886041715
 10
-3.837146769
 20
17.7931145773
 10
-3.8467594101
 20
17.797741372
  0
LINE
  5
455
100
AcDbEntity
  8
C_COPERCHIO
100
AcDbLine
 62
250
  6
CONTINUOUS
 10
-13.9959021273
 20
18.9908302284
 11
-13.9841162531
 21
18.9903918546
  0
LINE
  5
456
100
AcDbEntity
  8
C_COPERCHIO
100
AcDbLine
 62
250
  6
CONTINUOUS
 10
-14.0076101603
 20
18.9913506761
 11
-13.9959021273
 21
18.9908302284
  0
LINE
  5
457
100
AcDbEntity
  8
C_COPERCHIO
100
AcDbLine
 62
250
  6
CONTINUOUS
 10
-14.0192396669
 20
18.9919522851
 11
-14.0076101603
 21
18.9913506761
  0
LINE
  5
458
100
AcDbEntity
  8
C_COPERCHIO
100
AcDbLine
 62
250
  6
CONTINUOUS
 10
-14.0307896565
 20
18.9926336974
 11
-14.0192396669
 21
18.9919522851
  0
LINE
  5
459
100
AcDbEntity
  8
C_COPERCHIO
100
AcDbLine
 62
250
  6
CONTINUOUS
 10
-14.0422592934
 20
18.9933935968
 11
-14.0307896565
 21
18.9926336974
  0
LINE
  5
45A
100
AcDbEntity
  8
C_COPERCHIO
100
AcDbLine
 62
250
  6
CONTINUOUS
 10
-14.053648043
 20
18.9942311151
 11
-14.0422592934
 21
18.9933935968
  0
LINE
  5
45B
100
AcDbEntity
  8
C_COPERCHIO
100
AcDbLine
 62
250
  6
CONTINUOUS
 10
-14.0649551443
 20
18.9951449634
 11
-14.053648043
 21
18.9942311151
  0
LINE
  5
45C
100
AcDbEntity
  8
C_COPERCHIO
100
AcDbLine
 62
250
  6
CONTINUOUS
 10
-14.0761799494
 20
18.9961338979
 11
-14.0649551443
 21
18.9951449634
  0
LINE
  5
45D
100
AcDbEntity
  8
C_COPERCHIO
100
AcDbLine
 62
250
  6
CONTINUOUS
 10
-14.0873220242
 20
18.9971970967
 11
-14.0761799494
 21
18.9961338979
  0
LINE
  5
45E
100
AcDbEntity
  8
C_COPERCHIO
100
AcDbLine
 62
250
  6
CONTINUOUS
 10
-14.0983807234
 20
18.998333339
 11
-14.0873220242
 21
18.9971970967
  0
LINE
  5
45F
100
AcDbEntity
  8
C_COPERCHIO
100
AcDbLine
 62
250
  6
CONTINUOUS
 10
-14.1093554659
 20
18.9995414443
 11
-14.0983807234
 21
18.998333339
  0
LINE
  5
460
100
AcDbEntity
  8
C_COPERCHIO
100
AcDbLine
 62
250
  6
CONTINUOUS
 10
-14.1202458834
 20
19.0008206353
 11
-14.1093554659
 21
18.9995414443
  0
LINE
  5
461
100
AcDbEntity
  8
C_COPERCHIO
100
AcDbLine
 62
250
  6
CONTINUOUS
 10
-14.1310514471
 20
19.0021697588
 11
-14.1202458834
 21
19.0008206353
  0
LINE
  5
462
100
AcDbEntity
  8
C_COPERCHIO
100
AcDbLine
 62
250
  6
CONTINUOUS
 10
-14.1417717245
 20
19.0035877085
 11
-14.1310514471
 21
19.0021697588
  0
LINE
  5
463
100
AcDbEntity
  8
C_COPERCHIO
100
AcDbLine
 62
250
  6
CONTINUOUS
 10
-14.1524064435
 20
19.0050737571
 11
-14.1417717245
 21
19.0035877085
  0
LINE
  5
464
100
AcDbEntity
  8
C_COPERCHIO
100
AcDbLine
 62
250
  6
CONTINUOUS
 10
-14.1629552181
 20
19.0066268274
 11
-14.1524064435
 21
19.0050737571
  0
LINE
  5
465
100
AcDbEntity
  8
C_COPERCHIO
100
AcDbLine
 62
250
  6
CONTINUOUS
 10
-14.1734177777
 20
19.0082458973
 11
-14.1629552181
 21
19.0066268274
  0
LINE
  5
466
100
AcDbEntity
  8
C_COPERCHIO
100
AcDbLine
 62
250
  6
CONTINUOUS
 10
-14.1837939563
 20
19.0099302964
 11
-14.1734177777
 21
19.0082458973
  0
LINE
  5
467
100
AcDbEntity
  8
C_COPERCHIO
100
AcDbLine
 62
250
  6
CONTINUOUS
 10
-14.1940835532
 20
19.0116790401
 11
-14.1837939563
 21
19.0099302964
  0
LINE
  5
468
100
AcDbEntity
  8
C_COPERCHIO
100
AcDbLine
 62
250
  6
CONTINUOUS
 10
-14.2042863066
 20
19.013491173
 11
-14.1940835532
 21
19.0116790401
  0
LINE
  5
469
100
AcDbEntity
  8
C_COPERCHIO
100
AcDbLine
 62
250
  6
CONTINUOUS
 10
-14.2144020595
 20
19.0153660691
 11
-14.2042863066
 21
19.013491173
  0
LINE
  5
46A
100
AcDbEntity
  8
C_COPERCHIO
100
AcDbLine
 62
250
  6
CONTINUOUS
 10
-14.2244305871
 20
19.0173028032
 11
-14.2144020595
 21
19.0153660691
  0
LWPOLYLINE
  5
46B
100
AcDbEntity
  8
C_CONTATTI
100
AcDbPolyline
 62
7
  6
CONTINUOUS
 90
5
 70
0
 10
11.4535941132
 20
14.6961293817
 10
11.4764658876
 20
14.6916196529
 10
11.6217915689
 20
14.6590806234
 10
11.7639866396
 20
14.6232502267
 10
11.9030704188
 20
14.584148774
  0
LWPOLYLINE
  5
46C
100
AcDbEntity
  8
C_CONTATTI
100
AcDbPolyline
 62
7
  6
CONTINUOUS
 90
8
 70
0
 10
11.3807432103
 20
14.9009430279
 10
11.3705000569
 20
14.90315414
 10
11.3596415864
 20
14.9040582597
 10
11.348244512
 20
14.9036877286
 10
11.3366660355
 20
14.9020534084
 10
11.3250252242
 20
14.8991589196
 10
11.3132030108
 20
14.8950006417
 10
11.3011993954
 20
14.8895785747
  0
LINE
  5
46D
100
AcDbEntity
  8
C_CONTATTI
100
AcDbLine
 62
7
  6
CONTINUOUS
 10
10.1185995183
 20
14.3122252456
 11
9.5952026592
 21
14.4539110486
  0
LWPOLYLINE
  5
46E
100
AcDbEntity
  8
C_CONTATTI
100
AcDbPolyline
 62
7
  6
CONTINUOUS
 90
29
 70
0
 10
11.3831869061
 20
14.900199932
 10
11.2868825386
 20
14.9294872277
 10
11.1720546375
 20
14.9604880561
 10
11.0544605356
 20
14.9881576612
 10
10.9344371796
 20
15.0124514312
 10
10.8123124
 20
15.0333335929
 10
10.6884134283
 20
15.0507742932
 10
10.5631090585
 20
15.0647451829
 10
10.43672116
 20
15.0752312209
 10
10.3095173983
 20
15.0822241634
 10
10.1818415871
 20
15.0857133627
 10
10.05404535
 20
15.0856953587
 10
9.9264102013
 20
15.082171711
 10
9.7992844317
 20
15.0751488196
 10
9.6730133549
 20
15.0646404626
 10
9.5478709172
 20
15.0506589284
 10
9.4242003201
 20
15.0332266505
 10
9.3023419005
 20
15.0123730763
 10
9.1825566764
 20
14.9881179027
 10
9.0651735204
 20
14.960495409
 10
8.9505305811
 20
14.9295488996
 10
8.8388867258
 20
14.8953040862
 10
8.730532762
 20
14.8577946506
 10
8.6258230406
 20
14.8170810008
 10
8.52507693
 20
14.7732198629
 10
8.4284968817
 20
14.7262152491
 10
8.3364863621
 20
14.6761674951
 10
8.2495704128
 20
14.6232842525
 10
8.1947088155
 20
14.5858638037
  0
LINE
  5
46F
100
AcDbEntity
  8
C_CONTATTI
100
AcDbLine
 62
7
  6
CONTINUOUS
 10
11.9030704188
 20
14.584148774
 11
12.0295689139
 21
14.5447040018
  0
LWPOLYLINE
  5
470
100
AcDbEntity
  8
C_CONTATTI
100
AcDbPolyline
 62
7
  6
CONTINUOUS
 90
5
 70
0
 10
12.1529504739
 20
14.502472264
 10
12.1692939157
 20
14.4968407757
 10
12.2964336335
 20
14.44863423
 10
12.4188123942
 20
14.3976976361
 10
12.4465958859
 20
14.3850133943
  0
LWPOLYLINE
  5
471
100
AcDbEntity
  8
0
100
AcDbPolyline
 62
7
  6
CONTINUOUS
 90
5
 70
0
 10
-3.4088620466
 20
21.2138059449
 10
-3.4287164901
 20
21.2229463937
 10
-3.4605700516
 20
21.2345461562
 10
-3.4938516744
 20
21.2430572686
 10
-3.5285613586
 20
21.2484797308
  0
LWPOLYLINE
  5
472
100
AcDbEntity
  8
C_COPERCHIO
100
AcDbPolyline
 62
7
  6
CONTINUOUS
 90
13
 70
0
 10
2.4322614443
 20
18.8375309463
 10
2.4070163203
 20
18.8495931751
 10
2.3821051707
 20
18.860759941
 10
2.3575099744
 20
18.8710623254
 10
2.3332444887
 20
18.8805153773
 10
2.30933062
 20
18.8891312976
 10
2.2857607098
 20
18.89693511
 10
2.2625453429
 20
18.9039423158
 10
2.2397060635
 20
18.9101657188
 10
2.2172509142
 20
18.9156269702
 10
2.1951926048
 20
18.9203443759
 10
2.1735481913
 20
18.9243319297
 10
2.1523317038
 20
18.9276059986
  0
LINE
  5
473
100
AcDbEntity
  8
C_COPERCHIO
100
AcDbLine
 62
250
  6
CONTINUOUS
 10
-6.8166078911
 20
21.9403055505
 11
-6.7156875721
 21
21.889845391
  0
LINE
  5
474
100
AcDbEntity
  8
RACCORDO
100
AcDbLine
 62
7
  6
CONTINUOUS
 10
-6.6751865348
 20
21.8939787758
 11
-5.2256176334
 21
21.169194325
  0
LINE
  5
475
100
AcDbEntity
  8
RACCORDO
100
AcDbLine
 62
7
  6
CONTINUOUS
 10
1.5138856515
 20
17.7994426826
 11
0.360525938
 21
18.3761225393
  0
LINE
  5
476
100
AcDbEntity
  8
C_CONTATTI
100
AcDbLine
 62
7
  6
CONTINUOUS
 10
9.1002279124
 20
14.2064236752
 11
8.3932589722
 21
14.5599081452
  0
LINE
  5
477
100
AcDbEntity
  8
C_COPERCHIO
100
AcDbLine
 62
7
  6
CONTINUOUS
 10
-6.8166078911
 20
22.4196164445
 11
-5.2426639576
 21
21.6326444778
  0
LINE
  5
478
100
AcDbEntity
  8
C_COPERCHIO
100
AcDbLine
 62
7
  6
CONTINUOUS
 10
0.3775722621
 20
18.8225263679
 11
1.9515161956
 21
18.0355544012
  0
LINE
  5
479
100
AcDbEntity
  8
C_COPERCHIO
100
AcDbLine
 62
7
  6
CONTINUOUS
 10
2.0870774196
 20
18.1038576879
 11
0.5119974537
 21
18.8913976708
  0
LINE
  5
47A
100
AcDbEntity
  8
C_COPERCHIO
100
AcDbLine
 62
7
  6
CONTINUOUS
 10
-5.110617973
 20
21.7027053841
 11
-6.6856979388
 21
22.4902453671
  0
LINE
  5
47B
100
AcDbEntity
  8
C_CONTATTI
100
AcDbLine
 62
7
  6
CONTINUOUS
 10
9.5952026592
 20
14.4539110486
 11
8.8882337191
 21
14.8073955187
  0
LINE
  5
47C
100
AcDbEntity
  8
0
100
AcDbLine
 62
250
  6
CONTINUOUS
 10
1.0466181918
 20
18.9177676452
 11
-3.61474686
 21
21.2484501711
  0
LINE
  5
47D
100
AcDbEntity
  8
0
100
AcDbLine
 62
7
  6
CONTINUOUS
 10
-3.4089118351
 20
21.2138308443
 11
1.1709493813
 21
18.9239002361
  0
LINE
  5
47E
100
AcDbEntity
  8
C_COPERCHIO
100
AcDbLine
 62
250
  6
CONTINUOUS
 10
-5.1675044223
 20
22.5875240616
 11
-3.660623298
 21
21.8340834995
  0
LINE
  5
47F
100
AcDbEntity
  8
C_COPERCHIO
100
AcDbLine
 62
250
  6
CONTINUOUS
 10
2.1523317038
 20
18.9276059986
 11
2.9401636823
 21
18.5336900093
  0
LINE
  5
480
100
AcDbEntity
  8
C_COPERCHIO
100
AcDbLine
 62
7
  6
CONTINUOUS
 10
-5.0060771371
 20
22.5567236548
 11
-3.6182929034
 21
21.8628315379
  0
LINE
  5
481
100
AcDbEntity
  8
C_COPERCHIO
100
AcDbLine
 62
7
  6
CONTINUOUS
 10
2.4322614443
 20
18.8375309463
 11
2.98988521
 21
18.5587424813
  0
LINE
  5
482
100
AcDbEntity
  8
C_COPERCHIO
100
AcDbLine
 62
7
  6
CONTINUOUS
 10
-6.929891455
 20
23.9211867751
 11
-6.7746979486
 21
23.8435900219
  0
LINE
  5
483
100
AcDbEntity
  8
C_COPERCHIO
100
AcDbLine
 62
7
  6
CONTINUOUS
 10
5.3859999853
 20
17.7632410549
 11
6.0498213373
 21
17.4313303789
  0
LINE
  5
484
100
AcDbEntity
  8
C_COPERCHIO
100
AcDbLine
 62
250
  6
CONTINUOUS
 10
4.836997296
 20
18.1361405682
 11
3.4889152618
 21
18.8101815853
  0
LINE
  5
485
100
AcDbEntity
  8
C_COPERCHIO
100
AcDbLine
 62
250
  6
CONTINUOUS
 10
-5.3319588705
 20
23.2206186515
 11
-6.6800409048
 21
23.8946596686
  0
LWPOLYLINE
  5
486
100
AcDbEntity
  8
RACCORDO
100
AcDbPolyline
 62
7
  6
CONTINUOUS
 90
15
 70
0
 10
0.360525938
 20
18.3761225393
 10
0.3515096725
 20
18.3808101979
 10
0.3431744845
 20
18.3854964381
 10
0.3355203741
 20
18.3901812599
 10
0.328520475
 20
18.394884655
 10
0.3222016534
 20
18.3995866318
 10
0.3166445082
 20
18.4042272148
 10
0.3118587962
 20
18.4088056176
 10
0.3078347605
 20
18.4133226267
 10
0.3046237291
 20
18.417720626
 10
0.3022361165
 20
18.421998091
 10
0.3006615081
 20
18.4261565462
 10
0.2999199887
 20
18.4301429492
 10
0.30002223
 20
18.4339550958
 10
0.3002961994
 20
18.4354609705
  0
LWPOLYLINE
  5
487
100
AcDbEntity
  8
C_CONTATTI
100
AcDbPolyline
 62
250
  6
CONTINUOUS
 90
7
 70
0
 10
3.0286110291
 20
19.0264337315
 10
3.0752929366
 20
18.9877809196
 10
3.119525796
 20
18.9466804933
 10
3.1613096073
 20
18.9031324527
 10
3.201255875
 20
18.8569188991
 10
3.2387530947
 20
18.8082577312
 10
3.2608240327
 20
18.7747296238
  0
LINE
  5
488
100
AcDbEntity
  8
C_CONTATTI
100
AcDbLine
 62
7
  6
CONTINUOUS
 10
9.1002279124
 20
14.2064236752
 11
9.3835995183
 21
13.9447252456
  0
LINE
  5
489
100
AcDbEntity
  8
C_CONTATTI
100
AcDbLine
 62
7
  6
CONTINUOUS
 10
10.9588755802
 20
13.8475010373
 11
10.8535995183
 21
13.9447252456
  0
LINE
  5
48A
100
AcDbEntity
  8
C_CORPO
100
AcDbLine
 62
7
  6
CONTINUOUS
 10
11.9552511208
 20
17.9757447201
 11
12.0631431666
 21
17.6929251056
  0
LWPOLYLINE
  5
48B
100
AcDbEntity
  8
C_CORPO
100
AcDbPolyline
 62
250
  6
CONTINUOUS
 90
40
 70
0
 10
19.8813040566
 20
12.9050382383
 10
19.8812022836
 20
12.9156206185
 10
19.8807507121
 20
12.9263548154
 10
19.8799500742
 20
12.9372234214
 10
19.8788016684
 20
12.948208811
 10
19.8773073571
 20
12.9592931694
 10
19.8754695634
 20
12.9704585212
 10
19.8732912678
 20
12.9816867595
 10
19.8707760028
 20
12.9929596758
 10
19.8679278474
 20
13.0042589888
 10
19.8647514203
 20
13.0155663747
 10
19.8612518728
 20
13.0268634962
 10
19.85743488
 20
13.038132033
 10
19.853306632
 20
13.0493537111
 10
19.8488738234
 20
13.0605103322
 10
19.8441436429
 20
13.071583804
 10
19.8391237613
 20
13.0825561687
 10
19.8338223194
 20
13.0934096324
 10
19.8282479145
 20
13.1041265942
 10
19.8224095864
 20
13.1146896747
 10
19.8163168032
 20
13.1250817436
 10
19.8099794455
 20
13.1352859484
 10
19.8034077904
 20
13.1452857409
 10
19.7966124952
 20
13.1550649047
 10
19.7896045797
 20
13.1646075809
 10
19.7823954086
 20
13.1738982943
 10
19.7749966729
 20
13.1829219783
 10
19.767420371
 20
13.1916639992
 10
19.7596787895
 20
13.2001101802
 10
19.7517844826
 20
13.2082468242
 10
19.7437502526
 20
13.2160607362
 10
19.7355891284
 20
13.2235392443
 10
19.7273143448
 20
13.2306702207
 10
19.718939321
 20
13.2374421013
 10
19.7104776387
 20
13.2438439042
 10
19.7019430201
 20
13.2498652475
 10
19.6933493057
 20
13.2554963666
 10
19.6847104317
 20
13.2607281296
 10
19.6760404079
 20
13.2655520521
 10
19.6673532942
 20
13.2699603112
  0
LINE
  5
48C
100
AcDbEntity
  8
C_CORPO
100
AcDbLine
 62
250
  6
CONTINUOUS
 10
19.8813040566
 20
12.9050382383
 11
19.8813040566
 21
7.4033069619
  0
LINE
  5
48D
100
AcDbEntity
  8
C_CORPO
100
AcDbLine
 62
7
  6
CONTINUOUS
 10
19.9655021165
 20
13.0092369939
 11
19.9655021165
 21
7.5075057175
  0
LWPOLYLINE
  5
48E
100
AcDbEntity
  8
C_CORPO
100
AcDbPolyline
 62
250
  6
CONTINUOUS
 90
22
 70
0
 10
19.9655021165
 20
13.0092369939
 10
19.9653826274
 20
13.005003816
 10
19.9648644748
 20
12.9994623016
 10
19.9639368537
 20
12.993934154
 10
19.9626010323
 20
12.9884269348
 10
19.960858837
 20
12.9829481768
 10
19.9587126506
 20
12.9775053745
 10
19.956165408
 20
12.9721059727
 10
19.953220593
 20
12.9667573569
 10
19.9498822334
 20
12.9614668434
 10
19.946154895
 20
12.9562416689
 10
19.9420436759
 20
12.9510889804
 10
19.9375541998
 20
12.9460158266
 10
19.9326926073
 20
12.9410291469
 10
19.927465548
 20
12.9361357618
 10
19.9218801716
 20
12.931342365
 10
19.9159441165
 20
12.926655512
 10
19.9096655032
 20
12.9220816145
 10
19.9030529237
 20
12.9176269317
 10
19.8961154252
 20
12.9132975575
 10
19.8888624957
 20
12.9090994123
 10
19.8813040566
 20
12.9050382383
  0
LWPOLYLINE
  5
48F
100
AcDbEntity
  8
C_CORPO
100
AcDbPolyline
 62
250
  6
CONTINUOUS
 90
22
 70
0
 10
19.9655021165
 20
7.5075057175
 10
19.9653826274
 20
7.5032725396
 10
19.9648644748
 20
7.4977310252
 10
19.9639368537
 20
7.4922028776
 10
19.9626010323
 20
7.4866956584
 10
19.960858837
 20
7.4812169004
 10
19.9587126506
 20
7.4757740981
 10
19.956165408
 20
7.4703746963
 10
19.953220593
 20
7.4650260804
 10
19.9498822334
 20
7.459735567
 10
19.946154895
 20
7.4545103925
 10
19.9420436759
 20
7.449357704
 10
19.9375541998
 20
7.4442845502
 10
19.9326926073
 20
7.4392978704
 10
19.927465548
 20
7.4344044854
 10
19.9218801716
 20
7.4296110886
 10
19.9159441165
 20
7.4249242356
 10
19.9096655032
 20
7.4203503381
 10
19.9030529237
 20
7.4158956553
 10
19.8961154252
 20
7.411566281
 10
19.8888624957
 20
7.4073681359
 10
19.8813040566
 20
7.4033069619
  0
LWPOLYLINE
  5
490
100
AcDbEntity
  8
C_COPERCHIO
100
AcDbPolyline
 62
7
  6
CONTINUOUS
 90
26
 70
0
 10
0.5455501774
 20
-26.4915302149
 10
0.5330591349
 20
-26.5047795146
 10
0.5203408218
 20
-26.5179351623
 10
0.507394038
 20
-26.5309869149
 10
0.4942144493
 20
-26.5439242721
 10
0.4808049259
 20
-26.556737374
 10
0.4671749645
 20
-26.5694165947
 10
0.4533244465
 20
-26.5819507933
 10
0.4392526151
 20
-26.5943300938
 10
0.4249672945
 20
-26.6065458756
 10
0.4104685726
 20
-26.6185866032
 10
0.395756106
 20
-26.6304418445
 10
0.3808361835
 20
-26.6421033566
 10
0.3657091164
 20
-26.6535589836
 10
0.3503749836
 20
-26.6647975434
 10
0.3348386933
 20
-26.6758105136
 10
0.3191009418
 20
-26.6865848009
 10
0.3031621997
 20
-26.697108301
 10
0.2870258806
 20
-26.7073716601
 10
0.2706931769
 20
-26.7173605705
 10
0.2541650802
 20
-26.7270616826
 10
0.2374434459
 20
-26.7364640267
 10
0.2205301877
 20
-26.7455517382
 10
0.2034270045
 20
-26.7543098402
 10
0.1861341134
 20
-26.7627246867
 10
0.1781148576
 20
-26.7664760756
  0
LWPOLYLINE
  5
491
100
AcDbEntity
  8
C_CORPO
100
AcDbPolyline
 62
250
  6
CONTINUOUS
 90
26
 70
0
 10
17.5382278147
 20
-11.929138629
 10
17.5460267748
 20
-11.9246879609
 10
17.555060927
 20
-11.9188883448
 10
17.5637854383
 20
-11.9125652999
 10
17.5721896835
 20
-11.9057265271
 10
17.5802634271
 20
-11.8983803549
 10
17.5879968365
 20
-11.8905357303
 10
17.5953804933
 20
-11.8822022068
 10
17.6024054051
 20
-11.8733899337
 10
17.6090630164
 20
-11.8641096432
 10
17.6153452193
 20
-11.8543726375
 10
17.6212443626
 20
-11.8441907752
 10
17.6267532621
 20
-11.8335764563
 10
17.6318652086
 20
-11.8225426078
 10
17.6365739763
 20
-11.8111026676
 10
17.6408738306
 20
-11.7992705679
 10
17.6447595348
 20
-11.787060719
 10
17.6482263566
 20
-11.7744879907
 10
17.6512700739
 20
-11.7615676951
 10
17.6538869797
 20
-11.7483155674
 10
17.6560738871
 20
-11.7347477471
 10
17.6578281326
 20
-11.7208807581
 10
17.6591475799
 20
-11.7067314887
 10
17.6600306219
 20
-11.6923171707
 10
17.6604761833
 20
-11.6776553591
 10
17.6604837214
 20
6.2292853472
  0
LINE
  5
492
100
AcDbEntity
  8
C_CORPO
100
AcDbLine
 62
7
  6
CONTINUOUS
 10
17.5382257315
 20
-11.9291397529
 11
8.1947088155
 21
-16.9701814852
  0
LWPOLYLINE
  5
493
100
AcDbEntity
  8
C_COPERCHIO
100
AcDbPolyline
 62
250
  6
CONTINUOUS
 90
40
 70
0
 10
-5.8368663964
 20
-24.8456064118
 10
-5.8441594247
 20
-24.8493301219
 10
-5.85171635
 20
-24.8529052991
 10
-5.8595251858
 20
-24.8563262725
 10
-5.8675735456
 20
-24.8595876158
 10
-5.8758486634
 20
-24.8626841559
 10
-5.884337413
 20
-24.865610981
 10
-5.8930263298
 20
-24.8683634487
 10
-5.9019016315
 20
-24.870937193
 10
-5.9109492401
 20
-24.8733281314
 10
-5.9201548044
 20
-24.8755324716
 10
-5.9295037227
 20
-24.8775467169
 10
-5.9389811656
 20
-24.8793676724
 10
-5.9485721003
 20
-24.8809924497
 10
-5.9582613135
 20
-24.8824184716
 10
-5.9680334365
 20
-24.8836434762
 10
-5.9778729687
 20
-24.8846655203
 10
-5.9877643027
 20
-24.8854829829
 10
-5.997691749
 20
-24.8860945671
 10
-6.0076395608
 20
-24.8864993031
 10
-6.0175919589
 20
-24.8866965487
 10
-6.0275331569
 20
-24.8866859912
 10
-6.0374473862
 20
-24.8864676472
 10
-6.0473189209
 20
-24.8860418631
 10
-6.0571321028
 20
-24.8854093142
 10
-6.0668713664
 20
-24.884571004
 10
-6.0765212633
 20
-24.883528262
 10
-6.086066487
 20
-24.8822827424
 10
-6.0954918969
 20
-24.8808364208
 10
-6.1047825424
 20
-24.8791915912
 10
-6.1139236869
 20
-24.8773508628
 10
-6.1229008308
 20
-24.8753171552
 10
-6.1316997344
 20
-24.8730936943
 10
-6.1403064413
 20
-24.8706840069
 10
-6.1487072993
 20
-24.8680919153
 10
-6.1568889832
 20
-24.8653215311
 10
-6.1648385152
 20
-24.8623772485
 10
-6.1725432859
 20
-24.8592637378
 10
-6.1799910741
 20
-24.8559859376
 10
-6.187170066
 20
-24.8525490471
  0
LWPOLYLINE
  5
494
100
AcDbEntity
  8
C_CONTATTI
100
AcDbPolyline
 62
250
  6
CONTINUOUS
 90
22
 70
0
 10
0.1507252628
 20
19.4340122953
 10
0.2448975257
 20
19.4560362622
 10
0.3490773342
 20
19.4772725939
 10
0.4550273781
 20
19.4958213713
 10
0.5627040504
 20
19.5116740465
 10
0.6721509581
 20
19.5248391675
 10
0.7828172271
 20
19.5352094832
 10
0.89490327
 20
19.5427782605
 10
1.0082086744
 20
19.5475522325
 10
1.1215813283
 20
19.5494443473
 10
1.2352660843
 20
19.5483661073
 10
1.3490180899
 20
19.5444060101
 10
1.4609506763
 20
19.5377424967
 10
1.5710217723
 20
19.5282486887
 10
1.6792734491
 20
19.5160514645
 10
1.7839452513
 20
19.5017099002
 10
1.8848873089
 20
19.4851056303
 10
1.9822494918
 20
19.4663570203
 10
2.0747209542
 20
19.4463782433
 10
2.1618647473
 20
19.4254740238
 10
2.2441178198
 20
19.4033396373
 10
2.3214801717
 20
19.3799750839
  0
LINE
  5
495
100
AcDbEntity
  8
C_COPERCHIO
100
AcDbLine
 62
250
  6
CONTINUOUS
 10
-13.6493532537
 20
19.0131340951
 11
-13.6361911874
 21
19.0154500633
  0
LINE
  5
496
100
AcDbEntity
  8
C_COPERCHIO
100
AcDbLine
 62
250
  6
CONTINUOUS
 10
-13.6625003923
 20
19.0109343725
 11
-13.6493532537
 21
19.0131340951
  0
LINE
  5
497
100
AcDbEntity
  8
C_COPERCHIO
100
AcDbLine
 62
250
  6
CONTINUOUS
 10
-13.6756290894
 20
19.00884962
 11
-13.6625003923
 21
19.0109343725
  0
LINE
  5
498
100
AcDbEntity
  8
C_COPERCHIO
100
AcDbLine
 62
250
  6
CONTINUOUS
 10
-13.6887360288
 20
19.0068785329
 11
-13.6756290894
 21
19.00884962
  0
LINE
  5
499
100
AcDbEntity
  8
C_COPERCHIO
100
AcDbLine
 62
250
  6
CONTINUOUS
 10
-13.7018190339
 20
19.0050202382
 11
-13.6887360288
 21
19.0068785329
  0
LINE
  5
49A
100
AcDbEntity
  8
C_COPERCHIO
100
AcDbLine
 62
250
  6
CONTINUOUS
 10
-13.7148748999
 20
19.003273418
 11
-13.7018190339
 21
19.0050202382
  0
LINE
  5
49B
100
AcDbEntity
  8
C_COPERCHIO
100
AcDbLine
 62
250
  6
CONTINUOUS
 10
-13.7279005628
 20
19.001636741
 11
-13.7148748999
 21
19.003273418
  0
LINE
  5
49C
100
AcDbEntity
  8
C_COPERCHIO
100
AcDbLine
 62
250
  6
CONTINUOUS
 10
-13.7408940041
 20
19.0001093175
 11
-13.7279005628
 21
19.001636741
  0
LINE
  5
49D
100
AcDbEntity
  8
C_COPERCHIO
100
AcDbLine
 62
250
  6
CONTINUOUS
 10
-13.7538522292
 20
18.9986898106
 11
-13.7408940041
 21
19.0001093175
  0
LINE
  5
49E
100
AcDbEntity
  8
RACCORDO
100
AcDbLine
 62
7
  6
CONTINUOUS
 10
-5.4338017986
 20
18.5912625663
 11
-4.0414482496
 21
18.7333609738
  0
LINE
  5
49F
100
AcDbEntity
  8
RACCORDO
100
AcDbLine
 62
7
  6
CONTINUOUS
 10
-5.9042907294
 20
18.9074834206
 11
-3.9540450447
 21
19.1065182177
  0
LINE
  5
4A0
100
AcDbEntity
  8
RACCORDO
100
AcDbLine
 62
7
  6
CONTINUOUS
 10
-5.6511013195
 20
19.9550463551
 11
-7.6013470042
 21
19.756011558
  0
LINE
  5
4A1
100
AcDbEntity
  8
C_COPERCHIO
100
AcDbLine
 62
250
  6
CONTINUOUS
 10
-13.7667723736
 20
18.9973768719
 11
-13.7538522292
 21
18.9986898106
  0
LINE
  5
4A2
100
AcDbEntity
  8
C_COPERCHIO
100
AcDbLine
 62
250
  6
CONTINUOUS
 10
-13.7796526817
 20
18.9961695917
 11
-13.7667723736
 21
18.9973768719
  0
LINE
  5
4A3
100
AcDbEntity
  8
C_COPERCHIO
100
AcDbLine
 62
250
  6
CONTINUOUS
 10
-13.7924907696
 20
18.9950665826
 11
-13.7796526817
 21
18.9961695917
  0
LWPOLYLINE
  5
4A4
100
AcDbEntity
  8
RACCORDO
100
AcDbPolyline
 62
7
  6
CONTINUOUS
 90
25
 70
0
 10
-3.9540450447
 20
19.1065182177
 10
-3.94487294
 20
19.1072655238
 10
-3.9352206193
 20
19.1077052668
 10
-3.9250880827
 20
19.1078374465
 10
-3.9144279639
 20
19.1076600008
 10
-3.9032876291
 20
19.107174992
 10
-3.8918091772
 20
19.1063886064
 10
-3.879988277
 20
19.1052969834
 10
-3.8678292596
 20
19.1039039837
 10
-3.8554872177
 20
19.1022273754
 10
-3.8429598067
 20
19.1002635256
 10
-3.830249371
 20
19.0980160673
 10
-3.8175180368
 20
19.0955136675
 10
-3.8047655364
 20
19.0927530605
 10
-3.7919921373
 20
19.089737512
 10
-3.7793607689
 20
19.0865054865
 10
-3.7668732504
 20
19.0830542108
 10
-3.7545277626
 20
19.0793864581
 10
-3.7424817763
 20
19.0755490118
 10
-3.7307391282
 20
19.0715396981
 10
-3.7192959817
 20
19.0673606909
 10
-3.7082982981
 20
19.0630652947
 10
-3.6977947311
 20
19.0586712778
 10
-3.6877366271
 20
19.054160872
 10
-3.6781239861
 20
19.0495340773
  0
LWPOLYLINE
  5
4A5
100
AcDbEntity
  8
RACCORDO
100
AcDbPolyline
 62
7
  6
CONTINUOUS
 90
25
 70
0
 10
-7.6013470042
 20
19.756011558
 10
-7.6105191089
 20
19.7552642518
 10
-7.6201714296
 20
19.7548245089
 10
-7.6303039662
 20
19.7546923292
 10
-7.640964085
 20
19.7548697748
 10
-7.6521044198
 20
19.7553547837
 10
-7.6635828717
 20
19.7561411693
 10
-7.675403772
 20
19.7572327923
 10
-7.6875627893
 20
19.758625792
 10
-7.6999048312
 20
19.7603024002
 10
-7.7124322423
 20
19.76226625
 10
-7.7251426779
 20
19.7645137084
 10
-7.7378740121
 20
19.7670161082
 10
-7.7506265126
 20
19.7697767152
 10
-7.7633999116
 20
19.7727922637
 10
-7.77603128
 20
19.7760242892
 10
-7.7885187985
 20
19.7794755648
 10
-7.8008642864
 20
19.7831433175
 10
-7.8129102726
 20
19.7869807639
 10
-7.8246529207
 20
19.7909900775
 10
-7.8360960673
 20
19.7951690848
 10
-7.8470937509
 20
19.799464481
 10
-7.8575973178
 20
19.8038584979
 10
-7.8676554218
 20
19.8083689037
 10
-7.8772680629
 20
19.8129956984
  0
LINE
  5
4A6
100
AcDbEntity
  8
C_COPERCHIO
100
AcDbLine
 62
250
  6
CONTINUOUS
 10
-13.8052844209
 20
18.9940664708
 11
-13.7924907696
 21
18.9950665826
  0
LINE
  5
4A7
100
AcDbEntity
  8
C_COPERCHIO
100
AcDbLine
 62
250
  6
CONTINUOUS
 10
-13.8180316213
 20
18.9931683728
 11
-13.8052844209
 21
18.9940664708
  0
LINE
  5
4A8
100
AcDbEntity
  8
C_COPERCHIO
100
AcDbLine
 62
250
  6
CONTINUOUS
 10
-13.8307285407
 20
18.9923710278
 11
-13.8180316213
 21
18.9931683728
  0
LINE
  5
4A9
100
AcDbEntity
  8
C_COPERCHIO
100
AcDbLine
 62
250
  6
CONTINUOUS
 10
-13.8433715337
 20
18.9916730954
 11
-13.8307285407
 21
18.9923710278
  0
LINE
  5
4AA
100
AcDbEntity
  8
C_COPERCHIO
100
AcDbLine
 62
7
  6
CONTINUOUS
 10
1.7394402775
 20
18.9519408437
 11
0.5119974537
 21
18.8913976708
  0
LINE
  5
4AB
100
AcDbEntity
  8
C_COPERCHIO
100
AcDbLine
 62
250
  6
CONTINUOUS
 10
-13.8559583359
 20
18.9910736635
 11
-13.8433715337
 21
18.9916730954
  0
LINE
  5
4AC
100
AcDbEntity
  8
C_COPERCHIO
100
AcDbLine
 62
250
  6
CONTINUOUS
 10
-13.8684857554
 20
18.990571333
 11
-13.8559583359
 21
18.9910736635
  0
LINE
  5
4AD
100
AcDbEntity
  8
C_COPERCHIO
100
AcDbLine
 62
250
  6
CONTINUOUS
 10
-13.8809509034
 20
18.9901646554
 11
-13.8684857554
 21
18.990571333
  0
LINE
  5
4AE
100
AcDbEntity
  8
C_COPERCHIO
100
AcDbLine
 62
250
  6
CONTINUOUS
 10
-13.8933518913
 20
18.9898526589
 11
-13.8809509034
 21
18.9901646554
  0
LINE
  5
4AF
100
AcDbEntity
  8
C_COPERCHIO
100
AcDbLine
 62
250
  6
CONTINUOUS
 10
-13.9056858565
 20
18.9896338725
 11
-13.8933518913
 21
18.9898526589
  0
LINE
  5
4B0
100
AcDbEntity
  8
C_COPERCHIO
100
AcDbLine
 62
250
  6
CONTINUOUS
 10
-13.9179507775
 20
18.9895067931
 11
-13.9056858565
 21
18.9896338725
  0
LINE
  5
4B1
100
AcDbEntity
  8
C_COPERCHIO
100
AcDbLine
 62
250
  6
CONTINUOUS
 10
-13.9301454374
 20
18.9894704246
 11
-13.9179507775
 21
18.9895067931
  0
LINE
  5
4B2
100
AcDbEntity
  8
C_COPERCHIO
100
AcDbLine
 62
250
  6
CONTINUOUS
 10
-13.9422683007
 20
18.989523271
 11
-13.9301454374
 21
18.9894704246
  0
LINE
  5
4B3
100
AcDbEntity
  8
C_COPERCHIO
100
AcDbLine
 62
250
  6
CONTINUOUS
 10
-13.9543180736
 20
18.9896638677
 11
-13.9422683007
 21
18.989523271
  0
LINE
  5
4B4
100
AcDbEntity
  8
C_COPERCHIO
100
AcDbLine
 62
250
  6
CONTINUOUS
 10
-13.9662938977
 20
18.9898912457
 11
-13.9543180736
 21
18.9896638677
  0
LWPOLYLINE
  5
4B5
100
AcDbEntity
  8
C_COPERCHIO
100
AcDbPolyline
 62
250
  6
CONTINUOUS
 90
3
 70
0
 10
-13.9841162531
 20
18.9903918546
 10
-13.9781945246
 20
18.9902039627
 10
-13.9662938977
 20
18.9898912457
  0
LWPOLYLINE
  5
4B6
100
AcDbEntity
  8
0
100
AcDbPolyline
 62
7
  6
CONTINUOUS
 90
7
 70
0
 10
-3.5285613586
 20
21.2484797308
 10
-3.5425099012
 20
21.2497272107
 10
-3.5566247269
 20
21.2504737281
 10
-3.5709058356
 20
21.2507192827
 10
-3.5853532274
 20
21.2504638748
 10
-3.5999669022
 20
21.2497075043
 10
-3.61474686
 20
21.2484501711
  0
LWPOLYLINE
  5
4B7
100
AcDbEntity
  8
C_CONTATTI
100
AcDbPolyline
 62
7
  6
CONTINUOUS
 90
5
 70
0
 10
2.4733379921
 20
19.1862574422
 10
2.4962097665
 20
19.1817477134
 10
2.6415354479
 20
19.1492086839
 10
2.7837305186
 20
19.1133782872
 10
2.9228142977
 20
19.0742768346
  0
LWPOLYLINE
  5
4B8
100
AcDbEntity
  8
C_CONTATTI
100
AcDbPolyline
 62
7
  6
CONTINUOUS
 90
8
 70
0
 10
2.4004870892
 20
19.3910710884
 10
2.3902439358
 20
19.3932822005
 10
2.3793854654
 20
19.3941863202
 10
2.3679883909
 20
19.3938157891
 10
2.3564099145
 20
19.3921814689
 10
2.3447691032
 20
19.3892869802
 10
2.3329468898
 20
19.3851287023
 10
2.3209432743
 20
19.3797066353
  0
LWPOLYLINE
  5
4B9
100
AcDbEntity
  8
C_CONTATTI
100
AcDbPolyline
 62
7
  6
CONTINUOUS
 90
20
 70
0
 10
2.4029289976
 20
19.3903238369
 10
2.3066264176
 20
19.4196152883
 10
2.1917985164
 20
19.4506161167
 10
2.0742044146
 20
19.4782857217
 10
1.9541810585
 20
19.5025794918
 10
1.8320562789
 20
19.5234616535
 10
1.7081573072
 20
19.5409023538
 10
1.5828529375
 20
19.5548732434
 10
1.4564650389
 20
19.5653592814
 10
1.3292612772
 20
19.572352224
 10
1.201585466
 20
19.5758414232
 10
1.0737892289
 20
19.5758234193
 10
0.9461540802
 20
19.5722997715
 10
0.8190283106
 20
19.5652768801
 10
0.6927572339
 20
19.5547685231
 10
0.5676147961
 20
19.540786989
 10
0.4439441991
 20
19.5233547111
 10
0.3220857795
 20
19.5025011368
 10
0.2023005553
 20
19.4782459632
 10
0.107074798
 20
19.4558375277
  0
LINE
  5
4BA
100
AcDbEntity
  8
C_CONTATTI
100
AcDbLine
 62
7
  6
CONTINUOUS
 10
2.9228142977
 20
19.0742768346
 11
3.0493127928
 21
19.0348320624
  0
LWPOLYLINE
  5
4BB
100
AcDbEntity
  8
C_CONTATTI
100
AcDbPolyline
 62
7
  6
CONTINUOUS
 90
5
 70
0
 10
3.1726943529
 20
18.9926003246
 10
3.1890377947
 20
18.9869688362
 10
3.3161775124
 20
18.9387622905
 10
3.4385562731
 20
18.8878256967
 10
3.4663397649
 20
18.8751414549
  0
LWPOLYLINE
  5
4BC
100
AcDbEntity
  8
C_CORPO
100
AcDbPolyline
 62
250
  6
CONTINUOUS
 90
25
 70
0
 10
-9.1708939844
 20
25.6284176521
 10
-9.1863544699
 20
25.6353307214
 10
-9.202134978
 20
25.6415741869
 10
-9.2182234499
 20
25.6471432354
 10
-9.2346081034
 20
25.6520338086
 10
-9.2512769418
 20
25.6562423516
 10
-9.2682172584
 20
25.6597655644
 10
-9.2854166846
 20
25.6626009176
 10
-9.3028625902
 20
25.6647463757
 10
-9.3205415891
 20
25.666200155
 10
-9.338440688
 20
25.6669612697
 10
-9.3565468192
 20
25.6670292492
 10
-9.3748462426
 20
25.6664038553
 10
-9.3933255895
 20
25.665085639
 10
-9.4119712945
 20
25.6630756641
 10
-9.4307691252
 20
25.6603752268
 10
-9.4497053724
 20
25.6569864139
 10
-9.4687661101
 20
25.6529118367
 10
-9.4879366263
 20
25.6481543638
 10
-9.5072027207
 20
25.6427176867
 10
-9.526550436
 20
25.6366059148
 10
-9.5459653217
 20
25.6298232862
 10
-9.5654330668
 20
25.6223747754
 10
-9.5849395059
 20
25.614266126
 10
-9.604470352
 20
25.6055034391
  0
LWPOLYLINE
  5
4BD
100
AcDbEntity
  8
C_CORPO
100
AcDbPolyline
 62
7
  6
CONTINUOUS
 90
29
 70
0
 10
-9.1635003324
 20
25.6248181539
 10
-9.1803238238
 20
25.6328506336
 10
-9.1966463407
 20
25.63994118
 10
-9.213281155
 20
25.6464894355
 10
-9.2302173977
 20
25.6524842783
 10
-9.2474427145
 20
25.6579145246
 10
-9.264944611
 20
25.6627699655
 10
-9.2827121038
 20
25.6670415596
 10
-9.3007327349
 20
25.6707201912
 10
-9.3189930262
 20
25.6737970799
 10
-9.3374809953
 20
25.6762647115
 10
-9.3561833399
 20
25.6781158929
 10
-9.3750874267
 20
25.6793438541
 10
-9.3941832942
 20
25.6799424889
 10
-9.4134574461
 20
25.6799062299
 10
-9.4328984638
 20
25.6792298096
 10
-9.4525008111
 20
25.6779076279
 10
-9.472252925
 20
25.6759347322
 10
-9.4921430983
 20
25.6733065346
 10
-9.5121669393
 20
25.6700172148
 10
-9.5323131567
 20
25.666062046
 10
-9.5525709922
 20
25.661436732
 10
-9.5729379206
 20
25.6561346048
 10
-9.5934027936
 20
25.6501507434
 10
-9.613955894
 20
25.6434803244
 10
-9.6345975148
 20
25.6361145818
 10
-9.6553205396
 20
25.6280463845
 10
-9.6761089254
 20
25.6192726574
 10
-9.6907935294
 20
25.6126624719
  0
LWPOLYLINE
  5
4BE
100
AcDbEntity
  8
C_CORPO
100
AcDbPolyline
 62
7
  6
CONTINUOUS
 90
28
 70
0
 10
6.8888578517
 20
17.5986391071
 10
6.8726125246
 20
17.606399422
 10
6.8560539746
 20
17.6135887708
 10
6.8391958572
 20
17.6201966975
 10
6.8220626191
 20
17.626210036
 10
6.8046586578
 20
17.6316239546
 10
6.786966607
 20
17.636438372
 10
6.7689983773
 20
17.6406429068
 10
6.7507696517
 20
17.6442270293
 10
6.7322663624
 20
17.6471854633
 10
6.7134988078
 20
17.6495070669
 10
6.6944834779
 20
17.6511805298
 10
6.6752135212
 20
17.6521964754
 10
6.6556971791
 20
17.652543341
 10
6.6359522473
 20
17.6522098241
 10
6.6159844438
 20
17.651185022
 10
6.5958002247
 20
17.6494576471
 10
6.5754184602
 20
17.6470177334
 10
6.5548620141
 20
17.643857289
 10
6.5341367041
 20
17.6399666384
 10
6.5132612756
 20
17.6353386558
 10
6.4922767136
 20
17.6299734756
 10
6.471189917
 20
17.6238649806
 10
6.4500175974
 20
17.6170099433
 10
6.4288142984
 20
17.6094201881
 10
6.4076054096
 20
17.6011016449
 10
6.3863878251
 20
17.5920496509
 10
6.3651727118
 20
17.5822644841
  0
LWPOLYLINE
  5
4BF
100
AcDbEntity
  8
C_CORPO
100
AcDbPolyline
 62
250
  6
CONTINUOUS
 90
26
 70
0
 10
-8.1725165876
 20
25.1293263268
 10
-8.179800067
 20
25.1328702701
 10
-8.1950477762
 20
25.1396760979
 10
-8.2106108751
 20
25.1458100393
 10
-8.2264777895
 20
25.1512675311
 10
-8.2426367256
 20
25.1560445176
 10
-8.2590756942
 20
25.1601374551
 10
-8.2757825023
 20
25.1635433069
 10
-8.2927447719
 20
25.1662595457
 10
-8.3099498802
 20
25.1682841465
 10
-8.3273849811
 20
25.1696156001
 10
-8.3450370749
 20
25.1702529232
 10
-8.3628931
 20
25.1701956539
 10
-8.3809398755
 20
25.1694438363
 10
-8.3991640254
 20
25.1679980234
 10
-8.4175519928
 20
25.1658592866
 10
-8.4360901306
 20
25.1630292102
 10
-8.4547647276
 20
25.159509881
 10
-8.4735618626
 20
25.1553039161
 10
-8.4924674181
 20
25.1504144793
 10
-8.5114671966
 20
25.1448452635
 10
-8.5305472421
 20
25.1386003807
 10
-8.5496936956
 20
25.1316843641
 10
-8.5688924449
 20
25.1241022873
 10
-8.5881291307
 20
25.1158597976
 10
-8.6073894682
 20
25.1069629972
  0
LINE
  5
4C0
100
AcDbEntity
  8
C_CORPO
100
AcDbLine
 62
250
  6
CONTINUOUS
 10
-9.1635249494
 20
25.6248305077
 11
-9.1708939844
 21
25.6284176521
  0
LWPOLYLINE
  5
4C1
100
AcDbEntity
  8
C_CORPO
100
AcDbPolyline
 62
250
  6
CONTINUOUS
 90
16
 70
0
 10
-9.604470352
 20
25.6055034391
 10
-9.6105316734
 20
25.6084722926
 10
-9.6165861577
 20
25.611103621
 10
-9.6226222842
 20
25.6133924174
 10
-9.6286285673
 20
25.6153343266
 10
-9.6345935782
 20
25.6169256535
 10
-9.6405059664
 20
25.6181633701
 10
-9.6463544818
 20
25.6190451212
 10
-9.6521279957
 20
25.6195692291
 10
-9.6578155222
 20
25.6197346964
 10
-9.663406239
 20
25.6195412083
 10
-9.6688895078
 20
25.618989133
 10
-9.6742548951
 20
25.6180795209
 10
-9.6794921915
 20
25.6168141029
 10
-9.6845914313
 20
25.6151952869
 10
-9.6895429117
 20
25.6132261531
  0
LWPOLYLINE
  5
4C2
100
AcDbEntity
  8
C_CORPO
100
AcDbPolyline
 62
250
  6
CONTINUOUS
 90
20
 70
0
 10
19.7996661951
 20
13.2775651512
 10
19.7985896729
 20
13.2780962522
 10
19.7923552878
 20
13.2809000062
 10
19.7859454526
 20
13.2833280244
 10
19.7793690328
 20
13.2853769484
 10
19.7726351242
 20
13.2870439446
 10
19.7657530404
 20
13.2883267072
 10
19.7587323
 20
13.289223462
 10
19.7515826133
 20
13.2897329689
 10
19.7443138691
 20
13.2898545231
 10
19.7369361208
 20
13.2895879564
 10
19.7294595724
 20
13.2889336375
 10
19.7218945647
 20
13.2878924715
 10
19.7142515608
 20
13.2864658984
 10
19.7065411319
 20
13.2846558912
 10
19.698773942
 20
13.2824649534
 10
19.6909607341
 20
13.2798961152
 10
19.6831123144
 20
13.2769529296
 10
19.6752395382
 20
13.2736394674
 10
19.6673532942
 20
13.2699603112
  0
LINE
  5
4C3
100
AcDbEntity
  8
C_COPERCHIO
100
AcDbLine
 62
7
  6
CONTINUOUS
 10
5.1876791916
 20
18.1591605202
 11
3.8395971573
 21
18.8332015374
  0
LINE
  5
4C4
100
AcDbEntity
  8
C_COPERCHIO
100
AcDbLine
 62
7
  6
CONTINUOUS
 10
-4.9933093004
 20
23.2496547663
 11
-6.3413913347
 21
23.9236957834
  0
LINE
  5
4C5
100
AcDbEntity
  8
C_CORPO
100
AcDbLine
 62
250
  6
CONTINUOUS
 10
-9.604470352
 20
25.6055034391
 11
-8.6073894682
 21
25.1069629972
  0
LINE
  5
4C6
100
AcDbEntity
  8
C_CORPO
100
AcDbLine
 62
250
  6
CONTINUOUS
 10
6.4539849711
 20
17.5762757775
 11
7.4510658549
 21
17.0777353356
  0
LINE
  5
4C7
100
AcDbEntity
  8
C_CORPO
100
AcDbLine
 62
7
  6
CONTINUOUS
 10
-9.1634979486
 20
25.624817006
 11
-9.1635249494
 21
25.6248305077
  0
LINE
  5
4C8
100
AcDbEntity
  8
C_CORPO
100
AcDbLine
 62
7
  6
CONTINUOUS
 10
-9.1635248927
 20
25.6248304793
 11
-8.1725165876
 21
25.1293263268
  0
LINE
  5
4C9
100
AcDbEntity
  8
C_CORPO
100
AcDbLine
 62
250
  6
CONTINUOUS
 10
17.8008138213
 20
14.2032300477
 11
19.6673532942
 21
13.2699603112
  0
LINE
  5
4CA
100
AcDbEntity
  8
C_CORPO
100
AcDbLine
 62
7
  6
CONTINUOUS
 10
17.8008138213
 20
14.2769913381
 11
19.7996661951
 21
13.2775651512
  0
LINE
  5
4CB
100
AcDbEntity
  8
C_CORPO
100
AcDbLine
 62
7
  6
CONTINUOUS
 10
3.0828870455
 20
21.7500404643
 11
6.180495466
 21
20.2012362541
  0
LINE
  5
4CC
100
AcDbEntity
  8
C_CORPO
100
AcDbLine
 62
7
  6
CONTINUOUS
 10
12.0631431666
 20
17.2599124037
 11
15.160751587
 21
15.7111081935
  0
LWPOLYLINE
  5
4CD
100
AcDbEntity
  8
C_CORPO
100
AcDbPolyline
 62
250
  6
CONTINUOUS
 90
37
 70
0
 10
7.4510658549
 20
17.0777353356
 10
7.4573376909
 20
17.0745376104
 10
7.4635928963
 20
17.071014094
 10
7.4698195685
 20
17.0671714909
 10
7.4760058594
 20
17.0630171129
 10
7.4821399975
 20
17.0585588651
 10
7.4882103108
 20
17.0538052307
 10
7.4942052484
 20
17.048765255
 10
7.500113403
 20
17.0434485283
 10
7.5059235327
 20
17.0378651672
 10
7.5116245816
 20
17.0320257959
 10
7.5172057018
 20
17.0259415256
 10
7.5226562734
 20
17.0196239337
 10
7.5279659249
 20
17.0130850414
 10
7.5331245531
 20
17.0063372909
 10
7.5381223419
 20
16.9993935222
 10
7.5429497816
 20
16.9922669478
 10
7.5475976863
 20
16.9849711284
 10
7.552057212
 20
16.9775199467
 10
7.556319873
 20
16.9699275808
 10
7.5603775582
 20
16.9622084776
 10
7.5642225466
 20
16.9543773253
 10
7.5678475218
 20
16.9464490251
 10
7.5712455863
 20
16.9384386631
 10
7.574410274
 20
16.9303614816
 10
7.5773355632
 20
16.9222328501
 10
7.5800158876
 20
16.9140682357
 10
7.5824461471
 20
16.9058831743
 10
7.5846217172
 20
16.8976932406
 10
7.5865384583
 20
16.8895140186
 10
7.5881927232
 20
16.8813610717
 10
7.5895813641
 20
16.8732499137
 10
7.5907017387
 20
16.8651959786
 10
7.5915517151
 20
16.8572145915
 10
7.592129676
 20
16.8493209395
 10
7.5924345217
 20
16.8415300429
 10
7.592465672
 20
16.8338567263
  0
LWPOLYLINE
  5
4CE
100
AcDbEntity
  8
C_CONTATTI
100
AcDbPolyline
 62
250
  6
CONTINUOUS
 90
7
 70
0
 10
12.0088671501
 20
14.5363056709
 10
12.0555490577
 20
14.497652859
 10
12.0997819171
 20
14.4565524328
 10
12.1415657284
 20
14.4130043922
 10
12.1815119961
 20
14.3667908386
 10
12.2190092157
 20
14.3181296706
 10
12.2410801538
 20
14.2846015633
  0
LWPOLYLINE
  5
4CF
100
AcDbEntity
  8
C_CONTATTI
100
AcDbPolyline
 62
7
  6
CONTINUOUS
 90
5
 70
0
 10
12.3298998092
 20
14.3279974831
 10
12.2862850913
 20
14.3778710783
 10
12.2317357594
 20
14.4330922481
 10
12.1720876363
 20
14.4869179919
 10
12.1138987244
 20
14.5342126823
  0
LINE
  5
4D0
100
AcDbEntity
  8
C_COPERCHIO
100
AcDbLine
 62
7
  6
CONTINUOUS
 10
-3.1969201327
 20
-25.3417672023
 11
-3.013918758
 21
-25.2534060156
  0
LWPOLYLINE
  5
4D1
100
AcDbEntity
  8
C_COPERCHIO
100
AcDbPolyline
 62
250
  6
CONTINUOUS
 90
11
 70
0
 10
-13.5900484614
 20
19.0244860013
 10
-13.5834529682
 20
19.0258968851
 10
-13.576857791
 20
19.0273381687
 10
-13.5702629457
 20
19.0288098485
 10
-13.5636697831
 20
19.0303123141
 10
-13.5570782874
 20
19.0318455693
 10
-13.5504884744
 20
19.0334096104
 10
-13.5439017428
 20
19.035004815
 10
-13.5373185587
 20
19.0366313092
 10
-13.530738456
 20
19.0382889669
 10
-13.5241614346
 20
19.0399777882
  0
LINE
  5
4D2
100
AcDbEntity
  8
C_COPERCHIO
100
AcDbLine
 62
250
  6
CONTINUOUS
 10
-13.6032391398
 20
19.0217550219
 11
-13.5900484614
 21
19.0244860013
  0
LINE
  5
4D3
100
AcDbEntity
  8
C_COPERCHIO
100
AcDbLine
 62
250
  6
CONTINUOUS
 10
-13.6164259004
 20
19.0191440325
 11
-13.6032391398
 21
19.0217550219
  0
LWPOLYLINE
  5
4D4
100
AcDbEntity
  8
C_COPERCHIO
100
AcDbPolyline
 62
250
  6
CONTINUOUS
 90
3
 70
0
 10
-13.6361911874
 20
19.0154500633
 10
-13.6296049912
 20
19.0166517995
 10
-13.6164259004
 20
19.0191440325
  0
LINE
  5
4D5
100
AcDbEntity
  8
RACCORDO
100
AcDbLine
 62
7
  6
CONTINUOUS
 10
-9.4643104514
 20
20.6065168926
 11
-8.0719569023
 21
20.7486153002
  0
LINE
  5
4D6
100
AcDbEntity
  8
RACCORDO
100
AcDbLine
 62
7
  6
CONTINUOUS
 10
-3.61474686
 20
21.2484501711
 11
-4.9496965748
 21
21.1122101846
  0
LINE
  5
4D7
100
AcDbEntity
  8
RACCORDO
100
AcDbLine
 62
7
  6
CONTINUOUS
 10
-9.9347993821
 20
20.922737747
 11
-7.9845536975
 21
21.121772544
  0
LINE
  5
4D8
100
AcDbEntity
  8
0
100
AcDbLine
 62
7
  6
CONTINUOUS
 10
-11.3205422963
 20
21.4198911012
 11
-6.6751865348
 21
21.8939787758
  0
LWPOLYLINE
  5
4D9
100
AcDbEntity
  8
RACCORDO
100
AcDbPolyline
 62
7
  6
CONTINUOUS
 90
25
 70
0
 10
-4.9496965748
 20
21.1122101846
 10
-4.9588686795
 20
21.1114628785
 10
-4.9685210001
 20
21.1110231356
 10
-4.9786535367
 20
21.1108909558
 10
-4.9893136556
 20
21.1110684015
 10
-5.0004539904
 20
21.1115534103
 10
-5.0119324423
 20
21.1123397959
 10
-5.0237533425
 20
21.1134314189
 10
-5.0359123599
 20
21.1148244186
 10
-5.0482544018
 20
21.1165010269
 10
-5.0607818128
 20
21.1184648767
 10
-5.0734922485
 20
21.120712335
 10
-5.0862235827
 20
21.1232147349
 10
-5.0989760831
 20
21.1259753419
 10
-5.1117494821
 20
21.1289908903
 10
-5.1243808506
 20
21.1322229158
 10
-5.136868369
 20
21.1356741915
 10
-5.1492138569
 20
21.1393419442
 10
-5.1612598432
 20
21.1431793905
 10
-5.1730024913
 20
21.1471887042
 10
-5.1844456378
 20
21.1513677114
 10
-5.1954433214
 20
21.1556631076
 10
-5.2059468883
 20
21.1600571245
 10
-5.2160049923
 20
21.1645675303
 10
-5.2256176334
 20
21.169194325
  0
LWPOLYLINE
  5
4DA
100
AcDbEntity
  8
RACCORDO
100
AcDbPolyline
 62
7
  6
CONTINUOUS
 90
25
 70
0
 10
-7.9845536975
 20
21.121772544
 10
-7.9753815928
 20
21.1225198502
 10
-7.9657292721
 20
21.1229595931
 10
-7.9555967355
 20
21.1230917729
 10
-7.9449366166
 20
21.1229143272
 10
-7.9337962818
 20
21.1224293184
 10
-7.9223178299
 20
21.1216429327
 10
-7.9104969297
 20
21.1205513098
 10
-7.8983379124
 20
21.1191583101
 10
-7.8859958705
 20
21.1174817018
 10
-7.8734684594
 20
21.115517852
 10
-7.8607580238
 20
21.1132703937
 10
-7.8480266896
 20
21.1107679938
 10
-7.8352741891
 20
21.1080073868
 10
-7.8225007901
 20
21.1049918384
 10
-7.8098694217
 20
21.1017598129
 10
-7.7973819032
 20
21.0983085372
 10
-7.7850364153
 20
21.0946407845
 10
-7.7729904291
 20
21.0908033382
 10
-7.7612477809
 20
21.0867940245
 10
-7.7498046344
 20
21.0826150172
 10
-7.7388069508
 20
21.0783196211
 10
-7.7283033839
 20
21.0739256042
 10
-7.7182452799
 20
21.0694151984
 10
-7.7086326388
 20
21.0647884037
  0
LINE
  5
4DB
100
AcDbEntity
  8
C_COPERCHIO
100
AcDbLine
 62
7
  6
CONTINUOUS
 10
-5.1675044223
 20
22.5875240616
 11
-6.6856979388
 21
22.4902453671
  0
LINE
  5
4DC
100
AcDbEntity
  8
C_COPERCHIO
100
AcDbLine
 62
7
  6
CONTINUOUS
 10
-3.9048998009
 20
21.7741108829
 11
-5.110617973
 21
21.7027053841
  0
LWPOLYLINE
  5
4DD
100
AcDbEntity
  8
C_COPERCHIO
100
AcDbPolyline
 62
7
  6
CONTINUOUS
 90
13
 70
0
 10
-5.1675044223
 20
22.5875240616
 10
-5.152585842
 20
22.5881780105
 10
-5.1378453456
 20
22.588211636
 10
-5.1232829331
 20
22.587624938
 10
-5.1088800549
 20
22.5864162631
 10
-5.0946552605
 20
22.5845872647
 10
-5.0806641991
 20
22.5821429036
 10
-5.0669116961
 20
22.5790797673
 10
-5.053392926
 20
22.5754012682
 10
-5.040149061
 20
22.5711226043
 10
-5.0271920339
 20
22.5662481418
 10
-5.0145099117
 20
22.5607735144
 10
-5.0060767323
 20
22.5567244823
  0
LWPOLYLINE
  5
4DE
100
AcDbEntity
  8
C_CORPO
100
AcDbPolyline
 62
250
  6
CONTINUOUS
 90
19
 70
0
 10
1.0212441759
 20
23.5282551506
 10
1.0091283378
 20
23.5337215889
 10
0.997034505
 20
23.5386430249
 10
0.9849774061
 20
23.5430134649
 10
0.9729717253
 20
23.5468275864
 10
0.9610320838
 20
23.5500807441
 10
0.9491730228
 20
23.5527689762
 10
0.937408985
 20
23.5548890088
 10
0.9257542975
 20
23.5564382598
 10
0.9142231543
 20
23.5574148426
 10
0.9028295988
 20
23.5578175677
 10
0.891587507
 20
23.5576459447
 10
0.8805105703
 20
23.5569001825
 10
0.869612279
 20
23.5555811896
 10
0.8589059059
 20
23.5536905721
 10
0.8484044899
 20
23.5512306327
 10
0.8381208205
 20
23.5482043672
 10
0.8280674218
 20
23.5446154613
 10
0.8175587357
 20
23.5401477678
  0
LWPOLYLINE
  5
4DF
100
AcDbEntity
  8
C_CORPO
100
AcDbPolyline
 62
250
  6
CONTINUOUS
 90
22
 70
0
 10
17.524414971
 20
15.3966263987
 10
17.5188921408
 20
15.399275737
 10
17.509773702
 20
15.4031801319
 10
17.5004364365
 20
15.4066093355
 10
17.4908901222
 20
15.4095597562
 10
17.481144756
 20
15.4120283041
 10
17.4712105437
 20
15.4140123936
 10
17.4610978886
 20
15.4155099467
 10
17.4508173806
 20
15.4165193951
 10
17.4403797859
 20
15.4170396812
 10
17.4297960348
 20
15.4170702601
 10
17.4190772107
 20
15.4166110996
 10
17.4082345391
 20
15.4156626804
 10
17.3972793747
 20
15.4142259956
 10
17.3862231898
 20
15.4123025497
 10
17.3750775627
 20
15.4098943569
 10
17.3638541641
 20
15.4070039386
 10
17.3525647483
 20
15.403634322
 10
17.3412211414
 20
15.399789037
 10
17.3298352239
 20
15.3954721112
 10
17.3184189179
 20
15.3906880655
 10
17.3069841787
 20
15.38544191
  0
LWPOLYLINE
  5
4E0
100
AcDbEntity
  8
C_CORPO
100
AcDbPolyline
 62
250
  6
CONTINUOUS
 90
22
 70
0
 10
1.2508037039
 20
23.5334320323
 10
1.2452710908
 20
23.5360860956
 10
1.2361527504
 20
23.5399901933
 10
1.2268155992
 20
23.543419118
 10
1.2172694146
 20
23.546369279
 10
1.2075241931
 20
23.5488375869
 10
1.1975901395
 20
23.5508214571
 10
1.1874776564
 20
23.552318812
 10
1.1771973332
 20
23.5533280839
 10
1.166759935
 20
23.5538482156
 10
1.1561763916
 20
23.5538786627
 10
1.1454577856
 20
23.5534193933
 10
1.1346153412
 20
23.5524708881
 10
1.1236604121
 20
23.5510341406
 10
1.11260447
 20
23.5491106551
 10
1.1014590922
 20
23.546702446
 10
1.0902359498
 20
23.5438120349
 10
1.0789467953
 20
23.5404424487
 10
1.0676034502
 20
23.5365972158
 10
1.0562177928
 20
23.5322803628
 10
1.0448017458
 20
23.5274964102
 10
-3.6182916005
 20
21.3739601534
  0
LINE
  5
4E1
100
AcDbEntity
  8
C_CORPO
100
AcDbLine
 62
250
  6
CONTINUOUS
 10
1.0212441759
 20
23.5282551506
 11
2.4235189105
 21
22.8271745441
  0
LINE
  5
4E2
100
AcDbEntity
  8
C_CORPO
100
AcDbLine
 62
250
  6
CONTINUOUS
 10
6.9365764108
 20
20.570645794
 11
11.4037750316
 21
18.3370464836
  0
LINE
  5
4E3
100
AcDbEntity
  8
C_CORPO
100
AcDbLine
 62
7
  6
CONTINUOUS
 10
1.2508037039
 20
23.5334320323
 11
2.6869345239
 21
22.8153666224
  0
LINE
  5
4E4
100
AcDbEntity
  8
C_CORPO
100
AcDbLine
 62
7
  6
CONTINUOUS
 10
7.108033678
 20
20.6048170453
 11
11.667190645
 21
18.3252385618
  0
LINE
  5
4E5
100
AcDbEntity
  8
C_CORPO
100
AcDbLine
 62
7
  6
CONTINUOUS
 10
16.0882897991
 20
16.1146889848
 11
17.524420619
 21
15.3966235748
  0
LWPOLYLINE
  5
4E6
100
AcDbEntity
  8
C_CORPO
100
AcDbPolyline
 62
250
  6
CONTINUOUS
 90
21
 70
0
 10
7.543562476
 20
-24.2531634768
 10
7.5475976819
 20
-24.2508225859
 10
7.5520572077
 20
-24.2478242895
 10
7.5563198689
 20
-24.2445012257
 10
7.5603775543
 20
-24.2408597176
 10
7.5642225429
 20
-24.2369066946
 10
7.5678475184
 20
-24.2326496783
 10
7.5712455831
 20
-24.2280967692
 10
7.5744102711
 20
-24.2232566307
 10
7.5773355607
 20
-24.2181384725
 10
7.5800158854
 20
-24.2127520337
 10
7.5824461452
 20
-24.2071075637
 10
7.5846217156
 20
-24.2012158028
 10
7.5865384571
 20
-24.1950879621
 10
7.5881927222
 20
-24.1887357017
 10
7.5895813634
 20
-24.1821711087
 10
7.5907017382
 20
-24.1754066745
 10
7.5915517149
 20
-24.1684552705
 10
7.5921296759
 20
-24.161330124
 10
7.5924345216
 20
-24.1540447928
 10
7.592465672
 20
-24.1466131397
  0
LWPOLYLINE
  5
4E7
100
AcDbEntity
  8
C_CORPO
100
AcDbPolyline
 62
7
  6
CONTINUOUS
 90
52
 70
0
 10
7.543560396
 20
-24.2531645639
 10
7.5594893176
 20
-24.2443518045
 10
7.5811620451
 20
-24.231653728
 10
7.6026399462
 20
-24.2182538889
 10
7.6239135889
 20
-24.2041665338
 10
7.64497229
 20
-24.1894072332
 10
7.6658013389
 20
-24.1739942025
 10
7.6863915188
 20
-24.1579421597
 10
7.7067328222
 20
-24.1412663469
 10
7.7268079428
 20
-24.1239878378
 10
7.7466070959
 20
-24.1061225032
 10
7.7661206728
 20
-24.0876857517
 10
7.7853309946
 20
-24.0687008247
 10
7.8042284819
 20
-24.0491843164
 10
7.8228032858
 20
-24.0291525306
 10
7.8410371785
 20
-24.0086316401
 10
7.8589193851
 20
-23.9876408094
 10
7.8764418211
 20
-23.9661955857
 10
7.8935905174
 20
-23.9443195611
 10
7.910354192
 20
-23.9220335326
 10
7.9267258632
 20
-23.8993525231
 10
7.9426978491
 20
-23.8762928887
 10
7.9582607675
 20
-23.8528728077
 10
7.973405801
 20
-23.8291100122
 10
7.9881254534
 20
-23.8050204888
 10
8.0024102751
 20
-23.7806227394
 10
8.0162518469
 20
-23.7559344368
 10
8.0296433311
 20
-23.7309701357
 10
8.0425754653
 20
-23.7057483928
 10
8.0550399582
 20
-23.6802869892
 10
8.0670304385
 20
-23.6545989031
 10
8.0785381081
 20
-23.6287021726
 10
8.0895543711
 20
-23.6026151654
 10
8.1000724477
 20
-23.5763509432
 10
8.1100842416
 20
-23.549926233
 10
8.1195805163
 20
-23.5233607873
 10
8.1285528641
 20
-23.4966718385
 10
8.1369933135
 20
-23.4698766232
 10
8.1448929696
 20
-23.4429945156
 10
8.1522430421
 20
-23.4160454235
 10
8.1590356216
 20
-23.3890475332
 10
8.1652624091
 20
-23.3620192935
 10
8.170915328
 20
-23.3349800271
 10
8.1759866027
 20
-23.3079478581
 10
8.1804682281
 20
-23.2809409981
 10
8.1843526828
 20
-23.2539776943
 10
8.1876320892
 20
-23.227076574
 10
8.1902986811
 20
-23.2002551158
 10
8.1923450442
 20
-23.1735280004
 10
8.193763016
 20
-23.1469113738
 10
8.1945445793
 20
-23.1204259125
 10
8.1947087838
 20
-23.1016731985
  0
LINE
  5
4E8
100
AcDbEntity
  8
C_CORPO
100
AcDbLine
 62
250
  6
CONTINUOUS
 10
7.592465672
 20
-24.1466131397
 11
2.0222268737
 21
-27.151884762
  0
LINE
  5
4E9
100
AcDbEntity
  8
C_CORPO
100
AcDbLine
 62
7
  6
CONTINUOUS
 10
7.543562476
 20
-24.2531634768
 11
1.9723311153
 21
-27.2589706094
  0
LWPOLYLINE
  5
4EA
100
AcDbEntity
  8
C_COPERCHIO
100
AcDbPolyline
 62
250
  6
CONTINUOUS
 90
26
 70
0
 10
-3.2657650478
 20
-28.3569739422
 10
-3.2647360978
 20
-28.3564910964
 10
-3.2596617738
 20
-28.3538784207
 10
-3.2547425255
 20
-28.3509527655
 10
-3.2499852301
 20
-28.3477182211
 10
-3.2453965387
 20
-28.3441793095
 10
-3.2409828663
 20
-28.3403409783
 10
-3.2367503836
 20
-28.3362085935
 10
-3.2327050078
 20
-28.3317879326
 10
-3.2288523944
 20
-28.3270851759
 10
-3.2251979296
 20
-28.3221068978
 10
-3.2217467226
 20
-28.3168600585
 10
-3.2185035983
 20
-28.3113519931
 10
-3.2154730908
 20
-28.3055904023
 10
-3.2126594367
 20
-28.299583341
 10
-3.2100665698
 20
-28.2933392074
 10
-3.2076981151
 20
-28.286866731
 10
-3.2055573836
 20
-28.2801749608
 10
-3.2036473683
 20
-28.273273252
 10
-3.2019707395
 20
-28.2661712538
 10
-3.2005298412
 20
-28.2588788949
 10
-3.1993266877
 20
-28.2514063704
 10
-3.1983629613
 20
-28.2437641274
 10
-3.1976400092
 20
-28.23596285
 10
-3.1971588421
 20
-28.2280134447
 10
-3.1969201327
 20
-28.2199270253
  0
LINE
  5
4EB
100
AcDbEntity
  8
C_COPERCHIO
100
AcDbLine
 62
250
  6
CONTINUOUS
 10
0.5455501774
 20
-26.4915302149
 11
-3.2042116928
 21
-28.2233101586
  0
LINE
  5
4EC
100
AcDbEntity
  8
C_COPERCHIO
100
AcDbLine
 62
7
  6
CONTINUOUS
 10
0.1781151949
 20
-26.7664759199
 11
-3.2657650478
 21
-28.3569739422
  0
LINE
  5
4ED
100
AcDbEntity
  8
C_COPERCHIO
100
AcDbLine
 62
250
  6
CONTINUOUS
 10
0.5455501774
 20
-27.7905683206
 11
2.0222268737
 21
-27.1085900868
  0
LINE
  5
4EE
100
AcDbEntity
  8
C_COPERCHIO
100
AcDbLine
 62
7
  6
CONTINUOUS
 10
0.4767052624
 20
-27.9276152375
 11
1.9546497896
 21
-27.2450514774
  0
LWPOLYLINE
  5
4EF
100
AcDbEntity
  8
C_COPERCHIO
100
AcDbPolyline
 62
250
  6
CONTINUOUS
 90
39
 70
0
 10
-3.2042116928
 20
-28.2233101586
 10
-3.211768517
 20
-28.2265463464
 10
-3.219578823
 20
-28.2296303532
 10
-3.2276310724
 20
-28.2325574088
 10
-3.2359120443
 20
-28.2353224994
 10
-3.2444066766
 20
-28.237920509
 10
-3.2531007534
 20
-28.2403471191
 10
-3.2619811889
 20
-28.242598706
 10
-3.2710339854
 20
-28.2446717173
 10
-3.2802448533
 20
-28.2465628723
 10
-3.2895991217
 20
-28.2482691503
 10
-3.2990818452
 20
-28.2497878227
 10
-3.3086779321
 20
-28.2511164751
 10
-3.3183722059
 20
-28.252253009
 10
-3.328149321
 20
-28.2531956255
 10
-3.3379937809
 20
-28.2539428291
 10
-3.3478899563
 20
-28.2544934322
 10
-3.3578221425
 20
-28.2548465605
 10
-3.3677745814
 20
-28.2550016531
 10
-3.3777314872
 20
-28.2549584637
 10
-3.3876770649
 20
-28.25471706
 10
-3.397595538
 20
-28.2542778246
 10
-3.4074711712
 20
-28.2536414537
 10
-3.4172882951
 20
-28.2528089564
 10
-3.4270313356
 20
-28.2517816532
 10
-3.4366848369
 20
-28.2505611733
 10
-3.4462334829
 20
-28.2491494528
 10
-3.4556621261
 20
-28.2475487309
 10
-3.4649558086
 20
-28.2457615467
 10
-3.4740997849
 20
-28.2437907355
 10
-3.4830795486
 20
-28.2416394239
 10
-3.4918808547
 20
-28.2393110244
 10
-3.5004897401
 20
-28.2368092309
 10
-3.50889255
 20
-28.2341380114
 10
-3.5170759519
 20
-28.231301604
 10
-3.525026957
 20
-28.2283045108
 10
-3.5327329504
 20
-28.2251514878
 10
-3.5401817102
 20
-28.2218475363
 10
-3.5473614206
 20
-28.2183978979
  0
ARC
  5
4F0
100
AcDbEntity
  8
C_CORPO
100
AcDbCircle
 62
7
  6
CONTINUOUS
 10
1.0271969062
 20
23.0862184368
 40
0.5
100
AcDbArc
 50
63.4349488229
 51
114.7889082971
  0
ARC
  5
4F1
100
AcDbEntity
  8
C_CORPO
100
AcDbCircle
 62
7
  6
CONTINUOUS
 10
17.3008138213
 20
-11.4890993174
 40
0.5
100
AcDbArc
 50
298.3481508558
 51
359.9999884431
  0
ARC
  5
4F2
100
AcDbEntity
  8
C_CORPO
100
AcDbCircle
 62
7
  6
CONTINUOUS
 10
17.3008138213
 20
14.9494099793
 40
0.5
100
AcDbArc
 50
0.0
 51
63.4356724282
  0
ARC
  5
4F3
100
AcDbEntity
  8
C_CORPO
100
AcDbCircle
 62
7
  6
CONTINUOUS
 10
19.6655021165
 20
7.5075057175
 40
0.3
100
AcDbArc
 50
297.862941314
 51
0.0003494238
  0
ARC
  5
4F4
100
AcDbEntity
  8
C_CORPO
100
AcDbCircle
 62
7
  6
CONTINUOUS
 10
19.6655021165
 20
13.0092369939
 40
0.3
100
AcDbArc
 50
0.0007396623
 51
63.4349488229
  0
ARC
  5
4F5
100
AcDbEntity
  8
C_COPERCHIO
100
AcDbCircle
 62
7
  6
CONTINUOUS
 10
-20.3742580278
 20
18.6907019294
 40
0.25
100
AcDbArc
 50
118.3478796169
 51
179.9996369597
  0
ARC
  5
4F6
100
AcDbEntity
  8
C_COPERCHIO
100
AcDbCircle
 62
7
  6
CONTINUOUS
 10
-3.3705847253
 20
-28.1300095503
 40
0.25
100
AcDbArc
 50
243.4350969304
 51
294.7890578208
  0
ARC
  5
4F7
100
AcDbEntity
  8
C_COPERCHIO
100
AcDbCircle
 62
7
  6
CONTINUOUS
 10
-20.3742580278
 20
-19.6281728991
 40
0.25
100
AcDbArc
 50
179.9996267022
 51
243.435251202
  0
ELLIPSE
  5
4F8
100
AcDbEntity
  8
C_COPERCHIO
100
AcDbEllipse
 62
7
  6
CONTINUOUS
 10
-7.6369982362
 20
23.5525168548
 30
0.0
 11
0.9999727455
 21
0.0144591093
 31
0.0
 40
0.5106100819
 41
0.7780151293
 42
2.3313581636
  0
ELLIPSE
  5
4F9
100
AcDbEntity
  8
C_COPERCHIO
100
AcDbEllipse
 62
7
  6
CONTINUOUS
 10
-15.3372176763
 20
22.7073388629
 30
0.0
 11
-0.1118504554
 21
0.2236675568
 31
0.0
 40
0.6121897086
 41
-0.6846338794
 42
0.0190163403
  0
ELLIPSE
  5
4FA
100
AcDbEntity
  8
C_COPERCHIO
100
AcDbEllipse
 62
7
  6
CONTINUOUS
 10
0.7848169347
 20
14.6463215574
 30
0.0
 11
-0.1118504554
 21
0.2236675568
 31
0.0
 40
0.6121897086
 41
-0.6846338794
 42
0.0190163403
  0
ELLIPSE
  5
4FB
100
AcDbEntity
  8
C_COPERCHIO
100
AcDbEllipse
 62
7
  6
CONTINUOUS
 10
-14.2766113607
 20
22.1770357051
 30
0.0
 11
-0.1117903878
 21
0.2236141634
 31
0.0
 40
0.6125552124
 41
-2.255296188
 42
-0.6848044477
  0
ELLIPSE
  5
4FC
100
AcDbEntity
  8
C_COPERCHIO
100
AcDbEllipse
 62
7
  6
CONTINUOUS
 10
1.8454232504
 20
14.1160183996
 30
0.0
 11
-0.1117903878
 21
0.2236141634
 31
0.0
 40
0.6125552124
 41
-2.255296188
 42
-0.6848044477
  0
ELLIPSE
  5
4FD
100
AcDbEntity
  8
C_COPERCHIO
100
AcDbEllipse
 62
7
  6
CONTINUOUS
 10
1.8454232504
 20
-27.0201223202
 30
0.0
 11
-0.1118504554
 21
0.2236675568
 31
0.0
 40
0.6121897086
 41
-3.1606089939
 42
-2.2557347926
  0
ELLIPSE
  5
4FE
100
AcDbEntity
  8
C_COPERCHIO
100
AcDbEllipse
 62
7
  6
CONTINUOUS
 10
-6.6709469246
 20
23.2499480868
 30
0.0
 11
0.3262229419
 21
0.6753856277
 31
0.0
 40
0.6016116119
 41
-0.0082293097
 42
0.6939431858
  0
ELLIPSE
  5
4FF
100
AcDbEntity
  8
C_COPERCHIO
100
AcDbEllipse
 62
7
  6
CONTINUOUS
 10
3.498332354
 20
18.1653084475
 30
0.0
 11
0.3449653854
 21
0.6660096921
 31
0.0
 40
0.6229838795
 41
0.008886219
 42
0.7110587146
  0
ELLIPSE
  5
500
100
AcDbEntity
  8
C_COPERCHIO
100
AcDbEllipse
 62
7
  6
CONTINUOUS
 10
2.4402056736
 20
18.5980591842
 30
0.0
 11
0.9980068092
 21
-0.2399287748
 31
0.0
 40
0.2630210944
 41
1.9259507046
 42
2.4104144461
  0
ELLIPSE
  5
501
100
AcDbEntity
  8
C_COPERCHIO
100
AcDbEllipse
 62
7
  6
CONTINUOUS
 10
-14.0733734245
 20
18.6750301492
 30
0.0
 11
0.7906001637
 21
0.0114316858
 31
0.0
 40
0.5106100819
 41
3.1342096196
 42
5.4729508172
  0
ELLIPSE
  5
502
100
AcDbEntity
  8
C_COPERCHIO
100
AcDbEllipse
 62
7
  6
CONTINUOUS
 10
-3.9571673035
 20
13.6169270887
 30
0.0
 11
0.7906001637
 21
0.0114316858
 31
0.0
 40
0.5106100819
 41
3.1342096196
 42
5.4729508172
  0
ELLIPSE
  5
503
100
AcDbEntity
  8
C_COPERCHIO
100
AcDbEllipse
 62
7
  6
CONTINUOUS
 10
-6.9604977663
 20
21.8708291319
 30
0.0
 11
0.0919907694
 21
0.1776025845
 31
0.0
 40
0.6229838795
 41
-1.2164346132
 42
-0.8771909047
  0
ELLIPSE
  5
504
100
AcDbEntity
  8
C_COPERCHIO
100
AcDbEllipse
 62
7
  6
CONTINUOUS
 10
-20.2005669812
 20
15.249614266
 30
0.0
 11
-0.1098985543
 21
0.2275784384
 31
0.0
 40
0.6085747011
 41
-0.6677344043
 42
0.113780849
  0
ELLIPSE
  5
505
100
AcDbEntity
  8
C_COPERCHIO
100
AcDbEllipse
 62
7
  6
CONTINUOUS
 10
-3.1907223813
 20
6.7446919661
 30
0.0
 11
-0.1092649321
 21
0.2270579893
 31
0.0
 40
0.6121735965
 41
-2.2369946326
 42
-0.669228889
  0
ELLIPSE
  5
506
100
AcDbEntity
  8
C_COPERCHIO
100
AcDbEllipse
 62
7
  6
CONTINUOUS
 10
-3.1907223813
 20
-24.5121451916
 30
0.0
 11
-0.1098985543
 21
0.2275784384
 31
0.0
 40
0.6085747011
 41
-3.2553735026
 42
-2.2415613143
  0
ELLIPSE
  5
507
100
AcDbEntity
  8
C_COPERCHIO
100
AcDbEllipse
 62
7
  6
CONTINUOUS
 10
-16.246357521
 20
20.6091945937
 30
0.0
 11
0.9642939016
 21
0.013943211
 31
0.0
 40
0.5106100819
 41
3.1342096195
 42
5.4729508172
  0
ELLIPSE
  5
508
100
AcDbEntity
  8
C_COPERCHIO
100
AcDbEllipse
 62
7
  6
CONTINUOUS
 10
-0.1243229099
 20
12.5481772882
 30
0.0
 11
0.9642939016
 21
0.013943211
 31
0.0
 40
0.5106100819
 41
3.1342096195
 42
4.7364581619
  0
ELLIPSE
  5
509
100
AcDbEntity
  8
C_COPERCHIO
100
AcDbEllipse
 62
7
  6
CONTINUOUS
 10
-5.3228648903
 20
22.5759070696
 30
0.0
 11
0.3262229419
 21
0.6753856277
 31
0.0
 40
0.6016116119
 41
5.3888788736
 42
6.9771284929
  0
ELLIPSE
  5
50A
100
AcDbEntity
  8
C_COPERCHIO
100
AcDbEllipse
 62
7
  6
CONTINUOUS
 10
-4.6182916005
 20
22.1273078212
 30
0.0
 11
0.9980068092
 21
-0.2399287748
 31
0.0
 40
0.2630210944
 41
-0.7133215392
 42
-0.2288577977
  0
ELLIPSE
  5
50B
100
AcDbEntity
  8
C_COPERCHIO
100
AcDbEllipse
 62
7
  6
CONTINUOUS
 10
4.8464143882
 20
17.4912674304
 30
0.0
 11
0.3449653854
 21
0.6660096921
 31
0.0
 40
0.6229838795
 41
5.4235999999
 42
6.9942440218
  0
ELLIPSE
  5
50C
100
AcDbEntity
  8
C_CORPO
100
AcDbEllipse
 62
7
  6
CONTINUOUS
 10
0.7616514661
 20
19.8234795505
 30
0.0
 11
3.2468997206
 21
-0.0455232094
 31
0.0
 40
0.4892378494
 41
-0.8456516498
 42
-0.7684864381
  0
ELLIPSE
  5
50D
100
AcDbEntity
  8
C_CORPO
100
AcDbEllipse
 62
7
  6
CONTINUOUS
 10
9.7419075872
 20
15.33335149
 30
0.0
 11
3.2468997206
 21
-0.0455232094
 31
0.0
 40
0.4892378494
 41
-2.0606369428
 42
-0.7684864381
  0
ELLIPSE
  5
50E
100
AcDbEntity
  8
C_CORPO
100
AcDbEllipse
 62
7
  6
CONTINUOUS
 10
15.7065691183
 20
15.7465323308
 30
0.0
 11
0.3953408599
 21
0.3579464779
 31
0.0
 40
0.2845239558
 41
0.1103488575
 42
0.7776147693
  0
ELLIPSE
  5
50F
100
AcDbEntity
  8
C_CORPO
100
AcDbEllipse
 62
7
  6
CONTINUOUS
 10
6.7263129972
 20
20.2366603913
 30
0.0
 11
0.3953408599
 21
0.3579464779
 31
0.0
 40
0.2845239558
 41
0.1103488575
 42
0.7776147693
  0
ELLIPSE
  5
510
100
AcDbEntity
  8
C_CORPO
100
AcDbEllipse
 62
7
  6
CONTINUOUS
 10
10.4721529089
 20
13.6670739272
 30
0.0
 11
2.7999956361
 21
-0.0099400857
 31
0.0
 40
0.4973232868
 41
0.6546174435
 42
1.5143018813
  0
ELLIPSE
  5
511
100
AcDbEntity
  8
C_CORPO
100
AcDbEllipse
 62
7
  6
CONTINUOUS
 10
1.4918967879
 20
18.1572019877
 30
0.0
 11
2.7999956361
 21
-0.0099400857
 31
0.0
 40
0.4973232868
 41
0.6546174435
 42
1.5143018813
  0
ELLIPSE
  5
512
100
AcDbEntity
  8
C_CORPO
100
AcDbEllipse
 62
7
  6
CONTINUOUS
 10
0.7616514661
 20
19.8234795505
 30
0.0
 11
3.2468997206
 21
-0.0455232094
 31
0.0
 40
0.4892378494
 41
2.3529505014
 42
2.677481019
  0
ELLIPSE
  5
513
100
AcDbEntity
  8
C_CORPO
100
AcDbEllipse
 62
7
  6
CONTINUOUS
 10
1.8807839751
 20
-27.0811105487
 30
0.0
 11
-0.0894803643
 21
0.1789340454
 31
0.0
 40
0.6121897086
 41
2.6696821527
 42
4.0274505145
  0
ELLIPSE
  5
514
100
AcDbEntity
  8
C_CORPO
100
AcDbEllipse
 62
7
  6
CONTINUOUS
 10
2.6214416092
 20
22.2890960854
 30
0.0
 11
-0.1574327495
 21
0.5532318638
 31
0.0
 40
0.6808569061
 41
4.8400973205
 42
6.3934403548
  0
ELLIPSE
  5
515
100
AcDbEntity
  8
C_CORPO
100
AcDbEllipse
 62
7
  6
CONTINUOUS
 10
11.6016977302
 20
17.7989680248
 30
0.0
 11
-0.1574327495
 21
0.5532318638
 31
0.0
 40
0.6808569061
 41
4.8400973205
 42
6.3934403548
  0
ELLIPSE
  5
516
100
AcDbEntity
  8
C_CORPO
100
AcDbEllipse
 62
7
  6
CONTINUOUS
 10
1.8807839751
 20
14.1416459034
 30
0.0
 11
-0.0894323102
 21
0.1788913307
 31
0.0
 40
0.6125552124
 41
-2.255296188
 42
-0.6848044477
  0
ELLIPSE
  5
517
100
AcDbEntity
  8
C_CORPO
100
AcDbEllipse
 62
7
  6
CONTINUOUS
 10
-15.372578401
 20
22.7683270915
 30
0.0
 11
-0.0894803643
 21
0.1789340454
 31
0.0
 40
0.6121897086
 41
-0.6846338794
 42
0.4750821501
  0
ENDSEC
  0
SECTION
  2
OBJECTS
  0
DICTIONARY
  5
C
100
AcDbDictionary
280
0
281
1
  3
ACAD_GROUP
350
D
  3
ACAD_MLINESTYLE
350
17
  3
ACAD_LAYOUT
350
1A
  3
ACAD_PLOTSETTINGS
350
19
  3
ACAD_PLOTSTYLENAME
350
E
  0
DICTIONARY
  5
D
102
{ACAD_REACTORS
330
C
102
}
100
AcDbDictionary
280
0
281
1
  0
ACDBDICTIONARYWDFLT
  5
E
102
{ACAD_REACTORS
330
C
102
}
100
AcDbDictionary
281
1
  3
Normal
350
F
100
AcDbDictionaryWithDefault
340
F
  0
DICTIONARY
  5
17
102
{ACAD_REACTORS
330
C
102
}
100
AcDbDictionary
280
0
281
1
  3
Standard
350
18
  0
DICTIONARY
  5
19
102
{ACAD_REACTORS
330
C
102
}
100
AcDbDictionary
281
1
  0
DICTIONARY
  5
1A
102
{ACAD_REACTORS
330
C
102
}
100
AcDbDictionary
281
1
  3
Model
350
518
  3
Layout1
350
519
  0
ACDBPLACEHOLDER
  5
F
102
{ACAD_REACTORS
330
E
102
}
  0
MLINESTYLE
  5
18
102
{ACAD_REACTORS
330
17
102
}
100
AcDbMlineStyle
  2
STANDARD
 70
0
  3

 62
256
 51
90.0
 52
90.0
 71
2
 49
0.5
 62
256
  6
BYLAYER
 49
-0.5
 62
256
  6
BYLAYER
  0
LAYOUT
  5
518
102
{ACAD_REACTORS
330
1A
102
}
100
AcDbPlotSettings
  1

  2
none_device
  4
ISO_A4_(297.00_x_210.00_MM)
  6

 40
0.0
 41
0.0
 42
0.0
 43
0.0
 44
297.0
 45
210.0
 46
0.0
 47
0.0
 48
0.0
 49
0.0
140
0.0
141
0.0
142
1.0
143
1.0
 70
1024
 72
1
 73
0
 74
0
  7

 75
0
147
1.0
148
0.0
149
0.0
100
AcDbLayout
  1
Model
 70
0
 71
0
 10
0.0
 20
0.0
 11
297.0
 21
210.0
 12
0.0
 22
0.0
 32
0.0
 14
0.0
 24
0.0
 34
0.0
 15
0.0
 25
0.0
 35
0.0
146
0.0
 13
0.0
 23
0.0
 33
0.0
 16
1.0
 26
0.0
 36
0.0
 17
0.0
 27
1.0
 37
0.0
 76
0
330
21A
345
0
346
0
  0
LAYOUT
  5
519
102
{ACAD_REACTORS
330
1A
102
}
100
AcDbPlotSettings
  1

  2
none_device
  4
ISO_A4_(297.00_x_210.00_MM)
  6

 40
0.0
 41
0.0
 42
0.0
 43
0.0
 44
297.0
 45
210.0
 46
0.0
 47
0.0
 48
0.0
 49
0.0
140
0.0
141
0.0
142
1.0
143
1.0
 70
0
 72
1
 73
0
 74
0
  7

 75
0
147
1.0
148
0.0
149
0.0
100
AcDbLayout
  1
Layout1
 70
0
 71
1
 10
0.0
 20
0.0
 11
297.0
 21
210.0
 12
0.0
 22
0.0
 32
0.0
 14
0.0
 24
0.0
 34
0.0
 15
0.0
 25
0.0
 35
0.0
146
0.0
 13
0.0
 23
0.0
 33
0.0
 16
1.0
 26
0.0
 36
0.0
 17
0.0
 27
1.0
 37
0.0
 76
0
330
21B
345
0
346
0
  0
ENDSEC
  0
EOF
