  0
SECTION
  2
HEADER
  9
$ACADVER
  1
AC1024
  9
$DWGCODEPAGE
  3
ANSI_1252
  9
$EXTMAX
 10
297.0
 20
210.0
 30
0.0
  9
$EXTMIN
 10
0.0
 20
0.0
 30
0.0
  9
$LIMMIN
 10
0.0
 20
0.0
  9
$LIMMAX
 10
297.0
 20
210.0
  9
$VIEWCTR
 10
148.5
 20
105.0
  9
$VIEWSIZE
 40
210.0
  9
$CLAYER
  8
0
  9
$LTSCALE
 40
16.335
  9
$CELTYPE
  6
BYLAYER
  9
$DIMSCALE
 40
1.0
  9
$DIMASZ
 40
3.0
  9
$DIMEXO
 40
0.5
  9
$DIMDLI
 40
11.286
  9
$DIMEXE
 40
1.5
  9
$DIMCEN
 40
2.673
  9
$DIMLFAC
 40
1.0
  9
$DIMBLK
  1
_FILLED
  9
$DIMALT
 70
0
  9
$DIMALTF
 40
0.0393700787
  9
$DIMTXT
 40
3.0
  9
$DIMTOL
 70
1
  9
$DIMLIM
 70
0
  9
$DIMTFAC
 40
1.0
  9
$DIMTP
 40
0.01
  9
$DIMTM
 40
0.01
  9
$DIMGAP
 40
0.625
  9
$DIMDSEP
 70
44
  9
$AUNITS
 70
0
  9
$PDMODE
 70
3
  9
$PDSIZE
 40
3.0
  9
$HANDSEED
  5
527
  9
$TILEMODE
 70
1
  9
$MEASUREMENT
 70
1
  9
$INSUNITS
 70
4
  0
ENDSEC
  0
SECTION
  2
CLASSES
  0
CLASS
  1
ACDBDICTIONARYWDFLT
  2
AcDbDictionaryWithDefault
  3
AutoCAD 2000
 90
0
 91
1
280
0
281
0
  0
CLASS
  1
ACDBPLACEHOLDER
  2
AcDbPlaceHolder
  3
AutoCAD 2000
 90
0
 91
1
280
0
281
0
  0
CLASS
  1
LAYOUT
  2
AcDbLayout
  3
AutoCAD 2000
 90
0
 91
0
280
0
281
0
  0
ENDSEC
  0
SECTION
  2
TABLES
  0
TABLE
  2
VPORT
  5
8
100
AcDbSymbolTable
 70
2
  0
VPORT
  5
1F4
100
AcDbSymbolTableRecord
100
AcDbViewportTableRecord
  2
*ACTIVE
 70
0
 10
0.0
 20
0.0
 11
1.0
 21
1.0
 12
148.5
 22
105.0
 13
0.0
 23
0.0
 14
1.0
 24
1.0
 15
0.0
 25
0.0
 16
0.0
 26
0.0
 36
1.0
 17
0.0
 27
0.0
 37
0.0
 40
210.0
 41
1.4142857143
 42
50.0
 43
0.0
 44
0.0
 50
0.0
 51
0.0
 71
0
 72
100
 73
1
 74
1
 75
0
 76
0
 77
0
 78
0
  0
ENDTAB
  0
TABLE
  2
LTYPE
  5
5
100
AcDbSymbolTable
 70
6
  0
LTYPE
  5
14
100
AcDbSymbolTableRecord
100
AcDbLinetypeTableRecord
  2
BYBLOCK
 70
0
  3

 72
65
 73
0
 40
0.0
  0
LTYPE
  5
15
100
AcDbSymbolTableRecord
100
AcDbLinetypeTableRecord
  2
BYLAYER
 70
0
  3

 72
65
 73
0
 40
0.0
  0
LTYPE
  5
16
100
AcDbSymbolTableRecord
100
AcDbLinetypeTableRecord
  2
CONTINUOUS
 70
64
  3
Solid line
 72
65
 73
0
 40
0.0
  0
LTYPE
  5
1F5
100
AcDbSymbolTableRecord
100
AcDbLinetypeTableRecord
  2
CENTER
 70
64
  3
____ _ ____ _ ____ _ ____ _ ____ _ ____ _ ____
 72
65
 73
4
 40
0.6
 49
0.375
 74
0
 49
-0.075
 74
0
 49
0.075
 74
0
 49
-0.075
 74
0
  0
LTYPE
  5
1F6
100
AcDbSymbolTableRecord
100
AcDbLinetypeTableRecord
  2
HIDDEN
 70
64
  3
- - - - - - - - - - - - - - - - - - - -
 72
65
 73
2
 40
0.2
 49
0.1
 74
0
 49
-0.1
 74
0
  0
LTYPE
  5
1F7
100
AcDbSymbolTableRecord
100
AcDbLinetypeTableRecord
  2
PHANTOM
 70
64
  3
_____ _ _ _____ _ _ _____ _ _ _____
 72
65
 73
6
 40
0.8
 49
0.45
 74
0
 49
-0.05
 74
0
 49
0.1
 74
0
 49
-0.05
 74
0
 49
0.1
 74
0
 49
-0.05
 74
0
  0
LTYPE
  5
1F8
100
AcDbSymbolTableRecord
100
AcDbLinetypeTableRecord
  2
DOT
 70
64
  3
. . . . . . . . . . . . . . . . . . . .
 72
65
 73
2
 40
0.2
 49
0.1
 74
0
 49
-0.1
 74
0
  0
LTYPE
  5
1F9
100
AcDbSymbolTableRecord
100
AcDbLinetypeTableRecord
  2
DASHED
 70
64
  3
- - - - - - - - - - - - - - - - - - - -
 72
65
 73
2
 40
0.2
 49
0.1
 74
0
 49
-0.1
 74
0
  0
ENDTAB
  0
TABLE
  2
LAYER
  5
2
100
AcDbSymbolTable
 70
36
  0
LAYER
  5
10
100
AcDbSymbolTableRecord
100
AcDbLayerTableRecord
  2
0
 70
0
 62
7
  6
CONTINUOUS
370
-3
390
F
  0
LAYER
  5
1FA
100
AcDbSymbolTableRecord
100
AcDbLayerTableRecord
  2
DEFAULT_1
 70
0
 62
7
  6
CENTER
370
-3
390
F
  0
LAYER
  5
1FB
100
AcDbSymbolTableRecord
100
AcDbLayerTableRecord
  2
DEFAULT_2
 70
0
 62
7
  6
HIDDEN
370
-3
390
F
  0
LAYER
  5
1FC
100
AcDbSymbolTableRecord
100
AcDbLayerTableRecord
  2
DEFAULT_3
 70
0
 62
7
  6
PHANTOM
370
-3
390
F
  0
LAYER
  5
1FD
100
AcDbSymbolTableRecord
100
AcDbLayerTableRecord
  2
ASSI
 70
0
 62
7
  6
CONTINUOUS
370
-3
390
F
  0
LAYER
  5
1FE
100
AcDbSymbolTableRecord
100
AcDbLayerTableRecord
  2
COORDINATE
 70
0
 62
7
  6
CONTINUOUS
370
-3
390
F
  0
LAYER
  5
1FF
100
AcDbSymbolTableRecord
100
AcDbLayerTableRecord
  2
COORD_ORIGINE
 70
0
 62
7
  6
CONTINUOUS
370
-3
390
F
  0
LAYER
  5
200
100
AcDbSymbolTableRecord
100
AcDbLayerTableRecord
  2
COSMETICHE
 70
0
 62
7
  6
CONTINUOUS
370
-3
390
F
  0
LAYER
  5
201
100
AcDbSymbolTableRecord
100
AcDbLayerTableRecord
  2
COSMETICI
 70
0
 62
7
  6
CONTINUOUS
370
-3
390
F
  0
LAYER
  5
202
100
AcDbSymbolTableRecord
100
AcDbLayerTableRecord
  2
CURVE
 70
0
 62
7
  6
CONTINUOUS
370
-3
390
F
  0
LAYER
  5
203
100
AcDbSymbolTableRecord
100
AcDbLayerTableRecord
  2
C_CONTATTO_DX
 70
0
 62
7
  6
CONTINUOUS
370
-3
390
F
  0
LAYER
  5
204
100
AcDbSymbolTableRecord
100
AcDbLayerTableRecord
  2
C_CONTATTO_SX
 70
0
 62
7
  6
CONTINUOUS
370
-3
390
F
  0
LAYER
  5
205
100
AcDbSymbolTableRecord
100
AcDbLayerTableRecord
  2
C_COPERCHIO
 70
0
 62
7
  6
CONTINUOUS
370
-3
390
F
  0
LAYER
  5
206
100
AcDbSymbolTableRecord
100
AcDbLayerTableRecord
  2
C_CORPO
 70
0
 62
7
  6
CONTINUOUS
370
-3
390
F
  0
LAYER
  5
207
100
AcDbSymbolTableRecord
100
AcDbLayerTableRecord
  2
C_MOLLA
 70
0
 62
7
  6
CONTINUOUS
370
-3
390
F
  0
LAYER
  5
208
100
AcDbSymbolTableRecord
100
AcDbLayerTableRecord
  2
C_MOLLA_IDEA
 70
0
 62
7
  6
CONTINUOUS
370
-3
390
F
  0
LAYER
  5
209
100
AcDbSymbolTableRecord
100
AcDbLayerTableRecord
  2
C_OTTURATORE
 70
0
 62
7
  6
CONTINUOUS
370
-3
390
F
  0
LAYER
  5
20A
100
AcDbSymbolTableRecord
100
AcDbLayerTableRecord
  2
C_SCATOLINO
 70
0
 62
7
  6
CONTINUOUS
370
-3
390
F
  0
LAYER
  5
20B
100
AcDbSymbolTableRecord
100
AcDbLayerTableRecord
  2
DRAFT
 70
0
 62
7
  6
CONTINUOUS
370
-3
390
F
  0
LAYER
  5
20C
100
AcDbSymbolTableRecord
100
AcDbLayerTableRecord
  2
IGES
 70
0
 62
7
  6
CONTINUOUS
370
-3
390
F
  0
LAYER
  5
20D
100
AcDbSymbolTableRecord
100
AcDbLayerTableRecord
  2
INTF_1
 70
0
 62
7
  6
CONTINUOUS
370
-3
390
F
  0
LAYER
  5
20E
100
AcDbSymbolTableRecord
100
AcDbLayerTableRecord
  2
INTF_11
 70
0
 62
7
  6
CONTINUOUS
370
-3
390
F
  0
LAYER
  5
20F
100
AcDbSymbolTableRecord
100
AcDbLayerTableRecord
  2
INTF_2
 70
0
 62
7
  6
CONTINUOUS
370
-3
390
F
  0
LAYER
  5
210
100
AcDbSymbolTableRecord
100
AcDbLayerTableRecord
  2
NOTE
 70
0
 62
7
  6
CONTINUOUS
370
-3
390
F
  0
LAYER
  5
211
100
AcDbSymbolTableRecord
100
AcDbLayerTableRecord
  2
PIANI
 70
0
 62
7
  6
CONTINUOUS
370
-3
390
F
  0
LAYER
  5
212
100
AcDbSymbolTableRecord
100
AcDbLayerTableRecord
  2
PIANI_CHIUSURA
 70
0
 62
7
  6
CONTINUOUS
370
-3
390
F
  0
LAYER
  5
213
100
AcDbSymbolTableRecord
100
AcDbLayerTableRecord
  2
PIANI_DI_RIFERIMENTO
 70
0
 62
7
  6
CONTINUOUS
370
-3
390
F
  0
LAYER
  5
214
100
AcDbSymbolTableRecord
100
AcDbLayerTableRecord
  2
PIANI_ORIGINE
 70
0
 62
7
  6
CONTINUOUS
370
-3
390
F
  0
LAYER
  5
215
100
AcDbSymbolTableRecord
100
AcDbLayerTableRecord
  2
PUNTI
 70
0
 62
7
  6
CONTINUOUS
370
-3
390
F
  0
LAYER
  5
216
100
AcDbSymbolTableRecord
100
AcDbLayerTableRecord
  2
RACCORDO
 70
0
 62
7
  6
CONTINUOUS
370
-3
390
F
  0
LAYER
  5
217
100
AcDbSymbolTableRecord
100
AcDbLayerTableRecord
  2
RGB__255__255__255__
 70
0
 62
7
  6
CONTINUOUS
370
-3
390
F
  0
LAYER
  5
218
100
AcDbSymbolTableRecord
100
AcDbLayerTableRecord
  2
RGB____0____0____0__
 70
0
 62
7
  6
CONTINUOUS
370
-3
390
F
  0
LAYER
  5
219
100
AcDbSymbolTableRecord
100
AcDbLayerTableRecord
  2
SMUSSO
 70
0
 62
7
  6
CONTINUOUS
370
-3
390
F
  0
LAYER
  5
21A
100
AcDbSymbolTableRecord
100
AcDbLayerTableRecord
  2
SUPERFICI
 70
0
 62
7
  6
CONTINUOUS
370
-3
390
F
  0
LAYER
  5
21B
100
AcDbSymbolTableRecord
100
AcDbLayerTableRecord
  2
TRASH
 70
0
 62
7
  6
CONTINUOUS
370
-3
390
F
  0
LAYER
  5
21C
100
AcDbSymbolTableRecord
100
AcDbLayerTableRecord
  2
XSEC_DATUMS
 70
0
 62
7
  6
CONTINUOUS
370
-3
390
F
  0
ENDTAB
  0
TABLE
  2
STYLE
  5
3
100
AcDbSymbolTable
 70
1
  0
STYLE
  5
11
100
AcDbSymbolTableRecord
100
AcDbTextStyleTableRecord
  2
STANDARD
 70
0
 40
0.0
 41
0.8
 50
0.0
 71
0
 42
0.2
  3
txt
  4

  0
STYLE
  5
21D
100
AcDbSymbolTableRecord
100
AcDbTextStyleTableRecord
  2
TEXTSTYLE_1
 70
0
 40
0.0
 41
0.8
 50
0.0
 71
0
 42
0.2
  3
gdt
  4

  0
ENDTAB
  0
TABLE
  2
VIEW
  5
6
100
AcDbSymbolTable
 70
0
  0
ENDTAB
  0
TABLE
  2
UCS
  5
7
100
AcDbSymbolTable
 70
0
  0
ENDTAB
  0
TABLE
  2
APPID
  5
9
100
AcDbSymbolTable
 70
1
  0
APPID
  5
21E
100
AcDbSymbolTableRecord
100
AcDbRegAppTableRecord
  2
ACAD
 70
0
  0
ENDTAB
  0
TABLE
  2
BLOCK_RECORD
  5
1
100
AcDbSymbolTable
 70
0
  0
BLOCK_RECORD
  5
21F
100
AcDbSymbolTableRecord
100
AcDbBlockTableRecord
  2
*Model_Space
  0
BLOCK_RECORD
  5
220
100
AcDbSymbolTableRecord
100
AcDbBlockTableRecord
  2
*Paper_Space
  0
BLOCK_RECORD
  5
221
100
AcDbSymbolTableRecord
100
AcDbBlockTableRecord
  2
_FILLED
  0
ENDTAB
  0
TABLE
  2
DIMSTYLE
  5
A
100
AcDbSymbolTable
 70
1
100
AcDbDimStyleTable
 71
0
  0
DIMSTYLE
105
222
100
AcDbSymbolTableRecord
100
AcDbDimStyleTableRecord
  2
STANDARD
 70
0
  3

  4

 40
1.0
 41
3.0
 42
0.5
 43
0.38
 44
1.5
 45
0.0
 46
0.0
 47
0.01
 48
0.01
140
3.0
141
0.09
142
0.0
143
25.4
144
1.0
145
0.0
146
1.0
147
0.625
 71
1
 72
0
 73
0
 74
0
 75
0
 76
0
 77
1
 78
8
 79
2
170
0
171
1
172
0
173
0
174
0
175
0
176
0
177
0
178
0
270
2
179
2
271
2
272
2
273
2
274
2
275
0
280
0
281
0
282
0
283
1
284
8
285
0
286
0
287
3
288
0
340
11
278
44
341
221
342
221
343
221
344
221
  0
ENDTAB
  0
ENDSEC
  0
SECTION
  2
BLOCKS
  0
BLOCK
  5
20
100
AcDbEntity
  8
0
100
AcDbBlockBegin
  2
*Model_Space
 70
0
 10
0.0
 20
0.0
 30
0.0
  3
*Model_Space
  1

  0
ENDBLK
  5
21
100
AcDbEntity
  8
0
100
AcDbBlockEnd
  0
BLOCK
  5
1C
100
AcDbEntity
  8
0
100
AcDbBlockBegin
  2
*Paper_Space
 70
0
 10
0.0
 20
0.0
 30
0.0
  3
*Paper_Space
  1

  0
ENDBLK
  5
1D
100
AcDbEntity
  8
0
100
AcDbBlockEnd
  0
BLOCK
  5
223
100
AcDbEntity
  8
0
100
AcDbBlockBegin
  2
_FILLED
 70
64
 10
0.0
 20
0.0
  3
_FILLED
  1

  0
SOLID
  5
224
100
AcDbEntity
  8
0
  6
BYBLOCK
 62
0
100
AcDbTrace
 10
0.0
 20
0.0
 11
-1.0
 21
0.3166666667
 12
-1.0
 22
-0.3166666667
 13
-1.0
 23
-0.3166666667
  0
ENDBLK
  5
225
100
AcDbEntity
  8
0
  6
BYBLOCK
 62
0
100
AcDbBlockEnd
  0
ENDSEC
  0
SECTION
  2
ENTITIES
  0
LWPOLYLINE
  5
226
100
AcDbEntity
  8
C_COPERCHIO
100
AcDbPolyline
 62
250
  6
CONTINUOUS
 90
20
 70
0
 10
-26.9800856983
 20
-17.5734557727
 10
-26.9795986699
 20
-17.5786593292
 10
-26.9787161821
 20
-17.5838393445
 10
-26.9774396347
 20
-17.5889876022
 10
-26.9757710525
 20
-17.5940959361
 10
-26.9737130824
 20
-17.5991562434
 10
-26.9712689885
 20
-17.6041604976
 10
-26.9684426477
 20
-17.6091007608
 10
-26.9652385431
 20
-17.613969197
 10
-26.961661757
 20
-17.6187580838
 10
-26.9577179629
 20
-17.6234598251
 10
-26.9534134165
 20
-17.6280669631
 10
-26.9487549455
 20
-17.6325721899
 10
-26.9437499391
 20
-17.6369683595
 10
-26.9384063364
 20
-17.6412484986
 10
-26.9327326132
 20
-17.6454058181
 10
-26.9267377692
 20
-17.6494337238
 10
-26.9204313134
 20
-17.6533258265
 10
-26.9138232489
 20
-17.6570759527
 10
-26.9069240575
 20
-17.6606781539
  0
LWPOLYLINE
  5
227
100
AcDbEntity
  8
C_COPERCHIO
100
AcDbPolyline
 62
7
  6
CONTINUOUS
 90
34
 70
0
 10
-20.6818043724
 20
20.9279341021
 10
-20.7024098351
 20
20.9169317376
 10
-20.7224528073
 20
20.9055529475
 10
-20.7419291953
 20
20.8937985278
 10
-20.7608656218
 20
20.8816481713
 10
-20.7792231896
 20
20.8691216408
 10
-20.7969074904
 20
20.8562850048
 10
-20.8139211177
 20
20.8431433825
 10
-20.8302658824
 20
20.8297019028
 10
-20.8458628853
 20
20.8160381347
 10
-20.8607087531
 20
20.8021755709
 10
-20.8748270675
 20
20.7881129745
 10
-20.8881908401
 20
20.7739008121
 10
-20.9007993913
 20
20.7595693496
 10
-20.9126803383
 20
20.7451176659
 10
-20.9238506121
 20
20.7305544561
 10
-20.934317845
 20
20.7159001866
 10
-20.9440975044
 20
20.7011650467
 10
-20.9532132898
 20
20.6863439325
 10
-20.9616716395
 20
20.6714568902
 10
-20.9694845909
 20
20.656515256
 10
-20.9766771645
 20
20.6415012073
 10
-20.9832547376
 20
20.6264316409
 10
-20.9892244791
 20
20.6113208646
 10
-20.9946060803
 20
20.596146858
 10
-20.9994027029
 20
20.5809254863
 10
-21.0036184258
 20
20.5656719931
 10
-21.0072664248
 20
20.5503630429
 10
-21.0103478609
 20
20.5350130679
 10
-21.0128641458
 20
20.5196388733
 10
-21.0148216126
 20
20.5042204834
 10
-21.0162204311
 20
20.4887617713
 10
-21.017058978
 20
20.473290575
 10
-21.0173381592
 20
20.4578229139
  0
LWPOLYLINE
  5
228
100
AcDbEntity
  8
C_COPERCHIO
100
AcDbPolyline
 62
250
  6
CONTINUOUS
 90
112
 70
0
 10
-20.5668569138
 20
20.9224335122
 10
-20.5805545053
 20
20.9151389935
 10
-20.593819752
 20
20.9076672251
 10
-20.606652654
 20
20.900018207
 10
-20.6190629131
 20
20.8921855078
 10
-20.6310408275
 20
20.8841755588
 10
-20.6425572912
 20
20.8760076542
 10
-20.6536109317
 20
20.8676815606
 10
-20.6642031215
 20
20.8591975115
 10
-20.6743088723
 20
20.8505755008
 10
-20.6839269887
 20
20.8418152374
 10
-20.6930586662
 20
20.8329170125
 10
-20.701682503
 20
20.823901693
 10
-20.7097973086
 20
20.8147690112
 10
-20.7174042734
 20
20.8055192349
 10
-20.7244855668
 20
20.796174035
 10
-20.7310399717
 20
20.7867331618
 10
-20.7370687052
 20
20.7771968651
 10
-20.7425575877
 20
20.7675875646
 10
-20.7475053393
 20
20.7579051036
 10
-20.75191324
 20
20.7481496389
 10
-20.7557709504
 20
20.7383440608
 10
-20.7590771794
 20
20.7284882492
 10
-20.7618332181
 20
20.7185823242
 10
-20.7640326005
 20
20.7086495364
 10
-20.7656740197
 20
20.6986898309
 10
-20.7667587827
 20
20.6887032626
 10
-20.7672843437
 20
20.6787132466
 10
-20.7672493894
 20
20.668719759
 10
-20.7666552332
 20
20.6587228236
 10
-20.7655032695
 20
20.6487459275
 10
-20.76379219
 20
20.6387891332
 10
-20.7615233031
 20
20.6288523783
 10
-20.7587019289
 20
20.6189589629
 10
-20.7553267654
 20
20.6091089751
 10
-20.7513991147
 20
20.5993023269
 10
-20.7469282031
 20
20.5895620542
 10
-20.7419127623
 20
20.5798883279
 10
-20.7363540607
 20
20.5702809771
 10
-20.7302651291
 20
20.5607625252
 10
-20.7236447112
 20
20.5513331648
 10
-20.7164940635
 20
20.5419927033
 10
-20.7088299858
 20
20.5327630862
 10
-20.700651286
 20
20.5236445895
 10
-20.6919591563
 20
20.5146369372
 10
-20.6827739733
 20
20.5057612459
 10
-20.6730945617
 20
20.4970178098
 10
-20.6629220969
 20
20.4884063347
 10
-20.6522804812
 20
20.479947055
 10
-20.6411686329
 20
20.4716403437
 10
-20.6295876336
 20
20.4634858277
 10
-20.617564631
 20
20.4555026221
 10
-20.6050985643
 20
20.4476911147
 10
-20.5921904941
 20
20.4400509176
 10
-20.5788707507
 20
20.4325999828
 10
-20.5651383922
 20
20.4253387685
 10
-20.5509943603
 20
20.4182668163
 10
-20.5364718104
 20
20.4114007036
 10
-20.5215698259
 20
20.4047409011
 10
-20.5062893233
 20
20.3982869379
 10
-20.4906662068
 20
20.3920539786
 10
-20.4746997009
 20
20.3860425536
 10
-20.458390581
 20
20.3802521324
 10
-20.4417770782
 20
20.3746962883
 10
-20.4248584472
 20
20.3693755624
 10
-20.4076354333
 20
20.3642894137
 10
-20.3901485027
 20
20.3594497922
 10
-20.3723970667
 20
20.3548572851
 10
-20.354381714
 20
20.3505113053
 10
-20.3361446781
 20
20.3464220406
 10
-20.3176854065
 20
20.3425900871
 10
-20.2990044516
 20
20.3390148489
 10
-20.2801457035
 20
20.3357047254
 10
-20.2611087764
 20
20.3326603449
 10
-20.241894056
 20
20.3298810792
 10
-20.22254659
 20
20.3273734437
 10
-20.2030660371
 20
20.3251380727
 10
-20.1834527386
 20
20.3231743319
 10
-20.1637527652
 20
20.3214868342
 10
-20.1439659402
 20
20.3200762306
 10
-20.1240924404
 20
20.3189418701
 10
-20.1041788666
 20
20.3180864126
 10
-20.0842250948
 20
20.3175105125
 10
-20.0642312491
 20
20.3172135154
 10
-20.0442443025
 20
20.3171961185
 10
-20.0242643019
 20
20.3174589784
 10
-20.0042912004
 20
20.3180014385
 10
-19.9843718299
 20
20.3188222258
 10
-19.964506301
 20
20.3199219934
 10
-19.944694503
 20
20.3213000882
 10
-19.9249829356
 20
20.3229532769
 10
-19.9053718386
 20
20.3248822051
 10
-19.8858609722
 20
20.3270862272
 10
-19.8664961159
 20
20.3295601737
 10
-19.8472775832
 20
20.3323046843
 10
-19.8282050607
 20
20.3353191192
 10
-19.8093233876
 20
20.3385963888
 10
-19.7906330621
 20
20.342137102
 10
-19.772133586
 20
20.3459406499
 10
-19.7538683044
 20
20.3499981158
 10
-19.7358377555
 20
20.3543100941
 10
-19.718041401
 20
20.3588759905
 10
-19.7005209714
 20
20.3636851056
 10
-19.683277048
 20
20.3687380381
 10
-19.6663090496
 20
20.3740341893
 10
-19.6496569624
 20
20.3795610636
 10
-19.6333211177
 20
20.3853194107
 10
-19.6173011842
 20
20.3913084808
 10
-19.6016361546
 20
20.3975135289
 10
-19.5863390262
 20
20.4039296399
 10
-19.5713968016
 20
20.4105617288
 10
-19.5568094808
 20
20.4174097957
  0
LINE
  5
229
100
AcDbEntity
  8
C_COPERCHIO
100
AcDbLine
 62
7
  6
CONTINUOUS
 10
-19.2568880167
 20
21.6657061425
 11
-20.6818043724
 21
20.9279341021
  0
LINE
  5
22A
100
AcDbEntity
  8
C_COPERCHIO
100
AcDbLine
 62
250
  6
CONTINUOUS
 10
-19.1438781309
 20
21.659202345
 11
-20.5668569138
 21
20.9224335122
  0
LWPOLYLINE
  5
22B
100
AcDbEntity
  8
C_COPERCHIO
100
AcDbPolyline
 62
7
  6
CONTINUOUS
 90
24
 70
0
 10
-9.731127539
 20
-26.6258915773
 10
-9.7210888381
 20
-26.6307830687
 10
-9.704460112
 20
-26.6383336914
 10
-9.6875375237
 20
-26.6453394544
 10
-9.6703302125
 20
-26.6517923482
 10
-9.6528384718
 20
-26.6576872867
 10
-9.6350751301
 20
-26.6630142735
 10
-9.6170543552
 20
-26.6677636487
 10
-9.5987775485
 20
-26.6719295856
 10
-9.5802587164
 20
-26.6755029235
 10
-9.561511269
 20
-26.6784751336
 10
-9.5425344579
 20
-26.680839984
 10
-9.5233416961
 20
-26.6825891414
 10
-9.503946488
 20
-26.6837146941
 10
-9.484346684
 20
-26.6842093321
 10
-9.4645548725
 20
-26.6840650093
 10
-9.4445844718
 20
-26.683274211
 10
-9.424432956
 20
-26.6818283342
 10
-9.4041129477
 20
-26.679719177
 10
-9.3836360388
 20
-26.6769390832
 10
-9.3629963635
 20
-26.6734772842
 10
-9.3421994809
 20
-26.6693235015
 10
-9.3212644232
 20
-26.6644707584
 10
-9.3064266909
 20
-26.6606245884
  0
LINE
  5
22C
100
AcDbEntity
  8
C_COPERCHIO
100
AcDbLine
 62
7
  6
CONTINUOUS
 10
-24.2927218812
 20
-21.1164555457
 11
-7.2890485788
 21
-29.6182921969
  0
LINE
  5
22D
100
AcDbEntity
  8
C_COPERCHIO
100
AcDbLine
 62
250
  6
CONTINUOUS
 10
-24.3576951777
 20
-20.9812370956
 11
-7.3540218752
 21
-29.4830737468
  0
LINE
  5
22E
100
AcDbEntity
  8
C_COPERCHIO
100
AcDbLine
 62
7
  6
CONTINUOUS
 10
-26.6509764163
 20
-18.1659672626
 11
-9.7310925942
 21
-26.6259091736
  0
LINE
  5
22F
100
AcDbEntity
  8
C_COPERCHIO
100
AcDbLine
 62
7
  6
CONTINUOUS
 10
-9.7311282761
 20
-26.6258913304
 11
-9.7310925613
 21
-26.6259091901
  0
LWPOLYLINE
  5
230
100
AcDbEntity
  8
C_COPERCHIO
100
AcDbPolyline
 62
250
  6
CONTINUOUS
 90
33
 70
0
 10
-26.6509764163
 20
-18.1659672626
 10
-26.6627151499
 20
-18.1598294503
 10
-26.6766735052
 20
-18.1518030229
 10
-26.690301279
 20
-18.1431515303
 10
-26.7035886802
 20
-18.133881176
 10
-26.7165265315
 20
-18.1239984223
 10
-26.7291055437
 20
-18.1135103513
 10
-26.7413167196
 20
-18.1024244382
 10
-26.753151703
 20
-18.0907483702
 10
-26.7646020422
 20
-18.078490435
 10
-26.7756594903
 20
-18.0656593922
 10
-26.7863164089
 20
-18.0522642468
 10
-26.7965651612
 20
-18.0383145404
 10
-26.8063983994
 20
-18.0238201912
 10
-26.8158093588
 20
-18.0087913575
 10
-26.8247913197
 20
-17.9932386903
 10
-26.8333378155
 20
-17.9771732712
 10
-26.8414429275
 20
-17.9606064624
 10
-26.8491008385
 20
-17.9435500882
 10
-26.8563060817
 20
-17.9260162135
 10
-26.8630537413
 20
-17.9080170746
 10
-26.8693390042
 20
-17.8895653947
 10
-26.8751573354
 20
-17.8706743045
 10
-26.8805047252
 20
-17.8513571206
 10
-26.8853773664
 20
-17.8316274716
 10
-26.8897717345
 20
-17.8114994068
 10
-26.8936847681
 20
-17.7909873185
 10
-26.8971136573
 20
-17.7701059481
 10
-26.9000559835
 20
-17.7488699079
 10
-26.9025097767
 20
-17.7272937753
 10
-26.9044733002
 20
-17.7053926596
 10
-26.9059450843
 20
-17.683182214
 10
-26.9069240575
 20
-17.6606781539
  0
LWPOLYLINE
  5
231
100
AcDbEntity
  8
C_COPERCHIO
100
AcDbPolyline
 62
7
  6
CONTINUOUS
 90
36
 70
0
 10
-26.9801554762
 20
-17.5718623173
 10
-26.9794061971
 20
-17.5900473184
 10
-26.977875051
 20
-17.6144729983
 10
-26.9757504947
 20
-17.6386267836
 10
-26.9730303071
 20
-17.6625104964
 10
-26.9697153274
 20
-17.6860993655
 10
-26.9658123432
 20
-17.7093418834
 10
-26.9613235911
 20
-17.7322299062
 10
-26.9562517467
 20
-17.7547533511
 10
-26.950610233
 20
-17.7768609331
 10
-26.9444045354
 20
-17.7985454008
 10
-26.9376405958
 20
-17.8197986283
 10
-26.9303392186
 20
-17.8405713105
 10
-26.9225098631
 20
-17.8608571535
 10
-26.9141620997
 20
-17.88065046
 10
-26.9053241496
 20
-17.8999059978
 10
-26.8960150064
 20
-17.9186088678
 10
-26.8862435845
 20
-17.9367664929
 10
-26.8760277495
 20
-17.9543684195
 10
-26.8653880741
 20
-17.9714022901
 10
-26.8543350768
 20
-17.9878739182
 10
-26.8428715554
 20
-18.0037976363
 10
-26.8310121766
 20
-18.0191686381
 10
-26.8187723288
 20
-18.0339824972
 10
-26.8061542152
 20
-18.0482501473
 10
-26.7931730984
 20
-18.061965761
 10
-26.7798441927
 20
-18.0751244518
 10
-26.7661684884
 20
-18.0877352611
 10
-26.7521618333
 20
-18.0997920019
 10
-26.737839648
 20
-18.1112895797
 10
-26.7232011212
 20
-18.1222355502
 10
-26.7082618798
 20
-18.1326241469
 10
-26.693038188
 20
-18.1424499158
 10
-26.677529023
 20
-18.1517180801
 10
-26.6617443809
 20
-18.1604259894
 10
-26.6509358572
 20
-18.1659874177
  0
LWPOLYLINE
  5
232
100
AcDbEntity
  8
C_COPERCHIO
100
AcDbPolyline
 62
250
  6
CONTINUOUS
 90
28
 70
0
 10
-26.9069240575
 20
-17.6606781539
 10
-26.9397079195
 20
-16.6026702369
 10
-26.9699710309
 20
-15.5432423457
 10
-26.9977131285
 20
-14.4824035329
 10
-27.0229339677
 20
-13.4201628657
 10
-27.0456333329
 20
-12.3565294176
 10
-27.0658110371
 20
-11.2915122684
 10
-27.0834669061
 20
-10.2251205163
 10
-27.0986007854
 20
-9.1573632738
 10
-27.1112125502
 20
-8.088249659
 10
-27.1213020922
 20
-7.0177888066
 10
-27.1288693225
 20
-5.9459898612
 10
-27.1339141788
 20
-4.8728619736
 10
-27.1364366185
 20
-3.7984143113
 10
-27.1364366185
 20
-2.7226560531
 10
-27.1339141788
 20
-1.645596383
 10
-27.1288693225
 20
-0.5672445005
 10
-27.1213020922
 20
0.5123903818
 10
-27.1112125502
 20
1.5932990442
 10
-27.0986007854
 20
2.6754722552
 10
-27.0834669061
 20
3.7589007697
 10
-27.0658110371
 20
4.8435753309
 10
-27.0456333329
 20
5.9294866743
 10
-27.0229339677
 20
7.016625525
 10
-26.9977131285
 20
8.1049825957
 10
-26.9699710309
 20
9.1945485902
 10
-26.9397079195
 20
10.2853142038
 10
-26.9069240575
 20
11.3772701206
  0
LWPOLYLINE
  5
233
100
AcDbEntity
  8
C_COPERCHIO
100
AcDbPolyline
 62
250
  6
CONTINUOUS
 90
21
 70
0
 10
-26.9801764559
 20
11.4643594237
 10
-26.9800856582
 20
11.4596258691
 10
-26.9795986287
 20
11.4548882274
 10
-26.97871614
 20
11.4501540132
 10
-26.9774395917
 20
11.4454307359
 10
-26.9757710089
 20
11.4407258877
 10
-26.9737130381
 20
11.4360469312
 10
-26.9712689437
 20
11.4314012882
 10
-26.9684426025
 20
11.4267963275
 10
-26.9652384976
 20
11.4222393536
 10
-26.9616617113
 20
11.4177375946
 10
-26.9577179172
 20
11.4132981912
 10
-26.9534133708
 20
11.4089281852
 10
-26.9487549
 20
11.4046345081
 10
-26.9437498939
 20
11.4004239707
 10
-26.9384062916
 20
11.3963032516
 10
-26.9327325689
 20
11.392278887
 10
-26.9267377254
 20
11.3883572604
 10
-26.9204312702
 20
11.3845445923
 10
-26.9138232065
 20
11.3808469302
 10
-26.9069240159
 20
11.3772701394
  0
LWPOLYLINE
  5
234
100
AcDbEntity
  8
C_COPERCHIO
100
AcDbPolyline
 62
7
  6
CONTINUOUS
 90
28
 70
0
 10
-26.9801636754
 20
11.4648353199
 10
-27.012778172
 20
10.3787267777
 10
-27.0430651786
 20
9.2875428944
 10
-27.0708291986
 20
8.1975569589
 10
-27.0960699377
 20
7.1087794413
 10
-27.1187871877
 20
6.0212194051
 10
-27.1389807634
 20
4.9348853208
 10
-27.1566504809
 20
3.8497859044
 10
-27.1717961796
 20
2.7659307574
 10
-27.1844177085
 20
1.6833296779
 10
-27.1945149353
 20
0.6019920663
 10
-27.2020877747
 20
-0.478072919
 10
-27.2071361511
 20
-1.5568558456
 10
-27.2096600017
 20
-2.6343475089
 10
-27.2096593066
 20
-3.710538699
 10
-27.2071340571
 20
-4.785419978
 10
-27.2020842562
 20
-5.8589821459
 10
-27.1945099492
 20
-6.9312160562
 10
-27.1844111945
 20
-8.0021123534
 10
-27.1717880603
 20
-9.0716619583
 10
-27.1566406616
 20
-10.1398555987
 10
-27.1389691319
 20
-11.2066836313
 10
-27.1187736147
 20
-12.2721366122
 10
-27.0960542765
 20
-13.3362060081
 10
-27.0708112846
 20
-14.3988835422
 10
-27.0430448302
 20
-15.4601603591
 10
-27.0127551901
 20
-16.5200262785
 10
-26.9801554593
 20
-17.5718636024
  0
LWPOLYLINE
  5
235
100
AcDbEntity
  8
C_COPERCHIO
100
AcDbPolyline
 62
250
  6
CONTINUOUS
 90
52
 70
0
 10
-26.9069240575
 20
11.3772701206
 10
-26.905945087
 20
11.4007791358
 10
-26.9044733067
 20
11.4245003628
 10
-26.9025097874
 20
11.4484170153
 10
-26.9000559972
 20
11.4725120302
 10
-26.8971136724
 20
11.4967685023
 10
-26.8936847841
 20
11.5211697057
 10
-26.8897717514
 20
11.5456986334
 10
-26.885377384
 20
11.57033771
 10
-26.880504744
 20
11.5950692298
 10
-26.875157357
 20
11.6198756417
 10
-26.8693390299
 20
11.6447394871
 10
-26.8630537704
 20
11.66964312
 10
-26.8563061122
 20
11.6945689038
 10
-26.8491008694
 20
11.7194992731
 10
-26.8414429585
 20
11.7444166677
 10
-26.8333378469
 20
11.7693035804
 10
-26.8247913515
 20
11.7941423449
 10
-26.8158093914
 20
11.818915198
 10
-26.8063984334
 20
11.8436046146
 10
-26.7965651971
 20
11.8681932008
 10
-26.7863164471
 20
11.8926634809
 10
-26.7756595316
 20
11.9169982117
 10
-26.764602087
 20
11.9411801922
 10
-26.7531517509
 20
11.9651921582
 10
-26.7413167698
 20
11.9890171245
 10
-26.7291055955
 20
12.0126383305
 10
-26.7165265843
 20
12.0360390467
 10
-26.703588733
 20
12.0592028225
 10
-26.6903013309
 20
12.0821132649
 10
-26.6766735566
 20
12.104753984
 10
-26.6627152016
 20
12.1271090031
 10
-26.6484362521
 20
12.149162578
 10
-26.6338465369
 20
12.1708989737
 10
-26.6189564986
 20
12.1923029117
 10
-26.6037768289
 20
12.2133592677
 10
-26.5883180562
 20
12.2340528977
 10
-26.5725913299
 20
12.2543691643
 10
-26.5566078695
 20
12.2742938311
 10
-26.5403785965
 20
12.2938127564
 10
-26.5239151185
 20
12.3129122386
 10
-26.5072292667
 20
12.3315787869
 10
-26.4903325466
 20
12.3497990161
 10
-26.4732370277
 20
12.3675601605
 10
-26.4559550134
 20
12.3848496648
 10
-26.4384985787
 20
12.4016549629
 10
-26.4208804201
 20
12.4179640981
 10
-26.4031130047
 20
12.433765781
 10
-26.3852082343
 20
12.4490489587
 10
-26.3671786629
 20
12.4638028865
 10
-26.3490374965
 20
12.4780171686
 10
-26.330797742
 20
12.4916818074
  0
LWPOLYLINE
  5
236
100
AcDbEntity
  8
C_COPERCHIO
100
AcDbPolyline
 62
7
  6
CONTINUOUS
 90
46
 70
0
 10
-26.4484919838
 20
12.4950096748
 10
-26.46378934
 20
12.4835045217
 10
-26.4840464456
 20
12.4675740004
 10
-26.5040169054
 20
12.451072673
 10
-26.5236936489
 20
12.4340161773
 10
-26.5430697
 20
12.4164203592
 10
-26.5621354111
 20
12.3983029794
 10
-26.5808842337
 20
12.3796791896
 10
-26.5993086806
 20
12.360564722
 10
-26.6173963058
 20
12.3409802332
 10
-26.6351399879
 20
12.3209416376
 10
-26.6525326325
 20
12.3004642364
 10
-26.6695615567
 20
12.2795701768
 10
-26.686219149
 20
12.2582763339
 10
-26.7024987816
 20
12.2365976654
 10
-26.7183893289
 20
12.2145557737
 10
-26.7338817612
 20
12.192169934
 10
-26.748971204
 20
12.1694531173
 10
-26.7636525899
 20
12.1464187
 10
-26.7779182158
 20
12.1230833781
 10
-26.7917614626
 20
12.0994622439
 10
-26.8051780494
 20
12.0755663659
 10
-26.8181604345
 20
12.051411432
 10
-26.8307014142
 20
12.0270131818
 10
-26.8427960795
 20
12.0023823689
 10
-26.8544367277
 20
11.9775345121
 10
-26.8656159667
 20
11.9524853175
 10
-26.8763282499
 20
11.9272452752
 10
-26.8865659528
 20
11.9018293978
 10
-26.8963211877
 20
11.8762537589
 10
-26.9055873623
 20
11.8505298847
 10
-26.9143572697
 20
11.8246712141
 10
-26.9226221149
 20
11.7986953061
 10
-26.9303732462
 20
11.7726192552
 10
-26.9376030579
 20
11.7464579713
 10
-26.9443032159
 20
11.720227577
 10
-26.9504651284
 20
11.6939460358
 10
-26.9560810306
 20
11.6676285409
 10
-26.9611426689
 20
11.6412906741
 10
-26.9656418462
 20
11.6149497216
 10
-26.9695704317
 20
11.5886215113
 10
-26.9729201649
 20
11.5623209657
 10
-26.9756830053
 20
11.5360619082
 10
-26.9778503072
 20
11.50985822
 10
-26.9794133002
 20
11.4837269416
 10
-26.9801636969
 20
11.4648333899
  0
LINE
  5
237
100
AcDbEntity
  8
C_COPERCHIO
100
AcDbLine
 62
7
  6
CONTINUOUS
 10
-26.4484937822
 20
12.4950083789
 11
-24.1321398743
 21
14.203451897
  0
LINE
  5
238
100
AcDbEntity
  8
C_COPERCHIO
100
AcDbLine
 62
250
  6
CONTINUOUS
 10
-26.330797742
 20
12.4916818074
 11
-24.007763253
 21
14.2050526362
  0
LWPOLYLINE
  5
239
100
AcDbEntity
  8
C_COPERCHIO
100
AcDbPolyline
 62
250
  6
CONTINUOUS
 90
21
 70
0
 10
-26.4484919984
 20
12.4950096945
 10
-26.4465915287
 20
12.4963625644
 10
-26.4421094253
 20
12.499196092
 10
-26.4373978711
 20
12.5016977717
 10
-26.432464479
 20
12.5038635615
 10
-26.42731722
 20
12.5056899619
 10
-26.4219644108
 20
12.507174022
 10
-26.4164147003
 20
12.5083133439
 10
-26.4106770554
 20
12.5091060868
 10
-26.4047607466
 20
12.5095509697
 10
-26.3986753334
 20
12.5096472738
 10
-26.3924306481
 20
12.5093948435
 10
-26.3860367808
 20
12.5087940868
 10
-26.3795040622
 20
12.5078459742
 10
-26.3728430476
 20
12.5065520377
 10
-26.3660644996
 20
12.504914368
 10
-26.3591793706
 20
12.5029356111
 10
-26.3521987853
 20
12.5006189642
 10
-26.3451340226
 20
12.4979681704
 10
-26.3379964973
 20
12.4949875128
 10
-26.330797742
 20
12.4916818074
  0
LWPOLYLINE
  5
23A
100
AcDbEntity
  8
C_COPERCHIO
100
AcDbPolyline
 62
250
  6
CONTINUOUS
 90
40
 70
0
 10
-24.1840036611
 20
17.6409568671
 10
-24.1910325744
 20
17.6371207352
 10
-24.1980471743
 20
17.6329493488
 10
-24.2050363341
 20
17.6284490743
 10
-24.2119895144
 20
17.6236264049
 10
-24.218895091
 20
17.6184891082
 10
-24.2257404167
 20
17.6130464656
 10
-24.2325140652
 20
17.6073076066
 10
-24.2392058698
 20
17.6012811899
 10
-24.2458052794
 20
17.5949767121
 10
-24.2523018684
 20
17.5884041184
 10
-24.2586852806
 20
17.5815738714
 10
-24.2649453147
 20
17.574496882
 10
-24.2710720105
 20
17.5671844153
 10
-24.2770556814
 20
17.5596480379
 10
-24.2828868554
 20
17.5518996797
 10
-24.2885562889
 20
17.5439516208
 10
-24.2940549798
 20
17.5358164788
 10
-24.2993742011
 20
17.5275071631
 10
-24.3045055133
 20
17.5190368567
 10
-24.3094407767
 20
17.5104189942
 10
-24.3141721619
 20
17.5016672461
 10
-24.318692163
 20
17.4927954947
 10
-24.3229936087
 20
17.4838178142
 10
-24.3270696734
 20
17.4747484491
 10
-24.3309138904
 20
17.4656017868
 10
-24.3345201612
 20
17.4563923369
 10
-24.3378827637
 20
17.4471347105
 10
-24.3409963633
 20
17.4378435935
 10
-24.3438560204
 20
17.4285337253
 10
-24.3464571974
 20
17.419219877
 10
-24.3487957676
 20
17.4099168242
 10
-24.3508680212
 20
17.4006393248
 10
-24.3526706704
 20
17.3914020973
 10
-24.3542008558
 20
17.382219793
 10
-24.3554561493
 20
17.3731069811
 10
-24.3564345587
 20
17.3640781255
 10
-24.3571345324
 20
17.355147552
 10
-24.3575549608
 20
17.346329425
 10
-24.3576951777
 20
17.3376377329
  0
LINE
  5
23B
100
AcDbEntity
  8
C_COPERCHIO
100
AcDbLine
 62
7
  6
CONTINUOUS
 10
-21.0173381592
 20
19.4169150466
 11
-24.2996244375
 21
17.6460462983
  0
LINE
  5
23C
100
AcDbEntity
  8
C_COPERCHIO
100
AcDbLine
 62
250
  6
CONTINUOUS
 10
-21.0173381592
 20
19.3494455541
 11
-24.1840036611
 21
17.6409568671
  0
LINE
  5
23D
100
AcDbEntity
  8
C_COPERCHIO
100
AcDbLine
 62
7
  6
CONTINUOUS
 10
-12.1383170612
 20
22.647774726
 11
-19.3831448882
 21
18.9974273939
  0
LINE
  5
23E
100
AcDbEntity
  8
ASSI
100
AcDbLine
 62
250
  6
CONTINUOUS
 10
-16.3130313336
 20
21.9761699542
 11
-12.4821280628
 21
23.8763262183
  0
LINE
  5
23F
100
AcDbEntity
  8
ASSI
100
AcDbLine
 62
250
  6
CONTINUOUS
 10
-16.174056578
 20
21.7310884966
 11
-12.3407282457
 21
23.632447609
  0
LINE
  5
240
100
AcDbEntity
  8
C_COPERCHIO
100
AcDbLine
 62
250
  6
CONTINUOUS
 10
-19.5568094808
 20
20.4174097957
 11
-18.0832718152
 21
21.1288991871
  0
LINE
  5
241
100
AcDbEntity
  8
C_COPERCHIO
100
AcDbLine
 62
250
  6
CONTINUOUS
 10
-19.3831448882
 20
20.1109859697
 11
-17.9064681919
 21
20.8239910245
  0
LWPOLYLINE
  5
242
100
AcDbEntity
  8
ASSI
100
AcDbPolyline
 62
250
  6
CONTINUOUS
 90
46
 70
0
 10
-12.3407282457
 20
23.632447609
 10
-12.3255742298
 20
23.6397055713
 10
-12.3104599012
 20
23.6464311738
 10
-12.2953852599
 20
23.6526244165
 10
-12.2803388108
 20
23.6582892919
 10
-12.265332049
 20
23.6634218074
 10
-12.2503994596
 20
23.6680099859
 10
-12.2355415276
 20
23.6720524445
 10
-12.2207577679
 20
23.675550566
 10
-12.20608121
 20
23.6784965214
 10
-12.1915121357
 20
23.6808890599
 10
-12.1770502631
 20
23.6827294322
 10
-12.1627277758
 20
23.6840135608
 10
-12.1485450043
 20
23.6847402107
 10
-12.1345016181
 20
23.6849106169
 10
-12.1206288091
 20
23.6845244059
 10
-12.1069269189
 20
23.6835803359
 10
-12.0933956059
 20
23.6820796487
 10
-12.0800650375
 20
23.6800256967
 10
-12.0669356839
 20
23.6774172478
 10
-12.0540070748
 20
23.6742555342
 10
-12.041307967
 20
23.6705476049
 10
-12.0288388642
 20
23.6662922405
 10
-12.0165992626
 20
23.6614906604
 10
-12.0046164073
 20
23.6561535725
 10
-11.9928908846
 20
23.6502797928
 10
-11.9814221082
 20
23.6438705053
 10
-11.970235564
 20
23.6369399702
 10
-11.9593318601
 20
23.6294870123
 10
-11.9487103885
 20
23.6215128069
 10
-11.9383948109
 20
23.6130351402
 10
-11.9283858299
 20
23.6040529088
 10
-11.9186827429
 20
23.5945672162
 10
-11.9093071034
 20
23.5845991591
 10
-11.9002596283
 20
23.5741476528
 10
-11.8915396008
 20
23.563213782
 10
-11.8831664243
 20
23.5518218983
 10
-11.8751408771
 20
23.5399709902
 10
-11.8674621809
 20
23.5276620691
 10
-11.8601474044
 20
23.5149225202
 10
-11.8531973487
 20
23.5017513631
 10
-11.8466112126
 20
23.4881495782
 10
-11.840403661
 20
23.4741474919
 10
-11.8345755532
 20
23.4597442544
 10
-11.8291260299
 20
23.4449407155
 10
-11.8240671777
 20
23.4297697515
  0
LWPOLYLINE
  5
243
100
AcDbEntity
  8
ASSI
100
AcDbPolyline
 62
250
  6
CONTINUOUS
 90
26
 70
0
 10
-12.4821280628
 20
23.8763262183
 10
-12.4631358204
 20
23.8853582068
 10
-12.4441665261
 20
23.8937354284
 10
-12.4252344673
 20
23.9014517821
 10
-12.406354201
 20
23.9085017204
 10
-12.3875396464
 20
23.9148800727
 10
-12.3688040782
 20
23.9205820129
 10
-12.3501614532
 20
23.9256034315
 10
-12.3316259723
 20
23.9299406372
 10
-12.3132111724
 20
23.9335901738
 10
-12.2949309688
 20
23.9365494247
 10
-12.2767990816
 20
23.9388163085
 10
-12.2588286
 20
23.9403889576
 10
-12.2410330785
 20
23.9412663023
 10
-12.2234258967
 20
23.9414477976
 10
-12.2060196866
 20
23.9409331274
 10
-12.1888275038
 20
23.9397227562
 10
-12.1718623536
 20
23.9378176758
 10
-12.1551365505
 20
23.9352191342
 10
-12.1386627081
 20
23.9319291585
 10
-12.1224532116
 20
23.9279502865
 10
-12.106519746
 20
23.9232853073
 10
-12.0908742903
 20
23.9179377669
 10
-12.0755286444
 20
23.9119117325
 10
-12.0604938993
 20
23.9052115334
 10
-12.0533573966
 20
23.9017406534
  0
LINE
  5
244
100
AcDbEntity
  8
ASSI
100
AcDbLine
 62
7
  6
CONTINUOUS
 10
-13.4974546915
 20
24.3479863315
 11
-19.2666200869
 21
21.6835945683
  0
LINE
  5
245
100
AcDbEntity
  8
ASSI
100
AcDbLine
 62
250
  6
CONTINUOUS
 10
-13.4111308065
 20
24.3408275902
 11
-19.1792819372
 21
21.6769042481
  0
LINE
  5
246
100
AcDbEntity
  8
ASSI
100
AcDbLine
 62
250
  6
CONTINUOUS
 10
-18.1141659981
 20
21.1443462786
 11
-16.3130313336
 21
21.9761699542
  0
LINE
  5
247
100
AcDbEntity
  8
ASSI
100
AcDbLine
 62
250
  6
CONTINUOUS
 10
-17.9229112552
 20
20.9233039236
 11
-16.174056578
 21
21.7309829686
  0
LINE
  5
248
100
AcDbEntity
  8
ASSI
100
AcDbLine
 62
250
  6
CONTINUOUS
 10
-13.4962033663
 20
24.3485503043
 11
-13.4973902116
 21
24.3480160732
  0
LWPOLYLINE
  5
249
100
AcDbEntity
  8
C_COPERCHIO
100
AcDbPolyline
 62
7
  6
CONTINUOUS
 90
40
 70
0
 10
-7.3540218752
 20
-26.6049139237
 10
-7.3468248409
 20
-26.6083707578
 10
-7.339381458
 20
-26.6116723972
 10
-7.3316917262
 20
-26.6148188418
 10
-7.323741017
 20
-26.6178150921
 10
-7.3155439591
 20
-26.6206561477
 10
-7.3071444384
 20
-26.6233270071
 10
-7.298545846
 20
-26.6258256857
 10
-7.2897447908
 20
-26.6281541683
 10
-7.2807749854
 20
-26.6303034072
 10
-7.271629374
 20
-26.632273869
 10
-7.2623150125
 20
-26.6340650872
 10
-7.2528867807
 20
-26.6356666146
 10
-7.243351997
 20
-26.6370763804
 10
-7.2337033431
 20
-26.6382964553
 10
-7.2239737441
 20
-26.6393226051
 10
-7.2141537487
 20
-26.6401547226
 10
-7.2042528082
 20
-26.6407929148
 10
-7.1943322011
 20
-26.641233268
 10
-7.1844015457
 20
-26.6414745247
 10
-7.1744512237
 20
-26.6415179422
 10
-7.1645136598
 20
-26.6413633793
 10
-7.1545791932
 20
-26.6410096624
 10
-7.1446574846
 20
-26.6404579649
 10
-7.13480994
 20
-26.6397116654
 10
-7.1250460052
 20
-26.6387705745
 10
-7.1153562344
 20
-26.6376348814
 10
-7.1057736953
 20
-26.6363085328
 10
-7.0962909985
 20
-26.634789522
 10
-7.0869155334
 20
-26.6330798556
 10
-7.0777025364
 20
-26.6311895004
 10
-7.0686590783
 20
-26.6291188612
 10
-7.0597780884
 20
-26.6268675331
 10
-7.0510935897
 20
-26.624444268
 10
-7.0426021224
 20
-26.6218471113
 10
-7.0343071464
 20
-26.6190780177
 10
-7.0262530646
 20
-26.6161516032
 10
-7.018454678
 20
-26.61307274
 10
-7.0108971855
 20
-26.609836556
 10
-7.0035805873
 20
-26.6064430511
  0
LINE
  5
24A
100
AcDbEntity
  8
C_COPERCHIO
100
AcDbLine
 62
250
  6
CONTINUOUS
 10
-26.9069240575
 20
-17.6606781539
 11
-9.9938305458
 21
-26.1172249098
  0
LINE
  5
24B
100
AcDbEntity
  8
C_COPERCHIO
100
AcDbLine
 62
7
  6
CONTINUOUS
 10
-7.3540218752
 20
-26.6049139237
 11
-7.9673122385
 21
-26.2982687421
  0
LINE
  5
24C
100
AcDbEntity
  8
C_COPERCHIO
100
AcDbLine
 62
7
  6
CONTINUOUS
 10
-6.8205792126
 20
-26.5180818645
 11
-7.5085057321
 21
-26.1741186047
  0
LWPOLYLINE
  5
24D
100
AcDbEntity
  8
C_COPERCHIO
100
AcDbPolyline
 62
250
  6
CONTINUOUS
 90
21
 70
0
 10
-24.4309184824
 20
-20.8928487479
 10
-24.4308163091
 20
-20.8964221289
 10
-24.4303335018
 20
-20.9013949177
 10
-24.429455031
 20
-20.9063541543
 10
-24.4281822891
 20
-20.9112919709
 10
-24.4265172946
 20
-20.9162005328
 10
-24.4244626882
 20
-20.9210720531
 10
-24.4220217284
 20
-20.9258988037
 10
-24.4191982874
 20
-20.9306731267
 10
-24.4159968435
 20
-20.9353874483
 10
-24.4124224751
 20
-20.9400342896
 10
-24.4084808528
 20
-20.9446062777
 10
-24.4041782296
 20
-20.9490961596
 10
-24.3995214307
 20
-20.9534968126
 10
-24.3945178436
 20
-20.9578012553
 10
-24.3891754045
 20
-20.9620026603
 10
-24.3835025897
 20
-20.9660943612
 10
-24.3775084034
 20
-20.9700698638
 10
-24.3712023574
 20
-20.9739228605
 10
-24.3645944544
 20
-20.9776472404
 10
-24.3576951777
 20
-20.9812370956
  0
LWPOLYLINE
  5
24E
100
AcDbEntity
  8
C_COPERCHIO
100
AcDbPolyline
 62
250
  6
CONTINUOUS
 90
21
 70
0
 10
-24.4309184824
 20
17.4260260805
 10
-24.4308163091
 20
17.4224526996
 10
-24.4303335018
 20
17.4174799108
 10
-24.429455031
 20
17.4125206742
 10
-24.4281822891
 20
17.4075828576
 10
-24.4265172946
 20
17.4026742956
 10
-24.4244626882
 20
17.3978027754
 10
-24.4220217284
 20
17.3929760248
 10
-24.4191982874
 20
17.3882017017
 10
-24.4159968435
 20
17.3834873801
 10
-24.4124224751
 20
17.3788405389
 10
-24.4084808528
 20
17.3742685508
 10
-24.4041782296
 20
17.3697786689
 10
-24.3995214307
 20
17.3653780158
 10
-24.3945178436
 20
17.3610735731
 10
-24.3891754045
 20
17.3568721682
 10
-24.3835025897
 20
17.3527804672
 10
-24.3775084034
 20
17.3488049647
 10
-24.3712023574
 20
17.344951968
 10
-24.3645944544
 20
17.3412275881
 10
-24.3576951777
 20
17.3376377329
  0
LWPOLYLINE
  5
24F
100
AcDbEntity
  8
C_COPERCHIO
100
AcDbPolyline
 62
250
  6
CONTINUOUS
 90
24
 70
0
 10
-24.3576951777
 20
-20.9812370956
 10
-24.3575549608
 20
-20.9897885708
 10
-24.3571345324
 20
-20.9981862695
 10
-24.3564345587
 20
-21.0064168693
 10
-24.3554561493
 20
-21.0144673154
 10
-24.3542008558
 20
-21.0223248339
 10
-24.3526706704
 20
-21.0299769527
 10
-24.3508680212
 20
-21.0374115311
 10
-24.3487957676
 20
-21.0446167769
 10
-24.3464571974
 20
-21.0515812594
 10
-24.3438560204
 20
-21.0582939307
 10
-24.3409963633
 20
-21.0647441419
 10
-24.3378827637
 20
-21.0709216592
 10
-24.3345201612
 20
-21.0768166831
 10
-24.3309138904
 20
-21.0824198622
 10
-24.3270696734
 20
-21.0877223075
 10
-24.3229936087
 20
-21.0927156079
 10
-24.318692163
 20
-21.0973918427
 10
-24.3141721619
 20
-21.1017435931
 10
-24.3094407767
 20
-21.1057639559
 10
-24.3045055133
 20
-21.109446555
 10
-24.2993742011
 20
-21.1127855493
 10
-24.2940549798
 20
-21.1157756436
 10
-24.2927218812
 20
-21.1164555457
  0
LINE
  5
250
100
AcDbEntity
  8
C_COPERCHIO
100
AcDbLine
 62
7
  6
CONTINUOUS
 10
-24.4309184824
 20
-20.8928487479
 11
-24.4309184824
 21
-19.2759962295
  0
LINE
  5
251
100
AcDbEntity
  8
C_COPERCHIO
100
AcDbLine
 62
7
  6
CONTINUOUS
 10
-24.4309184824
 20
14.5478662574
 11
-24.4309184824
 21
17.4260260805
  0
LINE
  5
252
100
AcDbEntity
  8
C_COPERCHIO
100
AcDbLine
 62
250
  6
CONTINUOUS
 10
-24.3576951777
 20
-20.9812370956
 11
-24.3576951777
 21
-19.3126078819
  0
LINE
  5
253
100
AcDbEntity
  8
C_COPERCHIO
100
AcDbLine
 62
250
  6
CONTINUOUS
 10
-24.3576951777
 20
14.4594779098
 11
-24.3576951777
 21
17.3376377329
  0
LINE
  5
254
100
AcDbEntity
  8
C_COPERCHIO
100
AcDbLine
 62
7
  6
CONTINUOUS
 10
-24.1840310591
 20
14.1651791796
 11
-24.1840310591
 21
14.3726458505
  0
LINE
  5
255
100
AcDbEntity
  8
C_COPERCHIO
100
AcDbLine
 62
7
  6
CONTINUOUS
 10
-22.4430361952
 20
0.6780161826
 11
-22.4430361952
 21
3.0190987083
  0
LINE
  5
256
100
AcDbEntity
  8
C_COPERCHIO
100
AcDbLine
 62
7
  6
CONTINUOUS
 10
-18.4487595433
 20
18.3586342436
 11
-15.9969306732
 21
19.6547769543
  0
LINE
  5
257
100
AcDbEntity
  8
C_COPERCHIO
100
AcDbLine
 62
7
  6
CONTINUOUS
 10
-14.8288695091
 20
20.2722645701
 11
-10.4821545424
 21
22.57012597
  0
LINE
  5
258
100
AcDbEntity
  8
C_COPERCHIO
100
AcDbLine
 62
7
  6
CONTINUOUS
 10
-9.1340725081
 20
21.8960849528
 11
-10.3900414067
 21
21.2321255091
  0
LINE
  5
259
100
AcDbEntity
  8
C_COPERCHIO
100
AcDbLine
 62
7
  6
CONTINUOUS
 10
-12.631144367
 20
19.4937418931
 11
-13.0148764144
 21
19.3003963384
  0
LINE
  5
25A
100
AcDbEntity
  8
C_COPERCHIO
100
AcDbLine
 62
7
  6
CONTINUOUS
 10
-14.9699336211
 20
18.3153297462
 11
-17.3308218892
 21
17.1257828865
  0
LINE
  5
25B
100
AcDbEntity
  8
C_MOLLA_IDEA
100
AcDbLine
 62
7
  6
CONTINUOUS
 10
-15.6437264921
 20
20.0132263323
 11
-15.2801583595
 21
20.1950103986
  0
LINE
  5
25C
100
AcDbEntity
  8
C_COPERCHIO
100
AcDbLine
 62
7
  6
CONTINUOUS
 10
-17.3308218892
 20
17.7996654165
 11
-15.6233574407
 21
18.642041656
  0
LINE
  5
25D
100
AcDbEntity
  8
C_COPERCHIO
100
AcDbLine
 62
7
  6
CONTINUOUS
 10
-11.6643275946
 20
20.5952259092
 11
-10.6232683456
 21
21.1088316689
  0
LWPOLYLINE
  5
25E
100
AcDbEntity
  8
C_MOLLA_IDEA
100
AcDbPolyline
 62
7
  6
CONTINUOUS
 90
10
 70
0
 10
-15.2801583595
 20
20.1950103986
 10
-15.2628490582
 20
20.2032920149
 10
-15.2456027416
 20
20.2108081984
 10
-15.2284194098
 20
20.217558949
 10
-15.2112782979
 20
20.2235506212
 10
-15.1942001707
 20
20.2287768607
 10
-15.1772473229
 20
20.2332186038
 10
-15.1604405195
 20
20.2368694964
 10
-15.1437589955
 20
20.2397358927
 10
-15.1272027509
 20
20.2418177927
  0
LINE
  5
25F
100
AcDbEntity
  8
ASSI
100
AcDbLine
 62
7
  6
CONTINUOUS
 10
-9.2007179797
 20
22.1230668033
 11
-2.9891029034
 21
24.9917964914
  0
LINE
  5
260
100
AcDbEntity
  8
C_COPERCHIO
100
AcDbLine
 62
7
  6
CONTINUOUS
 10
-9.3064227166
 20
-26.6606235637
 11
-6.9039193872
 21
-26.0105213655
  0
LINE
  5
261
100
AcDbEntity
  8
C_COPERCHIO
100
AcDbLine
 62
250
  6
CONTINUOUS
 10
-9.1980581084
 20
-26.5092198585
 11
-6.8205792126
 21
-25.8658891137
  0
LINE
  5
262
100
AcDbEntity
  8
C_COPERCHIO
100
AcDbLine
 62
250
  6
CONTINUOUS
 10
-17.4485410337
 20
-18.471531619
 11
-19.6759273945
 21
-17.3578384386
  0
LINE
  5
263
100
AcDbEntity
  8
C_COPERCHIO
100
AcDbLine
 62
250
  6
CONTINUOUS
 10
-17.57849802
 20
-17.7675433316
 11
-19.1103568415
 21
-17.0016139209
  0
LINE
  5
264
100
AcDbEntity
  8
C_COPERCHIO
100
AcDbLine
 62
7
  6
CONTINUOUS
 10
-17.592660628
 20
-17.1045811334
 11
-18.4544759473
 21
-16.6736734738
  0
LWPOLYLINE
  5
265
100
AcDbEntity
  8
C_COPERCHIO
100
AcDbPolyline
 62
250
  6
CONTINUOUS
 90
10
 70
0
 10
-19.6759273945
 20
-17.3578384386
 10
-19.6936159027
 20
-16.57703875
 10
-19.7099206108
 20
-15.7955024842
 10
-19.7248414439
 20
-15.0132332412
 10
-19.738378333
 20
-14.2302346243
 10
-19.7505312159
 20
-13.4465102403
 10
-19.7613000365
 20
-12.6620636994
 10
-19.7706847454
 20
-11.8768986151
 10
-19.7786852992
 20
-11.091018604
 10
-19.785301661
 20
-10.304427286
  0
LWPOLYLINE
  5
266
100
AcDbEntity
  8
C_COPERCHIO
100
AcDbPolyline
 62
250
  6
CONTINUOUS
 90
10
 70
0
 10
-19.118283938
 20
-17.0057135461
 10
-19.1337453002
 20
-16.3014764182
 10
-19.1480805979
 20
-15.5966463623
 10
-19.1612898309
 20
-14.8912233781
 10
-19.1733730378
 20
-14.1852051715
 10
-19.18433018
 20
-13.4785940367
 10
-19.1941611424
 20
-12.7713968568
 10
-19.2028658863
 20
-12.0636159261
 10
-19.2104444504
 20
-11.3552489503
 10
-19.2159502273
 20
-10.750304
  0
LWPOLYLINE
  5
267
100
AcDbEntity
  8
C_COPERCHIO
100
AcDbPolyline
 62
250
  6
CONTINUOUS
 90
85
 70
0
 10
-21.0173381592
 20
20.4578229139
 10
-21.0172189579
 20
20.4502419811
 10
-21.0164170343
 20
20.4367535631
 10
-21.014860491
 20
20.4232816632
 10
-21.0125505539
 20
20.4098368544
 10
-21.0094890329
 20
20.3964296469
 10
-21.00567832
 20
20.383070515
 10
-21.0011213911
 20
20.3697699044
 10
-20.9958218182
 20
20.3565382521
 10
-20.989783764
 20
20.3433859507
 10
-20.9830119718
 20
20.3303233223
 10
-20.9755117398
 20
20.3173605778
 10
-20.9672889236
 20
20.304507838
 10
-20.9583499454
 20
20.291775149
 10
-20.9487018175
 20
20.2791725068
 10
-20.9383521226
 20
20.2667098161
 10
-20.9273089903
 20
20.2543968597
 10
-20.9155810554
 20
20.2422432594
 10
-20.9031774735
 20
20.2302585029
 10
-20.8901079335
 20
20.2184519576
 10
-20.8763826914
 20
20.2068328936
 10
-20.8620125354
 20
20.1954104434
 10
-20.8470087521
 20
20.1841935737
 10
-20.8313830707
 20
20.1731910485
 10
-20.8151476869
 20
20.1624114552
 10
-20.7983152832
 20
20.1518632189
 10
-20.7808990715
 20
20.1415546232
 10
-20.7629127426
 20
20.1314937717
 10
-20.7443704225
 20
20.1216885618
 10
-20.7252866043
 20
20.1121466537
 10
-20.7056761826
 20
20.1028754948
 10
-20.6855544776
 20
20.0938823315
 10
-20.6649372845
 20
20.0851742268
 10
-20.6438408101
 20
20.0767580261
 10
-20.6222816216
 20
20.0686403353
 10
-20.600276569
 20
20.0608274956
 10
-20.5778428278
 20
20.0533256052
 10
-20.5549979263
 20
20.0461405285
 10
-20.5317597974
 20
20.039277909
 10
-20.5081467056
 20
20.0327431403
 10
-20.484177191
 20
20.0265413505
 10
-20.4598699883
 20
20.0206773843
 10
-20.4352440738
 20
20.0151558193
 10
-20.4103186918
 20
20.0099809734
 10
-20.3851134074
 20
20.005156911
 10
-20.3596480289
 20
20.0006874233
 10
-20.3339425475
 20
19.9965760165
 10
-20.3080170562
 20
19.9928259017
 10
-20.281891798
 20
19.989440007
 10
-20.2555871956
 20
19.9864209814
 10
-20.229123892
 20
19.9837711966
 10
-20.2025226713
 20
19.9814927336
 10
-20.1758044067
 20
19.9795873786
 10
-20.1489899904
 20
19.9780566195
 10
-20.1221003718
 20
19.9769016524
 10
-20.0951565725
 20
19.9761233822
 10
-20.0681797373
 20
19.9757224219
 10
-20.041191065
 20
19.9756990862
 10
-20.0142117371
 20
19.9760533911
 10
-19.9872628442
 20
19.9767850569
 10
-19.9603654378
 20
19.9778935118
 10
-19.9335405656
 20
19.9793778896
 10
-19.90680926
 20
19.9812370276
 10
-19.8801924644
 20
19.9834694699
 10
-19.8537110339
 20
19.9860734678
 10
-19.8273857048
 20
19.9890469826
 10
-19.8012370834
 20
19.9923876877
 10
-19.775285611
 20
19.9960929738
 10
-19.7495516578
 20
20.0001599346
 10
-19.7240554888
 20
20.0045853661
 10
-19.6988171384
 20
20.0093657856
 10
-19.6738563057
 20
20.0144974565
 10
-19.6491924497
 20
20.0199763765
 10
-19.6248448789
 20
20.0257982572
 10
-19.6008326755
 20
20.0319585367
 10
-19.5771745938
 20
20.0384524057
 10
-19.5538890681
 20
20.0452748105
 10
-19.5309944441
 20
20.0524203827
 10
-19.5085088947
 20
20.0598834469
 10
-19.4864502358
 20
20.0676580728
 10
-19.4648355137
 20
20.0757382347
 10
-19.4436812571
 20
20.084117756
 10
-19.4230039236
 20
20.0927901376
 10
-19.4028198584
 20
20.1017485449
 10
-19.3831448882
 20
20.1109859697
  0
LINE
  5
268
100
AcDbEntity
  8
C_COPERCHIO
100
AcDbLine
 62
7
  6
CONTINUOUS
 10
-21.0173381592
 20
19.3342111258
 11
-21.0173381592
 21
20.4578229139
  0
LINE
  5
269
100
AcDbEntity
  8
C_COPERCHIO
100
AcDbLine
 62
7
  6
CONTINUOUS
 10
-24.5597635566
 20
-0.4127944246
 11
-22.3990706984
 21
3.0903808626
  0
LWPOLYLINE
  5
26A
100
AcDbEntity
  8
C_COPERCHIO
100
AcDbPolyline
 62
250
  6
CONTINUOUS
 90
10
 70
0
 10
-25.9259496296
 20
-0.8334687036
 10
-25.598675662
 20
-0.3079373263
 10
-25.2703731351
 20
0.2181021398
 10
-24.9410420835
 20
0.7446473146
 10
-24.6106812894
 20
1.2716954546
 10
-24.2792920494
 20
1.7992445386
 10
-23.946878178
 20
2.3272932655
 10
-23.6134409843
 20
2.8558396081
 10
-23.2789792683
 20
3.3848808147
 10
-22.9434930895
 20
3.9144144936
  0
LWPOLYLINE
  5
26B
100
AcDbEntity
  8
C_COPERCHIO
100
AcDbPolyline
 62
250
  6
CONTINUOUS
 90
7
 70
0
 10
-25.2546352221
 20
-0.7602302573
 10
-24.8107633699
 20
-0.0492842695
 10
-24.3650121713
 20
0.6625781121
 10
-23.9173816264
 20
1.3753568876
 10
-23.467871735
 20
2.0890520571
 10
-23.0164824973
 20
2.8036636205
 10
-22.6439048985
 20
3.391813114
  0
LINE
  5
26C
100
AcDbEntity
  8
C_COPERCHIO
100
AcDbLine
 62
7
  6
CONTINUOUS
 10
-7.4672837526
 20
20.5694076506
 11
-7.4500411737
 21
20.5813644094
  0
LINE
  5
26D
100
AcDbEntity
  8
C_COPERCHIO
100
AcDbLine
 62
7
  6
CONTINUOUS
 10
-7.4500411737
 20
20.5813644094
 11
-7.4407509267
 21
20.5877116012
  0
LINE
  5
26E
100
AcDbEntity
  8
C_COPERCHIO
100
AcDbLine
 62
7
  6
CONTINUOUS
 10
-7.4407509267
 20
20.5877116012
 11
-7.4334434238
 21
20.5926435244
  0
LWPOLYLINE
  5
26F
100
AcDbEntity
  8
C_COPERCHIO
100
AcDbPolyline
 62
7
  6
CONTINUOUS
 90
6
 70
0
 10
-7.4334434238
 20
20.5926435244
 10
-7.4282843541
 20
20.5960606242
 10
-7.4265699528
 20
20.5971748723
 10
-7.4254559035
 20
20.5978744724
 10
-7.4249723846
 20
20.5981519497
 10
-7.4249541766
 20
20.5981560984
  0
LINE
  5
270
100
AcDbEntity
  8
C_COPERCHIO
100
AcDbLine
 62
7
  6
CONTINUOUS
 10
-10.4869403526
 20
18.9556798784
 11
-11.1490768875
 21
18.6043637374
  0
LINE
  5
271
100
AcDbEntity
  8
C_COPERCHIO
100
AcDbLine
 62
7
  6
CONTINUOUS
 10
-14.4610079924
 20
16.8471206404
 11
-14.8659090328
 21
16.6322884064
  0
LINE
  5
272
100
AcDbEntity
  8
C_COPERCHIO
100
AcDbLine
 62
7
  6
CONTINUOUS
 10
-9.0493244122
 20
20.3218597022
 11
-8.8140735373
 21
20.4441415744
  0
LWPOLYLINE
  5
273
100
AcDbEntity
  8
ASSI
100
AcDbPolyline
 62
7
  6
CONTINUOUS
 90
21
 70
0
 10
0.0893993893
 20
23.1849521242
 10
0.0951100232
 20
23.1878895895
 10
0.1005640471
 20
23.1908582497
 10
0.1057529823
 20
23.1938534767
 10
0.1106683672
 20
23.1968716591
 10
0.1153030834
 20
23.1999075377
 10
0.119651324
 20
23.2029542012
 10
0.1237063465
 20
23.2060079664
 10
0.1274620748
 20
23.2090644706
 10
0.1309143842
 20
23.2121159957
 10
0.1340579752
 20
23.2151592827
 10
0.1368882745
 20
23.2181904832
 10
0.1394029975
 20
23.2212012412
 10
0.1415983618
 20
23.224188764
 10
0.1434713304
 20
23.2271497689
 10
0.1450215232
 20
23.2300754388
 10
0.1462467113
 20
23.2329634761
 10
0.147145399
 20
23.235811207
 10
0.1477190968
 20
23.2386095373
 10
0.1479671283
 20
23.2413566891
 10
0.147978149
 20
23.2420692971
  0
LWPOLYLINE
  5
274
100
AcDbEntity
  8
ASSI
100
AcDbPolyline
 62
7
  6
CONTINUOUS
 90
36
 70
0
 10
-4.0118199415
 20
21.1343424587
 10
-4.0555801126
 20
21.1119585125
 10
-4.0983098844
 20
21.0890823055
 10
-4.1399871129
 20
21.065725693
 10
-4.1805901999
 20
21.041900779
 10
-4.2200981036
 20
21.0176199104
 10
-4.2584903497
 20
20.9928956702
 10
-4.2957470422
 20
20.9677408713
 10
-4.3318488737
 20
20.9421685496
 10
-4.366777135
 20
20.9161919576
 10
-4.4005137252
 20
20.889824557
 10
-4.4330411611
 20
20.8630800123
 10
-4.4643425859
 20
20.8359721832
 10
-4.4944017782
 20
20.808515118
 10
-4.5232031606
 20
20.7807230456
 10
-4.5507318072
 20
20.7526103688
 10
-4.5769734518
 20
20.7241916563
 10
-4.6019144953
 20
20.6954816358
 10
-4.6255420125
 20
20.6664951855
 10
-4.6478437587
 20
20.637247327
 10
-4.6688081767
 20
20.6077532177
 10
-4.688424402
 20
20.5780281421
 10
-4.7066822689
 20
20.5480875047
 10
-4.7235723156
 20
20.5179468216
 10
-4.7390857891
 20
20.4876217127
 10
-4.75321465
 20
20.4571278934
 10
-4.7659515762
 20
20.4264811665
 10
-4.777289967
 20
20.395697414
 10
-4.7872239466
 20
20.364792589
 10
-4.7957483668
 20
20.3337827074
 10
-4.8028588101
 20
20.3026838394
 10
-4.8085515917
 20
20.2715121013
 10
-4.8128237612
 20
20.2402836474
 10
-4.8156731048
 20
20.2090146611
 10
-4.8170981458
 20
20.177721347
 10
-4.8172762933
 20
20.1620706346
  0
LWPOLYLINE
  5
275
100
AcDbEntity
  8
ASSI
100
AcDbPolyline
 62
250
  6
CONTINUOUS
 90
22
 70
0
 10
-0.0129984828
 20
23.4533697495
 10
-0.0069463387
 20
23.4564299637
 10
-0.0011388522
 20
23.4594360684
 10
0.0044129216
 20
23.4623823413
 10
0.0096984148
 20
23.4652631739
 10
0.014707566
 20
23.4680730824
 10
0.0194308401
 20
23.4708067181
 10
0.023859246
 20
23.4734588772
 10
0.027984354
 20
23.4760245112
 10
0.0317983116
 20
23.4784987363
 10
0.0352938589
 20
23.4808768427
 10
0.0384643418
 20
23.4831543035
 10
0.0413037252
 20
23.4853267834
 10
0.043806604
 20
23.487390147
 10
0.045968214
 20
23.4893404666
 10
0.0477844404
 20
23.4911740295
 10
0.0492518258
 20
23.4928873456
 10
0.0503675771
 20
23.4944771533
 10
0.0511295704
 20
23.4959404266
 10
0.051536355
 20
23.4972743798
 10
0.0515871568
 20
23.4984764737
 10
0.0513933087
 20
23.4992855301
  0
LINE
  5
276
100
AcDbEntity
  8
ASSI
100
AcDbLine
 62
7
  6
CONTINUOUS
 10
0.0893993893
 20
23.1849521242
 11
-4.0118199415
 21
21.1343424587
  0
LINE
  5
277
100
AcDbEntity
  8
ASSI
100
AcDbLine
 62
7
  6
CONTINUOUS
 10
0.0893993893
 20
22.5354330713
 11
-2.9322215497
 21
21.0246226018
  0
LINE
  5
278
100
AcDbEntity
  8
ASSI
100
AcDbLine
 62
7
  6
CONTINUOUS
 10
-2.9322215497
 20
21.0381047742
 11
-4.0118199415
 21
20.5052288352
  0
LINE
  5
279
100
AcDbEntity
  8
ASSI
100
AcDbLine
 62
250
  6
CONTINUOUS
 10
0.2296668012
 20
22.678681314
 11
0.1479780331
 21
22.6394092008
  0
LWPOLYLINE
  5
27A
100
AcDbEntity
  8
ASSI
100
AcDbPolyline
 62
250
  6
CONTINUOUS
 90
58
 70
0
 10
-4.3959103035
 20
21.9756387426
 10
-4.4447805692
 20
21.9522338324
 10
-4.4926239739
 20
21.9283114301
 10
-4.5394405174
 20
21.9038715356
 10
-4.585260909
 20
21.8788997764
 10
-4.6300544395
 20
21.853410525
 10
-4.673728982
 20
21.8274468989
 10
-4.716280554
 20
21.801007451
 10
-4.7577131379
 20
21.7740936284
 10
-4.797946554
 20
21.7467528903
 10
-4.8369763141
 20
21.7189843144
 10
-4.8748069063
 20
21.6907888229
 10
-4.9113716151
 20
21.6622166415
 10
-4.9466621258
 20
21.6332714002
 10
-4.9806867531
 20
21.603949469
 10
-5.0134037258
 20
21.5742901837
 10
-5.0448092316
 20
21.544295968
 10
-5.0749070829
 20
21.5139643981
 10
-5.1036669458
 20
21.4833275391
 10
-5.1310899367
 20
21.452383097
 10
-5.1571749391
 20
21.4211333657
 10
-5.1818882699
 20
21.3896172918
 10
-5.2052295867
 20
21.3578323995
 10
-5.2271992318
 20
21.3257811646
 10
-5.2477645494
 20
21.2935099612
 10
-5.2669227702
 20
21.2610190752
 10
-5.2846766634
 20
21.2283082206
 10
-5.3010018809
 20
21.1954229136
 10
-5.3158959666
 20
21.1623639541
 10
-5.3293613766
 20
21.1291305421
 10
-5.3413811302
 20
21.0957657937
 10
-5.351953518
 20
21.06226947
 10
-5.3610802495
 20
21.0286418098
 10
-5.3687494724
 20
20.9949266457
 10
-5.3749593899
 20
20.9611234241
 10
-5.3797117988
 20
20.9272326986
 10
-5.3830002378
 20
20.8932999618
 10
-5.3848226935
 20
20.8593251384
 10
-5.3851811793
 20
20.8253083038
 10
-5.384075274
 20
20.791295176
 10
-5.3815030057
 20
20.7572859135
 10
-5.3774663463
 20
20.7232803579
 10
-5.3719707913
 20
20.6893237517
 10
-5.3650144172
 20
20.655416184
 10
-5.3565991475
 20
20.6215575656
 10
-5.346736248
 20
20.587792872
 10
-5.3354237951
 20
20.5541221993
 10
-5.3226637124
 20
20.5205454513
 10
-5.3084730368
 20
20.4871073154
 10
-5.2928498439
 20
20.4538079419
 10
-5.2757960581
 20
20.4206471805
 10
-5.2573344889
 20
20.387669267
 10
-5.2374632786
 20
20.354874481
 10
-5.2161842848
 20
20.322262543
 10
-5.1935258902
 20
20.28987685
 10
-5.1694862484
 20
20.2577176885
 10
-5.1440672057
 20
20.2257847721
 10
-5.1173026837
 20
20.1941206384
  0
LWPOLYLINE
  5
27B
100
AcDbEntity
  8
ASSI
100
AcDbPolyline
 62
250
  6
CONTINUOUS
 90
55
 70
0
 10
-4.2759039594
 20
21.8265912671
 10
-4.3221995784
 20
21.8044963515
 10
-4.3675680044
 20
21.7818930491
 10
-4.4119859717
 20
21.7587901805
 10
-4.4554378483
 20
21.7351934737
 10
-4.4978933422
 20
21.7111155051
 10
-4.5393092007
 20
21.6865764677
 10
-4.5796650331
 20
21.661586936
 10
-4.6189408934
 20
21.6361577
 10
-4.6570979455
 20
21.6103109602
 10
-4.6941181016
 20
21.5840590336
 10
-4.7299851368
 20
21.5574135155
 10
-4.7646668618
 20
21.5303969746
 10
-4.798143823
 20
21.5030265535
 10
-4.830407707
 20
21.47531113
 10
-4.861445266
 20
21.4472616065
 10
-4.891241167
 20
21.4188937691
 10
-4.9197860505
 20
21.3902185416
 10
-4.9470752781
 20
21.3612394665
 10
-4.9730984773
 20
21.3319679016
 10
-4.9978421952
 20
21.3024193372
 10
-5.0212965854
 20
21.272603415
 10
-5.0434523304
 20
21.2425318326
 10
-5.0642977114
 20
21.2122203675
 10
-5.0838202398
 20
21.1816850069
 10
-5.1020110175
 20
21.1509404778
 10
-5.1188625577
 20
21.1200003543
 10
-5.1343660131
 20
21.0888791715
 10
-5.1485144439
 20
21.0575922858
 10
-5.1613024884
 20
21.0261531704
 10
-5.172724593
 20
20.9945736813
 10
-5.1827759385
 20
20.9628682721
 10
-5.191452299
 20
20.9310516214
 10
-5.1987495975
 20
20.8991360051
 10
-5.2046647753
 20
20.8671356611
 10
-5.209195256
 20
20.8350657129
 10
-5.2123384711
 20
20.8029398372
 10
-5.2140931839
 20
20.7707727519
 10
-5.214458815
 20
20.7385792411
 10
-5.2134347395
 20
20.7063731325
 10
-5.2110216379
 20
20.6741693197
 10
-5.207220835
 20
20.6419824229
 10
-5.2020335818
 20
20.609825879
 10
-5.1954623962
 20
20.577714413
 10
-5.1875104452
 20
20.5456627051
 10
-5.1781807959
 20
20.5136841146
 10
-5.1674777803
 20
20.4817932148
 10
-5.1554064005
 20
20.4500046153
 10
-5.1419715667
 20
20.4183316923
 10
-5.1271794277
 20
20.3867888524
 10
-5.1110368082
 20
20.3553905335
 10
-5.0935504833
 20
20.3241500895
 10
-5.0747284515
 20
20.2930817737
 10
-5.0545793088
 20
20.2621997202
 10
-5.040637359
 20
20.2420381796
  0
LINE
  5
27C
100
AcDbEntity
  8
ASSI
100
AcDbLine
 62
7
  6
CONTINUOUS
 10
-4.1676197383
 20
19.6118318834
 11
-3.9567414632
 21
19.712324153
  0
LINE
  5
27D
100
AcDbEntity
  8
ASSI
100
AcDbLine
 62
250
  6
CONTINUOUS
 10
-0.4638904805
 20
23.819198283
 11
-4.3959103035
 21
21.9756387426
  0
LINE
  5
27E
100
AcDbEntity
  8
ASSI
100
AcDbLine
 62
250
  6
CONTINUOUS
 10
-0.3438841363
 20
23.6701508075
 11
-4.2759039594
 21
21.8265912671
  0
LINE
  5
27F
100
AcDbEntity
  8
C_COPERCHIO
100
AcDbLine
 62
250
  6
CONTINUOUS
 10
-23.8479894866
 20
-2.4726261282
 11
-24.3022737507
 21
-1.9218100064
  0
LINE
  5
280
100
AcDbEntity
  8
C_COPERCHIO
100
AcDbLine
 62
250
  6
CONTINUOUS
 10
-24.0040618156
 20
-3.1667672469
 11
-24.645153507
 21
-2.3892307345
  0
LINE
  5
281
100
AcDbEntity
  8
C_COPERCHIO
100
AcDbLine
 62
250
  6
CONTINUOUS
 10
-24.3022737507
 20
-1.9218100064
 11
-24.7802103
 21
-1.3418838673
  0
LINE
  5
282
100
AcDbEntity
  8
C_COPERCHIO
100
AcDbLine
 62
250
  6
CONTINUOUS
 10
-24.645153507
 20
-2.3892307345
 11
-25.2857827821
 21
-1.6114643233
  0
LINE
  5
283
100
AcDbEntity
  8
C_COPERCHIO
100
AcDbLine
 62
250
  6
CONTINUOUS
 10
-24.7802103
 20
-1.3418838673
 11
-25.2578908019
 21
-0.7618306211
  0
LINE
  5
284
100
AcDbEntity
  8
C_COPERCHIO
100
AcDbLine
 62
250
  6
CONTINUOUS
 10
-25.2857827821
 20
-1.6114643233
 11
-25.9259496296
 21
-0.8334687036
  0
LWPOLYLINE
  5
285
100
AcDbEntity
  8
C_COPERCHIO
100
AcDbPolyline
 62
7
  6
CONTINUOUS
 90
47
 70
0
 10
-17.5711792496
 20
-18.0939062354
 10
-17.5708643773
 20
-18.1022389944
 10
-17.5704169591
 20
-18.1105983913
 10
-17.5698368601
 20
-18.1189815966
 10
-17.5691305818
 20
-18.1273865234
 10
-17.5682983567
 20
-18.1358106053
 10
-17.5673401333
 20
-18.1442512242
 10
-17.566261866
 20
-18.1527063892
 10
-17.5650638044
 20
-18.1611737485
 10
-17.56374597
 20
-18.1696508674
 10
-17.562313863
 20
-18.1781357712
 10
-17.5607677479
 20
-18.1866262967
 10
-17.5591077115
 20
-18.1951201694
 10
-17.5573388879
 20
-18.2036153617
 10
-17.5554615568
 20
-18.2121098783
 10
-17.5534758656
 20
-18.2206015845
 10
-17.5513866667
 20
-18.2290883358
 10
-17.5491942593
 20
-18.2375682788
 10
-17.5468988478
 20
-18.2460394119
 10
-17.5445050749
 20
-18.2544994425
 10
-17.5420132694
 20
-18.2629466287
 10
-17.5394236866
 20
-18.2713791067
 10
-17.5367408064
 20
-18.2797944633
 10
-17.5339649757
 20
-18.2881911083
 10
-17.5310965143
 20
-18.2965672565
 10
-17.5281398275
 20
-18.3049202564
 10
-17.5250952979
 20
-18.3132486263
 10
-17.521963303
 20
-18.3215506903
 10
-17.5187482263
 20
-18.3298235541
 10
-17.5154504902
 20
-18.3380658514
 10
-17.5120705368
 20
-18.3462760022
 10
-17.5086127862
 20
-18.3544508411
 10
-17.5050777088
 20
-18.3625891157
 10
-17.5014658162
 20
-18.3706893426
 10
-17.4977816193
 20
-18.3787480638
 10
-17.4940256467
 20
-18.3867641404
 10
-17.490198484
 20
-18.3947361916
 10
-17.4863047809
 20
-18.4026604568
 10
-17.4823451357
 20
-18.4105359116
 10
-17.4783202119
 20
-18.4183612876
 10
-17.4742348341
 20
-18.4261325311
 10
-17.4700896835
 20
-18.433848733
 10
-17.4658855039
 20
-18.4415087525
 10
-17.4616273144
 20
-18.4491082759
 10
-17.4573173429
 20
-18.4566452795
 10
-17.4529549756
 20
-18.4641200061
 10
-17.4485410337
 20
-18.471531619
  0
LWPOLYLINE
  5
286
100
AcDbEntity
  8
C_COPERCHIO
100
AcDbPolyline
 62
7
  6
CONTINUOUS
 90
9
 70
0
 10
-17.5711792496
 20
-18.0939062354
 10
-17.5833903806
 20
-17.5489333465
 10
-17.5996946586
 20
-16.7674178444
 10
-17.6146150683
 20
-15.9851710246
 10
-17.6281515463
 20
-15.2021964753
 10
-17.6403040357
 20
-14.4184978082
 10
-17.6510724852
 20
-13.6340786579
 10
-17.6604568507
 20
-12.8489426427
 10
-17.6684570945
 20
-12.0630933645
  0
LINE
  5
287
100
AcDbEntity
  8
C_COPERCHIO
100
AcDbLine
 62
7
  6
CONTINUOUS
 10
-17.6684570945
 20
-12.0630933645
 11
-17.6731765205
 21
-11.5196648377
  0
LWPOLYLINE
  5
288
100
AcDbEntity
  8
C_COPERCHIO
100
AcDbPolyline
 62
250
  6
CONTINUOUS
 90
10
 70
0
 10
-17.5579153003
 20
-11.4181204664
 10
-17.5512989384
 20
-12.2047117843
 10
-17.5432983846
 20
-12.9905917955
 10
-17.5339136758
 20
-13.7757568798
 10
-17.5231448551
 20
-14.5602034207
 10
-17.5109919722
 20
-15.3439278047
 10
-17.4974550831
 20
-16.1269264216
 10
-17.4825342501
 20
-16.9091956645
 10
-17.4662295419
 20
-17.6907319303
 10
-17.4485410337
 20
-18.471531619
  0
LINE
  5
289
100
AcDbEntity
  8
C_COPERCHIO
100
AcDbLine
 62
250
  6
CONTINUOUS
 10
-19.3831448882
 20
18.9974273939
 11
-19.3831448882
 21
20.1109859697
  0
LINE
  5
28A
100
AcDbEntity
  8
C_COPERCHIO
100
AcDbLine
 62
7
  6
CONTINUOUS
 10
-18.6706555908
 20
17.4019033443
 11
-18.6706555908
 21
18.0799073754
  0
LINE
  5
28B
100
AcDbEntity
  8
C_COPERCHIO
100
AcDbLine
 62
7
  6
CONTINUOUS
 10
-18.4544759473
 20
-16.6736734738
 11
-18.4544759473
 21
-11.13104114
  0
LINE
  5
28C
100
AcDbEntity
  8
C_COPERCHIO
100
AcDbLine
 62
7
  6
CONTINUOUS
 10
-17.9064681919
 20
19.7414592698
 11
-17.9064681919
 21
20.8239910245
  0
LINE
  5
28D
100
AcDbEntity
  8
C_COPERCHIO
100
AcDbLine
 62
250
  6
CONTINUOUS
 10
-17.3308218892
 20
17.1257828865
 11
-17.3308218892
 21
17.7996654165
  0
LWPOLYLINE
  5
28E
100
AcDbEntity
  8
C_MOLLA_IDEA
100
AcDbPolyline
 62
7
  6
CONTINUOUS
 90
19
 70
0
 10
-16.1387012389
 20
19.1595211762
 10
-16.136699546
 20
19.2140103168
 10
-16.1310775942
 20
19.2691215286
 10
-16.1218353834
 20
19.3248548116
 10
-16.1088481057
 20
19.3816416012
 10
-16.0922405691
 20
19.4390504621
 10
-16.0723871971
 20
19.4957870885
 10
-16.0492142568
 20
19.5518362098
 10
-16.0227954812
 20
19.6072130965
 10
-15.9937264921
 20
19.6606692547
 10
-15.9619470869
 20
19.7121610526
 10
-15.9275174681
 20
19.7617321219
 10
-15.8912138655
 20
19.808264863
 10
-15.8529937092
 20
19.8516902567
 10
-15.8128995691
 20
19.8920773221
 10
-15.7718353834
 20
19.9285155166
 10
-15.7301024651
 20
19.9607013261
 10
-15.6873995013
 20
19.9889382646
 10
-15.6437264921
 20
20.0132263323
  0
LWPOLYLINE
  5
28F
100
AcDbEntity
  8
C_COPERCHIO
100
AcDbPolyline
 62
7
  6
CONTINUOUS
 90
31
 70
0
 10
-17.6731774902
 20
-11.5196642841
 10
-17.6731075748
 20
-11.5187900695
 10
-17.6729082929
 20
-11.5178860657
 10
-17.6725798443
 20
-11.5169067122
 10
-17.6721220172
 20
-11.5158548876
 10
-17.671541168
 20
-11.5147294882
 10
-17.6708374519
 20
-11.5135330068
 10
-17.6700107431
 20
-11.5122681456
 10
-17.6690668634
 20
-11.5109338244
 10
-17.6680059892
 20
-11.5095323978
 10
-17.6668280697
 20
-11.5080664132
 10
-17.6655384813
 20
-11.5065348297
 10
-17.6641374186
 20
-11.5049398814
 10
-17.662624898
 20
-11.5032839808
 10
-17.661005935
 20
-11.5015661437
 10
-17.6592807419
 20
-11.4997884994
 10
-17.6574493977
 20
-11.4979533447
 10
-17.6555166371
 20
-11.4960597712
 10
-17.6534826946
 20
-11.4941098205
 10
-17.6513477069
 20
-11.492105689
 10
-17.649116198
 20
-11.4900465595
 10
-17.6467884329
 20
-11.4879344021
 10
-17.6443646004
 20
-11.4857713251
 10
-17.6418490602
 20
-11.4835566043
 10
-17.6392420971
 20
-11.4812921355
 10
-17.6365439643
 20
-11.4789799625
 10
-17.6337589398
 20
-11.4766194943
 10
-17.6308873447
 20
-11.4742125719
 10
-17.62792949
 20
-11.471761178
 10
-17.6248896236
 20
-11.4692648706
 10
-17.6217681067
 20
-11.4667254403
  0
LINE
  5
290
100
AcDbEntity
  8
C_MOLLA_IDEA
100
AcDbLine
 62
250
  6
CONTINUOUS
 10
-13.7414598367
 20
19.7446644385
 11
-13.7581448702
 21
19.6734297382
  0
LWPOLYLINE
  5
291
100
AcDbEntity
  8
C_MOLLA_IDEA
100
AcDbPolyline
 62
7
  6
CONTINUOUS
 90
12
 70
0
 10
-13.7947679214
 20
19.7195656537
 10
-13.7941065605
 20
19.7216998734
 10
-13.7923500717
 20
19.7251214847
 10
-13.7897619055
 20
19.7283218143
 10
-13.7863525808
 20
19.7313036609
 10
-13.7821655847
 20
19.73402899
 10
-13.7771909554
 20
19.7364945157
 10
-13.7714386547
 20
19.7387035239
 10
-13.7649820553
 20
19.7406278379
 10
-13.7578456145
 20
19.7422580656
 10
-13.750004875
 20
19.7436035991
 10
-13.7414598367
 20
19.7446644385
  0
LWPOLYLINE
  5
292
100
AcDbEntity
  8
C_COPERCHIO
100
AcDbPolyline
 62
7
  6
CONTINUOUS
 90
66
 70
0
 10
-23.9329061637
 20
-2.6093757812
 10
-23.9373051492
 20
-2.6167355469
 10
-23.9415742394
 20
-2.6242087222
 10
-23.9457155601
 20
-2.6317905757
 10
-23.9497317655
 20
-2.6394771868
 10
-23.9536222539
 20
-2.6472603671
 10
-23.9573891946
 20
-2.655135894
 10
-23.9610351658
 20
-2.6631001627
 10
-23.9645597648
 20
-2.6711463128
 10
-23.9679651312
 20
-2.6792705404
 10
-23.9712537623
 20
-2.687469573
 10
-23.9744253674
 20
-2.6957377045
 10
-23.9774820468
 20
-2.7040715684
 10
-23.9804261695
 20
-2.7124681307
 10
-23.9832574331
 20
-2.720922494
 10
-23.9859778695
 20
-2.7294316465
 10
-23.9885897308
 20
-2.7379927938
 10
-23.9910926578
 20
-2.7466016259
 10
-23.9934886042
 20
-2.7552554255
 10
-23.9957797138
 20
-2.7639516223
 10
-23.9979655589
 20
-2.7726863429
 10
-24.0000480162
 20
-2.7814571257
 10
-24.0020291275
 20
-2.7902615964
 10
-24.003908395
 20
-2.7990961915
 10
-24.0056876227
 20
-2.8079586704
 10
-24.0073687593
 20
-2.8168468311
 10
-24.0089512421
 20
-2.8257573121
 10
-24.0104368096
 20
-2.8346880677
 10
-24.0118273275
 20
-2.8436370442
 10
-24.0131221771
 20
-2.8526009861
 10
-24.01432304
 20
-2.8615780185
 10
-24.0154317102
 20
-2.8705662177
 10
-24.0164475263
 20
-2.8795623489
 10
-24.0173721227
 20
-2.8885646899
 10
-24.018207234
 20
-2.8975714302
 10
-24.0189521722
 20
-2.9065792779
 10
-24.019608534
 20
-2.9155866387
 10
-24.0201780085
 20
-2.9245918116
 10
-24.0206599026
 20
-2.9335914055
 10
-24.0210557848
 20
-2.942583924
 10
-24.0213673115
 20
-2.9515677839
 10
-24.0215938088
 20
-2.9605395154
 10
-24.0217368255
 20
-2.9694977631
 10
-24.0217979926
 20
-2.9784410023
 10
-24.0217766749
 20
-2.9873655538
 10
-24.021674411
 20
-2.9962701591
 10
-24.0214928203
 20
-3.0051533855
 10
-24.0212313341
 20
-3.0140113338
 10
-24.0208914895
 20
-3.0228428493
 10
-24.0204749047
 20
-3.031646579
 10
-24.0199811085
 20
-3.0404183681
 10
-24.0194116434
 20
-3.0491571642
 10
-24.0187681377
 20
-3.0578616955
 10
-24.0180502509
 20
-3.0665275241
 10
-24.0172595382
 20
-3.0751536989
 10
-24.0163976471
 20
-3.0837390351
 10
-24.015464405
 20
-3.0922787984
 10
-24.0144613857
 20
-3.1007721377
 10
-24.0133902639
 20
-3.1092179662
 10
-24.0122510713
 20
-3.1176112597
 10
-24.0110454009
 20
-3.1259512674
 10
-24.0097749643
 20
-3.1342370141
 10
-24.0084400462
 20
-3.1424632176
 10
-24.0070418859
 20
-3.1506276274
 10
-24.0055826235
 20
-3.1587310031
 10
-24.0040639324
 20
-3.1667726456
  0
LWPOLYLINE
  5
293
100
AcDbEntity
  8
C_COPERCHIO
100
AcDbPolyline
 62
250
  6
CONTINUOUS
 90
7
 70
0
 10
-21.0402558473
 20
1.5717851435
 10
-21.5400134209
 20
0.7791989223
 10
-22.0374551967
 20
-0.0122670167
 10
-22.5325810356
 20
-0.8026046319
 10
-23.0253908172
 20
-1.5918058902
 10
-23.5158844386
 20
-2.3798627671
 10
-24.0040618156
 20
-3.1667672469
  0
LWPOLYLINE
  5
294
100
AcDbEntity
  8
C_COPERCHIO
100
AcDbPolyline
 62
7
  6
CONTINUOUS
 90
10
 70
0
 10
-21.2492686225
 20
1.6763643235
 10
-21.426949107
 20
1.3949381694
 10
-21.7601511535
 20
0.8662834936
 10
-22.0923242954
 20
0.3381294817
 10
-22.4234676435
 20
-0.1895224696
 10
-22.7535803252
 20
-0.7166709902
 10
-23.0826614849
 20
-1.2433147363
 10
-23.4107102507
 20
-1.7694523383
 10
-23.7377257343
 20
-2.2950824002
 10
-23.9329061637
 20
-2.6093757812
  0
LWPOLYLINE
  5
295
100
AcDbEntity
  8
C_CONTATTO_SX
100
AcDbPolyline
 62
250
  6
CONTINUOUS
 90
30
 70
0
 10
-3.4133795677
 20
20.0909751778
 10
-3.3382381335
 20
20.1330416413
 10
-3.2591421109
 20
20.1730676531
 10
-3.1760466293
 20
20.2110425494
 10
-3.0889965594
 20
20.246976994
 10
-2.9986870154
 20
20.2805838633
 10
-2.9050805206
 20
20.3118431438
 10
-2.8082145517
 20
20.3407748489
 10
-2.708896653
 20
20.367151895
 10
-2.6071687743
 20
20.3909428857
 10
-2.5029889657
 20
20.4121792174
 10
-2.3970389218
 20
20.4307279948
 10
-2.2893622495
 20
20.44658067
 10
-2.1799153419
 20
20.459745791
 10
-2.0692490729
 20
20.4701161067
 10
-1.9571630299
 20
20.477684884
 10
-1.8438576256
 20
20.482458856
 10
-1.7304849716
 20
20.4843509708
 10
-1.6168002157
 20
20.4832727308
 10
-1.5030482101
 20
20.4793126336
 10
-1.3911156237
 20
20.4726491202
 10
-1.2810445277
 20
20.4631553122
 10
-1.1727928508
 20
20.450958088
 10
-1.0681210487
 20
20.4366165237
 10
-0.9671789911
 20
20.4200122538
 10
-0.8698168081
 20
20.4012636438
 10
-0.7773453458
 20
20.3812848668
 10
-0.6902015527
 20
20.3603806473
 10
-0.6079484802
 20
20.3382462609
 10
-0.5305861283
 20
20.3148817074
  0
LINE
  5
296
100
AcDbEntity
  8
C_COPERCHIO
100
AcDbLine
 62
7
  6
CONTINUOUS
 10
-9.3504761395
 20
13.8745719598
 11
-7.7393274727
 21
14.700026672
  0
LINE
  5
297
100
AcDbEntity
  8
C_COPERCHIO
100
AcDbLine
 62
7
  6
CONTINUOUS
 10
-7.3705771522
 20
14.8889519376
 11
-5.7335995125
 21
15.7276398467
  0
LINE
  5
298
100
AcDbEntity
  8
ASSI
100
AcDbLine
 62
250
  6
CONTINUOUS
 10
-7.0170237616
 20
15.3717100646
 11
-7.3250125862
 21
15.2165281595
  0
LINE
  5
299
100
AcDbEntity
  8
C_COPERCHIO
100
AcDbLine
 62
7
  6
CONTINUOUS
 10
-3.189598563
 20
17.6319040873
 11
-3.4290881924
 21
17.5117415923
  0
LINE
  5
29A
100
AcDbEntity
  8
C_CONTATTO_SX
100
AcDbLine
 62
7
  6
CONTINUOUS
 10
-3.4390634488
 20
19.9849428293
 11
-2.944088702
 21
20.2324302027
  0
LINE
  5
29B
100
AcDbEntity
  8
C_CONTATTO_SX
100
AcDbLine
 62
7
  6
CONTINUOUS
 10
-0.5305861283
 20
20.3148817074
 11
-1.6528992063
 21
19.7537251684
  0
LINE
  5
29C
100
AcDbEntity
  8
C_CONTATTO_SX
100
AcDbLine
 62
7
  6
CONTINUOUS
 10
-2.4816533802
 20
19.3393480815
 11
-2.6720123772
 21
19.244168583
  0
LINE
  5
29D
100
AcDbEntity
  8
C_MOLLA_IDEA
100
AcDbLine
 62
250
  6
CONTINUOUS
 10
-9.2557045302
 20
15.3001059375
 11
-9.0975952669
 21
15.3791605691
  0
LINE
  5
29E
100
AcDbEntity
  8
C_CONTATTO_SX
100
AcDbLine
 62
7
  6
CONTINUOUS
 10
0.1765447291
 20
19.961340355
 11
-0.9457924251
 21
19.4001717778
  0
LINE
  5
29F
100
AcDbEntity
  8
C_MOLLA_IDEA
100
AcDbLine
 62
7
  6
CONTINUOUS
 10
-7.1584451178
 20
15.7705856452
 11
-6.7948769852
 21
15.9523697115
  0
LINE
  5
2A0
100
AcDbEntity
  8
C_MOLLA_IDEA
100
AcDbLine
 62
7
  6
CONTINUOUS
 10
-7.1584451178
 20
15.4241754837
 11
-6.7948769852
 21
15.60595955
  0
LINE
  5
2A1
100
AcDbEntity
  8
C_MOLLA_IDEA
100
AcDbLine
 62
250
  6
CONTINUOUS
 10
-7.3705771522
 20
15.0583018454
 11
-7.6534198647
 21
14.9168804891
  0
LINE
  5
2A2
100
AcDbEntity
  8
ASSI
100
AcDbLine
 62
250
  6
CONTINUOUS
 10
-7.0170237616
 20
15.3717100646
 11
-6.4460181461
 21
15.6549330594
  0
LINE
  5
2A3
100
AcDbEntity
  8
ASSI
100
AcDbLine
 62
7
  6
CONTINUOUS
 10
0.1759634027
 20
19.6497906772
 11
4.0295871597
 21
21.5326121083
  0
LINE
  5
2A4
100
AcDbEntity
  8
ASSI
100
AcDbLine
 62
250
  6
CONTINUOUS
 10
0.2662940029
 20
19.6445365893
 11
4.1198532019
 21
21.5273264418
  0
LWPOLYLINE
  5
2A5
100
AcDbEntity
  8
C_MOLLA_IDEA
100
AcDbPolyline
 62
7
  6
CONTINUOUS
 90
10
 70
0
 10
-6.7948769852
 20
15.9523697115
 10
-6.7775676839
 20
15.9606513278
 10
-6.7603213674
 20
15.9681675113
 10
-6.7431380356
 20
15.9749182619
 10
-6.7259969236
 20
15.9809099341
 10
-6.7089187965
 20
15.9861361735
 10
-6.6919659487
 20
15.9905779167
 10
-6.6751591453
 20
15.9942288092
 10
-6.6584776213
 20
15.9970952055
 10
-6.6419213767
 20
15.9991771056
  0
LWPOLYLINE
  5
2A6
100
AcDbEntity
  8
C_MOLLA_IDEA
100
AcDbPolyline
 62
7
  6
CONTINUOUS
 90
10
 70
0
 10
-6.7948769852
 20
15.60595955
 10
-6.7874587132
 20
15.6095088141
 10
-6.7800674347
 20
15.6127300356
 10
-6.7727031497
 20
15.6156232144
 10
-6.7653569588
 20
15.618191074
 10
-6.7580377615
 20
15.6204308909
 10
-6.7507722553
 20
15.6223344951
 10
-6.7435693395
 20
15.6238991633
 10
-6.736420115
 20
15.6251276189
 10
-6.7293245816
 20
15.6260198617
  0
LINE
  5
2A7
100
AcDbEntity
  8
ASSI
100
AcDbLine
 62
250
  6
CONTINUOUS
 10
0.2173943536
 20
19.6211466697
 11
0.2662940029
 21
19.6445365893
  0
LWPOLYLINE
  5
2A8
100
AcDbEntity
  8
ASSI
100
AcDbPolyline
 62
250
  6
CONTINUOUS
 90
21
 70
0
 10
4.1198532019
 20
21.5273264418
 10
4.1307443885
 20
21.532452212
 10
4.1415097654
 20
21.5372128192
 10
4.1521385485
 20
21.5416025602
 10
4.1626187993
 20
21.5456159034
 10
4.1729408115
 20
21.5492482562
 10
4.1830970742
 20
21.5524955835
 10
4.1930768747
 20
21.5553537257
 10
4.2028691007
 20
21.5578183893
 10
4.2124655584
 20
21.5598854568
 10
4.2218548962
 20
21.5615517705
 10
4.2310266277
 20
21.56281436
 10
4.2399737992
 20
21.5636696674
 10
4.2486846359
 20
21.5641156491
 10
4.2571491758
 20
21.5641505584
 10
4.2653630274
 20
21.5637712391
 10
4.273315169
 20
21.5629765235
 10
4.2809948384
 20
21.5617655126
 10
4.2883977792
 20
21.5601352147
 10
4.2955132504
 20
21.5580853941
 10
4.3023302486
 20
21.5556162593
  0
LWPOLYLINE
  5
2A9
100
AcDbEntity
  8
ASSI
100
AcDbPolyline
 62
7
  6
CONTINUOUS
 90
30
 70
0
 10
0.1759633979
 20
19.649790687
 10
0.0847278596
 20
19.6070581076
 10
-0.0812133168
 20
19.5377883104
 10
-0.2584167388
 20
19.4740418867
 10
-0.4460800765
 20
19.4162763265
 10
-0.6431583194
 20
19.3649610246
 10
-0.8483921036
 20
19.32053238
 10
-1.0606899806
 20
19.2833072755
 10
-1.2789152296
 20
19.253555441
 10
-1.501684517
 20
19.2315155035
 10
-1.7277568711
 20
19.2173400167
 10
-1.9559252891
 20
19.2111279886
 10
-2.1848332817
 20
19.2129293759
 10
-2.4132529989
 20
19.2227373977
 10
-2.6399082547
 20
19.2404944381
 10
-2.8633759459
 20
19.2660691187
 10
-3.0825603118
 20
19.2993065278
 10
-3.2961473893
 20
19.3399708363
 10
-3.5024543005
 20
19.3876573324
 10
-3.7000209097
 20
19.4418735952
 10
-3.8882960452
 20
19.5022998361
 10
-4.0669469008
 20
19.5687191929
 10
-4.2349150686
 20
19.6406508063
 10
-4.3913965072
 20
19.7176427202
 10
-4.5361571884
 20
19.7995259982
 10
-4.6682717913
 20
19.8857745461
 10
-4.7868025004
 20
19.9757390001
 10
-4.8911454382
 20
20.068914457
 10
-4.9804295504
 20
20.1644402266
 10
-5.0395681086
 20
20.2405285477
  0
LWPOLYLINE
  5
2AA
100
AcDbEntity
  8
ASSI
100
AcDbPolyline
 62
250
  6
CONTINUOUS
 90
17
 70
0
 10
0.1760279618
 20
19.6498222563
 10
0.1788228638
 20
19.6511206305
 10
0.1839125594
 20
19.6531570108
 10
0.1891544001
 20
19.6548449185
 10
0.194538406
 20
19.6561811401
 10
0.2000543267
 20
19.6571631315
 10
0.2056916605
 20
19.6577890231
 10
0.2114396746
 20
19.6580576234
 10
0.2172874256
 20
19.6579684209
 10
0.22322378
 20
19.6575215855
 10
0.2292374357
 20
19.6567179679
 10
0.2353169435
 20
19.6555590981
 10
0.2414507288
 20
19.6540471824
 10
0.2476271136
 20
19.6521850993
 10
0.2538343387
 20
19.6499763941
 10
0.2600605865
 20
19.6474252717
 10
0.2662940029
 20
19.6445365893
  0
LWPOLYLINE
  5
2AB
100
AcDbEntity
  8
C_CONTATTO_SX
100
AcDbPolyline
 62
7
  6
CONTINUOUS
 90
11
 70
0
 10
0.1759837555
 20
19.9610598682
 10
0.187987371
 20
19.9664819352
 10
0.1998095844
 20
19.9706402131
 10
0.2114503957
 20
19.9735347018
 10
0.2230288722
 20
19.975169022
 10
0.2344259466
 20
19.9755395531
 10
0.245284417
 20
19.9746354334
 10
0.2555275704
 20
19.9724243213
 10
0.2652321199
 20
19.9689385584
 10
0.2742710027
 20
19.9642643077
 10
0.2815736632
 20
19.9592429413
  0
LWPOLYLINE
  5
2AC
100
AcDbEntity
  8
C_MOLLA_IDEA
100
AcDbPolyline
 62
7
  6
CONTINUOUS
 90
12
 70
0
 10
-9.204254493
 20
15.3934587303
 10
-9.1967666942
 20
15.3967011288
 10
-9.1895013966
 20
15.3989946856
 10
-9.1819483156
 20
15.400577547
 10
-9.1741107034
 20
15.4014577443
 10
-9.1660778039
 20
15.4016252551
 10
-9.157847385
 20
15.4010719334
 10
-9.1494216788
 20
15.3998059251
 10
-9.1408966256
 20
15.3978416459
 10
-9.1323042057
 20
15.395183901
 10
-9.1236124388
 20
15.391827885
 10
-9.1148213249
 20
15.3877735981
  0
LWPOLYLINE
  5
2AD
100
AcDbEntity
  8
ASSI
100
AcDbPolyline
 62
250
  6
CONTINUOUS
 90
4
 70
0
 10
0.064454854
 20
19.5540434153
 10
0.116489775
 20
19.5759074255
 10
0.1674596109
 20
19.5982702817
 10
0.2173943536
 20
19.6211466697
  0
LWPOLYLINE
  5
2AE
100
AcDbEntity
  8
ASSI
100
AcDbPolyline
 62
250
  6
CONTINUOUS
 90
16
 70
0
 10
4.0323820436
 20
21.5339104745
 10
4.0374717378
 20
21.5359468557
 10
4.0427135773
 20
21.5376347646
 10
4.0480975825
 20
21.5389709875
 10
4.0536135027
 20
21.5399529802
 10
4.0592508364
 20
21.5405788733
 10
4.0649988509
 20
21.540847475
 10
4.0708466026
 20
21.5407582738
 10
4.0767829582
 20
21.5403114396
 10
4.0827966156
 20
21.5395078229
 10
4.0888761255
 20
21.5383489537
 10
4.0950099133
 20
21.5368370383
 10
4.1011863011
 20
21.5349749551
 10
4.1073935297
 20
21.5327662493
 10
4.1136197813
 20
21.5302151259
 10
4.1198532019
 20
21.5273264418
  0
LINE
  5
2AF
100
AcDbEntity
  8
C_COPERCHIO
100
AcDbLine
 62
250
  6
CONTINUOUS
 10
-19.785301661
 20
-10.304427286
 11
-17.5579153003
 21
-11.4181204664
  0
LWPOLYLINE
  5
2B0
100
AcDbEntity
  8
C_COPERCHIO
100
AcDbPolyline
 62
7
  6
CONTINUOUS
 90
54
 70
0
 10
-17.6739869267
 20
-11.5212856503
 10
-19.4652949842
 20
-10.6256292273
 10
-19.4728415453
 20
-10.6217489429
 10
-19.4803507679
 20
-10.6177306844
 10
-19.4878226279
 20
-10.6135775424
 10
-19.4952534432
 20
-10.6092941075
 10
-19.5026429668
 20
-10.6048833728
 10
-19.5099912238
 20
-10.600348245
 10
-19.5172948195
 20
-10.5956928024
 10
-19.5245536066
 20
-10.5909198311
 10
-19.5317676486
 20
-10.5860320719
 10
-19.538933748
 20
-10.5810331982
 10
-19.5460518402
 20
-10.5759258127
 10
-19.5531220192
 20
-10.5707125076
 10
-19.560141213
 20
-10.5653966496
 10
-19.5671094284
 20
-10.5599806782
 10
-19.5740267842
 20
-10.554467056
 10
-19.5808902714
 20
-10.5488589347
 10
-19.5876999603
 20
-10.5431586105
 10
-19.5944559918
 20
-10.5373684339
 10
-19.6011553688
 20
-10.5314914267
 10
-19.607798221
 20
-10.5255297599
 10
-19.6143847101
 20
-10.5194856885
 10
-19.620911807
 20
-10.5133621863
 10
-19.6273796919
 20
-10.5071613218
 10
-19.6337885558
 20
-10.5008852646
 10
-19.6401353216
 20
-10.4945369977
 10
-19.6464202068
 20
-10.4881185152
 10
-19.6526434476
 20
-10.4816319015
 10
-19.658801945
 20
-10.4750801619
 10
-19.6648959889
 20
-10.4684651897
 10
-19.6709258273
 20
-10.461789031
 10
-19.6768882647
 20
-10.4550548318
 10
-19.682783641
 20
-10.4482644237
 10
-19.6886122483
 20
-10.4414197989
 10
-19.6943708038
 20
-10.4345242805
 10
-19.7000597082
 20
-10.4275796396
 10
-19.705679297
 20
-10.4205878308
 10
-19.711226196
 20
-10.4135524101
 10
-19.71670087
 20
-10.4064750956
 10
-19.722103707
 20
-10.3993578106
 10
-19.727431244
 20
-10.3922043957
 10
-19.7326840142
 20
-10.385016523
 10
-19.7378624683
 20
-10.3777960879
 10
-19.7429630691
 20
-10.370547258
 10
-19.7479864211
 20
-10.3632716669
 10
-19.7529330499
 20
-10.3559711803
 10
-19.7577993731
 20
-10.3486503213
 10
-19.7625860685
 20
-10.341310691
 10
-19.7672937501
 20
-10.33395412
 10
-19.7719188363
 20
-10.3265854917
 10
-19.7764606423
 20
-10.3192075652
 10
-19.780921332
 20
-10.3118209477
 10
-19.785301661
 20
-10.304427286
  0
LINE
  5
2B1
100
AcDbEntity
  8
C_COPERCHIO
100
AcDbLine
 62
7
  6
CONTINUOUS
 10
-23.4215016998
 20
-1.7867980308
 11
-24.5597635566
 21
-0.4127944246
  0
LINE
  5
2B2
100
AcDbEntity
  8
C_OTTURATORE
100
AcDbLine
 62
7
  6
CONTINUOUS
 10
-21.4352014958
 20
1.3818450206
 11
-22.3033035876
 21
2.9725055475
  0
LINE
  5
2B3
100
AcDbEntity
  8
ASSI
100
AcDbLine
 62
7
  6
CONTINUOUS
 10
-16.1740574828
 20
21.7371985082
 11
-16.174056578
 21
20.6143446252
  0
LINE
  5
2B4
100
AcDbEntity
  8
C_MOLLA_IDEA
100
AcDbLine
 62
7
  6
CONTINUOUS
 10
-16.1387012389
 20
18.8997135551
 11
-16.1387012389
 21
19.1595211762
  0
LINE
  5
2B5
100
AcDbEntity
  8
C_OTTURATORE
100
AcDbLine
 62
7
  6
CONTINUOUS
 10
-14.6396340932
 20
-0.9677965353
 11
-14.6396340932
 21
-0.8587902103
  0
LINE
  5
2B6
100
AcDbEntity
  8
C_MOLLA_IDEA
100
AcDbLine
 62
250
  6
CONTINUOUS
 10
-11.791214152
 20
19.9436992355
 11
-11.8786173569
 21
19.5705419917
  0
LINE
  5
2B7
100
AcDbEntity
  8
C_MOLLA_IDEA
100
AcDbLine
 62
250
  6
CONTINUOUS
 10
-11.5152930934
 20
19.8867150952
 11
-11.6026962983
 21
19.5135578513
  0
LWPOLYLINE
  5
2B8
100
AcDbEntity
  8
C_MOLLA_IDEA
100
AcDbPolyline
 62
7
  6
CONTINUOUS
 90
12
 70
0
 10
-9.7642592686
 20
17.7043113273
 10
-9.7635979077
 20
17.706445547
 10
-9.7618414189
 20
17.7098671583
 10
-9.7592532528
 20
17.7130674879
 10
-9.7558439281
 20
17.7160493345
 10
-9.751656932
 20
17.7187746636
 10
-9.7466823027
 20
17.7212401893
 10
-9.740930002
 20
17.7234491975
 10
-9.7344734025
 20
17.7253735116
 10
-9.7273369618
 20
17.7270037392
 10
-9.7194962222
 20
17.7283492727
 10
-9.7109511839
 20
17.7294101121
  0
LWPOLYLINE
  5
2B9
100
AcDbEntity
  8
C_MOLLA_IDEA
100
AcDbPolyline
 62
7
  6
CONTINUOUS
 90
12
 70
0
 10
-9.4044536894
 20
18.8020718313
 10
-9.4051150503
 20
18.7999376117
 10
-9.4068715391
 20
18.7965160004
 10
-9.4094597053
 20
18.7933156708
 10
-9.41286903
 20
18.7903338242
 10
-9.4170560261
 20
18.787608495
 10
-9.4220306554
 20
18.7851429694
 10
-9.4277829561
 20
18.7829339612
 10
-9.4342395556
 20
18.7810096471
 10
-9.4413759963
 20
18.7793794194
 10
-9.4492167358
 20
18.7780338859
 10
-9.4577617741
 20
18.7769730466
  0
LINE
  5
2BA
100
AcDbEntity
  8
ASSI
100
AcDbLine
 62
250
  6
CONTINUOUS
 10
-8.0502629485
 20
14.5407222211
 11
-7.9063064158
 21
14.7835161436
  0
LINE
  5
2BB
100
AcDbEntity
  8
ASSI
100
AcDbLine
 62
250
  6
CONTINUOUS
 10
-7.3534531093
 20
15.1685609985
 11
-7.3250125862
 21
15.2165281595
  0
LINE
  5
2BC
100
AcDbEntity
  8
C_CONTATTO_SX
100
AcDbLine
 62
7
  6
CONTINUOUS
 10
-2.4487229027
 20
19.3697599297
 11
-2.4816533802
 21
19.3393480815
  0
LINE
  5
2BD
100
AcDbEntity
  8
C_CONTATTO_SX
100
AcDbLine
 62
7
  6
CONTINUOUS
 10
-0.9787229027
 20
19.3697599297
 11
-0.9457924251
 21
19.4001717778
  0
LINE
  5
2BE
100
AcDbEntity
  8
C_COPERCHIO
100
AcDbLine
 62
7
  6
CONTINUOUS
 10
-8.3325534223
 20
13.3005311831
 11
-1.8551442589
 21
16.7247696255
  0
LINE
  5
2BF
100
AcDbEntity
  8
ASSI
100
AcDbLine
 62
7
  6
CONTINUOUS
 10
7.1661782656
 20
19.6523535005
 11
7.1604672012
 21
19.6494182182
  0
LWPOLYLINE
  5
2C0
100
AcDbEntity
  8
ASSI
100
AcDbPolyline
 62
7
  6
CONTINUOUS
 90
36
 70
0
 10
3.0592478703
 20
17.5988085528
 10
3.0154876992
 20
17.5764246065
 10
2.9727579275
 20
17.5535483996
 10
2.9310806989
 20
17.530191787
 10
2.8904776119
 20
17.5063668731
 10
2.8509697083
 20
17.4820860044
 10
2.8125774622
 20
17.4573617643
 10
2.7753207696
 20
17.4322069653
 10
2.7392189382
 20
17.4066346437
 10
2.7042906769
 20
17.3806580516
 10
2.6705540866
 20
17.354290651
 10
2.6380266508
 20
17.3275461063
 10
2.606725226
 20
17.3004382773
 10
2.5766660336
 20
17.272981212
 10
2.5478646513
 20
17.2451891396
 10
2.5203360047
 20
17.2170764628
 10
2.49409436
 20
17.1886577504
 10
2.4691533165
 20
17.1599477298
 10
2.4455257994
 20
17.1309612795
 10
2.4232240531
 20
17.1017134211
 10
2.4022596351
 20
17.0722193117
 10
2.3826434098
 20
17.0424942361
 10
2.364385543
 20
17.0125535987
 10
2.3474954963
 20
16.9824129157
 10
2.3319820227
 20
16.9520878068
 10
2.3178531619
 20
16.9215939875
 10
2.3051162357
 20
16.8909472606
 10
2.2937778449
 20
16.8601635081
 10
2.2838438653
 20
16.8292586831
 10
2.275319445
 20
16.7982488015
 10
2.2682090017
 20
16.7671499335
 10
2.2625162202
 20
16.7359781954
 10
2.2582440507
 20
16.7047497415
 10
2.2553947071
 20
16.6734807552
 10
2.253969666
 20
16.6421874411
 10
2.2537915186
 20
16.6265367287
  0
LWPOLYLINE
  5
2C1
100
AcDbEntity
  8
ASSI
100
AcDbPolyline
 62
250
  6
CONTINUOUS
 90
22
 70
0
 10
7.0580693291
 20
19.9178358435
 10
7.0641214732
 20
19.9208960578
 10
7.0699289596
 20
19.9239021625
 10
7.0754807335
 20
19.9268484353
 10
7.0807662267
 20
19.9297292679
 10
7.0857753779
 20
19.9325391765
 10
7.090498652
 20
19.9352728121
 10
7.0949270579
 20
19.9379249712
 10
7.0990521658
 20
19.9404906053
 10
7.1028661235
 20
19.9429648304
 10
7.1063616708
 20
19.9453429368
 10
7.1095321537
 20
19.9476203976
 10
7.112371537
 20
19.9497928775
 10
7.1148744159
 20
19.9518562411
 10
7.1170360259
 20
19.9538065606
 10
7.1188522522
 20
19.9556401236
 10
7.1203196377
 20
19.9573534396
 10
7.121435389
 20
19.9589432474
 10
7.1221973822
 20
19.9604065206
 10
7.1226041669
 20
19.9617404738
 10
7.1226549687
 20
19.9629425678
 10
7.1224611205
 20
19.9637516242
  0
LINE
  5
2C2
100
AcDbEntity
  8
C_COPERCHIO
100
AcDbLine
 62
7
  6
CONTINUOUS
 10
1.5793409656
 20
16.4985644886
 11
-7.2146157682
 21
12.067679826
  0
LINE
  5
2C3
100
AcDbEntity
  8
C_MOLLA_IDEA
100
AcDbLine
 62
7
  6
CONTINUOUS
 10
-7.3705771522
 20
14.7984942242
 11
-7.6534198647
 21
14.657072868
  0
LINE
  5
2C4
100
AcDbEntity
  8
ASSI
100
AcDbLine
 62
7
  6
CONTINUOUS
 10
7.1604672012
 20
19.6494182182
 11
3.0592478703
 21
17.5988085528
  0
LINE
  5
2C5
100
AcDbEntity
  8
ASSI
100
AcDbLine
 62
7
  6
CONTINUOUS
 10
7.1604672012
 20
18.9998991654
 11
4.1388462621
 21
17.4890886959
  0
LINE
  5
2C6
100
AcDbEntity
  8
ASSI
100
AcDbLine
 62
7
  6
CONTINUOUS
 10
4.1388462621
 20
17.5025708683
 11
3.0592478703
 21
16.9696949293
  0
LINE
  5
2C7
100
AcDbEntity
  8
C_COPERCHIO
100
AcDbLine
 62
7
  6
CONTINUOUS
 10
-0.313036826
 20
17.4855671118
 11
-1.6136306936
 21
16.8439201526
  0
LINE
  5
2C8
100
AcDbEntity
  8
C_COPERCHIO
100
AcDbLine
 62
7
  6
CONTINUOUS
 10
-7.2146157682
 20
12.741562356
 11
1.0350452083
 21
16.8115260946
  0
LWPOLYLINE
  5
2C9
100
AcDbEntity
  8
ASSI
100
AcDbPolyline
 62
250
  6
CONTINUOUS
 90
58
 70
0
 10
2.6751575083
 20
18.4401048366
 10
2.6262872426
 20
18.4166999265
 10
2.578443838
 20
18.3927775242
 10
2.5316272944
 20
18.3683376297
 10
2.4858069029
 20
18.3433658705
 10
2.4410133724
 20
18.3178766191
 10
2.3973388299
 20
18.291912993
 10
2.3547872579
 20
18.2654735451
 10
2.313354674
 20
18.2385597225
 10
2.2731212579
 20
18.2112189843
 10
2.2340914978
 20
18.1834504084
 10
2.1962609056
 20
18.155254917
 10
2.1596961968
 20
18.1266827356
 10
2.1244056861
 20
18.0977374943
 10
2.0903810588
 20
18.0684155631
 10
2.057664086
 20
18.0387562778
 10
2.0262585802
 20
18.008762062
 10
1.9961607289
 20
17.9784304922
 10
1.9674008661
 20
17.9477936332
 10
1.9399778752
 20
17.916849191
 10
1.9138928728
 20
17.8855994597
 10
1.8891795419
 20
17.8540833858
 10
1.8658382252
 20
17.8222984935
 10
1.8438685801
 20
17.7902472587
 10
1.8233032625
 20
17.7579760553
 10
1.8041450417
 20
17.7254851693
 10
1.7863911485
 20
17.6927743147
 10
1.770065931
 20
17.6598890077
 10
1.7551718452
 20
17.6268300482
 10
1.7417064353
 20
17.5935966362
 10
1.7296866816
 20
17.5602318878
 10
1.7191142938
 20
17.5267355641
 10
1.7099875624
 20
17.4931079039
 10
1.7023183395
 20
17.4593927397
 10
1.696108422
 20
17.4255895182
 10
1.6913560131
 20
17.3916987927
 10
1.688067574
 20
17.3577660558
 10
1.6862451184
 20
17.3237912325
 10
1.6858866326
 20
17.2897743979
 10
1.6869925378
 20
17.2557612701
 10
1.6895648062
 20
17.2217520076
 10
1.6936014656
 20
17.187746452
 10
1.6990970205
 20
17.1537898458
 10
1.7060533946
 20
17.119882278
 10
1.7144686643
 20
17.0860236597
 10
1.7243315638
 20
17.0522589661
 10
1.7356440168
 20
17.0185882933
 10
1.7484040994
 20
16.9850115454
 10
1.7625947751
 20
16.9515734095
 10
1.7782179679
 20
16.918274036
 10
1.7952717537
 20
16.8851132746
 10
1.813733323
 20
16.8521353611
 10
1.8336045333
 20
16.8193405751
 10
1.854883527
 20
16.786728637
 10
1.8775419217
 20
16.754342944
 10
1.9015815635
 20
16.7221837826
 10
1.9270006062
 20
16.6902508662
 10
1.9537651282
 20
16.6585867325
  0
LWPOLYLINE
  5
2CA
100
AcDbEntity
  8
ASSI
100
AcDbPolyline
 62
250
  6
CONTINUOUS
 90
55
 70
0
 10
2.7951638525
 20
18.2910573612
 10
2.7488682334
 20
18.2689624455
 10
2.7034998075
 20
18.2463591432
 10
2.6590818401
 20
18.2232562746
 10
2.6156299636
 20
18.1996595678
 10
2.5731744696
 20
18.1755815991
 10
2.5317586111
 20
18.1510425618
 10
2.4914027788
 20
18.1260530301
 10
2.4521269184
 20
18.1006237941
 10
2.4139698664
 20
18.0747770543
 10
2.3769497103
 20
18.0485251277
 10
2.3410826751
 20
18.0218796096
 10
2.3064009501
 20
17.9948630687
 10
2.2729239889
 20
17.9674926475
 10
2.2406601048
 20
17.9397772241
 10
2.2096225459
 20
17.9117277006
 10
2.1798266449
 20
17.8833598631
 10
2.1512817614
 20
17.8546846356
 10
2.1239925338
 20
17.8257055606
 10
2.0979693345
 20
17.7964339956
 10
2.0732256167
 20
17.7668854312
 10
2.0497712264
 20
17.7370695091
 10
2.0276154814
 20
17.7069979266
 10
2.0067701005
 20
17.6766864615
 10
1.987247572
 20
17.646151101
 10
1.9690567944
 20
17.6154065719
 10
1.9522052542
 20
17.5844664484
 10
1.9367017988
 20
17.5533452656
 10
1.922553368
 20
17.5220583799
 10
1.9097653235
 20
17.4906192644
 10
1.8983432189
 20
17.4590397753
 10
1.8882918733
 20
17.4273343661
 10
1.8796155129
 20
17.3955177155
 10
1.8723182144
 20
17.3636020991
 10
1.8664030365
 20
17.3316017552
 10
1.8618725559
 20
17.2995318069
 10
1.8587293408
 20
17.2674059313
 10
1.856974628
 20
17.2352388459
 10
1.8566089969
 20
17.2030453351
 10
1.8576330724
 20
17.1708392266
 10
1.8600461739
 20
17.1386354138
 10
1.8638469768
 20
17.106448517
 10
1.8690342301
 20
17.074291973
 10
1.8756054157
 20
17.042180507
 10
1.8835573667
 20
17.0101287991
 10
1.892887016
 20
16.9781502087
 10
1.9035900316
 20
16.9462593088
 10
1.9156614113
 20
16.9144707094
 10
1.9290962451
 20
16.8827977864
 10
1.9438883842
 20
16.8512549464
 10
1.9600310037
 20
16.8198566275
 10
1.9775173286
 20
16.7886161836
 10
1.9963393604
 20
16.7575478678
 10
2.0164885031
 20
16.7266658142
 10
2.0304304529
 20
16.7065042736
  0
LINE
  5
2CB
100
AcDbEntity
  8
ASSI
100
AcDbLine
 62
250
  6
CONTINUOUS
 10
6.6071773314
 20
20.2836643771
 11
2.6751575083
 21
18.4401048366
  0
LINE
  5
2CC
100
AcDbEntity
  8
ASSI
100
AcDbLine
 62
250
  6
CONTINUOUS
 10
6.7271836755
 20
20.1346169016
 11
2.7951638525
 21
18.2910573612
  0
LINE
  5
2CD
100
AcDbEntity
  8
ASSI
100
AcDbLine
 62
250
  6
CONTINUOUS
 10
2.6303300969
 20
16.2852835727
 11
2.6291432516
 21
16.2847493416
  0
LWPOLYLINE
  5
2CE
100
AcDbEntity
  8
C_COPERCHIO
100
AcDbPolyline
 62
7
  6
CONTINUOUS
 90
44
 70
0
 10
-21.2248931627
 20
1.6464153448
 10
-21.2228009612
 20
1.6439487772
 10
-21.2205970854
 20
1.6415455529
 10
-21.2182571424
 20
1.6391725608
 10
-21.215786486
 20
1.6368335171
 10
-21.2131862911
 20
1.6345268906
 10
-21.2104575894
 20
1.6322509072
 10
-21.2076053318
 20
1.6300091006
 10
-21.2046306487
 20
1.6277999989
 10
-21.2015345727
 20
1.6256219291
 10
-21.1983217441
 20
1.6234782766
 10
-21.1949932562
 20
1.62136762
 10
-21.1915501463
 20
1.6192883736
 10
-21.1879968328
 20
1.6172438034
 10
-21.1843343841
 20
1.6152325325
 10
-21.1805638437
 20
1.6132530467
 10
-21.1766894812
 20
1.6113085097
 10
-21.1727123571
 20
1.609397586
 10
-21.1686335183
 20
1.6075188167
 10
-21.1644571257
 20
1.6056752644
 10
-21.1601842159
 20
1.6038656186
 10
-21.1558158652
 20
1.6020884779
 10
-21.1513562302
 20
1.6003468323
 10
-21.1468063499
 20
1.5986393975
 10
-21.1421673215
 20
1.5969648115
 10
-21.1374433499
 20
1.5953259922
 10
-21.1326354805
 20
1.5937216754
 10
-21.1277448425
 20
1.5921505314
 10
-21.1227757525
 20
1.5906154078
 10
-21.1177292715
 20
1.5891150572
 10
-21.1126065675
 20
1.5876481745
 10
-21.1074121281
 20
1.5862175326
 10
-21.10214704
 20
1.5848218995
 10
-21.0968125153
 20
1.5834599875
 10
-21.0914132653
 20
1.582134484
 10
-21.0859504135
 20
1.5808441733
 10
-21.0804252194
 20
1.5795877782
 10
-21.0748426569
 20
1.5783678805
 10
-21.0692038957
 20
1.5771832689
 10
-21.063510246
 20
1.5760326856
 10
-21.0577669738
 20
1.5749186204
 10
-21.0519767156
 20
1.5738410786
 10
-21.04613943
 20
1.5727976063
 10
-21.0402564117
 20
1.5717870013
  0
LINE
  5
2CF
100
AcDbEntity
  8
C_COPERCHIO
100
AcDbLine
 62
7
  6
CONTINUOUS
 10
-21.913966133
 20
2.493479883
 11
-21.2248935703
 21
1.6464158455
  0
LINE
  5
2D0
100
AcDbEntity
  8
C_COPERCHIO
100
AcDbLine
 62
250
  6
CONTINUOUS
 10
-21.6751531717
 20
2.3524648726
 11
-21.0402558473
 21
1.5717851435
  0
LINE
  5
2D1
100
AcDbEntity
  8
C_COPERCHIO
100
AcDbLine
 62
7
  6
CONTINUOUS
 10
-22.5513463309
 20
3.2778337008
 11
-21.913966133
 21
2.493479883
  0
LINE
  5
2D2
100
AcDbEntity
  8
C_COPERCHIO
100
AcDbLine
 62
250
  6
CONTINUOUS
 10
-22.3095655739
 20
3.1333415604
 11
-21.6751531717
 21
2.3524648726
  0
LINE
  5
2D3
100
AcDbEntity
  8
C_COPERCHIO
100
AcDbLine
 62
7
  6
CONTINUOUS
 10
-22.8138128351
 20
3.6010558908
 11
-22.5513463309
 21
3.2778337008
  0
LINE
  5
2D4
100
AcDbEntity
  8
C_COPERCHIO
100
AcDbLine
 62
250
  6
CONTINUOUS
 10
-22.9434930895
 20
3.9144144936
 11
-22.3095655739
 21
3.1333415604
  0
LWPOLYLINE
  5
2D5
100
AcDbEntity
  8
C_COPERCHIO
100
AcDbPolyline
 62
7
  6
CONTINUOUS
 90
44
 70
0
 10
-22.8138132133
 20
3.6010563567
 10
-22.8170044975
 20
3.6050370286
 10
-22.8215575422
 20
3.6108921459
 10
-22.8260368319
 20
3.6168602238
 10
-22.8304400047
 20
3.6229353355
 10
-22.8347681332
 20
3.6291156935
 10
-22.8390224433
 20
3.63539963
 10
-22.8432006072
 20
3.6417815862
 10
-22.8473036943
 20
3.6482598871
 10
-22.8513328926
 20
3.6548329193
 10
-22.8552858837
 20
3.661495377
 10
-22.8591637377
 20
3.6682456836
 10
-22.8629676121
 20
3.6750822703
 10
-22.8666951799
 20
3.6819999747
 10
-22.8703475126
 20
3.688997298
 10
-22.8739257511
 20
3.6960727138
 10
-22.8774275589
 20
3.7032211247
 10
-22.8808540074
 20
3.7104410809
 10
-22.884206238
 20
3.7177311065
 10
-22.8874819311
 20
3.7250861499
 10
-22.8906821829
 20
3.7325048462
 10
-22.8938081205
 20
3.7399857196
 10
-22.896857409
 20
3.7475236159
 10
-22.8998311618
 20
3.7551172122
 10
-22.9027305184
 20
3.762765058
 10
-22.9055531475
 20
3.7704618516
 10
-22.9083001904
 20
3.7782063127
 10
-22.9109728049
 20
3.785997002
 10
-22.9135686768
 20
3.7938284045
 10
-22.9160889808
 20
3.801699275
 10
-22.9185349041
 20
3.8096081818
 10
-22.9209041696
 20
3.8175493394
 10
-22.9231979908
 20
3.8255215292
 10
-22.925417595
 20
3.833523327
 10
-22.9275607708
 20
3.8415486337
 10
-22.9296287745
 20
3.849596248
 10
-22.9316228841
 20
3.8576647571
 10
-22.9335409914
 20
3.8657477273
 10
-22.935384397
 20
3.8738439646
 10
-22.9371544403
 20
3.8819520758
 10
-22.938849164
 20
3.8900653021
 10
-22.9404688568
 20
3.8981805262
 10
-22.9420159972
 20
3.9062983012
 10
-22.9434919633
 20
3.9144173705
  0
LINE
  5
2D6
100
AcDbEntity
  8
C_COPERCHIO
100
AcDbLine
 62
7
  6
CONTINUOUS
 10
-12.2679839823
 20
-7.5762640612
 11
-14.816386462
 21
-0.8960847975
  0
LWPOLYLINE
  5
2D7
100
AcDbEntity
  8
C_COPERCHIO
100
AcDbPolyline
 62
250
  6
CONTINUOUS
 90
7
 70
0
 10
-13.3584189741
 20
-8.489583515
 10
-13.8367151927
 20
-7.2194452296
 10
-14.3126572337
 20
-5.9481723444
 10
-14.7862451737
 20
-4.6757728714
 10
-15.2574791071
 20
-3.402254831
 10
-15.7263591467
 20
-2.1276262525
 10
-16.1928854233
 20
-0.8518951737
  0
LWPOLYLINE
  5
2D8
100
AcDbEntity
  8
C_COPERCHIO
100
AcDbPolyline
 62
250
  6
CONTINUOUS
 90
7
 70
0
 10
-12.9708444989
 20
-7.9276943195
 10
-13.4019748486
 20
-6.7820582189
 10
-13.8311894795
 20
-5.6355129241
 10
-14.2584883914
 20
-4.4880584351
 10
-14.6838715845
 20
-3.3396947519
 10
-15.1073390586
 20
-2.1904218745
 10
-15.5268210531
 20
-1.0458870379
  0
LINE
  5
2D9
100
AcDbEntity
  8
C_MOLLA_IDEA
100
AcDbLine
 62
7
  6
CONTINUOUS
 10
-14.5364165733
 20
17.940461959
 11
-14.4311997349
 21
16.4149337575
  0
LWPOLYLINE
  5
2DA
100
AcDbEntity
  8
C_COPERCHIO
100
AcDbPolyline
 62
250
  6
CONTINUOUS
 90
33
 70
0
 10
-9.9938305458
 20
-26.1172249098
 10
-9.9928255377
 20
-26.1397419873
 10
-9.9913147168
 20
-26.1619719513
 10
-9.9892991548
 20
-26.1838990863
 10
-9.9867802666
 20
-26.2055077663
 10
-9.9837598437
 20
-26.2267828549
 10
-9.9802400201
 20
-26.2477096926
 10
-9.9762231863
 20
-26.2682736809
 10
-9.9717121803
 20
-26.2884600647
 10
-9.9667103115
 20
-26.3082543274
 10
-9.961221078
 20
-26.3276424332
 10
-9.9552483135
 20
-26.34661074
 10
-9.948796355
 20
-26.3651457678
 10
-9.9418697119
 20
-26.3832343984
 10
-9.934473223
 20
-26.400863896
 10
-9.926612208
 20
-26.4180218222
 10
-9.9182921082
 20
-26.4346961249
 10
-9.9095187664
 20
-26.4508749669
 10
-9.900298583
 20
-26.4665467454
 10
-9.8906380005
 20
-26.4817003907
 10
-9.8805437627
 20
-26.4963252396
 10
-9.8700231873
 20
-26.5104108576
 10
-9.8590835989
 20
-26.5239473379
 10
-9.8477326575
 20
-26.5369251274
 10
-9.8359786243
 20
-26.5493349096
 10
-9.8238297253
 20
-26.5611679354
 10
-9.8112944332
 20
-26.5724159066
 10
-9.7983817897
 20
-26.5830707932
 10
-9.7851007714
 20
-26.5931251304
 10
-9.7714606881
 20
-26.6025718257
 10
-9.7574714656
 20
-26.6114040427
 10
-9.7431428766
 20
-26.6196155869
 10
-9.7311282761
 20
-26.6258913304
  0
LWPOLYLINE
  5
2DB
100
AcDbEntity
  8
ASSI
100
AcDbPolyline
 62
7
  6
CONTINUOUS
 90
12
 70
0
 10
-11.7384852144
 20
23.2918663191
 10
-11.7408245939
 20
23.3614674828
 10
-11.7487803093
 20
23.4351618982
 10
-11.7623987525
 20
23.5058569813
 10
-11.7816458757
 20
23.5729928952
 10
-11.8062676307
 20
23.6356965823
 10
-11.8359812612
 20
23.6935077463
 10
-11.8706497296
 20
23.7463371982
 10
-11.9100279202
 20
23.7938792891
 10
-11.9537282712
 20
23.8357401555
 10
-12.0013691265
 20
23.8716389884
 10
-12.0533599426
 20
23.901741883
  0
LINE
  5
2DC
100
AcDbEntity
  8
ASSI
100
AcDbLine
 62
250
  6
CONTINUOUS
 10
-11.7948244458
 20
23.2412768906
 11
-11.7946171422
 21
23.2224901071
  0
LINE
  5
2DD
100
AcDbEntity
  8
ASSI
100
AcDbLine
 62
250
  6
CONTINUOUS
 10
-11.7946171422
 20
23.2224901071
 11
-11.7946171422
 21
22.7622902785
  0
LINE
  5
2DE
100
AcDbEntity
  8
ASSI
100
AcDbLine
 62
7
  6
CONTINUOUS
 10
-11.7384851023
 20
23.2919559441
 11
-11.7384851023
 21
22.7726473287
  0
LWPOLYLINE
  5
2DF
100
AcDbEntity
  8
ASSI
100
AcDbPolyline
 62
250
  6
CONTINUOUS
 90
19
 70
0
 10
-11.7384851826
 20
23.2918663191
 10
-11.7386035764
 20
23.2885144467
 10
-11.739086514
 20
23.2842067021
 10
-11.7399406315
 20
23.2799133826
 10
-11.741164339
 20
23.2756424804
 10
-11.7427553585
 20
23.2714019456
 10
-11.7447107284
 20
23.267199672
 10
-11.7470268087
 20
23.2630434822
 10
-11.7496992881
 20
23.2589411128
 10
-11.7527231917
 20
23.2549002004
 10
-11.7560928905
 20
23.2509282672
 10
-11.759802112
 20
23.2470327069
 10
-11.7638439513
 20
23.243220771
 10
-11.7682108846
 20
23.2394995556
 10
-11.7728947829
 20
23.2358759875
 10
-11.7778869271
 20
23.2323568122
 10
-11.7831780243
 20
23.2289485804
 10
-11.7887582251
 20
23.2256576367
 10
-11.7946171422
 20
23.2224901071
  0
LINE
  5
2E0
100
AcDbEntity
  8
C_MOLLA_IDEA
100
AcDbLine
 62
250
  6
CONTINUOUS
 10
-9.4646834279
 20
18.8614102624
 11
-9.4851146875
 21
18.7741815103
  0
LINE
  5
2E1
100
AcDbEntity
  8
C_MOLLA_IDEA
100
AcDbLine
 62
250
  6
CONTINUOUS
 10
-9.7109511839
 20
17.7294101121
 11
-9.7276362174
 21
17.6581754118
  0
LINE
  5
2E2
100
AcDbEntity
  8
C_MOLLA_IDEA
100
AcDbLine
 62
250
  6
CONTINUOUS
 10
-7.7607054992
 20
17.9284449092
 11
-7.8481087041
 21
17.5552876653
  0
LINE
  5
2E3
100
AcDbEntity
  8
C_MOLLA_IDEA
100
AcDbLine
 62
250
  6
CONTINUOUS
 10
-7.4847844406
 20
17.8714607688
 11
-7.5721876455
 21
17.4983035249
  0
LWPOLYLINE
  5
2E4
100
AcDbEntity
  8
C_CONTATTO_DX
100
AcDbPolyline
 62
250
  6
CONTINUOUS
 90
30
 70
0
 10
3.6576882441
 20
16.5632404739
 10
3.7328296784
 20
16.6053069374
 10
3.8119257009
 20
16.6453329492
 10
3.8950211826
 20
16.6833078455
 10
3.9820712525
 20
16.7192422902
 10
4.0723807965
 20
16.7528491594
 10
4.1659872912
 20
16.7841084399
 10
4.2628532601
 20
16.813040145
 10
4.3621711589
 20
16.8394171911
 10
4.4638990376
 20
16.8632081818
 10
4.5680788461
 20
16.8844445135
 10
4.67402889
 20
16.9029932909
 10
4.7817055623
 20
16.9188459661
 10
4.89115247
 20
16.9320110871
 10
5.001818739
 20
16.9423814028
 10
5.1139047819
 20
16.9499501801
 10
5.2272101863
 20
16.9547241521
 10
5.3405828402
 20
16.9566162669
 10
5.4542675962
 20
16.9555380269
 10
5.5680196018
 20
16.9515779297
 10
5.6799521882
 20
16.9449144163
 10
5.7900232842
 20
16.9354206083
 10
5.898274961
 20
16.9232233841
 10
6.0029467632
 20
16.9088818198
 10
6.1038888208
 20
16.8922775499
 10
6.2012510038
 20
16.8735289399
 10
6.2937224661
 20
16.8535501629
 10
6.3808662592
 20
16.8326459434
 10
6.4631193317
 20
16.810511557
 10
6.5404816836
 20
16.7871470035
  0
LWPOLYLINE
  5
2E5
100
AcDbEntity
  8
C_COPERCHIO
100
AcDbPolyline
 62
250
  6
CONTINUOUS
 90
40
 70
0
 10
-7.1803303586
 20
9.1391202159
 10
-7.187359272
 20
9.1352840839
 10
-7.1943738718
 20
9.1311126975
 10
-7.2013630316
 20
9.1266124231
 10
-7.2083162119
 20
9.1217897537
 10
-7.2152217885
 20
9.116652457
 10
-7.2220671142
 20
9.1112098144
 10
-7.2288407627
 20
9.1054709554
 10
-7.2355325673
 20
9.0994445386
 10
-7.242131977
 20
9.0931400608
 10
-7.2486285659
 20
9.0865674672
 10
-7.2550119781
 20
9.0797372202
 10
-7.2612720122
 20
9.0726602308
 10
-7.2673987081
 20
9.065347764
 10
-7.2733823789
 20
9.0578113866
 10
-7.2792135529
 20
9.0500630285
 10
-7.2848829864
 20
9.0421149696
 10
-7.2903816773
 20
9.0339798276
 10
-7.2957008987
 20
9.0256705119
 10
-7.3008322108
 20
9.0172002054
 10
-7.3057674742
 20
9.008582343
 10
-7.3104988594
 20
8.9998305949
 10
-7.3150188605
 20
8.9909588434
 10
-7.3193203062
 20
8.981981163
 10
-7.3233963709
 20
8.9729117978
 10
-7.327240588
 20
8.9637651355
 10
-7.3308468587
 20
8.9545556856
 10
-7.3342094612
 20
8.9452980593
 10
-7.3373230608
 20
8.9360069423
 10
-7.3401827179
 20
8.9266970741
 10
-7.3427838949
 20
8.9173832257
 10
-7.3451224651
 20
8.908080173
 10
-7.3471947187
 20
8.8988026736
 10
-7.3489973679
 20
8.8895654461
 10
-7.3505275533
 20
8.8803831418
 10
-7.3517828468
 20
8.8712703298
 10
-7.3527612563
 20
8.8622414743
 10
-7.35346123
 20
8.8533109008
 10
-7.3538816584
 20
8.8444927737
 10
-7.3540218752
 20
8.8358010816
  0
LWPOLYLINE
  5
2E6
100
AcDbEntity
  8
C_COPERCHIO
100
AcDbPolyline
 62
7
  6
CONTINUOUS
 90
34
 70
0
 10
-4.5597697613
 20
12.8669167965
 10
-4.580375224
 20
12.8559144321
 10
-4.6004181962
 20
12.8445356419
 10
-4.6198945842
 20
12.8327812223
 10
-4.6388310107
 20
12.8206308658
 10
-4.6571885785
 20
12.8081043352
 10
-4.6748728794
 20
12.7952676992
 10
-4.6918865067
 20
12.7821260769
 10
-4.7082312713
 20
12.7686845973
 10
-4.7238282743
 20
12.7550208291
 10
-4.7386741421
 20
12.7411582654
 10
-4.7527924564
 20
12.727095669
 10
-4.766156229
 20
12.7128835066
 10
-4.7787647802
 20
12.6985520441
 10
-4.7906457273
 20
12.6841003603
 10
-4.8018160011
 20
12.6695371506
 10
-4.812283234
 20
12.654882881
 10
-4.8220628933
 20
12.6401477411
 10
-4.8311786788
 20
12.625326627
 10
-4.8396370285
 20
12.6104395847
 10
-4.8474499798
 20
12.5954979505
 10
-4.8546425535
 20
12.5804839018
 10
-4.8612201265
 20
12.5654143354
 10
-4.867189868
 20
12.5503035591
 10
-4.8725714692
 20
12.5351295525
 10
-4.8773680919
 20
12.5199081807
 10
-4.8815838148
 20
12.5046546876
 10
-4.8852318138
 20
12.4893457374
 10
-4.8883132498
 20
12.4739957623
 10
-4.8908295348
 20
12.4586215678
 10
-4.8927870016
 20
12.4432031779
 10
-4.89418582
 20
12.4277444657
 10
-4.8950243669
 20
12.4122732694
 10
-4.8953035481
 20
12.3968056084
  0
LWPOLYLINE
  5
2E7
100
AcDbEntity
  8
C_COPERCHIO
100
AcDbPolyline
 62
250
  6
CONTINUOUS
 90
112
 70
0
 10
-4.4448223027
 20
12.8614162067
 10
-4.4585198942
 20
12.854121688
 10
-4.4717851409
 20
12.8466499196
 10
-4.4846180429
 20
12.8390009015
 10
-4.4970283021
 20
12.8311682022
 10
-4.5090062164
 20
12.8231582532
 10
-4.5205226801
 20
12.8149903486
 10
-4.5315763206
 20
12.8066642551
 10
-4.5421685104
 20
12.798180206
 10
-4.5522742612
 20
12.7895581953
 10
-4.5618923777
 20
12.7807979319
 10
-4.5710240552
 20
12.7718997069
 10
-4.5796478919
 20
12.7628843875
 10
-4.5877626975
 20
12.7537517057
 10
-4.5953696624
 20
12.7445019294
 10
-4.6024509558
 20
12.7351567295
 10
-4.6090053607
 20
12.7257158563
 10
-4.6150340941
 20
12.7161795595
 10
-4.6205229767
 20
12.706570259
 10
-4.6254707283
 20
12.6968877981
 10
-4.6298786289
 20
12.6871323334
 10
-4.6337363393
 20
12.6773267553
 10
-4.6370425683
 20
12.6674709437
 10
-4.639798607
 20
12.6575650187
 10
-4.6419979894
 20
12.6476322309
 10
-4.6436394087
 20
12.6376725254
 10
-4.6447241717
 20
12.6276859571
 10
-4.6452497327
 20
12.6176959411
 10
-4.6452147784
 20
12.6077024534
 10
-4.6446206221
 20
12.597705518
 10
-4.6434686585
 20
12.587728622
 10
-4.6417575789
 20
12.5777718277
 10
-4.639488692
 20
12.5678350727
 10
-4.6366673179
 20
12.5579416573
 10
-4.6332921544
 20
12.5480916696
 10
-4.6293645037
 20
12.5382850213
 10
-4.6248935921
 20
12.5285447487
 10
-4.6198781513
 20
12.5188710224
 10
-4.6143194496
 20
12.5092636716
 10
-4.608230518
 20
12.4997452197
 10
-4.6016101002
 20
12.4903158593
 10
-4.5944594524
 20
12.4809753978
 10
-4.5867953748
 20
12.4717457806
 10
-4.578616675
 20
12.462627284
 10
-4.5699245452
 20
12.4536196316
 10
-4.5607393622
 20
12.4447439403
 10
-4.5510599507
 20
12.4360005043
 10
-4.5408874859
 20
12.4273890292
 10
-4.5302458702
 20
12.4189297495
 10
-4.5191340218
 20
12.4106230382
 10
-4.5075530226
 20
12.4024685222
 10
-4.49553002
 20
12.3944853166
 10
-4.4830639532
 20
12.3866738091
 10
-4.4701558831
 20
12.3790336121
 10
-4.4568361396
 20
12.3715826773
 10
-4.4431037811
 20
12.3643214629
 10
-4.4289597493
 20
12.3572495108
 10
-4.4144371993
 20
12.350383398
 10
-4.3995352149
 20
12.3437235955
 10
-4.3842547123
 20
12.3372696324
 10
-4.3686315958
 20
12.3310366731
 10
-4.3526650898
 20
12.325025248
 10
-4.33635597
 20
12.3192348268
 10
-4.3197424671
 20
12.3136789828
 10
-4.3028238362
 20
12.3083582569
 10
-4.2856008222
 20
12.3032721082
 10
-4.2681138917
 20
12.2984324866
 10
-4.2503624556
 20
12.2938399796
 10
-4.232347103
 20
12.2894939997
 10
-4.214110067
 20
12.285404735
 10
-4.1956507955
 20
12.2815727816
 10
-4.1769698406
 20
12.2779975433
 10
-4.1581110925
 20
12.2746874199
 10
-4.1390741653
 20
12.2716430394
 10
-4.119859445
 20
12.2688637736
 10
-4.1005119789
 20
12.2663561382
 10
-4.0810314261
 20
12.2641207671
 10
-4.0614181276
 20
12.2621570263
 10
-4.0417181542
 20
12.2604695287
 10
-4.0219313292
 20
12.2590589251
 10
-4.0020578293
 20
12.2579245646
 10
-3.9821442555
 20
12.2570691071
 10
-3.9621904838
 20
12.256493207
 10
-3.9421966381
 20
12.2561962099
 10
-3.9222096914
 20
12.256178813
 10
-3.9022296909
 20
12.2564416729
 10
-3.8822565894
 20
12.256984133
 10
-3.8623372188
 20
12.2578049202
 10
-3.8424716899
 20
12.2589046879
 10
-3.822659892
 20
12.2602827826
 10
-3.8029483245
 20
12.2619359714
 10
-3.7833372276
 20
12.2638648996
 10
-3.7638263611
 20
12.2660689217
 10
-3.7444615048
 20
12.2685428681
 10
-3.7252429722
 20
12.2712873788
 10
-3.7061704496
 20
12.2743018137
 10
-3.6872887765
 20
12.2775790833
 10
-3.668598451
 20
12.2811197965
 10
-3.6500989749
 20
12.2849233444
 10
-3.6318336934
 20
12.2889808103
 10
-3.6138031444
 20
12.2932927886
 10
-3.5960067899
 20
12.297858685
 10
-3.5784863603
 20
12.3026678
 10
-3.561242437
 20
12.3077207326
 10
-3.5442744385
 20
12.3130168838
 10
-3.5276223513
 20
12.3185437581
 10
-3.5112865066
 20
12.3243021051
 10
-3.4952665732
 20
12.3302911753
 10
-3.4796015435
 20
12.3364962233
 10
-3.4643044151
 20
12.3429123343
 10
-3.4493621906
 20
12.3495444233
 10
-3.4347748697
 20
12.3563924902
  0
LINE
  5
2E8
100
AcDbEntity
  8
C_COPERCHIO
100
AcDbLine
 62
7
  6
CONTINUOUS
 10
-3.1348534056
 20
13.604688837
 11
-4.5597697613
 21
12.8669167965
  0
LINE
  5
2E9
100
AcDbEntity
  8
C_COPERCHIO
100
AcDbLine
 62
250
  6
CONTINUOUS
 10
-3.0218435198
 20
13.5981850395
 11
-4.4448223027
 21
12.8614162067
  0
LINE
  5
2EA
100
AcDbEntity
  8
C_COPERCHIO
100
AcDbLine
 62
250
  6
CONTINUOUS
 10
-7.1803303586
 20
9.1391202159
 11
-3.9006583585
 21
10.7916014372
  0
LINE
  5
2EB
100
AcDbEntity
  8
C_COPERCHIO
100
AcDbLine
 62
250
  6
CONTINUOUS
 10
-7.0035805873
 20
8.8342719542
 11
-3.2611102771
 21
10.7199367124
  0
LINE
  5
2EC
100
AcDbEntity
  8
C_CONTATTO_DX
100
AcDbLine
 62
7
  6
CONTINUOUS
 10
3.6320043631
 20
16.4572081254
 11
4.1269791099
 21
16.7046954988
  0
LINE
  5
2ED
100
AcDbEntity
  8
C_CONTATTO_DX
100
AcDbLine
 62
7
  6
CONTINUOUS
 10
6.5404816836
 20
16.7871470035
 11
5.4181686055
 21
16.2259904645
  0
LINE
  5
2EE
100
AcDbEntity
  8
C_CONTATTO_DX
100
AcDbLine
 62
7
  6
CONTINUOUS
 10
4.5894144316
 20
15.8116133776
 11
4.3863623433
 21
15.7100873334
  0
LINE
  5
2EF
100
AcDbEntity
  8
C_CONTATTO_DX
100
AcDbLine
 62
7
  6
CONTINUOUS
 10
7.247612541
 20
16.4336056511
 11
6.1252753867
 21
15.8724370739
  0
LINE
  5
2F0
100
AcDbEntity
  8
ASSI
100
AcDbLine
 62
7
  6
CONTINUOUS
 10
-1.3414221019
 20
14.4509778906
 11
-3.0427609255
 21
13.6071012917
  0
LINE
  5
2F1
100
AcDbEntity
  8
ASSI
100
AcDbLine
 62
250
  6
CONTINUOUS
 10
-1.2516138095
 20
14.4454611921
 11
-2.9909493369
 21
13.582737948
  0
LINE
  5
2F2
100
AcDbEntity
  8
ASSI
100
AcDbLine
 62
250
  6
CONTINUOUS
 10
-1.9258333979
 20
13.0501799785
 11
3.6444054003
 21
15.8130594868
  0
LINE
  5
2F3
100
AcDbEntity
  8
ASSI
100
AcDbLine
 62
250
  6
CONTINUOUS
 10
-1.7844335808
 20
12.8063013692
 11
3.7858052174
 21
15.5691808774
  0
LINE
  5
2F4
100
AcDbEntity
  8
ASSI
100
AcDbLine
 62
250
  6
CONTINUOUS
 10
9.4017404206
 20
17.9296642727
 11
9.566481435
 21
18.0102739972
  0
LINE
  5
2F5
100
AcDbEntity
  8
ASSI
100
AcDbLine
 62
7
  6
CONTINUOUS
 10
7.2470312146
 20
16.1142567713
 11
11.1006549715
 21
17.9970782023
  0
LINE
  5
2F6
100
AcDbEntity
  8
ASSI
100
AcDbLine
 62
250
  6
CONTINUOUS
 10
7.3373618148
 20
16.1090026834
 11
11.1909210138
 21
17.9917925359
  0
LINE
  5
2F7
100
AcDbEntity
  8
C_COPERCHIO
100
AcDbLine
 62
250
  6
CONTINUOUS
 10
-3.4347748697
 20
12.3563924902
 11
-1.9612372042
 21
13.0678818816
  0
LINE
  5
2F8
100
AcDbEntity
  8
C_COPERCHIO
100
AcDbLine
 62
250
  6
CONTINUOUS
 10
-3.2611102771
 20
12.0499686642
 11
-1.7844335808
 21
12.762973719
  0
LWPOLYLINE
  5
2F9
100
AcDbEntity
  8
ASSI
100
AcDbPolyline
 62
250
  6
CONTINUOUS
 90
46
 70
0
 10
3.7858052174
 20
15.5691808774
 10
3.8009592333
 20
15.5764388397
 10
3.816073562
 20
15.5831644423
 10
3.8311482033
 20
15.589357685
 10
3.8461946524
 20
15.5950225603
 10
3.8612014141
 20
15.6001550758
 10
3.8761340036
 20
15.6047432543
 10
3.8909919356
 20
15.6087857129
 10
3.9057756952
 20
15.6122838345
 10
3.9204522532
 20
15.6152297898
 10
3.9350213275
 20
15.6176223283
 10
3.9494832
 20
15.6194627007
 10
3.9638056873
 20
15.6207468292
 10
3.9779884588
 20
15.6214734792
 10
3.9920318451
 20
15.6216438853
 10
4.0059046541
 20
15.6212576744
 10
4.0196065443
 20
15.6203136043
 10
4.0331378573
 20
15.6188129171
 10
4.0464684257
 20
15.6167589651
 10
4.0595977793
 20
15.6141505162
 10
4.0725263883
 20
15.6109888026
 10
4.0852254962
 20
15.6072808733
 10
4.097694599
 20
15.6030255089
 10
4.1099342005
 20
15.5982239288
 10
4.1219170558
 20
15.5928868409
 10
4.1336425785
 20
15.5870130612
 10
4.145111355
 20
15.5806037737
 10
4.1562978992
 20
15.5736732386
 10
4.167201603
 20
15.5662202807
 10
4.1778230746
 20
15.5582460753
 10
4.1881386523
 20
15.5497684087
 10
4.1981476333
 20
15.5407861772
 10
4.2078507203
 20
15.5313004846
 10
4.2172263598
 20
15.5213324275
 10
4.2262738349
 20
15.5108809212
 10
4.2349938624
 20
15.4999470504
 10
4.2433670389
 20
15.4885551667
 10
4.2513925861
 20
15.4767042586
 10
4.2590712822
 20
15.4643953375
 10
4.2663860588
 20
15.4516557886
 10
4.2733361145
 20
15.4384846315
 10
4.2799222506
 20
15.4248828466
 10
4.2861298022
 20
15.4108807603
 10
4.29195791
 20
15.3964775228
 10
4.2974074333
 20
15.381673984
 10
4.3024662855
 20
15.3665030199
  0
LINE
  5
2FA
100
AcDbEntity
  8
ASSI
100
AcDbLine
 62
7
  6
CONTINUOUS
 10
-1.3394879881
 20
14.4519039565
 11
-1.3414221014
 21
14.4509778908
  0
LINE
  5
2FB
100
AcDbEntity
  8
ASSI
100
AcDbLine
 62
250
  6
CONTINUOUS
 10
7.2884621654
 20
16.0856127638
 11
7.3373618148
 21
16.1090026834
  0
LWPOLYLINE
  5
2FC
100
AcDbEntity
  8
ASSI
100
AcDbPolyline
 62
250
  6
CONTINUOUS
 90
26
 70
0
 10
3.6444054003
 20
15.8130594868
 10
3.6633976428
 20
15.8220914752
 10
3.682366937
 20
15.8304686968
 10
3.7012989959
 20
15.8381850505
 10
3.7201792622
 20
15.8452349888
 10
3.7389938168
 20
15.8516133411
 10
3.7577293849
 20
15.8573152813
 10
3.77637201
 20
15.8623366999
 10
3.7949074909
 20
15.8666739056
 10
3.8133222908
 20
15.8703234422
 10
3.8316024944
 20
15.8732826932
 10
3.8497343816
 20
15.8755495769
 10
3.8677048631
 20
15.877122226
 10
3.8855003847
 20
15.8779995708
 10
3.9031075665
 20
15.878181066
 10
3.9205137765
 20
15.8776663958
 10
3.9377059594
 20
15.8764560246
 10
3.9546711096
 20
15.8745509442
 10
3.9713969126
 20
15.8719524026
 10
3.9878707551
 20
15.868662427
 10
4.0040802516
 20
15.8646835549
 10
4.0200137171
 20
15.8600185757
 10
4.0356591729
 20
15.8546710353
 10
4.0510048188
 20
15.8486450009
 10
4.0660395639
 20
15.8419448018
 10
4.0731760666
 20
15.8384739218
  0
LWPOLYLINE
  5
2FD
100
AcDbEntity
  8
ASSI
100
AcDbPolyline
 62
250
  6
CONTINUOUS
 90
21
 70
0
 10
11.1909210138
 20
17.9917925359
 10
11.2018122004
 20
17.9969183061
 10
11.2125775773
 20
18.0016789133
 10
11.2232063604
 20
18.0060686543
 10
11.2336866112
 20
18.0100819974
 10
11.2440086234
 20
18.0137143502
 10
11.2541648861
 20
18.0169616775
 10
11.2641446866
 20
18.0198198198
 10
11.2739369126
 20
18.0222844834
 10
11.2835333703
 20
18.0243515508
 10
11.2929227081
 20
18.0260178645
 10
11.3020944396
 20
18.0272804541
 10
11.3110416111
 20
18.0281357615
 10
11.3197524477
 20
18.0285817432
 10
11.3282169876
 20
18.0286166525
 10
11.3364308392
 20
18.0282373331
 10
11.3443829809
 20
18.0274426175
 10
11.3520626502
 20
18.0262316067
 10
11.3594655911
 20
18.0246013088
 10
11.3665810622
 20
18.0225514882
 10
11.3733980604
 20
18.0200823534
  0
LWPOLYLINE
  5
2FE
100
AcDbEntity
  8
ASSI
100
AcDbPolyline
 62
7
  6
CONTINUOUS
 90
16
 70
0
 10
7.2470312098
 20
16.1142567811
 10
7.1557956715
 20
16.0715242016
 10
6.989854495
 20
16.0022544045
 10
6.8126510731
 20
15.9385079808
 10
6.6249877353
 20
15.8807424206
 10
6.4279094925
 20
15.8294271187
 10
6.2226757083
 20
15.784998474
 10
6.0103778313
 20
15.7477733696
 10
5.7921525823
 20
15.7180215351
 10
5.5693832949
 20
15.6959815976
 10
5.3433109408
 20
15.6818061108
 10
5.1151425228
 20
15.6755940826
 10
4.8862345302
 20
15.67739547
 10
4.657814813
 20
15.6872034918
 10
4.4311595571
 20
15.7049605322
 10
4.2174992726
 20
15.7294128076
  0
LWPOLYLINE
  5
2FF
100
AcDbEntity
  8
ASSI
100
AcDbPolyline
 62
250
  6
CONTINUOUS
 90
17
 70
0
 10
7.2470957737
 20
16.1142883504
 10
7.2498906757
 20
16.1155867246
 10
7.2549803713
 20
16.1176231049
 10
7.260222212
 20
16.1193110126
 10
7.2656062179
 20
16.1206472342
 10
7.2711221386
 20
16.1216292256
 10
7.2767594724
 20
16.1222551172
 10
7.2825074865
 20
16.1225237175
 10
7.2883552375
 20
16.122434515
 10
7.2942915918
 20
16.1219876796
 10
7.3003052476
 20
16.121184062
 10
7.3063847554
 20
16.1200251921
 10
7.3125185407
 20
16.1185132765
 10
7.3186949254
 20
16.1166511934
 10
7.3249021506
 20
16.1144424881
 10
7.3311283984
 20
16.1118913658
 10
7.3373618148
 20
16.1090026834
  0
LWPOLYLINE
  5
300
100
AcDbEntity
  8
C_COPERCHIO
100
AcDbPolyline
 62
250
  6
CONTINUOUS
 90
40
 70
0
 10
-7.0035805873
 20
8.8342719542
 10
-7.0108721474
 20
8.830888821
 10
-7.0184289716
 20
8.8276526332
 10
-7.0262392775
 20
8.8245686264
 10
-7.034291527
 20
8.8216415708
 10
-7.0425724989
 20
8.8188764802
 10
-7.0510671312
 20
8.8162784706
 10
-7.059761208
 20
8.8138518605
 10
-7.0686416435
 20
8.8116002736
 10
-7.07769444
 20
8.8095272623
 10
-7.0869053078
 20
8.8076361072
 10
-7.0962595763
 20
8.8059298293
 10
-7.1057422997
 20
8.8044111569
 10
-7.1153383866
 20
8.8030825045
 10
-7.1250326605
 20
8.8019459706
 10
-7.1348097755
 20
8.8010033541
 10
-7.1446542355
 20
8.8002561505
 10
-7.1545504108
 20
8.7997055473
 10
-7.164482597
 20
8.7993524191
 10
-7.174435036
 20
8.7991973264
 10
-7.1843919418
 20
8.7992405159
 10
-7.1943375194
 20
8.7994819196
 10
-7.2042559926
 20
8.799921155
 10
-7.2141316258
 20
8.8005575259
 10
-7.2239487497
 20
8.8013900232
 10
-7.2336917902
 20
8.8024173264
 10
-7.2433452914
 20
8.8036378063
 10
-7.2528939375
 20
8.8050495268
 10
-7.2623225806
 20
8.8066502487
 10
-7.2716162632
 20
8.8084374329
 10
-7.2807602394
 20
8.8104082441
 10
-7.2897400031
 20
8.8125595557
 10
-7.2985413093
 20
8.8148879551
 10
-7.3071501947
 20
8.8173897487
 10
-7.3155530046
 20
8.8200609682
 10
-7.3237364065
 20
8.8228973756
 10
-7.3316874116
 20
8.8258944687
 10
-7.3393934049
 20
8.8290474918
 10
-7.3468421648
 20
8.8323514433
 10
-7.3540218752
 20
8.8358010816
  0
LINE
  5
301
100
AcDbEntity
  8
ASSI
100
AcDbLine
 62
7
  6
CONTINUOUS
 10
2.6290787716
 20
16.2847195999
 11
-1.3394880163
 21
14.4519039434
  0
LINE
  5
302
100
AcDbEntity
  8
ASSI
100
AcDbLine
 62
250
  6
CONTINUOUS
 10
2.7154026566
 20
16.2775608586
 11
-1.2516138095
 21
14.4454611921
  0
LWPOLYLINE
  5
303
100
AcDbEntity
  8
C_CONTATTO_DX
100
AcDbPolyline
 62
7
  6
CONTINUOUS
 90
11
 70
0
 10
7.2470515674
 20
16.4333251643
 10
7.2590551829
 20
16.4387472313
 10
7.2708773963
 20
16.4429055092
 10
7.2825182075
 20
16.4457999979
 10
7.294096684
 20
16.4474343182
 10
7.3054937584
 20
16.4478048492
 10
7.3163522289
 20
16.4469007295
 10
7.3265953823
 20
16.4446896174
 10
7.3362999317
 20
16.4412038545
 10
7.3453388145
 20
16.4365296038
 10
7.3526414751
 20
16.4315082374
  0
LWPOLYLINE
  5
304
100
AcDbEntity
  8
ASSI
100
AcDbPolyline
 62
250
  6
CONTINUOUS
 90
4
 70
0
 10
7.1355226659
 20
16.0185095094
 10
7.1875575869
 20
16.0403735195
 10
7.2385274228
 20
16.0627363758
 10
7.2884621654
 20
16.0856127638
  0
LWPOLYLINE
  5
305
100
AcDbEntity
  8
ASSI
100
AcDbPolyline
 62
250
  6
CONTINUOUS
 90
16
 70
0
 10
11.1034498554
 20
17.9983765686
 10
11.1085395496
 20
18.0004129498
 10
11.1137813892
 20
18.0021008587
 10
11.1191653943
 20
18.0034370815
 10
11.1246813146
 20
18.0044190743
 10
11.1303186483
 20
18.0050449674
 10
11.1360666628
 20
18.0053135691
 10
11.1419144145
 20
18.0052243679
 10
11.1478507701
 20
18.0047775336
 10
11.1538644275
 20
18.003973917
 10
11.1599439374
 20
18.0028150478
 10
11.1660777252
 20
18.0013031324
 10
11.1722541129
 20
17.9994410492
 10
11.1784613415
 20
17.9972323434
 10
11.1846875931
 20
17.99468122
 10
11.1909210138
 20
17.9917925359
  0
LINE
  5
306
100
AcDbEntity
  8
C_COPERCHIO
100
AcDbLine
 62
7
  6
CONTINUOUS
 10
-22.0643890461
 20
0.3825464201
 11
-22.4430361952
 21
0.6780161826
  0
LINE
  5
307
100
AcDbEntity
  8
C_COPERCHIO
100
AcDbLine
 62
7
  6
CONTINUOUS
 10
-13.8274065938
 20
-1.8292938943
 11
-14.7253519105
 21
-0.8768790604
  0
LWPOLYLINE
  5
308
100
AcDbEntity
  8
C_COPERCHIO
100
AcDbPolyline
 62
7
  6
CONTINUOUS
 90
42
 70
0
 10
-11.6006184009
 20
-7.8562086579
 10
-11.5986568074
 20
-7.8613114155
 10
-11.5962331515
 20
-7.8673004149
 10
-11.5936797018
 20
-7.873285799
 10
-11.590997442
 20
-7.8792648977
 10
-11.5881914123
 20
-7.8852385693
 10
-11.5852627047
 20
-7.8912045312
 10
-11.5822123074
 20
-7.8971602969
 10
-11.5790449444
 20
-7.9031065483
 10
-11.5757616728
 20
-7.9090411628
 10
-11.572363489
 20
-7.9149618145
 10
-11.5688548901
 20
-7.9208689851
 10
-11.5652369108
 20
-7.9267606895
 10
-11.5615105565
 20
-7.9326347497
 10
-11.5576801718
 20
-7.9384914436
 10
-11.5537467853
 20
-7.9443288994
 10
-11.5497114089
 20
-7.9501450836
 10
-11.545578275
 20
-7.9559401023
 10
-11.5413483902
 20
-7.961712221
 10
-11.5370227986
 20
-7.9674595063
 10
-11.5326057256
 20
-7.9731818252
 10
-11.5280981824
 20
-7.9788775499
 10
-11.5235012359
 20
-7.984544863
 10
-11.5188191581
 20
-7.9901834002
 10
-11.5140529686
 20
-7.9957916441
 10
-11.5092037687
 20
-8.0013678814
 10
-11.5042759403
 20
-8.0069115057
 10
-11.4992705207
 20
-8.012421109
 10
-11.4941886522
 20
-8.0178950811
 10
-11.4890348865
 20
-8.0233325643
 10
-11.4838102888
 20
-8.0287322624
 10
-11.4785160475
 20
-8.0340926699
 10
-11.4731569367
 20
-8.0394126759
 10
-11.4677340608
 20
-8.0446910984
 10
-11.4622486576
 20
-8.0499265441
 10
-11.4567057628
 20
-8.0551176541
 10
-11.4511065299
 20
-8.0602633589
 10
-11.4454522488
 20
-8.0653623943
 10
-11.4397482426
 20
-8.0704131933
 10
-11.433997157
 20
-8.0754145506
 10
-11.4281989109
 20
-8.0803656039
 10
-11.422354784
 20
-8.085265375
  0
LWPOLYLINE
  5
309
100
AcDbEntity
  8
C_COPERCHIO
100
AcDbPolyline
 62
7
  6
CONTINUOUS
 90
10
 70
0
 10
-14.246401937
 20
-0.6766801592
 10
-14.0247477093
 20
-1.2874069216
 10
-13.7142854784
 20
-2.1399177529
 10
-13.40276865
 20
-2.9919430562
 10
-13.0901980343
 20
-3.8434805924
 10
-12.7765744561
 20
-4.6945280827
 10
-12.4618987342
 20
-5.5450832642
 10
-12.1461716477
 20
-6.3951439813
 10
-11.8293939586
 20
-7.2447081236
 10
-11.6006180032
 20
-7.856208195
  0
LWPOLYLINE
  5
30A
100
AcDbEntity
  8
C_COPERCHIO
100
AcDbPolyline
 62
250
  6
CONTINUOUS
 90
10
 70
0
 10
-14.238171696
 20
-0.4382415761
 10
-13.9295035004
 20
-1.2898552149
 10
-13.6197844207
 20
-2.140988921
 10
-13.3090144004
 20
-2.9916403042
 10
-12.9971920344
 20
-3.8418081542
 10
-12.684318624
 20
-4.6914889048
 10
-12.3703981839
 20
-5.5406766371
 10
-12.055432033
 20
-6.3893677931
 10
-11.7394187868
 20
-7.2375611723
 10
-11.4223584168
 20
-8.0852543976
  0
LWPOLYLINE
  5
30B
100
AcDbEntity
  8
C_COPERCHIO
100
AcDbPolyline
 62
7
  6
CONTINUOUS
 90
42
 70
0
 10
-14.2464027672
 20
-0.6766799667
 10
-14.2479655536
 20
-0.6721754154
 10
-14.2494313373
 20
-0.6675689982
 10
-14.2507970107
 20
-0.6628698677
 10
-14.2520615262
 20
-0.6580808285
 10
-14.2532297797
 20
-0.6532038275
 10
-14.2543010833
 20
-0.6482414184
 10
-14.2552745187
 20
-0.6431962676
 10
-14.2561546073
 20
-0.6380702612
 10
-14.2569407392
 20
-0.6328658156
 10
-14.257632113
 20
-0.6275854793
 10
-14.2582329359
 20
-0.6222311473
 10
-14.2587426711
 20
-0.6168051227
 10
-14.2591606253
 20
-0.6113098491
 10
-14.259490751
 20
-0.6057472792
 10
-14.2597325827
 20
-0.6001196314
 10
-14.2598855292
 20
-0.5944292479
 10
-14.2599533408
 20
-0.5886781452
 10
-14.2599356242
 20
-0.5828684331
 10
-14.2598318832
 20
-0.5770023991
 10
-14.2596457122
 20
-0.5710822325
 10
-14.2593767921
 20
-0.5651099727
 10
-14.2590247234
 20
-0.5590878395
 10
-14.2585929919
 20
-0.5530182262
 10
-14.2580813581
 20
-0.5469031034
 10
-14.2574895202
 20
-0.5407446404
 10
-14.2568208997
 20
-0.534545484
 10
-14.256075344
 20
-0.5283075434
 10
-14.2552526522
 20
-0.5220329441
 10
-14.2543562243
 20
-0.5157246332
 10
-14.253386003
 20
-0.5093844647
 10
-14.2523418942
 20
-0.5030145234
 10
-14.2512273146
 20
-0.4966180944
 10
-14.2500423139
 20
-0.4901969823
 10
-14.2487869104
 20
-0.4837532297
 10
-14.247464571
 20
-0.4772904829
 10
-14.2460754656
 20
-0.4708105013
 10
-14.2446197309
 20
-0.4643152791
 10
-14.2431009056
 20
-0.4578088271
 10
-14.2415203794
 20
-0.451293712
 10
-14.2398773401
 20
-0.444771026
 10
-14.23817211
 20
-0.4382425534
  0
LWPOLYLINE
  5
30C
100
AcDbEntity
  8
C_COPERCHIO
100
AcDbPolyline
 62
250
  6
CONTINUOUS
 90
52
 70
0
 10
-9.643526851
 20
-26.1102822607
 10
-9.6427685133
 20
-26.1271860973
 10
-9.6416311619
 20
-26.1438535244
 10
-9.6401147969
 20
-26.1602845419
 10
-9.6382178057
 20
-26.1764908022
 10
-9.6359418008
 20
-26.1924606529
 10
-9.6332916202
 20
-26.2081591372
 10
-9.6302664699
 20
-26.2235853668
 10
-9.6268671439
 20
-26.2387402299
 10
-9.6231008613
 20
-26.2535914352
 10
-9.6189668462
 20
-26.2681382873
 10
-9.6144658746
 20
-26.2823814814
 10
-9.6096074932
 20
-26.2962908114
 10
-9.6043909592
 20
-26.3098655448
 10
-9.5988170155
 20
-26.323106414
 10
-9.592897438
 20
-26.3359854106
 10
-9.5866314734
 20
-26.3485018119
 10
-9.5800198751
 20
-26.3606563405
 10
-9.5730766793
 20
-26.3724231557
 10
-9.5658011902
 20
-26.3838014147
 10
-9.5581941036
 20
-26.3947919602
 10
-9.5502715427
 20
-26.4053714798
 10
-9.542032829
 20
-26.4155391092
 10
-9.5334786411
 20
-26.4252957127
 10
-9.5246271371
 20
-26.4346205702
 10
-9.5154777074
 20
-26.443512747
 10
-9.5060309617
 20
-26.4519731778
 10
-9.4963068873
 20
-26.4599839474
 10
-9.4863048757
 20
-26.4675441204
 10
-9.4760255355
 20
-26.4746546321
 10
-9.4654906794
 20
-26.4813003733
 10
-9.454699773
 20
-26.4874803511
 10
-9.4436533509
 20
-26.4931955582
 10
-9.4323748297
 20
-26.4984338642
 10
-9.4208636955
 20
-26.5031942618
 10
-9.4091204622
 20
-26.5074777581
 10
-9.3971700897
 20
-26.5112752448
 10
-9.3850121788
 20
-26.5145856787
 10
-9.3726471285
 20
-26.5174101029
 10
-9.3601010957
 20
-26.5197425383
 10
-9.3473736738
 20
-26.5215819511
 10
-9.3344652693
 20
-26.5229293751
 10
-9.3214032582
 20
-26.523781932
 10
-9.3081872686
 20
-26.5241385591
 10
-9.2948176725
 20
-26.524000319
 10
-9.2813229616
 20
-26.5233675216
 10
-9.2677024908
 20
-26.5222390033
 10
-9.2539569052
 20
-26.5206159276
 10
-9.2401166315
 20
-26.5185020952
 10
-9.2261918119
 20
-26.515898773
 10
-9.2121723042
 20
-26.5128046941
 10
-9.1980581084
 20
-26.5092198585
  0
LINE
  5
30D
100
AcDbEntity
  8
C_COPERCHIO
100
AcDbLine
 62
7
  6
CONTINUOUS
 10
-10.6232683456
 20
20.7014725314
 11
-10.6232683456
 21
21.1088316689
  0
LINE
  5
30E
100
AcDbEntity
  8
C_COPERCHIO
100
AcDbLine
 62
7
  6
CONTINUOUS
 10
-9.0493244122
 20
20.3218597022
 11
-9.0493244122
 21
19.9996441786
  0
LINE
  5
30F
100
AcDbEntity
  8
C_COPERCHIO
100
AcDbLine
 62
7
  6
CONTINUOUS
 10
-8.6084522051
 20
21.5187385104
 11
-8.6084522051
 21
21.1899051126
  0
LINE
  5
310
100
AcDbEntity
  8
C_COPERCHIO
100
AcDbLine
 62
7
  6
CONTINUOUS
 10
-8.5544494698
 20
12.3438002838
 11
-8.5544494698
 21
13.0218043149
  0
LWPOLYLINE
  5
311
100
AcDbEntity
  8
C_COPERCHIO
100
AcDbPolyline
 62
250
  6
CONTINUOUS
 90
28
 70
0
 10
-9.9938305458
 20
2.9207233648
 10
-10.0277785456
 20
1.8293495168
 10
-10.059116268
 20
0.7391212088
 10
-10.0878434497
 20
-0.3499522437
 10
-10.1139598532
 20
-1.4378615323
 10
-10.1374652557
 20
-2.5245973642
 10
-10.1583594499
 20
-3.6101504627
 10
-10.1766422591
 20
-4.6945115539
 10
-10.192313531
 20
-5.777671372
 10
-10.2053731273
 20
-6.8596206673
 10
-10.2158209371
 20
-7.9403501957
 10
-10.2236568741
 20
-9.0198507247
 10
-10.228880869
 20
-10.0981130379
 10
-10.2314928768
 20
-11.175127924
 10
-10.2314928768
 20
-12.2508861821
 10
-10.228880869
 20
-13.3253786285
 10
-10.2236568741
 20
-14.3985960854
 10
-10.2158209371
 20
-15.4705293841
 10
-10.2053731273
 20
-16.5411693705
 10
-10.192313531
 20
-17.610506901
 10
-10.1766422591
 20
-18.6785328398
 10
-10.1583594499
 20
-19.745238062
 10
-10.1374652557
 20
-20.8106134562
 10
-10.1139598532
 20
-21.874649923
 10
-10.0878434497
 20
-22.9373383723
 10
-10.059116268
 20
-23.9986697272
 10
-10.0277785456
 20
-25.0586349239
 10
-9.9938305458
 20
-26.1172249098
  0
LWPOLYLINE
  5
312
100
AcDbEntity
  8
C_COPERCHIO
100
AcDbPolyline
 62
250
  6
CONTINUOUS
 90
28
 70
0
 10
-9.643526851
 20
2.9105848678
 10
-9.6774556219
 20
1.81983781
 10
-9.7087751364
 20
0.7302541695
 10
-9.7374853943
 20
-0.3581660539
 10
-9.7635865966
 20
-1.4454321502
 10
-9.7870785425
 20
-2.5315348292
 10
-9.8079606288
 20
-3.616446221
 10
-9.8262327884
 20
-4.7001662826
 10
-9.8418950884
 20
-5.7826950569
 10
-9.8549471276
 20
-6.8640048025
 10
-9.8653888392
 20
-7.9440954871
 10
-9.8732202901
 20
-9.022967143
 10
-9.8784412797
 20
-10.1005921258
 10
-9.8810517411
 20
-11.176970403
 10
-9.8810517412
 20
-12.252102007
 10
-9.8784412801
 20
-13.3259593911
 10
-9.8732202907
 20
-14.398542523
 10
-9.8653888401
 20
-15.4698514348
 10
-9.8549471287
 20
-16.5398586759
 10
-9.8418950897
 20
-17.6085642139
 10
-9.82623279
 20
-18.6759680811
 10
-9.8079606307
 20
-19.7420429235
 10
-9.7870785447
 20
-20.8067887153
 10
-9.7635865993
 20
-21.8702054823
 10
-9.7374853969
 20
-22.9322659481
 10
-9.7087751385
 20
-23.9929610203
 10
-9.6774556232
 20
-25.0522997912
 10
-9.643526851
 20
-26.1102822607
  0
LWPOLYLINE
  5
313
100
AcDbEntity
  8
C_MOLLA_IDEA
100
AcDbPolyline
 62
7
  6
CONTINUOUS
 90
19
 70
0
 10
-7.6534198647
 20
14.9168804891
 10
-7.6514181718
 20
14.9713696296
 10
-7.64579622
 20
15.0264808414
 10
-7.6365540092
 20
15.0822141245
 10
-7.6235667315
 20
15.1390009141
 10
-7.6069591949
 20
15.196409775
 10
-7.5871058228
 20
15.2531464014
 10
-7.5639328826
 20
15.3091955227
 10
-7.537514107
 20
15.3645724094
 10
-7.5084451178
 20
15.4180285675
 10
-7.4766657126
 20
15.4695203655
 10
-7.4422360939
 20
15.5190914348
 10
-7.4059324912
 20
15.5656241758
 10
-7.367712335
 20
15.6090495695
 10
-7.3276181948
 20
15.649436635
 10
-7.2865540092
 20
15.6858748295
 10
-7.2448210908
 20
15.7180606389
 10
-7.2021181271
 20
15.7462975775
 10
-7.1584451178
 20
15.7705856452
  0
LINE
  5
314
100
AcDbEntity
  8
C_MOLLA_IDEA
100
AcDbLine
 62
7
  6
CONTINUOUS
 10
-9.3609213686
 20
13.8797945743
 11
-9.2557045302
 21
15.3001059375
  0
LINE
  5
315
100
AcDbEntity
  8
C_MOLLA_IDEA
100
AcDbLine
 62
7
  6
CONTINUOUS
 10
-9.0786241468
 20
14.013852408
 11
-8.9817720512
 21
15.3212489613
  0
LWPOLYLINE
  5
316
100
AcDbEntity
  8
C_MOLLA_IDEA
100
AcDbPolyline
 62
7
  6
CONTINUOUS
 90
14
 70
0
 10
-9.2557045302
 20
15.3001059375
 10
-9.2546607487
 20
15.3102802035
 10
-9.2530980634
 20
15.3200172769
 10
-9.2510164743
 20
15.3293171578
 10
-9.2484040965
 20
15.3382119474
 10
-9.245272815
 20
15.3466695444
 10
-9.2416582844
 20
15.3545936454
 10
-9.2375549812
 20
15.3619781526
 10
-9.232968429
 20
15.3688291637
 10
-9.2279508531
 20
15.375068669
 10
-9.2224973268
 20
15.3806896789
 10
-9.2166127769
 20
15.3856991829
 10
-9.2103642084
 20
15.3900401397
 10
-9.204254493
 20
15.3934587303
  0
LINE
  5
317
100
AcDbEntity
  8
C_MOLLA_IDEA
100
AcDbLine
 62
250
  6
CONTINUOUS
 10
-6.7293245816
 20
15.6260198617
 11
-6.6419213767
 21
15.9991771056
  0
LINE
  5
318
100
AcDbEntity
  8
C_MOLLA_IDEA
100
AcDbLine
 62
250
  6
CONTINUOUS
 10
-5.4341747752
 20
16.8461559361
 11
-5.4546060347
 21
16.7589271839
  0
LWPOLYLINE
  5
319
100
AcDbEntity
  8
C_CONTATTO_SX
100
AcDbPolyline
 62
250
  6
CONTINUOUS
 90
13
 70
0
 10
-3.9232197905
 20
19.515283892
 10
-3.9185356169
 20
19.5342572322
 10
-3.8991489883
 20
19.5896727236
 10
-3.8741519731
 20
19.6445242731
 10
-3.8435876511
 20
19.6988158694
 10
-3.8076902595
 20
19.7521322718
 10
-3.7664183959
 20
19.8044659463
 10
-3.7198134627
 20
19.8558244268
 10
-3.6682339033
 20
19.9058150741
 10
-3.6116460203
 20
19.954424843
 10
-3.5500835112
 20
20.0016667786
 10
-3.484005912
 20
20.0471873778
 10
-3.4133795677
 20
20.0909751778
  0
LWPOLYLINE
  5
31A
100
AcDbEntity
  8
C_MOLLA_IDEA
100
AcDbPolyline
 62
7
  6
CONTINUOUS
 90
12
 70
0
 10
-5.3739450366
 20
16.7868175049
 10
-5.3746063975
 20
16.7846832853
 10
-5.3763628863
 20
16.781261674
 10
-5.3789510525
 20
16.7780613444
 10
-5.3823603772
 20
16.7750794978
 10
-5.3865473733
 20
16.7723541687
 10
-5.3915220026
 20
16.769888643
 10
-5.3972743033
 20
16.7676796348
 10
-5.4037309028
 20
16.7657553207
 10
-5.4108673435
 20
16.7641250931
 10
-5.418708083
 20
16.7627795596
 10
-5.4272531213
 20
16.7617187202
  0
LWPOLYLINE
  5
31B
100
AcDbEntity
  8
C_MOLLA_IDEA
100
AcDbPolyline
 62
7
  6
CONTINUOUS
 90
12
 70
0
 10
-3.5063642551
 20
17.257387662
 10
-3.5057028942
 20
17.2595218816
 10
-3.5039464054
 20
17.2629434929
 10
-3.5013582393
 20
17.2661438225
 10
-3.4979489145
 20
17.2691256691
 10
-3.4937619185
 20
17.2718509982
 10
-3.4887872892
 20
17.2743165239
 10
-3.4830349885
 20
17.2765255321
 10
-3.476578389
 20
17.2784498462
 10
-3.4694419483
 20
17.2800800738
 10
-3.4616012087
 20
17.2814256073
 10
-3.4530561704
 20
17.2824864467
  0
LINE
  5
31C
100
AcDbEntity
  8
C_CONTATTO_DX
100
AcDbLine
 62
7
  6
CONTINUOUS
 10
4.6223449092
 20
15.8420252258
 11
4.5894144316
 21
15.8116133776
  0
LWPOLYLINE
  5
31D
100
AcDbEntity
  8
C_COPERCHIO
100
AcDbPolyline
 62
250
  6
CONTINUOUS
 90
52
 70
0
 10
-9.402419652
 20
4.0274927624
 10
-9.4211438789
 20
4.0140703598
 10
-9.4397662146
 20
4.0000966623
 10
-9.458273652
 20
3.9855816675
 10
-9.4766533146
 20
3.970535936
 10
-9.4948923191
 20
3.9549700476
 10
-9.5129777753
 20
3.9388945612
 10
-9.5308972131
 20
3.9223207647
 10
-9.5486379391
 20
3.9052606162
 10
-9.5661868986
 20
3.8877261921
 10
-9.5835317747
 20
3.8697300409
 10
-9.6006605113
 20
3.851284935
 10
-9.6175606647
 20
3.8324037905
 10
-9.6342203899
 20
3.8131000913
 10
-9.6506280932
 20
3.7933875459
 10
-9.6667719551
 20
3.7732798472
 10
-9.6826407426
 20
3.7527912246
 10
-9.6982233201
 20
3.7319363224
 10
-9.7135083028
 20
3.7107298567
 10
-9.7284849817
 20
3.6891869427
 10
-9.7431429314
 20
3.667322868
 10
-9.7574715202
 20
3.6451529658
 10
-9.7714607431
 20
3.622692971
 10
-9.7851008273
 20
3.5999588696
 10
-9.7983818456
 20
3.5769666774
 10
-9.811294488
 20
3.5537327767
 10
-9.8238297784
 20
3.5302736288
 10
-9.8359786749
 20
3.5066056202
 10
-9.8477327049
 20
3.4827455012
 10
-9.8590836426
 20
3.4587102672
 10
-9.8700232278
 20
3.4345168713
 10
-9.8805438007
 20
3.4101825026
 10
-9.8906380364
 20
3.3857244162
 10
-9.9002986174
 20
3.3611598109
 10
-9.9095187999
 20
3.3365060691
 10
-9.9182921412
 20
3.3117807275
 10
-9.9266122405
 20
3.2870013087
 10
-9.9344732552
 20
3.262185466
 10
-9.9418697437
 20
3.2373507196
 10
-9.9487963853
 20
3.2125144274
 10
-9.9552483403
 20
3.1876941423
 10
-9.9612211006
 20
3.1629075135
 10
-9.9667103311
 20
3.1381720233
 10
-9.9717121984
 20
3.1135051172
 10
-9.9762232035
 20
3.0889243594
 10
-9.9802400362
 20
3.0644473318
 10
-9.9837598591
 20
3.0400915957
 10
-9.9867802809
 20
3.015874172
 10
-9.9892991661
 20
2.9918117046
 10
-9.9913147238
 20
2.9679210714
 10
-9.9928255406
 20
2.9442193626
 10
-9.9938305458
 20
2.9207233648
  0
LWPOLYLINE
  5
31E
100
AcDbEntity
  8
C_COPERCHIO
100
AcDbPolyline
 62
250
  6
CONTINUOUS
 90
52
 70
0
 10
-9.1980581084
 20
3.7397066298
 10
-9.2121737829
 20
3.729660405
 10
-9.2261944019
 20
3.7192151177
 10
-9.2401199652
 20
3.7083707677
 10
-9.2539604938
 20
3.6971189134
 10
-9.2677059667
 20
3.6854679966
 10
-9.2813263216
 20
3.6734433427
 10
-9.294821034
 20
3.6610443252
 10
-9.3081906284
 20
3.6482715706
 10
-9.3214066155
 20
3.6351522838
 10
-9.3344686258
 20
3.6216857603
 10
-9.3473770288
 20
3.6078727045
 10
-9.3601044441
 20
3.593742435
 10
-9.3726504632
 20
3.5792943123
 10
-9.3850154945
 20
3.5645289759
 10
-9.3971733836
 20
3.5494776627
 10
-9.4091237321
 20
3.5341397144
 10
-9.4208669383
 20
3.5185157893
 10
-9.4323780429
 20
3.5026390987
 10
-9.4436565329
 20
3.4865091293
 10
-9.4547029213
 20
3.4701263943
 10
-9.4654937872
 20
3.4535256447
 10
-9.4760285958
 20
3.4367064029
 10
-9.486307882
 20
3.4196691464
 10
-9.4963098293
 20
3.4024500583
 10
-9.5060338271
 20
3.3850487937
 10
-9.515480486
 20
3.3674656975
 10
-9.5246298208
 20
3.3497379879
 10
-9.5334812206
 20
3.3318653217
 10
-9.5420352963
 20
3.3138480421
 10
-9.5502738954
 20
3.2957243961
 10
-9.5581963402
 20
3.2774941744
 10
-9.5658033085
 20
3.2591575864
 10
-9.5730786804
 20
3.2407535075
 10
-9.5800217616
 20
3.2222817643
 10
-9.5866332465
 20
3.2037425303
 10
-9.5928990987
 20
3.1851752011
 10
-9.5988185646
 20
3.166579781
 10
-9.6043923979
 20
3.1479562658
 10
-9.6096088223
 20
3.1293440385
 10
-9.6144670946
 20
3.1107430871
 10
-9.6189679581
 20
3.0921534236
 10
-9.6231018664
 20
3.0736144678
 10
-9.6268680433
 20
3.0551262713
 10
-9.630267265
 20
3.0366887825
 10
-9.6332923141
 20
3.0183412664
 10
-9.6359424032
 20
3.0000834507
 10
-9.6382183196
 20
2.9819156078
 10
-9.6401152081
 20
2.9638778198
 10
-9.6416314503
 20
2.9459834475
 10
-9.6427686646
 20
2.9282191302
 10
-9.643526851
 20
2.9105848678
  0
LINE
  5
31F
100
AcDbEntity
  8
C_COPERCHIO
100
AcDbLine
 62
250
  6
CONTINUOUS
 10
-6.9968470186
 20
5.699594519
 11
-9.402419652
 21
4.0274927624
  0
LINE
  5
320
100
AcDbEntity
  8
C_COPERCHIO
100
AcDbLine
 62
250
  6
CONTINUOUS
 10
-6.8205792126
 20
5.3922805671
 11
-9.1980581084
 21
3.7397066298
  0
LINE
  5
321
100
AcDbEntity
  8
C_COPERCHIO
100
AcDbLine
 62
7
  6
CONTINUOUS
 10
-22.4430361952
 20
0.6780161826
 11
-24.5308271991
 21
-0.3658793194
  0
LINE
  5
322
100
AcDbEntity
  8
C_COPERCHIO
100
AcDbLine
 62
7
  6
CONTINUOUS
 10
-24.5597635566
 20
-0.4127944246
 11
-25.2546352221
 21
-0.7602302573
  0
LINE
  5
323
100
AcDbEntity
  8
ASSI
100
AcDbLine
 62
250
  6
CONTINUOUS
 10
13.5003237242
 20
16.8370911807
 11
4.3880483609
 21
12.3173354239
  0
LINE
  5
324
100
AcDbEntity
  8
ASSI
100
AcDbLine
 62
250
  6
CONTINUOUS
 10
13.8538232669
 20
16.2273946574
 11
4.331916321
 21
11.5044586158
  0
LINE
  5
325
100
AcDbEntity
  8
C_COPERCHIO
100
AcDbLine
 62
7
  6
CONTINUOUS
 10
-25.2578908019
 20
-0.7618306211
 11
-25.2546352192
 21
-0.7602302558
  0
LINE
  5
326
100
AcDbEntity
  8
C_COPERCHIO
100
AcDbLine
 62
7
  6
CONTINUOUS
 10
-6.8205792126
 20
6.0444733178
 11
-7.0035805873
 21
5.9561121312
  0
LWPOLYLINE
  5
327
100
AcDbEntity
  8
C_COPERCHIO
100
AcDbPolyline
 62
7
  6
CONTINUOUS
 90
85
 70
0
 10
-25.2578908019
 20
-0.7618306211
 10
-25.2649972389
 20
-0.7651929848
 10
-25.2722663438
 20
-0.7684801064
 10
-25.2796906429
 20
-0.771694496
 10
-25.2872656455
 20
-0.7748426386
 10
-25.2949813697
 20
-0.7779234886
 10
-25.3028222534
 20
-0.7809285985
 10
-25.3107808542
 20
-0.7838610677
 10
-25.3188509239
 20
-0.7867243135
 10
-25.3270188608
 20
-0.7895106716
 10
-25.3352776829
 20
-0.7922234559
 10
-25.3436217361
 20
-0.7948665052
 10
-25.3520397213
 20
-0.7974329976
 10
-25.3605252678
 20
-0.799926336
 10
-25.3690732858
 20
-0.8023505605
 10
-25.3776747832
 20
-0.8046996498
 10
-25.3863240717
 20
-0.8069769962
 10
-25.3950165779
 20
-0.8091866666
 10
-25.4037453903
 20
-0.8113233459
 10
-25.4125055049
 20
-0.8133903419
 10
-25.4212928142
 20
-0.8153916261
 10
-25.4301021402
 20
-0.8173224763
 10
-25.4389291195
 20
-0.8191860683
 10
-25.447770062
 20
-0.8209862007
 10
-25.4566211447
 20
-0.8227186364
 10
-25.4654785892
 20
-0.8243863949
 10
-25.4743390651
 20
-0.8259930573
 10
-25.4831997134
 20
-0.8275347712
 10
-25.4920572115
 20
-0.8290143804
 10
-25.5009085992
 20
-0.8304352463
 10
-25.5097517989
 20
-0.8317938466
 10
-25.5185839419
 20
-0.833092858
 10
-25.5274023288
 20
-0.8343354063
 10
-25.5362053218
 20
-0.8355182244
 10
-25.5449904063
 20
-0.836643827
 10
-25.5537551414
 20
-0.8377151217
 10
-25.5624981411
 20
-0.8387290515
 10
-25.571217177
 20
-0.8396879809
 10
-25.5799100463
 20
-0.840594619
 10
-25.5885755051
 20
-0.8414460889
 10
-25.5972115684
 20
-0.8422446189
 10
-25.6058162396
 20
-0.8429927391
 10
-25.6143883313
 20
-0.8436877286
 10
-25.6229260666
 20
-0.8443316944
 10
-25.6314276282
 20
-0.8449270066
 10
-25.6398918176
 20
-0.8454710819
 10
-25.6483170399
 20
-0.84596592
 10
-25.6567016322
 20
-0.8464137502
 10
-25.6650443274
 20
-0.8468121117
 10
-25.6733436902
 20
-0.8471629111
 10
-25.6815981936
 20
-0.8474682545
 10
-25.6898064536
 20
-0.8477257936
 10
-25.6979671786
 20
-0.8479373547
 10
-25.7060789618
 20
-0.8481049376
 10
-25.7141402602
 20
-0.8482263001
 10
-25.7221499054
 20
-0.8483031996
 10
-25.7301066081
 20
-0.8483375466
 10
-25.738008655
 20
-0.848327202
 10
-25.745854977
 20
-0.848273865
 10
-25.7536444103
 20
-0.848179371
 10
-25.7613751108
 20
-0.8480416843
 10
-25.7690461474
 20
-0.8478624526
 10
-25.7766564306
 20
-0.8476434472
 10
-25.7842038954
 20
-0.8473827403
 10
-25.791687714
 20
-0.847081937
 10
-25.7991069032
 20
-0.846742756
 10
-25.8064591895
 20
-0.8463633845
 10
-25.8137438579
 20
-0.8459453906
 10
-25.8209600238
 20
-0.8454904506
 10
-25.8281051966
 20
-0.8449968775
 10
-25.8351787766
 20
-0.8444662072
 10
-25.8421799824
 20
-0.8439000818
 10
-25.8491061045
 20
-0.8432969553
 10
-25.8559566622
 20
-0.8426583343
 10
-25.8627309863
 20
-0.8419858331
 10
-25.8694261575
 20
-0.8412780655
 10
-25.8760418182
 20
-0.8405365097
 10
-25.882577424
 20
-0.8397627571
 10
-25.8890298716
 20
-0.8389555997
 10
-25.8953989326
 20
-0.8381164797
 10
-25.9016842014
 20
-0.8372469746
 10
-25.9078824302
 20
-0.8363460996
 10
-25.9139924416
 20
-0.8354145268
 10
-25.9200150826
 20
-0.8344545573
 10
-25.9259502344
 20
-0.8334676473
  0
LWPOLYLINE
  5
328
100
AcDbEntity
  8
C_COPERCHIO
100
AcDbPolyline
 62
7
  6
CONTINUOUS
 90
40
 70
0
 10
-7.0035805873
 20
5.9561121312
 10
-7.0108971855
 20
5.9527186263
 10
-7.018454678
 20
5.9494824423
 10
-7.0262530646
 20
5.9464035791
 10
-7.0343071464
 20
5.9434771646
 10
-7.0426021224
 20
5.940708071
 10
-7.0510935897
 20
5.9381109143
 10
-7.0597780884
 20
5.9356876492
 10
-7.0686590783
 20
5.9334363211
 10
-7.0777025364
 20
5.9313656819
 10
-7.0869155334
 20
5.9294753267
 10
-7.0962909985
 20
5.9277656603
 10
-7.1057736953
 20
5.9262466495
 10
-7.1153562344
 20
5.9249203009
 10
-7.1250460052
 20
5.9237846078
 10
-7.13480994
 20
5.9228435169
 10
-7.1446574846
 20
5.9220972174
 10
-7.1545791932
 20
5.9215455199
 10
-7.1645136598
 20
5.921191803
 10
-7.1744512237
 20
5.92103724
 10
-7.1844015457
 20
5.9210806576
 10
-7.1943322011
 20
5.9213219143
 10
-7.2042528082
 20
5.9217622675
 10
-7.2141537487
 20
5.9224004597
 10
-7.2239737441
 20
5.9232325772
 10
-7.2337033431
 20
5.924258727
 10
-7.243351997
 20
5.9254788019
 10
-7.2528867807
 20
5.9268885677
 10
-7.2623150125
 20
5.9284900951
 10
-7.271629374
 20
5.9302813133
 10
-7.2807749854
 20
5.9322517751
 10
-7.2897447908
 20
5.934401014
 10
-7.298545846
 20
5.9367294966
 10
-7.3071444384
 20
5.9392281752
 10
-7.3155439591
 20
5.9418990346
 10
-7.323741017
 20
5.9447400902
 10
-7.3316917262
 20
5.9477363405
 10
-7.339381458
 20
5.9508827851
 10
-7.3468248409
 20
5.9541844244
 10
-7.3540218752
 20
5.9576412586
  0
LWPOLYLINE
  5
329
100
AcDbEntity
  8
ASSI
100
AcDbPolyline
 62
7
  6
CONTINUOUS
 90
16
 70
0
 10
4.331916321
 20
-20.7810521245
 10
4.339166081
 20
-20.7916692876
 10
4.3459548845
 20
-20.8019923442
 10
4.352268411
 20
-20.8120352162
 10
4.3581018754
 20
-20.8218445348
 10
4.3634351397
 20
-20.8314017046
 10
4.3682395124
 20
-20.84062484
 10
4.3725079555
 20
-20.8495124513
 10
4.3762483501
 20
-20.8580979206
 10
4.3794632282
 20
-20.8663529492
 10
4.3821565686
 20
-20.8742881338
 10
4.3843340449
 20
-20.8819219619
 10
4.3860028781
 20
-20.8892372624
 10
4.3871717443
 20
-20.8962458594
 10
4.3878494437
 20
-20.9029619583
 10
4.3880483609
 20
-20.9088557979
  0
LWPOLYLINE
  5
32A
100
AcDbEntity
  8
C_COPERCHIO
100
AcDbPolyline
 62
250
  6
CONTINUOUS
 90
40
 70
0
 10
-9.1980581084
 20
3.7397066298
 10
-9.1994532228
 20
3.7477422633
 10
-9.201126682
 20
3.7559101975
 10
-9.2030757819
 20
3.7641972352
 10
-9.2052973734
 20
3.7725899864
 10
-9.2077878668
 20
3.7810748907
 10
-9.2105432382
 20
3.7896382385
 10
-9.2135590357
 20
3.7982661935
 10
-9.2168303863
 20
3.8069448152
 10
-9.2203520044
 20
3.815660081
 10
-9.2241182
 20
3.8243979093
 10
-9.2281228879
 20
3.8331441819
 10
-9.2323595974
 20
3.8418847669
 10
-9.2368214831
 20
3.8506055418
 10
-9.2415013357
 20
3.859292416
 10
-9.2463915938
 20
3.8679313536
 10
-9.2514843558
 20
3.8765083962
 10
-9.2567713931
 20
3.8850096855
 10
-9.2622441633
 20
3.8934214855
 10
-9.2678938236
 20
3.9017302048
 10
-9.2737112456
 20
3.9099224186
 10
-9.2796870299
 20
3.9179848902
 10
-9.285811521
 20
3.9259045928
 10
-9.2920748233
 20
3.9336687301
 10
-9.2984668168
 20
3.9412647571
 10
-9.3049771736
 20
3.9486804005
 10
-9.3115953747
 20
3.9559036785
 10
-9.3183107267
 20
3.9629229201
 10
-9.3251123792
 20
3.9697267839
 10
-9.3319893424
 20
3.9763042766
 10
-9.3389305049
 20
3.9826447705
 10
-9.3459246514
 20
3.988738021
 10
-9.3529604813
 20
3.9945741828
 10
-9.3600266262
 20
4.0001438263
 10
-9.3671116691
 20
4.0054379522
 10
-9.3742041623
 20
4.0104480066
 10
-9.3812926461
 20
4.0151658944
 10
-9.3883656672
 20
4.0195839926
 10
-9.3954117974
 20
4.0236951628
 10
-9.402419652
 20
4.0274927624
  0
LWPOLYLINE
  5
32B
100
AcDbEntity
  8
C_COPERCHIO
100
AcDbPolyline
 62
250
  6
CONTINUOUS
 90
84
 70
0
 10
-4.895149071
 20
-28.7475753384
 10
-4.8943824249
 20
-28.760470403
 10
-4.8928258828
 20
-28.7739423023
 10
-4.8905159468
 20
-28.7873871108
 10
-4.8874544271
 20
-28.8007943182
 10
-4.8836437154
 20
-28.8141534498
 10
-4.8790867879
 20
-28.8274540598
 10
-4.8737872165
 20
-28.8406857113
 10
-4.8677491639
 20
-28.8538380121
 10
-4.8609773731
 20
-28.8669006405
 10
-4.8534771423
 20
-28.8798633852
 10
-4.8452543276
 20
-28.892716125
 10
-4.836315351
 20
-28.9054488136
 10
-4.826667225
 20
-28.9180514552
 10
-4.816317532
 20
-28.9305141455
 10
-4.8052744012
 20
-28.942827102
 10
-4.7935464678
 20
-28.9549807025
 10
-4.7811428874
 20
-28.966965459
 10
-4.7680733493
 20
-28.9787720042
 10
-4.7543481094
 20
-28.9903910679
 10
-4.7399779554
 20
-29.0018135179
 10
-4.7249741739
 20
-29.0130303878
 10
-4.709348494
 20
-29.0240329133
 10
-4.6931131119
 20
-29.0348125068
 10
-4.6762807102
 20
-29.0453607432
 10
-4.6588645006
 20
-29.0556693389
 10
-4.6408781738
 20
-29.0657301907
 10
-4.6223358555
 20
-29.0755354008
 10
-4.6032520391
 20
-29.0850773093
 10
-4.5836416192
 20
-29.0943484686
 10
-4.5635199161
 20
-29.1033416323
 10
-4.542902725
 20
-29.1120497373
 10
-4.5218062526
 20
-29.1204659384
 10
-4.5002470661
 20
-29.1285836297
 10
-4.4782420155
 20
-29.1363964698
 10
-4.4558082761
 20
-29.1438983609
 10
-4.4329633763
 20
-29.1510834381
 10
-4.409725249
 20
-29.1579460584
 10
-4.386112159
 20
-29.1644808277
 10
-4.3621426463
 20
-29.1706826182
 10
-4.3378354457
 20
-29.1765465851
 10
-4.3132095331
 20
-29.1820681508
 10
-4.2882841525
 20
-29.1872429976
 10
-4.2630788693
 20
-29.1920670609
 10
-4.2376134923
 20
-29.1965365495
 10
-4.211908013
 20
-29.2006479571
 10
-4.185982524
 20
-29.2043980728
 10
-4.1598572676
 20
-29.2077839685
 10
-4.133552666
 20
-29.2108029951
 10
-4.1070893628
 20
-29.2134527811
 10
-4.0804881427
 20
-29.2157312452
 10
-4.0537698796
 20
-29.2176366013
 10
-4.0269554651
 20
-29.2191673615
 10
-4.0000658481
 20
-29.2203223298
 10
-3.9731220495
 20
-29.2211006011
 10
-3.9461452149
 20
-29.2215015627
 10
-3.9191565437
 20
-29.2215248996
 10
-3.8921772184
 20
-29.2211705961
 10
-3.8652283288
 20
-29.2204389316
 10
-3.8383309241
 20
-29.2193304782
 10
-3.8115060511
 20
-29.2178461017
 10
-3.7847747433
 20
-29.2159869649
 10
-3.7581579456
 20
-29.2137545238
 10
-3.7316765134
 20
-29.2111505271
 10
-3.7053511827
 20
-29.2081770134
 10
-3.6792025608
 20
-29.2048363095
 10
-3.6532510895
 20
-29.2011310249
 10
-3.6275171383
 20
-29.1970640659
 10
-3.6020209724
 20
-29.1926386364
 10
-3.5767826278
 20
-29.1878582195
 10
-3.5518218017
 20
-29.1827265517
 10
-3.5271579487
 20
-29.1772476342
 10
-3.5028103736
 20
-29.1714257543
 10
-3.4787981627
 20
-29.1652654747
 10
-3.455140076
 20
-29.1587716061
 10
-3.4318545503
 20
-29.151949203
 10
-3.4089599283
 20
-29.1448036333
 10
-3.3864743814
 20
-29.1373405718
 10
-3.3644157294
 20
-29.1295659505
 10
-3.3428010142
 20
-29.1214857935
 10
-3.3216467509
 20
-29.113106272
 10
-3.3009693936
 20
-29.1044338826
 10
-3.2807852932
 20
-29.0954754613
 10
-3.2611102771
 20
-29.0862380156
  0
LWPOLYLINE
  5
32C
100
AcDbEntity
  8
C_COPERCHIO
100
AcDbPolyline
 62
7
  6
CONTINUOUS
 90
82
 70
0
 10
-4.8953035481
 20
-28.7394010714
 10
-4.8949975041
 20
-28.7555956137
 10
-4.894076928
 20
-28.7718105648
 10
-4.892538874
 20
-28.7880274046
 10
-4.8903832454
 20
-28.8042152778
 10
-4.8876081101
 20
-28.820368068
 10
-4.8842049301
 20
-28.8365043342
 10
-4.8801822579
 20
-28.8525614504
 10
-4.8755290147
 20
-28.868565979
 10
-4.8701846848
 20
-28.8846668875
 10
-4.8640843442
 20
-28.9009544216
 10
-4.8572443656
 20
-28.9172901213
 10
-4.8497277499
 20
-28.9334830403
 10
-4.8415982289
 20
-28.9494018146
 10
-4.8328056312
 20
-28.9651503787
 10
-4.8232400279
 20
-28.980892525
 10
-4.8128249946
 20
-28.9966901136
 10
-4.8015923978
 20
-29.0124344358
 10
-4.7895808201
 20
-29.0280324106
 10
-4.7767976039
 20
-29.04344787
 10
-4.7632171231
 20
-29.0586861679
 10
-4.7488357214
 20
-29.0737254004
 10
-4.7336247123
 20
-29.0885691555
 10
-4.7175899368
 20
-29.1031859139
 10
-4.7007850308
 20
-29.1175088226
 10
-4.6831932505
 20
-29.1315387214
 10
-4.6648198567
 20
-29.1452577199
 10
-4.6457679386
 20
-29.1585833267
 10
-4.6260282808
 20
-29.171522267
 10
-4.6056162961
 20
-29.1840637493
 10
-4.5846970837
 20
-29.1961147004
 10
-4.5633428974
 20
-29.2076524075
 10
-4.5415154431
 20
-29.2187147251
 10
-4.5192302524
 20
-29.2293066036
 10
-4.4964587197
 20
-29.239451254
 10
-4.4732571981
 20
-29.249132055
 10
-4.4497815711
 20
-29.2582988294
 10
-4.4261266631
 20
-29.2669363289
 10
-4.4022451515
 20
-29.2750821495
 10
-4.3780883094
 20
-29.282766945
 10
-4.3536379832
 20
-29.2900059856
 10
-4.3289480508
 20
-29.2967920377
 10
-4.3040799725
 20
-29.3031186771
 10
-4.2790816156
 20
-29.308985579
 10
-4.2539452589
 20
-29.3144056873
 10
-4.2286520842
 20
-29.3193916866
 10
-4.2032120751
 20
-29.3239484246
 10
-4.1776513591
 20
-29.3280775563
 10
-4.1519759588
 20
-29.3317839048
 10
-4.1262035773
 20
-29.3350699947
 10
-4.1003517783
 20
-29.3379382873
 10
-4.0744273087
 20
-29.3403921141
 10
-4.0484510663
 20
-29.3424330712
 10
-4.0224366694
 20
-29.3440633485
 10
-3.9963803996
 20
-29.3452855617
 10
-3.9702963156
 20
-29.3461005935
 10
-3.9442041364
 20
-29.3465090977
 10
-3.918108796
 20
-29.346511789
 10
-3.8920252193
 20
-29.3461088734
 10
-3.8659720331
 20
-29.3453005841
 10
-3.8399596486
 20
-29.3440868213
 10
-3.8140104953
 20
-29.3424679286
 10
-3.7881354769
 20
-29.3404436113
 10
-3.7623274441
 20
-29.3380113485
 10
-3.7365965678
 20
-29.3351691036
 10
-3.7109665135
 20
-29.3319161787
 10
-3.6854497531
 20
-29.3282505659
 10
-3.6600663043
 20
-29.3241711636
 10
-3.6348299933
 20
-29.3196758408
 10
-3.609742902
 20
-29.314759735
 10
-3.5848241289
 20
-29.3094205601
 10
-3.5600891487
 20
-29.3036551189
 10
-3.5355335518
 20
-29.2974546581
 10
-3.5111504511
 20
-29.2908077139
 10
-3.4869837252
 20
-29.2837158339
 10
-3.4631010485
 20
-29.2761901181
 10
-3.4395608843
 20
-29.2682425852
 10
-3.4163354271
 20
-29.2598567406
 10
-3.3933611804
 20
-29.2509973209
 10
-3.3706313004
 20
-29.2416442243
 10
-3.3481939894
 20
-29.2317984684
 10
-3.3260719443
 20
-29.2214508895
  0
LWPOLYLINE
  5
32D
100
AcDbEntity
  8
C_COPERCHIO
100
AcDbPolyline
 62
250
  6
CONTINUOUS
 90
24
 70
0
 10
-7.3540218752
 20
-29.4830737468
 10
-7.3538816584
 20
-29.4916252221
 10
-7.35346123
 20
-29.5000229208
 10
-7.3527612563
 20
-29.5082535206
 10
-7.3517828468
 20
-29.5163039667
 10
-7.3505275533
 20
-29.5241614851
 10
-7.3489973679
 20
-29.531813604
 10
-7.3471947187
 20
-29.5392481823
 10
-7.3451224651
 20
-29.5464534281
 10
-7.3427838949
 20
-29.5534179106
 10
-7.3401827179
 20
-29.5601305819
 10
-7.3373230608
 20
-29.5665807931
 10
-7.3342094612
 20
-29.5727583104
 10
-7.3308468587
 20
-29.5786533343
 10
-7.327240588
 20
-29.5842565135
 10
-7.3233963709
 20
-29.5895589587
 10
-7.3193203062
 20
-29.5945522592
 10
-7.3150188605
 20
-29.599228494
 10
-7.3104988594
 20
-29.6035802443
 10
-7.3057674742
 20
-29.6076006072
 10
-7.3008322108
 20
-29.6112832062
 10
-7.2957008987
 20
-29.6146222005
 10
-7.2903816773
 20
-29.6176122949
 10
-7.2890485788
 20
-29.6182921969
  0
LINE
  5
32E
100
AcDbEntity
  8
C_COPERCHIO
100
AcDbLine
 62
250
  6
CONTINUOUS
 10
-7.7115602555
 20
20.509435034
 11
-7.7115602555
 21
20.0407649361
  0
LINE
  5
32F
100
AcDbEntity
  8
C_MOLLA_IDEA
100
AcDbLine
 62
7
  6
CONTINUOUS
 10
-7.6534198647
 20
14.657072868
 11
-7.6534198647
 21
14.9168804891
  0
LINE
  5
330
100
AcDbEntity
  8
C_COPERCHIO
100
AcDbLine
 62
7
  6
CONTINUOUS
 10
-7.4249520551
 20
20.5981535155
 11
-7.4249520551
 21
20.0703768626
  0
LINE
  5
331
100
AcDbEntity
  8
C_MOLLA_IDEA
100
AcDbLine
 62
7
  6
CONTINUOUS
 10
-7.3705771522
 20
14.7984942242
 11
-7.3705771522
 21
15.0583018454
  0
LINE
  5
332
100
AcDbEntity
  8
C_COPERCHIO
100
AcDbLine
 62
250
  6
CONTINUOUS
 10
-7.3540218752
 20
8.8358010816
 11
-7.3540218752
 21
5.9576412586
  0
LINE
  5
333
100
AcDbEntity
  8
C_COPERCHIO
100
AcDbLine
 62
250
  6
CONTINUOUS
 10
-7.3540218752
 20
-26.6049139237
 11
-7.3540218752
 21
-29.4830737468
  0
LINE
  5
334
100
AcDbEntity
  8
C_COPERCHIO
100
AcDbLine
 62
250
  6
CONTINUOUS
 10
-7.2146157682
 20
12.067679826
 11
-7.2146157682
 21
12.741562356
  0
LINE
  5
335
100
AcDbEntity
  8
C_MOLLA_IDEA
100
AcDbLine
 62
250
  6
CONTINUOUS
 10
-7.1584451178
 20
15.4241754837
 11
-7.1584451178
 21
15.7705856452
  0
LINE
  5
336
100
AcDbEntity
  8
ASSI
100
AcDbLine
 62
7
  6
CONTINUOUS
 10
-7.0170237616
 20
15.3717100646
 11
-7.0170237616
 21
15.0700912194
  0
LINE
  5
337
100
AcDbEntity
  8
C_COPERCHIO
100
AcDbLine
 62
250
  6
CONTINUOUS
 10
-7.0035805873
 20
8.8342719542
 11
-7.0035805873
 21
5.9561121312
  0
LINE
  5
338
100
AcDbEntity
  8
C_COPERCHIO
100
AcDbLine
 62
250
  6
CONTINUOUS
 10
-7.0035805873
 20
-26.6064430511
 11
-7.0035805873
 21
-29.4846028742
  0
LINE
  5
339
100
AcDbEntity
  8
C_COPERCHIO
100
AcDbLine
 62
7
  6
CONTINUOUS
 10
-6.8205792126
 20
6.0444733178
 11
-6.8205792126
 21
5.3922805671
  0
LINE
  5
33A
100
AcDbEntity
  8
C_COPERCHIO
100
AcDbLine
 62
7
  6
CONTINUOUS
 10
-6.8205792126
 20
-25.8658891137
 11
-6.8205792126
 21
-26.5180818645
  0
LINE
  5
33B
100
AcDbEntity
  8
C_MOLLA_IDEA
100
AcDbLine
 62
250
  6
CONTINUOUS
 10
-6.7948769852
 20
15.60595955
 11
-6.7948769852
 21
15.9523697115
  0
LWPOLYLINE
  5
33C
100
AcDbEntity
  8
C_MOLLA_IDEA
100
AcDbPolyline
 62
7
  6
CONTINUOUS
 90
16
 70
0
 10
-7.3705771522
 20
15.0583018454
 10
-7.3693106199
 20
15.086569974
 10
-7.365849793
 20
15.1150620442
 10
-7.3601946714
 20
15.1437780559
 10
-7.3522360165
 20
15.1730352053
 10
-7.3420830668
 20
15.2025162962
 10
-7.3300635387
 20
15.2312697403
 10
-7.3161165274
 20
15.259271795
 10
-7.3003029376
 20
15.2865462029
 10
-7.2831331992
 20
15.3122126026
 10
-7.2645630622
 20
15.3362185266
 10
-7.2446367767
 20
15.3586164424
 10
-7.2239975215
 20
15.3786833918
 10
-7.2028596898
 20
15.3961783888
 10
-7.1810088886
 20
15.4113424194
 10
-7.1584451178
 20
15.4241754837
  0
LINE
  5
33D
100
AcDbEntity
  8
C_MOLLA_IDEA
100
AcDbLine
 62
250
  6
CONTINUOUS
 10
-3.4530561704
 20
17.2824864467
 11
-3.4697412039
 21
17.2112517464
  0
LWPOLYLINE
  5
33E
100
AcDbEntity
  8
C_CONTATTO_DX
100
AcDbPolyline
 62
250
  6
CONTINUOUS
 90
8
 70
0
 10
3.2741102251
 20
16.2380068443
 10
3.3046494159
 20
16.2767312424
 10
3.3512543492
 20
16.3280897229
 10
3.4028339085
 20
16.3780803702
 10
3.4594217915
 20
16.4266901391
 10
3.5209843007
 20
16.4739320747
 10
3.5870618998
 20
16.5194526739
 10
3.6576882441
 20
16.5632404739
  0
LINE
  5
33F
100
AcDbEntity
  8
C_CONTATTO_DX
100
AcDbLine
 62
7
  6
CONTINUOUS
 10
6.0923449092
 20
15.8420252258
 11
6.1252753867
 21
15.8724370739
  0
LWPOLYLINE
  5
340
100
AcDbEntity
  8
ASSI
100
AcDbPolyline
 62
250
  6
CONTINUOUS
 90
23
 70
0
 10
4.6013099132
 20
8.8723335547
 10
4.6055485766
 20
8.8746918877
 10
4.6118859349
 20
8.8786768057
 10
4.6179787189
 20
8.8830815154
 10
4.623817048
 20
8.8878988735
 10
4.6293914541
 20
8.8931210681
 10
4.6346928973
 20
8.8987396302
 10
4.6397127803
 20
8.9047454484
 10
4.6444429624
 20
8.9111287831
 10
4.6488757727
 20
8.9178792827
 10
4.6530040225
 20
8.9249859998
 10
4.6568210171
 20
8.9324374096
 10
4.6603205664
 20
8.9402214284
 10
4.6634969953
 20
8.9483254328
 10
4.6663451525
 20
8.9567362807
 10
4.6688604191
 20
8.9654403324
 10
4.6710387162
 20
8.9744234725
 10
4.6728765113
 20
8.9836711334
 10
4.6743708239
 20
8.993168318
 10
4.6755192306
 20
9.002899625
 10
4.6763198692
 20
9.0128492733
 10
4.6767714412
 20
9.0230011275
 10
4.6768732143
 20
9.0333387246
  0
LWPOLYLINE
  5
341
100
AcDbEntity
  8
ASSI
100
AcDbPolyline
 62
250
  6
CONTINUOUS
 90
20
 70
0
 10
4.6768732143
 20
9.0333387246
 10
4.6642741326
 20
9.0264469426
 10
4.6516756031
 20
9.0190727744
 10
4.6390776258
 20
9.0112162198
 10
4.6264628028
 20
9.002868542
 10
4.6138485321
 20
8.9940384779
 10
4.6012870074
 20
8.9847522382
 10
4.588779215
 20
8.9750069145
 10
4.5763241687
 20
8.9648054151
 10
4.5639711034
 20
8.9541826757
 10
4.5517207931
 20
8.9431358031
 10
4.5395724638
 20
8.9316676904
 10
4.5275730285
 20
8.9198219524
 10
4.5157254996
 20
8.9075985478
 10
4.5040268646
 20
8.8949975179
 10
4.4925149993
 20
8.8820626011
 10
4.4811946142
 20
8.8687977768
 10
4.4700609987
 20
8.8551990656
 10
4.4591378973
 20
8.8412982673
 10
4.4484255379
 20
8.8270954751
  0
LWPOLYLINE
  5
342
100
AcDbEntity
  8
ASSI
100
AcDbPolyline
 62
7
  6
CONTINUOUS
 90
12
 70
0
 10
13.7784619562
 20
13.7237731807
 10
13.7850046167
 20
13.7273002812
 10
13.8236969748
 20
13.7510247667
 10
13.8588317459
 20
13.7777012058
 10
13.890340819
 20
13.8072180586
 10
13.9179980697
 20
13.8393140328
 10
13.9415141027
 20
13.8735342588
 10
13.9607999184
 20
13.9095676902
 10
13.975783274
 20
13.947118617
 10
13.9863495006
 20
13.9857187805
 10
13.9924453118
 20
14.0247946553
 10
13.9941533087
 20
14.0594951692
  0
LINE
  5
343
100
AcDbEntity
  8
ASSI
100
AcDbLine
 62
250
  6
CONTINUOUS
 10
13.8538232669
 20
13.8846711573
 11
4.6768732143
 21
9.0333387246
  0
LINE
  5
344
100
AcDbEntity
  8
ASSI
100
AcDbLine
 62
7
  6
CONTINUOUS
 10
13.778461987
 20
13.7237731226
 11
4.6012783544
 21
8.872316865
  0
LINE
  5
345
100
AcDbEntity
  8
ASSI
100
AcDbLine
 62
250
  6
CONTINUOUS
 10
15.0142087722
 20
15.2864103286
 11
13.9941533667
 21
14.7784008928
  0
LINE
  5
346
100
AcDbEntity
  8
ASSI
100
AcDbLine
 62
250
  6
CONTINUOUS
 10
13.9941533667
 20
14.3068989127
 11
15.2263327292
 21
14.9205506216
  0
LWPOLYLINE
  5
347
100
AcDbEntity
  8
C_COPERCHIO
100
AcDbPolyline
 62
250
  6
CONTINUOUS
 90
40
 70
0
 10
-9.643526851
 20
2.9105848678
 10
-9.650819879
 20
2.9075414166
 10
-9.6583768043
 20
2.9046454194
 10
-9.6661856401
 20
2.9019014696
 10
-9.674234
 20
2.8993139197
 10
-9.6825091179
 20
2.896886874
 10
-9.6909978677
 20
2.8946241824
 10
-9.6996867848
 20
2.8925294338
 10
-9.7085620868
 20
2.890605951
 10
-9.7176096959
 20
2.888856785
 10
-9.7268152606
 20
2.8872847102
 10
-9.7361641794
 20
2.8858922203
 10
-9.7456416229
 20
2.8846815241
 10
-9.7552325582
 20
2.8836545419
 10
-9.7649217722
 20
2.8828129027
 10
-9.7746938959
 20
2.8821579416
 10
-9.7845334288
 20
2.8816906974
 10
-9.7944247636
 20
2.8814119112
 10
-9.8043522108
 20
2.8813220254
 10
-9.8143000234
 20
2.8814211823
 10
-9.8242524224
 20
2.8817092249
 10
-9.8341936213
 20
2.8821856961
 10
-9.8441078515
 20
2.8828498402
 10
-9.8539793871
 20
2.8837006038
 10
-9.86379257
 20
2.8847366373
 10
-9.8735318346
 20
2.8859562975
 10
-9.8831817325
 20
2.8873576496
 10
-9.8927269571
 20
2.888938471
 10
-9.9021523679
 20
2.890696254
 10
-9.9114430144
 20
2.8926282106
 10
-9.9205841598
 20
2.8947312762
 10
-9.9295613045
 20
2.8970021151
 10
-9.938360209
 20
2.8994371252
 10
-9.9469669167
 20
2.9020324441
 10
-9.9553677755
 20
2.9047839551
 10
-9.9635494602
 20
2.9076872939
 10
-9.971498993
 20
2.9107378551
 10
-9.9792037644
 20
2.9139308001
 10
-9.9866515532
 20
2.9172610641
 10
-9.9938305457
 20
2.9207233648
  0
LWPOLYLINE
  5
348
100
AcDbEntity
  8
C_COPERCHIO
100
AcDbPolyline
 62
250
  6
CONTINUOUS
 90
4
 70
0
 10
-11.4223584168
 20
-8.0852543976
 10
-12.7135204492
 20
-8.3550477447
 10
-13.0360265824
 20
-8.4223457759
 10
-13.3584189741
 20
-8.489583515
  0
LWPOLYLINE
  5
349
100
AcDbEntity
  8
C_COPERCHIO
100
AcDbPolyline
 62
250
  6
CONTINUOUS
 90
85
 70
0
 10
-4.8953035481
 20
12.3968056084
 10
-4.8951843468
 20
12.3892246756
 10
-4.8943824232
 20
12.3757362576
 10
-4.89282588
 20
12.3622643577
 10
-4.8905159428
 20
12.3488195489
 10
-4.8874544219
 20
12.3354123414
 10
-4.883643709
 20
12.3220532095
 10
-4.8790867801
 20
12.3087525989
 10
-4.8737872071
 20
12.2955209465
 10
-4.8677491529
 20
12.2823686452
 10
-4.8609773608
 20
12.2693060168
 10
-4.8534771287
 20
12.2563432722
 10
-4.8452543126
 20
12.2434905324
 10
-4.8363153343
 20
12.2307578435
 10
-4.8266672065
 20
12.2181552013
 10
-4.8163175116
 20
12.2056925106
 10
-4.8052743792
 20
12.1933795541
 10
-4.7935464444
 20
12.1812259539
 10
-4.7811428625
 20
12.1692411974
 10
-4.7680733224
 20
12.1574346521
 10
-4.7543480804
 20
12.1458155881
 10
-4.7399779244
 20
12.1343931379
 10
-4.7249741411
 20
12.1231762682
 10
-4.7093484596
 20
12.112173743
 10
-4.6931130758
 20
12.1013941497
 10
-4.6762806722
 20
12.0908459134
 10
-4.6588644605
 20
12.0805373177
 10
-4.6408781315
 20
12.0704764661
 10
-4.6223358114
 20
12.0606712563
 10
-4.6032519933
 20
12.0511293482
 10
-4.5836415715
 20
12.0418581892
 10
-4.5635198665
 20
12.0328650259
 10
-4.5429026734
 20
12.0241569213
 10
-4.5218061991
 20
12.0157407206
 10
-4.5002470105
 20
12.0076230298
 10
-4.478241958
 20
11.9998101901
 10
-4.4558082167
 20
11.9923082996
 10
-4.4329633152
 20
11.985123223
 10
-4.4097251863
 20
11.9782606034
 10
-4.3861120946
 20
11.9717258348
 10
-4.3621425799
 20
11.965524045
 10
-4.3378353773
 20
11.9596600787
 10
-4.3132094627
 20
11.9541385138
 10
-4.2882840807
 20
11.9489636678
 10
-4.2630787963
 20
11.9441396055
 10
-4.2376134178
 20
11.9396701178
 10
-4.2119079365
 20
11.935558711
 10
-4.1859824452
 20
11.9318085962
 10
-4.159857187
 20
11.9284227014
 10
-4.1335525845
 20
11.9254036759
 10
-4.107089281
 20
11.922753891
 10
-4.0804880602
 20
11.9204754281
 10
-4.0537697957
 20
11.9185700731
 10
-4.0269553794
 20
11.917039314
 10
-4.0000657608
 20
11.9158843468
 10
-3.9731219614
 20
11.9151060767
 10
-3.9461451263
 20
11.9147051164
 10
-3.919156454
 20
11.9146817807
 10
-3.892177126
 20
11.9150360855
 10
-3.8652282332
 20
11.9157677514
 10
-3.8383308267
 20
11.9168762063
 10
-3.8115059546
 20
11.9183605841
 10
-3.784774649
 20
11.9202197221
 10
-3.7581578533
 20
11.9224521644
 10
-3.7316764228
 20
11.9250561623
 10
-3.7053510938
 20
11.9280296771
 10
-3.6792024723
 20
11.9313703822
 10
-3.653251
 20
11.9350756683
 10
-3.6275170467
 20
11.939142629
 10
-3.6020208777
 20
11.9435680606
 10
-3.5767825274
 20
11.9483484801
 10
-3.5518216946
 20
11.953480151
 10
-3.5271578387
 20
11.958959071
 10
-3.5028102678
 20
11.9647809517
 10
-3.4787980644
 20
11.9709412312
 10
-3.4551399827
 20
11.9774351002
 10
-3.4318544571
 20
11.984257505
 10
-3.408959833
 20
11.9914030772
 10
-3.3864742836
 20
11.9988661414
 10
-3.3644156248
 20
12.0066407673
 10
-3.3428009026
 20
12.0147209292
 10
-3.321646646
 20
12.0231004505
 10
-3.3009693126
 20
12.0317728321
 10
-3.2807852474
 20
12.0407312393
 10
-3.2611102771
 20
12.0499686642
  0
LWPOLYLINE
  5
34A
100
AcDbEntity
  8
ASSI
100
AcDbPolyline
 62
7
  6
CONTINUOUS
 90
8
 70
0
 10
-4.8172762933
 20
20.1620706346
 10
-4.8170981458
 20
20.1464199222
 10
-4.8156731048
 20
20.1151266081
 10
-4.8128237612
 20
20.0838576218
 10
-4.8085515917
 20
20.0526291679
 10
-4.8028588101
 20
20.0214574298
 10
-4.7957483668
 20
19.9903585618
 10
-4.7933324715
 20
19.9815700899
  0
LINE
  5
34B
100
AcDbEntity
  8
C_COPERCHIO
100
AcDbLine
 62
7
  6
CONTINUOUS
 10
-4.8953035481
 20
-28.7394010714
 11
-4.8953035481
 21
-28.6161827253
  0
LINE
  5
34C
100
AcDbEntity
  8
C_COPERCHIO
100
AcDbLine
 62
7
  6
CONTINUOUS
 10
-4.8953035481
 20
11.2731938203
 11
-4.8953035481
 21
12.3968056084
  0
LINE
  5
34D
100
AcDbEntity
  8
ASSI
100
AcDbLine
 62
250
  6
CONTINUOUS
 10
-4.0118199415
 20
21.1343424587
 11
-4.0118199415
 21
20.5052288352
  0
LINE
  5
34E
100
AcDbEntity
  8
C_COPERCHIO
100
AcDbLine
 62
7
  6
CONTINUOUS
 10
-3.4290881924
 20
17.5117415923
 11
-3.4290881924
 21
17.1895260688
  0
LINE
  5
34F
100
AcDbEntity
  8
ASSI
100
AcDbLine
 62
250
  6
CONTINUOUS
 10
-3.3052129494
 20
20.1991394405
 11
-3.3052129494
 21
20.8540009965
  0
LINE
  5
350
100
AcDbEntity
  8
C_COPERCHIO
100
AcDbLine
 62
250
  6
CONTINUOUS
 10
-3.2611102771
 20
12.0499686642
 11
-3.2611102771
 21
10.7199367124
  0
LINE
  5
351
100
AcDbEntity
  8
C_COPERCHIO
100
AcDbLine
 62
250
  6
CONTINUOUS
 10
-3.2611102771
 20
-27.7562060638
 11
-3.2611102771
 21
-29.0862380156
  0
LINE
  5
352
100
AcDbEntity
  8
ASSI
100
AcDbLine
 62
7
  6
CONTINUOUS
 10
-2.9322215497
 20
21.0381047742
 11
-2.9322215497
 21
21.0246226018
  0
LINE
  5
353
100
AcDbEntity
  8
C_CONTATTO_SX
100
AcDbLine
 62
7
  6
CONTINUOUS
 10
-2.4816533802
 20
19.3393480815
 11
-2.4816533802
 21
19.2280961454
  0
LWPOLYLINE
  5
354
100
AcDbEntity
  8
C_COPERCHIO
100
AcDbPolyline
 62
250
  6
CONTINUOUS
 90
24
 70
0
 10
-3.2611102771
 20
-29.0862380156
 10
-3.2612511194
 20
-29.0948829241
 10
-3.2616734179
 20
-29.1033679641
 10
-3.2623764875
 20
-29.1116793728
 10
-3.263359188
 20
-29.119803669
 10
-3.2646199253
 20
-29.1277276751
 10
-3.2661566546
 20
-29.1354385384
 10
-3.2679668832
 20
-29.1429237518
 10
-3.270047675
 20
-29.1501711742
 10
-3.2723956549
 20
-29.1571690503
 10
-3.2750070144
 20
-29.1639060296
 10
-3.2778775181
 20
-29.1703711846
 10
-3.2810025098
 20
-29.1765540288
 10
-3.2843769208
 20
-29.1824445336
 10
-3.2879952779
 20
-29.1880331447
 10
-3.2918517119
 20
-29.1933107972
 10
-3.2959399679
 20
-29.1982689308
 10
-3.3002534146
 20
-29.2028995033
 10
-3.3047850556
 20
-29.207195004
 10
-3.3095275405
 20
-29.2111484656
 10
-3.3144731771
 20
-29.2147534755
 10
-3.3196139434
 20
-29.2180041863
 10
-3.3249415012
 20
-29.2208953255
 10
-3.3260719443
 20
-29.2214508895
  0
LWPOLYLINE
  5
355
100
AcDbEntity
  8
C_COPERCHIO
100
AcDbPolyline
 62
250
  6
CONTINUOUS
 90
27
 70
0
 10
-9.1980581084
 20
-26.5092198585
 10
-9.199453223
 20
-26.5183219693
 10
-9.2011266823
 20
-26.5272640891
 10
-9.2030757825
 20
-26.5360317696
 10
-9.2052973742
 20
-26.5446108443
 10
-9.2077878679
 20
-26.5529874517
 10
-9.2105432396
 20
-26.5611480572
 10
-9.2135590373
 20
-26.5690794753
 10
-9.2168303883
 20
-26.5767688908
 10
-9.2203520068
 20
-26.5842038795
 10
-9.2241182027
 20
-26.5913724283
 10
-9.2281228909
 20
-26.5982629546
 10
-9.2323596007
 20
-26.6048643251
 10
-9.2368214867
 20
-26.6111658736
 10
-9.2415013396
 20
-26.6171574182
 10
-9.2463915978
 20
-26.6228292783
 10
-9.2514843601
 20
-26.6281722894
 10
-9.2567713976
 20
-26.6331778185
 10
-9.2622441679
 20
-26.6378377781
 10
-9.2678938284
 20
-26.6421446387
 10
-9.2737112505
 20
-26.6460914415
 10
-9.2796870348
 20
-26.6496718096
 10
-9.2858115259
 20
-26.6528799578
 10
-9.2920748281
 20
-26.6557107026
 10
-9.2984668216
 20
-26.6581594702
 10
-9.3049771783
 20
-26.6602223041
 10
-9.3064227166
 20
-26.6606235637
  0
LWPOLYLINE
  5
356
100
AcDbEntity
  8
ASSI
100
AcDbPolyline
 62
250
  6
CONTINUOUS
 90
23
 70
0
 10
13.778461987
 20
13.7237731226
 10
13.7824986558
 20
13.726024336
 10
13.7888360135
 20
13.730009256
 10
13.7949287967
 20
13.7344139676
 10
13.8007671248
 20
13.7392313276
 10
13.8063415297
 20
13.7444535238
 10
13.8116429716
 20
13.7500720874
 10
13.8166628532
 20
13.7560779069
 10
13.8213930337
 20
13.7624612426
 10
13.8258258423
 20
13.7692117429
 10
13.8299540904
 20
13.7763184604
 10
13.8337710831
 20
13.7837698703
 10
13.8372706306
 20
13.7915538887
 10
13.8404470577
 20
13.7996578924
 10
13.8432952132
 20
13.8080687392
 10
13.8458104782
 20
13.8167727893
 10
13.8479887737
 20
13.8257559275
 10
13.8498265674
 20
13.8350035858
 10
13.8513208788
 20
13.8445007675
 10
13.8524692846
 20
13.854232071
 10
13.8532699224
 20
13.8641817153
 10
13.853721494
 20
13.8743335651
 10
13.8538232669
 20
13.8846711573
  0
LINE
  5
357
100
AcDbEntity
  8
ASSI
100
AcDbLine
 62
250
  6
CONTINUOUS
 10
13.2813368008
 20
8.343751413
 11
13.3109862528
 21
8.3531738362
  0
LINE
  5
358
100
AcDbEntity
  8
ASSI
100
AcDbLine
 62
250
  6
CONTINUOUS
 10
13.2757995445
 20
8.3420196619
 11
13.2813368008
 21
8.343751413
  0
LINE
  5
359
100
AcDbEntity
  8
ASSI
100
AcDbLine
 62
250
  6
CONTINUOUS
 10
13.3109862528
 20
8.3531738362
 11
13.3175567876
 21
8.3552199584
  0
LINE
  5
35A
100
AcDbEntity
  8
ASSI
100
AcDbLine
 62
250
  6
CONTINUOUS
 10
13.2704722602
 20
8.3403797652
 11
13.2757995445
 21
8.3420196619
  0
LINE
  5
35B
100
AcDbEntity
  8
ASSI
100
AcDbLine
 62
250
  6
CONTINUOUS
 10
13.3175567876
 20
8.3552199584
 11
13.3235051753
 21
8.3570348728
  0
LINE
  5
35C
100
AcDbEntity
  8
ASSI
100
AcDbLine
 62
250
  6
CONTINUOUS
 10
13.2653025564
 20
8.3388185919
 11
13.2704722602
 21
8.3403797652
  0
LINE
  5
35D
100
AcDbEntity
  8
ASSI
100
AcDbLine
 62
250
  6
CONTINUOUS
 10
13.3235051753
 20
8.3570348728
 11
13.3289189081
 21
8.3586491948
  0
LINE
  5
35E
100
AcDbEntity
  8
ASSI
100
AcDbLine
 62
250
  6
CONTINUOUS
 10
13.2602542503
 20
8.3373271667
 11
13.2653025564
 21
8.3388185919
  0
LWPOLYLINE
  5
35F
100
AcDbEntity
  8
ASSI
100
AcDbPolyline
 62
250
  6
CONTINUOUS
 90
3
 70
0
 10
13.3289189081
 20
8.3586491948
 10
13.3339278598
 20
8.3601075367
 10
13.3362950978
 20
8.3607831082
  0
LINE
  5
360
100
AcDbEntity
  8
ASSI
100
AcDbLine
 62
250
  6
CONTINUOUS
 10
13.2552714482
 20
8.3358916493
 11
13.2602542503
 21
8.3373271667
  0
LWPOLYLINE
  5
361
100
AcDbEntity
  8
C_COPERCHIO
100
AcDbPolyline
 62
250
  6
CONTINUOUS
 90
3
 70
0
 10
-11.6747496838
 20
-7.658060064
 10
-12.7308084843
 20
-7.8779261918
 10
-12.9713776351
 20
-7.9279607604
  0
LINE
  5
362
100
AcDbEntity
  8
C_COPERCHIO
100
AcDbLine
 62
7
  6
CONTINUOUS
 10
-11.7458110969
 20
-7.4681185157
 11
-12.2679839823
 21
-7.5762640612
  0
LWPOLYLINE
  5
363
100
AcDbEntity
  8
ASSI
100
AcDbPolyline
 62
250
  6
CONTINUOUS
 90
12
 70
0
 10
-11.8240671777
 20
23.4297697515
 10
-11.8193998541
 20
23.4142305267
 10
-11.8151232016
 20
23.3983238766
 10
-11.8112467343
 20
23.3820851845
 10
-11.8077713418
 20
23.3655136585
 10
-11.8046961345
 20
23.3486100905
 10
-11.8020279573
 20
23.3314122391
 10
-11.7997677244
 20
23.3139190089
 10
-11.7979145217
 20
23.2961314954
 10
-11.7964724518
 20
23.2780907439
 10
-11.7954428824
 20
23.2598104362
 10
-11.7948244458
 20
23.2412768906
  0
LINE
  5
364
100
AcDbEntity
  8
C_CONTATTO_SX
100
AcDbLine
 62
7
  6
CONTINUOUS
 10
-2.4487229027
 20
19.3697599297
 11
-2.4487229027
 21
19.2255162458
  0
LINE
  5
365
100
AcDbEntity
  8
C_CONTATTO_SX
100
AcDbLine
 62
7
  6
CONTINUOUS
 10
-2.2371197618
 20
19.8789457326
 11
-2.2371197618
 21
19.2151744839
  0
LINE
  5
366
100
AcDbEntity
  8
C_COPERCHIO
100
AcDbLine
 62
7
  6
CONTINUOUS
 10
-1.7844335808
 20
12.762973719
 11
-1.7844335808
 21
-28.3732329608
  0
LINE
  5
367
100
AcDbEntity
  8
ASSI
100
AcDbLine
 62
7
  6
CONTINUOUS
 10
-1.7844335808
 20
-28.4165606109
 11
-1.7844335808
 21
12.8063013692
  0
LINE
  5
368
100
AcDbEntity
  8
C_CONTATTO_SX
100
AcDbLine
 62
7
  6
CONTINUOUS
 10
-1.7137229027
 20
19.7372599297
 11
-1.7137229027
 21
19.2182199931
  0
LINE
  5
369
100
AcDbEntity
  8
C_CONTATTO_SX
100
AcDbLine
 62
7
  6
CONTINUOUS
 10
-1.6528992063
 20
19.7537251684
 11
-1.6528992063
 21
19.2220338407
  0
LINE
  5
36A
100
AcDbEntity
  8
C_CONTATTO_SX
100
AcDbLine
 62
7
  6
CONTINUOUS
 10
-0.9787229027
 20
19.3697599297
 11
-0.9787229027
 21
19.2976796898
  0
LINE
  5
36B
100
AcDbEntity
  8
ASSI
100
AcDbLine
 62
250
  6
CONTINUOUS
 10
0.0893993893
 20
23.1849521242
 11
0.0893993893
 21
22.5354330713
  0
LINE
  5
36C
100
AcDbEntity
  8
ASSI
100
AcDbLine
 62
7
  6
CONTINUOUS
 10
0.1479780331
 20
23.2420695807
 11
0.1479780331
 21
22.5554131558
  0
LWPOLYLINE
  5
36D
100
AcDbEntity
  8
ASSI
100
AcDbPolyline
 62
250
  6
CONTINUOUS
 90
18
 70
0
 10
4.4484255379
 20
8.8270954751
 10
4.4379236926
 20
8.8125905958
 10
4.4276554213
 20
8.7978151499
 10
4.4176186097
 20
8.7827649436
 10
4.4078153721
 20
8.7674441707
 10
4.3982751127
 20
8.7518969332
 10
4.3889975339
 20
8.7361199958
 10
4.3799829333
 20
8.7201165938
 10
4.3712616072
 20
8.7039405362
 10
4.3628360076
 20
8.6875934544
 10
4.3547036826
 20
8.6710737169
 10
4.3468875725
 20
8.6544302377
 10
4.3393901553
 20
8.6376669522
 10
4.3322089531
 20
8.620779925
 10
4.3253594726
 20
8.6038062644
 10
4.3188417831
 20
8.5867458241
 10
4.3126558153
 20
8.5695987503
 10
4.3068168679
 20
8.5524025898
  0
LINE
  5
36E
100
AcDbEntity
  8
C_COPERCHIO
100
AcDbLine
 62
7
  6
CONTINUOUS
 10
-17.6217681067
 20
-11.4667254403
 11
-17.6152855206
 21
-11.4615227478
  0
LINE
  5
36F
100
AcDbEntity
  8
C_COPERCHIO
100
AcDbLine
 62
7
  6
CONTINUOUS
 10
-17.6152855206
 20
-11.4615227478
 11
-17.6084965998
 21
-11.4561613642
  0
LINE
  5
370
100
AcDbEntity
  8
C_COPERCHIO
100
AcDbLine
 62
7
  6
CONTINUOUS
 10
-17.6084965998
 20
-11.4561613642
 11
-17.6014166094
 21
-11.4506502255
  0
LINE
  5
371
100
AcDbEntity
  8
C_COPERCHIO
100
AcDbLine
 62
7
  6
CONTINUOUS
 10
-17.6014166094
 20
-11.4506502255
 11
-17.5940573313
 21
-11.4450001269
  0
LINE
  5
372
100
AcDbEntity
  8
C_COPERCHIO
100
AcDbLine
 62
7
  6
CONTINUOUS
 10
-17.5940573313
 20
-11.4450001269
 11
-17.5864349177
 21
-11.4392202464
  0
LINE
  5
373
100
AcDbEntity
  8
C_COPERCHIO
100
AcDbLine
 62
7
  6
CONTINUOUS
 10
-17.5864349177
 20
-11.4392202464
 11
-17.5785662237
 21
-11.4333206134
  0
LINE
  5
374
100
AcDbEntity
  8
C_COPERCHIO
100
AcDbLine
 62
7
  6
CONTINUOUS
 10
-17.5785662237
 20
-11.4333206134
 11
-17.5704645871
 21
-11.4273126163
  0
LWPOLYLINE
  5
375
100
AcDbEntity
  8
C_COPERCHIO
100
AcDbPolyline
 62
7
  6
CONTINUOUS
 90
3
 70
0
 10
-17.5704645871
 20
-11.4273126163
 10
-17.562150863
 20
-11.4212061822
 10
-17.5579153003
 20
-11.4181204664
  0
LWPOLYLINE
  5
376
100
AcDbEntity
  8
ASSI
100
AcDbPolyline
 62
250
  6
CONTINUOUS
 90
4
 70
0
 10
4.2869555095
 20
2.977935001
 10
4.2795512242
 20
2.9732464121
 10
4.271779423
 20
2.9687089564
 10
4.263652433
 20
2.9643298311
  0
LWPOLYLINE
  5
377
100
AcDbEntity
  8
ASSI
100
AcDbPolyline
 62
250
  6
CONTINUOUS
 90
23
 70
0
 10
15.1506766506
 20
9.2577455947
 10
15.1556293017
 20
9.2604786382
 10
15.1619126802
 20
9.2644357923
 10
15.1679535034
 20
9.2688138479
 10
15.1737419739
 20
9.2736057045
 10
15.1792687037
 20
9.2788035903
 10
15.1845247293
 20
9.2843990753
 10
15.1895015263
 20
9.2903830844
 10
15.194191023
 20
9.2967459124
 10
15.1985856138
 20
9.3034772399
 10
15.2026781714
 20
9.3105661496
 10
15.2064620582
 20
9.3180011445
 10
15.2099311374
 20
9.3257701661
 10
15.2130797827
 20
9.3338606142
 10
15.2159028874
 20
9.3422593675
 10
15.2183958729
 20
9.3509528043
 10
15.2205546959
 20
9.3599268253
 10
15.2223758553
 20
9.369166876
 10
15.2238563973
 20
9.3786579705
 10
15.2249939206
 20
9.3883847156
 10
15.2257865806
 20
9.3983313361
 10
15.2262330915
 20
9.4084817001
 10
15.2263327292
 20
9.4188193452
  0
LWPOLYLINE
  5
378
100
AcDbEntity
  8
ASSI
100
AcDbPolyline
 62
7
  6
CONTINUOUS
 90
23
 70
0
 10
13.4471439071
 20
8.3726138818
 10
13.4436382261
 20
8.3707461922
 10
13.4285474482
 20
8.3616159242
 10
13.4135191982
 20
8.3506339988
 10
13.3990433931
 20
8.3380005573
 10
13.3853631069
 20
8.3238062745
 10
13.372890291
 20
8.3084143923
 10
13.3617888781
 20
8.2920438777
 10
13.3521409826
 20
8.2748540624
 10
13.3440664002
 20
8.2571415329
 10
13.3375921465
 20
8.2391238037
 10
13.3326999438
 20
8.2209578745
 10
13.3293690331
 20
8.2028563112
 10
13.3275463568
 20
8.1849969566
 10
13.327159189
 20
8.1675489157
 10
13.3281116031
 20
8.150724991
 10
13.3302830492
 20
8.1346778637
 10
13.3335269595
 20
8.1195872052
 10
13.3376287809
 20
8.1057412288
 10
13.3424087037
 20
8.0931743187
 10
13.3475457152
 20
8.0822130461
 10
13.3524124396
 20
8.0735198433
 10
13.3547601947
 20
8.0698072143
  0
LWPOLYLINE
  5
379
100
AcDbEntity
  8
ASSI
100
AcDbPolyline
 62
250
  6
CONTINUOUS
 90
25
 70
0
 10
13.8538232669
 20
7.3103632317
 10
13.8648731789
 20
7.3162239576
 10
13.87553482
 20
7.3222605045
 10
13.8857970316
 20
7.3284664974
 10
13.8956490431
 20
7.3348353134
 10
13.905080578
 20
7.3413602997
 10
13.9140818511
 20
7.3480347845
 10
13.9226434761
 20
7.3548517669
 10
13.9307564321
 20
7.3618040253
 10
13.9384121684
 20
7.3688843352
 10
13.9456026503
 20
7.3760852129
 10
13.9523203751
 20
7.3833990873
 10
13.9585583265
 20
7.3908184123
 10
13.9643099746
 20
7.3983353764
 10
13.9695692931
 20
7.4059420566
 10
13.9743307793
 20
7.4136305881
 10
13.978589449
 20
7.4213928855
 10
13.9823408357
 20
7.4292207657
 10
13.9855810029
 20
7.4371061028
 10
13.9883065573
 20
7.4450405953
 10
13.9905146477
 20
7.4530158938
 10
13.9922029622
 20
7.4610237249
 10
13.9933697343
 20
7.4690556626
 10
13.9940137447
 20
7.4771032578
 10
13.9941533667
 20
7.4829853775
  0
LWPOLYLINE
  5
37A
100
AcDbEntity
  8
ASSI
100
AcDbPolyline
 62
250
  6
CONTINUOUS
 90
49
 70
0
 10
13.6398725045
 20
7.6752853046
 10
13.6442960675
 20
7.6776024671
 10
13.6485566992
 20
7.6799853912
 10
13.6526543998
 20
7.6824340768
 10
13.6565934459
 20
7.6849513917
 10
13.6603695608
 20
7.6875344681
 10
13.663969914
 20
7.6901747031
 10
13.6673936352
 20
7.6928721132
 10
13.6706415947
 20
7.6956266819
 10
13.6737035729
 20
7.6984297555
 10
13.676578972
 20
7.7012814794
 10
13.6792683898
 20
7.7041817083
 10
13.6817634001
 20
7.7071213524
 10
13.6840633966
 20
7.7101005364
 10
13.6861689857
 20
7.7131191357
 10
13.6880735606
 20
7.716167687
 10
13.6897764914
 20
7.7192462877
 10
13.6912784079
 20
7.7223548404
 10
13.6925745933
 20
7.7254835895
 10
13.6936644002
 20
7.7286325969
 10
13.6945484759
 20
7.7318018007
 10
13.6952240455
 20
7.7349812596
 10
13.6956904544
 20
7.7381710043
 10
13.6959483572
 20
7.741371004
 10
13.6959969431
 20
7.744571225
 10
13.6958355553
 20
7.7477716687
 10
13.6954648506
 20
7.7509723338
 10
13.6948859884
 20
7.7541631814
 10
13.6940983127
 20
7.7573441847
 10
13.6931024795
 20
7.7605153707
 10
13.6919016152
 20
7.7636667818
 10
13.6904950744
 20
7.7667983545
 10
13.6888835025
 20
7.7699101523
 10
13.6870719624
 20
7.7729924088
 10
13.6850598281
 20
7.7760450272
 10
13.6828477255
 20
7.7790681042
 10
13.6804425956
 20
7.7820521631
 10
13.6778438356
 20
7.7849970808
 10
13.6750520484
 20
7.7879029803
 10
13.6720759829
 20
7.7907607545
 10
13.6689150476
 20
7.7935702596
 10
13.6655698341
 20
7.7963316393
 10
13.662050867
 20
7.7990362175
 10
13.6583573354
 20
7.8016839485
 10
13.6544900501
 20
7.804274878
 10
13.6504619683
 20
7.8068004679
 10
13.646277409
 20
7.8092578722
 10
13.6419320531
 20
7.8116499368
 10
13.6374259007
 20
7.8139766619
  0
LINE
  5
37B
100
AcDbEntity
  8
ASSI
100
AcDbLine
 62
250
  6
CONTINUOUS
 10
13.1271360733
 20
8.3281061965
 11
15.2263327292
 21
9.4188193452
  0
LINE
  5
37C
100
AcDbEntity
  8
ASSI
100
AcDbLine
 62
7
  6
CONTINUOUS
 10
15.1506766506
 20
9.2577455947
 11
13.4471278457
 21
8.3726055218
  0
LINE
  5
37D
100
AcDbEntity
  8
ASSI
100
AcDbLine
 62
250
  6
CONTINUOUS
 10
4.6768732143
 20
2.6586856968
 11
13.8538232669
 21
7.3103632317
  0
LINE
  5
37E
100
AcDbEntity
  8
ASSI
100
AcDbLine
 62
250
  6
CONTINUOUS
 10
13.1235248678
 20
8.3307249068
 11
4.3478504929
 21
3.9602511426
  0
LINE
  5
37F
100
AcDbEntity
  8
ASSI
100
AcDbLine
 62
250
  6
CONTINUOUS
 10
13.3356488248
 20
7.9648651998
 11
4.3478504929
 21
3.4887491625
  0
LWPOLYLINE
  5
380
100
AcDbEntity
  8
ASSI
100
AcDbPolyline
 62
250
  6
CONTINUOUS
 90
18
 70
0
 10
13.3356488248
 20
7.9648651998
 10
13.3441412813
 20
7.9688122811
 10
13.3526171463
 20
7.9723348225
 10
13.3610628242
 20
7.9754271737
 10
13.369464768
 20
7.9780843743
 10
13.3778095006
 20
7.9803021622
 10
13.3860836369
 20
7.9820769799
 10
13.3942739048
 20
7.9834059806
 10
13.4023671668
 20
7.9842870325
 10
13.4103504413
 20
7.9847187223
 10
13.4182109226
 20
7.9847003576
 10
13.4259360023
 20
7.9842319678
 10
13.4335132892
 20
7.9833143042
 10
13.440930629
 20
7.9819488387
 10
13.448176124
 20
7.9801377616
 10
13.4552381524
 20
7.9778839779
 10
13.4621053862
 20
7.9751911027
 10
13.4679617257
 20
7.9724700398
  0
LWPOLYLINE
  5
381
100
AcDbEntity
  8
ASSI
100
AcDbPolyline
 62
250
  6
CONTINUOUS
 90
18
 70
0
 10
13.6374259007
 20
7.8139766619
 10
13.6459183599
 20
7.8179237444
 10
13.6543942277
 20
7.8214462868
 10
13.6628399083
 20
7.8245386385
 10
13.6712418546
 20
7.8271958395
 10
13.6795865896
 20
7.8294136274
 10
13.6878607281
 20
7.8311884449
 10
13.6960509981
 20
7.832517445
 10
13.7041442621
 20
7.8333984961
 10
13.7121275382
 20
7.8338301849
 10
13.719988021
 20
7.8338118189
 10
13.7277131021
 20
7.8333434277
 10
13.73529039
 20
7.8324257625
 10
13.7427077307
 20
7.8310602952
 10
13.7499532263
 20
7.8292492162
 10
13.757015255
 20
7.8269954305
 10
13.763882489
 20
7.8243025532
 10
13.7697388016
 20
7.8215815018
  0
LINE
  5
382
100
AcDbEntity
  8
C_COPERCHIO
100
AcDbLine
 62
250
  6
CONTINUOUS
 10
-26.9069240575
 20
11.3772701206
 11
-9.9938305458
 21
2.9207233648
  0
LINE
  5
383
100
AcDbEntity
  8
C_COPERCHIO
100
AcDbLine
 62
250
  6
CONTINUOUS
 10
-26.330797742
 20
12.4916818074
 11
-9.402419652
 21
4.0274927624
  0
LWPOLYLINE
  5
384
100
AcDbEntity
  8
ASSI
100
AcDbPolyline
 62
7
  6
CONTINUOUS
 90
4
 70
0
 10
-7.3308752605
 20
15.229327917
 10
-7.3290299567
 20
15.2255014492
 10
-7.3269526653
 20
15.2209807978
 10
-7.3250125862
 20
15.2165281595
  0
LWPOLYLINE
  5
385
100
AcDbEntity
  8
ASSI
100
AcDbPolyline
 62
7
  6
CONTINUOUS
 90
16
 70
0
 10
-7.0419703209
 20
15.4824128822
 10
-7.0389110879
 20
15.4752135198
 10
-7.0359696657
 20
15.4677835588
 10
-7.0332245387
 20
15.460307554
 10
-7.0306783929
 20
15.4527911496
 10
-7.0283381667
 20
15.445252889
 10
-7.0262106267
 20
15.4377138502
 10
-7.0243000405
 20
15.4301916482
 10
-7.0226075066
 20
15.4226931625
 10
-7.0211343548
 20
15.4152234109
 10
-7.0198825385
 20
15.4077908146
 10
-7.0188550827
 20
15.4004113681
 10
-7.0180545944
 20
15.3931013507
 10
-7.0174823234
 20
15.3858740242
 10
-7.0171386196
 20
15.3787397331
 10
-7.0170237616
 20
15.3717100646
  0
LINE
  5
386
100
AcDbEntity
  8
C_CONTATTO_SX
100
AcDbLine
 62
7
  6
CONTINUOUS
 10
-0.3468133592
 20
19.6996613108
 11
-0.3868693874
 21
20.2286308146
  0
LWPOLYLINE
  5
387
100
AcDbEntity
  8
ASSI
100
AcDbPolyline
 62
7
  6
CONTINUOUS
 90
5
 70
0
 10
0.147978149
 20
23.2420692971
 10
0.1478895076
 20
23.2440506175
 10
0.1474895433
 20
23.2466821205
 10
0.1467680736
 20
23.249249951
 10
0.1465394514
 20
23.2498770242
  0
LWPOLYLINE
  5
388
100
AcDbEntity
  8
ASSI
100
AcDbPolyline
 62
7
  6
CONTINUOUS
 90
8
 70
0
 10
2.2537915186
 20
16.6265367287
 10
2.253969666
 20
16.6108860163
 10
2.2553947071
 20
16.5795927022
 10
2.2582440507
 20
16.5483237159
 10
2.2625162202
 20
16.5170952619
 10
2.2682090017
 20
16.4859235239
 10
2.275319445
 20
16.4548246558
 10
2.2777353403
 20
16.446036184
  0
LINE
  5
389
100
AcDbEntity
  8
ASSI
100
AcDbLine
 62
250
  6
CONTINUOUS
 10
3.0592478703
 20
17.5988085528
 11
3.0592478703
 21
16.9696949293
  0
LWPOLYLINE
  5
38A
100
AcDbEntity
  8
ASSI
100
AcDbPolyline
 62
250
  6
CONTINUOUS
 90
16
 70
0
 10
4.3068168679
 20
8.5524025898
 10
4.3013237468
 20
8.535150926
 10
4.2961776461
 20
8.5178501754
 10
4.2913974468
 20
8.5005571342
 10
4.2869844049
 20
8.4832686303
 10
4.2829372644
 20
8.4659878359
 10
4.2792711388
 20
8.4487810642
 10
4.2759886608
 20
8.4316486867
 10
4.2730871978
 20
8.4145903319
 10
4.2705739653
 20
8.3976711985
 10
4.2684517169
 20
8.3808914822
 10
4.2667176991
 20
8.3642509872
 10
4.2653708663
 20
8.3478143249
 10
4.2644108701
 20
8.3316030323
 10
4.263838059
 20
8.3155955723
 10
4.263652433
 20
8.299791945
  0
LINE
  5
38B
100
AcDbEntity
  8
C_COPERCHIO
100
AcDbLine
 62
7
  6
CONTINUOUS
 10
-19.6629837285
 20
-17.3484300689
 11
-19.6759273945
 21
-17.3578384386
  0
LINE
  5
38C
100
AcDbEntity
  8
C_COPERCHIO
100
AcDbLine
 62
7
  6
CONTINUOUS
 10
-19.6492991271
 20
-17.3386003846
 11
-19.6629837285
 21
-17.3484300689
  0
LINE
  5
38D
100
AcDbEntity
  8
C_COPERCHIO
100
AcDbLine
 62
7
  6
CONTINUOUS
 10
-19.6348921693
 20
-17.3283667626
 11
-19.6492991271
 21
-17.3386003846
  0
LINE
  5
38E
100
AcDbEntity
  8
C_COPERCHIO
100
AcDbLine
 62
7
  6
CONTINUOUS
 10
-19.6197831041
 20
-17.3177473214
 11
-19.6348921693
 21
-17.3283667626
  0
LINE
  5
38F
100
AcDbEntity
  8
C_COPERCHIO
100
AcDbLine
 62
7
  6
CONTINUOUS
 10
-19.6039932832
 20
-17.3067605927
 11
-19.6197831041
 21
-17.3177473214
  0
LWPOLYLINE
  5
390
100
AcDbEntity
  8
C_COPERCHIO
100
AcDbPolyline
 62
7
  6
CONTINUOUS
 90
3
 70
0
 10
-19.5819198131
 20
-17.2915724352
 10
-19.5875447383
 20
-17.2954252981
 10
-19.6039932832
 20
-17.3067605927
  0
LWPOLYLINE
  5
391
100
AcDbEntity
  8
C_COPERCHIO
100
AcDbPolyline
 62
7
  6
CONTINUOUS
 90
85
 70
0
 10
-12.9713777194
 20
-7.9279608025
 10
-12.9783625533
 20
-7.9315592765
 10
-12.9853422256
 20
-7.9353760886
 10
-12.9923149135
 20
-7.9394038025
 10
-12.9992834063
 20
-7.9436361548
 10
-13.0062419225
 20
-7.9480646554
 10
-13.0131761825
 20
-7.952678433
 10
-13.0200849297
 20
-7.9574697304
 10
-13.0269678706
 20
-7.9624314984
 10
-13.0338125543
 20
-7.9675538643
 10
-13.040618213
 20
-7.9728292403
 10
-13.0473852479
 20
-7.9782508443
 10
-13.0541031905
 20
-7.9838102171
 10
-13.060771719
 20
-7.9895001559
 10
-13.0673917171
 20
-7.9953142403
 10
-13.0739546003
 20
-8.0012455793
 10
-13.0804604286
 20
-8.0072874925
 10
-13.0869103893
 20
-8.0134339729
 10
-13.0932975334
 20
-8.0196796455
 10
-13.0996222274
 20
-8.0260184155
 10
-13.1058858269
 20
-8.0324447097
 10
-13.1120827106
 20
-8.0389544865
 10
-13.1182134766
 20
-8.0455422426
 10
-13.1242795547
 20
-8.0522028376
 10
-13.1302763467
 20
-8.0589333205
 10
-13.1362046245
 20
-8.0657287584
 10
-13.1420658226
 20
-8.072584418
 10
-13.1478560733
 20
-8.0794981584
 10
-13.1535762338
 20
-8.0864655234
 10
-13.1592277447
 20
-8.0934822002
 10
-13.164807331
 20
-8.1005467226
 10
-13.1703159373
 20
-8.1076551131
 10
-13.1757549392
 20
-8.1148033936
 10
-13.1811214217
 20
-8.1219904997
 10
-13.1864163681
 20
-8.1292128463
 10
-13.1916411018
 20
-8.1364667814
 10
-13.196792943
 20
-8.1437514832
 10
-13.2018728884
 20
-8.1510636956
 10
-13.2068822145
 20
-8.158400067
 10
-13.2118184055
 20
-8.1657599196
 10
-13.2166824614
 20
-8.1731402827
 10
-13.2214756113
 20
-8.1805380688
 10
-13.2261954488
 20
-8.1879526646
 10
-13.2308429719
 20
-8.1953813465
 10
-13.235419365
 20
-8.2028212592
 10
-13.2399222898
 20
-8.2102717883
 10
-13.2443527414
 20
-8.2177304271
 10
-13.2487118628
 20
-8.2251945221
 10
-13.2529973505
 20
-8.2326633995
 10
-13.2572101978
 20
-8.2401347426
 10
-13.2613515123
 20
-8.2476060748
 10
-13.2654190002
 20
-8.255076612
 10
-13.2694136564
 20
-8.2625442067
 10
-13.2733365599
 20
-8.2700065366
 10
-13.2771854075
 20
-8.2774626603
 10
-13.2809611962
 20
-8.2849105744
 10
-13.2846649893
 20
-8.2923481004
 10
-13.2882944727
 20
-8.2997741206
 10
-13.2918506436
 20
-8.3071867468
 10
-13.2953345657
 20
-8.3145839454
 10
-13.2987439379
 20
-8.321964451
 10
-13.3020797815
 20
-8.3293265242
 10
-13.3053431465
 20
-8.3366682224
 10
-13.3085317115
 20
-8.3439880357
 10
-13.3116465148
 20
-8.3512843349
 10
-13.3146886174
 20
-8.3585552921
 10
-13.317655695
 20
-8.3657991535
 10
-13.3205488125
 20
-8.3730144051
 10
-13.3233690479
 20
-8.3801993206
 10
-13.3261140848
 20
-8.3873518802
 10
-13.3287850203
 20
-8.3944706837
 10
-13.3313829594
 20
-8.4015541062
 10
-13.3339056111
 20
-8.4085998441
 10
-13.33635411
 20
-8.4156066121
 10
-13.3387295986
 20
-8.4225728899
 10
-13.3410298365
 20
-8.4294960828
 10
-13.3432559995
 20
-8.4363750215
 10
-13.3454092787
 20
-8.4432082992
 10
-13.3474875194
 20
-8.4499930358
 10
-13.3494919459
 20
-8.4567281768
 10
-13.3514238028
 20
-8.4634124459
 10
-13.3532810516
 20
-8.4700427149
 10
-13.3550638934
 20
-8.4766172609
 10
-13.3567747185
 20
-8.4831357463
 10
-13.3584148199
 20
-8.4895971968
  0
LINE
  5
392
100
AcDbEntity
  8
C_COPERCHIO
100
AcDbLine
 62
7
  6
CONTINUOUS
 10
-11.779449253
 20
-7.3782063794
 11
-12.1102142564
 21
-7.5435888811
  0
LINE
  5
393
100
AcDbEntity
  8
C_COPERCHIO
100
AcDbLine
 62
7
  6
CONTINUOUS
 10
-12.9713776351
 20
-7.9279607604
 11
-12.2679839823
 21
-7.5762640612
  0
LWPOLYLINE
  5
394
100
AcDbEntity
  8
ASSI
100
AcDbPolyline
 62
250
  6
CONTINUOUS
 90
8
 70
0
 10
4.4196459772
 20
3.0067662441
 10
4.4257904816
 20
3.0084264115
 10
4.4319608862
 20
3.0103425142
 10
4.4381510638
 20
3.0125115445
 10
4.4443490101
 20
3.0149272836
 10
4.4505466117
 20
3.0175844208
 10
4.4567397516
 20
3.0204794473
 10
13.6398725045
 20
7.6752853046
  0
LINE
  5
395
100
AcDbEntity
  8
C_COPERCHIO
100
AcDbLine
 62
250
  6
CONTINUOUS
 10
-15.5417520952
 20
-0.7142386969
 11
-14.238171696
 21
-0.4382415761
  0
LINE
  5
396
100
AcDbEntity
  8
C_COPERCHIO
100
AcDbLine
 62
250
  6
CONTINUOUS
 10
-16.1928854233
 20
-0.8518951737
 11
-15.5417520952
 21
-0.7142386969
  0
LWPOLYLINE
  5
397
100
AcDbEntity
  8
C_COPERCHIO
100
AcDbPolyline
 62
7
  6
CONTINUOUS
 90
3
 70
0
 10
-15.5838685697
 20
-1.057910347
 10
-15.3963269339
 20
-1.0183841555
 10
-14.2129937461
 20
-0.7687301801
  0
LWPOLYLINE
  5
398
100
AcDbEntity
  8
C_COPERCHIO
100
AcDbPolyline
 62
7
  6
CONTINUOUS
 90
78
 70
0
 10
-15.583868369
 20
-1.0579113847
 10
-15.5898280139
 20
-1.0591050627
 10
-15.5979790771
 20
-1.0605600209
 10
-15.60621833
 20
-1.0618260412
 10
-15.6145400976
 20
-1.0629012296
 10
-15.6229334859
 20
-1.0638016185
 10
-15.6313921184
 20
-1.0645256535
 10
-15.6399108776
 20
-1.0650714658
 10
-15.6484811472
 20
-1.0654547482
 10
-15.6570972346
 20
-1.065674343
 10
-15.6657545353
 20
-1.065728466
 10
-15.6744464747
 20
-1.0656319872
 10
-15.6831680446
 20
-1.065384049
 10
-15.6919151046
 20
-1.0649829983
 10
-15.7006827731
 20
-1.0644426058
 10
-15.7094666811
 20
-1.06376223
 10
-15.7182631057
 20
-1.0629403768
 10
-15.7270684826
 20
-1.0619896078
 10
-15.7358790255
 20
-1.0609094287
 10
-15.7446913728
 20
-1.0596985174
 10
-15.7535028917
 20
-1.05836824
 10
-15.7623102506
 20
-1.0569182108
 10
-15.7711104592
 20
-1.0553472679
 10
-15.7799016367
 20
-1.0536656405
 10
-15.7886809034
 20
-1.0518730063
 10
-15.7974455322
 20
-1.0499683633
 10
-15.8061940605
 20
-1.0479609318
 10
-15.8149239612
 20
-1.0458504334
 10
-15.8236327678
 20
-1.0436360081
 10
-15.8323192522
 20
-1.0413260026
 10
-15.8409811725
 20
-1.0389201719
 10
-15.849616302
 20
-1.0364177781
 10
-15.8582235409
 20
-1.033826419
 10
-15.8668008903
 20
-1.0311458744
 10
-15.875346331
 20
-1.0283755126
 10
-15.8838588086
 20
-1.0255222991
 10
-15.892336532
 20
-1.0225860326
 10
-15.9007776624
 20
-1.0195661738
 10
-15.9091811262
 20
-1.0164691627
 10
-15.9175453135
 20
-1.0132948124
 10
-15.9258685415
 20
-1.0100426653
 10
-15.9341496612
 20
-1.0067187347
 10
-15.9423872222
 20
-1.0033228459
 10
-15.9505796784
 20
-0.9998546136
 10
-15.9587257597
 20
-0.9963197156
 10
-15.966824159
 20
-0.9927179878
 10
-15.9748734511
 20
-0.9890491108
 10
-15.9828722041
 20
-0.9853185109
 10
-15.9908192337
 20
-0.9815260392
 10
-15.9987132329
 20
-0.9776714326
 10
-16.0065525978
 20
-0.9737599319
 10
-16.0143362432
 20
-0.9697914131
 10
-16.0220629878
 20
-0.9657656571
 10
-16.0297310946
 20
-0.9616877512
 10
-16.0373396155
 20
-0.9575575749
 10
-16.0448874444
 20
-0.9533749723
 10
-16.0523726233
 20
-0.9491449711
 10
-16.0597943075
 20
-0.9448674743
 10
-16.0671514966
 20
-0.9405423709
 10
-16.0744420249
 20
-0.9361746703
 10
-16.0816651596
 20
-0.9317642973
 10
-16.088819999
 20
-0.9273111903
 10
-16.0959041609
 20
-0.922820388
 10
-16.1029170271
 20
-0.9182918423
 10
-16.1098577988
 20
-0.9137255407
 10
-16.1167238758
 20
-0.9091265935
 10
-16.1235147581
 20
-0.904494986
 10
-16.1302297586
 20
-0.8998307547
 10
-16.1368660678
 20
-0.8951391147
 10
-16.1434233083
 20
-0.8904200925
 10
-16.1499009167
 20
-0.8856737731
 10
-16.1562958996
 20
-0.8809054982
 10
-16.1626080097
 20
-0.8761153572
 10
-16.1688368197
 20
-0.87130347
 10
-16.1749791859
 20
-0.8664752735
 10
-16.1810339512
 20
-0.8616326947
 10
-16.1870019005
 20
-0.8567741287
 10
-16.1928828944
 20
-0.8518997501
  0
LWPOLYLINE
  5
399
100
AcDbEntity
  8
ASSI
100
AcDbPolyline
 62
250
  6
CONTINUOUS
 90
3
 70
0
 10
4.4074653737
 20
3.0042261036
 10
4.4135336154
 20
3.0053648226
 10
4.4196459772
 20
3.0067662441
  0
LINE
  5
39A
100
AcDbEntity
  8
C_COPERCHIO
100
AcDbLine
 62
7
  6
CONTINUOUS
 10
-6.9968470186
 20
5.699594519
 11
-24.007763253
 21
14.2050526362
  0
LINE
  5
39B
100
AcDbEntity
  8
C_COPERCHIO
100
AcDbLine
 62
7
  6
CONTINUOUS
 10
-7.3540218752
 20
5.9576412586
 11
-24.3576951777
 21
14.4594779098
  0
LWPOLYLINE
  5
39C
100
AcDbEntity
  8
C_COPERCHIO
100
AcDbPolyline
 62
7
  6
CONTINUOUS
 90
21
 70
0
 10
-24.3576951777
 20
14.4594779098
 10
-24.3646088459
 20
14.4630764269
 10
-24.3712121246
 20
14.4667981184
 10
-24.3775050138
 20
14.4706429843
 10
-24.3834975144
 20
14.4746183389
 10
-24.3891796255
 20
14.4787168678
 10
-24.3945213443
 20
14.4829166282
 10
-24.3995187017
 20
14.4872159244
 10
-24.4041756667
 20
14.491616452
 10
-24.4084741445
 20
14.4961013547
 10
-24.4124150681
 20
14.5006741604
 10
-24.4159975045
 20
14.5053313411
 10
-24.4192005594
 20
14.510045457
 10
-24.4220200909
 20
14.5148128489
 10
-24.4244602409
 20
14.5196371758
 10
-24.4265125403
 20
14.5245019753
 10
-24.4281767754
 20
14.529411973
 10
-24.4294531599
 20
14.5343624433
 10
-24.4303338662
 20
14.5393227468
 10
-24.4308163795
 20
14.5442880746
 10
-24.4309184824
 20
14.547864986
  0
LWPOLYLINE
  5
39D
100
AcDbEntity
  8
C_CONTATTO_SX
100
AcDbPolyline
 62
7
  6
CONTINUOUS
 90
12
 70
0
 10
-0.3868693874
 20
20.2286308146
 10
-0.388327361
 20
20.2417928767
 10
-0.3907335322
 20
20.2542314051
 10
-0.394087901
 20
20.2659464
 10
-0.3984382631
 20
20.2770572858
 10
-0.4037368228
 20
20.287444638
 10
-0.4098401929
 20
20.2967501827
 10
-0.416746959
 20
20.3048900555
 10
-0.4244585354
 20
20.3119481208
 10
-0.4328357785
 20
20.3178176983
 10
-0.4418746613
 20
20.322491949
 10
-0.4491355149
 20
20.3252346161
  0
LWPOLYLINE
  5
39E
100
AcDbEntity
  8
ASSI
100
AcDbPolyline
 62
7
  6
CONTINUOUS
 90
12
 70
0
 10
4.3880482488
 20
15.2285995875
 10
4.3857088693
 20
15.2982007513
 10
4.3777531539
 20
15.3718951666
 10
4.3641347107
 20
15.4425902497
 10
4.3448875875
 20
15.5097261636
 10
4.3202658324
 20
15.5724298507
 10
4.290552202
 20
15.6302410147
 10
4.2558837335
 20
15.6830704666
 10
4.216505543
 20
15.7306125575
 10
4.172805192
 20
15.772473424
 10
4.1251643367
 20
15.8083722568
 10
4.0731735206
 20
15.8384751514
  0
LWPOLYLINE
  5
39F
100
AcDbEntity
  8
ASSI
100
AcDbPolyline
 62
250
  6
CONTINUOUS
 90
52
 70
0
 10
4.263652433
 20
2.964329831
 10
4.263838059
 20
2.948718425
 10
4.26441087
 20
2.9333041283
 10
4.2653708662
 20
2.9180869409
 10
4.266717699
 20
2.9030449647
 10
4.2684517169
 20
2.8882000978
 10
4.2705739653
 20
2.8736180341
 10
4.2730871978
 20
2.8593014291
 10
4.2759886608
 20
2.8452476272
 10
4.2792711388
 20
2.8315143552
 10
4.2829372644
 20
2.8181039676
 10
4.2869844049
 20
2.8050141099
 10
4.2913974468
 20
2.7922954447
 10
4.2961776461
 20
2.7799524448
 10
4.3013237468
 20
2.7679806375
 10
4.3068168679
 20
2.756417267
 10
4.3126558153
 20
2.7452675135
 10
4.3188417831
 20
2.7345261969
 10
4.3253594726
 20
2.7242150217
 10
4.3322089531
 20
2.7143342058
 10
4.3393901553
 20
2.7048835312
 10
4.3468875725
 20
2.6958840485
 10
4.3547036826
 20
2.6873343882
 10
4.3628360076
 20
2.6792359198
 10
4.3712616072
 20
2.6716138017
 10
4.3799829333
 20
2.6644689416
 10
4.3889975339
 20
2.6578004319
 10
4.3982751127
 20
2.6516307085
 10
4.4078153721
 20
2.6459626989
 10
4.4176186097
 20
2.6407934757
 10
4.4276554213
 20
2.6361366921
 10
4.4379236926
 20
2.6319943524
 10
4.4484255379
 20
2.6283644523
 10
4.4591378973
 20
2.6252546329
 10
4.4700609987
 20
2.6226650373
 10
4.4811946142
 20
2.6205955224
 10
4.4925149993
 20
2.6190533001
 10
4.5040268646
 20
2.6180392687
 10
4.5157254996
 20
2.6175525299
 10
4.5275730285
 20
2.6175976007
 10
4.5395724638
 20
2.6181776417
 10
4.5517207931
 20
2.6192894922
 10
4.5639711034
 20
2.6209281873
 10
4.5763241687
 20
2.6230974214
 10
4.588779215
 20
2.6257935001
 10
4.6012870074
 20
2.6290003746
 10
4.6138485321
 20
2.6327219745
 10
4.6264628028
 20
2.6369543702
 10
4.6390776258
 20
2.641669724
 10
4.6516756031
 20
2.6468587568
 10
4.6642741326
 20
2.6525307477
 10
4.6768732143
 20
2.6586856968
  0
LINE
  5
3A0
100
AcDbEntity
  8
ASSI
100
AcDbLine
 62
250
  6
CONTINUOUS
 10
4.3317090173
 20
15.178010159
 11
4.331916321
 21
15.1592233755
  0
LINE
  5
3A1
100
AcDbEntity
  8
ASSI
100
AcDbLine
 62
250
  6
CONTINUOUS
 10
3.7658548625
 20
16.6714047366
 11
3.7658548625
 21
17.3184670906
  0
LINE
  5
3A2
100
AcDbEntity
  8
ASSI
100
AcDbLine
 62
7
  6
CONTINUOUS
 10
4.1388462621
 20
17.5025708683
 11
4.1388462621
 21
17.4890886959
  0
LINE
  5
3A3
100
AcDbEntity
  8
ASSI
100
AcDbLine
 62
250
  6
CONTINUOUS
 10
4.263652433
 20
8.299791945
 11
4.263652433
 21
2.964329831
  0
LINE
  5
3A4
100
AcDbEntity
  8
ASSI
100
AcDbLine
 62
250
  6
CONTINUOUS
 10
4.331916321
 20
15.1592233755
 11
4.331916321
 21
11.5044586158
  0
LINE
  5
3A5
100
AcDbEntity
  8
ASSI
100
AcDbLine
 62
250
  6
CONTINUOUS
 10
4.331916321
 20
-20.7810521245
 11
4.331916321
 21
-24.4358168842
  0
LINE
  5
3A6
100
AcDbEntity
  8
ASSI
100
AcDbLine
 62
7
  6
CONTINUOUS
 10
4.3478504929
 20
8.4039907006
 11
4.3478504929
 21
3.0685285866
  0
LINE
  5
3A7
100
AcDbEntity
  8
ASSI
100
AcDbLine
 62
7
  6
CONTINUOUS
 10
4.3880483609
 20
15.2286892126
 11
4.3880483609
 21
11.7711936841
  0
LINE
  5
3A8
100
AcDbEntity
  8
ASSI
100
AcDbLine
 62
7
  6
CONTINUOUS
 10
4.3880483609
 20
-20.9088555187
 11
4.3880483609
 21
-24.3663510472
  0
LINE
  5
3A9
100
AcDbEntity
  8
C_CONTATTO_DX
100
AcDbLine
 62
7
  6
CONTINUOUS
 10
4.5894144316
 20
15.8116133776
 11
4.5894144316
 21
15.6925622395
  0
LINE
  5
3AA
100
AcDbEntity
  8
C_CONTATTO_DX
100
AcDbLine
 62
7
  6
CONTINUOUS
 10
4.6223449092
 20
15.8420252258
 11
4.6223449092
 21
15.6899823398
  0
LINE
  5
3AB
100
AcDbEntity
  8
C_CONTATTO_DX
100
AcDbLine
 62
7
  6
CONTINUOUS
 10
4.83394805
 20
16.3512110287
 11
4.83394805
 21
15.679640578
  0
LINE
  5
3AC
100
AcDbEntity
  8
C_CONTATTO_DX
100
AcDbLine
 62
7
  6
CONTINUOUS
 10
5.3573449092
 20
16.2095252258
 11
5.3573449092
 21
15.6826860871
  0
LINE
  5
3AD
100
AcDbEntity
  8
C_CONTATTO_DX
100
AcDbLine
 62
7
  6
CONTINUOUS
 10
5.4181686055
 20
16.2259904645
 11
5.4181686055
 21
15.6864999348
  0
LWPOLYLINE
  5
3AE
100
AcDbEntity
  8
ASSI
100
AcDbPolyline
 62
250
  6
CONTINUOUS
 90
58
 70
0
 10
4.331916321
 20
-24.4358168842
 10
4.3317090173
 20
-24.454818337
 10
4.3310905808
 20
-24.4739922923
 10
4.3300610114
 20
-24.4933387503
 10
4.3286189415
 20
-24.5128728089
 10
4.3267657388
 20
-24.53257937
 10
4.3245055058
 20
-24.55241314
 10
4.3218373287
 20
-24.5723739697
 10
4.3187621213
 20
-24.5924620081
 10
4.3152867289
 20
-24.6126324084
 10
4.3114102615
 20
-24.6328852999
 10
4.3071336091
 20
-24.6532205532
 10
4.3024662855
 20
-24.6735929331
 10
4.2974074333
 20
-24.694002492
 10
4.29195791
 20
-24.7144491774
 10
4.2861298022
 20
-24.7348875972
 10
4.2799222506
 20
-24.7553177913
 10
4.2733361145
 20
-24.7757397198
 10
4.2663860588
 20
-24.7961078703
 10
4.2590712822
 20
-24.816422092
 10
4.2513925861
 20
-24.8366825358
 10
4.2433670389
 20
-24.8568441413
 10
4.2349938624
 20
-24.8769067031
 10
4.2262738349
 20
-24.8968704267
 10
4.2172263598
 20
-24.9166908677
 10
4.2078507203
 20
-24.9363676837
 10
4.1981476333
 20
-24.9559012171
 10
4.1881386523
 20
-24.9752480517
 10
4.1778230746
 20
-24.9944078118
 10
4.167201603
 20
-25.013380873
 10
4.1562978992
 20
-25.0321249468
 10
4.145111355
 20
-25.0506394874
 10
4.1336425785
 20
-25.0689250406
 10
4.1219170558
 20
-25.0869409546
 10
4.1099342005
 20
-25.1046866524
 10
4.097694599
 20
-25.1221627109
 10
4.0852254962
 20
-25.1393302092
 10
4.0725263883
 20
-25.1561884496
 10
4.0595977793
 20
-25.1727381298
 10
4.0464684257
 20
-25.1889424224
 10
4.0331378573
 20
-25.2048005821
 10
4.0196065443
 20
-25.2203133541
 10
4.0059046541
 20
-25.2354461468
 10
3.9920318451
 20
-25.250198072
 10
3.9779884588
 20
-25.264570018
 10
3.9638056873
 20
-25.2785300578
 10
3.9494832
 20
-25.2920772991
 10
3.9350213275
 20
-25.3052126342
 10
3.9204522532
 20
-25.3179068137
 10
3.9057756952
 20
-25.3301588791
 10
3.8909919356
 20
-25.3419697888
 10
3.8761340036
 20
-25.3533131691
 10
3.8612014141
 20
-25.3641881397
 10
3.8461946524
 20
-25.3745955809
 10
3.8311482033
 20
-25.3845117597
 10
3.816073562
 20
-25.3939287651
 10
3.8009592333
 20
-25.402854508
 10
3.7858052174
 20
-25.4112889886
  0
LWPOLYLINE
  5
3AF
100
AcDbEntity
  8
ASSI
100
AcDbPolyline
 62
250
  6
CONTINUOUS
 90
21
 70
0
 10
4.3478504929
 20
8.4039904345
 10
4.3478317174
 20
8.4023125344
 10
4.3474601626
 20
8.3963414223
 10
4.3466133777
 20
8.3903824433
 10
4.3452927059
 20
8.3844450491
 10
4.3435002419
 20
8.3785386576
 10
4.3412388288
 20
8.3726726372
 10
4.3385120537
 20
8.3668562924
 10
4.3353242417
 20
8.3610988488
 10
4.3316804491
 20
8.3554094388
 10
4.3275864556
 20
8.3497970866
 10
4.323048755
 20
8.3442706944
 10
4.3180745448
 20
8.3388390279
 10
4.3126717149
 20
8.3335107027
 10
4.306848835
 20
8.3282941703
 10
4.3006151413
 20
8.323197705
 10
4.2939805214
 20
8.3182293907
 10
4.2869554988
 20
8.3133971079
 10
4.2795512165
 20
8.3087085214
 10
4.2717794188
 20
8.304171068
 10
4.263652433
 20
8.299791945
  0
LWPOLYLINE
  5
3B0
100
AcDbEntity
  8
ASSI
100
AcDbPolyline
 62
250
  6
CONTINUOUS
 90
18
 70
0
 10
4.3478504929
 20
3.0685285866
 10
4.347831718
 20
3.0668504482
 10
4.3474601655
 20
3.0608793362
 10
4.3466133828
 20
3.0549203571
 10
4.3452927131
 20
3.0489829626
 10
4.3435002511
 20
3.0430765706
 10
4.34123884
 20
3.0372105494
 10
4.3385120666
 20
3.0313942037
 10
4.3353242561
 20
3.025636759
 10
4.3316804647
 20
3.0199473476
 10
4.3275864721
 20
3.014334994
 10
4.3230487721
 20
3.0088086001
 10
4.318074562
 20
3.0033769318
 10
4.3126717318
 20
2.9980486046
 10
4.3068488512
 20
2.9928320701
 10
4.3006151562
 20
2.9877356027
 10
4.2939805344
 20
2.9827672861
 10
4.2869555095
 20
2.977935001
  0
LWPOLYLINE
  5
3B1
100
AcDbEntity
  8
ASSI
100
AcDbPolyline
 62
7
  6
CONTINUOUS
 90
16
 70
0
 10
4.3880483609
 20
11.7711937213
 10
4.3878498111
 20
11.7563960732
 10
4.387172446
 20
11.7398916797
 10
4.3860038514
 20
11.7230562559
 10
4.384335254
 20
11.705905275
 10
4.3821579758
 20
11.6884492954
 10
4.3794647858
 20
11.6707320164
 10
4.3762500061
 20
11.652763358
 10
4.3725096594
 20
11.6345624882
 10
4.3682412005
 20
11.6161876902
 10
4.3634367402
 20
11.5976235509
 10
4.3581033156
 20
11.5789173826
 10
4.3522696134
 20
11.560220279
 10
4.3459557684
 20
11.5415913073
 10
4.3391665644
 20
11.5229994441
 10
4.331916321
 20
11.5044586158
  0
LWPOLYLINE
  5
3B2
100
AcDbEntity
  8
ASSI
100
AcDbPolyline
 62
7
  6
CONTINUOUS
 90
19
 70
0
 10
4.3478505552
 20
8.4037925743
 10
4.3486898483
 20
8.4289086395
 10
4.351484364
 20
8.4573284964
 10
4.3564837047
 20
8.4882811047
 10
4.3638639084
 20
8.5212915843
 10
4.3737382285
 20
8.5558748636
 10
4.3860153241
 20
8.5911435112
 10
4.4006032854
 20
8.6265432493
 10
4.417335092
 20
8.6614977475
 10
4.4357903019
 20
8.69512268
 10
4.4556343428
 20
8.726931243
 10
4.4764915308
 20
8.7564897161
 10
4.4977112529
 20
8.7831409119
 10
4.5187658435
 20
8.8065842395
 10
4.5392625327
 20
8.8267659954
 10
4.5586561606
 20
8.8435581328
 10
4.5765183217
 20
8.8570342479
 10
4.5923903726
 20
8.8673199142
 10
4.6013099246
 20
8.8723335332
  0
LWPOLYLINE
  5
3B3
100
AcDbEntity
  8
ASSI
100
AcDbPolyline
 62
250
  6
CONTINUOUS
 90
19
 70
0
 10
4.3880483609
 20
-24.3663510472
 10
4.3879298864
 20
-24.3697925495
 10
4.3874469484
 20
-24.3741002941
 10
4.3865928305
 20
-24.3783936135
 10
4.3853691226
 20
-24.3826645157
 10
4.3837781027
 20
-24.3869050504
 10
4.3818227325
 20
-24.3911073238
 10
4.3795066519
 20
-24.3952635134
 10
4.3768341723
 20
-24.3993658826
 10
4.3738102685
 20
-24.4034067946
 10
4.3704405696
 20
-24.4073787275
 10
4.3667313481
 20
-24.4112742875
 10
4.3626895089
 20
-24.4150862229
 10
4.3583225758
 20
-24.418807438
 10
4.3536386778
 20
-24.4224310056
 10
4.3486465341
 20
-24.4259501805
 10
4.3433554374
 20
-24.4293584118
 10
4.3377752372
 20
-24.4326493551
 10
4.331916321
 20
-24.4358168842
  0
LWPOLYLINE
  5
3B4
100
AcDbEntity
  8
ASSI
100
AcDbPolyline
 62
250
  6
CONTINUOUS
 90
19
 70
0
 10
4.3880482806
 20
15.2285995875
 10
4.3879298868
 20
15.2252477151
 10
4.3874469492
 20
15.2209399705
 10
4.3865928316
 20
15.216646651
 10
4.3853691241
 20
15.2123757488
 10
4.3837781046
 20
15.208135214
 10
4.3818227348
 20
15.2039329404
 10
4.3795066545
 20
15.1997767506
 10
4.3768341751
 20
15.1956743812
 10
4.3738102715
 20
15.1916334688
 10
4.3704405726
 20
15.1876615356
 10
4.3667313512
 20
15.1837659753
 10
4.3626895119
 20
15.1799540394
 10
4.3583225786
 20
15.176232824
 10
4.3536386803
 20
15.172609256
 10
4.3486465361
 20
15.1690900806
 10
4.3433554389
 20
15.1656818489
 10
4.337775238
 20
15.1623909051
 10
4.331916321
 20
15.1592233755
  0
LINE
  5
3B5
100
AcDbEntity
  8
C_COPERCHIO
100
AcDbLine
 62
7
  6
CONTINUOUS
 10
-19.5587272974
 20
-17.2758099474
 11
-19.5819198131
 21
-17.2915724352
  0
LINE
  5
3B6
100
AcDbEntity
  8
C_COPERCHIO
100
AcDbLine
 62
7
  6
CONTINUOUS
 10
-19.5344720638
 20
-17.2595159481
 11
-19.5587272974
 21
-17.2758099474
  0
LINE
  5
3B7
100
AcDbEntity
  8
C_COPERCHIO
100
AcDbLine
 62
7
  6
CONTINUOUS
 10
-19.5092069645
 20
-17.242736035
 11
-19.5344720638
 21
-17.2595159481
  0
LINE
  5
3B8
100
AcDbEntity
  8
C_COPERCHIO
100
AcDbLine
 62
7
  6
CONTINUOUS
 10
-19.4829862316
 20
-17.2255170549
 11
-19.5092069645
 21
-17.242736035
  0
LINE
  5
3B9
100
AcDbEntity
  8
C_COPERCHIO
100
AcDbLine
 62
7
  6
CONTINUOUS
 10
-19.4558685416
 20
-17.2079030514
 11
-19.4829862316
 21
-17.2255170549
  0
LINE
  5
3BA
100
AcDbEntity
  8
C_COPERCHIO
100
AcDbLine
 62
7
  6
CONTINUOUS
 10
-19.4279114189
 20
-17.1899443172
 11
-19.4558685416
 21
-17.2079030514
  0
LINE
  5
3BB
100
AcDbEntity
  8
C_COPERCHIO
100
AcDbLine
 62
7
  6
CONTINUOUS
 10
-19.3991768289
 20
-17.171695194
 11
-19.4279114189
 21
-17.1899443172
  0
LINE
  5
3BC
100
AcDbEntity
  8
C_COPERCHIO
100
AcDbLine
 62
7
  6
CONTINUOUS
 10
-19.3697374908
 20
-17.153210307
 11
-19.3991768289
 21
-17.171695194
  0
LINE
  5
3BD
100
AcDbEntity
  8
C_COPERCHIO
100
AcDbLine
 62
7
  6
CONTINUOUS
 10
-19.3396739545
 20
-17.1345589682
 11
-19.3697374908
 21
-17.153210307
  0
LINE
  5
3BE
100
AcDbEntity
  8
C_COPERCHIO
100
AcDbLine
 62
7
  6
CONTINUOUS
 10
-19.3167751506
 20
-17.1205090621
 11
-19.3396739545
 21
-17.1345589682
  0
LINE
  5
3BF
100
AcDbEntity
  8
C_COPERCHIO
100
AcDbLine
 62
7
  6
CONTINUOUS
 10
-19.2936317562
 20
-17.106450364
 11
-19.3167751506
 21
-17.1205090621
  0
LINE
  5
3C0
100
AcDbEntity
  8
C_COPERCHIO
100
AcDbLine
 62
7
  6
CONTINUOUS
 10
-19.27030693
 20
-17.0924311972
 11
-19.2936317562
 21
-17.106450364
  0
LINE
  5
3C1
100
AcDbEntity
  8
C_COPERCHIO
100
AcDbLine
 62
7
  6
CONTINUOUS
 10
-19.2468785654
 20
-17.0785095637
 11
-19.27030693
 21
-17.0924311972
  0
LINE
  5
3C2
100
AcDbEntity
  8
C_COPERCHIO
100
AcDbLine
 62
7
  6
CONTINUOUS
 10
-19.223443699
 20
-17.0647556462
 11
-19.2468785654
 21
-17.0785095637
  0
LINE
  5
3C3
100
AcDbEntity
  8
C_COPERCHIO
100
AcDbLine
 62
7
  6
CONTINUOUS
 10
-19.2001227504
 20
-17.0512540581
 11
-19.223443699
 21
-17.0647556462
  0
LINE
  5
3C4
100
AcDbEntity
  8
C_COPERCHIO
100
AcDbLine
 62
7
  6
CONTINUOUS
 10
-19.1770632848
 20
-17.0381056107
 11
-19.2001227504
 21
-17.0512540581
  0
LINE
  5
3C5
100
AcDbEntity
  8
C_COPERCHIO
100
AcDbLine
 62
7
  6
CONTINUOUS
 10
-19.1619203148
 20
-17.0295944906
 11
-19.1770632848
 21
-17.0381056107
  0
LINE
  5
3C6
100
AcDbEntity
  8
C_COPERCHIO
100
AcDbLine
 62
7
  6
CONTINUOUS
 10
-19.1470307679
 20
-17.0213305779
 11
-19.1619203148
 21
-17.0295944906
  0
LWPOLYLINE
  5
3C7
100
AcDbEntity
  8
C_COPERCHIO
100
AcDbPolyline
 62
7
  6
CONTINUOUS
 90
3
 70
0
 10
-19.1253294947
 20
-17.0094872659
 10
-19.1324708341
 20
-17.0133531072
 10
-19.1470307679
 20
-17.0213305779
  0
LINE
  5
3C8
100
AcDbEntity
  8
C_COPERCHIO
100
AcDbLine
 62
7
  6
CONTINUOUS
 10
-19.1253294947
 20
-17.0094872659
 11
-19.1174033334
 21
-17.0052446856
  0
LINE
  5
3C9
100
AcDbEntity
  8
ASSI
100
AcDbLine
 62
250
  6
CONTINUOUS
 10
13.3362950978
 20
8.3607831082
 11
13.3408465924
 21
8.3620585454
  0
LINE
  5
3CA
100
AcDbEntity
  8
ASSI
100
AcDbLine
 62
250
  6
CONTINUOUS
 10
13.2503526464
 20
8.334514181
 11
13.2552714482
 21
8.3358916493
  0
LINE
  5
3CB
100
AcDbEntity
  8
ASSI
100
AcDbLine
 62
250
  6
CONTINUOUS
 10
13.3408465924
 20
8.3620585454
 11
13.3451670651
 21
8.3632376559
  0
LINE
  5
3CC
100
AcDbEntity
  8
ASSI
100
AcDbLine
 62
250
  6
CONTINUOUS
 10
13.3451670651
 20
8.3632376559
 11
13.3492993248
 21
8.3643362293
  0
LINE
  5
3CD
100
AcDbEntity
  8
ASSI
100
AcDbLine
 62
250
  6
CONTINUOUS
 10
13.3492993248
 20
8.3643362293
 11
13.3532624902
 21
8.3653623655
  0
LINE
  5
3CE
100
AcDbEntity
  8
ASSI
100
AcDbLine
 62
250
  6
CONTINUOUS
 10
13.3532624902
 20
8.3653623655
 11
13.3570690718
 21
8.3663213501
  0
LINE
  5
3CF
100
AcDbEntity
  8
ASSI
100
AcDbLine
 62
250
  6
CONTINUOUS
 10
13.3570690718
 20
8.3663213501
 11
13.3607334202
 21
8.3672196901
  0
LINE
  5
3D0
100
AcDbEntity
  8
ASSI
100
AcDbLine
 62
250
  6
CONTINUOUS
 10
13.3607334202
 20
8.3672196901
 11
13.3642676332
 21
8.368062641
  0
LINE
  5
3D1
100
AcDbEntity
  8
ASSI
100
AcDbLine
 62
250
  6
CONTINUOUS
 10
13.3642676332
 20
8.368062641
 11
13.367678697
 21
8.3688533779
  0
LINE
  5
3D2
100
AcDbEntity
  8
ASSI
100
AcDbLine
 62
250
  6
CONTINUOUS
 10
13.367678697
 20
8.3688533779
 11
13.3709755709
 21
8.3695960665
  0
LINE
  5
3D3
100
AcDbEntity
  8
ASSI
100
AcDbLine
 62
250
  6
CONTINUOUS
 10
13.3709755709
 20
8.3695960665
 11
13.3741634077
 21
8.370293617
  0
LINE
  5
3D4
100
AcDbEntity
  8
ASSI
100
AcDbLine
 62
250
  6
CONTINUOUS
 10
13.3741634077
 20
8.370293617
 11
13.3772460006
 21
8.370948016
  0
LINE
  5
3D5
100
AcDbEntity
  8
ASSI
100
AcDbLine
 62
250
  6
CONTINUOUS
 10
13.3772460006
 20
8.370948016
 11
13.3802289474
 21
8.3715620965
  0
LINE
  5
3D6
100
AcDbEntity
  8
ASSI
100
AcDbLine
 62
250
  6
CONTINUOUS
 10
13.3802289474
 20
8.3715620965
 11
13.3831176941
 21
8.372138365
  0
LINE
  5
3D7
100
AcDbEntity
  8
ASSI
100
AcDbLine
 62
250
  6
CONTINUOUS
 10
13.3831176941
 20
8.372138365
 11
13.3859157177
 21
8.3726784399
  0
LINE
  5
3D8
100
AcDbEntity
  8
ASSI
100
AcDbLine
 62
250
  6
CONTINUOUS
 10
13.3859157177
 20
8.3726784399
 11
13.3886280669
 21
8.3731845976
  0
LINE
  5
3D9
100
AcDbEntity
  8
ASSI
100
AcDbLine
 62
250
  6
CONTINUOUS
 10
13.3886280669
 20
8.3731845976
 11
13.3912592576
 21
8.3736587673
  0
LWPOLYLINE
  5
3DA
100
AcDbEntity
  8
ASSI
100
AcDbPolyline
 62
250
  6
CONTINUOUS
 90
3
 70
0
 10
13.3912592576
 20
8.3736587673
 10
13.3938122146
 20
8.3741022233
 10
13.3950609764
 20
8.3743130969
  0
LWPOLYLINE
  5
3DB
100
AcDbEntity
  8
ASSI
100
AcDbPolyline
 62
250
  6
CONTINUOUS
 90
11
 70
0
 10
4.3552416497
 20
3.0061392159
 10
4.355985015
 20
3.0059262031
 10
4.3613506199
 20
3.0046792879
 10
4.3668144992
 20
3.0036948123
 10
4.3723753301
 20
3.0029733691
 10
4.378029991
 20
3.0025162961
 10
4.3837711857
 20
3.0023251059
 10
4.3895912174
 20
3.0024003722
 10
4.3954855142
 20
3.0027425096
 10
4.4014473545
 20
3.003351592
 10
4.4074653737
 20
3.0042261036
  0
LWPOLYLINE
  5
3DC
100
AcDbEntity
  8
C_COPERCHIO
100
AcDbPolyline
 62
250
  6
CONTINUOUS
 90
20
 70
0
 10
-24.1840036611
 20
17.6409568671
 10
-24.19072441
 20
17.6440503121
 10
-24.1974314497
 20
17.6468389488
 10
-24.2041154034
 20
17.6493188784
 10
-24.2107669268
 20
17.6514866339
 10
-24.2173767206
 20
17.6533391847
 10
-24.223935544
 20
17.6548739409
 10
-24.2304342276
 20
17.6560887567
 10
-24.2368636857
 20
17.6569819338
 10
-24.2432149297
 20
17.6575522235
 10
-24.2494790803
 20
17.6577988286
 10
-24.2556473799
 20
17.6577214041
 10
-24.2617112048
 20
17.6573200585
 10
-24.2676620777
 20
17.6565953527
 10
-24.2734916788
 20
17.6555483
 10
-24.2791918582
 20
17.6541803642
 10
-24.2847546466
 20
17.6524934577
 10
-24.2901722671
 20
17.6504899389
 10
-24.2954371456
 20
17.6481726088
 10
-24.2996244375
 20
17.6460462983
  0
LINE
  5
3DD
100
AcDbEntity
  8
C_COPERCHIO
100
AcDbLine
 62
250
  6
CONTINUOUS
 10
-24.3576951777
 20
17.3376377329
 11
-7.3540218752
 21
8.8358010816
  0
LINE
  5
3DE
100
AcDbEntity
  8
ASSI
100
AcDbLine
 62
250
  6
CONTINUOUS
 10
4.352896558
 20
3.0786207166
 11
4.4629224519
 21
3.0236077697
  0
LINE
  5
3DF
100
AcDbEntity
  8
C_COPERCHIO
100
AcDbLine
 62
250
  6
CONTINUOUS
 10
-24.1840036611
 20
17.6409568671
 11
-7.1803303586
 21
9.1391202159
  0
LWPOLYLINE
  5
3E0
100
AcDbEntity
  8
ASSI
100
AcDbPolyline
 62
250
  6
CONTINUOUS
 90
40
 70
0
 10
4.4629224519
 20
3.0236077697
 10
4.4716095656
 20
3.0191995105
 10
4.4802795894
 20
3.014375588
 10
4.4889184634
 20
3.0091438251
 10
4.4975121778
 20
3.003512706
 10
4.5060467964
 20
2.9974913626
 10
4.5145084788
 20
2.9910895598
 10
4.5228835025
 20
2.9843176792
 10
4.5311582861
 20
2.9771867027
 10
4.5393194103
 20
2.9697081946
 10
4.5473536403
 20
2.9618942827
 10
4.5552479472
 20
2.9537576387
 10
4.5629895288
 20
2.9453114577
 10
4.5705658306
 20
2.9365694368
 10
4.5779645663
 20
2.9275457528
 10
4.5851737374
 20
2.9182550394
 10
4.5921816529
 20
2.9087123631
 10
4.5989769481
 20
2.8989331994
 10
4.6055486032
 20
2.8889334068
 10
4.6118859609
 20
2.8787292021
 10
4.6179787441
 20
2.8683371331
 10
4.6238170722
 20
2.8577740527
 10
4.6293914771
 20
2.8470570908
 10
4.634692919
 20
2.8362036271
 10
4.6397128006
 20
2.8252312625
 10
4.6444429811
 20
2.8141577907
 10
4.6488757897
 20
2.8030011695
 10
4.6530040378
 20
2.7917794915
 10
4.6568210305
 20
2.7805109546
 10
4.660320578
 20
2.7692138331
 10
4.6634970051
 20
2.7579064473
 10
4.6663451606
 20
2.7466071343
 10
4.6688604256
 20
2.735334218
 10
4.6710387211
 20
2.7241059796
 10
4.6728765148
 20
2.7129406279
 10
4.6743708262
 20
2.7018562695
 10
4.675519232
 20
2.6908708798
 10
4.6763198698
 20
2.6800022738
 10
4.6767714414
 20
2.669268077
 10
4.6768732143
 20
2.6586856968
  0
LWPOLYLINE
  5
3E1
100
AcDbEntity
  8
C_COPERCHIO
100
AcDbPolyline
 62
250
  6
CONTINUOUS
 90
43
 70
0
 10
-7.1803303586
 20
9.1391202159
 10
-7.1738358986
 20
9.1356060565
 10
-7.1673462049
 20
9.1317963264
 10
-7.1608703505
 20
9.1276963519
 10
-7.1544173888
 20
9.1233118649
 10
-7.1479963416
 20
9.1186489952
 10
-7.1416161856
 20
9.1137142616
 10
-7.1352858406
 20
9.1085145632
 10
-7.1290141568
 20
9.1030571694
 10
-7.1228099023
 20
9.0973497099
 10
-7.116681751
 20
9.0914001639
 10
-7.1106382702
 20
9.0852168493
 10
-7.1046879092
 20
9.0788084106
 10
-7.0988389866
 20
9.0721838072
 10
-7.0930996797
 20
9.0653523004
 10
-7.0874780123
 20
9.0583234412
 10
-7.0819818437
 20
9.0511070562
 10
-7.0766188578
 20
9.0437132342
 10
-7.0713965524
 20
9.0361523122
 10
-7.0663222284
 20
9.0284348607
 10
-7.0614029801
 20
9.020571669
 10
-7.0566456847
 20
9.0125737303
 10
-7.0520569932
 20
9.0044522262
 10
-7.0476433209
 20
8.9962185107
 10
-7.0434108382
 20
8.9878840952
 10
-7.0393654623
 20
8.9794606314
 10
-7.035512849
 20
8.9709598959
 10
-7.0318583842
 20
8.9623937729
 10
-7.0284071772
 20
8.9537742385
 10
-7.0251640529
 20
8.9451133431
 10
-7.0221335453
 20
8.936423195
 10
-7.0193198913
 20
8.9277159435
 10
-7.0167270244
 20
8.9190037618
 10
-7.0143585696
 20
8.9102988299
 10
-7.0122178382
 20
8.9016133178
 10
-7.0103078229
 20
8.8929593681
 10
-7.0086311941
 20
8.8843490796
 10
-7.0071902957
 20
8.8757944898
 10
-7.0059871423
 20
8.8673075584
 10
-7.0050234158
 20
8.8589001507
 10
-7.0043004637
 20
8.8505840205
 10
-7.0038192966
 20
8.8423707942
 10
-7.0035805873
 20
8.8342719542
  0
LWPOLYLINE
  5
3E2
100
AcDbEntity
  8
ASSI
100
AcDbPolyline
 62
7
  6
CONTINUOUS
 90
9
 70
0
 10
4.3596842313
 20
2.9940550433
 10
4.3598377378
 20
2.9938196038
 10
4.3592558324
 20
2.9949623882
 10
4.3573178199
 20
2.9996094237
 10
4.3546955575
 20
3.0078567379
 10
4.3519897245
 20
3.0196072857
 10
4.3496801665
 20
3.0348223089
 10
4.3481970566
 20
3.0533538935
 10
4.3478504968
 20
3.068543819
  0
LWPOLYLINE
  5
3E3
100
AcDbEntity
  8
ASSI
100
AcDbPolyline
 62
250
  6
CONTINUOUS
 90
25
 70
0
 10
-4.0118199415
 20
21.1343424587
 10
-4.2789802184
 20
21.8347134024
 10
-4.282283797
 20
21.8427717819
 10
-4.2858084054
 20
21.8507510633
 10
-4.2895473332
 20
21.858636055
 10
-4.293493462
 20
21.8664117451
 10
-4.2976392789
 20
21.8740633295
 10
-4.3019768907
 20
21.8815762406
 10
-4.3064980392
 20
21.8889361748
 10
-4.3111941167
 20
21.8961291196
 10
-4.3160561823
 20
21.9031413805
 10
-4.3210749794
 20
21.9099596072
 10
-4.3262409528
 20
21.9165708184
 10
-4.331544267
 20
21.9229624274
 10
-4.3369748253
 20
21.9291222651
 10
-4.3425222886
 20
21.9350386042
 10
-4.348176095
 20
21.9407001805
 10
-4.3539254806
 20
21.9460962152
 10
-4.3597594992
 20
21.9512164349
 10
-4.3656670435
 20
21.9560510913
 10
-4.3716368663
 20
21.9605909797
 10
-4.3776576018
 20
21.9648274569
 10
-4.3837177873
 20
21.968752457
 10
-4.3898058848
 20
21.9723585074
 10
-4.3959103035
 20
21.9756387426
  0
LINE
  5
3E4
100
AcDbEntity
  8
C_CONTATTO_SX
100
AcDbLine
 62
7
  6
CONTINUOUS
 10
-2.742589344
 20
19.6367057769
 11
-2.944088702
 21
20.2324302027
  0
LINE
  5
3E5
100
AcDbEntity
  8
C_CONTATTO_DX
100
AcDbLine
 62
7
  6
CONTINUOUS
 10
6.7242544526
 20
16.1719266069
 11
6.6841984245
 21
16.7008961107
  0
LINE
  5
3E6
100
AcDbEntity
  8
C_CONTATTO_DX
100
AcDbLine
 62
7
  6
CONTINUOUS
 10
6.0923449092
 20
15.8420252258
 11
6.0923449092
 21
15.7621457838
  0
LINE
  5
3E7
100
AcDbEntity
  8
ASSI
100
AcDbLine
 62
250
  6
CONTINUOUS
 10
7.1604672012
 20
19.6494182182
 11
7.1604672012
 21
18.9998991654
  0
LINE
  5
3E8
100
AcDbEntity
  8
ASSI
100
AcDbLine
 62
7
  6
CONTINUOUS
 10
7.219045845
 20
19.7065356748
 11
7.219045845
 21
19.0198792499
  0
LWPOLYLINE
  5
3E9
100
AcDbEntity
  8
ASSI
100
AcDbPolyline
 62
7
  6
CONTINUOUS
 90
20
 70
0
 10
7.219045845
 20
19.7065359788
 10
7.2190346655
 20
19.705824176
 10
7.2187869087
 20
19.7030756313
 10
7.2182135575
 20
19.7002755434
 10
7.2173142891
 20
19.6974307573
 10
7.2160893351
 20
19.6945415328
 10
7.2145394615
 20
19.6916142441
 10
7.2126659849
 20
19.6886558155
 10
7.2104708094
 20
19.6856673353
 10
7.2079563718
 20
19.6826551299
 10
7.2051256468
 20
19.6796260877
 10
7.2019821961
 20
19.6765820898
 10
7.1985301323
 20
19.6735293187
 10
7.1947740689
 20
19.6704745141
 10
7.1907191359
 20
19.6674202953
 10
7.186371096
 20
19.6643726136
 10
7.1817361409
 20
19.6613379467
 10
7.1768207941
 20
19.6583195708
 10
7.171632221
 20
19.6553225081
 10
7.1661782656
 20
19.6523535005
  0
LINE
  5
3EA
100
AcDbEntity
  8
C_COPERCHIO
100
AcDbLine
 62
7
  6
CONTINUOUS
 10
-19.1174033334
 20
-17.0052446856
 11
-19.1156419659
 21
-17.0043169641
  0
LINE
  5
3EB
100
AcDbEntity
  8
C_COPERCHIO
100
AcDbLine
 62
7
  6
CONTINUOUS
 10
-19.1156419659
 20
-17.0043169641
 11
-19.1138803693
 21
-17.0034025657
  0
LINE
  5
3EC
100
AcDbEntity
  8
C_COPERCHIO
100
AcDbLine
 62
7
  6
CONTINUOUS
 10
-19.1138803693
 20
-17.0034025657
 11
-19.1121186521
 21
-17.0025015466
  0
LINE
  5
3ED
100
AcDbEntity
  8
C_COPERCHIO
100
AcDbLine
 62
7
  6
CONTINUOUS
 10
-19.1121186521
 20
-17.0025015466
 11
-19.1103568415
 21
-17.0016139209
  0
LINE
  5
3EE
100
AcDbEntity
  8
C_COPERCHIO
100
AcDbLine
 62
7
  6
CONTINUOUS
 10
-18.4544759473
 20
-16.6736734738
 11
-19.1103568415
 21
-17.0016139209
  0
LINE
  5
3EF
100
AcDbEntity
  8
C_COPERCHIO
100
AcDbLine
 62
7
  6
CONTINUOUS
 10
-17.6093906486
 20
-16.2590767556
 11
-18.4465300162
 21
-16.6776464394
  0
LINE
  5
3F0
100
AcDbEntity
  8
ASSI
100
AcDbLine
 62
250
  6
CONTINUOUS
 10
13.3950609764
 20
8.3743130969
 11
13.3975042522
 21
8.3747136205
  0
LINE
  5
3F1
100
AcDbEntity
  8
ASSI
100
AcDbLine
 62
250
  6
CONTINUOUS
 10
13.3975042522
 20
8.3747136205
 11
13.3998786129
 21
8.3750872359
  0
LINE
  5
3F2
100
AcDbEntity
  8
ASSI
100
AcDbLine
 62
250
  6
CONTINUOUS
 10
13.3998786129
 20
8.3750872359
 11
13.4021878754
 21
8.3754352766
  0
LINE
  5
3F3
100
AcDbEntity
  8
ASSI
100
AcDbLine
 62
250
  6
CONTINUOUS
 10
13.4021878754
 20
8.3754352766
 11
13.4044345425
 21
8.3757586661
  0
LINE
  5
3F4
100
AcDbEntity
  8
ASSI
100
AcDbLine
 62
250
  6
CONTINUOUS
 10
13.4044345425
 20
8.3757586661
 11
13.4066227622
 21
8.3760586886
  0
LINE
  5
3F5
100
AcDbEntity
  8
ASSI
100
AcDbLine
 62
250
  6
CONTINUOUS
 10
13.4066227622
 20
8.3760586886
 11
13.4087543979
 21
8.3763361235
  0
LINE
  5
3F6
100
AcDbEntity
  8
ASSI
100
AcDbLine
 62
250
  6
CONTINUOUS
 10
13.4087543979
 20
8.3763361235
 11
13.4108308412
 21
8.3765916044
  0
LINE
  5
3F7
100
AcDbEntity
  8
ASSI
100
AcDbLine
 62
250
  6
CONTINUOUS
 10
13.4108308412
 20
8.3765916044
 11
13.4128541788
 21
8.3768259108
  0
LINE
  5
3F8
100
AcDbEntity
  8
ASSI
100
AcDbLine
 62
250
  6
CONTINUOUS
 10
13.4128541788
 20
8.3768259108
 11
13.4148268568
 21
8.3770396959
  0
LINE
  5
3F9
100
AcDbEntity
  8
ASSI
100
AcDbLine
 62
250
  6
CONTINUOUS
 10
13.4148268568
 20
8.3770396959
 11
13.4167502138
 21
8.3772334855
  0
LINE
  5
3FA
100
AcDbEntity
  8
ASSI
100
AcDbLine
 62
250
  6
CONTINUOUS
 10
13.4167502138
 20
8.3772334855
 11
13.4186261974
 21
8.3774078319
  0
LINE
  5
3FB
100
AcDbEntity
  8
ASSI
100
AcDbLine
 62
250
  6
CONTINUOUS
 10
13.4186261974
 20
8.3774078319
 11
13.4204563234
 21
8.377563065
  0
LINE
  5
3FC
100
AcDbEntity
  8
ASSI
100
AcDbLine
 62
250
  6
CONTINUOUS
 10
13.4204563234
 20
8.377563065
 11
13.4222414156
 21
8.3776995646
  0
LWPOLYLINE
  5
3FD
100
AcDbEntity
  8
ASSI
100
AcDbPolyline
 62
250
  6
CONTINUOUS
 90
66
 70
0
 10
13.4222414156
 20
8.3776995646
 10
13.4239826575
 20
8.3778176139
 10
13.4248373474
 20
8.3778697144
 10
13.4256819975
 20
8.3779172981
 10
13.4265160894
 20
8.3779604215
 10
13.4273388202
 20
8.377998879
 10
13.4281503069
 20
8.3780327518
 10
13.428950308
 20
8.3780621497
 10
13.4297374925
 20
8.3780868996
 10
13.4305115996
 20
8.3781070571
 10
13.4312727839
 20
8.3781227394
 10
13.4320203491
 20
8.3781338524
 10
13.4327539277
 20
8.3781404825
 10
13.4334737886
 20
8.378142711
 10
13.4341801853
 20
8.3781404437
 10
13.43487313
 20
8.3781338058
 10
13.4355524928
 20
8.3781228701
 10
13.4362182978
 20
8.3781074862
 10
13.4368705307
 20
8.3780877897
 10
13.4375090727
 20
8.3780638698
 10
13.4381337772
 20
8.3780355286
 10
13.4387446081
 20
8.3780029153
 10
13.4393414529
 20
8.3779661337
 10
13.4399240351
 20
8.3779249399
 10
13.4404923208
 20
8.3778794979
 10
13.4410461785
 20
8.3778299284
 10
13.4415851701
 20
8.3777759466
 10
13.4421092476
 20
8.3777177322
 10
13.442618277
 20
8.3776554234
 10
13.4431116747
 20
8.3775886978
 10
13.4435893843
 20
8.377517752
 10
13.4440512632
 20
8.3774427431
 10
13.444496583
 20
8.3773633148
 10
13.4449252781
 20
8.377279682
 10
13.4453371979
 20
8.3771920218
 10
13.4457314704
 20
8.377099949
 10
13.44610802
 20
8.3770036973
 10
13.4464666892
 20
8.3769034654
 10
13.4468064674
 20
8.3767988434
 10
13.4471272698
 20
8.3766900842
 10
13.4474289313
 20
8.3765774101
 10
13.4477103054
 20
8.3764603937
 10
13.4479712938
 20
8.3763393098
 10
13.4482117293
 20
8.3762144028
 10
13.4484303476
 20
8.3760852283
 10
13.4486270443
 20
8.3759520789
 10
13.4488016428
 20
8.3758152281
 10
13.4489527576
 20
8.3756742308
 10
13.4490802688
 20
8.3755294019
 10
13.4491840032
 20
8.3753810377
 10
13.4492624836
 20
8.3752286917
 10
13.4493155726
 20
8.3750726733
 10
13.4493431026
 20
8.374913333
 10
13.4493435461
 20
8.374750301
 10
13.4493166135
 20
8.374583716
 10
13.4492622848
 20
8.3744141391
 10
13.4491794846
 20
8.3742417596
 10
13.4490676538
 20
8.3740665065
 10
13.4489271357
 20
8.3738890178
 10
13.4487583514
 20
8.3737102987
 10
13.4485610673
 20
8.3735303871
 10
13.4483355191
 20
8.37334944
 10
13.4480829859
 20
8.3731683659
 10
13.4478036722
 20
8.3729872737
 10
13.4474974934
 20
8.3728060346
 10
13.4471439254
 20
8.3726138913
  0
LINE
  5
3FE
100
AcDbEntity
  8
C_COPERCHIO
100
AcDbLine
 62
7
  6
CONTINUOUS
 10
-14.8659090328
 20
16.6322884064
 11
-9.3504761395
 21
13.8745719598
  0
LWPOLYLINE
  5
3FF
100
AcDbEntity
  8
C_COPERCHIO
100
AcDbPolyline
 62
250
  6
CONTINUOUS
 90
40
 70
0
 10
-19.5568094808
 20
20.4174097957
 10
-19.5498167127
 20
20.413613597
 10
-19.5428352869
 20
20.4094723816
 10
-19.5358765273
 20
20.4049928667
 10
-19.5289517211
 20
20.400182318
 10
-19.5220721002
 20
20.3950485382
 10
-19.5152488234
 20
20.3895998543
 10
-19.5084929583
 20
20.3838451042
 10
-19.5018154627
 20
20.3777936221
 10
-19.4952271675
 20
20.3714552234
 10
-19.4887387592
 20
20.3648401892
 10
-19.4823607618
 20
20.3579592489
 10
-19.4761035204
 20
20.3508235636
 10
-19.4699771845
 20
20.3434447072
 10
-19.4639916908
 20
20.3358346484
 10
-19.458156748
 20
20.3280057308
 10
-19.4524818202
 20
20.3199706527
 10
-19.4469761123
 20
20.3117424472
 10
-19.4416485545
 20
20.3033344604
 10
-19.4365077881
 20
20.2947603301
 10
-19.4315621516
 20
20.2860339637
 10
-19.4268196666
 20
20.2771695152
 10
-19.4222880257
 20
20.2681813629
 10
-19.417974579
 20
20.2590840855
 10
-19.413886323
 20
20.2498924389
 10
-19.4100298889
 20
20.240621332
 10
-19.4064115318
 20
20.2312858026
 10
-19.4030371208
 20
20.2219009928
 10
-19.3999121291
 20
20.212482125
 10
-19.3970416255
 20
20.2030444765
 10
-19.3944302659
 20
20.1936033552
 10
-19.392082286
 20
20.1841740747
 10
-19.3900014942
 20
20.1747719293
 10
-19.3881912656
 20
20.1654121693
 10
-19.3866545364
 20
20.1561099763
 10
-19.385393799
 20
20.1468804385
 10
-19.3844110986
 20
20.1377385261
 10
-19.3837080289
 20
20.1286990675
 10
-19.3832857305
 20
20.1197767247
 10
-19.3831448882
 20
20.1109859697
  0
LINE
  5
400
100
AcDbEntity
  8
ASSI
100
AcDbLine
 62
7
  6
CONTINUOUS
 10
-5.040637359
 20
20.2420381796
 11
-5.0395695828
 21
20.2405306139
  0
LWPOLYLINE
  5
401
100
AcDbEntity
  8
ASSI
100
AcDbPolyline
 62
250
  6
CONTINUOUS
 90
49
 70
0
 10
-0.0129984828
 20
23.4533697495
 10
-0.017224117
 20
23.4640714359
 10
-0.0216707572
 20
23.4746166938
 10
-0.0263384033
 20
23.4850055232
 10
-0.0312341191
 20
23.4952508805
 10
-0.0363508409
 20
23.5053398093
 10
-0.0416673778
 20
23.5152334406
 10
-0.0471843284
 20
23.5249299297
 10
-0.0529010941
 20
23.5344311212
 10
-0.0587946879
 20
23.5437036804
 10
-0.0648657751
 20
23.5527462441
 10
-0.0711136903
 20
23.5615601754
 10
-0.0775134509
 20
23.570116229
 10
-0.0840654004
 20
23.5784128092
 10
-0.0907691953
 20
23.5864515118
 10
-0.0975988224
 20
23.5942078788
 10
-0.1045544685
 20
23.6016803643
 10
-0.1116359467
 20
23.6088705143
 10
-0.1188166837
 20
23.6157585089
 10
-0.1260965429
 20
23.6223427369
 10
-0.1334756608
 20
23.6286248095
 10
-0.1409278738
 20
23.6345897407
 10
-0.1484530312
 20
23.6402361542
 10
-0.1560512837
 20
23.6455654264
 10
-0.1636969198
 20
23.6505666998
 10
-0.1713897231
 20
23.6552387169
 10
-0.1791299099
 20
23.6595827353
 10
-0.1868924175
 20
23.6635916701
 10
-0.1946767596
 20
23.6672643129
 10
-0.2024834225
 20
23.6706018722
 10
-0.2102888022
 20
23.6736008878
 10
-0.218092128
 20
23.6762603534
 10
-0.2258941706
 20
23.6785812753
 10
-0.2336736375
 20
23.6805632131
 10
-0.2414301339
 20
23.6822055306
 10
-0.2491640546
 20
23.683508864
 10
-0.2568552916
 20
23.6844746813
 10
-0.2645041178
 20
23.6851023736
 10
-0.2721102602
 20
23.6853925498
 10
-0.2796527922
 20
23.6853485052
 10
-0.2871315025
 20
23.6849694326
 10
-0.2945466024
 20
23.6842561392
 10
-0.3018777984
 20
23.683214341
 10
-0.3091249288
 20
23.6818431869
 10
-0.3162881555
 20
23.6801435279
 10
-0.3233476703
 20
23.6781236336
 10
-0.3302968708
 20
23.6757862603
 10
-0.3371423594
 20
23.6731286516
 10
-0.3438841363
 20
23.6701508075
  0
LINE
  5
402
100
AcDbEntity
  8
ASSI
100
AcDbLine
 62
250
  6
CONTINUOUS
 10
0.0893993893
 20
23.1849521242
 11
-0.0129984828
 21
23.4533697495
  0
LINE
  5
403
100
AcDbEntity
  8
ASSI
100
AcDbLine
 62
7
  6
CONTINUOUS
 10
0.1465393111
 20
23.249877392
 11
0.0513913134
 21
23.4992907741
  0
LWPOLYLINE
  5
404
100
AcDbEntity
  8
ASSI
100
AcDbPolyline
 62
250
  6
CONTINUOUS
 90
25
 70
0
 10
-0.3438841363
 20
23.6701508075
 10
-0.3469603955
 20
23.6782729432
 10
-0.3502639742
 20
23.6863313229
 10
-0.3537885827
 20
23.6943106046
 10
-0.3575275107
 20
23.7021955966
 10
-0.3614736397
 20
23.7099712868
 10
-0.3656194567
 20
23.7176228714
 10
-0.3699570687
 20
23.7251357827
 10
-0.3744782173
 20
23.7324957169
 10
-0.3791742948
 20
23.7396886618
 10
-0.3840363606
 20
23.7467009228
 10
-0.3890551577
 20
23.7535191494
 10
-0.3942211312
 20
23.7601303607
 10
-0.3995244455
 20
23.7665219695
 10
-0.4049550038
 20
23.7726818072
 10
-0.410502467
 20
23.7785981462
 10
-0.4161562734
 20
23.7842597224
 10
-0.4219056589
 20
23.7896557569
 10
-0.4277396774
 20
23.7947759764
 10
-0.4336472216
 20
23.7996106326
 10
-0.4396170442
 20
23.8041505209
 10
-0.4456377795
 20
23.8083869978
 10
-0.4516979648
 20
23.8123119978
 10
-0.4577860621
 20
23.815918048
 10
-0.4638904805
 20
23.819198283
  0
LWPOLYLINE
  5
405
100
AcDbEntity
  8
ASSI
100
AcDbPolyline
 62
250
  6
CONTINUOUS
 90
12
 70
0
 10
4.3024662855
 20
15.3665030199
 10
4.3071336091
 20
15.3509637951
 10
4.3114102615
 20
15.335057145
 10
4.3152867289
 20
15.318818453
 10
4.3187621213
 20
15.302246927
 10
4.3218373287
 20
15.2853433589
 10
4.3245055058
 20
15.2681455075
 10
4.3267657387
 20
15.2506522773
 10
4.3286189415
 20
15.2328647638
 10
4.3300610114
 20
15.2148240123
 10
4.3310905808
 20
15.1965437046
 10
4.3317090173
 20
15.178010159
  0
LWPOLYLINE
  5
406
100
AcDbEntity
  8
C_CONTATTO_DX
100
AcDbPolyline
 62
7
  6
CONTINUOUS
 90
12
 70
0
 10
6.6841984245
 20
16.7008961107
 10
6.6827404509
 20
16.7140581728
 10
6.6803342797
 20
16.7264967012
 10
6.6769799109
 20
16.7382116961
 10
6.6726295488
 20
16.7493225819
 10
6.6673309891
 20
16.7597099341
 10
6.6612276189
 20
16.7690154788
 10
6.6543208529
 20
16.7771553516
 10
6.6466092765
 20
16.7842134169
 10
6.6382320333
 20
16.7900829944
 10
6.6291931506
 20
16.7947572451
 10
6.6219322969
 20
16.7974999122
  0
LWPOLYLINE
  5
407
100
AcDbEntity
  8
C_COPERCHIO
100
AcDbPolyline
 62
7
  6
CONTINUOUS
 90
16
 70
0
 10
-3.9006583585
 20
10.7916014372
 10
-3.8809741431
 20
10.7919567367
 10
-3.861381731
 20
10.7919229761
 10
-3.8419025195
 20
10.7915497729
 10
-3.8225595179
 20
10.7908988952
 10
-3.8033634002
 20
10.7900049307
 10
-3.7843138961
 20
10.7888685419
 10
-3.7654223972
 20
10.7875240961
 10
-3.7466990027
 20
10.7860113073
 10
-3.7281409491
 20
10.7843270416
 10
-3.7097552496
 20
10.7824986642
 10
-3.6915486704
 20
10.7805578261
 10
-3.673518644
 20
10.7784996682
 10
-3.6556695916
 20
10.7763464876
 10
-3.6380059669
 20
10.7741239152
 10
-3.6205263412
 20
10.7718265113
  0
LWPOLYLINE
  5
408
100
AcDbEntity
  8
C_COPERCHIO
100
AcDbPolyline
 62
7
  6
CONTINUOUS
 90
4
 70
0
 10
-3.2992664166
 20
10.7244747436
 10
-3.2863196328
 20
10.722852412
 10
-3.2736013196
 20
10.7213368264
 10
-3.2611102771
 20
10.7199367124
  0
LINE
  5
409
100
AcDbEntity
  8
C_COPERCHIO
100
AcDbLine
 62
7
  6
CONTINUOUS
 10
-3.3258555286
 20
10.7279953257
 11
-3.2992664166
 21
10.7244747436
  0
LINE
  5
40A
100
AcDbEntity
  8
C_COPERCHIO
100
AcDbLine
 62
7
  6
CONTINUOUS
 10
-3.6205263412
 20
10.7718265113
 11
-3.5861302669
 21
10.7670841085
  0
LINE
  5
40B
100
AcDbEntity
  8
C_COPERCHIO
100
AcDbLine
 62
7
  6
CONTINUOUS
 10
-3.3533360081
 20
10.7318678501
 11
-3.3258555286
 21
10.7279953257
  0
LINE
  5
40C
100
AcDbEntity
  8
C_COPERCHIO
100
AcDbLine
 62
7
  6
CONTINUOUS
 10
-3.5861302669
 20
10.7670841085
 11
-3.5524953743
 21
10.7622009941
  0
LINE
  5
40D
100
AcDbEntity
  8
C_COPERCHIO
100
AcDbLine
 62
7
  6
CONTINUOUS
 10
-3.38169316
 20
10.7360395546
 11
-3.3533360081
 21
10.7318678501
  0
LINE
  5
40E
100
AcDbEntity
  8
C_COPERCHIO
100
AcDbLine
 62
7
  6
CONTINUOUS
 10
-3.5524953743
 20
10.7622009941
 11
-3.5034982549
 21
10.754796996
  0
LINE
  5
40F
100
AcDbEntity
  8
C_COPERCHIO
100
AcDbLine
 62
7
  6
CONTINUOUS
 10
-3.5034982549
 20
10.754796996
 11
-3.38169316
 21
10.7360395546
  0
LWPOLYLINE
  5
410
100
AcDbEntity
  8
C_COPERCHIO
100
AcDbPolyline
 62
250
  6
CONTINUOUS
 90
19
 70
0
 10
-4.4448223027
 20
12.8614162067
 10
-4.4520635254
 20
12.8647370034
 10
-4.4592930028
 20
12.8677012397
 10
-4.4664990087
 20
12.8703041077
 10
-4.4736698549
 20
12.8725413854
 10
-4.4807939104
 20
12.8744094441
 10
-4.4878596199
 20
12.8759052536
 10
-4.4948555227
 20
12.8770263878
 10
-4.5017702715
 20
12.8777710282
 10
-4.5085926505
 20
12.878137967
 10
-4.5153115938
 20
12.878126609
 10
-4.5219162034
 20
12.8777369725
 10
-4.5283957663
 20
12.8769696897
 10
-4.5347397729
 20
12.8758260049
 10
-4.540937933
 20
12.8743077733
 10
-4.5469801932
 20
12.8724174575
 10
-4.5528567531
 20
12.8701581235
 10
-4.5585580806
 20
12.867533436
 10
-4.5597697613
 20
12.8669167965
  0
LWPOLYLINE
  5
411
100
AcDbEntity
  8
C_COPERCHIO
100
AcDbPolyline
 62
250
  6
CONTINUOUS
 90
19
 70
0
 10
-20.5668569138
 20
20.9224335122
 10
-20.5740981364
 20
20.9257543089
 10
-20.5813276138
 20
20.9287185452
 10
-20.5885336197
 20
20.9313214132
 10
-20.595704466
 20
20.933558691
 10
-20.6028285215
 20
20.9354267496
 10
-20.6098942309
 20
20.9369225591
 10
-20.6168901337
 20
20.9380436934
 10
-20.6238048825
 20
20.9387883338
 10
-20.6306272616
 20
20.9391552725
 10
-20.6373462049
 20
20.9391439145
 10
-20.6439508144
 20
20.938754278
 10
-20.6504303774
 20
20.9379869952
 10
-20.6567743839
 20
20.9368433104
 10
-20.662972544
 20
20.9353250789
 10
-20.6690148043
 20
20.933434763
 10
-20.6748913641
 20
20.9311754291
 10
-20.6805926917
 20
20.9285507415
 10
-20.6818043724
 20
20.9279341021
  0
LINE
  5
412
100
AcDbEntity
  8
C_MOLLA_IDEA
100
AcDbLine
 62
7
  6
CONTINUOUS
 10
-7.6534198647
 20
14.657072868
 11
-9.1148213249
 21
15.3877735981
  0
LINE
  5
413
100
AcDbEntity
  8
C_MOLLA_IDEA
100
AcDbLine
 62
7
  6
CONTINUOUS
 10
-14.6772997786
 20
18.169012825
 11
-16.1387012389
 21
18.8997135551
  0
LINE
  5
414
100
AcDbEntity
  8
C_MOLLA_IDEA
100
AcDbLine
 62
250
  6
CONTINUOUS
 10
-7.6534198647
 20
14.9168804891
 11
-16.1387012389
 21
19.1595211762
  0
LINE
  5
415
100
AcDbEntity
  8
ASSI
100
AcDbLine
 62
7
  6
CONTINUOUS
 10
-19.1792819372
 20
21.6769042481
 11
-18.1141659981
 21
21.1443462786
  0
LINE
  5
416
100
AcDbEntity
  8
ASSI
100
AcDbLine
 62
7
  6
CONTINUOUS
 10
-2.9909493369
 20
13.582737948
 11
-1.9258333979
 21
13.0501799785
  0
LINE
  5
417
100
AcDbEntity
  8
C_COPERCHIO
100
AcDbLine
 62
7
  6
CONTINUOUS
 10
-1.9612372042
 20
13.0678818816
 11
-3.0218435198
 21
13.5981850395
  0
LINE
  5
418
100
AcDbEntity
  8
C_COPERCHIO
100
AcDbLine
 62
7
  6
CONTINUOUS
 10
-18.0832718152
 20
21.1288991871
 11
-19.1438781309
 21
21.659202345
  0
LINE
  5
419
100
AcDbEntity
  8
C_MOLLA_IDEA
100
AcDbLine
 62
250
  6
CONTINUOUS
 10
-7.1584451178
 20
15.7705856452
 11
-15.6437264921
 21
20.0132263323
  0
LINE
  5
41A
100
AcDbEntity
  8
C_MOLLA_IDEA
100
AcDbLine
 62
250
  6
CONTINUOUS
 10
-6.7948769852
 20
15.9523697115
 11
-15.2801583595
 21
20.1950103986
  0
LINE
  5
41B
100
AcDbEntity
  8
C_MOLLA_IDEA
100
AcDbLine
 62
250
  6
CONTINUOUS
 10
-6.6419213767
 20
15.9991771056
 11
-15.1272027509
 21
20.2418177927
  0
LINE
  5
41C
100
AcDbEntity
  8
C_MOLLA_IDEA
100
AcDbLine
 62
7
  6
CONTINUOUS
 10
-7.6534198647
 20
16.6196680635
 11
-9.7040295301
 21
17.6449728962
  0
LINE
  5
41D
100
AcDbEntity
  8
C_MOLLA_IDEA
100
AcDbLine
 62
7
  6
CONTINUOUS
 10
-11.6839285174
 20
18.6349223899
 11
-13.7345381829
 21
19.6602272226
  0
LWPOLYLINE
  5
41E
100
AcDbEntity
  8
C_MOLLA_IDEA
100
AcDbPolyline
 62
7
  6
CONTINUOUS
 90
15
 70
0
 10
-13.7345381829
 20
19.6602272226
 10
-13.7435544484
 20
19.6649148812
 10
-13.7518896363
 20
19.6696011214
 10
-13.7595437467
 20
19.6742859431
 10
-13.7665436458
 20
19.6789893383
 10
-13.7728624674
 20
19.6836913151
 10
-13.7784196127
 20
19.6883318981
 10
-13.7832053247
 20
19.6929103009
 10
-13.7872293603
 20
19.69742731
 10
-13.7904403917
 20
19.7018253093
 10
-13.7928280044
 20
19.7061027743
 10
-13.7944026127
 20
19.7102612295
 10
-13.7951441321
 20
19.7142476324
 10
-13.7950418908
 20
19.7180597791
 10
-13.7947679214
 20
19.7195656537
  0
LWPOLYLINE
  5
41F
100
AcDbEntity
  8
C_MOLLA_IDEA
100
AcDbPolyline
 62
7
  6
CONTINUOUS
 90
15
 70
0
 10
-9.7040295301
 20
17.6449728962
 10
-9.7130457956
 20
17.6496605548
 10
-9.7213809836
 20
17.654346795
 10
-9.729035094
 20
17.6590316168
 10
-9.7360349931
 20
17.6637350119
 10
-9.7423538146
 20
17.6684369887
 10
-9.7479109599
 20
17.6730775717
 10
-9.7526966719
 20
17.6776559745
 10
-9.7567207076
 20
17.6821729836
 10
-9.759931739
 20
17.6865709829
 10
-9.7623193516
 20
17.6908484479
 10
-9.76389396
 20
17.6950069031
 10
-9.7646354793
 20
17.698993306
 10
-9.764533238
 20
17.7028054527
 10
-9.7642592686
 20
17.7043113273
  0
LWPOLYLINE
  5
420
100
AcDbEntity
  8
C_MOLLA_IDEA
100
AcDbPolyline
 62
7
  6
CONTINUOUS
 90
25
 70
0
 10
-14.6772997786
 20
18.169012825
 10
-14.6685086648
 20
18.164275998
 10
-14.6598168979
 20
18.1589402471
 10
-14.6512244779
 20
18.1530055721
 10
-14.6426994248
 20
18.1464447981
 10
-14.6342737186
 20
18.1392851002
 10
-14.6260432997
 20
18.131608003
 10
-14.6180104002
 20
18.1234075927
 10
-14.610172788
 20
18.1146897832
 10
-14.602619707
 20
18.1055538408
 10
-14.5953544094
 20
18.0959949864
 10
-14.588373643
 20
18.0860179991
 10
-14.5817568952
 20
18.0757364832
 10
-14.5755083267
 20
18.0651469578
 10
-14.5696237767
 20
18.0542529039
 10
-14.5641702505
 20
18.0431783677
 10
-14.5591526745
 20
18.0319212865
 10
-14.5545661223
 20
18.0204837231
 10
-14.5504628191
 20
18.0089959128
 10
-14.5468482886
 20
17.9974572812
 10
-14.543717007
 20
17.9858684026
 10
-14.5411046293
 20
17.9743612353
 10
-14.5390230402
 20
17.9629797653
 10
-14.5374603549
 20
17.9516800066
 10
-14.5364165733
 20
17.940461959
  0
LWPOLYLINE
  5
421
100
AcDbEntity
  8
C_COPERCHIO
100
AcDbPolyline
 62
250
  6
CONTINUOUS
 90
40
 70
0
 10
-3.4347748697
 20
12.3563924902
 10
-3.4277821017
 20
12.3525962915
 10
-3.4208006759
 20
12.3484550761
 10
-3.4138419163
 20
12.3439755612
 10
-3.40691711
 20
12.3391650124
 10
-3.4000374891
 20
12.3340312327
 10
-3.3932142124
 20
12.3285825488
 10
-3.3864583472
 20
12.3228277987
 10
-3.3797808516
 20
12.3167763166
 10
-3.3731925565
 20
12.3104379179
 10
-3.3667041481
 20
12.3038228837
 10
-3.3603261507
 20
12.2969419434
 10
-3.3540689094
 20
12.289806258
 10
-3.3479425734
 20
12.2824274017
 10
-3.3419570798
 20
12.2748173429
 10
-3.3361221369
 20
12.2669884252
 10
-3.3304472092
 20
12.2589533472
 10
-3.3249415012
 20
12.2507251417
 10
-3.3196139434
 20
12.2423171549
 10
-3.3144731771
 20
12.2337430246
 10
-3.3095275405
 20
12.2250166581
 10
-3.3047850556
 20
12.2161522097
 10
-3.3002534146
 20
12.2071640573
 10
-3.2959399679
 20
12.19806678
 10
-3.2918517119
 20
12.1888751334
 10
-3.2879952779
 20
12.1796040265
 10
-3.2843769208
 20
12.1702684971
 10
-3.2810025098
 20
12.1608836873
 10
-3.2778775181
 20
12.1514648195
 10
-3.2750070144
 20
12.1420271709
 10
-3.2723956549
 20
12.1325860497
 10
-3.270047675
 20
12.1231567692
 10
-3.2679668832
 20
12.1137546238
 10
-3.2661566546
 20
12.1043948638
 10
-3.2646199253
 20
12.0950926708
 10
-3.263359188
 20
12.0858631329
 10
-3.2623764875
 20
12.0767212206
 10
-3.2616734179
 20
12.067681762
 10
-3.2612511194
 20
12.0587594192
 10
-3.2611102771
 20
12.0499686642
  0
LWPOLYLINE
  5
422
100
AcDbEntity
  8
ASSI
100
AcDbPolyline
 62
250
  6
CONTINUOUS
 90
10
 70
0
 10
-5.0289701639
 20
20.1007834708
 10
-4.9968986499
 20
20.0702780295
 10
-4.9635208846
 20
20.0400827673
 10
-4.9288813827
 20
20.0102379157
 10
-4.8929784901
 20
19.980743962
 10
-4.8558138609
 20
19.9516004188
 10
-4.8174369731
 20
19.9228460558
 10
-4.7778461958
 20
19.8944813769
 10
-4.7370431599
 20
19.8665058783
 10
-4.6950822352
 20
19.8389568185
  0
LWPOLYLINE
  5
423
100
AcDbEntity
  8
ASSI
100
AcDbPolyline
 62
250
  6
CONTINUOUS
 90
4
 70
0
 10
-5.1173026837
 20
20.1941206384
 10
-5.0891909137
 20
20.1627256677
 10
-5.0597336645
 20
20.1315994797
 10
-5.0289701639
 20
20.1007834708
  0
LINE
  5
424
100
AcDbEntity
  8
ASSI
100
AcDbLine
 62
7
  6
CONTINUOUS
 10
2.0304304529
 20
16.7065042736
 11
2.0314982291
 21
16.7049967079
  0
LWPOLYLINE
  5
425
100
AcDbEntity
  8
ASSI
100
AcDbPolyline
 62
7
  6
CONTINUOUS
 90
89
 70
0
 10
1.3476553909
 20
20.2222614276
 10
1.3463689159
 20
20.2248004343
 10
1.3299895157
 20
20.2543828912
 10
1.3123090532
 20
20.2837929187
 10
1.293353013
 20
20.312988125
 10
1.2731195553
 20
20.3419682011
 10
1.25161052
 20
20.3707334561
 10
1.2288569117
 20
20.3992424257
 10
1.2048569361
 20
20.4274947397
 10
1.1796123876
 20
20.4554907683
 10
1.1531596539
 20
20.4831901576
 10
1.1254969922
 20
20.5105924804
 10
1.0966261455
 20
20.5376981639
 10
1.0665887298
 20
20.5644681363
 10
1.0353830633
 20
20.5909019132
 10
1.0030108279
 20
20.616999979
 10
0.9695186857
 20
20.6427247154
 10
0.9349050212
 20
20.6680755842
 10
0.89917145
 20
20.6930531237
 10
0.8623694801
 20
20.7176213298
 10
0.8244975711
 20
20.7417796121
 10
0.7855572635
 20
20.7655285611
 10
0.7456046871
 20
20.7888339442
 10
0.704638382
 20
20.8116951219
 10
0.6626598082
 20
20.8341127337
 10
0.6197294752
 20
20.856054466
 10
0.5758460106
 20
20.8775196325
 10
0.531010787
 20
20.8985089194
 10
0.4852884316
 20
20.918992072
 10
0.4386776654
 20
20.9389683601
 10
0.3911797675
 20
20.9584385139
 10
0.3428632029
 20
20.9773744684
 10
0.2937267906
 20
20.9957754534
 10
0.2437717117
 20
21.013642239
 10
0.193069974
 20
21.0309490712
 10
0.1416205012
 20
21.0476951424
 10
0.0894243696
 20
21.0638812601
 10
0.0365568158
 20
21.0794840933
 10
-0.016983129
 20
21.0945028011
 10
-0.0711944961
 20
21.1089382245
 10
-0.1259991416
 20
21.1227695553
 10
-0.1813979202
 20
21.1359959222
 10
-0.2373899774
 20
21.1486181965
 10
-0.2938946054
 20
21.1606181843
 10
-0.3509125445
 20
21.1719949884
 10
-0.4084430545
 20
21.1827495061
 10
-0.4664032067
 20
21.1928662349
 10
-0.5247936194
 20
21.202344255
 10
-0.5836136744
 20
21.2111844862
 10
-0.6427785882
 20
21.2193741864
 10
-0.7022888595
 20
21.2269124173
 10
-0.7621439896
 20
21.2338001172
 10
-0.8222576985
 20
21.2400273574
 10
-0.8826303575
 20
21.2455931854
 10
-0.9432615954
 20
21.2504985537
 10
-1.0040640183
 20
21.2547363919
 10
-1.0650378751
 20
21.2583057373
 10
-1.126182917
 20
21.2612075524
 10
-1.1874110044
 20
21.2634376545
 10
-1.2487222551
 20
21.2649950746
 10
-1.3101165512
 20
21.2658807816
 10
-1.3715053995
 20
21.2660934989
 10
-1.4328887941
 20
21.2656322558
 10
-1.4942667409
 20
21.2644980229
 10
-1.5555507642
 20
21.2626924353
 10
-1.6167407267
 20
21.2602145247
 10
-1.6778367657
 20
21.2570652593
 10
-1.738750818
 20
21.2532491785
 10
-1.7994826232
 20
21.2487653204
 10
-1.8600324416
 20
21.2436146469
 10
-1.9203129915
 20
21.2378045826
 10
-1.9803238826
 20
21.2313341766
 10
-2.0400655052
 20
21.2242043798
 10
-2.099451748
 20
21.2164254691
 10
-2.1584821003
 20
21.207996508
 10
-2.2171570728
 20
21.198918433
 10
-2.2753920867
 20
21.1892043298
 10
-2.3331865058
 20
21.1788532816
 10
-2.3905409664
 20
21.1678662053
 10
-2.4473727973
 20
21.1562589376
 10
-2.5036812461
 20
21.1440305841
 10
-2.5594670654
 20
21.1311820393
 10
-2.6146498416
 20
21.117731824
 10
-2.6692287041
 20
21.1036790707
 10
-2.7232045235
 20
21.0890246469
 10
-2.7764994979
 20
21.0737896757
 10
-2.8290876935
 20
21.0579811984
 10
-2.8809950441
 20
21.0415921737
 10
-2.9322215497
 20
21.0246226018
  0
LWPOLYLINE
  5
426
100
AcDbEntity
  8
ASSI
100
AcDbPolyline
 62
7
  6
CONTINUOUS
 90
9
 70
0
 10
0.0513932877
 20
23.4992855221
 10
0.0381591976
 20
23.5315332443
 10
0.008986428
 20
23.5900536176
 10
-0.0248693153
 20
23.6440560516
 10
-0.0629608281
 20
23.6930688273
 10
-0.1045820276
 20
23.7363753687
 10
-0.1492309727
 20
23.7736352978
 10
-0.1965403151
 20
23.8046233252
 10
-0.2185525035
 20
23.8164289579
  0
LWPOLYLINE
  5
427
100
AcDbEntity
  8
ASSI
100
AcDbPolyline
 62
250
  6
CONTINUOUS
 90
25
 70
0
 10
3.0592478703
 20
17.5988085528
 10
2.7920875934
 20
18.2991794965
 10
2.7887840149
 20
18.3072378759
 10
2.7852594065
 20
18.3152171573
 10
2.7815204787
 20
18.3231021491
 10
2.7775743498
 20
18.3308778391
 10
2.7734285329
 20
18.3385294235
 10
2.7690909211
 20
18.3460423347
 10
2.7645697726
 20
18.3534022688
 10
2.7598736952
 20
18.3605952136
 10
2.7550116295
 20
18.3676074746
 10
2.7499928325
 20
18.3744257012
 10
2.7448268591
 20
18.3810369125
 10
2.7395235448
 20
18.3874285214
 10
2.7340929865
 20
18.3935883592
 10
2.7285455233
 20
18.3995046983
 10
2.7228917168
 20
18.4051662746
 10
2.7171423312
 20
18.4105623093
 10
2.7113083127
 20
18.415682529
 10
2.7054007684
 20
18.4205171853
 10
2.6994309456
 20
18.4250570738
 10
2.6934102101
 20
18.4292935509
 10
2.6873500246
 20
18.4332185511
 10
2.681261927
 20
18.4368246015
 10
2.6751575083
 20
18.4401048366
  0
LINE
  5
428
100
AcDbEntity
  8
C_CONTATTO_DX
100
AcDbLine
 62
7
  6
CONTINUOUS
 10
4.3284784678
 20
16.108971073
 11
4.1269791099
 21
16.7046954988
  0
LWPOLYLINE
  5
429
100
AcDbEntity
  8
ASSI
100
AcDbPolyline
 62
7
  6
CONTINUOUS
 90
12
 70
0
 10
13.9941533173
 20
7.4830917929
 10
13.9930421089
 20
7.5108130699
 10
13.9874185001
 20
7.5512512113
 10
13.9769630591
 20
7.5913197559
 10
13.9616451344
 20
7.6304869169
 10
13.9415909869
 20
7.6680779945
 10
13.9170450382
 20
7.7035016565
 10
13.8882195137
 20
7.7363959872
 10
13.8554453457
 20
7.7663731915
 10
13.8190688696
 20
7.7931642161
 10
13.7792203005
 20
7.8167125533
 10
13.7699333777
 20
7.8214839353
  0
LWPOLYLINE
  5
42A
100
AcDbEntity
  8
ASSI
100
AcDbPolyline
 62
250
  6
CONTINUOUS
 90
45
 70
0
 10
13.8538157288
 20
16.2427165999
 10
13.8533701674
 20
16.2582313838
 10
13.8524871253
 20
16.273920114
 10
13.8511676781
 20
16.2897636835
 10
13.8494134325
 20
16.305742797
 10
13.8472265252
 20
16.3218379939
 10
13.8446096193
 20
16.3380296722
 10
13.841565902
 20
16.3542981126
 10
13.8380990802
 20
16.3706235022
 10
13.834213376
 20
16.3869859586
 10
13.8299135217
 20
16.4033655546
 10
13.825204754
 20
16.4197423417
 10
13.8200928076
 20
16.4360963752
 10
13.8145839081
 20
16.4524077379
 10
13.8086847647
 20
16.4686565647
 10
13.8024025619
 20
16.4848230664
 10
13.7957449505
 20
16.5008875545
 10
13.7887200387
 20
16.5168304643
 10
13.7813363819
 20
16.5326323793
 10
13.7736029726
 20
16.548274055
 10
13.7655292289
 20
16.5637364416
 10
13.7571249838
 20
16.579000708
 10
13.7484004724
 20
16.5940482641
 10
13.7393663203
 20
16.6088607841
 10
13.7300335297
 20
16.623420228
 10
13.720413467
 20
16.6377088644
 10
13.710517848
 20
16.6517092915
 10
13.7003587245
 20
16.6654044586
 10
13.6899484689
 20
16.6787776865
 10
13.6792997597
 20
16.6918126886
 10
13.6684255655
 20
16.7044935897
 10
13.6573391299
 20
16.7168049462
 10
13.6460539546
 20
16.7287317643
 10
13.6345837836
 20
16.7402595187
 10
13.6229425861
 20
16.7513741701
 10
13.6111445396
 20
16.7620621822
 10
13.5992040126
 20
16.7723105383
 10
13.5871355473
 20
16.7821067574
 10
13.5749538414
 20
16.7914389087
 10
13.5626737308
 20
16.800295627
 10
13.550310171
 20
16.8086661259
 10
13.5378782193
 20
16.8165402111
 10
13.5253930163
 20
16.823908293
 10
13.5128697674
 20
16.8307613983
 10
11.1909210138
 20
17.9917925359
  0
LINE
  5
42B
100
AcDbEntity
  8
ASSI
100
AcDbLine
 62
250
  6
CONTINUOUS
 10
13.8538157288
 20
16.2427165999
 11
13.8538232669
 21
13.8846711573
  0
LINE
  5
42C
100
AcDbEntity
  8
ASSI
100
AcDbLine
 62
7
  6
CONTINUOUS
 10
13.9941533667
 20
16.40105925
 11
13.9941533667
 21
14.0593781945
  0
LINE
  5
42D
100
AcDbEntity
  8
ASSI
100
AcDbLine
 62
7
  6
CONTINUOUS
 10
13.9941533218
 20
7.4830909109
 11
13.9941533667
 21
-15.4701002859
  0
LINE
  5
42E
100
AcDbEntity
  8
ASSI
100
AcDbLine
 62
250
  6
CONTINUOUS
 10
13.9941533667
 20
-15.4701002859
 11
13.9941533378
 21
-15.4701853716
  0
LINE
  5
42F
100
AcDbEntity
  8
ASSI
100
AcDbLine
 62
250
  6
CONTINUOUS
 10
13.9941533667
 20
14.0593781967
 11
13.9940137447
 21
14.0534449653
  0
LWPOLYLINE
  5
430
100
AcDbEntity
  8
ASSI
100
AcDbPolyline
 62
250
  6
CONTINUOUS
 90
25
 70
0
 10
13.9941533667
 20
16.40105925
 10
13.9940137238
 20
16.3951511333
 10
13.9933696841
 20
16.3870675696
 10
13.9922028833
 20
16.3789986574
 10
13.9905145435
 20
16.3709528462
 10
13.9883064325
 20
16.3629385614
 10
13.9855808626
 20
16.3549641951
 10
13.9823406878
 20
16.3470380979
 10
13.9785893013
 20
16.3391685696
 10
13.9743306313
 20
16.331363851
 10
13.9695691374
 20
16.3236321149
 10
13.9643098055
 20
16.3159814576
 10
13.9585581432
 20
16.3084198906
 10
13.9523201732
 20
16.3009553322
 10
13.9456024278
 20
16.2935955989
 10
13.9384119416
 20
16.2863483975
 10
13.9307562441
 20
16.2792213172
 10
13.9226433522
 20
16.2722218211
 10
13.9140817613
 20
16.2653572387
 10
13.9050804369
 20
16.2586347586
 10
13.8956488047
 20
16.2520614201
 10
13.8857967413
 20
16.2456441066
 10
13.8755345634
 20
16.2393895382
 10
13.8648730171
 20
16.2333042644
 10
13.8538232669
 20
16.2273946574
  0
LWPOLYLINE
  5
431
100
AcDbEntity
  8
ASSI
100
AcDbPolyline
 62
250
  6
CONTINUOUS
 90
25
 70
0
 10
13.9941533378
 20
-15.4701853716
 10
13.9940139237
 20
-15.4760041743
 10
13.9933701385
 20
-15.4840879125
 10
13.9922035696
 20
-15.4921570051
 10
13.9905154381
 20
-15.5002030021
 10
13.9883075115
 20
-15.5082174775
 10
13.9855821016
 20
-15.5161920381
 10
13.9823420623
 20
-15.5241183327
 10
13.978590786
 20
-15.5319880608
 10
13.9743322013
 20
-15.5397929807
 10
13.9695707674
 20
-15.5475249188
 10
13.9643114703
 20
-15.5551757783
 10
13.9585598176
 20
-15.5627375467
 10
13.9523218324
 20
-15.5702023052
 10
13.9456040469
 20
-15.5775622365
 10
13.9384134964
 20
-15.5848096329
 10
13.930757711
 20
-15.5919369045
 10
13.9226447076
 20
-15.5989365878
 10
13.9140829825
 20
-15.6058013524
 10
13.9050815006
 20
-15.61252401
 10
13.8956496891
 20
-15.61909752
 10
13.8857974282
 20
-15.6255149965
 10
13.8755350369
 20
-15.6317697184
 10
13.8648732613
 20
-15.6378551366
 10
4.331916321
 20
-20.7810521245
  0
LWPOLYLINE
  5
432
100
AcDbEntity
  8
ASSI
100
AcDbPolyline
 62
250
  6
CONTINUOUS
 90
24
 70
0
 10
13.9940137447
 20
14.0534449653
 10
13.9933697343
 20
14.0453254466
 10
13.9922029622
 20
14.0372195545
 10
13.9905146477
 20
14.0291357319
 10
13.9883065573
 20
14.0210824108
 10
13.9855810029
 20
14.0130681098
 10
13.9823408357
 20
14.0051011725
 10
13.978589449
 20
13.997189906
 10
13.9743307793
 20
13.9893426977
 10
13.9695692931
 20
13.9815677256
 10
13.9643099746
 20
13.9738730802
 10
13.9585583265
 20
13.9662669027
 10
13.9523203751
 20
13.9587571133
 10
13.9456026503
 20
13.9513515263
 10
13.9384121684
 20
13.9440579734
 10
13.9307564321
 20
13.9368840201
 10
13.9226434761
 20
13.9298371555
 10
13.9140818511
 20
13.9229249062
 10
13.905080578
 20
13.9161544953
 10
13.8956490431
 20
13.9095329222
 10
13.8857970316
 20
13.9030671559
 10
13.87553482
 20
13.8967639487
 10
13.8648731789
 20
13.8906298241
 10
13.8538232669
 20
13.8846711573
  0
LINE
  5
433
100
AcDbEntity
  8
C_CONTATTO_DX
100
AcDbLine
 62
7
  6
CONTINUOUS
 10
5.4181686055
 20
16.2259904645
 11
5.3573449092
 21
16.2095252258
  0
LWPOLYLINE
  5
434
100
AcDbEntity
  8
ASSI
100
AcDbPolyline
 62
7
  6
CONTINUOUS
 90
20
 70
0
 10
-1.2516138095
 20
14.4454611921
 10
-1.2565532288
 20
14.447823669
 10
-1.2614891983
 20
14.4499706512
 10
-1.266415809
 20
14.4518995018
 10
-1.271327256
 20
14.453607798
 10
-1.2762175699
 20
14.4550934932
 10
-1.2810806231
 20
14.4563549138
 10
-1.2859105959
 20
14.4573905007
 10
-1.2907017133
 20
14.4581989686
 10
-1.2954479748
 20
14.4587794567
 10
-1.3001437008
 20
14.4591312325
 10
-1.3047832801
 20
14.4592538396
 10
-1.309360903
 20
14.4591472391
 10
-1.3138710917
 20
14.4588115324
 10
-1.3183084582
 20
14.4582470967
 10
-1.3226674468
 20
14.4574547149
 10
-1.3269428398
 20
14.456435321
 10
-1.3311295305
 20
14.4551901213
 10
-1.3352222764
 20
14.453720712
 10
-1.3394879881
 20
14.4519039565
  0
LWPOLYLINE
  5
435
100
AcDbEntity
  8
C_MOLLA_IDEA
100
AcDbPolyline
 62
7
  6
CONTINUOUS
 90
15
 70
0
 10
-7.5721876455
 20
17.4983035249
 10
-7.5818002866
 20
17.5029303196
 10
-7.5918583906
 20
17.5074407254
 10
-7.6023619575
 20
17.5118347423
 10
-7.6133596411
 20
17.5161301385
 10
-7.6248027876
 20
17.5203091458
 10
-7.6365454357
 20
17.5243184595
 10
-7.648591422
 20
17.5281559058
 10
-7.6609369099
 20
17.5318236585
 10
-7.6734244283
 20
17.5352749341
 10
-7.6860557968
 20
17.5385069596
 10
-7.6988291958
 20
17.5415225081
 10
-7.7115816963
 20
17.5442831151
 10
-7.7243130305
 20
17.5467855149
 10
-7.7370234661
 20
17.5490329733
  0
LWPOLYLINE
  5
436
100
AcDbEntity
  8
C_MOLLA_IDEA
100
AcDbPolyline
 62
7
  6
CONTINUOUS
 90
25
 70
0
 10
-11.6026962983
 20
19.5135578513
 10
-11.6123089394
 20
19.518184646
 10
-11.6223670434
 20
19.5226950518
 10
-11.6328706103
 20
19.5270890687
 10
-11.6438682939
 20
19.5313844649
 10
-11.6553114404
 20
19.5355634722
 10
-11.6670540885
 20
19.5395727858
 10
-11.6791000748
 20
19.5434102322
 10
-11.6914455626
 20
19.5470779849
 10
-11.7039330811
 20
19.5505292605
 10
-11.7165644495
 20
19.553761286
 10
-11.7293378486
 20
19.5567768345
 10
-11.742090349
 20
19.5595374415
 10
-11.7548216832
 20
19.5620398413
 10
-11.7675321189
 20
19.5642872997
 10
-11.7800595299
 20
19.5662511495
 10
-11.7924015718
 20
19.5679277577
 10
-11.8045605892
 20
19.5693207574
 10
-11.8163814894
 20
19.5704123804
 10
-11.8278599413
 20
19.571198766
 10
-11.8390002761
 20
19.5716837749
 10
-11.8496603949
 20
19.5718612205
 10
-11.8597929316
 20
19.5717290408
 10
-11.8694452522
 20
19.5712892978
 10
-11.8786173569
 20
19.5705419917
  0
LWPOLYLINE
  5
437
100
AcDbEntity
  8
ASSI
100
AcDbPolyline
 62
250
  6
CONTINUOUS
 90
47
 70
0
 10
13.1310303433
 20
8.3259801084
 10
13.1330788622
 20
8.3249832783
 10
13.1338071656
 20
8.3246253575
 10
13.1345602687
 20
8.3242499993
 10
13.1353378263
 20
8.3238571821
 10
13.1361400024
 20
8.3234468238
 10
13.1369694013
 20
8.3230141435
 10
13.1378260163
 20
8.3225590987
 10
13.1387096858
 20
8.3220815396
 10
13.1396228136
 20
8.3215764707
 10
13.1405648017
 20
8.3210442671
 10
13.1415361173
 20
8.3204842339
 10
13.1425408048
 20
8.3198896939
 10
13.1435784647
 20
8.3192609894
 10
13.1446494212
 20
8.3185972651
 10
13.1457588695
 20
8.3178899276
 10
13.1469064315
 20
8.3171393679
 10
13.1480925189
 20
8.3163443894
 10
13.1493236228
 20
8.3154938287
 10
13.150599413
 20
8.3145881034
 10
13.1519204592
 20
8.3136255405
 10
13.1532947998
 20
8.3125915447
 10
13.1547240996
 20
8.3114848153
 10
13.1562073135
 20
8.3103046883
 10
13.1577487584
 20
8.3090371312
 10
13.1593627277
 20
8.3076680389
 10
13.1610362513
 20
8.3062085172
 10
13.1627331454
 20
8.3046825887
 10
13.164450852
 20
8.3030896858
 10
13.1661938444
 20
8.3014281555
 10
13.1679365818
 20
8.2997214091
 10
13.1696704967
 20
8.2979772235
 10
13.171406018
 20
8.2961867183
 10
13.1731460104
 20
8.2943488395
 10
13.1748918695
 20
8.2924624671
 10
13.1766441267
 20
8.2905275291
 10
13.1784043123
 20
8.2885445352
 10
13.1801750788
 20
8.2865109014
 10
13.1819557203
 20
8.2844281054
 10
13.1837425961
 20
8.2823029118
 10
13.1855349808
 20
8.2801368267
 10
13.1873353528
 20
8.2779277005
 10
13.189144723
 20
8.2756769901
 10
13.1909631721
 20
8.273385326
 10
13.1927923203
 20
8.2710515761
 10
13.194635434
 20
8.2686745281
 10
13.1964957488
 20
8.2662508582
  0
LINE
  5
438
100
AcDbEntity
  8
ASSI
100
AcDbLine
 62
250
  6
CONTINUOUS
 10
-6.1210791627
 20
16.6909094235
 11
-7.8484540926
 21
17.5545968884
  0
LINE
  5
439
100
AcDbEntity
  8
ASSI
100
AcDbLine
 62
7
  6
CONTINUOUS
 10
-6.0414189109
 20
16.6990392515
 11
-7.7434081272
 21
17.5500338597
  0
LINE
  5
43A
100
AcDbEntity
  8
C_MOLLA_IDEA
100
AcDbLine
 62
7
  6
CONTINUOUS
 10
-11.6026962983
 20
19.5135578513
 11
-10.0156539098
 21
18.720036657
  0
LINE
  5
43B
100
AcDbEntity
  8
C_MOLLA_IDEA
100
AcDbLine
 62
7
  6
CONTINUOUS
 10
-7.5721876455
 20
17.4983035249
 11
-5.985145257
 21
16.7047823307
  0
LINE
  5
43C
100
AcDbEntity
  8
C_MOLLA_IDEA
100
AcDbLine
 62
7
  6
CONTINUOUS
 10
-11.5152930934
 20
19.8867150952
 11
-9.4646834279
 21
18.8614102624
  0
LINE
  5
43D
100
AcDbEntity
  8
C_MOLLA_IDEA
100
AcDbLine
 62
7
  6
CONTINUOUS
 10
-7.4847844406
 20
17.8714607688
 11
-5.4341747752
 21
16.8461559361
  0
LINE
  5
43E
100
AcDbEntity
  8
ASSI
100
AcDbLine
 62
250
  6
CONTINUOUS
 10
13.6374259007
 20
7.8139766619
 11
13.3356488248
 21
7.9648651998
  0
LINE
  5
43F
100
AcDbEntity
  8
C_MOLLA_IDEA
100
AcDbLine
 62
7
  6
CONTINUOUS
 10
-10.4818469894
 20
20.7159054673
 11
-9.032278088
 21
19.9911210165
  0
LINE
  5
440
100
AcDbEntity
  8
C_MOLLA_IDEA
100
AcDbLine
 62
7
  6
CONTINUOUS
 10
-2.1683874875
 20
16.5591757163
 11
-3.4461345166
 21
17.1980492308
  0
LINE
  5
441
100
AcDbEntity
  8
C_COPERCHIO
100
AcDbLine
 62
7
  6
CONTINUOUS
 10
-10.6232683456
 20
21.1088316689
 11
-9.0493244122
 21
20.3218597022
  0
LINE
  5
442
100
AcDbEntity
  8
C_COPERCHIO
100
AcDbLine
 62
7
  6
CONTINUOUS
 10
-3.4290881924
 20
17.5117415923
 11
-1.8551442589
 21
16.7247696255
  0
LINE
  5
443
100
AcDbEntity
  8
C_COPERCHIO
100
AcDbLine
 62
7
  6
CONTINUOUS
 10
-1.6136306936
 20
16.8439201526
 11
-3.189598563
 21
17.6319040873
  0
LINE
  5
444
100
AcDbEntity
  8
C_COPERCHIO
100
AcDbLine
 62
7
  6
CONTINUOUS
 10
-8.8140735373
 20
20.4441415744
 11
-10.3900414067
 21
21.2321255091
  0
LINE
  5
445
100
AcDbEntity
  8
ASSI
100
AcDbLine
 62
7
  6
CONTINUOUS
 10
13.4679617257
 20
7.9724700398
 11
13.7699333949
 21
7.8214839698
  0
LWPOLYLINE
  5
446
100
AcDbEntity
  8
ASSI
100
AcDbPolyline
 62
250
  6
CONTINUOUS
 90
40
 70
0
 10
13.6398725045
 20
7.6752853046
 10
13.6485596162
 20
7.6708770465
 10
13.6572296382
 20
7.6660531252
 10
13.6658685104
 20
7.6608213635
 10
13.6744622233
 20
7.6551902457
 10
13.6829968405
 20
7.6491689038
 10
13.6914585215
 20
7.6427671024
 10
13.6998335442
 20
7.6359952233
 10
13.7081083267
 20
7.6288642483
 10
13.7162694501
 20
7.6213857417
 10
13.7243036795
 20
7.6135718311
 10
13.7321979859
 20
7.6054351885
 10
13.7399395671
 20
7.5969890087
 10
13.7475158687
 20
7.588246989
 10
13.7549146043
 20
7.5792233061
 10
13.7621237755
 20
7.5699325936
 10
13.7691316912
 20
7.5603899182
 10
13.7759269867
 20
7.5506107552
 10
13.7824986422
 20
7.5406109632
 10
13.7888360005
 20
7.5304067588
 10
13.7949287843
 20
7.52001469
 10
13.8007671131
 20
7.5094516097
 10
13.8063415188
 20
7.4987346477
 10
13.8116429615
 20
7.4878811837
 10
13.8166628439
 20
7.4769088186
 10
13.8213930253
 20
7.4658353462
 10
13.8258258348
 20
7.4546787243
 10
13.8299540838
 20
7.4434570453
 10
13.8337710774
 20
7.4321885075
 10
13.8372706258
 20
7.4208913847
 10
13.8404470537
 20
7.4095839976
 10
13.8432952099
 20
7.3982846831
 10
13.8458104756
 20
7.3870117653
 10
13.8479887719
 20
7.3757835253
 10
13.8498265661
 20
7.3646181719
 10
13.8513208779
 20
7.3535338117
 10
13.8524692841
 20
7.3425484203
 10
13.8532699222
 20
7.3316798125
 10
13.8537214939
 20
7.3209456137
 10
13.8538232669
 20
7.3103632317
  0
LWPOLYLINE
  5
447
100
AcDbEntity
  8
C_MOLLA_IDEA
100
AcDbPolyline
 62
7
  6
CONTINUOUS
 90
15
 70
0
 10
-9.4646834279
 20
18.8614102624
 10
-9.4556671624
 20
18.8567226039
 10
-9.4473319745
 20
18.8520363637
 10
-9.4396778641
 20
18.8473515419
 10
-9.432677965
 20
18.8426481467
 10
-9.4263591434
 20
18.83794617
 10
-9.4208019982
 20
18.833305587
 10
-9.4160162862
 20
18.8287271841
 10
-9.4119922505
 20
18.8242101751
 10
-9.4087812191
 20
18.8198121758
 10
-9.4063936064
 20
18.8155347108
 10
-9.4048189981
 20
18.8113762555
 10
-9.4040774787
 20
18.8073898526
 10
-9.40417972
 20
18.803577706
 10
-9.4044536894
 20
18.8020718313
  0
LWPOLYLINE
  5
448
100
AcDbEntity
  8
C_MOLLA_IDEA
100
AcDbPolyline
 62
7
  6
CONTINUOUS
 90
15
 70
0
 10
-5.4341747752
 20
16.8461559361
 10
-5.4251585097
 20
16.8414682775
 10
-5.4168233217
 20
16.8367820373
 10
-5.4091692113
 20
16.8320972155
 10
-5.4021693122
 20
16.8273938204
 10
-5.3958504906
 20
16.8226918436
 10
-5.3902933454
 20
16.8180512606
 10
-5.3855076334
 20
16.8134728578
 10
-5.3814835977
 20
16.8089558487
 10
-5.3782725663
 20
16.8045578494
 10
-5.3758849537
 20
16.8002803844
 10
-5.3743103453
 20
16.7961219292
 10
-5.3735688259
 20
16.7921355262
 10
-5.3736710673
 20
16.7883233796
 10
-5.3739450366
 20
16.7868175049
  0
LWPOLYLINE
  5
449
100
AcDbEntity
  8
C_MOLLA_IDEA
100
AcDbPolyline
 62
7
  6
CONTINUOUS
 90
15
 70
0
 10
-3.4461345166
 20
17.1980492308
 10
-3.4551507821
 20
17.2027368894
 10
-3.4634859701
 20
17.2074231296
 10
-3.4711400805
 20
17.2121079514
 10
-3.4781399796
 20
17.2168113465
 10
-3.4844588011
 20
17.2215133233
 10
-3.4900159464
 20
17.2261539063
 10
-3.4948016584
 20
17.2307323091
 10
-3.4988256941
 20
17.2352493182
 10
-3.5020367254
 20
17.2396473175
 10
-3.5044243381
 20
17.2439247825
 10
-3.5059989465
 20
17.2480832377
 10
-3.5067404658
 20
17.2520696407
 10
-3.5066382245
 20
17.2558817873
 10
-3.5063642551
 20
17.257387662
  0
LWPOLYLINE
  5
44A
100
AcDbEntity
  8
ASSI
100
AcDbPolyline
 62
7
  6
CONTINUOUS
 90
45
 70
0
 10
-16.3130313336
 20
21.9761699542
 10
-16.3080952716
 20
21.9735946904
 10
-16.3031682543
 20
21.9708101792
 10
-16.2982563891
 20
21.9678197919
 10
-16.2933658774
 20
21.9646271088
 10
-16.2885026638
 20
21.9612360401
 10
-16.2836724285
 20
21.9576508164
 10
-16.278881152
 20
21.9538757788
 10
-16.2741347703
 20
21.9499154971
 10
-16.269438825
 20
21.9457748818
 10
-16.2647991274
 20
21.9414589457
 10
-16.260221425
 20
21.9369729121
 10
-16.2557110616
 20
21.9323223184
 10
-16.2512736167
 20
21.9275127949
 10
-16.246914588
 20
21.9225501617
 10
-16.2426390636
 20
21.9174405233
 10
-16.2384523316
 20
21.9121900669
 10
-16.234359581
 20
21.9068051466
 10
-16.2303655896
 20
21.9012923686
 10
-16.2264752975
 20
21.8956584104
 10
-16.2226935291
 20
21.8899100915
 10
-16.2190247006
 20
21.8840544491
 10
-16.215473351
 20
21.8780985788
 10
-16.2120438883
 20
21.8720496926
 10
-16.2087403196
 20
21.8659151826
 10
-16.2055667338
 20
21.8597024865
 10
-16.2025270751
 20
21.8534191313
 10
-16.1996248983
 20
21.8470727844
 10
-16.1968637982
 20
21.8406711458
 10
-16.1942472125
 20
21.8342219765
 10
-16.1917782054
 20
21.8277331368
 10
-16.1894598386
 20
21.8212125064
 10
-16.1872950065
 20
21.8146679966
 10
-16.1852862488
 20
21.8081075762
 10
-16.1834360617
 20
21.8015392196
 10
-16.1817467642
 20
21.7949709039
 10
-16.1802203446
 20
21.7884106199
 10
-16.1788587054
 20
21.7818663513
 10
-16.1776635656
 20
21.7753460547
 10
-16.17663634
 20
21.7688576573
 10
-16.1757780351
 20
21.7624070056
 10
-16.1750901448
 20
21.7560040434
 10
-16.1745740036
 20
21.7496626316
 10
-16.1742298695
 20
21.7433923216
 10
-16.1740574828
 20
21.7371985082
  0
LWPOLYLINE
  5
44B
100
AcDbEntity
  8
ASSI
100
AcDbPolyline
 62
250
  6
CONTINUOUS
 90
7
 70
0
 10
13.3356488248
 20
7.9648651998
 10
13.3292619359
 20
7.9682334399
 10
13.3228609247
 20
7.9718477837
 10
13.3164519188
 20
7.975706938
 10
13.3100389957
 20
7.9798108814
 10
13.3036306183
 20
7.9841563912
 10
13.297239526
 20
7.9887362318
  0
LWPOLYLINE
  5
44C
100
AcDbEntity
  8
ASSI
100
AcDbPolyline
 62
7
  6
CONTINUOUS
 90
7
 70
0
 10
13.4679935668
 20
7.972454144
 10
13.4580730863
 20
7.9777697555
 10
13.441700188
 20
7.9879777866
 10
13.423371883
 20
8.0013358997
 10
13.4035611539
 20
8.0179540574
 10
13.3826952002
 20
8.0378992243
 10
13.3606245371
 20
8.0618398251
  0
LWPOLYLINE
  5
44D
100
AcDbEntity
  8
ASSI
100
AcDbPolyline
 62
250
  6
CONTINUOUS
 90
70
 70
0
 10
13.1276156749
 20
8.3278132524
 10
13.1281276058
 20
8.3275318706
 10
13.128671832
 20
8.3272620689
 10
13.1292493884
 20
8.3270065838
 10
13.129859182
 20
8.3267627128
 10
13.1304979531
 20
8.3265223337
 10
13.1311645375
 20
8.3262834642
 10
13.1318599521
 20
8.3260481672
 10
13.1325841594
 20
8.3258144139
 10
13.1333359588
 20
8.3255818118
 10
13.1341163743
 20
8.3253508517
 10
13.1349286745
 20
8.3251208479
 10
13.1357723523
 20
8.324891546
 10
13.1366476909
 20
8.3246633269
 10
13.1375591096
 20
8.324436477
 10
13.1385064209
 20
8.3242107946
 10
13.1394895388
 20
8.3239866391
 10
13.1405130044
 20
8.3237651564
 10
13.1415758966
 20
8.3235463309
 10
13.1426788218
 20
8.3233303643
 10
13.1438285784
 20
8.3231187491
 10
13.1450243373
 20
8.3229113817
 10
13.1462665479
 20
8.3227085956
 10
13.1475638772
 20
8.3225125692
 10
13.1489153472
 20
8.3223231484
 10
13.1503214761
 20
8.3221407729
 10
13.1517931146
 20
8.321968549
 10
13.1533290933
 20
8.3218062519
 10
13.1549300239
 20
8.3216544623
 10
13.1566093567
 20
8.3215175409
 10
13.1583681115
 20
8.3213951531
 10
13.1602045836
 20
8.3212880828
 10
13.1621280996
 20
8.3212023965
 10
13.1641560964
 20
8.321138569
 10
13.1662703463
 20
8.3210966629
 10
13.1684270401
 20
8.3210819076
 10
13.1706231213
 20
8.3210961253
 10
13.1728616644
 20
8.3211375416
 10
13.1751086517
 20
8.3212056175
 10
13.1773525537
 20
8.3213004366
 10
13.1796053926
 20
8.3214216505
 10
13.1818686788
 20
8.3215679403
 10
13.1841430739
 20
8.3217391676
 10
13.1864282829
 20
8.3219352745
 10
13.1887243398
 20
8.3221550871
 10
13.1910336293
 20
8.3223988128
 10
13.1933540887
 20
8.3226660671
 10
13.1956790831
 20
8.3229547835
 10
13.1980067641
 20
8.3232646489
 10
13.2003393381
 20
8.3235957638
 10
13.2026762563
 20
8.3239466781
 10
13.2050165744
 20
8.3243170528
 10
13.2073615508
 20
8.3247070353
 10
13.209713903
 20
8.3251159296
 10
13.2120767489
 20
8.3255442076
 10
13.2144472175
 20
8.3259912462
 10
13.2168190296
 20
8.3264547145
 10
13.2191902065
 20
8.3269341197
 10
13.2215629979
 20
8.3274297787
 10
13.2239374662
 20
8.3279405756
 10
13.2263119262
 20
8.3284659653
 10
13.2286882983
 20
8.3290063369
 10
13.2310720159
 20
8.3295620034
 10
13.2334669357
 20
8.3301337938
 10
13.2358693677
 20
8.3307207702
 10
13.2382734065
 20
8.3313206073
 10
13.2406741736
 20
8.3319319792
 10
13.2430767396
 20
8.332556079
 10
13.2454900989
 20
8.3331943782
 10
13.2503526464
 20
8.334514181
  0
LWPOLYLINE
  5
44E
100
AcDbEntity
  8
ASSI
100
AcDbPolyline
 62
250
  6
CONTINUOUS
 90
6
 70
0
 10
13.1271360717
 20
8.3281061956
 10
13.1281065656
 20
8.3274898628
 10
13.1286354559
 20
8.327185956
 10
13.1291945563
 20
8.3268885249
 10
13.129782328
 20
8.3265940616
 10
13.1310303433
 20
8.3259801084
  0
LWPOLYLINE
  5
44F
100
AcDbEntity
  8
ASSI
100
AcDbPolyline
 62
250
  6
CONTINUOUS
 90
78
 70
0
 10
-4.6950822352
 20
19.8389568185
 10
-4.6519618981
 20
19.8118347757
 10
-4.6076836723
 20
19.7851391716
 10
-4.5623064978
 20
19.7589055305
 10
-4.5158289047
 20
19.7331344609
 10
-4.4682523628
 20
19.7078253541
 10
-4.4196402227
 20
19.683011908
 10
-4.3699911064
 20
19.6586947818
 10
-4.3193063917
 20
19.6348733161
 10
-4.2676535627
 20
19.6115792304
 10
-4.2150313429
 20
19.5888132303
 10
-4.1614410088
 20
19.5665746101
 10
-4.1069538731
 20
19.5448929724
 10
-4.0515687212
 20
19.5237690494
 10
-3.9952867677
 20
19.5032021089
 10
-3.93818297
 20
19.4832195556
 10
-3.8802562629
 20
19.4638221762
 10
-3.8215077115
 20
19.4450091841
 10
-3.7620154683
 20
19.4268056247
 10
-3.7017785015
 20
19.4092122965
 10
-3.6407978429
 20
19.3922284009
 10
-3.5791547407
 20
19.375876588
 10
-3.5168483626
 20
19.3601577112
 10
-3.4538795409
 20
19.345070917
 10
-3.3903320203
 20
19.3306362953
 10
-3.3262049846
 20
19.3168547028
 10
-3.2614992499
 20
19.3037252826
 10
-3.1963010091
 20
19.2912655545
 10
-3.1306096362
 20
19.279476415
 10
-3.0644257571
 20
19.2683569674
 10
-2.9978374423
 20
19.2579220411
 10
-2.9308440799
 20
19.2481725384
 10
-2.8634462818
 20
19.2391075568
 10
-2.7957339542
 20
19.2307392184
 10
-2.7277067479
 20
19.2230684609
 10
-2.6593650122
 20
19.2160943465
 10
-2.5907997009
 20
19.2098261835
 10
-2.5220105756
 20
19.2042649108
 10
-2.4529978748
 20
19.1994095895
 10
-2.383853268
 20
19.195266712
 10
-2.3145765306
 20
19.1918372173
 10
-2.2451678871
 20
19.1891201663
 10
-2.1757196813
 20
19.1871192352
 10
-2.1062315462
 20
19.1858353851
 10
-2.0367038488
 20
19.1852676548
 10
-1.9672300336
 20
19.1854168369
 10
-1.8978102125
 20
19.1862839177
 10
-1.8284442736
 20
19.1878679108
 10
-1.7592253261
 20
19.1901666501
 10
-1.690154462
 20
19.1931810261
 10
-1.6212305892
 20
19.1969101481
 10
-1.5525435403
 20
19.2013491779
 10
-1.4840937605
 20
19.2064989573
 10
-1.4158808046
 20
19.2123586443
 10
-1.3479931695
 20
19.2189208757
 10
-1.2804291635
 20
19.2261868358
 10
-1.2131904784
 20
19.2341553402
 10
-1.1463706864
 20
19.2428154713
 10
-1.0799691542
 20
19.252168576
 10
-1.0139865151
 20
19.2622133075
 10
-0.9485182413
 20
19.2729347083
 10
-0.8835693962
 20
19.2843329966
 10
-0.8191349165
 20
19.2964079543
 10
-0.7552950842
 20
19.3091439695
 10
-0.6920545936
 20
19.3225405487
 10
-0.6294087504
 20
19.3365981853
 10
-0.5674237535
 20
19.3513027475
 10
-0.5060945406
 20
19.3666560556
 10
-0.445426174
 20
19.3826562892
 10
-0.3855000399
 20
19.3992838561
 10
-0.3263085483
 20
19.4165427446
 10
-0.2678592891
 20
19.4344289664
 10
-0.2102564183
 20
19.4529109633
 10
-0.1535017447
 20
19.4719909449
 10
-0.0975934596
 20
19.4916667016
 10
-0.0426302921
 20
19.5119000467
 10
0.0113848398
 20
19.5326929368
 10
0.064454854
 20
19.5540434153
  0
LINE
  5
450
100
AcDbEntity
  8
ASSI
100
AcDbLine
 62
250
  6
CONTINUOUS
 10
13.1271360733
 20
8.3281061965
 11
13.1276067188
 21
8.327796626
  0
LINE
  5
451
100
AcDbEntity
  8
ASSI
100
AcDbLine
 62
250
  6
CONTINUOUS
 10
13.1235248678
 20
8.3307249068
 11
13.1271360733
 21
8.3281061965
  0
LWPOLYLINE
  5
452
100
AcDbEntity
  8
ASSI
100
AcDbPolyline
 62
250
  6
CONTINUOUS
 90
46
 70
0
 10
13.297239526
 20
7.9887362318
 10
13.2908719556
 20
7.9935473353
 10
13.2845343564
 20
7.9985863003
 10
13.2782395796
 20
8.0038435669
 10
13.2719938751
 20
8.0093144848
 10
13.2658033545
 20
8.0149943561
 10
13.259680252
 20
8.0208718663
 10
13.2536315363
 20
8.0269399976
 10
13.2476618031
 20
8.0331938804
 10
13.2417792747
 20
8.0396242631
 10
13.2359913963
 20
8.0462222148
 10
13.2303014016
 20
8.0529832801
 10
13.2247110841
 20
8.0599047544
 10
13.2192257487
 20
8.0669799064
 10
13.2138505054
 20
8.0742019795
 10
13.2085870837
 20
8.0815685955
 10
13.2034394078
 20
8.0890747441
 10
13.1984138139
 20
8.0967117043
 10
13.1935156672
 20
8.1044715496
 10
13.1887490623
 20
8.1123481106
 10
13.184119378
 20
8.1203329018
 10
13.1796334513
 20
8.128414137
 10
13.1752959898
 20
8.1365829219
 10
13.1711103946
 20
8.1448325096
 10
13.1670810322
 20
8.1531540261
 10
13.1632124357
 20
8.1615374347
 10
13.1595070836
 20
8.169976699
 10
13.1559662661
 20
8.1784689486
 10
13.1525934305
 20
8.1870061353
 10
13.1493918608
 20
8.195580176
 10
13.1463629954
 20
8.2041882319
 10
13.1435091555
 20
8.2128251541
 10
13.1408345744
 20
8.2214797409
 10
13.1383434009
 20
8.2301400321
 10
13.1360377205
 20
8.2387994333
 10
13.133920451
 20
8.2474479019
 10
13.1319958758
 20
8.2560683208
 10
13.1302653356
 20
8.2646525788
 10
13.1287300973
 20
8.2731923732
 10
13.1273927927
 20
8.2816705703
 10
13.1262535595
 20
8.2900792147
 10
13.1253123772
 20
8.298410692
 10
13.12457006
 20
8.3066489163
 10
13.1240258208
 20
8.3147838989
 10
13.1236779815
 20
8.3228115251
 10
13.123525099
 20
8.3307250219
  0
LINE
  5
453
100
AcDbEntity
  8
C_CONTATTO_SX
100
AcDbLine
 62
7
  6
CONTINUOUS
 10
-2.7320945087
 20
19.6314583592
 11
-2.4487229027
 21
19.3697599297
  0
LINE
  5
454
100
AcDbEntity
  8
C_CONTATTO_SX
100
AcDbLine
 62
7
  6
CONTINUOUS
 10
-0.9131274616
 20
19.30918144
 11
-0.9787229027
 21
19.3697599297
  0
LWPOLYLINE
  5
455
100
AcDbEntity
  8
ASSI
100
AcDbPolyline
 62
250
  6
CONTINUOUS
 90
10
 70
0
 10
2.0420976479
 20
16.5652495649
 10
2.074169162
 20
16.5347441235
 10
2.1075469273
 20
16.5045488614
 10
2.1421864291
 20
16.4747040098
 10
2.1780893218
 20
16.445210056
 10
2.215253951
 20
16.4160665128
 10
2.2536308388
 20
16.3873121499
 10
2.293221616
 20
16.358947471
 10
2.334024652
 20
16.3309719724
 10
2.3759855767
 20
16.3034229126
  0
LWPOLYLINE
  5
456
100
AcDbEntity
  8
ASSI
100
AcDbPolyline
 62
250
  6
CONTINUOUS
 90
4
 70
0
 10
1.9537651282
 20
16.6585867325
 10
1.9818768982
 20
16.6271917618
 10
2.0113341474
 20
16.5960655737
 10
2.0420976479
 20
16.5652495649
  0
LWPOLYLINE
  5
457
100
AcDbEntity
  8
C_CONTATTO_SX
100
AcDbPolyline
 62
7
  6
CONTINUOUS
 90
5
 70
0
 10
0.4645557698
 20
19.7907925129
 10
0.4539626703
 20
19.8029057624
 10
0.3994133384
 20
19.8581269321
 10
0.3397652153
 20
19.911952676
 10
0.2815763033
 20
19.9592473663
  0
LWPOLYLINE
  5
458
100
AcDbEntity
  8
ASSI
100
AcDbPolyline
 62
7
  6
CONTINUOUS
 90
9
 70
0
 10
7.1224610996
 20
19.9637516162
 10
7.1092270094
 20
19.9959993384
 10
7.0800542399
 20
20.0545197117
 10
7.0461984966
 20
20.1085221457
 10
7.0081069837
 20
20.1575349214
 10
6.9664857843
 20
20.2008414627
 10
6.9218368392
 20
20.2381013919
 10
6.8745274968
 20
20.2690894193
 10
6.8525153084
 20
20.280895052
  0
LWPOLYLINE
  5
459
100
AcDbEntity
  8
ASSI
100
AcDbPolyline
 62
250
  6
CONTINUOUS
 90
49
 70
0
 10
7.0580693291
 20
19.9178358435
 10
7.0538436949
 20
19.9285375299
 10
7.0493970547
 20
19.9390827879
 10
7.0447294085
 20
19.9494716173
 10
7.0398336927
 20
19.9597169746
 10
7.034716971
 20
19.9698059034
 10
7.0294004341
 20
19.9796995347
 10
7.0238834835
 20
19.9893960237
 10
7.0181667178
 20
19.9988972153
 10
7.012273124
 20
20.0081697745
 10
7.0062020368
 20
20.0172123381
 10
6.9999541216
 20
20.0260262695
 10
6.9935543609
 20
20.0345823231
 10
6.9870024114
 20
20.0428789033
 10
6.9802986165
 20
20.0509176058
 10
6.9734689894
 20
20.0586739728
 10
6.9665133434
 20
20.0661464583
 10
6.9594318652
 20
20.0733366083
 10
6.9522511282
 20
20.0802246029
 10
6.944971269
 20
20.0868088309
 10
6.9375921511
 20
20.0930909035
 10
6.9301399381
 20
20.0990558347
 10
6.9226147806
 20
20.1047022483
 10
6.9150165281
 20
20.1100315205
 10
6.9073708921
 20
20.1150327939
 10
6.8996780888
 20
20.119704811
 10
6.891937902
 20
20.1240488294
 10
6.8841753944
 20
20.1280577641
 10
6.8763910523
 20
20.131730407
 10
6.8685843893
 20
20.1350679663
 10
6.8607790097
 20
20.1380669819
 10
6.8529756838
 20
20.1407264474
 10
6.8451736412
 20
20.1430473693
 10
6.8373941743
 20
20.1450293071
 10
6.8296376779
 20
20.1466716246
 10
6.8219037572
 20
20.147974958
 10
6.8142125203
 20
20.1489407754
 10
6.8065636941
 20
20.1495684677
 10
6.7989575516
 20
20.1498586439
 10
6.7914150197
 20
20.1498145992
 10
6.7839363093
 20
20.1494355267
 10
6.7765212095
 20
20.1487222333
 10
6.7691900135
 20
20.1476804351
 10
6.761942883
 20
20.146309281
 10
6.7547796564
 20
20.144609622
 10
6.7477201415
 20
20.1425897276
 10
6.7407709411
 20
20.1402523544
 10
6.7339254524
 20
20.1375947457
 10
6.7271836755
 20
20.1346169016
  0
LINE
  5
45A
100
AcDbEntity
  8
ASSI
100
AcDbLine
 62
250
  6
CONTINUOUS
 10
7.1604672012
 20
19.6494182182
 11
7.0580693291
 21
19.9178358435
  0
LINE
  5
45B
100
AcDbEntity
  8
ASSI
100
AcDbLine
 62
7
  6
CONTINUOUS
 10
7.217607123
 20
19.714343486
 11
7.1224591253
 21
19.9637568681
  0
LWPOLYLINE
  5
45C
100
AcDbEntity
  8
ASSI
100
AcDbPolyline
 62
250
  6
CONTINUOUS
 90
25
 70
0
 10
6.7271836755
 20
20.1346169016
 10
6.7241074164
 20
20.1427390373
 10
6.7208038377
 20
20.150797417
 10
6.7172792292
 20
20.1587766986
 10
6.7135403012
 20
20.1666616906
 10
6.7095941722
 20
20.1744373809
 10
6.7054483552
 20
20.1820889655
 10
6.7011107432
 20
20.1896018767
 10
6.6965895946
 20
20.196961811
 10
6.691893517
 20
20.2041547559
 10
6.6870314513
 20
20.2111670169
 10
6.6820126541
 20
20.2179852435
 10
6.6768466807
 20
20.2245964547
 10
6.6715433664
 20
20.2309880636
 10
6.6661128081
 20
20.2371479013
 10
6.6605653449
 20
20.2430642402
 10
6.6549115384
 20
20.2487258165
 10
6.6491621529
 20
20.254121851
 10
6.6433281345
 20
20.2592420705
 10
6.6374205903
 20
20.2640767267
 10
6.6314507676
 20
20.2686166149
 10
6.6254300323
 20
20.2728530919
 10
6.6193698471
 20
20.2767780919
 10
6.6132817498
 20
20.2803841421
 10
6.6071773314
 20
20.2836643771
  0
LWPOLYLINE
  5
45D
100
AcDbEntity
  8
ASSI
100
AcDbPolyline
 62
7
  6
CONTINUOUS
 90
5
 70
0
 10
7.2176071127
 20
19.7143438819
 10
7.2178355758
 20
19.7137176155
 10
7.2185573551
 20
19.7111482146
 10
7.2189576871
 20
19.7085148476
 10
7.219045845
 20
19.7065359788
  0
LWPOLYLINE
  5
45E
100
AcDbEntity
  8
ASSI
100
AcDbPolyline
 62
250
  6
CONTINUOUS
 90
40
 70
0
 10
15.2263327292
 20
14.9205506216
 10
15.2262330915
 20
14.9311339623
 10
15.2257865806
 20
14.9418706536
 10
15.2249939206
 20
14.9527432821
 10
15.2238563973
 20
14.9637342141
 10
15.2223758553
 20
14.9748256241
 10
15.2205546959
 20
14.9859995234
 10
15.2183958729
 20
14.9972377898
 10
15.2159028874
 20
15.0085221964
 10
15.2130797827
 20
15.0198344417
 10
15.2099311374
 20
15.0311561789
 10
15.2064620582
 20
15.042469046
 10
15.2026781714
 20
15.0537546953
 10
15.1985856138
 20
15.064994823
 10
15.194191023
 20
15.0761711996
 10
15.1895015263
 20
15.0872656985
 10
15.1845247293
 20
15.0982603262
 10
15.1792687037
 20
15.1091372512
 10
15.1737419739
 20
15.1198788327
 10
15.1679535034
 20
15.1304676496
 10
15.1619126802
 20
15.1408865283
 10
15.1556293017
 20
15.1511185711
 10
15.1491135585
 20
15.1611471832
 10
15.1423760181
 20
15.1709560997
 10
15.1354276078
 20
15.180529412
 10
15.1282795968
 20
15.1898515938
 10
15.1209435782
 20
15.1989075258
 10
15.1134314497
 20
15.2076825208
 10
15.105755395
 20
15.2161623469
 10
15.0979278634
 20
15.2243332514
 10
15.08996155
 20
15.2321819821
 10
15.0818693748
 20
15.2396958097
 10
15.0736644623
 20
15.246862548
 10
15.0653601194
 20
15.2536705734
 10
15.0569698145
 20
15.2601088446
 10
15.0485071555
 20
15.2661669195
 10
15.0399858675
 20
15.271834973
 10
15.0314197706
 20
15.2771038122
 10
15.0228227578
 20
15.2819648921
 10
15.0142087722
 20
15.2864103286
  0
LINE
  5
45F
100
AcDbEntity
  8
ASSI
100
AcDbLine
 62
250
  6
CONTINUOUS
 10
15.2263327292
 20
14.9205506216
 11
15.2263327292
 21
9.4188193452
  0
LINE
  5
460
100
AcDbEntity
  8
ASSI
100
AcDbLine
 62
7
  6
CONTINUOUS
 10
15.3123575944
 20
15.0256870112
 11
15.3123575944
 21
9.5239557348
  0
LINE
  5
461
100
AcDbEntity
  8
ASSI
100
AcDbLine
 62
250
  6
CONTINUOUS
 10
15.3123575944
 20
9.5239557348
 11
15.3123574281
 21
9.5237977634
  0
LWPOLYLINE
  5
462
100
AcDbEntity
  8
ASSI
100
AcDbPolyline
 62
250
  6
CONTINUOUS
 90
22
 70
0
 10
15.3123575944
 20
15.0256870112
 10
15.3121959493
 20
15.0207635739
 10
15.3116224549
 20
15.0151924497
 10
15.3106350486
 20
15.0096358405
 10
15.3092350961
 20
15.0041014317
 10
15.3074245337
 20
14.9985968777
 10
15.3052058656
 20
14.993129792
 10
15.3025821603
 20
14.987707736
 10
15.2995570467
 20
14.982338209
 10
15.2961347089
 20
14.9770286375
 10
15.2923198802
 20
14.9717863652
 10
15.2881178369
 20
14.9666186427
 10
15.2835343909
 20
14.9615326173
 10
15.2785758815
 20
14.9565353236
 10
15.2732491668
 20
14.9516336733
 10
15.2675616141
 20
14.9468344458
 10
15.2615210899
 20
14.9421442789
 10
15.2551359488
 20
14.9375696596
 10
15.2484150221
 20
14.933116915
 10
15.2413676054
 20
14.9287922037
 10
15.234003446
 20
14.9246015072
 10
15.2263327292
 20
14.9205506216
  0
LWPOLYLINE
  5
463
100
AcDbEntity
  8
ASSI
100
AcDbPolyline
 62
250
  6
CONTINUOUS
 90
22
 70
0
 10
15.3123574281
 20
9.5237977634
 10
15.3121962808
 20
9.5190373465
 10
15.3116231286
 20
9.5134659771
 10
15.3106360279
 20
9.5079091142
 10
15.3092363434
 20
9.5023744443
 10
15.3074260105
 20
9.4968696229
 10
15.305207533
 20
9.4914022653
 10
15.3025839789
 20
9.4859799341
 10
15.2995589767
 20
9.4806101295
 10
15.2961367107
 20
9.4753002799
 10
15.2923219142
 20
9.4700577301
 10
15.2881198636
 20
9.4648897316
 10
15.2835363716
 20
9.4598034339
 10
15.2785777781
 20
9.4548058726
 10
15.2732509419
 20
9.4499039603
 10
15.2675632311
 20
9.4451044777
 10
15.2615225119
 20
9.4404140627
 10
15.255137141
 20
9.4358392043
 10
15.2484159548
 20
9.4313862333
 10
15.2413682525
 20
9.4270613097
 10
15.2340037815
 20
9.4228704147
 10
15.2263327292
 20
9.4188193452
  0
LWPOLYLINE
  5
464
100
AcDbEntity
  8
C_COPERCHIO
100
AcDbPolyline
 62
7
  6
CONTINUOUS
 90
26
 70
0
 10
-3.2611102771
 20
-27.7562060638
 10
-3.2736013196
 20
-27.7694553634
 10
-3.2863196328
 20
-27.7826110112
 10
-3.2992664166
 20
-27.7956627638
 10
-3.3124460053
 20
-27.808600121
 10
-3.3258555286
 20
-27.8214132229
 10
-3.33948549
 20
-27.8340924436
 10
-3.3533360081
 20
-27.8466266421
 10
-3.3674078395
 20
-27.8590059427
 10
-3.38169316
 20
-27.8712217245
 10
-3.396191882
 20
-27.8832624521
 10
-3.4109043485
 20
-27.8951176934
 10
-3.425824271
 20
-27.9067792055
 10
-3.4409513381
 20
-27.9182348325
 10
-3.4562854709
 20
-27.9294733923
 10
-3.4718217613
 20
-27.9404863625
 10
-3.4875595128
 20
-27.9512606498
 10
-3.5034982549
 20
-27.9617841499
 10
-3.5196345739
 20
-27.972047509
 10
-3.5359672777
 20
-27.9820364194
 10
-3.5524953743
 20
-27.9917375315
 10
-3.5692170087
 20
-28.0011398756
 10
-3.5861302669
 20
-28.010227587
 10
-3.6032334501
 20
-28.0189856891
 10
-3.6205263412
 20
-28.0274005356
 10
-3.628545597
 20
-28.0311519245
  0
LINE
  5
465
100
AcDbEntity
  8
C_MOLLA_IDEA
100
AcDbLine
 62
7
  6
CONTINUOUS
 10
-6.7293245816
 20
15.6260198617
 11
-3.2647258346
 21
15.9796038815
  0
LINE
  5
466
100
AcDbEntity
  8
C_MOLLA_IDEA
100
AcDbLine
 62
7
  6
CONTINUOUS
 10
-6.6419213767
 20
15.9991771056
 11
-2.4108853762
 21
16.4309808514
  0
LINE
  5
467
100
AcDbEntity
  8
C_MOLLA_IDEA
100
AcDbLine
 62
7
  6
CONTINUOUS
 10
-5.4272531213
 20
16.7617187202
 11
-7.377498806
 21
16.5626839231
  0
LWPOLYLINE
  5
468
100
AcDbEntity
  8
C_MOLLA_IDEA
100
AcDbPolyline
 62
7
  6
CONTINUOUS
 90
25
 70
0
 10
-7.377498806
 20
16.5626839231
 10
-7.3866709107
 20
16.561936617
 10
-7.3963232314
 20
16.561496874
 10
-7.406455768
 20
16.5613646943
 10
-7.4171158868
 20
16.5615421399
 10
-7.4282562216
 20
16.5620271488
 10
-7.4397346735
 20
16.5628135344
 10
-7.4515555738
 20
16.5639051574
 10
-7.4637145911
 20
16.5652981571
 10
-7.476056633
 20
16.5669747653
 10
-7.4885840441
 20
16.5689386152
 10
-7.5012944797
 20
16.5711860735
 10
-7.5140258139
 20
16.5736884733
 10
-7.5267783144
 20
16.5764490803
 10
-7.5395517134
 20
16.5794646288
 10
-7.5521830818
 20
16.5826966543
 10
-7.5646706003
 20
16.5861479299
 10
-7.5770160882
 20
16.5898156827
 10
-7.5890620744
 20
16.593653129
 10
-7.6008047225
 20
16.5976624426
 10
-7.6122478691
 20
16.6018414499
 10
-7.6232455527
 20
16.6061368461
 10
-7.6337491196
 20
16.610530863
 10
-7.6438072236
 20
16.6150412688
 10
-7.6534198647
 20
16.6196680635
  0
LWPOLYLINE
  5
469
100
AcDbEntity
  8
ASSI
100
AcDbPolyline
 62
250
  6
CONTINUOUS
 90
46
 70
0
 10
4.242468426
 20
15.6992670404
 10
4.2753338577
 20
15.6952053125
 10
4.343361064
 20
15.6875345549
 10
4.4117027997
 20
15.6805604405
 10
4.4802681109
 20
15.6742922776
 10
4.5490572362
 20
15.6687310048
 10
4.618069937
 20
15.6638756835
 10
4.6872145438
 20
15.6597328061
 10
4.7564912813
 20
15.6563033113
 10
4.8258999247
 20
15.6535862604
 10
4.8953481305
 20
15.6515853293
 10
4.9648362656
 20
15.6503014792
 10
5.0343639631
 20
15.6497337489
 10
5.1038377783
 20
15.649882931
 10
5.1732575994
 20
15.6507500118
 10
5.2426235383
 20
15.6523340049
 10
5.3118424858
 20
15.6546327441
 10
5.3809133499
 20
15.6576471201
 10
5.4498372226
 20
15.6613762422
 10
5.5185242715
 20
15.665815272
 10
5.5869740514
 20
15.6709650513
 10
5.6551870073
 20
15.6768247384
 10
5.7230746424
 20
15.6833869697
 10
5.7906386484
 20
15.6906529299
 10
5.8578773335
 20
15.6986214342
 10
5.9246971254
 20
15.7072815654
 10
5.9910986577
 20
15.7166346701
 10
6.0570812968
 20
15.7266794015
 10
6.1225495706
 20
15.7374008024
 10
6.1874984156
 20
15.7487990907
 10
6.2519328953
 20
15.7608740484
 10
6.3157727277
 20
15.7736100635
 10
6.3790132183
 20
15.7870066427
 10
6.4416590615
 20
15.8010642794
 10
6.5036440583
 20
15.8157688416
 10
6.5649732712
 20
15.8311221496
 10
6.6256416378
 20
15.8471223833
 10
6.685567772
 20
15.8637499501
 10
6.7447592636
 20
15.8810088387
 10
6.8032085228
 20
15.8988950605
 10
6.8608113936
 20
15.9173770574
 10
6.9175660671
 20
15.936457039
 10
6.9734743523
 20
15.9561327957
 10
7.0284375198
 20
15.9763661408
 10
7.0824526517
 20
15.9971590309
 10
7.1355226659
 20
16.0185095094
  0
LWPOLYLINE
  5
46A
100
AcDbEntity
  8
C_MOLLA_IDEA
100
AcDbPolyline
 62
7
  6
CONTINUOUS
 90
11
 70
0
 10
-7.7370234661
 20
17.5490329733
 10
-7.7495508771
 20
17.5509968231
 10
-7.7618929191
 20
17.5526734313
 10
-7.7740519364
 20
17.554066431
 10
-7.7858728366
 20
17.555158054
 10
-7.7973512885
 20
17.5559444396
 10
-7.8084916233
 20
17.5564294485
 10
-7.8191517422
 20
17.5566068941
 10
-7.8292842788
 20
17.5564747144
 10
-7.8389365994
 20
17.5560349715
 10
-7.8481087041
 20
17.5552876653
  0
LINE
  5
46B
100
AcDbEntity
  8
C_CONTATTO_DX
100
AcDbLine
 62
7
  6
CONTINUOUS
 10
5.3573449092
 20
16.2095252258
 11
4.83394805
 21
16.3512110287
  0
LWPOLYLINE
  5
46C
100
AcDbEntity
  8
ASSI
100
AcDbPolyline
 62
250
  6
CONTINUOUS
 90
22
 70
0
 10
3.1016495585
 20
16.319200655
 10
3.0852649049
 20
16.3240912283
 10
3.0685960665
 20
16.3282997713
 10
3.0516557498
 20
16.331822984
 10
3.0344563236
 20
16.3346583372
 10
3.0170104179
 20
16.3368037953
 10
2.999331419
 20
16.3382575746
 10
2.9814323201
 20
16.3390186893
 10
2.9633261888
 20
16.3390866687
 10
2.9450267654
 20
16.3384612748
 10
2.9265474184
 20
16.3371430585
 10
2.9079017135
 20
16.3351330836
 10
2.8891038827
 20
16.3324326462
 10
2.8701676355
 20
16.3290438333
 10
2.8511068977
 20
16.324969256
 10
2.8319363814
 20
16.3202117831
 10
2.812670287
 20
16.3147751059
 10
2.7933225717
 20
16.3086633341
 10
2.7739076861
 20
16.3018807054
 10
2.7544399412
 20
16.2944321947
 10
2.7349335023
 20
16.2863235454
 10
2.7154026566
 20
16.2775608586
  0
LWPOLYLINE
  5
46D
100
AcDbEntity
  8
ASSI
100
AcDbPolyline
 62
250
  6
CONTINUOUS
 90
4
 70
0
 10
3.148979024
 20
16.3004750717
 10
3.1335185385
 20
16.307388141
 10
3.1177380304
 20
16.3136316066
 10
3.1016495585
 20
16.319200655
  0
LWPOLYLINE
  5
46E
100
AcDbEntity
  8
ASSI
100
AcDbPolyline
 62
250
  6
CONTINUOUS
 90
4
 70
0
 10
-12.9775544391
 20
24.3637418033
 10
-12.9930149246
 20
24.3706548726
 10
-13.0087954327
 20
24.3768983381
 10
-13.0248839047
 20
24.3824673866
  0
LWPOLYLINE
  5
46F
100
AcDbEntity
  8
C_MOLLA_IDEA
100
AcDbPolyline
 62
7
  6
CONTINUOUS
 90
5
 70
0
 10
-7.2155225012
 20
20.0357326364
 10
-7.2353769446
 20
20.0448730852
 10
-7.2672305061
 20
20.0564728477
 10
-7.3005121289
 20
20.0649839601
 10
-7.3352218131
 20
20.0704064223
  0
LWPOLYLINE
  5
470
100
AcDbEntity
  8
C_COPERCHIO
100
AcDbPolyline
 62
7
  6
CONTINUOUS
 90
13
 70
0
 10
-1.3727956275
 20
17.5720637684
 10
-1.3981928314
 20
17.5842441688
 10
-1.4232528752
 20
17.5955184617
 10
-1.4479941011
 20
17.6059182966
 10
-1.4724024685
 20
17.6154589529
 10
-1.4964557216
 20
17.6241528313
 10
-1.5201617942
 20
17.632025418
 10
-1.5435099322
 20
17.6390924605
 10
-1.5664782185
 20
17.6453669449
 10
-1.5890586065
 20
17.6508708789
 10
-1.6112382227
 20
17.6556228536
 10
-1.6329996893
 20
17.6596370705
 10
-1.6543287508
 20
17.6629301497
  0
LWPOLYLINE
  5
471
100
AcDbEntity
  8
ASSI
100
AcDbPolyline
 62
7
  6
CONTINUOUS
 90
9
 70
0
 10
3.158090587
 20
16.2960110712
 10
3.1393247722
 20
16.3050083085
 10
3.0749412809
 20
16.3292201329
 10
3.0065505385
 20
16.3449679213
 10
2.9347360075
 20
16.3517956219
 10
2.8603898213
 20
16.3493406309
 10
2.7845968998
 20
16.3374834448
 10
2.7080655841
 20
16.3162659561
 10
2.6291432651
 20
16.2847493123
  0
LWPOLYLINE
  5
472
100
AcDbEntity
  8
ASSI
100
AcDbPolyline
 62
7
  6
CONTINUOUS
 90
9
 70
0
 10
-12.9684428761
 20
24.3592778028
 10
-12.987208691
 20
24.3682750401
 10
-13.0515921823
 20
24.3924868645
 10
-13.1199829247
 20
24.4082346529
 10
-13.1917974557
 20
24.4150623535
 10
-13.2661436419
 20
24.4126073625
 10
-13.3419365633
 20
24.4007501763
 10
-13.418467879
 20
24.3795326877
 10
-13.4973901981
 20
24.3480160439
  0
LINE
  5
473
100
AcDbEntity
  8
ASSI
100
AcDbLine
 62
250
  6
CONTINUOUS
 10
3.1563480593
 20
16.2968879272
 11
3.148979024
 21
16.3004750717
  0
LINE
  5
474
100
AcDbEntity
  8
ASSI
100
AcDbLine
 62
250
  6
CONTINUOUS
 10
-12.9701854039
 20
24.3601546588
 11
-12.9775544391
 21
24.3637418033
  0
LWPOLYLINE
  5
475
100
AcDbEntity
  8
ASSI
100
AcDbPolyline
 62
250
  6
CONTINUOUS
 90
15
 70
0
 10
2.7154026566
 20
16.2775608586
 10
2.7093413352
 20
16.2805297121
 10
2.7032868509
 20
16.2831610406
 10
2.6972507244
 20
16.285449837
 10
2.6912444413
 20
16.2873917462
 10
2.6852794304
 20
16.288983073
 10
2.6793670422
 20
16.2902207896
 10
2.6735185268
 20
16.2911025408
 10
2.6677450129
 20
16.2916266486
 10
2.6620574864
 20
16.2917921159
 10
2.6564667697
 20
16.2915986278
 10
2.6509835008
 20
16.2910465525
 10
2.6456181135
 20
16.2901369404
 10
2.6403808171
 20
16.2888715225
 10
2.6352815773
 20
16.2872527064
  0
LWPOLYLINE
  5
476
100
AcDbEntity
  8
ASSI
100
AcDbPolyline
 62
250
  6
CONTINUOUS
 90
15
 70
0
 10
-13.4111308065
 20
24.3408275902
 10
-13.417192128
 20
24.3437964437
 10
-13.4232466123
 20
24.3464277721
 10
-13.4292827388
 20
24.3487165685
 10
-13.4352890219
 20
24.3506584777
 10
-13.4412540327
 20
24.3522498046
 10
-13.4471664209
 20
24.3534875212
 10
-13.4530149364
 20
24.3543692723
 10
-13.4587884503
 20
24.3548933802
 10
-13.4644759768
 20
24.3550588475
 10
-13.4700666935
 20
24.3548653594
 10
-13.4755499624
 20
24.3543132841
 10
-13.4809153497
 20
24.353403672
 10
-13.486152646
 20
24.352138254
 10
-13.4912518859
 20
24.350519438
  0
LINE
  5
477
100
AcDbEntity
  8
C_MOLLA_IDEA
100
AcDbLine
 62
250
  6
CONTINUOUS
 10
-2.6023895117
 20
17.6608679611
 11
-7.4214073146
 21
20.0703768626
  0
LINE
  5
478
100
AcDbEntity
  8
C_MOLLA_IDEA
100
AcDbLine
 62
7
  6
CONTINUOUS
 10
-7.2155722897
 20
20.0357575358
 11
-2.4780583222
 21
17.6670005521
  0
LINE
  5
479
100
AcDbEntity
  8
C_COPERCHIO
100
AcDbLine
 62
250
  6
CONTINUOUS
 10
-8.9741648769
 20
21.3228482127
 11
-7.4672837526
 21
20.5694076506
  0
LINE
  5
47A
100
AcDbEntity
  8
C_COPERCHIO
100
AcDbLine
 62
250
  6
CONTINUOUS
 10
-1.6543287508
 20
17.6629301497
 11
-0.8096224363
 21
17.2405769924
  0
LINE
  5
47B
100
AcDbEntity
  8
C_COPERCHIO
100
AcDbLine
 62
7
  6
CONTINUOUS
 10
-8.8127375917
 20
21.2920478059
 11
-7.4249533579
 21
20.5981556891
  0
LINE
  5
47C
100
AcDbEntity
  8
C_COPERCHIO
100
AcDbLine
 62
7
  6
CONTINUOUS
 10
-1.3727956275
 20
17.5720637684
 11
-0.7593750155
 21
17.2653665179
  0
LINE
  5
47D
100
AcDbEntity
  8
C_COPERCHIO
100
AcDbLine
 62
7
  6
CONTINUOUS
 10
-10.7365519096
 20
22.6565109262
 11
-10.5218317857
 21
22.5491508643
  0
LINE
  5
47E
100
AcDbEntity
  8
C_COPERCHIO
100
AcDbLine
 62
7
  6
CONTINUOUS
 10
1.5793409656
 20
16.4985644886
 11
2.3057128969
 21
16.135378523
  0
LINE
  5
47F
100
AcDbEntity
  8
C_COPERCHIO
100
AcDbLine
 62
250
  6
CONTINUOUS
 10
1.0350452083
 20
16.8115260946
 11
-0.313036826
 21
17.4855671118
  0
LINE
  5
480
100
AcDbEntity
  8
C_COPERCHIO
100
AcDbLine
 62
250
  6
CONTINUOUS
 10
-9.1340725081
 20
21.8960849528
 11
-10.4821545424
 21
22.57012597
  0
LINE
  5
481
100
AcDbEntity
  8
C_COPERCHIO
100
AcDbLine
 62
7
  6
CONTINUOUS
 10
1.381018737
 20
16.832198445
 11
0.0329367028
 21
17.5062394621
  0
LINE
  5
482
100
AcDbEntity
  8
C_COPERCHIO
100
AcDbLine
 62
7
  6
CONTINUOUS
 10
-8.799969755
 20
21.922692691
 11
-10.1480517893
 21
22.5967337081
  0
LINE
  5
483
100
AcDbEntity
  8
ASSI
100
AcDbLine
 62
250
  6
CONTINUOUS
 10
-13.4111308065
 20
24.3408275902
 11
-12.4821280628
 21
23.8763262183
  0
LINE
  5
484
100
AcDbEntity
  8
ASSI
100
AcDbLine
 62
250
  6
CONTINUOUS
 10
2.7154026566
 20
16.2775608586
 11
3.6444054003
 21
15.8130594868
  0
LINE
  5
485
100
AcDbEntity
  8
ASSI
100
AcDbLine
 62
7
  6
CONTINUOUS
 10
-12.9701853472
 20
24.3601546304
 11
-12.053327761
 21
23.9017258373
  0
LINE
  5
486
100
AcDbEntity
  8
ASSI
100
AcDbLine
 62
7
  6
CONTINUOUS
 10
3.1563481159
 20
16.2968878989
 11
4.0732057022
 21
15.8384591057
  0
LINE
  5
487
100
AcDbEntity
  8
C_CONTATTO_SX
100
AcDbLine
 62
7
  6
CONTINUOUS
 10
-2.7320945087
 20
19.6314583592
 11
-3.4390634488
 21
19.9849428293
  0
LINE
  5
488
100
AcDbEntity
  8
C_CONTATTO_DX
100
AcDbLine
 62
7
  6
CONTINUOUS
 10
4.3389733032
 20
16.1037236553
 11
3.6320043631
 21
16.4572081254
  0
LINE
  5
489
100
AcDbEntity
  8
C_CONTATTO_SX
100
AcDbLine
 62
7
  6
CONTINUOUS
 10
-2.2371197618
 20
19.8789457326
 11
-2.944088702
 21
20.2324302027
  0
LINE
  5
48A
100
AcDbEntity
  8
C_CONTATTO_DX
100
AcDbLine
 62
7
  6
CONTINUOUS
 10
4.83394805
 20
16.3512110287
 11
4.1269791099
 21
16.7046954988
  0
LWPOLYLINE
  5
48B
100
AcDbEntity
  8
ASSI
100
AcDbPolyline
 62
250
  6
CONTINUOUS
 90
37
 70
0
 10
-12.4821280628
 20
23.8763262183
 10
-12.4758562268
 20
23.8731284931
 10
-12.4696010213
 20
23.8696049766
 10
-12.463374349
 20
23.8657623735
 10
-12.4571880581
 20
23.8616079954
 10
-12.4510539199
 20
23.8571497476
 10
-12.4449836066
 20
23.8523961131
 10
-12.438988669
 20
23.8473561374
 10
-12.4330805143
 20
23.8420394106
 10
-12.4272703846
 20
23.8364560494
 10
-12.4215693356
 20
23.8306166781
 10
-12.4159882154
 20
23.8245324078
 10
-12.4105376438
 20
23.8182148158
 10
-12.4052279923
 20
23.8116759234
 10
-12.4000693641
 20
23.8049281729
 10
-12.3950715753
 20
23.7979844041
 10
-12.3902441356
 20
23.7908578297
 10
-12.3855962309
 20
23.7835620103
 10
-12.3811367052
 20
23.7761108285
 10
-12.3768740442
 20
23.7685184626
 10
-12.3728163591
 20
23.7607993595
 10
-12.3689713707
 20
23.7529682072
 10
-12.3653463955
 20
23.745039907
 10
-12.3619483311
 20
23.737029545
 10
-12.3587836434
 20
23.7289523636
 10
-12.3558583543
 20
23.720823732
 10
-12.3531780299
 20
23.7126591177
 10
-12.3507477705
 20
23.7044740564
 10
-12.3485722004
 20
23.6962841227
 10
-12.3466554593
 20
23.6881049008
 10
-12.3450011944
 20
23.679951954
 10
-12.3436125536
 20
23.6718407961
 10
-12.342492179
 20
23.663786861
 10
-12.3416422026
 20
23.6558054739
 10
-12.3410642417
 20
23.6479118221
 10
-12.3407593961
 20
23.6401209255
 10
-12.3407282457
 20
23.632447609
  0
LWPOLYLINE
  5
48C
100
AcDbEntity
  8
ASSI
100
AcDbPolyline
 62
250
  6
CONTINUOUS
 90
37
 70
0
 10
3.6444054003
 20
15.8130594868
 10
3.6506772363
 20
15.8098617615
 10
3.6569324417
 20
15.8063382451
 10
3.663159114
 20
15.802495642
 10
3.6693454049
 20
15.798341264
 10
3.675479543
 20
15.7938830162
 10
3.6815498562
 20
15.7891293818
 10
3.6875447938
 20
15.7840894061
 10
3.6934529485
 20
15.7787726794
 10
3.6992630781
 20
15.7731893183
 10
3.7049641271
 20
15.7673499469
 10
3.7105452473
 20
15.7612656767
 10
3.7159958189
 20
15.7549480848
 10
3.7213054704
 20
15.7484091924
 10
3.7264640986
 20
15.741661442
 10
3.7314618874
 20
15.7347176732
 10
3.7362893271
 20
15.7275910989
 10
3.7409372318
 20
15.7202952795
 10
3.7453967575
 20
15.7128440977
 10
3.7496594185
 20
15.7052517318
 10
3.7537171037
 20
15.6975326287
 10
3.757562092
 20
15.6897014764
 10
3.7611870673
 20
15.6817731762
 10
3.7645851317
 20
15.6737628142
 10
3.7677498195
 20
15.6656856327
 10
3.7706751087
 20
15.6575570011
 10
3.7733554331
 20
15.6493923867
 10
3.7757856925
 20
15.6412073254
 10
3.7779612627
 20
15.6330173917
 10
3.7798780038
 20
15.6248381696
 10
3.7815322687
 20
15.6166852228
 10
3.7829209096
 20
15.6085740648
 10
3.7840412841
 20
15.6005201297
 10
3.7848912606
 20
15.5925387426
 10
3.7854692215
 20
15.5846450906
 10
3.7857740671
 20
15.576854194
 10
3.7858052174
 20
15.5691808774
  0
LINE
  5
48D
100
AcDbEntity
  8
ASSI
100
AcDbLine
 62
7
  6
CONTINUOUS
 10
2.5570643261
 20
16.2514609424
 11
2.5349106235
 21
16.2639920923
  0
LWPOLYLINE
  5
48E
100
AcDbEntity
  8
ASSI
100
AcDbPolyline
 62
250
  6
CONTINUOUS
 90
4
 70
0
 10
2.3759855767
 20
16.3034229126
 10
2.4191059137
 20
16.2763008697
 10
2.4633841396
 20
16.2496052657
 10
2.5032020606
 20
16.2265855633
  0
LWPOLYLINE
  5
48F
100
AcDbEntity
  8
ASSI
100
AcDbPolyline
 62
7
  6
CONTINUOUS
 90
6
 70
0
 10
2.5349106235
 20
16.2639920923
 10
2.4027960205
 20
16.3502406402
 10
2.2842653115
 20
16.4402050941
 10
2.1799223737
 20
16.5333805511
 10
2.0906382615
 20
16.6289063206
 10
2.0314997032
 20
16.7049946417
  0
LWPOLYLINE
  5
490
100
AcDbEntity
  8
C_CONTATTO_SX
100
AcDbPolyline
 62
250
  6
CONTINUOUS
 90
6
 70
0
 10
0.1765447291
 20
19.961340355
 10
0.2232266366
 20
19.9226875431
 10
0.267459496
 20
19.8815871168
 10
0.3092433073
 20
19.8380390762
 10
0.3491895751
 20
19.7918255226
 10
0.3813223496
 20
19.7501259419
  0
LWPOLYLINE
  5
491
100
AcDbEntity
  8
C_CONTATTO_DX
100
AcDbPolyline
 62
250
  6
CONTINUOUS
 90
6
 70
0
 10
7.247612541
 20
16.4336056511
 10
7.2942944485
 20
16.3949528392
 10
7.3385273079
 20
16.3538524129
 10
7.3803111192
 20
16.3103043723
 10
7.4202573869
 20
16.2640908187
 10
7.4567562532
 20
16.2167252413
  0
LINE
  5
492
100
AcDbEntity
  8
C_CONTATTO_DX
100
AcDbLine
 62
7
  6
CONTINUOUS
 10
4.3389733032
 20
16.1037236553
 11
4.6223449092
 21
15.8420252258
  0
LINE
  5
493
100
AcDbEntity
  8
C_CONTATTO_DX
100
AcDbLine
 62
7
  6
CONTINUOUS
 10
6.1650378862
 20
15.7748920426
 11
6.0923449092
 21
15.8420252258
  0
LINE
  5
494
100
AcDbEntity
  8
ASSI
100
AcDbLine
 62
250
  6
CONTINUOUS
 10
13.3252232078
 20
8.1011237482
 11
13.3479702547
 21
8.0760828212
  0
LINE
  5
495
100
AcDbEntity
  8
ASSI
100
AcDbLine
 62
250
  6
CONTINUOUS
 10
13.3479702547
 20
8.0760828212
 11
13.3522193484
 21
8.0713628285
  0
LINE
  5
496
100
AcDbEntity
  8
ASSI
100
AcDbLine
 62
250
  6
CONTINUOUS
 10
13.318744082
 20
8.1083430298
 11
13.3252232078
 21
8.1011237482
  0
LINE
  5
497
100
AcDbEntity
  8
ASSI
100
AcDbLine
 62
250
  6
CONTINUOUS
 10
13.3522193484
 20
8.0713628285
 11
13.3561497791
 21
8.066948778
  0
LINE
  5
498
100
AcDbEntity
  8
ASSI
100
AcDbLine
 62
250
  6
CONTINUOUS
 10
13.3140830792
 20
8.1135914483
 11
13.318744082
 21
8.1083430298
  0
LINE
  5
499
100
AcDbEntity
  8
ASSI
100
AcDbLine
 62
250
  6
CONTINUOUS
 10
13.3561497791
 20
8.066948778
 11
13.3586047077
 21
8.064159101
  0
LINE
  5
49A
100
AcDbEntity
  8
ASSI
100
AcDbLine
 62
250
  6
CONTINUOUS
 10
13.3090983426
 20
8.1192641972
 11
13.3140830792
 21
8.1135914483
  0
LWPOLYLINE
  5
49B
100
AcDbEntity
  8
C_CONTATTO_DX
100
AcDbPolyline
 62
7
  6
CONTINUOUS
 90
5
 70
0
 10
7.5404022455
 20
16.2575933888
 10
7.5250304821
 20
16.2751710585
 10
7.4704811503
 20
16.3303922282
 10
7.4108330272
 20
16.3842179721
 10
7.3526441152
 20
16.4315126624
  0
LINE
  5
49C
100
AcDbEntity
  8
ASSI
100
AcDbLine
 62
250
  6
CONTINUOUS
 10
13.3586047077
 20
8.064159101
 11
13.3605899704
 21
8.0618797235
  0
LINE
  5
49D
100
AcDbEntity
  8
ASSI
100
AcDbLine
 62
7
  6
CONTINUOUS
 10
13.3605899704
 20
8.0618797235
 11
13.360624461
 21
8.061839913
  0
LINE
  5
49E
100
AcDbEntity
  8
ASSI
100
AcDbLine
 62
250
  6
CONTINUOUS
 10
13.3037020433
 20
8.1254859935
 11
13.3090983426
 21
8.1192641972
  0
LWPOLYLINE
  5
49F
100
AcDbEntity
  8
ASSI
100
AcDbPolyline
 62
250
  6
CONTINUOUS
 90
11
 70
0
 10
13.2663624577
 20
8.1713173994
 10
13.2695966339
 20
8.1671467006
 10
13.2730658705
 20
8.1627144729
 10
13.276708509
 20
8.1581043183
 10
13.2803674399
 20
8.1535263285
 10
13.2840353281
 20
8.1489907057
 10
13.2877156675
 20
8.144487078
 10
13.291255416
 20
8.140200803
 10
13.2945882396
 20
8.1362082666
 10
13.2977657188
 20
8.1324392257
 10
13.3037020433
 20
8.1254859935
  0
LINE
  5
4A0
100
AcDbEntity
  8
ASSI
100
AcDbLine
 62
250
  6
CONTINUOUS
 10
13.2603324917
 20
8.1791981798
 11
13.2663624577
 21
8.1713173994
  0
LINE
  5
4A1
100
AcDbEntity
  8
ASSI
100
AcDbLine
 62
250
  6
CONTINUOUS
 10
13.1964957488
 20
8.2662508582
 11
13.2002595529
 21
8.2612800665
  0
LINE
  5
4A2
100
AcDbEntity
  8
ASSI
100
AcDbLine
 62
250
  6
CONTINUOUS
 10
13.2547340395
 20
8.1866212561
 11
13.2603324917
 21
8.1791981798
  0
LINE
  5
4A3
100
AcDbEntity
  8
ASSI
100
AcDbLine
 62
250
  6
CONTINUOUS
 10
13.2002595529
 20
8.2612800665
 11
13.2040696402
 21
8.2561706897
  0
LINE
  5
4A4
100
AcDbEntity
  8
ASSI
100
AcDbLine
 62
250
  6
CONTINUOUS
 10
13.2494689621
 20
8.1936896085
 11
13.2547340395
 21
8.1866212561
  0
LINE
  5
4A5
100
AcDbEntity
  8
ASSI
100
AcDbLine
 62
250
  6
CONTINUOUS
 10
13.2040696402
 20
8.2561706897
 11
13.207934516
 21
8.250924027
  0
LINE
  5
4A6
100
AcDbEntity
  8
ASSI
100
AcDbLine
 62
250
  6
CONTINUOUS
 10
13.2420634322
 20
8.2037592034
 11
13.2494689621
 21
8.1936896085
  0
LINE
  5
4A7
100
AcDbEntity
  8
ASSI
100
AcDbLine
 62
250
  6
CONTINUOUS
 10
13.207934516
 20
8.250924027
 11
13.2138636149
 21
8.2427825618
  0
LINE
  5
4A8
100
AcDbEntity
  8
ASSI
100
AcDbLine
 62
250
  6
CONTINUOUS
 10
13.2328351039
 20
8.2164674727
 11
13.2420634322
 21
8.2037592034
  0
LINE
  5
4A9
100
AcDbEntity
  8
ASSI
100
AcDbLine
 62
250
  6
CONTINUOUS
 10
13.2138636149
 20
8.2427825618
 11
13.2328351039
 21
8.2164674727
  0
LWPOLYLINE
  5
4AA
100
AcDbEntity
  8
ASSI
100
AcDbPolyline
 62
7
  6
CONTINUOUS
 90
4
 70
0
 10
13.3547601947
 20
8.0698072143
 10
13.3565190535
 20
8.0672155544
 10
13.3594626386
 20
8.063250394
 10
13.3605901543
 20
8.0618795105
  0
LWPOLYLINE
  5
4AB
100
AcDbEntity
  8
ASSI
100
AcDbPolyline
 62
7
  6
CONTINUOUS
 90
89
 70
0
 10
8.4187232028
 20
16.6867275217
 10
8.4174367278
 20
16.6892665284
 10
8.4010573275
 20
16.7188489853
 10
8.383376865
 20
16.7482590127
 10
8.3644208249
 20
16.7774542191
 10
8.3441873672
 20
16.8064342952
 10
8.3226783319
 20
16.8351995502
 10
8.2999247236
 20
16.8637085198
 10
8.275924748
 20
16.8919608338
 10
8.2506801994
 20
16.9199568623
 10
8.2242274657
 20
16.9476562517
 10
8.1965648041
 20
16.9750585744
 10
8.1676939574
 20
17.0021642579
 10
8.1376565417
 20
17.0289342304
 10
8.1064508752
 20
17.0553680073
 10
8.0740786398
 20
17.0814660731
 10
8.0405864976
 20
17.1071908094
 10
8.0059728331
 20
17.1325416783
 10
7.9702392618
 20
17.1575192178
 10
7.9334372919
 20
17.1820874239
 10
7.8955653829
 20
17.2062457062
 10
7.8566250753
 20
17.2299946551
 10
7.816672499
 20
17.2533000383
 10
7.7757061939
 20
17.2761612159
 10
7.73372762
 20
17.2985788278
 10
7.6907972871
 20
17.3205205601
 10
7.6469138225
 20
17.3419857265
 10
7.6020785988
 20
17.3629750135
 10
7.5563562435
 20
17.383458166
 10
7.5097454772
 20
17.4034344542
 10
7.4622475793
 20
17.422904608
 10
7.4139310147
 20
17.4418405625
 10
7.3647946025
 20
17.4602415474
 10
7.3148395236
 20
17.4781083331
 10
7.2641377858
 20
17.4954151653
 10
7.212688313
 20
17.5121612364
 10
7.1604921814
 20
17.5283473541
 10
7.1076246277
 20
17.5439501874
 10
7.0540846828
 20
17.5589688952
 10
6.9998733158
 20
17.5734043186
 10
6.9450686703
 20
17.5872356494
 10
6.8896698916
 20
17.6004620162
 10
6.8336778345
 20
17.6130842905
 10
6.7771732065
 20
17.6250842783
 10
6.7201552673
 20
17.6364610825
 10
6.6626247574
 20
17.6472156001
 10
6.6046646052
 20
17.657332329
 10
6.5462741924
 20
17.666810349
 10
6.4874541374
 20
17.6756505803
 10
6.4282892237
 20
17.6838402804
 10
6.3687789524
 20
17.6913785114
 10
6.3089238223
 20
17.6982662113
 10
6.2488101133
 20
17.7044934515
 10
6.1884374543
 20
17.7100592795
 10
6.1278062165
 20
17.7149646478
 10
6.0670037935
 20
17.719202486
 10
6.0060299368
 20
17.7227718313
 10
5.9448848948
 20
17.7256736465
 10
5.8836568075
 20
17.7279037485
 10
5.8223455568
 20
17.7294611687
 10
5.7609512607
 20
17.7303468757
 10
5.6995624124
 20
17.7305595929
 10
5.6381790178
 20
17.7300983499
 10
5.576801071
 20
17.728964117
 10
5.5155170476
 20
17.7271585293
 10
5.4543270852
 20
17.7246806188
 10
5.3932310461
 20
17.7215313534
 10
5.3323169938
 20
17.7177152726
 10
5.2715851887
 20
17.7132314145
 10
5.2110353703
 20
17.708080741
 10
5.1507548204
 20
17.7022706766
 10
5.0907439293
 20
17.6958002707
 10
5.0310023067
 20
17.6886704739
 10
4.9716160638
 20
17.6808915632
 10
4.9125857116
 20
17.6724626021
 10
4.853910739
 20
17.663384527
 10
4.7956757252
 20
17.6536704239
 10
4.737881306
 20
17.6433193757
 10
4.6805268455
 20
17.6323322993
 10
4.6236950146
 20
17.6207250317
 10
4.5673865657
 20
17.6084966782
 10
4.5116007465
 20
17.5956481334
 10
4.4564179703
 20
17.5821979181
 10
4.4018391078
 20
17.5681451647
 10
4.3478632884
 20
17.5534907409
 10
4.2945683139
 20
17.5382557698
 10
4.2419801184
 20
17.5224472925
 10
4.1900727678
 20
17.5060582678
 10
4.1388462621
 20
17.4890886959
  0
LWPOLYLINE
  5
4AC
100
AcDbEntity
  8
C_COPERCHIO
100
AcDbPolyline
 62
250
  6
CONTINUOUS
 90
40
 70
0
 10
-9.643526851
 20
-26.1102822607
 10
-9.6508198792
 20
-26.1140059708
 10
-9.6583768046
 20
-26.117581148
 10
-9.6661856403
 20
-26.1210021214
 10
-9.6742340002
 20
-26.1242634647
 10
-9.6825091179
 20
-26.1273600048
 10
-9.6909978676
 20
-26.1302868299
 10
-9.6996867844
 20
-26.1330392976
 10
-9.7085620861
 20
-26.1356130419
 10
-9.7176096947
 20
-26.1380039803
 10
-9.726815259
 20
-26.1402083205
 10
-9.7361641772
 20
-26.1422225658
 10
-9.7456416202
 20
-26.1440435213
 10
-9.7552325548
 20
-26.1456682986
 10
-9.7649217681
 20
-26.1470943205
 10
-9.7746938911
 20
-26.1483193251
 10
-9.7845334233
 20
-26.1493413692
 10
-9.7944247573
 20
-26.1501588317
 10
-9.8043522036
 20
-26.150770416
 10
-9.8143000154
 20
-26.151175152
 10
-9.8242524135
 20
-26.1513723976
 10
-9.8341936115
 20
-26.1513618401
 10
-9.8441078408
 20
-26.1511434961
 10
-9.8539793754
 20
-26.1507177119
 10
-9.8637925574
 20
-26.1500851631
 10
-9.873531821
 20
-26.1492468528
 10
-9.8831817179
 20
-26.1482041109
 10
-9.8927269416
 20
-26.1469585913
 10
-9.9021523514
 20
-26.1455122697
 10
-9.911442997
 20
-26.1438674401
 10
-9.9205841415
 20
-26.1420267116
 10
-9.9295612853
 20
-26.139993004
 10
-9.938360189
 20
-26.1377695432
 10
-9.9469668958
 20
-26.1353598558
 10
-9.9553677539
 20
-26.1327677642
 10
-9.9635494377
 20
-26.1299973799
 10
-9.9714989698
 20
-26.1270530974
 10
-9.9792037405
 20
-26.1239395866
 10
-9.9866515286
 20
-26.1206617864
 10
-9.9938305205
 20
-26.1172248959
  0
LINE
  5
4AD
100
AcDbEntity
  8
C_CONTATTO_SX
100
AcDbLine
 62
7
  6
CONTINUOUS
 10
-1.6528992063
 20
19.7537251684
 11
-1.7137229027
 21
19.7372599297
  0
LINE
  5
4AE
100
AcDbEntity
  8
C_MOLLA_IDEA
100
AcDbLine
 62
7
  6
CONTINUOUS
 10
-3.4290881924
 20
17.2849325291
 11
-3.4530561704
 21
17.2824864467
  0
LINE
  5
4AF
100
AcDbEntity
  8
C_MOLLA_IDEA
100
AcDbLine
 62
7
  6
CONTINUOUS
 10
-9.2404622532
 20
17.4131892578
 11
-7.8481087041
 21
17.5552876653
  0
LINE
  5
4B0
100
AcDbEntity
  8
C_MOLLA_IDEA
100
AcDbLine
 62
7
  6
CONTINUOUS
 10
-9.7109511839
 20
17.7294101121
 11
-7.7607054992
 21
17.9284449092
  0
LINE
  5
4B1
100
AcDbEntity
  8
C_MOLLA_IDEA
100
AcDbLine
 62
7
  6
CONTINUOUS
 10
-9.4577617741
 20
18.7769730466
 11
-11.4080074588
 21
18.5779382495
  0
LWPOLYLINE
  5
4B2
100
AcDbEntity
  8
C_MOLLA_IDEA
100
AcDbPolyline
 62
7
  6
CONTINUOUS
 90
25
 70
0
 10
-7.7607054992
 20
17.9284449092
 10
-7.7515333946
 20
17.9291922153
 10
-7.7418810739
 20
17.9296319583
 10
-7.7317485373
 20
17.929764138
 10
-7.7210884184
 20
17.9295866923
 10
-7.7099480836
 20
17.9291016835
 10
-7.6984696317
 20
17.9283152979
 10
-7.6866487315
 20
17.9272236749
 10
-7.6744897142
 20
17.9258306752
 10
-7.6621476723
 20
17.9241540669
 10
-7.6496202612
 20
17.9221902171
 10
-7.6369098256
 20
17.9199427588
 10
-7.6241784914
 20
17.917440359
 10
-7.6114259909
 20
17.914679752
 10
-7.5986525919
 20
17.9116642035
 10
-7.5860212234
 20
17.908432178
 10
-7.573533705
 20
17.9049809023
 10
-7.5611882171
 20
17.9013131496
 10
-7.5491422309
 20
17.8974757033
 10
-7.5373995827
 20
17.8934663896
 10
-7.5259564362
 20
17.8892873824
 10
-7.5149587526
 20
17.8849919862
 10
-7.5044551857
 20
17.8805979693
 10
-7.4943970817
 20
17.8760875635
 10
-7.4847844406
 20
17.8714607688
  0
LWPOLYLINE
  5
4B3
100
AcDbEntity
  8
C_MOLLA_IDEA
100
AcDbPolyline
 62
7
  6
CONTINUOUS
 90
25
 70
0
 10
-11.4080074588
 20
18.5779382495
 10
-11.4171795635
 20
18.5771909433
 10
-11.4268318841
 20
18.5767512004
 10
-11.4369644207
 20
18.5766190207
 10
-11.4476245396
 20
18.5767964663
 10
-11.4587648744
 20
18.5772814752
 10
-11.4702433263
 20
18.5780678608
 10
-11.4820642265
 20
18.5791594838
 10
-11.4942232439
 20
18.5805524835
 10
-11.5065652858
 20
18.5822290917
 10
-11.5190926968
 20
18.5841929415
 10
-11.5318031325
 20
18.5864403999
 10
-11.5445344667
 20
18.5889427997
 10
-11.5572869671
 20
18.5917034067
 10
-11.5700603662
 20
18.5947189552
 10
-11.5826917346
 20
18.5979509807
 10
-11.5951792531
 20
18.6014022563
 10
-11.6075247409
 20
18.605070009
 10
-11.6195707272
 20
18.6089074553
 10
-11.6313133753
 20
18.612916769
 10
-11.6427565218
 20
18.6170957763
 10
-11.6537542054
 20
18.6213911725
 10
-11.6642577723
 20
18.6257851894
 10
-11.6743158763
 20
18.6302955952
 10
-11.6839285174
 20
18.6349223899
  0
LINE
  5
4B4
100
AcDbEntity
  8
C_COPERCHIO
100
AcDbLine
 62
7
  6
CONTINUOUS
 10
-2.0672201771
 20
17.6872649948
 11
-3.189598563
 21
17.6319040873
  0
LWPOLYLINE
  5
4B5
100
AcDbEntity
  8
ASSI
100
AcDbPolyline
 62
7
  6
CONTINUOUS
 90
8
 70
0
 10
8.723917093
 20
18.2685759365
 10
8.805478319
 20
18.2676899729
 10
8.9497094884
 20
18.2548011075
 10
9.0968416479
 20
18.2303581527
 10
9.2458090041
 20
18.194385357
 10
9.3959709732
 20
18.1469736116
 10
9.5471097229
 20
18.088118233
 10
9.6987943359
 20
18.0178788371
  0
LWPOLYLINE
  5
4B6
100
AcDbEntity
  8
C_MOLLA_IDEA
100
AcDbPolyline
 62
7
  6
CONTINUOUS
 90
7
 70
0
 10
-7.3352218131
 20
20.0704064223
 10
-7.3491703558
 20
20.0716539022
 10
-7.3632851815
 20
20.0724004196
 10
-7.3775662902
 20
20.0726459742
 10
-7.3920136819
 20
20.0723905663
 10
-7.4066273568
 20
20.0716341958
 10
-7.4214073146
 20
20.0703768626
  0
LWPOLYLINE
  5
4B7
100
AcDbEntity
  8
ASSI
100
AcDbPolyline
 62
250
  6
CONTINUOUS
 90
18
 70
0
 10
8.7688094224
 20
18.2461297718
 10
8.8088594504
 20
18.2425283422
 10
8.8547936004
 20
18.2371805144
 10
8.9010006358
 20
18.2305913352
 10
8.9474628319
 20
18.2227633318
 10
8.9941623519
 20
18.21369951
 10
9.041081266
 20
18.2034033523
 10
9.0882016079
 20
18.1918788037
 10
9.1355053608
 20
18.1791302704
 10
9.1829744304
 20
18.1651626252
 10
9.230590574
 20
18.1499812322
 10
9.2783354571
 20
18.1335919376
 10
9.3261907085
 20
18.1160010534
 10
9.3741380436
 20
18.0972153067
 10
9.4221591941
 20
18.0772418544
 10
9.4702357867
 20
18.0560883322
 10
9.5183493496
 20
18.0337628614
 10
9.566481435
 20
18.0102739972
  0
LWPOLYLINE
  5
4B8
100
AcDbEntity
  8
C_CONTATTO_DX
100
AcDbPolyline
 62
7
  6
CONTINUOUS
 90
5
 70
0
 10
6.692339504
 20
16.5934293618
 10
6.7152112784
 20
16.5889196331
 10
6.8605369598
 20
16.5563806035
 10
7.0027320305
 20
16.5205502069
 10
7.1418158096
 20
16.4814487542
  0
LWPOLYLINE
  5
4B9
100
AcDbEntity
  8
C_CONTATTO_SX
100
AcDbPolyline
 62
7
  6
CONTINUOUS
 90
5
 70
0
 10
-0.3787283079
 20
20.1211640657
 10
-0.3558565335
 20
20.116654337
 10
-0.2105308521
 20
20.0841153074
 10
-0.0683357814
 20
20.0482849107
 10
0.0707479978
 20
20.0091834581
  0
LWPOLYLINE
  5
4BA
100
AcDbEntity
  8
C_CONTATTO_DX
100
AcDbPolyline
 62
7
  6
CONTINUOUS
 90
8
 70
0
 10
6.6194886011
 20
16.798243008
 10
6.6092454477
 20
16.8004541201
 10
6.5983869773
 20
16.8013582398
 10
6.5869899029
 20
16.8009877087
 10
6.5754114264
 20
16.7993533885
 10
6.5637706151
 20
16.7964588998
 10
6.5519484017
 20
16.7923006219
 10
6.5399447862
 20
16.7868785549
  0
LWPOLYLINE
  5
4BB
100
AcDbEntity
  8
C_CONTATTO_SX
100
AcDbPolyline
 62
7
  6
CONTINUOUS
 90
8
 70
0
 10
-0.4515792108
 20
20.3259777119
 10
-0.4618223642
 20
20.328188824
 10
-0.4726808346
 20
20.3290929437
 10
-0.484077909
 20
20.3287224126
 10
-0.4956563855
 20
20.3270880924
 10
-0.5072971968
 20
20.3241936037
 10
-0.5191194102
 20
20.3200353258
 10
-0.5311230257
 20
20.3146132588
  0
LINE
  5
4BC
100
AcDbEntity
  8
C_CONTATTO_SX
100
AcDbLine
 62
7
  6
CONTINUOUS
 10
-1.7137229027
 20
19.7372599297
 11
-2.2371197618
 21
19.8789457326
  0
LWPOLYLINE
  5
4BD
100
AcDbEntity
  8
ASSI
100
AcDbPolyline
 62
250
  6
CONTINUOUS
 90
22
 70
0
 10
-13.0248839047
 20
24.3824673866
 10
-13.0412685583
 20
24.3873579598
 10
-13.0579373967
 20
24.3915665028
 10
-13.0748777133
 20
24.3950897156
 10
-13.0920771396
 20
24.3979250688
 10
-13.1095230453
 20
24.4000705269
 10
-13.1272020442
 20
24.4015243061
 10
-13.1451011431
 20
24.4022854208
 10
-13.1632072744
 20
24.4023534003
 10
-13.1815066977
 20
24.4017280064
 10
-13.1999860447
 20
24.4004097901
 10
-13.2186317496
 20
24.3983998152
 10
-13.2374295804
 20
24.3956993778
 10
-13.2563658277
 20
24.3923105649
 10
-13.2754265654
 20
24.3882359876
 10
-13.2945970818
 20
24.3834785147
 10
-13.3138631761
 20
24.3780418375
 10
-13.3332108914
 20
24.3719300656
 10
-13.3526257771
 20
24.365147437
 10
-13.3720935219
 20
24.3576989263
 10
-13.3915999608
 20
24.349590277
 10
-13.4111308065
 20
24.3408275902
  0
LWPOLYLINE
  5
4BE
100
AcDbEntity
  8
C_CONTATTO_DX
100
AcDbPolyline
 62
7
  6
CONTINUOUS
 90
32
 70
0
 10
6.6219322969
 20
16.7974999122
 10
6.5256279295
 20
16.8267872079
 10
6.4108000283
 20
16.8577880363
 10
6.2932059265
 20
16.8854576413
 10
6.1731825704
 20
16.9097514114
 10
6.0510577908
 20
16.9306335731
 10
5.9271588191
 20
16.9480742734
 10
5.8018544494
 20
16.962045163
 10
5.6754665508
 20
16.972531201
 10
5.5482627891
 20
16.9795241436
 10
5.4205869779
 20
16.9830133428
 10
5.2927907408
 20
16.9829953389
 10
5.1651555921
 20
16.9794716911
 10
5.0380298225
 20
16.9724487997
 10
4.9117587458
 20
16.9619404427
 10
4.786616308
 20
16.9479589086
 10
4.662945711
 20
16.9305266307
 10
4.5410872914
 20
16.9096730564
 10
4.4213020672
 20
16.8854178828
 10
4.3039189112
 20
16.8577953892
 10
4.1892759719
 20
16.8268488797
 10
4.0776321166
 20
16.7926040663
 10
3.9692781528
 20
16.7550946308
 10
3.8645684314
 20
16.7143809809
 10
3.7638223209
 20
16.670519843
 10
3.6672422726
 20
16.6235152292
 10
3.5752317529
 20
16.5734674752
 10
3.4883158036
 20
16.5205842326
 10
3.4065862351
 20
16.4648374574
 10
3.3304313364
 20
16.4063904016
 10
3.2605937267
 20
16.3457902769
 10
3.1971382769
 20
16.2831404889
  0
LWPOLYLINE
  5
4BF
100
AcDbEntity
  8
C_CONTATTO_SX
100
AcDbPolyline
 62
7
  6
CONTINUOUS
 90
36
 70
0
 10
-0.4491373023
 20
20.3252304605
 10
-0.5454398824
 20
20.3545219118
 10
-0.6602677835
 20
20.3855227402
 10
-0.7778618854
 20
20.4131923452
 10
-0.8978852415
 20
20.4374861153
 10
-1.0200100211
 20
20.458368277
 10
-1.1439089927
 20
20.4758089773
 10
-1.2692133625
 20
20.4897798669
 10
-1.3956012611
 20
20.5002659049
 10
-1.5228050228
 20
20.5072588475
 10
-1.650480834
 20
20.5107480467
 10
-1.7782770711
 20
20.5107300428
 10
-1.9059122198
 20
20.507206395
 10
-2.0330379893
 20
20.5001835036
 10
-2.1593090661
 20
20.4896751466
 10
-2.2844515039
 20
20.4756936125
 10
-2.4081221009
 20
20.4582613346
 10
-2.5299805205
 20
20.4374077603
 10
-2.6497657446
 20
20.4131525867
 10
-2.7671489006
 20
20.3855300931
 10
-2.88179184
 20
20.3545835836
 10
-2.9934356952
 20
20.3203387702
 10
-3.101789659
 20
20.2828293347
 10
-3.2064993804
 20
20.2421156848
 10
-3.307245491
 20
20.1982545469
 10
-3.4038255393
 20
20.1512499331
 10
-3.4958360589
 20
20.1012021791
 10
-3.5827520082
 20
20.0483189365
 10
-3.6644815768
 20
19.9925721613
 10
-3.7406364755
 20
19.9341251055
 10
-3.8104740852
 20
19.8735249808
 10
-3.8739295349
 20
19.8108751928
 10
-3.9309080949
 20
19.7463060264
 10
-3.9809320462
 20
19.6805032414
 10
-4.0239730143
 20
19.613821189
 10
-4.0513142401
 20
19.5629072349
  0
LINE
  5
4C0
100
AcDbEntity
  8
C_CONTATTO_DX
100
AcDbLine
 62
7
  6
CONTINUOUS
 10
7.1418158096
 20
16.4814487542
 11
7.2683143048
 21
16.442003982
  0
LINE
  5
4C1
100
AcDbEntity
  8
C_CONTATTO_SX
100
AcDbLine
 62
7
  6
CONTINUOUS
 10
0.0707479978
 20
20.0091834581
 11
0.1972464929
 21
19.9697386859
  0
LWPOLYLINE
  5
4C2
100
AcDbEntity
  8
C_CONTATTO_DX
100
AcDbPolyline
 62
7
  6
CONTINUOUS
 90
4
 70
0
 10
7.3916958648
 20
16.3997722442
 10
7.4080393066
 20
16.3941407558
 10
7.5351790243
 20
16.3459342101
 10
7.6356346536
 20
16.3041224811
  0
LWPOLYLINE
  5
4C3
100
AcDbEntity
  8
C_CONTATTO_SX
100
AcDbPolyline
 62
7
  6
CONTINUOUS
 90
4
 70
0
 10
0.3206280529
 20
19.9275069481
 10
0.3369714947
 20
19.9218754597
 10
0.4641112125
 20
19.873668914
 10
0.5559470865
 20
19.8354449069
  0
LWPOLYLINE
  5
4C4
100
AcDbEntity
  8
ASSI
100
AcDbPolyline
 62
250
  6
CONTINUOUS
 90
25
 70
0
 10
13.7393663203
 20
-15.9056889294
 10
13.7484004724
 20
-15.8998893132
 10
13.7571249838
 20
-15.8935662684
 10
13.7655292289
 20
-15.8867274955
 10
13.7736029726
 20
-15.8793813234
 10
13.7813363819
 20
-15.8715366987
 10
13.7887200387
 20
-15.8632031752
 10
13.7957449505
 20
-15.8543909021
 10
13.8024025619
 20
-15.8451106116
 10
13.8086847647
 20
-15.835373606
 10
13.8145839081
 20
-15.8251917436
 10
13.8200928076
 20
-15.8145774247
 10
13.825204754
 20
-15.8035435762
 10
13.8299135217
 20
-15.792103636
 10
13.834213376
 20
-15.7802715364
 10
13.8380990802
 20
-15.7680616874
 10
13.841565902
 20
-15.7554889591
 10
13.8446096193
 20
-15.7425686635
 10
13.8472265252
 20
-15.7293165358
 10
13.8494134325
 20
-15.7157487156
 10
13.8511676781
 20
-15.7018817266
 10
13.8524871253
 20
-15.6877324571
 10
13.8533701674
 20
-15.6733181391
 10
13.8538157288
 20
-15.6586563275
 10
13.8538232669
 20
7.3103632317
  0
LINE
  5
4C5
100
AcDbEntity
  8
ASSI
100
AcDbLine
 62
250
  6
CONTINUOUS
 10
13.7315652769
 20
-15.9101407214
 11
13.7393663203
 21
-15.9056889294
  0
LINE
  5
4C6
100
AcDbEntity
  8
ASSI
100
AcDbLine
 62
7
  6
CONTINUOUS
 10
4.3880483609
 20
-20.9511824537
 11
13.7315652769
 21
-15.9101407214
  0
LINE
  5
4C7
100
AcDbEntity
  8
C_COPERCHIO
100
AcDbLine
 62
7
  6
CONTINUOUS
 10
-7.0035805873
 20
-26.6064430511
 11
-6.8205792126
 21
-26.5180818645
  0
LINE
  5
4C8
100
AcDbEntity
  8
C_MOLLA_IDEA
100
AcDbLine
 62
7
  6
CONTINUOUS
 10
-13.2709709059
 20
19.4284435841
 11
-11.8786173569
 21
19.5705419917
  0
LINE
  5
4C9
100
AcDbEntity
  8
C_MOLLA_IDEA
100
AcDbLine
 62
7
  6
CONTINUOUS
 10
-7.4214073146
 20
20.0703768626
 11
-8.7563570293
 21
19.9341368761
  0
LINE
  5
4CA
100
AcDbEntity
  8
C_MOLLA_IDEA
100
AcDbLine
 62
7
  6
CONTINUOUS
 10
-13.7414598367
 20
19.7446644385
 11
-11.791214152
 21
19.9436992355
  0
LINE
  5
4CB
100
AcDbEntity
  8
C_MOLLA_IDEA
100
AcDbLine
 62
7
  6
CONTINUOUS
 10
-15.1272027509
 20
20.2418177927
 11
-10.4818469894
 21
20.7159054673
  0
LWPOLYLINE
  5
4CC
100
AcDbEntity
  8
C_MOLLA_IDEA
100
AcDbPolyline
 62
7
  6
CONTINUOUS
 90
25
 70
0
 10
-8.7563570293
 20
19.9341368761
 10
-8.765529134
 20
19.93338957
 10
-8.7751814547
 20
19.9329498271
 10
-8.7853139913
 20
19.9328176473
 10
-8.7959741101
 20
19.932995093
 10
-8.807114445
 20
19.9334801018
 10
-8.8185928969
 20
19.9342664874
 10
-8.8304137971
 20
19.9353581104
 10
-8.8425728144
 20
19.9367511101
 10
-8.8549148563
 20
19.9384277184
 10
-8.8674422674
 20
19.9403915682
 10
-8.880152703
 20
19.9426390265
 10
-8.8928840372
 20
19.9451414264
 10
-8.9056365377
 20
19.9479020334
 10
-8.9184099367
 20
19.9509175818
 10
-8.9310413051
 20
19.9541496073
 10
-8.9435288236
 20
19.957600883
 10
-8.9558743115
 20
19.9612686357
 10
-8.9679202977
 20
19.965106082
 10
-8.9796629459
 20
19.9691153957
 10
-8.9911060924
 20
19.9732944029
 10
-9.002103776
 20
19.9775897991
 10
-9.0126073429
 20
19.981983816
 10
-9.0226654469
 20
19.9864942218
 10
-9.032278088
 20
19.9911210165
  0
LWPOLYLINE
  5
4CD
100
AcDbEntity
  8
C_MOLLA_IDEA
100
AcDbPolyline
 62
7
  6
CONTINUOUS
 90
25
 70
0
 10
-11.791214152
 20
19.9436992355
 10
-11.7820420473
 20
19.9444465417
 10
-11.7723897267
 20
19.9448862846
 10
-11.7622571901
 20
19.9450184644
 10
-11.7515970712
 20
19.9448410187
 10
-11.7404567364
 20
19.9443560099
 10
-11.7289782845
 20
19.9435696242
 10
-11.7171573843
 20
19.9424780013
 10
-11.7049983669
 20
19.9410850016
 10
-11.692656325
 20
19.9394083933
 10
-11.680128914
 20
19.9374445435
 10
-11.6674184783
 20
19.9351970852
 10
-11.6546871441
 20
19.9326946853
 10
-11.6419346437
 20
19.9299340783
 10
-11.6291612446
 20
19.9269185299
 10
-11.6165298762
 20
19.9236865044
 10
-11.6040423578
 20
19.9202352287
 10
-11.5916968699
 20
19.916567476
 10
-11.5796508836
 20
19.9127300297
 10
-11.5679082355
 20
19.908720716
 10
-11.556465089
 20
19.9045417087
 10
-11.5454674054
 20
19.9002463126
 10
-11.5349638385
 20
19.8958522957
 10
-11.5249057345
 20
19.8913418899
 10
-11.5152930934
 20
19.8867150952
  0
LINE
  5
4CE
100
AcDbEntity
  8
C_COPERCHIO
100
AcDbLine
 62
7
  6
CONTINUOUS
 10
-8.9741648769
 20
21.3228482127
 11
-10.3900414067
 21
21.2321255091
  0
LINE
  5
4CF
100
AcDbEntity
  8
C_COPERCHIO
100
AcDbLine
 62
7
  6
CONTINUOUS
 10
-7.7115602555
 20
20.509435034
 11
-8.8140735373
 21
20.4441415744
  0
LWPOLYLINE
  5
4D0
100
AcDbEntity
  8
ASSI
100
AcDbPolyline
 62
250
  6
CONTINUOUS
 90
20
 70
0
 10
-2.5705077041
 20
24.991639464
 10
-2.5798448553
 20
24.9950683887
 10
-2.5893910399
 20
24.9980185496
 10
-2.5991362614
 20
25.0004868576
 10
-2.609070315
 20
25.0024707277
 10
-2.6191827981
 20
25.0039680827
 10
-2.6294631214
 20
25.0049773545
 10
-2.6399005195
 20
25.0054974863
 10
-2.650484063
 20
25.0055279334
 10
-2.661202669
 20
25.0050686639
 10
-2.6720451134
 20
25.0041201588
 10
-2.6830000425
 20
25.0026834113
 10
-2.6940559846
 20
25.0007599258
 10
-2.7052013623
 20
24.9983517167
 10
-2.7164245047
 20
24.9954613056
 10
-2.7277136593
 20
24.9920917194
 10
-2.7390570044
 20
24.9882464865
 10
-2.7504426618
 20
24.9839296335
 10
-2.7618587088
 20
24.9791456809
 10
-9.0784879115
 20
22.0619517693
  0
LWPOLYLINE
  5
4D1
100
AcDbEntity
  8
ASSI
100
AcDbPolyline
 62
250
  6
CONTINUOUS
 90
18
 70
0
 10
0.3546687948
 20
22.689621009
 10
0.3482589596
 20
22.6920490272
 10
0.3416825398
 20
22.6940979512
 10
0.3349486312
 20
22.6957649474
 10
0.3280665474
 20
22.69704771
 10
0.321045807
 20
22.6979444649
 10
0.3138961204
 20
22.6984539717
 10
0.3066273762
 20
22.6985755259
 10
0.2992496278
 20
22.6983089592
 10
0.2917730794
 20
22.6976546403
 10
0.2842080717
 20
22.6966134743
 10
0.2765650679
 20
22.6951869012
 10
0.2688546389
 20
22.693376894
 10
0.2610874491
 20
22.6911859562
 10
0.2532742411
 20
22.688617118
 10
0.2454258215
 20
22.6856739324
 10
0.2375530453
 20
22.6823604702
 10
0.2296668012
 20
22.678681314
  0
LWPOLYLINE
  5
4D2
100
AcDbEntity
  8
ASSI
100
AcDbPolyline
 62
250
  6
CONTINUOUS
 90
17
 70
0
 10
9.692808104
 20
18.0206508343
 10
9.6860707893
 20
18.0232927658
 10
9.6790087606
 20
18.0255465515
 10
9.6717632649
 20
18.0273576305
 10
9.6643459243
 20
18.0287230978
 10
9.6567686363
 20
18.029640763
 10
9.6490435553
 20
18.0301091543
 10
9.6411830725
 20
18.0301275202
 10
9.6331997964
 20
18.0296958314
 10
9.6251065324
 20
18.0288147803
 10
9.6169162624
 20
18.0274857802
 10
9.6086421239
 20
18.0257109627
 10
9.6002973889
 20
18.0234931748
 10
9.5918954425
 20
18.0208359738
 10
9.5834497619
 20
18.0177436221
 10
9.5749738942
 20
18.0142210798
 10
9.566481435
 20
18.0102739972
  0
LWPOLYLINE
  5
4D3
100
AcDbEntity
  8
ASSI
100
AcDbPolyline
 62
7
  6
CONTINUOUS
 90
25
 70
0
 10
7.2180331609
 20
19.0215195307
 10
7.2175982696
 20
19.0216919204
 10
7.2169486495
 20
19.0218401114
 10
7.2161726044
 20
19.0219171825
 10
7.2152665596
 20
19.0219133571
 10
7.2142276222
 20
19.0218310143
 10
7.2130529623
 20
19.0216715707
 10
7.211738472
 20
19.0214240046
 10
7.2102811209
 20
19.0210910283
 10
7.2086779967
 20
19.0206743474
 10
7.2069245647
 20
19.0201616783
 10
7.2050176853
 20
19.0195560534
 10
7.2029544948
 20
19.0188595819
 10
7.2007303622
 20
19.0180588824
 10
7.1983421356
 20
19.0171572441
 10
7.1957871963
 20
19.016157324
 10
7.1930614043
 20
19.0150450935
 10
7.1901617713
 20
19.0138239788
 10
7.1870861955
 20
19.0124973334
 10
7.1838318778
 20
19.0110512845
 10
7.1803962868
 20
19.009489236
 10
7.1767781433
 20
19.0078153342
 10
7.1729769562
 20
19.0060169784
 10
7.1689920025
 20
19.0040926556
 10
7.1604672012
 20
18.9998991654
  0
LWPOLYLINE
  5
4D4
100
AcDbEntity
  8
ASSI
100
AcDbPolyline
 62
7
  6
CONTINUOUS
 90
25
 70
0
 10
0.1469653491
 20
22.5570534367
 10
0.1465304578
 20
22.5572258263
 10
0.1458808376
 20
22.5573740173
 10
0.1451047925
 20
22.5574510884
 10
0.1441987477
 20
22.5574472631
 10
0.1431598104
 20
22.5573649202
 10
0.1419851505
 20
22.5572054766
 10
0.1406706602
 20
22.5569579106
 10
0.139213309
 20
22.5566249342
 10
0.1376101848
 20
22.5562082533
 10
0.1358567529
 20
22.5556955842
 10
0.1339498734
 20
22.5550899594
 10
0.131886683
 20
22.5543934878
 10
0.1296625503
 20
22.5535927883
 10
0.1272743237
 20
22.55269115
 10
0.1247193845
 20
22.5516912299
 10
0.1219935924
 20
22.5505789994
 10
0.1190939594
 20
22.5493578847
 10
0.1160183837
 20
22.5480312393
 10
0.1127640659
 20
22.5465851904
 10
0.1093284749
 20
22.545023142
 10
0.1057103315
 20
22.5433492402
 10
0.1019091443
 20
22.5415508844
 10
0.0979241906
 20
22.5396265615
 10
0.0893993893
 20
22.5354330713
  0
LWPOLYLINE
  5
4D5
100
AcDbEntity
  8
ASSI
100
AcDbPolyline
 62
7
  6
CONTINUOUS
 90
11
 70
0
 10
11.3806362013
 20
18.0168347021
 10
11.3632569942
 20
18.0246377137
 10
11.3344220831
 20
18.0341007958
 10
11.3048844748
 20
18.0398536976
 10
11.2749098708
 20
18.0420713632
 10
11.2446403405
 20
18.0409409596
 10
11.2147485016
 20
18.0367610043
 10
11.1852687093
 20
18.0298894034
 10
11.1556319733
 20
18.0204627006
 10
11.1255105576
 20
18.0085361108
 10
11.1004292913
 20
17.9969674087
  0
LWPOLYLINE
  5
4D6
100
AcDbEntity
  8
ASSI
100
AcDbPolyline
 62
7
  6
CONTINUOUS
 90
11
 70
0
 10
4.3095683894
 20
21.552368608
 10
4.2921891823
 20
21.5601716197
 10
4.2633542713
 20
21.5696347018
 10
4.2338166629
 20
21.5753876035
 10
4.203842059
 20
21.5776052691
 10
4.1735725287
 20
21.5764748656
 10
4.1436806898
 20
21.5722949103
 10
4.1142008974
 20
21.5654233093
 10
4.0845641615
 20
21.5559966065
 10
4.0544427457
 20
21.5440700167
 10
4.0293614795
 20
21.5325013146
  0
LWPOLYLINE
  5
4D7
100
AcDbEntity
  8
ASSI
100
AcDbPolyline
 62
250
  6
CONTINUOUS
 90
19
 70
0
 10
-2.7854162787
 20
24.9799044213
 10
-2.7975321167
 20
24.9853708596
 10
-2.8096259496
 20
24.9902922956
 10
-2.8216830485
 20
24.9946627356
 10
-2.8336887293
 20
24.9984768571
 10
-2.8456283707
 20
25.0017300148
 10
-2.8574874318
 20
25.0044182469
 10
-2.8692514696
 20
25.0065382795
 10
-2.8809061571
 20
25.0080875305
 10
-2.8924373003
 20
25.0090641132
 10
-2.9038308558
 20
25.0094668383
 10
-2.9150729476
 20
25.0092952153
 10
-2.9261498843
 20
25.0085494532
 10
-2.9370481756
 20
25.0072304602
 10
-2.9477545487
 20
25.0053398428
 10
-2.9582559647
 20
25.0028799033
 10
-2.9685396341
 20
24.9998536379
 10
-2.9785930328
 20
24.9962647319
 10
-2.9890909895
 20
24.9918019931
  0
LWPOLYLINE
  5
4D8
100
AcDbEntity
  8
ASSI
100
AcDbPolyline
 62
250
  6
CONTINUOUS
 90
22
 70
0
 10
6.8506704053
 20
20.2818124263
 10
6.8393096961
 20
20.2871265355
 10
6.8278532406
 20
20.291915399
 10
6.8163156066
 20
20.296176301
 10
6.8047086905
 20
20.2999085865
 10
6.7930423404
 20
20.3031129377
 10
6.7813279191
 20
20.3057887932
 10
6.7695767204
 20
20.3079367861
 10
6.7577992345
 20
20.3095583498
 10
6.7460053647
 20
20.3106538847
 10
6.7342053808
 20
20.3112249835
 10
6.7224107498
 20
20.3112738437
 10
6.710633014
 20
20.310801729
 10
6.6988832392
 20
20.3098113201
 10
6.6871721977
 20
20.3083060642
 10
6.6755109336
 20
20.3062886538
 10
6.6639111781
 20
20.3037630729
 10
6.6523830251
 20
20.3007337905
 10
6.6409349806
 20
20.2972043442
 10
6.6295770828
 20
20.2931791605
 10
6.6183209383
 20
20.2886639371
 10
6.6071773314
 20
20.2836643771
  0
LWPOLYLINE
  5
4D9
100
AcDbEntity
  8
ASSI
100
AcDbPolyline
 62
250
  6
CONTINUOUS
 90
22
 70
0
 10
-0.2203974065
 20
23.8173463323
 10
-0.2317581158
 20
23.8226604415
 10
-0.2432145713
 20
23.8274493049
 10
-0.2547522052
 20
23.8317102069
 10
-0.2663591213
 20
23.8354424925
 10
-0.2780254714
 20
23.8386468437
 10
-0.2897398928
 20
23.8413226991
 10
-0.3014910915
 20
23.843470692
 10
-0.3132685774
 20
23.8450922557
 10
-0.3250624472
 20
23.8461877906
 10
-0.3368624311
 20
23.8467588894
 10
-0.3486570621
 20
23.8468077496
 10
-0.3604347979
 20
23.8463356349
 10
-0.3721845726
 20
23.845345226
 10
-0.3838956142
 20
23.8438399702
 10
-0.3955568782
 20
23.8418225597
 10
-0.4071566338
 20
23.8392969788
 10
-0.4186847868
 20
23.8362676964
 10
-0.4301328312
 20
23.8327382501
 10
-0.4414907291
 20
23.8287130664
 10
-0.4527468735
 20
23.824197843
 10
-0.4638904805
 20
23.819198283
  0
LWPOLYLINE
  5
4DA
100
AcDbEntity
  8
ASSI
100
AcDbPolyline
 62
250
  6
CONTINUOUS
 90
22
 70
0
 10
13.717701186
 20
16.8483023217
 10
13.7122316862
 20
16.8509250076
 10
13.7031132474
 20
16.8548294026
 10
13.6937759819
 20
16.8582586061
 10
13.6842296676
 20
16.8612090269
 10
13.6744843014
 20
16.8636775747
 10
13.6645500892
 20
16.8656616643
 10
13.6544374341
 20
16.8671592174
 10
13.6441569261
 20
16.8681686657
 10
13.6337193314
 20
16.8686889519
 10
13.6231355803
 20
16.8687195308
 10
13.6124167562
 20
16.8682603703
 10
13.6015740846
 20
16.8673119511
 10
13.5906189202
 20
16.8658752663
 10
13.5795627353
 20
16.8639518204
 10
13.5684171081
 20
16.8615436275
 10
13.5571937095
 20
16.8586532093
 10
13.5459042937
 20
16.8552835927
 10
13.5345606869
 20
16.8514383077
 10
13.5231747693
 20
16.8471213819
 10
13.5117584633
 20
16.8423373361
 10
13.5003237242
 20
16.8370911807
  0
LWPOLYLINE
  5
4DB
100
AcDbEntity
  8
ASSI
100
AcDbPolyline
 62
250
  6
CONTINUOUS
 90
3
 70
0
 10
-2.5558567506
 20
24.985081303
 10
-2.5613893638
 20
24.9877353663
 10
-2.5705077041
 20
24.991639464
  0
LWPOLYLINE
  5
4DC
100
AcDbEntity
  8
ASSI
100
AcDbPolyline
 62
250
  6
CONTINUOUS
 90
11
 70
0
 10
0.2296668012
 20
22.678681314
 10
0.2211988735
 20
22.6827768343
 10
0.2127416771
 20
22.686442859
 10
0.2043089283
 20
22.6896734426
 10
0.1959143038
 20
22.6924633454
 10
0.1875714183
 20
22.6948080427
 10
0.1792938027
 20
22.6967037317
 10
0.1710948821
 20
22.698147338
 10
0.1629879538
 20
22.6991365202
 10
0.1549861661
 20
22.6996696741
 10
0.1479780331
 20
22.6997374655
  0
LINE
  5
4DD
100
AcDbEntity
  8
ASSI
100
AcDbLine
 62
250
  6
CONTINUOUS
 10
11.3799118035
 20
18.0171917273
 11
11.3806367197
 21
18.0168344388
  0
LINE
  5
4DE
100
AcDbEntity
  8
ASSI
100
AcDbLine
 62
250
  6
CONTINUOUS
 10
4.3088439916
 20
21.5527256332
 11
4.3095689078
 21
21.5523683448
  0
LWPOLYLINE
  5
4DF
100
AcDbEntity
  8
ASSI
100
AcDbPolyline
 62
250
  6
CONTINUOUS
 90
20
 70
0
 10
15.1465216731
 20
15.2940151685
 10
15.1454501905
 20
15.2945438164
 10
15.1392156784
 20
15.2973479907
 10
15.1328056906
 20
15.2997764006
 10
15.1262290942
 20
15.3018256861
 10
15.1194949859
 20
15.3034930121
 10
15.1126126803
 20
15.304776072
 10
15.1055916977
 20
15.3056730903
 10
15.0984417496
 20
15.3061828261
 10
15.0911727258
 20
15.3063045738
 10
15.0837946821
 20
15.3060381648
 10
15.0763178241
 20
15.3053839675
 10
15.0687524936
 20
15.3043428866
 10
15.0611091556
 20
15.302916362
 10
15.0533983811
 20
15.3011063664
 10
15.0456308372
 20
15.2989154037
 10
15.0378172731
 20
15.296346506
 10
15.0299684983
 20
15.2934032279
 10
15.0220953679
 20
15.2900896408
 10
15.0142087722
 20
15.2864103286
  0
LWPOLYLINE
  5
4E0
100
AcDbEntity
  8
ASSI
100
AcDbPolyline
 62
250
  6
CONTINUOUS
 90
3
 70
0
 10
0.3619797022
 20
22.686286154
 10
0.3609031799
 20
22.686817255
 10
0.3546687948
 20
22.689621009
  0
LINE
  5
4E1
100
AcDbEntity
  8
ASSI
100
AcDbLine
 62
250
  6
CONTINUOUS
 10
13.7177601645
 20
16.8482728455
 11
13.717701186
 21
16.8483023217
  0
LINE
  5
4E2
100
AcDbEntity
  8
ASSI
100
AcDbLine
 62
250
  6
CONTINUOUS
 10
0.0893993893
 20
22.5354330713
 11
3.0511449724
 21
21.0545602798
  0
LINE
  5
4E3
100
AcDbEntity
  8
ASSI
100
AcDbLine
 62
250
  6
CONTINUOUS
 10
7.1604672012
 20
18.9998991654
 11
10.1222127843
 21
17.5190263738
  0
LINE
  5
4E4
100
AcDbEntity
  8
ASSI
100
AcDbLine
 62
7
  6
CONTINUOUS
 10
0.1469652637
 20
22.5570518511
 11
3.1021286866
 21
21.0794701397
  0
LINE
  5
4E5
100
AcDbEntity
  8
ASSI
100
AcDbLine
 62
7
  6
CONTINUOUS
 10
7.2180330756
 20
19.0215179452
 11
10.1731964985
 21
17.5439362337
  0
LINE
  5
4E6
100
AcDbEntity
  8
ASSI
100
AcDbLine
 62
250
  6
CONTINUOUS
 10
0.2296668012
 20
22.678681314
 11
3.2669908788
 21
21.1600192753
  0
LINE
  5
4E7
100
AcDbEntity
  8
ASSI
100
AcDbLine
 62
250
  6
CONTINUOUS
 10
9.566481435
 20
18.0102739972
 11
10.3380586906
 21
17.6244853693
  0
LINE
  5
4E8
100
AcDbEntity
  8
ASSI
100
AcDbLine
 62
250
  6
CONTINUOUS
 10
13.9941533667
 20
15.7964380313
 11
15.0142087722
 21
15.2864103286
  0
LINE
  5
4E9
100
AcDbEntity
  8
ASSI
100
AcDbLine
 62
7
  6
CONTINUOUS
 10
0.3619797022
 20
22.686286154
 11
3.3416039034
 21
21.1964740534
  0
LINE
  5
4EA
100
AcDbEntity
  8
ASSI
100
AcDbLine
 62
7
  6
CONTINUOUS
 10
9.6987943359
 20
18.0178788371
 11
10.4126717153
 21
17.6609401474
  0
LINE
  5
4EB
100
AcDbEntity
  8
ASSI
100
AcDbLine
 62
7
  6
CONTINUOUS
 10
13.9941533667
 20
15.8701993217
 11
15.1465216731
 21
15.2940151685
  0
LINE
  5
4EC
100
AcDbEntity
  8
ASSI
100
AcDbLine
 62
250
  6
CONTINUOUS
 10
-2.7854162787
 20
24.9799044213
 11
-0.4638904805
 21
23.819198283
  0
LINE
  5
4ED
100
AcDbEntity
  8
ASSI
100
AcDbLine
 62
250
  6
CONTINUOUS
 10
4.1198532019
 20
21.5273264418
 11
6.6071773314
 21
20.2836643771
  0
LINE
  5
4EE
100
AcDbEntity
  8
ASSI
100
AcDbLine
 62
7
  6
CONTINUOUS
 10
4.3095689078
 20
21.5523683448
 11
6.852201197
 21
20.2810523292
  0
LINE
  5
4EF
100
AcDbEntity
  8
ASSI
100
AcDbLine
 62
7
  6
CONTINUOUS
 10
11.3806367197
 20
18.0168344388
 11
13.7177601645
 21
16.8482728455
  0
LINE
  5
4F0
100
AcDbEntity
  8
ASSI
100
AcDbLine
 62
7
  6
CONTINUOUS
 10
-0.2185522605
 20
23.8164288337
 11
-2.5558567506
 21
24.985081303
  0
LINE
  5
4F1
100
AcDbEntity
  8
ASSI
100
AcDbLine
 62
7
  6
CONTINUOUS
 10
6.8525155514
 20
20.2808949277
 11
6.8522009957
 21
20.2810524299
  0
LWPOLYLINE
  5
4F2
100
AcDbEntity
  8
ASSI
100
AcDbPolyline
 62
250
  6
CONTINUOUS
 90
20
 70
0
 10
3.7409372274
 20
-25.5154984348
 10
3.7453967532
 20
-25.5125001383
 10
3.7496594143
 20
-25.5091770745
 10
3.7537170997
 20
-25.5055355665
 10
3.7575620883
 20
-25.5015825435
 10
3.7611870638
 20
-25.4973255272
 10
3.7645851285
 20
-25.4927726181
 10
3.7677498166
 20
-25.4879324796
 10
3.7706751061
 20
-25.4828143214
 10
3.7733554308
 20
-25.4774278826
 10
3.7757856906
 20
-25.4717834126
 10
3.7779612611
 20
-25.4658916517
 10
3.7798780025
 20
-25.459763811
 10
3.7815322677
 20
-25.4534115506
 10
3.7829209089
 20
-25.4468469576
 10
3.7840412837
 20
-25.4400825234
 10
3.7848912603
 20
-25.4331311194
 10
3.7854692214
 20
-25.4260059729
 10
3.7857740671
 20
-25.4187206417
 10
3.7858052174
 20
-25.4112889886
  0
LWPOLYLINE
  5
4F3
100
AcDbEntity
  8
ASSI
100
AcDbPolyline
 62
7
  6
CONTINUOUS
 90
18
 70
0
 10
3.7367472302
 20
-25.5179225711
 10
3.7951806381
 20
-25.4834427249
 10
3.858871805
 20
-25.4388744116
 10
3.9206801431
 20
-25.3881938814
 10
3.9801931043
 20
-25.3318355826
 10
4.0367204021
 20
-25.2706061541
 10
4.089868096
 20
-25.2051554699
 10
4.1395055435
 20
-25.1358334088
 10
4.1853308379
 20
-25.0631965571
 10
4.2270638671
 20
-24.9878104087
 10
4.2644924444
 20
-24.9101456202
 10
4.2974083855
 20
-24.8306576603
 10
4.3255792979
 20
-24.7498635467
 10
4.3487834364
 20
-24.6682812965
 10
4.3668279067
 20
-24.586328596
 10
4.3794974696
 20
-24.5044584621
 10
4.3865600489
 20
-24.4232153468
 10
4.3880483061
 20
-24.3663031427
  0
LINE
  5
4F4
100
AcDbEntity
  8
ASSI
100
AcDbLine
 62
250
  6
CONTINUOUS
 10
3.7369020214
 20
-25.5178393257
 11
3.7409372274
 21
-25.5154984348
  0
LINE
  5
4F5
100
AcDbEntity
  8
ASSI
100
AcDbLine
 62
250
  6
CONTINUOUS
 10
3.7858052174
 20
-25.4112889886
 11
-1.7844335808
 21
-28.4165606109
  0
LINE
  5
4F6
100
AcDbEntity
  8
ASSI
100
AcDbLine
 62
7
  6
CONTINUOUS
 10
3.7369020214
 20
-25.5178393257
 11
-1.8343293393
 21
-28.5236464583
  0
LINE
  5
4F7
100
AcDbEntity
  8
C_COPERCHIO
100
AcDbLine
 62
250
  6
CONTINUOUS
 10
-3.2611102771
 20
-29.0862380156
 11
-1.7844335808
 21
-28.3732329608
  0
LINE
  5
4F8
100
AcDbEntity
  8
C_COPERCHIO
100
AcDbLine
 62
7
  6
CONTINUOUS
 10
-3.3260719443
 20
-29.2214508895
 11
-1.8505694463
 21
-28.5090127897
  0
LWPOLYLINE
  5
4F9
100
AcDbEntity
  8
C_COPERCHIO
100
AcDbPolyline
 62
250
  6
CONTINUOUS
 90
26
 70
0
 10
-7.0724255024
 20
-29.6216497911
 10
-7.0713965524
 20
-29.6211669452
 10
-7.0663222284
 20
-29.6185542696
 10
-7.0614029801
 20
-29.6156286144
 10
-7.0566456847
 20
-29.61239407
 10
-7.0520569932
 20
-29.6088551584
 10
-7.0476433209
 20
-29.6050168271
 10
-7.0434108382
 20
-29.6008844424
 10
-7.0393654623
 20
-29.5964637815
 10
-7.035512849
 20
-29.5917610247
 10
-7.0318583842
 20
-29.5867827467
 10
-7.0284071772
 20
-29.5815359074
 10
-7.0251640529
 20
-29.576027842
 10
-7.0221335453
 20
-29.5702662512
 10
-7.0193198913
 20
-29.5642591899
 10
-7.0167270244
 20
-29.5580150563
 10
-7.0143585696
 20
-29.5515425799
 10
-7.0122178382
 20
-29.5448508096
 10
-7.0103078229
 20
-29.5379491009
 10
-7.0086311941
 20
-29.5308471026
 10
-7.0071902957
 20
-29.5235547438
 10
-7.0059871423
 20
-29.5160822193
 10
-7.0050234158
 20
-29.5084399763
 10
-7.0043004637
 20
-29.5006386988
 10
-7.0038192966
 20
-29.4926892936
 10
-7.0035805873
 20
-29.4846028742
  0
LINE
  5
4FA
100
AcDbEntity
  8
C_COPERCHIO
100
AcDbLine
 62
250
  6
CONTINUOUS
 10
-3.2611102771
 20
-27.7562060638
 11
-7.0108721474
 21
-29.4879860075
  0
LINE
  5
4FB
100
AcDbEntity
  8
C_COPERCHIO
100
AcDbLine
 62
7
  6
CONTINUOUS
 10
-3.6285452597
 20
-28.0311517688
 11
-7.0724255024
 21
-29.6216497911
  0
LWPOLYLINE
  5
4FC
100
AcDbEntity
  8
C_COPERCHIO
100
AcDbPolyline
 62
250
  6
CONTINUOUS
 90
39
 70
0
 10
-7.0108721474
 20
-29.4879860075
 10
-7.0184289716
 20
-29.4912221952
 10
-7.0262392775
 20
-29.494306202
 10
-7.034291527
 20
-29.4972332577
 10
-7.0425724989
 20
-29.4999983483
 10
-7.0510671312
 20
-29.5025963579
 10
-7.059761208
 20
-29.505022968
 10
-7.0686416435
 20
-29.5072745548
 10
-7.07769444
 20
-29.5093475662
 10
-7.0869053078
 20
-29.5112387212
 10
-7.0962595763
 20
-29.5129449992
 10
-7.1057422997
 20
-29.5144636716
 10
-7.1153383866
 20
-29.515792324
 10
-7.1250326605
 20
-29.5169288579
 10
-7.1348097755
 20
-29.5178714743
 10
-7.1446542355
 20
-29.5186186779
 10
-7.1545504108
 20
-29.5191692811
 10
-7.164482597
 20
-29.5195224094
 10
-7.174435036
 20
-29.519677502
 10
-7.1843919418
 20
-29.5196343125
 10
-7.1943375194
 20
-29.5193929089
 10
-7.2042559926
 20
-29.5189536735
 10
-7.2141316258
 20
-29.5183173025
 10
-7.2239487497
 20
-29.5174848053
 10
-7.2336917902
 20
-29.5164575021
 10
-7.2433452914
 20
-29.5152370222
 10
-7.2528939375
 20
-29.5138253017
 10
-7.2623225806
 20
-29.5122245798
 10
-7.2716162632
 20
-29.5104373955
 10
-7.2807602394
 20
-29.5084665844
 10
-7.2897400031
 20
-29.5063152728
 10
-7.2985413093
 20
-29.5039868733
 10
-7.3071501947
 20
-29.5014850798
 10
-7.3155530046
 20
-29.4988138603
 10
-7.3237364065
 20
-29.4959774528
 10
-7.3316874116
 20
-29.4929803597
 10
-7.3393934049
 20
-29.4898273367
 10
-7.3468421648
 20
-29.4865233852
 10
-7.3540218752
 20
-29.4830737468
  0
ARC
  5
4FD
100
AcDbEntity
  8
ASSI
100
AcDbCircle
 62
7
  6
CONTINUOUS
 10
13.4941533667
 20
16.40105925
 40
0.5
100
AcDbArc
 50
0.0
 51
63.4425043173
  0
ARC
  5
4FE
100
AcDbEntity
  8
ASSI
100
AcDbCircle
 62
7
  6
CONTINUOUS
 10
-2.7794635484
 20
24.5378677075
 40
0.5
100
AcDbArc
 50
63.4349488229
 51
114.7875540508
  0
ARC
  5
4FF
100
AcDbEntity
  8
ASSI
100
AcDbCircle
 62
7
  6
CONTINUOUS
 10
13.4941533667
 20
-15.4701002859
 40
0.5
100
AcDbArc
 50
298.3311205443
 51
359.9902498908
  0
ARC
  5
500
100
AcDbEntity
  8
ASSI
100
AcDbCircle
 62
7
  6
CONTINUOUS
 10
15.0123575944
 20
15.0256870112
 40
0.3
100
AcDbArc
 50
0.0
 51
63.4301254848
  0
ARC
  5
501
100
AcDbEntity
  8
ASSI
100
AcDbCircle
 62
7
  6
CONTINUOUS
 10
15.0123575944
 20
9.5239557348
 40
0.3
100
AcDbArc
 50
297.4127089518
 51
359.969829677
  0
ARC
  5
502
100
AcDbEntity
  8
ASSI
100
AcDbCircle
 62
7
  6
CONTINUOUS
 10
0.2278156235
 20
22.4179579967
 40
0.3
100
AcDbArc
 50
63.4349488229
 51
105.4543364742
  0
ARC
  5
503
100
AcDbEntity
  8
C_COPERCHIO
100
AcDbCircle
 62
7
  6
CONTINUOUS
 10
-24.1809184824
 20
17.4260260805
 40
0.25
100
AcDbArc
 50
118.3478796169
 51
179.9996369597
  0
ARC
  5
504
100
AcDbEntity
  8
C_COPERCHIO
100
AcDbCircle
 62
7
  6
CONTINUOUS
 10
-7.1772451799
 20
-29.3946853992
 40
0.25
100
AcDbArc
 50
243.4350969304
 51
294.7890578208
  0
ARC
  5
505
100
AcDbEntity
  8
C_COPERCHIO
100
AcDbCircle
 62
7
  6
CONTINUOUS
 10
-24.1809184824
 20
-20.8928487479
 40
0.25
100
AcDbArc
 50
179.9996267022
 51
243.435251202
  0
ELLIPSE
  5
506
100
AcDbEntity
  8
C_COPERCHIO
100
AcDbEllipse
 62
7
  6
CONTINUOUS
 10
-19.1438781309
 20
21.442695994
 30
0.0
 11
-0.1118429119
 21
0.2236040717
 31
0.0
 40
0.6123910759
 41
-0.6848833758
 42
0.0085521901
  0
ELLIPSE
  5
507
100
AcDbEntity
  8
C_COPERCHIO
100
AcDbEllipse
 62
7
  6
CONTINUOUS
 10
-1.366454781
 20
17.3333833353
 30
0.0
 11
0.9980068092
 21
-0.2399287748
 31
0.0
 40
0.2630210944
 41
1.9259507046
 42
2.4104144461
  0
ELLIPSE
  5
508
100
AcDbEntity
  8
C_COPERCHIO
100
AcDbEllipse
 62
7
  6
CONTINUOUS
 10
-3.0218435198
 20
13.3816786885
 30
0.0
 11
-0.1118429119
 21
0.2236040717
 31
0.0
 40
0.6123910759
 41
-0.6848833758
 42
0.0085521901
  0
ELLIPSE
  5
509
100
AcDbEntity
  8
C_COPERCHIO
100
AcDbEllipse
 62
7
  6
CONTINUOUS
 10
-18.0832718152
 20
20.9123928362
 30
0.0
 11
-0.1118429119
 21
0.2236040717
 31
0.0
 40
0.6123910759
 41
-2.2556797026
 42
-0.6848833758
  0
ELLIPSE
  5
50A
100
AcDbEntity
  8
C_COPERCHIO
100
AcDbEllipse
 62
7
  6
CONTINUOUS
 10
-1.9612372042
 20
12.8513755307
 30
0.0
 11
-0.1118429119
 21
0.2236040717
 31
0.0
 40
0.6123910759
 41
-2.2556797026
 42
-0.6848833758
  0
ELLIPSE
  5
50B
100
AcDbEntity
  8
C_COPERCHIO
100
AcDbEllipse
 62
7
  6
CONTINUOUS
 10
-1.9612372042
 20
-28.2848311491
 30
0.0
 11
-0.1118429119
 21
0.2236040717
 31
0.0
 40
0.6123910759
 41
-3.1501448438
 42
-2.2556797026
  0
ELLIPSE
  5
50C
100
AcDbEntity
  8
C_COPERCHIO
100
AcDbEllipse
 62
7
  6
CONTINUOUS
 10
-11.4436586908
 20
22.287841006
 30
0.0
 11
0.9999727455
 21
0.0144591093
 31
0.0
 40
0.5106100819
 41
0.7780151293
 42
2.3313581636
  0
ELLIPSE
  5
50D
100
AcDbEntity
  8
C_COPERCHIO
100
AcDbEllipse
 62
7
  6
CONTINUOUS
 10
-10.4776073791
 20
21.9229860115
 30
0.0
 11
0.3262229419
 21
0.6753856277
 31
0.0
 40
0.6016116119
 41
-0.0082293097
 42
0.6852165395
  0
ELLIPSE
  5
50E
100
AcDbEntity
  8
C_COPERCHIO
100
AcDbEllipse
 62
7
  6
CONTINUOUS
 10
-0.3083281006
 20
16.8383463722
 30
0.0
 11
0.3449653854
 21
0.6660096921
 31
0.0
 40
0.6229838795
 41
0.008886219
 42
0.7023320684
  0
ELLIPSE
  5
50F
100
AcDbEntity
  8
C_COPERCHIO
100
AcDbEllipse
 62
7
  6
CONTINUOUS
 10
-9.1642635542
 20
20.5733835962
 30
0.0
 11
0.347971138
 21
0.7204113362
 31
0.0
 40
0.6016116119
 41
-0.0082293099
 42
0.3274240428
  0
ELLIPSE
  5
510
100
AcDbEntity
  8
C_COPERCHIO
100
AcDbEllipse
 62
7
  6
CONTINUOUS
 10
-17.8800338791
 20
17.4103543003
 30
0.0
 11
0.7906001637
 21
0.0114316858
 31
0.0
 40
0.5106100819
 41
3.1342096196
 42
5.4729508172
  0
ELLIPSE
  5
511
100
AcDbEntity
  8
C_COPERCHIO
100
AcDbEllipse
 62
7
  6
CONTINUOUS
 10
-7.7638277581
 20
12.3522512398
 30
0.0
 11
0.7906001637
 21
0.0114316858
 31
0.0
 40
0.5106100819
 41
3.1342096196
 42
5.4729508172
  0
ELLIPSE
  5
512
100
AcDbEntity
  8
C_COPERCHIO
100
AcDbEllipse
 62
7
  6
CONTINUOUS
 10
-24.0072274358
 20
13.9849384172
 30
0.0
 11
-0.1098985543
 21
0.2275784384
 31
0.0
 40
0.6085747011
 41
-0.6677344043
 42
0.113780849
  0
ELLIPSE
  5
513
100
AcDbEntity
  8
C_COPERCHIO
100
AcDbEllipse
 62
7
  6
CONTINUOUS
 10
-6.9973828359
 20
5.4800161172
 30
0.0
 11
-0.1092649321
 21
0.2270579893
 31
0.0
 40
0.6121735965
 41
-2.2369946326
 42
-0.669228889
  0
ELLIPSE
  5
514
100
AcDbEntity
  8
C_COPERCHIO
100
AcDbEllipse
 62
7
  6
CONTINUOUS
 10
-6.9973828359
 20
-25.7768210405
 30
0.0
 11
-0.1098985543
 21
0.2275784384
 31
0.0
 40
0.6085747011
 41
-3.2553735026
 42
-2.2415613143
  0
ELLIPSE
  5
515
100
AcDbEntity
  8
C_COPERCHIO
100
AcDbEllipse
 62
7
  6
CONTINUOUS
 10
-9.1295253449
 20
21.2489449944
 30
0.0
 11
0.3262229419
 21
0.6753856277
 31
0.0
 40
0.6016116119
 41
5.3888788736
 42
6.9684018467
  0
ELLIPSE
  5
516
100
AcDbEntity
  8
C_COPERCHIO
100
AcDbEllipse
 62
7
  6
CONTINUOUS
 10
-8.4249520551
 20
20.8626319723
 30
0.0
 11
0.9980068092
 21
-0.2399287748
 31
0.0
 40
0.2630210944
 41
-0.7133215392
 42
-0.2288577977
  0
ELLIPSE
  5
517
100
AcDbEntity
  8
C_COPERCHIO
100
AcDbEllipse
 62
7
  6
CONTINUOUS
 10
1.0397539337
 20
16.1643053551
 30
0.0
 11
0.3449653854
 21
0.6660096921
 31
0.0
 40
0.6229838795
 41
5.5196295403
 42
6.9855173756
  0
ELLIPSE
  5
518
100
AcDbEntity
  8
C_COPERCHIO
100
AcDbEllipse
 62
7
  6
CONTINUOUS
 10
-20.0530179755
 20
19.3445187448
 30
0.0
 11
0.9642939016
 21
0.013943211
 31
0.0
 40
0.5106100819
 41
3.1342096195
 42
5.4729508172
  0
ELLIPSE
  5
519
100
AcDbEntity
  8
C_COPERCHIO
100
AcDbEllipse
 62
7
  6
CONTINUOUS
 10
-3.9309833645
 20
11.2835014393
 30
0.0
 11
0.9642939016
 21
0.013943211
 31
0.0
 40
0.5106100819
 41
3.1342096195
 42
4.7364581619
  0
ELLIPSE
  5
51A
100
AcDbEntity
  8
C_COPERCHIO
100
AcDbEllipse
 62
7
  6
CONTINUOUS
 10
-17.8800338791
 20
18.0841325316
 30
0.0
 11
0.7906165125
 21
0.0056740769
 31
0.0
 40
0.5053247124
 41
8.653206504
 42
11.7598925725
  0
ELLIPSE
  5
51B
100
AcDbEntity
  8
C_COPERCHIO
100
AcDbEllipse
 62
7
  6
CONTINUOUS
 10
-7.7638277581
 20
13.0260294711
 30
0.0
 11
0.7906165125
 21
0.0056740769
 31
0.0
 40
0.5053247124
 41
8.653206504
 42
11.7598925725
  0
ELLIPSE
  5
51C
100
AcDbEntity
  8
ASSI
100
AcDbEllipse
 62
7
  6
CONTINUOUS
 10
5.0037915186
 20
15.9974231051
 30
0.0
 11
2.7499938502
 21
-0.0117068466
 31
0.0
 40
0.4967868151
 41
2.3583093307
 42
2.8644941386
  0
ELLIPSE
  5
51D
100
AcDbEntity
  8
ASSI
100
AcDbEllipse
 62
7
  6
CONTINUOUS
 10
-2.0672762933
 20
19.5329570111
 30
0.0
 11
2.7499938502
 21
-0.0117068466
 31
0.0
 40
0.4967868151
 41
2.3583093307
 42
2.8644941386
  0
ELLIPSE
  5
51E
100
AcDbEntity
  8
ASSI
100
AcDbEllipse
 62
7
  6
CONTINUOUS
 10
-1.3601695121
 20
19.015950458
 30
0.0
 11
2.7999937384
 21
-0.0119196984
 31
0.0
 40
0.4967868151
 41
0.7227962949
 42
1.2501551148
  0
ELLIPSE
  5
51F
100
AcDbEntity
  8
ASSI
100
AcDbEllipse
 62
7
  6
CONTINUOUS
 10
5.7108982998
 20
15.4804165521
 30
0.0
 11
2.7999937384
 21
-0.0119196984
 31
0.0
 40
0.4967868151
 41
0.7227962949
 42
1.2352070398
  0
ELLIPSE
  5
520
100
AcDbEntity
  8
ASSI
100
AcDbEllipse
 62
7
  6
CONTINUOUS
 10
-19.1792388556
 20
21.5036512426
 30
0.0
 11
-0.0894803643
 21
0.1789340454
 31
0.0
 40
0.6121897086
 41
5.5985514278
 42
6.7473399048
  0
ELLIPSE
  5
521
100
AcDbEntity
  8
ASSI
100
AcDbEllipse
 62
7
  6
CONTINUOUS
 10
-1.9258764795
 20
-28.3457863976
 30
0.0
 11
-0.0894803643
 21
0.1789340454
 31
0.0
 40
0.6121897086
 41
2.6789524658
 42
4.0274505145
  0
ELLIPSE
  5
522
100
AcDbEntity
  8
ASSI
100
AcDbEllipse
 62
7
  6
CONTINUOUS
 10
-2.9909924185
 20
13.409528024
 30
0.0
 11
-0.0894323102
 21
0.1788913307
 31
0.0
 40
0.6125552124
 41
-0.6848044477
 42
-0.4433099241
  0
ELLIPSE
  5
523
100
AcDbEntity
  8
ASSI
100
AcDbEllipse
 62
7
  6
CONTINUOUS
 10
-1.9258764795
 20
12.8769700545
 30
0.0
 11
-0.0894323102
 21
0.1788913307
 31
0.0
 40
0.6125552124
 41
4.0278891191
 42
5.5983808594
  0
ELLIPSE
  5
524
100
AcDbEntity
  8
ASSI
100
AcDbEllipse
 62
7
  6
CONTINUOUS
 10
-18.1141229165
 20
20.9710932731
 30
0.0
 11
-0.0894803643
 21
0.1789340454
 31
0.0
 40
0.6121897086
 41
-0.7248180436
 42
-0.6846338794
  0
ENDSEC
  0
SECTION
  2
OBJECTS
  0
DICTIONARY
  5
C
100
AcDbDictionary
280
0
281
1
  3
ACAD_GROUP
350
D
  3
ACAD_MLINESTYLE
350
17
  3
ACAD_LAYOUT
350
1A
  3
ACAD_PLOTSETTINGS
350
19
  3
ACAD_PLOTSTYLENAME
350
E
  0
DICTIONARY
  5
D
102
{ACAD_REACTORS
330
C
102
}
100
AcDbDictionary
280
0
281
1
  0
ACDBDICTIONARYWDFLT
  5
E
102
{ACAD_REACTORS
330
C
102
}
100
AcDbDictionary
281
1
  3
Normal
350
F
100
AcDbDictionaryWithDefault
340
F
  0
DICTIONARY
  5
17
102
{ACAD_REACTORS
330
C
102
}
100
AcDbDictionary
280
0
281
1
  3
Standard
350
18
  0
DICTIONARY
  5
19
102
{ACAD_REACTORS
330
C
102
}
100
AcDbDictionary
281
1
  0
DICTIONARY
  5
1A
102
{ACAD_REACTORS
330
C
102
}
100
AcDbDictionary
281
1
  3
Model
350
525
  3
Layout1
350
526
  0
ACDBPLACEHOLDER
  5
F
102
{ACAD_REACTORS
330
E
102
}
  0
MLINESTYLE
  5
18
102
{ACAD_REACTORS
330
17
102
}
100
AcDbMlineStyle
  2
STANDARD
 70
0
  3

 62
256
 51
90.0
 52
90.0
 71
2
 49
0.5
 62
256
  6
BYLAYER
 49
-0.5
 62
256
  6
BYLAYER
  0
LAYOUT
  5
525
102
{ACAD_REACTORS
330
1A
102
}
100
AcDbPlotSettings
  1

  2
none_device
  4
ISO_A4_(297.00_x_210.00_MM)
  6

 40
0.0
 41
0.0
 42
0.0
 43
0.0
 44
297.0
 45
210.0
 46
0.0
 47
0.0
 48
0.0
 49
0.0
140
0.0
141
0.0
142
1.0
143
1.0
 70
1024
 72
1
 73
0
 74
0
  7

 75
0
147
1.0
148
0.0
149
0.0
100
AcDbLayout
  1
Model
 70
0
 71
0
 10
0.0
 20
0.0
 11
297.0
 21
210.0
 12
0.0
 22
0.0
 32
0.0
 14
0.0
 24
0.0
 34
0.0
 15
0.0
 25
0.0
 35
0.0
146
0.0
 13
0.0
 23
0.0
 33
0.0
 16
1.0
 26
0.0
 36
0.0
 17
0.0
 27
1.0
 37
0.0
 76
0
330
21F
345
0
346
0
  0
LAYOUT
  5
526
102
{ACAD_REACTORS
330
1A
102
}
100
AcDbPlotSettings
  1

  2
none_device
  4
ISO_A4_(297.00_x_210.00_MM)
  6

 40
0.0
 41
0.0
 42
0.0
 43
0.0
 44
297.0
 45
210.0
 46
0.0
 47
0.0
 48
0.0
 49
0.0
140
0.0
141
0.0
142
1.0
143
1.0
 70
0
 72
1
 73
0
 74
0
  7

 75
0
147
1.0
148
0.0
149
0.0
100
AcDbLayout
  1
Layout1
 70
0
 71
1
 10
0.0
 20
0.0
 11
297.0
 21
210.0
 12
0.0
 22
0.0
 32
0.0
 14
0.0
 24
0.0
 34
0.0
 15
0.0
 25
0.0
 35
0.0
146
0.0
 13
0.0
 23
0.0
 33
0.0
 16
1.0
 26
0.0
 36
0.0
 17
0.0
 27
1.0
 37
0.0
 76
0
330
220
345
0
346
0
  0
ENDSEC
  0
EOF
