  0
SECTION
  2
HEADER
  9
$ACADVER
  1
AC1024
  9
$DWGCODEPAGE
  3
ANSI_1252
  9
$EXTMAX
 10
297.0
 20
210.0
 30
0.0
  9
$EXTMIN
 10
0.0
 20
0.0
 30
0.0
  9
$LIMMIN
 10
0.0
 20
0.0
  9
$LIMMAX
 10
297.0
 20
210.0
  9
$VIEWCTR
 10
148.5
 20
105.0
  9
$VIEWSIZE
 40
210.0
  9
$CLAYER
  8
0
  9
$LTSCALE
 40
16.335
  9
$CELTYPE
  6
BYLAYER
  9
$DIMSCALE
 40
1.0
  9
$DIMASZ
 40
3.0
  9
$DIMEXO
 40
0.5
  9
$DIMDLI
 40
11.286
  9
$DIMEXE
 40
1.5
  9
$DIMCEN
 40
2.673
  9
$DIMLFAC
 40
1.0
  9
$DIMBLK
  1
_FILLED
  9
$DIMALT
 70
0
  9
$DIMALTF
 40
0.0393700787
  9
$DIMTXT
 40
3.0
  9
$DIMTOL
 70
1
  9
$DIMLIM
 70
0
  9
$DIMTFAC
 40
1.0
  9
$DIMTP
 40
0.01
  9
$DIMTM
 40
0.01
  9
$DIMGAP
 40
0.625
  9
$DIMDSEP
 70
44
  9
$AUNITS
 70
0
  9
$PDMODE
 70
3
  9
$PDSIZE
 40
3.0
  9
$HANDSEED
  5
4CE
  9
$TILEMODE
 70
1
  9
$MEASUREMENT
 70
1
  9
$INSUNITS
 70
4
  0
ENDSEC
  0
SECTION
  2
CLASSES
  0
CLASS
  1
ACDBDICTIONARYWDFLT
  2
AcDbDictionaryWithDefault
  3
AutoCAD 2000
 90
0
 91
1
280
0
281
0
  0
CLASS
  1
ACDBPLACEHOLDER
  2
AcDbPlaceHolder
  3
AutoCAD 2000
 90
0
 91
1
280
0
281
0
  0
CLASS
  1
LAYOUT
  2
AcDbLayout
  3
AutoCAD 2000
 90
0
 91
0
280
0
281
0
  0
ENDSEC
  0
SECTION
  2
TABLES
  0
TABLE
  2
VPORT
  5
8
100
AcDbSymbolTable
 70
2
  0
VPORT
  5
1F4
100
AcDbSymbolTableRecord
100
AcDbViewportTableRecord
  2
*ACTIVE
 70
0
 10
0.0
 20
0.0
 11
1.0
 21
1.0
 12
148.5
 22
105.0
 13
0.0
 23
0.0
 14
1.0
 24
1.0
 15
0.0
 25
0.0
 16
0.0
 26
0.0
 36
1.0
 17
0.0
 27
0.0
 37
0.0
 40
210.0
 41
1.4142857143
 42
50.0
 43
0.0
 44
0.0
 50
0.0
 51
0.0
 71
0
 72
100
 73
1
 74
1
 75
0
 76
0
 77
0
 78
0
  0
ENDTAB
  0
TABLE
  2
LTYPE
  5
5
100
AcDbSymbolTable
 70
6
  0
LTYPE
  5
14
100
AcDbSymbolTableRecord
100
AcDbLinetypeTableRecord
  2
BYBLOCK
 70
0
  3

 72
65
 73
0
 40
0.0
  0
LTYPE
  5
15
100
AcDbSymbolTableRecord
100
AcDbLinetypeTableRecord
  2
BYLAYER
 70
0
  3

 72
65
 73
0
 40
0.0
  0
LTYPE
  5
16
100
AcDbSymbolTableRecord
100
AcDbLinetypeTableRecord
  2
CONTINUOUS
 70
64
  3
Solid line
 72
65
 73
0
 40
0.0
  0
LTYPE
  5
1F5
100
AcDbSymbolTableRecord
100
AcDbLinetypeTableRecord
  2
CENTER
 70
64
  3
____ _ ____ _ ____ _ ____ _ ____ _ ____ _ ____
 72
65
 73
4
 40
0.6
 49
0.375
 74
0
 49
-0.075
 74
0
 49
0.075
 74
0
 49
-0.075
 74
0
  0
LTYPE
  5
1F6
100
AcDbSymbolTableRecord
100
AcDbLinetypeTableRecord
  2
HIDDEN
 70
64
  3
- - - - - - - - - - - - - - - - - - - -
 72
65
 73
2
 40
0.2
 49
0.1
 74
0
 49
-0.1
 74
0
  0
LTYPE
  5
1F7
100
AcDbSymbolTableRecord
100
AcDbLinetypeTableRecord
  2
PHANTOM
 70
64
  3
_____ _ _ _____ _ _ _____ _ _ _____
 72
65
 73
6
 40
0.8
 49
0.45
 74
0
 49
-0.05
 74
0
 49
0.1
 74
0
 49
-0.05
 74
0
 49
0.1
 74
0
 49
-0.05
 74
0
  0
LTYPE
  5
1F8
100
AcDbSymbolTableRecord
100
AcDbLinetypeTableRecord
  2
DOT
 70
64
  3
. . . . . . . . . . . . . . . . . . . .
 72
65
 73
2
 40
0.2
 49
0.1
 74
0
 49
-0.1
 74
0
  0
LTYPE
  5
1F9
100
AcDbSymbolTableRecord
100
AcDbLinetypeTableRecord
  2
DASHED
 70
64
  3
- - - - - - - - - - - - - - - - - - - -
 72
65
 73
2
 40
0.2
 49
0.1
 74
0
 49
-0.1
 74
0
  0
ENDTAB
  0
TABLE
  2
LAYER
  5
2
100
AcDbSymbolTable
 70
36
  0
LAYER
  5
10
100
AcDbSymbolTableRecord
100
AcDbLayerTableRecord
  2
0
 70
0
 62
7
  6
CONTINUOUS
370
-3
390
F
  0
LAYER
  5
1FA
100
AcDbSymbolTableRecord
100
AcDbLayerTableRecord
  2
DEFAULT_1
 70
0
 62
7
  6
CENTER
370
-3
390
F
  0
LAYER
  5
1FB
100
AcDbSymbolTableRecord
100
AcDbLayerTableRecord
  2
DEFAULT_2
 70
0
 62
7
  6
HIDDEN
370
-3
390
F
  0
LAYER
  5
1FC
100
AcDbSymbolTableRecord
100
AcDbLayerTableRecord
  2
DEFAULT_3
 70
0
 62
7
  6
PHANTOM
370
-3
390
F
  0
LAYER
  5
1FD
100
AcDbSymbolTableRecord
100
AcDbLayerTableRecord
  2
ASSI
 70
0
 62
7
  6
CONTINUOUS
370
-3
390
F
  0
LAYER
  5
1FE
100
AcDbSymbolTableRecord
100
AcDbLayerTableRecord
  2
COORDINATE
 70
0
 62
7
  6
CONTINUOUS
370
-3
390
F
  0
LAYER
  5
1FF
100
AcDbSymbolTableRecord
100
AcDbLayerTableRecord
  2
COORD_ORIGINE
 70
0
 62
7
  6
CONTINUOUS
370
-3
390
F
  0
LAYER
  5
200
100
AcDbSymbolTableRecord
100
AcDbLayerTableRecord
  2
COSMETICHE
 70
0
 62
7
  6
CONTINUOUS
370
-3
390
F
  0
LAYER
  5
201
100
AcDbSymbolTableRecord
100
AcDbLayerTableRecord
  2
COSMETICI
 70
0
 62
7
  6
CONTINUOUS
370
-3
390
F
  0
LAYER
  5
202
100
AcDbSymbolTableRecord
100
AcDbLayerTableRecord
  2
CURVE
 70
0
 62
7
  6
CONTINUOUS
370
-3
390
F
  0
LAYER
  5
203
100
AcDbSymbolTableRecord
100
AcDbLayerTableRecord
  2
C_CONTATTI
 70
0
 62
7
  6
CONTINUOUS
370
-3
390
F
  0
LAYER
  5
204
100
AcDbSymbolTableRecord
100
AcDbLayerTableRecord
  2
C_COPERCHIO
 70
0
 62
7
  6
CONTINUOUS
370
-3
390
F
  0
LAYER
  5
205
100
AcDbSymbolTableRecord
100
AcDbLayerTableRecord
  2
C_CORPO
 70
0
 62
7
  6
CONTINUOUS
370
-3
390
F
  0
LAYER
  5
206
100
AcDbSymbolTableRecord
100
AcDbLayerTableRecord
  2
C_MOLLA_OTTURATORE
 70
0
 62
7
  6
CONTINUOUS
370
-3
390
F
  0
LAYER
  5
207
100
AcDbSymbolTableRecord
100
AcDbLayerTableRecord
  2
C_MOLLE_IDEA
 70
0
 62
7
  6
CONTINUOUS
370
-3
390
F
  0
LAYER
  5
208
100
AcDbSymbolTableRecord
100
AcDbLayerTableRecord
  2
C_OTTURATORE
 70
0
 62
7
  6
CONTINUOUS
370
-3
390
F
  0
LAYER
  5
209
100
AcDbSymbolTableRecord
100
AcDbLayerTableRecord
  2
C_SCATOLINO
 70
0
 62
7
  6
CONTINUOUS
370
-3
390
F
  0
LAYER
  5
20A
100
AcDbSymbolTableRecord
100
AcDbLayerTableRecord
  2
DRAFT
 70
0
 62
7
  6
CONTINUOUS
370
-3
390
F
  0
LAYER
  5
20B
100
AcDbSymbolTableRecord
100
AcDbLayerTableRecord
  2
IMPORTED
 70
0
 62
7
  6
CONTINUOUS
370
-3
390
F
  0
LAYER
  5
20C
100
AcDbSymbolTableRecord
100
AcDbLayerTableRecord
  2
INCISIONI
 70
0
 62
7
  6
CONTINUOUS
370
-3
390
F
  0
LAYER
  5
20D
100
AcDbSymbolTableRecord
100
AcDbLayerTableRecord
  2
INTF_1
 70
0
 62
7
  6
CONTINUOUS
370
-3
390
F
  0
LAYER
  5
20E
100
AcDbSymbolTableRecord
100
AcDbLayerTableRecord
  2
INTF_11
 70
0
 62
7
  6
CONTINUOUS
370
-3
390
F
  0
LAYER
  5
20F
100
AcDbSymbolTableRecord
100
AcDbLayerTableRecord
  2
INTF_2
 70
0
 62
7
  6
CONTINUOUS
370
-3
390
F
  0
LAYER
  5
210
100
AcDbSymbolTableRecord
100
AcDbLayerTableRecord
  2
INTF_YELLOW
 70
0
 62
7
  6
CONTINUOUS
370
-3
390
F
  0
LAYER
  5
211
100
AcDbSymbolTableRecord
100
AcDbLayerTableRecord
  2
NOTE
 70
0
 62
7
  6
CONTINUOUS
370
-3
390
F
  0
LAYER
  5
212
100
AcDbSymbolTableRecord
100
AcDbLayerTableRecord
  2
PIANI
 70
0
 62
7
  6
CONTINUOUS
370
-3
390
F
  0
LAYER
  5
213
100
AcDbSymbolTableRecord
100
AcDbLayerTableRecord
  2
PIANI_ORIGINE
 70
0
 62
7
  6
CONTINUOUS
370
-3
390
F
  0
LAYER
  5
214
100
AcDbSymbolTableRecord
100
AcDbLayerTableRecord
  2
PIANI_SFORMO
 70
0
 62
7
  6
CONTINUOUS
370
-3
390
F
  0
LAYER
  5
215
100
AcDbSymbolTableRecord
100
AcDbLayerTableRecord
  2
PUNTI
 70
0
 62
7
  6
CONTINUOUS
370
-3
390
F
  0
LAYER
  5
216
100
AcDbSymbolTableRecord
100
AcDbLayerTableRecord
  2
RACCORDO
 70
0
 62
7
  6
CONTINUOUS
370
-3
390
F
  0
LAYER
  5
217
100
AcDbSymbolTableRecord
100
AcDbLayerTableRecord
  2
RGB__255__255__255__
 70
0
 62
7
  6
CONTINUOUS
370
-3
390
F
  0
LAYER
  5
218
100
AcDbSymbolTableRecord
100
AcDbLayerTableRecord
  2
SMUSSO
 70
0
 62
7
  6
CONTINUOUS
370
-3
390
F
  0
LAYER
  5
219
100
AcDbSymbolTableRecord
100
AcDbLayerTableRecord
  2
SUPERFICI
 70
0
 62
7
  6
CONTINUOUS
370
-3
390
F
  0
LAYER
  5
21A
100
AcDbSymbolTableRecord
100
AcDbLayerTableRecord
  2
TRASH
 70
0
 62
7
  6
CONTINUOUS
370
-3
390
F
  0
LAYER
  5
21B
100
AcDbSymbolTableRecord
100
AcDbLayerTableRecord
  2
VARIANTE_COLORE
 70
0
 62
7
  6
CONTINUOUS
370
-3
390
F
  0
LAYER
  5
21C
100
AcDbSymbolTableRecord
100
AcDbLayerTableRecord
  2
XSEC_DATUMS
 70
0
 62
7
  6
CONTINUOUS
370
-3
390
F
  0
ENDTAB
  0
TABLE
  2
STYLE
  5
3
100
AcDbSymbolTable
 70
1
  0
STYLE
  5
11
100
AcDbSymbolTableRecord
100
AcDbTextStyleTableRecord
  2
STANDARD
 70
0
 40
0.0
 41
0.8
 50
0.0
 71
0
 42
0.2
  3
txt
  4

  0
STYLE
  5
21D
100
AcDbSymbolTableRecord
100
AcDbTextStyleTableRecord
  2
TEXTSTYLE_1
 70
0
 40
0.0
 41
0.8
 50
0.0
 71
0
 42
0.2
  3
gdt
  4

  0
ENDTAB
  0
TABLE
  2
VIEW
  5
6
100
AcDbSymbolTable
 70
0
  0
ENDTAB
  0
TABLE
  2
UCS
  5
7
100
AcDbSymbolTable
 70
0
  0
ENDTAB
  0
TABLE
  2
APPID
  5
9
100
AcDbSymbolTable
 70
1
  0
APPID
  5
21E
100
AcDbSymbolTableRecord
100
AcDbRegAppTableRecord
  2
ACAD
 70
0
  0
ENDTAB
  0
TABLE
  2
BLOCK_RECORD
  5
1
100
AcDbSymbolTable
 70
0
  0
BLOCK_RECORD
  5
21F
100
AcDbSymbolTableRecord
100
AcDbBlockTableRecord
  2
*Model_Space
  0
BLOCK_RECORD
  5
220
100
AcDbSymbolTableRecord
100
AcDbBlockTableRecord
  2
*Paper_Space
  0
BLOCK_RECORD
  5
221
100
AcDbSymbolTableRecord
100
AcDbBlockTableRecord
  2
_FILLED
  0
ENDTAB
  0
TABLE
  2
DIMSTYLE
  5
A
100
AcDbSymbolTable
 70
1
100
AcDbDimStyleTable
 71
0
  0
DIMSTYLE
105
222
100
AcDbSymbolTableRecord
100
AcDbDimStyleTableRecord
  2
STANDARD
 70
0
  3

  4

 40
1.0
 41
3.0
 42
0.5
 43
0.38
 44
1.5
 45
0.0
 46
0.0
 47
0.01
 48
0.01
140
3.0
141
0.09
142
0.0
143
25.4
144
1.0
145
0.0
146
1.0
147
0.625
 71
1
 72
0
 73
0
 74
0
 75
0
 76
0
 77
1
 78
8
 79
2
170
0
171
1
172
0
173
0
174
0
175
0
176
0
177
0
178
0
270
2
179
2
271
2
272
2
273
2
274
2
275
0
280
0
281
0
282
0
283
1
284
8
285
0
286
0
287
3
288
0
340
11
278
44
341
221
342
221
343
221
344
221
  0
ENDTAB
  0
ENDSEC
  0
SECTION
  2
BLOCKS
  0
BLOCK
  5
20
100
AcDbEntity
  8
0
100
AcDbBlockBegin
  2
*Model_Space
 70
0
 10
0.0
 20
0.0
 30
0.0
  3
*Model_Space
  1

  0
ENDBLK
  5
21
100
AcDbEntity
  8
0
100
AcDbBlockEnd
  0
BLOCK
  5
1C
100
AcDbEntity
  8
0
100
AcDbBlockBegin
  2
*Paper_Space
 70
0
 10
0.0
 20
0.0
 30
0.0
  3
*Paper_Space
  1

  0
ENDBLK
  5
1D
100
AcDbEntity
  8
0
100
AcDbBlockEnd
  0
BLOCK
  5
223
100
AcDbEntity
  8
0
100
AcDbBlockBegin
  2
_FILLED
 70
64
 10
0.0
 20
0.0
  3
_FILLED
  1

  0
SOLID
  5
224
100
AcDbEntity
  8
0
  6
BYBLOCK
 62
0
100
AcDbTrace
 10
0.0
 20
0.0
 11
-1.0
 21
0.1333333333
 12
-1.0
 22
-0.1333333333
 13
-1.0
 23
-0.1333333333
  0
ENDBLK
  5
225
100
AcDbEntity
  8
0
  6
BYBLOCK
 62
0
100
AcDbBlockEnd
  0
ENDSEC
  0
SECTION
  2
ENTITIES
  0
LWPOLYLINE
  5
226
100
AcDbEntity
  8
C_COPERCHIO
100
AcDbPolyline
 62
7
  6
CONTINUOUS
 90
31
 70
0
 10
-47.856776738
 20
32.8607386624
 10
-47.8794351605
 20
32.8486024402
 10
-47.9013962826
 20
32.8360186628
 10
-47.922655903
 20
32.822989264
 10
-47.9432490891
 20
32.8094884221
 10
-47.9631266969
 20
32.7955426858
 10
-47.9821694415
 20
32.7812400383
 10
-48.000380096
 20
32.7665907999
 10
-48.0177657255
 20
32.7516011692
 10
-48.0342361174
 20
32.7363691542
 10
-48.0497848824
 20
32.7209325098
 10
-48.064449364
 20
32.7052866805
 10
-48.0782175143
 20
32.6894787062
 10
-48.0910949095
 20
32.6735424101
 10
-48.1031103565
 20
32.657484024
 10
-48.1142860203
 20
32.6413150519
 10
-48.1246272081
 20
32.6250719031
 10
-48.134159613
 20
32.6087609936
 10
-48.1429261312
 20
32.592349841
 10
-48.1509365324
 20
32.5758565185
 10
-48.1581989996
 20
32.5593038083
 10
-48.1647410793
 20
32.5426654835
 10
-48.1705674735
 20
32.5259623625
 10
-48.1756840776
 20
32.5092147525
 10
-48.1801092341
 20
32.4923953013
 10
-48.1838447929
 20
32.4755239366
 10
-48.1868933136
 20
32.4586222725
 10
-48.1892641515
 20
32.4416652878
 10
-48.1909579419
 20
32.4246586666
 10
-48.1919728162
 20
32.4076389508
 10
-48.1923105247
 20
32.3906274742
  0
LWPOLYLINE
  5
227
100
AcDbEntity
  8
C_COPERCHIO
100
AcDbPolyline
 62
250
  6
CONTINUOUS
 90
106
 70
0
 10
-47.7418292794
 20
32.8552380726
 10
-47.7562980186
 20
32.8475204112
 10
-47.7702819937
 20
32.8396057064
 10
-47.7837812048
 20
32.8314939579
 10
-47.7968070646
 20
32.8231775001
 10
-47.8093481603
 20
32.8146639988
 10
-47.8213702534
 20
32.8059764513
 10
-47.8328715885
 20
32.7971145881
 10
-47.8438539209
 20
32.7880786787
 10
-47.8542882789
 20
32.7788925299
 10
-47.8641731539
 20
32.7695557914
 10
-47.8735100543
 20
32.7600688134
 10
-47.8822745341
 20
32.7504564532
 10
-47.8904650945
 20
32.7407183918
 10
-47.8980832343
 20
32.7308549483
 10
-47.9051090027
 20
32.7208919373
 10
-47.911540867
 20
32.7108290627
 10
-47.91738036
 20
32.7006666206
 10
-47.9226121291
 20
32.6904313143
 10
-47.9272345638
 20
32.6801229727
 10
-47.9312492746
 20
32.6697417669
 10
-47.9346457406
 20
32.6593149132
 10
-47.9374223407
 20
32.6488422879
 10
-47.9395806959
 20
32.6383240149
 10
-47.9411151493
 20
32.6277876812
 10
-47.9420240649
 20
32.6172332515
 10
-47.9423090787
 20
32.6066607613
 10
-47.9419694406
 20
32.5960979046
 10
-47.9410035093
 20
32.5855446846
 10
-47.9394129261
 20
32.5750010982
 10
-47.9372018654
 20
32.5644948296
 10
-47.9343687028
 20
32.5540259979
 10
-47.9309150626
 20
32.5435944839
 10
-47.926849992
 20
32.5332276152
 10
-47.9221718779
 20
32.5229255425
 10
-47.9168823335
 20
32.5126881151
 10
-47.9109952447
 20
32.502542208
 10
-47.9045090564
 20
32.492488082
 10
-47.8974253239
 20
32.4825254764
 10
-47.8897625989
 20
32.4726804845
 10
-47.8815193437
 20
32.462953393
 10
-47.8726970962
 20
32.4533439152
 10
-47.8633190211
 20
32.4438772839
 10
-47.8533836807
 20
32.4345538949
 10
-47.8428925127
 20
32.4253733523
 10
-47.8318729955
 20
32.4163597019
 10
-47.820323717
 20
32.4075133619
 10
-47.8082460894
 20
32.3988339141
 10
-47.7956718276
 20
32.3903441493
 10
-47.7825996583
 20
32.382044585
 10
-47.769030855
 20
32.3739347038
 10
-47.7550009526
 20
32.3660357439
 10
-47.7405087071
 20
32.3583482403
 10
-47.7255553626
 20
32.350871658
 10
-47.7101801858
 20
32.3436256295
 10
-47.6943821063
 20
32.3366107769
 10
-47.6781621945
 20
32.3298264781
 10
-47.6615629285
 20
32.3232904998
 10
-47.6445832736
 20
32.317003479
 10
-47.6272242645
 20
32.3109647787
 10
-47.6095314828
 20
32.3051902552
 10
-47.591504093
 20
32.2996806147
 10
-47.5731429305
 20
32.2944351509
 10
-47.554496084
 20
32.2894676014
 10
-47.5355627614
 20
32.2847786849
 10
-47.5163437547
 20
32.2803676826
 10
-47.4968895275
 20
32.2762461763
 10
-47.4771995052
 20
32.2724149345
 10
-47.4572742625
 20
32.2688731886
 10
-47.4371659871
 20
32.2656302145
 10
-47.4168741588
 20
32.26268679
 10
-47.3963992979
 20
32.2600421372
 10
-47.3757951527
 20
32.2577031988
 10
-47.3550614208
 20
32.255670781
 10
-47.3341984047
 20
32.2539440775
 10
-47.3132607601
 20
32.2525276118
 10
-47.2922482503
 20
32.251422196
 10
-47.2711611121
 20
32.2506270179
 10
-47.250054712
 20
32.2501441644
 10
-47.2289290419
 20
32.2499744561
 10
-47.2077841098
 20
32.2501170724
 10
-47.1866753068
 20
32.250571638
 10
-47.1656027058
 20
32.2513389707
 10
-47.1445662338
 20
32.2524182526
 10
-47.1236210628
 20
32.2538066551
 10
-47.1027674395
 20
32.2555049886
 10
-47.0820051171
 20
32.2575124426
 10
-47.061388527
 20
32.2598237566
 10
-47.0409180114
 20
32.2624397358
 10
-47.0205932282
 20
32.265359575
 10
-47.0004675825
 20
32.2685755982
 10
-46.9805416643
 20
32.2720885725
 10
-46.9608148837
 20
32.2758977309
 10
-46.9413388757
 20
32.2799930961
 10
-46.9221142825
 20
32.284375416
 10
-46.9031404618
 20
32.2890439427
 10
-46.8844671222
 20
32.2939864553
 10
-46.866094963
 20
32.2992037095
 10
-46.8480232849
 20
32.3046949495
 10
-46.8302996976
 20
32.3104456879
 10
-46.8129245694
 20
32.3164568823
 10
-46.7958975321
 20
32.322727575
 10
-46.7792650906
 20
32.3292404048
 10
-46.7630427467
 20
32.3359895847
 10
-46.7472149986
 20
32.3429809018
 10
-46.7317818464
 20
32.350214356
  0
LINE
  5
228
100
AcDbEntity
  8
C_COPERCHIO
100
AcDbLine
 62
7
  6
CONTINUOUS
 10
-46.4318603822
 20
33.5985107029
 11
-47.856776738
 21
32.8607386624
  0
LINE
  5
229
100
AcDbEntity
  8
C_COPERCHIO
100
AcDbLine
 62
250
  6
CONTINUOUS
 10
-46.3188504965
 20
33.5920069053
 11
-47.7418292794
 21
32.8552380726
  0
LWPOLYLINE
  5
22A
100
AcDbEntity
  8
C_COPERCHIO
100
AcDbPolyline
 62
7
  6
CONTINUOUS
 90
43
 70
0
 10
-53.6234634601
 20
24.4278148724
 10
-53.6390108741
 20
24.4161179261
 10
-53.6607841455
 20
24.3989520444
 10
-53.6822113489
 20
24.3811391292
 10
-53.7032819793
 20
24.3627019463
 10
-53.7239903987
 20
24.3436594168
 10
-53.7443319358
 20
24.3240281475
 10
-53.7642984799
 20
24.3038277799
 10
-53.783881331
 20
24.2830780268
 10
-53.8030724772
 20
24.2617971083
 10
-53.8218632822
 20
24.2400043883
 10
-53.8402446651
 20
24.2177189176
 10
-53.8582069452
 20
24.1949605196
 10
-53.8757408145
 20
24.1717488411
 10
-53.8928370412
 20
24.148102584
 10
-53.9094855945
 20
24.1240422663
 10
-53.9256770663
 20
24.0995872486
 10
-53.9414019724
 20
24.074756665
 10
-53.9566498957
 20
24.0495720109
 10
-53.9714111374
 20
24.0240529927
 10
-53.9856765917
 20
23.9982187931
 10
-53.9994362346
 20
23.9720905421
 10
-54.0126800959
 20
23.9456887626
 10
-54.0253997202
 20
23.9190321052
 10
-54.0375865185
 20
23.8921386302
 10
-54.0492310739
 20
23.8650280166
 10
-54.0603244755
 20
23.8377196869
 10
-54.0708581931
 20
23.8102307577
 10
-54.0808230637
 20
23.7825806248
 10
-54.09020986
 20
23.7547887659
 10
-54.0990099572
 20
23.7268716658
 10
-54.1072142444
 20
23.6988483707
 10
-54.1148130275
 20
23.6707384278
 10
-54.1217975112
 20
23.642557877
 10
-54.1281581469
 20
23.6143258025
 10
-54.1338848487
 20
23.5860612468
 10
-54.1389686918
 20
23.5577785934
 10
-54.1433993009
 20
23.5294971427
 10
-54.1471659383
 20
23.5012358468
 10
-54.1502588378
 20
23.4730058836
 10
-54.152666559
 20
23.4448225457
 10
-54.1543770441
 20
23.4167091266
 10
-54.155136067
 20
23.3976370545
  0
LINE
  5
22B
100
AcDbEntity
  8
C_COPERCHIO
100
AcDbLine
 62
7
  6
CONTINUOUS
 10
-53.6234661478
 20
24.4278129393
 11
-51.3071122399
 21
26.1362564573
  0
LINE
  5
22C
100
AcDbEntity
  8
C_COPERCHIO
100
AcDbLine
 62
250
  6
CONTINUOUS
 10
-53.5057701076
 20
24.4244863677
 11
-51.1827356186
 21
26.1378571965
  0
LWPOLYLINE
  5
22D
100
AcDbEntity
  8
C_COPERCHIO
100
AcDbPolyline
 62
250
  6
CONTINUOUS
 90
19
 70
0
 10
-53.6234634836
 20
24.4278149042
 10
-53.6189776427
 20
24.4308600939
 10
-53.6139657869
 20
24.4337055714
 10
-53.60869056
 20
24.4361583648
 10
-53.6031619652
 20
24.438213823
 10
-53.5973904858
 20
24.4398680484
 10
-53.5913870659
 20
24.4411179043
 10
-53.5851630892
 20
24.4419610207
 10
-53.5787303578
 20
24.4423957987
 10
-53.5721010695
 20
24.4424214141
 10
-53.565287795
 20
24.4420378182
 10
-53.5583034537
 20
24.4412457384
 10
-53.5511612895
 20
24.4400466767
 10
-53.5438748454
 20
24.4384429067
 10
-53.5364579382
 20
24.4364374696
 10
-53.5289246319
 20
24.434034168
 10
-53.5212892114
 20
24.4312375592
 10
-53.5135661551
 20
24.4280529462
 10
-53.5057701076
 20
24.4244863677
  0
LWPOLYLINE
  5
22E
100
AcDbEntity
  8
C_COPERCHIO
100
AcDbPolyline
 62
250
  6
CONTINUOUS
 90
40
 70
0
 10
-51.3589760267
 20
29.5737614275
 10
-51.3660046985
 20
29.5699254333
 10
-51.3730191231
 20
29.5657541672
 10
-51.3800081742
 20
29.561253986
 10
-51.3869613335
 20
29.556431358
 10
-51.3938669539
 20
29.5512940553
 10
-51.4007123232
 20
29.5458514028
 10
-51.4074859946
 20
29.5401125481
 10
-51.414177822
 20
29.5340861338
 10
-51.4207772526
 20
29.5277816583
 10
-51.4272738594
 20
29.5212090686
 10
-51.4336572877
 20
29.514378826
 10
-51.4399173388
 20
29.507301839
 10
-51.4460440534
 20
29.4999893713
 10
-51.4520277436
 20
29.4924529907
 10
-51.4578589372
 20
29.4847046273
 10
-51.463528391
 20
29.4767565607
 10
-51.4690271021
 20
29.4686214089
 10
-51.474346343
 20
29.4603120826
 10
-51.4794776735
 20
29.4518417655
 10
-51.4844129546
 20
29.4432238918
 10
-51.489144357
 20
29.4344721312
 10
-51.4936643752
 20
29.4256003654
 10
-51.4979658373
 20
29.4166226695
 10
-51.5020419178
 20
29.4075532881
 10
-51.5058861497
 20
29.3984066091
 10
-51.5094924344
 20
29.3891971419
 10
-51.51285505
 20
29.3799394977
 10
-51.515968662
 20
29.3706483623
 10
-51.5188283303
 20
29.3613384753
 10
-51.5214295177
 20
29.3520246078
 10
-51.5237680973
 20
29.3427215357
 10
-51.5258403592
 20
29.3334440168
 10
-51.5276430157
 20
29.3242067696
 10
-51.5291732073
 20
29.3150244456
 10
-51.530428506
 20
29.305911614
 10
-51.5314069193
 20
29.2968827394
 10
-51.5321068958
 20
29.2879521474
 10
-51.5325273259
 20
29.2791340024
 10
-51.5326675432
 20
29.2704422932
  0
LINE
  5
22F
100
AcDbEntity
  8
C_COPERCHIO
100
AcDbLine
 62
7
  6
CONTINUOUS
 10
-48.1923105247
 20
31.349719607
 11
-51.4745968031
 21
29.5788508586
  0
LINE
  5
230
100
AcDbEntity
  8
C_COPERCHIO
100
AcDbLine
 62
250
  6
CONTINUOUS
 10
-48.1918335911
 20
31.2825074311
 11
-51.3589760267
 21
29.5737614275
  0
LINE
  5
231
100
AcDbEntity
  8
C_COPERCHIO
100
AcDbLine
 62
7
  6
CONTINUOUS
 10
-45.6190917008
 20
30.3141321048
 11
-43.1733617015
 21
31.5848991199
  0
LINE
  5
232
100
AcDbEntity
  8
C_COPERCHIO
100
AcDbLine
 62
7
  6
CONTINUOUS
 10
-41.9738945282
 20
32.2081254449
 11
-37.6062502207
 21
34.4774921867
  0
LINE
  5
233
100
AcDbEntity
  8
C_COPERCHIO
100
AcDbLine
 62
7
  6
CONTINUOUS
 10
-40.6927993641
 20
33.8855054296
 11
-46.5581172538
 21
30.9302319542
  0
LINE
  5
234
100
AcDbEntity
  8
C_MOLLE_IDEA
100
AcDbLine
 62
7
  6
CONTINUOUS
 10
-42.8186988577
 20
31.9460308927
 11
-42.455130725
 21
32.127814959
  0
LINE
  5
235
100
AcDbEntity
  8
C_COPERCHIO
100
AcDbLine
 62
250
  6
CONTINUOUS
 10
-46.7317818464
 20
32.350214356
 11
-45.2582441808
 21
33.0617037475
  0
LINE
  5
236
100
AcDbEntity
  8
C_COPERCHIO
100
AcDbLine
 62
250
  6
CONTINUOUS
 10
-46.5581172538
 20
32.0437905301
 11
-45.0814405574
 21
32.7567955849
  0
LWPOLYLINE
  5
237
100
AcDbEntity
  8
C_MOLLE_IDEA
100
AcDbPolyline
 62
7
  6
CONTINUOUS
 90
10
 70
0
 10
-42.455130725
 20
32.127814959
 10
-42.4378214238
 20
32.1360965753
 10
-42.4205751072
 20
32.1436127587
 10
-42.4033917754
 20
32.1503635093
 10
-42.3862506635
 20
32.1563551816
 10
-42.3691725363
 20
32.161581421
 10
-42.3522196885
 20
32.1660231642
 10
-42.3354128851
 20
32.1696740567
 10
-42.3187313611
 20
32.172540453
 10
-42.3021751165
 20
32.1746223531
  0
LINE
  5
238
100
AcDbEntity
  8
C_COPERCHIO
100
AcDbLine
 62
7
  6
CONTINUOUS
 10
-39.3132894268
 20
34.522608834
 11
-40.6927993641
 21
33.8855054296
  0
LWPOLYLINE
  5
239
100
AcDbEntity
  8
C_COPERCHIO
100
AcDbPolyline
 62
250
  6
CONTINUOUS
 90
19
 70
0
 10
-54.1551278249
 20
-5.639059042
 10
-54.1548220818
 20
-5.6436890083
 10
-54.1540265766
 20
-5.6493112362
 10
-54.1527679801
 20
-5.6548994023
 10
-54.1510486351
 20
-5.660443104
 10
-54.1488717423
 20
-5.6659320216
 10
-54.146241354
 20
-5.6713559372
 10
-54.1431623668
 20
-5.6767047542
 10
-54.1396405123
 20
-5.6819685155
 10
-54.1356823465
 20
-5.6871374224
 10
-54.1312952378
 20
-5.692201853
 10
-54.1264873527
 20
-5.6971523795
 10
-54.1212676413
 20
-5.7019797865
 10
-54.1156458204
 20
-5.7066750876
 10
-54.109632355
 20
-5.7112295424
 10
-54.1032384394
 20
-5.7156346726
 10
-54.0964759761
 20
-5.7198822778
 10
-54.0893575536
 20
-5.7239644512
 10
-54.081896423
 20
-5.7278735935
  0
LWPOLYLINE
  5
23A
100
AcDbEntity
  8
C_COPERCHIO
100
AcDbPolyline
 62
7
  6
CONTINUOUS
 90
33
 70
0
 10
-54.1551278479
 20
-5.6390570999
 10
-54.1543359661
 20
-5.6580822203
 10
-54.1525960231
 20
-5.6849350934
 10
-54.1501373058
 20
-5.7114586399
 10
-54.1469563216
 20
-5.7376570401
 10
-54.1430541626
 20
-5.7634956894
 10
-54.1384412704
 20
-5.7889015035
 10
-54.133121306
 20
-5.8138639211
 10
-54.1270984188
 20
-5.8383696216
 10
-54.1203937429
 20
-5.8623464148
 10
-54.1130162145
 20
-5.8857857367
 10
-54.1049753549
 20
-5.908677173
 10
-54.0963044927
 20
-5.9309514296
 10
-54.0870234314
 20
-5.9525921859
 10
-54.0771439678
 20
-5.9736031461
 10
-54.066696988
 20
-5.9939490098
 10
-54.055711471
 20
-6.0136084736
 10
-54.0441986749
 20
-6.0325943239
 10
-54.0321655074
 20
-6.0509210793
 10
-54.0196314651
 20
-6.0685819492
 10
-54.006616145
 20
-6.0855716312
 10
-53.9931249224
 20
-6.101901843
 10
-53.979177268
 20
-6.1175651193
 10
-53.9647938109
 20
-6.1325547245
 10
-53.949980327
 20
-6.1468787454
 10
-53.9347582057
 20
-6.160528517
 10
-53.9191479684
 20
-6.1734980501
 10
-53.9031529204
 20
-6.1857953815
 10
-53.8867941943
 20
-6.1974130743
 10
-53.8700937737
 20
-6.2083443249
 10
-53.85305507
 20
-6.2185948959
 10
-53.8356934719
 20
-6.2281617019
 10
-53.8258937225
 20
-6.2331902154
  0
LWPOLYLINE
  5
23B
100
AcDbEntity
  8
C_COPERCHIO
100
AcDbPolyline
 62
250
  6
CONTINUOUS
 90
25
 70
0
 10
-54.0818964231
 20
-5.7278735936
 10
-54.1186010306
 20
-4.5375146627
 10
-54.1521152723
 20
-3.3453600084
 10
-54.1824387795
 20
-2.1514225231
 10
-54.2095712139
 20
-0.955715123
 10
-54.2335122818
 20
0.2417492661
 10
-54.2542617337
 20
1.4409577096
 10
-54.2718193434
 20
2.6418972426
 10
-54.2861849156
 20
3.8445548764
 10
-54.2973583008
 20
5.0489176125
 10
-54.3053393779
 20
6.254972428
 10
-54.3101280572
 20
7.4627062832
 10
-54.3117242889
 20
8.672106127
 10
-54.3101280572
 20
9.8831588847
 10
-54.3053393779
 20
11.0958514618
 10
-54.2973583008
 20
12.3101707521
 10
-54.2861849156
 20
13.5261036298
 10
-54.2718193434
 20
14.7436369473
 10
-54.2542617337
 20
15.9627575399
 10
-54.2335122818
 20
17.1834522275
 10
-54.2095712139
 20
18.4057078152
 10
-54.1824387795
 20
19.6295110913
 10
-54.1521152723
 20
20.8548488271
 10
-54.1186010306
 20
22.0817077774
 10
-54.0818964231
 20
23.310074681
  0
LWPOLYLINE
  5
23C
100
AcDbEntity
  8
C_COPERCHIO
100
AcDbPolyline
 62
250
  6
CONTINUOUS
 90
20
 70
0
 10
-54.155136067
 20
23.3976370545
 10
-54.1551529514
 20
23.394798191
 10
-54.1548220165
 20
23.3896668241
 10
-54.1540265095
 20
23.384535805
 10
-54.1527679115
 20
23.3794146853
 10
-54.1510485652
 20
23.3743129981
 10
-54.1488716712
 20
23.3692402403
 10
-54.1462412821
 20
23.3642058551
 10
-54.1431622942
 20
23.359219214
 10
-54.1396404392
 20
23.3542895999
 10
-54.1356822732
 20
23.3494261894
 10
-54.1312951643
 20
23.3446380358
 10
-54.1264872794
 20
23.3399340525
 10
-54.1212675684
 20
23.335322996
 10
-54.115645748
 20
23.3308134499
 10
-54.1096322833
 20
23.326413809
 10
-54.1032383687
 20
23.3221322632
 10
-54.0964759065
 20
23.3179767828
 10
-54.0893574852
 20
23.3139551033
 10
-54.0818963561
 20
23.3100747112
  0
LWPOLYLINE
  5
23D
100
AcDbEntity
  8
C_COPERCHIO
100
AcDbPolyline
 62
7
  6
CONTINUOUS
 90
25
 70
0
 10
-54.155136041
 20
23.3976398802
 10
-54.1916333115
 20
22.1765033197
 10
-54.2251814484
 20
20.9490297017
 10
-54.255535588
 20
19.7230765946
 10
-54.2826953296
 20
18.498658824
 10
-54.3066603984
 20
17.275789367
 10
-54.3274305523
 20
16.0544805131
 10
-54.3450055521
 20
14.8347451054
 10
-54.3593852146
 20
13.616596355
 10
-54.3705693738
 20
12.4000471061
 10
-54.3785578761
 20
11.1851104246
 10
-54.3833506372
 20
9.9717996499
 10
-54.3849475934
 20
8.7601280371
 10
-54.3833486988
 20
7.5501086783
 10
-54.3785539748
 20
6.3417546295
 10
-54.3705634606
 20
5.1350790914
 10
-54.3593772159
 20
3.9300953292
 10
-54.3449953699
 20
2.7268162622
 10
-54.3274180639
 20
1.5252545726
 10
-54.3066454566
 20
0.325423293
 10
-54.2826777626
 20
-0.8726649693
 10
-54.2555151993
 20
-2.068998167
 10
-54.225158017
 20
-3.2635635928
 10
-54.1916065919
 20
-4.4563468186
 10
-54.1551278249
 20
-5.639059042
  0
LWPOLYLINE
  5
23E
100
AcDbEntity
  8
C_COPERCHIO
100
AcDbPolyline
 62
250
  6
CONTINUOUS
 90
49
 70
0
 10
-54.0818964231
 20
23.310074681
 10
-54.0808399066
 20
23.3350601383
 10
-54.0792271172
 20
23.3602840348
 10
-54.0770593752
 20
23.3857262215
 10
-54.0743385017
 20
23.4113662469
 10
-54.0710666684
 20
23.4371837679
 10
-54.0672463621
 20
23.4631585759
 10
-54.0628806344
 20
23.4892701981
 10
-54.0579730207
 20
23.5154975494
 10
-54.0525273841
 20
23.5418193488
 10
-54.0465481837
 20
23.568214474
 10
-54.0400402199
 20
23.5946619908
 10
-54.0330085261
 20
23.6211408133
 10
-54.025458802
 20
23.6476298494
 10
-54.0173971431
 20
23.6741079526
 10
-54.0088297943
 20
23.7005539478
 10
-53.9997636829
 20
23.7269468061
 10
-53.9902061394
 20
23.7532654341
 10
-53.9801646202
 20
23.7794886272
 10
-53.9696472744
 20
23.8055954754
 10
-53.9586625908
 20
23.831565188
 10
-53.9472191174
 20
23.8573768842
 10
-53.9353261392
 20
23.8830099905
 10
-53.9229932597
 20
23.9084441013
 10
-53.9102300492
 20
23.9336588042
 10
-53.897046849
 20
23.9586340268
 10
-53.883454315
 20
23.9833498753
 10
-53.8694629951
 20
24.0077864924
 10
-53.8550842114
 20
24.0319244495
 10
-53.8403295981
 20
24.0557445074
 10
-53.825210641
 20
24.079227452
 10
-53.8097395751
 20
24.1023546211
 10
-53.7939289226
 20
24.12510759
 10
-53.7777910323
 20
24.147467934
 10
-53.7613390087
 20
24.1694178393
 10
-53.7445861326
 20
24.1909398896
 10
-53.7275454012
 20
24.2120167521
 10
-53.7102306259
 20
24.2326316676
 10
-53.692655806
 20
24.25276826
 10
-53.6748345487
 20
24.2724103185
 10
-53.6567811972
 20
24.2915423314
 10
-53.6385104428
 20
24.3101489968
 10
-53.6200367022
 20
24.328215044
 10
-53.6013751202
 20
24.3457259823
 10
-53.5825406274
 20
24.3626681019
 10
-53.5635475446
 20
24.3790279586
 10
-53.5444109324
 20
24.3947925509
 10
-53.525146589
 20
24.4099493643
 10
-53.5057701076
 20
24.4244863677
  0
LINE
  5
23F
100
AcDbEntity
  8
C_COPERCHIO
100
AcDbLine
 62
7
  6
CONTINUOUS
 10
-36.3090448737
 20
33.8288895132
 11
-37.5650137722
 21
33.1649300695
  0
LINE
  5
240
100
AcDbEntity
  8
C_COPERCHIO
100
AcDbLine
 62
7
  6
CONTINUOUS
 10
-36.2242967777
 20
32.2546642625
 11
-35.9890459028
 21
32.3769461348
  0
LINE
  5
241
100
AcDbEntity
  8
C_COPERCHIO
100
AcDbLine
 62
7
  6
CONTINUOUS
 10
-39.8564947474
 20
31.4214050613
 11
-40.2069802479
 21
31.2417666327
  0
LINE
  5
242
100
AcDbEntity
  8
C_COPERCHIO
100
AcDbLine
 62
7
  6
CONTINUOUS
 10
-42.1452660754
 20
30.2483143509
 11
-44.4609366945
 21
29.0614366326
  0
LINE
  5
243
100
AcDbEntity
  8
C_COPERCHIO
100
AcDbLine
 62
7
  6
CONTINUOUS
 10
-44.4609366945
 20
29.7350546016
 11
-42.7930845252
 21
30.5722235758
  0
LINE
  5
244
100
AcDbEntity
  8
C_COPERCHIO
100
AcDbLine
 62
7
  6
CONTINUOUS
 10
-38.9112524233
 20
32.5206872697
 11
-37.8358884923
 21
33.0604601198
  0
LINE
  5
245
100
AcDbEntity
  8
C_CORPO
100
AcDbLine
 62
7
  6
CONTINUOUS
 10
-26.2843366126
 20
36.8961908857
 11
-35.0162790994
 21
32.778230999
  0
LINE
  5
246
100
AcDbEntity
  8
ASSI
100
AcDbLine
 62
7
  6
CONTINUOUS
 10
-26.2843366126
 20
36.8961908857
 11
-35.0162790994
 21
32.778230999
  0
LINE
  5
247
100
AcDbEntity
  8
C_CORPO
100
AcDbLine
 62
250
  6
CONTINUOUS
 10
-25.8454518621
 20
36.8637879507
 11
-34.7699015263
 21
32.6550422125
  0
LINE
  5
248
100
AcDbEntity
  8
ASSI
100
AcDbLine
 62
250
  6
CONTINUOUS
 10
-25.8454518621
 20
36.8637879507
 11
-34.7699015263
 21
32.6550422125
  0
LWPOLYLINE
  5
249
100
AcDbEntity
  8
C_COPERCHIO
100
AcDbPolyline
 62
250
  6
CONTINUOUS
 90
21
 70
0
 10
-51.6058908479
 20
-8.9600441876
 10
-51.6057886857
 20
-8.9636173753
 10
-51.6053058925
 20
-8.9685901744
 10
-51.604427434
 20
-8.9735494218
 10
-51.6031547027
 20
-8.9784872496
 10
-51.6014897171
 20
-8.9833958229
 10
-51.5994351179
 20
-8.9882673543
 10
-51.5969941638
 20
-8.9930941161
 10
-51.5941707266
 20
-8.9978684503
 10
-51.590969285
 20
-9.0025827831
 10
-51.5873949172
 20
-9.0072296354
 10
-51.5834532939
 20
-9.0118016344
 10
-51.5791506681
 20
-9.0162915269
 10
-51.5744938649
 20
-9.0206921904
 10
-51.5694902721
 20
-9.0249966433
 10
-51.5641478257
 20
-9.0291980581
 10
-51.5584750019
 20
-9.0332897686
 10
-51.5524808056
 20
-9.0372652801
 10
-51.5461747485
 20
-9.0411182852
 10
-51.5395668332
 20
-9.0448426729
 10
-51.5326675432
 20
-9.0484325352
  0
LWPOLYLINE
  5
24A
100
AcDbEntity
  8
C_COPERCHIO
100
AcDbPolyline
 62
250
  6
CONTINUOUS
 90
21
 70
0
 10
-51.6058908479
 20
29.3588306409
 10
-51.6057886857
 20
29.3552574531
 10
-51.6053058925
 20
29.3502846541
 10
-51.604427434
 20
29.3453254067
 10
-51.6031547027
 20
29.3403875788
 10
-51.6014897171
 20
29.3354790056
 10
-51.5994351179
 20
29.3306074741
 10
-51.5969941638
 20
29.3257807123
 10
-51.5941707266
 20
29.3210063781
 10
-51.590969285
 20
29.3162920454
 10
-51.5873949172
 20
29.3116451931
 10
-51.5834532939
 20
29.3070731941
 10
-51.5791506681
 20
29.3025833016
 10
-51.5744938649
 20
29.2981826381
 10
-51.5694902721
 20
29.2938781852
 10
-51.5641478257
 20
29.2896767704
 10
-51.5584750019
 20
29.2855850599
 10
-51.5524808056
 20
29.2816095483
 10
-51.5461747485
 20
29.2777565433
 10
-51.5395668332
 20
29.2740321556
 10
-51.5326675432
 20
29.2704422932
  0
LWPOLYLINE
  5
24B
100
AcDbEntity
  8
C_COPERCHIO
100
AcDbPolyline
 62
250
  6
CONTINUOUS
 90
23
 70
0
 10
-51.5326675432
 20
-9.0484325352
 10
-51.5325273259
 20
-9.0569840271
 10
-51.5321068958
 20
-9.0653817419
 10
-51.5314069193
 20
-9.0736123574
 10
-51.530428506
 20
-9.0816628187
 10
-51.5291732073
 20
-9.0895203517
 10
-51.5276430157
 20
-9.0971724841
 10
-51.5258403592
 20
-9.1046070748
 10
-51.5237680973
 20
-9.1118123317
 10
-51.5214295177
 20
-9.1187768242
 10
-51.5188283303
 20
-9.1254895044
 10
-51.515968662
 20
-9.131939723
 10
-51.51285505
 20
-9.1381172465
 10
-51.5094924344
 20
-9.1440122751
 10
-51.5058861497
 20
-9.1496154575
 10
-51.5020419178
 20
-9.1549179047
 10
-51.4979658373
 20
-9.1599112056
 10
-51.4936643752
 20
-9.1645874394
 10
-51.489144357
 20
-9.1689391869
 10
-51.4844129546
 20
-9.1729595451
 10
-51.4794776735
 20
-9.1766421378
 10
-51.474346343
 20
-9.1799811244
 10
-51.4693334569
 20
-9.1827989997
  0
LINE
  5
24C
100
AcDbEntity
  8
C_COPERCHIO
100
AcDbLine
 62
7
  6
CONTINUOUS
 10
-51.6058908479
 20
-8.9600441876
 11
-51.6058908479
 21
-7.3431916692
  0
LINE
  5
24D
100
AcDbEntity
  8
C_COPERCHIO
100
AcDbLine
 62
7
  6
CONTINUOUS
 10
-51.6058908479
 20
26.4806708178
 11
-51.6058908479
 21
29.3588306409
  0
LINE
  5
24E
100
AcDbEntity
  8
C_COPERCHIO
100
AcDbLine
 62
250
  6
CONTINUOUS
 10
-51.5326675432
 20
-9.0484325352
 11
-51.5326675432
 21
-7.3798033215
  0
LINE
  5
24F
100
AcDbEntity
  8
C_COPERCHIO
100
AcDbLine
 62
250
  6
CONTINUOUS
 10
-51.5326675432
 20
26.3922824701
 11
-51.5326675432
 21
29.2704422932
  0
LINE
  5
250
100
AcDbEntity
  8
C_COPERCHIO
100
AcDbLine
 62
7
  6
CONTINUOUS
 10
-51.3590034247
 20
26.09798374
 11
-51.3590034247
 21
26.3054504109
  0
LINE
  5
251
100
AcDbEntity
  8
C_CORPO
100
AcDbLine
 62
250
  6
CONTINUOUS
 10
-36.4065690955
 20
29.3415610565
 11
-36.3943680658
 21
29.3481437919
  0
LINE
  5
252
100
AcDbEntity
  8
ASSI
100
AcDbLine
 62
250
  6
CONTINUOUS
 10
-36.4065690955
 20
29.3415610565
 11
-36.3943680658
 21
29.3481437919
  0
LINE
  5
253
100
AcDbEntity
  8
C_COPERCHIO
100
AcDbLine
 62
7
  6
CONTINUOUS
 10
-42.0408813983
 20
28.5650929668
 11
-41.635980358
 21
28.7799252008
  0
LINE
  5
254
100
AcDbEntity
  8
C_COPERCHIO
100
AcDbLine
 62
7
  6
CONTINUOUS
 10
-38.3240492531
 20
30.5371682977
 11
-37.6619127182
 21
30.8884844388
  0
LINE
  5
255
100
AcDbEntity
  8
C_COPERCHIO
100
AcDbLine
 62
7
  6
CONTINUOUS
 10
-18.8037255526
 20
-23.5666537682
 11
-16.4012222231
 21
-22.91655157
  0
LINE
  5
256
100
AcDbEntity
  8
C_COPERCHIO
100
AcDbLine
 62
250
  6
CONTINUOUS
 10
-18.6953609443
 20
-23.4152500629
 11
-16.3178820485
 21
-22.7719193182
  0
LWPOLYLINE
  5
257
100
AcDbEntity
  8
C_COPERCHIO
100
AcDbPolyline
 62
250
  6
CONTINUOUS
 90
80
 70
0
 10
-48.1923105247
 20
32.3906274742
 10
-48.1918496854
 20
32.3757229357
 10
-48.1905459749
 20
32.3614724214
 10
-48.1883996775
 20
32.3472474008
 10
-48.1854126786
 20
32.3330603738
 10
-48.181587605
 20
32.3189237873
 10
-48.1769278033
 20
32.3048499869
 10
-48.1714373403
 20
32.2908512544
 10
-48.1651210065
 20
32.2769398182
 10
-48.1579843372
 20
32.2631278823
 10
-48.1500336001
 20
32.249427576
 10
-48.1412757776
 20
32.2358509192
 10
-48.1317185242
 20
32.2224097674
 10
-48.1213701742
 20
32.2091158421
 10
-48.1102397563
 20
32.195980752
 10
-48.0983370318
 20
32.1830160255
 10
-48.0856724606
 20
32.1702330559
 10
-48.072257164
 20
32.1576430604
 10
-48.0581028609
 20
32.1452570292
 10
-48.0432218928
 20
32.1330857622
 10
-48.0276272455
 20
32.1211398875
 10
-48.0113325997
 20
32.1094298913
 10
-47.9943522759
 20
32.0979660652
 10
-47.976701184
 20
32.0867584686
 10
-47.9583947392
 20
32.0758168836
 10
-47.939448901
 20
32.065150849
 10
-47.919880203
 20
32.0547696786
 10
-47.899705816
 20
32.0446824868
 10
-47.8789434717
 20
32.0348981395
 10
-47.8576113991
 20
32.0254252221
 10
-47.8357282256
 20
32.0162720014
 10
-47.8133130294
 20
32.0074464572
 10
-47.7903853747
 20
31.9989562975
 10
-47.7669653805
 20
31.9908089768
 10
-47.7430736287
 20
31.9830116553
 10
-47.7187310916
 20
31.9755711731
 10
-47.6939590257
 20
31.9684940233
 10
-47.6687790318
 20
31.961786377
 10
-47.6432130913
 20
31.9554540938
 10
-47.6172836379
 20
31.949502734
 10
-47.5910134564
 20
31.9439375274
 10
-47.5644256028
 20
31.9387633544
 10
-47.5375432954
 20
31.9339847296
 10
-47.5103899791
 20
31.9296058205
 10
-47.4829893668
 20
31.9256304545
 10
-47.4553654964
 20
31.9220621225
 10
-47.4275426248
 20
31.9189039581
 10
-47.399545158
 20
31.9161587289
 10
-47.3713975546
 20
31.9138288302
 10
-47.3431243798
 20
31.9119162957
 10
-47.3147503264
 20
31.9104227987
 10
-47.2863002868
 20
31.9093496525
 10
-47.257799258
 20
31.9086977996
 10
-47.2292722463
 20
31.9084678084
 10
-47.2007441657
 20
31.9086598761
 10
-47.172239909
 20
31.9092738345
 10
-47.1437843983
 20
31.9103091486
 10
-47.1154025718
 20
31.9117649129
 10
-47.0871192828
 20
31.9136398535
 10
-47.0589592995
 20
31.915932329
 10
-47.0309472622
 20
31.9186403342
 10
-47.0031076704
 20
31.9217615017
 10
-46.9754648385
 20
31.9252931087
 10
-46.948043022
 20
31.9292320595
 10
-46.9208663711
 20
31.9335748833
 10
-46.8939587612
 20
31.9383177573
 10
-46.8673436517
 20
31.9434565388
 10
-46.8410442159
 20
31.9489867513
 10
-46.8150834611
 20
31.9549035579
 10
-46.7894841272
 20
31.9612017772
 10
-46.7642685495
 20
31.967875917
 10
-46.7394586709
 20
31.9749201782
 10
-46.7150763518
 20
31.9823283632
 10
-46.691143257
 20
31.9900938849
 10
-46.6676806047
 20
31.9982098345
 10
-46.6447086249
 20
32.00666919
 10
-46.6222468982
 20
32.0154647436
 10
-46.6003149401
 20
32.0245888808
 10
-46.5789321452
 20
32.0340335613
 10
-46.5581172538
 20
32.0437905301
  0
LINE
  5
258
100
AcDbEntity
  8
C_COPERCHIO
100
AcDbLine
 62
7
  6
CONTINUOUS
 10
-48.1923105247
 20
31.2670156862
 11
-48.1923105247
 21
32.3906274742
  0
LINE
  5
259
100
AcDbEntity
  8
C_COPERCHIO
100
AcDbLine
 62
250
  6
CONTINUOUS
 10
-46.5581172538
 20
30.9302319542
 11
-46.5581172538
 21
32.0437905301
  0
LINE
  5
25A
100
AcDbEntity
  8
C_MOLLE_IDEA
100
AcDbLine
 62
250
  6
CONTINUOUS
 10
-40.9164322023
 20
31.6774689988
 11
-40.9331172358
 21
31.6062342985
  0
LWPOLYLINE
  5
25B
100
AcDbEntity
  8
C_MOLLE_IDEA
100
AcDbPolyline
 62
7
  6
CONTINUOUS
 90
12
 70
0
 10
-40.969740287
 20
31.6523702141
 10
-40.9690789261
 20
31.6545044337
 10
-40.9673224373
 20
31.6579260451
 10
-40.9647342711
 20
31.6611263746
 10
-40.9613249464
 20
31.6641082212
 10
-40.9571379503
 20
31.6668335504
 10
-40.952163321
 20
31.6692990761
 10
-40.9464110203
 20
31.6715080843
 10
-40.9399544208
 20
31.6734323983
 10
-40.9328179801
 20
31.675062626
 10
-40.9249772406
 20
31.6764081595
 10
-40.9164322023
 20
31.6774689988
  0
LINE
  5
25C
100
AcDbEntity
  8
C_COPERCHIO
100
AcDbLine
 62
7
  6
CONTINUOUS
 10
-35.5028855798
 20
25.2560290443
 11
-28.9924688435
 21
28.6387502954
  0
LINE
  5
25D
100
AcDbEntity
  8
C_COPERCHIO
100
AcDbLine
 62
7
  6
CONTINUOUS
 10
-32.9085718781
 20
27.660444407
 11
-34.5455495178
 21
26.821756498
  0
LINE
  5
25E
100
AcDbEntity
  8
C_COPERCHIO
100
AcDbLine
 62
7
  6
CONTINUOUS
 10
-34.9142998383
 20
26.6328312324
 11
-36.5254485051
 21
25.8073765201
  0
LINE
  5
25F
100
AcDbEntity
  8
C_COPERCHIO
100
AcDbLine
 62
7
  6
CONTINUOUS
 10
-30.3645709286
 20
29.5647086476
 11
-30.604060558
 21
29.4445461526
  0
LINE
  5
260
100
AcDbEntity
  8
C_MOLLE_IDEA
100
AcDbLine
 62
250
  6
CONTINUOUS
 10
-36.4306768958
 20
27.2329104978
 11
-36.2725676325
 21
27.3119651295
  0
LINE
  5
261
100
AcDbEntity
  8
C_MOLLE_IDEA
100
AcDbLine
 62
7
  6
CONTINUOUS
 10
-34.3334174834
 20
27.7033902055
 11
-33.9698493508
 21
27.8851742719
  0
LINE
  5
262
100
AcDbEntity
  8
C_MOLLE_IDEA
100
AcDbLine
 62
7
  6
CONTINUOUS
 10
-34.3334174834
 20
27.356980044
 11
-33.9698493508
 21
27.5387641103
  0
LINE
  5
263
100
AcDbEntity
  8
C_MOLLE_IDEA
100
AcDbLine
 62
250
  6
CONTINUOUS
 10
-34.5455495178
 20
26.9911064057
 11
-34.8283922302
 21
26.8496850495
  0
LINE
  5
264
100
AcDbEntity
  8
C_MOLLE_IDEA
100
AcDbLine
 62
7
  6
CONTINUOUS
 10
-34.5455495178
 20
26.7312987846
 11
-34.8283922302
 21
26.5898774284
  0
LINE
  5
265
100
AcDbEntity
  8
C_COPERCHIO
100
AcDbLine
 62
7
  6
CONTINUOUS
 10
-27.4880091916
 20
29.4183716721
 11
-28.7886030592
 21
28.7767247129
  0
LWPOLYLINE
  5
266
100
AcDbEntity
  8
C_MOLLE_IDEA
100
AcDbPolyline
 62
7
  6
CONTINUOUS
 90
10
 70
0
 10
-33.9698493508
 20
27.8851742719
 10
-33.9525400495
 20
27.8934558881
 10
-33.935293733
 20
27.9009720716
 10
-33.9181104012
 20
27.9077228222
 10
-33.9009692892
 20
27.9137144945
 10
-33.883891162
 20
27.9189407339
 10
-33.8669383143
 20
27.9233824771
 10
-33.8501315108
 20
27.9270333696
 10
-33.8334499868
 20
27.9298997659
 10
-33.8168937423
 20
27.931981666
  0
LWPOLYLINE
  5
267
100
AcDbEntity
  8
C_MOLLE_IDEA
100
AcDbPolyline
 62
7
  6
CONTINUOUS
 90
10
 70
0
 10
-33.9698493508
 20
27.5387641103
 10
-33.9624310788
 20
27.5423133745
 10
-33.9550398003
 20
27.5455345959
 10
-33.9476755152
 20
27.5484277748
 10
-33.9403293244
 20
27.5509956343
 10
-33.9330101271
 20
27.5532354512
 10
-33.9257446209
 20
27.5551390554
 10
-33.9185417051
 20
27.5567037237
 10
-33.9113924805
 20
27.5579321792
 10
-33.9042969471
 20
27.5588244221
  0
LWPOLYLINE
  5
268
100
AcDbEntity
  8
C_MOLLE_IDEA
100
AcDbPolyline
 62
7
  6
CONTINUOUS
 90
12
 70
0
 10
-36.3792268586
 20
27.3262632906
 10
-36.3717390597
 20
27.3295056891
 10
-36.3644737621
 20
27.331799246
 10
-36.3569206811
 20
27.3333821073
 10
-36.3490830689
 20
27.3342623047
 10
-36.3410501694
 20
27.3344298155
 10
-36.3328197505
 20
27.3338764937
 10
-36.3243940444
 20
27.3326104855
 10
-36.3158689912
 20
27.3306462063
 10
-36.3072765713
 20
27.3279884613
 10
-36.2985848044
 20
27.3246324454
 10
-36.2897936905
 20
27.3205781585
  0
LWPOLYLINE
  5
269
100
AcDbEntity
  8
C_COPERCHIO
100
AcDbPolyline
 62
7
  6
CONTINUOUS
 90
24
 70
0
 10
-19.2284271379
 20
-23.5319235106
 10
-19.222827361
 20
-23.5346836082
 10
-19.2061499619
 20
-23.5424372207
 10
-19.1890978261
 20
-23.5496697225
 10
-19.1716855006
 20
-23.5563622416
 10
-19.1539362245
 20
-23.5624942145
 10
-19.1358625726
 20
-23.5680506453
 10
-19.1174775991
 20
-23.5730176006
 10
-19.0988063096
 20
-23.5773792626
 10
-19.0798630843
 20
-23.5811239077
 10
-19.0606620011
 20
-23.5842406467
 10
-19.0412278037
 20
-23.5867185041
 10
-19.0215745084
 20
-23.5885493105
 10
-19.0017173536
 20
-23.5897252098
 10
-18.9816822609
 20
-23.5902391594
 10
-18.9614841318
 20
-23.5900863206
 10
-18.9411366899
 20
-23.5892622116
 10
-18.920662865
 20
-23.587763451
 10
-18.9000766882
 20
-23.5855875882
 10
-18.879389868
 20
-23.5827324172
 10
-18.858620029
 20
-23.5791968255
 10
-18.8377809008
 20
-23.5749800026
 10
-18.8168837998
 20
-23.5700814926
 10
-18.8037289117
 20
-23.5666545956
  0
LINE
  5
26A
100
AcDbEntity
  8
C_COPERCHIO
100
AcDbLine
 62
7
  6
CONTINUOUS
 10
-51.4676942468
 20
-9.1836509853
 11
-16.7863514147
 21
-26.5243224014
  0
LINE
  5
26B
100
AcDbEntity
  8
C_COPERCHIO
100
AcDbLine
 62
250
  6
CONTINUOUS
 10
-51.5326675432
 20
-9.0484325352
 11
-16.8513247111
 21
-26.3891039513
  0
LINE
  5
26C
100
AcDbEntity
  8
C_COPERCHIO
100
AcDbLine
 62
7
  6
CONTINUOUS
 10
-53.825948757
 20
-6.2331627147
 11
-19.228395427
 21
-23.5319393797
  0
LINE
  5
26D
100
AcDbEntity
  8
C_COPERCHIO
100
AcDbLine
 62
7
  6
CONTINUOUS
 10
-19.2284288312
 20
-23.5319226756
 11
-19.2283954217
 21
-23.5319393823
  0
LINE
  5
26E
100
AcDbEntity
  8
C_COPERCHIO
100
AcDbLine
 62
250
  6
CONTINUOUS
 10
-54.0818964231
 20
-5.7278735936
 11
-19.4911333817
 21
-23.0232551143
  0
LINE
  5
26F
100
AcDbEntity
  8
C_COPERCHIO
100
AcDbLine
 62
250
  6
CONTINUOUS
 10
-51.4693334569
 20
-9.1827989997
 11
-51.4676942468
 21
-9.1836509853
  0
LWPOLYLINE
  5
270
100
AcDbEntity
  8
C_COPERCHIO
100
AcDbPolyline
 62
250
  6
CONTINUOUS
 90
31
 70
0
 10
-53.825948757
 20
-6.2331627147
 10
-53.840329543
 20
-6.2255677609
 10
-53.8550841552
 20
-6.2168939704
 10
-53.8694629382
 20
-6.2075161772
 10
-53.8834542581
 20
-6.1974419613
 10
-53.8970467924
 20
-6.186679454
 10
-53.9102299939
 20
-6.1752371015
 10
-53.922993207
 20
-6.1631241146
 10
-53.9353260898
 20
-6.1503502512
 10
-53.9472190714
 20
-6.136925571
 10
-53.9586625485
 20
-6.1228608477
 10
-53.9696472358
 20
-6.108167398
 10
-53.9801645842
 20
-6.0928568586
 10
-53.9902061049
 20
-6.076941502
 10
-53.999763649
 20
-6.0604341188
 10
-54.0088297609
 20
-6.043347849
 10
-54.0173971095
 20
-6.0256964245
 10
-54.0254587681
 20
-6.0074939782
 10
-54.0330084932
 20
-5.9887549255
 10
-54.04004019
 20
-5.9694942822
 10
-54.0465481576
 20
-5.9497274754
 10
-54.0525273611
 20
-5.9294701488
 10
-54.0579730001
 20
-5.9087384037
 10
-54.0628806159
 20
-5.887548936
 10
-54.0672463452
 20
-5.8659188525
 10
-54.0710666519
 20
-5.8438656742
 10
-54.074338486
 20
-5.8214068518
 10
-54.0770593626
 20
-5.7985598809
 10
-54.0792271095
 20
-5.7753428572
 10
-54.0808399035
 20
-5.7517744855
 10
-54.0818964231
 20
-5.7278735936
  0
LINE
  5
271
100
AcDbEntity
  8
C_COPERCHIO
100
AcDbLine
 62
7
  6
CONTINUOUS
 10
-45.8539311074
 20
30.0227974783
 11
-45.8539311074
 21
29.3448562094
  0
LINE
  5
272
100
AcDbEntity
  8
C_COPERCHIO
100
AcDbLine
 62
7
  6
CONTINUOUS
 10
-45.0814405574
 20
31.6742638302
 11
-45.0814405574
 21
32.7567955849
  0
LINE
  5
273
100
AcDbEntity
  8
C_COPERCHIO
100
AcDbLine
 62
250
  6
CONTINUOUS
 10
-44.4609366945
 20
29.7350546016
 11
-44.4609366945
 21
29.0614366326
  0
LINE
  5
274
100
AcDbEntity
  8
C_MOLLE_IDEA
100
AcDbLine
 62
7
  6
CONTINUOUS
 10
-43.3136736045
 20
30.8325181155
 11
-43.3136736045
 21
31.0923257366
  0
LWPOLYLINE
  5
275
100
AcDbEntity
  8
C_MOLLE_IDEA
100
AcDbPolyline
 62
7
  6
CONTINUOUS
 90
19
 70
0
 10
-43.3136736045
 20
31.0923257366
 10
-43.3116719116
 20
31.1468148771
 10
-43.3060499598
 20
31.2019260889
 10
-43.296807749
 20
31.257659372
 10
-43.2838204713
 20
31.3144461616
 10
-43.2672129347
 20
31.3718550225
 10
-43.2473595626
 20
31.4285916489
 10
-43.2241866224
 20
31.4846407701
 10
-43.1977678468
 20
31.5400176569
 10
-43.1686988577
 20
31.593473815
 10
-43.1369194524
 20
31.644965613
 10
-43.1024898337
 20
31.6945366823
 10
-43.0661862311
 20
31.7410694233
 10
-43.0279660748
 20
31.784494817
 10
-42.9878719346
 20
31.8248818824
 10
-42.946807749
 20
31.861320077
 10
-42.9050748307
 20
31.8935058864
 10
-42.8623718669
 20
31.921742825
 10
-42.8186988577
 20
31.9460308927
  0
LINE
  5
276
100
AcDbEntity
  8
C_MOLLE_IDEA
100
AcDbLine
 62
250
  6
CONTINUOUS
 10
-38.9661865176
 20
31.8765037959
 11
-39.0535897225
 21
31.503346552
  0
LINE
  5
277
100
AcDbEntity
  8
C_MOLLE_IDEA
100
AcDbLine
 62
250
  6
CONTINUOUS
 10
-38.690265459
 20
31.8195196555
 11
-38.7776686639
 21
31.4463624117
  0
LWPOLYLINE
  5
278
100
AcDbEntity
  8
C_MOLLE_IDEA
100
AcDbPolyline
 62
7
  6
CONTINUOUS
 90
12
 70
0
 10
-36.9392316342
 20
29.6371158877
 10
-36.9385702733
 20
29.6392501074
 10
-36.9368137845
 20
29.6426717187
 10
-36.9342256183
 20
29.6458720483
 10
-36.9308162936
 20
29.6488538949
 10
-36.9266292975
 20
29.651579224
 10
-36.9216546682
 20
29.6540447497
 10
-36.9159023676
 20
29.6562537579
 10
-36.9094457681
 20
29.6581780719
 10
-36.9023093273
 20
29.6598082996
 10
-36.8944685878
 20
29.6611538331
 10
-36.8859235495
 20
29.6622146724
  0
LWPOLYLINE
  5
279
100
AcDbEntity
  8
C_MOLLE_IDEA
100
AcDbPolyline
 62
7
  6
CONTINUOUS
 90
12
 70
0
 10
-36.579426055
 20
30.7348763917
 10
-36.5800874159
 20
30.732742172
 10
-36.5818439047
 20
30.7293205607
 10
-36.5844320709
 20
30.7261202311
 10
-36.5878413956
 20
30.7231383845
 10
-36.5920283917
 20
30.7204130554
 10
-36.597003021
 20
30.7179475297
 10
-36.6027553217
 20
30.7157385215
 10
-36.6092119211
 20
30.7138142075
 10
-36.6163483619
 20
30.7121839798
 10
-36.6241891014
 20
30.7108384463
 10
-36.6327341397
 20
30.7097776069
  0
LWPOLYLINE
  5
27A
100
AcDbEntity
  8
C_COPERCHIO
100
AcDbPolyline
 62
7
  6
CONTINUOUS
 90
7
 70
0
 10
-34.609072403
 20
32.537192724
 10
-34.6063176866
 20
32.542372311
 10
-34.6040282728
 20
32.5472528694
 10
-34.6022237699
 20
32.5518094074
 10
-34.6009152378
 20
32.5560160842
 10
-34.6001343571
 20
32.5598485622
 10
-34.5999232086
 20
32.5627801281
  0
LWPOLYLINE
  5
27B
100
AcDbEntity
  8
C_COPERCHIO
100
AcDbPolyline
 62
250
  6
CONTINUOUS
 90
10
 70
0
 10
-45.5589288295
 20
8.0361923874
 10
-45.1643688199
 20
8.6682115593
 10
-44.7683282313
 20
9.3009597411
 10
-44.370807142
 20
9.9344327976
 10
-43.9718038422
 20
10.5686253611
 10
-43.5713202218
 20
11.2035345181
 10
-43.1693617645
 20
11.8391598122
 10
-42.7659303669
 20
12.4754983272
 10
-42.3610243441
 20
13.112544684
 10
-41.9546438141
 20
13.7502947297
  0
LINE
  5
27C
100
AcDbEntity
  8
C_CORPO
100
AcDbLine
 62
250
  6
CONTINUOUS
 10
-35.1059211044
 20
26.5346561351
 11
-34.9840960061
 21
26.6677293163
  0
LINE
  5
27D
100
AcDbEntity
  8
ASSI
100
AcDbLine
 62
250
  6
CONTINUOUS
 10
-35.1059211044
 20
26.5346561351
 11
-34.9840960061
 21
26.6677293163
  0
LINE
  5
27E
100
AcDbEntity
  8
C_CORPO
100
AcDbLine
 62
250
  6
CONTINUOUS
 10
-34.4648946532
 20
27.2348684086
 11
-34.3815594816
 21
27.3258978971
  0
LINE
  5
27F
100
AcDbEntity
  8
ASSI
100
AcDbLine
 62
250
  6
CONTINUOUS
 10
-34.4648946532
 20
27.2348684086
 11
-34.3815594816
 21
27.3258978971
  0
LINE
  5
280
100
AcDbEntity
  8
C_CORPO
100
AcDbLine
 62
250
  6
CONTINUOUS
 10
-34.3885654283
 20
26.9021856099
 11
-33.7753851507
 21
27.571980679
  0
LINE
  5
281
100
AcDbEntity
  8
ASSI
100
AcDbLine
 62
250
  6
CONTINUOUS
 10
-34.3885654283
 20
26.9021856099
 11
-33.7753851507
 21
27.571980679
  0
LINE
  5
282
100
AcDbEntity
  8
C_CORPO
100
AcDbLine
 62
7
  6
CONTINUOUS
 10
-31.3398440938
 20
24.0812422875
 11
-28.0755224699
 21
25.8424186926
  0
LINE
  5
283
100
AcDbEntity
  8
ASSI
100
AcDbLine
 62
7
  6
CONTINUOUS
 10
-31.3398440938
 20
24.0812422875
 11
-28.0755224699
 21
25.8424186926
  0
LINE
  5
284
100
AcDbEntity
  8
C_COPERCHIO
100
AcDbLine
 62
7
  6
CONTINUOUS
 10
-26.6927791873
 20
26.8854953412
 11
-31.6694244592
 21
24.2460324702
  0
LINE
  5
285
100
AcDbEntity
  8
C_COPERCHIO
100
AcDbLine
 62
7
  6
CONTINUOUS
 10
-27.7196823713
 20
27.3989469332
 11
-34.3447305735
 21
24.0033335721
  0
LINE
  5
286
100
AcDbEntity
  8
C_COPERCHIO
100
AcDbLine
 62
7
  6
CONTINUOUS
 10
-34.3447305735
 20
24.6769515411
 11
-26.1908038446
 21
28.7697689986
  0
LINE
  5
287
100
AcDbEntity
  8
C_COPERCHIO
100
AcDbLine
 62
7
  6
CONTINUOUS
 10
-25.3548841326
 20
27.5373679692
 11
-26.6927791873
 21
26.8854953412
  0
LINE
  5
288
100
AcDbEntity
  8
C_COPERCHIO
100
AcDbLine
 62
7
  6
CONTINUOUS
 10
-25.6511773064
 20
28.3714661302
 11
-27.7196823713
 21
27.3989469332
  0
LINE
  5
289
100
AcDbEntity
  8
C_CORPO
100
AcDbLine
 62
7
  6
CONTINUOUS
 10
-28.0755224699
 20
25.8424186926
 11
-24.4063306525
 21
27.5369730667
  0
LINE
  5
28A
100
AcDbEntity
  8
ASSI
100
AcDbLine
 62
7
  6
CONTINUOUS
 10
-28.0755224699
 20
25.8424186926
 11
-24.4063306525
 21
27.5369730667
  0
LWPOLYLINE
  5
28B
100
AcDbEntity
  8
C_COPERCHIO
100
AcDbPolyline
 62
7
  6
CONTINUOUS
 90
40
 70
0
 10
-16.8513247111
 20
-23.5109441282
 10
-16.8441276769
 20
-23.5144009623
 10
-16.8366842939
 20
-23.5177026017
 10
-16.8289945621
 20
-23.5208490463
 10
-16.8210438529
 20
-23.5238452966
 10
-16.812846795
 20
-23.5266863521
 10
-16.8044472743
 20
-23.5293572116
 10
-16.7958486819
 20
-23.5318558902
 10
-16.7870476267
 20
-23.5341843727
 10
-16.7780778213
 20
-23.5363336116
 10
-16.76893221
 20
-23.5383040735
 10
-16.7596178484
 20
-23.5400952917
 10
-16.7501896166
 20
-23.5416968191
 10
-16.7406548329
 20
-23.5431065848
 10
-16.7310061791
 20
-23.5443266598
 10
-16.72127658
 20
-23.5453528095
 10
-16.7114565846
 20
-23.5461849271
 10
-16.7015556441
 20
-23.5468231193
 10
-16.691635037
 20
-23.5472634725
 10
-16.6817043816
 20
-23.5475047292
 10
-16.6717540597
 20
-23.5475481467
 10
-16.6618164957
 20
-23.5473935837
 10
-16.6518820291
 20
-23.5470398669
 10
-16.6419603206
 20
-23.5464881694
 10
-16.6321127759
 20
-23.5457418699
 10
-16.6223488412
 20
-23.5448007789
 10
-16.6126590703
 20
-23.5436650859
 10
-16.6030765312
 20
-23.5423387373
 10
-16.5935938344
 20
-23.5408197265
 10
-16.5842183693
 20
-23.5391100601
 10
-16.5750053723
 20
-23.5372197048
 10
-16.5659619143
 20
-23.5351490656
 10
-16.5570809243
 20
-23.5328977375
 10
-16.5483964256
 20
-23.5304744725
 10
-16.5399049583
 20
-23.5278773158
 10
-16.5316099823
 20
-23.5251082221
 10
-16.5235559005
 20
-23.5221818077
 10
-16.5157575139
 20
-23.5191029445
 10
-16.5082000214
 20
-23.5158667604
 10
-16.5008834232
 20
-23.5124732556
  0
LINE
  5
28C
100
AcDbEntity
  8
C_COPERCHIO
100
AcDbLine
 62
7
  6
CONTINUOUS
 10
-16.8513247111
 20
-23.5109441282
 11
-17.4646150745
 21
-23.2042989465
  0
LINE
  5
28D
100
AcDbEntity
  8
C_COPERCHIO
100
AcDbLine
 62
7
  6
CONTINUOUS
 10
-16.3178820485
 20
-23.4241120689
 11
-17.005808568
 21
-23.0801488092
  0
LWPOLYLINE
  5
28E
100
AcDbEntity
  8
C_COPERCHIO
100
AcDbPolyline
 62
250
  6
CONTINUOUS
 90
174
 70
0
 10
-41.3502836154
 20
-6.6115690123
 10
-41.3797330458
 20
-6.5050123409
 10
-41.4077881049
 20
-6.3984305582
 10
-41.4344475226
 20
-6.2918261194
 10
-41.4597307175
 20
-6.1851433051
 10
-41.4836170497
 20
-6.0784435875
 10
-41.5060444113
 20
-5.971904643
 10
-41.5270056612
 20
-5.8655274928
 10
-41.5465060702
 20
-5.7593161501
 10
-41.5645001653
 20
-5.6534512492
 10
-41.5809802166
 20
-5.5479349029
 10
-41.5959518526
 20
-5.4427692942
 10
-41.6093876909
 20
-5.3381335126
 10
-41.6212797079
 20
-5.2340318614
 10
-41.6316337139
 20
-5.1304634025
 10
-41.6404412054
 20
-5.0275976449
 10
-41.647695446
 20
-4.9254762486
 10
-41.6534008221
 20
-4.8240597294
 10
-41.6575645683
 20
-4.7233948259
 10
-41.6601890803
 20
-4.6234936936
 10
-41.6612715389
 20
-4.5243467362
 10
-41.6608115347
 20
-4.4259679075
 10
-41.658810836
 20
-4.3283293859
 10
-41.6552697539
 20
-4.231462405
 10
-41.6501854774
 20
-4.1354689861
 10
-41.643557227
 20
-4.0403501766
 10
-41.635388709
 20
-3.9461077365
 10
-41.625682938
 20
-3.8528436291
 10
-41.6144403068
 20
-3.7605629684
 10
-41.601664229
 20
-3.6692628304
 10
-41.5873613808
 20
-3.5790320142
 10
-41.5715338519
 20
-3.4898757675
 10
-41.5541843592
 20
-3.4017905192
 10
-41.5353198084
 20
-3.3148508737
 10
-41.5149426452
 20
-3.2290574727
 10
-41.4930563996
 20
-3.1444110109
 10
-41.4696689655
 20
-3.0609852806
 10
-41.4447826675
 20
-2.9787793285
 10
-41.4184022285
 20
-2.8977950681
 10
-41.3905384157
 20
-2.8181096496
 10
-41.3611924006
 20
-2.7397201585
 10
-41.3303709489
 20
-2.6626300125
 10
-41.2980922767
 20
-2.5869247763
 10
-41.2643581457
 20
-2.5126045159
 10
-41.2291752196
 20
-2.4396689922
 10
-41.1925679054
 20
-2.3682021088
 10
-41.1545383194
 20
-2.2982045756
 10
-41.1150930518
 20
-2.2296748171
 10
-41.0742619378
 20
-2.1626920873
 10
-41.0320469595
 20
-2.0972567102
 10
-40.9884549489
 20
-2.0333668445
 10
-40.9435216258
 20
-1.9710972822
 10
-40.8972483944
 20
-1.9104478268
 10
-40.8496425654
 20
-1.8514165478
 10
-40.8007471847
 20
-1.7940744135
 10
-40.7505635134
 20
-1.7384215687
 10
-40.6990986338
 20
-1.6844551526
 10
-40.6464026294
 20
-1.6322403972
 10
-40.5924784024
 20
-1.5817788588
 10
-40.5373307644
 20
-1.5330657293
 10
-40.4810109246
 20
-1.4861555449
 10
-40.4235264402
 20
-1.4410515665
 10
-40.3648767918
 20
-1.3977469421
 10
-40.3050996219
 20
-1.3562801629
 10
-40.244192211
 20
-1.3166468862
 10
-40.1821642675
 20
-1.278848094
 10
-40.1190705749
 20
-1.2429294453
 10
-40.0549109355
 20
-1.2088903295
 10
-39.9896916563
 20
-1.1767279089
 10
-39.9234753673
 20
-1.1464835297
 10
-39.8562632121
 20
-1.1181576822
 10
-39.7880590538
 20
-1.0917464107
 10
-39.7189275876
 20
-1.067283451
 10
-39.64887162
 20
-1.0447694589
 10
-39.5778922265
 20
-1.0242004654
 10
-39.5060495883
 20
-1.0056024597
 10
-39.433344119
 20
-0.9889751194
 10
-39.3597783967
 20
-0.9743158796
 10
-39.285414017
 20
-0.961646666
 10
-39.2102500827
 20
-0.9509673272
 10
-39.1342895718
 20
-0.942275666
 10
-39.0575980025
 20
-0.9355898681
 10
-38.9801710457
 20
-0.9309104955
 10
-38.9020141611
 20
-0.9282352606
 10
-38.8232054495
 20
-0.9275773485
 10
-38.7437411294
 20
-0.9289385563
 10
-38.6636248421
 20
-0.9323159156
 10
-38.582943471
 20
-0.9377146574
 10
-38.5016945549
 20
-0.9451370466
 10
-38.4198790347
 20
-0.9545802094
 10
-38.3375864716
 20
-0.9660408526
 10
-38.2548146673
 20
-0.9795212843
 10
-38.1715630412
 20
-0.9950192303
 10
-38.0879212179
 20
-1.0125237436
 10
-38.0038858472
 20
-1.0320374688
 10
-37.9194564504
 20
-1.0535585196
 10
-37.8347246634
 20
-1.0770683961
 10
-37.7496860931
 20
-1.1025703588
 10
-37.6643403977
 20
-1.1300626444
 10
-37.5787830099
 20
-1.1595184414
 10
-37.4930087934
 20
-1.1909417328
 10
-37.4070173472
 20
-1.2243307309
 10
-37.3209089075
 20
-1.2596491408
 10
-37.2346791652
 20
-1.2969009627
 10
-37.1483261657
 20
-1.3360849982
 10
-37.0619513975
 20
-1.3771562745
 10
-36.9755506483
 20
-1.4201189077
 10
-36.8891213345
 20
-1.4649721206
 10
-36.8027651834
 20
-1.5116626833
 10
-36.7164779798
 20
-1.5601948516
 10
-36.6302568126
 20
-1.6105681537
 10
-36.5442032485
 20
-1.6627213061
 10
-36.4583139312
 20
-1.7166580972
 10
-36.3725849441
 20
-1.7723788469
 10
-36.287115009
 20
-1.8298160697
 10
-36.2019015393
 20
-1.8889729446
 10
-36.1169399366
 20
-1.949850621
 10
-36.0323240547
 20
-2.012377554
 10
-35.9480506735
 20
-2.0765573873
 10
-35.8641161787
 20
-2.1423909403
 10
-35.7806121125
 20
-2.2098013935
 10
-35.697534902
 20
-2.2787929137
 10
-35.614881784
 20
-2.3493657922
 10
-35.5327438477
 20
-2.4214362981
 10
-35.451117847
 20
-2.4950086415
 10
-35.3700012523
 20
-2.570082888
 10
-35.2894845751
 20
-2.64656791
 10
-35.2095663075
 20
-2.7244663998
 10
-35.1302427621
 20
-2.8037795705
 10
-35.0515995779
 20
-2.8844128469
 10
-34.9736385221
 20
-2.9663651226
 10
-34.8963533014
 20
-3.0496409176
 10
-34.8198160616
 20
-3.1341529283
 10
-34.7440271132
 20
-3.2199011744
 10
-34.6689826317
 20
-3.3068886356
 10
-34.5947473826
 20
-3.3950313807
 10
-34.5213208095
 20
-3.4843305792
 10
-34.4487010862
 20
-3.5747876259
 10
-34.3769499763
 20
-3.6663178892
 10
-34.3060653229
 20
-3.7589252922
 10
-34.2360480314
 20
-3.8526079747
 10
-34.166963279
 20
-3.9472715288
 10
-34.0988095616
 20
-4.042919974
 10
-34.0315880205
 20
-4.1395506564
 10
-33.965366428
 20
-4.2370579326
 10
-33.9001459732
 20
-4.3354422851
 10
-33.8359257179
 20
-4.4347037135
 10
-33.7727687638
 20
-4.5347345678
 10
-33.7106828644
 20
-4.6355235437
 10
-33.6496610067
 20
-4.7370814924
 10
-33.589742989
 20
-4.8393329478
 10
-33.5309276729
 20
-4.9422812236
 10
-33.4732182101
 20
-5.0459221562
 10
-33.4166598708
 20
-5.150168172
 10
-33.361247731
 20
-5.2550323919
 10
-33.306989625
 20
-5.3605002771
 10
-33.253948413
 20
-5.4664415679
 10
-33.2021271847
 20
-5.5728549975
 10
-33.1515255364
 20
-5.6797392837
 10
-33.1021990703
 20
-5.7869627369
 10
-33.0541524092
 20
-5.8945192658
 10
-33.0073833313
 20
-6.0024114044
 10
-32.9619352323
 20
-6.1105191201
 10
-32.9178143175
 20
-6.2188295375
 10
-32.8750166001
 20
-6.3273511982
 10
-32.8335686423
 20
-6.4359952128
 10
-32.793472631
 20
-6.5447569957
 10
-32.7547290325
 20
-6.6536365087
 10
-32.717360617
 20
-6.7625509518
 10
-32.6813689534
 20
-6.8714974909
 10
-32.6467555297
 20
-6.9804741624
 10
-32.6135418055
 20
-7.0893988185
 10
-32.5817274792
 20
-7.198276762
 10
-32.5513162762
 20
-7.3070978285
  0
LWPOLYLINE
  5
28F
100
AcDbEntity
  8
C_COPERCHIO
100
AcDbPolyline
 62
250
  6
CONTINUOUS
 90
174
 70
0
 10
-41.436941615
 20
-6.6128563861
 10
-41.4669098558
 20
-6.5043172793
 10
-41.4954582288
 20
-6.3957576061
 10
-41.5225862705
 20
-6.2871771276
 10
-41.5483147361
 20
-6.178513274
 10
-41.5726219101
 20
-6.069828121
 10
-41.5954437216
 20
-5.9613084505
 10
-41.6167743936
 20
-5.8529533536
 10
-41.6366189541
 20
-5.7447633582
 10
-41.6549297515
 20
-5.6369275142
 10
-41.6717005907
 20
-5.5294465711
 10
-41.6869371335
 20
-5.4223195134
 10
-41.7006097432
 20
-5.3157328649
 10
-41.7127120323
 20
-5.2096902185
 10
-41.7232500878
 20
-5.1041878388
 10
-41.7322132199
 20
-4.9994013807
 10
-41.7395958574
 20
-4.8953727079
 10
-41.7454035232
 20
-4.792059947
 10
-41.7496423232
 20
-4.6895132286
 10
-41.7523141947
 20
-4.5877435524
 10
-41.753417213
 20
-4.486739941
 10
-41.7529517402
 20
-4.386519585
 10
-41.7509180996
 20
-4.2870525885
 10
-41.7473159852
 20
-4.1883688722
 10
-41.7421449
 20
-4.0905753957
 10
-41.7354027351
 20
-3.9936724664
 10
-41.7270917766
 20
-3.8976598851
 10
-41.7172182683
 20
-3.8026439287
 10
-41.7057809015
 20
-3.7086293952
 10
-41.6927813126
 20
-3.6156116726
 10
-41.6782303033
 20
-3.5236829962
 10
-41.6621277392
 20
-3.4328485004
 10
-41.644474212
 20
-3.3431033033
 10
-41.625281734
 20
-3.2545246777
 10
-41.6045499472
 20
-3.1671132145
 10
-41.5822797707
 20
-3.0808686284
 10
-41.5584852411
 20
-2.9958669344
 10
-41.5331654572
 20
-2.9121073504
 10
-41.5063219818
 20
-2.8295910148
 10
-41.4779726566
 20
-2.7483968796
 10
-41.4481151774
 20
-2.6685225191
 10
-41.416752611
 20
-2.5899707662
 10
-41.3839109733
 20
-2.5128285215
 10
-41.3495885439
 20
-2.4370968468
 10
-41.313787918
 20
-2.3627751439
 10
-41.2765417069
 20
-2.2899478858
 10
-41.237848563
 20
-2.2186171712
 10
-41.1977108125
 20
-2.1487814167
 10
-41.1561666926
 20
-2.0805196323
 10
-41.1132148054
 20
-2.0138338587
 10
-41.0688576175
 20
-1.948722615
 10
-41.0231392708
 20
-1.8852596836
 10
-40.9760579906
 20
-1.8234468921
 10
-40.9276166972
 20
-1.7632830103
 10
-40.8778666749
 20
-1.704837285
 10
-40.8268063566
 20
-1.6481121894
 10
-40.7744385197
 20
-1.5931058787
 10
-40.720821057
 20
-1.5398811699
 10
-40.6659544636
 20
-1.4884421804
 10
-40.6098395042
 20
-1.4387854445
 10
-40.5525345538
 20
-1.3909624427
 10
-40.4940450126
 20
-1.344978994
 10
-40.4343667658
 20
-1.3008299424
 10
-40.3735439706
 20
-1.2585503328
 10
-40.3115716323
 20
-1.2181380441
 10
-40.2484560164
 20
-1.1795958511
 10
-40.1842582158
 20
-1.1429661655
 10
-40.1189765392
 20
-1.1082507918
 10
-40.0526139455
 20
-1.0754485758
 10
-39.9852385491
 20
-1.0445975149
 10
-39.9168506482
 20
-1.0157004874
 10
-39.8474511951
 20
-0.9887552548
 10
-39.7771093217
 20
-0.9637921578
 10
-39.7058275014
 20
-0.9408140364
 10
-39.6336044756
 20
-0.9198186707
 10
-39.5605038023
 20
-0.900828823
 10
-39.4865258762
 20
-0.8838459989
 10
-39.4116714615
 20
-0.8688692831
 10
-39.3360046843
 20
-0.8559178132
 10
-39.259525059
 20
-0.8449929304
 10
-39.1822341623
 20
-0.8360938484
 10
-39.1041992203
 20
-0.829236517
 10
-39.0254168228
 20
-0.824422676
 10
-38.9458913924
 20
-0.8216510996
 10
-38.8657019068
 20
-0.8209332904
 10
-38.78484626
 20
-0.8222719732
 10
-38.7033274831
 20
-0.8256648921
 10
-38.6212322548
 20
-0.8311160758
 10
-38.5385604831
 20
-0.8386284013
 10
-38.4553130858
 20
-0.8481994096
 10
-38.3715782449
 20
-0.85982512
 10
-38.2873566415
 20
-0.8735080572
 10
-38.2026483079
 20
-0.8892460571
 10
-38.1175404343
 20
-0.9070280963
 10
-38.0320329166
 20
-0.9268566158
 10
-37.946126449
 20
-0.9487294726
 10
-37.8599093943
 20
-0.9726287548
 10
-37.7733809304
 20
-0.9985571293
 10
-37.6865423378
 20
-1.0265121606
 10
-37.5994851042
 20
-1.056468268
 10
-37.5122079606
 20
-1.0884285009
 10
-37.4247124961
 20
-1.1223899713
 10
-37.3370944532
 20
-1.1583181757
 10
-37.2493536471
 20
-1.1962158802
 10
-37.1614904394
 20
-1.2360804078
 10
-37.073601357
 20
-1.2778690723
 10
-36.9856864194
 20
-1.3215844881
 10
-36.8977456379
 20
-1.3672240562
 10
-36.8098754909
 20
-1.4147372519
 10
-36.7220759943
 20
-1.4641266194
 10
-36.6343470163
 20
-1.5153895561
 10
-36.5467847772
 20
-1.568467799
 10
-36.4593900612
 20
-1.6233632659
 10
-36.3721618236
 20
-1.6800739075
 10
-36.2851935071
 20
-1.738535493
 10
-36.1984864327
 20
-1.7987492119
 10
-36.1120388782
 20
-1.8607136721
 10
-36.0259396909
 20
-1.924360754
 10
-35.9401891933
 20
-1.9896920665
 10
-35.8547865269
 20
-2.0567057299
 10
-35.7698187406
 20
-2.1253283786
 10
-35.6852854307
 20
-2.1955622002
 10
-35.6011863379
 20
-2.2674046718
 10
-35.5176087063
 20
-2.3407753512
 10
-35.4345521051
 20
-2.4156766238
 10
-35.3520161849
 20
-2.4921057094
 10
-35.270088297
 20
-2.5699744095
 10
-35.1887693988
 20
-2.6492837954
 10
-35.1080576476
 20
-2.7300323473
 10
-35.0280361884
 20
-2.8121279758
 10
-34.9487087939
 20
-2.8955681036
 10
-34.8700707143
 20
-2.9803548122
 10
-34.7921923102
 20
-3.0664030007
 10
-34.7150751726
 20
-3.1537113901
 10
-34.638716651
 20
-3.242280721
 10
-34.5631807478
 20
-3.3320289236
 10
-34.4884675188
 20
-3.4229561004
 10
-34.4145757763
 20
-3.5150615726
 10
-34.3415676675
 20
-3.6082621036
 10
-34.2694410882
 20
-3.7025609073
 10
-34.1981969489
 20
-3.7979541609
 10
-34.1279019381
 20
-3.8943480816
 10
-34.0585542977
 20
-3.9917464326
 10
-33.9901545474
 20
-4.0901448177
 10
-33.9227728246
 20
-4.1894372319
 10
-33.8564098888
 20
-4.2896243363
 10
-33.7910637185
 20
-4.3907048232
 10
-33.7268003245
 20
-4.4925697567
 10
-33.6636266943
 20
-4.5952081211
 10
-33.6015345742
 20
-4.6986302816
 10
-33.540567156
 20
-4.8027593962
 10
-33.4807216145
 20
-4.9075994305
 10
-33.4219994895
 20
-5.0131457566
 10
-33.3644505638
 20
-5.1193086635
 10
-33.3080681429
 20
-5.2261026116
 10
-33.2528576355
 20
-5.3335124761
 10
-33.1988870504
 20
-5.4414042051
 10
-33.1461583539
 20
-5.5497783439
 10
-33.0946683491
 20
-5.658633709
 10
-33.0444774004
 20
-5.7678337054
 10
-32.9955891987
 20
-5.8773744034
 10
-32.947998897
 20
-5.9872591308
 10
-32.9017541607
 20
-6.0973622331
 10
-32.8568601788
 20
-6.2076730689
 10
-32.8133106892
 20
-6.3182017183
 10
-32.7711362782
 20
-6.4288536592
 10
-32.7303376462
 20
-6.5396266694
 10
-32.6909130814
 20
-6.6505224396
 10
-32.6528896376
 20
-6.7614523613
 10
-32.6162672205
 20
-6.872416036
 10
-32.5810449792
 20
-6.9834133631
 10
-32.5472489205
 20
-7.0943562253
 10
-32.5148771244
 20
-7.2052526001
 10
-32.4839306364
 20
-7.3160940457
  0
LINE
  5
290
100
AcDbEntity
  8
C_MOLLE_IDEA
100
AcDbLine
 62
250
  6
CONTINUOUS
 10
-36.6396557935
 20
30.7942148228
 11
-36.6600870531
 21
30.7069860707
  0
LINE
  5
291
100
AcDbEntity
  8
C_MOLLE_IDEA
100
AcDbLine
 62
250
  6
CONTINUOUS
 10
-36.8859235495
 20
29.6622146724
 11
-36.902608583
 21
29.5909799722
  0
LINE
  5
292
100
AcDbEntity
  8
C_MOLLE_IDEA
100
AcDbLine
 62
250
  6
CONTINUOUS
 10
-34.9356778648
 20
29.8612494695
 11
-35.0230810697
 21
29.4880922257
  0
LWPOLYLINE
  5
293
100
AcDbEntity
  8
C_COPERCHIO
100
AcDbPolyline
 62
7
  6
CONTINUOUS
 90
62
 70
0
 10
-43.5049533877
 20
6.1873958739
 10
-43.5083011348
 20
6.1819250424
 10
-43.5129770023
 20
6.1739576659
 10
-43.5174993648
 20
6.1658570827
 10
-43.5218799822
 20
6.1576366357
 10
-43.5261160243
 20
6.1493009335
 10
-43.5302040523
 20
6.1408534885
 10
-43.534155143
 20
6.1323055713
 10
-43.5379669183
 20
6.1236613402
 10
-43.541636406
 20
6.1149238872
 10
-43.5451739513
 20
6.1061025041
 10
-43.5485776085
 20
6.0972007453
 10
-43.5518447374
 20
6.0882215265
 10
-43.5549847408
 20
6.0791728576
 10
-43.5579959598
 20
6.0700578764
 10
-43.5608761025
 20
6.060879241
 10
-43.5636336762
 20
6.0516439767
 10
-43.5662672491
 20
6.0423548658
 10
-43.5687748303
 20
6.0330143418
 10
-43.5711641064
 20
6.0236286916
 10
-43.5734338286
 20
6.0142003958
 10
-43.5755822644
 20
6.0047316916
 10
-43.5776163675
 20
5.9952283303
 10
-43.5795350397
 20
5.9856925339
 10
-43.5813367702
 20
5.9761263703
 10
-43.5830278702
 20
5.9665352241
 10
-43.5846073684
 20
5.9569210926
 10
-43.5860739454
 20
5.9472858993
 10
-43.5874333571
 20
5.9376348143
 10
-43.5886847421
 20
5.927969638
 10
-43.5898269492
 20
5.9182921699
 10
-43.5908652627
 20
5.9086074972
 10
-43.5917989207
 20
5.8989172466
 10
-43.5926269222
 20
5.8892231094
 10
-43.5933541609
 20
5.8795302058
 10
-43.5939799682
 20
5.8698400052
 10
-43.5945034816
 20
5.8601541041
 10
-43.5949292806
 20
5.850477761
 10
-43.5952567877
 20
5.8408123828
 10
-43.595485274
 20
5.8311593978
 10
-43.5956190793
 20
5.8215240526
 10
-43.5956577191
 20
5.8119075404
 10
-43.5956005845
 20
5.8023112885
 10
-43.5954518288
 20
5.7927408549
 10
-43.5952110647
 20
5.7831973373
 10
-43.5948778088
 20
5.7736820507
 10
-43.5944560937
 20
5.7642008358
 10
-43.5939456378
 20
5.7547546694
 10
-43.5933460852
 20
5.7453447808
 10
-43.5926614066
 20
5.7359773411
 10
-43.591891437
 20
5.7266532081
 10
-43.5910359545
 20
5.7173735178
 10
-43.590098922
 20
5.7081447997
 10
-43.5890803065
 20
5.6989677953
 10
-43.5879800275
 20
5.6898435331
 10
-43.5868020886
 20
5.6807788987
 10
-43.5855466006
 20
5.671774521
 10
-43.5842136387
 20
5.6628313002
 10
-43.5828072981
 20
5.6539564362
 10
-43.5813291404
 20
5.6451527396
 10
-43.5797781319
 20
5.6364186598
 10
-43.5781545824
 20
5.6277547763
  0
LINE
  5
294
100
AcDbEntity
  8
C_COPERCHIO
100
AcDbLine
 62
7
  6
CONTINUOUS
 10
-43.9151545111
 20
8.5950008834
 11
-41.3174875341
 21
12.806651199
  0
LWPOLYLINE
  5
295
100
AcDbEntity
  8
C_COPERCHIO
100
AcDbPolyline
 62
250
  6
CONTINUOUS
 90
3
 70
0
 10
-42.7927225477
 20
6.8899025317
 10
-43.1861811881
 20
6.2584584423
 10
-43.5781548371
 20
5.6277500531
  0
LWPOLYLINE
  5
296
100
AcDbEntity
  8
C_COPERCHIO
100
AcDbPolyline
 62
250
  6
CONTINUOUS
 90
7
 70
0
 10
-44.8871474562
 20
8.1090044109
 10
-44.3422505581
 20
8.9795324863
 10
-43.7945488185
 20
9.8514212056
 10
-43.2440422374
 20
10.7246705689
 10
-42.6907308146
 20
11.5992805761
 10
-42.1346145503
 20
12.4752512273
 10
-41.6564696852
 20
13.2257890927
  0
LWPOLYLINE
  5
297
100
AcDbEntity
  8
C_COPERCHIO
100
AcDbPolyline
 62
250
  6
CONTINUOUS
 90
8
 70
0
 10
-39.9969894323
 20
11.3302906709
 10
-40.4008181321
 20
10.6938004624
 10
-40.8031681121
 20
10.0580199847
 10
-41.2040392735
 20
9.4229533812
 10
-41.6034334367
 20
8.7886057795
 10
-42.0013486063
 20
8.1549803285
 10
-42.3977789704
 20
7.5220781984
 10
-42.7927225477
 20
6.8899025317
  0
LWPOLYLINE
  5
298
100
AcDbEntity
  8
C_COPERCHIO
100
AcDbPolyline
 62
7
  6
CONTINUOUS
 90
10
 70
0
 10
-40.2062033004
 20
11.4342256145
 10
-40.45299921
 20
11.0455380705
 10
-40.8563491662
 20
10.4089465138
 10
-41.2582182628
 20
9.7730710128
 10
-41.6586050097
 20
9.1379138954
 10
-42.0575078769
 20
8.5034775503
 10
-42.4549253313
 20
7.8697643714
 10
-42.850855832
 20
7.236776764
 10
-43.2452978318
 20
6.6045171437
 10
-43.5049556257
 20
6.1873970849
  0
LWPOLYLINE
  5
299
100
AcDbEntity
  8
C_COPERCHIO
100
AcDbPolyline
 62
7
  6
CONTINUOUS
 90
10
 70
0
 10
-37.4803174847
 20
-10.2708564236
 10
-37.2804622945
 20
-10.3633654024
 10
-37.0824349557
 20
-10.4568151097
 10
-36.8862354682
 20
-10.5512055453
 10
-36.6918459637
 20
-10.6465456435
 10
-36.4992843105
 20
-10.7428264701
 10
-36.3086041141
 20
-10.8400212223
 10
-36.1198232429
 20
-10.9381209661
 10
-35.9329238285
 20
-11.0371346355
 10
-35.7479058708
 20
-11.1370622306
  0
LINE
  5
29A
100
AcDbEntity
  8
C_COPERCHIO
100
AcDbLine
 62
7
  6
CONTINUOUS
 10
-35.6737363237
 20
-10.3783770503
 11
-36.6845475309
 21
-9.8729714467
  0
LINE
  5
29B
100
AcDbEntity
  8
C_MOLLE_IDEA
100
AcDbLine
 62
7
  6
CONTINUOUS
 10
-41.7113889389
 20
29.8732665194
 11
-41.6061721005
 21
28.3477383178
  0
LINE
  5
29C
100
AcDbEntity
  8
C_COPERCHIO
100
AcDbLine
 62
7
  6
CONTINUOUS
 10
-37.8358884923
 20
32.6304348997
 11
-37.8358884923
 21
33.0604601198
  0
LINE
  5
29D
100
AcDbEntity
  8
C_MOLLE_IDEA
100
AcDbLine
 62
7
  6
CONTINUOUS
 10
-36.5358937342
 20
25.8125991347
 11
-36.4306768958
 21
27.2329104978
  0
LINE
  5
29E
100
AcDbEntity
  8
C_MOLLE_IDEA
100
AcDbLine
 62
7
  6
CONTINUOUS
 10
-36.2535965124
 20
25.9466569683
 11
-36.1567444168
 21
27.2540535216
  0
LWPOLYLINE
  5
29F
100
AcDbEntity
  8
C_MOLLE_IDEA
100
AcDbPolyline
 62
7
  6
CONTINUOUS
 90
14
 70
0
 10
-36.4306768958
 20
27.2329104978
 10
-36.4296331143
 20
27.2430847638
 10
-36.428070429
 20
27.2528218373
 10
-36.4259888399
 20
27.2621217182
 10
-36.4233764621
 20
27.2710165077
 10
-36.4202451806
 20
27.2794741048
 10
-36.41663065
 20
27.2873982058
 10
-36.4125273468
 20
27.2947827129
 10
-36.4079407946
 20
27.3016337241
 10
-36.4029232187
 20
27.3078732294
 10
-36.3974696924
 20
27.3134942393
 10
-36.3915851425
 20
27.3185037433
 10
-36.3853365739
 20
27.3228447001
 10
-36.3792268586
 20
27.3262632906
  0
LINE
  5
2A0
100
AcDbEntity
  8
C_MOLLE_IDEA
100
AcDbLine
 62
250
  6
CONTINUOUS
 10
-34.6597568062
 20
29.8042653291
 11
-34.7471600111
 21
29.4311080853
  0
LINE
  5
2A1
100
AcDbEntity
  8
C_MOLLE_IDEA
100
AcDbLine
 62
250
  6
CONTINUOUS
 10
-33.9042969471
 20
27.5588244221
 11
-33.8168937423
 21
27.931981666
  0
LINE
  5
2A2
100
AcDbEntity
  8
C_MOLLE_IDEA
100
AcDbLine
 62
250
  6
CONTINUOUS
 10
-32.6091471408
 20
28.7789604964
 11
-32.6295784003
 21
28.6917317443
  0
LWPOLYLINE
  5
2A3
100
AcDbEntity
  8
C_MOLLE_IDEA
100
AcDbPolyline
 62
7
  6
CONTINUOUS
 90
12
 70
0
 10
-32.5489174022
 20
28.7196220653
 10
-32.5495787631
 20
28.7174878456
 10
-32.5513352519
 20
28.7140662343
 10
-32.5539234181
 20
28.7108659047
 10
-32.5573327428
 20
28.7078840581
 10
-32.5615197389
 20
28.705158729
 10
-32.5664943682
 20
28.7026932033
 10
-32.5722466689
 20
28.7004841951
 10
-32.5787032684
 20
28.6985598811
 10
-32.5858397091
 20
28.6969296534
 10
-32.5936804486
 20
28.6955841199
 10
-32.6022254869
 20
28.6945232806
  0
LWPOLYLINE
  5
2A4
100
AcDbEntity
  8
C_MOLLE_IDEA
100
AcDbPolyline
 62
7
  6
CONTINUOUS
 90
12
 70
0
 10
-30.6813366207
 20
29.1901922223
 10
-30.6806752598
 20
29.192326442
 10
-30.678918771
 20
29.1957480533
 10
-30.6763306048
 20
29.1989483829
 10
-30.6729212801
 20
29.2019302295
 10
-30.668734284
 20
29.2046555586
 10
-30.6637596547
 20
29.2071210843
 10
-30.6580073541
 20
29.2093300925
 10
-30.6515507546
 20
29.2112544065
 10
-30.6444143138
 20
29.2128846342
 10
-30.6365735743
 20
29.2142301677
 10
-30.628028536
 20
29.2152910071
  0
LINE
  5
2A5
100
AcDbEntity
  8
C_COPERCHIO
100
AcDbLine
 62
7
  6
CONTINUOUS
 10
-18.631375344
 20
24.9900547483
 11
-19.8873442426
 21
24.3260953046
  0
LINE
  5
2A6
100
AcDbEntity
  8
C_COPERCHIO
100
AcDbLine
 62
7
  6
CONTINUOUS
 10
-27.9414221712
 20
21.4752973399
 11
-25.4956921719
 21
22.746064355
  0
LINE
  5
2A7
100
AcDbEntity
  8
C_COPERCHIO
100
AcDbLine
 62
7
  6
CONTINUOUS
 10
-24.2962249985
 20
23.3692906801
 11
-19.928580691
 21
25.6386574218
  0
LINE
  5
2A8
100
AcDbEntity
  8
C_COPERCHIO
100
AcDbLine
 62
7
  6
CONTINUOUS
 10
-22.445566024
 20
24.7618887596
 11
-27.509837045
 21
22.1662387631
  0
LINE
  5
2A9
100
AcDbEntity
  8
C_COPERCHIO
100
AcDbLine
 62
7
  6
CONTINUOUS
 10
-22.1788252177
 20
22.5825702965
 11
-22.5293107182
 21
22.4029318679
  0
LINE
  5
2AA
100
AcDbEntity
  8
C_COPERCHIO
100
AcDbLine
 62
7
  6
CONTINUOUS
 10
-24.4675965457
 20
21.4094795861
 11
-26.7832671649
 21
20.2226018677
  0
LINE
  5
2AB
100
AcDbEntity
  8
C_CORPO
100
AcDbLine
 62
7
  6
CONTINUOUS
 10
-27.5667391689
 20
22.194689825
 11
-24.1864351734
 21
23.8978750444
  0
LINE
  5
2AC
100
AcDbEntity
  8
ASSI
100
AcDbLine
 62
7
  6
CONTINUOUS
 10
-27.5667391689
 20
22.194689825
 11
-24.1864351734
 21
23.8978750444
  0
LINE
  5
2AD
100
AcDbEntity
  8
C_COPERCHIO
100
AcDbLine
 62
7
  6
CONTINUOUS
 10
-26.7832671649
 20
20.8962198368
 11
-25.1154149955
 21
21.733388811
  0
LINE
  5
2AE
100
AcDbEntity
  8
C_COPERCHIO
100
AcDbLine
 62
7
  6
CONTINUOUS
 10
-21.2335828936
 20
23.6818525048
 11
-20.1582189626
 21
24.2216253549
  0
LINE
  5
2AF
100
AcDbEntity
  8
C_MOLLE_IDEA
100
AcDbLine
 62
7
  6
CONTINUOUS
 10
-25.141029328
 20
23.1071961278
 11
-24.7774611954
 21
23.2889801941
  0
LINE
  5
2B0
100
AcDbEntity
  8
C_CORPO
100
AcDbLine
 62
7
  6
CONTINUOUS
 10
-24.1864351734
 20
23.8978750444
 11
-22.4776074707
 21
24.7454661826
  0
LINE
  5
2B1
100
AcDbEntity
  8
ASSI
100
AcDbLine
 62
7
  6
CONTINUOUS
 10
-24.1864351734
 20
23.8978750444
 11
-22.4776074707
 21
24.7454661826
  0
LINE
  5
2B2
100
AcDbEntity
  8
C_CORPO
100
AcDbLine
 62
7
  6
CONTINUOUS
 10
-22.4250729282
 20
24.7715237029
 11
-20.6431378227
 21
25.6553766518
  0
LINE
  5
2B3
100
AcDbEntity
  8
ASSI
100
AcDbLine
 62
7
  6
CONTINUOUS
 10
-22.4250729282
 20
24.7715237029
 11
-20.6431378227
 21
25.6553766518
  0
LWPOLYLINE
  5
2B4
100
AcDbEntity
  8
C_MOLLE_IDEA
100
AcDbPolyline
 62
7
  6
CONTINUOUS
 90
10
 70
0
 10
-24.7774611954
 20
23.2889801941
 10
-24.7601518941
 20
23.2972618104
 10
-24.7429055775
 20
23.3047779939
 10
-24.7257222457
 20
23.3115287445
 10
-24.7085811338
 20
23.3175204168
 10
-24.6915030066
 20
23.3227466562
 10
-24.6745501589
 20
23.3271883994
 10
-24.6577433554
 20
23.3308392919
 10
-24.6410618314
 20
23.3337056882
 10
-24.6245055868
 20
23.3357875883
  0
LINE
  5
2B5
100
AcDbEntity
  8
C_COPERCHIO
100
AcDbLine
 62
7
  6
CONTINUOUS
 10
-21.0841141254
 20
25.4019829656
 11
-22.445566024
 21
24.7618887596
  0
LINE
  5
2B6
100
AcDbEntity
  8
C_COPERCHIO
100
AcDbLine
 62
250
  6
CONTINUOUS
 10
-43.4216465313
 20
6.3212266682
 11
-43.8959496908
 21
6.8971682816
  0
LINE
  5
2B7
100
AcDbEntity
  8
C_COPERCHIO
100
AcDbLine
 62
250
  6
CONTINUOUS
 10
-43.5781548371
 20
5.6277500531
 11
-44.2389134128
 21
6.4303396241
  0
LINE
  5
2B8
100
AcDbEntity
  8
C_COPERCHIO
100
AcDbLine
 62
250
  6
CONTINUOUS
 10
-43.8959496908
 20
6.8971682816
 11
-44.3936922924
 21
7.502042404
  0
LINE
  5
2B9
100
AcDbEntity
  8
C_COPERCHIO
100
AcDbLine
 62
250
  6
CONTINUOUS
 10
-44.2389134128
 20
6.4303396241
 11
-44.8991713988
 21
7.2331539959
  0
LINE
  5
2BA
100
AcDbEntity
  8
C_COPERCHIO
100
AcDbLine
 62
250
  6
CONTINUOUS
 10
-44.3936922924
 20
7.502042404
 11
-44.8911486642
 21
8.1070451414
  0
LINE
  5
2BB
100
AcDbEntity
  8
C_COPERCHIO
100
AcDbLine
 62
250
  6
CONTINUOUS
 10
-44.8991713988
 20
7.2331539959
 11
-45.5589288295
 21
8.0361923874
  0
LINE
  5
2BC
100
AcDbEntity
  8
C_OTTURATORE
100
AcDbLine
 62
7
  6
CONTINUOUS
 10
-43.8591327788
 20
8.6858300577
 11
-43.5290301584
 21
8.1289075589
  0
LWPOLYLINE
  5
2BD
100
AcDbEntity
  8
C_COPERCHIO
100
AcDbPolyline
 62
7
  6
CONTINUOUS
 90
28
 70
0
 10
-37.6007464564
 20
-2.4935410052
 10
-37.5599292969
 20
-2.7604484735
 10
-37.5218935144
 20
-3.0292355665
 10
-37.486639109
 20
-3.2999022842
 10
-37.4541619674
 20
-3.572486814
 10
-37.4244662029
 20
-3.8469509684
 10
-37.3975641545
 20
-4.1231801851
 10
-37.3734569828
 20
-4.4011751964
 10
-37.3521435272
 20
-4.6809352698
 10
-37.3336326452
 20
-4.9623436464
 10
-37.3179255008
 20
-5.24540101
 10
-37.30502093
 20
-5.5301066767
 10
-37.2949242975
 20
-5.8163418353
 10
-37.2876367696
 20
-6.1041071207
 10
-37.2831571801
 20
-6.3934018979
 10
-37.2814873944
 20
-6.6841054508
 10
-37.2826285798
 20
-6.9762183647
 10
-37.286579569
 20
-7.2697400542
 10
-37.2933387263
 20
-7.5645480474
 10
-37.3029072181
 20
-7.8606428792
 10
-37.3152838779
 20
-8.1580240147
 10
-37.3304635704
 20
-8.4565673774
 10
-37.34844746
 20
-8.756273451
 10
-37.3692343823
 20
-9.0571417519
 10
-37.3928157088
 20
-9.3590467524
 10
-37.4191885632
 20
-9.6619466099
 10
-37.4483558219
 20
-9.965883167
 10
-37.4803174847
 20
-10.2708564236
  0
LWPOLYLINE
  5
2BE
100
AcDbEntity
  8
C_COPERCHIO
100
AcDbPolyline
 62
7
  6
CONTINUOUS
 90
7
 70
0
 10
-34.5999232086
 20
32.5627801281
 10
-34.599931654
 20
32.563289029
 10
-34.6003339235
 20
32.5663199207
 10
-34.6013590053
 20
32.5689219567
 10
-34.6030425719
 20
32.5710825291
 10
-34.6054094438
 20
32.5727880208
 10
-34.6057982594
 20
32.5729905791
  0
LINE
  5
2BF
100
AcDbEntity
  8
C_COPERCHIO
100
AcDbLine
 62
7
  6
CONTINUOUS
 10
-36.6845475309
 20
-9.8729714467
 11
-36.6845475309
 21
-2.9329815053
  0
LINE
  5
2C0
100
AcDbEntity
  8
C_COPERCHIO
100
AcDbLine
 62
7
  6
CONTINUOUS
 10
-36.2242967777
 20
32.2546642625
 11
-36.2242967777
 21
31.932448739
  0
LINE
  5
2C1
100
AcDbEntity
  8
C_COPERCHIO
100
AcDbLine
 62
7
  6
CONTINUOUS
 10
-35.7834245706
 20
33.4515430707
 11
-35.7834245706
 21
33.1618037347
  0
LINE
  5
2C2
100
AcDbEntity
  8
C_COPERCHIO
100
AcDbLine
 62
7
  6
CONTINUOUS
 10
-35.7377249864
 20
24.2867531489
 11
-35.7377249864
 21
24.9646944178
  0
LINE
  5
2C3
100
AcDbEntity
  8
C_COPERCHIO
100
AcDbLine
 62
250
  6
CONTINUOUS
 10
-34.8865326211
 20
32.4422395944
 11
-34.8865326211
 21
31.9735694965
  0
LINE
  5
2C4
100
AcDbEntity
  8
C_MOLLE_IDEA
100
AcDbLine
 62
7
  6
CONTINUOUS
 10
-34.8283922302
 20
26.5898774284
 11
-34.8283922302
 21
26.8496850495
  0
LINE
  5
2C5
100
AcDbEntity
  8
C_COPERCHIO
100
AcDbLine
 62
7
  6
CONTINUOUS
 10
-34.5999244206
 20
32.562780595
 11
-34.5999244206
 21
32.0031814229
  0
LINE
  5
2C6
100
AcDbEntity
  8
C_MOLLE_IDEA
100
AcDbLine
 62
7
  6
CONTINUOUS
 10
-34.5455495178
 20
26.7312987846
 11
-34.5455495178
 21
26.9911064057
  0
LINE
  5
2C7
100
AcDbEntity
  8
C_COPERCHIO
100
AcDbLine
 62
250
  6
CONTINUOUS
 10
-34.3447305735
 20
24.0033335721
 11
-34.3447305735
 21
24.6769515411
  0
LINE
  5
2C8
100
AcDbEntity
  8
C_MOLLE_IDEA
100
AcDbLine
 62
250
  6
CONTINUOUS
 10
-34.3334174834
 20
27.356980044
 11
-34.3334174834
 21
27.7033902055
  0
LWPOLYLINE
  5
2C9
100
AcDbEntity
  8
C_MOLLE_IDEA
100
AcDbPolyline
 62
7
  6
CONTINUOUS
 90
19
 70
0
 10
-34.8283922302
 20
26.8496850495
 10
-34.8263905374
 20
26.90417419
 10
-34.8207685856
 20
26.9592854018
 10
-34.8115263747
 20
27.0150186849
 10
-34.7985390971
 20
27.0718054745
 10
-34.7819315604
 20
27.1292143354
 10
-34.7620781884
 20
27.1859509617
 10
-34.7389052482
 20
27.242000083
 10
-34.7124864726
 20
27.2973769698
 10
-34.6834174834
 20
27.3508331279
 10
-34.6516380782
 20
27.4023249259
 10
-34.6172084595
 20
27.4518959952
 10
-34.5809048568
 20
27.4984287362
 10
-34.5426847006
 20
27.5418541299
 10
-34.5025905604
 20
27.5822411953
 10
-34.4615263747
 20
27.6186793899
 10
-34.4197934564
 20
27.6508651993
 10
-34.3770904927
 20
27.6791021379
 10
-34.3334174834
 20
27.7033902055
  0
LWPOLYLINE
  5
2CA
100
AcDbEntity
  8
C_MOLLE_IDEA
100
AcDbPolyline
 62
7
  6
CONTINUOUS
 90
16
 70
0
 10
-34.5455495178
 20
26.9911064057
 10
-34.5442829855
 20
27.0193745344
 10
-34.5408221586
 20
27.0478666046
 10
-34.535167037
 20
27.0765826163
 10
-34.527208382
 20
27.1058397657
 10
-34.5170554324
 20
27.1353208566
 10
-34.5050359043
 20
27.1640743006
 10
-34.491088893
 20
27.1920763554
 10
-34.4752753032
 20
27.2193507633
 10
-34.4581055647
 20
27.245017163
 10
-34.4395354278
 20
27.2690230869
 10
-34.4196091422
 20
27.2914210027
 10
-34.3989698871
 20
27.3114879521
 10
-34.3778320554
 20
27.3289829491
 10
-34.3559812542
 20
27.3441469798
 10
-34.3334174834
 20
27.356980044
  0
LINE
  5
2CB
100
AcDbEntity
  8
C_MOLLE_IDEA
100
AcDbLine
 62
250
  6
CONTINUOUS
 10
-30.628028536
 20
29.2152910071
 11
-30.6447135695
 21
29.1440563068
  0
LINE
  5
2CC
100
AcDbEntity
  8
C_CORPO
100
AcDbLine
 62
250
  6
CONTINUOUS
 10
-18.7166985362
 20
20.5093090271
 11
-18.7288995658
 21
20.5027262917
  0
LINE
  5
2CD
100
AcDbEntity
  8
ASSI
100
AcDbLine
 62
250
  6
CONTINUOUS
 10
-18.7166985362
 20
20.5093090271
 11
-18.7288995658
 21
20.5027262917
  0
LINE
  5
2CE
100
AcDbEntity
  8
C_COPERCHIO
100
AcDbLine
 62
7
  6
CONTINUOUS
 10
-19.9842431885
 20
22.049649674
 11
-20.6463797234
 21
21.6983335329
  0
LINE
  5
2CF
100
AcDbEntity
  8
C_COPERCHIO
100
AcDbLine
 62
7
  6
CONTINUOUS
 10
-23.9583108283
 20
19.9410904359
 11
-24.3632118687
 21
19.7262582019
  0
LINE
  5
2D0
100
AcDbEntity
  8
C_COPERCHIO
100
AcDbLine
 62
7
  6
CONTINUOUS
 10
-18.5466272481
 20
23.4158294977
 11
-18.3113763732
 21
23.5381113699
  0
LINE
  5
2D1
100
AcDbEntity
  8
C_COPERCHIO
100
AcDbLine
 62
7
  6
CONTINUOUS
 10
-43.9151545111
 20
8.5950008834
 11
-44.8871474562
 21
8.1090044109
  0
LINE
  5
2D2
100
AcDbEntity
  8
C_OTTURATORE
100
AcDbLine
 62
7
  6
CONTINUOUS
 10
-41.9826867191
 20
8.6224771009
 11
-43.3652429947
 21
7.931198963
  0
LINE
  5
2D3
100
AcDbEntity
  8
C_COPERCHIO
100
AcDbLine
 62
7
  6
CONTINUOUS
 10
-44.8911486642
 20
8.1070451414
 11
-44.8871474559
 21
8.109004411
  0
LWPOLYLINE
  5
2D4
100
AcDbEntity
  8
C_COPERCHIO
100
AcDbPolyline
 62
7
  6
CONTINUOUS
 90
79
 70
0
 10
-44.8911487726
 20
8.1070450891
 10
-44.89881733
 20
8.1034503056
 10
-44.9066720715
 20
8.0999434374
 10
-44.9147036988
 20
8.0965212803
 10
-44.9229065809
 20
8.0931756762
 10
-44.9312683957
 20
8.0899078173
 10
-44.939770029
 20
8.0867280999
 10
-44.9484022313
 20
8.0836325992
 10
-44.9571574044
 20
8.0806169096
 10
-44.9660191782
 20
8.0776903584
 10
-44.974978969
 20
8.0748487841
 10
-44.9840299768
 20
8.0720872763
 10
-44.9931589552
 20
8.0694140439
 10
-45.0023581836
 20
8.0668248559
 10
-45.0116215983
 20
8.0643146047
 10
-45.0209389722
 20
8.0618904666
 10
-45.0303035191
 20
8.0595482694
 10
-45.0397098348
 20
8.0572829381
 10
-45.0491503051
 20
8.0551007655
 10
-45.0586190529
 20
8.0529977261
 10
-45.0681112584
 20
8.0509689282
 10
-45.0776213887
 20
8.0490199421
 10
-45.0871444296
 20
8.047146932
 10
-45.0966760405
 20
8.0453452855
 10
-45.1062121222
 20
8.0436200176
 10
-45.1157482564
 20
8.0419675326
 10
-45.1252806772
 20
8.0403834938
 10
-45.134806609
 20
8.0388724137
 10
-45.1443223491
 20
8.0374309142
 10
-45.1538244242
 20
8.0360549959
 10
-45.1633106713
 20
8.0347488173
 10
-45.172777869
 20
8.0335092205
 10
-45.1822229163
 20
8.0323325054
 10
-45.1916440326
 20
8.0312225362
 10
-45.2010383961
 20
8.0301763581
 10
-45.2104032282
 20
8.0291905442
 10
-45.2197369586
 20
8.0282687113
 10
-45.2290370988
 20
8.0274080869
 10
-45.2383011485
 20
8.0266054898
 10
-45.2475276206
 20
8.0258643242
 10
-45.2567143081
 20
8.0251819794
 10
-45.2658589501
 20
8.0245554914
 10
-45.2749600454
 20
8.0239880794
 10
-45.2840156302
 20
8.0234772738
 10
-45.2930236478
 20
8.0230203005
 10
-45.3019824996
 20
8.0226202146
 10
-45.3108904338
 20
8.0222746681
 10
-45.3197455715
 20
8.0219810507
 10
-45.3285461488
 20
8.021742268
 10
-45.3372906027
 20
8.0215560751
 10
-45.3459772115
 20
8.021420001
 10
-45.3546039904
 20
8.02133681
 10
-45.3631695498
 20
8.021304344
 10
-45.3716723099
 20
8.0213202485
 10
-45.3801100165
 20
8.0213871485
 10
-45.388481374
 20
8.021502958
 10
-45.3967850057
 20
8.0216654166
 10
-45.4050185533
 20
8.0218770101
 10
-45.4131809438
 20
8.0221357196
 10
-45.4212708567
 20
8.0224393651
 10
-45.4292855879
 20
8.0227902827
 10
-45.4372241904
 20
8.023186505
 10
-45.4450854984
 20
8.0236259167
 10
-45.4528665208
 20
8.0241106926
 10
-45.4605664642
 20
8.0246389108
 10
-45.4681842966
 20
8.0252085069
 10
-45.475716733
 20
8.0258214746
 10
-45.4831631374
 20
8.0264759331
 10
-45.490522623
 20
8.0271698577
 10
-45.4977916176
 20
8.0279050368
 10
-45.5049696484
 20
8.0286796274
 10
-45.5120559906
 20
8.0294916375
 10
-45.5190468152
 20
8.0303426232
 10
-45.5259418207
 20
8.0312307913
 10
-45.5327404643
 20
8.0321541675
 10
-45.5394387114
 20
8.0331140114
 10
-45.5460350898
 20
8.0341094958
 10
-45.5525306303
 20
8.035137742
 10
-45.5589251749
 20
8.0361969376
  0
LINE
  5
2D5
100
AcDbEntity
  8
C_COPERCHIO
100
AcDbLine
 62
7
  6
CONTINUOUS
 10
-8.6421708906
 20
-17.8349316996
 11
-7.1379442
 21
-18.5870450449
  0
LWPOLYLINE
  5
2D6
100
AcDbEntity
  8
C_COPERCHIO
100
AcDbPolyline
 62
7
  6
CONTINUOUS
 90
10
 70
0
 10
-35.8683348425
 20
-3.3597468122
 10
-36.0533071795
 20
-3.2597970586
 10
-36.2401725415
 20
-3.1607666888
 10
-36.4289309282
 20
-3.0626557029
 10
-36.6196004256
 20
-2.9654550579
 10
-36.8121629479
 20
-2.8691737968
 10
-37.0065642378
 20
-2.7738390481
 10
-37.2027862096
 20
-2.6794598547
 10
-37.4008469492
 20
-2.5860271737
 10
-37.6007464564
 20
-2.4935410052
  0
LINE
  5
2D7
100
AcDbEntity
  8
C_COPERCHIO
100
AcDbLine
 62
7
  6
CONTINUOUS
 10
-42.8246597757
 20
7.2786572935
 11
-43.9151545111
 21
8.5950008834
  0
LWPOLYLINE
  5
2D8
100
AcDbEntity
  8
C_COPERCHIO
100
AcDbPolyline
 62
250
  6
CONTINUOUS
 90
20
 70
0
 10
-32.5513162762
 20
-7.3070978285
 10
-32.5223342156
 20
-7.4157559455
 10
-32.4947815602
 20
-7.524258468
 10
-32.4686611937
 20
-7.6325929612
 10
-32.4440009406
 20
-7.7406227365
 10
-32.4208037619
 20
-7.8483446334
 10
-32.3990686865
 20
-7.9557563168
 10
-32.3788150969
 20
-8.0627213242
 10
-32.3600456305
 20
-8.1692348779
 10
-32.3427583913
 20
-8.2752960147
 10
-32.3269633615
 20
-8.3807730598
 10
-32.312662532
 20
-8.4856604134
 10
-32.2998533515
 20
-8.5899578596
 10
-32.288536401
 20
-8.693540964
 10
-32.2787129059
 20
-8.7964035185
 10
-32.2703797783
 20
-8.8985460072
 10
-32.2635286035
 20
-8.9998533
 10
-32.2581549009
 20
-9.100284977
 10
-32.2542597334
 20
-9.1998758802
 10
-32.2518419628
 20
-9.2986235926
  0
LWPOLYLINE
  5
2D9
100
AcDbEntity
  8
C_COPERCHIO
100
AcDbPolyline
 62
250
  6
CONTINUOUS
 90
20
 70
0
 10
-32.4839306364
 20
-7.3160940457
 10
-32.454440017
 20
-7.4267678698
 10
-32.4264045979
 20
-7.5372844141
 10
-32.3998242811
 20
-7.647632927
 10
-32.3747306272
 20
-7.7576691511
 10
-32.351126704
 20
-7.8673930121
 10
-32.3290088394
 20
-7.976804257
 10
-32.3083986565
 20
-8.0857584493
 10
-32.2892996764
 20
-8.1942539611
 10
-32.2717079471
 20
-8.3022921819
 10
-32.2556340613
 20
-8.4097332949
 10
-32.2410816421
 20
-8.51657483
 10
-32.2280468155
 20
-8.6228191116
 10
-32.2165291098
 20
-8.7283336078
 10
-32.2065320905
 20
-8.8331151398
 10
-32.198052122
 20
-8.9371668345
 10
-32.191078109
 20
-9.0403657122
 10
-32.1856064273
 20
-9.1426708129
 10
-32.1816408257
 20
-9.2441231463
 10
-32.1791813565
 20
-9.3447227321
  0
LWPOLYLINE
  5
2DA
100
AcDbEntity
  8
C_COPERCHIO
100
AcDbPolyline
 62
250
  6
CONTINUOUS
 90
154
 70
0
 10
-32.2518419628
 20
-9.2986235926
 10
-32.2508706605
 20
-9.3977106562
 10
-32.2513981864
 20
-9.4960141275
 10
-32.2534250948
 20
-9.5935324361
 10
-32.2569519532
 20
-9.6903060185
 10
-32.2619804771
 20
-9.7862920276
 10
-32.2685118678
 20
-9.8813638216
 10
-32.2765484887
 20
-9.9755183712
 10
-32.2860886307
 20
-10.0687565625
 10
-32.2971248183
 20
-10.1609570513
 10
-32.3096575212
 20
-10.2521110399
 10
-32.3236855862
 20
-10.3422256274
 10
-32.33919678
 20
-10.4312028461
 10
-32.3561895033
 20
-10.5190334222
 10
-32.3746638915
 20
-10.6057255864
 10
-32.3946085709
 20
-10.6912073457
 10
-32.4160227359
 20
-10.7754781457
 10
-32.4389057254
 20
-10.8585383913
 10
-32.4632449952
 20
-10.9403173566
 10
-32.4890404771
 20
-11.0208167744
 10
-32.5162908023
 20
-11.100035658
 10
-32.5449800538
 20
-11.1778990212
 10
-32.5751084833
 20
-11.254408534
 10
-32.6066743358
 20
-11.3295641181
 10
-32.6396571506
 20
-11.4032879411
 10
-32.6740568002
 20
-11.4755805118
 10
-32.7098717724
 20
-11.5464436965
 10
-32.747077948
 20
-11.6158014449
 10
-32.7856750939
 20
-11.6836543008
 10
-32.8256617497
 20
-11.7500048406
 10
-32.8670104015
 20
-11.8147797889
 10
-32.9097212068
 20
-11.8779803685
 10
-32.9537923739
 20
-11.9396091742
 10
-32.999191929
 20
-11.9995946807
 10
-33.0459204097
 20
-12.0579383512
 10
-33.093975763
 20
-12.1146431546
 10
-33.1433205733
 20
-12.1696394631
 10
-33.1939553883
 20
-12.2229284324
 10
-33.2458782995
 20
-12.2745138426
 10
-33.2990466335
 20
-12.324329578
 10
-33.3534639772
 20
-12.3723784961
 10
-33.4091256504
 20
-12.4186630777
 10
-33.4659748407
 20
-12.4631160887
 10
-33.5240122339
 20
-12.5057369122
 10
-33.5832359937
 20
-12.5465316207
 10
-33.6435836506
 20
-12.5854423274
 10
-33.7050534784
 20
-12.6224674083
 10
-33.7676461439
 20
-12.6576139284
 10
-33.8313010634
 20
-12.690836328
 10
-33.8960188237
 20
-12.7221347752
 10
-33.9617982761
 20
-12.7515145115
 10
-34.0285746839
 20
-12.7789368634
 10
-34.0963470353
 20
-12.8044014965
 10
-34.1651163165
 20
-12.8279139713
 10
-34.2348193427
 20
-12.8494437014
 10
-34.3054558311
 20
-12.8689910738
 10
-34.3770268315
 20
-12.8865607036
 10
-34.4494698657
 20
-12.9021275927
 10
-34.5227865478
 20
-12.9156925486
 10
-34.5969769899
 20
-12.9272594874
 10
-34.6719752166
 20
-12.9368072832
 10
-34.7477847473
 20
-12.9443363293
 10
-34.8244047508
 20
-12.9498505666
 10
-34.9017613944
 20
-12.9533333059
 10
-34.979859847
 20
-12.9547837807
 10
-35.0586984547
 20
-12.9542065405
 10
-35.1381916133
 20
-12.951591837
 10
-35.2183422396
 20
-12.9469378617
 10
-35.299151472
 20
-12.9402494358
 10
-35.3805293391
 20
-12.9315256048
 10
-35.462477713
 20
-12.9207643166
 10
-35.5449992531
 20
-12.907969789
 10
-35.6280034411
 20
-12.8931492889
 10
-35.7114925366
 20
-12.8763005502
 10
-35.7954692875
 20
-12.8574271516
 10
-35.8798421775
 20
-12.8365439385
 10
-35.9646141957
 20
-12.8136481459
 10
-36.0497877764
 20
-12.7887429987
 10
-36.1352687929
 20
-12.7618511264
 10
-36.2210611168
 20
-12.7329688631
 10
-36.3071665789
 20
-12.7020994774
 10
-36.3934860936
 20
-12.6692747663
 10
-36.4800227079
 20
-12.6344906169
 10
-36.5667791101
 20
-12.5977498616
 10
-36.6536536456
 20
-12.5590934546
 10
-36.7406485334
 20
-12.5185170813
 10
-36.8277671222
 20
-12.476022924
 10
-36.9149073291
 20
-12.4316604315
 10
-37.0020710935
 20
-12.3854249438
 10
-37.0892617115
 20
-12.3373182141
 10
-37.1763769381
 20
-12.2873980921
 10
-37.2634179615
 20
-12.2356598636
 10
-37.3503883103
 20
-12.1821046496
 10
-37.4371869941
 20
-12.126797878
 10
-37.5238135676
 20
-12.0697356291
 10
-37.6102725086
 20
-12.0109176559
 10
-37.6964679595
 20
-11.9504138023
 10
-37.7823997047
 20
-11.8882199255
 10
-37.8680712709
 20
-11.8243356062
 10
-37.9533902
 20
-11.7588352722
 10
-38.0383566409
 20
-11.6917141509
 10
-38.1229729454
 20
-11.6229722059
 10
-38.2071477298
 20
-11.552690033
 10
-38.290881669
 20
-11.4808616068
 10
-38.3741756358
 20
-11.4074880131
 10
-38.4569362183
 20
-11.3326596058
 10
-38.5391619059
 20
-11.2563713463
 10
-38.6208545491
 20
-11.1786232626
 10
-38.7019233745
 20
-11.099512429
 10
-38.7823631698
 20
-11.0190373057
 10
-38.8621781707
 20
-10.9371944608
 10
-38.9412894965
 20
-10.8540773597
 10
-39.0196904863
 20
-10.7696871488
 10
-39.0973857327
 20
-10.6840179746
 10
-39.174311293
 20
-10.5971522133
 10
-39.2504641358
 20
-10.5090880542
 10
-39.3258445399
 20
-10.4198231335
 10
-39.4003918339
 20
-10.3294385329
 10
-39.4741050039
 20
-10.2379296634
 10
-39.5469816777
 20
-10.1452975636
 10
-39.6189574368
 20
-10.051631295
 10
-39.690034908
 20
-9.9569190886
 10
-39.7602073351
 20
-9.8611697921
 10
-39.8293941655
 20
-9.7645027908
 10
-39.8975908389
 20
-9.6669129992
 10
-39.9647963746
 20
-9.5684029587
 10
-40.0309332257
 20
-9.4691027606
 10
-40.0959885009
 20
-9.3690205853
 10
-40.1599681131
 20
-9.2681460639
 10
-40.222820726
 20
-9.166580869
 10
-40.2845263049
 20
-9.0643529077
 10
-40.3450972643
 20
-8.9614327379
 10
-40.404530209
 20
-8.8578359334
 10
-40.4628473729
 20
-8.7535169623
 10
-40.5200206345
 20
-8.6485215006
 10
-40.575969889
 20
-8.5430016203
 10
-40.6306898869
 20
-8.4369480623
 10
-40.6841784172
 20
-8.3303703454
 10
-40.7363573253
 20
-8.223447671
 10
-40.7872158247
 20
-8.1161787023
 10
-40.8367557361
 20
-8.0085650069
 10
-40.8849151716
 20
-7.9007889915
 10
-40.9316823916
 20
-7.7928507438
 10
-40.9770590209
 20
-7.6847503247
 10
-41.0210007816
 20
-7.5766689333
 10
-41.0634954329
 20
-7.468607965
 10
-41.1045442949
 20
-7.3605660084
 10
-41.144121232
 20
-7.2527188767
 10
-41.1822139454
 20
-7.1450690614
 10
-41.2188233538
 20
-7.0376138058
 10
-41.2539412014
 20
-6.9305198792
 10
-41.2875603771
 20
-6.8238423533
 10
-41.3196762393
 20
-6.7175254073
 10
-41.3502836154
 20
-6.6115690123
  0
LWPOLYLINE
  5
2DB
100
AcDbEntity
  8
C_COPERCHIO
100
AcDbPolyline
 62
250
  6
CONTINUOUS
 90
154
 70
0
 10
-32.1791813565
 20
-9.3447227321
 10
-32.1781897618
 20
-9.4456667184
 10
-32.1787248057
 20
-9.545810523
 10
-32.1807864976
 20
-9.6451541431
 10
-32.1843740555
 20
-9.743741392
 10
-32.1894882599
 20
-9.8415284398
 10
-32.1961315532
 20
-9.9383838655
 10
-32.2043075338
 20
-10.0343058382
 10
-32.2140128014
 20
-10.1292962773
 10
-32.2252394794
 20
-10.2232294819
 10
-32.2379898246
 20
-10.3160974743
 10
-32.252261958
 20
-10.4079084157
 10
-32.2680419622
 20
-10.4985609003
 10
-32.2853300318
 20
-10.5880460224
 10
-32.3041264945
 20
-10.6763729483
 10
-32.3244177603
 20
-10.7634674477
 10
-32.3462046149
 20
-10.849328985
 10
-32.3694868934
 20
-10.9339584096
 10
-32.3942496854
 20
-11.0172836255
 10
-32.4204945692
 20
-11.0993060047
 10
-32.4482206823
 20
-11.1800245404
 10
-32.4774095588
 20
-11.259363625
 10
-32.508063247
 20
-11.3373241953
 10
-32.540180512
 20
-11.413905733
 10
-32.5737380721
 20
-11.4890305059
 10
-32.6087377196
 20
-11.5626979221
 10
-32.6451785729
 20
-11.6349090453
 10
-32.6830334475
 20
-11.7055886859
 10
-32.7223040553
 20
-11.7747359516
 10
-32.7629896831
 20
-11.8423522549
 10
-32.8050596118
 20
-11.9083659182
 10
-32.8485159193
 20
-11.9727764387
 10
-32.8933576032
 20
-12.0355848823
 10
-32.9395494208
 20
-12.0967219773
 10
-32.9870937941
 20
-12.1561872197
 10
-33.0359894437
 20
-12.2139817144
 10
-33.0861956675
 20
-12.2700386528
 10
-33.1377148279
 20
-12.3243570337
 10
-33.1905457622
 20
-12.3769384916
 10
-33.2446425663
 20
-12.4277202179
 10
-33.3000106615
 20
-12.4767028595
 10
-33.3566458687
 20
-12.5238864275
 10
-33.4144879664
 20
-12.5692072057
 10
-33.4735395333
 20
-12.6126623603
 10
-33.5337992739
 20
-12.6542554071
 10
-33.5952012337
 20
-12.6939321966
 10
-33.6577453468
 20
-12.7316889095
 10
-33.7214329811
 20
-12.7675300591
 10
-33.7862003933
 20
-12.8014140274
 10
-33.8520494742
 20
-12.833338865
 10
-33.9189796256
 20
-12.8633072119
 10
-33.9869234158
 20
-12.89128436
 10
-34.0558807238
 20
-12.9172679698
 10
-34.1258529377
 20
-12.9412610591
 10
-34.1967749219
 20
-12.9632369735
 10
-34.268646743
 20
-12.9831942238
 10
-34.3414695552
 20
-13.0011349542
 10
-34.415179875
 20
-13.0170379715
 10
-34.4897791284
 20
-13.0309023786
 10
-34.565267048
 20
-13.0427296955
 10
-34.6415776216
 20
-13.0525023608
 10
-34.7187137329
 20
-13.0602193101
 10
-34.7966735826
 20
-13.0658821919
 10
-34.8753841398
 20
-13.069477517
 10
-34.9548496329
 20
-13.0710034074
 10
-35.0350668329
 20
-13.0704622803
 10
-35.1159515217
 20
-13.0678470891
 10
-35.1975054185
 20
-13.0631553443
 10
-35.2797277078
 20
-13.0563900235
 10
-35.3625303628
 20
-13.0475522773
 10
-35.4459137598
 20
-13.0366397927
 10
-35.5298783165
 20
-13.0236553121
 10
-35.6143360522
 20
-13.0086075607
 10
-35.6992874421
 20
-12.99149441
 10
-35.784732683
 20
-12.9723183522
 10
-35.8705833537
 20
-12.9510950316
 10
-35.9568404399
 20
-12.927822213
 10
-36.0435034959
 20
-12.902502424
 10
-36.1304819252
 20
-12.8751584373
 10
-36.2177774993
 20
-12.8457875129
 10
-36.3053888469
 20
-12.8143926078
 10
-36.3932206249
 20
-12.7810050225
 10
-36.4812737924
 20
-12.7456219772
 10
-36.5695476449
 20
-12.7082463898
 10
-36.6579443087
 20
-12.6689180885
 10
-36.746464003
 20
-12.6276344586
 10
-36.8351066132
 20
-12.5843981717
 10
-36.9237737275
 20
-12.5392569651
 10
-37.0124654584
 20
-12.4922081869
 10
-37.1011816466
 20
-12.4432544637
 10
-37.1898234346
 20
-12.39245143
 10
-37.2783904379
 20
-12.3397966377
 10
-37.3668828433
 20
-12.2852924277
 10
-37.4552026135
 20
-12.2290015986
 10
-37.5433480128
 20
-12.1709226881
 10
-37.6313204317
 20
-12.1110569714
 10
-37.7190264885
 20
-12.0494713346
 10
-37.8064649922
 20
-11.986164168
 10
-37.8936366463
 20
-11.9211368173
 10
-37.9804508811
 20
-11.8544605846
 10
-38.066907271
 20
-11.7861332443
 10
-38.1530056188
 20
-11.7161566849
 10
-38.238655672
 20
-11.6446083664
 10
-38.3238580637
 20
-11.5714847825
 10
-38.4086114118
 20
-11.4967890344
 10
-38.4928224221
 20
-11.4206084831
 10
-38.5764901496
 20
-11.3429405945
 10
-38.6596146761
 20
-11.2637874363
 10
-38.7421042376
 20
-11.183243267
 10
-38.823954687
 20
-11.1013089784
 10
-38.9051692079
 20
-11.0179831587
 10
-38.9856670307
 20
-10.9333566095
 10
-39.0654428401
 20
-10.8474326626
 10
-39.1445008997
 20
-10.7602074195
 10
-39.2227748105
 20
-10.6717608378
 10
-39.3002631071
 20
-10.5820928482
 10
-39.3769661224
 20
-10.4912029107
 10
-39.4528201609
 20
-10.399170281
 10
-39.5278261217
 20
-10.3059917115
 10
-39.6019819022
 20
-10.2116698034
 10
-39.6752193187
 20
-10.1162925936
 10
-39.7475435746
 20
-10.0198492787
 10
-39.818948206
 20
-9.9223499865
 10
-39.8893475602
 20
-9.8239141685
 10
-39.9587404479
 20
-9.724537719
 10
-40.0271267749
 20
-9.6242240573
 10
-40.0944225837
 20
-9.5231039504
 10
-40.1606186838
 20
-9.4211865283
 10
-40.2257229873
 20
-9.3184619791
 10
-40.2896772486
 20
-9.2150326887
 10
-40.35246445
 20
-9.1109271792
 10
-40.4141003373
 20
-9.0061162518
 10
-40.4745758368
 20
-8.9006157253
 10
-40.5339163228
 20
-8.7943786311
 10
-40.5920950756
 20
-8.6874512237
 10
-40.6490249308
 20
-8.5799891851
 10
-40.7047051304
 20
-8.4719829669
 10
-40.7591351573
 20
-8.363441443
 10
-40.812228336
 20
-8.254547998
 10
-40.8639791041
 20
-8.145301301
 10
-40.9143918618
 20
-8.035702071
 10
-40.9633950364
 20
-7.9259368517
 10
-41.0109825856
 20
-7.8160058839
 10
-41.0571595316
 20
-7.7059083925
 10
-41.1018710753
 20
-7.5958294925
 10
-41.1451109722
 20
-7.4857709227
 10
-41.1868846134
 20
-7.3757305006
 10
-41.2271548435
 20
-7.2658875606
 10
-41.2659154925
 20
-7.1562451648
 10
-41.3031720611
 20
-7.0467999069
 10
-41.338905097
 20
-6.937721524
 10
-41.3731080023
 20
-6.8290665387
 10
-41.4057869215
 20
-6.7207781996
 10
-41.436941615
 20
-6.6128563861
  0
LINE
  5
2DC
100
AcDbEntity
  8
C_MOLLE_IDEA
100
AcDbLine
 62
250
  6
CONTINUOUS
 10
-33.9698493508
 20
27.5387641103
 11
-33.9698493508
 21
27.8851742719
  0
LINE
  5
2DD
100
AcDbEntity
  8
C_CORPO
100
AcDbLine
 62
7
  6
CONTINUOUS
 10
-33.4495340069
 20
27.6052358308
 11
-33.4495340069
 21
27.3832882714
  0
LINE
  5
2DE
100
AcDbEntity
  8
ASSI
100
AcDbLine
 62
7
  6
CONTINUOUS
 10
-33.4495340069
 20
27.6052358308
 11
-33.4495340069
 21
27.3832882714
  0
LWPOLYLINE
  5
2DF
100
AcDbEntity
  8
C_COPERCHIO
100
AcDbPolyline
 62
7
  6
CONTINUOUS
 90
28
 70
0
 10
-35.7479058708
 20
-11.1370622306
 10
-35.7159441778
 20
-10.8320886624
 10
-35.6867768955
 20
-10.5281518192
 10
-35.660404024
 20
-10.2252517008
 10
-35.6368226877
 20
-9.9233464648
 10
-35.6160357621
 20
-9.6224779537
 10
-35.5980518739
 20
-9.322771695
 10
-35.5828721875
 20
-9.0242281724
 10
-35.5704955384
 20
-8.7268469022
 10
-35.56092706
 20
-8.4307519604
 10
-35.5541679189
 20
-8.1359438821
 10
-35.5502169484
 20
-7.8424221321
 10
-35.5490757824
 20
-7.5503091818
 10
-35.5507455881
 20
-7.2596056164
 10
-35.5552251983
 20
-6.9703108507
 10
-35.5625127455
 20
-6.6825455996
 10
-35.5726093959
 20
-6.3963104981
 10
-35.5855139832
 20
-6.1116049113
 10
-35.6012211407
 20
-5.8285476489
 10
-35.6197320325
 20
-5.5471393948
 10
-35.6410454944
 20
-5.2673794651
 10
-35.6651526671
 20
-4.9893846172
 10
-35.6920547113
 20
-4.7131555834
 10
-35.7217504662
 20
-4.4386916315
 10
-35.7542275909
 20
-4.1661073223
 10
-35.7894819717
 20
-3.8954408428
 10
-35.8275177222
 20
-3.6266540061
 10
-35.8683348425
 20
-3.3597468122
  0
LINE
  5
2E0
100
AcDbEntity
  8
C_COPERCHIO
100
AcDbLine
 62
7
  6
CONTINUOUS
 10
-18.8477789754
 20
16.9685417553
 11
-17.2366303087
 21
17.7939964676
  0
LINE
  5
2E1
100
AcDbEntity
  8
C_COPERCHIO
100
AcDbLine
 62
7
  6
CONTINUOUS
 10
-16.8678799881
 20
17.9829217331
 11
-15.2309023485
 21
18.8216096422
  0
LINE
  5
2E2
100
AcDbEntity
  8
C_COPERCHIO
100
AcDbLine
 62
7
  6
CONTINUOUS
 10
-12.6869013989
 20
20.7258738828
 11
-12.9263910283
 21
20.6057113878
  0
LINE
  5
2E3
100
AcDbEntity
  8
C_MOLLE_IDEA
100
AcDbLine
 62
250
  6
CONTINUOUS
 10
-18.7530073661
 20
18.394075733
 11
-18.5948981028
 21
18.4731303646
  0
LINE
  5
2E4
100
AcDbEntity
  8
C_MOLLE_IDEA
100
AcDbLine
 62
7
  6
CONTINUOUS
 10
-16.6557479537
 20
18.8645554407
 11
-16.2921798211
 21
19.046339507
  0
LINE
  5
2E5
100
AcDbEntity
  8
C_MOLLE_IDEA
100
AcDbLine
 62
7
  6
CONTINUOUS
 10
-16.6557479537
 20
18.5181452792
 11
-16.2921798211
 21
18.6999293455
  0
LINE
  5
2E6
100
AcDbEntity
  8
C_MOLLE_IDEA
100
AcDbLine
 62
250
  6
CONTINUOUS
 10
-16.8678799881
 20
18.1522716409
 11
-17.1507227006
 21
18.0108502847
  0
LINE
  5
2E7
100
AcDbEntity
  8
C_MOLLE_IDEA
100
AcDbLine
 62
7
  6
CONTINUOUS
 10
-16.8678799881
 20
17.8924640198
 11
-17.1507227006
 21
17.7510426635
  0
LWPOLYLINE
  5
2E8
100
AcDbEntity
  8
C_MOLLE_IDEA
100
AcDbPolyline
 62
7
  6
CONTINUOUS
 90
10
 70
0
 10
-16.2921798211
 20
19.046339507
 10
-16.2748705198
 20
19.0546211233
 10
-16.2576242033
 20
19.0621373068
 10
-16.2404408715
 20
19.0688880574
 10
-16.2232997596
 20
19.0748797296
 10
-16.2062216324
 20
19.0801059691
 10
-16.1892687846
 20
19.0845477123
 10
-16.1724619812
 20
19.0881986048
 10
-16.1557804572
 20
19.0910650011
 10
-16.1392242126
 20
19.0931469011
  0
LWPOLYLINE
  5
2E9
100
AcDbEntity
  8
C_MOLLE_IDEA
100
AcDbPolyline
 62
7
  6
CONTINUOUS
 90
10
 70
0
 10
-16.2921798211
 20
18.6999293455
 10
-16.2847615492
 20
18.7034786096
 10
-16.2773702706
 20
18.7066998311
 10
-16.2700059856
 20
18.70959301
 10
-16.2626597948
 20
18.7121608695
 10
-16.2553405974
 20
18.7144006864
 10
-16.2480750912
 20
18.7163042906
 10
-16.2408721754
 20
18.7178689588
 10
-16.2337229509
 20
18.7190974144
 10
-16.2266274175
 20
18.7199896573
  0
LWPOLYLINE
  5
2EA
100
AcDbEntity
  8
C_MOLLE_IDEA
100
AcDbPolyline
 62
7
  6
CONTINUOUS
 90
12
 70
0
 10
-18.7015573289
 20
18.4874285258
 10
-18.6940695301
 20
18.4906709243
 10
-18.6868042325
 20
18.4929644811
 10
-18.6792511515
 20
18.4945473425
 10
-18.6714135393
 20
18.4954275398
 10
-18.6633806398
 20
18.4955950506
 10
-18.6551502209
 20
18.4950417289
 10
-18.6467245147
 20
18.4937757207
 10
-18.6381994616
 20
18.4918114415
 10
-18.6296070416
 20
18.4891536965
 10
-18.6209152747
 20
18.4857976806
 10
-18.6121241609
 20
18.4817433937
  0
LINE
  5
2EB
100
AcDbEntity
  8
C_OTTURATORE
100
AcDbLine
 62
7
  6
CONTINUOUS
 10
-43.2929637963
 20
7.8439502525
 11
-42.7060568732
 21
7.4682718024
  0
LWPOLYLINE
  5
2EC
100
AcDbEntity
  8
C_COPERCHIO
100
AcDbPolyline
 62
7
  6
CONTINUOUS
 90
41
 70
0
 10
-40.1819885159
 20
11.4043515235
 10
-40.1797557028
 20
11.401759005
 10
-40.1773644144
 20
11.3992030726
 10
-40.1748159382
 20
11.3966813593
 10
-40.1721168892
 20
11.3941984897
 10
-40.1692687399
 20
11.3917525744
 10
-40.1662727777
 20
11.3893414035
 10
-40.1631350899
 20
11.3869693589
 10
-40.1598570877
 20
11.3846346283
 10
-40.1564400614
 20
11.3823351372
 10
-40.1528897027
 20
11.380075074
 10
-40.1492073727
 20
11.3778526907
 10
-40.14539437
 20
11.3756660281
 10
-40.1414561157
 20
11.3735191203
 10
-40.137393933
 20
11.3714102721
 10
-40.1332091365
 20
11.3693376208
 10
-40.128906997
 20
11.3673050775
 10
-40.1244888501
 20
11.3653110063
 10
-40.119956001
 20
11.3633536048
 10
-40.1153135682
 20
11.3614366356
 10
-40.1105628342
 20
11.3595584853
 10
-40.1057051679
 20
11.3577174343
 10
-40.1007457441
 20
11.355917161
 10
-40.0956858602
 20
11.3541560864
 10
-40.0905269106
 20
11.3524325361
 10
-40.0852741816
 20
11.3507500935
 10
-40.079928984
 20
11.3491072039
 10
-40.0744927614
 20
11.3475022313
 10
-40.0689709994
 20
11.3459386622
 10
-40.0633650369
 20
11.3444149632
 10
-40.0576763745
 20
11.3429295256
 10
-40.0519107774
 20
11.3414857274
 10
-40.0460696284
 20
11.3400820568
 10
-40.0401544908
 20
11.3387169224
 10
-40.0341714715
 20
11.3373935686
 10
-40.0281220118
 20
11.3361104941
 10
-40.0220077422
 20
11.3348661309
 10
-40.0158351564
 20
11.3336635954
 10
-40.0096075144
 20
11.3325029021
 10
-40.0033247804
 20
11.3313809959
 10
-39.9969885629
 20
11.3302963855
  0
LINE
  5
2ED
100
AcDbEntity
  8
C_COPERCHIO
100
AcDbLine
 62
7
  6
CONTINUOUS
 10
-40.4576195922
 20
11.7445058714
 11
-40.1819885159
 21
11.4043515235
  0
LINE
  5
2EE
100
AcDbEntity
  8
C_COPERCHIO
100
AcDbLine
 62
250
  6
CONTINUOUS
 10
-40.6500615345
 20
12.1367587282
 11
-39.9969894323
 21
11.3302906709
  0
LINE
  5
2EF
100
AcDbEntity
  8
C_COPERCHIO
100
AcDbLine
 62
7
  6
CONTINUOUS
 10
-41.3329786626
 20
12.8257968163
 11
-40.4576195922
 21
11.7445058714
  0
LINE
  5
2F0
100
AcDbEntity
  8
C_COPERCHIO
100
AcDbLine
 62
250
  6
CONTINUOUS
 10
-41.3026129768
 20
12.9434270115
 11
-40.6500615345
 21
12.1367587282
  0
LINE
  5
2F1
100
AcDbEntity
  8
C_COPERCHIO
100
AcDbLine
 62
250
  6
CONTINUOUS
 10
-41.9546438141
 20
13.7502947297
 11
-41.3026129768
 21
12.9434270115
  0
LWPOLYLINE
  5
2F2
100
AcDbEntity
  8
C_COPERCHIO
100
AcDbPolyline
 62
7
  6
CONTINUOUS
 90
43
 70
0
 10
-41.3329786626
 20
12.8257968163
 10
-41.8268440958
 20
13.4365324916
 10
-41.831586886
 20
13.4425853716
 10
-41.8362472948
 20
13.4487583739
 10
-41.8408265319
 20
13.455049422
 10
-41.845326007
 20
13.4614566127
 10
-41.8497431055
 20
13.467973532
 10
-41.8540790329
 20
13.474598244
 10
-41.8583351499
 20
13.4813289133
 10
-41.8625088643
 20
13.4881594761
 10
-41.8666013804
 20
13.4950881189
 10
-41.8706140192
 20
13.5021130626
 10
-41.8745441871
 20
13.5092284607
 10
-41.8783930923
 20
13.5164326055
 10
-41.882162027
 20
13.5237237624
 10
-41.88584838
 20
13.5310961783
 10
-41.8894533714
 20
13.5385482369
 10
-41.8929782757
 20
13.5460782365
 10
-41.8964204556
 20
13.5536803986
 10
-41.8997811155
 20
13.5613531034
 10
-41.9030615631
 20
13.5690947515
 10
-41.9062592352
 20
13.5768996757
 10
-41.9093753934
 20
13.5847664141
 10
-41.9124113076
 20
13.5926932999
 10
-41.9153643754
 20
13.6006744164
 10
-41.9182358765
 20
13.6087083219
 10
-41.9210271127
 20
13.616793396
 10
-41.9237354991
 20
13.6249234877
 10
-41.9263623534
 20
13.6330971986
 10
-41.9289090086
 20
13.641312918
 10
-41.9313729208
 20
13.6495641891
 10
-41.9337554515
 20
13.6578496471
 10
-41.9360579788
 20
13.66616769
 10
-41.9382780324
 20
13.6745115009
 10
-41.9404170228
 20
13.6828797371
 10
-41.9424763863
 20
13.6912708097
 10
-41.9444537717
 20
13.6996775141
 10
-41.9463506447
 20
13.708098518
 10
-41.9481685083
 20
13.7165322551
 10
-41.9499051747
 20
13.7249711395
 10
-41.9515609749
 20
13.7334116749
 10
-41.9531386932
 20
13.741854488
 10
-41.9546398808
 20
13.7502981738
  0
LWPOLYLINE
  5
2F3
100
AcDbEntity
  8
C_COPERCHIO
100
AcDbPolyline
 62
250
  6
CONTINUOUS
 90
10
 70
0
 10
-30.4507876171
 20
-0.9359335437
 10
-30.8328177081
 20
0.0817767097
 10
-31.213336984
 20
1.1002097528
 10
-31.5923454994
 20
2.1193614629
 10
-31.9698452291
 20
3.1392286393
 10
-32.3458343296
 20
4.1598062264
 10
-32.7203071385
 20
5.1810873138
 10
-33.0932618266
 20
6.2030668392
 10
-33.464700398
 20
7.2257415885
 10
-33.8346229516
 20
8.2491074182
  0
LWPOLYLINE
  5
2F4
100
AcDbEntity
  8
C_COPERCHIO
100
AcDbPolyline
 62
250
  6
CONTINUOUS
 90
7
 70
0
 10
-30.062781488
 20
-0.3744281878
 10
-30.5881587018
 20
1.0276922312
 10
-31.1106636313
 20
2.4311545921
 10
-31.6302962764
 20
3.835958895
 10
-32.1470566372
 20
5.2421051398
 10
-32.6609447138
 20
6.6495933266
 10
-33.170088514
 20
8.0532625215
  0
LINE
  5
2F5
100
AcDbEntity
  8
C_COPERCHIO
100
AcDbLine
 62
7
  6
CONTINUOUS
 10
-30.604060558
 20
29.4445461526
 11
-30.604060558
 21
29.1223306291
  0
LINE
  5
2F6
100
AcDbEntity
  8
C_COPERCHIO
100
AcDbLine
 62
7
  6
CONTINUOUS
 10
-28.1762615777
 20
20.5060214446
 11
-28.1762615777
 21
21.1839627134
  0
LWPOLYLINE
  5
2F7
100
AcDbEntity
  8
C_MOLLE_IDEA
100
AcDbPolyline
 62
7
  6
CONTINUOUS
 90
12
 70
0
 10
-23.2920707573
 20
22.8135354493
 10
-23.2914093964
 20
22.8156696689
 10
-23.2896529076
 20
22.8190912802
 10
-23.2870647414
 20
22.8222916098
 10
-23.2836554167
 20
22.8252734564
 10
-23.2794684206
 20
22.8279987855
 10
-23.2744937913
 20
22.8304643112
 10
-23.2687414907
 20
22.8326733194
 10
-23.2622848912
 20
22.8345976335
 10
-23.2551484504
 20
22.8362278611
 10
-23.2473077109
 20
22.8375733946
 10
-23.2387626726
 20
22.838634234
  0
LINE
  5
2F8
100
AcDbEntity
  8
C_COPERCHIO
100
AcDbLine
 62
7
  6
CONTINUOUS
 10
-17.8252160502
 20
16.4171942794
 11
-11.3147993138
 21
19.7999155305
  0
LINE
  5
2F9
100
AcDbEntity
  8
C_COPERCHIO
100
AcDbLine
 62
7
  6
CONTINUOUS
 10
-12.6321562415
 20
16.6986586325
 11
-14.0570725973
 21
15.960886592
  0
LINE
  5
2FA
100
AcDbEntity
  8
C_COPERCHIO
100
AcDbLine
 62
250
  6
CONTINUOUS
 10
-12.5191463558
 20
16.692154835
 11
-13.9421251387
 21
15.9553860022
  0
LINE
  5
2FB
100
AcDbEntity
  8
C_COPERCHIO
100
AcDbLine
 62
7
  6
CONTINUOUS
 10
-10.0420128416
 20
18.5601121684
 11
-16.6670610439
 21
15.1644988072
  0
LINE
  5
2FC
100
AcDbEntity
  8
C_COPERCHIO
100
AcDbLine
 62
7
  6
CONTINUOUS
 10
-16.6670610439
 20
15.8381167763
 11
-8.5131343149
 21
19.9309342338
  0
LINE
  5
2FD
100
AcDbEntity
  8
C_COPERCHIO
100
AcDbLine
 62
7
  6
CONTINUOUS
 10
-9.8103396619
 20
20.5795369073
 11
-11.1109335295
 21
19.9378899481
  0
LINE
  5
2FE
100
AcDbEntity
  8
C_COPERCHIO
100
AcDbLine
 62
7
  6
CONTINUOUS
 10
-7.9735077767
 20
19.5326313654
 11
-10.0420128416
 21
18.5601121684
  0
LWPOLYLINE
  5
2FF
100
AcDbEntity
  8
C_COPERCHIO
100
AcDbPolyline
 62
7
  6
CONTINUOUS
 90
39
 70
0
 10
-28.6294177856
 20
-0.2883488566
 10
-28.6268791846
 20
-0.2949343913
 10
-28.6242426663
 20
-0.3013706101
 10
-28.6214565849
 20
-0.3078022488
 10
-28.6185231585
 20
-0.3142299441
 10
-28.6154468075
 20
-0.3206476313
 10
-28.612229696
 20
-0.3270557007
 10
-28.6088739785
 20
-0.3334547457
 10
-28.6053837854
 20
-0.3398389136
 10
-28.6017611908
 20
-0.3462086308
 10
-28.5980083003
 20
-0.3525644545
 10
-28.5941290655
 20
-0.3589006524
 10
-28.5901254878
 20
-0.3652176869
 10
-28.5859996402
 20
-0.3715160863
 10
-28.5817554039
 20
-0.3777901577
 10
-28.5773947625
 20
-0.3840403477
 10
-28.5729197373
 20
-0.3902672175
 10
-28.5683341297
 20
-0.3964652016
 10
-28.5636398413
 20
-0.4026348316
 10
-28.5588389199
 20
-0.4087766032
 10
-28.5539352891
 20
-0.4148848665
 10
-28.5489308396
 20
-0.4209601702
 10
-28.5438276122
 20
-0.4270030262
 10
-28.5386297026
 20
-0.4330077164
 10
-28.5333389903
 20
-0.4389748259
 10
-28.5279575357
 20
-0.4449048733
 10
-28.5224896922
 20
-0.4507920455
 10
-28.5169373427
 20
-0.4566369639
 10
-28.5113025774
 20
-0.4624401647
 10
-28.5055900868
 20
-0.4681957282
 10
-28.4998017717
 20
-0.4739043105
 10
-28.4939397589
 20
-0.4795664778
 10
-28.4880091397
 20
-0.4851762139
 10
-28.4820118463
 20
-0.490734195
 10
-28.4759500443
 20
-0.4962410413
 10
-28.4698292706
 20
-0.5016907077
 10
-28.463652792
 20
-0.5070816522
 10
-28.4574215372
 20
-0.5124168041
 10
-28.4511375827
 20
-0.5176968589
  0
LINE
  5
300
100
AcDbEntity
  8
C_COPERCHIO
100
AcDbLine
 62
7
  6
CONTINUOUS
 10
-29.080420048
 20
0.1167525323
 11
-32.1874718023
 21
8.2613305045
  0
LWPOLYLINE
  5
301
100
AcDbEntity
  8
C_COPERCHIO
100
AcDbPolyline
 62
7
  6
CONTINUOUS
 90
10
 70
0
 10
-31.8211091304
 20
8.438683633
 10
-31.5407525164
 20
7.6577384697
 10
-31.170980312
 20
6.632072744
 10
-30.7996820935
 20
5.6070971314
 10
-30.4268591676
 20
4.5828152844
 10
-30.052512885
 20
3.5592309765
 10
-29.6766446631
 20
2.5363481636
 10
-29.299255911
 20
1.514170783
 10
-28.9203479973
 20
0.492702662
 10
-28.6294175116
 20
-0.2883495908
  0
LWPOLYLINE
  5
302
100
AcDbEntity
  8
C_COPERCHIO
100
AcDbPolyline
 62
250
  6
CONTINUOUS
 90
10
 70
0
 10
-31.8118502223
 20
8.6788980622
 10
-31.4445134076
 20
7.6542881211
 10
-31.0756562871
 20
6.6303588953
 10
-30.7052787427
 20
5.6071145379
 10
-30.3333785604
 20
4.584558017
 10
-29.9599577397
 20
3.5626946611
 10
-29.5850224964
 20
2.5415321581
 10
-29.2085748481
 20
1.521075828
 10
-28.8306126127
 20
0.5013286245
 10
-28.4511357189
 20
-0.5177053207
  0
LWPOLYLINE
  5
303
100
AcDbEntity
  8
C_COPERCHIO
100
AcDbPolyline
 62
7
  6
CONTINUOUS
 90
41
 70
0
 10
-31.8211094482
 20
8.4386845197
 10
-31.8221651605
 20
8.4417173068
 10
-31.8237058748
 20
8.4464886941
 10
-31.8251386111
 20
8.4513632211
 10
-31.8264628352
 20
8.4563333968
 10
-31.8276805505
 20
8.4613986328
 10
-31.8287938994
 20
8.4665585781
 10
-31.8298022833
 20
8.4718061855
 10
-31.8307076435
 20
8.4771409059
 10
-31.8315120452
 20
8.4825623516
 10
-31.8322148481
 20
8.4880637912
 10
-31.832817944
 20
8.4936447088
 10
-31.8333233371
 20
8.4993046809
 10
-31.8337303718
 20
8.5050371742
 10
-31.8340409039
 20
8.5108416998
 10
-31.8342568931
 20
8.5167177974
 10
-31.8343777
 20
8.5226590208
 10
-31.8344051569
 20
8.5286648368
 10
-31.8343411991
 20
8.5347348104
 10
-31.8341852347
 20
8.5408626753
 10
-31.8339390752
 20
8.5470479828
 10
-31.8336046348
 20
8.5532901945
 10
-31.8331814031
 20
8.5595829301
 10
-31.8326711892
 20
8.5659257191
 10
-31.8320759046
 20
8.5723180129
 10
-31.83139516
 20
8.578753318
 10
-31.8306307707
 20
8.58523116
 10
-31.8297846591
 20
8.5917509537
 10
-31.8288566017
 20
8.5983060294
 10
-31.8278484279
 20
8.604895899
 10
-31.8267620839
 20
8.6115199418
 10
-31.8255975584
 20
8.6181712638
 10
-31.8243567032
 20
8.6248493516
 10
-31.8230414974
 20
8.6315535521
 10
-31.8216521891
 20
8.6382767227
 10
-31.8201906547
 20
8.6450183073
 10
-31.8186589156
 20
8.6517776306
 10
-31.817057534
 20
8.658547319
 10
-31.8153880489
 20
8.6653244682
 10
-31.813652908
 20
8.6721106733
 10
-31.8118540818
 20
8.6789052804
  0
LINE
  5
304
100
AcDbEntity
  8
C_COPERCHIO
100
AcDbLine
 62
250
  6
CONTINUOUS
 10
-26.7832671649
 20
20.2226018677
 11
-26.7832671649
 21
20.8962198368
  0
LINE
  5
305
100
AcDbEntity
  8
C_COPERCHIO
100
AcDbLine
 62
7
  6
CONTINUOUS
 10
-25.6511773064
 20
28.3714661302
 11
-25.6511773064
 21
28.3854194386
  0
LINE
  5
306
100
AcDbEntity
  8
C_MOLLE_IDEA
100
AcDbLine
 62
7
  6
CONTINUOUS
 10
-25.6360040748
 20
21.9936833506
 11
-25.6360040748
 21
22.2534909718
  0
LINE
  5
307
100
AcDbEntity
  8
C_COPERCHIO
100
AcDbLine
 62
250
  6
CONTINUOUS
 10
-25.3548841326
 20
27.5373679692
 11
-25.3548841326
 21
27.0988996357
  0
LINE
  5
308
100
AcDbEntity
  8
C_COPERCHIO
100
AcDbLine
 62
7
  6
CONTINUOUS
 10
-25.0681345817
 20
27.8772655157
 11
-25.0681345817
 21
27.2313300808
  0
LWPOLYLINE
  5
309
100
AcDbEntity
  8
C_MOLLE_IDEA
100
AcDbPolyline
 62
7
  6
CONTINUOUS
 90
19
 70
0
 10
-25.6360040748
 20
22.2534909718
 10
-25.634002382
 20
22.3079801123
 10
-25.6283804301
 20
22.3630913241
 10
-25.6191382193
 20
22.4188246072
 10
-25.6061509417
 20
22.4756113968
 10
-25.589543405
 20
22.5330202577
 10
-25.569690033
 20
22.589756884
 10
-25.5465170928
 20
22.6458060053
 10
-25.5200983171
 20
22.7011828921
 10
-25.491029328
 20
22.7546390502
 10
-25.4592499228
 20
22.8061308481
 10
-25.4248203041
 20
22.8557019175
 10
-25.3885167014
 20
22.9022346585
 10
-25.3502965452
 20
22.9456600522
 10
-25.310202405
 20
22.9860471176
 10
-25.2691382193
 20
23.0224853121
 10
-25.227405301
 20
23.0546711216
 10
-25.1847023372
 20
23.0829080602
 10
-25.141029328
 20
23.1071961278
  0
LINE
  5
30A
100
AcDbEntity
  8
C_MOLLE_IDEA
100
AcDbLine
 62
250
  6
CONTINUOUS
 10
-23.2387626726
 20
22.838634234
 11
-23.2554477061
 21
22.7673995337
  0
LINE
  5
30B
100
AcDbEntity
  8
C_MOLLE_IDEA
100
AcDbLine
 62
250
  6
CONTINUOUS
 10
-21.2885169879
 20
23.0376690311
 11
-21.3759201928
 21
22.6645117872
  0
LINE
  5
30C
100
AcDbEntity
  8
C_MOLLE_IDEA
100
AcDbLine
 62
250
  6
CONTINUOUS
 10
-21.0125959293
 20
22.9806848907
 11
-21.0999991342
 21
22.6075276468
  0
LWPOLYLINE
  5
30D
100
AcDbEntity
  8
C_COPERCHIO
100
AcDbPolyline
 62
7
  6
CONTINUOUS
 90
7
 70
0
 10
-16.9314028733
 20
23.6983579592
 10
-16.9286481569
 20
23.7035375462
 10
-16.9263587431
 20
23.7084181045
 10
-16.9245542402
 20
23.7129746426
 10
-16.9232457082
 20
23.7171813194
 10
-16.9224648274
 20
23.7210137974
 10
-16.922253679
 20
23.7239453633
  0
LINE
  5
30E
100
AcDbEntity
  8
C_CORPO
100
AcDbLine
 62
250
  6
CONTINUOUS
 10
-16.703889952
 20
18.4870631323
 11
-16.7872251236
 21
18.3960336438
  0
LINE
  5
30F
100
AcDbEntity
  8
ASSI
100
AcDbLine
 62
250
  6
CONTINUOUS
 10
-16.703889952
 20
18.4870631323
 11
-16.7872251236
 21
18.3960336438
  0
LINE
  5
310
100
AcDbEntity
  8
C_CORPO
100
AcDbLine
 62
250
  6
CONTINUOUS
 10
-17.3064264764
 20
17.8288945514
 11
-17.4282515748
 21
17.6958213703
  0
LINE
  5
311
100
AcDbEntity
  8
ASSI
100
AcDbLine
 62
250
  6
CONTINUOUS
 10
-17.3064264764
 20
17.8288945514
 11
-17.4282515748
 21
17.6958213703
  0
LINE
  5
312
100
AcDbEntity
  8
C_CORPO
100
AcDbLine
 62
250
  6
CONTINUOUS
 10
-16.0977156211
 20
18.7331459142
 11
-16.7108958986
 21
18.063350845
  0
LINE
  5
313
100
AcDbEntity
  8
ASSI
100
AcDbLine
 62
250
  6
CONTINUOUS
 10
-16.0977156211
 20
18.7331459142
 11
-16.7108958986
 21
18.063350845
  0
LWPOLYLINE
  5
314
100
AcDbEntity
  8
C_COPERCHIO
100
AcDbPolyline
 62
250
  6
CONTINUOUS
 90
40
 70
0
 10
-16.6776331945
 20
12.2330900114
 10
-16.6846618663
 20
12.2292540172
 10
-16.6916762909
 20
12.2250827512
 10
-16.698665342
 20
12.22058257
 10
-16.7056185013
 20
12.2157599419
 10
-16.7125241218
 20
12.2106226392
 10
-16.7193694911
 20
12.2051799868
 10
-16.7261431624
 20
12.1994411321
 10
-16.7328349898
 20
12.1934147177
 10
-16.7394344205
 20
12.1871102422
 10
-16.7459310272
 20
12.1805376525
 10
-16.7523144556
 20
12.17370741
 10
-16.7585745067
 20
12.1666304229
 10
-16.7647012213
 20
12.1593179553
 10
-16.7706849115
 20
12.1517815746
 10
-16.7765161051
 20
12.1440332112
 10
-16.7821855588
 20
12.1360851446
 10
-16.78768427
 20
12.1279499928
 10
-16.7930035109
 20
12.1196406665
 10
-16.7981348414
 20
12.1111703494
 10
-16.8030701224
 20
12.1025524757
 10
-16.8078015249
 20
12.0938007151
 10
-16.8123215431
 20
12.0849289494
 10
-16.8166230052
 20
12.0759512534
 10
-16.8206990856
 20
12.0668818721
 10
-16.8245433175
 20
12.057735193
 10
-16.8281496023
 20
12.0485257259
 10
-16.8315122179
 20
12.0392680816
 10
-16.8346258298
 20
12.0299769463
 10
-16.8374854982
 20
12.0206670592
 10
-16.8400866856
 20
12.0113531917
 10
-16.8424252652
 20
12.0020501196
 10
-16.8444975271
 20
11.9927726007
 10
-16.8463001836
 20
11.9835353535
 10
-16.8478303752
 20
11.9743530295
 10
-16.8490856738
 20
11.9652401979
 10
-16.8500640872
 20
11.9562113233
 10
-16.8507640637
 20
11.9472807313
 10
-16.8511844937
 20
11.9384625864
 10
-16.8513247111
 20
11.9297708772
  0
LINE
  5
315
100
AcDbEntity
  8
C_COPERCHIO
100
AcDbLine
 62
7
  6
CONTINUOUS
 10
-8.457888442
 20
17.7680499685
 11
-11.4468004043
 21
16.1554633942
  0
LWPOLYLINE
  5
316
100
AcDbEntity
  8
C_COPERCHIO
100
AcDbPolyline
 62
7
  6
CONTINUOUS
 90
31
 70
0
 10
-14.0570725973
 20
15.960886592
 10
-14.0797310198
 20
15.9487503699
 10
-14.1016921419
 20
15.9361665924
 10
-14.1229517623
 20
15.9231371937
 10
-14.1435449484
 20
15.9096363518
 10
-14.1634225562
 20
15.8956906155
 10
-14.1824653007
 20
15.881387968
 10
-14.2006759553
 20
15.8667387295
 10
-14.2180615848
 20
15.8517490989
 10
-14.2345319767
 20
15.8365170838
 10
-14.2500807417
 20
15.8210804394
 10
-14.2647452233
 20
15.8054346102
 10
-14.2785133735
 20
15.7896266359
 10
-14.2913907688
 20
15.7736903398
 10
-14.3034062157
 20
15.7576319536
 10
-14.3145818796
 20
15.7414629815
 10
-14.3249230674
 20
15.7252198327
 10
-14.3344554723
 20
15.7089089232
 10
-14.3432219905
 20
15.6924977707
 10
-14.3512323917
 20
15.6760044481
 10
-14.3584948589
 20
15.6594517379
 10
-14.3650369386
 20
15.6428134131
 10
-14.3708633328
 20
15.6261102921
 10
-14.3759799369
 20
15.6093626821
 10
-14.3804050934
 20
15.5925432309
 10
-14.3841406522
 20
15.5756718662
 10
-14.3871891729
 20
15.5587702021
 10
-14.3895600108
 20
15.5418132175
 10
-14.3912538012
 20
15.5248065963
 10
-14.3922686755
 20
15.5077868805
 10
-14.392606384
 20
15.4907754039
  0
LWPOLYLINE
  5
317
100
AcDbEntity
  8
C_COPERCHIO
100
AcDbPolyline
 62
250
  6
CONTINUOUS
 90
106
 70
0
 10
-13.9421251387
 20
15.9553860022
 10
-13.9565938779
 20
15.9476683409
 10
-13.970577853
 20
15.939753636
 10
-13.984077064
 20
15.9316418876
 10
-13.9971029238
 20
15.9233254298
 10
-14.0096440196
 20
15.9148119284
 10
-14.0216661127
 20
15.906124381
 10
-14.0331674477
 20
15.8972625177
 10
-14.0441497802
 20
15.8882266083
 10
-14.0545841382
 20
15.8790404595
 10
-14.0644690131
 20
15.869703721
 10
-14.0738059136
 20
15.860216743
 10
-14.0825703934
 20
15.8506043829
 10
-14.0907609538
 20
15.8408663215
 10
-14.0983790936
 20
15.8310028779
 10
-14.1054048619
 20
15.8210398669
 10
-14.1118367263
 20
15.8109769923
 10
-14.1176762193
 20
15.8008145503
 10
-14.1229079884
 20
15.790579244
 10
-14.1275304231
 20
15.7802709024
 10
-14.1315451339
 20
15.7698896965
 10
-14.1349415999
 20
15.7594628428
 10
-14.1377181999
 20
15.7489902176
 10
-14.1398765552
 20
15.7384719445
 10
-14.1414110086
 20
15.7279356109
 10
-14.1423199242
 20
15.7173811812
 10
-14.142604938
 20
15.7068086909
 10
-14.1422652999
 20
15.6962458342
 10
-14.1412993686
 20
15.6856926143
 10
-14.1397087854
 20
15.6751490279
 10
-14.1374977247
 20
15.6646427593
 10
-14.1346645621
 20
15.6541739275
 10
-14.1312109219
 20
15.6437424136
 10
-14.1271458512
 20
15.6333755449
 10
-14.1224677372
 20
15.6230734722
 10
-14.1171781927
 20
15.6128360447
 10
-14.111291104
 20
15.6026901377
 10
-14.1048049157
 20
15.5926360117
 10
-14.0977211832
 20
15.5826734061
 10
-14.0900584581
 20
15.5728284141
 10
-14.081815203
 20
15.5631013226
 10
-14.0729929555
 20
15.5534918448
 10
-14.0636148804
 20
15.5440252135
 10
-14.0536795399
 20
15.5347018245
 10
-14.0431883719
 20
15.525521282
 10
-14.0321688548
 20
15.5165076316
 10
-14.0206195763
 20
15.5076612916
 10
-14.0085419486
 20
15.4989818437
 10
-13.9959676869
 20
15.4904920789
 10
-13.9828955176
 20
15.4821925147
 10
-13.9693267143
 20
15.4740826335
 10
-13.9552968118
 20
15.4661836735
 10
-13.9408045664
 20
15.45849617
 10
-13.9258512219
 20
15.4510195876
 10
-13.910476045
 20
15.4437735592
 10
-13.8946779656
 20
15.4367587065
 10
-13.8784580538
 20
15.4299744077
 10
-13.8618587878
 20
15.4234384295
 10
-13.8448791329
 20
15.4171514087
 10
-13.8275201238
 20
15.4111127084
 10
-13.8098273421
 20
15.4053381849
 10
-13.7917999522
 20
15.3998285443
 10
-13.7734387898
 20
15.3945830805
 10
-13.7547919432
 20
15.3896155311
 10
-13.7358586207
 20
15.3849266145
 10
-13.716639614
 20
15.3805156123
 10
-13.6971853868
 20
15.3763941059
 10
-13.6774953645
 20
15.3725628641
 10
-13.6575701217
 20
15.3690211183
 10
-13.6374618463
 20
15.3657781442
 10
-13.6171700181
 20
15.3628347196
 10
-13.5966951572
 20
15.3601900669
 10
-13.576091012
 20
15.3578511284
 10
-13.5553572801
 20
15.3558187106
 10
-13.534494264
 20
15.3540920072
 10
-13.5135566194
 20
15.3526755414
 10
-13.4925441096
 20
15.3515701256
 10
-13.4714569714
 20
15.3507749475
 10
-13.4503505713
 20
15.350292094
 10
-13.4292249012
 20
15.3501223857
 10
-13.4080799691
 20
15.350265002
 10
-13.3869711661
 20
15.3507195676
 10
-13.3658985651
 20
15.3514869003
 10
-13.3448620931
 20
15.3525661823
 10
-13.3239169221
 20
15.3539545847
 10
-13.3030632987
 20
15.3556529183
 10
-13.2823009764
 20
15.3576603723
 10
-13.2616843863
 20
15.3599716863
 10
-13.2412138707
 20
15.3625876655
 10
-13.2208890875
 20
15.3655075046
 10
-13.2007634418
 20
15.3687235279
 10
-13.1808375236
 20
15.3722365022
 10
-13.161110743
 20
15.3760456606
 10
-13.141634735
 20
15.3801410257
 10
-13.1224101417
 20
15.3845233456
 10
-13.1034363211
 20
15.3891918723
 10
-13.0847629814
 20
15.394134385
 10
-13.0663908223
 20
15.3993516391
 10
-13.0483191442
 20
15.4048428792
 10
-13.0305955569
 20
15.4105936175
 10
-13.0132204287
 20
15.4166048119
 10
-12.9961933914
 20
15.4228755046
 10
-12.9795609499
 20
15.4293883344
 10
-12.963338606
 20
15.4361375144
 10
-12.9475108579
 20
15.4431288314
 10
-12.9320777057
 20
15.4503622857
  0
LINE
  5
318
100
AcDbEntity
  8
C_COPERCHIO
100
AcDbLine
 62
7
  6
CONTINUOUS
 10
-7.1257111809
 20
17.0405468737
 11
-11.2817364167
 21
14.8434923074
  0
LINE
  5
319
100
AcDbEntity
  8
C_CORPO
100
AcDbLine
 62
250
  6
CONTINUOUS
 10
3.7662806898
 20
21.6804639058
 11
-11.2817364167
 21
14.0247432588
  0
LINE
  5
31A
100
AcDbEntity
  8
ASSI
100
AcDbLine
 62
250
  6
CONTINUOUS
 10
3.7662806898
 20
21.6804639058
 11
-11.2817364167
 21
14.0247432588
  0
LINE
  5
31B
100
AcDbEntity
  8
C_COPERCHIO
100
AcDbLine
 62
250
  6
CONTINUOUS
 10
-16.6776331945
 20
12.2330900114
 11
-13.3979611944
 21
13.8855712327
  0
LINE
  5
31C
100
AcDbEntity
  8
C_COPERCHIO
100
AcDbLine
 62
250
  6
CONTINUOUS
 10
-16.5008834232
 20
11.9282417498
 11
-12.758413113
 21
13.8139065079
  0
LINE
  5
31D
100
AcDbEntity
  8
C_COPERCHIO
100
AcDbLine
 62
7
  6
CONTINUOUS
 10
-7.1257111809
 20
18.428819711
 11
-8.457888442
 21
17.7680499685
  0
LINE
  5
31E
100
AcDbEntity
  8
C_CORPO
100
AcDbLine
 62
250
  6
CONTINUOUS
 10
-6.8450509812
 20
17.4959531948
 11
3.1652391023
 21
22.3584424685
  0
LINE
  5
31F
100
AcDbEntity
  8
ASSI
100
AcDbLine
 62
250
  6
CONTINUOUS
 10
-6.8450509812
 20
17.4959531948
 11
3.1652391023
 21
22.3584424685
  0
LINE
  5
320
100
AcDbEntity
  8
C_CORPO
100
AcDbLine
 62
250
  6
CONTINUOUS
 10
-7.4385986545
 20
16.461224142
 11
3.6651629498
 21
21.8548662092
  0
LINE
  5
321
100
AcDbEntity
  8
ASSI
100
AcDbLine
 62
250
  6
CONTINUOUS
 10
-7.4385986545
 20
16.461224142
 11
3.6651629498
 21
21.8548662092
  0
LINE
  5
322
100
AcDbEntity
  8
C_COPERCHIO
100
AcDbLine
 62
250
  6
CONTINUOUS
 10
-12.9320777057
 20
15.4503622857
 11
-11.4585400401
 21
16.1618516771
  0
LINE
  5
323
100
AcDbEntity
  8
C_COPERCHIO
100
AcDbLine
 62
250
  6
CONTINUOUS
 10
-12.758413113
 20
15.1439384597
 11
-11.2817364167
 21
15.8569435145
  0
LWPOLYLINE
  5
324
100
AcDbEntity
  8
C_COPERCHIO
100
AcDbPolyline
 62
250
  6
CONTINUOUS
 90
40
 70
0
 10
-16.5008834232
 20
11.9282417498
 10
-16.5081747279
 20
11.9248587303
 10
-16.5157313501
 20
11.9216226169
 10
-16.5235415156
 20
11.9185386485
 10
-16.5315937188
 20
11.9156115908
 10
-16.5398747216
 20
11.9128464717
 10
-16.5483693877
 20
11.9102484355
 10
-16.5570634746
 20
11.9078218076
 10
-16.5659439216
 20
11.9055702037
 10
-16.5749967287
 20
11.9034971766
 10
-16.5842076038
 20
11.9016060074
 10
-16.5935618782
 20
11.8998997162
 10
-16.6030446098
 20
11.8983810309
 10
-16.6126407085
 20
11.8970523657
 10
-16.6223349964
 20
11.8959158195
 10
-16.6321121274
 20
11.8949731913
 10
-16.6419566056
 20
11.8942259767
 10
-16.6518528009
 20
11.8936753632
 10
-16.6617850073
 20
11.8933222255
 10
-16.6717374659
 20
11.8931671243
 10
-16.6816943913
 20
11.8932103059
 10
-16.6916399894
 20
11.8934517025
 10
-16.7015584843
 20
11.8938909318
 10
-16.7114341399
 20
11.8945272975
 10
-16.7212512863
 20
11.8953597902
 10
-16.7309943493
 20
11.8963870898
 10
-16.7406478729
 20
11.8976075669
 10
-16.7501965413
 20
11.8990192855
 10
-16.7596252068
 20
11.9006200063
 10
-16.7689189114
 20
11.9024071902
 10
-16.7780629094
 20
11.9043780018
 10
-16.7870426945
 20
11.9065293148
 10
-16.7958440214
 20
11.9088577163
 10
-16.8044529272
 20
11.9113595127
 10
-16.8128557569
 20
11.914030736
 10
-16.8210391778
 20
11.9168671478
 10
-16.8289902009
 20
11.919864246
 10
-16.836696211
 20
11.9230172746
 10
-16.8441449864
 20
11.9263212322
 10
-16.8513247111
 20
11.9297708772
  0
LINE
  5
325
100
AcDbEntity
  8
C_COPERCHIO
100
AcDbLine
 62
250
  6
CONTINUOUS
 10
-28.4511357189
 20
-0.5177053207
 11
-29.451498005
 21
-0.7270847326
  0
LWPOLYLINE
  5
326
100
AcDbEntity
  8
C_COPERCHIO
100
AcDbPolyline
 62
250
  6
CONTINUOUS
 90
3
 70
0
 10
-29.451498005
 20
-0.7270847326
 10
-30.1178102732
 20
-0.8663763919
 10
-30.4507876171
 20
-0.9359335437
  0
LINE
  5
327
100
AcDbEntity
  8
C_COPERCHIO
100
AcDbLine
 62
250
  6
CONTINUOUS
 10
-28.7028742466
 20
-0.0911425219
 11
-30.0635004436
 21
-0.3747874343
  0
LINE
  5
328
100
AcDbEntity
  8
C_COPERCHIO
100
AcDbLine
 62
7
  6
CONTINUOUS
 10
-28.801805597
 20
0.1744554744
 11
-29.080420048
 21
0.1167525323
  0
LINE
  5
329
100
AcDbEntity
  8
C_OTTURATORE
100
AcDbLine
 62
7
  6
CONTINUOUS
 10
-43.3304400206
 20
9.543010382
 11
-41.7563486242
 21
8.9824572501
  0
LINE
  5
32A
100
AcDbEntity
  8
C_MOLLA_OTTURATORE
100
AcDbLine
 62
250
  6
CONTINUOUS
 10
-30.5804713041
 20
4.0488674062
 11
-30.3736195088
 21
3.9454415086
  0
LINE
  5
32B
100
AcDbEntity
  8
C_CORPO
100
AcDbLine
 62
7
  6
CONTINUOUS
 10
-3.0949854061
 20
-13.8685370872
 11
-3.1145927919
 21
-13.8546013156
  0
LINE
  5
32C
100
AcDbEntity
  8
ASSI
100
AcDbLine
 62
7
  6
CONTINUOUS
 10
-3.0949854061
 20
-13.8685370872
 11
-3.1145927919
 21
-13.8546013156
  0
LINE
  5
32D
100
AcDbEntity
  8
C_MOLLE_IDEA
100
AcDbLine
 62
7
  6
CONTINUOUS
 10
-24.0337194093
 20
21.0344317546
 11
-23.9285025708
 21
19.508903553
  0
LINE
  5
32E
100
AcDbEntity
  8
C_CORPO
100
AcDbLine
 62
7
  6
CONTINUOUS
 10
-24.1864351734
 20
23.8978750444
 11
-24.1864351734
 21
23.8696207544
  0
LINE
  5
32F
100
AcDbEntity
  8
ASSI
100
AcDbLine
 62
7
  6
CONTINUOUS
 10
-24.1864351734
 20
23.8978750444
 11
-24.1864351734
 21
23.8696207544
  0
LINE
  5
330
100
AcDbEntity
  8
C_MOLLE_IDEA
100
AcDbLine
 62
250
  6
CONTINUOUS
 10
-18.9619862639
 20
21.955380058
 11
-18.9824175234
 21
21.8681513058
  0
LINE
  5
331
100
AcDbEntity
  8
C_MOLLE_IDEA
100
AcDbLine
 62
250
  6
CONTINUOUS
 10
-19.2082540199
 20
20.8233799076
 11
-19.2249390533
 21
20.7521452073
  0
LWPOLYLINE
  5
332
100
AcDbEntity
  8
C_MOLLE_IDEA
100
AcDbPolyline
 62
7
  6
CONTINUOUS
 90
12
 70
0
 10
-19.2615621046
 20
20.7982811229
 10
-19.2609007437
 20
20.8004153425
 10
-19.2591442549
 20
20.8038369538
 10
-19.2565560887
 20
20.8070372834
 10
-19.253146764
 20
20.81001913
 10
-19.2489597679
 20
20.8127444592
 10
-19.2439851386
 20
20.8152099848
 10
-19.2382328379
 20
20.817418993
 10
-19.2317762384
 20
20.8193433071
 10
-19.2246397977
 20
20.8209735347
 10
-19.2167990582
 20
20.8223190683
 10
-19.2082540199
 20
20.8233799076
  0
LWPOLYLINE
  5
333
100
AcDbEntity
  8
C_MOLLE_IDEA
100
AcDbPolyline
 62
7
  6
CONTINUOUS
 90
12
 70
0
 10
-18.9017565253
 20
21.8960416268
 10
-18.9024178862
 20
21.8939074072
 10
-18.904174375
 20
21.8904857959
 10
-18.9067625412
 20
21.8872854663
 10
-18.9101718659
 20
21.8843036197
 10
-18.914358862
 20
21.8815782906
 10
-18.9193334913
 20
21.8791127649
 10
-18.925085792
 20
21.8769037567
 10
-18.9315423915
 20
21.8749794426
 10
-18.9386788322
 20
21.873349215
 10
-18.9465195717
 20
21.8720036815
 10
-18.95506461
 20
21.8709428421
  0
LINE
  5
334
100
AcDbEntity
  8
C_COPERCHIO
100
AcDbLine
 62
250
  6
CONTINUOUS
 10
-16.4941498545
 20
8.7935643145
 11
-18.8997224879
 21
7.1214625579
  0
LINE
  5
335
100
AcDbEntity
  8
C_OTTURATORE
100
AcDbLine
 62
7
  6
CONTINUOUS
 10
-29.2686222541
 20
0.6100908038
 11
-29.0189885384
 21
0.7586199587
  0
LINE
  5
336
100
AcDbEntity
  8
C_CORPO
100
AcDbLine
 62
250
  6
CONTINUOUS
 10
4.1804311654
 20
20.2488303312
 11
-11.2817364167
 21
12.3824094753
  0
LINE
  5
337
100
AcDbEntity
  8
ASSI
100
AcDbLine
 62
250
  6
CONTINUOUS
 10
4.1804311654
 20
20.2488303312
 11
-11.2817364167
 21
12.3824094753
  0
LINE
  5
338
100
AcDbEntity
  8
C_COPERCHIO
100
AcDbLine
 62
7
  6
CONTINUOUS
 10
-16.3178820485
 20
9.1384431134
 11
-16.5008834232
 21
9.0500819267
  0
LWPOLYLINE
  5
339
100
AcDbEntity
  8
C_COPERCHIO
100
AcDbPolyline
 62
7
  6
CONTINUOUS
 90
40
 70
0
 10
-16.5008834232
 20
9.0500819267
 10
-16.5082000214
 20
9.0466884219
 10
-16.5157575139
 20
9.0434522378
 10
-16.5235559005
 20
9.0403733746
 10
-16.5316099823
 20
9.0374469601
 10
-16.5399049583
 20
9.0346778665
 10
-16.5483964256
 20
9.0320807098
 10
-16.5570809243
 20
9.0296574448
 10
-16.5659619143
 20
9.0274061167
 10
-16.5750053723
 20
9.0253354775
 10
-16.5842183693
 20
9.0234451222
 10
-16.5935938344
 20
9.0217354558
 10
-16.6030765312
 20
9.020216445
 10
-16.6126590703
 20
9.0188900964
 10
-16.6223488412
 20
9.0177544034
 10
-16.6321127759
 20
9.0168133124
 10
-16.6419603206
 20
9.0160670129
 10
-16.6518820291
 20
9.0155153154
 10
-16.6618164957
 20
9.0151615986
 10
-16.6717540597
 20
9.0150070356
 10
-16.6817043816
 20
9.0150504531
 10
-16.691635037
 20
9.0152917098
 10
-16.7015556441
 20
9.015732063
 10
-16.7114565846
 20
9.0163702552
 10
-16.72127658
 20
9.0172023728
 10
-16.7310061791
 20
9.0182285225
 10
-16.7406548329
 20
9.0194485975
 10
-16.7501896166
 20
9.0208583632
 10
-16.7596178484
 20
9.0224598906
 10
-16.76893221
 20
9.0242511088
 10
-16.7780778213
 20
9.0262215707
 10
-16.7870476267
 20
9.0283708096
 10
-16.7958486819
 20
9.0306992921
 10
-16.8044472743
 20
9.0331979707
 10
-16.812846795
 20
9.0358688302
 10
-16.8210438529
 20
9.0387098857
 10
-16.8289945621
 20
9.041706136
 10
-16.8366842939
 20
9.0448525806
 10
-16.8441276769
 20
9.04815422
 10
-16.8513247111
 20
9.0516110541
  0
LWPOLYLINE
  5
33A
100
AcDbEntity
  8
C_COPERCHIO
100
AcDbPolyline
 62
250
  6
CONTINUOUS
 90
49
 70
0
 10
-19.1408296869
 20
-23.0163124652
 10
-19.1400111329
 20
-23.0342668495
 10
-19.1387649724
 20
-23.051952305
 10
-19.1370912055
 20
-23.0693688316
 10
-19.1349878036
 20
-23.0865304482
 10
-19.1324567952
 20
-23.103423136
 10
-19.1295042661
 20
-23.1200048386
 10
-19.1261292095
 20
-23.1362743325
 10
-19.1223326322
 20
-23.1522328412
 10
-19.1181236394
 20
-23.1678419788
 10
-19.1135012562
 20
-23.1831008269
 10
-19.1084664577
 20
-23.1980103039
 10
-19.1030312743
 20
-23.2125347795
 10
-19.0971947503
 20
-23.2266733445
 10
-19.0909578416
 20
-23.240426908
 10
-19.084335446
 20
-23.253762567
 10
-19.0773266267
 20
-23.2666793445
 10
-19.0699323206
 20
-23.2791782175
 10
-19.0621702362
 20
-23.2912292137
 10
-19.0540394921
 20
-23.3028312513
 10
-19.0455409697
 20
-23.3139854121
 10
-19.0366950217
 20
-23.3246649685
 10
-19.027500824
 20
-23.3348687729
 10
-19.0179592006
 20
-23.344597973
 10
-19.0080929762
 20
-23.3538292834
 10
-18.9979013753
 20
-23.3625615135
 10
-18.9873851733
 20
-23.370795854
 10
-18.9765695207
 20
-23.378512591
 10
-18.9654536914
 20
-23.3857104914
 10
-18.9540384116
 20
-23.3923907883
 10
-18.9423510096
 20
-23.398537468
 10
-18.930390821
 20
-23.4041492529
 10
-18.9181585103
 20
-23.4092274206
 10
-18.9056833991
 20
-23.4137597901
 10
-18.892964926
 20
-23.4177450444
 10
-18.8800036525
 20
-23.4211845005
 10
-18.8668305844
 20
-23.4240699293
 10
-18.8534452251
 20
-23.42640001
 10
-18.8398480712
 20
-23.4281760634
 10
-18.8260716182
 20
-23.4293938226
 10
-18.8121153637
 20
-23.4300519402
 10
-18.7979798102
 20
-23.4301517637
 10
-18.78369896
 20
-23.4296930688
 10
-18.7692719135
 20
-23.4286743548
 10
-18.7546995703
 20
-23.4270971224
 10
-18.7400186317
 20
-23.4249656493
 10
-18.7252413314
 20
-23.4222813613
 10
-18.7103554356
 20
-23.4190428325
 10
-18.6953609443
 20
-23.4152500629
  0
LWPOLYLINE
  5
33B
100
AcDbEntity
  8
C_COPERCHIO
100
AcDbPolyline
 62
250
  6
CONTINUOUS
 90
31
 70
0
 10
-19.4911333817
 20
-23.0232551143
 10
-19.4900487547
 20
-23.0471700599
 10
-19.4883931853
 20
-23.0707598193
 10
-19.4861679949
 20
-23.0940055647
 10
-19.4833749382
 20
-23.1168886256
 10
-19.480016256
 20
-23.1393908721
 10
-19.4760946395
 20
-23.1614947053
 10
-19.4716131031
 20
-23.1831826923
 10
-19.4665752185
 20
-23.2044372945
 10
-19.4609851619
 20
-23.2252412484
 10
-19.4548473586
 20
-23.2455778749
 10
-19.4481666424
 20
-23.265431056
 10
-19.4409484607
 20
-23.2847849418
 10
-19.4331984815
 20
-23.3036241215
 10
-19.4249228325
 20
-23.321933563
 10
-19.4161282684
 20
-23.3396985953
 10
-19.4068216841
 20
-23.3569051012
 10
-19.3970104425
 20
-23.3735393332
 10
-19.3867026069
 20
-23.3895878473
 10
-19.3759062959
 20
-23.4050378679
 10
-19.3646300286
 20
-23.4198771076
 10
-19.3528830519
 20
-23.4340935808
 10
-19.3406746229
 20
-23.4476759846
 10
-19.3280143732
 20
-23.4606135315
 10
-19.3149126567
 20
-23.4728957701
 10
-19.3013797885
 20
-23.4845129559
 10
-19.2874264509
 20
-23.4954558649
 10
-19.2730640538
 20
-23.5057156194
 10
-19.2583038949
 20
-23.5152841006
 10
-19.2431576328
 20
-23.524153716
 10
-19.2284288312
 20
-23.5319226756
  0
LINE
  5
33C
100
AcDbEntity
  8
C_CORPO
100
AcDbLine
 62
7
  6
CONTINUOUS
 10
-20.6431378227
 20
25.6553766518
 11
-20.6431378227
 21
25.5207200621
  0
LINE
  5
33D
100
AcDbEntity
  8
ASSI
100
AcDbLine
 62
7
  6
CONTINUOUS
 10
-20.6431378227
 20
25.6553766518
 11
-20.6431378227
 21
25.5207200621
  0
LINE
  5
33E
100
AcDbEntity
  8
C_COPERCHIO
100
AcDbLine
 62
7
  6
CONTINUOUS
 10
-20.1582189626
 20
23.7916001348
 11
-20.1582189626
 21
24.2216253549
  0
LWPOLYLINE
  5
33F
100
AcDbEntity
  8
C_COPERCHIO
100
AcDbPolyline
 62
250
  6
CONTINUOUS
 90
25
 70
0
 10
-19.4911333817
 20
6.0146931603
 10
-19.5291413545
 20
4.7869779393
 10
-19.5638456504
 20
3.5607140161
 10
-19.5952459009
 20
2.335914652
 10
-19.6233417769
 20
1.1125930967
 10
-19.6481329754
 20
-0.1092374257
 10
-19.6696192195
 20
-1.3295637172
 10
-19.6878002791
 20
-2.5483725848
 10
-19.7026759628
 20
-3.7656508466
 10
-19.7142461044
 20
-4.9813853461
 10
-19.7225105792
 20
-6.1955629376
 10
-19.7274693012
 20
-7.4081704933
 10
-19.729122215
 20
-8.6191949099
 10
-19.7274693012
 20
-9.8286230949
 10
-19.7225105792
 20
-11.0364419713
 10
-19.7142461044
 20
-12.2426384857
 10
-19.7026759628
 20
-13.4471996
 10
-19.6878002791
 20
-14.6501122895
 10
-19.6696192195
 20
-15.8513635475
 10
-19.6481329754
 20
-17.050940387
 10
-19.6233417769
 20
-18.2488298415
 10
-19.5952459009
 20
-19.4450189624
 10
-19.5638456504
 20
-20.6394948194
 10
-19.5291413545
 20
-21.8322445008
 10
-19.4911333817
 20
-23.0232551143
  0
LWPOLYLINE
  5
340
100
AcDbEntity
  8
C_COPERCHIO
100
AcDbPolyline
 62
250
  6
CONTINUOUS
 90
25
 70
0
 10
-19.1408296869
 20
6.0045546633
 10
-19.1788162357
 20
4.7775399654
 10
-19.213500341
 20
3.5520021128
 10
-19.2448820029
 20
2.3279411055
 10
-19.2729614898
 20
1.1053437232
 10
-19.2977385332
 20
-0.1157768138
 10
-19.319212328
 20
-1.3353808444
 10
-19.3373827665
 20
-2.5534683007
 10
-19.3522499563
 20
-3.7700392506
 10
-19.3638134155
 20
-4.9850542368
 10
-19.3720730369
 20
-6.1985132074
 10
-19.3770289276
 20
-7.4104162143
 10
-19.378680927
 20
-8.6207239559
 10
-19.3770289281
 20
-9.8294363803
 10
-19.3720730378
 20
-11.0365535394
 10
-19.3638134168
 20
-12.2420362866
 10
-19.3522499581
 20
-13.4458845704
 10
-19.3373827687
 20
-14.6480984423
 10
-19.3192123307
 20
-15.8486389104
 10
-19.2977385365
 20
-17.0475059328
 10
-19.2729614937
 20
-18.2446995515
 10
-19.2448820069
 20
-19.4401809007
 10
-19.2135003443
 20
-20.633937025
 10
-19.1788162376
 20
-21.8259808799
 10
-19.1408296869
 20
-23.0163124652
  0
LINE
  5
341
100
AcDbEntity
  8
C_MOLLE_IDEA
100
AcDbLine
 62
7
  6
CONTINUOUS
 10
-18.8582242046
 20
16.9737643699
 11
-18.7530073661
 21
18.394075733
  0
LINE
  5
342
100
AcDbEntity
  8
C_MOLLE_IDEA
100
AcDbLine
 62
7
  6
CONTINUOUS
 10
-18.5759269827
 20
17.1078222035
 11
-18.4790748872
 21
18.4152187568
  0
LWPOLYLINE
  5
343
100
AcDbEntity
  8
C_MOLLE_IDEA
100
AcDbPolyline
 62
7
  6
CONTINUOUS
 90
14
 70
0
 10
-18.7530073661
 20
18.394075733
 10
-18.7519635846
 20
18.404249999
 10
-18.7504008993
 20
18.4139870724
 10
-18.7483193102
 20
18.4232869534
 10
-18.7457069324
 20
18.4321817429
 10
-18.7425756509
 20
18.4406393399
 10
-18.7389611203
 20
18.4485634409
 10
-18.7348578172
 20
18.4559479481
 10
-18.7302712649
 20
18.4627989593
 10
-18.725253689
 20
18.4690384645
 10
-18.7198001628
 20
18.4746594744
 10
-18.7139156128
 20
18.4796689785
 10
-18.7076670443
 20
18.4840099353
 10
-18.7015573289
 20
18.4874285258
  0
LINE
  5
344
100
AcDbEntity
  8
C_MOLLE_IDEA
100
AcDbLine
 62
250
  6
CONTINUOUS
 10
-17.2580083352
 20
21.0224147047
 11
-17.3454115401
 21
20.6492574608
  0
LINE
  5
345
100
AcDbEntity
  8
C_MOLLE_IDEA
100
AcDbLine
 62
250
  6
CONTINUOUS
 10
-16.9820872765
 20
20.9654305643
 11
-17.0694904814
 21
20.5922733204
  0
LINE
  5
346
100
AcDbEntity
  8
C_MOLLE_IDEA
100
AcDbLine
 62
250
  6
CONTINUOUS
 10
-16.2266274175
 20
18.7199896573
 11
-16.1392242126
 21
19.0931469011
  0
LWPOLYLINE
  5
347
100
AcDbEntity
  8
C_MOLLE_IDEA
100
AcDbPolyline
 62
7
  6
CONTINUOUS
 90
12
 70
0
 10
-14.8712478726
 20
19.8807873005
 10
-14.8719092335
 20
19.8786530808
 10
-14.8736657223
 20
19.8752314695
 10
-14.8762538884
 20
19.8720311399
 10
-14.8796632131
 20
19.8690492933
 10
-14.8838502092
 20
19.8663239642
 10
-14.8888248385
 20
19.8638584385
 10
-14.8945771392
 20
19.8616494303
 10
-14.9010337387
 20
19.8597251163
 10
-14.9081701794
 20
19.8580948886
 10
-14.916010919
 20
19.8567493551
 10
-14.9245559573
 20
19.8556885157
  0
LWPOLYLINE
  5
348
100
AcDbEntity
  8
C_COPERCHIO
100
AcDbPolyline
 62
250
  6
CONTINUOUS
 90
49
 70
0
 10
-18.8997224879
 20
7.1214625579
 10
-18.9196137124
 20
7.1071829259
 10
-18.9393889999
 20
7.0922815846
 10
-18.9590327571
 20
7.0767705649
 10
-18.978529581
 20
7.0606625788
 10
-18.9978640159
 20
7.0439704301
 10
-19.0170205562
 20
7.026706971
 10
-19.0359842663
 20
7.0088859085
 10
-19.0547400063
 20
6.990521736
 10
-19.0732721908
 20
6.9716291396
 10
-19.0915661098
 20
6.9522234119
 10
-19.1096074387
 20
6.932320074
 10
-19.1273814564
 20
6.9119347797
 10
-19.144874147
 20
6.8910838968
 10
-19.1620717156
 20
6.8697841928
 10
-19.1789601013
 20
6.8480524685
 10
-19.1955260036
 20
6.8259061305
 10
-19.2117563376
 20
6.8033630024
 10
-19.2276377487
 20
6.7804410058
 10
-19.2431576919
 20
6.7571585543
 10
-19.258303955
 20
6.7335343214
 10
-19.2730641147
 20
6.7095870522
 10
-19.2874265118
 20
6.6853359737
 10
-19.301379849
 20
6.6608005268
 10
-19.3149127157
 20
6.6360001375
 10
-19.3280144296
 20
6.6109546862
 10
-19.3406746757
 20
6.5856842587
 10
-19.3528831011
 20
6.560208876
 10
-19.3646300738
 20
6.5345489295
 10
-19.3759063372
 20
6.5087250067
 10
-19.3867026452
 20
6.4827576398
 10
-19.3970104792
 20
6.456667604
 10
-19.40682172
 20
6.4304758247
 10
-19.4161283038
 20
6.4042032025
 10
-19.4249228678
 20
6.3778708149
 10
-19.433198517
 20
6.3514997069
 10
-19.440948495
 20
6.3251107978
 10
-19.4481666736
 20
6.2987252177
 10
-19.4548473859
 20
6.2723640751
 10
-19.4609851859
 20
6.2460482497
 10
-19.4665752398
 20
6.219798659
 10
-19.4716131219
 20
6.1936364418
 10
-19.4760946565
 20
6.1675827231
 10
-19.4800162727
 20
6.14165857
 10
-19.4833749545
 20
6.1158844733
 10
-19.4861680082
 20
6.0902805381
 10
-19.4883931936
 20
6.0648670729
 10
-19.4900487582
 20
6.0396645641
 10
-19.4911333817
 20
6.0146931603
  0
LWPOLYLINE
  5
349
100
AcDbEntity
  8
C_COPERCHIO
100
AcDbPolyline
 62
250
  6
CONTINUOUS
 90
49
 70
0
 10
-18.6953609443
 20
6.8336764253
 10
-18.7103573249
 20
6.8229877185
 10
-18.7252446431
 20
6.8118499631
 10
-18.740022899
 20
6.8002631592
 10
-18.7547041716
 20
6.788217028
 10
-18.7692763818
 20
6.7757218483
 10
-18.7837032924
 20
6.7628084565
 10
-18.7979841586
 20
6.7494761097
 10
-18.8121197252
 20
6.7357255507
 10
-18.8260759893
 20
6.7215898442
 10
-18.8398524497
 20
6.7070681286
 10
-18.8534496077
 20
6.6921612655
 10
-18.8668349644
 20
6.6769049043
 10
-18.8800080213
 20
6.6612982049
 10
-18.8929692771
 20
6.6453420074
 10
-18.9056877279
 20
6.6290744813
 10
-18.9181628137
 20
6.6124948506
 10
-18.9303950947
 20
6.5956038914
 10
-18.9423552478
 20
6.5784421017
 10
-18.954042612
 20
6.5610088392
 10
-18.9654578483
 20
6.5433047464
 10
-18.9765736173
 20
6.5253722486
 10
-18.9873891892
 20
6.5072108179
 10
-18.9979052938
 20
6.4888209824
 10
-19.0080967811
 20
6.4702467511
 10
-19.0179628735
 20
6.4514876862
 10
-19.0275043485
 20
6.4325442255
 10
-19.0366983884
 20
6.4134616919
 10
-19.0455441677
 20
6.3942397391
 10
-19.0540425117
 20
6.3748787133
 10
-19.0621730793
 20
6.3554249758
 10
-19.0699349925
 20
6.3358782898
 10
-19.0773291293
 20
6.3162388921
 10
-19.0843377816
 20
6.2965538539
 10
-19.0909600129
 20
6.2768231015
 10
-19.0971967598
 20
6.2570467087
 10
-19.1030331242
 20
6.2372719682
 10
-19.1084681503
 20
6.2174988961
 10
-19.1135027939
 20
6.1977274763
 10
-19.1181250244
 20
6.1780049528
 10
-19.1223338655
 20
6.1583313482
 10
-19.1261302935
 20
6.1387066399
 10
-19.1295052065
 20
6.119178004
 10
-19.1324576068
 20
6.0997449953
 10
-19.134988492
 20
6.080408059
 10
-19.1370917536
 20
6.0612157065
 10
-19.1387653551
 20
6.0421841083
 10
-19.1400113329
 20
6.0232970939
 10
-19.1408296869
 20
6.0045546633
  0
LINE
  5
34A
100
AcDbEntity
  8
C_COPERCHIO
100
AcDbLine
 62
250
  6
CONTINUOUS
 10
-16.3178820485
 20
8.4862503626
 11
-18.6953609443
 21
6.8336764253
  0
LWPOLYLINE
  5
34B
100
AcDbEntity
  8
C_COPERCHIO
100
AcDbPolyline
 62
7
  6
CONTINUOUS
 90
79
 70
0
 10
-30.063500489
 20
-0.3747874569
 10
-30.0710204453
 20
-0.3786689551
 10
-30.0785329475
 20
-0.3828021284
 10
-30.0860357788
 20
-0.3871776841
 10
-30.0935324381
 20
-0.391787756
 10
-30.101015869
 20
-0.3966217894
 10
-30.1084685433
 20
-0.4016663654
 10
-30.1158889506
 20
-0.406911791
 10
-30.123276938
 20
-0.4123493542
 10
-30.1306174935
 20
-0.417967092
 10
-30.137909744
 20
-0.4237556041
 10
-30.1451544143
 20
-0.4297065737
 10
-30.1523391426
 20
-0.43581001
 10
-30.1594636312
 20
-0.4420570957
 10
-30.1665291773
 20
-0.4484400226
 10
-30.1735258525
 20
-0.4549509013
 10
-30.1804538399
 20
-0.4615816632
 10
-30.1873147661
 20
-0.4683250627
 10
-30.1941007344
 20
-0.4751751578
 10
-30.2008123015
 20
-0.4821246844
 10
-30.2074512507
 20
-0.4891669742
 10
-30.2140112677
 20
-0.4962977215
 10
-30.2204932069
 20
-0.5035104752
 10
-30.2268988686
 20
-0.5107991033
 10
-30.2332230285
 20
-0.5181604859
 10
-30.2394666479
 20
-0.5255887949
 10
-30.2456315947
 20
-0.5330785184
 10
-30.2517136308
 20
-0.5406276561
 10
-30.257713898
 20
-0.5482311099
 10
-30.2636341303
 20
-0.555883777
 10
-30.2694705911
 20
-0.5635842172
 10
-30.2752244757
 20
-0.5713278656
 10
-30.2808974577
 20
-0.5791100813
 10
-30.2864861459
 20
-0.5869297885
 10
-30.2919917613
 20
-0.594782878
 10
-30.2974159113
 20
-0.6026651176
 10
-30.3027554372
 20
-0.6105756429
 10
-30.3080115689
 20
-0.618510734
 10
-30.3131858477
 20
-0.6264665166
 10
-30.3182752666
 20
-0.6344422202
 10
-30.3232810553
 20
-0.6424344582
 10
-30.3282046931
 20
-0.6504396682
 10
-30.3330432647
 20
-0.6584570786
 10
-30.337797998
 20
-0.6664835925
 10
-30.3424703156
 20
-0.6745159156
 10
-30.3470573459
 20
-0.6825531913
 10
-30.3515603168
 20
-0.6905925747
 10
-30.3559806026
 20
-0.6986310033
 10
-30.3603153407
 20
-0.7066674638
 10
-30.3645657631
 20
-0.7146993321
 10
-30.3687332073
 20
-0.722723748
 10
-30.3728147949
 20
-0.7307394772
 10
-30.3768117695
 20
-0.7387440942
 10
-30.3807254439
 20
-0.7467349147
 10
-30.3845529082
 20
-0.7547104252
 10
-30.3882953942
 20
-0.7626683139
 10
-30.3919542377
 20
-0.7706061204
 10
-30.3955265816
 20
-0.7785221962
 10
-30.3990137096
 20
-0.7864144643
 10
-30.402416924
 20
-0.7942805417
 10
-30.4057333246
 20
-0.8021183972
 10
-30.4089642176
 20
-0.8099260863
 10
-30.4121109312
 20
-0.8177013881
 10
-30.4151705676
 20
-0.8254419272
 10
-30.4181444736
 20
-0.8331459127
 10
-30.4210340076
 20
-0.840811258
 10
-30.4238362949
 20
-0.8484352148
 10
-30.4265527301
 20
-0.8560161454
 10
-30.4291847173
 20
-0.8635521008
 10
-30.4317294372
 20
-0.8710399428
 10
-30.4341883384
 20
-0.8784781889
 10
-30.4365628864
 20
-0.8858650376
 10
-30.4388503639
 20
-0.8931969638
 10
-30.4410522813
 20
-0.9004726388
 10
-30.4431701768
 20
-0.907690431
 10
-30.4452014838
 20
-0.9148464713
 10
-30.4471464393
 20
-0.9219386111
 10
-30.4490080185
 20
-0.928966397
 10
-30.450787824
 20
-0.9359286028
  0
LINE
  5
34C
100
AcDbEntity
  8
C_OTTURATORE
100
AcDbLine
 62
250
  6
CONTINUOUS
 10
-28.9766727582
 20
0.6445441663
 11
-29.2328933403
 21
0.5164338753
  0
LINE
  5
34D
100
AcDbEntity
  8
C_OTTURATORE
100
AcDbLine
 62
7
  6
CONTINUOUS
 10
-28.9757869839
 20
0.6421562769
 11
-29.2319864239
 21
0.5140565569
  0
LINE
  5
34E
100
AcDbEntity
  8
C_COPERCHIO
100
AcDbLine
 62
7
  6
CONTINUOUS
 10
-30.0635004436
 20
-0.3747874343
 11
-29.080420048
 21
0.1167525323
  0
LWPOLYLINE
  5
34F
100
AcDbEntity
  8
C_COPERCHIO
100
AcDbPolyline
 62
250
  6
CONTINUOUS
 90
37
 70
0
 10
-19.1408296869
 20
6.0045546633
 10
-19.1487425419
 20
6.0012641822
 10
-19.1569639487
 20
5.9981472105
 10
-19.1654786029
 20
5.9952095505
 10
-19.1742706542
 20
5.9924566708
 10
-19.1833237359
 20
5.9898936958
 10
-19.1926209955
 20
5.9875253968
 10
-19.2021451258
 20
5.9853561823
 10
-19.2118783974
 20
5.9833900903
 10
-19.2218026915
 20
5.9816307809
 10
-19.2318995337
 20
5.980081529
 10
-19.2421501285
 20
5.9787452187
 10
-19.2525353941
 20
5.9776243374
 10
-19.263035998
 20
5.9767209718
 10
-19.273632393
 20
5.9760368035
 10
-19.2843048537
 20
5.975573106
 10
-19.2950335128
 20
5.9753307427
 10
-19.3057983987
 20
5.9753101646
 10
-19.3165794723
 20
5.97551141
 10
-19.3273566642
 20
5.9759341043
 10
-19.3381099125
 20
5.9765774608
 10
-19.3488191995
 20
5.9774402816
 10
-19.3594645896
 20
5.9785209607
 10
-19.3700262662
 20
5.9798174864
 10
-19.3804845684
 20
5.9813274452
 10
-19.3908200276
 20
5.9830480261
 10
-19.4010134043
 20
5.9849760263
 10
-19.411045723
 20
5.9871078568
 10
-19.4208983083
 20
5.989439549
 10
-19.4305528194
 20
5.9919667626
 10
-19.439991284
 20
5.994684793
 10
-19.4491961323
 20
5.9975885804
 10
-19.4581502291
 20
6.0006727195
 10
-19.466836906
 20
6.003931469
 10
-19.4752399927
 20
6.0073587626
 10
-19.4833438464
 20
6.0109482203
 10
-19.4911333816
 20
6.0146931603
  0
LINE
  5
350
100
AcDbEntity
  8
C_COPERCHIO
100
AcDbLine
 62
250
  6
CONTINUOUS
 10
-54.0818964231
 20
23.310074681
 11
-19.4911333817
 21
6.0146931603
  0
LINE
  5
351
100
AcDbEntity
  8
C_COPERCHIO
100
AcDbLine
 62
250
  6
CONTINUOUS
 10
-53.5057701076
 20
24.4244863677
 11
-18.8997224879
 21
7.1214625579
  0
LWPOLYLINE
  5
352
100
AcDbEntity
  8
C_COPERCHIO
100
AcDbPolyline
 62
7
  6
CONTINUOUS
 90
7
 70
0
 10
-16.922253679
 20
23.7239453633
 10
-16.9222621244
 20
23.7244542641
 10
-16.9226643939
 20
23.7274851559
 10
-16.9236894756
 20
23.7300871919
 10
-16.9253730422
 20
23.7322477642
 10
-16.9277399142
 20
23.7339532559
 10
-16.9281287298
 20
23.7341558142
  0
LWPOLYLINE
  5
353
100
AcDbEntity
  8
C_COPERCHIO
100
AcDbPolyline
 62
250
  6
CONTINUOUS
 90
24
 70
0
 10
-16.8513247111
 20
-26.3891039513
 10
-16.8511844937
 20
-26.3976554431
 10
-16.8507640637
 20
-26.406053158
 10
-16.8500640872
 20
-26.4142837735
 10
-16.8490856738
 20
-26.4223342348
 10
-16.8478303752
 20
-26.4301917678
 10
-16.8463001836
 20
-26.4378439002
 10
-16.8444975271
 20
-26.4452784908
 10
-16.8424252652
 20
-26.4524837478
 10
-16.8400866856
 20
-26.4594482403
 10
-16.8374854982
 20
-26.4661609204
 10
-16.8346258298
 20
-26.4726111391
 10
-16.8315122179
 20
-26.4787886626
 10
-16.8281496023
 20
-26.4846836911
 10
-16.8245433175
 20
-26.4902868736
 10
-16.8206990856
 20
-26.4955893207
 10
-16.8166230052
 20
-26.5005826217
 10
-16.8123215431
 20
-26.5052588555
 10
-16.8078015249
 20
-26.509610603
 10
-16.8030701224
 20
-26.5136309612
 10
-16.7981348414
 20
-26.5173135539
 10
-16.7930035109
 20
-26.5206525405
 10
-16.78768427
 20
-26.5236426259
 10
-16.7863561691
 20
-26.5243200241
  0
LINE
  5
354
100
AcDbEntity
  8
C_COPERCHIO
100
AcDbLine
 62
7
  6
CONTINUOUS
 10
-18.5466272481
 20
23.4158294977
 11
-18.5466272481
 21
23.0936139742
  0
LINE
  5
355
100
AcDbEntity
  8
C_COPERCHIO
100
AcDbLine
 62
7
  6
CONTINUOUS
 10
-18.105755041
 20
24.6127083059
 11
-18.105755041
 21
24.3229689698
  0
LINE
  5
356
100
AcDbEntity
  8
C_COPERCHIO
100
AcDbLine
 62
7
  6
CONTINUOUS
 10
-18.0600554567
 20
16.1258596529
 11
-18.0600554567
 21
15.4479183841
  0
LINE
  5
357
100
AcDbEntity
  8
C_COPERCHIO
100
AcDbLine
 62
250
  6
CONTINUOUS
 10
-17.2088630914
 20
23.6034048296
 11
-17.2088630914
 21
23.1347347317
  0
LINE
  5
358
100
AcDbEntity
  8
C_MOLLE_IDEA
100
AcDbLine
 62
7
  6
CONTINUOUS
 10
-17.1507227006
 20
17.7510426635
 11
-17.1507227006
 21
18.0108502847
  0
LINE
  5
359
100
AcDbEntity
  8
C_COPERCHIO
100
AcDbLine
 62
7
  6
CONTINUOUS
 10
-16.922254891
 20
23.7239458301
 11
-16.922254891
 21
23.1643466581
  0
LINE
  5
35A
100
AcDbEntity
  8
C_MOLLE_IDEA
100
AcDbLine
 62
7
  6
CONTINUOUS
 10
-16.8678799881
 20
17.8924640198
 11
-16.8678799881
 21
18.1522716409
  0
LINE
  5
35B
100
AcDbEntity
  8
C_COPERCHIO
100
AcDbLine
 62
250
  6
CONTINUOUS
 10
-16.8513247111
 20
11.9297708772
 11
-16.8513247111
 21
9.0516110541
  0
LINE
  5
35C
100
AcDbEntity
  8
C_COPERCHIO
100
AcDbLine
 62
250
  6
CONTINUOUS
 10
-16.8513247111
 20
-23.5109441282
 11
-16.8513247111
 21
-26.3891039513
  0
LINE
  5
35D
100
AcDbEntity
  8
C_COPERCHIO
100
AcDbLine
 62
250
  6
CONTINUOUS
 10
-16.6670610439
 20
15.8381167763
 11
-16.6670610439
 21
15.1644988072
  0
LINE
  5
35E
100
AcDbEntity
  8
C_MOLLE_IDEA
100
AcDbLine
 62
250
  6
CONTINUOUS
 10
-16.6557479537
 20
18.5181452792
 11
-16.6557479537
 21
18.8645554407
  0
LINE
  5
35F
100
AcDbEntity
  8
C_COPERCHIO
100
AcDbLine
 62
250
  6
CONTINUOUS
 10
-16.5008834232
 20
11.9282417498
 11
-16.5008834232
 21
9.0500819267
  0
LINE
  5
360
100
AcDbEntity
  8
C_COPERCHIO
100
AcDbLine
 62
250
  6
CONTINUOUS
 10
-16.5008834232
 20
-23.5124732556
 11
-16.5008834232
 21
-26.3906330787
  0
LINE
  5
361
100
AcDbEntity
  8
C_COPERCHIO
100
AcDbLine
 62
7
  6
CONTINUOUS
 10
-16.3178820485
 20
9.1384431134
 11
-16.3178820485
 21
8.4862503626
  0
LINE
  5
362
100
AcDbEntity
  8
C_COPERCHIO
100
AcDbLine
 62
7
  6
CONTINUOUS
 10
-16.3178820485
 20
-22.7719193182
 11
-16.3178820485
 21
-23.4241120689
  0
LINE
  5
363
100
AcDbEntity
  8
C_MOLLE_IDEA
100
AcDbLine
 62
250
  6
CONTINUOUS
 10
-16.2921798211
 20
18.6999293455
 11
-16.2921798211
 21
19.046339507
  0
LWPOLYLINE
  5
364
100
AcDbEntity
  8
C_MOLLE_IDEA
100
AcDbPolyline
 62
7
  6
CONTINUOUS
 90
19
 70
0
 10
-17.1507227006
 20
18.0108502847
 10
-17.1487210077
 20
18.0653394252
 10
-17.1430990559
 20
18.120450637
 10
-17.1338568451
 20
18.17618392
 10
-17.1208695674
 20
18.2329707096
 10
-17.1042620308
 20
18.2903795705
 10
-17.0844086587
 20
18.3471161969
 10
-17.0612357185
 20
18.4031653182
 10
-17.0348169429
 20
18.4585422049
 10
-17.0057479537
 20
18.5119983631
 10
-16.9739685485
 20
18.563490161
 10
-16.9395389298
 20
18.6130612303
 10
-16.9032353272
 20
18.6595939714
 10
-16.8650151709
 20
18.7030193651
 10
-16.8249210307
 20
18.7434064305
 10
-16.7838568451
 20
18.779844625
 10
-16.7421239268
 20
18.8120304345
 10
-16.699420963
 20
18.840267373
 10
-16.6557479537
 20
18.8645554407
  0
LWPOLYLINE
  5
365
100
AcDbEntity
  8
C_MOLLE_IDEA
100
AcDbPolyline
 62
7
  6
CONTINUOUS
 90
16
 70
0
 10
-16.8678799881
 20
18.1522716409
 10
-16.8666134558
 20
18.1805397696
 10
-16.8631526289
 20
18.2090318398
 10
-16.8574975073
 20
18.2377478515
 10
-16.8495388524
 20
18.2670050009
 10
-16.8393859028
 20
18.2964860918
 10
-16.8273663746
 20
18.3252395358
 10
-16.8134193633
 20
18.3532415905
 10
-16.7976057736
 20
18.3805159984
 10
-16.7804360351
 20
18.4061823982
 10
-16.7618658982
 20
18.4301883221
 10
-16.7419396126
 20
18.4525862379
 10
-16.7213003574
 20
18.4726531873
 10
-16.7001625258
 20
18.4901481843
 10
-16.6783117245
 20
18.5053122149
 10
-16.6557479537
 20
18.5181452792
  0
LINE
  5
366
100
AcDbEntity
  8
C_MOLLE_IDEA
100
AcDbLine
 62
250
  6
CONTINUOUS
 10
-14.9314776111
 20
19.9401257316
 11
-14.9519088706
 21
19.8528969795
  0
LINE
  5
367
100
AcDbEntity
  8
C_MOLLE_IDEA
100
AcDbLine
 62
250
  6
CONTINUOUS
 10
-12.9503590064
 20
20.3764562422
 11
-12.9670440398
 21
20.3052215419
  0
LWPOLYLINE
  5
368
100
AcDbEntity
  8
C_MOLLE_IDEA
100
AcDbPolyline
 62
7
  6
CONTINUOUS
 90
12
 70
0
 10
-13.0036670911
 20
20.3513574575
 10
-13.0030057302
 20
20.3534916771
 10
-13.0012492414
 20
20.3569132885
 10
-12.9986610752
 20
20.3601136181
 10
-12.9952517505
 20
20.3630954647
 10
-12.9910647544
 20
20.3658207938
 10
-12.9860901251
 20
20.3682863195
 10
-12.9803378244
 20
20.3704953277
 10
-12.9738812249
 20
20.3724196417
 10
-12.9667447842
 20
20.3740498694
 10
-12.9589040447
 20
20.3753954029
 10
-12.9503590064
 20
20.3764562422
  0
LINE
  5
369
100
AcDbEntity
  8
C_COPERCHIO
100
AcDbLine
 62
250
  6
CONTINUOUS
 10
-33.1608228412
 20
8.3921393621
 11
-31.8118502223
 21
8.6788980622
  0
LINE
  5
36A
100
AcDbEntity
  8
C_COPERCHIO
100
AcDbLine
 62
250
  6
CONTINUOUS
 10
-33.8346229516
 20
8.2491074182
 11
-33.1608228412
 21
8.3921393621
  0
LWPOLYLINE
  5
36B
100
AcDbEntity
  8
C_COPERCHIO
100
AcDbPolyline
 62
7
  6
CONTINUOUS
 90
4
 70
0
 10
-33.2244140584
 20
8.0417666787
 10
-33.0233835425
 20
8.0843067992
 10
-32.7974228134
 20
8.132137393
 10
-31.7878487953
 20
8.3460355677
  0
LWPOLYLINE
  5
36C
100
AcDbEntity
  8
C_COPERCHIO
100
AcDbPolyline
 62
7
  6
CONTINUOUS
 90
73
 70
0
 10
-33.2244134595
 20
8.0417636156
 10
-33.229189387
 20
8.0407920585
 10
-33.2379224662
 20
8.0392114315
 10
-33.2467583744
 20
8.0378427468
 10
-33.255688518
 20
8.0366883644
 10
-33.2647060636
 20
8.0357506331
 10
-33.2737983882
 20
8.0350096139
 10
-33.2829577684
 20
8.0344670297
 10
-33.2921780965
 20
8.0341251948
 10
-33.3014497112
 20
8.0339648866
 10
-33.3107658251
 20
8.0339873373
 10
-33.3201209848
 20
8.0341947367
 10
-33.329508073
 20
8.0345691555
 10
-33.33892121
 20
8.035111474
 10
-33.3483555251
 20
8.0358236944
 10
-33.3578059151
 20
8.0366894593
 10
-33.3672673583
 20
8.0377094179
 10
-33.3767354658
 20
8.0388853447
 10
-33.3862065108
 20
8.0402024932
 10
-33.395676066
 20
8.0416613382
 10
-33.4051403171
 20
8.0432634445
 10
-33.4145968056
 20
8.0449956544
 10
-33.4240418143
 20
8.046858359
 10
-33.433471827
 20
8.0488528922
 10
-33.4428849597
 20
8.0509674903
 10
-33.4522779739
 20
8.0532024832
 10
-33.4616477288
 20
8.055559007
 10
-33.4709926925
 20
8.0580265044
 10
-33.4803100243
 20
8.0606052638
 10
-33.4895969084
 20
8.063296249
 10
-33.4988519992
 20
8.066089927
 10
-33.5080727882
 20
8.0689865567
 10
-33.5172567403
 20
8.071986954
 10
-33.5264025748
 20
8.075082441
 10
-33.5355080634
 20
8.0782732548
 10
-33.5445709128
 20
8.0815600841
 10
-33.5535898137
 20
8.084934952
 10
-33.5625627806
 20
8.0883980801
 10
-33.5714877261
 20
8.0919500456
 10
-33.5803632336
 20
8.0955834308
 10
-33.5891875285
 20
8.0992984446
 10
-33.597958703
 20
8.1030955659
 10
-33.6066751683
 20
8.1069678068
 10
-33.6153353377
 20
8.1109153646
 10
-33.6239374622
 20
8.1149386297
 10
-33.6324797279
 20
8.1190309265
 10
-33.6409607207
 20
8.1231924398
 10
-33.6493788343
 20
8.1274234788
 10
-33.6577319842
 20
8.1317175711
 10
-33.6660188507
 20
8.1360748493
 10
-33.6742380299
 20
8.140495583
 10
-33.6823873283
 20
8.1449735156
 10
-33.6904656463
 20
8.1495087976
 10
-33.6984716381
 20
8.1541015936
 10
-33.7064027666
 20
8.1587456723
 10
-33.7142580577
 20
8.1634411461
 10
-33.7220363197
 20
8.1681881251
 10
-33.7297347297
 20
8.1729803676
 10
-33.7373524657
 20
8.1778179545
 10
-33.7448884698
 20
8.1827009295
 10
-33.7523396263
 20
8.1876229757
 10
-33.7597052699
 20
8.1925841341
 10
-33.7669844865
 20
8.1975843825
 10
-33.7741738748
 20
8.2026172761
 10
-33.7812729314
 20
8.2076828049
 10
-33.7882809027
 20
8.2127808818
 10
-33.7951941307
 20
8.2179048983
 10
-33.8020122836
 20
8.2230547668
 10
-33.8087347864
 20
8.2282303505
 10
-33.8153577709
 20
8.2334249029
 10
-33.8218797978
 20
8.2386360417
 10
-33.8283017995
 20
8.2438657773
 10
-33.8346235854
 20
8.2491139052
  0
LWPOLYLINE
  5
36D
100
AcDbEntity
  8
C_CORPO
100
AcDbPolyline
 62
250
  6
CONTINUOUS
 90
24
 70
0
 10
-3.0034191664
 20
5.3434463945
 10
-2.968636267
 20
5.3334887146
 10
-2.935042633
 20
5.3241112114
 10
-2.9029799247
 20
5.315330888
 10
-2.8724801507
 20
5.3071761314
 10
-2.8434476618
 20
5.2996571634
 10
-2.8160078038
 20
5.2927429286
 10
-2.7901335747
 20
5.2864362066
 10
-2.7657797073
 20
5.2807517486
 10
-2.7430340094
 20
5.2756636905
 10
-2.7218646911
 20
5.2711602111
 10
-2.7022213686
 20
5.2672452145
 10
-2.6841528003
 20
5.2639004248
 10
-2.6676462749
 20
5.2611053099
 10
-2.6526214797
 20
5.2588412355
 10
-2.6390226652
 20
5.2570845701
 10
-2.6268041867
 20
5.2558079949
 10
-2.6159319332
 20
5.2549967744
 10
-2.6063667349
 20
5.2546399613
 10
-2.5980885888
 20
5.2547014569
 10
-2.5910344232
 20
5.2551504928
 10
-2.5851021865
 20
5.2559822031
 10
-2.5802549075
 20
5.2571685533
 10
-2.5761976313
 20
5.2588204249
  0
LWPOLYLINE
  5
36E
100
AcDbEntity
  8
ASSI
100
AcDbPolyline
 62
250
  6
CONTINUOUS
 90
24
 70
0
 10
-3.0034191664
 20
5.3434463945
 10
-2.968636267
 20
5.3334887146
 10
-2.935042633
 20
5.3241112114
 10
-2.9029799247
 20
5.315330888
 10
-2.8724801507
 20
5.3071761314
 10
-2.8434476618
 20
5.2996571634
 10
-2.8160078038
 20
5.2927429286
 10
-2.7901335747
 20
5.2864362066
 10
-2.7657797073
 20
5.2807517486
 10
-2.7430340094
 20
5.2756636905
 10
-2.7218646911
 20
5.2711602111
 10
-2.7022213686
 20
5.2672452145
 10
-2.6841528003
 20
5.2639004248
 10
-2.6676462749
 20
5.2611053099
 10
-2.6526214797
 20
5.2588412355
 10
-2.6390226652
 20
5.2570845701
 10
-2.6268041867
 20
5.2558079949
 10
-2.6159319332
 20
5.2549967744
 10
-2.6063667349
 20
5.2546399613
 10
-2.5980885888
 20
5.2547014569
 10
-2.5910344232
 20
5.2551504928
 10
-2.5851021865
 20
5.2559822031
 10
-2.5802549075
 20
5.2571685533
 10
-2.5761976313
 20
5.2588204249
  0
LWPOLYLINE
  5
36F
100
AcDbEntity
  8
C_CORPO
100
AcDbPolyline
 62
250
  6
CONTINUOUS
 90
3
 70
0
 10
-3.1145927522
 20
5.3764021329
 10
-3.0763301045
 20
5.3649454799
 10
-3.0034191664
 20
5.3434463945
  0
LWPOLYLINE
  5
370
100
AcDbEntity
  8
ASSI
100
AcDbPolyline
 62
250
  6
CONTINUOUS
 90
3
 70
0
 10
-3.1145927522
 20
5.3764021329
 10
-3.0763301045
 20
5.3649454799
 10
-3.0034191664
 20
5.3434463945
  0
LINE
  5
371
100
AcDbEntity
  8
C_COPERCHIO
100
AcDbLine
 62
7
  6
CONTINUOUS
 10
-16.4941498545
 20
8.7935643145
 11
-51.1827356186
 21
26.1378571965
  0
LINE
  5
372
100
AcDbEntity
  8
C_COPERCHIO
100
AcDbLine
 62
7
  6
CONTINUOUS
 10
-16.8513247111
 20
9.0516110541
 11
-51.5326675432
 21
26.3922824701
  0
LWPOLYLINE
  5
373
100
AcDbEntity
  8
C_COPERCHIO
100
AcDbPolyline
 62
7
  6
CONTINUOUS
 90
21
 70
0
 10
-51.5326675432
 20
26.3922824701
 10
-51.5395812115
 20
26.3958809873
 10
-51.5461844902
 20
26.3996026788
 10
-51.5524773794
 20
26.4034475446
 10
-51.55846988
 20
26.4074228992
 10
-51.5641519911
 20
26.4115214282
 10
-51.5694937099
 20
26.4157211886
 10
-51.5744910672
 20
26.4200204848
 10
-51.5791480323
 20
26.4244210123
 10
-51.5834465101
 20
26.428905915
 10
-51.5873874337
 20
26.4334787207
 10
-51.5909698701
 20
26.4381359015
 10
-51.594172925
 20
26.4428500174
 10
-51.5969924565
 20
26.4476174092
 10
-51.5994326065
 20
26.4524417362
 10
-51.6014849059
 20
26.4573065357
 10
-51.6031491409
 20
26.4622165334
 10
-51.6044255255
 20
26.4671670037
 10
-51.6053062318
 20
26.4721273072
 10
-51.6057887451
 20
26.4770926349
 10
-51.6058908479
 20
26.4806695464
  0
LWPOLYLINE
  5
374
100
AcDbEntity
  8
C_COPERCHIO
100
AcDbPolyline
 62
250
  6
CONTINUOUS
 90
37
 70
0
 10
-18.6953609443
 20
6.8336764253
 10
-18.6968849167
 20
6.842387847
 10
-18.6987353055
 20
6.8512532533
 10
-18.700908602
 20
6.8602558333
 10
-18.703400685
 20
6.8693785164
 10
-18.7062068292
 20
6.8786040037
 10
-18.7093217134
 20
6.8879148019
 10
-18.7127394312
 20
6.8972932556
 10
-18.7164535017
 20
6.9067215812
 10
-18.7204568824
 20
6.9161819004
 10
-18.7247419819
 20
6.9256562746
 10
-18.7293006748
 20
6.9351267381
 10
-18.7341243168
 20
6.944575333
 10
-18.7392037611
 20
6.9539841425
 10
-18.7445293762
 20
6.9633353255
 10
-18.7500910633
 20
6.9726111501
 10
-18.7558782765
 20
6.9817940274
 10
-18.7618800417
 20
6.9908665445
 10
-18.7680849785
 20
6.9998114979
 10
-18.7744813208
 20
7.0086119261
 10
-18.7810569398
 20
7.0172511415
 10
-18.7877993667
 20
7.0257127622
 10
-18.7946958163
 20
7.0339807431
 10
-18.8017332114
 20
7.0420394064
 10
-18.8088982077
 20
7.0498734709
 10
-18.8161772187
 20
7.0574680817
 10
-18.8235564417
 20
7.0648088375
 10
-18.8310218843
 20
7.0718818188
 10
-18.8385593901
 20
7.0786736136
 10
-18.8461546665
 20
7.0851713431
 10
-18.8537933112
 20
7.0913626862
 10
-18.8614608395
 20
7.0972359028
 10
-18.8691427122
 20
7.1027798559
 10
-18.8768243627
 20
7.107984033
 10
-18.8844912249
 20
7.1128385658
 10
-18.8921287608
 20
7.117334249
 10
-18.8997224879
 20
7.1214625579
  0
LWPOLYLINE
  5
375
100
AcDbEntity
  8
C_COPERCHIO
100
AcDbPolyline
 62
250
  6
CONTINUOUS
 90
80
 70
0
 10
-14.392606384
 20
-25.6454312759
 10
-14.3921455464
 20
-25.6603357858
 10
-14.3908418378
 20
-25.6745862993
 10
-14.3886955424
 20
-25.6888113185
 10
-14.3857085455
 20
-25.7029983446
 10
-14.3818834739
 20
-25.7171349307
 10
-14.3772236743
 20
-25.731208731
 10
-14.3717332134
 20
-25.7452074632
 10
-14.3654168821
 20
-25.7591188983
 10
-14.3582802156
 20
-25.772930833
 10
-14.3503294813
 20
-25.7866311385
 10
-14.3415716611
 20
-25.8002077953
 10
-14.3320144098
 20
-25.8136489474
 10
-14.3216660622
 20
-25.8269428727
 10
-14.3105356472
 20
-25.8400779623
 10
-14.298632926
 20
-25.8530426881
 10
-14.2859683579
 20
-25.8658256572
 10
-14.2725530639
 20
-25.8784156529
 10
-14.2583987633
 20
-25.8908016844
 10
-14.2435177979
 20
-25.9029729516
 10
-14.2279231538
 20
-25.9149188263
 10
-14.2116285116
 20
-25.9266288222
 10
-14.1946481912
 20
-25.9380926483
 10
-14.1769971022
 20
-25.9493002452
 10
-14.1586906601
 20
-25.9602418307
 10
-14.1397448247
 20
-25.9709078658
 10
-14.12017613
 20
-25.9812890366
 10
-14.1000017464
 20
-25.9913762288
 10
-14.0792394055
 20
-26.0011605765
 10
-14.057907336
 20
-26.0106334946
 10
-14.0360241657
 20
-26.019786716
 10
-14.0136089725
 20
-26.0286122609
 10
-13.9906813207
 20
-26.0371024215
 10
-13.9672613294
 20
-26.0452497431
 10
-13.9433695806
 20
-26.0530470656
 10
-13.9190270468
 20
-26.0604875486
 10
-13.8942549844
 20
-26.0675646994
 10
-13.8690749937
 20
-26.0742723468
 10
-13.8435090557
 20
-26.0806046313
 10
-13.8175796044
 20
-26.0865559924
 10
-13.7913094254
 20
-26.0921212004
 10
-13.7647215754
 20
-26.0972953746
 10
-13.7378392719
 20
-26.1020740007
 10
-13.7106859588
 20
-26.1064529112
 10
-13.6832853479
 20
-26.1104282789
 10
-13.6556614782
 20
-26.1139966127
 10
-13.6278386079
 20
-26.1171547789
 10
-13.5998411438
 20
-26.1199000098
 10
-13.5716935438
 20
-26.1222299101
 10
-13.5434203718
 20
-26.1241424464
 10
-13.5150463197
 20
-26.1256359453
 10
-13.4865962809
 20
-26.1267090935
 10
-13.458095254
 20
-26.1273609484
 10
-13.4295682468
 20
-26.1275909416
 10
-13.4010401717
 20
-26.1273988761
 10
-13.3725359182
 20
-26.1267849199
 10
-13.3440804063
 20
-26.125749608
 10
-13.3156985763
 20
-26.1242938458
 10
-13.2874152841
 20
-26.1224189071
 10
-13.2592552985
 20
-26.1201264335
 10
-13.231243259
 20
-26.1174184303
 10
-13.2034036668
 20
-26.1142972649
 10
-13.1757608363
 20
-26.1107656602
 10
-13.1483390226
 20
-26.1068267121
 10
-13.1211623766
 20
-26.1024838914
 10
-13.0942547764
 20
-26.0977410216
 10
-13.0676396782
 20
-26.092602245
 10
-13.0413402476
 20
-26.0870720366
 10
-13.0153794864
 20
-26.0811552315
 10
-12.9897801404
 20
-26.0748570122
 10
-12.9645645543
 20
-26.068182873
 10
-12.9397546744
 20
-26.0611386142
 10
-12.9153723571
 20
-26.0537304327
 10
-12.8914392659
 20
-26.0459649154
 10
-12.8679766269
 20
-26.0378489738
 10
-12.8450046616
 20
-26.0293896275
 10
-12.8225429264
 20
-26.0205940747
 10
-12.8006109307
 20
-26.0114699256
 10
-12.7792280789
 20
-26.0020252226
 10
-12.758413113
 20
-25.9922682201
  0
LWPOLYLINE
  5
376
100
AcDbEntity
  8
C_COPERCHIO
100
AcDbPolyline
 62
250
  6
CONTINUOUS
 90
80
 70
0
 10
-14.392606384
 20
15.4907754039
 10
-14.3921455446
 20
15.4758708654
 10
-14.3908418342
 20
15.461620351
 10
-14.3886955368
 20
15.4473953305
 10
-14.3857085379
 20
15.4332083034
 10
-14.3818834643
 20
15.4190717169
 10
-14.3772236626
 20
15.4049979166
 10
-14.3717331996
 20
15.390999184
 10
-14.3654168658
 20
15.3770877479
 10
-14.3582801965
 20
15.3632758119
 10
-14.3503294594
 20
15.3495755057
 10
-14.3415716369
 20
15.3359988488
 10
-14.3320143835
 20
15.322557697
 10
-14.3216660335
 20
15.3092637718
 10
-14.3105356156
 20
15.2961286816
 10
-14.2986328911
 20
15.2831639552
 10
-14.2859683199
 20
15.2703809856
 10
-14.2725530232
 20
15.25779099
 10
-14.2583987201
 20
15.2454049589
 10
-14.2435177521
 20
15.2332336919
 10
-14.2279231048
 20
15.2212878171
 10
-14.211628459
 20
15.209577821
 10
-14.1946481352
 20
15.1981139948
 10
-14.1769970432
 20
15.1869063982
 10
-14.1586905984
 20
15.1759648133
 10
-14.1397447602
 20
15.1652987787
 10
-14.1201760623
 20
15.1549176082
 10
-14.1000016752
 20
15.1448304164
 10
-14.079239331
 20
15.1350460691
 10
-14.0579072584
 20
15.1255731517
 10
-14.0360240849
 20
15.116419931
 10
-14.0136088887
 20
15.1075943869
 10
-13.9906812339
 20
15.0991042271
 10
-13.9672612397
 20
15.0909569065
 10
-13.943369488
 20
15.0831595849
 10
-13.9190269509
 20
15.0757191028
 10
-13.894254885
 20
15.068641953
 10
-13.8690748911
 20
15.0619343066
 10
-13.8435089506
 20
15.0556020234
 10
-13.8175794972
 20
15.0496506637
 10
-13.7913093156
 20
15.0440854571
 10
-13.7647214621
 20
15.038911284
 10
-13.7378391547
 20
15.0341326592
 10
-13.7106858384
 20
15.0297537501
 10
-13.683285226
 20
15.0257783841
 10
-13.6556613557
 20
15.0222100522
 10
-13.6278384841
 20
15.0190518878
 10
-13.5998410173
 20
15.0163066585
 10
-13.5716934139
 20
15.0139767599
 10
-13.5434202391
 20
15.0120642254
 10
-13.5150461857
 20
15.0105707284
 10
-13.4865961461
 20
15.0094975821
 10
-13.4580951173
 20
15.0088457293
 10
-13.4295681056
 20
15.0086157381
 10
-13.401040025
 20
15.0088078058
 10
-13.3725357683
 20
15.0094217642
 10
-13.3440802576
 20
15.0104570782
 10
-13.3156984311
 20
15.0119128425
 10
-13.2874151421
 20
15.0137877831
 10
-13.2592551588
 20
15.0160802587
 10
-13.2312431214
 20
15.0187882638
 10
-13.2034035297
 20
15.0219094313
 10
-13.1757606978
 20
15.0254410383
 10
-13.1483388812
 20
15.0293799891
 10
-13.1211622304
 20
15.0337228129
 10
-13.0942546205
 20
15.0384656869
 10
-13.067639511
 20
15.0436044684
 10
-13.0413400752
 20
15.0491346809
 10
-13.0153793204
 20
15.0550514876
 10
-12.9897799865
 20
15.0613497069
 10
-12.9645644088
 20
15.0680238467
 10
-12.9397545302
 20
15.0750681079
 10
-12.9153722111
 20
15.0824762929
 10
-12.8914391162
 20
15.0902418145
 10
-12.867976464
 20
15.0983577642
 10
-12.8450044842
 20
15.1068171197
 10
-12.8225427575
 20
15.1156126732
 10
-12.8006107994
 20
15.1247368104
 10
-12.7792280045
 20
15.134181491
 10
-12.758413113
 20
15.1439384597
  0
LWPOLYLINE
  5
377
100
AcDbEntity
  8
C_COPERCHIO
100
AcDbPolyline
 62
7
  6
CONTINUOUS
 90
76
 70
0
 10
-14.392606384
 20
-25.6454312759
 10
-14.3922494123
 20
-25.6629210578
 10
-14.3911753873
 20
-25.6804339219
 10
-14.3893806195
 20
-25.6979465464
 10
-14.3868677557
 20
-25.7154051501
 10
-14.3836332345
 20
-25.7328172068
 10
-14.3796546643
 20
-25.7502504786
 10
-14.3749217533
 20
-25.7676822963
 10
-14.3694262783
 20
-25.7850866658
 10
-14.3631284074
 20
-25.8025239348
 10
-14.3559799143
 20
-25.8200397219
 10
-14.3479898294
 20
-25.8375333545
 10
-14.3392107891
 20
-25.8548514056
 10
-14.3297273671
 20
-25.8718335359
 10
-14.3194713287
 20
-25.8886081043
 10
-14.3082427073
 20
-25.9054497835
 10
-14.2958576309
 20
-25.9225215312
 10
-14.2824100113
 20
-25.9395863992
 10
-14.2681161618
 20
-25.9563269911
 10
-14.2531217287
 20
-25.9725838992
 10
-14.2373000656
 20
-25.9885042292
 10
-14.2204707298
 20
-26.0042429429
 10
-14.2024470576
 20
-26.0199146129
 10
-14.1833540699
 20
-26.0353518917
 10
-14.1634892408
 20
-26.0502980751
 10
-14.1429580673
 20
-26.0646898283
 10
-14.1216801491
 20
-26.0785974094
 10
-14.0997142041
 20
-26.0919910033
 10
-14.0770486251
 20
-26.1048863344
 10
-14.053716954
 20
-26.1172713267
 10
-14.0298647303
 20
-26.1290826166
 10
-14.0055276891
 20
-26.1403221763
 10
-13.9807131365
 20
-26.1510043479
 10
-13.955546809
 20
-26.1610948886
 10
-13.9301110479
 20
-26.1705856244
 10
-13.9043795081
 20
-26.179509342
 10
-13.8783242375
 20
-26.1878928533
 10
-13.8519380504
 20
-26.1957512056
 10
-13.8252737744
 20
-26.2030803106
 10
-13.7983976043
 20
-26.2098750738
 10
-13.7713608443
 20
-26.2161368638
 10
-13.7441622047
 20
-26.2218793648
 10
-13.7167932859
 20
-26.2271151013
 10
-13.6892786433
 20
-26.2318484825
 10
-13.6616397274
 20
-26.2360842725
 10
-13.6338642344
 20
-26.2398312084
 10
-13.6059622884
 20
-26.2430929744
 10
-13.5779673747
 20
-26.2458702265
 10
-13.5499032481
 20
-26.2481650886
 10
-13.5218033445
 20
-26.2499792273
 10
-13.4936776597
 20
-26.251315984
 10
-13.4655154534
 20
-26.2521783479
 10
-13.4373296786
 20
-26.2525670067
 10
-13.4091497686
 20
-26.2524822778
 10
-13.3809897899
 20
-26.2519245989
 10
-13.3528789824
 20
-26.2508946151
 10
-13.3248302033
 20
-26.249392505
 10
-13.2968327756
 20
-26.2474160251
 10
-13.268892748
 20
-26.2449623446
 10
-13.2410467299
 20
-26.2420310152
 10
-13.2133289782
 20
-26.2386222996
 10
-13.1857819915
 20
-26.2347385743
 10
-13.1584048114
 20
-26.230376405
 10
-13.1311656478
 20
-26.22552487
 10
-13.1040640045
 20
-26.2201753071
 10
-13.0771452595
 20
-26.2143274494
 10
-13.0504447897
 20
-26.2079801321
 10
-13.0239842991
 20
-26.2011293239
 10
-12.9977858937
 20
-26.1937707558
 10
-12.9718810307
 20
-26.1859027293
 10
-12.9463109341
 20
-26.1775273304
 10
-12.9210765005
 20
-26.1686334051
 10
-12.8961463698
 20
-26.1591944935
 10
-12.8715262891
 20
-26.1491930532
 10
-12.8472599225
 20
-26.1386253946
 10
-12.8233747802
 20
-26.1274810939
  0
LINE
  5
378
100
AcDbEntity
  8
C_CORPO
100
AcDbLine
 62
7
  6
CONTINUOUS
 10
-15.7718644773
 20
18.766401066
 11
-15.7718644773
 21
18.5444535066
  0
LINE
  5
379
100
AcDbEntity
  8
ASSI
100
AcDbLine
 62
7
  6
CONTINUOUS
 10
-15.7718644773
 20
18.766401066
 11
-15.7718644773
 21
18.5444535066
  0
LINE
  5
37A
100
AcDbEntity
  8
C_CORPO
100
AcDbLine
 62
250
  6
CONTINUOUS
 10
-15.7597391703
 20
18.5506657773
 11
-15.7597391703
 21
18.7676385295
  0
LINE
  5
37B
100
AcDbEntity
  8
ASSI
100
AcDbLine
 62
250
  6
CONTINUOUS
 10
-15.7597391703
 20
18.5506657773
 11
-15.7597391703
 21
18.7676385295
  0
LINE
  5
37C
100
AcDbEntity
  8
C_CORPO
100
AcDbLine
 62
7
  6
CONTINUOUS
 10
-15.4790789706
 20
18.6944590158
 11
-15.4790789706
 21
18.7962816622
  0
LINE
  5
37D
100
AcDbEntity
  8
ASSI
100
AcDbLine
 62
7
  6
CONTINUOUS
 10
-15.4790789706
 20
18.6944590158
 11
-15.4790789706
 21
18.7962816622
  0
LINE
  5
37E
100
AcDbEntity
  8
C_COPERCHIO
100
AcDbLine
 62
7
  6
CONTINUOUS
 10
-14.392606384
 20
-25.6454312759
 11
-14.392606384
 21
-25.5222129298
  0
LINE
  5
37F
100
AcDbEntity
  8
C_COPERCHIO
100
AcDbLine
 62
7
  6
CONTINUOUS
 10
-14.392606384
 20
14.3671636158
 11
-14.392606384
 21
15.4907754039
  0
LINE
  5
380
100
AcDbEntity
  8
C_COPERCHIO
100
AcDbLine
 62
7
  6
CONTINUOUS
 10
-12.9263910283
 20
20.6057113878
 11
-12.9263910283
 21
20.2834958643
  0
LWPOLYLINE
  5
381
100
AcDbEntity
  8
C_COPERCHIO
100
AcDbPolyline
 62
250
  6
CONTINUOUS
 90
25
 70
0
 10
-18.6953609443
 20
-23.4152500629
 10
-18.6968849169
 20
-23.4251036623
 10
-18.6987353061
 20
-23.4347680737
 10
-18.7009086029
 20
-23.4442249714
 10
-18.7034006865
 20
-23.4534564229
 10
-18.7062068312
 20
-23.4624449236
 10
-18.7093217159
 20
-23.471173429
 10
-18.7127394342
 20
-23.4796253882
 10
-18.7164535054
 20
-23.4877847743
 10
-18.7204568866
 20
-23.4956361153
 10
-18.7247419867
 20
-23.5031645234
 10
-18.7293006801
 20
-23.510355723
 10
-18.7341243226
 20
-23.517196078
 10
-18.7392037675
 20
-23.5236726177
 10
-18.7445293829
 20
-23.5297730611
 10
-18.7500910705
 20
-23.5354858404
 10
-18.755878284
 20
-23.5408001229
 10
-18.7618800495
 20
-23.5457058316
 10
-18.7680849864
 20
-23.5501936641
 10
-18.7744813289
 20
-23.5542551106
 10
-18.7810569479
 20
-23.5578824697
 10
-18.7877993747
 20
-23.561068863
 10
-18.7946958242
 20
-23.5638082486
 10
-18.8017332192
 20
-23.5660954318
 10
-18.8037255526
 20
-23.5666537682
  0
LINE
  5
382
100
AcDbEntity
  8
C_CORPO
100
AcDbLine
 62
7
  6
CONTINUOUS
 10
-2.5761876931
 20
5.2588260993
 11
-2.5844645283
 21
5.254262465
  0
LINE
  5
383
100
AcDbEntity
  8
C_CORPO
100
AcDbLine
 62
250
  6
CONTINUOUS
 10
-3.1145927919
 20
5.3764021119
 11
4.1804311654
 21
9.2451504265
  0
LINE
  5
384
100
AcDbEntity
  8
ASSI
100
AcDbLine
 62
250
  6
CONTINUOUS
 10
-3.1145927919
 20
5.3764021119
 11
4.1804311654
 21
9.2451504265
  0
LINE
  5
385
100
AcDbEntity
  8
C_CORPO
100
AcDbLine
 62
7
  6
CONTINUOUS
 10
-2.5761886262
 20
5.2588252005
 11
4.049874861
 21
8.7728057027
  0
LINE
  5
386
100
AcDbEntity
  8
ASSI
100
AcDbLine
 62
7
  6
CONTINUOUS
 10
-2.5775613702
 20
5.2580947459
 11
4.049874861
 21
8.7728057027
  0
LINE
  5
387
100
AcDbEntity
  8
C_COPERCHIO
100
AcDbLine
 62
7
  6
CONTINUOUS
 10
-36.6845475309
 20
-9.8729714467
 11
-37.4803174847
 21
-10.2708564236
  0
LINE
  5
388
100
AcDbEntity
  8
C_COPERCHIO
100
AcDbLine
 62
7
  6
CONTINUOUS
 10
-35.6009369758
 20
-9.3708526828
 11
-36.6469306052
 21
-9.8917799095
  0
LWPOLYLINE
  5
389
100
AcDbEntity
  8
C_COPERCHIO
100
AcDbPolyline
 62
7
  6
CONTINUOUS
 90
16
 70
0
 10
-13.3979611944
 20
13.8855712327
 10
-13.378276979
 20
13.8859265322
 10
-13.358684567
 20
13.8858927716
 10
-13.3392053554
 20
13.8855195684
 10
-13.3198623538
 20
13.8848686907
 10
-13.3006662361
 20
13.8839747263
 10
-13.2816167321
 20
13.8828383375
 10
-13.2627252332
 20
13.8814938916
 10
-13.2440018387
 20
13.8799811028
 10
-13.225443785
 20
13.8782968371
 10
-13.2070580855
 20
13.8764684597
 10
-13.1888515063
 20
13.8745276216
 10
-13.1708214799
 20
13.8724694637
 10
-13.1529724275
 20
13.8703162832
 10
-13.1353088028
 20
13.8680937107
 10
-13.1178291771
 20
13.8657963068
  0
LINE
  5
38A
100
AcDbEntity
  8
C_COPERCHIO
100
AcDbLine
 62
250
  6
CONTINUOUS
 10
-51.5326675432
 20
29.2704422932
 11
-16.8513247111
 21
11.9297708772
  0
LINE
  5
38B
100
AcDbEntity
  8
C_COPERCHIO
100
AcDbLine
 62
250
  6
CONTINUOUS
 10
-51.3589760267
 20
29.5737614275
 11
-16.6776331945
 21
12.2330900114
  0
LWPOLYLINE
  5
38C
100
AcDbEntity
  8
C_COPERCHIO
100
AcDbPolyline
 62
250
  6
CONTINUOUS
 90
40
 70
0
 10
-16.6776331945
 20
12.2330900114
 10
-16.6706392424
 20
12.2292932241
 10
-16.6636516278
 20
12.2251541094
 10
-16.6566816804
 20
12.2206793785
 10
-16.649740701
 20
12.2158762864
 10
-16.6428399435
 20
12.210752621
 10
-16.6359905967
 20
12.2053166894
 10
-16.629203766
 20
12.1995773055
 10
-16.6224904552
 20
12.1935437748
 10
-16.6158615493
 20
12.1872258801
 10
-16.6093277962
 20
12.180633865
 10
-16.6028997894
 20
12.1737784175
 10
-16.5965879513
 20
12.1666706531
 10
-16.5904025156
 20
12.159322096
 10
-16.5843535114
 20
12.1517446609
 10
-16.5784507462
 20
12.1439506338
 10
-16.5727037908
 20
12.1359526517
 10
-16.567121963
 20
12.1277636823
 10
-16.5617143131
 20
12.1193970029
 10
-16.5564896089
 20
12.1108661792
 10
-16.5514563216
 20
12.1021850428
 10
-16.5466226121
 20
12.0933676691
 10
-16.5419963176
 20
12.0844283542
 10
-16.5375849391
 20
12.0753815923
 10
-16.533395629
 20
12.0662420515
 10
-16.5294351799
 20
12.0570245504
 10
-16.5257100131
 20
12.047744034
 10
-16.5222261685
 20
12.0384155496
 10
-16.5189892946
 20
12.0290542221
 10
-16.5160046398
 20
12.0196752297
 10
-16.5132770432
 20
12.0102937792
 10
-16.5108109272
 20
12.0009250817
 10
-16.5086102905
 20
11.9915843271
 10
-16.506678701
 20
11.9822866604
 10
-16.5050192905
 20
11.9730471566
 10
-16.5036347497
 20
11.9638807963
 10
-16.5025273233
 20
11.9548024417
 10
-16.501698807
 20
11.9458268122
 10
-16.5011505439
 20
11.9369684607
 10
-16.5008834232
 20
11.9282417498
  0
LINE
  5
38D
100
AcDbEntity
  8
C_COPERCHIO
100
AcDbLine
 62
250
  6
CONTINUOUS
 10
-12.758413113
 20
15.1439384597
 11
-12.758413113
 21
13.8139065079
  0
LINE
  5
38E
100
AcDbEntity
  8
C_COPERCHIO
100
AcDbLine
 62
250
  6
CONTINUOUS
 10
-12.758413113
 20
-24.6622362683
 11
-12.758413113
 21
-25.9922682201
  0
LINE
  5
38F
100
AcDbEntity
  8
C_COPERCHIO
100
AcDbLine
 62
7
  6
CONTINUOUS
 10
-11.2817364167
 20
15.8569435145
 11
-11.2817364167
 21
-25.2792631652
  0
LWPOLYLINE
  5
390
100
AcDbEntity
  8
C_COPERCHIO
100
AcDbPolyline
 62
250
  6
CONTINUOUS
 90
22
 70
0
 10
-12.758413113
 20
-25.9922682201
 10
-12.7585784033
 20
-26.0016265129
 10
-12.7590739592
 20
-26.0107958287
 10
-12.7598988377
 20
-26.0197587132
 10
-12.7610514684
 20
-26.0284981049
 10
-12.7625296573
 20
-26.0369973679
 10
-12.7643305905
 20
-26.0452403234
 10
-12.7664508399
 20
-26.0532112805
 10
-12.7688863695
 20
-26.060895066
 10
-12.771632543
 20
-26.0682770533
 10
-12.774684133
 20
-26.0753431905
 10
-12.7780353307
 20
-26.0820800268
 10
-12.7816797567
 20
-26.0884747381
 10
-12.7856104738
 20
-26.0945151519
 10
-12.7898199996
 20
-26.1001897697
 10
-12.794300321
 20
-26.1054877898
 10
-12.7990429095
 20
-26.1103991269
 10
-12.8040387373
 20
-26.1149144321
 10
-12.8092782946
 20
-26.1190251103
 10
-12.8147516075
 20
-26.1227233365
 10
-12.8204482573
 20
-26.1260020709
 10
-12.8233747802
 20
-26.1274810939
  0
LWPOLYLINE
  5
391
100
AcDbEntity
  8
C_CORPO
100
AcDbPolyline
 62
7
  6
CONTINUOUS
 90
34
 70
0
 10
-2.5844645283
 20
5.254262465
 10
-2.5909546714
 20
5.2506590135
 10
-2.6042572256
 20
5.2427055349
 10
-2.6174255159
 20
5.2342426888
 10
-2.6304344209
 20
5.225270081
 10
-2.643263512
 20
5.2157848047
 10
-2.6558574308
 20
5.2058126572
 10
-2.6681945099
 20
5.195357891
 10
-2.6802543834
 20
5.1844244613
 10
-2.6919886778
 20
5.1730450458
 10
-2.7033787966
 20
5.1612288661
 10
-2.7144069298
 20
5.1489852777
 10
-2.7250316687
 20
5.1363535927
 10
-2.7352365743
 20
5.1233496236
 10
-2.7450094192
 20
5.1099850788
 10
-2.7543209434
 20
5.0962981274
 10
-2.7631587759
 20
5.0823078808
 10
-2.7715144363
 20
5.0680287663
 10
-2.7793694174
 20
5.0534951407
 10
-2.7867165056
 20
5.0387253334
 10
-2.7935490754
 20
5.0237380056
 10
-2.7998539904
 20
5.0085701395
 10
-2.8056279945
 20
4.993240947
 10
-2.8108682253
 20
4.9777704349
 10
-2.8155669718
 20
4.9621983729
 10
-2.819725376
 20
4.9465432097
 10
-2.8233443334
 20
4.9308265908
 10
-2.8264213418
 20
4.9150942341
 10
-2.8289619519
 20
4.8993649425
 10
-2.830971947
 20
4.8836596214
 10
-2.8324556523
 20
4.868027784
 10
-2.8334228636
 20
4.8524987496
 10
-2.8338855574
 20
4.8370810215
 10
-2.8339322371
 20
4.8303909932
  0
LWPOLYLINE
  5
392
100
AcDbEntity
  8
ASSI
100
AcDbPolyline
 62
7
  6
CONTINUOUS
 90
33
 70
0
 10
-2.5775613702
 20
5.2580947459
 10
-2.5909330291
 20
5.2506714837
 10
-2.6042374169
 20
5.2427178149
 10
-2.6174075702
 20
5.2342546372
 10
-2.6304183563
 20
5.225281553
 10
-2.643249338
 20
5.2157956499
 10
-2.6558451294
 20
5.2058227337
 10
-2.6681840533
 20
5.1953670558
 10
-2.6802457344
 20
5.1844325705
 10
-2.6919817756
 20
5.1730519682
 10
-2.7033735718
 20
5.1612344726
 10
-2.714403305
 20
5.1489894417
 10
-2.7250295463
 20
5.1363562046
 10
-2.7352358497
 20
5.12335058
 10
-2.7450099825
 20
5.1099842803
 10
-2.7543226711
 20
5.0962954926
 10
-2.7631615398
 20
5.0823033363
 10
-2.7715181053
 20
5.0680222444
 10
-2.7793738528
 20
5.0534865905
 10
-2.7867215666
 20
5.0387147114
 10
-2.7935546201
 20
5.0237252765
 10
-2.7998598725
 20
5.0085552857
 10
-2.8056340683
 20
4.9932239592
 10
-2.8108743461
 20
4.977751312
 10
-2.8155729941
 20
4.9621771333
 10
-2.8197311578
 20
4.9465198785
 10
-2.8233497358
 20
4.9308012023
 10
-2.8264262285
 20
4.9150668464
 10
-2.8289661929
 20
4.8993356202
 10
-2.8309754186
 20
4.8836284372
 10
-2.8324582381
 20
4.8679948354
 10
-2.8334244567
 20
4.8524641466
 10
-2.8338857335
 20
4.8370557901
  0
LWPOLYLINE
  5
393
100
AcDbEntity
  8
C_COPERCHIO
100
AcDbPolyline
 62
7
  6
CONTINUOUS
 90
4
 70
0
 10
-12.7965692525
 20
13.8184445391
 10
-12.7836224687
 20
13.8168222075
 10
-12.7709041555
 20
13.8153066219
 10
-12.758413113
 20
13.8139065079
  0
LINE
  5
394
100
AcDbEntity
  8
C_COPERCHIO
100
AcDbLine
 62
7
  6
CONTINUOUS
 10
-12.8231583646
 20
13.8219651212
 11
-12.7965692525
 21
13.8184445391
  0
LINE
  5
395
100
AcDbEntity
  8
C_COPERCHIO
100
AcDbLine
 62
7
  6
CONTINUOUS
 10
-13.1178291771
 20
13.8657963068
 11
-13.0834331028
 21
13.8610539041
  0
LINE
  5
396
100
AcDbEntity
  8
C_COPERCHIO
100
AcDbLine
 62
7
  6
CONTINUOUS
 10
-12.850638844
 20
13.8258376456
 11
-12.8231583646
 21
13.8219651212
  0
LINE
  5
397
100
AcDbEntity
  8
C_COPERCHIO
100
AcDbLine
 62
7
  6
CONTINUOUS
 10
-13.0834331028
 20
13.8610539041
 11
-13.0497982103
 21
13.8561707897
  0
LINE
  5
398
100
AcDbEntity
  8
C_COPERCHIO
100
AcDbLine
 62
7
  6
CONTINUOUS
 10
-12.878995996
 20
13.8300093501
 11
-12.850638844
 21
13.8258376456
  0
LINE
  5
399
100
AcDbEntity
  8
C_COPERCHIO
100
AcDbLine
 62
7
  6
CONTINUOUS
 10
-13.0497982103
 20
13.8561707897
 11
-13.0008010908
 21
13.8487667916
  0
LWPOLYLINE
  5
39A
100
AcDbEntity
  8
C_COPERCHIO
100
AcDbPolyline
 62
7
  6
CONTINUOUS
 90
3
 70
0
 10
-13.0008010908
 20
13.8487667916
 10
-12.9535883068
 20
13.8414565325
 10
-12.878995996
 20
13.8300093501
  0
LWPOLYLINE
  5
39B
100
AcDbEntity
  8
C_COPERCHIO
100
AcDbPolyline
 62
250
  6
CONTINUOUS
 90
19
 70
0
 10
-51.3589760267
 20
29.5737614275
 10
-51.366213308
 20
29.5770802569
 10
-51.3734338528
 20
29.5800452219
 10
-51.3806259538
 20
29.5826515152
 10
-51.38777795
 20
29.5848949109
 10
-51.3948782451
 20
29.5867717718
 10
-51.4019153271
 20
29.5882790546
 10
-51.4088777862
 20
29.5894143156
 10
-51.4157543336
 20
29.590175714
 10
-51.4225338198
 20
29.5905620154
 10
-51.4292052528
 20
29.5905725933
 10
-51.4357578157
 20
29.5902074307
 10
-51.4421808843
 20
29.5894671196
 10
-51.4484640444
 20
29.5883528603
 10
-51.4545971087
 20
29.5868664596
 10
-51.4605701331
 20
29.5850103272
 10
-51.4663734332
 20
29.5827874729
 10
-51.4719975996
 20
29.5802015006
 10
-51.4745968031
 20
29.5788508586
  0
LINE
  5
39C
100
AcDbEntity
  8
C_COPERCHIO
100
AcDbLine
 62
7
  6
CONTINUOUS
 10
-24.3632118687
 20
19.7262582019
 11
-18.8477789754
 21
16.9685417553
  0
LINE
  5
39D
100
AcDbEntity
  8
C_COPERCHIO
100
AcDbLine
 62
7
  6
CONTINUOUS
 10
-36.5254485051
 20
25.8073765201
 11
-42.0408813983
 21
28.5650929668
  0
LWPOLYLINE
  5
39E
100
AcDbEntity
  8
C_COPERCHIO
100
AcDbPolyline
 62
250
  6
CONTINUOUS
 90
37
 70
0
 10
-46.7317818464
 20
32.350214356
 10
-46.7242067032
 20
32.3460861448
 10
-46.7166459798
 20
32.3415536597
 10
-46.7091140684
 20
32.3366255286
 10
-46.7016253063
 20
32.3313111324
 10
-46.694193949
 20
32.3256205875
 10
-46.6868341423
 20
32.319564726
 10
-46.6795598962
 20
32.3131550757
 10
-46.6723850575
 20
32.3064038377
 10
-46.665323284
 20
32.2993238634
 10
-46.6583880181
 20
32.2919286299
 10
-46.6515924616
 20
32.2842322144
 10
-46.6449495501
 20
32.2762492676
 10
-46.6384719288
 20
32.2679949853
 10
-46.6321719282
 20
32.2594850802
 10
-46.6260615408
 20
32.2507357512
 10
-46.620152398
 20
32.2417636533
 10
-46.6144557482
 20
32.2325858653
 10
-46.6089824353
 20
32.2232198577
 10
-46.603742878
 20
32.2136834592
 10
-46.5987470502
 20
32.2039948228
 10
-46.5940044617
 20
32.1941723915
 10
-46.5895241403
 20
32.1842348628
 10
-46.5853146145
 20
32.1742011534
 10
-46.5813838974
 20
32.1640903629
 10
-46.5777394714
 20
32.153921738
 10
-46.5743882738
 20
32.143714635
 10
-46.5713366837
 20
32.1334884838
 10
-46.5685905102
 20
32.1232627505
 10
-46.5661549807
 20
32.1130569003
 10
-46.5640347313
 20
32.1028903607
 10
-46.562233798
 20
32.0927824843
 10
-46.5607556091
 20
32.0827525118
 10
-46.5596029784
 20
32.0728195361
 10
-46.5587781
 20
32.063002465
 10
-46.558282544
 20
32.053319986
 10
-46.5581172538
 20
32.0437905301
  0
LINE
  5
39F
100
AcDbEntity
  8
C_COPERCHIO
100
AcDbLine
 62
250
  6
CONTINUOUS
 10
-8.7855456661
 20
-17.8228950627
 11
-8.7855456661
 21
-18.1099665379
  0
LINE
  5
3A0
100
AcDbEntity
  8
C_COPERCHIO
100
AcDbLine
 62
7
  6
CONTINUOUS
 10
-8.6421708906
 20
-17.7470761197
 11
-8.6421708906
 21
-17.9373782923
  0
LINE
  5
3A1
100
AcDbEntity
  8
C_COPERCHIO
100
AcDbLine
 62
7
  6
CONTINUOUS
 10
-7.9735077767
 20
19.5326313654
 11
-7.9735077767
 21
19.5465846738
  0
LINE
  5
3A2
100
AcDbEntity
  8
C_COPERCHIO
100
AcDbLine
 62
250
  6
CONTINUOUS
 10
-7.1257111809
 20
18.428819711
 11
-7.1257111809
 21
17.0405468737
  0
LINE
  5
3A3
100
AcDbEntity
  8
C_COPERCHIO
100
AcDbLine
 62
250
  6
CONTINUOUS
 10
-7.1257111809
 20
-19.2805018314
 11
-7.1257111809
 21
-20.6687746687
  0
LINE
  5
3A4
100
AcDbEntity
  8
C_COPERCHIO
100
AcDbLine
 62
7
  6
CONTINUOUS
 10
-6.8450509812
 20
18.7657237154
 11
-6.8450509812
 21
17.3930882524
  0
LINE
  5
3A5
100
AcDbEntity
  8
C_COPERCHIO
100
AcDbLine
 62
7
  6
CONTINUOUS
 10
-6.8450509812
 20
-18.9383848396
 11
-6.8450509812
 21
-20.3110203027
  0
LWPOLYLINE
  5
3A6
100
AcDbEntity
  8
C_CORPO
100
AcDbPolyline
 62
7
  6
CONTINUOUS
 90
11
 70
0
 10
4.4313658152
 20
9.0428697123
 10
4.3962352183
 20
9.0109465087
 10
4.3602072549
 20
8.9800446926
 10
4.3233168109
 20
8.9501680803
 10
4.2855908038
 20
8.921319562
 10
4.2470732268
 20
8.8934961105
 10
4.2078203254
 20
8.8666957483
 10
4.1678635869
 20
8.8409205524
 10
4.1272330506
 20
8.8161708752
 10
4.0859752687
 20
8.7924514792
 10
4.049874861
 20
8.7728057027
  0
LWPOLYLINE
  5
3A7
100
AcDbEntity
  8
ASSI
100
AcDbPolyline
 62
7
  6
CONTINUOUS
 90
11
 70
0
 10
4.4313658152
 20
9.0428697123
 10
4.3962352183
 20
9.0109465087
 10
4.3602072549
 20
8.9800446926
 10
4.3233168109
 20
8.9501680803
 10
4.2855908038
 20
8.921319562
 10
4.2470732268
 20
8.8934961105
 10
4.2078203254
 20
8.8666957483
 10
4.1678635869
 20
8.8409205524
 10
4.1272330506
 20
8.8161708752
 10
4.0859752687
 20
8.7924514792
 10
4.049874861
 20
8.7728057027
  0
LINE
  5
3A8
100
AcDbEntity
  8
C_MOLLE_IDEA
100
AcDbLine
 62
7
  6
CONTINUOUS
 10
-16.2266274175
 20
18.7199896573
 11
-12.7006720116
 21
19.0798355086
  0
LINE
  5
3A9
100
AcDbEntity
  8
C_MOLLE_IDEA
100
AcDbLine
 62
7
  6
CONTINUOUS
 10
-16.1392242126
 20
19.0931469011
 11
-11.8283096622
 21
19.5331027536
  0
LINE
  5
3AA
100
AcDbEntity
  8
C_MOLLE_IDEA
100
AcDbLine
 62
7
  6
CONTINUOUS
 10
-14.9245559573
 20
19.8556885157
 11
-16.874801642
 21
19.6566537186
  0
LINE
  5
3AB
100
AcDbEntity
  8
C_MOLLE_IDEA
100
AcDbLine
 62
7
  6
CONTINUOUS
 10
-12.9263910283
 20
20.3789023246
 11
-12.9503590064
 21
20.3764562422
  0
LINE
  5
3AC
100
AcDbEntity
  8
C_MOLLE_IDEA
100
AcDbLine
 62
7
  6
CONTINUOUS
 10
-18.7377650891
 20
20.5071590533
 11
-17.3454115401
 21
20.6492574608
  0
LINE
  5
3AD
100
AcDbEntity
  8
C_MOLLE_IDEA
100
AcDbLine
 62
7
  6
CONTINUOUS
 10
-19.2082540199
 20
20.8233799076
 11
-17.2580083352
 21
21.0224147047
  0
LWPOLYLINE
  5
3AE
100
AcDbEntity
  8
C_MOLLE_IDEA
100
AcDbPolyline
 62
7
  6
CONTINUOUS
 90
25
 70
0
 10
-16.874801642
 20
19.6566537186
 10
-16.8839737466
 20
19.6559064125
 10
-16.8936260673
 20
19.6554666696
 10
-16.9037586039
 20
19.6553344898
 10
-16.9144187228
 20
19.6555119355
 10
-16.9255590576
 20
19.6559969443
 10
-16.9370375095
 20
19.6567833299
 10
-16.9488584097
 20
19.6578749529
 10
-16.961017427
 20
19.6592679526
 10
-16.9733594689
 20
19.6609445609
 10
-16.98588688
 20
19.6629084107
 10
-16.9985973156
 20
19.665155869
 10
-17.0113286498
 20
19.6676582688
 10
-17.0240811503
 20
19.6704188759
 10
-17.0368545493
 20
19.6734344243
 10
-17.0494859178
 20
19.6766664498
 10
-17.0619734362
 20
19.6801177255
 10
-17.0743189241
 20
19.6837854782
 10
-17.0863649103
 20
19.6876229245
 10
-17.0981075585
 20
19.6916322382
 10
-17.109550705
 20
19.6958112454
 10
-17.1205483886
 20
19.7001066416
 10
-17.1310519555
 20
19.7045006585
 10
-17.1411100595
 20
19.7090110643
 10
-17.1507227006
 20
19.713637859
  0
LWPOLYLINE
  5
3AF
100
AcDbEntity
  8
C_MOLLE_IDEA
100
AcDbPolyline
 62
7
  6
CONTINUOUS
 90
25
 70
0
 10
-17.2580083352
 20
21.0224147047
 10
-17.2488362305
 20
21.0231620108
 10
-17.2391839098
 20
21.0236017538
 10
-17.2290513732
 20
21.0237339335
 10
-17.2183912544
 20
21.0235564879
 10
-17.2072509196
 20
21.023071479
 10
-17.1957724677
 20
21.0222850934
 10
-17.1839515674
 20
21.0211934704
 10
-17.1717925501
 20
21.0198004707
 10
-17.1594505082
 20
21.0181238625
 10
-17.1469230971
 20
21.0161600127
 10
-17.1342126615
 20
21.0139125543
 10
-17.1214813273
 20
21.0114101545
 10
-17.1087288268
 20
21.0086495475
 10
-17.0959554278
 20
21.005633999
 10
-17.0833240594
 20
21.0024019735
 10
-17.0708365409
 20
20.9989506979
 10
-17.058491053
 20
20.9952829452
 10
-17.0464450668
 20
20.9914454988
 10
-17.0347024187
 20
20.9874361852
 10
-17.0232592721
 20
20.9832571779
 10
-17.0122615885
 20
20.9789617817
 10
-17.0017580216
 20
20.9745677648
 10
-16.9916999176
 20
20.970057359
 10
-16.9820872765
 20
20.9654305643
  0
LINE
  5
3B0
100
AcDbEntity
  8
C_COPERCHIO
100
AcDbLine
 62
7
  6
CONTINUOUS
 10
-11.564523013
 20
20.7812347904
 11
-12.6869013989
 21
20.7258738828
  0
LWPOLYLINE
  5
3B1
100
AcDbEntity
  8
C_COPERCHIO
100
AcDbPolyline
 62
250
  6
CONTINUOUS
 90
17
 70
0
 10
-13.9421251387
 20
15.9553860022
 10
-13.9499694278
 20
15.9589675072
 10
-13.957798785
 20
15.9621300626
 10
-13.9655983066
 20
15.9648676483
 10
-13.9733531458
 20
15.9671750531
 10
-13.9810485408
 20
15.9690478848
 10
-13.988669843
 20
15.9704825783
 10
-13.9962025447
 20
15.9714764025
 10
-14.0036323072
 20
15.9720274657
 10
-14.0109449874
 20
15.9721347188
 10
-14.0181266651
 20
15.9717979578
 10
-14.0251636697
 20
15.9710178235
 10
-14.0320426059
 20
15.969795801
 10
-14.0387503791
 20
15.9681342166
 10
-14.0452742207
 20
15.9660362331
 10
-14.0516017123
 20
15.9635058441
 10
-14.0570725973
 20
15.960886592
  0
LWPOLYLINE
  5
3B2
100
AcDbEntity
  8
C_COPERCHIO
100
AcDbPolyline
 62
250
  6
CONTINUOUS
 90
17
 70
0
 10
-47.7418292794
 20
32.8552380726
 10
-47.7496735685
 20
32.8588195775
 10
-47.7575029257
 20
32.8619821329
 10
-47.7653024473
 20
32.8647197186
 10
-47.7730572865
 20
32.8670271234
 10
-47.7807526815
 20
32.8688999551
 10
-47.7883739837
 20
32.8703346486
 10
-47.7959066855
 20
32.8713284729
 10
-47.8033364479
 20
32.871879536
 10
-47.8106491281
 20
32.8719867892
 10
-47.8178308058
 20
32.8716500281
 10
-47.8248678105
 20
32.8708698938
 10
-47.8317467466
 20
32.8696478714
 10
-47.8384545198
 20
32.867986287
 10
-47.8449783614
 20
32.8658883034
 10
-47.851305853
 20
32.8633579144
 10
-47.856776738
 20
32.8607386624
  0
LINE
  5
3B3
100
AcDbEntity
  8
C_COPERCHIO
100
AcDbLine
 62
7
  6
CONTINUOUS
 10
-27.509837045
 20
22.1662387631
 11
-31.6694244592
 21
24.2460324702
  0
LINE
  5
3B4
100
AcDbEntity
  8
C_MOLLE_IDEA
100
AcDbLine
 62
7
  6
CONTINUOUS
 10
-17.1507227006
 20
17.7510426635
 11
-18.6121241609
 21
18.4817433937
  0
LINE
  5
3B5
100
AcDbEntity
  8
C_MOLLE_IDEA
100
AcDbLine
 62
7
  6
CONTINUOUS
 10
-24.1746026145
 20
21.2629826205
 11
-25.6360040748
 21
21.9936833506
  0
LINE
  5
3B6
100
AcDbEntity
  8
C_MOLLE_IDEA
100
AcDbLine
 62
7
  6
CONTINUOUS
 10
-34.8283922302
 20
26.5898774284
 11
-36.2897936905
 21
27.3205781585
  0
LINE
  5
3B7
100
AcDbEntity
  8
C_MOLLE_IDEA
100
AcDbLine
 62
7
  6
CONTINUOUS
 10
-41.8522721442
 20
30.1018173853
 11
-43.3136736045
 21
30.8325181155
  0
LINE
  5
3B8
100
AcDbEntity
  8
C_MOLLE_IDEA
100
AcDbLine
 62
250
  6
CONTINUOUS
 10
-17.1507227006
 20
18.0108502847
 11
-25.6360040748
 21
22.2534909718
  0
LINE
  5
3B9
100
AcDbEntity
  8
C_MOLLE_IDEA
100
AcDbLine
 62
250
  6
CONTINUOUS
 10
-34.8283922302
 20
26.8496850495
 11
-43.3136736045
 21
31.0923257366
  0
LINE
  5
3BA
100
AcDbEntity
  8
C_COPERCHIO
100
AcDbLine
 62
7
  6
CONTINUOUS
 10
-11.4585400401
 20
16.1618516771
 11
-12.5191463558
 21
16.692154835
  0
LINE
  5
3BB
100
AcDbEntity
  8
C_COPERCHIO
100
AcDbLine
 62
7
  6
CONTINUOUS
 10
-45.2582441808
 20
33.0617037475
 11
-46.3188504965
 21
33.5920069053
  0
LINE
  5
3BC
100
AcDbEntity
  8
C_MOLLE_IDEA
100
AcDbLine
 62
250
  6
CONTINUOUS
 10
-16.6557479537
 20
18.8645554407
 11
-25.141029328
 21
23.1071961278
  0
LINE
  5
3BD
100
AcDbEntity
  8
C_MOLLE_IDEA
100
AcDbLine
 62
250
  6
CONTINUOUS
 10
-34.3334174834
 20
27.7033902055
 11
-42.8186988577
 21
31.9460308927
  0
LINE
  5
3BE
100
AcDbEntity
  8
C_MOLLE_IDEA
100
AcDbLine
 62
250
  6
CONTINUOUS
 10
-16.2921798211
 20
19.046339507
 11
-24.7774611954
 21
23.2889801941
  0
LINE
  5
3BF
100
AcDbEntity
  8
C_MOLLE_IDEA
100
AcDbLine
 62
250
  6
CONTINUOUS
 10
-33.9698493508
 20
27.8851742719
 11
-42.455130725
 21
32.127814959
  0
LINE
  5
3C0
100
AcDbEntity
  8
C_MOLLE_IDEA
100
AcDbLine
 62
250
  6
CONTINUOUS
 10
-16.1392242126
 20
19.0931469011
 11
-24.6245055868
 21
23.3357875883
  0
LINE
  5
3C1
100
AcDbEntity
  8
C_MOLLE_IDEA
100
AcDbLine
 62
250
  6
CONTINUOUS
 10
-33.8168937423
 20
27.931981666
 11
-42.3021751165
 21
32.1746223531
  0
LINE
  5
3C2
100
AcDbEntity
  8
C_MOLLE_IDEA
100
AcDbLine
 62
7
  6
CONTINUOUS
 10
-15.3570561659
 20
18.756976089
 11
-15.4430261459
 21
18.799961079
  0
LINE
  5
3C3
100
AcDbEntity
  8
C_MOLLE_IDEA
100
AcDbLine
 62
7
  6
CONTINUOUS
 10
-17.1507227006
 20
19.713637859
 11
-19.201332366
 21
20.7389426918
  0
LINE
  5
3C4
100
AcDbEntity
  8
C_MOLLE_IDEA
100
AcDbLine
 62
7
  6
CONTINUOUS
 10
-21.1812313533
 20
21.7288921854
 11
-23.2318410188
 21
22.7541970181
  0
LINE
  5
3C5
100
AcDbEntity
  8
C_MOLLE_IDEA
100
AcDbLine
 62
7
  6
CONTINUOUS
 10
-34.8283922302
 20
28.5524726239
 11
-36.8790018957
 21
29.5777774566
  0
LINE
  5
3C6
100
AcDbEntity
  8
C_MOLLE_IDEA
100
AcDbLine
 62
7
  6
CONTINUOUS
 10
-38.858900883
 20
30.5677269502
 11
-40.9095105484
 21
31.593031783
  0
LINE
  5
3C7
100
AcDbEntity
  8
C_CORPO
100
AcDbLine
 62
7
  6
CONTINUOUS
 10
-16.9141350779
 20
19.655507214
 11
-18.637835615
 21
20.5173574825
  0
LINE
  5
3C8
100
AcDbEntity
  8
ASSI
100
AcDbLine
 62
7
  6
CONTINUOUS
 10
-16.9141350779
 20
19.655507214
 11
-18.637835615
 21
20.5173574825
  0
LINE
  5
3C9
100
AcDbEntity
  8
C_CORPO
100
AcDbLine
 62
7
  6
CONTINUOUS
 10
-34.5918046076
 20
28.4943419788
 11
-36.3155051446
 21
29.3561922474
  0
LINE
  5
3CA
100
AcDbEntity
  8
ASSI
100
AcDbLine
 62
7
  6
CONTINUOUS
 10
-34.5918046076
 20
28.4943419788
 11
-36.3155051446
 21
29.3561922474
  0
LWPOLYLINE
  5
3CB
100
AcDbEntity
  8
C_MOLLE_IDEA
100
AcDbPolyline
 62
7
  6
CONTINUOUS
 90
15
 70
0
 10
-40.9095105484
 20
31.593031783
 10
-40.9185268139
 20
31.5977194415
 10
-40.9268620019
 20
31.6024056817
 10
-40.9345161123
 20
31.6070905035
 10
-40.9415160114
 20
31.6117938987
 10
-40.947834833
 20
31.6164958754
 10
-40.9533919782
 20
31.6211364584
 10
-40.9581776902
 20
31.6257148613
 10
-40.9622017259
 20
31.6302318703
 10
-40.9654127573
 20
31.6346298696
 10
-40.9678003699
 20
31.6389073346
 10
-40.9693749783
 20
31.6430657899
 10
-40.9701164977
 20
31.6470521928
 10
-40.9700142564
 20
31.6508643394
 10
-40.969740287
 20
31.6523702141
  0
LWPOLYLINE
  5
3CC
100
AcDbEntity
  8
C_MOLLE_IDEA
100
AcDbPolyline
 62
7
  6
CONTINUOUS
 90
15
 70
0
 10
-36.8790018957
 20
29.5777774566
 10
-36.8880181612
 20
29.5824651152
 10
-36.8963533491
 20
29.5871513553
 10
-36.9040074595
 20
29.5918361771
 10
-36.9110073587
 20
29.5965395723
 10
-36.9173261802
 20
29.601241549
 10
-36.9228833255
 20
29.6058821321
 10
-36.9276690375
 20
29.6104605349
 10
-36.9316930732
 20
29.6149775439
 10
-36.9349041045
 20
29.6193755432
 10
-36.9372917172
 20
29.6236530082
 10
-36.9388663255
 20
29.6278114635
 10
-36.9396078449
 20
29.6317978664
 10
-36.9395056036
 20
29.635610013
 10
-36.9392316342
 20
29.6371158877
  0
LWPOLYLINE
  5
3CD
100
AcDbEntity
  8
C_MOLLE_IDEA
100
AcDbPolyline
 62
7
  6
CONTINUOUS
 90
15
 70
0
 10
-23.2318410188
 20
22.7541970181
 10
-23.2408572843
 20
22.7588846767
 10
-23.2491924722
 20
22.7635709169
 10
-23.2568465826
 20
22.7682557387
 10
-23.2638464818
 20
22.7729591338
 10
-23.2701653033
 20
22.7776611106
 10
-23.2757224486
 20
22.7823016936
 10
-23.2805081606
 20
22.7868800964
 10
-23.2845321963
 20
22.7913971055
 10
-23.2877432276
 20
22.7957951048
 10
-23.2901308403
 20
22.8000725698
 10
-23.2917054486
 20
22.804231025
 10
-23.292446968
 20
22.808217428
 10
-23.2923447267
 20
22.8120295746
 10
-23.2920707573
 20
22.8135354493
  0
LWPOLYLINE
  5
3CE
100
AcDbEntity
  8
C_MOLLE_IDEA
100
AcDbPolyline
 62
7
  6
CONTINUOUS
 90
15
 70
0
 10
-19.201332366
 20
20.7389426918
 10
-19.2103486315
 20
20.7436303503
 10
-19.2186838195
 20
20.7483165905
 10
-19.2263379299
 20
20.7530014123
 10
-19.233337829
 20
20.7577048075
 10
-19.2396566506
 20
20.7624067842
 10
-19.2452137958
 20
20.7670473672
 10
-19.2499995078
 20
20.77162577
 10
-19.2540235435
 20
20.7761427791
 10
-19.2572345749
 20
20.7805407784
 10
-19.2596221875
 20
20.7848182434
 10
-19.2611967959
 20
20.7889766987
 10
-19.2619383153
 20
20.7929631016
 10
-19.2618360739
 20
20.7967752482
 10
-19.2615621046
 20
20.7982811229
  0
LWPOLYLINE
  5
3CF
100
AcDbEntity
  8
C_MOLLE_IDEA
100
AcDbPolyline
 62
7
  6
CONTINUOUS
 90
25
 70
0
 10
-41.8522721442
 20
30.1018173853
 10
-41.8434810304
 20
30.0970805584
 10
-41.8347892635
 20
30.0917448074
 10
-41.8261968435
 20
30.0858101324
 10
-41.8176717904
 20
30.0792493585
 10
-41.8092460842
 20
30.0720896606
 10
-41.8010156653
 20
30.0644125634
 10
-41.7929827658
 20
30.0562121531
 10
-41.7851451536
 20
30.0474943436
 10
-41.7775920726
 20
30.0383584012
 10
-41.770326775
 20
30.0287995467
 10
-41.7633460086
 20
30.0188225595
 10
-41.7567292608
 20
30.0085410435
 10
-41.7504806923
 20
29.9979515182
 10
-41.7445961423
 20
29.9870574642
 10
-41.7391426161
 20
29.9759829281
 10
-41.7341250401
 20
29.9647258468
 10
-41.7295384879
 20
29.9532882835
 10
-41.7254351847
 20
29.9418004731
 10
-41.7218206541
 20
29.9302618415
 10
-41.7186893726
 20
29.918672963
 10
-41.7160769949
 20
29.9071657957
 10
-41.7139954058
 20
29.8957843257
 10
-41.7124327205
 20
29.8844845669
 10
-41.7113889389
 20
29.8732665194
  0
LWPOLYLINE
  5
3D0
100
AcDbEntity
  8
C_MOLLE_IDEA
100
AcDbPolyline
 62
7
  6
CONTINUOUS
 90
25
 70
0
 10
-24.1746026145
 20
21.2629826205
 10
-24.1658115007
 20
21.2582457935
 10
-24.1571197338
 20
21.2529100426
 10
-24.1485273138
 20
21.2469753676
 10
-24.1400022607
 20
21.2404145937
 10
-24.1315765545
 20
21.2332548957
 10
-24.1233461356
 20
21.2255777985
 10
-24.1153132361
 20
21.2173773883
 10
-24.1074756239
 20
21.2086595787
 10
-24.0999225429
 20
21.1995236364
 10
-24.0926572453
 20
21.1899647819
 10
-24.0856764789
 20
21.1799877946
 10
-24.0790597311
 20
21.1697062787
 10
-24.0728111626
 20
21.1591167534
 10
-24.0669266126
 20
21.1482226994
 10
-24.0614730864
 20
21.1371481632
 10
-24.0564555105
 20
21.125891082
 10
-24.0518689582
 20
21.1144535186
 10
-24.0477656551
 20
21.1029657083
 10
-24.0441511245
 20
21.0914270767
 10
-24.0410198429
 20
21.0798381982
 10
-24.0384074652
 20
21.0683310309
 10
-24.0363258761
 20
21.0569495609
 10
-24.0347631908
 20
21.0456498021
 10
-24.0337194093
 20
21.0344317546
  0
LWPOLYLINE
  5
3D1
100
AcDbEntity
  8
C_COPERCHIO
100
AcDbPolyline
 62
250
  6
CONTINUOUS
 90
37
 70
0
 10
-12.9320777057
 20
15.4503622857
 10
-12.9245025625
 20
15.4462340744
 10
-12.9169418391
 20
15.4417015893
 10
-12.9094099277
 20
15.4367734582
 10
-12.9019211656
 20
15.431459062
 10
-12.8944898083
 20
15.4257685171
 10
-12.8871300016
 20
15.4197126556
 10
-12.8798557555
 20
15.4133030054
 10
-12.8726809168
 20
15.4065517674
 10
-12.8656191433
 20
15.3994717931
 10
-12.8586838774
 20
15.3920765595
 10
-12.8518883209
 20
15.3843801441
 10
-12.8452454094
 20
15.3763971972
 10
-12.8387677881
 20
15.368142915
 10
-12.8324677875
 20
15.3596330098
 10
-12.8263574001
 20
15.3508836809
 10
-12.8204482573
 20
15.3419115829
 10
-12.8147516075
 20
15.3327337949
 10
-12.8092782946
 20
15.3233677873
 10
-12.8040387373
 20
15.3138313888
 10
-12.7990429095
 20
15.3041427525
 10
-12.794300321
 20
15.2943203212
 10
-12.7898199996
 20
15.2843827925
 10
-12.7856104738
 20
15.274349083
 10
-12.7816797567
 20
15.2642382926
 10
-12.7780353307
 20
15.2540696676
 10
-12.774684133
 20
15.2438625646
 10
-12.771632543
 20
15.2336364134
 10
-12.7688863695
 20
15.2234106801
 10
-12.7664508399
 20
15.21320483
 10
-12.7643305905
 20
15.2030382904
 10
-12.7625296573
 20
15.1929304139
 10
-12.7610514684
 20
15.1829004415
 10
-12.7598988377
 20
15.1729674657
 10
-12.7590739592
 20
15.1631503947
 10
-12.7585784033
 20
15.1534679156
 10
-12.758413113
 20
15.1439384597
  0
LWPOLYLINE
  5
3D2
100
AcDbEntity
  8
C_CORPO
100
AcDbPolyline
 62
250
  6
CONTINUOUS
 90
24
 70
0
 10
-3.1145927919
 20
5.3764020624
 10
-3.0892214996
 20
5.3420364031
 10
-3.0649169945
 20
5.3083772221
 10
-3.0417084709
 20
5.2754031286
 10
-3.0195764693
 20
5.2429637555
 10
-2.9985985415
 20
5.2111670972
 10
-2.9789245066
 20
5.1803710755
 10
-2.9605829932
 20
5.1506100856
 10
-2.9435372416
 20
5.1217896985
 10
-2.9278070987
 20
5.0940663396
 10
-2.91337671
 20
5.0674229779
 10
-2.9002316308
 20
5.0418195919
 10
-2.8883773828
 20
5.017376552
 10
-2.877783696
 20
4.9940793411
 10
-2.8684240946
 20
4.9718893758
 10
-2.8602901378
 20
4.9508900255
 10
-2.8533481162
 20
4.9310980703
 10
-2.8475433181
 20
4.9124493836
 10
-2.8428273273
 20
4.8949073071
 10
-2.8391542208
 20
4.8784450242
 10
-2.8364873296
 20
4.8630523401
 10
-2.8347867188
 20
4.848719651
 10
-2.8340022612
 20
4.8354643873
 10
-2.8339325922
 20
4.8303914394
  0
LWPOLYLINE
  5
3D3
100
AcDbEntity
  8
ASSI
100
AcDbPolyline
 62
250
  6
CONTINUOUS
 90
24
 70
0
 10
-3.1145927919
 20
5.3764020624
 10
-3.0892214996
 20
5.3420364031
 10
-3.0649169945
 20
5.3083772221
 10
-3.0417084709
 20
5.2754031286
 10
-3.0195764693
 20
5.2429637555
 10
-2.9985985415
 20
5.2111670972
 10
-2.9789245066
 20
5.1803710755
 10
-2.9605829932
 20
5.1506100856
 10
-2.9435372416
 20
5.1217896985
 10
-2.9278070987
 20
5.0940663396
 10
-2.91337671
 20
5.0674229779
 10
-2.9002316308
 20
5.0418195919
 10
-2.8883773828
 20
5.017376552
 10
-2.877783696
 20
4.9940793411
 10
-2.8684240946
 20
4.9718893758
 10
-2.8602901378
 20
4.9508900255
 10
-2.8533481162
 20
4.9310980703
 10
-2.8475433181
 20
4.9124493836
 10
-2.8428273273
 20
4.8949073071
 10
-2.8391542208
 20
4.8784450242
 10
-2.8364873296
 20
4.8630523401
 10
-2.8347867188
 20
4.848719651
 10
-2.8340022612
 20
4.8354643873
 10
-2.8339325922
 20
4.8303914578
  0
LINE
  5
3D4
100
AcDbEntity
  8
C_MOLLE_IDEA
100
AcDbLine
 62
7
  6
CONTINUOUS
 10
-18.95506461
 20
21.8709428421
 11
-20.9053102947
 21
21.671908045
  0
LINE
  5
3D5
100
AcDbEntity
  8
C_MOLLE_IDEA
100
AcDbLine
 62
7
  6
CONTINUOUS
 10
-22.7682737419
 20
22.5224133797
 11
-21.3759201928
 21
22.6645117872
  0
LINE
  5
3D6
100
AcDbEntity
  8
C_MOLLE_IDEA
100
AcDbLine
 62
7
  6
CONTINUOUS
 10
-16.9187101505
 20
23.1643466581
 11
-18.2536598653
 21
23.0281066717
  0
LINE
  5
3D7
100
AcDbEntity
  8
C_MOLLE_IDEA
100
AcDbLine
 62
7
  6
CONTINUOUS
 10
-23.2387626726
 20
22.838634234
 11
-21.2885169879
 21
23.0376690311
  0
LINE
  5
3D8
100
AcDbEntity
  8
C_MOLLE_IDEA
100
AcDbLine
 62
7
  6
CONTINUOUS
 10
-24.6245055868
 20
23.3357875883
 11
-19.9791498253
 21
23.8098752628
  0
LWPOLYLINE
  5
3D9
100
AcDbEntity
  8
C_MOLLE_IDEA
100
AcDbPolyline
 62
7
  6
CONTINUOUS
 90
25
 70
0
 10
-20.9053102947
 20
21.671908045
 10
-20.9144823994
 20
21.6711607389
 10
-20.9241347201
 20
21.6707209959
 10
-20.9342672567
 20
21.6705888162
 10
-20.9449273755
 20
21.6707662619
 10
-20.9560677103
 20
21.6712512707
 10
-20.9675461622
 20
21.6720376563
 10
-20.9793670625
 20
21.6731292793
 10
-20.9915260798
 20
21.674522279
 10
-21.0038681217
 20
21.6761988873
 10
-21.0163955327
 20
21.6781627371
 10
-21.0291059684
 20
21.6804101954
 10
-21.0418373026
 20
21.6829125952
 10
-21.054589803
 20
21.6856732022
 10
-21.0673632021
 20
21.6886887507
 10
-21.0799945705
 20
21.6919207762
 10
-21.092482089
 20
21.6953720519
 10
-21.1048275768
 20
21.6990398046
 10
-21.1168735631
 20
21.7028772509
 10
-21.1286162112
 20
21.7068865645
 10
-21.1400593577
 20
21.7110655718
 10
-21.1510570413
 20
21.715360968
 10
-21.1615606083
 20
21.7197549849
 10
-21.1716187123
 20
21.7242653907
 10
-21.1812313533
 20
21.7288921854
  0
LWPOLYLINE
  5
3DA
100
AcDbEntity
  8
C_MOLLE_IDEA
100
AcDbPolyline
 62
7
  6
CONTINUOUS
 90
25
 70
0
 10
-18.2536598653
 20
23.0281066717
 10
-18.26283197
 20
23.0273593655
 10
-18.2724842906
 20
23.0269196226
 10
-18.2826168272
 20
23.0267874429
 10
-18.2932769461
 20
23.0269648885
 10
-18.3044172809
 20
23.0274498974
 10
-18.3158957328
 20
23.028236283
 10
-18.327716633
 20
23.0293279059
 10
-18.3398756503
 20
23.0307209056
 10
-18.3522176923
 20
23.0323975139
 10
-18.3647451033
 20
23.0343613637
 10
-18.3774555389
 20
23.0366088221
 10
-18.3901868731
 20
23.0391112219
 10
-18.4029393736
 20
23.0418718289
 10
-18.4157127726
 20
23.0448873773
 10
-18.4283441411
 20
23.0481194029
 10
-18.4408316595
 20
23.0515706785
 10
-18.4531771474
 20
23.0552384312
 10
-18.4652231337
 20
23.0590758775
 10
-18.4769657818
 20
23.0630851912
 10
-18.4884089283
 20
23.0672641985
 10
-18.4994066119
 20
23.0715595947
 10
-18.5099101788
 20
23.0759536115
 10
-18.5199682828
 20
23.0804640173
 10
-18.5295809239
 20
23.0850908121
  0
LWPOLYLINE
  5
3DB
100
AcDbEntity
  8
C_MOLLE_IDEA
100
AcDbPolyline
 62
7
  6
CONTINUOUS
 90
25
 70
0
 10
-21.2885169879
 20
23.0376690311
 10
-21.2793448832
 20
23.0384163372
 10
-21.2696925626
 20
23.0388560802
 10
-21.259560026
 20
23.0389882599
 10
-21.2488999071
 20
23.0388108142
 10
-21.2377595723
 20
23.0383258054
 10
-21.2262811204
 20
23.0375394198
 10
-21.2144602202
 20
23.0364477968
 10
-21.2023012029
 20
23.0350547971
 10
-21.1899591609
 20
23.0333781888
 10
-21.1774317499
 20
23.031414339
 10
-21.1647213143
 20
23.0291668807
 10
-21.1519899801
 20
23.0266644809
 10
-21.1392374796
 20
23.0239038739
 10
-21.1264640806
 20
23.0208883254
 10
-21.1138327121
 20
23.0176562999
 10
-21.1013451937
 20
23.0142050242
 10
-21.0889997058
 20
23.0105372715
 10
-21.0769537195
 20
23.0066998252
 10
-21.0652110714
 20
23.0026905116
 10
-21.0537679249
 20
22.9985115043
 10
-21.0427702413
 20
22.9942161081
 10
-21.0322666744
 20
22.9898220912
 10
-21.0222085704
 20
22.9853116854
 10
-21.0125959293
 20
22.9806848907
  0
LINE
  5
3DC
100
AcDbEntity
  8
C_COPERCHIO
100
AcDbLine
 62
7
  6
CONTINUOUS
 10
-17.2088630914
 20
23.6034048296
 11
-18.3113763732
 21
23.5381113699
  0
LWPOLYLINE
  5
3DD
100
AcDbEntity
  8
C_MOLLE_IDEA
100
AcDbPolyline
 62
7
  6
CONTINUOUS
 90
7
 70
0
 10
-16.832524649
 20
23.1643762178
 10
-16.8464731917
 20
23.1656236978
 10
-16.8605880174
 20
23.1663702151
 10
-16.8748691261
 20
23.1666157698
 10
-16.8893165179
 20
23.1663603618
 10
-16.9039301927
 20
23.1656039913
 10
-16.9187101505
 20
23.1643466581
  0
LWPOLYLINE
  5
3DE
100
AcDbEntity
  8
C_MOLLE_IDEA
100
AcDbPolyline
 62
7
  6
CONTINUOUS
 90
5
 70
0
 10
-16.7128253371
 20
23.1297024319
 10
-16.7326797806
 20
23.1388428807
 10
-16.764533342
 20
23.1504426433
 10
-16.7978149649
 20
23.1589537556
 10
-16.832524649
 20
23.1643762178
  0
LWPOLYLINE
  5
3DF
100
AcDbEntity
  8
ASSI
100
AcDbPolyline
 62
7
  6
CONTINUOUS
 90
10
 70
0
 10
-35.144799071
 20
29.3746090069
 10
-35.1688615036
 20
29.3857218444
 10
-35.1933759848
 20
29.3963273313
 10
-35.2182980386
 20
29.4064224565
 10
-35.2436091678
 20
29.416015547
 10
-35.2693014802
 20
29.425116972
 10
-35.2953511529
 20
29.4337303635
 10
-35.3217333618
 20
29.441858564
 10
-35.3484358102
 20
29.4495074093
 10
-35.3630687344
 20
29.4533943533
  0
LWPOLYLINE
  5
3E0
100
AcDbEntity
  8
C_CORPO
100
AcDbPolyline
 62
250
  6
CONTINUOUS
 90
17
 70
0
 10
-35.1277505286
 20
29.3662824736
 10
-35.1299635739
 20
29.3673440989
 10
-35.1348463299
 20
29.3693841218
 10
-35.1398823744
 20
29.3710853762
 10
-35.1450623329
 20
29.3724446954
 10
-35.1503765629
 20
29.3734595488
 10
-35.155815172
 20
29.3741280475
 10
-35.1613680362
 20
29.3744489469
 10
-35.1670248188
 20
29.3744216497
 10
-35.1727749898
 20
29.3740462067
 10
-35.1786078453
 20
29.3733233168
 10
-35.1845125274
 20
29.3722543258
 10
-35.1904780446
 20
29.3708412233
 10
-35.1964932921
 20
29.3690866401
 10
-35.2025470724
 20
29.3669938422
 10
-35.2086281166
 20
29.3645667253
 10
-35.2147251047
 20
29.3618098076
  0
LWPOLYLINE
  5
3E1
100
AcDbEntity
  8
ASSI
100
AcDbPolyline
 62
250
  6
CONTINUOUS
 90
17
 70
0
 10
-35.1277505286
 20
29.3662824736
 10
-35.1299635739
 20
29.3673440989
 10
-35.1348463299
 20
29.3693841218
 10
-35.1398823744
 20
29.3710853762
 10
-35.1450623329
 20
29.3724446954
 10
-35.1503765629
 20
29.3734595488
 10
-35.155815172
 20
29.3741280475
 10
-35.1613680362
 20
29.3744489469
 10
-35.1670248188
 20
29.3744216497
 10
-35.1727749898
 20
29.3740462067
 10
-35.1786078453
 20
29.3733233168
 10
-35.1845125274
 20
29.3722543258
 10
-35.1904780446
 20
29.3708412233
 10
-35.1964932921
 20
29.3690866401
 10
-35.2025470724
 20
29.3669938422
 10
-35.2086281166
 20
29.3645667253
 10
-35.2147251047
 20
29.3618098076
  0
LWPOLYLINE
  5
3E2
100
AcDbEntity
  8
C_MOLLE_IDEA
100
AcDbPolyline
 62
7
  6
CONTINUOUS
 90
25
 70
0
 10
-17.0694904814
 20
20.5922733204
 10
-17.0791031225
 20
20.5969001152
 10
-17.0891612265
 20
20.6014105209
 10
-17.0996647934
 20
20.6058045378
 10
-17.110662477
 20
20.610099934
 10
-17.1221056236
 20
20.6142789413
 10
-17.1338482717
 20
20.618288255
 10
-17.1458942579
 20
20.6221257013
 10
-17.1582397458
 20
20.625793454
 10
-17.1707272643
 20
20.6292447296
 10
-17.1833586327
 20
20.6324767552
 10
-17.1961320317
 20
20.6354923036
 10
-17.2088845322
 20
20.6382529106
 10
-17.2216158664
 20
20.6407553104
 10
-17.234326302
 20
20.6430027688
 10
-17.2468537131
 20
20.6449666186
 10
-17.259195755
 20
20.6466432269
 10
-17.2713547723
 20
20.6480362266
 10
-17.2831756725
 20
20.6491278495
 10
-17.2946541245
 20
20.6499142351
 10
-17.3057944593
 20
20.650399244
 10
-17.3164545781
 20
20.6505766896
 10
-17.3265871147
 20
20.6504445099
 10
-17.3362394354
 20
20.650004767
 10
-17.3454115401
 20
20.6492574608
  0
LWPOLYLINE
  5
3E3
100
AcDbEntity
  8
C_MOLLE_IDEA
100
AcDbPolyline
 62
7
  6
CONTINUOUS
 90
25
 70
0
 10
-21.0999991342
 20
22.6075276468
 10
-21.1096117753
 20
22.6121544415
 10
-21.1196698793
 20
22.6166648473
 10
-21.1301734462
 20
22.6210588642
 10
-21.1411711298
 20
22.6253542604
 10
-21.1526142763
 20
22.6295332677
 10
-21.1643569244
 20
22.6335425814
 10
-21.1764029107
 20
22.6373800277
 10
-21.1887483986
 20
22.6410477804
 10
-21.201235917
 20
22.644499056
 10
-21.2138672855
 20
22.6477310815
 10
-21.2266406845
 20
22.65074663
 10
-21.239393185
 20
22.653507237
 10
-21.2521245192
 20
22.6560096368
 10
-21.2648349548
 20
22.6582570952
 10
-21.2773623658
 20
22.660220945
 10
-21.2897044078
 20
22.6618975532
 10
-21.3018634251
 20
22.663290553
 10
-21.3136843253
 20
22.6643821759
 10
-21.3251627772
 20
22.6651685615
 10
-21.336303112
 20
22.6656535704
 10
-21.3469632309
 20
22.665831016
 10
-21.3570957675
 20
22.6656988363
 10
-21.3667480881
 20
22.6652590934
 10
-21.3759201928
 20
22.6645117872
  0
LWPOLYLINE
  5
3E4
100
AcDbEntity
  8
C_MOLLE_IDEA
100
AcDbPolyline
 62
7
  6
CONTINUOUS
 90
25
 70
0
 10
-34.7471600111
 20
29.4311080853
 10
-34.7567726522
 20
29.43573488
 10
-34.7668307562
 20
29.4402452858
 10
-34.7773343231
 20
29.4446393027
 10
-34.7883320067
 20
29.4489346989
 10
-34.7997751532
 20
29.4531137061
 10
-34.8115178013
 20
29.4571230198
 10
-34.8235637876
 20
29.4609604661
 10
-34.8359092755
 20
29.4646282188
 10
-34.8483967939
 20
29.4680794945
 10
-34.8610281624
 20
29.47131152
 10
-34.8738015614
 20
29.4743270684
 10
-34.8865540619
 20
29.4770876755
 10
-34.8992853961
 20
29.4795900753
 10
-34.9119958317
 20
29.4818375336
 10
-34.9245232427
 20
29.4838013834
 10
-34.9368652847
 20
29.4854779917
 10
-34.949024302
 20
29.4868709914
 10
-34.9608452022
 20
29.4879626144
 10
-34.9723236541
 20
29.488749
 10
-34.9834639889
 20
29.4892340088
 10
-34.9941241078
 20
29.4894114545
 10
-35.0042566444
 20
29.4892792747
 10
-35.013908965
 20
29.4888395318
 10
-35.0230810697
 20
29.4880922257
  0
LWPOLYLINE
  5
3E5
100
AcDbEntity
  8
C_MOLLE_IDEA
100
AcDbPolyline
 62
7
  6
CONTINUOUS
 90
25
 70
0
 10
-38.7776686639
 20
31.4463624117
 10
-38.7872813049
 20
31.4509892064
 10
-38.7973394089
 20
31.4554996122
 10
-38.8078429759
 20
31.459893629
 10
-38.8188406595
 20
31.4641890252
 10
-38.830283806
 20
31.4683680325
 10
-38.8420264541
 20
31.4723773462
 10
-38.8540724404
 20
31.4762147925
 10
-38.8664179282
 20
31.4798825452
 10
-38.8789054467
 20
31.4833338208
 10
-38.8915368151
 20
31.4865658464
 10
-38.9043102142
 20
31.4895813948
 10
-38.9170627146
 20
31.4923420018
 10
-38.9297940488
 20
31.4948444016
 10
-38.9425044845
 20
31.49709186
 10
-38.9550318955
 20
31.4990557098
 10
-38.9673739374
 20
31.5007323181
 10
-38.9795329547
 20
31.5021253178
 10
-38.991353855
 20
31.5032169407
 10
-39.0028323069
 20
31.5040033264
 10
-39.0139726417
 20
31.5044883352
 10
-39.0246327605
 20
31.5046657809
 10
-39.0347652971
 20
31.5045336011
 10
-39.0444176178
 20
31.5040938582
 10
-39.0535897225
 20
31.503346552
  0
LINE
  5
3E6
100
AcDbEntity
  8
ASSI
100
AcDbLine
 62
7
  6
CONTINUOUS
 10
-35.1277451324
 20
29.3662797367
 11
-35.144799071
 21
29.3746090069
  0
LWPOLYLINE
  5
3E7
100
AcDbEntity
  8
C_CORPO
100
AcDbPolyline
 62
7
  6
CONTINUOUS
 90
11
 70
0
 10
-35.1277451559
 20
29.3662797485
 10
-35.1448150452
 20
29.3746168088
 10
-35.1688886374
 20
29.3857339722
 10
-35.1934023192
 20
29.396338355
 10
-35.2183235008
 20
29.4064324333
 10
-35.2436336892
 20
29.4160245327
 10
-35.2693249938
 20
29.4251250203
 10
-35.2953735936
 20
29.4337375272
 10
-35.3217546691
 20
29.4418648952
 10
-35.3484559282
 20
29.4495129602
 10
-35.3630687581
 20
29.4533943509
  0
LINE
  5
3E8
100
AcDbEntity
  8
C_CORPO
100
AcDbLine
 62
250
  6
CONTINUOUS
 10
-35.2147251047
 20
29.3618098076
 11
-33.6635270883
 21
28.5862107995
  0
LINE
  5
3E9
100
AcDbEntity
  8
ASSI
100
AcDbLine
 62
250
  6
CONTINUOUS
 10
-35.2147251047
 20
29.3618098076
 11
-33.6635270883
 21
28.5862107995
  0
LINE
  5
3EA
100
AcDbEntity
  8
C_CORPO
100
AcDbLine
 62
250
  6
CONTINUOUS
 10
-17.7143213034
 20
20.611607907
 11
-15.9858575587
 21
19.7473760346
  0
LINE
  5
3EB
100
AcDbEntity
  8
ASSI
100
AcDbLine
 62
250
  6
CONTINUOUS
 10
-17.7143213034
 20
20.611607907
 11
-15.9858575587
 21
19.7473760346
  0
LINE
  5
3EC
100
AcDbEntity
  8
C_CORPO
100
AcDbLine
 62
7
  6
CONTINUOUS
 10
-35.1277505286
 20
29.3662824736
 11
-33.5838668365
 21
28.5943406275
  0
LINE
  5
3ED
100
AcDbEntity
  8
ASSI
100
AcDbLine
 62
7
  6
CONTINUOUS
 10
-35.1277505286
 20
29.3662824736
 11
-33.5838668365
 21
28.5943406275
  0
LINE
  5
3EE
100
AcDbEntity
  8
C_CORPO
100
AcDbLine
 62
7
  6
CONTINUOUS
 10
-17.6346610516
 20
20.619737735
 11
-15.9061973068
 21
19.7555058627
  0
LINE
  5
3EF
100
AcDbEntity
  8
ASSI
100
AcDbLine
 62
7
  6
CONTINUOUS
 10
-17.6346610516
 20
20.619737735
 11
-15.9061973068
 21
19.7555058627
  0
LINE
  5
3F0
100
AcDbEntity
  8
C_CORPO
100
AcDbLine
 62
7
  6
CONTINUOUS
 10
-28.0755224699
 20
25.8424186926
 11
-24.1864351734
 21
23.8978750444
  0
LINE
  5
3F1
100
AcDbEntity
  8
ASSI
100
AcDbLine
 62
7
  6
CONTINUOUS
 10
-28.0755224699
 20
25.8424186926
 11
-24.1864351734
 21
23.8978750444
  0
LINE
  5
3F2
100
AcDbEntity
  8
C_MOLLE_IDEA
100
AcDbLine
 62
7
  6
CONTINUOUS
 10
-38.7776686639
 20
31.4463624117
 11
-37.1906262753
 21
30.6528412174
  0
LINE
  5
3F3
100
AcDbEntity
  8
C_MOLLE_IDEA
100
AcDbLine
 62
7
  6
CONTINUOUS
 10
-34.7471600111
 20
29.4311080853
 11
-33.1601176226
 21
28.637586891
  0
LINE
  5
3F4
100
AcDbEntity
  8
C_MOLLE_IDEA
100
AcDbLine
 62
7
  6
CONTINUOUS
 10
-21.0999991342
 20
22.6075276468
 11
-19.5129567457
 21
21.8140064526
  0
LINE
  5
3F5
100
AcDbEntity
  8
C_MOLLE_IDEA
100
AcDbLine
 62
7
  6
CONTINUOUS
 10
-17.0694904814
 20
20.5922733204
 11
-15.4824480929
 21
19.7987521262
  0
LINE
  5
3F6
100
AcDbEntity
  8
C_MOLLE_IDEA
100
AcDbLine
 62
7
  6
CONTINUOUS
 10
-38.690265459
 20
31.8195196555
 11
-36.6396557935
 21
30.7942148228
  0
LINE
  5
3F7
100
AcDbEntity
  8
C_MOLLE_IDEA
100
AcDbLine
 62
7
  6
CONTINUOUS
 10
-34.6597568062
 20
29.8042653291
 11
-32.6091471408
 21
28.7789604964
  0
LINE
  5
3F8
100
AcDbEntity
  8
C_MOLLE_IDEA
100
AcDbLine
 62
7
  6
CONTINUOUS
 10
-21.0125959293
 20
22.9806848907
 11
-18.9619862639
 21
21.955380058
  0
LINE
  5
3F9
100
AcDbEntity
  8
C_MOLLE_IDEA
100
AcDbLine
 62
7
  6
CONTINUOUS
 10
-16.9820872765
 20
20.9654305643
 11
-14.9314776111
 21
19.9401257316
  0
LINE
  5
3FA
100
AcDbEntity
  8
C_COPERCHIO
100
AcDbLine
 62
7
  6
CONTINUOUS
 10
-8.457888442
 20
17.7680499685
 11
-10.0420128416
 21
18.5601121684
  0
LINE
  5
3FB
100
AcDbEntity
  8
C_COPERCHIO
100
AcDbLine
 62
7
  6
CONTINUOUS
 10
-22.022824211
 20
24.550517853
 11
-22.445566024
 21
24.7618887596
  0
LINE
  5
3FC
100
AcDbEntity
  8
C_COPERCHIO
100
AcDbLine
 62
7
  6
CONTINUOUS
 10
-26.6927791873
 20
26.8854953412
 11
-27.7196823713
 21
27.3989469332
  0
LINE
  5
3FD
100
AcDbEntity
  8
C_COPERCHIO
100
AcDbLine
 62
7
  6
CONTINUOUS
 10
-39.7004937407
 20
33.3893526179
 11
-40.6927993641
 21
33.8855054296
  0
LINE
  5
3FE
100
AcDbEntity
  8
C_MOLLE_IDEA
100
AcDbLine
 62
7
  6
CONTINUOUS
 10
-37.656819355
 20
32.6487100276
 11
-36.2072504536
 21
31.9239255769
  0
LINE
  5
3FF
100
AcDbEntity
  8
C_MOLLE_IDEA
100
AcDbLine
 62
7
  6
CONTINUOUS
 10
-19.9791498253
 20
23.8098752628
 11
-18.5295809239
 21
23.0850908121
  0
LINE
  5
400
100
AcDbEntity
  8
C_MOLLE_IDEA
100
AcDbLine
 62
7
  6
CONTINUOUS
 10
-11.6308251618
 20
19.635712931
 11
-12.9434373525
 21
20.2920190264
  0
LINE
  5
401
100
AcDbEntity
  8
C_MOLLE_IDEA
100
AcDbLine
 62
7
  6
CONTINUOUS
 10
-29.3084946915
 20
28.4745476959
 11
-30.6211068822
 21
29.1308537912
  0
LINE
  5
402
100
AcDbEntity
  8
C_COPERCHIO
100
AcDbLine
 62
7
  6
CONTINUOUS
 10
-37.8358884923
 20
33.0604601198
 11
-36.2242967777
 21
32.2546642625
  0
LINE
  5
403
100
AcDbEntity
  8
C_COPERCHIO
100
AcDbLine
 62
7
  6
CONTINUOUS
 10
-30.604060558
 20
29.4445461526
 11
-28.9924688435
 21
28.6387502954
  0
LINE
  5
404
100
AcDbEntity
  8
C_COPERCHIO
100
AcDbLine
 62
7
  6
CONTINUOUS
 10
-20.1582189626
 20
24.2216253549
 11
-18.5466272481
 21
23.4158294977
  0
LINE
  5
405
100
AcDbEntity
  8
C_COPERCHIO
100
AcDbLine
 62
7
  6
CONTINUOUS
 10
-12.9263910283
 20
20.6057113878
 11
-11.3147993138
 21
19.7999155305
  0
LINE
  5
406
100
AcDbEntity
  8
C_COPERCHIO
100
AcDbLine
 62
7
  6
CONTINUOUS
 10
-11.1109335295
 20
19.9378899481
 11
-12.6869013989
 21
20.7258738828
  0
LINE
  5
407
100
AcDbEntity
  8
C_COPERCHIO
100
AcDbLine
 62
7
  6
CONTINUOUS
 10
-18.3113763732
 20
23.5381113699
 11
-19.8873442426
 21
24.3260953046
  0
LINE
  5
408
100
AcDbEntity
  8
C_COPERCHIO
100
AcDbLine
 62
7
  6
CONTINUOUS
 10
-28.7886030592
 20
28.7767247129
 11
-30.3645709286
 21
29.5647086476
  0
LINE
  5
409
100
AcDbEntity
  8
C_COPERCHIO
100
AcDbLine
 62
7
  6
CONTINUOUS
 10
-35.9890459028
 20
32.3769461348
 11
-37.5650137722
 21
33.1649300695
  0
LINE
  5
40A
100
AcDbEntity
  8
C_MOLLE_IDEA
100
AcDbLine
 62
250
  6
CONTINUOUS
 10
-12.0996923477
 20
20.7548377567
 11
-16.9187101505
 21
23.1643466581
  0
LINE
  5
40B
100
AcDbEntity
  8
C_MOLLE_IDEA
100
AcDbLine
 62
250
  6
CONTINUOUS
 10
-29.7773618773
 20
29.5936725215
 11
-34.5963796802
 21
32.0031814229
  0
LINE
  5
40C
100
AcDbEntity
  8
C_MOLLE_IDEA
100
AcDbLine
 62
7
  6
CONTINUOUS
 10
-34.3905446552
 20
31.9685620961
 11
-29.6530306878
 21
29.5998051124
  0
LINE
  5
40D
100
AcDbEntity
  8
C_MOLLE_IDEA
100
AcDbLine
 62
7
  6
CONTINUOUS
 10
-16.7128751256
 20
23.1297273313
 11
-11.9753611581
 21
20.7609703476
  0
LWPOLYLINE
  5
40E
100
AcDbEntity
  8
C_MOLLE_IDEA
100
AcDbPolyline
 62
7
  6
CONTINUOUS
 90
15
 70
0
 10
-36.6396557935
 20
30.7942148228
 10
-36.630639528
 20
30.7895271642
 10
-36.6223043401
 20
30.784840924
 10
-36.6146502297
 20
30.7801561023
 10
-36.6076503306
 20
30.7754527071
 10
-36.601331509
 20
30.7707507303
 10
-36.5957743637
 20
30.7661101473
 10
-36.5909886517
 20
30.7615317445
 10
-36.5869646161
 20
30.7570147354
 10
-36.5837535847
 20
30.7526167362
 10
-36.581365972
 20
30.7483392711
 10
-36.5797913637
 20
30.7441808159
 10
-36.5790498443
 20
30.740194413
 10
-36.5791520856
 20
30.7363822663
 10
-36.579426055
 20
30.7348763917
  0
LWPOLYLINE
  5
40F
100
AcDbEntity
  8
C_MOLLE_IDEA
100
AcDbPolyline
 62
7
  6
CONTINUOUS
 90
15
 70
0
 10
-32.6091471408
 20
28.7789604964
 10
-32.6001308753
 20
28.7742728378
 10
-32.5917956873
 20
28.7695865977
 10
-32.5841415769
 20
28.7649017759
 10
-32.5771416778
 20
28.7601983807
 10
-32.5708228562
 20
28.7554964039
 10
-32.565265711
 20
28.7508558209
 10
-32.560479999
 20
28.7462774181
 10
-32.5564559633
 20
28.7417604091
 10
-32.5532449319
 20
28.7373624098
 10
-32.5508573193
 20
28.7330849448
 10
-32.5492827109
 20
28.7289264895
 10
-32.5485411915
 20
28.7249400866
 10
-32.5486434328
 20
28.72112794
 10
-32.5489174022
 20
28.7196220653
  0
LWPOLYLINE
  5
410
100
AcDbEntity
  8
C_MOLLE_IDEA
100
AcDbPolyline
 62
7
  6
CONTINUOUS
 90
15
 70
0
 10
-18.9619862639
 20
21.955380058
 10
-18.9529699984
 20
21.9506923994
 10
-18.9446348104
 20
21.9460061592
 10
-18.9369807
 20
21.9413213374
 10
-18.9299808009
 20
21.9366179423
 10
-18.9236619793
 20
21.9319159655
 10
-18.9181048341
 20
21.9272753825
 10
-18.9133191221
 20
21.9226969797
 10
-18.9092950864
 20
21.9181799706
 10
-18.906084055
 20
21.9137819713
 10
-18.9036964424
 20
21.9095045063
 10
-18.902121834
 20
21.9053460511
 10
-18.9013803146
 20
21.9013596481
 10
-18.9014825559
 20
21.8975475015
 10
-18.9017565253
 20
21.8960416268
  0
LWPOLYLINE
  5
411
100
AcDbEntity
  8
C_MOLLE_IDEA
100
AcDbPolyline
 62
7
  6
CONTINUOUS
 90
15
 70
0
 10
-14.9314776111
 20
19.9401257316
 10
-14.9224613456
 20
19.935438073
 10
-14.9141261576
 20
19.9307518328
 10
-14.9064720472
 20
19.926067011
 10
-14.8994721481
 20
19.9213636159
 10
-14.8931533266
 20
19.9166616391
 10
-14.8875961813
 20
19.9120210561
 10
-14.8828104693
 20
19.9074426533
 10
-14.8787864336
 20
19.9029256442
 10
-14.8755754022
 20
19.8985276449
 10
-14.8731877896
 20
19.8942501799
 10
-14.8716131812
 20
19.8900917247
 10
-14.8708716619
 20
19.8861053218
 10
-14.8709739032
 20
19.8822931751
 10
-14.8712478726
 20
19.8807873005
  0
LWPOLYLINE
  5
412
100
AcDbEntity
  8
C_MOLLE_IDEA
100
AcDbPolyline
 62
7
  6
CONTINUOUS
 90
15
 70
0
 10
-30.6211068822
 20
29.1308537912
 10
-30.6301231477
 20
29.1355414498
 10
-30.6384583356
 20
29.14022769
 10
-30.646112446
 20
29.1449125117
 10
-30.6531123452
 20
29.1496159069
 10
-30.6594311667
 20
29.1543178837
 10
-30.664988312
 20
29.1589584667
 10
-30.669774024
 20
29.1635368695
 10
-30.6737980597
 20
29.1680538786
 10
-30.677009091
 20
29.1724518778
 10
-30.6793967037
 20
29.1767293429
 10
-30.680971312
 20
29.1808877981
 10
-30.6817128314
 20
29.184874201
 10
-30.6816105901
 20
29.1886863477
 10
-30.6813366207
 20
29.1901922223
  0
LWPOLYLINE
  5
413
100
AcDbEntity
  8
C_MOLLE_IDEA
100
AcDbPolyline
 62
7
  6
CONTINUOUS
 90
15
 70
0
 10
-12.9434373525
 20
20.2920190264
 10
-12.952453618
 20
20.296706685
 10
-12.960788806
 20
20.3013929251
 10
-12.9684429164
 20
20.3060777469
 10
-12.9754428155
 20
20.3107811421
 10
-12.9817616371
 20
20.3154831188
 10
-12.9873187823
 20
20.3201237018
 10
-12.9921044943
 20
20.3247021047
 10
-12.99612853
 20
20.3292191137
 10
-12.9993395614
 20
20.333617113
 10
-13.001727174
 20
20.337894578
 10
-13.0033017824
 20
20.3420530333
 10
-13.0040433018
 20
20.3460394362
 10
-13.0039410604
 20
20.3498515828
 10
-13.0036670911
 20
20.3513574575
  0
LINE
  5
414
100
AcDbEntity
  8
C_CORPO
100
AcDbLine
 62
7
  6
CONTINUOUS
 10
-7.4385986545
 20
16.461224142
 11
-7.6222851182
 21
16.7780364281
  0
LINE
  5
415
100
AcDbEntity
  8
ASSI
100
AcDbLine
 62
7
  6
CONTINUOUS
 10
-7.4385986545
 20
16.461224142
 11
-7.6222851182
 21
16.7780364281
  0
LINE
  5
416
100
AcDbEntity
  8
C_CORPO
100
AcDbLine
 62
250
  6
CONTINUOUS
 10
-3.1145927919
 20
5.3764021119
 11
-3.1145927919
 21
-13.8546013156
  0
LINE
  5
417
100
AcDbEntity
  8
ASSI
100
AcDbLine
 62
250
  6
CONTINUOUS
 10
-3.1145927919
 20
5.3764021119
 11
-3.1145927919
 21
-13.8546013156
  0
LINE
  5
418
100
AcDbEntity
  8
C_CORPO
100
AcDbLine
 62
7
  6
CONTINUOUS
 10
-2.8339325922
 20
4.8303935387
 11
-2.8339325922
 21
-13.5316652778
  0
LINE
  5
419
100
AcDbEntity
  8
ASSI
100
AcDbLine
 62
7
  6
CONTINUOUS
 10
-2.8339325922
 20
4.8303935387
 11
-2.8339325922
 21
-13.5316652778
  0
LINE
  5
41A
100
AcDbEntity
  8
ASSI
100
AcDbLine
 62
7
  6
CONTINUOUS
 10
-2.8338857335
 20
4.8370557901
 11
-2.8339322371
 21
4.8303910117
  0
LINE
  5
41B
100
AcDbEntity
  8
ASSI
100
AcDbLine
 62
7
  6
CONTINUOUS
 10
-2.8342845287
 20
-13.5696382448
 11
-2.8339326058
 21
-13.5316667388
  0
LWPOLYLINE
  5
41C
100
AcDbEntity
  8
C_CORPO
100
AcDbPolyline
 62
250
  6
CONTINUOUS
 90
26
 70
0
 10
-2.8339619519
 20
-13.5348361157
 10
-2.8345464437
 20
-13.5491818853
 10
-2.8360045033
 20
-13.563834865
 10
-2.8383217442
 20
-13.5784601478
 10
-2.8414961715
 20
-13.5930451418
 10
-2.8455250519
 20
-13.6075772899
 10
-2.8504049169
 20
-13.6220440805
 10
-2.856131565
 20
-13.636433058
 10
-2.8627000657
 20
-13.6507318341
 10
-2.8701047638
 20
-13.6649280981
 10
-2.8783392841
 20
-13.6790096274
 10
-2.887396537
 20
-13.6929642984
 10
-2.8972687246
 20
-13.7067800965
 10
-2.9079473471
 20
-13.7204451269
 10
-2.9194232107
 20
-13.7339476244
 10
-2.931686435
 20
-13.7472759638
 10
-2.9447264619
 20
-13.76041867
 10
-2.9585320644
 20
-13.7733644274
 10
-2.9730913562
 20
-13.7861020903
 10
-2.9883918024
 20
-13.798620692
 10
-3.0044202372
 20
-13.8109094598
 10
-3.0211628539
 20
-13.8229578078
 10
-3.0386052136
 20
-13.8347553472
 10
-3.056732288
 20
-13.8462919164
 10
-3.0755284754
 20
-13.8575575895
 10
-3.0949775903
 20
-13.8685426683
  0
LWPOLYLINE
  5
41D
100
AcDbEntity
  8
ASSI
100
AcDbPolyline
 62
250
  6
CONTINUOUS
 90
26
 70
0
 10
-2.833961988
 20
-13.5348370017
 10
-2.8345464437
 20
-13.5491818853
 10
-2.8360045033
 20
-13.563834865
 10
-2.8383217442
 20
-13.5784601478
 10
-2.8414961715
 20
-13.5930451418
 10
-2.8455250519
 20
-13.6075772899
 10
-2.8504049169
 20
-13.6220440805
 10
-2.856131565
 20
-13.636433058
 10
-2.8627000657
 20
-13.6507318341
 10
-2.8701047638
 20
-13.6649280981
 10
-2.8783392841
 20
-13.6790096274
 10
-2.887396537
 20
-13.6929642984
 10
-2.8972687246
 20
-13.7067800965
 10
-2.9079473471
 20
-13.7204451269
 10
-2.9194232107
 20
-13.7339476244
 10
-2.931686435
 20
-13.7472759638
 10
-2.9447264619
 20
-13.76041867
 10
-2.9585320644
 20
-13.7733644274
 10
-2.9730913562
 20
-13.7861020903
 10
-2.9883918024
 20
-13.798620692
 10
-3.0044202372
 20
-13.8109094598
 10
-3.0211628539
 20
-13.8229578078
 10
-3.0386052136
 20
-13.8347553472
 10
-3.056732288
 20
-13.8462919164
 10
-3.0755284754
 20
-13.8575575895
 10
-3.0949775903
 20
-13.8685426683
  0
LINE
  5
41E
100
AcDbEntity
  8
C_COPERCHIO
100
AcDbLine
 62
7
  6
CONTINUOUS
 10
-18.3800395449
 20
24.4226762949
 11
-19.8873442426
 21
24.3260953046
  0
LWPOLYLINE
  5
41F
100
AcDbEntity
  8
C_CORPO
100
AcDbPolyline
 62
250
  6
CONTINUOUS
 90
14
 70
0
 10
-35.4516024951
 20
29.4443589281
 10
-35.439481572
 20
29.4415392028
 10
-35.4188136446
 20
29.4363748828
 10
-35.3984276979
 20
29.4309207569
 10
-35.3783741895
 20
29.425190326
 10
-35.3586538688
 20
29.4191828755
 10
-35.3392659864
 20
29.4128991199
 10
-35.3202587521
 20
29.4063547033
 10
-35.3016326903
 20
29.3995487592
 10
-35.2833872765
 20
29.3924821542
 10
-35.2655691474
 20
29.3851731322
 10
-35.2481938485
 20
29.3776277744
 10
-35.2312458343
 20
29.3698399995
 10
-35.2147251047
 20
29.3618098076
  0
LWPOLYLINE
  5
420
100
AcDbEntity
  8
ASSI
100
AcDbPolyline
 62
250
  6
CONTINUOUS
 90
14
 70
0
 10
-35.4516024951
 20
29.4443589281
 10
-35.439481572
 20
29.4415392028
 10
-35.4188136446
 20
29.4363748828
 10
-35.3984276979
 20
29.4309207569
 10
-35.3783741895
 20
29.425190326
 10
-35.3586538688
 20
29.4191828755
 10
-35.3392659864
 20
29.4128991199
 10
-35.3202587521
 20
29.4063547033
 10
-35.3016326903
 20
29.3995487592
 10
-35.2833872765
 20
29.3924821542
 10
-35.2655691474
 20
29.3851731322
 10
-35.2481938485
 20
29.3776277744
 10
-35.2312458343
 20
29.3698399995
 10
-35.2147251047
 20
29.3618098076
  0
LWPOLYLINE
  5
421
100
AcDbEntity
  8
C_MOLLE_IDEA
100
AcDbPolyline
 62
7
  6
CONTINUOUS
 90
5
 70
0
 10
-34.3904948668
 20
31.9685371968
 10
-34.4103493102
 20
31.9776776456
 10
-34.4422028717
 20
31.9892774081
 10
-34.4754844945
 20
31.9977885205
 10
-34.5101941787
 20
32.0032109827
  0
LWPOLYLINE
  5
422
100
AcDbEntity
  8
C_COPERCHIO
100
AcDbPolyline
 62
7
  6
CONTINUOUS
 90
11
 70
0
 10
-10.7591822238
 20
20.6496743889
 10
-10.7848509829
 20
20.6619866605
 10
-10.8102235803
 20
20.6733544861
 10
-10.8352642921
 20
20.6837862026
 10
-10.8599365678
 20
20.6932937709
 10
-10.8842223384
 20
20.701896282
 10
-10.9080951189
 20
20.7096113407
 10
-10.9315044959
 20
20.7164559806
 10
-10.954418933
 20
20.7224539523
 10
-10.9768274441
 20
20.7276309869
 10
-10.9987104944
 20
20.7320117697
  0
LWPOLYLINE
  5
423
100
AcDbEntity
  8
C_COPERCHIO
100
AcDbPolyline
 62
7
  6
CONTINUOUS
 90
11
 70
0
 10
-28.4368517535
 20
29.4885091537
 10
-28.4625205125
 20
29.5008214253
 10
-28.4878931099
 20
29.512189251
 10
-28.5129338218
 20
29.5226209674
 10
-28.5376060975
 20
29.5321285357
 10
-28.5618918681
 20
29.5407310468
 10
-28.5857646486
 20
29.5484461055
 10
-28.6091740256
 20
29.5552907454
 10
-28.6320884627
 20
29.5612887172
 10
-28.6544969737
 20
29.5664657517
 10
-28.6763800241
 20
29.5708465346
  0
LINE
  5
424
100
AcDbEntity
  8
C_COPERCHIO
100
AcDbLine
 62
250
  6
CONTINUOUS
 10
-36.0577090745
 20
33.2615110598
 11
-34.609072403
 21
32.537192724
  0
LINE
  5
425
100
AcDbEntity
  8
C_COPERCHIO
100
AcDbLine
 62
250
  6
CONTINUOUS
 10
-28.6763800241
 20
29.5708465346
 11
-27.9326771378
 21
29.1989950914
  0
LINE
  5
426
100
AcDbEntity
  8
C_COPERCHIO
100
AcDbLine
 62
250
  6
CONTINUOUS
 10
-18.3800395449
 20
24.4226762949
 11
-16.9314028733
 21
23.6983579592
  0
LINE
  5
427
100
AcDbEntity
  8
C_COPERCHIO
100
AcDbLine
 62
250
  6
CONTINUOUS
 10
-10.9987104944
 20
20.7320117697
 11
-10.2550076082
 21
20.3601603266
  0
LINE
  5
428
100
AcDbEntity
  8
C_COPERCHIO
100
AcDbLine
 62
7
  6
CONTINUOUS
 10
-35.9366386106
 20
33.2384107547
 11
-34.6057968122
 21
32.5729898555
  0
LINE
  5
429
100
AcDbEntity
  8
C_COPERCHIO
100
AcDbLine
 62
7
  6
CONTINUOUS
 10
-28.4368517535
 20
29.4885091537
 11
-27.8949915723
 21
29.2175872355
  0
LINE
  5
42A
100
AcDbEntity
  8
C_COPERCHIO
100
AcDbLine
 62
7
  6
CONTINUOUS
 10
-18.2589690809
 20
24.3995759898
 11
-16.9281272826
 21
23.7341550906
  0
LINE
  5
42B
100
AcDbEntity
  8
C_COPERCHIO
100
AcDbLine
 62
7
  6
CONTINUOUS
 10
-10.7591822238
 20
20.6496743889
 11
-10.2173220426
 21
20.3787524706
  0
LINE
  5
42C
100
AcDbEntity
  8
C_CORPO
100
AcDbLine
 62
7
  6
CONTINUOUS
 10
-24.4063306525
 20
27.5369730667
 11
-20.6431378227
 21
25.6553766518
  0
LINE
  5
42D
100
AcDbEntity
  8
ASSI
100
AcDbLine
 62
7
  6
CONTINUOUS
 10
-24.4063306525
 20
27.5369730667
 11
-20.6431378227
 21
25.6553766518
  0
LINE
  5
42E
100
AcDbEntity
  8
C_COPERCHIO
100
AcDbLine
 62
7
  6
CONTINUOUS
 10
-37.9115242752
 20
34.5016396146
 11
-37.7322715686
 21
34.4120132613
  0
LINE
  5
42F
100
AcDbEntity
  8
C_COPERCHIO
100
AcDbLine
 62
7
  6
CONTINUOUS
 10
-25.6511773064
 20
28.3714661302
 11
-25.3610278005
 21
28.2263913773
  0
LINE
  5
430
100
AcDbEntity
  8
C_COPERCHIO
100
AcDbLine
 62
7
  6
CONTINUOUS
 10
-7.9735077767
 20
19.5326313654
 11
-7.1379442
 21
19.114849577
  0
LINE
  5
431
100
AcDbEntity
  8
C_COPERCHIO
100
AcDbLine
 62
250
  6
CONTINUOUS
 10
-8.5131343149
 20
19.9309342338
 11
-9.8103396619
 21
20.5795369073
  0
LINE
  5
432
100
AcDbEntity
  8
C_COPERCHIO
100
AcDbLine
 62
250
  6
CONTINUOUS
 10
-18.631375344
 20
24.9900547483
 11
-19.928580691
 21
25.6386574218
  0
LINE
  5
433
100
AcDbEntity
  8
C_COPERCHIO
100
AcDbLine
 62
250
  6
CONTINUOUS
 10
-26.1908038446
 20
28.7697689986
 11
-27.4880091916
 21
29.4183716721
  0
LINE
  5
434
100
AcDbEntity
  8
C_COPERCHIO
100
AcDbLine
 62
250
  6
CONTINUOUS
 10
-36.3090448737
 20
33.8288895132
 11
-37.6062502207
 21
34.4774921867
  0
LINE
  5
435
100
AcDbEntity
  8
C_COPERCHIO
100
AcDbLine
 62
7
  6
CONTINUOUS
 10
-8.1701287061
 20
19.9530905441
 11
-9.4643661331
 21
20.6002092576
  0
LINE
  5
436
100
AcDbEntity
  8
C_COPERCHIO
100
AcDbLine
 62
7
  6
CONTINUOUS
 10
-18.2972725909
 20
25.0166624865
 11
-19.591510018
 21
25.6637812
  0
LINE
  5
437
100
AcDbEntity
  8
C_COPERCHIO
100
AcDbLine
 62
7
  6
CONTINUOUS
 10
-25.8477982358
 20
28.7919253089
 11
-27.1420356628
 21
29.4390440225
  0
LINE
  5
438
100
AcDbEntity
  8
C_COPERCHIO
100
AcDbLine
 62
7
  6
CONTINUOUS
 10
-35.9749421206
 20
33.8554972514
 11
-37.2691795476
 21
34.5026159649
  0
LWPOLYLINE
  5
439
100
AcDbEntity
  8
C_CORPO
100
AcDbPolyline
 62
7
  6
CONTINUOUS
 90
16
 70
0
 10
4.1804311654
 20
9.2451504265
 10
4.2037421697
 20
9.2284098747
 10
4.2261739742
 20
9.2120339867
 10
4.2477232223
 20
9.1960588548
 10
4.2684046964
 20
9.1805443008
 10
4.2882008455
 20
9.1655014405
 10
4.3070570232
 20
9.1508958254
 10
4.32497112
 20
9.1367676299
 10
4.341939265
 20
9.1231529907
 10
4.3578968682
 20
9.1100179003
 10
4.3728418094
 20
9.097407272
 10
4.3867679583
 20
9.085360141
 10
4.3995968013
 20
9.0738423804
 10
4.4112963694
 20
9.0628765132
 10
4.4218870172
 20
9.0525362922
 10
4.4313658152
 20
9.0428697123
  0
LWPOLYLINE
  5
43A
100
AcDbEntity
  8
ASSI
100
AcDbPolyline
 62
7
  6
CONTINUOUS
 90
16
 70
0
 10
4.1804311654
 20
9.2451504265
 10
4.2037421697
 20
9.2284098747
 10
4.2261739742
 20
9.2120339867
 10
4.2477232223
 20
9.1960588548
 10
4.2684046964
 20
9.1805443008
 10
4.2882008455
 20
9.1655014405
 10
4.3070570232
 20
9.1508958254
 10
4.32497112
 20
9.1367676299
 10
4.341939265
 20
9.1231529907
 10
4.3578968682
 20
9.1100179003
 10
4.3728418094
 20
9.097407272
 10
4.3867679583
 20
9.085360141
 10
4.3995968013
 20
9.0738423804
 10
4.4112963694
 20
9.0628765132
 10
4.4218870172
 20
9.0525362922
 10
4.4313658152
 20
9.0428697123
  0
LWPOLYLINE
  5
43B
100
AcDbEntity
  8
C_CORPO
100
AcDbPolyline
 62
7
  6
CONTINUOUS
 90
68
 70
0
 10
-2.9383612095
 20
-14.1527361932
 10
-2.9370655002
 20
-14.1482597246
 10
-2.9362214965
 20
-14.1430808371
 10
-2.9359106132
 20
-14.1375613238
 10
-2.9360605549
 20
-14.1317697989
 10
-2.9366326042
 20
-14.1257842869
 10
-2.9375946756
 20
-14.1196553307
 10
-2.9388802022
 20
-14.1134110921
 10
-2.9404507163
 20
-14.1071112928
 10
-2.9422789383
 20
-14.1007991724
 10
-2.944322064
 20
-14.0944656547
 10
-2.9465501968
 20
-14.0881484222
 10
-2.9489406353
 20
-14.081884111
 10
-2.9514716173
 20
-14.0756476979
 10
-2.9541207601
 20
-14.0694649219
 10
-2.9568701654
 20
-14.063362485
 10
-2.9597144029
 20
-14.0573048816
 10
-2.9626408241
 20
-14.0513024723
 10
-2.9656328823
 20
-14.0453807184
 10
-2.96868633
 20
-14.0395186469
 10
-2.9717931486
 20
-14.0337211623
 10
-2.9749383947
 20
-14.0280098089
 10
-2.9781106769
 20
-14.022384778
 10
-2.9812982992
 20
-14.0168584141
 10
-2.9844921868
 20
-14.0114403952
 10
-2.9876865543
 20
-14.0061248928
 10
-2.990870654
 20
-14.0009229245
 10
-2.994037404
 20
-13.9958410853
 10
-2.9971885943
 20
-13.9908647662
 10
-3.0003163382
 20
-13.9860010014
 10
-3.003414072
 20
-13.9812562247
 10
-3.0064877933
 20
-13.9766128567
 10
-3.0095319374
 20
-13.9720751489
 10
-3.0125406132
 20
-13.9676490021
 10
-3.0155212684
 20
-13.9633176216
 10
-3.0184706874
 20
-13.9590825169
 10
-3.0213830387
 20
-13.9549498423
 10
-3.0242632613
 20
-13.9509085849
 10
-3.0271079118
 20
-13.9469610372
 10
-3.0299129559
 20
-13.9431109477
 10
-3.0326834313
 20
-13.939348687
 10
-3.0354160598
 20
-13.9356765952
 10
-3.0381079149
 20
-13.9320971241
 10
-3.0407653855
 20
-13.9286001744
 10
-3.0433856931
 20
-13.9251875474
 10
-3.0459665341
 20
-13.921861211
 10
-3.048515749
 20
-13.9186107749
 10
-3.0510321759
 20
-13.9154361074
 10
-3.0535128902
 20
-13.9123402666
 10
-3.0559636534
 20
-13.9093172459
 10
-3.0583838657
 20
-13.90636632
 10
-3.0607706943
 20
-13.9034905813
 10
-3.0631268542
 20
-13.9006895305
 10
-3.0654506223
 20
-13.8979637001
 10
-3.0677406394
 20
-13.8953145917
 10
-3.0700003225
 20
-13.8927430388
 10
-3.072226851
 20
-13.8902503192
 10
-3.0744202701
 20
-13.8878369097
 10
-3.0765884644
 20
-13.8855023231
 10
-3.0787320047
 20
-13.8832435832
 10
-3.0808479653
 20
-13.8810651028
 10
-3.0829390327
 20
-13.878977433
 10
-3.0850023469
 20
-13.87698005
 10
-3.0870384524
 20
-13.8750748252
 10
-3.0890550425
 20
-13.8732759414
 10
-3.0910539107
 20
-13.871588555
 10
-3.0930310412
 20
-13.8700087491
 10
-3.0949854061
 20
-13.8685370872
  0
LWPOLYLINE
  5
43C
100
AcDbEntity
  8
ASSI
100
AcDbPolyline
 62
7
  6
CONTINUOUS
 90
68
 70
0
 10
-2.9383612093
 20
-14.1527361927
 10
-2.9370655002
 20
-14.1482597246
 10
-2.9362214965
 20
-14.1430808371
 10
-2.9359106132
 20
-14.1375613238
 10
-2.9360605549
 20
-14.1317697989
 10
-2.9366326042
 20
-14.1257842869
 10
-2.9375946756
 20
-14.1196553307
 10
-2.9388802022
 20
-14.1134110921
 10
-2.9404507163
 20
-14.1071112928
 10
-2.9422789383
 20
-14.1007991724
 10
-2.944322064
 20
-14.0944656547
 10
-2.9465501968
 20
-14.0881484222
 10
-2.9489406353
 20
-14.081884111
 10
-2.9514716173
 20
-14.0756476979
 10
-2.9541207601
 20
-14.0694649219
 10
-2.9568701654
 20
-14.063362485
 10
-2.9597144029
 20
-14.0573048816
 10
-2.9626408241
 20
-14.0513024723
 10
-2.9656328823
 20
-14.0453807184
 10
-2.96868633
 20
-14.0395186469
 10
-2.9717931486
 20
-14.0337211623
 10
-2.9749383947
 20
-14.0280098089
 10
-2.9781106769
 20
-14.022384778
 10
-2.9812982992
 20
-14.0168584141
 10
-2.9844921868
 20
-14.0114403952
 10
-2.9876865543
 20
-14.0061248928
 10
-2.990870654
 20
-14.0009229245
 10
-2.994037404
 20
-13.9958410853
 10
-2.9971885943
 20
-13.9908647662
 10
-3.0003163382
 20
-13.9860010014
 10
-3.003414072
 20
-13.9812562247
 10
-3.0064877933
 20
-13.9766128567
 10
-3.0095319374
 20
-13.9720751489
 10
-3.0125406132
 20
-13.9676490021
 10
-3.0155212684
 20
-13.9633176216
 10
-3.0184706874
 20
-13.9590825169
 10
-3.0213830387
 20
-13.9549498423
 10
-3.0242632613
 20
-13.9509085849
 10
-3.0271079118
 20
-13.9469610372
 10
-3.0299129559
 20
-13.9431109477
 10
-3.0326834313
 20
-13.939348687
 10
-3.0354160598
 20
-13.9356765952
 10
-3.0381079149
 20
-13.9320971241
 10
-3.0407653855
 20
-13.9286001744
 10
-3.0433856931
 20
-13.9251875474
 10
-3.0459665341
 20
-13.921861211
 10
-3.048515749
 20
-13.9186107749
 10
-3.0510321759
 20
-13.9154361074
 10
-3.0535128902
 20
-13.9123402666
 10
-3.0559636534
 20
-13.9093172459
 10
-3.0583838657
 20
-13.90636632
 10
-3.0607706943
 20
-13.9034905813
 10
-3.0631268542
 20
-13.9006895305
 10
-3.0654506223
 20
-13.8979637001
 10
-3.0677406394
 20
-13.8953145917
 10
-3.0700003225
 20
-13.8927430388
 10
-3.072226851
 20
-13.8902503192
 10
-3.0744202701
 20
-13.8878369097
 10
-3.0765884644
 20
-13.8855023231
 10
-3.0787320047
 20
-13.8832435832
 10
-3.0808479653
 20
-13.8810651028
 10
-3.0829390327
 20
-13.878977433
 10
-3.0850023469
 20
-13.87698005
 10
-3.0870384524
 20
-13.8750748252
 10
-3.0890550425
 20
-13.8732759414
 10
-3.0910539107
 20
-13.871588555
 10
-3.0930310412
 20
-13.8700087491
 10
-3.0949854061
 20
-13.8685370872
  0
LWPOLYLINE
  5
43D
100
AcDbEntity
  8
ASSI
100
AcDbPolyline
 62
7
  6
CONTINUOUS
 90
14
 70
0
 10
-2.9341316669
 20
-14.1408978273
 10
-2.9204986142
 20
-14.1005776986
 10
-2.9077953026
 20
-14.0595675972
 10
-2.8960407511
 20
-14.0178855858
 10
-2.8852519275
 20
-13.9755444414
 10
-2.8754529225
 20
-13.9325938687
 10
-2.8666564973
 20
-13.8890436936
 10
-2.8588763706
 20
-13.8449080895
 10
-2.8521311161
 20
-13.8002417956
 10
-2.8464305341
 20
-13.7550557231
 10
-2.8417847582
 20
-13.7093614872
 10
-2.8382065786
 20
-13.6632128557
 10
-2.8357041982
 20
-13.6166337525
 10
-2.8342845287
 20
-13.5696382448
  0
LWPOLYLINE
  5
43E
100
AcDbEntity
  8
C_CORPO
100
AcDbPolyline
 62
7
  6
CONTINUOUS
 90
9
 70
0
 10
-6.7725835275
 20
-16.1180233611
 10
-6.7628354298
 20
-16.0914385917
 10
-6.7490890316
 20
-16.0525510066
 10
-6.7354753386
 20
-16.012327897
 10
-6.7220670791
 20
-15.9708273464
 10
-6.7090617087
 20
-15.9283034588
 10
-6.6965380814
 20
-15.8848470409
 10
-6.6844680837
 20
-15.8403782252
 10
-6.6728781982
 20
-15.7949038666
  0
LWPOLYLINE
  5
43F
100
AcDbEntity
  8
ASSI
100
AcDbPolyline
 62
7
  6
CONTINUOUS
 90
9
 70
0
 10
-6.7725835221
 20
-16.1180233467
 10
-6.7628354298
 20
-16.0914385917
 10
-6.7490890316
 20
-16.0525510066
 10
-6.7354753386
 20
-16.012327897
 10
-6.7220670791
 20
-15.9708273464
 10
-6.7090617087
 20
-15.9283034588
 10
-6.6965380814
 20
-15.8848470409
 10
-6.6844680837
 20
-15.8403782252
 10
-6.6728781982
 20
-15.7949038666
  0
LWPOLYLINE
  5
440
100
AcDbEntity
  8
C_CORPO
100
AcDbPolyline
 62
7
  6
CONTINUOUS
 90
18
 70
0
 10
-6.9775901224
 20
-16.5609489303
 10
-6.967365418
 20
-16.542609148
 10
-6.9567099866
 20
-16.52320694
 10
-6.9456499315
 20
-16.5027211439
 10
-6.9342188223
 20
-16.4811314403
 10
-6.9224381042
 20
-16.4584162542
 10
-6.9103164644
 20
-16.4345534701
 10
-6.897875157
 20
-16.4095139237
 10
-6.8851521842
 20
-16.3832879918
 10
-6.8721803165
 20
-16.3558857869
 10
-6.8589996714
 20
-16.3273216166
 10
-6.8456293005
 20
-16.297550321
 10
-6.8320728187
 20
-16.2664927883
 10
-6.8183451206
 20
-16.2340960835
 10
-6.8045034978
 20
-16.2003799226
 10
-6.7906178232
 20
-16.16537425
 10
-6.7767125591
 20
-16.1290626605
 10
-6.7725835275
 20
-16.1180233611
  0
LWPOLYLINE
  5
441
100
AcDbEntity
  8
ASSI
100
AcDbPolyline
 62
7
  6
CONTINUOUS
 90
18
 70
0
 10
-6.9775901224
 20
-16.5609489303
 10
-6.967365418
 20
-16.542609148
 10
-6.9567099866
 20
-16.52320694
 10
-6.9456499315
 20
-16.5027211438
 10
-6.9342188223
 20
-16.4811314403
 10
-6.9224381042
 20
-16.4584162541
 10
-6.9103164644
 20
-16.4345534701
 10
-6.897875157
 20
-16.4095139236
 10
-6.8851521842
 20
-16.3832879918
 10
-6.8721803165
 20
-16.3558857869
 10
-6.8589996714
 20
-16.3273216166
 10
-6.8456293005
 20
-16.297550321
 10
-6.8320728187
 20
-16.2664927883
 10
-6.8183451206
 20
-16.2340960835
 10
-6.8045034978
 20
-16.2003799225
 10
-6.7906178232
 20
-16.16537425
 10
-6.7767125591
 20
-16.1290626605
 10
-6.7725835221
 20
-16.1180233467
  0
LINE
  5
442
100
AcDbEntity
  8
C_MOLLE_IDEA
100
AcDbLine
 62
7
  6
CONTINUOUS
 10
-33.9042969471
 20
27.5588244221
 11
-30.3783415413
 21
27.9186702735
  0
LINE
  5
443
100
AcDbEntity
  8
C_MOLLE_IDEA
100
AcDbLine
 62
7
  6
CONTINUOUS
 10
-33.8168937423
 20
27.931981666
 11
-29.5059791919
 21
28.3719375185
  0
LINE
  5
444
100
AcDbEntity
  8
C_MOLLE_IDEA
100
AcDbLine
 62
7
  6
CONTINUOUS
 10
-32.6022254869
 20
28.6945232806
 11
-34.5524711716
 21
28.4954884835
  0
LWPOLYLINE
  5
445
100
AcDbEntity
  8
C_MOLLE_IDEA
100
AcDbPolyline
 62
7
  6
CONTINUOUS
 90
25
 70
0
 10
-34.5524711716
 20
28.4954884835
 10
-34.5616432763
 20
28.4947411773
 10
-34.571295597
 20
28.4943014344
 10
-34.5814281336
 20
28.4941692547
 10
-34.5920882524
 20
28.4943467003
 10
-34.6032285872
 20
28.4948317092
 10
-34.6147070391
 20
28.4956180948
 10
-34.6265279394
 20
28.4967097177
 10
-34.6386869567
 20
28.4981027174
 10
-34.6510289986
 20
28.4997793257
 10
-34.6635564096
 20
28.5017431755
 10
-34.6762668453
 20
28.5039906339
 10
-34.6889981795
 20
28.5064930337
 10
-34.7017506799
 20
28.5092536407
 10
-34.714524079
 20
28.5122691891
 10
-34.7271554474
 20
28.5155012147
 10
-34.7396429659
 20
28.5189524903
 10
-34.7519884537
 20
28.522620243
 10
-34.76403444
 20
28.5264576893
 10
-34.7757770881
 20
28.530467003
 10
-34.7872202346
 20
28.5346460103
 10
-34.7982179182
 20
28.5389414065
 10
-34.8087214852
 20
28.5433354234
 10
-34.8187795892
 20
28.5478458291
 10
-34.8283922302
 20
28.5524726239
  0
LWPOLYLINE
  5
446
100
AcDbEntity
  8
ASSI
100
AcDbPolyline
 62
7
  6
CONTINUOUS
 90
26
 70
0
 10
4.4607326389
 20
20.6346813975
 10
4.4593231659
 20
20.6819567687
 10
4.4568543443
 20
20.7293213781
 10
4.4533351706
 20
20.7767672923
 10
4.448775903
 20
20.8242660194
 10
4.4431922989
 20
20.8717478563
 10
4.436595453
 20
20.9192045193
 10
4.4289952841
 20
20.9666252377
 10
4.4204134569
 20
21.013933287
 10
4.4108621976
 20
21.0611190715
 10
4.400351921
 20
21.1081741633
 10
4.3889099126
 20
21.1550212863
 10
4.3765513653
 20
21.201642157
 10
4.363285734
 20
21.2480372973
 10
4.3491370523
 20
21.2941556639
 10
4.3341208173
 20
21.3399775853
 10
4.3182451281
 20
21.3855049288
 10
4.3015242146
 20
21.4307169598
 10
4.2839683204
 20
21.4756035037
 10
4.2655860428
 20
21.5201558098
 10
4.2463898325
 20
21.5643536262
 10
4.226388332
 20
21.6081856037
 10
4.2055879565
 20
21.6516419645
 10
4.1839984504
 20
21.6947050814
 10
4.1616261467
 20
21.7373625762
 10
4.1384832844
 20
21.779589979
  0
LWPOLYLINE
  5
447
100
AcDbEntity
  8
C_CORPO
100
AcDbPolyline
 62
7
  6
CONTINUOUS
 90
28
 70
0
 10
4.4610913515
 20
20.5961573308
 10
4.4607324592
 20
20.6347006894
 10
4.4593218349
 20
20.6819892147
 10
4.4568524685
 20
20.7293510619
 10
4.4533328822
 20
20.7767941774
 10
4.4487733331
 20
20.8242900751
 10
4.4431895772
 20
20.871769064
 10
4.4365927079
 20
20.9192228607
 10
4.4289926425
 20
20.9666406974
 10
4.4204110427
 20
21.0139458651
 10
4.4108601328
 20
21.06112877
 10
4.4003503258
 20
21.1081809858
 10
4.3889089026
 20
21.1550252521
 10
4.3765510535
 20
21.2016432885
 10
4.3632862319
 20
21.2480356173
 10
4.3491384664
 20
21.2941512065
 10
4.3341232514
 20
21.339970388
 10
4.3182486846
 20
21.385495029
 10
4.3015289929
 20
21.4307044004
 10
4.2839744178
 20
21.4755883295
 10
4.2655935555
 20
21.5201380672
 10
4.2463988534
 20
21.5643333675
 10
4.2263989521
 20
21.608162884
 10
4.2056002662
 20
21.6516168397
 10
4.1840125387
 20
21.6946776101
 10
4.1616421018
 20
21.7373328198
 10
4.1384932906
 20
21.7795724198
 10
4.119123903
 20
21.8135622858
  0
LINE
  5
448
100
AcDbEntity
  8
ASSI
100
AcDbLine
 62
7
  6
CONTINUOUS
 10
4.4610913515
 20
20.5961573184
 11
4.4607326389
 21
20.6346813975
  0
LINE
  5
449
100
AcDbEntity
  8
C_CORPO
100
AcDbLine
 62
250
  6
CONTINUOUS
 10
4.1804311654
 20
20.2488303312
 11
4.1804311654
 21
9.2451504265
  0
LINE
  5
44A
100
AcDbEntity
  8
ASSI
100
AcDbLine
 62
250
  6
CONTINUOUS
 10
4.1804311654
 20
20.2488303312
 11
4.1804311654
 21
9.2451504265
  0
LWPOLYLINE
  5
44B
100
AcDbEntity
  8
C_CORPO
100
AcDbPolyline
 62
7
  6
CONTINUOUS
 90
12
 70
0
 10
4.4610913651
 20
20.5961595164
 10
4.4610828991
 20
9.2354147782
 10
4.4607049907
 20
9.2153377327
 10
4.4597625436
 20
9.1954101367
 10
4.4582507919
 20
9.1756388302
 10
4.4561649624
 20
9.1560475608
 10
4.4535006975
 20
9.13664336
 10
4.4502539771
 20
9.1174334175
 10
4.4464205735
 20
9.0984419178
 10
4.441996726
 20
9.0796819123
 10
4.436979409
 20
9.0611552981
 10
4.4313658152
 20
9.0428697123
  0
LWPOLYLINE
  5
44C
100
AcDbEntity
  8
ASSI
100
AcDbPolyline
 62
7
  6
CONTINUOUS
 90
12
 70
0
 10
4.4610913651
 20
20.5961595164
 10
4.4610828991
 20
9.2354147782
 10
4.4607049907
 20
9.2153377327
 10
4.4597625436
 20
9.1954101367
 10
4.4582507919
 20
9.1756388302
 10
4.4561649624
 20
9.1560475608
 10
4.4535006975
 20
9.13664336
 10
4.4502539771
 20
9.1174334175
 10
4.4464205735
 20
9.0984419178
 10
4.441996726
 20
9.0796819123
 10
4.436979409
 20
9.0611552981
 10
4.4313658152
 20
9.0428697123
  0
LWPOLYLINE
  5
44D
100
AcDbEntity
  8
C_CORPO
100
AcDbPolyline
 62
250
  6
CONTINUOUS
 90
27
 70
0
 10
4.4610913651
 20
20.5961573308
 10
4.4610702258
 20
20.5929084358
 10
4.4604084253
 20
20.5776837667
 10
4.458819658
 20
20.5624762357
 10
4.4563053978
 20
20.5472999493
 10
4.4528679769
 20
20.5321689851
 10
4.4485105838
 20
20.5170973785
 10
4.4432372605
 20
20.50209911
 10
4.4370528984
 20
20.4871880919
 10
4.4299632343
 20
20.4723781557
 10
4.4219748445
 20
20.4576830391
 10
4.413095139
 20
20.4431163734
 10
4.4033323546
 20
20.4286916704
 10
4.3926955473
 20
20.4144223107
 10
4.3811945838
 20
20.4003215305
 10
4.3688401324
 20
20.3864024096
 10
4.3556436531
 20
20.3726778594
 10
4.3416173869
 20
20.3591606109
 10
4.3267743446
 20
20.3458632025
 10
4.3111282947
 20
20.3327979691
 10
4.2946937503
 20
20.3199770299
 10
4.2774859562
 20
20.3074122776
 10
4.2595208744
 20
20.2951153674
 10
4.2408151692
 20
20.2830977057
 10
4.2213861921
 20
20.2713704402
 10
4.2012519653
 20
20.2599444491
 10
4.1804311654
 20
20.2488303312
  0
LWPOLYLINE
  5
44E
100
AcDbEntity
  8
ASSI
100
AcDbPolyline
 62
250
  6
CONTINUOUS
 90
27
 70
0
 10
4.4610913651
 20
20.5961573184
 10
4.4610702258
 20
20.5929084358
 10
4.4604084253
 20
20.5776837667
 10
4.458819658
 20
20.5624762357
 10
4.4563053978
 20
20.5472999493
 10
4.4528679769
 20
20.5321689851
 10
4.4485105838
 20
20.5170973785
 10
4.4432372605
 20
20.50209911
 10
4.4370528984
 20
20.4871880919
 10
4.4299632343
 20
20.4723781557
 10
4.4219748445
 20
20.4576830391
 10
4.413095139
 20
20.4431163734
 10
4.4033323546
 20
20.4286916704
 10
4.3926955473
 20
20.4144223107
 10
4.3811945838
 20
20.4003215305
 10
4.3688401324
 20
20.3864024096
 10
4.3556436531
 20
20.3726778594
 10
4.3416173869
 20
20.3591606109
 10
4.3267743446
 20
20.3458632025
 10
4.3111282947
 20
20.3327979691
 10
4.2946937503
 20
20.3199770299
 10
4.2774859562
 20
20.3074122776
 10
4.2595208744
 20
20.2951153674
 10
4.2408151692
 20
20.2830977057
 10
4.2213861921
 20
20.2713704402
 10
4.2012519653
 20
20.2599444491
 10
4.1804311654
 20
20.2488303312
  0
LWPOLYLINE
  5
44F
100
AcDbEntity
  8
C_CORPO
100
AcDbPolyline
 62
7
  6
CONTINUOUS
 90
16
 70
0
 10
-2.9383549107
 20
-14.1527322848
 10
-2.9341247067
 20
-14.1408783233
 10
-2.9204917006
 20
-14.1005563515
 10
-2.9077902105
 20
-14.0595503834
 10
-2.89603728
 20
-14.0178726508
 10
-2.8852498717
 20
-13.9755359261
 10
-2.8754520682
 20
-13.9325898959
 10
-2.8666566275
 20
-13.8890443826
 10
-2.8588772647
 20
-13.8449135547
 10
-2.8521325482
 20
-13.8002521321
 10
-2.8464322763
 20
-13.7550710222
 10
-2.8417865809
 20
-13.7093818368
 10
-2.8382082495
 20
-13.6632383255
 10
-2.8357054838
 20
-13.6166644036
 10
-2.8342847136
 20
-13.5696581973
 10
-2.8339326058
 20
-13.5316667368
  0
LINE
  5
450
100
AcDbEntity
  8
ASSI
100
AcDbLine
 62
7
  6
CONTINUOUS
 10
-2.9383549105
 20
-14.1527322843
 11
-2.9341316669
 21
-14.1408978273
  0
LWPOLYLINE
  5
451
100
AcDbEntity
  8
C_CORPO
100
AcDbPolyline
 62
250
  6
CONTINUOUS
 90
24
 70
0
 10
-6.8129599213
 20
-16.2209785286
 10
-6.8056233027
 20
-16.2124496853
 10
-6.7946483082
 20
-16.1986163628
 10
-6.7841048043
 20
-16.1842112651
 10
-6.7739996776
 20
-16.1692444303
 10
-6.7643407005
 20
-16.153727739
 10
-6.7551359294
 20
-16.1376752107
 10
-6.7463903502
 20
-16.1210966433
 10
-6.7381071393
 20
-16.10399758
 10
-6.7302922512
 20
-16.0863893918
 10
-6.7229520169
 20
-16.0682853552
 10
-6.7160906433
 20
-16.0496934236
 10
-6.7097122006
 20
-16.0306216064
 10
-6.7038238271
 20
-16.011087863
 10
-6.6984334712
 20
-15.9911158795
 10
-6.6935443609
 20
-15.9707178547
 10
-6.6891606631
 20
-15.9499110506
 10
-6.6852891333
 20
-15.928728827
 10
-6.681931049
 20
-15.9071875089
 10
-6.6790874838
 20
-15.8853038168
 10
-6.6767616768
 20
-15.8631138453
 10
-6.6749532283
 20
-15.8406418706
 10
-6.6736595743
 20
-15.8178993706
 10
-6.6728787975
 20
-15.7949042168
  0
LWPOLYLINE
  5
452
100
AcDbEntity
  8
ASSI
100
AcDbPolyline
 62
250
  6
CONTINUOUS
 90
24
 70
0
 10
-6.8129599213
 20
-16.2209785286
 10
-6.8056233027
 20
-16.2124496853
 10
-6.7946483082
 20
-16.1986163628
 10
-6.7841048043
 20
-16.1842112651
 10
-6.7739996776
 20
-16.1692444303
 10
-6.7643407005
 20
-16.153727739
 10
-6.7551359294
 20
-16.1376752107
 10
-6.7463903502
 20
-16.1210966433
 10
-6.7381071393
 20
-16.10399758
 10
-6.7302922512
 20
-16.0863893918
 10
-6.7229520169
 20
-16.0682853552
 10
-6.7160906433
 20
-16.0496934236
 10
-6.7097122006
 20
-16.0306216064
 10
-6.7038238271
 20
-16.011087863
 10
-6.6984334712
 20
-15.9911158795
 10
-6.6935443609
 20
-15.9707178547
 10
-6.6891606631
 20
-15.9499110506
 10
-6.6852891333
 20
-15.928728827
 10
-6.681931049
 20
-15.9071875089
 10
-6.6790874838
 20
-15.8853038168
 10
-6.6767616768
 20
-15.8631138453
 10
-6.6749532283
 20
-15.8406418706
 10
-6.6736595743
 20
-15.8178993706
 10
-6.6728787975
 20
-15.7949042168
  0
LWPOLYLINE
  5
453
100
AcDbEntity
  8
C_COPERCHIO
100
AcDbPolyline
 62
7
  6
CONTINUOUS
 90
26
 70
0
 10
-12.758413113
 20
-24.6622362683
 10
-12.7709041555
 20
-24.6754855679
 10
-12.7836224687
 20
-24.6886412157
 10
-12.7965692525
 20
-24.7016929682
 10
-12.8097488412
 20
-24.7146303255
 10
-12.8231583646
 20
-24.7274434274
 10
-12.8367883259
 20
-24.7401226481
 10
-12.850638844
 20
-24.7526568466
 10
-12.8647106754
 20
-24.7650361472
 10
-12.878995996
 20
-24.777251929
 10
-12.8934947179
 20
-24.7892926566
 10
-12.9082071845
 20
-24.8011478979
 10
-12.9231271069
 20
-24.8128094099
 10
-12.9382541741
 20
-24.824265037
 10
-12.9535883068
 20
-24.8355035968
 10
-12.9691245972
 20
-24.846516567
 10
-12.9848623487
 20
-24.8572908542
 10
-13.0008010908
 20
-24.8678143544
 10
-13.0169374099
 20
-24.8780777134
 10
-13.0332701136
 20
-24.8880666239
 10
-13.0497982103
 20
-24.8977677359
 10
-13.0665198446
 20
-24.90717008
 10
-13.0834331028
 20
-24.9162577915
 10
-13.100536286
 20
-24.9250158935
 10
-13.1178291771
 20
-24.93343074
 10
-13.1258484329
 20
-24.937182129
  0
LWPOLYLINE
  5
454
100
AcDbEntity
  8
C_CORPO
100
AcDbPolyline
 62
7
  6
CONTINUOUS
 90
16
 70
0
 10
-7.2231187624
 20
-16.8425915469
 10
-7.203827107
 20
-16.8281438838
 10
-7.1849371317
 20
-16.8130609515
 10
-7.1664488368
 20
-16.7973427501
 10
-7.1483559701
 20
-16.780983171
 10
-7.1306647838
 20
-16.7639883227
 10
-7.1133940333
 20
-16.7463765311
 10
-7.0965437376
 20
-16.728146754
 10
-7.0801138779
 20
-16.7093000336
 10
-7.0641231534
 20
-16.6898578217
 10
-7.0485721986
 20
-16.6698196634
 10
-7.0334603792
 20
-16.6491860138
 10
-7.0188044911
 20
-16.6279796897
 10
-7.0046101331
 20
-16.6062082969
 10
-6.9908717065
 20
-16.5838642297
 10
-6.9775892112
 20
-16.5609474881
  0
LWPOLYLINE
  5
455
100
AcDbEntity
  8
ASSI
100
AcDbPolyline
 62
7
  6
CONTINUOUS
 90
16
 70
0
 10
-7.2231187624
 20
-16.8425915469
 10
-7.203827107
 20
-16.8281438838
 10
-7.1849371317
 20
-16.8130609515
 10
-7.1664488368
 20
-16.7973427501
 10
-7.1483559701
 20
-16.780983171
 10
-7.1306647838
 20
-16.7639883227
 10
-7.1133940333
 20
-16.7463765311
 10
-7.0965437376
 20
-16.728146754
 10
-7.0801138779
 20
-16.7093000336
 10
-7.0641231534
 20
-16.6898578217
 10
-7.0485721986
 20
-16.6698196634
 10
-7.0334603792
 20
-16.6491860138
 10
-7.0188044911
 20
-16.6279796897
 10
-7.0046101331
 20
-16.6062082969
 10
-6.9908717065
 20
-16.5838642297
 10
-6.9775892112
 20
-16.5609474881
  0
LINE
  5
456
100
AcDbEntity
  8
C_CORPO
100
AcDbLine
 62
7
  6
CONTINUOUS
 10
-8.0094592467
 20
-17.41248778
 11
-7.2231187624
 21
-16.8425915469
  0
LINE
  5
457
100
AcDbEntity
  8
ASSI
100
AcDbLine
 62
7
  6
CONTINUOUS
 10
-8.0094592467
 20
-17.41248778
 11
-7.2231187624
 21
-16.8425915469
  0
LWPOLYLINE
  5
458
100
AcDbEntity
  8
C_CORPO
100
AcDbPolyline
 62
7
  6
CONTINUOUS
 90
5
 70
0
 10
-2.9498241875
 20
-14.1665345783
 10
-2.9463994881
 20
-14.1642892552
 10
-2.9431027453
 20
-14.161115268
 10
-2.9404675829
 20
-14.1573477458
 10
-2.9383612095
 20
-14.1527361932
  0
LWPOLYLINE
  5
459
100
AcDbEntity
  8
ASSI
100
AcDbPolyline
 62
7
  6
CONTINUOUS
 90
5
 70
0
 10
-2.9498241875
 20
-14.1665345783
 10
-2.9463994881
 20
-14.1642892552
 10
-2.9431027453
 20
-14.161115268
 10
-2.9404675829
 20
-14.1573477458
 10
-2.9383612093
 20
-14.1527361927
  0
LWPOLYLINE
  5
45A
100
AcDbEntity
  8
C_CORPO
100
AcDbPolyline
 62
250
  6
CONTINUOUS
 90
31
 70
0
 10
-5.2729849959
 20
-15.4199331319
 10
-5.2604529742
 20
-15.4128599687
 10
-5.2452696427
 20
-15.4034137718
 10
-5.2305113446
 20
-15.3932371989
 10
-5.216190562
 20
-15.3823388572
 10
-5.2023194072
 20
-15.3707279641
 10
-5.188909612
 20
-15.3584143398
 10
-5.1759725179
 20
-15.3454083988
 10
-5.1635190668
 20
-15.3317211412
 10
-5.1515597915
 20
-15.3173641433
 10
-5.1401048068
 20
-15.3023495477
 10
-5.129163801
 20
-15.2866900535
 10
-5.1187460276
 20
-15.270398905
 10
-5.1088602979
 20
-15.2534898807
 10
-5.0995149727
 20
-15.2359772819
 10
-5.0907179562
 20
-15.2178759203
 10
-5.0824766886
 20
-15.1992011053
 10
-5.0747981401
 20
-15.1799686317
 10
-5.067688805
 20
-15.1601947658
 10
-5.0611546963
 20
-15.1398962317
 10
-5.0552013402
 20
-15.1190901974
 10
-5.049833772
 20
-15.09779426
 10
-5.0450565314
 20
-15.076026431
 10
-5.0408736588
 20
-15.053805121
 10
-5.037288692
 20
-15.0311491242
 10
-5.0343046631
 20
-15.0080776024
 10
-5.0319240958
 20
-14.9846100688
 10
-5.0301490037
 20
-14.9607663717
 10
-5.0289808879
 20
-14.9365666772
 10
-5.0284207366
 20
-14.912031453
 10
-5.0284690233
 20
-14.88718145
  0
LWPOLYLINE
  5
45B
100
AcDbEntity
  8
ASSI
100
AcDbPolyline
 62
250
  6
CONTINUOUS
 90
31
 70
0
 10
-5.2729849959
 20
-15.4199331319
 10
-5.2604529742
 20
-15.4128599687
 10
-5.2452696427
 20
-15.4034137718
 10
-5.2305113446
 20
-15.3932371989
 10
-5.216190562
 20
-15.3823388572
 10
-5.2023194072
 20
-15.3707279641
 10
-5.188909612
 20
-15.3584143398
 10
-5.1759725179
 20
-15.3454083988
 10
-5.1635190668
 20
-15.3317211412
 10
-5.1515597915
 20
-15.3173641433
 10
-5.1401048068
 20
-15.3023495477
 10
-5.129163801
 20
-15.2866900535
 10
-5.1187460276
 20
-15.270398905
 10
-5.1088602979
 20
-15.2534898807
 10
-5.0995149727
 20
-15.2359772819
 10
-5.0907179562
 20
-15.2178759203
 10
-5.0824766886
 20
-15.1992011053
 10
-5.0747981401
 20
-15.1799686317
 10
-5.067688805
 20
-15.1601947658
 10
-5.0611546963
 20
-15.1398962317
 10
-5.0552013402
 20
-15.1190901974
 10
-5.049833772
 20
-15.09779426
 10
-5.0450565314
 20
-15.076026431
 10
-5.0408736588
 20
-15.053805121
 10
-5.037288692
 20
-15.0311491242
 10
-5.0343046631
 20
-15.0080776024
 10
-5.0319240958
 20
-14.9846100688
 10
-5.0301490037
 20
-14.9607663717
 10
-5.0289808879
 20
-14.9365666772
 10
-5.0284207366
 20
-14.912031453
 10
-5.0284690233
 20
-14.88718145
  0
LINE
  5
45C
100
AcDbEntity
  8
C_CORPO
100
AcDbLine
 62
250
  6
CONTINUOUS
 10
-5.0284690233
 20
-14.88718145
 11
-6.6728781982
 21
-15.7949038666
  0
LINE
  5
45D
100
AcDbEntity
  8
ASSI
100
AcDbLine
 62
250
  6
CONTINUOUS
 10
-5.0284690233
 20
-14.88718145
 11
-6.6728781982
 21
-15.7949038666
  0
LINE
  5
45E
100
AcDbEntity
  8
C_CORPO
100
AcDbLine
 62
250
  6
CONTINUOUS
 10
-3.1145927919
 20
-13.8546013156
 11
-5.0284690233
 21
-14.88718145
  0
LINE
  5
45F
100
AcDbEntity
  8
ASSI
100
AcDbLine
 62
250
  6
CONTINUOUS
 10
-3.1145927919
 20
-13.8546013156
 11
-5.0284690233
 21
-14.88718145
  0
LINE
  5
460
100
AcDbEntity
  8
C_CORPO
100
AcDbLine
 62
7
  6
CONTINUOUS
 10
-6.8290024784
 20
-16.2592469334
 11
-2.9497955179
 21
-14.1665191106
  0
LINE
  5
461
100
AcDbEntity
  8
ASSI
100
AcDbLine
 62
7
  6
CONTINUOUS
 10
-6.8290024785
 20
-16.2592469336
 11
-2.9497955179
 21
-14.1665191106
  0
LINE
  5
462
100
AcDbEntity
  8
C_CORPO
100
AcDbLine
 62
7
  6
CONTINUOUS
 10
-8.0094592467
 20
-17.41248778
 11
-11.2817364167
 21
-19.1429218503
  0
LINE
  5
463
100
AcDbEntity
  8
ASSI
100
AcDbLine
 62
7
  6
CONTINUOUS
 10
-8.0094592467
 20
-17.41248778
 11
-11.2817364167
 21
-19.1429218503
  0
LINE
  5
464
100
AcDbEntity
  8
C_CORPO
100
AcDbLine
 62
250
  6
CONTINUOUS
 10
-11.2817364167
 20
-18.1812621797
 11
-5.0284690233
 21
-14.88718145
  0
LINE
  5
465
100
AcDbEntity
  8
ASSI
100
AcDbLine
 62
250
  6
CONTINUOUS
 10
-11.2817364167
 20
-18.1812621797
 11
-5.0284690233
 21
-14.88718145
  0
LINE
  5
466
100
AcDbEntity
  8
C_CORPO
100
AcDbLine
 62
250
  6
CONTINUOUS
 10
-11.2817364167
 20
-18.9805801156
 11
-7.2231187624
 21
-16.8425915469
  0
LINE
  5
467
100
AcDbEntity
  8
ASSI
100
AcDbLine
 62
250
  6
CONTINUOUS
 10
-11.2817364167
 20
-18.9805801156
 11
-7.2231187624
 21
-16.8425915469
  0
LWPOLYLINE
  5
468
100
AcDbEntity
  8
C_COPERCHIO
100
AcDbPolyline
 62
250
  6
CONTINUOUS
 90
37
 70
0
 10
-19.1408296869
 20
-23.0163124652
 10
-19.1487425422
 20
-23.0203398591
 10
-19.1569639491
 20
-23.0241923719
 10
-19.1654786032
 20
-23.0278628319
 10
-19.1742706543
 20
-23.0313444066
 10
-19.1833237358
 20
-23.0346306148
 10
-19.1926209949
 20
-23.0377153392
 10
-19.2021451246
 20
-23.0405928375
 10
-19.2118783955
 20
-23.0432577531
 10
-19.2218026888
 20
-23.0457051253
 10
-19.2318995301
 20
-23.0479303981
 10
-19.2421501239
 20
-23.0499294291
 10
-19.2525353884
 20
-23.0516984972
 10
-19.2630359911
 20
-23.0532343091
 10
-19.2736323848
 20
-23.0545340059
 10
-19.2843048441
 20
-23.0555951681
 10
-19.2950335018
 20
-23.0564158204
 10
-19.3057983863
 20
-23.056994435
 10
-19.3165794584
 20
-23.057329935
 10
-19.3273566487
 20
-23.0574216957
 10
-19.3381098953
 20
-23.0572695463
 10
-19.3488191807
 20
-23.0568737701
 10
-19.3594645692
 20
-23.0562351038
 10
-19.3700262442
 20
-23.0553547363
 10
-19.3804845447
 20
-23.0542343064
 10
-19.3908200023
 20
-23.0528758999
 10
-19.4010133773
 20
-23.0512820454
 10
-19.4110456944
 20
-23.04945571
 10
-19.4208982781
 20
-23.0474002934
 10
-19.4305527877
 20
-23.0451196219
 10
-19.4399912508
 20
-23.042617941
 10
-19.4491960977
 20
-23.0398999077
 10
-19.4581501931
 20
-23.0369705816
 10
-19.4668368687
 20
-23.0338354157
 10
-19.4752399541
 20
-23.0305002464
 10
-19.4833438067
 20
-23.026971282
 10
-19.4911333409
 20
-23.0232550919
  0
LINE
  5
469
100
AcDbEntity
  8
C_COPERCHIO
100
AcDbLine
 62
7
  6
CONTINUOUS
 10
-11.2817364167
 20
-19.3531229861
 11
-8.7855456661
 21
-18.1099665379
  0
LINE
  5
46A
100
AcDbEntity
  8
C_MOLLE_IDEA
100
AcDbLine
 62
7
  6
CONTINUOUS
 10
-30.604060558
 20
29.2177370895
 11
-30.628028536
 21
29.2152910071
  0
LINE
  5
46B
100
AcDbEntity
  8
C_MOLLE_IDEA
100
AcDbLine
 62
7
  6
CONTINUOUS
 10
-36.4154346188
 20
29.3459938181
 11
-35.0230810697
 21
29.4880922257
  0
LINE
  5
46C
100
AcDbEntity
  8
C_MOLLE_IDEA
100
AcDbLine
 62
7
  6
CONTINUOUS
 10
-36.8859235495
 20
29.6622146724
 11
-34.9356778648
 21
29.8612494695
  0
LINE
  5
46D
100
AcDbEntity
  8
C_MOLLE_IDEA
100
AcDbLine
 62
7
  6
CONTINUOUS
 10
-36.6327341397
 20
30.7097776069
 11
-38.5829798244
 21
30.5107428099
  0
LWPOLYLINE
  5
46E
100
AcDbEntity
  8
C_MOLLE_IDEA
100
AcDbPolyline
 62
7
  6
CONTINUOUS
 90
25
 70
0
 10
-34.9356778648
 20
29.8612494695
 10
-34.9265057601
 20
29.8619967757
 10
-34.9168534395
 20
29.8624365186
 10
-34.9067209029
 20
29.8625686983
 10
-34.896060784
 20
29.8623912527
 10
-34.8849204492
 20
29.8619062438
 10
-34.8734419973
 20
29.8611198582
 10
-34.8616210971
 20
29.8600282353
 10
-34.8494620798
 20
29.8586352356
 10
-34.8371200378
 20
29.8569586273
 10
-34.8245926268
 20
29.8549947775
 10
-34.8118821912
 20
29.8527473191
 10
-34.799150857
 20
29.8502449193
 10
-34.7863983565
 20
29.8474843123
 10
-34.7736249575
 20
29.8444687639
 10
-34.760993589
 20
29.8412367383
 10
-34.7485060706
 20
29.8377854627
 10
-34.7361605827
 20
29.83411771
 10
-34.7241145964
 20
29.8302802637
 10
-34.7123719483
 20
29.82627095
 10
-34.7009288018
 20
29.8220919427
 10
-34.6899311182
 20
29.8177965465
 10
-34.6794275513
 20
29.8134025296
 10
-34.6693694473
 20
29.8088921238
 10
-34.6597568062
 20
29.8042653291
  0
LWPOLYLINE
  5
46F
100
AcDbEntity
  8
C_MOLLE_IDEA
100
AcDbPolyline
 62
7
  6
CONTINUOUS
 90
25
 70
0
 10
-38.5829798244
 20
30.5107428099
 10
-38.5921519291
 20
30.5099955037
 10
-38.6018042497
 20
30.5095557608
 10
-38.6119367863
 20
30.509423581
 10
-38.6225969052
 20
30.5096010267
 10
-38.63373724
 20
30.5100860355
 10
-38.6452156919
 20
30.5108724212
 10
-38.6570365921
 20
30.5119640441
 10
-38.6691956094
 20
30.5133570438
 10
-38.6815376514
 20
30.5150336521
 10
-38.6940650624
 20
30.5169975019
 10
-38.706775498
 20
30.5192449603
 10
-38.7195068322
 20
30.5217473601
 10
-38.7322593327
 20
30.5245079671
 10
-38.7450327317
 20
30.5275235155
 10
-38.7576641002
 20
30.530755541
 10
-38.7701516186
 20
30.5342068167
 10
-38.7824971065
 20
30.5378745694
 10
-38.7945430928
 20
30.5417120157
 10
-38.8062857409
 20
30.5457213294
 10
-38.8177288874
 20
30.5499003367
 10
-38.828726571
 20
30.5541957329
 10
-38.8392301379
 20
30.5585897497
 10
-38.8492882419
 20
30.5631001555
 10
-38.858900883
 20
30.5677269502
  0
LWPOLYLINE
  5
470
100
AcDbEntity
  8
C_MOLLE_IDEA
100
AcDbPolyline
 62
7
  6
CONTINUOUS
 90
25
 70
0
 10
-35.9313293949
 20
31.8669414365
 10
-35.9405014996
 20
31.8661941303
 10
-35.9501538203
 20
31.8657543874
 10
-35.9602863569
 20
31.8656222077
 10
-35.9709464757
 20
31.8657996533
 10
-35.9820868105
 20
31.8662846622
 10
-35.9935652624
 20
31.8670710478
 10
-36.0053861627
 20
31.8681626708
 10
-36.01754518
 20
31.8695556705
 10
-36.0298872219
 20
31.8712322787
 10
-36.042414633
 20
31.8731961285
 10
-36.0551250686
 20
31.8754435869
 10
-36.0678564028
 20
31.8779459867
 10
-36.0806089033
 20
31.8807065937
 10
-36.0933823023
 20
31.8837221422
 10
-36.1060136707
 20
31.8869541677
 10
-36.1185011892
 20
31.8904054433
 10
-36.1308466771
 20
31.894073196
 10
-36.1428926633
 20
31.8979106424
 10
-36.1546353114
 20
31.901919956
 10
-36.166078458
 20
31.9060989633
 10
-36.1770761416
 20
31.9103943595
 10
-36.1875797085
 20
31.9147883764
 10
-36.1976378125
 20
31.9192987822
 10
-36.2072504536
 20
31.9239255769
  0
LINE
  5
471
100
AcDbEntity
  8
C_COPERCHIO
100
AcDbLine
 62
7
  6
CONTINUOUS
 10
-29.2421925426
 20
29.6200695552
 11
-30.3645709286
 21
29.5647086476
  0
LWPOLYLINE
  5
472
100
AcDbEntity
  8
C_MOLLE_IDEA
100
AcDbPolyline
 62
7
  6
CONTINUOUS
 90
7
 70
0
 10
-34.5101941787
 20
32.0032109827
 10
-34.5241427214
 20
32.0044584626
 10
-34.538257547
 20
32.0052049799
 10
-34.5525386558
 20
32.0054505346
 10
-34.5669860475
 20
32.0051951267
 10
-34.5815997223
 20
32.0044387561
 10
-34.5963796802
 20
32.0031814229
  0
LWPOLYLINE
  5
473
100
AcDbEntity
  8
C_CORPO
100
AcDbPolyline
 62
250
  6
CONTINUOUS
 90
24
 70
0
 10
-25.4136844994
 20
36.8876861508
 10
-25.4296941386
 20
36.8950465421
 10
-25.4460579878
 20
36.9016595213
 10
-25.4627625076
 20
36.9075196168
 10
-25.4797938767
 20
36.9126219801
 10
-25.4971380031
 20
36.9169623894
 10
-25.5147805363
 20
36.9205372533
 10
-25.5327068789
 20
36.9233436142
 10
-25.5509021985
 20
36.9253791499
 10
-25.5693514401
 20
36.9266421763
 10
-25.588039339
 20
36.9271316483
 10
-25.6069504326
 20
36.9268471609
 10
-25.6260690738
 20
36.9257889496
 10
-25.6453794438
 20
36.9239578899
 10
-25.6648655652
 20
36.9213554967
 10
-25.684511315
 20
36.9179839235
 10
-25.7043004384
 20
36.9138459597
 10
-25.7242165616
 20
36.9089450292
 10
-25.7442432061
 20
36.903285187
 10
-25.7643638017
 20
36.8968711161
 10
-25.7845617006
 20
36.8897081235
 10
-25.804820191
 20
36.8818021358
 10
-25.8251225109
 20
36.8731596947
 10
-25.8454518621
 20
36.8637879507
  0
LWPOLYLINE
  5
474
100
AcDbEntity
  8
ASSI
100
AcDbPolyline
 62
250
  6
CONTINUOUS
 90
24
 70
0
 10
-25.4136844994
 20
36.8876861508
 10
-25.4296941386
 20
36.8950465421
 10
-25.4460579878
 20
36.9016595213
 10
-25.4627625076
 20
36.9075196168
 10
-25.4797938767
 20
36.9126219801
 10
-25.4971380031
 20
36.9169623894
 10
-25.5147805363
 20
36.9205372533
 10
-25.5327068789
 20
36.9233436142
 10
-25.5509021985
 20
36.9253791499
 10
-25.5693514401
 20
36.9266421763
 10
-25.588039339
 20
36.9271316483
 10
-25.6069504326
 20
36.9268471609
 10
-25.6260690738
 20
36.9257889496
 10
-25.6453794438
 20
36.9239578899
 10
-25.6648655652
 20
36.9213554967
 10
-25.684511315
 20
36.9179839235
 10
-25.7043004384
 20
36.9138459597
 10
-25.7242165616
 20
36.9089450292
 10
-25.7442432061
 20
36.903285187
 10
-25.7643638017
 20
36.8968711161
 10
-25.7845617006
 20
36.8897081235
 10
-25.804820191
 20
36.8818021358
 10
-25.8251225109
 20
36.8731596947
 10
-25.8454518621
 20
36.8637879507
  0
LWPOLYLINE
  5
475
100
AcDbEntity
  8
C_CORPO
100
AcDbPolyline
 62
250
  6
CONTINUOUS
 90
24
 70
0
 10
3.5972377246
 20
22.3822275986
 10
3.5812230336
 20
22.3896033339
 10
3.564853493
 20
22.396230784
 10
3.5481426643
 20
22.4021044584
 10
3.5311043917
 20
22.4072194909
 10
3.5137527907
 20
22.4115716441
 10
3.4961022364
 20
22.4151573122
 10
3.4781673516
 20
22.4179735247
 10
3.4599629946
 20
22.4200179486
 10
3.4415042461
 20
22.42128889
 10
3.4228063992
 20
22.421785296
 10
3.4038849475
 20
22.4215067555
 10
3.3847555686
 20
22.4204534996
 10
3.3654341087
 20
22.4186264014
 10
3.3459365717
 20
22.4160269744
 10
3.3262790945
 20
22.4126573691
 10
3.3064779783
 20
22.4085203789
 10
3.2865496734
 20
22.4036194432
 10
3.2665107091
 20
22.3979586331
 10
3.2463776687
 20
22.3915426393
 10
3.2261672217
 20
22.3843767784
 10
3.205896108
 20
22.3764669894
 10
3.1855811249
 20
22.3678198303
 10
3.1652391023
 20
22.3584424685
  0
LWPOLYLINE
  5
476
100
AcDbEntity
  8
ASSI
100
AcDbPolyline
 62
250
  6
CONTINUOUS
 90
24
 70
0
 10
3.5972377246
 20
22.3822275986
 10
3.5812230336
 20
22.3896033339
 10
3.564853493
 20
22.396230784
 10
3.5481426643
 20
22.4021044584
 10
3.5311043917
 20
22.4072194909
 10
3.5137527907
 20
22.4115716441
 10
3.4961022364
 20
22.4151573122
 10
3.4781673516
 20
22.4179735247
 10
3.4599629946
 20
22.4200179486
 10
3.4415042461
 20
22.42128889
 10
3.4228063992
 20
22.421785296
 10
3.4038849475
 20
22.4215067555
 10
3.3847555686
 20
22.4204534996
 10
3.3654341087
 20
22.4186264014
 10
3.3459365717
 20
22.4160269744
 10
3.3262790945
 20
22.4126573691
 10
3.3064779783
 20
22.4085203789
 10
3.2865496734
 20
22.4036194432
 10
3.2665107091
 20
22.3979586331
 10
3.2463776687
 20
22.3915426393
 10
3.2261672217
 20
22.3843767784
 10
3.205896108
 20
22.3764669894
 10
3.1855811249
 20
22.3678198303
 10
3.1652391023
 20
22.3584424685
  0
LWPOLYLINE
  5
477
100
AcDbEntity
  8
C_CORPO
100
AcDbPolyline
 62
250
  6
CONTINUOUS
 90
24
 70
0
 10
-25.8454518621
 20
36.8637879507
 10
-25.8658706211
 20
36.8737713571
 10
-25.8862825475
 20
36.8830087032
 10
-25.9066703762
 20
36.8914921758
 10
-25.9270168627
 20
36.8992145993
 10
-25.9473047974
 20
36.906169442
 10
-25.9675170202
 20
36.9123508211
 10
-25.9876364349
 20
36.9177535083
 10
-26.0076460241
 20
36.9223729339
 10
-26.027528863
 20
36.9262051906
 10
-26.0472681342
 20
36.929247037
 10
-26.0668471417
 20
36.9314959002
 10
-26.086249325
 20
36.9329498781
 10
-26.1054582731
 20
36.9336077408
 10
-26.1244577387
 20
36.9334689319
 10
-26.1432316513
 20
36.9325335688
 10
-26.1617641317
 20
36.9308024427
 10
-26.1800395043
 20
36.9282770178
 10
-26.1980423115
 20
36.9249594302
 10
-26.2157573259
 20
36.920852486
 10
-26.2331695637
 20
36.9159596589
 10
-26.2502642971
 20
36.9102850875
 10
-26.2670270669
 20
36.9038335715
 10
-26.2843335549
 20
36.8961923277
  0
LWPOLYLINE
  5
478
100
AcDbEntity
  8
ASSI
100
AcDbPolyline
 62
250
  6
CONTINUOUS
 90
24
 70
0
 10
-25.8454518621
 20
36.8637879507
 10
-25.8658706211
 20
36.8737713571
 10
-25.8862825475
 20
36.8830087032
 10
-25.9066703762
 20
36.8914921758
 10
-25.9270168627
 20
36.8992145993
 10
-25.9473047974
 20
36.906169442
 10
-25.9675170202
 20
36.9123508211
 10
-25.9876364349
 20
36.9177535083
 10
-26.0076460241
 20
36.9223729339
 10
-26.027528863
 20
36.9262051906
 10
-26.0472681342
 20
36.929247037
 10
-26.0668471417
 20
36.9314959002
 10
-26.086249325
 20
36.9329498781
 10
-26.1054582731
 20
36.9336077408
 10
-26.1244577387
 20
36.9334689319
 10
-26.1432316513
 20
36.9325335688
 10
-26.1617641317
 20
36.9308024427
 10
-26.1800395043
 20
36.9282770178
 10
-26.1980423115
 20
36.9249594302
 10
-26.2157573259
 20
36.920852486
 10
-26.2331695637
 20
36.9159596589
 10
-26.2502642971
 20
36.9102850875
 10
-26.2670270669
 20
36.9038335715
 10
-26.2843338178
 20
36.8961922037
  0
LINE
  5
479
100
AcDbEntity
  8
C_CORPO
100
AcDbLine
 62
250
  6
CONTINUOUS
 10
-25.4105789815
 20
36.8861512803
 11
-25.4136844994
 21
36.8876861508
  0
LINE
  5
47A
100
AcDbEntity
  8
ASSI
100
AcDbLine
 62
250
  6
CONTINUOUS
 10
-25.4105789815
 20
36.8861512803
 11
-25.4136844994
 21
36.8876861508
  0
LINE
  5
47B
100
AcDbEntity
  8
C_CORPO
100
AcDbLine
 62
250
  6
CONTINUOUS
 10
-25.8454518621
 20
36.8637879507
 11
3.1652391023
 21
22.3584424685
  0
LINE
  5
47C
100
AcDbEntity
  8
ASSI
100
AcDbLine
 62
250
  6
CONTINUOUS
 10
-25.8454518621
 20
36.8637879507
 11
3.1652391023
 21
22.3584424685
  0
LINE
  5
47D
100
AcDbEntity
  8
C_CORPO
100
AcDbLine
 62
7
  6
CONTINUOUS
 10
-25.4105789815
 20
36.8861512803
 11
3.6001119828
 21
22.3808057981
  0
LINE
  5
47E
100
AcDbEntity
  8
ASSI
100
AcDbLine
 62
7
  6
CONTINUOUS
 10
-25.4105789815
 20
36.8861512803
 11
3.6001119828
 21
22.3808057981
  0
LINE
  5
47F
100
AcDbEntity
  8
C_COPERCHIO
100
AcDbLine
 62
7
  6
CONTINUOUS
 10
-7.1257111809
 20
-20.6687746687
 11
-8.457888442
 21
-21.3875148635
  0
LINE
  5
480
100
AcDbEntity
  8
C_COPERCHIO
100
AcDbLine
 62
7
  6
CONTINUOUS
 10
-7.1257111809
 20
-19.2805018314
 11
-11.2817364167
 21
-21.3871373817
  0
LINE
  5
481
100
AcDbEntity
  8
C_COPERCHIO
100
AcDbLine
 62
7
  6
CONTINUOUS
 10
-8.457888442
 20
-21.3875148635
 11
-11.2817364167
 21
-22.7881642767
  0
LINE
  5
482
100
AcDbEntity
  8
C_COPERCHIO
100
AcDbLine
 62
7
  6
CONTINUOUS
 10
-16.5008834232
 20
-23.5124732556
 11
-16.3178820485
 21
-23.4241120689
  0
LINE
  5
483
100
AcDbEntity
  8
C_MOLLE_IDEA
100
AcDbLine
 62
7
  6
CONTINUOUS
 10
-40.4459432715
 20
31.3612481445
 11
-39.0535897225
 21
31.503346552
  0
LINE
  5
484
100
AcDbEntity
  8
C_MOLLE_IDEA
100
AcDbLine
 62
7
  6
CONTINUOUS
 10
-34.5963796802
 20
32.0031814229
 11
-35.9313293949
 21
31.8669414365
  0
LINE
  5
485
100
AcDbEntity
  8
C_MOLLE_IDEA
100
AcDbLine
 62
7
  6
CONTINUOUS
 10
-40.9164322023
 20
31.6774689988
 11
-38.9661865176
 21
31.8765037959
  0
LINE
  5
486
100
AcDbEntity
  8
C_MOLLE_IDEA
100
AcDbLine
 62
7
  6
CONTINUOUS
 10
-42.3021751165
 20
32.1746223531
 11
-37.656819355
 21
32.6487100276
  0
LWPOLYLINE
  5
487
100
AcDbEntity
  8
C_MOLLE_IDEA
100
AcDbPolyline
 62
7
  6
CONTINUOUS
 90
25
 70
0
 10
-38.9661865176
 20
31.8765037959
 10
-38.9570144129
 20
31.8772511021
 10
-38.9473620922
 20
31.877690845
 10
-38.9372295556
 20
31.8778230247
 10
-38.9265694368
 20
31.8776455791
 10
-38.915429102
 20
31.8771605702
 10
-38.9039506501
 20
31.8763741846
 10
-38.8921297499
 20
31.8752825617
 10
-38.8799707325
 20
31.8738895619
 10
-38.8676286906
 20
31.8722129537
 10
-38.8551012796
 20
31.8702491039
 10
-38.8423908439
 20
31.8680016455
 10
-38.8296595097
 20
31.8654992457
 10
-38.8169070093
 20
31.8627386387
 10
-38.8041336102
 20
31.8597230902
 10
-38.7915022418
 20
31.8564910647
 10
-38.7790147233
 20
31.8530397891
 10
-38.7666692355
 20
31.8493720364
 10
-38.7546232492
 20
31.8455345901
 10
-38.7428806011
 20
31.8415252764
 10
-38.7314374546
 20
31.8373462691
 10
-38.720439771
 20
31.8330508729
 10
-38.709936204
 20
31.828656856
 10
-38.6998781
 20
31.8241464502
 10
-38.690265459
 20
31.8195196555
  0
LINE
  5
488
100
AcDbEntity
  8
C_COPERCHIO
100
AcDbLine
 62
7
  6
CONTINUOUS
 10
-36.0577090745
 20
33.2615110598
 11
-37.5650137722
 21
33.1649300695
  0
LINE
  5
489
100
AcDbEntity
  8
C_COPERCHIO
100
AcDbLine
 62
7
  6
CONTINUOUS
 10
-34.8865326211
 20
32.4422395944
 11
-35.9890459028
 21
32.3769461348
  0
LINE
  5
48A
100
AcDbEntity
  8
C_COPERCHIO
100
AcDbLine
 62
250
  6
CONTINUOUS
 10
-12.758413113
 20
-25.9922682201
 11
-11.2817364167
 21
-25.2792631652
  0
LINE
  5
48B
100
AcDbEntity
  8
C_COPERCHIO
100
AcDbLine
 62
7
  6
CONTINUOUS
 10
-12.8233747802
 20
-26.1274810939
 11
-11.3478722822
 21
-25.4150429942
  0
LWPOLYLINE
  5
48C
100
AcDbEntity
  8
C_COPERCHIO
100
AcDbPolyline
 62
250
  6
CONTINUOUS
 90
24
 70
0
 10
-16.5697283383
 20
-26.5276799956
 10
-16.567121963
 20
-26.5264268127
 10
-16.5617143131
 20
-26.5234960472
 10
-16.5564896089
 20
-26.5202040712
 10
-16.5514563216
 20
-26.516556222
 10
-16.5466226121
 20
-26.5125584143
 10
-16.5419963176
 20
-26.5082171301
 10
-16.5375849391
 20
-26.5035394081
 10
-16.533395629
 20
-26.4985328327
 10
-16.5294351799
 20
-26.4932055214
 10
-16.5257100131
 20
-26.4875661119
 10
-16.5222261685
 20
-26.4816237476
 10
-16.5189892946
 20
-26.4753880634
 10
-16.5160046398
 20
-26.4688691697
 10
-16.5132770432
 20
-26.4620776361
 10
-16.5108109272
 20
-26.4550244742
 10
-16.5086102905
 20
-26.4477211197
 10
-16.506678701
 20
-26.4401794142
 10
-16.5050192905
 20
-26.4324115856
 10
-16.5036347497
 20
-26.4244302284
 10
-16.5025273233
 20
-26.4162482835
 10
-16.501698807
 20
-26.4078790168
 10
-16.5011505439
 20
-26.3993359981
 10
-16.5008834232
 20
-26.3906330787
  0
LINE
  5
48D
100
AcDbEntity
  8
C_COPERCHIO
100
AcDbLine
 62
250
  6
CONTINUOUS
 10
-12.758413113
 20
-24.6622362683
 11
-16.5081747279
 21
-26.3940160981
  0
LINE
  5
48E
100
AcDbEntity
  8
C_COPERCHIO
100
AcDbLine
 62
7
  6
CONTINUOUS
 10
-13.1258480956
 20
-24.9371819732
 11
-16.5697283383
 21
-26.5276799956
  0
LWPOLYLINE
  5
48F
100
AcDbEntity
  8
C_COPERCHIO
100
AcDbPolyline
 62
250
  6
CONTINUOUS
 90
39
 70
0
 10
-16.5081747279
 20
-26.3940160981
 10
-16.5157313501
 20
-26.3972522116
 10
-16.5235415156
 20
-26.40033618
 10
-16.5315937188
 20
-26.4032632377
 10
-16.5398747216
 20
-26.4060283567
 10
-16.5483693877
 20
-26.408626393
 10
-16.5570634746
 20
-26.4110530209
 10
-16.5659439216
 20
-26.4133046248
 10
-16.5749967287
 20
-26.4153776519
 10
-16.5842076038
 20
-26.4172688211
 10
-16.5935618782
 20
-26.4189751123
 10
-16.6030446098
 20
-26.4204937975
 10
-16.6126407085
 20
-26.4218224628
 10
-16.6223349964
 20
-26.422959009
 10
-16.6321121274
 20
-26.4239016371
 10
-16.6419566056
 20
-26.4246488518
 10
-16.6518528009
 20
-26.4251994653
 10
-16.6617850073
 20
-26.425552603
 10
-16.6717374659
 20
-26.4257077042
 10
-16.6816943913
 20
-26.4256645225
 10
-16.6916399894
 20
-26.4254231259
 10
-16.7015584843
 20
-26.4249838967
 10
-16.7114341399
 20
-26.424347531
 10
-16.7212512863
 20
-26.4235150382
 10
-16.7309943493
 20
-26.4224877386
 10
-16.7406478729
 20
-26.4212672616
 10
-16.7501965413
 20
-26.419855543
 10
-16.7596252068
 20
-26.4182548222
 10
-16.7689189114
 20
-26.4164676383
 10
-16.7780629094
 20
-26.4144968266
 10
-16.7870426945
 20
-26.4123455137
 10
-16.7958440214
 20
-26.4100171121
 10
-16.8044529272
 20
-26.4075153157
 10
-16.8128557569
 20
-26.4048440925
 10
-16.8210391778
 20
-26.4020076807
 10
-16.8289902009
 20
-26.3990105825
 10
-16.836696211
 20
-26.3958575539
 10
-16.8441449864
 20
-26.3925535963
 10
-16.8513247111
 20
-26.3891039513
  0
LWPOLYLINE
  5
490
100
AcDbEntity
  8
C_CORPO
100
AcDbPolyline
 62
250
  6
CONTINUOUS
 90
31
 70
0
 10
4.0180061986
 20
21.9879645667
 10
4.0164960467
 20
21.9897391378
 10
4.0142750108
 20
21.9910909232
 10
4.0113412691
 20
21.992025108
 10
4.0076972488
 20
21.9925409191
 10
4.003345965
 20
21.9926379298
 10
3.998291018
 20
21.9923160598
 10
3.9925365904
 20
21.9915755755
 10
3.9860874433
 20
21.9904170895
 10
3.9789489127
 20
21.9888415604
 10
3.9711269052
 20
21.9868502918
 10
3.9626278926
 20
21.9844449311
 10
3.9534589071
 20
21.9816274688
 10
3.9436275352
 20
21.9784002359
 10
3.9331419113
 20
21.9747659026
 10
3.9220107113
 20
21.970727476
 10
3.9102431451
 20
21.9662882975
 10
3.8978489494
 20
21.9614520402
 10
3.884838379
 20
21.9562227055
 10
3.8712221991
 20
21.9506046202
 10
3.8570116756
 20
21.9446024327
 10
3.8422185664
 20
21.9382211094
 10
3.8268551114
 20
21.93146593
 10
3.8109340223
 20
21.9243424838
 10
3.7944684723
 20
21.9168566649
 10
3.7774720851
 20
21.909014667
 10
3.7599589235
 20
21.9008229785
 10
3.7419434779
 20
21.8922883775
 10
3.7234406545
 20
21.8834179253
 10
3.7044657625
 20
21.8742189614
 10
3.6651629498
 20
21.8548662092
  0
LWPOLYLINE
  5
491
100
AcDbEntity
  8
ASSI
100
AcDbPolyline
 62
250
  6
CONTINUOUS
 90
31
 70
0
 10
4.0180061986
 20
21.9879645667
 10
4.0164960467
 20
21.9897391378
 10
4.0142750108
 20
21.9910909232
 10
4.0113412691
 20
21.992025108
 10
4.0076972488
 20
21.9925409191
 10
4.003345965
 20
21.9926379298
 10
3.998291018
 20
21.9923160598
 10
3.9925365904
 20
21.9915755755
 10
3.9860874433
 20
21.9904170895
 10
3.9789489127
 20
21.9888415604
 10
3.9711269052
 20
21.9868502918
 10
3.9626278926
 20
21.9844449311
 10
3.9534589071
 20
21.9816274688
 10
3.9436275352
 20
21.9784002359
 10
3.9331419113
 20
21.9747659026
 10
3.9220107113
 20
21.970727476
 10
3.9102431451
 20
21.9662882975
 10
3.8978489494
 20
21.9614520402
 10
3.884838379
 20
21.9562227055
 10
3.8712221991
 20
21.9506046202
 10
3.8570116756
 20
21.9446024327
 10
3.8422185664
 20
21.9382211094
 10
3.8268551114
 20
21.93146593
 10
3.8109340223
 20
21.9243424838
 10
3.7944684723
 20
21.9168566649
 10
3.7774720851
 20
21.909014667
 10
3.7599589235
 20
21.9008229785
 10
3.7419434779
 20
21.8922883775
 10
3.7234406545
 20
21.8834179253
 10
3.7044657625
 20
21.8742189614
 10
3.6651629498
 20
21.8548662092
  0
LWPOLYLINE
  5
492
100
AcDbEntity
  8
C_CORPO
100
AcDbPolyline
 62
250
  6
CONTINUOUS
 90
30
 70
0
 10
4.1191239199
 20
21.8135622956
 10
4.1187514524
 20
21.8141317985
 10
4.1169114018
 20
21.8158615563
 10
4.1142709293
 20
21.8171239101
 10
4.1108324844
 20
21.8179176888
 10
4.1065992564
 20
21.8182421562
 10
4.1015751722
 20
21.8180970114
 10
4.095764892
 20
21.8174823889
 10
4.0891738055
 20
21.8163988588
 10
4.0818080266
 20
21.8148474263
 10
4.0736743878
 20
21.8128295304
 10
4.0647804338
 20
21.810347043
 10
4.0551344146
 20
21.8074022668
 10
4.044745278
 20
21.8039979333
 10
4.0336226609
 20
21.8001372005
 10
4.0217768805
 20
21.7958236496
 10
4.0092189252
 20
21.7910612817
 10
3.9959604435
 20
21.7858545146
 10
3.9820137342
 20
21.7802081779
 10
3.9673917341
 20
21.7741275092
 10
3.9521080066
 20
21.7676181489
 10
3.936176729
 20
21.7606861352
 10
3.919612679
 20
21.7533378982
 10
3.9024312216
 20
21.745580254
 10
3.8846482941
 20
21.7374203988
 10
3.8662803921
 20
21.7288659015
 10
3.8473445537
 20
21.7199246973
 10
3.8278583436
 20
21.7106050801
 10
3.8078398375
 20
21.7009156947
 10
3.7662806898
 20
21.6804639058
  0
LWPOLYLINE
  5
493
100
AcDbEntity
  8
ASSI
100
AcDbPolyline
 62
250
  6
CONTINUOUS
 90
30
 70
0
 10
4.1191239197
 20
21.8135622958
 10
4.1187514524
 20
21.8141317985
 10
4.1169114018
 20
21.8158615563
 10
4.1142709293
 20
21.8171239101
 10
4.1108324844
 20
21.8179176888
 10
4.1065992564
 20
21.8182421562
 10
4.1015751722
 20
21.8180970114
 10
4.095764892
 20
21.8174823889
 10
4.0891738055
 20
21.8163988588
 10
4.0818080266
 20
21.8148474263
 10
4.0736743878
 20
21.8128295304
 10
4.0647804338
 20
21.810347043
 10
4.0551344146
 20
21.8074022668
 10
4.044745278
 20
21.8039979333
 10
4.0336226609
 20
21.8001372005
 10
4.0217768805
 20
21.7958236496
 10
4.0092189252
 20
21.7910612817
 10
3.9959604435
 20
21.7858545146
 10
3.9820137342
 20
21.7802081779
 10
3.9673917341
 20
21.7741275092
 10
3.9521080066
 20
21.7676181489
 10
3.936176729
 20
21.7606861352
 10
3.919612679
 20
21.7533378982
 10
3.9024312216
 20
21.745580254
 10
3.8846482941
 20
21.7374203988
 10
3.8662803921
 20
21.7288659015
 10
3.8473445537
 20
21.7199246973
 10
3.8278583436
 20
21.7106050801
 10
3.8078398375
 20
21.7009156947
 10
3.7662806898
 20
21.6804639058
  0
LWPOLYLINE
  5
494
100
AcDbEntity
  8
C_CORPO
100
AcDbPolyline
 62
250
  6
CONTINUOUS
 90
27
 70
0
 10
3.6505534494
 20
21.8798605283
 10
3.6355230183
 20
21.9045220294
 10
3.6200843698
 20
21.9288298531
 10
3.6042505623
 20
21.9527634391
 10
3.5880349885
 20
21.9763025438
 10
3.5714513639
 20
21.999427257
 10
3.5545137155
 20
22.0221180193
 10
3.5372363696
 20
22.0443556383
 10
3.5196339398
 20
22.0661213046
 10
3.5017213149
 20
22.0873966082
 10
3.4835136457
 20
22.108163554
 10
3.4650263329
 20
22.1284045767
 10
3.4462750135
 20
22.1481025558
 10
3.427275548
 20
22.1672408302
 10
3.4080440065
 20
22.1858032123
 10
3.3885966558
 20
22.2037740015
 10
3.3689499448
 20
22.2211379975
 10
3.3491204914
 20
22.2378805134
 10
3.3291250678
 20
22.253987388
 10
3.3089805867
 20
22.2694449975
 10
3.288704087
 20
22.2842402675
 10
3.268312719
 20
22.2983606838
 10
3.2478237303
 20
22.3117943029
 10
3.227254451
 20
22.3245297622
 10
3.2066222794
 20
22.3365562898
 10
3.1859446666
 20
22.3478637133
 10
3.1652391023
 20
22.3584424685
  0
LWPOLYLINE
  5
495
100
AcDbEntity
  8
ASSI
100
AcDbPolyline
 62
250
  6
CONTINUOUS
 90
27
 70
0
 10
3.6505534494
 20
21.8798605283
 10
3.6355230183
 20
21.9045220294
 10
3.6200843698
 20
21.9288298531
 10
3.6042505623
 20
21.9527634391
 10
3.5880349885
 20
21.9763025438
 10
3.5714513639
 20
21.999427257
 10
3.5545137155
 20
22.0221180193
 10
3.5372363696
 20
22.0443556383
 10
3.5196339398
 20
22.0661213046
 10
3.5017213149
 20
22.0873966082
 10
3.4835136457
 20
22.108163554
 10
3.4650263329
 20
22.1284045767
 10
3.4462750135
 20
22.1481025558
 10
3.427275548
 20
22.1672408302
 10
3.4080440065
 20
22.1858032123
 10
3.3885966558
 20
22.2037740015
 10
3.3689499448
 20
22.2211379975
 10
3.3491204914
 20
22.2378805134
 10
3.3291250678
 20
22.253987388
 10
3.3089805867
 20
22.2694449975
 10
3.288704087
 20
22.2842402675
 10
3.268312719
 20
22.2983606838
 10
3.2478237303
 20
22.3117943029
 10
3.227254451
 20
22.3245297622
 10
3.2066222794
 20
22.3365562898
 10
3.1859446666
 20
22.3478637133
 10
3.1652391023
 20
22.3584424685
  0
LINE
  5
496
100
AcDbEntity
  8
C_CORPO
100
AcDbLine
 62
250
  6
CONTINUOUS
 10
3.6505534494
 20
21.8798605283
 11
3.7662806898
 21
21.6804639058
  0
LINE
  5
497
100
AcDbEntity
  8
ASSI
100
AcDbLine
 62
250
  6
CONTINUOUS
 10
3.6505534494
 20
21.8798605283
 11
3.7662806898
 21
21.6804639058
  0
LINE
  5
498
100
AcDbEntity
  8
C_CORPO
100
AcDbLine
 62
7
  6
CONTINUOUS
 10
4.0180061986
 20
21.9879645667
 11
4.1191239386
 21
21.8135622632
  0
LINE
  5
499
100
AcDbEntity
  8
ASSI
100
AcDbLine
 62
7
  6
CONTINUOUS
 10
4.0180061986
 20
21.9879645667
 11
4.1191239386
 21
21.8135622632
  0
LWPOLYLINE
  5
49A
100
AcDbEntity
  8
C_CORPO
100
AcDbPolyline
 62
250
  6
CONTINUOUS
 90
34
 70
0
 10
3.7662806898
 20
21.6804639058
 10
3.789908185
 20
21.6392778792
 10
3.8129490843
 20
21.5977015525
 10
3.8353902848
 20
21.55575844
 10
3.8572189467
 20
21.5134723031
 10
3.8784227448
 20
21.4708670244
 10
3.8989898659
 20
21.4279665888
 10
3.9189086773
 20
21.3847951568
 10
3.9381677915
 20
21.3413772562
 10
3.9567563173
 20
21.2977376542
 10
3.9746636777
 20
21.2539011408
 10
3.9918797331
 20
21.2098924287
 10
4.0083948337
 20
21.1657363406
 10
4.0241996343
 20
21.1214578269
 10
4.0392851372
 20
21.0770819909
 10
4.0536428184
 20
21.0326339909
 10
4.067264553
 20
20.9881389921
 10
4.0801426088
 20
20.9436221846
 10
4.0922696846
 20
20.8991088077
 10
4.1036389301
 20
20.8546240796
 10
4.1142439059
 20
20.8101931815
 10
4.1240785789
 20
20.7658412751
 10
4.1331374023
 20
20.7215935344
 10
4.1414152681
 20
20.6774749712
 10
4.1489074606
 20
20.6335104206
 10
4.1556097883
 20
20.5897247107
 10
4.1615184554
 20
20.5461427346
 10
4.166630019
 20
20.5027892754
 10
4.17094163
 20
20.4596890196
 10
4.1744508998
 20
20.4168662745
 10
4.1771557584
 20
20.3743450445
 10
4.1790546735
 20
20.3321493483
 10
4.180146664
 20
20.2903032007
 10
4.1804311654
 20
20.2488303312
  0
LWPOLYLINE
  5
49B
100
AcDbEntity
  8
ASSI
100
AcDbPolyline
 62
250
  6
CONTINUOUS
 90
34
 70
0
 10
3.7662806898
 20
21.6804639058
 10
3.789908185
 20
21.6392778792
 10
3.8129490843
 20
21.5977015525
 10
3.8353902848
 20
21.55575844
 10
3.8572189467
 20
21.5134723031
 10
3.8784227448
 20
21.4708670244
 10
3.8989898659
 20
21.4279665888
 10
3.9189086773
 20
21.3847951568
 10
3.9381677915
 20
21.3413772562
 10
3.9567563173
 20
21.2977376542
 10
3.9746636777
 20
21.2539011408
 10
3.9918797331
 20
21.2098924287
 10
4.0083948337
 20
21.1657363406
 10
4.0241996343
 20
21.1214578269
 10
4.0392851372
 20
21.0770819909
 10
4.0536428184
 20
21.0326339909
 10
4.067264553
 20
20.9881389921
 10
4.0801426088
 20
20.9436221846
 10
4.0922696846
 20
20.8991088077
 10
4.1036389301
 20
20.8546240796
 10
4.1142439059
 20
20.8101931815
 10
4.1240785789
 20
20.7658412751
 10
4.1331374023
 20
20.7215935344
 10
4.1414152681
 20
20.6774749712
 10
4.1489074606
 20
20.6335104206
 10
4.1556097883
 20
20.5897247107
 10
4.1615184554
 20
20.5461427346
 10
4.166630019
 20
20.5027892754
 10
4.17094163
 20
20.4596890196
 10
4.1744508998
 20
20.4168662745
 10
4.1771557584
 20
20.3743450445
 10
4.1790546735
 20
20.3321493483
 10
4.180146664
 20
20.2903032007
 10
4.1804311654
 20
20.2488303312
  0
LINE
  5
49C
100
AcDbEntity
  8
ASSI
100
AcDbLine
 62
7
  6
CONTINUOUS
 10
4.1384832844
 20
21.779589979
 11
4.1191239028
 21
21.813562286
  0
ARC
  5
49D
100
AcDbEntity
  8
C_CORPO
100
AcDbCircle
 62
7
  6
CONTINUOUS
 10
3.1528983873
 20
21.4863786071
 40
1.0
100
AcDbArc
 50
30.1049818266
 51
63.4350069961
  0
ARC
  5
49E
100
AcDbEntity
  8
C_CORPO
100
AcDbCircle
 62
7
  6
CONTINUOUS
 10
-25.857792577
 20
35.9917240893
 40
1.0
100
AcDbArc
 50
63.4349488229
 51
115.2482413306
  0
ARC
  5
49F
100
AcDbEntity
  8
ASSI
100
AcDbCircle
 62
7
  6
CONTINUOUS
 10
3.1528983873
 20
21.4863786071
 40
1.0
100
AcDbArc
 50
30.1049818266
 51
63.4350069961
  0
ARC
  5
4A0
100
AcDbEntity
  8
ASSI
100
AcDbCircle
 62
7
  6
CONTINUOUS
 10
-25.857792577
 20
35.9917240893
 40
1.0
100
AcDbArc
 50
63.4349488229
 51
115.248257987
  0
ARC
  5
4A1
100
AcDbEntity
  8
C_COPERCHIO
100
AcDbCircle
 62
7
  6
CONTINUOUS
 10
-51.3558908479
 20
29.3588306409
 40
0.25
100
AcDbArc
 50
118.3478796169
 51
179.9986004557
  0
ARC
  5
4A2
100
AcDbEntity
  8
C_COPERCHIO
100
AcDbCircle
 62
7
  6
CONTINUOUS
 10
-16.6745480158
 20
-26.3007156037
 40
0.25
100
AcDbArc
 50
243.4337305734
 51
294.7890578208
  0
ARC
  5
4A3
100
AcDbEntity
  8
C_COPERCHIO
100
AcDbCircle
 62
7
  6
CONTINUOUS
 10
-51.3558908479
 20
-8.9600441876
 40
0.25
100
AcDbArc
 50
179.9996349027
 51
243.4352019321
  0
ELLIPSE
  5
4A4
100
AcDbEntity
  8
C_COPERCHIO
100
AcDbEllipse
 62
7
  6
CONTINUOUS
 10
-38.6186310564
 20
34.1632027536
 30
0.0
 11
0.9999763657
 21
-0.0140528498
 31
0.0
 40
0.4892375088
 41
0.7922733988
 42
2.3456164331
  0
ELLIPSE
  5
4A5
100
AcDbEntity
  8
C_COPERCHIO
100
AcDbEllipse
 62
7
  6
CONTINUOUS
 10
-20.3832048611
 20
25.045489656
 30
0.0
 11
0.9999763657
 21
-0.0140528498
 31
0.0
 40
0.4892375088
 41
1.3499772167
 42
2.3543430793
  0
ELLIPSE
  5
4A6
100
AcDbEntity
  8
C_COPERCHIO
100
AcDbEllipse
 62
7
  6
CONTINUOUS
 10
-7.8450509812
 20
-20.3217093033
 30
0.0
 11
0.9999727455
 21
0.0144591093
 31
0.0
 40
0.5106100819
 41
-0.775327905
 42
-0.0073830341
  0
ELLIPSE
  5
4A7
100
AcDbEntity
  8
C_COPERCHIO
100
AcDbEllipse
 62
7
  6
CONTINUOUS
 10
-7.8450509812
 20
17.3877441591
 30
0.0
 11
0.9999934239
 21
0.0071767279
 31
0.0
 40
0.5053247124
 41
-0.7715714568
 42
-0.0036265859
  0
ELLIPSE
  5
4A8
100
AcDbEntity
  8
C_COPERCHIO
100
AcDbEllipse
 62
7
  6
CONTINUOUS
 10
-46.3188504965
 20
33.3755005544
 30
0.0
 11
-0.1118429119
 21
0.2236040717
 31
0.0
 40
0.6123910759
 41
-0.6848833758
 42
0.0085521919
  0
ELLIPSE
  5
4A9
100
AcDbEntity
  8
C_COPERCHIO
100
AcDbEllipse
 62
7
  6
CONTINUOUS
 10
-12.5191463558
 20
16.475648484
 30
0.0
 11
-0.1118429119
 21
0.2236040717
 31
0.0
 40
0.6123910759
 41
-0.6848833758
 42
0.0085521919
  0
ELLIPSE
  5
4AA
100
AcDbEntity
  8
C_COPERCHIO
100
AcDbEllipse
 62
7
  6
CONTINUOUS
 10
-19.9239931341
 20
24.9914972666
 30
0.0
 11
0.3307723674
 21
0.6731319332
 31
0.0
 40
0.607010042
 41
-0.0041940086
 42
0.6892518406
  0
ELLIPSE
  5
4AB
100
AcDbEntity
  8
C_COPERCHIO
100
AcDbEllipse
 62
7
  6
CONTINUOUS
 10
-9.8056309365
 20
19.9323161678
 30
0.0
 11
0.3449653854
 21
0.6660096921
 31
0.0
 40
0.6229838795
 41
0.0088862192
 42
0.7023320684
  0
ELLIPSE
  5
4AC
100
AcDbEntity
  8
C_COPERCHIO
100
AcDbEllipse
 62
7
  6
CONTINUOUS
 10
-10.8637576169
 20
20.4273531308
 30
0.0
 11
0.9980068092
 21
-0.2399287748
 31
0.0
 40
0.2630210944
 41
1.7693105216
 42
2.4104144461
  0
ELLIPSE
  5
4AD
100
AcDbEntity
  8
C_COPERCHIO
100
AcDbEllipse
 62
7
  6
CONTINUOUS
 10
-45.2582441808
 20
32.8451973966
 30
0.0
 11
-0.1118429119
 21
0.2236040717
 31
0.0
 40
0.6123910759
 41
-2.2556797026
 42
-0.6848833758
  0
ELLIPSE
  5
4AE
100
AcDbEntity
  8
C_COPERCHIO
100
AcDbEllipse
 62
7
  6
CONTINUOUS
 10
-11.4585400401
 20
15.9453453262
 30
0.0
 11
-0.1118429119
 21
0.2236040717
 31
0.0
 40
0.6123910759
 41
-2.2556797026
 42
-0.6848833758
  0
ELLIPSE
  5
4AF
100
AcDbEntity
  8
C_COPERCHIO
100
AcDbEllipse
 62
7
  6
CONTINUOUS
 10
-11.4585400401
 20
-25.1908613536
 30
0.0
 11
-0.1118429119
 21
0.2236040717
 31
0.0
 40
0.6123910759
 41
-3.1501448426
 42
-2.2556797026
  0
ELLIPSE
  5
4B0
100
AcDbEntity
  8
C_COPERCHIO
100
AcDbEllipse
 62
7
  6
CONTINUOUS
 10
-37.6016626638
 20
33.8303320314
 30
0.0
 11
0.3307723674
 21
0.6731319332
 31
0.0
 40
0.607010042
 41
-0.0041940086
 42
0.6892518406
  0
ELLIPSE
  5
4B1
100
AcDbEntity
  8
C_COPERCHIO
100
AcDbEllipse
 62
7
  6
CONTINUOUS
 10
-27.4833004662
 20
28.7711509326
 30
0.0
 11
0.3449653854
 21
0.6660096921
 31
0.0
 40
0.6229838795
 41
0.0088862192
 42
0.7023320684
  0
ELLIPSE
  5
4B2
100
AcDbEntity
  8
C_COPERCHIO
100
AcDbEllipse
 62
7
  6
CONTINUOUS
 10
-28.5414271466
 20
29.2661878956
 30
0.0
 11
0.9980068092
 21
-0.2399287748
 31
0.0
 40
0.2630210944
 41
1.7693105216
 42
2.4104144461
  0
ELLIPSE
  5
4B3
100
AcDbEntity
  8
C_COPERCHIO
100
AcDbEllipse
 62
7
  6
CONTINUOUS
 10
-27.3572911352
 20
20.5147754201
 30
0.0
 11
0.8189481219
 21
0.0118415832
 31
0.0
 40
0.5106100819
 41
3.1342096195
 42
5.4816774634
  0
ELLIPSE
  5
4B4
100
AcDbEntity
  8
C_COPERCHIO
100
AcDbEllipse
 62
7
  6
CONTINUOUS
 10
-16.4946856718
 20
8.5739859127
 30
0.0
 11
-0.1092649321
 21
0.2270579893
 31
0.0
 40
0.6121735965
 41
-2.2369946326
 42
-0.669228889
  0
ELLIPSE
  5
4B5
100
AcDbEntity
  8
C_COPERCHIO
100
AcDbEllipse
 62
7
  6
CONTINUOUS
 10
-16.4946856718
 20
-22.682851245
 30
0.0
 11
-0.1098985543
 21
0.2275784384
 31
0.0
 40
0.6085747011
 41
-3.2553735027
 42
-2.2415613143
  0
ELLIPSE
  5
4B6
100
AcDbEntity
  8
C_COPERCHIO
100
AcDbEllipse
 62
7
  6
CONTINUOUS
 10
-17.922254891
 20
23.9566017678
 30
0.0
 11
0.9980068092
 21
-0.2399287748
 31
0.0
 40
0.2630210944
 41
-0.7133215392
 42
-0.0722176147
  0
ELLIPSE
  5
4B7
100
AcDbEntity
  8
C_COPERCHIO
100
AcDbEllipse
 62
7
  6
CONTINUOUS
 10
-26.0681345817
 20
27.8879545163
 30
0.0
 11
0.9999763657
 21
-0.0140528498
 31
0.0
 40
0.4892375088
 41
-0.7697962817
 42
0.7922733988
  0
ELLIPSE
  5
4B8
100
AcDbEntity
  8
C_COPERCHIO
100
AcDbEllipse
 62
7
  6
CONTINUOUS
 10
-47.2279903411
 20
31.2773233052
 30
0.0
 11
0.9642939016
 21
0.013943211
 31
0.0
 40
0.5106100819
 41
3.1342096195
 42
5.4729508172
  0
ELLIPSE
  5
4B9
100
AcDbEntity
  8
C_COPERCHIO
100
AcDbEllipse
 62
7
  6
CONTINUOUS
 10
-13.4282862004
 20
14.3774712348
 30
0.0
 11
0.9642939016
 21
0.013943211
 31
0.0
 40
0.5106100819
 41
3.1342096196
 42
4.7364581619
  0
ELLIPSE
  5
4BA
100
AcDbEntity
  8
C_COPERCHIO
100
AcDbEllipse
 62
7
  6
CONTINUOUS
 10
-34.9187545439
 20
24.9690710722
 30
0.0
 11
0.8189650569
 21
0.005877528
 31
0.0
 40
0.5053247124
 41
8.6444798577
 42
11.7686192188
  0
ELLIPSE
  5
4BB
100
AcDbEntity
  8
C_COPERCHIO
100
AcDbEllipse
 62
7
  6
CONTINUOUS
 10
-45.0349606649
 20
30.0271741327
 30
0.0
 11
0.8189650569
 21
0.005877528
 31
0.0
 40
0.5053247124
 41
8.6444798577
 42
11.7686192188
  0
ELLIPSE
  5
4BC
100
AcDbEntity
  8
C_COPERCHIO
100
AcDbEllipse
 62
7
  6
CONTINUOUS
 10
-7.8450509812
 20
-18.9330407463
 30
0.0
 11
0.9999938762
 21
-0.0070751823
 31
0.0
 40
0.4946372042
 41
-0.7644452153
 42
0.7888978189
  0
ELLIPSE
  5
4BD
100
AcDbEntity
  8
C_COPERCHIO
100
AcDbEllipse
 62
7
  6
CONTINUOUS
 10
-7.8450509812
 20
18.7764127161
 30
0.0
 11
0.9999763657
 21
-0.0140528498
 31
0.0
 40
0.4892375088
 41
-0.7610696355
 42
0.7922733988
  0
ELLIPSE
  5
4BE
100
AcDbEntity
  8
C_COPERCHIO
100
AcDbEllipse
 62
7
  6
CONTINUOUS
 10
-17.2410850142
 20
16.1302363074
 30
0.0
 11
0.8189650569
 21
0.005877528
 31
0.0
 40
0.5053247124
 41
8.6444798577
 42
11.7686192188
  0
ELLIPSE
  5
4BF
100
AcDbEntity
  8
C_COPERCHIO
100
AcDbEllipse
 62
7
  6
CONTINUOUS
 10
-27.3572911352
 20
21.1883393679
 30
0.0
 11
0.8189650569
 21
0.005877528
 31
0.0
 40
0.5053247124
 41
8.6444798577
 42
11.7686192188
  0
ELLIPSE
  5
4C0
100
AcDbEntity
  8
C_COPERCHIO
100
AcDbEllipse
 62
7
  6
CONTINUOUS
 10
-9.1421708906
 20
-17.9347062456
 30
0.0
 11
0.4999969381
 21
-0.0035375912
 31
0.0
 40
0.4946372042
 41
-0.7731718616
 42
0.0034996553
  0
ELLIPSE
  5
4C1
100
AcDbEntity
  8
C_COPERCHIO
100
AcDbEllipse
 62
7
  6
CONTINUOUS
 10
-36.3044977104
 20
33.1817495547
 30
0.0
 11
0.3262229419
 21
0.6753856277
 31
0.0
 40
0.6016116119
 41
5.3888788736
 42
6.9684018467
  0
ELLIPSE
  5
4C2
100
AcDbEntity
  8
C_COPERCHIO
100
AcDbEllipse
 62
7
  6
CONTINUOUS
 10
-36.2002830825
 20
32.6994125973
 30
0.0
 11
0.2609783535
 21
0.5403085021
 31
0.0
 40
0.6016116119
 41
-0.0082293097
 42
0.3274240428
  0
ELLIPSE
  5
4C3
100
AcDbEntity
  8
C_COPERCHIO
100
AcDbEllipse
 62
7
  6
CONTINUOUS
 10
-26.1861355128
 20
28.1225684559
 30
0.0
 11
0.3401399877
 21
0.6684475344
 31
0.0
 40
0.6176975122
 41
5.4014663649
 42
6.9809893379
  0
ELLIPSE
  5
4C4
100
AcDbEntity
  8
C_COPERCHIO
100
AcDbEllipse
 62
7
  6
CONTINUOUS
 10
-18.6268281808
 20
24.3429147899
 30
0.0
 11
0.3262229419
 21
0.6753856277
 31
0.0
 40
0.6016116119
 41
5.3888788736
 42
6.9684018467
  0
ELLIPSE
  5
4C5
100
AcDbEntity
  8
C_COPERCHIO
100
AcDbEllipse
 62
7
  6
CONTINUOUS
 10
-18.5226135528
 20
23.8605778325
 30
0.0
 11
0.2609783535
 21
0.5403085021
 31
0.0
 40
0.6016116119
 41
-0.0082293097
 42
0.3274240428
  0
ELLIPSE
  5
4C6
100
AcDbEntity
  8
C_COPERCHIO
100
AcDbEllipse
 62
7
  6
CONTINUOUS
 10
-35.5999244206
 20
32.7954365327
 30
0.0
 11
0.9980068092
 21
-0.2399287748
 31
0.0
 40
0.2630210944
 41
-0.7133215392
 42
-0.0722176147
  0
ELLIPSE
  5
4C7
100
AcDbEntity
  8
C_COPERCHIO
100
AcDbEllipse
 62
7
  6
CONTINUOUS
 10
-8.5084659832
 20
19.2837336911
 30
0.0
 11
0.3401399877
 21
0.6684475344
 31
0.0
 40
0.6176975122
 41
5.4014663649
 42
6.9809893379
  0
ELLIPSE
  5
4C8
100
AcDbEntity
  8
C_COPERCHIO
100
AcDbEllipse
 62
7
  6
CONTINUOUS
 10
-34.9187545439
 20
24.2955071245
 30
0.0
 11
0.8189481219
 21
0.0118415832
 31
0.0
 40
0.5106100819
 41
3.1342096195
 42
5.4816774634
  0
ELLIPSE
  5
4C9
100
AcDbEntity
  8
C_COPERCHIO
100
AcDbEllipse
 62
7
  6
CONTINUOUS
 10
-45.0349606649
 20
29.353610185
 30
0.0
 11
0.8189481219
 21
0.0118415832
 31
0.0
 40
0.5106100819
 41
3.1342096195
 42
5.4816774634
  0
ELLIPSE
  5
4CA
100
AcDbEntity
  8
C_COPERCHIO
100
AcDbEllipse
 62
7
  6
CONTINUOUS
 10
-17.2410850142
 20
15.4566723596
 30
0.0
 11
0.8189481219
 21
0.0118415832
 31
0.0
 40
0.5106100819
 41
3.1342096195
 42
5.4816774634
  0
ELLIPSE
  5
4CB
100
AcDbEntity
  8
C_COPERCHIO
100
AcDbEllipse
 62
7
  6
CONTINUOUS
 10
-51.1821998013
 20
25.9177429775
 30
0.0
 11
-0.1098985543
 21
0.2275784384
 31
0.0
 40
0.6085747011
 41
-0.6677344043
 42
0.1137808489
  0
ENDSEC
  0
SECTION
  2
OBJECTS
  0
DICTIONARY
  5
C
100
AcDbDictionary
280
0
281
1
  3
ACAD_GROUP
350
D
  3
ACAD_MLINESTYLE
350
17
  3
ACAD_LAYOUT
350
1A
  3
ACAD_PLOTSETTINGS
350
19
  3
ACAD_PLOTSTYLENAME
350
E
  0
DICTIONARY
  5
D
102
{ACAD_REACTORS
330
C
102
}
100
AcDbDictionary
280
0
281
1
  0
ACDBDICTIONARYWDFLT
  5
E
102
{ACAD_REACTORS
330
C
102
}
100
AcDbDictionary
281
1
  3
Normal
350
F
100
AcDbDictionaryWithDefault
340
F
  0
DICTIONARY
  5
17
102
{ACAD_REACTORS
330
C
102
}
100
AcDbDictionary
280
0
281
1
  3
Standard
350
18
  0
DICTIONARY
  5
19
102
{ACAD_REACTORS
330
C
102
}
100
AcDbDictionary
281
1
  0
DICTIONARY
  5
1A
102
{ACAD_REACTORS
330
C
102
}
100
AcDbDictionary
281
1
  3
Model
350
4CC
  3
Layout1
350
4CD
  0
ACDBPLACEHOLDER
  5
F
102
{ACAD_REACTORS
330
E
102
}
  0
MLINESTYLE
  5
18
102
{ACAD_REACTORS
330
17
102
}
100
AcDbMlineStyle
  2
STANDARD
 70
0
  3

 62
256
 51
90.0
 52
90.0
 71
2
 49
0.5
 62
256
  6
BYLAYER
 49
-0.5
 62
256
  6
BYLAYER
  0
LAYOUT
  5
4CC
102
{ACAD_REACTORS
330
1A
102
}
100
AcDbPlotSettings
  1

  2
none_device
  4
ISO_A4_(297.00_x_210.00_MM)
  6

 40
0.0
 41
0.0
 42
0.0
 43
0.0
 44
297.0
 45
210.0
 46
0.0
 47
0.0
 48
0.0
 49
0.0
140
0.0
141
0.0
142
1.0
143
1.0
 70
1024
 72
1
 73
0
 74
0
  7

 75
0
147
1.0
148
0.0
149
0.0
100
AcDbLayout
  1
Model
 70
0
 71
0
 10
0.0
 20
0.0
 11
297.0
 21
210.0
 12
0.0
 22
0.0
 32
0.0
 14
0.0
 24
0.0
 34
0.0
 15
0.0
 25
0.0
 35
0.0
146
0.0
 13
0.0
 23
0.0
 33
0.0
 16
1.0
 26
0.0
 36
0.0
 17
0.0
 27
1.0
 37
0.0
 76
0
330
21F
345
0
346
0
  0
LAYOUT
  5
4CD
102
{ACAD_REACTORS
330
1A
102
}
100
AcDbPlotSettings
  1

  2
none_device
  4
ISO_A4_(297.00_x_210.00_MM)
  6

 40
0.0
 41
0.0
 42
0.0
 43
0.0
 44
297.0
 45
210.0
 46
0.0
 47
0.0
 48
0.0
 49
0.0
140
0.0
141
0.0
142
1.0
143
1.0
 70
0
 72
1
 73
0
 74
0
  7

 75
0
147
1.0
148
0.0
149
0.0
100
AcDbLayout
  1
Layout1
 70
0
 71
1
 10
0.0
 20
0.0
 11
297.0
 21
210.0
 12
0.0
 22
0.0
 32
0.0
 14
0.0
 24
0.0
 34
0.0
 15
0.0
 25
0.0
 35
0.0
146
0.0
 13
0.0
 23
0.0
 33
0.0
 16
1.0
 26
0.0
 36
0.0
 17
0.0
 27
1.0
 37
0.0
 76
0
330
220
345
0
346
0
  0
ENDSEC
  0
EOF
