  0
SECTION
  2
HEADER
  9
$ACADVER
  1
AC1024
  9
$DWGCODEPAGE
  3
ANSI_1252
  9
$EXTMAX
 10
297.0
 20
210.0
 30
0.0
  9
$EXTMIN
 10
0.0
 20
0.0
 30
0.0
  9
$LIMMIN
 10
0.0
 20
0.0
  9
$LIMMAX
 10
297.0
 20
210.0
  9
$VIEWCTR
 10
148.5
 20
105.0
  9
$VIEWSIZE
 40
210.0
  9
$CLAYER
  8
0
  9
$LTSCALE
 40
16.335
  9
$CELTYPE
  6
BYLAYER
  9
$DIMSCALE
 40
1.0
  9
$DIMASZ
 40
3.0
  9
$DIMEXO
 40
0.5
  9
$DIMDLI
 40
11.286
  9
$DIMEXE
 40
1.5
  9
$DIMCEN
 40
2.673
  9
$DIMLFAC
 40
1.0
  9
$DIMBLK
  1
_FILLED
  9
$DIMALT
 70
0
  9
$DIMALTF
 40
0.0393700787
  9
$DIMTXT
 40
3.0
  9
$DIMTOL
 70
1
  9
$DIMLIM
 70
0
  9
$DIMTFAC
 40
1.0
  9
$DIMTP
 40
0.01
  9
$DIMTM
 40
0.01
  9
$DIMGAP
 40
0.625
  9
$DIMDSEP
 70
44
  9
$AUNITS
 70
0
  9
$PDMODE
 70
3
  9
$PDSIZE
 40
3.0
  9
$HANDSEED
  5
6C8
  9
$TILEMODE
 70
1
  9
$MEASUREMENT
 70
1
  9
$INSUNITS
 70
4
  0
ENDSEC
  0
SECTION
  2
CLASSES
  0
CLASS
  1
ACDBDICTIONARYWDFLT
  2
AcDbDictionaryWithDefault
  3
AutoCAD 2000
 90
0
 91
1
280
0
281
0
  0
CLASS
  1
ACDBPLACEHOLDER
  2
AcDbPlaceHolder
  3
AutoCAD 2000
 90
0
 91
1
280
0
281
0
  0
CLASS
  1
LAYOUT
  2
AcDbLayout
  3
AutoCAD 2000
 90
0
 91
0
280
0
281
0
  0
ENDSEC
  0
SECTION
  2
TABLES
  0
TABLE
  2
VPORT
  5
8
100
AcDbSymbolTable
 70
2
  0
VPORT
  5
1F4
100
AcDbSymbolTableRecord
100
AcDbViewportTableRecord
  2
*ACTIVE
 70
0
 10
0.0
 20
0.0
 11
1.0
 21
1.0
 12
148.5
 22
105.0
 13
0.0
 23
0.0
 14
1.0
 24
1.0
 15
0.0
 25
0.0
 16
0.0
 26
0.0
 36
1.0
 17
0.0
 27
0.0
 37
0.0
 40
210.0
 41
1.4142857143
 42
50.0
 43
0.0
 44
0.0
 50
0.0
 51
0.0
 71
0
 72
100
 73
1
 74
1
 75
0
 76
0
 77
0
 78
0
  0
ENDTAB
  0
TABLE
  2
LTYPE
  5
5
100
AcDbSymbolTable
 70
6
  0
LTYPE
  5
14
100
AcDbSymbolTableRecord
100
AcDbLinetypeTableRecord
  2
BYBLOCK
 70
0
  3

 72
65
 73
0
 40
0.0
  0
LTYPE
  5
15
100
AcDbSymbolTableRecord
100
AcDbLinetypeTableRecord
  2
BYLAYER
 70
0
  3

 72
65
 73
0
 40
0.0
  0
LTYPE
  5
16
100
AcDbSymbolTableRecord
100
AcDbLinetypeTableRecord
  2
CONTINUOUS
 70
64
  3
Solid line
 72
65
 73
0
 40
0.0
  0
LTYPE
  5
1F5
100
AcDbSymbolTableRecord
100
AcDbLinetypeTableRecord
  2
CENTER
 70
64
  3
____ _ ____ _ ____ _ ____ _ ____ _ ____ _ ____
 72
65
 73
4
 40
0.6
 49
0.375
 74
0
 49
-0.075
 74
0
 49
0.075
 74
0
 49
-0.075
 74
0
  0
LTYPE
  5
1F6
100
AcDbSymbolTableRecord
100
AcDbLinetypeTableRecord
  2
HIDDEN
 70
64
  3
- - - - - - - - - - - - - - - - - - - -
 72
65
 73
2
 40
0.2
 49
0.1
 74
0
 49
-0.1
 74
0
  0
LTYPE
  5
1F7
100
AcDbSymbolTableRecord
100
AcDbLinetypeTableRecord
  2
PHANTOM
 70
64
  3
_____ _ _ _____ _ _ _____ _ _ _____
 72
65
 73
6
 40
0.8
 49
0.45
 74
0
 49
-0.05
 74
0
 49
0.1
 74
0
 49
-0.05
 74
0
 49
0.1
 74
0
 49
-0.05
 74
0
  0
LTYPE
  5
1F8
100
AcDbSymbolTableRecord
100
AcDbLinetypeTableRecord
  2
DOT
 70
64
  3
. . . . . . . . . . . . . . . . . . . .
 72
65
 73
2
 40
0.2
 49
0.1
 74
0
 49
-0.1
 74
0
  0
LTYPE
  5
1F9
100
AcDbSymbolTableRecord
100
AcDbLinetypeTableRecord
  2
DASHED
 70
64
  3
- - - - - - - - - - - - - - - - - - - -
 72
65
 73
2
 40
0.2
 49
0.1
 74
0
 49
-0.1
 74
0
  0
ENDTAB
  0
TABLE
  2
LAYER
  5
2
100
AcDbSymbolTable
 70
36
  0
LAYER
  5
10
100
AcDbSymbolTableRecord
100
AcDbLayerTableRecord
  2
0
 70
0
 62
7
  6
CONTINUOUS
370
-3
390
F
  0
LAYER
  5
1FA
100
AcDbSymbolTableRecord
100
AcDbLayerTableRecord
  2
DEFAULT_1
 70
0
 62
7
  6
CENTER
370
-3
390
F
  0
LAYER
  5
1FB
100
AcDbSymbolTableRecord
100
AcDbLayerTableRecord
  2
DEFAULT_2
 70
0
 62
7
  6
HIDDEN
370
-3
390
F
  0
LAYER
  5
1FC
100
AcDbSymbolTableRecord
100
AcDbLayerTableRecord
  2
DEFAULT_3
 70
0
 62
7
  6
PHANTOM
370
-3
390
F
  0
LAYER
  5
1FD
100
AcDbSymbolTableRecord
100
AcDbLayerTableRecord
  2
0402_C_REF_70000
 70
0
 62
7
  6
CONTINUOUS
370
-3
390
F
  0
LAYER
  5
1FE
100
AcDbSymbolTableRecord
100
AcDbLayerTableRecord
  2
0402_C_REF_70000_1
 70
0
 62
7
  6
CONTINUOUS
370
-3
390
F
  0
LAYER
  5
1FF
100
AcDbSymbolTableRecord
100
AcDbLayerTableRecord
  2
0402_R_REF_30000
 70
0
 62
7
  6
CONTINUOUS
370
-3
390
F
  0
LAYER
  5
200
100
AcDbSymbolTableRecord
100
AcDbLayerTableRecord
  2
0402_R_REF_30000_1
 70
0
 62
7
  6
CONTINUOUS
370
-3
390
F
  0
LAYER
  5
201
100
AcDbSymbolTableRecord
100
AcDbLayerTableRecord
  2
0402_R_REF_30000_2
 70
0
 62
7
  6
CONTINUOUS
370
-3
390
F
  0
LAYER
  5
202
100
AcDbSymbolTableRecord
100
AcDbLayerTableRecord
  2
0402_R_REF_30000_3
 70
0
 62
7
  6
CONTINUOUS
370
-3
390
F
  0
LAYER
  5
203
100
AcDbSymbolTableRecord
100
AcDbLayerTableRecord
  2
0603_C_REF_90000
 70
0
 62
7
  6
CONTINUOUS
370
-3
390
F
  0
LAYER
  5
204
100
AcDbSymbolTableRecord
100
AcDbLayerTableRecord
  2
0603_C_REF_90000_1
 70
0
 62
7
  6
CONTINUOUS
370
-3
390
F
  0
LAYER
  5
205
100
AcDbSymbolTableRecord
100
AcDbLayerTableRecord
  2
0603_C_REF_90000_2
 70
0
 62
7
  6
CONTINUOUS
370
-3
390
F
  0
LAYER
  5
206
100
AcDbSymbolTableRecord
100
AcDbLayerTableRecord
  2
0603_C_REF_90000_3
 70
0
 62
7
  6
CONTINUOUS
370
-3
390
F
  0
LAYER
  5
207
100
AcDbSymbolTableRecord
100
AcDbLayerTableRecord
  2
0603_R_REF_55000
 70
0
 62
7
  6
CONTINUOUS
370
-3
390
F
  0
LAYER
  5
208
100
AcDbSymbolTableRecord
100
AcDbLayerTableRecord
  2
0603_R_REF_55000_1
 70
0
 62
7
  6
CONTINUOUS
370
-3
390
F
  0
LAYER
  5
209
100
AcDbSymbolTableRecord
100
AcDbLayerTableRecord
  2
06___PRT_ALL_SURFS
 70
0
 62
7
  6
CONTINUOUS
370
-3
390
F
  0
LAYER
  5
20A
100
AcDbSymbolTableRecord
100
AcDbLayerTableRecord
  2
06___PRT_ALL_SURFS_1
 70
0
 62
7
  6
CONTINUOUS
370
-3
390
F
  0
LAYER
  5
20B
100
AcDbSymbolTableRecord
100
AcDbLayerTableRecord
  2
06___PRT_ALL_SURFS_10
 70
0
 62
7
  6
CONTINUOUS
370
-3
390
F
  0
LAYER
  5
20C
100
AcDbSymbolTableRecord
100
AcDbLayerTableRecord
  2
06___PRT_ALL_SURFS_11
 70
0
 62
7
  6
CONTINUOUS
370
-3
390
F
  0
LAYER
  5
20D
100
AcDbSymbolTableRecord
100
AcDbLayerTableRecord
  2
06___PRT_ALL_SURFS_12
 70
0
 62
7
  6
CONTINUOUS
370
-3
390
F
  0
LAYER
  5
20E
100
AcDbSymbolTableRecord
100
AcDbLayerTableRecord
  2
06___PRT_ALL_SURFS_15
 70
0
 62
7
  6
CONTINUOUS
370
-3
390
F
  0
LAYER
  5
20F
100
AcDbSymbolTableRecord
100
AcDbLayerTableRecord
  2
06___PRT_ALL_SURFS_16
 70
0
 62
7
  6
CONTINUOUS
370
-3
390
F
  0
LAYER
  5
210
100
AcDbSymbolTableRecord
100
AcDbLayerTableRecord
  2
06___PRT_ALL_SURFS_2
 70
0
 62
7
  6
CONTINUOUS
370
-3
390
F
  0
LAYER
  5
211
100
AcDbSymbolTableRecord
100
AcDbLayerTableRecord
  2
06___PRT_ALL_SURFS_3
 70
0
 62
7
  6
CONTINUOUS
370
-3
390
F
  0
LAYER
  5
212
100
AcDbSymbolTableRecord
100
AcDbLayerTableRecord
  2
06___PRT_ALL_SURFS_4
 70
0
 62
7
  6
CONTINUOUS
370
-3
390
F
  0
LAYER
  5
213
100
AcDbSymbolTableRecord
100
AcDbLayerTableRecord
  2
06___PRT_ALL_SURFS_5
 70
0
 62
7
  6
CONTINUOUS
370
-3
390
F
  0
LAYER
  5
214
100
AcDbSymbolTableRecord
100
AcDbLayerTableRecord
  2
06___PRT_ALL_SURFS_6
 70
0
 62
7
  6
CONTINUOUS
370
-3
390
F
  0
LAYER
  5
215
100
AcDbSymbolTableRecord
100
AcDbLayerTableRecord
  2
06___PRT_ALL_SURFS_7
 70
0
 62
7
  6
CONTINUOUS
370
-3
390
F
  0
LAYER
  5
216
100
AcDbSymbolTableRecord
100
AcDbLayerTableRecord
  2
06___PRT_ALL_SURFS_8
 70
0
 62
7
  6
CONTINUOUS
370
-3
390
F
  0
LAYER
  5
217
100
AcDbSymbolTableRecord
100
AcDbLayerTableRecord
  2
0805_C_REF_145000
 70
0
 62
7
  6
CONTINUOUS
370
-3
390
F
  0
LAYER
  5
218
100
AcDbSymbolTableRecord
100
AcDbLayerTableRecord
  2
0805_C_REF_145000_1
 70
0
 62
7
  6
CONTINUOUS
370
-3
390
F
  0
LAYER
  5
219
100
AcDbSymbolTableRecord
100
AcDbLayerTableRecord
  2
0805_C_REF_145000_2
 70
0
 62
7
  6
CONTINUOUS
370
-3
390
F
  0
LAYER
  5
21A
100
AcDbSymbolTableRecord
100
AcDbLayerTableRecord
  2
0805_R_REF_60000
 70
0
 62
7
  6
CONTINUOUS
370
-3
390
F
  0
LAYER
  5
21B
100
AcDbSymbolTableRecord
100
AcDbLayerTableRecord
  2
0805_R_REF_60000_1
 70
0
 62
7
  6
CONTINUOUS
370
-3
390
F
  0
LAYER
  5
21C
100
AcDbSymbolTableRecord
100
AcDbLayerTableRecord
  2
0805_R_REF_60000_2
 70
0
 62
7
  6
CONTINUOUS
370
-3
390
F
  0
LAYER
  5
21D
100
AcDbSymbolTableRecord
100
AcDbLayerTableRecord
  2
1206_C_REF_180000
 70
0
 62
7
  6
CONTINUOUS
370
-3
390
F
  0
LAYER
  5
21E
100
AcDbSymbolTableRecord
100
AcDbLayerTableRecord
  2
1206_C_REF_180000_1
 70
0
 62
7
  6
CONTINUOUS
370
-3
390
F
  0
LAYER
  5
21F
100
AcDbSymbolTableRecord
100
AcDbLayerTableRecord
  2
1206_C_REF_180000_2
 70
0
 62
7
  6
CONTINUOUS
370
-3
390
F
  0
LAYER
  5
220
100
AcDbSymbolTableRecord
100
AcDbLayerTableRecord
  2
1206_R_REF_65000
 70
0
 62
7
  6
CONTINUOUS
370
-3
390
F
  0
LAYER
  5
221
100
AcDbSymbolTableRecord
100
AcDbLayerTableRecord
  2
1210_R_H1_REF_100000
 70
0
 62
7
  6
CONTINUOUS
370
-3
390
F
  0
LAYER
  5
222
100
AcDbSymbolTableRecord
100
AcDbLayerTableRecord
  2
2125-R1-RF-VIMAR_60000
 70
0
 62
7
  6
CONTINUOUS
370
-3
390
F
  0
LAYER
  5
223
100
AcDbSymbolTableRecord
100
AcDbLayerTableRecord
  2
43000943A0
 70
0
 62
7
  6
CONTINUOUS
370
-3
390
F
  0
LAYER
  5
224
100
AcDbSymbolTableRecord
100
AcDbLayerTableRecord
  2
43000943B0
 70
0
 62
7
  6
CONTINUOUS
370
-3
390
F
  0
LAYER
  5
225
100
AcDbSymbolTableRecord
100
AcDbLayerTableRecord
  2
43000943D0
 70
0
 62
7
  6
CONTINUOUS
370
-3
390
F
  0
LAYER
  5
226
100
AcDbSymbolTableRecord
100
AcDbLayerTableRecord
  2
43001075A0
 70
0
 62
7
  6
CONTINUOUS
370
-3
390
F
  0
LAYER
  5
227
100
AcDbSymbolTableRecord
100
AcDbLayerTableRecord
  2
ASM0001
 70
0
 62
7
  6
CONTINUOUS
370
-3
390
F
  0
LAYER
  5
228
100
AcDbSymbolTableRecord
100
AcDbLayerTableRecord
  2
ASSI
 70
0
 62
7
  6
CONTINUOUS
370
-3
390
F
  0
LAYER
  5
229
100
AcDbSymbolTableRecord
100
AcDbLayerTableRecord
  2
CAP-E-6_3-11-2_5_1120000
 70
0
 62
7
  6
CONTINUOUS
370
-3
390
F
  0
LAYER
  5
22A
100
AcDbSymbolTableRecord
100
AcDbLayerTableRecord
  2
CAP-RND-8_0-12_5-7_0-10_0-0_0_1
 70
0
 62
7
  6
CONTINUOUS
370
-3
390
F
  0
LAYER
  5
22B
100
AcDbSymbolTableRecord
100
AcDbLayerTableRecord
  2
CAP-RND-8_0-12_5-7_0-10_0-0_0_2
 70
0
 62
7
  6
CONTINUOUS
370
-3
390
F
  0
LAYER
  5
22C
100
AcDbSymbolTableRecord
100
AcDbLayerTableRecord
  2
CN_STH_USB_TYPE-C_24P_90_SHORT
 70
0
 62
7
  6
CONTINUOUS
370
-3
390
F
  0
LAYER
  5
22D
100
AcDbSymbolTableRecord
100
AcDbLayerTableRecord
  2
COLOR16
 70
0
 62
7
  6
CONTINUOUS
370
-3
390
F
  0
LAYER
  5
22E
100
AcDbSymbolTableRecord
100
AcDbLayerTableRecord
  2
COLOR17
 70
0
 62
7
  6
CONTINUOUS
370
-3
390
F
  0
LAYER
  5
22F
100
AcDbSymbolTableRecord
100
AcDbLayerTableRecord
  2
COLOR36
 70
0
 62
7
  6
CONTINUOUS
370
-3
390
F
  0
LAYER
  5
230
100
AcDbSymbolTableRecord
100
AcDbLayerTableRecord
  2
COLOR45
 70
0
 62
7
  6
CONTINUOUS
370
-3
390
F
  0
LAYER
  5
231
100
AcDbSymbolTableRecord
100
AcDbLayerTableRecord
  2
COLOR48
 70
0
 62
7
  6
CONTINUOUS
370
-3
390
F
  0
LAYER
  5
232
100
AcDbSymbolTableRecord
100
AcDbLayerTableRecord
  2
COLOR57
 70
0
 62
7
  6
CONTINUOUS
370
-3
390
F
  0
LAYER
  5
233
100
AcDbSymbolTableRecord
100
AcDbLayerTableRecord
  2
COLOR6
 70
0
 62
7
  6
CONTINUOUS
370
-3
390
F
  0
LAYER
  5
234
100
AcDbSymbolTableRecord
100
AcDbLayerTableRecord
  2
COLOR7
 70
0
 62
7
  6
CONTINUOUS
370
-3
390
F
  0
LAYER
  5
235
100
AcDbSymbolTableRecord
100
AcDbLayerTableRecord
  2
COLORE_MATERIALE
 70
0
 62
7
  6
CONTINUOUS
370
-3
390
F
  0
LAYER
  5
236
100
AcDbSymbolTableRecord
100
AcDbLayerTableRecord
  2
COORDINATE
 70
0
 62
7
  6
CONTINUOUS
370
-3
390
F
  0
LAYER
  5
237
100
AcDbSymbolTableRecord
100
AcDbLayerTableRecord
  2
COORD_ORIGINE
 70
0
 62
7
  6
CONTINUOUS
370
-3
390
F
  0
LAYER
  5
238
100
AcDbSymbolTableRecord
100
AcDbLayerTableRecord
  2
COPY_PUBLISH
 70
0
 62
7
  6
CONTINUOUS
370
-3
390
F
  0
LAYER
  5
239
100
AcDbSymbolTableRecord
100
AcDbLayerTableRecord
  2
COSMETICI
 70
0
 62
7
  6
CONTINUOUS
370
-3
390
F
  0
LAYER
  5
23A
100
AcDbSymbolTableRecord
100
AcDbLayerTableRecord
  2
CR_MR2P5_MSB_SW_PTH_1000000
 70
0
 62
7
  6
CONTINUOUS
370
-3
390
F
  0
LAYER
  5
23B
100
AcDbSymbolTableRecord
100
AcDbLayerTableRecord
  2
CURVE
 70
0
 62
7
  6
CONTINUOUS
370
-3
390
F
  0
LAYER
  5
23C
100
AcDbSymbolTableRecord
100
AcDbLayerTableRecord
  2
DRAFT
 70
0
 62
7
  6
CONTINUOUS
370
-3
390
F
  0
LAYER
  5
23D
100
AcDbSymbolTableRecord
100
AcDbLayerTableRecord
  2
E2_MARK_10000
 70
0
 62
7
  6
CONTINUOUS
370
-3
390
F
  0
LAYER
  5
23E
100
AcDbSymbolTableRecord
100
AcDbLayerTableRecord
  2
GEOMETRIA_SOLIDA
 70
0
 62
7
  6
CONTINUOUS
370
-3
390
F
  0
LAYER
  5
23F
100
AcDbSymbolTableRecord
100
AcDbLayerTableRecord
  2
GEOMETRIA_SOLIDA_1
 70
0
 62
7
  6
CONTINUOUS
370
-3
390
F
  0
LAYER
  5
240
100
AcDbSymbolTableRecord
100
AcDbLayerTableRecord
  2
IMPORT_IGES
 70
0
 62
7
  6
CONTINUOUS
370
-3
390
F
  0
LAYER
  5
241
100
AcDbSymbolTableRecord
100
AcDbLayerTableRecord
  2
IND-RAD-7_8-9_5-5_0-0_7_950000
 70
0
 62
7
  6
CONTINUOUS
370
-3
390
F
  0
LAYER
  5
242
100
AcDbSymbolTableRecord
100
AcDbLayerTableRecord
  2
INTFCLR_3
 70
0
 62
7
  6
CONTINUOUS
370
-3
390
F
  0
LAYER
  5
243
100
AcDbSymbolTableRecord
100
AcDbLayerTableRecord
  2
INTF_1
 70
0
 62
7
  6
CONTINUOUS
370
-3
390
F
  0
LAYER
  5
244
100
AcDbSymbolTableRecord
100
AcDbLayerTableRecord
  2
INTF_11
 70
0
 62
7
  6
CONTINUOUS
370
-3
390
F
  0
LAYER
  5
245
100
AcDbSymbolTableRecord
100
AcDbLayerTableRecord
  2
INTF_2
 70
0
 62
7
  6
CONTINUOUS
370
-3
390
F
  0
LAYER
  5
246
100
AcDbSymbolTableRecord
100
AcDbLayerTableRecord
  2
INTF_6
 70
0
 62
7
  6
CONTINUOUS
370
-3
390
F
  0
LAYER
  5
247
100
AcDbSymbolTableRecord
100
AcDbLayerTableRecord
  2
INTF_8
 70
0
 62
7
  6
CONTINUOUS
370
-3
390
F
  0
LAYER
  5
248
100
AcDbSymbolTableRecord
100
AcDbLayerTableRecord
  2
INTF_BLANK
 70
0
 62
7
  6
CONTINUOUS
370
-3
390
F
  0
LAYER
  5
249
100
AcDbSymbolTableRecord
100
AcDbLayerTableRecord
  2
INTF_CYAN
 70
0
 62
7
  6
CONTINUOUS
370
-3
390
F
  0
LAYER
  5
24A
100
AcDbSymbolTableRecord
100
AcDbLayerTableRecord
  2
INTF_GREEN
 70
0
 62
7
  6
CONTINUOUS
370
-3
390
F
  0
LAYER
  5
24B
100
AcDbSymbolTableRecord
100
AcDbLayerTableRecord
  2
LIVELLO_1
 70
0
 62
7
  6
CONTINUOUS
370
-3
390
F
  0
LAYER
  5
24C
100
AcDbSymbolTableRecord
100
AcDbLayerTableRecord
  2
LOGO_RESIST-RESTYLING_10000
 70
0
 62
7
  6
CONTINUOUS
370
-3
390
F
  0
LAYER
  5
24D
100
AcDbSymbolTableRecord
100
AcDbLayerTableRecord
  2
NO-PB_MARK_10000
 70
0
 62
7
  6
CONTINUOUS
370
-3
390
F
  0
LAYER
  5
24E
100
AcDbSymbolTableRecord
100
AcDbLayerTableRecord
  2
NONE
 70
0
 62
7
  6
CONTINUOUS
370
-3
390
F
  0
LAYER
  5
24F
100
AcDbSymbolTableRecord
100
AcDbLayerTableRecord
  2
NOTE
 70
0
 62
7
  6
CONTINUOUS
370
-3
390
F
  0
LAYER
  5
250
100
AcDbSymbolTableRecord
100
AcDbLayerTableRecord
  2
PIANI
 70
0
 62
7
  6
CONTINUOUS
370
-3
390
F
  0
LAYER
  5
251
100
AcDbSymbolTableRecord
100
AcDbLayerTableRecord
  2
PIANI_ORIGINE
 70
0
 62
7
  6
CONTINUOUS
370
-3
390
F
  0
LAYER
  5
252
100
AcDbSymbolTableRecord
100
AcDbLayerTableRecord
  2
PIANI_RIFERIMENTO
 70
0
 62
7
  6
CONTINUOUS
370
-3
390
F
  0
LAYER
  5
253
100
AcDbSymbolTableRecord
100
AcDbLayerTableRecord
  2
PUNTI
 70
0
 62
7
  6
CONTINUOUS
370
-3
390
F
  0
LAYER
  5
254
100
AcDbSymbolTableRecord
100
AcDbLayerTableRecord
  2
RACCORDO
 70
0
 62
7
  6
CONTINUOUS
370
-3
390
F
  0
LAYER
  5
255
100
AcDbSymbolTableRecord
100
AcDbLayerTableRecord
  2
SIMBOLI
 70
0
 62
7
  6
CONTINUOUS
370
-3
390
F
  0
LAYER
  5
256
100
AcDbSymbolTableRecord
100
AcDbLayerTableRecord
  2
SMUSSO
 70
0
 62
7
  6
CONTINUOUS
370
-3
390
F
  0
LAYER
  5
257
100
AcDbSymbolTableRecord
100
AcDbLayerTableRecord
  2
SNAPLINE
 70
0
 62
7
  6
CONTINUOUS
370
-3
390
F
  0
LAYER
  5
258
100
AcDbSymbolTableRecord
100
AcDbLayerTableRecord
  2
SUB_SMA_143000
 70
0
 62
7
  6
CONTINUOUS
370
-3
390
F
  0
LAYER
  5
259
100
AcDbSymbolTableRecord
100
AcDbLayerTableRecord
  2
SUB_SMA_143000_1
 70
0
 62
7
  6
CONTINUOUS
370
-3
390
F
  0
LAYER
  5
25A
100
AcDbSymbolTableRecord
100
AcDbLayerTableRecord
  2
SUPERFICI
 70
0
 62
7
  6
CONTINUOUS
370
-3
390
F
  0
LAYER
  5
25B
100
AcDbSymbolTableRecord
100
AcDbLayerTableRecord
  2
TRASH
 70
0
 62
7
  6
CONTINUOUS
370
-3
390
F
  0
LAYER
  5
25C
100
AcDbSymbolTableRecord
100
AcDbLayerTableRecord
  2
UMT-250_REF_300000
 70
0
 62
7
  6
CONTINUOUS
370
-3
390
F
  0
LAYER
  5
25D
100
AcDbSymbolTableRecord
100
AcDbLayerTableRecord
  2
VG_CAP-E-8_0-12_0-3_5-0_6_14000
 70
0
 62
7
  6
CONTINUOUS
370
-3
390
F
  0
LAYER
  5
25E
100
AcDbSymbolTableRecord
100
AcDbLayerTableRecord
  2
VG_CAP-E-8_0-12_0-3_5-0_6_140_1
 70
0
 62
7
  6
CONTINUOUS
370
-3
390
F
  0
LAYER
  5
25F
100
AcDbSymbolTableRecord
100
AcDbLayerTableRecord
  2
VG_CN_STH_USB_TYPE-C_24P_RIGHT_
 70
0
 62
7
  6
CONTINUOUS
370
-3
390
F
  0
LAYER
  5
260
100
AcDbSymbolTableRecord
100
AcDbLayerTableRecord
  2
VG_CN_STH_USB_TYPE-C_24P_RIGH_1
 70
0
 62
7
  6
CONTINUOUS
370
-3
390
F
  0
LAYER
  5
261
100
AcDbSymbolTableRecord
100
AcDbLayerTableRecord
  2
VG_CN_THT_USB_TYPE-A_4P_VERTICA
 70
0
 62
7
  6
CONTINUOUS
370
-3
390
F
  0
LAYER
  5
262
100
AcDbSymbolTableRecord
100
AcDbLayerTableRecord
  2
VG_DB_SOPA-4_150000
 70
0
 62
7
  6
CONTINUOUS
370
-3
390
F
  0
LAYER
  5
263
100
AcDbSymbolTableRecord
100
AcDbLayerTableRecord
  2
VG_INSOP24D-9_4-13_43-1_6-0_75-
 70
0
 62
7
  6
CONTINUOUS
370
-3
390
F
  0
LAYER
  5
264
100
AcDbSymbolTableRecord
100
AcDbLayerTableRecord
  2
VG_M_2P_VERT_P_5MM_16A_H_10MM_T
 70
0
 62
7
  6
CONTINUOUS
370
-3
390
F
  0
LAYER
  5
265
100
AcDbSymbolTableRecord
100
AcDbLayerTableRecord
  2
VG_POWER56_110000
 70
0
 62
7
  6
CONTINUOUS
370
-3
390
F
  0
LAYER
  5
266
100
AcDbSymbolTableRecord
100
AcDbLayerTableRecord
  2
VG_PTC_EPCOS_B57153S0479M051_13
 70
0
 62
7
  6
CONTINUOUS
370
-3
390
F
  0
LAYER
  5
267
100
AcDbSymbolTableRecord
100
AcDbLayerTableRecord
  2
VG_TRA_RM7_85-265_1X5_3_15W_2_1
 70
0
 62
7
  6
CONTINUOUS
370
-3
390
F
  0
LAYER
  5
268
100
AcDbSymbolTableRecord
100
AcDbLayerTableRecord
  2
WHITE
 70
0
 62
7
  6
CONTINUOUS
370
-3
390
F
  0
LAYER
  5
269
100
AcDbSymbolTableRecord
100
AcDbLayerTableRecord
  2
___SHELL
 70
0
 62
7
  6
CONTINUOUS
370
-3
390
F
  0
ENDTAB
  0
TABLE
  2
STYLE
  5
3
100
AcDbSymbolTable
 70
1
  0
STYLE
  5
11
100
AcDbSymbolTableRecord
100
AcDbTextStyleTableRecord
  2
STANDARD
 70
0
 40
0.0
 41
0.8
 50
0.0
 71
0
 42
0.2
  3
txt
  4

  0
STYLE
  5
26A
100
AcDbSymbolTableRecord
100
AcDbTextStyleTableRecord
  2
TEXTSTYLE_1
 70
0
 40
0.0
 41
0.8
 50
0.0
 71
0
 42
0.2
  3
gdt
  4

  0
ENDTAB
  0
TABLE
  2
VIEW
  5
6
100
AcDbSymbolTable
 70
0
  0
ENDTAB
  0
TABLE
  2
UCS
  5
7
100
AcDbSymbolTable
 70
0
  0
ENDTAB
  0
TABLE
  2
APPID
  5
9
100
AcDbSymbolTable
 70
1
  0
APPID
  5
26B
100
AcDbSymbolTableRecord
100
AcDbRegAppTableRecord
  2
ACAD
 70
0
  0
ENDTAB
  0
TABLE
  2
BLOCK_RECORD
  5
1
100
AcDbSymbolTable
 70
0
  0
BLOCK_RECORD
  5
26C
100
AcDbSymbolTableRecord
100
AcDbBlockTableRecord
  2
*Model_Space
  0
BLOCK_RECORD
  5
26D
100
AcDbSymbolTableRecord
100
AcDbBlockTableRecord
  2
*Paper_Space
  0
BLOCK_RECORD
  5
26E
100
AcDbSymbolTableRecord
100
AcDbBlockTableRecord
  2
_FILLED
  0
ENDTAB
  0
TABLE
  2
DIMSTYLE
  5
A
100
AcDbSymbolTable
 70
1
100
AcDbDimStyleTable
 71
0
  0
DIMSTYLE
105
26F
100
AcDbSymbolTableRecord
100
AcDbDimStyleTableRecord
  2
STANDARD
 70
0
  3

  4

 40
1.0
 41
3.0
 42
0.5
 43
0.38
 44
1.5
 45
0.0
 46
0.0
 47
0.01
 48
0.01
140
3.0
141
0.09
142
0.0
143
25.4
144
1.0
145
0.0
146
1.0
147
0.625
 71
1
 72
0
 73
0
 74
0
 75
0
 76
0
 77
1
 78
8
 79
2
170
0
171
1
172
0
173
0
174
0
175
0
176
0
177
0
178
0
270
2
179
2
271
2
272
2
273
2
274
2
275
0
280
0
281
0
282
0
283
1
284
8
285
0
286
0
287
3
288
0
340
11
278
44
341
26E
342
26E
343
26E
344
26E
  0
ENDTAB
  0
ENDSEC
  0
SECTION
  2
BLOCKS
  0
BLOCK
  5
20
100
AcDbEntity
  8
0
100
AcDbBlockBegin
  2
*Model_Space
 70
0
 10
0.0
 20
0.0
 30
0.0
  3
*Model_Space
  1

  0
ENDBLK
  5
21
100
AcDbEntity
  8
0
100
AcDbBlockEnd
  0
BLOCK
  5
1C
100
AcDbEntity
  8
0
100
AcDbBlockBegin
  2
*Paper_Space
 70
0
 10
0.0
 20
0.0
 30
0.0
  3
*Paper_Space
  1

  0
ENDBLK
  5
1D
100
AcDbEntity
  8
0
100
AcDbBlockEnd
  0
BLOCK
  5
270
100
AcDbEntity
  8
0
100
AcDbBlockBegin
  2
_FILLED
 70
64
 10
0.0
 20
0.0
  3
_FILLED
  1

  0
SOLID
  5
271
100
AcDbEntity
  8
0
  6
BYBLOCK
 62
0
100
AcDbTrace
 10
0.0
 20
0.0
 11
-1.0
 21
0.3166666667
 12
-1.0
 22
-0.3166666667
 13
-1.0
 23
-0.3166666667
  0
ENDBLK
  5
272
100
AcDbEntity
  8
0
  6
BYBLOCK
 62
0
100
AcDbBlockEnd
  0
ENDSEC
  0
SECTION
  2
ENTITIES
  0
LINE
  5
273
100
AcDbEntity
  8
ASSI
100
AcDbLine
 62
7
  6
CONTINUOUS
 10
-4.515307062
 20
-29.9512215777
 11
-21.5189803644
 21
-20.133513719
  0
LINE
  5
274
100
AcDbEntity
  8
ASSI
100
AcDbLine
 62
250
  6
CONTINUOUS
 10
-4.5670777172
 20
-29.8367873624
 11
-21.5707510197
 21
-20.0190795037
  0
LINE
  5
275
100
AcDbEntity
  8
ASSI
100
AcDbLine
 62
250
  6
CONTINUOUS
 10
-21.5189803644
 20
-20.133513719
 11
-21.5258257488
 21
-20.1291025068
  0
LWPOLYLINE
  5
276
100
AcDbEntity
  8
ASSI
100
AcDbPolyline
 62
250
  6
CONTINUOUS
 90
8
 70
0
 10
-21.5258257488
 20
-20.1291025068
 10
-21.5373516087
 20
-20.1191950767
 10
-21.5473239735
 20
-20.1070970135
 10
-21.5556348043
 20
-20.0929393992
 10
-21.5621940638
 20
-20.0768756195
 10
-21.566930684
 20
-20.0590797175
 10
-21.5697933416
 20
-20.0397445141
 10
-21.5707510197
 20
-20.0190795037
  0
LWPOLYLINE
  5
277
100
AcDbEntity
  8
ASSI
100
AcDbPolyline
 62
250
  6
CONTINUOUS
 90
34
 70
0
 10
-17.8929233623
 20
19.8065215242
 10
-17.9206701669
 20
19.773744072
 10
-17.9436250385
 20
19.7394491848
 10
-17.9612639245
 20
19.7044205647
 10
-17.9734638264
 20
19.6686413199
 10
-17.9803477426
 20
19.6321283421
 10
-17.9817606164
 20
19.595716009
 10
-17.977577162
 20
19.5594081045
 10
-17.9679226652
 20
19.5232008447
 10
-17.9530179265
 20
19.4879172556
 10
-17.9327432806
 20
19.4535779562
 10
-17.9072183929
 20
19.4201623276
 10
-17.8770230589
 20
19.388431539
 10
-17.8420457439
 20
19.3584224028
 10
-17.8023979827
 20
19.3300981067
 10
-17.7589941758
 20
19.3041093824
 10
-17.7117617844
 20
19.2805144197
 10
-17.6607733473
 20
19.2592550289
 10
-17.6071608816
 20
19.2408073731
 10
-17.550798122
 20
19.2252307248
 10
-17.4918113339
 20
19.2124658116
 10
-17.4317113299
 20
19.20281098
 10
-17.370071405
 20
19.1964413976
 10
-17.3073182643
 20
19.1931818969
 10
-17.2462428359
 20
19.1928053215
 10
-17.1878333868
 20
19.1953643618
 10
-17.1311016501
 20
19.2008063275
 10
-17.0758737532
 20
19.2087459914
 10
-17.0222521568
 20
19.2189174758
 10
-16.9701344002
 20
19.2315866584
 10
-16.9190392288
 20
19.2471659456
 10
-16.8688062243
 20
19.2657928062
 10
-16.8195958051
 20
19.2873297713
 10
-16.7714079709
 20
19.311776841
  0
LWPOLYLINE
  5
278
100
AcDbEntity
  8
ASSI
100
AcDbPolyline
 62
250
  6
CONTINUOUS
 90
4
 70
0
 10
-17.781455404
 20
19.8949655699
 10
-17.823403323
 20
19.8670016562
 10
-17.8605593091
 20
19.8375203077
 10
-17.8929233623
 20
19.8065215242
  0
LWPOLYLINE
  5
279
100
AcDbEntity
  8
ASSI
100
AcDbPolyline
 62
7
  6
CONTINUOUS
 90
13
 70
0
 10
-17.9097961393
 20
19.9053589915
 10
-17.9481098348
 20
19.8806840436
 10
-17.9978985451
 20
19.8439549533
 10
-18.0434514759
 20
19.8045387323
 10
-18.0845672732
 20
19.7625404851
 10
-18.1210227493
 20
19.7180941133
 10
-18.1525946721
 20
19.6714167039
 10
-18.1791202352
 20
19.6226396653
 10
-18.2003248795
 20
19.5720970327
 10
-18.2159188347
 20
19.5205011799
 10
-18.2258672503
 20
19.4682960826
 10
-18.2301848398
 20
19.4159282311
 10
-18.2303920532
 20
19.4017928074
  0
LINE
  5
27A
100
AcDbEntity
  8
ASSI
100
AcDbLine
 62
7
  6
CONTINUOUS
 10
-16.4836079552
 20
20.7727065085
 11
-17.9098156538
 21
19.9053471272
  0
LINE
  5
27B
100
AcDbEntity
  8
ASSI
100
AcDbLine
 62
250
  6
CONTINUOUS
 10
-16.3569609
 20
20.7612830585
 11
-17.781455404
 21
19.8949655699
  0
LWPOLYLINE
  5
27C
100
AcDbEntity
  8
ASSI
100
AcDbPolyline
 62
250
  6
CONTINUOUS
 90
7
 70
0
 10
-4.0336351686
 20
-26.7208505231
 10
-4.0610766248
 20
-26.7221132834
 10
-4.0894626668
 20
-26.7197886225
 10
-4.1187932945
 20
-26.7138765403
 10
-4.1490685079
 20
-26.7043770369
 10
-4.1802883071
 20
-26.6912901122
 10
-4.2124526921
 20
-26.6746157662
  0
LWPOLYLINE
  5
27D
100
AcDbEntity
  8
ASSI
100
AcDbPolyline
 62
7
  6
CONTINUOUS
 90
9
 70
0
 10
-4.2366721822
 20
-26.5728800748
 10
-4.2356127968
 20
-26.5731992886
 10
-4.2319847899
 20
-26.5741135322
 10
-4.231299625
 20
-26.5742428706
 10
-4.2333517664
 20
-26.574164539
 10
-4.2377489288
 20
-26.5744117903
 10
-4.2441226334
 20
-26.5754369793
 10
-4.2521748618
 20
-26.5776620706
 10
-4.253275409
 20
-26.5780427669
  0
LWPOLYLINE
  5
27E
100
AcDbEntity
  8
ASSI
100
AcDbPolyline
 62
7
  6
CONTINUOUS
 90
11
 70
0
 10
-6.9984708546
 20
-27.3524560502
 10
-6.9595866854
 20
-27.37281354
 10
-6.9145448388
 20
-27.3914273037
 10
-6.8670088812
 20
-27.4059793339
 10
-6.8173273687
 20
-27.4161774845
 10
-6.766042196
 20
-27.4218048874
 10
-6.7134547814
 20
-27.4227716886
 10
-6.6597608668
 20
-27.4190108753
 10
-6.6053051746
 20
-27.4105112601
 10
-6.5503411612
 20
-27.3973022617
 10
-6.5006113611
 20
-27.3814010319
  0
LINE
  5
27F
100
AcDbEntity
  8
ASSI
100
AcDbLine
 62
250
  6
CONTINUOUS
 10
-7.2068863878
 20
-26.9255251786
 11
-24.1199798995
 21
-17.1601169558
  0
LINE
  5
280
100
AcDbEntity
  8
ASSI
100
AcDbLine
 62
7
  6
CONTINUOUS
 10
-5.0291815044
 20
-26.8554073116
 11
-4.5670777172
 21
-27.1222202468
  0
LINE
  5
281
100
AcDbEntity
  8
ASSI
100
AcDbLine
 62
250
  6
CONTINUOUS
 10
-4.8031312263
 20
-26.774600859
 11
-4.2103583679
 21
-27.1168604783
  0
LINE
  5
282
100
AcDbEntity
  8
ASSI
100
AcDbLine
 62
7
  6
CONTINUOUS
 10
-6.9976505321
 20
-27.3529333667
 11
-23.9163148436
 21
-17.5843085727
  0
LWPOLYLINE
  5
283
100
AcDbEntity
  8
ASSI
100
AcDbPolyline
 62
250
  6
CONTINUOUS
 90
12
 70
0
 10
-23.9163148436
 20
-17.5843085727
 10
-23.933818347
 20
-17.5734343872
 10
-23.9677660041
 20
-17.5474970396
 10
-23.9971608652
 20
-17.5186350637
 10
-24.0227399211
 20
-17.4870792204
 10
-24.0454021025
 20
-17.4522098621
 10
-24.0650018439
 20
-17.41446487
 10
-24.0816398008
 20
-17.3739063106
 10
-24.0959108088
 20
-17.3285685778
 10
-24.1075052071
 20
-17.2775229774
 10
-24.1156907172
 20
-17.2213763231
 10
-24.1199798995
 20
-17.1601169558
  0
LWPOLYLINE
  5
284
100
AcDbEntity
  8
ASSI
100
AcDbPolyline
 62
250
  6
CONTINUOUS
 90
7
 70
0
 10
-24.1931938421
 20
-17.0586465301
 10
-24.1908514567
 20
-17.0762334067
 10
-24.1843248308
 20
-17.0951047469
 10
-24.1737658233
 20
-17.11322262
 10
-24.1593511181
 20
-17.1302838598
 10
-24.1413219161
 20
-17.146002981
 10
-24.1199798995
 20
-17.1601169558
  0
LWPOLYLINE
  5
285
100
AcDbEntity
  8
ASSI
100
AcDbPolyline
 62
7
  6
CONTINUOUS
 90
13
 70
0
 10
-24.1931938421
 20
-17.0586465301
 10
-24.1887222534
 20
-17.1224246676
 10
-24.1795981438
 20
-17.1848770272
 10
-24.166112504
 20
-17.2437958794
 10
-24.1485092311
 20
-17.2989560285
 10
-24.1269882125
 20
-17.350412578
 10
-24.101638287
 20
-17.3983194135
 10
-24.0726449393
 20
-17.4425233005
 10
-24.0402535952
 20
-17.4828408288
 10
-24.0046245167
 20
-17.5192008142
 10
-23.9660527568
 20
-17.551386527
 10
-23.9248826814
 20
-17.5792289855
 10
-23.916316405
 20
-17.5842955489
  0
LWPOLYLINE
  5
286
100
AcDbEntity
  8
ASSI
100
AcDbPolyline
 62
250
  6
CONTINUOUS
 90
16
 70
0
 10
-24.1199798995
 20
-17.1601169558
 10
-24.1684960331
 20
-15.659224597
 10
-24.2114714154
 20
-14.1470908518
 10
-24.2488166191
 20
-12.6236909653
 10
-24.2800395909
 20
-11.1100499945
 10
-24.3056172454
 20
-9.585194316
 10
-24.326171673
 20
-7.9856574651
 10
-24.3409587825
 20
-6.2910537814
 10
-24.348780509
 20
-4.5206955253
 10
-24.3487277158
 20
-2.6701692365
 10
-24.3397578508
 20
-0.7398190955
 10
-24.3207902797
 20
1.2718059484
 10
-24.2906459179
 20
3.3719137442
 10
-24.2480197761
 20
5.5633599335
 10
-24.19158998
 20
7.8445846649
 10
-24.1199798995
 20
10.2162412453
  0
LWPOLYLINE
  5
287
100
AcDbEntity
  8
ASSI
100
AcDbPolyline
 62
250
  6
CONTINUOUS
 90
8
 70
0
 10
-24.1932101563
 20
10.3182564589
 10
-24.1932365245
 20
10.314621157
 10
-24.1908519273
 20
10.2967004283
 10
-24.1843256179
 20
10.2790051189
 10
-24.1737667546
 20
10.2618313803
 10
-24.1593519904
 20
10.2454666111
 10
-24.1413224848
 20
10.2301846516
 10
-24.1199798982
 20
10.2162412418
  0
LWPOLYLINE
  5
288
100
AcDbEntity
  8
ASSI
100
AcDbPolyline
 62
7
  6
CONTINUOUS
 90
10
 70
0
 10
-24.1932053447
 20
10.3184070665
 10
-24.2827793058
 20
7.2704889866
 10
-24.351485622
 20
4.1738457707
 10
-24.3972861979
 20
1.090288984
 10
-24.4201772274
 20
-1.979937957
 10
-24.420156855
 20
-5.0366104673
 10
-24.3972248998
 20
-8.0794959151
 10
-24.351382376
 20
-11.1083573342
 10
-24.2826321583
 20
-14.1229675672
 10
-24.1931940213
 20
-17.0586413059
  0
LWPOLYLINE
  5
289
100
AcDbEntity
  8
ASSI
100
AcDbPolyline
 62
250
  6
CONTINUOUS
 90
17
 70
0
 10
-24.1199798981
 20
10.2162412444
 10
-24.1152199368
 20
10.287373731
 10
-24.1056908428
 20
10.3599706322
 10
-24.0915998909
 20
10.4334765815
 10
-24.0731412314
 20
10.507514079
 10
-24.0505924209
 20
10.5814113747
 10
-24.0244009146
 20
10.6541988505
 10
-23.9948220651
 20
10.7256791548
 10
-23.9623086901
 20
10.7951863775
 10
-23.9278660215
 20
10.8611639293
 10
-23.8926172023
 20
10.9223702615
 10
-23.8564968505
 20
10.979732292
 10
-23.8186403107
 20
11.0349499308
 10
-23.7794664589
 20
11.0875423569
 10
-23.7390018909
 20
11.137611146
 10
-23.6953653171
 20
11.1872596924
 10
-23.6478782512
 20
11.2366350155
  0
LWPOLYLINE
  5
28A
100
AcDbEntity
  8
ASSI
100
AcDbPolyline
 62
7
  6
CONTINUOUS
 90
8
 70
0
 10
-21.4783389324
 20
13.1279466377
 10
-21.4634979812
 20
13.1603319561
 10
-21.449981696
 20
13.1922034318
 10
-21.4377522605
 20
13.2234950441
 10
-21.4270689366
 20
13.2539812524
 10
-21.4179762545
 20
13.2837204882
 10
-21.4104296841
 20
13.3126543199
 10
-21.4097123715
 20
13.3160398639
  0
LINE
  5
28B
100
AcDbEntity
  8
ASSI
100
AcDbLine
 62
7
  6
CONTINUOUS
 10
-21.492425167
 20
13.0990685631
 11
-21.4783389324
 21
13.1279466377
  0
LINE
  5
28C
100
AcDbEntity
  8
ASSI
100
AcDbLine
 62
7
  6
CONTINUOUS
 10
-21.4938001343
 20
13.0966011738
 11
-21.4923602766
 21
13.09904374
  0
LINE
  5
28D
100
AcDbEntity
  8
ASSI
100
AcDbLine
 62
7
  6
CONTINUOUS
 10
-21.4956869184
 20
13.0939305497
 11
-21.4938001343
 21
13.0966011738
  0
LWPOLYLINE
  5
28E
100
AcDbEntity
  8
ASSI
100
AcDbPolyline
 62
250
  6
CONTINUOUS
 90
5
 70
0
 10
-15.572121678
 20
16.8503326063
 10
-15.5528235619
 20
16.8714786132
 10
-15.5294374367
 20
16.8926530738
 10
-15.5022650111
 20
16.9136735708
 10
-15.4713062849
 20
16.9345401042
  0
LWPOLYLINE
  5
28F
100
AcDbEntity
  8
ASSI
100
AcDbPolyline
 62
250
  6
CONTINUOUS
 90
3
 70
0
 10
-23.6478782512
 20
11.2366350155
 10
-23.597319031
 20
11.284302785
 10
-23.5438535841
 20
11.3295732617
  0
LWPOLYLINE
  5
290
100
AcDbEntity
  8
ASSI
100
AcDbPolyline
 62
7
  6
CONTINUOUS
 90
4
 70
0
 10
-21.5069998171
 20
13.082424205
 10
-21.5037764993
 20
13.0851881336
 10
-21.4974440023
 20
13.0917344325
 10
-21.4956869184
 20
13.0939305497
  0
LWPOLYLINE
  5
291
100
AcDbEntity
  8
ASSI
100
AcDbPolyline
 62
250
  6
CONTINUOUS
 90
8
 70
0
 10
-21.364349008
 20
13.0843304957
 10
-21.3443458313
 20
13.1013541533
 10
-21.3250282868
 20
13.1206263122
 10
-21.3066576113
 20
13.1418863495
 10
-21.2894822365
 20
13.1648467596
 10
-21.27373443
 20
13.1891970424
 10
-21.2596271539
 20
13.2146079021
 10
-21.2541667084
 20
13.2262297475
  0
LWPOLYLINE
  5
292
100
AcDbEntity
  8
ASSI
100
AcDbPolyline
 62
7
  6
CONTINUOUS
 90
16
 70
0
 10
-23.6698090263
 20
11.3411138307
 10
-23.6816429462
 20
11.3314576024
 10
-23.7441360128
 20
11.2760028024
 10
-23.8038459005
 20
11.2155076249
 10
-23.8604322037
 20
11.1504930166
 10
-23.9136382523
 20
11.081423129
 10
-23.9631639229
 20
11.0088018475
 10
-24.0087301961
 20
10.9331119931
 10
-24.0500170489
 20
10.8548630125
 10
-24.0866730841
 20
10.7747088421
 10
-24.1184114939
 20
10.6931899506
 10
-24.1449610962
 20
10.610800728
 10
-24.1660524168
 20
10.5280495086
 10
-24.1814024916
 20
10.4453758571
 10
-24.1907399847
 20
10.3633149199
 10
-24.1932101563
 20
10.3182564589
  0
LINE
  5
293
100
AcDbEntity
  8
ASSI
100
AcDbLine
 62
250
  6
CONTINUOUS
 10
-23.5438535841
 20
11.3295732617
 11
-21.364349008
 21
13.0843304957
  0
LINE
  5
294
100
AcDbEntity
  8
ASSI
100
AcDbLine
 62
7
  6
CONTINUOUS
 10
-23.6699372766
 20
11.3410108779
 11
-21.5069773795
 21
13.0824473616
  0
LWPOLYLINE
  5
295
100
AcDbEntity
  8
ASSI
100
AcDbPolyline
 62
250
  6
CONTINUOUS
 90
5
 70
0
 10
-21.5069773795
 20
13.0824473616
 10
-21.4958404615
 20
13.090356784
 10
-21.4830373412
 20
13.0972211587
 10
-21.4695547761
 20
13.1022726909
 10
-21.4555091516
 20
13.1054492679
  0
LWPOLYLINE
  5
296
100
AcDbEntity
  8
ASSI
100
AcDbPolyline
 62
250
  6
CONTINUOUS
 90
16
 70
0
 10
-21.3955169725
 20
16.4288764165
 10
-21.4138838395
 20
16.4169806997
 10
-21.4320349913
 20
16.403012004
 10
-21.449773761
 20
16.3871216783
 10
-21.4669079527
 20
16.3694818892
 10
-21.4832519148
 20
16.3502837647
 10
-21.4986285532
 20
16.329735326
 10
-21.5128712623
 20
16.308059218
 10
-21.5258257263
 20
16.2854902987
 10
-21.5373515842
 20
16.2622731057
 10
-21.5473239543
 20
16.238659202
 10
-21.5556347925
 20
16.2149044367
 10
-21.5621940576
 20
16.1912661764
 10
-21.5669306813
 20
16.1680005349
 10
-21.569793341
 20
16.1453595976
 10
-21.5707510197
 20
16.1235886768
  0
LINE
  5
297
100
AcDbEntity
  8
ASSI
100
AcDbLine
 62
7
  6
CONTINUOUS
 10
-18.2303940012
 20
18.4422155877
 11
-21.5238772292
 21
16.4392579696
  0
LINE
  5
298
100
AcDbEntity
  8
ASSI
100
AcDbLine
 62
250
  6
CONTINUOUS
 10
-18.2299188483
 20
18.3540597071
 11
-21.3955169725
 21
16.4288764165
  0
LINE
  5
299
100
AcDbEntity
  8
ASSI
100
AcDbLine
 62
250
  6
CONTINUOUS
 10
-16.7714079709
 20
19.311776841
 11
-15.2963007302
 21
20.1488711697
  0
LINE
  5
29A
100
AcDbEntity
  8
ASSI
100
AcDbLine
 62
250
  6
CONTINUOUS
 10
-16.5962007302
 20
19.0047233033
 11
-15.1195240339
 21
19.8427082672
  0
LINE
  5
29B
100
AcDbEntity
  8
ASSI
100
AcDbLine
 62
7
  6
CONTINUOUS
 10
-16.5962007302
 20
17.9406482499
 11
-10.7308828405
 21
21.2691007217
  0
LINE
  5
29C
100
AcDbEntity
  8
ASSI
100
AcDbLine
 62
7
  6
CONTINUOUS
 10
-15.3905676544
 20
20.2032997103
 11
-12.2688822915
 21
21.968169978
  0
LINE
  5
29D
100
AcDbEntity
  8
ASSI
100
AcDbLine
 62
7
  6
CONTINUOUS
 10
-9.3513729033
 20
22.0246208903
 11
-10.7308828405
 21
21.2691007217
  0
LWPOLYLINE
  5
29E
100
AcDbEntity
  8
ASSI
100
AcDbPolyline
 62
250
  6
CONTINUOUS
 90
7
 70
0
 10
-7.5173788072
 20
21.7137891036
 10
-7.5011191361
 20
21.7207179269
 10
-7.4819495261
 20
21.7244192358
 10
-7.4613037363
 20
21.7242024649
 10
-7.439535
 20
21.7200712809
 10
-7.4170157393
 20
21.7120963203
 10
-7.3941312394
 20
21.7004139851
  0
LINE
  5
29F
100
AcDbEntity
  8
IMPORT_IGES
100
AcDbLine
 62
250
  6
CONTINUOUS
 10
-11.8601683842
 20
-22.4574952322
 11
-9.6412673054
 21
-23.7386609058
  0
LINE
  5
2A0
100
AcDbEntity
  8
IMPORT_IGES
100
AcDbLine
 62
250
  6
CONTINUOUS
 10
-14.2334208102
 20
-21.0872090253
 11
-14.5970757046
 21
-20.877239247
  0
LINE
  5
2A1
100
AcDbEntity
  8
ASSI
100
AcDbLine
 62
250
  6
CONTINUOUS
 10
-4.3702731623
 20
-26.6198665895
 11
-4.0336350546
 21
-26.8142372138
  0
LINE
  5
2A2
100
AcDbEntity
  8
ASSI
100
AcDbLine
 62
250
  6
CONTINUOUS
 10
-4.2124526921
 20
-26.6746157662
 11
-4.3313641934
 21
-26.6059577557
  0
LINE
  5
2A3
100
AcDbEntity
  8
IMPORT_IGES
100
AcDbLine
 62
250
  6
CONTINUOUS
 10
-10.0814437503
 20
-22.9952892747
 11
-11.4454478664
 21
-22.2077303931
  0
LINE
  5
2A4
100
AcDbEntity
  8
IMPORT_IGES
100
AcDbLine
 62
250
  6
CONTINUOUS
 10
-14.621022687
 20
-20.051267898
 11
-14.2573677927
 21
-20.2612376763
  0
LINE
  5
2A5
100
AcDbEntity
  8
IMPORT_IGES
100
AcDbLine
 62
250
  6
CONTINUOUS
 10
-11.4655548663
 20
-21.4850203004
 11
-10.1015507502
 21
-22.2725791821
  0
LINE
  5
2A6
100
AcDbEntity
  8
IMPORT_IGES
100
AcDbLine
 62
250
  6
CONTINUOUS
 10
-14.0923436747
 20
-19.7460761355
 11
-14.6378260162
 21
-19.431121468
  0
LWPOLYLINE
  5
2A7
100
AcDbEntity
  8
ASSI
100
AcDbPolyline
 62
7
  6
CONTINUOUS
 90
16
 70
0
 10
-4.2103583679
 20
-26.4631230633
 10
-4.1899997966
 20
-26.4751822924
 10
-4.1705878153
 20
-26.4877635062
 10
-4.1521224243
 20
-26.5008667047
 10
-4.1344749601
 20
-26.5143550255
 10
-4.1177740861
 20
-26.528365331
 10
-4.1024057916
 20
-26.5433082084
 10
-4.0884092511
 20
-26.5592941364
 10
-4.0757452902
 20
-26.5762126362
 10
-4.0646823748
 20
-26.5941428592
 10
-4.0552666128
 20
-26.6131955655
 10
-4.0474518964
 20
-26.6332599948
 10
-4.0413683684
 20
-26.6540830174
 10
-4.0370594095
 20
-26.6755802566
 10
-4.0344816389
 20
-26.6978360892
 10
-4.0336350566
 20
-26.7208505149
  0
LWPOLYLINE
  5
2A8
100
AcDbEntity
  8
ASSI
100
AcDbPolyline
 62
250
  6
CONTINUOUS
 90
8
 70
0
 10
-21.6434814281
 20
-19.9260706004
 10
-21.6405149865
 20
-19.940940776
 10
-21.6348870917
 20
-19.9555751454
 10
-21.6266606586
 20
-19.9697938917
 10
-21.6159721493
 20
-19.983390242
 10
-21.6029841364
 20
-19.996209599
 10
-21.5878489143
 20
-20.0081441893
 10
-21.5707510197
 20
-20.0190795037
  0
LINE
  5
2A9
100
AcDbEntity
  8
ASSI
100
AcDbLine
 62
250
  6
CONTINUOUS
 10
-21.6439743244
 20
-19.9170108553
 11
-21.6434814281
 21
-19.9260706004
  0
LINE
  5
2AA
100
AcDbEntity
  8
ASSI
100
AcDbLine
 62
7
  6
CONTINUOUS
 10
-21.6439743244
 20
16.2256573251
 11
-21.6439743244
 21
13.5100466645
  0
LINE
  5
2AB
100
AcDbEntity
  8
ASSI
100
AcDbLine
 62
7
  6
CONTINUOUS
 10
-21.6439743244
 20
-19.9170108553
 11
-21.6439743244
 21
-18.8963295706
  0
LINE
  5
2AC
100
AcDbEntity
  8
ASSI
100
AcDbLine
 62
250
  6
CONTINUOUS
 10
-21.5707510197
 20
16.1235886768
 11
-21.5707510197
 21
13.4090215611
  0
LINE
  5
2AD
100
AcDbEntity
  8
ASSI
100
AcDbLine
 62
250
  6
CONTINUOUS
 10
-21.5707510197
 20
-20.0190795037
 11
-21.5707510197
 21
-18.938607789
  0
LWPOLYLINE
  5
2AE
100
AcDbEntity
  8
ASSI
100
AcDbPolyline
 62
250
  6
CONTINUOUS
 90
8
 70
0
 10
-23.6698090263
 20
11.3411138307
 10
-23.6618001001
 20
11.3464878218
 10
-23.6467740359
 20
11.3524410133
 10
-23.6294705414
 20
11.3548803241
 10
-23.610184545
 20
11.3537641772
 10
-23.5892447651
 20
11.3491115967
 10
-23.5670081079
 20
11.3410018831
 10
-23.5438535841
 20
11.3295732617
  0
LWPOLYLINE
  5
2AF
100
AcDbEntity
  8
ASSI
100
AcDbPolyline
 62
7
  6
CONTINUOUS
 90
12
 70
0
 10
-15.5980304961
 20
16.9459080879
 10
-15.6379744621
 20
16.9202106008
 10
-15.681271523
 20
16.8876037619
 10
-15.7204601579
 20
16.8525922126
 10
-15.7553779227
 20
16.8153561605
 10
-15.7859364284
 20
16.776043474
 10
-15.8120293077
 20
16.734837
 10
-15.8335269255
 20
16.6919448297
 10
-15.8502701641
 20
16.6477156947
 10
-15.8621151712
 20
16.6027061924
 10
-15.8690452428
 20
16.5573829957
 10
-15.8711311401
 20
16.5153052353
  0
LINE
  5
2B0
100
AcDbEntity
  8
ASSI
100
AcDbLine
 62
7
  6
CONTINUOUS
 10
-15.5980274942
 20
16.9459098823
 11
-13.180668696
 21
18.3908113124
  0
LINE
  5
2B1
100
AcDbEntity
  8
ASSI
100
AcDbLine
 62
7
  6
CONTINUOUS
 10
-12.3170613064
 20
18.9070059101
 11
-9.0572914547
 21
20.8554324839
  0
LINE
  5
2B2
100
AcDbEntity
  8
ASSI
100
AcDbLine
 62
250
  6
CONTINUOUS
 10
-15.4713062849
 20
16.9345401042
 11
-13.2794639446
 21
18.2446460556
  0
LINE
  5
2B3
100
AcDbEntity
  8
ASSI
100
AcDbLine
 62
250
  6
CONTINUOUS
 10
-12.0968038188
 20
18.9515451912
 11
-8.9323374526
 21
20.8429958634
  0
LINE
  5
2B4
100
AcDbEntity
  8
ASSI
100
AcDbLine
 62
7
  6
CONTINUOUS
 10
-6.3330969857
 20
21.0877861049
 11
-7.5466544763
 21
20.3746431494
  0
LINE
  5
2B5
100
AcDbEntity
  8
ASSI
100
AcDbLine
 62
7
  6
CONTINUOUS
 10
-9.0572710698
 20
20.8553977791
 11
-9.0550899602
 21
20.8566571213
  0
LINE
  5
2B6
100
AcDbEntity
  8
0
100
AcDbLine
 62
7
  6
CONTINUOUS
 10
-12.9274930122
 20
18.6177546433
 11
-12.5639248796
 21
18.8276743265
  0
LINE
  5
2B7
100
AcDbEntity
  8
ASSI
100
AcDbLine
 62
250
  6
CONTINUOUS
 10
-8.0131188368
 20
20.3122505551
 11
-9.4775873376
 21
19.4811890194
  0
LINE
  5
2B8
100
AcDbEntity
  8
ASSI
100
AcDbLine
 62
250
  6
CONTINUOUS
 10
-13.1840502903
 20
17.3778328927
 11
-14.7280845649
 21
16.5016191027
  0
LINE
  5
2B9
100
AcDbEntity
  8
ASSI
100
AcDbLine
 62
250
  6
CONTINUOUS
 10
-7.8363241877
 20
20.0060772869
 11
-8.3647090847
 21
19.7062292566
  0
LINE
  5
2BA
100
AcDbEntity
  8
ASSI
100
AcDbLine
 62
250
  6
CONTINUOUS
 10
-12.8290006248
 20
17.1728316657
 11
-14.5528773242
 21
16.194565565
  0
LINE
  5
2BB
100
AcDbEntity
  8
ASSI
100
AcDbLine
 62
7
  6
CONTINUOUS
 10
-10.4509423296
 20
18.1140744936
 11
-10.6336483206
 21
18.0103924394
  0
LINE
  5
2BC
100
AcDbEntity
  8
ASSI
100
AcDbLine
 62
7
  6
CONTINUOUS
 10
-12.4724018466
 20
16.9669360004
 11
-14.5528773242
 21
15.786307111
  0
LINE
  5
2BD
100
AcDbEntity
  8
ASSI
100
AcDbLine
 62
7
  6
CONTINUOUS
 10
-9.0550899602
 20
20.8566571213
 11
-7.5173935565
 21
21.7137808842
  0
LINE
  5
2BE
100
AcDbEntity
  8
ASSI
100
AcDbLine
 62
250
  6
CONTINUOUS
 10
-8.9323374456
 20
20.8429958593
 11
-7.3941312394
 21
21.7004139851
  0
LWPOLYLINE
  5
2BF
100
AcDbEntity
  8
0
100
AcDbPolyline
 62
7
  6
CONTINUOUS
 90
10
 70
0
 10
-12.5639248796
 20
18.8276743265
 10
-12.5466155783
 20
18.8373168113
 10
-12.5293692618
 20
18.846230986
 10
-12.51218593
 20
18.8544168508
 10
-12.4950448181
 20
18.8618825975
 10
-12.4779666909
 20
18.8686200341
 10
-12.4610138431
 20
18.874604585
 10
-12.4442070397
 20
18.8798280584
 10
-12.4275255157
 20
18.8842986461
 10
-12.4109692711
 20
18.8880163481
  0
LINE
  5
2C0
100
AcDbEntity
  8
RACCORDO
100
AcDbLine
 62
7
  6
CONTINUOUS
 10
9.9910792456
 20
29.941417765
 11
-6.0151617046
 21
21.1525799864
  0
LINE
  5
2C1
100
AcDbEntity
  8
RACCORDO
100
AcDbLine
 62
250
  6
CONTINUOUS
 10
10.4847876088
 20
29.8883702717
 11
-5.8334544309
 21
20.9282163814
  0
LWPOLYLINE
  5
2C2
100
AcDbEntity
  8
ASSI
100
AcDbPolyline
 62
250
  6
CONTINUOUS
 90
10
 70
0
 10
-7.3941312394
 20
21.7004139851
 10
-7.3527676798
 20
21.7217586932
 10
-7.3121949583
 20
21.7390752309
 10
-7.2726354759
 20
21.7524049464
 10
-7.2344517502
 20
21.7617834906
 10
-7.1976562954
 20
21.7673683533
 10
-7.1619541657
 20
21.7692769695
 10
-7.1274017455
 20
21.7674864063
 10
-7.094328907
 20
21.7619932809
 10
-7.062883477
 20
21.7528192822
  0
LWPOLYLINE
  5
2C3
100
AcDbEntity
  8
ASSI
100
AcDbPolyline
 62
250
  6
CONTINUOUS
 90
28
 70
0
 10
-14.5528773242
 20
16.1945656038
 10
-14.6060636297
 20
16.167156661
 10
-14.6629036094
 20
16.1428169344
 10
-14.7228560805
 20
16.1216836974
 10
-14.7852067449
 20
16.1039018412
 10
-14.849554833
 20
16.0894891967
 10
-14.9158744078
 20
16.0784227636
 10
-14.9838553604
 20
16.0707791954
 10
-15.0527663632
 20
16.0666647792
 10
-15.1219771398
 20
16.0661246635
 10
-15.1909022674
 20
16.0691559687
 10
-15.2590351917
 20
16.0757280239
 10
-15.325864636
 20
16.085793351
 10
-15.390873401
 20
16.0992752875
 10
-15.4535352785
 20
16.1160650024
 10
-15.5133465353
 20
16.136029603
 10
-15.5698304787
 20
16.1590089961
 10
-15.6225459485
 20
16.1848215361
 10
-15.671081631
 20
16.2132663959
 10
-15.7150577132
 20
16.2441234824
 10
-15.7541200373
 20
16.2771458095
 10
-15.7879516862
 20
16.3120635128
 10
-15.8163712509
 20
16.3487232578
 10
-15.8390362423
 20
16.3867213291
 10
-15.8556318085
 20
16.42535752
 10
-15.8662367097
 20
16.4644479252
 10
-15.8708830363
 20
16.5035400575
 10
-15.8711360065
 20
16.5150606323
  0
LWPOLYLINE
  5
2C4
100
AcDbEntity
  8
ASSI
100
AcDbPolyline
 62
250
  6
CONTINUOUS
 90
33
 70
0
 10
-14.7280845649
 20
16.5016191027
 10
-14.7647975508
 20
16.4827880685
 10
-14.8032477663
 20
16.4661939223
 10
-14.8434352115
 20
16.4518366641
 10
-14.8856100994
 20
16.4396820576
 10
-14.929522217
 20
16.4297643391
 10
-14.9744209249
 20
16.4221862174
 10
-15.0204405514
 20
16.4169560137
 10
-15.0674467683
 20
16.4140654068
 10
-15.1142859519
 20
16.4135921422
 10
-15.1609302216
 20
16.4155968245
 10
-15.2074074581
 20
16.4200188492
 10
-15.2526476798
 20
16.426754148
 10
-15.2966295439
 20
16.4358573957
 10
-15.3393743932
 20
16.4472739176
 10
-15.379876274
 20
16.4607356202
 10
-15.4180793141
 20
16.4762898049
 10
-15.4540393858
 20
16.4938891705
 10
-15.4869181515
 20
16.5131237198
 10
-15.5166454035
 20
16.534034478
 10
-15.5432913496
 20
16.5565804199
 10
-15.5662282763
 20
16.5802284739
 10
-15.5853554966
 20
16.6050943441
 10
-15.6007736974
 20
16.6310623264
 10
-15.6121572266
 20
16.6572522363
 10
-15.6192054908
 20
16.6837506925
 10
-15.6222190834
 20
16.7104710764
 10
-15.6217741312
 20
16.7362733481
 10
-15.6178702203
 20
16.7607051953
 10
-15.6105077647
 20
16.7842189303
 10
-15.6002641341
 20
16.80703145
 10
-15.5876334935
 20
16.8290326358
 10
-15.572121678
 20
16.8503326063
  0
LWPOLYLINE
  5
2C5
100
AcDbEntity
  8
ASSI
100
AcDbPolyline
 62
250
  6
CONTINUOUS
 90
7
 70
0
 10
-15.5980274942
 20
16.9459098823
 10
-15.5795328123
 20
16.9541283789
 10
-15.5602519565
 20
16.9578935544
 10
-15.5394229704
 20
16.9577823862
 10
-15.5174022092
 20
16.9537967763
 10
-15.4945664177
 20
16.946004913
 10
-15.4713062849
 20
16.9345401042
  0
LWPOLYLINE
  5
2C6
100
AcDbEntity
  8
ASSI
100
AcDbPolyline
 62
7
  6
CONTINUOUS
 90
7
 70
0
 10
-9.0550899602
 20
20.8566571213
 10
-9.0388125082
 20
20.8635950983
 10
-9.019641587
 20
20.8672958533
 10
-8.9989944924
 20
20.8670781235
 10
-8.9772245133
 20
20.8629456342
 10
-8.9547041522
 20
20.8549690959
 10
-8.9318187511
 20
20.8432849936
  0
LINE
  5
2C7
100
AcDbEntity
  8
ASSI
100
AcDbLine
 62
7
  6
CONTINUOUS
 10
5.2229366466
 20
-22.2598446227
 11
1.0025105771
 21
-22.6554645476
  0
LINE
  5
2C8
100
AcDbEntity
  8
ASSI
100
AcDbLine
 62
7
  6
CONTINUOUS
 10
1.0025105771
 20
-22.162486066
 11
4.5678978618
 21
-21.881633438
  0
LINE
  5
2C9
100
AcDbEntity
  8
CURVE
100
AcDbLine
 62
250
  6
CONTINUOUS
 10
-0.1845808932
 20
-21.6961102166
 11
-0.5751391026
 21
-21.6922629857
  0
LINE
  5
2CA
100
AcDbEntity
  8
CURVE
100
AcDbLine
 62
250
  6
CONTINUOUS
 10
-0.5751391026
 20
-20.6950029676
 11
-0.8680578004
 21
-20.6367141378
  0
LINE
  5
2CB
100
AcDbEntity
  8
IMPORT_IGES
100
AcDbLine
 62
250
  6
CONTINUOUS
 10
-9.7475623776
 20
-19.3783635024
 11
-11.9664634563
 21
-18.0971978289
  0
LINE
  5
2CC
100
AcDbEntity
  8
IMPORT_IGES
100
AcDbLine
 62
250
  6
CONTINUOUS
 10
-11.2238308149
 20
-18.1145353317
 11
-10.5053143108
 21
-18.529397756
  0
LWPOLYLINE
  5
2CD
100
AcDbEntity
  8
ASSI
100
AcDbPolyline
 62
250
  6
CONTINUOUS
 90
25
 70
0
 10
-16.6704780447
 20
-13.6610173909
 10
-16.7569635118
 20
-13.6073671619
 10
-16.8415085385
 20
-13.5490870611
 10
-16.9241127037
 20
-13.4861768374
 10
-17.004717511
 20
-13.4185887408
 10
-17.0833798356
 20
-13.346369555
 10
-17.16027198
 20
-13.2696606304
 10
-17.235789548
 20
-13.1881242054
 10
-17.3095339229
 20
-13.1020962471
 10
-17.3804859636
 20
-13.0127286334
 10
-17.4485727788
 20
-12.9199974941
 10
-17.5138633511
 20
-12.8239243742
 10
-17.5755515966
 20
-12.7257294214
 10
-17.6333823844
 20
-12.6259898747
 10
-17.687606817
 20
-12.5241261036
 10
-17.738178004
 20
-12.419622859
 10
-17.7854971805
 20
-12.3117788945
 10
-17.8291572371
 20
-12.2012919748
 10
-17.8678987765
 20
-12.0897453768
 10
-17.9016587654
 20
-11.9767374689
 10
-17.9304945793
 20
-11.8626665393
 10
-17.9533294407
 20
-11.750316937
 10
-17.9698042695
 20
-11.6406166928
 10
-17.9802758868
 20
-11.532636455
 10
-17.9847429495
 20
-11.4263754379
  0
LWPOLYLINE
  5
2CE
100
AcDbEntity
  8
ASSI
100
AcDbPolyline
 62
250
  6
CONTINUOUS
 90
4
 70
0
 10
-4.245151657
 20
-26.5757213319
 10
-4.2415346131
 20
-26.5792428661
 10
-4.2312559624
 20
-26.5938647412
 10
-4.2231136313
 20
-26.6109589387
  0
LWPOLYLINE
  5
2CF
100
AcDbEntity
  8
ASSI
100
AcDbPolyline
 62
7
  6
CONTINUOUS
 90
18
 70
0
 10
-17.4926673324
 20
-4.3074336807
 10
-17.4922348526
 20
-4.312519867
 10
-17.4886478344
 20
-4.3359090305
 10
-17.4834259144
 20
-4.3597799119
 10
-17.4766018425
 20
-4.3839225016
 10
-17.4682443319
 20
-4.4080530914
 10
-17.4584432373
 20
-4.4319407086
 10
-17.4472686251
 20
-4.4554527454
 10
-17.4347847245
 20
-4.4784523024
 10
-17.4210774879
 20
-4.50077159
 10
-17.406256432
 20
-4.5222303863
 10
-17.3904256641
 20
-4.542676027
 10
-17.3736587157
 20
-4.56198869
 10
-17.3561189963
 20
-4.5799673005
 10
-17.3380649582
 20
-4.596373318
 10
-17.3196809
 20
-4.6110747963
 10
-17.3010634274
 20
-4.6240177487
 10
-17.2823485348
 20
-4.6351294812
  0
LWPOLYLINE
  5
2D0
100
AcDbEntity
  8
ASSI
100
AcDbPolyline
 62
250
  6
CONTINUOUS
 90
8
 70
0
 10
-18.8752109294
 20
0.0710167423
 10
-18.8739330041
 20
0.0397065033
 10
-18.8690384855
 20
0.0109521928
 10
-18.8606113409
 20
-0.0147528976
 10
-18.8487961414
 20
-0.0369677867
 10
-18.8337955815
 20
-0.055311369
 10
-18.8158670018
 20
-0.0694689531
 10
-18.8132008341
 20
-0.0710672265
  0
LWPOLYLINE
  5
2D1
100
AcDbEntity
  8
ASSI
100
AcDbPolyline
 62
250
  6
CONTINUOUS
 90
29
 70
0
 10
-18.2303940012
 20
19.4017311143
 10
-18.2301563597
 20
19.3892925125
 10
-18.2245681666
 20
19.3402491787
 10
-18.2116009662
 20
19.2917077378
 10
-18.1913542138
 20
19.244042149
 10
-18.1639831943
 20
19.1976178729
 10
-18.1296986173
 20
19.1527906672
 10
-18.0887624261
 20
19.1099064627
 10
-18.0414845122
 20
19.0692923433
 10
-17.9882313046
 20
19.0312637261
 10
-17.9294254272
 20
18.9961219425
 10
-17.8655397852
 20
18.9641449224
 10
-17.7970535621
 20
18.9355668515
 10
-17.7244530444
 20
18.9105915344
 10
-17.6482067284
 20
18.8893963203
 10
-17.5689772747
 20
18.8721792363
 10
-17.4875991129
 20
18.8591053813
 10
-17.4041508436
 20
18.8502048869
 10
-17.3198281168
 20
18.8456186218
 10
-17.2372197784
 20
18.8453039995
 10
-17.1581505068
 20
18.8488665317
 10
-17.0819013717
 20
18.8559480274
 10
-17.0072243944
 20
18.8664775876
 10
-16.9348346451
 20
18.8802772868
 10
-16.8648761728
 20
18.897244427
 10
-16.7955004344
 20
18.917953276
 10
-16.7266856587
 20
18.942818056
 10
-16.6599775675
 20
18.9717257228
 10
-16.5962007302
 20
19.0047233288
  0
LINE
  5
2D2
100
AcDbEntity
  8
ASSI
100
AcDbLine
 62
250
  6
CONTINUOUS
 10
-17.9847429495
 20
-11.4263754379
 11
-17.9880657305
 21
-11.1014115068
  0
LWPOLYLINE
  5
2D3
100
AcDbEntity
  8
ASSI
100
AcDbPolyline
 62
250
  6
CONTINUOUS
 90
3
 70
0
 10
-17.9880657305
 20
-11.1014115068
 10
-17.9911172644
 20
-10.7762929188
 10
-17.9918377654
 20
-10.6949891244
  0
LINE
  5
2D4
100
AcDbEntity
  8
ASSI
100
AcDbLine
 62
7
  6
CONTINUOUS
 10
-18.2303940012
 20
19.4017316253
 11
-18.2303940012
 21
18.3364282432
  0
LWPOLYLINE
  5
2D5
100
AcDbEntity
  8
ASSI
100
AcDbPolyline
 62
250
  6
CONTINUOUS
 90
10
 70
0
 10
-19.3552304714
 20
-5.0962400228
 10
-19.3529313855
 20
-4.5514738821
 10
-19.3498822346
 20
-4.006295146
 10
-19.3460830296
 20
-3.460705154
 10
-19.3415337912
 20
-2.9147061397
 10
-19.3362345284
 20
-2.3682985529
 10
-19.3301852268
 20
-1.8214810534
 10
-19.3233858822
 20
-1.2742540835
 10
-19.3158365128
 20
-0.7266198754
 10
-19.3075371296
 20
-0.1785797687
  0
LWPOLYLINE
  5
2D6
100
AcDbEntity
  8
ASSI
100
AcDbPolyline
 62
250
  6
CONTINUOUS
 90
10
 70
0
 10
-18.9347026379
 20
-5.0993440501
 10
-18.9324051259
 20
-4.5549602336
 10
-18.929358094
 20
-4.0101667971
 10
-18.9255615425
 20
-3.4649637405
 10
-18.9210154687
 20
-2.9193506179
 10
-18.9157198752
 20
-2.3733278753
 10
-18.9096747693
 20
-1.8268968503
 10
-18.9028801535
 20
-1.2800579889
 10
-18.8953360254
 20
-0.7328108451
 10
-18.8870423849
 20
-0.185155419
  0
LWPOLYLINE
  5
2D7
100
AcDbEntity
  8
ASSI
100
AcDbPolyline
 62
250
  6
CONTINUOUS
 90
25
 70
0
 10
-17.9918377654
 20
-10.6949891244
 10
-17.9894183182
 20
-10.5973568388
 10
-17.9818848292
 20
-10.5049738443
 10
-17.9692390147
 20
-10.4178411584
 10
-17.9514091202
 20
-10.3360682012
 10
-17.9284702397
 20
-10.2595475294
 10
-17.900644165
 20
-10.1879547487
 10
-17.8678406751
 20
-10.1208918565
 10
-17.8301526078
 20
-10.0587584024
 10
-17.7880768928
 20
-10.0024266409
 10
-17.7415592771
 20
-9.9520137222
 10
-17.6906579949
 20
-9.907404838
 10
-17.6360398286
 20
-9.8691249607
 10
-17.5780857992
 20
-9.8372410501
 10
-17.5164192917
 20
-9.8116887309
 10
-17.4505709692
 20
-9.7927961675
 10
-17.3801363192
 20
-9.7803425563
 10
-17.3055232789
 20
-9.7745507064
 10
-17.22748153
 20
-9.7764144015
 10
-17.1456315204
 20
-9.7862302259
 10
-17.06035629
 20
-9.8037036343
 10
-16.9735498526
 20
-9.8289419757
 10
-16.8858444051
 20
-9.8619815345
 10
-16.7966100084
 20
-9.9027873449
 10
-16.705847221
 20
-9.951359733
  0
LWPOLYLINE
  5
2D8
100
AcDbEntity
  8
ASSI
100
AcDbPolyline
 62
250
  6
CONTINUOUS
 90
13
 70
0
 10
-18.9324612775
 20
-5.8321468448
 10
-18.9306212162
 20
-5.7995243795
 10
-18.925274156
 20
-5.7654140225
 10
-18.9165092831
 20
-5.7303846325
 10
-18.9044727818
 20
-5.6950203934
 10
-18.8893653943
 20
-5.6599110643
 10
-18.8714390699
 20
-5.6256421444
 10
-18.8509927705
 20
-5.5927851239
 10
-18.8283674789
 20
-5.5618879406
 10
-18.8039405053
 20
-5.5334658373
 10
-18.7781192085
 20
-5.507992789
 10
-18.7513342049
 20
-5.4858935956
 10
-18.7240321774
 20
-5.4675367878
  0
LWPOLYLINE
  5
2D9
100
AcDbEntity
  8
ASSI
100
AcDbPolyline
 62
250
  6
CONTINUOUS
 90
9
 70
0
 10
-18.8870424078
 20
-0.1851554313
 10
-18.8857642196
 20
-0.1630881814
 10
-18.8826942006
 20
-0.1422251848
 10
-18.8778602954
 20
-0.1227373554
 10
-18.8712920595
 20
-0.1047606492
 10
-18.8630538048
 20
-0.0884670695
 10
-18.8532632
 20
-0.0740420364
 10
-18.8419330891
 20
-0.0614993415
 10
-18.8385114082
 20
-0.0586753741
  0
LWPOLYLINE
  5
2DA
100
AcDbEntity
  8
ASSI
100
AcDbPolyline
 62
250
  6
CONTINUOUS
 90
19
 70
0
 10
-19.3075371296
 20
-0.1785797687
 10
-19.3049053415
 20
-0.1339206605
 10
-19.2989106037
 20
-0.0923454937
 10
-19.2895532896
 20
-0.0538544768
 10
-19.2766597797
 20
-0.0181699116
 10
-19.2604043357
 20
0.0144301453
 10
-19.2413094809
 20
0.0431116715
 10
-19.2190457884
 20
0.06772469
 10
-19.193943949
 20
0.0884184745
 10
-19.1675172664
 20
0.1048075433
 10
-19.1401449811
 20
0.1165332106
 10
-19.1114494464
 20
0.1239532768
 10
-19.081808735
 20
0.1277569343
 10
-19.0517076684
 20
0.1283584028
 10
-19.0206622738
 20
0.1253429914
 10
-18.9875972416
 20
0.1181566329
 10
-18.9521542825
 20
0.1066145565
 10
-18.9146921357
 20
0.0909012833
 10
-18.8752109294
 20
0.0710167423
  0
LINE
  5
2DB
100
AcDbEntity
  8
ASSI
100
AcDbLine
 62
7
  6
CONTINUOUS
 10
-7.8829858796
 20
17.7407877108
 11
-9.0001513959
 21
17.0672317876
  0
LINE
  5
2DC
100
AcDbEntity
  8
ASSI
100
AcDbLine
 62
7
  6
CONTINUOUS
 10
-11.7454657113
 20
15.4120404207
 11
-11.9067859576
 21
15.3147780135
  0
LINE
  5
2DD
100
AcDbEntity
  8
ASSI
100
AcDbLine
 62
7
  6
CONTINUOUS
 10
-6.0008104078
 20
19.4820921582
 11
-6.28680783
 21
19.3155002155
  0
LINE
  5
2DE
100
AcDbEntity
  8
CURVE
100
AcDbLine
 62
250
  6
CONTINUOUS
 10
-0.2822204863
 20
-18.5371581816
 11
0.1083377638
 21
-18.4301986696
  0
LINE
  5
2DF
100
AcDbEntity
  8
CURVE
100
AcDbLine
 62
250
  6
CONTINUOUS
 10
-0.5751391026
 20
-18.2572558662
 11
-0.8680578004
 21
-18.1989672214
  0
LINE
  5
2E0
100
AcDbEntity
  8
CURVE
100
AcDbLine
 62
250
  6
CONTINUOUS
 10
-0.477499591
 20
-19.8649146982
 11
0.498896014
 21
-20.0961461237
  0
LINE
  5
2E1
100
AcDbEntity
  8
IMPORT_IGES
100
AcDbLine
 62
250
  6
CONTINUOUS
 10
-11.2439492748
 20
-15.2891429064
 11
-11.0756154289
 21
-15.3650981644
  0
LWPOLYLINE
  5
2E2
100
AcDbEntity
  8
ASSI
100
AcDbPolyline
 62
250
  6
CONTINUOUS
 90
13
 70
0
 10
-17.9847429495
 20
-11.4263754379
 10
-17.9555854889
 20
-11.4411301193
 10
-17.9233666224
 20
-11.4535393825
 10
-17.8886254595
 20
-11.4633955869
 10
-17.851943314
 20
-11.4705338114
 10
-17.8139339779
 20
-11.4748346142
 10
-17.7752334506
 20
-11.4762260311
 10
-17.7364892971
 20
-11.4746847799
 10
-17.6983498124
 20
-11.47023665
 10
-17.6614531736
 20
-11.4629560706
 10
-17.6264167617
 20
-11.4529648657
 10
-17.593826831
 20
-11.4404302151
 10
-17.5642286997
 20
-11.4255618577
  0
LINE
  5
2E3
100
AcDbEntity
  8
ASSI
100
AcDbLine
 62
250
  6
CONTINUOUS
 10
-11.9328626107
 20
-16.3964571662
 11
-16.6704780447
 21
-13.6610173909
  0
LINE
  5
2E4
100
AcDbEntity
  8
CURVE
100
AcDbLine
 62
250
  6
CONTINUOUS
 10
-0.8680578004
 20
-22.5204276852
 11
-0.477499591
 21
-22.7458883099
  0
LINE
  5
2E5
100
AcDbEntity
  8
ASSI
100
AcDbLine
 62
250
  6
CONTINUOUS
 10
-11.7244610517
 20
-16.0272268569
 11
-16.4620764857
 21
-13.2917870816
  0
LINE
  5
2E6
100
AcDbEntity
  8
CURVE
100
AcDbLine
 62
250
  6
CONTINUOUS
 10
-0.5751391026
 20
-21.6922629857
 11
-0.8680578004
 21
-21.5231676208
  0
LINE
  5
2E7
100
AcDbEntity
  8
IMPORT_IGES
100
AcDbLine
 62
7
  6
CONTINUOUS
 10
-15.7270062676
 20
-12.8068231207
 11
-11.2439492748
 21
-15.3952840424
  0
LINE
  5
2E8
100
AcDbEntity
  8
IMPORT_IGES
100
AcDbLine
 62
250
  6
CONTINUOUS
 10
-11.2439492748
 20
-15.2891429064
 11
-15.7270062676
 21
-12.7006819847
  0
LINE
  5
2E9
100
AcDbEntity
  8
IMPORT_IGES
100
AcDbLine
 62
250
  6
CONTINUOUS
 10
-15.5148742332
 20
-12.3332585237
 11
-11.0318172405
 21
-14.9217194454
  0
LINE
  5
2EA
100
AcDbEntity
  8
CURVE
100
AcDbLine
 62
250
  6
CONTINUOUS
 10
0.3036168889
 20
-20.6482558887
 11
0.498896014
 21
-20.7609861666
  0
LWPOLYLINE
  5
2EB
100
AcDbEntity
  8
ASSI
100
AcDbPolyline
 62
250
  6
CONTINUOUS
 90
25
 70
0
 10
-16.4620764847
 20
-13.291787081
 10
-16.5339741963
 20
-13.2475849295
 10
-16.6047960969
 20
-13.1987339827
 10
-16.67425505
 20
-13.1456263323
 10
-16.7417850514
 20
-13.0889284433
 10
-16.807460605
 20
-13.0288019073
 10
-16.8719394172
 20
-12.9647138582
 10
-16.9352826299
 20
-12.8965418453
 10
-16.9968916693
 20
-12.8248689113
 10
-17.0564000479
 20
-12.7500947067
 10
-17.1135533235
 20
-12.6725544496
 10
-17.1681474643
 20
-12.5925363922
 10
-17.2199217477
 20
-12.5104075045
 10
-17.2684083439
 20
-12.4269908264
 10
-17.3137323077
 20
-12.3421589704
 10
-17.3563831373
 20
-12.2547985773
 10
-17.3962517435
 20
-12.164681995
 10
-17.4327256734
 20
-12.0726916009
 10
-17.4653935129
 20
-11.9793691899
 10
-17.4940157859
 20
-11.884873634
 10
-17.518181102
 20
-11.7899390612
 10
-17.5374029073
 20
-11.6959897707
 10
-17.5515091204
 20
-11.6037949101
 10
-17.5604772238
 20
-11.513499994
 10
-17.5642287315
 20
-11.4255618755
  0
LINE
  5
2EC
100
AcDbEntity
  8
IMPORT_IGES
100
AcDbLine
 62
7
  6
CONTINUOUS
 10
-15.3376694329
 20
-11.3595711685
 11
-14.5122753965
 21
-11.8874723837
  0
LWPOLYLINE
  5
2ED
100
AcDbEntity
  8
ASSI
100
AcDbPolyline
 62
250
  6
CONTINUOUS
 90
7
 70
0
 10
-10.6621840964
 20
-14.9270392908
 10
-10.6877923363
 20
-14.9101783829
 10
-10.7094227113
 20
-14.8915097103
 10
-10.7267132866
 20
-14.8713456505
 10
-10.7393747441
 20
-14.8500236028
 10
-10.7471952232
 20
-14.8279003428
 10
-10.7500517049
 20
-14.8046779564
  0
LWPOLYLINE
  5
2EE
100
AcDbEntity
  8
ASSI
100
AcDbPolyline
 62
250
  6
CONTINUOUS
 90
7
 70
0
 10
-10.6553325435
 20
-15.6582851471
 10
-10.6809417347
 20
-15.6414180954
 10
-10.7025726782
 20
-15.6227347592
 10
-10.7198635046
 20
-15.6025478182
 10
-10.7325249777
 20
-15.581195112
 10
-10.740345351
 20
-15.5590339517
 10
-10.743199101
 20
-15.536034063
  0
LWPOLYLINE
  5
2EF
100
AcDbEntity
  8
IMPORT_IGES
100
AcDbPolyline
 62
7
420
14742271
  6
CONTINUOUS
 90
44
 70
0
 10
-15.2394585717
 20
-11.4878689363
 10
-15.2410894971
 20
-11.4867578714
 10
-15.2426689072
 20
-11.4856120976
 10
-15.2441963235
 20
-11.4844330496
 10
-15.2456712675
 20
-11.4832221623
 10
-15.2470932605
 20
-11.4819808705
 10
-15.2484618241
 20
-11.4807106089
 10
-15.2497764796
 20
-11.4794128123
 10
-15.2510367484
 20
-11.4780889156
 10
-15.2522421521
 20
-11.4767403535
 10
-15.2533922121
 20
-11.4753685608
 10
-15.2544864497
 20
-11.4739749724
 10
-15.2555243865
 20
-11.4725610229
 10
-15.2565055439
 20
-11.4711281472
 10
-15.2574294432
 20
-11.4696777802
 10
-15.258295606
 20
-11.4682113565
 10
-15.2591035537
 20
-11.466730311
 10
-15.2598528077
 20
-11.4652360785
 10
-15.2605428895
 20
-11.4637300938
 10
-15.2611733205
 20
-11.4622137916
 10
-15.2617436221
 20
-11.4606886067
 10
-15.2622533157
 20
-11.459155974
 10
-15.2627019229
 20
-11.4576173283
 10
-15.2630889651
 20
-11.4560741043
 10
-15.2634139636
 20
-11.4545277368
 10
-15.2636764399
 20
-11.4529796606
 10
-15.2638759155
 20
-11.4514313106
 10
-15.2640119118
 20
-11.4498841214
 10
-15.2640839502
 20
-11.448339528
 10
-15.2640915522
 20
-11.446798965
 10
-15.2640342393
 20
-11.4452638674
 10
-15.2639115327
 20
-11.4437356698
 10
-15.2637229541
 20
-11.4422158071
 10
-15.2634680247
 20
-11.440705714
 10
-15.2631462662
 20
-11.4392068254
 10
-15.2627571998
 20
-11.4377205761
 10
-15.2623003471
 20
-11.4362484008
 10
-15.2617752294
 20
-11.4347917344
 10
-15.2611813682
 20
-11.4333520115
 10
-15.260518285
 20
-11.4319306671
 10
-15.2597855012
 20
-11.430529136
 10
-15.2589825382
 20
-11.4291488528
 10
-15.2581089175
 20
-11.4277912525
 10
-15.2571641605
 20
-11.4264577697
  0
LWPOLYLINE
  5
2F0
100
AcDbEntity
  8
IMPORT_IGES
100
AcDbPolyline
 62
7
  6
CONTINUOUS
 90
10
 70
0
 10
-15.7270062676
 20
-12.8068231207
 10
-15.9121734981
 20
-12.676547428
 10
-16.0815449238
 20
-12.5260270875
 10
-16.2351205448
 20
-12.3552620992
 10
-16.376111228
 20
-12.1587004856
 10
-16.5013061064
 20
-11.9418942241
 10
-16.6010725794
 20
-11.7214992472
 10
-16.6721997799
 20
-11.5030675324
 10
-16.717898575
 20
-11.2810471021
 10
-16.7381689647
 20
-11.0554379565
  0
LINE
  5
2F1
100
AcDbEntity
  8
IMPORT_IGES
100
AcDbLine
 62
7
  6
CONTINUOUS
 10
-11.9666909842
 20
-13.2347903781
 11
-11.9780114736
 21
-13.2267962404
  0
LWPOLYLINE
  5
2F2
100
AcDbEntity
  8
IMPORT_IGES
100
AcDbPolyline
 62
7
  6
CONTINUOUS
 90
4
 70
0
 10
-11.9780114736
 20
-13.2267962404
 10
-11.9865013066
 20
-13.2182619885
 10
-11.9921604832
 20
-13.2091876223
 10
-11.9949882913
 20
-13.1992125333
  0
LWPOLYLINE
  5
2F3
100
AcDbEntity
  8
IMPORT_IGES
100
AcDbPolyline
 62
7
420
14742271
  6
CONTINUOUS
 90
27
 70
0
 10
-15.3376766537
 20
-11.2807366673
 10
-15.3371134581
 20
-11.2816150382
 10
-15.3365292004
 20
-11.2824870377
 10
-15.3359239872
 20
-11.2833523462
 10
-15.3352979252
 20
-11.2842106441
 10
-15.334651121
 20
-11.2850616116
 10
-15.3339836812
 20
-11.2859049291
 10
-15.3332957124
 20
-11.286740277
 10
-15.3325873212
 20
-11.2875673356
 10
-15.3318586143
 20
-11.2883857851
 10
-15.3311096983
 20
-11.289195306
 10
-15.3303406799
 20
-11.2899955786
 10
-15.3295516656
 20
-11.2907862831
 10
-15.328742762
 20
-11.2915671
 10
-15.3279140758
 20
-11.2923377096
 10
-15.3270657136
 20
-11.2930977921
 10
-15.3261977821
 20
-11.293847028
 10
-15.3253103878
 20
-11.2945850975
 10
-15.3244036373
 20
-11.2953116811
 10
-15.3234776374
 20
-11.2960264589
 10
-15.3225324946
 20
-11.2967291114
 10
-15.3215683155
 20
-11.2974193189
 10
-15.3205852068
 20
-11.2980967618
 10
-15.3195832751
 20
-11.2987611202
 10
-15.3185626269
 20
-11.2994120747
 10
-15.317523369
 20
-11.3000493055
 10
-15.316465608
 20
-11.3006724929
  0
LWPOLYLINE
  5
2F4
100
AcDbEntity
  8
IMPORT_IGES
100
AcDbPolyline
 62
250
  6
CONTINUOUS
 90
10
 70
0
 10
-16.6462450831
 20
-11.1085136536
 10
-16.6278513277
 20
-11.3135028979
 10
-16.5863379271
 20
-11.5152603752
 10
-16.5217048811
 20
-11.7137860852
 10
-16.4310406264
 20
-11.914131556
 10
-16.3172567263
 20
-12.1112452595
 10
-16.1890878714
 20
-12.2899726125
 10
-16.049445625
 20
-12.4452620872
 10
-15.8954184237
 20
-12.5821652112
 10
-15.7270062676
 20
-12.7006819847
  0
LWPOLYLINE
  5
2F5
100
AcDbEntity
  8
IMPORT_IGES
100
AcDbPolyline
 62
250
  6
CONTINUOUS
 90
10
 70
0
 10
-16.2219810144
 20
-11.1085136536
 10
-16.2120718215
 20
-11.2504438899
 10
-16.1822386633
 20
-11.4013275117
 10
-16.1327688187
 20
-11.5570100805
 10
-16.0646176091
 20
-11.7128834249
 10
-15.9792866549
 20
-11.8643292507
 10
-15.8787127918
 20
-12.0068055761
 10
-15.7654974074
 20
-12.1355472235
 10
-15.6429628918
 20
-12.2457944216
 10
-15.5148742332
 20
-12.3332585237
  0
LWPOLYLINE
  5
2F6
100
AcDbEntity
  8
ASSI
100
AcDbPolyline
 62
250
  6
CONTINUOUS
 90
7
 70
0
 10
-16.705847221
 20
-9.951359733
 10
-16.7039331098
 20
-9.9817479
 10
-16.6985267025
 20
-10.0095737817
 10
-16.6897178157
 20
-10.0343751066
 10
-16.6776527914
 20
-10.0557398502
 10
-16.662532066
 20
-10.0733130801
 10
-16.6437852362
 20
-10.0872832211
  0
LWPOLYLINE
  5
2F7
100
AcDbEntity
  8
IMPORT_IGES
100
AcDbPolyline
 62
7
  6
CONTINUOUS
 90
16
 70
0
 10
-17.49257432
 20
-3.9841724055
 10
-17.4906283226
 20
-4.0245599808
 10
-17.4854026226
 20
-4.0655432018
 10
-17.4768972198
 20
-4.1071220685
 10
-17.4649440879
 20
-4.1497458135
 10
-17.4497112533
 20
-4.1929652042
 10
-17.4317027956
 20
-4.2354325426
 10
-17.4108410155
 20
-4.2771240189
 10
-17.3872036122
 20
-4.318063443
 10
-17.3615277625
 20
-4.3569745459
 10
-17.3337541132
 20
-4.3938018005
 10
-17.3039420174
 20
-4.4286007339
 10
-17.2730067122
 20
-4.4602616596
 10
-17.2412532766
 20
-4.488414682
 10
-17.2083766315
 20
-4.5134296966
 10
-17.1743767769
 20
-4.5353067034
  0
LWPOLYLINE
  5
2F8
100
AcDbEntity
  8
IMPORT_IGES
100
AcDbPolyline
 62
7
  6
CONTINUOUS
 90
8
 70
0
 10
-15.4044470783
 20
-4.7091224104
 10
-15.4041697454
 20
-4.7152467959
 10
-15.4014207478
 20
-4.7290656163
 10
-15.3957655978
 20
-4.7427964976
 10
-15.387366569
 20
-4.7558955814
 10
-15.3762777526
 20
-4.7681815815
 10
-15.3624450575
 20
-4.779835784
 10
-15.3458684836
 20
-4.7908581891
  0
LWPOLYLINE
  5
2F9
100
AcDbEntity
  8
IMPORT_IGES
100
AcDbPolyline
 62
250
  6
CONTINUOUS
 90
3
 70
0
 10
-14.9607306369
 20
-20.6672694468
 10
-14.9946906474
 20
-19.4762549904
 10
-15.0014809484
 20
-19.2211516718
  0
LINE
  5
2FA
100
AcDbEntity
  8
IMPORT_IGES
100
AcDbLine
 62
250
  6
CONTINUOUS
 10
-14.6378260162
 20
-19.431121468
 11
-14.6210226872
 21
-20.0512678902
  0
LINE
  5
2FB
100
AcDbEntity
  8
ASSI
100
AcDbLine
 62
250
  6
CONTINUOUS
 10
-17.5642286997
 20
-11.4255618577
 11
-17.5675491753
 21
-11.1008272913
  0
LWPOLYLINE
  5
2FC
100
AcDbEntity
  8
ASSI
100
AcDbPolyline
 62
250
  6
CONTINUOUS
 90
3
 70
0
 10
-17.5675491753
 20
-11.1008272913
 10
-17.5705985921
 20
-10.7759381834
 10
-17.5713185933
 20
-10.6946917674
  0
LINE
  5
2FD
100
AcDbEntity
  8
IMPORT_IGES
100
AcDbLine
 62
7
  6
CONTINUOUS
 10
-17.5986404087
 20
-3.9229306552
 11
-17.5986404087
 21
-0.7723392365
  0
LINE
  5
2FE
100
AcDbEntity
  8
IMPORT_IGES
100
AcDbLine
 62
7
  6
CONTINUOUS
 10
-17.49257432
 20
-3.9841724055
 11
-17.4925743073
 21
-0.8335804742
  0
LINE
  5
2FF
100
AcDbEntity
  8
IMPORT_IGES
100
AcDbLine
 62
7
  6
CONTINUOUS
 10
-17.2804423044
 20
-3.9841727574
 11
-17.2804423108
 21
-0.9560628303
  0
LINE
  5
300
100
AcDbEntity
  8
IMPORT_IGES
100
AcDbLine
 62
7
  6
CONTINUOUS
 10
-16.7381689647
 20
-10.5982146014
 11
-16.7381689647
 21
-11.0554379565
  0
LINE
  5
301
100
AcDbEntity
  8
IMPORT_IGES
100
AcDbLine
 62
250
  6
CONTINUOUS
 10
-16.6462450831
 20
-10.6512902986
 11
-16.6462450831
 21
-11.1085136536
  0
LINE
  5
302
100
AcDbEntity
  8
ASSI
100
AcDbLine
 62
250
  6
CONTINUOUS
 10
-16.5962007302
 20
19.0047233033
 11
-16.5962007302
 21
17.9406482499
  0
LINE
  5
303
100
AcDbEntity
  8
IMPORT_IGES
100
AcDbLine
 62
250
  6
CONTINUOUS
 10
-16.2219810144
 20
-11.1085136536
 11
-16.2219810144
 21
-10.6512902986
  0
LINE
  5
304
100
AcDbEntity
  8
IMPORT_IGES
100
AcDbLine
 62
7
  6
CONTINUOUS
 10
-16.1844268788
 20
-1.5888884045
 11
-16.1844268657
 21
-2.1757237595
  0
LINE
  5
305
100
AcDbEntity
  8
IMPORT_IGES
100
AcDbLine
 62
250
  6
CONTINUOUS
 10
-15.3598763196
 20
-4.6365309291
 11
-15.3598763196
 21
-4.7815438372
  0
LINE
  5
306
100
AcDbEntity
  8
IMPORT_IGES
100
AcDbLine
 62
7
420
14742271
  6
CONTINUOUS
 10
-15.3376694329
 20
-11.2371006269
 11
-15.3376694329
 21
-11.3595711685
  0
LINE
  5
307
100
AcDbEntity
  8
IMPORT_IGES
100
AcDbLine
 62
7
420
14742271
  6
CONTINUOUS
 10
-15.316465608
 20
-11.4231430344
 11
-15.316465608
 21
-11.3006724929
  0
LINE
  5
308
100
AcDbEntity
  8
IMPORT_IGES
100
AcDbLine
 62
7
420
14742271
  6
CONTINUOUS
 10
-15.2571641605
 20
-11.099869659
 11
-15.2571641605
 21
-11.2019284436
  0
LINE
  5
309
100
AcDbEntity
  8
IMPORT_IGES
100
AcDbLine
 62
7
420
14742271
  6
CONTINUOUS
 10
-15.2359603356
 20
-11.2655003095
 11
-15.2359603356
 21
-11.1634415249
  0
LINE
  5
30A
100
AcDbEntity
  8
ASSI
100
AcDbLine
 62
7
  6
CONTINUOUS
 10
-15.8711360065
 20
16.105571926
 11
-15.8711359435
 21
16.5152423757
  0
LWPOLYLINE
  5
30B
100
AcDbEntity
  8
ASSI
100
AcDbPolyline
 62
250
  6
CONTINUOUS
 90
14
 70
0
 10
-17.5713185736
 20
-10.6946917564
 10
-17.5697838014
 20
-10.6134786009
 10
-17.563550682
 20
-10.5362729447
 10
-17.5528164368
 20
-10.4632939385
 10
-17.5378720858
 20
-10.3950280863
 10
-17.518900641
 20
-10.331285013
 10
-17.4957844046
 20
-10.2713748268
 10
-17.4684505667
 20
-10.2152758847
 10
-17.4371053896
 20
-10.1635541837
 10
-17.4019237881
 20
-10.1165135593
 10
-17.3630683544
 20
-10.0743538729
 10
-17.3206904515
 20
-10.0372227626
 10
-17.2749957767
 20
-10.0052830388
 10
-17.2523019076
 20
-9.9920283626
  0
LWPOLYLINE
  5
30C
100
AcDbEntity
  8
ASSI
100
AcDbPolyline
 62
250
  6
CONTINUOUS
 90
13
 70
0
 10
-16.6704780447
 20
-13.6610173909
 10
-16.6691175865
 20
-13.6282524418
 10
-16.6641562162
 20
-13.5938867288
 10
-16.6556787898
 20
-13.5585074792
 10
-16.6438302438
 20
-13.5227192345
 10
-16.6288130964
 20
-13.4871334615
 10
-16.6108839677
 20
-13.4523581064
 10
-16.5903492463
 20
-13.41898732
 10
-16.5675598166
 20
-13.3875912155
 10
-16.542905014
 20
-13.3587060917
 10
-16.5168060636
 20
-13.3328254048
 10
-16.4897089005
 20
-13.3103913194
 10
-16.4620764857
 20
-13.2917870816
  0
LWPOLYLINE
  5
30D
100
AcDbEntity
  8
IMPORT_IGES
100
AcDbPolyline
 62
250
  6
CONTINUOUS
 90
4
 70
0
 10
-16.2219810144
 20
-10.6512902986
 10
-16.2120718215
 20
-10.5208029499
 10
-16.1822386633
 20
-10.4043699113
 10
-16.1625488967
 20
-10.3651430795
  0
LWPOLYLINE
  5
30E
100
AcDbEntity
  8
IMPORT_IGES
100
AcDbPolyline
 62
7
  6
CONTINUOUS
 90
7
 70
0
 10
-16.5027361198
 20
-1.7757507122
 10
-16.5033073226
 20
-1.7821051699
 10
-16.5043097486
 20
-1.7887077675
 10
-16.5056949113
 20
-1.7955755771
 10
-16.5074466483
 20
-1.8027142894
 10
-16.5095811221
 20
-1.8101182136
 10
-16.5120983325
 20
-1.8177873499
  0
LWPOLYLINE
  5
30F
100
AcDbEntity
  8
IMPORT_IGES
100
AcDbPolyline
 62
7
  6
CONTINUOUS
 90
4
 70
0
 10
-16.7381689647
 20
-10.5982146014
 10
-16.7179358338
 20
-10.3960911451
 10
-16.672271093
 20
-10.2268904181
 10
-16.6089270536
 20
-10.1054721065
  0
LWPOLYLINE
  5
310
100
AcDbEntity
  8
RACCORDO
100
AcDbPolyline
 62
7
  6
CONTINUOUS
 90
12
 70
0
 10
-11.0781917741
 20
18.3067368652
 10
-11.0778730807
 20
18.3079156068
 10
-11.0761165919
 20
18.3124693111
 10
-11.0735284257
 20
18.316794747
 10
-11.070119101
 20
18.3208948015
 10
-11.0659321049
 20
18.324717177
 10
-11.0609574756
 20
18.3282583165
 10
-11.0552051749
 20
18.331521777
 10
-11.0487485754
 20
18.3344659319
 10
-11.0416121347
 20
18.3370769057
 10
-11.0337713952
 20
18.339368574
 10
-11.0252263569
 20
18.3413409367
  0
LWPOLYLINE
  5
311
100
AcDbEntity
  8
IMPORT_IGES
100
AcDbPolyline
 62
7
  6
CONTINUOUS
 90
3
 70
0
 10
-16.7821114054
 20
-2.5167824305
 10
-16.7799769316
 20
-2.5093785063
 10
-16.7774597213
 20
-2.50170937
  0
LWPOLYLINE
  5
312
100
AcDbEntity
  8
ASSI
100
AcDbPolyline
 62
7
  6
CONTINUOUS
 90
5
 70
0
 10
-4.7002100126
 20
19.7681786182
 10
-4.6854898544
 20
19.7873001632
 10
-4.6750494508
 20
19.8033929469
 10
-4.6691829589
 20
19.8163992721
 10
-4.6680394685
 20
19.8234516187
  0
LINE
  5
313
100
AcDbEntity
  8
0
100
AcDbLine
 62
7
  6
CONTINUOUS
 10
13.8298201545
 20
25.5415697275
 11
3.3456889315
 21
19.4881534563
  0
LINE
  5
314
100
AcDbEntity
  8
IMPORT_IGES
100
AcDbLine
 62
250
  6
CONTINUOUS
 10
6.6686334732
 20
21.3307868309
 11
6.1736587264
 21
21.0449946155
  0
LINE
  5
315
100
AcDbEntity
  8
0
100
AcDbLine
 62
7
  6
CONTINUOUS
 10
14.8812240852
 20
27.3499229506
 11
-2.0150847674
 21
17.7659716857
  0
LINE
  5
316
100
AcDbEntity
  8
0
100
AcDbLine
 62
7
  6
CONTINUOUS
 10
16.256596454
 20
26.5558001823
 11
-0.9372123483
 21
17.1436216598
  0
LINE
  5
317
100
AcDbEntity
  8
CURVE
100
AcDbLine
 62
250
  6
CONTINUOUS
 10
-0.8680578004
 20
-15.8720265627
 11
0.498896014
 21
-15.5530723585
  0
LINE
  5
318
100
AcDbEntity
  8
CURVE
100
AcDbLine
 62
250
  6
CONTINUOUS
 10
0.2710703715
 20
-16.3080069509
 11
0.3361634165
 21
-16.3086480117
  0
LINE
  5
319
100
AcDbEntity
  8
CURVE
100
AcDbLine
 62
250
  6
CONTINUOUS
 10
0.433802974
 20
-16.1433998521
 11
0.368709934
 21
-16.1427587885
  0
LWPOLYLINE
  5
31A
100
AcDbEntity
  8
IMPORT_IGES
100
AcDbPolyline
 62
250
  6
CONTINUOUS
 90
4
 70
0
 10
-10.7482254873
 20
-15.014002931
 10
-10.7811940663
 20
-15.0134215046
 10
-10.9037285819
 20
-14.9821689155
 10
-11.0318172405
 20
-14.9217194454
  0
LWPOLYLINE
  5
31B
100
AcDbEntity
  8
IMPORT_IGES
100
AcDbPolyline
 62
7
  6
CONTINUOUS
 90
4
 70
0
 10
-10.7429478306
 20
-15.5301526354
 10
-10.8892659817
 20
-15.5239015316
 10
-11.0586959031
 20
-15.4788415418
 10
-11.2439492748
 20
-15.3952840424
  0
LWPOLYLINE
  5
31C
100
AcDbEntity
  8
IMPORT_IGES
100
AcDbPolyline
 62
250
  6
CONTINUOUS
 90
3
 70
0
 10
-10.9216414055
 20
-15.4060668339
 10
-10.7820272046
 20
-15.4120489151
 10
-10.7445438541
 20
-15.4030764811
  0
LWPOLYLINE
  5
31D
100
AcDbEntity
  8
IMPORT_IGES
100
AcDbPolyline
 62
7
420
14742271
  6
CONTINUOUS
 90
30
 70
0
 10
-11.054912034
 20
-13.8915202114
 10
-11.0567611849
 20
-13.8912528476
 10
-11.0586010836
 20
-13.8909683514
 10
-11.0604308551
 20
-13.8906668201
 10
-11.0622496249
 20
-13.8903483509
 10
-11.0640565181
 20
-13.8900130411
 10
-11.0658506601
 20
-13.889660988
 10
-11.067631176
 20
-13.8892922888
 10
-11.0693971912
 20
-13.8889070408
 10
-11.071147831
 20
-13.8885053413
 10
-11.0728822205
 20
-13.8880872875
 10
-11.0745994851
 20
-13.8876529767
 10
-11.0762987501
 20
-13.8872025062
 10
-11.0779791406
 20
-13.8867359732
 10
-11.079639782
 20
-13.886253475
 10
-11.0812797996
 20
-13.8857551089
 10
-11.0828983185
 20
-13.8852409721
 10
-11.0844944641
 20
-13.8847111619
 10
-11.0860673617
 20
-13.8841657755
 10
-11.0876161365
 20
-13.8836049103
 10
-11.0891399137
 20
-13.8830286634
 10
-11.0906378186
 20
-13.8824371322
 10
-11.0921089766
 20
-13.881830414
 10
-11.0935525128
 20
-13.8812086059
 10
-11.0949675526
 20
-13.8805718053
 10
-11.0963532212
 20
-13.8799201094
 10
-11.0977086438
 20
-13.8792536154
 10
-11.0990329458
 20
-13.8785724207
 10
-11.1003252524
 20
-13.8778766226
 10
-11.1015846888
 20
-13.8771663182
  0
LINE
  5
31E
100
AcDbEntity
  8
CURVE
100
AcDbLine
 62
250
  6
CONTINUOUS
 10
-0.477499591
 20
-17.4271675968
 11
0.498896014
 21
-17.6583990223
  0
LINE
  5
31F
100
AcDbEntity
  8
IMPORT_IGES
100
AcDbLine
 62
250
  6
CONTINUOUS
 10
-11.0756154289
 20
-15.3650981644
 11
-10.9216414055
 21
-15.4060668339
  0
LWPOLYLINE
  5
320
100
AcDbEntity
  8
IMPORT_IGES
100
AcDbPolyline
 62
7
  6
CONTINUOUS
 90
10
 70
0
 10
-14.5122753965
 20
-11.8874723837
 10
-14.4984300358
 20
-11.8940086924
 10
-14.4836492302
 20
-11.8989106156
 10
-14.4679329795
 20
-11.9021781532
 10
-14.4506567316
 20
-11.9038108941
 10
-14.4324450388
 20
-11.9038092495
 10
-14.4151715575
 20
-11.9021744528
 10
-14.3994608401
 20
-11.8989069152
 10
-14.3846883344
 20
-11.8940062255
 10
-14.3708540402
 20
-11.8874723837
  0
LWPOLYLINE
  5
321
100
AcDbEntity
  8
ASSI
100
AcDbPolyline
 62
250
  6
CONTINUOUS
 90
13
 70
0
 10
-17.9918377654
 20
-10.6949891246
 10
-17.9626791025
 20
-10.7097497858
 10
-17.9304590059
 20
-10.7221733071
 10
-17.8957167016
 20
-10.7320518539
 10
-17.8590336193
 20
-10.7392201821
 10
-17.821023603
 20
-10.7435584131
 10
-17.7823226326
 20
-10.7449940222
 10
-17.7435782993
 20
-10.7435030428
 10
-17.7054388734
 20
-10.7391104774
 10
-17.6685424042
 20
-10.7318898546
 10
-17.633506203
 20
-10.7219620111
 10
-17.6009165064
 20
-10.7094930934
 10
-17.5713185736
 20
-10.694691757
  0
LINE
  5
322
100
AcDbEntity
  8
IMPORT_IGES
100
AcDbLine
 62
7
  6
CONTINUOUS
 10
-11.9666909842
 20
-13.1531354595
 11
-11.1598095719
 21
-13.5765493627
  0
LINE
  5
323
100
AcDbEntity
  8
IMPORT_IGES
100
AcDbLine
 62
250
  6
CONTINUOUS
 10
-15.2359603356
 20
-11.4900296357
 11
-11.9992345234
 21
-13.2789746293
  0
LINE
  5
324
100
AcDbEntity
  8
IMPORT_IGES
100
AcDbLine
 62
250
  6
CONTINUOUS
 10
-11.1625007727
 20
-13.7414390891
 11
-11.1015846888
 21
-13.7751075336
  0
LWPOLYLINE
  5
325
100
AcDbEntity
  8
IMPORT_IGES
100
AcDbPolyline
 62
7
420
14742271
  6
CONTINUOUS
 90
39
 70
0
 10
-11.1625007727
 20
-13.6991197274
 10
-11.1608497377
 20
-13.7000442748
 10
-11.1591431207
 20
-13.700944041
 10
-11.1573828688
 20
-13.7018188093
 10
-11.155570929
 20
-13.7026683633
 10
-11.1537092486
 20
-13.7034924865
 10
-11.1517997747
 20
-13.7042909623
 10
-11.1498444544
 20
-13.7050635742
 10
-11.1478452349
 20
-13.7058101057
 10
-11.1458040633
 20
-13.7065303404
 10
-11.1437228867
 20
-13.7072240617
 10
-11.1416036522
 20
-13.707891053
 10
-11.1394483071
 20
-13.7085310979
 10
-11.1372587984
 20
-13.7091439799
 10
-11.1350370733
 20
-13.7097294825
 10
-11.1327850789
 20
-13.7102873891
 10
-11.1305047624
 20
-13.7108174832
 10
-11.1281980708
 20
-13.7113195484
 10
-11.1258669514
 20
-13.711793368
 10
-11.1235133513
 20
-13.7122387257
 10
-11.1211392175
 20
-13.7126554048
 10
-11.1187464973
 20
-13.7130431889
 10
-11.1163371378
 20
-13.7134018615
 10
-11.1139130861
 20
-13.7137312061
 10
-11.1114762894
 20
-13.714031006
 10
-11.1090286947
 20
-13.714301045
 10
-11.1065722493
 20
-13.7145411063
 10
-11.1041089002
 20
-13.7147509735
 10
-11.1016405947
 20
-13.7149304302
 10
-11.0991692798
 20
-13.7150792597
 10
-11.0966969026
 20
-13.7151972456
 10
-11.0942254104
 20
-13.7152841713
 10
-11.0917567502
 20
-13.7153398205
 10
-11.0892928692
 20
-13.7153639764
 10
-11.0868357146
 20
-13.7153564227
 10
-11.0843872334
 20
-13.7153169428
 10
-11.0819493728
 20
-13.7152453202
 10
-11.0795240799
 20
-13.7151413384
 10
-11.077113302
 20
-13.7150047809
  0
LWPOLYLINE
  5
326
100
AcDbEntity
  8
IMPORT_IGES
100
AcDbPolyline
 62
7
420
14742271
  6
CONTINUOUS
 90
31
 70
0
 10
-11.1015846888
 20
-13.7751075336
 10
-11.1003102745
 20
-13.7758260883
 10
-11.0990022245
 20
-13.7765297932
 10
-11.0976614447
 20
-13.7772185474
 10
-11.0962888411
 20
-13.7778922503
 10
-11.0948853194
 20
-13.7785508011
 10
-11.0934517856
 20
-13.7791940991
 10
-11.0919891455
 20
-13.7798220436
 10
-11.0904983052
 20
-13.7804345338
 10
-11.0889801704
 20
-13.781031469
 10
-11.0874356471
 20
-13.7816127485
 10
-11.0858656412
 20
-13.7821782715
 10
-11.0842710585
 20
-13.7827279373
 10
-11.0826528049
 20
-13.7832616452
 10
-11.0810117864
 20
-13.7837792945
 10
-11.0793489088
 20
-13.7842807844
 10
-11.0776650781
 20
-13.7847660142
 10
-11.0759612001
 20
-13.7852348831
 10
-11.0742381807
 20
-13.7856872905
 10
-11.0724969258
 20
-13.7861231356
 10
-11.0707383413
 20
-13.7865423176
 10
-11.0689633331
 20
-13.7869447359
 10
-11.0671728071
 20
-13.7873302896
 10
-11.0653676691
 20
-13.7876988782
 10
-11.0635488252
 20
-13.7880504008
 10
-11.0617171811
 20
-13.7883847567
 10
-11.0598736428
 20
-13.7887018452
 10
-11.0580191162
 20
-13.7890015656
 10
-11.0561545071
 20
-13.789283817
 10
-11.0542807215
 20
-13.7895484989
 10
-11.0523986652
 20
-13.7897955104
  0
LINE
  5
327
100
AcDbEntity
  8
IMPORT_IGES
100
AcDbLine
 62
250
  6
CONTINUOUS
 10
-11.9666909842
 20
-13.1339838758
 11
-15.2359603356
 21
-11.2655003095
  0
LINE
  5
328
100
AcDbEntity
  8
IMPORT_IGES
100
AcDbLine
 62
7
  6
CONTINUOUS
 10
-15.2152520735
 20
-11.5358033218
 11
-11.0808764267
 21
-13.9229400043
  0
LINE
  5
329
100
AcDbEntity
  8
IMPORT_IGES
100
AcDbLine
 62
250
  6
CONTINUOUS
 10
-11.0308740107
 20
-13.9179858865
 11
-15.1652496575
 21
-11.530849204
  0
LINE
  5
32A
100
AcDbEntity
  8
IMPORT_IGES
100
AcDbLine
 62
7
  6
CONTINUOUS
 10
-11.1625007727
 20
-13.8215902689
 11
-11.9666909842
 21
-13.3572609196
  0
LINE
  5
32B
100
AcDbEntity
  8
IMPORT_IGES
100
AcDbLine
 62
7
  6
CONTINUOUS
 10
-11.1015846888
 20
-13.7751075336
 11
-11.1625007727
 21
-13.7399353502
  0
LINE
  5
32C
100
AcDbEntity
  8
IMPORT_IGES
100
AcDbLine
 62
7
  6
CONTINUOUS
 10
-15.316465608
 20
-11.3006724929
 11
-14.5122753965
 21
-11.7650018421
  0
LINE
  5
32D
100
AcDbEntity
  8
IMPORT_IGES
100
AcDbLine
 62
7
  6
CONTINUOUS
 10
-11.9666909842
 20
-13.2347903781
 11
-11.1625007727
 21
-13.6991197274
  0
LINE
  5
32E
100
AcDbEntity
  8
IMPORT_IGES
100
AcDbLine
 62
7
  6
CONTINUOUS
 10
-11.1146273129
 20
-13.6896467625
 11
-11.080153397
 21
-13.7095515695
  0
LINE
  5
32F
100
AcDbEntity
  8
IMPORT_IGES
100
AcDbLine
 62
7
  6
CONTINUOUS
 10
-14.3708540402
 20
-11.7650018421
 11
-15.2359603356
 21
-11.2655003095
  0
LINE
  5
330
100
AcDbEntity
  8
CURVE
100
AcDbLine
 62
250
  6
CONTINUOUS
 10
-0.6727786957
 20
-19.5305710613
 11
-0.8680578004
 21
-19.4178404947
  0
LINE
  5
331
100
AcDbEntity
  8
IMPORT_IGES
100
AcDbLine
 62
250
  6
CONTINUOUS
 10
-15.1652496575
 20
-11.0409670379
 11
-11.476870132
 21
-13.1705911496
  0
LINE
  5
332
100
AcDbEntity
  8
ASSI
100
AcDbLine
 62
7
  6
CONTINUOUS
 10
-16.6437257291
 20
-10.0873176071
 11
-11.9061102958
 21
-12.822757382
  0
LINE
  5
333
100
AcDbEntity
  8
ASSI
100
AcDbLine
 62
250
  6
CONTINUOUS
 10
-16.705847221
 20
-9.951359733
 11
-11.968231787
 21
-12.6867995083
  0
LINE
  5
334
100
AcDbEntity
  8
ASSI
100
AcDbLine
 62
7
  6
CONTINUOUS
 10
4.5678978618
 20
-21.881633438
 11
5.2229366466
 21
-22.2598446227
  0
LINE
  5
335
100
AcDbEntity
  8
CURVE
100
AcDbLine
 62
250
  6
CONTINUOUS
 10
0.1083377638
 20
-18.4301986696
 11
0.498896014
 21
-18.6556590405
  0
LINE
  5
336
100
AcDbEntity
  8
ASSI
100
AcDbLine
 62
7
  6
CONTINUOUS
 10
4.5897825097
 20
-20.7078038634
 11
5.1463027939
 21
-21.0291317007
  0
LWPOLYLINE
  5
337
100
AcDbEntity
  8
IMPORT_IGES
100
AcDbPolyline
 62
7
420
14742271
  6
CONTINUOUS
 90
11
 70
0
 10
-15.2359603356
 20
-11.4900296357
 10
-15.2363196714
 20
-11.4898207361
 10
-15.2366769043
 20
-11.4896102103
 10
-15.2370320303
 20
-11.4893980706
 10
-15.2373850451
 20
-11.4891843292
 10
-15.2377359448
 20
-11.4889689985
 10
-15.2380847252
 20
-11.4887520908
 10
-15.2384313822
 20
-11.4885336184
 10
-15.2387759117
 20
-11.4883135936
 10
-15.2391183096
 20
-11.4880920288
 10
-15.2394585717
 20
-11.4878689363
  0
LWPOLYLINE
  5
338
100
AcDbEntity
  8
ASSI
100
AcDbPolyline
 62
7
  6
CONTINUOUS
 90
25
 70
0
 10
-11.9060240912
 20
-12.8228070982
 10
-11.8866432074
 20
-12.834201508
 10
-11.8126249109
 20
-12.8813892581
 10
-11.7372496233
 20
-12.9353818237
 10
-11.6609741626
 20
-12.9961814005
 10
-11.5844992596
 20
-13.0635350107
 10
-11.5087076528
 20
-13.1368756612
 10
-11.4341398843
 20
-13.2158418834
 10
-11.3612642369
 20
-13.3000775788
 10
-11.2907704255
 20
-13.3888895558
 10
-11.2231633654
 20
-13.4817047908
 10
-11.1588087122
 20
-13.5780477118
 10
-11.0981206406
 20
-13.6773241889
 10
-11.0414615687
 20
-13.7789521023
 10
-10.989155497
 20
-13.8823259699
 10
-10.9415171123
 20
-13.9867928832
 10
-10.8987688695
 20
-14.0918021629
 10
-10.8611635471
 20
-14.1966240164
 10
-10.8289729282
 20
-14.3003008227
 10
-10.802267047
 20
-14.4022527855
 10
-10.7810958766
 20
-14.5018224967
 10
-10.7655226785
 20
-14.5979387973
 10
-10.7554171738
 20
-14.6898606049
 10
-10.7505472289
 20
-14.7772029576
 10
-10.7500524758
 20
-14.8045814212
  0
LWPOLYLINE
  5
339
100
AcDbEntity
  8
IMPORT_IGES
100
AcDbPolyline
 62
7
420
14742271
  6
CONTINUOUS
 90
42
 70
0
 10
-15.2359603356
 20
-11.2655003095
 10
-15.2375982342
 20
-11.2645245228
 10
-15.2391911895
 20
-11.2635151647
 10
-15.2407387999
 20
-11.2624734396
 10
-15.2422406636
 20
-11.2614005518
 10
-15.243696379
 20
-11.2602977057
 10
-15.2451055444
 20
-11.2591661055
 10
-15.2464677581
 20
-11.2580069556
 10
-15.2477826184
 20
-11.2568214604
 10
-15.2490497235
 20
-11.255610824
 10
-15.2502686719
 20
-11.2543762509
 10
-15.2514390618
 20
-11.2531189454
 10
-15.2525604916
 20
-11.2518401119
 10
-15.2536325594
 20
-11.2505409545
 10
-15.2546548637
 20
-11.2492226777
 10
-15.2556270028
 20
-11.2478864858
 10
-15.2565485749
 20
-11.2465335831
 10
-15.2574191784
 20
-11.2451651739
 10
-15.2582384116
 20
-11.2437824625
 10
-15.2590058728
 20
-11.2423866534
 10
-15.2597211603
 20
-11.2409789507
 10
-15.2603838723
 20
-11.2395605589
 10
-15.2609936073
 20
-11.2381326822
 10
-15.2615499635
 20
-11.236696525
 10
-15.2620525393
 20
-11.2352532916
 10
-15.2625009329
 20
-11.2338041863
 10
-15.2628947426
 20
-11.2323504134
 10
-15.2632335668
 20
-11.2308931773
 10
-15.2635170037
 20
-11.2294336824
 10
-15.2637446517
 20
-11.2279731328
 10
-15.2639161091
 20
-11.226512733
 10
-15.2640309742
 20
-11.2250536872
 10
-15.2640888453
 20
-11.2235971998
 10
-15.2640893207
 20
-11.2221444751
 10
-15.2640319987
 20
-11.2206967175
 10
-15.2639164777
 20
-11.2192551313
 10
-15.2637423559
 20
-11.2178209207
 10
-15.2635092316
 20
-11.2163952901
 10
-15.2632167031
 20
-11.2149794439
 10
-15.2628643689
 20
-11.2135745863
 10
-15.2624518271
 20
-11.2121819217
 10
-15.261978676
 20
-11.2108026544
  0
LWPOLYLINE
  5
33A
100
AcDbEntity
  8
IMPORT_IGES
100
AcDbPolyline
 62
7
420
14742271
  6
CONTINUOUS
 90
45
 70
0
 10
-15.316465608
 20
-11.4231430344
 10
-15.3182412172
 20
-11.4220823973
 10
-15.3199638441
 20
-11.420982335
 10
-15.3216329751
 20
-11.4198443875
 10
-15.3232480965
 20
-11.4186700943
 10
-15.3248086949
 20
-11.4174609953
 10
-15.3263142567
 20
-11.4162186302
 10
-15.3277642683
 20
-11.4149445386
 10
-15.3291582161
 20
-11.4136402605
 10
-15.3304955866
 20
-11.4123073354
 10
-15.3317758662
 20
-11.4109473031
 10
-15.3329985413
 20
-11.4095617034
 10
-15.3341630984
 20
-11.408152076
 10
-15.335269024
 20
-11.4067199607
 10
-15.3363158043
 20
-11.4052668971
 10
-15.337302926
 20
-11.4037944251
 10
-15.3382298754
 20
-11.4023040843
 10
-15.3390961389
 20
-11.4007974145
 10
-15.339901203
 20
-11.3992759554
 10
-15.3406445541
 20
-11.3977412468
 10
-15.3413256787
 20
-11.3961948284
 10
-15.3419440631
 20
-11.39463824
 10
-15.3424991939
 20
-11.3930730212
 10
-15.3429905575
 20
-11.3915007119
 10
-15.3434176402
 20
-11.3899228517
 10
-15.3437799285
 20
-11.3883409804
 10
-15.3440769089
 20
-11.3867566378
 10
-15.3443080678
 20
-11.3851713635
 10
-15.3444728916
 20
-11.3835866974
 10
-15.3445708668
 20
-11.3820041791
 10
-15.3446014798
 20
-11.3804253484
 10
-15.344564217
 20
-11.378851745
 10
-15.3444585648
 20
-11.3772849087
 10
-15.3442840098
 20
-11.3757263791
 10
-15.3440400383
 20
-11.3741776962
 10
-15.3437261367
 20
-11.3726403995
 10
-15.3433417916
 20
-11.3711160288
 10
-15.3428864893
 20
-11.3696061238
 10
-15.3423597162
 20
-11.3681122244
 10
-15.3417609589
 20
-11.3666358702
 10
-15.3410897037
 20
-11.365178601
 10
-15.340345437
 20
-11.3637419564
 10
-15.3395276454
 20
-11.3623274763
 10
-15.3386358152
 20
-11.3609367004
 10
-15.3376694329
 20
-11.3595711685
  0
LINE
  5
33B
100
AcDbEntity
  8
IMPORT_IGES
100
AcDbLine
 62
250
  6
CONTINUOUS
 10
-11.1199385613
 20
-13.6416333811
 11
-11.9666909842
 21
-13.1339838758
  0
LINE
  5
33C
100
AcDbEntity
  8
ASSI
100
AcDbLine
 62
250
  6
CONTINUOUS
 10
-11.968231787
 20
-12.6867995083
 11
-11.8817474409
 21
-12.7404916081
  0
LWPOLYLINE
  5
33D
100
AcDbEntity
  8
ASSI
100
AcDbPolyline
 62
250
  6
CONTINUOUS
 90
24
 70
0
 10
-11.8817474409
 20
-12.7404916081
 10
-11.7972572976
 20
-12.7988499344
 10
-11.7147609353
 20
-12.8618742412
 10
-11.6343150369
 20
-12.9296129875
 10
-11.5558612959
 20
-13.0020167659
 10
-11.4792264723
 20
-13.078938335
 10
-11.4040142498
 20
-13.1607136802
 10
-11.3306179278
 20
-13.2470050527
 10
-11.2600485777
 20
-13.3366545439
 10
-11.1923760041
 20
-13.4296839178
 10
-11.1275264892
 20
-13.5260691201
 10
-11.0662960674
 20
-13.6245836573
 10
-11.0089322448
 20
-13.7246471946
 10
-10.9551834823
 20
-13.8268377019
 10
-10.9050970915
 20
-13.9316660506
 10
-10.8582697453
 20
-14.0398315289
 10
-10.8150988944
 20
-14.150631397
 10
-10.7768330312
 20
-14.262473491
 10
-10.7435324288
 20
-14.3757564267
 10
-10.7151311601
 20
-14.4900782572
 10
-10.692690427
 20
-14.6026471522
 10
-10.6765638123
 20
-14.7125324067
 10
-10.6663954818
 20
-14.8206633852
 10
-10.6621840964
 20
-14.9270392908
  0
LWPOLYLINE
  5
33E
100
AcDbEntity
  8
ASSI
100
AcDbPolyline
 62
7
  6
CONTINUOUS
 90
5
 70
0
 10
-17.1025407069
 20
-4.6992545716
 10
-17.0721951019
 20
-4.727809002
 10
-17.0252518776
 20
-4.7668794767
 10
-16.977469841
 20
-4.8016543856
 10
-16.9288489921
 20
-4.8321337285
  0
LWPOLYLINE
  5
33F
100
AcDbEntity
  8
IMPORT_IGES
100
AcDbPolyline
 62
7
  6
CONTINUOUS
 90
5
 70
0
 10
-11.994985443
 20
-13.321699049
 10
-11.9921540744
 20
-13.3316725406
 10
-11.9864948979
 20
-13.3407437119
 10
-11.9780072011
 20
-13.3492731716
 10
-11.9666909842
 20
-13.3572609196
  0
LWPOLYLINE
  5
340
100
AcDbEntity
  8
IMPORT_IGES
100
AcDbPolyline
 62
7
  6
CONTINUOUS
 90
5
 70
0
 10
-16.7859005314
 20
-2.561333115
 10
-16.7846863722
 20
-2.5666690839
 10
-16.7830273569
 20
-2.5717298383
 10
-16.7809757132
 20
-2.5764482456
 10
-16.7785123682
 20
-2.58085386
  0
LWPOLYLINE
  5
341
100
AcDbEntity
  8
IMPORT_IGES
100
AcDbPolyline
 62
7
  6
CONTINUOUS
 90
5
 70
0
 10
-16.5036575223
 20
-1.7581636049
 10
-16.5048716815
 20
-1.7528276361
 10
-16.5065306968
 20
-1.7477668816
 10
-16.5085823405
 20
-1.7430484743
 10
-16.5110456855
 20
-1.7386428599
  0
LWPOLYLINE
  5
342
100
AcDbEntity
  8
IMPORT_IGES
100
AcDbPolyline
 62
7
  6
CONTINUOUS
 90
8
 70
0
 10
-16.7858997158
 20
-2.5613376134
 10
-16.7866474657
 20
-2.5557398807
 10
-16.7869503114
 20
-2.5498670142
 10
-16.7868219339
 20
-2.5437460077
 10
-16.7862507311
 20
-2.53739155
 10
-16.7852483051
 20
-2.5307889524
 10
-16.7838631425
 20
-2.5239211428
 10
-16.7821114054
 20
-2.5167824305
  0
LWPOLYLINE
  5
343
100
AcDbEntity
  8
IMPORT_IGES
100
AcDbPolyline
 62
7
  6
CONTINUOUS
 90
4
 70
0
 10
-16.5036583379
 20
-1.7581591065
 10
-16.502910588
 20
-1.7637568392
 10
-16.5026077423
 20
-1.7696297057
 10
-16.5027361198
 20
-1.7757507122
  0
LWPOLYLINE
  5
344
100
AcDbEntity
  8
ASSI
100
AcDbPolyline
 62
250
  6
CONTINUOUS
 90
7
 70
0
 10
-11.968231787
 20
-12.6867995083
 10
-11.9663175408
 20
-12.7171887506
 10
-11.9609107985
 20
-12.7450152981
 10
-11.952101467
 20
-12.7698169057
 10
-11.9400359858
 20
-12.7911815906
 10
-11.924914873
 20
-12.8087545091
 10
-11.9061102958
 20
-12.822757382
  0
LWPOLYLINE
  5
345
100
AcDbEntity
  8
ASSI
100
AcDbPolyline
 62
250
  6
CONTINUOUS
 90
13
 70
0
 10
-14.5528773242
 20
16.194565565
 10
-14.5545676552
 20
16.2219795782
 10
-14.5592001124
 20
16.2507008608
 10
-14.5666954023
 20
16.2802380355
 10
-14.5769252678
 20
16.3100858055
 10
-14.5897146564
 20
16.3397335184
 10
-14.6048446941
 20
16.3686739057
 10
-14.6220564914
 20
16.3964118889
 10
-14.6410555687
 20
16.4224729984
 10
-14.6615168446
 20
16.4464114215
 10
-14.6830902541
 20
16.4678177105
 10
-14.7054067461
 20
16.4863257748
 10
-14.7280845649
 20
16.5016191027
  0
LINE
  5
346
100
AcDbEntity
  8
IMPORT_IGES
100
AcDbLine
 62
250
  6
CONTINUOUS
 10
-14.0697188844
 20
-20.5728108578
 11
-14.0577454003
 21
-20.9857965146
  0
LINE
  5
347
100
AcDbEntity
  8
ASSI
100
AcDbLine
 62
7
  6
CONTINUOUS
 10
-15.1195240339
 20
19.8427082672
 11
-15.1195240339
 21
18.7786332138
  0
LINE
  5
348
100
AcDbEntity
  8
ASSI
100
AcDbLine
 62
250
  6
CONTINUOUS
 10
-14.5528773242
 20
15.786307111
 11
-14.5528773242
 21
16.194565565
  0
LINE
  5
349
100
AcDbEntity
  8
IMPORT_IGES
100
AcDbLine
 62
250
  6
CONTINUOUS
 10
-14.5122753965
 20
-11.7650018421
 11
-14.5122753965
 21
-11.8874723837
  0
LINE
  5
34A
100
AcDbEntity
  8
IMPORT_IGES
100
AcDbLine
 62
7
  6
CONTINUOUS
 10
-14.3708540402
 20
-11.8874723837
 11
-14.3708540402
 21
-11.7650018421
  0
LINE
  5
34B
100
AcDbEntity
  8
0
100
AcDbLine
 62
7
  6
CONTINUOUS
 10
-13.4224677591
 20
17.5154921511
 11
-13.4224677591
 21
17.7604332342
  0
LWPOLYLINE
  5
34C
100
AcDbEntity
  8
0
100
AcDbPolyline
 62
7
  6
CONTINUOUS
 90
19
 70
0
 10
-13.4224677591
 20
17.7604332342
 10
-13.4204660662
 20
17.8120166092
 10
-13.4148441144
 20
17.8645702005
 10
-13.4056019036
 20
17.9180940079
 10
-13.3926146259
 20
17.973008009
 10
-13.3760070893
 20
18.0288922263
 10
-13.3561537172
 20
18.0844867277
 10
-13.332980777
 20
18.139784932
 10
-13.3065620014
 20
18.1947934205
 10
-13.2774930122
 20
18.2482720046
 10
-13.245713607
 20
18.3001859309
 10
-13.2112839883
 20
18.3505699529
 10
-13.1749803856
 20
18.3982881426
 10
-13.1367602294
 20
18.4432799427
 10
-13.0966660892
 20
18.4856059104
 10
-13.0556019036
 20
18.52431179
 10
-13.0138689853
 20
18.559079496
 10
-12.9711660215
 20
18.5902271137
 10
-12.9274930122
 20
18.6177546433
  0
LWPOLYLINE
  5
34D
100
AcDbEntity
  8
IMPORT_IGES
100
AcDbPolyline
 62
250
  6
CONTINUOUS
 90
10
 70
0
 10
-15.7270062676
 20
-12.7006819847
 10
-15.7240335097
 20
-12.6581029139
 10
-15.7150835622
 20
-12.6128378273
 10
-15.7002426089
 20
-12.5661330567
 10
-15.679797246
 20
-12.5193710533
 10
-15.6541979597
 20
-12.4739373056
 10
-15.6240258008
 20
-12.431194408
 10
-15.5900611855
 20
-12.3925719138
 10
-15.5533008308
 20
-12.3594977543
 10
-15.5148742332
 20
-12.3332585237
  0
LWPOLYLINE
  5
34E
100
AcDbEntity
  8
IMPORT_IGES
100
AcDbPolyline
 62
7
420
14742271
  6
CONTINUOUS
 90
40
 70
0
 10
-15.2632208643
 20
-11.11293889
 10
-15.2635057979
 20
-11.1143179652
 10
-15.263734368
 20
-11.1157063379
 10
-15.2639069458
 20
-11.1171028954
 10
-15.2640239026
 20
-11.1185065247
 10
-15.2640856095
 20
-11.1199161128
 10
-15.2640924378
 20
-11.121330547
 10
-15.2640447585
 20
-11.1227487142
 10
-15.2639429431
 20
-11.1241695016
 10
-15.2637873625
 20
-11.1255917963
 10
-15.2635783881
 20
-11.1270144853
 10
-15.263316391
 20
-11.1284364559
 10
-15.2630017425
 20
-11.129856595
 10
-15.2626348136
 20
-11.1312737897
 10
-15.2622159757
 20
-11.1326869273
 10
-15.2617456
 20
-11.1340948947
 10
-15.2612240575
 20
-11.1354965791
 10
-15.2606517196
 20
-11.1368908675
 10
-15.2600289574
 20
-11.1382766471
 10
-15.2593561421
 20
-11.1396528049
 10
-15.2586336449
 20
-11.1410182281
 10
-15.2578618371
 20
-11.1423718037
 10
-15.2570410898
 20
-11.1437124189
 10
-15.2561717741
 20
-11.1450389607
 10
-15.2552542614
 20
-11.1463503163
 10
-15.2542889229
 20
-11.1476453727
 10
-15.2532761296
 20
-11.148923017
 10
-15.2522162528
 20
-11.1501821364
 10
-15.2511096637
 20
-11.1514216179
 10
-15.2499567336
 20
-11.1526403487
 10
-15.2487578335
 20
-11.1538372157
 10
-15.2475133348
 20
-11.1550111062
 10
-15.2462236085
 20
-11.1561609072
 10
-15.244889026
 20
-11.1572855058
 10
-15.2435099583
 20
-11.1583837891
 10
-15.2420867768
 20
-11.1594546443
 10
-15.2406198526
 20
-11.1604969583
 10
-15.2391095568
 20
-11.1615096184
 10
-15.2375562607
 20
-11.1624915116
 10
-15.2359603356
 20
-11.1634415249
  0
LINE
  5
34F
100
AcDbEntity
  8
RACCORDO
100
AcDbLine
 62
250
  6
CONTINUOUS
 10
-11.0252263569
 20
18.3413409367
 11
-11.0468985302
 21
18.2518115455
  0
LINE
  5
350
100
AcDbEntity
  8
RACCORDO
100
AcDbLine
 62
250
  6
CONTINUOUS
 10
-9.0749806722
 20
18.735709099
 11
-9.1623838771
 21
18.3746398331
  0
LINE
  5
351
100
AcDbEntity
  8
RACCORDO
100
AcDbLine
 62
250
  6
CONTINUOUS
 10
-8.7990596135
 20
18.6812519846
 11
-8.8864628184
 21
18.3201827187
  0
LWPOLYLINE
  5
352
100
AcDbEntity
  8
IMPORT_IGES
100
AcDbPolyline
 62
250
  6
CONTINUOUS
 90
3
 70
0
 10
-16.586273097
 20
-10.3136084668
 10
-16.6278174562
 20
-10.4674708369
 10
-16.6462450831
 20
-10.6512902986
  0
LINE
  5
353
100
AcDbEntity
  8
IMPORT_IGES
100
AcDbLine
 62
7
  6
CONTINUOUS
 10
-16.5120983325
 20
-1.8177873499
 11
-16.7774597213
 21
-2.50170937
  0
LINE
  5
354
100
AcDbEntity
  8
IMPORT_IGES
100
AcDbLine
 62
250
  6
CONTINUOUS
 10
-17.0683115029
 20
-4.3515945431
 11
-17.1743776312
 21
-4.5353061758
  0
LINE
  5
355
100
AcDbEntity
  8
RACCORDO
100
AcDbLine
 62
250
  6
CONTINUOUS
 10
-5.4830177164
 20
12.9313532012
 11
-6.0894387239
 21
12.3116908659
  0
LINE
  5
356
100
AcDbEntity
  8
DRAFT
100
AcDbLine
 62
7
  6
CONTINUOUS
 10
13.8298201545
 20
25.5016255022
 11
14.8812240852
 21
26.1193818298
  0
LINE
  5
357
100
AcDbEntity
  8
IMPORT_IGES
100
AcDbLine
 62
7
  6
CONTINUOUS
 10
9.7539594083
 20
23.0231884524
 11
8.8517277225
 21
22.5022511846
  0
LINE
  5
358
100
AcDbEntity
  8
RACCORDO
100
AcDbLine
 62
250
  6
CONTINUOUS
 10
-6.5394710504
 20
13.3922740751
 11
-6.4110034729
 21
13.4664496442
  0
LINE
  5
359
100
AcDbEntity
  8
0
100
AcDbLine
 62
7
  6
CONTINUOUS
 10
-4.442211638
 20
13.7184595233
 11
-4.0786435054
 21
13.9283792065
  0
LINE
  5
35A
100
AcDbEntity
  8
0
100
AcDbLine
 62
7
  6
CONTINUOUS
 10
-4.442211638
 20
13.3918714126
 11
-4.0786435054
 21
13.6017910958
  0
LINE
  5
35B
100
AcDbEntity
  8
0
100
AcDbLine
 62
250
  6
CONTINUOUS
 10
-4.6543436724
 20
13.0244479516
 11
-4.9371863848
 21
12.8611381142
  0
LINE
  5
35C
100
AcDbEntity
  8
0
100
AcDbLine
 62
7
  6
CONTINUOUS
 10
-4.6543436724
 20
12.7795068685
 11
-4.9371863848
 21
12.6161970312
  0
LINE
  5
35D
100
AcDbEntity
  8
ASSI
100
AcDbLine
 62
7
  6
CONTINUOUS
 10
-3.6313460372
 20
13.7048463899
 11
-4.6376000854
 21
13.1288541383
  0
LINE
  5
35E
100
AcDbEntity
  8
ASSI
100
AcDbLine
 62
7
  6
CONTINUOUS
 10
-5.2339077794
 20
12.7875202456
 11
-6.3867853791
 21
12.1275988613
  0
LINE
  5
35F
100
AcDbEntity
  8
0
100
AcDbLine
 62
7
  6
CONTINUOUS
 10
18.4167579911
 20
25.3085499839
 11
1.9861173883
 21
15.9887358066
  0
LWPOLYLINE
  5
360
100
AcDbEntity
  8
0
100
AcDbPolyline
 62
7
  6
CONTINUOUS
 90
10
 70
0
 10
-4.0786435054
 20
13.9283792065
 10
-4.0613342041
 20
13.9380216913
 10
-4.0440878875
 20
13.9469358661
 10
-4.0269045558
 20
13.9551217309
 10
-4.0097634438
 20
13.9625874775
 10
-3.9926853166
 20
13.9693249142
 10
-3.9757324689
 20
13.9753094651
 10
-3.9589256654
 20
13.9805329385
 10
-3.9422441414
 20
13.9850035261
 10
-3.9256878968
 20
13.9887212281
  0
LWPOLYLINE
  5
361
100
AcDbEntity
  8
0
100
AcDbPolyline
 62
7
  6
CONTINUOUS
 90
10
 70
0
 10
-4.0786435054
 20
13.6017910958
 10
-4.0712252334
 20
13.6059235893
 10
-4.0638339549
 20
13.6097439499
 10
-4.0564696698
 20
13.6132521777
 10
-4.049123479
 20
13.6164517834
 10
-4.0418042816
 20
13.6193392562
 10
-4.0345387755
 20
13.6219040638
 10
-4.0273358597
 20
13.6241426952
 10
-4.0201866351
 20
13.6260586614
 10
-4.0130911017
 20
13.6276519622
  0
LINE
  5
362
100
AcDbEntity
  8
ASSI
100
AcDbLine
 62
7
  6
CONTINUOUS
 10
-0.3241318927
 20
16.2044491291
 11
-0.6177164587
 21
16.0422379082
  0
LINE
  5
363
100
AcDbEntity
  8
ASSI
100
AcDbLine
 62
7
  6
CONTINUOUS
 10
2.4783877448
 20
16.0001452553
 11
1.2217121758
 21
15.3118981379
  0
LWPOLYLINE
  5
364
100
AcDbEntity
  8
ASSI
100
AcDbPolyline
 62
7
  6
CONTINUOUS
 90
9
 70
0
 10
0.9819577608
 20
15.0568733235
 10
0.9903556729
 20
15.0613574939
 10
1.0046630577
 20
15.066515093
 10
1.0201379315
 20
15.0691445374
 10
1.0367433417
 20
15.0693256284
 10
1.0539434926
 20
15.0670521365
 10
1.071559786
 20
15.0623219853
 10
1.0897708202
 20
15.0551372512
 10
1.1085765953
 20
15.0454979343
  0
LWPOLYLINE
  5
365
100
AcDbEntity
  8
RACCORDO
100
AcDbPolyline
 62
7
  6
CONTINUOUS
 90
14
 70
0
 10
-6.4986028132
 20
13.4698943006
 10
-6.4941307285
 20
13.4722561331
 10
-6.4875139807
 20
13.4750098353
 10
-6.4805332143
 20
13.4770946603
 10
-6.4732679167
 20
13.4784868688
 10
-6.4657148357
 20
13.4791785442
 10
-6.4578772235
 20
13.4791776032
 10
-6.449844324
 20
13.4784840565
 10
-6.4416139051
 20
13.4770899875
 10
-6.4331881989
 20
13.4750033128
 10
-6.4246631458
 20
13.4722477926
 10
-6.4160707259
 20
13.4688313469
 10
-6.407378959
 20
13.4647460556
 10
-6.3985878451
 20
13.4599919187
  0
LINE
  5
366
100
AcDbEntity
  8
CURVE
100
AcDbLine
 62
250
  6
CONTINUOUS
 10
0.2710703715
 20
-12.799128808
 11
0.3361634165
 21
-12.7997698688
  0
LINE
  5
367
100
AcDbEntity
  8
CURVE
100
AcDbLine
 62
250
  6
CONTINUOUS
 10
0.433802974
 20
-12.6345213393
 11
0.368709934
 21
-12.6338802757
  0
LWPOLYLINE
  5
368
100
AcDbEntity
  8
ASSI
100
AcDbPolyline
 62
250
  6
CONTINUOUS
 90
13
 70
0
 10
-19.3552304714
 20
-5.0962400228
 10
-19.3260728574
 20
-5.1110362795
 10
-19.2938536174
 20
-5.123551978
 10
-19.259111866
 20
-5.1335776969
 10
-19.2224289263
 20
-5.1409456788
 10
-19.1844186025
 20
-5.1455326377
 10
-19.1457169097
 20
-5.1472618213
 10
-19.1069714315
 20
-5.1461042958
 10
-19.068830484
 20
-5.1420794297
 10
-19.0319322679
 20
-5.1352545697
 10
-18.9968941898
 20
-5.1257439143
 10
-18.9643025311
 20
-5.1137066022
 10
-18.9347026379
 20
-5.0993440501
  0
LINE
  5
369
100
AcDbEntity
  8
ASSI
100
AcDbLine
 62
250
  6
CONTINUOUS
 10
-9.7489125357
 20
-11.1346127914
 11
-18.9324612775
 21
-5.8321468448
  0
LINE
  5
36A
100
AcDbEntity
  8
ASSI
100
AcDbLine
 62
250
  6
CONTINUOUS
 10
-9.5404834356
 20
-10.7700027345
 11
-18.7240321774
 21
-5.4675367878
  0
LINE
  5
36B
100
AcDbEntity
  8
CURVE
100
AcDbLine
 62
250
  6
CONTINUOUS
 10
-0.8680578004
 20
-14.7639602868
 11
-0.6727786957
 21
-14.8766904836
  0
LINE
  5
36C
100
AcDbEntity
  8
ASSI
100
AcDbLine
 62
7
  6
CONTINUOUS
 10
-17.2823485348
 20
-4.6351294812
 11
-9.4027415883
 21
-9.1847157775
  0
LINE
  5
36D
100
AcDbEntity
  8
ASSI
100
AcDbLine
 62
7
  6
CONTINUOUS
 10
-16.9288489921
 20
-4.8321337285
 11
-9.4026944556
 21
-9.1776410331
  0
LINE
  5
36E
100
AcDbEntity
  8
IMPORT_IGES
100
AcDbLine
 62
7
  6
CONTINUOUS
 10
-9.4024734706
 20
-9.1451768893
 11
-17.1743776808
 21
-4.6577768032
  0
LWPOLYLINE
  5
36F
100
AcDbEntity
  8
ASSI
100
AcDbPolyline
 62
250
  6
CONTINUOUS
 90
19
 70
0
 10
-18.724031677
 20
-5.4675364989
 10
-18.7437070783
 20
-5.4555373409
 10
-18.7631572416
 20
-5.4415775528
 10
-18.7822254263
 20
-5.4257792821
 10
-18.800780455
 20
-5.4082600277
 10
-18.8186485307
 20
-5.3891856972
 10
-18.8356218693
 20
-5.3687853597
 10
-18.8516715687
 20
-5.3470869973
 10
-18.8665648401
 20
-5.3244240565
 10
-18.8798858497
 20
-5.3015710978
 10
-18.8914591423
 20
-5.2790984168
 10
-18.901499825
 20
-5.2568884385
 10
-18.9102218344
 20
-5.2346925377
 10
-18.9175421618
 20
-5.2129021079
 10
-18.9235441084
 20
-5.1914102803
 10
-18.9284540958
 20
-5.1692134838
 10
-18.9321313268
 20
-5.146124314
 10
-18.9342804962
 20
-5.1227476748
 10
-18.9347022135
 20
-5.099343805
  0
LWPOLYLINE
  5
370
100
AcDbEntity
  8
IMPORT_IGES
100
AcDbPolyline
 62
7
  6
CONTINUOUS
 90
19
 70
0
 10
-17.1743776808
 20
-4.6577768032
 10
-17.2119502766
 20
-4.6340668117
 10
-17.2486499616
 20
-4.6072822507
 10
-17.2844767359
 20
-4.5774231204
 10
-17.319680086
 20
-4.544215972
 10
-17.3540105254
 20
-4.5079342542
 10
-17.3867195942
 20
-4.4693983128
 10
-17.4177710781
 20
-4.4285654233
 10
-17.4472011914
 20
-4.3854783103
 10
-17.474370118
 20
-4.3410854927
 10
-17.4992318514
 20
-4.2953603696
 10
-17.5218323981
 20
-4.248329542
 10
-17.5416699613
 20
-4.2010213317
 10
-17.5586894488
 20
-4.1534256614
 10
-17.5729459527
 20
-4.1055526083
 10
-17.5841029527
 20
-4.0584607259
 10
-17.5920482754
 20
-4.0125028651
 10
-17.596894094
 20
-3.9673261749
 10
-17.5986404087
 20
-3.9229306552
  0
LWPOLYLINE
  5
371
100
AcDbEntity
  8
ASSI
100
AcDbPolyline
 62
250
  6
CONTINUOUS
 90
19
 70
0
 10
-18.9324612775
 20
-5.8321468448
 10
-18.971664035
 20
-5.807312489
 10
-19.0098881689
 20
-5.7791399461
 10
-19.0471335018
 20
-5.7476291144
 10
-19.0837178083
 20
-5.7124063509
 10
-19.1193226017
 20
-5.6738448896
 10
-19.1529932185
 20
-5.6330648893
 10
-19.1847691882
 20
-5.5896588629
 10
-19.2146097851
 20
-5.544033611
 10
-19.2414402748
 20
-5.4985309033
 10
-19.2647717262
 20
-5.4538549774
 10
-19.2850923996
 20
-5.4093012112
 10
-19.3027937889
 20
-5.365098339
 10
-19.3179887767
 20
-5.3217467851
 10
-19.330563986
 20
-5.2787458422
 10
-19.3405712849
 20
-5.2348224118
 10
-19.3480273421
 20
-5.1895517722
 10
-19.3529139957
 20
-5.1433577901
 10
-19.3552304714
 20
-5.0962400228
  0
LWPOLYLINE
  5
372
100
AcDbEntity
  8
IMPORT_IGES
100
AcDbPolyline
 62
7
  6
CONTINUOUS
 90
16
 70
0
 10
-17.0683103229
 20
-4.3515953053
 10
-17.0906462163
 20
-4.3373372874
 10
-17.1125033343
 20
-4.3207045743
 10
-17.1336552684
 20
-4.3019553793
 10
-17.153772169
 20
-4.2814936075
 10
-17.1728040045
 20
-4.259483962
 10
-17.1909206548
 20
-4.2357431046
 10
-17.2080023984
 20
-4.2103325436
 10
-17.2237301664
 20
-4.1836233977
 10
-17.2379199015
 20
-4.1558361832
 10
-17.2503827656
 20
-4.1272198915
 10
-17.260909433
 20
-4.0981148888
 10
-17.2693092481
 20
-4.0689082053
 10
-17.2754365454
 20
-4.0399594305
 10
-17.2791787596
 20
-4.011596447
 10
-17.2804423572
 20
-3.9841718442
  0
LWPOLYLINE
  5
373
100
AcDbEntity
  8
ASSI
100
AcDbPolyline
 62
250
  6
CONTINUOUS
 90
7
 70
0
 10
-9.3233318669
 20
-10.8885325484
 10
-9.3489401424
 20
-10.8717076402
 10
-9.3705703318
 20
-10.8531312838
 10
-9.3878605168
 20
-10.8331143214
 10
-9.4005214011
 20
-10.8119917001
 10
-9.4083411538
 20
-10.7901168623
 10
-9.4111999583
 20
-10.7660623159
  0
LWPOLYLINE
  5
374
100
AcDbEntity
  8
IMPORT_IGES
100
AcDbPolyline
 62
7
  6
CONTINUOUS
 90
3
 70
0
 10
-14.2564752191
 20
-4.7966845593
 10
-14.2512927982
 20
-4.80085024
 10
-14.2344498002
 20
-4.8126122377
  0
LWPOLYLINE
  5
375
100
AcDbEntity
  8
IMPORT_IGES
100
AcDbPolyline
 62
7
  6
CONTINUOUS
 90
5
 70
0
 10
-16.7691143124
 20
-2.5915229053
 10
-16.77251382
 20
-2.5884856957
 10
-16.7756532275
 20
-2.5849211252
 10
-16.7785095817
 20
-2.5808583316
 10
-16.78097336
 20
-2.5764530138
  0
LINE
  5
376
100
AcDbEntity
  8
IMPORT_IGES
100
AcDbLine
 62
7
  6
CONTINUOUS
 10
-14.2568434141
 20
-4.7963542478
 11
-14.3874449353
 21
-4.6787457219
  0
LINE
  5
377
100
AcDbEntity
  8
IMPORT_IGES
100
AcDbLine
 62
250
  6
CONTINUOUS
 10
-14.3650513215
 20
-4.6950037118
 11
-14.2344498002
 21
-4.8126122377
  0
LINE
  5
378
100
AcDbEntity
  8
IMPORT_IGES
100
AcDbLine
 62
250
  6
CONTINUOUS
 10
-13.4511236514
 20
-5.2226940943
 11
-13.3205221301
 21
-5.3403026202
  0
LINE
  5
379
100
AcDbEntity
  8
IMPORT_IGES
100
AcDbLine
 62
250
  6
CONTINUOUS
 10
-13.2106842805
 20
-5.1562574148
 11
-13.0800827593
 21
-5.2738659406
  0
LWPOLYLINE
  5
37A
100
AcDbEntity
  8
IMPORT_IGES
100
AcDbPolyline
 62
7
  6
CONTINUOUS
 90
12
 70
0
 10
-14.3870767403
 20
-4.6790760334
 10
-14.396400258
 20
-4.6697185889
 10
-14.4085691372
 20
-4.6544343361
 10
-14.4184825947
 20
-4.6371312006
 10
-14.4260589929
 20
-4.6180669376
 10
-14.4310534187
 20
-4.5980148124
 10
-14.4333991792
 20
-4.5769493081
 10
-14.4331629674
 20
-4.5548959417
 10
-14.4302999491
 20
-4.5327045284
 10
-14.4247951796
 20
-4.5106583402
 10
-14.4166636036
 20
-4.4884741051
 10
-14.4059052211
 20
-4.4661518233
  0
LINE
  5
37B
100
AcDbEntity
  8
IMPORT_IGES
100
AcDbLine
 62
7
  6
CONTINUOUS
 10
-11.9959803061
 20
-13.3164338606
 11
-11.994985443
 21
-13.321699049
  0
LINE
  5
37C
100
AcDbEntity
  8
IMPORT_IGES
100
AcDbLine
 62
7
  6
CONTINUOUS
 10
-11.9949882913
 20
-13.1992125333
 11
-11.9959803061
 21
-13.1939625185
  0
LINE
  5
37D
100
AcDbEntity
  8
RACCORDO
100
AcDbLine
 62
7
  6
CONTINUOUS
 10
-11.8201830935
 20
16.4412910259
 11
-11.7156404338
 21
15.0011897712
  0
LWPOLYLINE
  5
37E
100
AcDbEntity
  8
IMPORT_IGES
100
AcDbPolyline
 62
7
  6
CONTINUOUS
 90
8
 70
0
 10
-11.1618063912
 20
-7.1587699704
 10
-11.1615290583
 20
-7.1648943559
 10
-11.1587800607
 20
-7.1787131762
 10
-11.1531249106
 20
-7.1924440576
 10
-11.1447258818
 20
-7.2055431414
 10
-11.1336370655
 20
-7.2178291414
 10
-11.1198043703
 20
-7.229483344
 10
-11.1032277964
 20
-7.2405057491
  0
LWPOLYLINE
  5
37F
100
AcDbEntity
  8
IMPORT_IGES
100
AcDbPolyline
 62
250
  6
CONTINUOUS
 90
5
 70
0
 10
-9.6412673054
 20
-23.7386609058
 10
-9.6752273159
 20
-22.5476464495
 10
-9.7055272984
 20
-21.3543892377
 10
-9.7321668837
 20
-20.1589038097
 10
-9.7475623759
 20
-19.3783635955
  0
LINE
  5
380
100
AcDbEntity
  8
IMPORT_IGES
100
AcDbLine
 62
250
  6
CONTINUOUS
 10
-11.4454478664
 20
-22.2077303931
 11
-11.4655548672
 21
-21.4850202678
  0
LINE
  5
381
100
AcDbEntity
  8
IMPORT_IGES
100
AcDbLine
 62
250
  6
CONTINUOUS
 10
-10.1015507502
 20
-22.2725791821
 11
-10.0814437493
 21
-22.9952893072
  0
LWPOLYLINE
  5
382
100
AcDbEntity
  8
IMPORT_IGES
100
AcDbPolyline
 62
250
  6
CONTINUOUS
 90
5
 70
0
 10
-11.9664634563
 20
-18.0971978289
 10
-11.9422102938
 20
-19.2941280088
 10
-11.9142965173
 20
-20.4888394657
 10
-11.882722467
 20
-21.6813176423
 10
-11.8601683869
 20
-22.4574951398
  0
LINE
  5
383
100
AcDbEntity
  8
IMPORT_IGES
100
AcDbLine
 62
250
  6
CONTINUOUS
 10
-11.2174017628
 20
-18.4696889461
 11
-11.2238308151
 21
-18.1145353208
  0
LINE
  5
384
100
AcDbEntity
  8
IMPORT_IGES
100
AcDbLine
 62
250
  6
CONTINUOUS
 10
-10.5053143108
 20
-18.529397756
 11
-10.4988852585
 21
-18.8845513813
  0
LINE
  5
385
100
AcDbEntity
  8
ASSI
100
AcDbLine
 62
250
  6
CONTINUOUS
 10
-10.6621840964
 20
-14.9270392908
 11
-10.6553325435
 21
-15.6582851473
  0
LINE
  5
386
100
AcDbEntity
  8
ASSI
100
AcDbLine
 62
7
  6
CONTINUOUS
 10
-10.7500517049
 20
-14.8046779564
 11
-10.7431999481
 21
-15.5359546704
  0
LINE
  5
387
100
AcDbEntity
  8
IMPORT_IGES
100
AcDbLine
 62
7
  6
CONTINUOUS
 10
-11.9959803061
 20
-13.1939629188
 11
-11.9959803061
 21
-13.3164334603
  0
LINE
  5
388
100
AcDbEntity
  8
IMPORT_IGES
100
AcDbLine
 62
250
  6
CONTINUOUS
 10
-11.9666909842
 20
-13.3572609196
 11
-11.9666909842
 21
-13.2347903781
  0
LINE
  5
389
100
AcDbEntity
  8
IMPORT_IGES
100
AcDbLine
 62
7
  6
CONTINUOUS
 10
-11.9666909842
 20
-13.1939629188
 11
-11.9666909842
 21
-13.1339838758
  0
LINE
  5
38A
100
AcDbEntity
  8
ASSI
100
AcDbLine
 62
250
  6
CONTINUOUS
 10
-11.9067859576
 20
15.1102275081
 11
-11.9067859576
 21
15.3147780135
  0
LINE
  5
38B
100
AcDbEntity
  8
IMPORT_IGES
100
AcDbLine
 62
7
420
14742271
  6
CONTINUOUS
 10
-11.1625007727
 20
-13.6991197274
 11
-11.1625007727
 21
-13.8215902689
  0
LINE
  5
38C
100
AcDbEntity
  8
IMPORT_IGES
100
AcDbLine
 62
250
  6
CONTINUOUS
 10
-11.1172356325
 20
-7.0861784891
 11
-11.1172356325
 21
-7.2311913971
  0
LINE
  5
38D
100
AcDbEntity
  8
IMPORT_IGES
100
AcDbLine
 62
7
420
14742271
  6
CONTINUOUS
 10
-11.1015846888
 20
-13.809276191
 11
-11.1015846888
 21
-13.8771663182
  0
LINE
  5
38E
100
AcDbEntity
  8
IMPORT_IGES
100
AcDbLine
 62
7
420
14742271
  6
CONTINUOUS
 10
-11.0523981647
 20
-13.8338330916
 11
-11.0523981647
 21
-13.7593354127
  0
LINE
  5
38F
100
AcDbEntity
  8
IMPORT_IGES
100
AcDbLine
 62
7
420
14742271
  6
CONTINUOUS
 10
-10.9914820809
 20
-13.8894091409
 11
-10.9914820809
 21
-13.8777278808
  0
LINE
  5
390
100
AcDbEntity
  8
IMPORT_IGES
100
AcDbLine
 62
250
  6
CONTINUOUS
 10
-10.8627412112
 20
-7.3757805361
 11
-10.8627412112
 21
-7.2941335085
  0
LINE
  5
391
100
AcDbEntity
  8
IMPORT_IGES
100
AcDbLine
 62
250
  6
CONTINUOUS
 10
-10.3677664643
 20
-7.3757805361
 11
-10.3677664643
 21
-7.2941335085
  0
LWPOLYLINE
  5
392
100
AcDbEntity
  8
ASSI
100
AcDbPolyline
 62
7
  6
CONTINUOUS
 90
13
 70
0
 10
-10.743199101
 20
-15.536034063
 10
-10.7436804553
 20
-15.5892163299
 10
-10.7473828808
 20
-15.6560163247
 10
-10.7546285668
 20
-15.7204270752
 10
-10.7654860396
 20
-15.7819865002
 10
-10.7799229947
 20
-15.8399705385
 10
-10.7976770331
 20
-15.8933969872
 10
-10.8184280733
 20
-15.9416903314
 10
-10.841914532
 20
-15.9846933841
 10
-10.8677847667
 20
-16.0222080416
 10
-10.8957451183
 20
-16.0542180132
 10
-10.9255991082
 20
-16.0809231296
 10
-10.9550901435
 20
-16.1013338268
  0
LWPOLYLINE
  5
393
100
AcDbEntity
  8
ASSI
100
AcDbPolyline
 62
250
  6
CONTINUOUS
 90
25
 70
0
 10
-10.6553325435
 20
-15.6582851473
 10
-10.6575762577
 20
-15.7557518486
 10
-10.6648867147
 20
-15.8479425967
 10
-10.6772656333
 20
-15.9348584009
 10
-10.694788238
 20
-16.0163908017
 10
-10.7173826482
 20
-16.0926502251
 10
-10.7448297239
 20
-16.1639658912
 10
-10.7772204657
 20
-16.2307371456
 10
-10.8144664881
 20
-16.2925661826
 10
-10.8560801182
 20
-16.3485868218
 10
-10.9021201412
 20
-16.3986844312
 10
-10.9525317508
 20
-16.4429759976
 10
-11.0066580084
 20
-16.4809434357
 10
-11.0641234646
 20
-16.5125236417
 10
-11.1253079713
 20
-16.5377823322
 10
-11.1906878738
 20
-16.5563948513
 10
-11.2606677499
 20
-16.5685826695
 10
-11.3348464412
 20
-16.574126349
 10
-11.4124920325
 20
-16.5720400776
 10
-11.4939890181
 20
-16.5620300235
 10
-11.5789563875
 20
-16.5443920928
 10
-11.665514414
 20
-16.5190253456
 10
-11.7530373803
 20
-16.4858966467
 10
-11.8421532598
 20
-16.445040476
 10
-11.9328626107
 20
-16.3964571662
  0
LWPOLYLINE
  5
394
100
AcDbEntity
  8
ASSI
100
AcDbPolyline
 62
250
  6
CONTINUOUS
 90
13
 70
0
 10
-11.9328626107
 20
-16.3964571662
 10
-11.9315022702
 20
-16.3636934637
 10
-11.9265412294
 20
-16.3293288231
 10
-11.9180642515
 20
-16.2939503884
 10
-11.9062161714
 20
-16.2581626253
 10
-11.891199422
 20
-16.2225769929
 10
-11.873270575
 20
-16.1878014967
 10
-11.8527359575
 20
-16.1544303007
 10
-11.8299464178
 20
-16.1230335753
 10
-11.8052913314
 20
-16.0941477556
 10
-11.7791919476
 20
-16.0682663763
 10
-11.752094193
 20
-16.045831639
 10
-11.7244610517
 20
-16.0272268569
  0
LWPOLYLINE
  5
395
100
AcDbEntity
  8
IMPORT_IGES
100
AcDbPolyline
 62
250
  6
CONTINUOUS
 90
10
 70
0
 10
-11.2439492748
 20
-15.2891429064
 10
-11.240976517
 20
-15.2465638356
 10
-11.2320265695
 20
-15.201298749
 10
-11.2171856161
 20
-15.1545939784
 10
-11.1967402533
 20
-15.107831975
 10
-11.171140967
 20
-15.0623982273
 10
-11.1409688081
 20
-15.0196553297
 10
-11.1070041927
 20
-14.9810328355
 10
-11.0702438381
 20
-14.947958676
 10
-11.0318172405
 20
-14.9217194454
  0
LINE
  5
396
100
AcDbEntity
  8
RACCORDO
100
AcDbLine
 62
250
  6
CONTINUOUS
 10
-6.7484499481
 20
17.497255664
 11
-6.776512121
 21
17.3813287003
  0
LINE
  5
397
100
AcDbEntity
  8
RACCORDO
100
AcDbLine
 62
250
  6
CONTINUOUS
 10
-6.9947177041
 20
16.0141757547
 11
-7.0163898775
 21
15.9246463636
  0
LWPOLYLINE
  5
398
100
AcDbEntity
  8
RACCORDO
100
AcDbPolyline
 62
7
  6
CONTINUOUS
 90
12
 70
0
 10
-6.6885628771
 20
17.4230070125
 10
-6.6888815705
 20
17.4218282709
 10
-6.6906380593
 20
17.4172745666
 10
-6.6932262255
 20
17.4129491307
 10
-6.6966355502
 20
17.4088490762
 10
-6.7008225463
 20
17.4050267007
 10
-6.7057971756
 20
17.4014855612
 10
-6.7115494762
 20
17.3982221007
 10
-6.7180060757
 20
17.3952779458
 10
-6.7251425164
 20
17.392666972
 10
-6.732983256
 20
17.3903753037
 10
-6.7415282943
 20
17.388402941
  0
LWPOLYLINE
  5
399
100
AcDbEntity
  8
RACCORDO
100
AcDbPolyline
 62
7
  6
CONTINUOUS
 90
12
 70
0
 10
-7.0476831213
 20
15.9795716832
 10
-7.0473644279
 20
15.9807504248
 10
-7.0456079391
 20
15.9853041291
 10
-7.0430197729
 20
15.989629565
 10
-7.0396104482
 20
15.9937296195
 10
-7.0354234521
 20
15.997551995
 10
-7.0304488228
 20
16.0010931345
 10
-7.0246965221
 20
16.004356595
 10
-7.0182399227
 20
16.00730075
 10
-7.0111034819
 20
16.0099117238
 10
-7.0032627424
 20
16.012203392
 10
-6.9947177041
 20
16.0141757547
  0
LWPOLYLINE
  5
39A
100
AcDbEntity
  8
IMPORT_IGES
100
AcDbPolyline
 62
7
420
14742271
  6
CONTINUOUS
 90
18
 70
0
 10
-15.261978676
 20
-11.2108026544
 10
-15.2617737469
 20
-11.2102585705
 10
-15.2615591591
 20
-11.2097168677
 10
-15.2613348874
 20
-11.2091776215
 10
-15.2611009066
 20
-11.2086409077
 10
-15.2608571915
 20
-11.2081068016
 10
-15.2606037169
 20
-11.207575379
 10
-15.2603404576
 20
-11.2070467152
 10
-15.2600673883
 20
-11.206520886
 10
-15.259784484
 20
-11.2059979669
 10
-15.2594917193
 20
-11.2054780333
 10
-15.2591890691
 20
-11.204961161
 10
-15.2588765082
 20
-11.2044474254
 10
-15.2585540113
 20
-11.2039369022
 10
-15.2582215533
 20
-11.2034296668
 10
-15.257879109
 20
-11.2029257949
 10
-15.2575266531
 20
-11.202425362
 10
-15.2571641605
 20
-11.2019284436
  0
LINE
  5
39B
100
AcDbEntity
  8
IMPORT_IGES
100
AcDbLine
 62
7
  6
CONTINUOUS
 10
-14.4059052211
 20
-4.4661518233
 11
-13.9032645299
 21
-3.5633686389
  0
LWPOLYLINE
  5
39C
100
AcDbEntity
  8
ASSI
100
AcDbPolyline
 62
250
  6
CONTINUOUS
 90
34
 70
0
 10
-5.4617763213
 20
11.032833404
 10
-5.4824647823
 20
11.0075173428
 10
-5.4991622383
 20
10.9811326806
 10
-5.5116258293
 20
10.9542022283
 10
-5.5198109565
 20
10.9266623285
 10
-5.5237622188
 20
10.8985766386
 10
-5.523370553
 20
10.8706589428
 10
-5.5185248392
 20
10.8429254369
 10
-5.5093361972
 20
10.8153599249
 10
-5.4960289235
 20
10.7886276036
 10
-5.4784980817
 20
10.7627429609
 10
-5.4568486081
 20
10.7376915089
 10
-5.431619608
 20
10.7140949798
 10
-5.402736524
 20
10.6919964759
 10
-5.3702739134
 20
10.671352895
 10
-5.3349945537
 20
10.6526566627
 10
-5.2967742924
 20
10.6359428625
 10
-5.255737282
 20
10.621176411
 10
-5.2130187564
 20
10.6087444829
 10
-5.1682648157
 20
10.5987545217
 10
-5.1218293599
 20
10.5910990839
 10
-5.0759093237
 20
10.5858430142
 10
-5.0307180314
 20
10.5832128851
 10
-4.9860421588
 20
10.582982124
 10
-4.943438668
 20
10.5845358576
 10
-4.9037113735
 20
10.5877776034
 10
-4.8660564609
 20
10.592803844
 10
-4.8296194488
 20
10.599289153
 10
-4.7944337538
 20
10.6069560738
 10
-4.7604659592
 20
10.6160820632
 10
-4.7267613347
 20
10.6271740645
 10
-4.6930016365
 20
10.640401059
 10
-4.6595051083
 20
10.6555940655
 10
-4.62627175
 20
10.672753084
  0
LINE
  5
39D
100
AcDbEntity
  8
RACCORDO
100
AcDbLine
 62
250
  6
CONTINUOUS
 10
-3.7761574277
 20
13.6755634117
 11
-3.8954411962
 21
13.5536750575
  0
LWPOLYLINE
  5
39E
100
AcDbEntity
  8
ASSI
100
AcDbPolyline
 62
250
  6
CONTINUOUS
 90
4
 70
0
 10
-5.3760077683
 20
11.1018471694
 10
-5.408588291
 20
11.0799111821
 10
-5.4371778086
 20
11.0569065936
 10
-5.4617763213
 20
11.032833404
  0
LWPOLYLINE
  5
39F
100
AcDbEntity
  8
ASSI
100
AcDbPolyline
 62
7
  6
CONTINUOUS
 90
13
 70
0
 10
-5.5043636192
 20
11.1122314018
 10
-5.5409463019
 20
11.0884253138
 10
-5.5821313423
 20
11.0573572021
 10
-5.6198208664
 20
11.0238915582
 10
-5.6538455571
 20
10.9880999276
 10
-5.6839900828
 20
10.950106022
 10
-5.7100178679
 20
10.9101551864
 10
-5.7317789764
 20
10.8684027722
 10
-5.7490537245
 20
10.8251548632
 10
-5.7616016613
 20
10.7810727968
 10
-5.7694136508
 20
10.7365936362
 10
-5.7725438193
 20
10.692095793
 10
-5.7726163139
 20
10.684200161
  0
LINE
  5
3A0
100
AcDbEntity
  8
ASSI
100
AcDbLine
 62
7
  6
CONTINUOUS
 10
0.9819295401
 20
15.0569213843
 11
-5.5043680236
 21
11.1122287234
  0
LINE
  5
3A1
100
AcDbEntity
  8
ASSI
100
AcDbLine
 62
250
  6
CONTINUOUS
 10
1.1085945481
 20
15.0454875686
 11
-5.3760077683
 21
11.1018471694
  0
LINE
  5
3A2
100
AcDbEntity
  8
ASSI
100
AcDbLine
 62
7
  6
CONTINUOUS
 10
-0.3615733441
 20
11.4640457807
 11
-1.7877810428
 21
10.5966863994
  0
LINE
  5
3A3
100
AcDbEntity
  8
DRAFT
100
AcDbLine
 62
7
  6
CONTINUOUS
 10
17.3653540604
 20
23.4602525356
 11
18.4167579911
 21
24.0780088632
  0
LINE
  5
3A4
100
AcDbEntity
  8
0
100
AcDbLine
 62
7
  6
CONTINUOUS
 10
17.3653540604
 20
23.5001967609
 11
6.8812228374
 21
17.4467804896
  0
LINE
  5
3A5
100
AcDbEntity
  8
ASSI
100
AcDbLine
 62
250
  6
CONTINUOUS
 10
-4.62627175
 20
10.672753084
 11
3.5394219985
 21
15.3875173751
  0
LINE
  5
3A6
100
AcDbEntity
  8
IMPORT_IGES
100
AcDbLine
 62
7
  6
CONTINUOUS
 10
15.3525355945
 20
22.1729902424
 11
14.7161394915
 21
21.8055431084
  0
LINE
  5
3A7
100
AcDbEntity
  8
ASSI
100
AcDbLine
 62
250
  6
CONTINUOUS
 10
-4.4495017859
 20
10.3665785251
 11
3.7161919627
 21
15.0813428162
  0
LINE
  5
3A8
100
AcDbEntity
  8
ASSI
100
AcDbLine
 62
7
  6
CONTINUOUS
 10
4.0635882817
 20
14.8736825277
 11
-4.4495017859
 21
9.9583356146
  0
LINE
  5
3A9
100
AcDbEntity
  8
0
100
AcDbLine
 62
7
  6
CONTINUOUS
 10
19.7921303599
 20
24.5144272156
 11
3.5558339998
 21
15.6264070194
  0
LWPOLYLINE
  5
3AA
100
AcDbEntity
  8
ASSI
100
AcDbPolyline
 62
250
  6
CONTINUOUS
 90
12
 70
0
 10
3.5394219985
 20
15.3875173751
 10
3.5801828044
 20
15.4090824293
 10
3.6201679038
 20
15.4266335088
 10
3.6591569683
 20
15.4402126422
 10
3.6967817795
 20
15.4498543154
 10
3.7330396513
 20
15.4557190157
 10
3.768249201
 20
15.4579246403
 10
3.8023673491
 20
15.456441508
 10
3.8350479098
 20
15.4512564391
 10
3.8661233622
 20
15.4423893301
 10
3.8954380857
 20
15.4298731839
 10
3.9076574686
 20
15.4232685579
  0
LWPOLYLINE
  5
3AB
100
AcDbEntity
  8
ASSI
100
AcDbPolyline
 62
250
  6
CONTINUOUS
 90
18
 70
0
 10
3.7161919627
 20
15.0813428162
 10
3.7435416821
 20
15.0957209165
 10
3.7701280874
 20
15.1074943273
 10
3.7959511783
 20
15.1166630486
 10
3.8210351929
 20
15.1231895846
 10
3.8453558932
 20
15.1271114311
 10
3.8688405656
 20
15.1285410759
 10
3.8915867648
 20
15.1275007488
 10
3.9134969362
 20
15.1239682201
 10
3.9342057016
 20
15.1179892889
 10
3.9536970978
 20
15.1095138726
 10
3.971987088
 20
15.0985920538
 10
3.9887581836
 20
15.0854198793
 10
4.0039706691
 20
15.0699798338
 10
4.0176642599
 20
15.0522894326
 10
4.0296406147
 20
15.0325972684
 10
4.0398873906
 20
15.0109573876
 10
4.0484169304
 20
14.9873157437
  0
LINE
  5
3AC
100
AcDbEntity
  8
IMPORT_IGES
100
AcDbLine
 62
7
  6
CONTINUOUS
 10
-10.97001669
 20
-13.9242957407
 11
-11.0068533294
 21
-13.9334110324
  0
LINE
  5
3AD
100
AcDbEntity
  8
IMPORT_IGES
100
AcDbLine
 62
250
  6
CONTINUOUS
 10
-11.0308740107
 20
-13.9179858865
 11
-10.9787732052
 21
-13.9050934499
  0
LINE
  5
3AE
100
AcDbEntity
  8
IMPORT_IGES
100
AcDbLine
 62
250
  6
CONTINUOUS
 10
-10.9914820809
 20
-13.8894091409
 11
-10.9864889082
 21
-13.8881735715
  0
LWPOLYLINE
  5
3AF
100
AcDbEntity
  8
IMPORT_IGES
100
AcDbPolyline
 62
7
420
14742271
  6
CONTINUOUS
 90
33
 70
0
 10
-10.9914820809
 20
-13.8894091409
 10
-10.9932516417
 20
-13.8898316708
 10
-10.9950461705
 20
-13.8902299459
 10
-10.9968645423
 20
-13.8906040913
 10
-10.9987056321
 20
-13.8909542322
 10
-11.0005683149
 20
-13.8912804936
 10
-11.0024514656
 20
-13.8915830005
 10
-11.0043539592
 20
-13.8918618782
 10
-11.0062746706
 20
-13.8921172518
 10
-11.0082124749
 20
-13.8923492462
 10
-11.010166247
 20
-13.8925579866
 10
-11.0121348619
 20
-13.8927435981
 10
-11.0141171946
 20
-13.8929062058
 10
-11.01611212
 20
-13.8930459349
 10
-11.0181185131
 20
-13.8931629103
 10
-11.0201352488
 20
-13.8932572572
 10
-11.0221612022
 20
-13.8933291006
 10
-11.0241952483
 20
-13.8933785658
 10
-11.0262362619
 20
-13.8934057778
 10
-11.0282831181
 20
-13.8934108616
 10
-11.0303346918
 20
-13.8933939424
 10
-11.032389858
 20
-13.8933551453
 10
-11.0344474917
 20
-13.8932945953
 10
-11.0365064679
 20
-13.8932124176
 10
-11.0385656614
 20
-13.8931087373
 10
-11.0406239474
 20
-13.8929836794
 10
-11.0426802007
 20
-13.8928373691
 10
-11.0447332964
 20
-13.8926699315
 10
-11.0467821094
 20
-13.8924814916
 10
-11.0488255147
 20
-13.8922721745
 10
-11.0508623872
 20
-13.8920421054
 10
-11.052891602
 20
-13.8917914094
 10
-11.054912034
 20
-13.8915202114
  0
LWPOLYLINE
  5
3B0
100
AcDbEntity
  8
IMPORT_IGES
100
AcDbPolyline
 62
7
420
14742271
  6
CONTINUOUS
 90
45
 70
0
 10
-11.0523981647
 20
-13.8338330916
 10
-11.0547631831
 20
-13.8343910687
 10
-11.0571719224
 20
-13.8349060003
 10
-11.059621716
 20
-13.8353781829
 10
-11.062109897
 20
-13.8358079131
 10
-11.0646337987
 20
-13.8361954875
 10
-11.0671907545
 20
-13.8365412025
 10
-11.0697780975
 20
-13.8368453546
 10
-11.0723931611
 20
-13.8371082405
 10
-11.0750332784
 20
-13.8373301566
 10
-11.0776957829
 20
-13.8375113994
 10
-11.0803780077
 20
-13.8376522655
 10
-11.0830772861
 20
-13.8377530514
 10
-11.0857909514
 20
-13.8378140536
 10
-11.0885163368
 20
-13.8378355687
 10
-11.0912507756
 20
-13.8378178931
 10
-11.0939916011
 20
-13.8377613235
 10
-11.0967361466
 20
-13.8376661563
 10
-11.0994817453
 20
-13.837532688
 10
-11.1022257304
 20
-13.8373612153
 10
-11.1049654353
 20
-13.8371520345
 10
-11.1076981933
 20
-13.8369054423
 10
-11.1104213375
 20
-13.8366217351
 10
-11.1131322012
 20
-13.8363012096
 10
-11.1158281178
 20
-13.8359441622
 10
-11.1185064204
 20
-13.8355508894
 10
-11.1211644425
 20
-13.8351216877
 10
-11.1237995171
 20
-13.8346568538
 10
-11.1264089776
 20
-13.8341566841
 10
-11.1289901573
 20
-13.8336214752
 10
-11.1315403894
 20
-13.8330515235
 10
-11.1340570072
 20
-13.8324471256
 10
-11.1365373439
 20
-13.8318085781
 10
-11.1389787329
 20
-13.8311361774
 10
-11.1413785073
 20
-13.8304302201
 10
-11.1437340005
 20
-13.8296910027
 10
-11.1460425458
 20
-13.8289188217
 10
-11.1483014763
 20
-13.8281139737
 10
-11.1505081254
 20
-13.8272767552
 10
-11.1526598263
 20
-13.8264074627
 10
-11.1547539123
 20
-13.8255063928
 10
-11.1567877167
 20
-13.8245738419
 10
-11.1587585727
 20
-13.8236101066
 10
-11.1606638136
 20
-13.8226154834
 10
-11.1625007727
 20
-13.8215902689
  0
LINE
  5
3B1
100
AcDbEntity
  8
IMPORT_IGES
100
AcDbLine
 62
7
  6
CONTINUOUS
 10
-11.0495370767
 20
-13.7644672723
 11
-11.1015846888
 21
-13.7751075336
  0
LINE
  5
3B2
100
AcDbEntity
  8
IMPORT_IGES
100
AcDbLine
 62
7
  6
CONTINUOUS
 10
-11.1625007727
 20
-13.8215902689
 11
-11.0331207291
 21
-13.7954363234
  0
LWPOLYLINE
  5
3B3
100
AcDbEntity
  8
ASSI
100
AcDbPolyline
 62
250
  6
CONTINUOUS
 90
6
 70
0
 10
-9.453769377
 20
-10.7994045375
 10
-9.4689779457
 20
-10.7977064071
 10
-9.4852358705
 20
-10.7941491786
 10
-9.5027756324
 20
-10.7884388556
 10
-9.5212322708
 20
-10.7804430138
 10
-9.5404831051
 20
-10.7700025301
  0
LWPOLYLINE
  5
3B4
100
AcDbEntity
  8
IMPORT_IGES
100
AcDbPolyline
 62
250
  6
CONTINUOUS
 90
27
 70
0
 10
-9.4766266287
 20
-7.9563021035
 10
-9.483507323
 20
-7.9541328702
 10
-9.4904603249
 20
-7.952041913
 10
-9.4974829638
 20
-7.9500300349
 10
-9.5045725421
 20
-7.9480980089
 10
-9.5117263367
 20
-7.9462465769
 10
-9.5189415996
 20
-7.9444764502
 10
-9.5262155592
 20
-7.9427883087
 10
-9.5335454216
 20
-7.9411828009
 10
-9.5409283712
 20
-7.9396605435
 10
-9.5483615721
 20
-7.9382221211
 10
-9.5558421691
 20
-7.9368680863
 10
-9.5633672887
 20
-7.9355989593
 10
-9.5709340403
 20
-7.9344152275
 10
-9.5785395176
 20
-7.9333173456
 10
-9.586180799
 20
-7.9323057353
 10
-9.5938549495
 20
-7.9313807852
 10
-9.6015590212
 20
-7.9305428506
 10
-9.6092900549
 20
-7.9297922533
 10
-9.6170450809
 20
-7.9291292818
 10
-9.6248211204
 20
-7.9285541905
 10
-9.6326151865
 20
-7.9280672005
 10
-9.6404242853
 20
-7.9276684988
 10
-9.6482454173
 20
-7.9273582386
 10
-9.6560755782
 20
-7.9271365389
 10
-9.6639117603
 20
-7.9270034851
 10
-9.6717509535
 20
-7.9269591281
  0
LINE
  5
3B5
100
AcDbEntity
  8
IMPORT_IGES
100
AcDbLine
 62
7
  6
CONTINUOUS
 10
-10.4216033067
 20
-7.3517713839
 11
-10.3677664643
 21
-7.3757805361
  0
LWPOLYLINE
  5
3B6
100
AcDbEntity
  8
IMPORT_IGES
100
AcDbPolyline
 62
7
  6
CONTINUOUS
 90
13
 70
0
 10
-13.3205221301
 20
-5.3403026202
 10
-13.3016984186
 20
-5.3491341336
 10
-13.2821872915
 20
-5.3552520357
 10
-13.2619887489
 20
-5.3586563266
 10
-13.2408163606
 20
-5.3593017689
 10
-13.2189565569
 20
-5.3572336
 10
-13.1972686281
 20
-5.3525875318
 10
-13.175757014
 20
-5.3452969767
 10
-13.154417275
 20
-5.3354285224
 10
-13.1340953828
 20
-5.3233176441
 10
-13.1150733281
 20
-5.3090761669
 10
-13.0970691203
 20
-5.2925922658
 10
-13.0800827593
 20
-5.2738659406
  0
LWPOLYLINE
  5
3B7
100
AcDbEntity
  8
IMPORT_IGES
100
AcDbPolyline
 62
7
  6
CONTINUOUS
 90
10
 70
0
 10
-10.3677664643
 20
-7.2941335085
 10
-10.4158982275
 20
-7.2714086581
 10
-10.4667495713
 20
-7.2542044827
 10
-10.5203204956
 20
-7.242520982
 10
-10.5779486309
 20
-7.2361441059
 10
-10.6382963467
 20
-7.2352879047
 10
-10.6973507518
 20
-7.2405945292
 10
-10.7537742157
 20
-7.2522780298
 10
-10.8089043688
 20
-7.2701243563
 10
-10.8627412112
 20
-7.2941335085
  0
LWPOLYLINE
  5
3B8
100
AcDbEntity
  8
IMPORT_IGES
100
AcDbPolyline
 62
7
  6
CONTINUOUS
 90
3
 70
0
 10
-9.4145162436
 20
-8.2155466351
 10
-9.395426108
 20
-8.2251177411
 10
-9.3946083599
 20
-8.2254413188
  0
LWPOLYLINE
  5
3B9
100
AcDbEntity
  8
IMPORT_IGES
100
AcDbPolyline
 62
7
  6
CONTINUOUS
 90
13
 70
0
 10
-13.6571569307
 20
-5.7658990752
 10
-13.6380667951
 20
-5.7754701812
 10
-13.6178824246
 20
-5.783457006
 10
-13.5966038192
 20
-5.7898595496
 10
-13.5739170022
 20
-5.7947090435
 10
-13.5501359503
 20
-5.7979742563
 10
-13.5262025934
 20
-5.7995614931
 10
-13.5021129974
 20
-5.7994274114
 10
-13.4778710965
 20
-5.7976153538
 10
-13.4544306226
 20
-5.7941616529
 10
-13.4321094867
 20
-5.7890784198
 10
-13.4105897779
 20
-5.7823535436
 10
-13.3898714963
 20
-5.7739870241
  0
LWPOLYLINE
  5
3BA
100
AcDbEntity
  8
IMPORT_IGES
100
AcDbPolyline
 62
250
  6
CONTINUOUS
 90
20
 70
0
 10
-9.3923607979
 20
-7.9926348563
 10
-9.3963602435
 20
-7.9904120733
 10
-9.4004127293
 20
-7.9882215512
 10
-9.4045174747
 20
-7.9860637118
 10
-9.4086736892
 20
-7.9839389707
 10
-9.4128805724
 20
-7.9818477372
 10
-9.4171373138
 20
-7.979790414
 10
-9.4214430938
 20
-7.9777673974
 10
-9.425797083
 20
-7.975779077
 10
-9.4301984428
 20
-7.9738258357
 10
-9.4346463256
 20
-7.9719080498
 10
-9.4391398746
 20
-7.9700260885
 10
-9.4436782245
 20
-7.9681803145
 10
-9.448260501
 20
-7.9663710831
 10
-9.4528858218
 20
-7.9645987429
 10
-9.4575532959
 20
-7.9628636351
 10
-9.4622620245
 20
-7.961166094
 10
-9.4670111005
 20
-7.9595064464
 10
-9.4717996093
 20
-7.9578850122
 10
-9.4766266287
 20
-7.9563021035
  0
LINE
  5
3BB
100
AcDbEntity
  8
ASSI
100
AcDbLine
 62
250
  6
CONTINUOUS
 10
-16.9288489921
 20
-4.8321337285
 11
-17.1729380036
 21
-4.696103646
  0
LINE
  5
3BC
100
AcDbEntity
  8
IMPORT_IGES
100
AcDbLine
 62
7
  6
CONTINUOUS
 10
-9.4014960986
 20
-9.0232705556
 11
-17.1743776312
 21
-4.5353061758
  0
LINE
  5
3BD
100
AcDbEntity
  8
IMPORT_IGES
100
AcDbLine
 62
7
  6
CONTINUOUS
 10
-17.0683115029
 20
-4.3515945431
 11
-9.3995412619
 21
-8.7794463192
  0
LINE
  5
3BE
100
AcDbEntity
  8
IMPORT_IGES
100
AcDbLine
 62
7
  6
CONTINUOUS
 10
-9.4145162436
 20
-8.2155466351
 11
-11.1032277964
 21
-7.2405057491
  0
LINE
  5
3BF
100
AcDbEntity
  8
IMPORT_IGES
100
AcDbLine
 62
7
  6
CONTINUOUS
 10
-13.6571569307
 20
-5.7658990752
 11
-15.3458684836
 21
-4.7908581891
  0
LINE
  5
3C0
100
AcDbEntity
  8
IMPORT_IGES
100
AcDbLine
 62
7
  6
CONTINUOUS
 10
-9.3918073086
 20
-7.939287121
 11
-10.3677664643
 21
-7.3757805361
  0
LINE
  5
3C1
100
AcDbEntity
  8
IMPORT_IGES
100
AcDbLine
 62
7
  6
CONTINUOUS
 10
-10.3677664643
 20
-7.2941335085
 11
-9.3909373147
 21
-7.8581424169
  0
LINE
  5
3C2
100
AcDbEntity
  8
IMPORT_IGES
100
AcDbLine
 62
7
  6
CONTINUOUS
 10
-9.3882846502
 20
-7.6107272587
 11
-9.9918091131
 21
-7.2622597977
  0
LINE
  5
3C3
100
AcDbEntity
  8
IMPORT_IGES
100
AcDbLine
 62
7
  6
CONTINUOUS
 10
-13.3205221301
 20
-5.3403026202
 11
-14.2344498002
 21
-4.8126122377
  0
LINE
  5
3C4
100
AcDbEntity
  8
IMPORT_IGES
100
AcDbLine
 62
7
  6
CONTINUOUS
 10
-14.3650513215
 20
-4.6950037118
 11
-13.4511236514
 21
-5.2226940943
  0
LINE
  5
3C5
100
AcDbEntity
  8
IMPORT_IGES
100
AcDbLine
 62
7
  6
CONTINUOUS
 10
-10.1224106344
 20
-7.1446512718
 11
-9.387834977
 21
-7.56878605
  0
LINE
  5
3C6
100
AcDbEntity
  8
CURVE
100
AcDbLine
 62
250
  6
CONTINUOUS
 10
-0.8680578004
 20
-12.3631484198
 11
-0.477499591
 21
-12.588609553
  0
LINE
  5
3C7
100
AcDbEntity
  8
IMPORT_IGES
100
AcDbLine
 62
7
  6
CONTINUOUS
 10
-10.4051920214
 20
-6.8234224082
 11
-10.2131975084
 21
-6.9342776338
  0
LINE
  5
3C8
100
AcDbEntity
  8
IMPORT_IGES
100
AcDbLine
 62
7
  6
CONTINUOUS
 10
-10.1165364164
 20
-6.8318719186
 11
-10.1903601709
 21
-6.789247008
  0
LINE
  5
3C9
100
AcDbEntity
  8
IMPORT_IGES
100
AcDbLine
 62
7
  6
CONTINUOUS
 10
-10.0842941537
 20
-6.728005819
 11
-10.064931602
 21
-6.7391855137
  0
LINE
  5
3CA
100
AcDbEntity
  8
IMPORT_IGES
100
AcDbLine
 62
250
  6
CONTINUOUS
 10
-13.9032645299
 20
-3.5633686389
 11
-12.553323539
 21
-4.3428076484
  0
LINE
  5
3CB
100
AcDbEntity
  8
IMPORT_IGES
100
AcDbLine
 62
250
  6
CONTINUOUS
 10
-9.6606238428
 20
-6.0130161989
 11
-9.3700378038
 21
-6.1807969359
  0
LINE
  5
3CC
100
AcDbEntity
  8
IMPORT_IGES
100
AcDbLine
 62
7
  6
CONTINUOUS
 10
-16.1844268482
 20
-2.1757237206
 11
-9.3690109559
 21
-6.1108594342
  0
LWPOLYLINE
  5
3CD
100
AcDbEntity
  8
ASSI
100
AcDbPolyline
 62
250
  6
CONTINUOUS
 90
8
 70
0
 10
-9.2772738068
 20
-5.9699281026
 10
-9.3028823909
 20
-5.9531401903
 10
-9.3245135027
 20
-5.9346582916
 10
-9.3418051942
 20
-5.9147916595
 10
-9.354468128
 20
-5.8938727173
 10
-9.3622904181
 20
-5.8722514965
 10
-9.3651411763
 20
-5.8502897796
 10
-9.3651415819
 20
-5.8473205453
  0
LWPOLYLINE
  5
3CE
100
AcDbEntity
  8
IMPORT_IGES
100
AcDbPolyline
 62
7
  6
CONTINUOUS
 90
6
 70
0
 10
-16.5244783448
 20
-1.7252325089
 10
-16.5204458051
 20
-1.7279719708
 10
-16.5170442337
 20
-1.7310110242
 10
-16.5139048262
 20
-1.7345755947
 10
-16.511048472
 20
-1.7386383883
 10
-16.5085846937
 20
-1.7430437061
  0
LINE
  5
3CF
100
AcDbEntity
  8
IMPORT_IGES
100
AcDbLine
 62
7
  6
CONTINUOUS
 10
-16.7691157014
 20
-2.5915219615
 11
-16.7650797351
 21
-2.5942641959
  0
LWPOLYLINE
  5
3D0
100
AcDbEntity
  8
IMPORT_IGES
100
AcDbPolyline
 62
7
  6
CONTINUOUS
 90
3
 70
0
 10
-14.3650513215
 20
-4.6950037118
 10
-14.3818943194
 20
-4.6832417141
 10
-14.3870767403
 20
-4.6790760334
  0
LWPOLYLINE
  5
3D1
100
AcDbEntity
  8
IMPORT_IGES
100
AcDbPolyline
 62
7
  6
CONTINUOUS
 90
3
 70
0
 10
-10.1224106344
 20
-7.1446512718
 10
-10.1392536323
 20
-7.1328892741
 10
-10.1444360532
 20
-7.1287235934
  0
LWPOLYLINE
  5
3D2
100
AcDbEntity
  8
IMPORT_IGES
100
AcDbPolyline
 62
7
  6
CONTINUOUS
 90
3
 70
0
 10
-10.013834532
 20
-7.2463321193
 10
-10.0086521111
 20
-7.2504978
 10
-9.9918091131
 20
-7.2622597977
  0
LINE
  5
3D3
100
AcDbEntity
  8
IMPORT_IGES
100
AcDbLine
 62
7
  6
CONTINUOUS
 10
-10.0142027269
 20
-7.2460018078
 11
-10.1448042482
 21
-7.1283932819
  0
LINE
  5
3D4
100
AcDbEntity
  8
IMPORT_IGES
100
AcDbLine
 62
250
  6
CONTINUOUS
 10
-10.1224106344
 20
-7.1446512718
 11
-9.9918091131
 21
-7.2622597977
  0
LINE
  5
3D5
100
AcDbEntity
  8
IMPORT_IGES
100
AcDbLine
 62
7
  6
CONTINUOUS
 10
-12.4227220177
 20
-4.4604161742
 11
-12.553323539
 21
-4.3428076484
  0
LWPOLYLINE
  5
3D6
100
AcDbEntity
  8
IMPORT_IGES
100
AcDbPolyline
 62
7
  6
CONTINUOUS
 90
12
 70
0
 10
-10.1444360532
 20
-7.1287235934
 10
-10.1537595709
 20
-7.1193661488
 10
-10.1659284501
 20
-7.104081896
 10
-10.1758419076
 20
-7.0867787606
 10
-10.1834183058
 20
-7.0677144976
 10
-10.1884127316
 20
-7.0476623723
 10
-10.1907584921
 20
-7.0265968681
 10
-10.1905222803
 20
-7.0045435016
 10
-10.187659262
 20
-6.9823520884
 10
-10.1821544925
 20
-6.9603059001
 10
-10.1740229165
 20
-6.9381216651
 10
-10.163264534
 20
-6.9157993832
  0
LWPOLYLINE
  5
3D7
100
AcDbEntity
  8
ASSI
100
AcDbPolyline
 62
250
  6
CONTINUOUS
 90
11
 70
0
 10
-9.5502415639
 20
-5.342612892
 10
-9.517510841
 20
-5.3774289115
 10
-9.4862709485
 20
-5.414463521
 10
-9.4563931594
 20
-5.4538567148
 10
-9.4280052808
 20
-5.4954679877
 10
-9.4017148574
 20
-5.5384420744
 10
-9.3776264892
 20
-5.5825025254
 10
-9.3556345301
 20
-5.6279252088
 10
-9.3360311411
 20
-5.674683328
 10
-9.3186111521
 20
-5.7232592758
 10
-9.3035782185
 20
-5.7731698169
  0
LWPOLYLINE
  5
3D8
100
AcDbEntity
  8
ASSI
100
AcDbPolyline
 62
250
  6
CONTINUOUS
 90
3
 70
0
 10
-4.2231136313
 20
-26.6109589387
 10
-4.2172177308
 20
-26.6302942889
 10
-4.2136479929
 20
-26.6516093145
  0
LWPOLYLINE
  5
3D9
100
AcDbEntity
  8
ASSI
100
AcDbPolyline
 62
250
  6
CONTINUOUS
 90
5
 70
0
 10
-9.3035782185
 20
-5.7731698169
 10
-9.2918379079
 20
-5.8229398054
 10
-9.2836918318
 20
-5.8720773895
 10
-9.2788373313
 20
-5.9210738373
 10
-9.2772738178
 20
-5.9699288206
  0
LWPOLYLINE
  5
3DA
100
AcDbEntity
  8
ASSI
100
AcDbPolyline
 62
250
  6
CONTINUOUS
 90
19
 70
0
 10
-6.8565826931
 20
-26.9193185511
 10
-6.852960533
 20
-26.9664735363
 10
-6.846223009
 20
-27.0105698135
 10
-6.8363701208
 20
-27.0516073828
 10
-6.8232550084
 20
-27.0897316116
 10
-6.8070245319
 20
-27.1247971324
 10
-6.7881192718
 20
-27.1563678432
 10
-6.7662791037
 20
-27.184434064
 10
-6.7417641519
 20
-27.2090054747
 10
-6.7157953706
 20
-27.2296750131
 10
-6.6887773607
 20
-27.2461184939
 10
-6.6603055212
 20
-27.2586601024
 10
-6.6303870027
 20
-27.2678653314
 10
-6.599372188
 20
-27.2740831985
 10
-6.5669106943
 20
-27.2769646861
 10
-6.5319585234
 20
-27.276028235
 10
-6.4941676762
 20
-27.2711133254
 10
-6.4538861518
 20
-27.2623804771
 10
-6.4111139504
 20
-27.2498296899
  0
LWPOLYLINE
  5
3DB
100
AcDbEntity
  8
ASSI
100
AcDbPolyline
 62
250
  6
CONTINUOUS
 90
11
 70
0
 10
-7.2068863892
 20
-26.9255251778
 10
-7.2023494304
 20
-26.9879361267
 10
-7.1933578768
 20
-27.0468107877
 10
-7.1800518492
 20
-27.1018435659
 10
-7.162598279
 20
-27.1527517405
 10
-7.1411822087
 20
-27.1993152219
 10
-7.115993361
 20
-27.2413648341
 10
-7.0870336371
 20
-27.2789668691
 10
-7.0546970318
 20
-27.3116738987
 10
-7.0199750419
 20
-27.3388689492
 10
-6.9984312315
 20
-27.3524812368
  0
LWPOLYLINE
  5
3DC
100
AcDbEntity
  8
ASSI
100
AcDbPolyline
 62
250
  6
CONTINUOUS
 90
8
 70
0
 10
-9.6936251543
 20
-5.2303158119
 10
-9.6923472225
 20
-5.2616261067
 10
-9.6874526867
 20
-5.2903804531
 10
-9.6790255185
 20
-5.3160855602
 10
-9.6672102934
 20
-5.3383004488
 10
-9.6522097102
 20
-5.3566440171
 10
-9.6342811128
 20
-5.3708015779
 10
-9.6315408042
 20
-5.372442697
  0
LINE
  5
3DD
100
AcDbEntity
  8
IMPORT_IGES
100
AcDbLine
 62
7
  6
CONTINUOUS
 10
-9.6717509535
 20
-9.0222911832
 11
-9.6717509535
 21
-8.9896994455
  0
LINE
  5
3DE
100
AcDbEntity
  8
ASSI
100
AcDbLine
 62
7
  6
CONTINUOUS
 10
-7.8363241877
 20
20.0060772869
 11
-7.8363241877
 21
19.8130764002
  0
LWPOLYLINE
  5
3DF
100
AcDbEntity
  8
ASSI
100
AcDbPolyline
 62
7
  6
CONTINUOUS
 90
10
 70
0
 10
-9.3651415819
 20
-5.8473205453
 10
-9.3724237468
 20
-6.3433009373
 10
-9.3799635375
 20
-6.9052560139
 10
-9.3867412092
 20
-7.4667698601
 10
-9.3927567382
 20
-8.0278408237
 10
-9.3980101085
 20
-8.5884675353
 10
-9.4025013058
 20
-9.1486487474
 10
-9.4062303162
 20
-9.7083830935
 10
-9.4091971273
 20
-10.2676689296
 10
-9.4111997985
 20
-10.7660117086
  0
LWPOLYLINE
  5
3E0
100
AcDbEntity
  8
ASSI
100
AcDbPolyline
 62
250
  6
CONTINUOUS
 90
10
 70
0
 10
-9.2772738178
 20
-5.9699288206
 10
-9.2852885796
 20
-6.5181292684
 10
-9.2925790675
 20
-7.0659099649
 10
-9.2991452664
 20
-7.6132695685
 10
-9.3049871542
 20
-8.1602058713
 10
-9.310104731
 20
-8.706718402
 10
-9.314498007
 20
-9.252808419
 10
-9.3181669695
 20
-9.7984754437
 10
-9.3211115944
 20
-10.3437172672
 10
-9.3233318669
 20
-10.8885325478
  0
LWPOLYLINE
  5
3E1
100
AcDbEntity
  8
ASSI
100
AcDbPolyline
 62
7
  6
CONTINUOUS
 90
6
 70
0
 10
-9.4111999583
 20
-10.766062316
 10
-9.4114906055
 20
-10.7773003084
 10
-9.4124393915
 20
-10.7893490614
 10
-9.4138034865
 20
-10.7989399785
 10
-9.4153036196
 20
-10.8060279101
 10
-9.4163638542
 20
-10.8097803552
  0
LWPOLYLINE
  5
3E2
100
AcDbEntity
  8
ASSI
100
AcDbPolyline
 62
250
  6
CONTINUOUS
 90
19
 70
0
 10
-9.3233318669
 20
-10.8885325478
 10
-9.3253907785
 20
-10.9328990001
 10
-9.3308165092
 20
-10.9741816163
 10
-9.3396094332
 20
-11.0123806103
 10
-9.3519387543
 20
-11.0477707149
 10
-9.3676359125
 20
-11.0800775649
 10
-9.3861949645
 20
-11.1084779148
 10
-9.4079459259
 20
-11.1328231453
 10
-9.4325600451
 20
-11.1532625999
 10
-9.4585438306
 20
-11.1694203223
 10
-9.4855285307
 20
-11.1809429178
 10
-9.5138844914
 20
-11.1881846958
 10
-9.5432269682
 20
-11.1918313144
 10
-9.5730700544
 20
-11.1922960101
 10
-9.6039005061
 20
-11.189166034
 10
-9.6367923821
 20
-11.1818879567
 10
-9.6721038494
 20
-11.1702773864
 10
-9.7094771912
 20
-11.1545189734
 10
-9.7489125357
 20
-11.1346127914
  0
LWPOLYLINE
  5
3E3
100
AcDbEntity
  8
ASSI
100
AcDbPolyline
 62
250
  6
CONTINUOUS
 90
13
 70
0
 10
-9.7489125357
 20
-11.1346127914
 10
-9.7470724981
 20
-11.1019905442
 10
-9.7417254976
 20
-11.0678803751
 10
-9.7329607045
 20
-11.0328511288
 10
-9.7209242866
 20
-10.9974869774
 10
-9.7058169714
 20
-10.9623776779
 10
-9.6878906991
 20
-10.9281087374
 10
-9.6674444205
 20
-10.8952516482
 10
-9.644819112
 20
-10.8643543581
 10
-9.6203920888
 20
-10.8359321316
 10
-9.5945707129
 20
-10.8104589575
 10
-9.5677855995
 20
-10.7883596439
 10
-9.5404834356
 20
-10.7700027345
  0
LINE
  5
3E4
100
AcDbEntity
  8
RACCORDO
100
AcDbLine
 62
7
  6
CONTINUOUS
 10
-6.6424115068
 20
12.0931166303
 11
-6.5394710504
 21
13.3922740751
  0
LWPOLYLINE
  5
3E5
100
AcDbEntity
  8
RACCORDO
100
AcDbPolyline
 62
7
  6
CONTINUOUS
 90
13
 70
0
 10
-6.5394710504
 20
13.3922740751
 10
-6.5384272688
 20
13.4017555171
 10
-6.5368645835
 20
13.4107697805
 10
-6.5347829945
 20
13.4193168653
 10
-6.5321706167
 20
13.427425776
 10
-6.5290393352
 20
13.4350675081
 10
-6.5254248046
 20
13.442155048
 10
-6.5213215014
 20
13.4486820613
 10
-6.5167349492
 20
13.4546548825
 10
-6.5117173733
 20
13.4600055013
 10
-6.506263847
 20
13.464726806
 10
-6.500379297
 20
13.4688259082
 10
-6.4986028132
 20
13.4698943006
  0
LINE
  5
3E6
100
AcDbEntity
  8
IMPORT_IGES
100
AcDbLine
 62
7
  6
CONTINUOUS
 10
-10.1903601709
 20
-6.789247008
 11
-10.2257155099
 21
-7.0137743614
  0
LWPOLYLINE
  5
3E7
100
AcDbEntity
  8
IMPORT_IGES
100
AcDbPolyline
 62
7
  6
CONTINUOUS
 90
6
 70
0
 10
-11.9959803061
 20
-13.1939625185
 10
-11.994985443
 20
-13.1886973301
 10
-11.9921540744
 20
-13.1787238385
 10
-11.9864948979
 20
-13.1696526672
 10
-11.9780072011
 20
-13.1611232075
 10
-11.9666909842
 20
-13.1531354595
  0
LINE
  5
3E8
100
AcDbEntity
  8
RACCORDO
100
AcDbLine
 62
250
  6
CONTINUOUS
 10
-5.0444720194
 20
16.408543917
 11
-5.1318752243
 21
16.0474746511
  0
LINE
  5
3E9
100
AcDbEntity
  8
RACCORDO
100
AcDbLine
 62
250
  6
CONTINUOUS
 10
-4.7685509608
 20
16.3540868027
 11
-4.8559541657
 21
15.9930175367
  0
LWPOLYLINE
  5
3EA
100
AcDbEntity
  8
IMPORT_IGES
100
AcDbPolyline
 62
7
  6
CONTINUOUS
 90
3
 70
0
 10
-13.9032645299
 20
-3.5633686389
 10
-13.8746678219
 20
-3.5181337935
 10
-13.8702468843
 20
-3.5119022264
  0
LWPOLYLINE
  5
3EB
100
AcDbEntity
  8
ASSI
100
AcDbPolyline
 62
250
  6
CONTINUOUS
 90
34
 70
0
 10
-1.7708887513
 20
10.4978607964
 10
-1.7986355558
 20
10.4650833441
 10
-1.8215904275
 20
10.4307884569
 10
-1.8392293135
 20
10.3957598369
 10
-1.8514292153
 20
10.359980592
 10
-1.8583131315
 20
10.3234676142
 10
-1.8597260053
 20
10.2870552811
 10
-1.8555425509
 20
10.2507473766
 10
-1.8458880541
 20
10.2145401168
 10
-1.8309833154
 20
10.1792565277
 10
-1.8107086696
 20
10.1449172284
 10
-1.7851837818
 20
10.1115015998
 10
-1.7549884479
 20
10.0797708111
 10
-1.7200111328
 20
10.049761675
 10
-1.6803633716
 20
10.0214373788
 10
-1.6369595647
 20
9.9954486546
 10
-1.5897271733
 20
9.9718536918
 10
-1.5387387362
 20
9.950594301
 10
-1.4851262705
 20
9.9321466453
 10
-1.428763511
 20
9.9165699969
 10
-1.3697767228
 20
9.9038050837
 10
-1.3096767189
 20
9.8941502521
 10
-1.248036794
 20
9.8877806697
 10
-1.1852836532
 20
9.884521169
 10
-1.1242082249
 20
9.8841445937
 10
-1.0657987758
 20
9.886703634
 10
-1.0090670391
 20
9.8921455996
 10
-0.9538391422
 20
9.9000852636
 10
-0.9002175458
 20
9.9102567479
 10
-0.8480997892
 20
9.9229259306
 10
-0.7970046177
 20
9.9385052178
 10
-0.7467716133
 20
9.9571320783
 10
-0.697561194
 20
9.9786690434
 10
-0.6493733599
 20
10.0031161131
  0
LWPOLYLINE
  5
3EC
100
AcDbEntity
  8
ASSI
100
AcDbPolyline
 62
250
  6
CONTINUOUS
 90
4
 70
0
 10
-1.6594207929
 20
10.5863048421
 10
-1.7013687119
 20
10.5583409284
 10
-1.7385246981
 20
10.5288595798
 10
-1.7708887513
 20
10.4978607964
  0
LWPOLYLINE
  5
3ED
100
AcDbEntity
  8
ASSI
100
AcDbPolyline
 62
7
  6
CONTINUOUS
 90
13
 70
0
 10
-1.7877615283
 20
10.5966982637
 10
-1.8260752238
 20
10.5720233157
 10
-1.875863934
 20
10.5352942254
 10
-1.9214168649
 20
10.4958780044
 10
-1.9625326621
 20
10.4538797572
 10
-1.9989881383
 20
10.4094333854
 10
-2.0305600611
 20
10.362755976
 10
-2.0570856241
 20
10.3139789374
 10
-2.0782902684
 20
10.2634363048
 10
-2.0938842236
 20
10.211840452
 10
-2.1038326393
 20
10.1596353547
 10
-2.1081502288
 20
10.1072675032
 10
-2.1083574421
 20
10.0931320796
  0
LINE
  5
3EE
100
AcDbEntity
  8
ASSI
100
AcDbLine
 62
250
  6
CONTINUOUS
 10
-0.2349262889
 20
11.4526223306
 11
-1.6594207929
 21
10.5863048421
  0
LINE
  5
3EF
100
AcDbEntity
  8
ASSI
100
AcDbLine
 62
7
  6
CONTINUOUS
 10
3.8263585519
 20
12.8639319868
 11
0.657989846
 21
10.9370637452
  0
LINE
  5
3F0
100
AcDbEntity
  8
ASSI
100
AcDbLine
 62
7
  6
CONTINUOUS
 10
5.158535813
 20
12.4112174701
 11
4.7322169795
 21
12.1519483328
  0
LINE
  5
3F1
100
AcDbEntity
  8
ASSI
100
AcDbLine
 62
7
  6
CONTINUOUS
 10
0.7056622867
 20
10.9095382754
 11
3.7568821332
 21
12.7150944492
  0
LINE
  5
3F2
100
AcDbEntity
  8
ASSI
100
AcDbLine
 62
7
  6
CONTINUOUS
 10
5.158535813
 20
13.6467814494
 11
3.8263585519
 21
12.8639319868
  0
LINE
  5
3F3
100
AcDbEntity
  8
DRAFT
100
AcDbLine
 62
7
  6
CONTINUOUS
 10
20.9008879663
 20
21.4188795689
 11
21.952291897
 21
22.0366358965
  0
LINE
  5
3F4
100
AcDbEntity
  8
0
100
AcDbLine
 62
7
  6
CONTINUOUS
 10
20.9008879663
 20
21.4588237943
 11
10.4167567434
 21
15.405407523
  0
LINE
  5
3F5
100
AcDbEntity
  8
IMPORT_IGES
100
AcDbLine
 62
7
  6
CONTINUOUS
 10
15.9227955343
 20
18.4195052513
 11
18.1596923754
 21
19.7110614524
  0
LINE
  5
3F6
100
AcDbEntity
  8
ASSI
100
AcDbLine
 62
7
  6
CONTINUOUS
 10
1.0025105771
 20
9.43178935
 11
5.2229366466
 21
11.8686129472
  0
LINE
  5
3F7
100
AcDbEntity
  8
ASSI
100
AcDbLine
 62
250
  6
CONTINUOUS
 10
-0.6493733599
 20
10.0031161131
 11
0.8257338808
 21
10.8402104418
  0
LINE
  5
3F8
100
AcDbEntity
  8
ASSI
100
AcDbLine
 62
250
  6
CONTINUOUS
 10
-0.4741661192
 20
9.6960625755
 11
1.0025105771
 21
10.5340475393
  0
LINE
  5
3F9
100
AcDbEntity
  8
ASSI
100
AcDbLine
 62
250
  6
CONTINUOUS
 10
-4.39184367
 20
6.6111685577
 11
-1.1137708511
 21
8.4714103693
  0
LINE
  5
3FA
100
AcDbEntity
  8
ASSI
100
AcDbLine
 62
250
  6
CONTINUOUS
 10
-4.2166364293
 20
6.30411502
 11
-0.4741661192
 21
8.4278932685
  0
LINE
  5
3FB
100
AcDbEntity
  8
0
100
AcDbLine
 62
7
  6
CONTINUOUS
 10
21.952291897
 20
23.2671770173
 11
5.4391960127
 21
13.9005924236
  0
LINE
  5
3FC
100
AcDbEntity
  8
RACCORDO
100
AcDbLine
 62
250
  6
CONTINUOUS
 10
5.3767830171
 20
12.1461332558
 11
23.4814600551
 21
22.3842544878
  0
LINE
  5
3FD
100
AcDbEntity
  8
0
100
AcDbLine
 62
7
  6
CONTINUOUS
 10
23.3276642659
 20
22.473054249
 11
5.6740230839
 21
12.8091557907
  0
LINE
  5
3FE
100
AcDbEntity
  8
ASSI
100
AcDbLine
 62
250
  6
CONTINUOUS
 10
-18.8870423849
 20
-0.185155419
 11
-18.7465028894
 21
-0.1095778263
  0
LINE
  5
3FF
100
AcDbEntity
  8
IMPORT_IGES
100
AcDbLine
 62
7
  6
CONTINUOUS
 10
-11.9687473085
 20
-13.0073721672
 11
-12.1283866852
 21
-13.0501549388
  0
LINE
  5
400
100
AcDbEntity
  8
IMPORT_IGES
100
AcDbLine
 62
7
  6
CONTINUOUS
 10
-13.7365142615
 20
-11.9866856839
 11
-13.8961536382
 21
-12.0294684555
  0
LWPOLYLINE
  5
401
100
AcDbEntity
  8
ASSI
100
AcDbPolyline
 62
250
  6
CONTINUOUS
 90
4
 70
0
 10
-9.4132042263
 20
-10.794726595
 10
-9.4242753849
 20
-10.7976039491
 10
-9.4388766016
 20
-10.7993980297
 10
-9.453769377
 20
-10.7994045375
  0
LINE
  5
402
100
AcDbEntity
  8
IMPORT_IGES
100
AcDbLine
 62
7
  6
CONTINUOUS
 10
-11.0273918104
 20
-8.2395611426
 11
-10.9709449016
 21
-8.2395611426
  0
LINE
  5
403
100
AcDbEntity
  8
IMPORT_IGES
100
AcDbLine
 62
7
  6
CONTINUOUS
 10
-11.1123525911
 20
-8.1579141149
 11
-11.1687994999
 21
-8.1579141149
  0
LINE
  5
404
100
AcDbEntity
  8
IMPORT_IGES
100
AcDbLine
 62
7
  6
CONTINUOUS
 10
-11.5687994999
 20
-7.9269591281
 11
-11.5123525911
 21
-7.9269591281
  0
LINE
  5
405
100
AcDbEntity
  8
IMPORT_IGES
100
AcDbLine
 62
7
  6
CONTINUOUS
 10
-9.9143322657
 20
-7.9269591281
 11
-9.6717509535
 21
-7.9269591281
  0
LWPOLYLINE
  5
406
100
AcDbEntity
  8
IMPORT_IGES
100
AcDbPolyline
 62
250
  6
CONTINUOUS
 90
16
 70
0
 10
-10.5945312151
 20
-7.3169455496
 10
-10.5904193819
 20
-7.317100392
 10
-10.5863109909
 20
-7.3172831739
 10
-10.5822066116
 20
-7.3174938698
 10
-10.5781068127
 20
-7.3177324507
 10
-10.5740121626
 20
-7.3179988834
 10
-10.5699232288
 20
-7.318293131
 10
-10.565840578
 20
-7.3186151527
 10
-10.5617647761
 20
-7.3189649039
 10
-10.5576963881
 20
-7.3193423362
 10
-10.5536359778
 20
-7.3197473971
 10
-10.5495841081
 20
-7.3201800306
 10
-10.5455413404
 20
-7.3206401766
 10
-10.5415082353
 20
-7.3211277715
 10
-10.5374853517
 20
-7.3216427476
 10
-10.5334732472
 20
-7.3221850336
  0
LWPOLYLINE
  5
407
100
AcDbEntity
  8
IMPORT_IGES
100
AcDbPolyline
 62
7
  6
CONTINUOUS
 90
6
 70
0
 10
-9.6717509535
 20
-7.9269591281
 10
-9.6010484998
 20
-7.9310529341
 10
-9.5358751304
 20
-7.9408770742
 10
-9.4762308454
 20
-7.9564315483
 10
-9.4207350872
 20
-7.9781675153
 10
-9.3923912109
 20
-7.9937479288
  0
LWPOLYLINE
  5
408
100
AcDbEntity
  8
IMPORT_IGES
100
AcDbPolyline
 62
250
  6
CONTINUOUS
 90
18
 70
0
 10
-10.5334732472
 20
-7.3221850336
 10
-10.5291690337
 20
-7.3227989293
 10
-10.5248786337
 20
-7.3234442562
 10
-10.5206027356
 20
-7.3241209106
 10
-10.5163420255
 20
-7.3248287841
 10
-10.512097187
 20
-7.3255677629
 10
-10.5078689014
 20
-7.3263377285
 10
-10.503657847
 20
-7.3271385574
 10
-10.4994646997
 20
-7.3279701211
 10
-10.4952901323
 20
-7.3288322861
 10
-10.4911348146
 20
-7.3297249141
 10
-10.4869994133
 20
-7.3306478619
 10
-10.4828845922
 20
-7.3316009813
 10
-10.4787910114
 20
-7.3325841194
 10
-10.4747193279
 20
-7.3335971185
 10
-10.4706701949
 20
-7.334639816
 10
-10.4666442623
 20
-7.3357120446
 10
-10.462642176
 20
-7.3368136322
  0
LWPOLYLINE
  5
409
100
AcDbEntity
  8
IMPORT_IGES
100
AcDbPolyline
 62
250
  6
CONTINUOUS
 90
27
 70
0
 10
-10.5199369063
 20
-7.2425822819
 10
-10.5133551811
 20
-7.2436981984
 10
-10.506812597
 20
-7.2448883769
 10
-10.5003116671
 20
-7.2461523602
 10
-10.4938548885
 20
-7.247489663
 10
-10.4874447414
 20
-7.2488997714
 10
-10.4810836881
 20
-7.2503821438
 10
-10.474774172
 20
-7.2519362109
 10
-10.4685186165
 20
-7.2535613756
 10
-10.4623194247
 20
-7.2552570138
 10
-10.4561789778
 20
-7.257022474
 10
-10.4500996343
 20
-7.2588570782
 10
-10.4440837295
 20
-7.2607601217
 10
-10.4381335742
 20
-7.2627308734
 10
-10.4322514539
 20
-7.2647685763
 10
-10.4264396281
 20
-7.2668724478
 10
-10.4207003292
 20
-7.2690416797
 10
-10.4150357618
 20
-7.2712754388
 10
-10.4094481017
 20
-7.273572867
 10
-10.4039394953
 20
-7.2759330819
 10
-10.3985120585
 20
-7.2783551768
 10
-10.393167876
 20
-7.2808382213
 10
-10.3879090008
 20
-7.2833812618
 10
-10.3827374527
 20
-7.2859833214
 10
-10.3776552184
 20
-7.2886434005
 10
-10.3726642498
 20
-7.2913604774
 10
-10.3677664643
 20
-7.2941335085
  0
LWPOLYLINE
  5
40A
100
AcDbEntity
  8
IMPORT_IGES
100
AcDbPolyline
 62
250
  6
CONTINUOUS
 90
22
 70
0
 10
-10.462642176
 20
-7.3368136322
 10
-10.4576489214
 20
-7.3382389583
 10
-10.4526955845
 20
-7.3397099852
 10
-10.44778342
 20
-7.3412263403
 10
-10.4429136719
 20
-7.3427876396
 10
-10.4380875736
 20
-7.3443934875
 10
-10.4333063476
 20
-7.3460434774
 10
-10.4285712047
 20
-7.3477371914
 10
-10.4238833443
 20
-7.3494742004
 10
-10.4192439537
 20
-7.3512540646
 10
-10.4146542079
 20
-7.3530763332
 10
-10.4101152695
 20
-7.3549405445
 10
-10.4056282881
 20
-7.3568462265
 10
-10.4011944
 20
-7.3587928964
 10
-10.3968147283
 20
-7.3607800613
 10
-10.3924903823
 20
-7.3628072178
 10
-10.3882224573
 20
-7.3648738525
 10
-10.3840120341
 20
-7.3669794419
 10
-10.3798601792
 20
-7.3691234528
 10
-10.3757679442
 20
-7.3713053421
 10
-10.3717363655
 20
-7.3735245573
 10
-10.3677664643
 20
-7.3757805361
  0
LINE
  5
40B
100
AcDbEntity
  8
IMPORT_IGES
100
AcDbLine
 62
7
  6
CONTINUOUS
 10
-16.7615085484
 20
-2.5960335043
 11
-16.757361744
 21
-2.5974002286
  0
LINE
  5
40C
100
AcDbEntity
  8
IMPORT_IGES
100
AcDbLine
 62
7
  6
CONTINUOUS
 10
-16.7650797351
 20
-2.5942641959
 11
-16.7615085484
 21
-2.5960335043
  0
LWPOLYLINE
  5
40D
100
AcDbEntity
  8
IMPORT_IGES
100
AcDbPolyline
 62
7
  6
CONTINUOUS
 90
3
 70
0
 10
-16.5244783186
 20
-1.725232524
 10
-16.5280479335
 20
-1.7234637337
 10
-16.5321963097
 20
-1.7220964913
  0
LINE
  5
40E
100
AcDbEntity
  8
IMPORT_IGES
100
AcDbLine
 62
7
  6
CONTINUOUS
 10
-16.5280495054
 20
-1.7234632156
 11
-16.5244783448
 21
-1.7252325089
  0
LWPOLYLINE
  5
40F
100
AcDbEntity
  8
ASSI
100
AcDbPolyline
 62
250
  6
CONTINUOUS
 90
13
 70
0
 10
-19.3075371296
 20
-0.1785797681
 10
-19.2783796845
 20
-0.1934130478
 10
-19.2461611583
 20
-0.2060231865
 10
-19.2114206724
 20
-0.2161991893
 10
-19.1747395472
 20
-0.223770792
 10
-19.1367315659
 20
-0.2286113117
 10
-19.0980327037
 20
-0.2306397646
 10
-19.0592905013
 20
-0.2298222185
 10
-19.0211532188
 20
-0.2261723629
 10
-18.9842589813
 20
-0.2197512769
 10
-18.9492251197
 20
-0.2106664079
 10
-18.9166378409
 20
-0.1990697766
 10
-18.8870424078
 20
-0.1851554308
  0
LINE
  5
410
100
AcDbEntity
  8
ASSI
100
AcDbLine
 62
7
  6
CONTINUOUS
 10
-18.813126582
 20
-0.0711101412
 11
-9.6315408042
 21
-5.372442697
  0
LINE
  5
411
100
AcDbEntity
  8
ASSI
100
AcDbLine
 62
250
  6
CONTINUOUS
 10
-18.8752109294
 20
0.0710167423
 11
-9.6936251543
 21
-5.2303158119
  0
LINE
  5
412
100
AcDbEntity
  8
0
100
AcDbLine
 62
250
  6
CONTINUOUS
 10
7.2275975757
 20
-14.9054011051
 11
6.7066146997
 21
-14.604592122
  0
LINE
  5
413
100
AcDbEntity
  8
CURVE
100
AcDbLine
 62
250
  6
CONTINUOUS
 10
0.3036168889
 20
-10.6017837594
 11
0.498896014
 21
-10.7145139449
  0
LWPOLYLINE
  5
414
100
AcDbEntity
  8
ASSI
100
AcDbPolyline
 62
7
  6
CONTINUOUS
 90
21
 70
0
 10
-9.6315372284
 20
-5.3724447615
 10
-9.629088345
 20
-5.3738770025
 10
-9.6126013129
 20
-5.3844129389
 10
-9.593985578
 20
-5.3980712034
 10
-9.5739105622
 20
-5.4148018089
 10
-9.552789818
 20
-5.434630164
 10
-9.5310270446
 20
-5.457530743
 10
-9.5092543016
 20
-5.4831361698
 10
-9.4878556357
 20
-5.5112281797
 10
-9.4672308082
 20
-5.5414999212
 10
-9.447923046
 20
-5.5732859431
 10
-9.4302197228
 20
-5.6061486711
 10
-9.4143721023
 20
-5.6396267795
 10
-9.4006996094
 20
-5.6729188702
 10
-9.3892896141
 20
-5.7055282701
 10
-9.3801709139
 20
-5.7369886132
 10
-9.3733754868
 20
-5.7665284167
 10
-9.3687488688
 20
-5.793761162
 10
-9.3660894721
 20
-5.8183114138
 10
-9.3651312512
 20
-5.8395269575
 10
-9.365141316
 20
-5.8473032365
  0
LWPOLYLINE
  5
415
100
AcDbEntity
  8
ASSI
100
AcDbPolyline
 62
250
  6
CONTINUOUS
 90
5
 70
0
 10
-9.6936251543
 20
-5.2303158119
 10
-9.6558948338
 20
-5.2543737399
 10
-9.6194332944
 20
-5.2810851586
 10
-9.5842403982
 20
-5.3104499914
 10
-9.5502415639
 20
-5.342612892
  0
LWPOLYLINE
  5
416
100
AcDbEntity
  8
ASSI
100
AcDbPolyline
 62
7
  6
CONTINUOUS
 90
26
 70
0
 10
-2.0951171545
 20
-28.7627466642
 10
-2.085388085
 20
-28.801029
 10
-2.0646660604
 20
-28.8556893402
 10
-2.037234905
 20
-28.9091674262
 10
-2.0031758123
 20
-28.9609094081
 10
-1.9622569876
 20
-29.0108152751
 10
-1.9147110361
 20
-29.0582047798
 10
-1.8616120682
 20
-29.1020168816
 10
-1.8034435322
 20
-29.1420401746
 10
-1.7402722821
 20
-29.1783323521
 10
-1.6729663673
 20
-29.2105344368
 10
-1.6020387584
 20
-29.2385476849
 10
-1.5276912926
 20
-29.262379286
 10
-1.4506049632
 20
-29.2818976313
 10
-1.3712093471
 20
-29.297034293
 10
-1.289959852
 20
-29.3077157215
 10
-1.2077482588
 20
-29.313861694
 10
-1.1250909332
 20
-29.3154417589
 10
-1.0424887134
 20
-29.312450922
 10
-0.9608465807
 20
-29.3049356331
 10
-0.8806727266
 20
-29.2929295474
 10
-0.8024090842
 20
-29.276482621
 10
-0.726766147
 20
-29.2557074462
 10
-0.6542131077
 20
-29.2306771183
 10
-0.5850860552
 20
-29.2014629567
 10
-0.5277140239
 20
-29.1724917902
  0
LWPOLYLINE
  5
417
100
AcDbEntity
  8
ASSI
100
AcDbPolyline
 62
250
  6
CONTINUOUS
 90
12
 70
0
 10
-4.2103583679
 20
-26.4631230633
 10
-4.2082483053
 20
-26.4798858065
 10
-4.2076158227
 20
-26.4957403618
 10
-4.2084182816
 20
-26.5105558419
 10
-4.2105692079
 20
-26.5241998759
 10
-4.2140427993
 20
-26.536572236
 10
-4.2188732502
 20
-26.5476070657
 10
-4.2249868107
 20
-26.5572158792
 10
-4.2322949142
 20
-26.565327861
 10
-4.2408013768
 20
-26.5719180697
 10
-4.2504155513
 20
-26.5769328925
 10
-4.2532685173
 20
-26.5780403875
  0
LINE
  5
418
100
AcDbEntity
  8
ASSI
100
AcDbLine
 62
250
  6
CONTINUOUS
 10
-4.2136479929
 20
-26.6516093145
 11
-4.2124526921
 21
-26.6746157662
  0
LWPOLYLINE
  5
419
100
AcDbEntity
  8
ASSI
100
AcDbPolyline
 62
250
  6
CONTINUOUS
 90
29
 70
0
 10
-5.772622979
 20
10.6842951416
 10
-5.7714513711
 20
10.6595204656
 10
-5.7643551079
 20
10.6186361191
 10
-5.7508892449
 20
10.5783263233
 10
-5.7311612095
 20
10.5389118805
 10
-5.7053247488
 20
10.5007095511
 10
-5.6735957019
 20
10.4640445114
 10
-5.6362487343
 20
10.4292348531
 10
-5.5936153198
 20
10.3965806879
 10
-5.5460373844
 20
10.3663349997
 10
-5.4938636926
 20
10.3387235305
 10
-5.4374430312
 20
10.3139516054
 10
-5.3773007532
 20
10.2922676839
 10
-5.3141222259
 20
10.2739066584
 10
-5.2480245487
 20
10.2589165088
 10
-5.1799690874
 20
10.2475251619
 10
-5.1120800907
 20
10.2399289581
 10
-5.0451951663
 20
10.2359380197
 10
-4.9796587911
 20
10.2352974376
 10
-4.9168735785
 20
10.2376947552
 10
-4.8582114507
 20
10.2426369215
 10
-4.8029154829
 20
10.2497665695
 10
-4.7491515072
 20
10.2591053257
 10
-4.6973807694
 20
10.2704867252
 10
-4.6475980261
 20
10.2838275959
 10
-4.5975815333
 20
10.2998383803
 10
-4.5470712784
 20
10.3190006263
 10
-4.4974943659
 20
10.3412112649
 10
-4.4495017859
 20
10.3665785251
  0
LWPOLYLINE
  5
41A
100
AcDbEntity
  8
ASSI
100
AcDbPolyline
 62
250
  6
CONTINUOUS
 90
9
 70
0
 10
-4.5670777172
 20
-29.8367873624
 10
-4.5661200344
 20
-29.8574524231
 10
-4.5632573615
 20
-29.8767876743
 10
-4.5585207144
 20
-29.8945836188
 10
-4.551961411
 20
-29.9106474425
 10
-4.5436505213
 20
-29.9248050872
 10
-4.5336781035
 20
-29.9369031429
 10
-4.5221522191
 20
-29.9468105282
 10
-4.515307062
 20
-29.9512215777
  0
LWPOLYLINE
  5
41B
100
AcDbEntity
  8
ASSI
100
AcDbPolyline
 62
250
  6
CONTINUOUS
 90
8
 70
0
 10
-7.093822743
 20
-12.4620324577
 10
-7.0933120098
 20
-14.3109161672
 10
-7.0837627243
 20
-16.229384091
 10
-7.0649417283
 20
-18.2180502743
 10
-7.0331801176
 20
-20.280971167
 10
-6.9872549242
 20
-22.419498919
 10
-6.928389116
 20
-24.6322813804
 10
-6.8565826931
 20
-26.9193185511
  0
LINE
  5
41C
100
AcDbEntity
  8
ASSI
100
AcDbLine
 62
7
  6
CONTINUOUS
 10
-6.28680783
 20
19.3155002155
 11
-6.28680783
 21
18.9754469085
  0
LINE
  5
41D
100
AcDbEntity
  8
ASSI
100
AcDbLine
 62
7
  6
CONTINUOUS
 10
-5.8165710092
 20
20.7842887444
 11
-5.8165710092
 21
20.4939102966
  0
LINE
  5
41E
100
AcDbEntity
  8
ASSI
100
AcDbLine
 62
7
  6
CONTINUOUS
 10
-5.7726229792
 20
10.2748170682
 11
-5.7726229792
 21
10.6843037843
  0
LINE
  5
41F
100
AcDbEntity
  8
ASSI
100
AcDbLine
 62
250
  6
CONTINUOUS
 10
-4.9517577844
 20
19.6571446411
 11
-4.9517577844
 21
19.1560385556
  0
LINE
  5
420
100
AcDbEntity
  8
0
100
AcDbLine
 62
7
  6
CONTINUOUS
 10
-4.9371863848
 20
12.6161970312
 11
-4.9371863848
 21
12.8611381142
  0
LWPOLYLINE
  5
421
100
AcDbEntity
  8
ASSI
100
AcDbPolyline
 62
250
  6
CONTINUOUS
 90
9
 70
0
 10
-7.4357189834
 20
-10.6801221793
 10
-7.4438313194
 20
-12.459448398
 10
-7.4437526487
 20
-14.3097031022
 10
-7.4344473128
 20
-16.229444359
 10
-7.4148259307
 20
-18.2187681022
 10
-7.3835859712
 20
-20.2832716156
 10
-7.3393840959
 20
-22.4242222612
 10
-7.2809422179
 20
-24.6386183461
 10
-7.2068863878
 20
-26.9255251786
  0
LINE
  5
422
100
AcDbEntity
  8
ASSI
100
AcDbLine
 62
250
  6
CONTINUOUS
 10
-7.0850617657
 20
-10.6833470077
 11
-7.093822743
 21
-12.4620324577
  0
LINE
  5
423
100
AcDbEntity
  8
ASSI
100
AcDbLine
 62
250
  6
CONTINUOUS
 10
-7.4204256599
 20
-8.9682902948
 11
-7.4357189834
 21
-10.6801221793
  0
LINE
  5
424
100
AcDbEntity
  8
ASSI
100
AcDbLine
 62
250
  6
CONTINUOUS
 10
-7.0699985075
 20
-8.9726455031
 11
-7.0850617657
 21
-10.6833470077
  0
LINE
  5
425
100
AcDbEntity
  8
ASSI
100
AcDbLine
 62
250
  6
CONTINUOUS
 10
-7.0494978609
 20
-7.3503974911
 11
-7.0699985075
 21
-8.9726455031
  0
LINE
  5
426
100
AcDbEntity
  8
ASSI
100
AcDbLine
 62
250
  6
CONTINUOUS
 10
-7.3991775823
 20
-7.3446574753
 11
-7.4204256599
 21
-8.9682902948
  0
LINE
  5
427
100
AcDbEntity
  8
ASSI
100
AcDbLine
 62
250
  6
CONTINUOUS
 10
-7.3726882168
 20
-5.7896869617
 11
-7.3991775823
 21
-7.3446574753
  0
LINE
  5
428
100
AcDbEntity
  8
ASSI
100
AcDbLine
 62
250
  6
CONTINUOUS
 10
-7.0226949334
 20
-5.7961334245
 11
-7.0494978609
 21
-7.3503974911
  0
LINE
  5
429
100
AcDbEntity
  8
ASSI
100
AcDbLine
 62
250
  6
CONTINUOUS
 10
-6.9899644776
 20
-4.2462303467
 11
-7.0226949334
 21
-5.7961334245
  0
LWPOLYLINE
  5
42A
100
AcDbEntity
  8
ASSI
100
AcDbPolyline
 62
250
  6
CONTINUOUS
 90
3
 70
0
 10
-7.3016732043
 20
-2.6713157665
 10
-7.3403453316
 20
-4.2390927912
 10
-7.3726882168
 20
-5.7896869617
  0
LINE
  5
42B
100
AcDbEntity
  8
ASSI
100
AcDbLine
 62
250
  6
CONTINUOUS
 10
-7.2571578322
 20
-1.1079813827
 11
-7.3016732043
 21
-2.6713157665
  0
LWPOLYLINE
  5
42C
100
AcDbEntity
  8
ASSI
100
AcDbPolyline
 62
250
  6
CONTINUOUS
 90
3
 70
0
 10
-6.9069708162
 20
-1.1170918535
 10
-6.9514314111
 20
-2.6794806057
 10
-6.9899644776
 20
-4.2462303467
  0
LINE
  5
42D
100
AcDbEntity
  8
ASSI
100
AcDbLine
 62
250
  6
CONTINUOUS
 10
-7.2068863878
 20
0.4508330224
 11
-7.2571578322
 21
-1.1079813827
  0
LINE
  5
42E
100
AcDbEntity
  8
ASSI
100
AcDbLine
 62
250
  6
CONTINUOUS
 10
-6.8565826931
 20
0.4409359098
 11
-6.9069708162
 21
-1.1170918535
  0
LWPOLYLINE
  5
42F
100
AcDbEntity
  8
0
100
AcDbPolyline
 62
7
  6
CONTINUOUS
 90
19
 70
0
 10
-4.9371863848
 20
12.8611381142
 10
-4.935184692
 20
12.9127214893
 10
-4.9295627401
 20
12.9652750805
 10
-4.9203205293
 20
13.018798888
 10
-4.9073332517
 20
13.0737128891
 10
-4.890725715
 20
13.1295971064
 10
-4.870872343
 20
13.1851916078
 10
-4.8476994028
 20
13.2404898121
 10
-4.8212806271
 20
13.2954983005
 10
-4.792211638
 20
13.3489768847
 10
-4.7604322328
 20
13.400890811
 10
-4.7260026141
 20
13.451274833
 10
-4.6896990114
 20
13.4989930227
 10
-4.6514788552
 20
13.5439848228
 10
-4.611384715
 20
13.5863107905
 10
-4.5703205293
 20
13.62501667
 10
-4.528587611
 20
13.659784376
 10
-4.4858846472
 20
13.6909319938
 10
-4.442211638
 20
13.7184595233
  0
LWPOLYLINE
  5
430
100
AcDbEntity
  8
ASSI
100
AcDbPolyline
 62
250
  6
CONTINUOUS
 90
16
 70
0
 10
-4.5670777172
 20
6.305880818
 10
-4.5661200351
 20
6.3276517785
 10
-4.5632573644
 20
6.3502927634
 10
-4.558520721
 20
6.3735584595
 10
-4.5519614235
 20
6.3971967897
 10
-4.5436505416
 20
6.4209516288
 10
-4.5336781294
 20
6.4445655789
 10
-4.5221522427
 20
6.4677827788
 10
-4.5091977636
 20
6.4903516784
 10
-4.4949550536
 20
6.5120277483
 10
-4.4795784345
 20
6.5325761289
 10
-4.46323451
 20
6.5517741846
 10
-4.4461003585
 20
6.5694139156
 10
-4.4283616239
 20
6.5853041992
 10
-4.4102105059
 20
6.599272863
 10
-4.39184367
 20
6.6111685577
  0
LWPOLYLINE
  5
431
100
AcDbEntity
  8
0
100
AcDbPolyline
 62
7
  6
CONTINUOUS
 90
16
 70
0
 10
-4.6543436724
 20
13.0244479516
 10
-4.6530771401
 20
13.0512327903
 10
-4.6496163132
 20
13.0784613475
 10
-4.6439611916
 20
13.1061336231
 10
-4.6360025366
 20
13.134560242
 10
-4.625849587
 20
13.1634305793
 10
-4.6138300588
 20
13.1918127606
 10
-4.5998830476
 20
13.2196908576
 10
-4.5840694578
 20
13.2470807985
 10
-4.5668997193
 20
13.2730984929
 10
-4.5483295824
 20
13.2976991657
 10
-4.5284032968
 20
13.320927592
 10
-4.5077640417
 20
13.3420340064
 10
-4.48662621
 20
13.3607684871
 10
-4.4647754088
 20
13.3773809558
 10
-4.442211638
 20
13.3918714126
  0
LINE
  5
432
100
AcDbEntity
  8
RACCORDO
100
AcDbLine
 62
7
  6
CONTINUOUS
 10
-6.3689685212
 20
12.1377974509
 11
-6.2700818525
 21
13.3857941692
  0
LINE
  5
433
100
AcDbEntity
  8
0
100
AcDbLine
 62
250
  6
CONTINUOUS
 10
-4.0130911017
 20
13.6276519622
 11
-3.9256878968
 21
13.9887212281
  0
LINE
  5
434
100
AcDbEntity
  8
RACCORDO
100
AcDbLine
 62
250
  6
CONTINUOUS
 10
-2.7179412953
 20
15.170090482
 11
-2.7460034682
 21
15.0541635183
  0
LWPOLYLINE
  5
435
100
AcDbEntity
  8
RACCORDO
100
AcDbPolyline
 62
7
  6
CONTINUOUS
 90
12
 70
0
 10
-2.6580542243
 20
15.0958418305
 10
-2.6583729177
 20
15.094663089
 10
-2.6601294065
 20
15.0901093846
 10
-2.6627175727
 20
15.0857839488
 10
-2.6661268974
 20
15.0816838942
 10
-2.6703138935
 20
15.0778615187
 10
-2.6752885228
 20
15.0743203792
 10
-2.6810408235
 20
15.0710569187
 10
-2.687497423
 20
15.0681127638
 10
-2.6946338637
 20
15.06550179
 10
-2.7024746032
 20
15.0632101217
 10
-2.7110196415
 20
15.0612377591
  0
LWPOLYLINE
  5
436
100
AcDbEntity
  8
RACCORDO
100
AcDbPolyline
 62
7
  6
CONTINUOUS
 90
12
 70
0
 10
-0.7897881078
 20
15.83929158
 10
-0.7894694144
 20
15.8404703216
 10
-0.7877129256
 20
15.8450240259
 10
-0.7851247594
 20
15.8493494618
 10
-0.7817154347
 20
15.8534495163
 10
-0.7775284386
 20
15.8572718918
 10
-0.7725538093
 20
15.8608130313
 10
-0.7668015086
 20
15.8640764918
 10
-0.7603449092
 20
15.8670206467
 10
-0.7532084684
 20
15.8696316205
 10
-0.7453677289
 20
15.8719232888
 10
-0.7368226906
 20
15.8738956515
  0
LINE
  5
437
100
AcDbEntity
  8
IMPORT_IGES
100
AcDbLine
 62
7
  6
CONTINUOUS
 10
-10.163264534
 20
-6.9157993832
 11
-9.6606238428
 21
-6.0130161989
  0
LINE
  5
438
100
AcDbEntity
  8
IMPORT_IGES
100
AcDbLine
 62
7
  6
CONTINUOUS
 10
-15.316465608
 20
-11.3006724929
 11
-15.2543471999
 21
-11.1982288292
  0
LWPOLYLINE
  5
439
100
AcDbEntity
  8
IMPORT_IGES
100
AcDbPolyline
 62
7
  6
CONTINUOUS
 90
3
 70
0
 10
-9.6606238428
 20
-6.0130161989
 10
-9.632047685
 20
-5.9678193826
 10
-9.6276017439
 20
-5.9615523543
  0
LWPOLYLINE
  5
43A
100
AcDbEntity
  8
IMPORT_IGES
100
AcDbPolyline
 62
7
420
14742271
  6
CONTINUOUS
 90
36
 70
0
 10
-15.3376694329
 20
-11.2371006269
 10
-15.3384648144
 20
-11.2382147112
 10
-15.339210337
 20
-11.2393458448
 10
-15.3399062811
 20
-11.2404931872
 10
-15.3405529271
 20
-11.2416558978
 10
-15.3411505553
 20
-11.2428331361
 10
-15.341699446
 20
-11.2440240616
 10
-15.3421998796
 20
-11.2452278338
 10
-15.3426521364
 20
-11.2464436121
 10
-15.3430564969
 20
-11.247670556
 10
-15.3434132412
 20
-11.248907825
 10
-15.3437226499
 20
-11.2501545785
 10
-15.3439850032
 20
-11.2514099762
 10
-15.3442005815
 20
-11.2526731773
 10
-15.3443696651
 20
-11.2539433414
 10
-15.3444925344
 20
-11.2552196279
 10
-15.3445694698
 20
-11.2565011964
 10
-15.3446007515
 20
-11.2577872064
 10
-15.34458666
 20
-11.2590768172
 10
-15.3445274756
 20
-11.2603691883
 10
-15.3444234786
 20
-11.2616634793
 10
-15.3442749493
 20
-11.2629588496
 10
-15.3440821683
 20
-11.2642544587
 10
-15.3438454157
 20
-11.2655494661
 10
-15.3435649719
 20
-11.2668430311
 10
-15.3432411173
 20
-11.2681343134
 10
-15.3428741323
 20
-11.2694224724
 10
-15.3424642972
 20
-11.2707066676
 10
-15.3420118922
 20
-11.2719860583
 10
-15.3415171979
 20
-11.2732598042
 10
-15.3409804945
 20
-11.2745270647
 10
-15.3404020624
 20
-11.2757869992
 10
-15.3397821819
 20
-11.2770387672
 10
-15.3391211334
 20
-11.2782815283
 10
-15.3384191972
 20
-11.2795144418
 10
-15.3376766537
 20
-11.2807366673
  0
LWPOLYLINE
  5
43B
100
AcDbEntity
  8
IMPORT_IGES
100
AcDbPolyline
 62
7
420
14742271
  6
CONTINUOUS
 90
21
 70
0
 10
-15.2571641605
 20
-11.099869659
 10
-15.2576082912
 20
-11.100480926
 10
-15.2580372679
 20
-11.1010974764
 10
-15.2584511374
 20
-11.1017191699
 10
-15.2588499465
 20
-11.1023458661
 10
-15.259233742
 20
-11.1029774248
 10
-15.2596025706
 20
-11.1036137056
 10
-15.2599564793
 20
-11.1042545683
 10
-15.2602955147
 20
-11.1048998725
 10
-15.2606197238
 20
-11.1055494779
 10
-15.2609291532
 20
-11.1062032443
 10
-15.2612238498
 20
-11.1068610312
 10
-15.2615038604
 20
-11.1075226984
 10
-15.2617692318
 20
-11.1081881057
 10
-15.2620200107
 20
-11.1088571126
 10
-15.2622562441
 20
-11.1095295789
 10
-15.2624779786
 20
-11.1102053642
 10
-15.262685261
 20
-11.1108843283
 10
-15.2628781383
 20
-11.1115663308
 10
-15.2630566571
 20
-11.1122512315
 10
-15.2632208643
 20
-11.11293889
  0
LINE
  5
43C
100
AcDbEntity
  8
IMPORT_IGES
100
AcDbLine
 62
7
  6
CONTINUOUS
 10
-15.2455470021
 20
-11.0630125854
 11
-15.1580472999
 21
-10.9451297121
  0
LINE
  5
43D
100
AcDbEntity
  8
IMPORT_IGES
100
AcDbLine
 62
7
  6
CONTINUOUS
 10
-15.2571641605
 20
-11.099021803
 11
-15.1474695779
 21
-10.9512371563
  0
LINE
  5
43E
100
AcDbEntity
  8
IMPORT_IGES
100
AcDbLine
 62
250
  6
CONTINUOUS
 10
-15.1652496575
 20
-11.0409670379
 11
-15.1132922605
 21
-10.970970711
  0
LINE
  5
43F
100
AcDbEntity
  8
IMPORT_IGES
100
AcDbLine
 62
250
  6
CONTINUOUS
 10
-14.877171768
 20
-11.1427665568
 11
-15.1122233236
 21
-11.459415051
  0
LINE
  5
440
100
AcDbEntity
  8
IMPORT_IGES
100
AcDbLine
 62
7
  6
CONTINUOUS
 10
-15.1611547679
 20
-11.1270880685
 11
-15.2294953679
 21
-11.2170977827
  0
LINE
  5
441
100
AcDbEntity
  8
IMPORT_IGES
100
AcDbLine
 62
7
  6
CONTINUOUS
 10
-15.316465608
 20
-11.3316441351
 11
-15.3376694329
 21
-11.3595711685
  0
LINE
  5
442
100
AcDbEntity
  8
IMPORT_IGES
100
AcDbLine
 62
7
  6
CONTINUOUS
 10
-15.2543471999
 20
-11.1982288292
 11
-15.2571641605
 21
-11.2019284436
  0
LINE
  5
443
100
AcDbEntity
  8
IMPORT_IGES
100
AcDbLine
 62
7
  6
CONTINUOUS
 10
-12.5202368717
 20
-4.3016139869
 11
-13.2106842805
 21
-5.1562574147
  0
LINE
  5
444
100
AcDbEntity
  8
IMPORT_IGES
100
AcDbLine
 62
7
  6
CONTINUOUS
 10
-13.0800827593
 20
-5.2738659406
 11
-12.4227220177
 21
-4.4604161743
  0
LINE
  5
445
100
AcDbEntity
  8
IMPORT_IGES
100
AcDbLine
 62
7
  6
CONTINUOUS
 10
-12.5202368717
 20
-4.3016139869
 11
-12.5142027988
 21
-4.2948650851
  0
LWPOLYLINE
  5
446
100
AcDbEntity
  8
IMPORT_IGES
100
AcDbPolyline
 62
7
  6
CONTINUOUS
 90
13
 70
0
 10
-13.2106842805
 20
-5.1562574147
 10
-13.2276706415
 20
-5.1749837399
 10
-13.2456748493
 20
-5.191467641
 10
-13.264696904
 20
-5.2057091182
 10
-13.2850187962
 20
-5.2178199965
 10
-13.3063585353
 20
-5.2276884508
 10
-13.3278701494
 20
-5.2349790059
 10
-13.3495580781
 20
-5.2396250741
 10
-13.3714178819
 20
-5.241693243
 10
-13.3925902701
 20
-5.2410478007
 10
-13.4127888127
 20
-5.2376435098
 10
-13.4322999398
 20
-5.2315256077
 10
-13.4511236514
 20
-5.2226940943
  0
LWPOLYLINE
  5
447
100
AcDbEntity
  8
IMPORT_IGES
100
AcDbPolyline
 62
250
  6
CONTINUOUS
 90
3
 70
0
 10
-16.5020751826
 20
-10.1691048573
 10
-16.5216120056
 20
-10.1897031881
 10
-16.586273097
 20
-10.3136084668
  0
LWPOLYLINE
  5
448
100
AcDbEntity
  8
ASSI
100
AcDbPolyline
 62
250
  6
CONTINUOUS
 90
11
 70
0
 10
-4.3585324364
 20
3.2653851402
 10
-4.3385293692
 20
3.282408693
 10
-4.3192119094
 20
3.3016807405
 10
-4.300841292
 20
3.3229406691
 10
-4.283665951
 20
3.3459009788
 10
-4.2679181527
 20
3.3702511792
 10
-4.2538108569
 20
3.3956619901
 10
-4.2415348459
 20
3.4217897791
 10
-4.2312561396
 20
3.4482812135
 10
-4.2231137462
 20
3.4747780477
 10
-4.2172177875
 20
3.500921957
  0
LWPOLYLINE
  5
449
100
AcDbEntity
  8
IMPORT_IGES
100
AcDbPolyline
 62
7
  6
CONTINUOUS
 90
7
 70
0
 10
-15.3598763196
 20
-4.6365309291
 10
-15.3743666228
 20
-4.6484934053
 10
-15.3860136997
 20
-4.6609186154
 10
-15.3948175505
 20
-4.6738065596
 10
-15.4007991504
 20
-4.6873407954
 10
-15.4039375241
 20
-4.7013377651
 10
-15.4044470783
 20
-4.7091224104
  0
LWPOLYLINE
  5
44A
100
AcDbEntity
  8
ASSI
100
AcDbPolyline
 62
250
  6
CONTINUOUS
 90
19
 70
0
 10
-6.6154754523
 20
1.5553398908
 10
-6.671355747
 20
1.51004623
 10
-6.7257339301
 20
1.4606901679
 10
-6.7782971646
 20
1.4076651841
 10
-6.8287436067
 20
1.3513948124
 10
-6.8768167282
 20
1.2922766088
 10
-6.9223001365
 20
1.2306703713
 10
-6.9652475126
 20
1.1665467779
 10
-7.0051358233
 20
1.1007421092
 10
-7.0410834392
 20
1.0350164966
 10
-7.0726667154
 20
0.9708221655
 10
-7.10050132
 20
0.9076277081
 10
-7.1252761993
 20
0.8442056324
 10
-7.1467893151
 20
0.7812342183
 10
-7.1651130227
 20
0.7186496531
 10
-7.1807551383
 20
0.6541085824
 10
-7.1933788467
 20
0.5871617757
 10
-7.2022554217
 20
0.5192065911
 10
-7.2068863878
 20
0.4508330224
  0
LWPOLYLINE
  5
44B
100
AcDbEntity
  8
ASSI
100
AcDbPolyline
 62
250
  6
CONTINUOUS
 90
19
 70
0
 10
-6.4111139504
 20
1.2682129387
 10
-6.453569639
 20
1.2338427065
 10
-6.4944503667
 20
1.1970252452
 10
-6.5337561335
 20
1.1577605548
 10
-6.5716655216
 20
1.1157529449
 10
-6.6079999488
 20
1.0712981059
 10
-6.6422236689
 20
1.0252831091
 10
-6.6744195167
 20
0.9773514531
 10
-6.7045046575
 20
0.9278596392
 10
-6.7316948403
 20
0.8787642428
 10
-6.7555647023
 20
0.8308317489
 10
-6.7765396063
 20
0.7832956724
 10
-6.7951113907
 20
0.7358131326
 10
-6.8114616895
 20
0.6886557805
 10
-6.8254088686
 20
0.6415519651
 10
-6.8368998649
 20
0.5933438536
 10
-6.8459169905
 20
0.5436455018
 10
-6.8524779332
 20
0.4928428538
 10
-6.8565826931
 20
0.4409359098
  0
LINE
  5
44C
100
AcDbEntity
  8
ASSI
100
AcDbLine
 62
250
  6
CONTINUOUS
 10
-4.3585324364
 20
3.2653851402
 11
-6.615475494
 21
1.5553399149
  0
LINE
  5
44D
100
AcDbEntity
  8
ASSI
100
AcDbLine
 62
250
  6
CONTINUOUS
 10
-4.2103583679
 20
2.9356859231
 11
-6.4111139504
 21
1.2682129387
  0
LINE
  5
44E
100
AcDbEntity
  8
IMPORT_IGES
100
AcDbLine
 62
7
  6
CONTINUOUS
 10
-13.9351900745
 20
-3.6207094894
 11
-15.3598763196
 21
-4.6365309291
  0
LINE
  5
44F
100
AcDbEntity
  8
IMPORT_IGES
100
AcDbLine
 62
7
  6
CONTINUOUS
 10
-15.283387131
 20
-4.826934139
 11
-14.1613452522
 21
-4.0269024123
  0
LINE
  5
450
100
AcDbEntity
  8
RACCORDO
100
AcDbLine
 62
250
  6
CONTINUOUS
 10
24.0088805546
 20
21.8088769402
 11
5.2229366466
 21
10.7363372416
  0
LINE
  5
451
100
AcDbEntity
  8
RACCORDO
100
AcDbLine
 62
250
  6
CONTINUOUS
 10
24.4230310302
 20
20.4152641682
 11
4.4542484266
 21
8.6455527715
  0
LINE
  5
452
100
AcDbEntity
  8
IMPORT_IGES
100
AcDbLine
 62
7
  6
CONTINUOUS
 10
-16.7162224777
 20
-2.5888222945
 11
-16.0925938516
 21
-2.2287469418
  0
LINE
  5
453
100
AcDbEntity
  8
IMPORT_IGES
100
AcDbLine
 62
250
  6
CONTINUOUS
 10
-17.2804423044
 20
-3.9841727574
 11
-15.1663728032
 21
-2.7635353661
  0
LINE
  5
454
100
AcDbEntity
  8
ASSI
100
AcDbLine
 62
250
  6
CONTINUOUS
 10
-18.9347026379
 20
-5.0993440501
 11
-17.5085746606
 21
-4.2759183599
  0
LINE
  5
455
100
AcDbEntity
  8
RACCORDO
100
AcDbLine
 62
250
  6
CONTINUOUS
 10
5.7295318158
 20
11.5351544148
 11
23.9813839027
 21
21.8565025382
  0
LINE
  5
456
100
AcDbEntity
  8
ASSI
100
AcDbLine
 62
7
  6
CONTINUOUS
 10
-4.2166364293
 20
3.5860471999
 11
-4.2103583679
 21
3.5894233381
  0
LWPOLYLINE
  5
457
100
AcDbEntity
  8
IMPORT_IGES
100
AcDbPolyline
 62
7
  6
CONTINUOUS
 90
3
 70
0
 10
-16.573335576
 20
-1.7306744254
 10
-16.5674169216
 20
-1.727847409
 10
-16.5617222945
 20
-1.7255103731
  0
LWPOLYLINE
  5
458
100
AcDbEntity
  8
IMPORT_IGES
100
AcDbPolyline
 62
7
  6
CONTINUOUS
 90
10
 70
0
 10
-16.7162224777
 20
-2.5888222945
 10
-16.7221411321
 20
-2.5916493109
 10
-16.7278357592
 20
-2.5939863468
 10
-16.733306359
 20
-2.5958334022
 10
-16.7385499161
 20
-2.597212395
 10
-16.743569446
 20
-2.5981014073
 10
-16.7483739948
 20
-2.5984346862
 10
-16.7529736504
 20
-2.5981957497
 10
-16.757358325
 20
-2.5974010797
 10
-16.7615068009
 20
-2.59603437
  0
LINE
  5
459
100
AcDbEntity
  8
IMPORT_IGES
100
AcDbLine
 62
7
  6
CONTINUOUS
 10
-14.7971744332
 20
-11.3742737939
 11
-14.95681381
 21
-11.4170565655
  0
LWPOLYLINE
  5
45A
100
AcDbEntity
  8
IMPORT_IGES
100
AcDbPolyline
 62
7
  6
CONTINUOUS
 90
7
 70
0
 10
-10.7637581042
 20
-7.3358515103
 10
-10.7101871799
 20
-7.3241680097
 10
-10.6525590446
 20
-7.3177911336
 10
-10.5922113288
 20
-7.3169349324
 10
-10.5331569237
 20
-7.3222415569
 10
-10.4767334598
 20
-7.3339250575
 10
-10.4216033067
 20
-7.3517713839
  0
LWPOLYLINE
  5
45B
100
AcDbEntity
  8
IMPORT_IGES
100
AcDbPolyline
 62
250
  6
CONTINUOUS
 90
22
 70
0
 10
-10.7105707692
 20
-7.3242293096
 10
-10.7051856022
 20
-7.3233760029
 10
-10.6997775418
 20
-7.3225724127
 10
-10.6943479646
 20
-7.3218187437
 10
-10.6888982529
 20
-7.3211151877
 10
-10.6834297939
 20
-7.3204619239
 10
-10.6779439798
 20
-7.3198591184
 10
-10.672442207
 20
-7.3193069249
 10
-10.666925876
 20
-7.3188054837
 10
-10.6613963913
 20
-7.3183549226
 10
-10.6558551602
 20
-7.3179553563
 10
-10.6503035935
 20
-7.3176068866
 10
-10.6447431044
 20
-7.317309602
 10
-10.6391751083
 20
-7.3170635783
 10
-10.6336010228
 20
-7.3168688781
 10
-10.6280222667
 20
-7.3167255509
 10
-10.6224402603
 20
-7.3166336334
 10
-10.6168564244
 20
-7.3165931488
 10
-10.6112721805
 20
-7.3166041074
 10
-10.6056889503
 20
-7.3166665065
 10
-10.6001081549
 20
-7.3167803303
 10
-10.5945312151
 20
-7.3169455496
  0
LWPOLYLINE
  5
45C
100
AcDbEntity
  8
IMPORT_IGES
100
AcDbPolyline
 62
250
  6
CONTINUOUS
 90
16
 70
0
 10
-10.6970344283
 20
-7.2405380059
 10
-10.6930223238
 20
-7.2399957199
 10
-10.6889994402
 20
-7.2394807438
 10
-10.684966335
 20
-7.2389931489
 10
-10.6809235674
 20
-7.2385330029
 10
-10.6768716977
 20
-7.2381003694
 10
-10.6728112874
 20
-7.2376953085
 10
-10.6687428994
 20
-7.2373178763
 10
-10.6646670975
 20
-7.236968125
 10
-10.6605844467
 20
-7.2366461033
 10
-10.6564955129
 20
-7.2363518557
 10
-10.6524008628
 20
-7.236085423
 10
-10.6483010639
 20
-7.2358468421
 10
-10.6441966846
 20
-7.2356361462
 10
-10.6400882936
 20
-7.2354533643
 10
-10.6359764604
 20
-7.2352985219
  0
LWPOLYLINE
  5
45D
100
AcDbEntity
  8
IMPORT_IGES
100
AcDbPolyline
 62
250
  6
CONTINUOUS
 90
22
 70
0
 10
-10.6359764604
 20
-7.2352985219
 10
-10.6303995206
 20
-7.2351333026
 10
-10.6248187252
 20
-7.2350194789
 10
-10.6192354949
 20
-7.2349570797
 10
-10.6136512511
 20
-7.2349461211
 10
-10.6080674152
 20
-7.2349866057
 10
-10.6024854088
 20
-7.2350785233
 10
-10.5969066527
 20
-7.2352218504
 10
-10.5913325671
 20
-7.2354165506
 10
-10.5857645711
 20
-7.2356625743
 10
-10.580204082
 20
-7.2359598589
 10
-10.5746525153
 20
-7.2363083287
 10
-10.5691112842
 20
-7.236707895
 10
-10.5635817994
 20
-7.237158456
 10
-10.5580654685
 20
-7.2376598972
 10
-10.5525636957
 20
-7.2382120908
 10
-10.5470778816
 20
-7.2388148962
 10
-10.5416094226
 20
-7.2394681601
 10
-10.5361597109
 20
-7.240171716
 10
-10.5307301337
 20
-7.240925385
 10
-10.5253220733
 20
-7.2417289752
 10
-10.5199369063
 20
-7.2425822819
  0
LINE
  5
45E
100
AcDbEntity
  8
IMPORT_IGES
100
AcDbLine
 62
7
  6
CONTINUOUS
 10
9.2176164139
 20
-12.7750510082
 11
8.9516476853
 21
-12.6215136786
  0
LINE
  5
45F
100
AcDbEntity
  8
IMPORT_IGES
100
AcDbLine
 62
250
  6
CONTINUOUS
 10
9.2925394189
 20
-12.4141977011
 11
9.567592197
 21
-12.5729790334
  0
LINE
  5
460
100
AcDbEntity
  8
0
100
AcDbLine
 62
250
  6
CONTINUOUS
 10
7.2275975757
 20
-10.8230497212
 11
6.7066146997
 21
-10.522240738
  0
LINE
  5
461
100
AcDbEntity
  8
IMPORT_IGES
100
AcDbLine
 62
7
  6
CONTINUOUS
 10
10.2344265773
 20
-11.8413816493
 11
10.5345786724
 21
-12.0146522117
  0
LINE
  5
462
100
AcDbEntity
  8
IMPORT_IGES
100
AcDbLine
 62
7
  6
CONTINUOUS
 10
10.4048872145
 20
-11.7377146778
 11
10.709581728
 21
-11.9136074687
  0
LWPOLYLINE
  5
463
100
AcDbEntity
  8
ASSI
100
AcDbPolyline
 62
250
  6
CONTINUOUS
 90
13
 70
0
 10
-6.4111139504
 20
1.2682129387
 10
-6.416661246
 20
1.2930162073
 10
-6.4250738116
 20
1.3191666607
 10
-6.4362083604
 20
1.3462186518
 10
-6.4498752155
 20
1.3737111628
 10
-6.4658415125
 20
1.4011756067
 10
-6.4838351513
 20
1.4281438153
 10
-6.5035494981
 20
1.4541561232
 10
-6.52464856
 20
1.4787691152
 10
-6.5467726599
 20
1.5015631491
 10
-6.5695446764
 20
1.5221496422
 10
-6.5925764832
 20
1.5401776783
 10
-6.6154754921
 20
1.5553399163
  0
LWPOLYLINE
  5
464
100
AcDbEntity
  8
ASSI
100
AcDbPolyline
 62
7
  6
CONTINUOUS
 90
4
 70
0
 10
-4.6680394685
 20
19.8234516187
 10
-4.6683406457
 20
19.8263977843
 10
-4.672647747
 20
19.8332838132
 10
-4.674193475
 20
19.8343158205
  0
LINE
  5
465
100
AcDbEntity
  8
ASSI
100
AcDbLine
 62
7
  6
CONTINUOUS
 10
-4.6680597278
 20
19.8234612252
 11
-4.6680597278
 21
19.2150648023
  0
LINE
  5
466
100
AcDbEntity
  8
0
100
AcDbLine
 62
7
  6
CONTINUOUS
 10
-4.6543436724
 20
12.7795068685
 11
-4.6543436724
 21
13.0244479516
  0
LINE
  5
467
100
AcDbEntity
  8
ASSI
100
AcDbLine
 62
250
  6
CONTINUOUS
 10
-4.5670777172
 20
-27.1222202468
 11
-4.5670777172
 21
-29.8367873624
  0
LINE
  5
468
100
AcDbEntity
  8
ASSI
100
AcDbLine
 62
250
  6
CONTINUOUS
 10
-4.5670777172
 20
3.5913137023
 11
-4.5670777172
 21
6.305880818
  0
LINE
  5
469
100
AcDbEntity
  8
ASSI
100
AcDbLine
 62
250
  6
CONTINUOUS
 10
-4.4495017859
 20
9.9583356146
 11
-4.4495017859
 21
10.3665785251
  0
LINE
  5
46A
100
AcDbEntity
  8
0
100
AcDbLine
 62
250
  6
CONTINUOUS
 10
-4.442211638
 20
13.3918714126
 11
-4.442211638
 21
13.7184595233
  0
LINE
  5
46B
100
AcDbEntity
  8
ASSI
100
AcDbLine
 62
250
  6
CONTINUOUS
 10
-4.2166364293
 20
-27.1204853403
 11
-4.2166364293
 21
-29.8385531604
  0
LINE
  5
46C
100
AcDbEntity
  8
ASSI
100
AcDbLine
 62
250
  6
CONTINUOUS
 10
-4.2166364293
 20
3.5860471999
 11
-4.2166364293
 21
6.30411502
  0
LINE
  5
46D
100
AcDbEntity
  8
0
100
AcDbLine
 62
250
  6
CONTINUOUS
 10
-4.0786435054
 20
13.6017910958
 11
-4.0786435054
 21
13.9283792065
  0
LINE
  5
46E
100
AcDbEntity
  8
ASSI
100
AcDbLine
 62
7
  6
CONTINUOUS
 10
-4.0336351686
 20
-26.7208505231
 11
-4.0336350546
 21
-26.8142372138
  0
LINE
  5
46F
100
AcDbEntity
  8
ASSI
100
AcDbLine
 62
7
  6
CONTINUOUS
 10
-4.0336350546
 20
3.4838736404
 11
-4.0336351679
 21
3.3904870803
  0
LWPOLYLINE
  5
470
100
AcDbEntity
  8
ASSI
100
AcDbPolyline
 62
7
  6
CONTINUOUS
 90
16
 70
0
 10
-4.0336350566
 20
3.3904869392
 10
-4.034430382
 20
3.3668860122
 10
-4.0369542107
 20
3.3420378948
 10
-4.0412065424
 20
3.3159425872
 10
-4.0472183258
 20
3.2884684024
 10
-4.0549586124
 20
3.2597470274
 10
-4.0643345567
 20
3.2301735225
 10
-4.0754120168
 20
3.199779116
 10
-4.0881251345
 20
3.1685325797
 10
-4.1021834901
 20
3.1367352894
 10
-4.1176326627
 20
3.1044618721
 10
-4.1344270732
 20
3.0716377009
 10
-4.1521395647
 20
3.0383402708
 10
-4.1706277515
 20
3.0045954137
 10
-4.1900340192
 20
2.9703772978
 10
-4.2103583679
 20
2.9356859231
  0
LWPOLYLINE
  5
471
100
AcDbEntity
  8
ASSI
100
AcDbPolyline
 62
250
  6
CONTINUOUS
 90
9
 70
0
 10
-4.2166364293
 20
-29.8385531604
 10
-4.2177579557
 20
-29.8594712844
 10
-4.2207811756
 20
-29.8790144738
 10
-4.2256727773
 20
-29.8969673255
 10
-4.2323798178
 20
-29.9131338898
 10
-4.2408278617
 20
-29.9273335513
 10
-4.2509196447
 20
-29.9394055877
 10
-4.2625389755
 20
-29.9492172421
 10
-4.2701650998
 20
-29.953961397
  0
LWPOLYLINE
  5
472
100
AcDbEntity
  8
ASSI
100
AcDbPolyline
 62
250
  6
CONTINUOUS
 90
3
 70
0
 10
-4.2172177875
 20
3.500921957
 10
-4.2136480075
 20
3.5263593823
 10
-4.2124526921
 20
3.5507463184
  0
LINE
  5
473
100
AcDbEntity
  8
RACCORDO
100
AcDbLine
 62
250
  6
CONTINUOUS
 10
-0.7368226906
 20
15.8738956515
 11
-0.758494864
 21
15.7843662603
  0
LINE
  5
474
100
AcDbEntity
  8
0
100
AcDbLine
 62
7
  6
CONTINUOUS
 10
0.7196678647
 20
14.9280800122
 11
0.7109662373
 21
14.8921329296
  0
LINE
  5
475
100
AcDbEntity
  8
ASSI
100
AcDbLine
 62
7
  6
CONTINUOUS
 10
1.0025105771
 20
4.9411748473
 11
5.2229366466
 21
9.4705029261
  0
LWPOLYLINE
  5
476
100
AcDbEntity
  8
IMPORT_IGES
100
AcDbPolyline
 62
7
  6
CONTINUOUS
 90
5
 70
0
 10
-12.3489796965
 20
-4.3902628335
 10
-12.3540122539
 20
-4.3939412526
 10
-12.3782420907
 20
-4.4144659649
 10
-12.4012107602
 20
-4.436730802
 10
-12.4227220177
 20
-4.4604161743
  0
LINE
  5
477
100
AcDbEntity
  8
DRAFT
100
AcDbLine
 62
7
  6
CONTINUOUS
 10
24.4230310302
 20
18.1198277424
 11
19.6986345626
 21
15.295100583
  0
LINE
  5
478
100
AcDbEntity
  8
IMPORT_IGES
100
AcDbLine
 62
250
  6
CONTINUOUS
 10
-14.7421309285
 20
-3.0084873073
 11
-17.0683113355
 21
-4.351594632
  0
LINE
  5
479
100
AcDbEntity
  8
ASSI
100
AcDbLine
 62
250
  6
CONTINUOUS
 10
-18.7240321774
 20
-5.4675367878
 11
-17.2823485348
 21
-4.6351294812
  0
LINE
  5
47A
100
AcDbEntity
  8
IMPORT_IGES
100
AcDbLine
 62
7
  6
CONTINUOUS
 10
-15.07453159
 20
-4.9475247108
 11
-14.4333579992
 21
-4.5773191152
  0
LINE
  5
47B
100
AcDbEntity
  8
IMPORT_IGES
100
AcDbLine
 62
7
  6
CONTINUOUS
 10
-15.7942935971
 20
-5.4872117943
 11
-15.76776679
 21
-5.4718955483
  0
LWPOLYLINE
  5
47C
100
AcDbEntity
  8
IMPORT_IGES
100
AcDbPolyline
 62
250
  6
CONTINUOUS
 90
3
 70
0
 10
12.630174487
 20
9.6189292104
 10
12.807954904
 20
9.7155002479
 10
12.8638904828
 20
9.7420224428
  0
LWPOLYLINE
  5
47D
100
AcDbEntity
  8
ASSI
100
AcDbPolyline
 62
250
  6
CONTINUOUS
 90
13
 70
0
 10
-6.8565826931
 20
0.4409359098
 10
-6.8812316088
 20
0.4299106546
 10
-6.9083740012
 20
0.4208073447
 10
-6.9375556971
 20
0.4137783055
 10
-6.9682883996
 20
0.4089411539
 10
-7.0000578591
 20
0.4063768298
 10
-7.0323324777
 20
0.4061282421
 10
-7.064572205
 20
0.4081995503
 10
-7.096237574
 20
0.4125560953
 10
-7.1267987287
 20
0.4191249791
 10
-7.1557442899
 20
0.4277962848
 10
-7.1825899121
 20
0.4384249154
 10
-7.2068863878
 20
0.4508330224
  0
LWPOLYLINE
  5
47E
100
AcDbEntity
  8
IMPORT_IGES
100
AcDbPolyline
 62
7
  6
CONTINUOUS
 90
8
 70
0
 10
-16.5617192151
 20
-1.7255093334
 10
-16.5562516947
 20
-1.7236633176
 10
-16.5510081376
 20
-1.7222843249
 10
-16.5459886077
 20
-1.7213953126
 10
-16.5411840589
 20
-1.7210620336
 10
-16.5365844033
 20
-1.7213009702
 10
-16.5321997287
 20
-1.7220956402
 10
-16.5280512528
 20
-1.7234623499
  0
LWPOLYLINE
  5
47F
100
AcDbEntity
  8
IMPORT_IGES
100
AcDbPolyline
 62
250
  6
CONTINUOUS
 90
16
 70
0
 10
-10.7678654995
 20
-7.3368136322
 10
-10.7641727058
 20
-7.3357959008
 10
-10.7604595574
 20
-7.334803166
 10
-10.7567265619
 20
-7.3338355636
 10
-10.7529742295
 20
-7.3328932259
 10
-10.749203073
 20
-7.3319762815
 10
-10.745413608
 20
-7.3310848559
 10
-10.7416063524
 20
-7.3302190709
 10
-10.7377818265
 20
-7.3293790449
 10
-10.7339405532
 20
-7.3285648926
 10
-10.7300830574
 20
-7.3277767253
 10
-10.7262098664
 20
-7.3270146507
 10
-10.7223215096
 20
-7.3262787731
 10
-10.7184185186
 20
-7.325569193
 10
-10.7145014266
 20
-7.3248860073
 10
-10.7105707692
 20
-7.3242293096
  0
LINE
  5
480
100
AcDbEntity
  8
CURVE
100
AcDbLine
 62
250
  6
CONTINUOUS
 10
-1.6586657558
 20
-4.0947413246
 11
0.498896014
 21
-3.527484858
  0
LINE
  5
481
100
AcDbEntity
  8
CURVE
100
AcDbLine
 62
250
  6
CONTINUOUS
 10
-2.0945125044
 20
-4.2093325788
 11
-2.7372045459
 21
-4.378306421
  0
LINE
  5
482
100
AcDbEntity
  8
CURVE
100
AcDbLine
 62
250
  6
CONTINUOUS
 10
-1.4297196293
 20
-3.5995877486
 11
0.0547676835
 21
-3.2092926387
  0
LINE
  5
483
100
AcDbEntity
  8
CURVE
100
AcDbLine
 62
250
  6
CONTINUOUS
 10
0.0360914972
 20
-2.4689052872
 11
-1.3249272012
 21
-2.8267388016
  0
LINE
  5
484
100
AcDbEntity
  8
CURVE
100
AcDbLine
 62
250
  6
CONTINUOUS
 10
0.498896014
 20
-4.308926927
 11
-1.3249275792
 21
-4.781016845
  0
LINE
  5
485
100
AcDbEntity
  8
CURVE
100
AcDbLine
 62
250
  6
CONTINUOUS
 10
-2.4097593931
 20
-5.0516397245
 11
-1.7659385355
 21
-4.8849896538
  0
LINE
  5
486
100
AcDbEntity
  8
IMPORT_IGES
100
AcDbLine
 62
250
  6
CONTINUOUS
 10
-17.2804422808
 20
-3.9841727878
 11
-17.4925742879
 21
-3.9841732597
  0
LINE
  5
487
100
AcDbEntity
  8
IMPORT_IGES
100
AcDbLine
 62
7
  6
CONTINUOUS
 10
-16.7529772263
 20
-2.5981953619
 11
-16.7483777292
 21
-2.598434738
  0
LINE
  5
488
100
AcDbEntity
  8
IMPORT_IGES
100
AcDbLine
 62
7
  6
CONTINUOUS
 10
-16.5365808274
 20
-1.721301358
 11
-16.5411803245
 21
-1.7210619819
  0
LINE
  5
489
100
AcDbEntity
  8
ASSI
100
AcDbLine
 62
250
  6
CONTINUOUS
 10
-7.2068863878
 20
0.4508330224
 11
-24.1199798995
 21
10.2162412453
  0
LINE
  5
48A
100
AcDbEntity
  8
CURVE
100
AcDbLine
 62
250
  6
CONTINUOUS
 10
-2.7372045459
 20
-4.378306421
 11
-2.4097593931
 21
-5.0516397245
  0
LINE
  5
48B
100
AcDbEntity
  8
CURVE
100
AcDbLine
 62
250
  6
CONTINUOUS
 10
-1.7659385355
 20
-4.8849896538
 11
-2.0945125044
 21
-4.2093325788
  0
LINE
  5
48C
100
AcDbEntity
  8
CURVE
100
AcDbLine
 62
250
  6
CONTINUOUS
 10
-2.7372045459
 20
-2.0390847862
 11
-2.4179560798
 21
-2.6955641903
  0
LINE
  5
48D
100
AcDbEntity
  8
CURVE
100
AcDbLine
 62
250
  6
CONTINUOUS
 10
-1.3249275792
 20
-4.781016845
 11
-1.6586657558
 21
-4.0947413246
  0
LWPOLYLINE
  5
48E
100
AcDbEntity
  8
RACCORDO
100
AcDbPolyline
 62
250
  6
CONTINUOUS
 90
34
 70
0
 10
-3.2155612498
 20
15.045875226
 10
-3.2153940895
 20
15.0437663487
 10
-3.2152310398
 20
15.0410982639
 10
-3.2151153683
 20
15.0384164311
 10
-3.2150470411
 20
15.0357208241
 10
-3.2150272689
 20
15.0330126417
 10
-3.215056086
 20
15.0302918138
 10
-3.2151334581
 20
15.0275584105
 10
-3.2152604923
 20
15.0248138409
 10
-3.2154372364
 20
15.022058054
 10
-3.2156636427
 20
15.0192911009
 10
-3.2159406747
 20
15.016514544
 10
-3.2162683815
 20
15.0137283817
 10
-3.216646714
 20
15.0109326156
 10
-3.2170764882
 20
15.0081288132
 10
-3.2175577468
 20
15.0053169941
 10
-3.218090447
 20
15.0024971387
 10
-3.218675276
 20
14.9996707548
 10
-3.2193122956
 20
14.9968377867
 10
-3.2200014439
 20
14.9939982901
 10
-3.2207432231
 20
14.9911539397
 10
-3.2215376797
 20
14.9883047611
 10
-3.2223847672
 20
14.9854507286
 10
-3.2232848485
 20
14.98259344
 10
-3.2242379417
 20
14.9797329723
 10
-3.2252440288
 20
14.9768692484
 10
-3.2263034175
 20
14.9740036351
 10
-3.2274161272
 20
14.9711361672
 10
-3.2285821387
 20
14.96826681
 10
-3.2298017023
 20
14.9653968258
 10
-3.2310748371
 20
14.9625262351
 10
-3.232401524
 20
14.9596550175
 10
-3.2337819563
 20
14.9567843741
 10
-3.2344805837
 20
14.955386311
  0
LWPOLYLINE
  5
48F
100
AcDbEntity
  8
CURVE
100
AcDbPolyline
 62
250
  6
CONTINUOUS
 90
43
 70
0
 10
-1.6555379892
 20
-3.2203987392
 10
-1.6546092055
 20
-3.2432470233
 10
-1.6534890123
 20
-3.2657132167
 10
-1.6521110734
 20
-3.2877741575
 10
-1.6506449749
 20
-3.3067217909
 10
-1.6489053867
 20
-3.3252956177
 10
-1.6468669442
 20
-3.3434498358
 10
-1.6445042829
 20
-3.3611386436
 10
-1.6423650915
 20
-3.3749249822
 10
-1.6399977002
 20
-3.3883676952
 10
-1.6373976425
 20
-3.4014503325
 10
-1.6345604519
 20
-3.4141564443
 10
-1.6314816618
 20
-3.4264695808
 10
-1.6281572459
 20
-3.438376194
 10
-1.6245849396
 20
-3.449874344
 10
-1.6207629182
 20
-3.4609649931
 10
-1.6166893572
 20
-3.4716491034
 10
-1.6123624322
 20
-3.4819276369
 10
-1.6077811922
 20
-3.4917987688
 10
-1.6029481801
 20
-3.5012495256
 10
-1.5978668125
 20
-3.5102641467
 10
-1.5925405059
 20
-3.5188268715
 10
-1.5869726769
 20
-3.5269219396
 10
-1.5811665547
 20
-3.5345380471
 10
-1.5751246196
 20
-3.5416817172
 10
-1.5688491647
 20
-3.5483639298
 10
-1.562342483
 20
-3.5545956648
 10
-1.5556068678
 20
-3.5603879021
 10
-1.5486444414
 20
-3.5657514632
 10
-1.5414566442
 20
-3.5706965364
 10
-1.534044746
 20
-3.5752331513
 10
-1.5264100167
 20
-3.5793713377
 10
-1.5185537261
 20
-3.5831211253
 10
-1.5104796897
 20
-3.5864906921
 10
-1.5022019069
 20
-3.5894808087
 10
-1.4937369225
 20
-3.5920903939
 10
-1.4851012817
 20
-3.5943183666
 10
-1.4763115295
 20
-3.5961636455
 10
-1.4673769265
 20
-3.5976249572
 10
-1.4582775961
 20
-3.5987002587
 10
-1.4489863771
 20
-3.5993873146
 10
-1.4394761086
 20
-3.5996838897
 10
-1.4297196293
 20
-3.5995877486
  0
LINE
  5
490
100
AcDbEntity
  8
CURVE
100
AcDbLine
 62
250
  6
CONTINUOUS
 10
-1.6586657558
 20
-3.1256479348
 11
-1.6555379892
 21
-3.2203987392
  0
LWPOLYLINE
  5
491
100
AcDbEntity
  8
ASSI
100
AcDbPolyline
 62
250
  6
CONTINUOUS
 90
29
 70
0
 10
-2.1083593902
 20
10.0930703864
 10
-2.1081217486
 20
10.0806317846
 10
-2.1025335556
 20
10.0315884509
 10
-2.0895663551
 20
9.9830470099
 10
-2.0693196027
 20
9.9353814211
 10
-2.0419485833
 20
9.888957145
 10
-2.0076640062
 20
9.8441299393
 10
-1.966727815
 20
9.8012457348
 10
-1.9194499012
 20
9.7606316155
 10
-1.8661966935
 20
9.7226029982
 10
-1.8073908162
 20
9.6874612146
 10
-1.7435051742
 20
9.6554841945
 10
-1.6750189511
 20
9.6269061236
 10
-1.6024184334
 20
9.6019308066
 10
-1.5261721173
 20
9.5807355924
 10
-1.4469426637
 20
9.5635185085
 10
-1.3655645018
 20
9.5504446534
 10
-1.2821162326
 20
9.5415441591
 10
-1.1977935058
 20
9.5369578939
 10
-1.1151851673
 20
9.5366432717
 10
-1.0361158957
 20
9.5402058038
 10
-0.9598667606
 20
9.5472872995
 10
-0.8851897833
 20
9.5578168597
 10
-0.8128000341
 20
9.571616559
 10
-0.7428415618
 20
9.5885836991
 10
-0.6734658233
 20
9.6092925481
 10
-0.6046510476
 20
9.6341573281
 10
-0.5379429564
 20
9.6630649949
 10
-0.4741661192
 20
9.696062601
  0
LINE
  5
492
100
AcDbEntity
  8
ASSI
100
AcDbLine
 62
7
  6
CONTINUOUS
 10
-2.1083593902
 20
10.0930708975
 11
-2.1083593902
 21
9.0277675153
  0
LINE
  5
493
100
AcDbEntity
  8
CURVE
100
AcDbLine
 62
250
  6
CONTINUOUS
 10
-1.6586656666
 20
-0.0197381234
 11
-1.6586657558
 21
-0.9821592155
  0
LINE
  5
494
100
AcDbEntity
  8
CURVE
100
AcDbLine
 62
250
  6
CONTINUOUS
 10
-1.6586657558
 20
-2.5060346812
 11
-1.6586657558
 21
-3.1256479348
  0
LINE
  5
495
100
AcDbEntity
  8
CURVE
100
AcDbLine
 62
250
  6
CONTINUOUS
 10
-0.8680578004
 20
-11.2550821439
 11
-0.8680578004
 21
-11.9199219094
  0
LINE
  5
496
100
AcDbEntity
  8
CURVE
100
AcDbLine
 62
250
  6
CONTINUOUS
 10
-0.8680578004
 20
-14.3207330368
 11
-0.8680578004
 21
-14.7639602868
  0
LINE
  5
497
100
AcDbEntity
  8
CURVE
100
AcDbLine
 62
250
  6
CONTINUOUS
 10
-0.8680578004
 20
-20.6367141378
 11
-0.8680578004
 21
-20.3042940701
  0
LINE
  5
498
100
AcDbEntity
  8
CURVE
100
AcDbLine
 62
250
  6
CONTINUOUS
 10
-0.8680578004
 20
-19.4178404947
 11
-0.8680578004
 21
-19.0854206119
  0
LINE
  5
499
100
AcDbEntity
  8
CURVE
100
AcDbLine
 62
250
  6
CONTINUOUS
 10
-0.8680578004
 20
-18.1989672214
 11
-0.8680578004
 21
-17.8665469688
  0
LINE
  5
49A
100
AcDbEntity
  8
ASSI
100
AcDbLine
 62
7
  6
CONTINUOUS
 10
-0.6177164587
 20
16.0422379082
 11
-0.6177164587
 21
15.7002689591
  0
LINE
  5
49B
100
AcDbEntity
  8
ASSI
100
AcDbLine
 62
250
  6
CONTINUOUS
 10
-0.4741661192
 20
9.6960625755
 11
-0.4741661192
 21
8.4278932685
  0
LINE
  5
49C
100
AcDbEntity
  8
ASSI
100
AcDbLine
 62
250
  6
CONTINUOUS
 10
-0.4741661192
 20
-27.7889036992
 11
-0.4741661192
 21
-29.0570730061
  0
LINE
  5
49D
100
AcDbEntity
  8
CURVE
100
AcDbLine
 62
250
  6
CONTINUOUS
 10
-0.2822204863
 20
-21.6766806526
 11
-0.2822204863
 21
-21.1965184456
  0
LINE
  5
49E
100
AcDbEntity
  8
CURVE
100
AcDbLine
 62
250
  6
CONTINUOUS
 10
-0.2822204863
 20
-11.5932727342
 11
-0.2822204863
 21
-11.1500462239
  0
LINE
  5
49F
100
AcDbEntity
  8
CURVE
100
AcDbLine
 62
250
  6
CONTINUOUS
 10
-0.0869413409
 20
-18.5021459389
 11
-0.0869413409
 21
-18.9823082384
  0
LINE
  5
4A0
100
AcDbEntity
  8
CURVE
100
AcDbLine
 62
250
  6
CONTINUOUS
 10
0.1083377638
 20
-15.0321271543
 11
0.1083377638
 21
-15.6230960813
  0
LINE
  5
4A1
100
AcDbEntity
  8
CURVE
100
AcDbLine
 62
250
  6
CONTINUOUS
 10
0.2710703715
 20
-12.7252572298
 11
0.2710703715
 21
-12.799128808
  0
LINE
  5
4A2
100
AcDbEntity
  8
CURVE
100
AcDbLine
 62
250
  6
CONTINUOUS
 10
0.2710703715
 20
-16.2341357426
 11
0.2710703715
 21
-16.3080069509
  0
LINE
  5
4A3
100
AcDbEntity
  8
CURVE
100
AcDbLine
 62
250
  6
CONTINUOUS
 10
-1.6588362653
 20
1.2620953057
 11
-1.6586657558
 21
2.3929225529
  0
LWPOLYLINE
  5
4A4
100
AcDbEntity
  8
CURVE
100
AcDbPolyline
 62
250
  6
CONTINUOUS
 90
54
 70
0
 10
-1.4365482333
 20
2.0893528257
 10
-1.439141176
 20
2.075972344
 10
-1.4412897747
 20
2.0627989181
 10
-1.4430151756
 20
2.0498218963
 10
-1.4443385248
 20
2.0370306271
 10
-1.4452809685
 20
2.0244144587
 10
-1.4457897356
 20
2.0140295433
 10
-1.4460555727
 20
2.0037675767
 10
-1.4460853828
 20
1.993637307
 10
-1.4458872285
 20
1.9836449552
 10
-1.4454738113
 20
1.9737866339
 10
-1.4448589927
 20
1.9640559286
 10
-1.44405059
 20
1.9544509681
 10
-1.4430322437
 20
1.944988053
 10
-1.4417815505
 20
1.9356880269
 10
-1.4402796703
 20
1.9265698172
 10
-1.4385220165
 20
1.9176446863
 10
-1.4365075662
 20
1.9089219805
 10
-1.4342409656
 20
1.9004046163
 10
-1.4317495391
 20
1.8920697928
 10
-1.4290662801
 20
1.8838882794
 10
-1.4247248269
 20
1.8718717418
 10
-1.422399318
 20
1.865997507
 10
-1.4199543336
 20
1.8602271377
 10
-1.4173752335
 20
1.8545726926
 10
-1.4146463693
 20
1.8490528357
 10
-1.4117566952
 20
1.843683488
 10
-1.4087145851
 20
1.8384629909
 10
-1.4055346671
 20
1.8333836397
 10
-1.4022371655
 20
1.8284311224
 10
-1.3953722511
 20
1.818821046
 10
-1.3918351921
 20
1.8141131863
 10
-1.3882116132
 20
1.8094881978
 10
-1.3844721637
 20
1.8049870087
 10
-1.38058339
 20
1.8006684157
 10
-1.3765111239
 20
1.7965958571
 10
-1.372222442
 20
1.7928334688
 10
-1.367691732
 20
1.7894320503
 10
-1.3629213829
 20
1.786388358
 10
-1.3579218333
 20
1.7836850674
 10
-1.3527077202
 20
1.7813025745
 10
-1.3472962893
 20
1.7792230939
 10
-1.3417110247
 20
1.7774383941
 10
-1.334030024
 20
1.7755063473
 10
-1.3261027227
 20
1.7740687424
 10
-1.3179473364
 20
1.7731063544
 10
-1.3095824345
 20
1.7725982065
 10
-1.3010280002
 20
1.7725163148
 10
-1.2923043702
 20
1.7728309438
 10
-1.2834359094
 20
1.7735061695
 10
-1.2744630949
 20
1.7744813139
 10
-1.2654304317
 20
1.7756895103
 10
-1.2518395548
 20
1.7778088811
 10
-1.2382022348
 20
1.7801747383
  0
LWPOLYLINE
  5
4A5
100
AcDbEntity
  8
ASSI
100
AcDbPolyline
 62
250
  6
CONTINUOUS
 90
8
 70
0
 10
-6.4111139504
 20
-27.2498296899
 10
-6.416661609
 20
-27.2774005336
 10
-6.4250747218
 20
-27.3027316512
 10
-6.4362098922
 20
-27.325391289
 10
-6.4498773278
 20
-27.3449932267
 10
-6.4658440753
 20
-27.3612033607
 10
-6.4838379908
 20
-27.3737453989
 10
-6.500611361
 20
-27.3814010319
  0
LWPOLYLINE
  5
4A6
100
AcDbEntity
  8
CURVE
100
AcDbPolyline
 62
250
  6
CONTINUOUS
 90
45
 70
0
 10
0.2473802567
 20
0.1155838653
 10
0.2375152899
 20
0.0945550181
 10
0.234109539
 20
0.0874134729
 10
0.230609017
 20
0.0801709894
 10
0.2269950972
 20
0.0728163033
 10
0.2219729085
 20
0.0628300952
 10
0.2166936891
 20
0.0526673561
 10
0.2111328497
 20
0.0423668768
 10
0.2052680212
 20
0.0319633615
 10
0.1990857143
 20
0.0214751688
 10
0.1925746599
 20
0.010916571
 10
0.1874696286
 20
0.0029609873
 10
0.1821732584
 20
-0.0050142551
 10
0.17668547
 20
-0.0129972403
 10
0.171006184
 20
-0.0209760521
 10
0.1651341232
 20
-0.02893932
 10
0.1590632195
 20
-0.0368778545
 10
0.152786207
 20
-0.0447830116
 10
0.14629582
 20
-0.0526461474
 10
0.1395848489
 20
-0.0604565731
 10
0.1326463105
 20
-0.0681954215
 10
0.1254778146
 20
-0.0758394444
 10
0.1180951178
 20
-0.0833560497
 10
0.1105209684
 20
-0.0907150269
 10
0.102787935
 20
-0.097905038
 10
0.094922858
 20
-0.1049268893
 10
0.0869198466
 20
-0.1118110903
 10
0.0787666714
 20
-0.1185936984
 10
0.0704584806
 20
-0.1253032564
 10
0.0619995572
 20
-0.1319631366
 10
0.0534233461
 20
-0.1385835431
 10
0.0447719355
 20
-0.1451656881
 10
0.0360928261
 20
-0.1516879847
 10
0.0274186056
 20
-0.1581219331
 10
0.0187167991
 20
-0.1644341801
 10
0.0099424872
 20
-0.1705871554
 10
0.0010660353
 20
-0.1765312725
 10
-0.0049152299
 20
-0.1803483015
 10
-0.0109258443
 20
-0.1840112718
 10
-0.0169382886
 20
-0.1874823243
 10
-0.0241223528
 20
-0.1913517845
 10
-0.0312546445
 20
-0.1948899528
 10
-0.0383203835
 20
-0.1980964162
 10
-0.0453047897
 20
-0.2009707619
 10
-0.0521930828
 20
-0.203512577
  0
LWPOLYLINE
  5
4A7
100
AcDbEntity
  8
IMPORT_IGES
100
AcDbPolyline
 62
7
  6
CONTINUOUS
 90
7
 70
0
 10
-11.1172356325
 20
-7.0861784891
 10
-11.1317259357
 20
-7.0981409652
 10
-11.1433730126
 20
-7.1105661754
 10
-11.1521768634
 20
-7.1234541195
 10
-11.1581584633
 20
-7.1369883553
 10
-11.161296837
 20
-7.1509853251
 10
-11.1618063912
 20
-7.1587699704
  0
LINE
  5
4A8
100
AcDbEntity
  8
IMPORT_IGES
100
AcDbLine
 62
7
  6
CONTINUOUS
 10
-9.6925493873
 20
-6.0703570494
 11
-11.1172356325
 21
-7.0861784891
  0
LINE
  5
4A9
100
AcDbEntity
  8
IMPORT_IGES
100
AcDbLine
 62
7
  6
CONTINUOUS
 10
-11.0407464439
 20
-7.276581699
 11
-9.9187045651
 21
-6.4765499723
  0
LWPOLYLINE
  5
4AA
100
AcDbEntity
  8
IMPORT_IGES
100
AcDbPolyline
 62
250
  6
CONTINUOUS
 90
3
 70
0
 10
12.3962412746
 20
9.4720071915
 10
12.4582753423
 20
9.5139954092
 10
12.630174487
 20
9.6189292104
  0
LINE
  5
4AB
100
AcDbEntity
  8
0
100
AcDbLine
 62
7
  6
CONTINUOUS
 10
18.3793009974
 20
13.5237444358
 11
7.2275975757
 21
6.7417486651
  0
LINE
  5
4AC
100
AcDbEntity
  8
DRAFT
100
AcDbLine
 62
7
  6
CONTINUOUS
 10
24.4230310302
 20
14.6906525799
 11
19.6986345626
 21
11.8659254204
  0
LINE
  5
4AD
100
AcDbEntity
  8
0
100
AcDbLine
 62
7
  6
CONTINUOUS
 10
18.3793009974
 20
12.0596166194
 11
7.2275975757
 21
5.5063558147
  0
LINE
  5
4AE
100
AcDbEntity
  8
0
100
AcDbLine
 62
7
  6
CONTINUOUS
 10
22.6745719098
 20
14.4753671827
 11
18.9596113547
 21
12.2926281586
  0
LINE
  5
4AF
100
AcDbEntity
  8
0
100
AcDbLine
 62
7
  6
CONTINUOUS
 10
17.6285578131
 20
12.493086325
 11
6.8126761311
 21
6.2481211706
  0
LINE
  5
4B0
100
AcDbEntity
  8
ASSI
100
AcDbLine
 62
7
  6
CONTINUOUS
 10
22.5339120643
 20
14.5565824146
 11
23.5945722361
 21
15.1689943046
  0
LINE
  5
4B1
100
AcDbEntity
  8
IMPORT_IGES
100
AcDbLine
 62
7
  6
CONTINUOUS
 10
-13.3898714963
 20
-5.7739870241
 11
-11.4905189023
 21
-4.8859273364
  0
LWPOLYLINE
  5
4B2
100
AcDbEntity
  8
CURVE
100
AcDbPolyline
 62
250
  6
CONTINUOUS
 90
25
 70
0
 10
-0.0521930828
 20
-0.203512577
 10
-0.0550314814
 20
-0.2044734791
 10
-0.0578505018
 20
-0.2053768687
 10
-0.060650018
 20
-0.206223036
 10
-0.0634299041
 20
-0.2070122711
 10
-0.0661900341
 20
-0.2077448643
 10
-0.0689302822
 20
-0.2084211058
 10
-0.0716505223
 20
-0.2090412857
 10
-0.0743506286
 20
-0.2096056942
 10
-0.0770304751
 20
-0.2101146216
 10
-0.0796899359
 20
-0.210568358
 10
-0.0823288851
 20
-0.2109671935
 10
-0.0849471966
 20
-0.2113114185
 10
-0.0875449321
 20
-0.2116011352
 10
-0.0901229026
 20
-0.2118356947
 10
-0.092682107
 20
-0.2120142604
 10
-0.0952235438
 20
-0.2121359955
 10
-0.0977482117
 20
-0.2122000632
 10
-0.1002571093
 20
-0.212205627
 10
-0.1027512353
 20
-0.2121518499
 10
-0.1052315883
 20
-0.2120378954
 10
-0.107699167
 20
-0.2118629267
 10
-0.1101549701
 20
-0.211626107
 10
-0.1125999962
 20
-0.2113265997
 10
-0.1150352439
 20
-0.210963568
  0
LINE
  5
4B3
100
AcDbEntity
  8
CURVE
100
AcDbLine
 62
250
  6
CONTINUOUS
 10
-1.4323838186
 20
-2.4606712323
 11
0.2712868341
 21
-2.0127495081
  0
LINE
  5
4B4
100
AcDbEntity
  8
CURVE
100
AcDbLine
 62
250
  6
CONTINUOUS
 10
0.498896014
 20
-1.1882624068
 11
-2.7372045459
 21
-2.0390847862
  0
LINE
  5
4B5
100
AcDbEntity
  8
CURVE
100
AcDbLine
 62
250
  6
CONTINUOUS
 10
-1.4619069318
 20
-1.3055100914
 11
0.1407512368
 21
-0.8841460363
  0
LINE
  5
4B6
100
AcDbEntity
  8
CURVE
100
AcDbLine
 62
250
  6
CONTINUOUS
 10
-1.2811829586
 20
-0.509523012
 11
-0.4411789882
 21
-0.2886727057
  0
LINE
  5
4B7
100
AcDbEntity
  8
CURVE
100
AcDbLine
 62
250
  6
CONTINUOUS
 10
-0.6010953177
 20
0.0401683464
 11
-1.4261987123
 21
-0.1767639258
  0
LINE
  5
4B8
100
AcDbEntity
  8
CURVE
100
AcDbLine
 62
250
  6
CONTINUOUS
 10
-2.4179560798
 20
-2.6955641903
 11
-1.6586657558
 21
-2.5060346812
  0
LWPOLYLINE
  5
4B9
100
AcDbEntity
  8
CURVE
100
AcDbPolyline
 62
250
  6
CONTINUOUS
 90
53
 70
0
 10
0.1286682678
 20
0.2465394136
 10
0.1340197648
 20
0.2468192075
 10
0.1394940633
 20
0.2474900366
 10
0.1450794586
 20
0.2485037777
 10
0.1507642466
 20
0.2498123079
 10
0.1565367226
 20
0.2513675042
 10
0.1623851824
 20
0.2531212435
 10
0.1682979216
 20
0.2550254028
 10
0.1742632357
 20
0.257031859
 10
0.1822745812
 20
0.2597804095
 10
0.1903070819
 20
0.2624951341
 10
0.1983092343
 20
0.2650458981
 10
0.2042589881
 20
0.2667753721
 10
0.2101352013
 20
0.2682982241
 10
0.215910375
 20
0.2695732609
 10
0.2215570101
 20
0.2705592893
 10
0.2270541364
 20
0.2712145537
 10
0.2324068977
 20
0.2714950491
 10
0.2358966427
 20
0.2714518207
 10
0.2393049279
 20
0.2712089452
 10
0.2426092681
 20
0.2707531474
 10
0.2457884268
 20
0.2700731479
 10
0.2488261616
 20
0.269165651
 10
0.251707479
 20
0.2680293572
 10
0.2544213574
 20
0.2666651633
 10
0.2569726643
 20
0.2650827536
 10
0.2593702391
 20
0.2632940086
 10
0.2616223684
 20
0.261309563
 10
0.2637351263
 20
0.259135067
 10
0.2657140338
 20
0.2567749247
 10
0.2684367902
 20
0.2529020402
 10
0.2708491635
 20
0.2486709157
 10
0.272931962
 20
0.244132507
 10
0.2746757964
 20
0.2393433735
 10
0.276076112
 20
0.2343588254
 10
0.277137891
 20
0.2292235739
 10
0.2778674339
 20
0.2239685696
 10
0.278266776
 20
0.2185803195
 10
0.2783360982
 20
0.2130395113
 10
0.2780724271
 20
0.2073479999
 10
0.2774754163
 20
0.2015123194
 10
0.2765583812
 20
0.1955365556
 10
0.2753380527
 20
0.1894241816
 10
0.2738311617
 20
0.183178671
 10
0.2720547236
 20
0.1768043802
 10
0.2700268922
 20
0.1703091981
 10
0.2677661056
 20
0.1637018969
 10
0.2652908021
 20
0.1569912484
 10
0.2626213237
 20
0.1501887
 10
0.2597856268
 20
0.1433163995
 10
0.2568138747
 20
0.1363993286
 10
0.2537374431
 20
0.1294631034
 10
0.2473802567
 20
0.1155838653
  0
LWPOLYLINE
  5
4BA
100
AcDbEntity
  8
ASSI
100
AcDbPolyline
 62
7
  6
CONTINUOUS
 90
9
 70
0
 10
-18.8523472039
 20
-0.0539450646
 10
-18.8529406615
 20
-0.0539393847
 10
-18.8541920235
 20
-0.0538781067
 10
-18.8524304452
 20
-0.054186096
 10
-18.8478776305
 20
-0.0553450707
 10
-18.8409168503
 20
-0.0576802137
 10
-18.8318758888
 20
-0.0614205683
 10
-18.8209458387
 20
-0.0667849157
 10
-18.8132008343
 20
-0.0710672264
  0
LINE
  5
4BB
100
AcDbEntity
  8
0
100
AcDbLine
 62
250
  6
CONTINUOUS
 10
7.2275975757
 20
-6.7406983372
 11
6.7066146997
 21
-6.4398893541
  0
LINE
  5
4BC
100
AcDbEntity
  8
ASSI
100
AcDbLine
 62
250
  6
CONTINUOUS
 10
-6.615475494
 20
1.5553399149
 11
-23.5438535841
 21
11.3295732617
  0
LINE
  5
4BD
100
AcDbEntity
  8
IMPORT_IGES
100
AcDbLine
 62
7
  6
CONTINUOUS
 10
6.9042514825
 20
-5.9460584312
 11
6.8541447592
 21
-5.9171274371
  0
LINE
  5
4BE
100
AcDbEntity
  8
IMPORT_IGES
100
AcDbLine
 62
7
  6
CONTINUOUS
 10
7.3284946902
 20
-5.7011053032
 11
7.1222360738
 21
-5.5820141632
  0
LINE
  5
4BF
100
AcDbEntity
  8
IMPORT_IGES
100
AcDbLine
 62
7
  6
CONTINUOUS
 10
7.6834990194
 20
-5.496129904
 11
7.457371472
 21
-5.3655666922
  0
LINE
  5
4C0
100
AcDbEntity
  8
CURVE
100
AcDbLine
 62
250
  6
CONTINUOUS
 10
-0.4411789882
 20
-0.2886727057
 11
-0.6010953177
 21
0.0401683464
  0
LINE
  5
4C1
100
AcDbEntity
  8
CURVE
100
AcDbLine
 62
250
  6
CONTINUOUS
 10
-0.1150352439
 20
-0.210963568
 11
-0.6110992612
 21
0.8091079661
  0
LINE
  5
4C2
100
AcDbEntity
  8
CURVE
100
AcDbLine
 62
250
  6
CONTINUOUS
 10
-1.0700021877
 20
1.7527631297
 11
-0.7694680551
 21
1.1347662776
  0
LINE
  5
4C3
100
AcDbEntity
  8
CURVE
100
AcDbLine
 62
250
  6
CONTINUOUS
 10
-0.1977590474
 20
0.9177814748
 11
0.1286682678
 21
0.2465394136
  0
LINE
  5
4C4
100
AcDbEntity
  8
CURVE
100
AcDbLine
 62
250
  6
CONTINUOUS
 10
-0.3561278413
 20
1.2434397863
 11
-0.8433432754
 21
2.2453150998
  0
LWPOLYLINE
  5
4C5
100
AcDbEntity
  8
CURVE
100
AcDbPolyline
 62
250
  6
CONTINUOUS
 90
19
 70
0
 10
-1.6477431859
 20
1.1596213806
 10
-1.6489506563
 20
1.1648198644
 10
-1.6500907167
 20
1.1700733272
 10
-1.6511631743
 20
1.1753822523
 10
-1.6521678368
 20
1.1807471229
 10
-1.6531045114
 20
1.1861684224
 10
-1.6539730057
 20
1.191646634
 10
-1.6547731271
 20
1.1971822409
 10
-1.6555046829
 20
1.2027757266
 10
-1.6561674807
 20
1.2084275743
 10
-1.6567613279
 20
1.2141382672
 10
-1.6572860319
 20
1.2199082886
 10
-1.6577414001
 20
1.2257381219
 10
-1.65812724
 20
1.2316282503
 10
-1.658443359
 20
1.237579157
 10
-1.6586895645
 20
1.2435913254
 10
-1.6588656641
 20
1.2496652388
 10
-1.658971465
 20
1.2558013805
 10
-1.6590067748
 20
1.2620002336
  0
LWPOLYLINE
  5
4C6
100
AcDbEntity
  8
CURVE
100
AcDbPolyline
 62
250
  6
CONTINUOUS
 90
45
 70
0
 10
-1.6530704994
 20
-1.0161391856
 10
-1.6511604436
 20
-1.0270944205
 10
-1.6491892434
 20
-1.0378271136
 10
-1.6471835149
 20
-1.0483442951
 10
-1.645162054
 20
-1.0586525974
 10
-1.6431123767
 20
-1.0687570614
 10
-1.641014179
 20
-1.07866233
 10
-1.6388507486
 20
-1.0883734819
 10
-1.6366197384
 20
-1.0978973384
 10
-1.6343223929
 20
-1.1072411567
 10
-1.6307504295
 20
-1.1209316496
 10
-1.6270104784
 20
-1.1342366512
 10
-1.6230810059
 20
-1.1471594275
 10
-1.6189404787
 20
-1.1597032445
 10
-1.6160523451
 20
-1.1678562062
 10
-1.6130550854
 20
-1.1758391837
 10
-1.6099429464
 20
-1.1836491673
 10
-1.6067103535
 20
-1.1912856764
 10
-1.6033524482
 20
-1.1987583462
 10
-1.5998645512
 20
-1.2060793407
 10
-1.5962422242
 20
-1.2132559877
 10
-1.5924819942
 20
-1.2202762696
 10
-1.5885806295
 20
-1.2271233324
 10
-1.5845320235
 20
-1.2337807931
 10
-1.5803185716
 20
-1.2402341524
 10
-1.5759197942
 20
-1.2464693822
 10
-1.5713187389
 20
-1.2524716289
 10
-1.566512561
 20
-1.2582227378
 10
-1.5615019426
 20
-1.2637037288
 10
-1.5562876346
 20
-1.2688986786
 10
-1.5508706625
 20
-1.2738038915
 10
-1.5452521202
 20
-1.2784187287
 10
-1.5394317149
 20
-1.2827375575
 10
-1.5334036062
 20
-1.2867347704
 10
-1.5271605668
 20
-1.290379766
 10
-1.5206980236
 20
-1.2936460434
 10
-1.5140220196
 20
-1.2965235022
 10
-1.5071412522
 20
-1.2990061422
 10
-1.5000645112
 20
-1.3010892289
 10
-1.4928009573
 20
-1.3027730901
 10
-1.4853598438
 20
-1.3040593193
 10
-1.4796656024
 20
-1.3047634091
 10
-1.4738658974
 20
-1.3052418314
 10
-1.4679499376
 20
-1.3054916908
 10
-1.4619069318
 20
-1.3055100914
  0
LWPOLYLINE
  5
4C7
100
AcDbEntity
  8
CURVE
100
AcDbPolyline
 62
250
  6
CONTINUOUS
 90
3
 70
0
 10
-1.6586657558
 20
-0.9821592155
 10
-1.6567483037
 20
-0.9936192768
 10
-1.6530704994
 20
-1.0161391856
  0
LINE
  5
4C8
100
AcDbEntity
  8
CURVE
100
AcDbLine
 62
250
  6
CONTINUOUS
 10
0.433802974
 20
-16.2172710604
 11
0.433802974
 21
-16.1433998521
  0
LINE
  5
4C9
100
AcDbEntity
  8
CURVE
100
AcDbLine
 62
250
  6
CONTINUOUS
 10
0.433802974
 20
-12.7083929175
 11
0.433802974
 21
-12.6345213393
  0
LINE
  5
4CA
100
AcDbEntity
  8
CURVE
100
AcDbLine
 62
250
  6
CONTINUOUS
 10
0.498896014
 20
-3.527484858
 11
0.498896014
 21
-4.308926927
  0
LINE
  5
4CB
100
AcDbEntity
  8
CURVE
100
AcDbLine
 62
250
  6
CONTINUOUS
 10
0.498896014
 20
-10.7145139449
 11
0.498896014
 21
-11.1577404552
  0
LINE
  5
4CC
100
AcDbEntity
  8
CURVE
100
AcDbLine
 62
250
  6
CONTINUOUS
 10
0.498896014
 20
-20.7609861666
 11
0.498896014
 21
-21.0934061418
  0
LINE
  5
4CD
100
AcDbEntity
  8
CURVE
100
AcDbLine
 62
250
  6
CONTINUOUS
 10
0.498896014
 20
-20.0961461237
 11
0.498896014
 21
-19.3204993608
  0
LINE
  5
4CE
100
AcDbEntity
  8
CURVE
100
AcDbLine
 62
250
  6
CONTINUOUS
 10
0.498896014
 20
-17.6583990223
 11
0.498896014
 21
-16.8827522594
  0
LINE
  5
4CF
100
AcDbEntity
  8
CURVE
100
AcDbLine
 62
250
  6
CONTINUOUS
 10
0.498896014
 20
-14.0017788326
 11
0.498896014
 21
-13.5585515826
  0
LINE
  5
4D0
100
AcDbEntity
  8
CURVE
100
AcDbLine
 62
250
  6
CONTINUOUS
 10
0.498896014
 20
-2.6189590518
 11
0.498896014
 21
-1.1882624068
  0
LINE
  5
4D1
100
AcDbEntity
  8
CURVE
100
AcDbLine
 62
250
  6
CONTINUOUS
 10
0.498896014
 20
-0.3512322524
 11
0.498896014
 21
0.8659506826
  0
LINE
  5
4D2
100
AcDbEntity
  8
CURVE
100
AcDbLine
 62
250
  6
CONTINUOUS
 10
0.498896014
 20
3.4027695549
 11
0.4988960559
 21
1.9748283818
  0
LINE
  5
4D3
100
AcDbEntity
  8
ASSI
100
AcDbLine
 62
7
  6
CONTINUOUS
 10
1.0025105771
 20
-28.2483372396
 11
1.0025105771
 21
10.5340475393
  0
LINE
  5
4D4
100
AcDbEntity
  8
ASSI
100
AcDbLine
 62
7
  6
CONTINUOUS
 10
2.2045921052
 20
14.2085521446
 11
2.2045921052
 21
13.8003196076
  0
LWPOLYLINE
  5
4D5
100
AcDbEntity
  8
CURVE
100
AcDbPolyline
 62
250
  6
CONTINUOUS
 90
59
 70
0
 10
0.4988960978
 20
1.9748284051
 10
0.4987318303
 20
1.9625466427
 10
0.4982421184
 20
1.9502322854
 10
0.4974315979
 20
1.9378651982
 10
0.4963049048
 20
1.925425246
 10
0.4948666749
 20
1.912892294
 10
0.4931206434
 20
1.9002504348
 10
0.4910669424
 20
1.887500672
 10
0.4887048034
 20
1.8746482369
 10
0.4860334577
 20
1.8616983608
 10
0.4830521369
 20
1.848656275
 10
0.4797610292
 20
1.8355294417
 10
0.4761641503
 20
1.8223342466
 10
0.4722664726
 20
1.8090893063
 10
0.4680729687
 20
1.7958132375
 10
0.4635886111
 20
1.7825246569
 10
0.458818312
 20
1.769240908
 10
0.453766742
 20
1.7559742422
 10
0.4484385115
 20
1.7427356378
 10
0.442838231
 20
1.7295360732
 10
0.4369705108
 20
1.7163865267
 10
0.4301431494
 20
1.7018480811
 10
0.422999936
 20
1.687400873
 10
0.4155494993
 20
1.6730608359
 10
0.407800468
 20
1.658843903
 10
0.3997614708
 20
1.6447660078
 10
0.3914411362
 20
1.6308430835
 10
0.3828480929
 20
1.6170910635
 10
0.3739909697
 20
1.6035258811
 10
0.3648783952
 20
1.5901634697
 10
0.3555198184
 20
1.5770196516
 10
0.3459279699
 20
1.564109805
 10
0.3361164006
 20
1.5514491969
 10
0.3260986614
 20
1.5390530945
 10
0.3158883032
 20
1.526936765
 10
0.3054988769
 20
1.5151154755
 10
0.2949439335
 20
1.503604493
 10
0.2842370238
 20
1.4924190847
 10
0.2733916989
 20
1.4815745178
 10
0.2635231359
 20
1.4721173461
 10
0.2535595602
 20
1.462953157
 10
0.2435070993
 20
1.4540864856
 10
0.2333718807
 20
1.4455218665
 10
0.2231600317
 20
1.4372638347
 10
0.212878673
 20
1.4293176698
 10
0.2025388975
 20
1.4216916304
 10
0.1921527913
 20
1.4143947198
 10
0.1817324404
 20
1.4074359415
 10
0.1712899308
 20
1.4008242987
 10
0.1608363817
 20
1.3945676769
 10
0.1503790442
 20
1.3886694896
 10
0.1399242027
 20
1.3831320322
 10
0.1294781415
 20
1.3779576003
 10
0.1190471448
 20
1.3731484892
 10
0.1086334446
 20
1.3687068315
 10
0.0982230631
 20
1.3646341074
 10
0.0877979701
 20
1.360931634
 10
0.0773401357
 20
1.3576007287
 10
0.0668315296
 20
1.3546427085
  0
LWPOLYLINE
  5
4D6
100
AcDbEntity
  8
IMPORT_IGES
100
AcDbPolyline
 62
7
  6
CONTINUOUS
 90
7
 70
0
 10
16.096851973
 20
11.7874647889
 10
16.1007995563
 20
11.7909873587
 10
16.1112596391
 20
11.8033176371
 10
16.1194981301
 20
11.8180441409
 10
16.1253380298
 20
11.8349664494
 10
16.1289563378
 20
11.8542849833
 10
16.1303530539
 20
11.8759997427
  0
LWPOLYLINE
  5
4D7
100
AcDbEntity
  8
IMPORT_IGES
100
AcDbPolyline
 62
7
  6
CONTINUOUS
 90
9
 70
0
 10
16.0968820357
 20
11.7874189129
 10
16.1773108447
 20
11.8562986878
 10
16.2652132873
 20
11.9393200205
 10
16.3502970713
 20
12.0279788458
 10
16.4322066131
 20
12.1218127144
 10
16.5105855403
 20
12.2203350092
 10
16.5850674528
 20
12.3230149189
 10
16.6552915726
 20
12.429286085
 10
16.6987981834
 20
12.5017334886
  0
LINE
  5
4D8
100
AcDbEntity
  8
0
100
AcDbLine
 62
7
  6
CONTINUOUS
 10
18.4141829809
 20
9.4626068033
 11
7.2275975757
 21
2.6593972812
  0
LINE
  5
4D9
100
AcDbEntity
  8
DRAFT
100
AcDbLine
 62
7
  6
CONTINUOUS
 10
24.4230310302
 20
14.0374763585
 11
19.733372772
 21
11.2335192516
  0
LINE
  5
4DA
100
AcDbEntity
  8
0
100
AcDbLine
 62
7
  6
CONTINUOUS
 10
18.4141829809
 20
7.9977635151
 11
7.2275975757
 21
1.4240044307
  0
LINE
  5
4DB
100
AcDbEntity
  8
0
100
AcDbLine
 62
7
  6
CONTINUOUS
 10
22.6745719098
 20
10.3930157987
 11
18.9946581524
 21
8.2308686522
  0
LINE
  5
4DC
100
AcDbEntity
  8
IMPORT_IGES
100
AcDbLine
 62
7
  6
CONTINUOUS
 10
-12.1526868406
 20
-7.5898298954
 11
-12.1244633862
 21
-7.5735340266
  0
LINE
  5
4DD
100
AcDbEntity
  8
IMPORT_IGES
100
AcDbLine
 62
7
  6
CONTINUOUS
 10
-10.1903601709
 20
-6.789247008
 11
-10.0842941537
 21
-6.728005819
  0
LINE
  5
4DE
100
AcDbEntity
  8
IMPORT_IGES
100
AcDbLine
 62
7
  6
CONTINUOUS
 10
-11.763778111
 20
-7.8143809218
 11
-11.7355546566
 21
-7.7980850529
  0
LINE
  5
4DF
100
AcDbEntity
  8
IMPORT_IGES
100
AcDbLine
 62
7
  6
CONTINUOUS
 10
-10.9365444939
 20
-7.3367465989
 11
-10.8627412112
 21
-7.2941335085
  0
LINE
  5
4E0
100
AcDbEntity
  8
IMPORT_IGES
100
AcDbLine
 62
7
  6
CONTINUOUS
 10
-11.6648508118
 20
-7.8389085667
 11
-11.6930742662
 21
-7.8552044356
  0
LINE
  5
4E1
100
AcDbEntity
  8
IMPORT_IGES
100
AcDbLine
 62
250
  6
CONTINUOUS
 10
-15.9444701597
 20
-10.4910590091
 11
-16.2219810144
 21
-10.6512902986
  0
LINE
  5
4E2
100
AcDbEntity
  8
IMPORT_IGES
100
AcDbLine
 62
250
  6
CONTINUOUS
 10
-15.548528629
 20
-10.7196706866
 11
-16.2219810144
 21
-11.1085136536
  0
LINE
  5
4E3
100
AcDbEntity
  8
0
100
AcDbLine
 62
7
  6
CONTINUOUS
 10
17.6637496621
 20
8.4310543082
 11
6.8126761311
 21
2.1657697866
  0
LINE
  5
4E4
100
AcDbEntity
  8
ASSI
100
AcDbLine
 62
7
  6
CONTINUOUS
 10
22.5339120643
 20
10.4742310307
 11
23.5945722361
 21
11.0866429207
  0
LINE
  5
4E5
100
AcDbEntity
  8
IMPORT_IGES
100
AcDbLine
 62
7
  6
CONTINUOUS
 10
-14.7466412229
 20
-11.5655069753
 11
-14.6257636711
 21
-11.4957137918
  0
LINE
  5
4E6
100
AcDbEntity
  8
IMPORT_IGES
100
AcDbLine
 62
250
  6
CONTINUOUS
 10
-14.6744911827
 20
-11.8480318828
 11
-15.5148742332
 21
-12.3332585237
  0
LWPOLYLINE
  5
4E7
100
AcDbEntity
  8
IMPORT_IGES
100
AcDbPolyline
 62
250
  6
CONTINUOUS
 90
22
 70
0
 10
-10.8627412112
 20
-7.3757805361
 10
-10.85877131
 20
-7.3735245573
 10
-10.8547397313
 20
-7.3713053421
 10
-10.8506474963
 20
-7.3691234528
 10
-10.8464956414
 20
-7.3669794419
 10
-10.8422852182
 20
-7.3648738525
 10
-10.8380172932
 20
-7.3628072178
 10
-10.8336929472
 20
-7.3607800613
 10
-10.8293132755
 20
-7.3587928964
 10
-10.8248793874
 20
-7.3568462265
 10
-10.820392406
 20
-7.3549405445
 10
-10.8158534675
 20
-7.3530763332
 10
-10.8112637218
 20
-7.3512540646
 10
-10.8066243312
 20
-7.3494742005
 10
-10.8019364708
 20
-7.3477371914
 10
-10.7972013279
 20
-7.3460434774
 10
-10.7924201019
 20
-7.3443934875
 10
-10.7875940036
 20
-7.3427876396
 10
-10.7827242555
 20
-7.3412263403
 10
-10.777812091
 20
-7.3397099852
 10
-10.7728587541
 20
-7.3382389583
 10
-10.7678654995
 20
-7.3368136322
  0
LWPOLYLINE
  5
4E8
100
AcDbEntity
  8
IMPORT_IGES
100
AcDbPolyline
 62
250
  6
CONTINUOUS
 90
28
 70
0
 10
-10.8627412112
 20
-7.2941335085
 10
-10.8576529266
 20
-7.2912547947
 10
-10.8524642226
 20
-7.2884364714
 10
-10.8471772488
 20
-7.2856797062
 10
-10.8417941955
 20
-7.2829856412
 10
-10.8363172927
 20
-7.2803553925
 10
-10.8307488093
 20
-7.2777900495
 10
-10.8250910522
 20
-7.2752906752
 10
-10.8193463652
 20
-7.272858305
 10
-10.8135171283
 20
-7.2704939464
 10
-10.8076057563
 20
-7.2681985791
 10
-10.8016146981
 20
-7.2659731538
 10
-10.7955464357
 20
-7.2638185926
 10
-10.7894034829
 20
-7.261735788
 10
-10.7831883847
 20
-7.2597256029
 10
-10.7769037158
 20
-7.25778887
 10
-10.7705520798
 20
-7.2559263917
 10
-10.7641361079
 20
-7.2541389395
 10
-10.7576584581
 20
-7.2524272539
 10
-10.751121814
 20
-7.250792044
 10
-10.7445288835
 20
-7.2492339874
 10
-10.7378823978
 20
-7.2477537293
 10
-10.7311851105
 20
-7.2463518831
 10
-10.724439796
 20
-7.2450290295
 10
-10.7176492487
 20
-7.2437857165
 10
-10.7108162818
 20
-7.2426224592
 10
-10.703943726
 20
-7.2415397395
 10
-10.6970344283
 20
-7.2405380059
  0
LINE
  5
4E9
100
AcDbEntity
  8
ASSI
100
AcDbLine
 62
250
  6
CONTINUOUS
 10
-17.5713185933
 20
-10.6946917674
 11
-16.6476347327
 21
-10.1796672649
  0
LINE
  5
4EA
100
AcDbEntity
  8
ASSI
100
AcDbLine
 62
250
  6
CONTINUOUS
 10
-17.5642286997
 20
-11.4255618577
 11
-16.7381689647
 21
-10.9649702829
  0
LINE
  5
4EB
100
AcDbEntity
  8
ASSI
100
AcDbLine
 62
7
  6
CONTINUOUS
 10
-17.2523019076
 20
-9.9920283626
 11
-17.2522022994
 21
-9.9919736402
  0
LWPOLYLINE
  5
4EC
100
AcDbEntity
  8
IMPORT_IGES
100
AcDbPolyline
 62
250
  6
CONTINUOUS
 90
10
 70
0
 10
-16.2219810144
 20
-10.6512902986
 10
-16.2603429947
 20
-10.6700071589
 10
-16.3040195137
 20
-10.6848902587
 10
-16.3518880942
 20
-10.6953910161
 10
-16.4026081751
 20
-10.7010663626
 10
-16.4547546286
 20
-10.7016136572
 10
-16.5068568777
 20
-10.69685479
 10
-16.5572866828
 20
-10.686750841
 10
-16.6043090688
 20
-10.6714510412
 10
-16.6462450831
 20
-10.6512902986
  0
LWPOLYLINE
  5
4ED
100
AcDbEntity
  8
IMPORT_IGES
100
AcDbPolyline
 62
250
  6
CONTINUOUS
 90
10
 70
0
 10
-16.2219810144
 20
-11.1085136536
 10
-16.2603429947
 20
-11.1272305139
 10
-16.3040195137
 20
-11.1421136137
 10
-16.3518880942
 20
-11.1526143711
 10
-16.4026081751
 20
-11.1582897176
 10
-16.4547546286
 20
-11.1588370122
 10
-16.5068568777
 20
-11.154078145
 10
-16.5572866828
 20
-11.143974196
 10
-16.6043090688
 20
-11.1286743962
 10
-16.6462450831
 20
-11.1085136536
  0
LWPOLYLINE
  5
4EE
100
AcDbEntity
  8
ASSI
100
AcDbPolyline
 62
7
  6
CONTINUOUS
 90
13
 70
0
 10
-17.2523326272
 20
-9.9920464928
 10
-17.2190203895
 20
-9.9762652969
 10
-17.1798218923
 20
-9.9632902754
 10
-17.1369158011
 20
-9.9546745178
 10
-17.0902747671
 20
-9.9506600476
 10
-17.0400957302
 20
-9.9514907246
 10
-16.9867623631
 20
-9.9573584691
 10
-16.9305737215
 20
-9.9683737144
 10
-16.8721774002
 20
-9.9845150431
 10
-16.8125289057
 20
-10.005523698
 10
-16.7522689222
 20
-10.0310597494
 10
-16.6917685487
 20
-10.0608268817
 10
-16.643785236
 20
-10.0872832213
  0
LWPOLYLINE
  5
4EF
100
AcDbEntity
  8
IMPORT_IGES
100
AcDbPolyline
 62
7
  6
CONTINUOUS
 90
3
 70
0
 10
-10.8627412112
 20
-7.3757805361
 10
-10.814609448
 20
-7.3530556858
 10
-10.7637581042
 20
-7.3358515103
  0
LWPOLYLINE
  5
4F0
100
AcDbEntity
  8
CURVE
100
AcDbPolyline
 62
250
  6
CONTINUOUS
 90
59
 70
0
 10
-1.1847414294
 20
0.6582882779
 10
-1.1962350593
 20
0.6551248668
 10
-1.2076751069
 20
0.6515506238
 10
-1.2190813848
 20
0.6475671085
 10
-1.2304737056
 20
0.6431758803
 10
-1.2418718819
 20
0.6383784988
 10
-1.2532912988
 20
0.6331766453
 10
-1.2647296313
 20
0.6275724887
 10
-1.2761801272
 20
0.6215683193
 10
-1.2876360341
 20
0.6151664277
 10
-1.2990905994
 20
0.6083691046
 10
-1.3105359311
 20
0.6011799155
 10
-1.3219595771
 20
0.5936075263
 10
-1.3333479457
 20
0.5856618777
 10
-1.3446874452
 20
0.5773529109
 10
-1.3559644839
 20
0.5686905665
 10
-1.3671665748
 20
0.5596840022
 10
-1.3782856513
 20
0.5503392421
 10
-1.3893147514
 20
0.5406615268
 10
-1.4002469133
 20
0.530656097
 10
-1.4110751752
 20
0.5203281935
 10
-1.4229753778
 20
0.5084824845
 10
-1.4347239213
 20
0.4962617691
 10
-1.4463060127
 20
0.4836826868
 10
-1.4577068595
 20
0.4707618767
 10
-1.4689116689
 20
0.4575159784
 10
-1.4799056482
 20
0.4439616312
 10
-1.4906740046
 20
0.4301154744
 10
-1.5012019456
 20
0.4159941473
 10
-1.5114746783
 20
0.4016142894
 10
-1.5214782791
 20
0.3869926983
 10
-1.5312023011
 20
0.3721468047
 10
-1.5406371662
 20
0.3570941979
 10
-1.5497732965
 20
0.3418524668
 10
-1.558601114
 20
0.3264392005
 10
-1.5671110409
 20
0.3108719882
 10
-1.5752934991
 20
0.295168419
 10
-1.5831389108
 20
0.2793460819
 10
-1.5906376979
 20
0.263422566
 10
-1.5970826448
 20
0.2490193067
 10
-1.6032339971
 20
0.2345604149
 10
-1.6090866844
 20
0.2200579657
 10
-1.6146356361
 20
0.2055240344
 10
-1.6198757817
 20
0.1909706959
 10
-1.6248019791
 20
0.1764114333
 10
-1.6294087994
 20
0.1618653606
 10
-1.6336907424
 20
0.1473529997
 10
-1.6376423078
 20
0.1328948722
 10
-1.6412579951
 20
0.1185115001
 10
-1.6445333625
 20
0.1042209449
 10
-1.6474682025
 20
0.0900314268
 10
-1.6500633657
 20
0.0759487057
 10
-1.6523197032
 20
0.0619785417
 10
-1.6542380657
 20
0.0481266946
 10
-1.6558183084
 20
0.0343942693
 10
-1.657056304
 20
0.0207637504
 10
-1.6579469294
 20
0.0072129673
 10
-1.6584850615
 20
-0.0062802506
 10
-1.6586655774
 20
-0.0197380737
  0
LINE
  5
4F1
100
AcDbEntity
  8
CURVE
100
AcDbLine
 62
250
  6
CONTINUOUS
 10
-0.7694680551
 20
1.1347662776
 11
-1.3504603624
 21
0.981721836
  0
LINE
  5
4F2
100
AcDbEntity
  8
CURVE
100
AcDbLine
 62
250
  6
CONTINUOUS
 10
0.2415667253
 20
1.0332874084
 11
-0.1977590474
 21
0.9177814748
  0
LINE
  5
4F3
100
AcDbEntity
  8
CURVE
100
AcDbLine
 62
250
  6
CONTINUOUS
 10
-0.6110992612
 20
0.8091079661
 11
-1.1847414294
 21
0.6582882779
  0
LINE
  5
4F4
100
AcDbEntity
  8
CURVE
100
AcDbLine
 62
250
  6
CONTINUOUS
 10
0.0668315296
 20
1.3546427085
 11
-0.3561278413
 21
1.2434397863
  0
LINE
  5
4F5
100
AcDbEntity
  8
CURVE
100
AcDbLine
 62
250
  6
CONTINUOUS
 10
-0.014215281
 20
2.0998623008
 11
-0.3982386522
 21
1.9988969219
  0
LINE
  5
4F6
100
AcDbEntity
  8
CURVE
100
AcDbLine
 62
250
  6
CONTINUOUS
 10
-0.8433432754
 20
2.2453150998
 11
-1.4365482333
 21
2.0893528257
  0
LINE
  5
4F7
100
AcDbEntity
  8
CURVE
100
AcDbLine
 62
250
  6
CONTINUOUS
 10
-0.5549462375
 20
2.3211394955
 11
0.2913663553
 21
2.5436483067
  0
LWPOLYLINE
  5
4F8
100
AcDbEntity
  8
CURVE
100
AcDbPolyline
 62
250
  6
CONTINUOUS
 90
43
 70
0
 10
-1.3505229556
 20
0.981413271
 10
-1.3612098474
 20
0.9787732535
 10
-1.371743514
 20
0.9765117359
 10
-1.3821270169
 20
0.9746260127
 10
-1.3923634175
 20
0.9731133783
 10
-1.4024557772
 20
0.9719711272
 10
-1.4124071574
 20
0.9711965537
 10
-1.4222206197
 20
0.9707869523
 10
-1.4318992254
 20
0.9707396174
 10
-1.441446036
 20
0.9710518434
 10
-1.450864113
 20
0.9717209249
 10
-1.4601547655
 20
0.9727445379
 10
-1.469312294
 20
0.974121886
 10
-1.4783292469
 20
0.9758525545
 10
-1.4871981724
 20
0.9779361288
 10
-1.4959116188
 20
0.9803721941
 10
-1.5044621344
 20
0.9831603358
 10
-1.5128422675
 20
0.9863001392
 10
-1.5210445664
 20
0.9897911896
 10
-1.5290615793
 20
0.9936330723
 10
-1.5368858547
 20
0.9978253726
 10
-1.5445102913
 20
1.0023669338
 10
-1.5519291908
 20
1.0072536311
 10
-1.5591372056
 20
1.0124805978
 10
-1.5661289877
 20
1.018042967
 10
-1.5728991896
 20
1.0239358718
 10
-1.5794424635
 20
1.0301544455
 10
-1.5857534617
 20
1.0366938213
 10
-1.5918268363
 20
1.0435491323
 10
-1.5976572398
 20
1.0507155117
 10
-1.6032393243
 20
1.0581880927
 10
-1.6085682969
 20
1.0659614475
 10
-1.6136415838
 20
1.0740279044
 10
-1.6184571659
 20
1.0823792306
 10
-1.6230130242
 20
1.0910071934
 10
-1.6273071396
 20
1.09990356
 10
-1.6313374931
 20
1.1090600978
 10
-1.6351020656
 20
1.118468574
 10
-1.6385988381
 20
1.1281207559
 10
-1.6418257915
 20
1.1380084107
 10
-1.6447809067
 20
1.1481233057
 10
-1.6463044453
 20
1.1538382016
 10
-1.6477431859
 20
1.1596213806
  0
LWPOLYLINE
  5
4F9
100
AcDbEntity
  8
CURVE
100
AcDbPolyline
 62
250
  6
CONTINUOUS
 90
21
 70
0
 10
-1.2382022348
 20
1.7801747383
 10
-1.2108180744
 20
1.7850817929
 10
-1.1971567665
 20
1.7872942207
 10
-1.1835926382
 20
1.789126342
 10
-1.1746334909
 20
1.7900539222
 10
-1.1657548987
 20
1.7906791739
 10
-1.1569661592
 20
1.7909411967
 10
-1.1504428596
 20
1.7908617363
 10
-1.1440014305
 20
1.7905121733
 10
-1.1376679701
 20
1.7898609781
 10
-1.1314685768
 20
1.788876621
 10
-1.12542584
 20
1.7875353365
 10
-1.1195483131
 20
1.7858444159
 10
-1.1138410408
 20
1.7838189147
 10
-1.1083090677
 20
1.7814738882
 10
-1.1012107393
 20
1.7778760722
 10
-1.094422354
 20
1.7737720846
 10
-1.0879332437
 20
1.7691970334
 10
-1.081727085
 20
1.7641773802
 10
-1.0757649331
 20
1.7587050021
 10
-1.0700021877
 20
1.7527631297
  0
LWPOLYLINE
  5
4FA
100
AcDbEntity
  8
IMPORT_IGES
100
AcDbPolyline
 62
7
  6
CONTINUOUS
 90
3
 70
0
 10
-16.743573493
 20
-2.5981019741
 10
-16.7385542774
 20
-2.5972134529
 10
-16.7333105239
 20
-2.5958346743
  0
LWPOLYLINE
  5
4FB
100
AcDbEntity
  8
IMPORT_IGES
100
AcDbPolyline
 62
7
  6
CONTINUOUS
 90
3
 70
0
 10
-16.5459845607
 20
-1.7213947458
 10
-16.5510037763
 20
-1.722283267
 10
-16.5562475298
 20
-1.7236620456
  0
LINE
  5
4FC
100
AcDbEntity
  8
IMPORT_IGES
100
AcDbLine
 62
7
  6
CONTINUOUS
 10
12.6821384806
 20
-6.6876049962
 11
12.6862259054
 21
-6.689964568
  0
LINE
  5
4FD
100
AcDbEntity
  8
ASSI
100
AcDbLine
 62
250
  6
CONTINUOUS
 10
-21.364349008
 20
13.0843304957
 11
-4.3585324364
 21
3.2653851402
  0
LINE
  5
4FE
100
AcDbEntity
  8
ASSI
100
AcDbLine
 62
7
  6
CONTINUOUS
 10
-21.5707510197
 20
13.4090215611
 11
-4.5670777172
 21
3.5913137023
  0
LINE
  5
4FF
100
AcDbEntity
  8
ASSI
100
AcDbLine
 62
250
  6
CONTINUOUS
 10
-4.2486196985
 20
3.5716286946
 11
-4.2124526921
 21
3.5507463184
  0
LINE
  5
500
100
AcDbEntity
  8
ASSI
100
AcDbLine
 62
250
  6
CONTINUOUS
 10
-4.2151255384
 20
3.5886639711
 11
-4.0336350546
 21
3.4838736404
  0
LINE
  5
501
100
AcDbEntity
  8
IMPORT_IGES
100
AcDbLine
 62
7
  6
CONTINUOUS
 10
13.2387916604
 20
-6.3709194834
 11
13.0960457653
 21
-6.2885157224
  0
LINE
  5
502
100
AcDbEntity
  8
IMPORT_IGES
100
AcDbLine
 62
7
  6
CONTINUOUS
 10
13.0960457653
 20
-6.2885157224
 11
13.0889746975
 21
-6.2844329765
  0
LINE
  5
503
100
AcDbEntity
  8
0
100
AcDbLine
 62
250
  6
CONTINUOUS
 10
7.2275975757
 20
-2.6583469533
 11
6.7066146997
 21
-2.3575379701
  0
LINE
  5
504
100
AcDbEntity
  8
IMPORT_IGES
100
AcDbLine
 62
7
  6
CONTINUOUS
 10
13.4086874611
 20
-5.8285786496
 11
13.7903752355
 21
-6.0489177923
  0
LINE
  5
505
100
AcDbEntity
  8
IMPORT_IGES
100
AcDbLine
 62
7
  6
CONTINUOUS
 10
14.0254399293
 20
-5.8667950069
 11
14.0325109971
 21
-5.8708777528
  0
LINE
  5
506
100
AcDbEntity
  8
IMPORT_IGES
100
AcDbLine
 62
7
  6
CONTINUOUS
 10
14.3459927051
 20
-5.7316343889
 11
14.3108636461
 21
-5.7113552308
  0
LINE
  5
507
100
AcDbEntity
  8
IMPORT_IGES
100
AcDbLine
 62
7
  6
CONTINUOUS
 10
14.0325109971
 20
-5.5506689627
 11
13.9469106959
 21
-5.5012539742
  0
LINE
  5
508
100
AcDbEntity
  8
IMPORT_IGES
100
AcDbLine
 62
7
  6
CONTINUOUS
 10
14.4831181134
 20
-5.175155234
 11
14.8964889255
 21
-5.4137842298
  0
LWPOLYLINE
  5
509
100
AcDbEntity
  8
ASSI
100
AcDbPolyline
 62
250
  6
CONTINUOUS
 90
19
 70
0
 10
-4.3585324364
 20
3.2653851402
 10
-4.3431605864
 20
3.2559281219
 10
-4.3281172034
 20
3.2448156409
 10
-4.3135155113
 20
3.2321250705
 10
-4.2994815802
 20
3.2179371227
 10
-4.2861173705
 20
3.2023544801
 10
-4.2735001789
 20
3.1855000771
 10
-4.2617503148
 20
3.1674790551
 10
-4.250968799
 20
3.1484164971
 10
-4.241201283
 20
3.1284743682
 10
-4.2325556155
 20
3.1077621669
 10
-4.2251261035
 20
3.0864351408
 10
-4.2189273789
 20
3.0647314214
 10
-4.2140492571
 20
3.0427869718
 10
-4.21055679
 20
3.0207490901
 10
-4.2084067787
 20
2.998873673
 10
-4.2076134466
 20
2.9773360235
 10
-4.2082535484
 20
2.9562307585
 10
-4.2103583679
 20
2.9356859231
  0
LINE
  5
50A
100
AcDbEntity
  8
ASSI
100
AcDbLine
 62
250
  6
CONTINUOUS
 10
-4.2124526921
 20
3.5507463184
 11
-4.1808703775
 21
3.5308014093
  0
LWPOLYLINE
  5
50B
100
AcDbEntity
  8
ASSI
100
AcDbPolyline
 62
250
  6
CONTINUOUS
 90
9
 70
0
 10
-21.5707510197
 20
16.1235886768
 10
-21.5878489143
 20
16.1345239912
 10
-21.6029841364
 20
16.1464585814
 10
-21.6159721493
 20
16.1592779384
 10
-21.6266606586
 20
16.1728742887
 10
-21.6348870917
 20
16.187093035
 10
-21.6405149865
 20
16.2017274045
 10
-21.6434814281
 20
16.21659758
 10
-21.6439743244
 20
16.2256546754
  0
LWPOLYLINE
  5
50C
100
AcDbEntity
  8
ASSI
100
AcDbPolyline
 62
250
  6
CONTINUOUS
 90
6
 70
0
 10
-4.1808703775
 20
3.5308014093
 10
-4.1499998205
 20
3.5081505147
 10
-4.1198410211
 20
3.4827936344
 10
-4.0903939791
 20
3.4547307686
 10
-4.0616586947
 20
3.4239619173
 10
-4.0336351679
 20
3.3904870803
  0
LINE
  5
50D
100
AcDbEntity
  8
CURVE
100
AcDbLine
 62
250
  6
CONTINUOUS
 10
-0.3982386522
 20
1.9988969219
 11
-0.5549462375
 21
2.3211394955
  0
LINE
  5
50E
100
AcDbEntity
  8
ASSI
100
AcDbLine
 62
7
  6
CONTINUOUS
 10
4.1352635991
 20
14.9730331055
 11
4.1336897654
 21
15.0258861163
  0
LINE
  5
50F
100
AcDbEntity
  8
ASSI
100
AcDbLine
 62
250
  6
CONTINUOUS
 10
5.158535813
 20
13.6467814494
 11
5.158535813
 21
12.4112174701
  0
LINE
  5
510
100
AcDbEntity
  8
ASSI
100
AcDbLine
 62
250
  6
CONTINUOUS
 10
5.158535813
 20
-21.8314924552
 11
5.158535813
 21
-22.2226603886
  0
LINE
  5
511
100
AcDbEntity
  8
ASSI
100
AcDbLine
 62
7
  6
CONTINUOUS
 10
5.2229366466
 20
11.8686129472
 11
5.2229366466
 21
9.4705029261
  0
LINE
  5
512
100
AcDbEntity
  8
ASSI
100
AcDbLine
 62
7
  6
CONTINUOUS
 10
5.2229366466
 20
-22.2598446227
 11
5.2229366466
 21
-24.6579546438
  0
LINE
  5
513
100
AcDbEntity
  8
ASSI
100
AcDbLine
 62
7
  6
CONTINUOUS
 10
5.4391960127
 20
14.0429545416
 11
5.4391960127
 21
12.8172184518
  0
LINE
  5
514
100
AcDbEntity
  8
ASSI
100
AcDbLine
 62
7
  6
CONTINUOUS
 10
5.4391960127
 20
-21.435319363
 11
5.4391960127
 21
-22.6610554528
  0
LWPOLYLINE
  5
515
100
AcDbEntity
  8
ASSI
100
AcDbPolyline
 62
7
  6
CONTINUOUS
 90
9
 70
0
 10
4.1352112869
 20
14.9730334803
 10
4.1349349033
 20
14.9667212327
 10
4.132374368
 20
14.9519197874
 10
4.1270286584
 20
14.9373550107
 10
4.1190045164
 20
14.9230343799
 10
4.1086169108
 20
14.9094569143
 10
4.0959708313
 20
14.8967889536
 10
4.0809612883
 20
14.884864158
 10
4.0635882817
 20
14.8736825277
  0
LINE
  5
516
100
AcDbEntity
  8
CURVE
100
AcDbLine
 62
250
  6
CONTINUOUS
 10
-0.2822204863
 20
-11.1500462239
 11
-0.0869413409
 21
-10.8195498876
  0
LWPOLYLINE
  5
517
100
AcDbEntity
  8
IMPORT_IGES
100
AcDbPolyline
 62
7
  6
CONTINUOUS
 90
6
 70
0
 10
-11.9666909842
 20
-13.275606001
 10
-11.9780114736
 20
-13.2836001387
 10
-11.9865013066
 20
-13.2921343906
 10
-11.9921604832
 20
-13.3012087568
 10
-11.9949882913
 20
-13.3111838458
 10
-11.9959803061
 20
-13.3164338606
  0
LWPOLYLINE
  5
518
100
AcDbEntity
  8
IMPORT_IGES
100
AcDbPolyline
 62
250
  6
CONTINUOUS
 90
13
 70
0
 10
18.2617023188
 20
8.0858039383
 10
18.3704550145
 20
8.1617777494
 10
18.5185294548
 20
8.2799909697
 10
18.6525779688
 20
8.4027314161
 10
18.7728499387
 20
8.529526681
 10
18.8805774208
 20
8.6616811722
 10
18.9746937259
 20
8.7985675258
 10
19.0539800287
 20
8.9387824047
 10
19.1187408976
 20
9.0832636706
 10
19.1682731834
 20
9.2311854301
 10
19.2022605293
 20
9.3820427782
 10
19.2207402999
 20
9.5375050566
 10
19.2240403005
 20
9.6328153334
  0
LWPOLYLINE
  5
519
100
AcDbEntity
  8
IMPORT_IGES
100
AcDbPolyline
 62
250
  6
CONTINUOUS
 90
4
 70
0
 10
7.3646712041
 20
-1.4094669369
 10
7.197633817
 20
-1.5176742867
 10
7.0297433126
 20
-1.6145270348
 10
6.9898503339
 20
-1.6347194554
  0
LINE
  5
51A
100
AcDbEntity
  8
ASSI
100
AcDbLine
 62
250
  6
CONTINUOUS
 10
-9.5404834356
 20
-10.7700027345
 11
-9.4108937808
 21
-10.6898625481
  0
LINE
  5
51B
100
AcDbEntity
  8
0
100
AcDbLine
 62
7
  6
CONTINUOUS
 10
24.4230310302
 20
9.0345834189
 11
7.2275975757
 21
-1.4229541028
  0
LINE
  5
51C
100
AcDbEntity
  8
DRAFT
100
AcDbLine
 62
7
  6
CONTINUOUS
 10
24.4230310302
 20
10.6083011959
 11
19.733372772
 21
7.8043440891
  0
LINE
  5
51D
100
AcDbEntity
  8
ASSI
100
AcDbLine
 62
250
  6
CONTINUOUS
 10
-16.4620764857
 20
-13.2917870816
 11
-15.6880860716
 21
-12.8292951541
  0
LINE
  5
51E
100
AcDbEntity
  8
IMPORT_IGES
100
AcDbLine
 62
7
  6
CONTINUOUS
 10
-13.6859810511
 20
-12.1779188653
 11
-13.5651034993
 21
-12.1081256818
  0
LINE
  5
51F
100
AcDbEntity
  8
IMPORT_IGES
100
AcDbLine
 62
7
  6
CONTINUOUS
 10
14.7956890044
 20
2.9903477634
 11
19.0154558612
 21
5.4267882604
  0
LINE
  5
520
100
AcDbEntity
  8
IMPORT_IGES
100
AcDbLine
 62
7
  6
CONTINUOUS
 10
19.0568772175
 20
5.2874024861
 11
14.8956890044
 21
2.8847845637
  0
LINE
  5
521
100
AcDbEntity
  8
0
100
AcDbLine
 62
7
  6
CONTINUOUS
 10
22.6745719098
 20
7.2418938126
 11
6.8126761311
 21
-1.9165815973
  0
LINE
  5
522
100
AcDbEntity
  8
IMPORT_IGES
100
AcDbLine
 62
7
  6
CONTINUOUS
 10
-11.9182140982
 20
-13.1986053486
 11
-11.7973365464
 21
-13.1288121652
  0
LINE
  5
523
100
AcDbEntity
  8
DRAFT
100
AcDbLine
 62
7
  6
CONTINUOUS
 10
22.6399780814
 20
7.2618678555
 11
23.7006382532
 21
7.8635919033
  0
LWPOLYLINE
  5
524
100
AcDbEntity
  8
IMPORT_IGES
100
AcDbPolyline
 62
7
  6
CONTINUOUS
 90
9
 70
0
 10
6.8465657852
 20
-1.8487927521
 10
6.9444492718
 20
-1.7991861975
 10
7.1388880005
 20
-1.6861884148
 10
7.3310963684
 20
-1.5601787087
 10
7.5208524139
 20
-1.4215224982
 10
7.7072620537
 20
-1.2710640718
 10
7.8895908692
 20
-1.1096201355
 10
8.067421786
 20
-0.9377665755
 10
8.1251583124
 20
-0.8770955115
  0
LWPOLYLINE
  5
525
100
AcDbEntity
  8
IMPORT_IGES
100
AcDbPolyline
 62
7
  6
CONTINUOUS
 90
10
 70
0
 10
-14.3708540402
 20
-11.7650018421
 10
-14.3848610798
 20
-11.7714851863
 10
-14.3995933987
 20
-11.7763783696
 10
-14.4150509971
 20
-11.7796813919
 10
-14.4316320992
 20
-11.7814351535
 10
-14.4489384807
 20
-11.7815987541
 10
-14.4657754685
 20
-11.7800494934
 10
-14.4817448382
 20
-11.776746471
 10
-14.4972448142
 20
-11.7717305873
 10
-14.5122753965
 20
-11.7650018421
  0
LINE
  5
526
100
AcDbEntity
  8
CURVE
100
AcDbLine
 62
250
  6
CONTINUOUS
 10
-1.275368309
 20
2.9362876239
 11
0.498896014
 21
3.4027695549
  0
LWPOLYLINE
  5
527
100
AcDbEntity
  8
ASSI
100
AcDbPolyline
 62
250
  6
CONTINUOUS
 90
3
 70
0
 10
-21.3954643965
 20
13.0990921835
 10
-21.379909192
 20
13.0926643103
 10
-21.364349008
 20
13.0843304957
  0
LWPOLYLINE
  5
528
100
AcDbEntity
  8
ASSI
100
AcDbPolyline
 62
250
  6
CONTINUOUS
 90
9
 70
0
 10
-21.3955169725
 20
16.4288764165
 10
-21.413898058
 20
16.4380613869
 10
-21.432165841
 20
16.4450504208
 10
-21.4501218925
 20
16.4497332894
 10
-21.4675772693
 20
16.4520232052
 10
-21.4843197832
 20
16.4518533049
 10
-21.5001222607
 20
16.4491945641
 10
-21.514813325
 20
16.4440464442
 10
-21.5238772292
 20
16.4392579696
  0
LWPOLYLINE
  5
529
100
AcDbEntity
  8
ASSI
100
AcDbPolyline
 62
250
  6
CONTINUOUS
 90
16
 70
0
 10
-4.5670777172
 20
6.305880818
 10
-4.5482941587
 20
6.2960819763
 10
-4.5277783186
 20
6.2873874336
 10
-4.5057185812
 20
6.2799063431
 10
-4.4823095226
 20
6.2737339695
 10
-4.4577960275
 20
6.2689627871
 10
-4.4324769233
 20
6.2656715482
 10
-4.4065945355
 20
6.2639094938
 10
-4.3804510045
 20
6.2637146826
 10
-4.354455572
 20
6.2650940709
 10
-4.3289460345
 20
6.26801718
 10
-4.3041387579
 20
6.2724465003
 10
-4.2802555176
 20
6.2783391783
 10
-4.2575415874
 20
6.285637413
 10
-4.2362581259
 20
6.2942601496
 10
-4.2166364293
 20
6.30411502
  0
LINE
  5
52A
100
AcDbEntity
  8
IMPORT_IGES
100
AcDbLine
 62
7
  6
CONTINUOUS
 10
15.2204249044
 20
-5.1778222973
 11
14.839917786
 21
-4.9581647188
  0
LINE
  5
52B
100
AcDbEntity
  8
ASSI
100
AcDbLine
 62
250
  6
CONTINUOUS
 10
-4.5670777172
 20
6.305880818
 11
-21.5707510197
 21
16.1235886768
  0
LINE
  5
52C
100
AcDbEntity
  8
ASSI
100
AcDbLine
 62
250
  6
CONTINUOUS
 10
-4.39184367
 20
6.6111685577
 11
-21.3955169725
 21
16.4288764165
  0
LINE
  5
52D
100
AcDbEntity
  8
0
100
AcDbLine
 62
7
  6
CONTINUOUS
 10
19.6771003504
 20
-6.7358657954
 11
19.1396935112
 21
-6.4255738217
  0
LINE
  5
52E
100
AcDbEntity
  8
0
100
AcDbLine
 62
250
  6
CONTINUOUS
 10
7.2275975757
 20
1.4240044307
 11
6.7066146997
 21
1.7248134139
  0
LWPOLYLINE
  5
52F
100
AcDbEntity
  8
ASSI
100
AcDbPolyline
 62
250
  6
CONTINUOUS
 90
16
 70
0
 10
-4.39184367
 20
6.6111685577
 10
-4.3739402517
 20
6.5993840124
 10
-4.3561389798
 20
6.5855007121
 10
-4.3386342499
 20
6.5696434776
 10
-4.3215985336
 20
6.5519364669
 10
-4.3052503064
 20
6.5325734727
 10
-4.2898403262
 20
6.511836613
 10
-4.2755587667
 20
6.4899878225
 10
-4.2625389755
 20
6.4672375895
 10
-4.2509196447
 20
6.4438265964
 10
-4.2408278617
 20
6.4200055902
 10
-4.2323798178
 20
6.3960427091
 10
-4.2256727773
 20
6.3722111298
 10
-4.2207811756
 20
6.348776514
 10
-4.2177579557
 20
6.3259941128
 10
-4.2166364293
 20
6.30411502
  0
LWPOLYLINE
  5
530
100
AcDbEntity
  8
IMPORT_IGES
100
AcDbPolyline
 62
7
  6
CONTINUOUS
 90
4
 70
0
 10
6.6686334732
 20
21.3307868309
 10
6.6673361204
 20
21.3577120474
 10
6.6638523045
 20
21.3850343194
 10
6.6603783516
 20
21.4020168411
  0
LINE
  5
531
100
AcDbEntity
  8
IMPORT_IGES
100
AcDbLine
 62
7
  6
CONTINUOUS
 10
5.9968820311
 20
21.0189217294
 11
5.9968820311
 21
20.9607079253
  0
LINE
  5
532
100
AcDbEntity
  8
IMPORT_IGES
100
AcDbLine
 62
7
  6
CONTINUOUS
 10
6.1736587264
 20
21.0362314227
 11
6.1736587264
 21
21.0449946155
  0
LINE
  5
533
100
AcDbEntity
  8
IMPORT_IGES
100
AcDbLine
 62
7
  6
CONTINUOUS
 10
6.6686334732
 20
21.307188878
 11
6.6686334732
 21
21.3307868309
  0
LINE
  5
534
100
AcDbEntity
  8
IMPORT_IGES
100
AcDbLine
 62
7
  6
CONTINUOUS
 10
7.2208076109
 20
17.6326748745
 11
7.2208076109
 21
17.6428528155
  0
LWPOLYLINE
  5
535
100
AcDbEntity
  8
IMPORT_IGES
100
AcDbPolyline
 62
7
  6
CONTINUOUS
 90
4
 70
0
 10
7.8285190873
 20
-5.4123969919
 10
7.8304991548
 20
-5.3598192101
 10
7.8403711496
 20
-5.1942940715
 10
7.8456342674
 20
-5.1294416325
  0
LINE
  5
536
100
AcDbEntity
  8
CURVE
100
AcDbLine
 62
250
  6
CONTINUOUS
 10
0.3036168889
 20
-14.3322751575
 11
0.498896014
 21
-14.0017788326
  0
LWPOLYLINE
  5
537
100
AcDbEntity
  8
IMPORT_IGES
100
AcDbPolyline
 62
250
  6
CONTINUOUS
 90
8
 70
0
 10
16.6305856321
 20
12.4602494913
 10
16.5863222493
 20
12.3908567686
 10
16.5181021013
 20
12.2936723912
 10
16.4459197735
 20
12.1998957889
 10
16.3709374832
 20
12.1110844719
 10
16.293542636
 20
12.0277576102
 10
16.2133478262
 20
11.9493960338
 10
16.1303530539
 20
11.8759997427
  0
LWPOLYLINE
  5
538
100
AcDbEntity
  8
IMPORT_IGES
100
AcDbPolyline
 62
7
  6
CONTINUOUS
 90
5
 70
0
 10
9.762917058
 20
0.1189202958
 10
9.7173454266
 20
0.0512403797
 10
9.6090132454
 20
-0.1148542857
 10
9.5079347104
 20
-0.2754438968
 10
9.4286104732
 20
-0.4061713235
  0
LWPOLYLINE
  5
539
100
AcDbEntity
  8
IMPORT_IGES
100
AcDbPolyline
 62
250
  6
CONTINUOUS
 90
4
 70
0
 10
7.7763901473
 20
-1.0892016025
 10
7.6961930709
 20
-1.1587324968
 10
7.5308586961
 20
-1.2897770177
 10
7.3646712041
 20
-1.4094669369
  0
LINE
  5
53A
100
AcDbEntity
  8
ASSI
100
AcDbLine
 62
250
  6
CONTINUOUS
 10
-11.7244610517
 20
-16.0272268569
 11
-10.882610871
 21
-15.5241858558
  0
LINE
  5
53B
100
AcDbEntity
  8
0
100
AcDbLine
 62
7
  6
CONTINUOUS
 10
24.4230310302
 20
7.4464913675
 11
7.2275975757
 21
-2.6583469533
  0
LINE
  5
53C
100
AcDbEntity
  8
IMPORT_IGES
100
AcDbLine
 62
250
  6
CONTINUOUS
 10
-11.0318172405
 20
-14.9217194454
 11
-10.7515133557
 21
-14.7598754953
  0
LWPOLYLINE
  5
53D
100
AcDbEntity
  8
IMPORT_IGES
100
AcDbPolyline
 62
250
  6
CONTINUOUS
 90
7
 70
0
 10
15.635378307
 20
11.5902075274
 10
15.5523886997
 20
11.5677643906
 10
15.4721981823
 20
11.5535191187
 10
15.3948067548
 20
11.5474717118
 10
15.3198269744
 20
11.5496937773
 10
15.2476462838
 20
11.5601137077
 10
15.2458652359
 20
11.5605941669
  0
LINE
  5
53E
100
AcDbEntity
  8
IMPORT_IGES
100
AcDbLine
 62
7
  6
CONTINUOUS
 10
14.58355697
 20
2.6229243024
 11
14.6480852184
 21
2.6074931069
  0
LWPOLYLINE
  5
53F
100
AcDbEntity
  8
ASSI
100
AcDbPolyline
 62
250
  6
CONTINUOUS
 90
8
 70
0
 10
-5.3760077683
 20
11.1018471694
 10
-5.3994643403
 20
11.113191274
 10
-5.4224935134
 20
11.1208652596
 10
-5.44470134
 20
11.1247377485
 10
-5.4657079148
 20
11.1247423848
 10
-5.4851538389
 20
11.1208789732
 10
-5.5027063787
 20
11.1132135081
 10
-5.5043636192
 20
11.1122314018
  0
LINE
  5
540
100
AcDbEntity
  8
RACCORDO
100
AcDbLine
 62
7
  6
CONTINUOUS
 10
19.0753567447
 20
-3.0009542189
 11
18.5535674267
 21
-2.6996796063
  0
LINE
  5
541
100
AcDbEntity
  8
0
100
AcDbLine
 62
7
  6
CONTINUOUS
 10
22.6745719098
 20
-5.0051603393
 11
22.6399780814
 21
-4.9851862964
  0
LINE
  5
542
100
AcDbEntity
  8
ASSI
100
AcDbLine
 62
7
  6
CONTINUOUS
 10
-6.7380096893
 20
12.1271681637
 11
-11.904487167
 21
15.1102275081
  0
LINE
  5
543
100
AcDbEntity
  8
SMUSSO
100
AcDbLine
 62
7
  6
CONTINUOUS
 10
19.4289098345
 20
-2.7968167486
 11
18.8979444774
 21
-2.4902440059
  0
LINE
  5
544
100
AcDbEntity
  8
ASSI
100
AcDbLine
 62
7
  6
CONTINUOUS
 10
-6.3443064873
 20
12.4490440306
 11
-6.1746232519
 21
12.3510710571
  0
LINE
  5
545
100
AcDbEntity
  8
IMPORT_IGES
100
AcDbLine
 62
7
  6
CONTINUOUS
 10
16.3381888922
 20
-0.4990119374
 11
16.2758884806
 21
-0.463047413
  0
LINE
  5
546
100
AcDbEntity
  8
SMUSSO
100
AcDbLine
 62
7
  6
CONTINUOUS
 10
19.9465298714
 20
-2.4979489181
 11
19.4021303176
 21
-2.1836194387
  0
LINE
  5
547
100
AcDbEntity
  8
RACCORDO
100
AcDbLine
 62
7
  6
CONTINUOUS
 10
19.5865987387
 20
-2.0714335237
 11
20.1359135139
 21
-2.3886009904
  0
LINE
  5
548
100
AcDbEntity
  8
DRAFT
100
AcDbLine
 62
7
  6
CONTINUOUS
 10
24.4230310302
 20
-4.8005627843
 11
23.7006382532
 21
-4.3834622486
  0
LWPOLYLINE
  5
549
100
AcDbEntity
  8
RACCORDO
100
AcDbPolyline
 62
7
  6
CONTINUOUS
 90
25
 70
0
 10
-11.9610662988
 20
16.6716972636
 10
-11.9522751849
 20
16.6662996426
 10
-11.943583418
 20
16.6603478993
 10
-11.9349909981
 20
16.6538420339
 10
-11.9264659449
 20
16.6467530365
 10
-11.9180402388
 20
16.6391099168
 10
-11.9098098199
 20
16.6309997043
 10
-11.9017769204
 20
16.6224170601
 10
-11.8939393082
 20
16.613367323
 10
-11.8863862272
 20
16.6039535389
 10
-11.8791209296
 20
16.5941715469
 10
-11.8721401632
 20
16.5840255079
 10
-11.8655234154
 20
16.5736309511
 10
-11.8592748468
 20
16.5629850359
 10
-11.8533902969
 20
16.5520906029
 10
-11.8479367706
 20
16.5410717028
 10
-11.8429191947
 20
16.5299269131
 10
-11.8383326425
 20
16.5186576564
 10
-11.8342293393
 20
16.5073922514
 10
-11.8306148087
 20
16.4961307422
 10
-11.8274835272
 20
16.4848730847
 10
-11.8248711494
 20
16.4737474657
 10
-11.8227895604
 20
16.462796614
 10
-11.821226875
 20
16.4519778007
 10
-11.8201830935
 20
16.4412910259
  0
LWPOLYLINE
  5
54A
100
AcDbEntity
  8
ASSI
100
AcDbPolyline
 62
250
  6
CONTINUOUS
 90
13
 70
0
 10
-4.62627175
 20
10.672753084
 10
-4.6033878865
 20
10.6575749276
 10
-4.5808691417
 20
10.6391796501
 10
-4.5591007803
 20
10.6178819694
 10
-4.538455229
 20
10.5940462595
 10
-4.5192857047
 20
10.5680803164
 10
-4.5019201714
 20
10.5404283816
 10
-4.4866557296
 20
10.5115635417
 10
-4.4737535327
 20
10.4819796341
 10
-4.4634343195
 20
10.4521827988
 10
-4.4558746376
 20
10.4226828185
 10
-4.4512038226
 20
10.3939843971
 10
-4.4495017859
 20
10.3665785251
  0
LWPOLYLINE
  5
54B
100
AcDbEntity
  8
ASSI
100
AcDbPolyline
 62
250
  6
CONTINUOUS
 90
13
 70
0
 10
-16.7714079709
 20
19.311776841
 10
-16.7487291523
 20
19.2964827624
 10
-16.7264119092
 20
19.2779738574
 10
-16.704838022
 20
19.2565667572
 10
-16.6843765543
 20
19.2326276723
 10
-16.6653775398
 20
19.2065661277
 10
-16.6481659939
 20
19.1788279573
 10
-16.6330363539
 20
19.1498876771
 10
-16.620247442
 20
19.1202403672
 10
-16.6100180384
 20
19.0903932028
 10
-16.6025231374
 20
19.0608567782
 10
-16.5978909538
 20
19.0321363721
 10
-16.5962007302
 20
19.0047233033
  0
LWPOLYLINE
  5
54C
100
AcDbEntity
  8
ASSI
100
AcDbPolyline
 62
250
  6
CONTINUOUS
 90
13
 70
0
 10
-0.6493733599
 20
10.0031161131
 10
-0.6266945412
 20
9.9878220345
 10
-0.6043772981
 20
9.9693131295
 10
-0.5828034109
 20
9.9479060293
 10
-0.5623419432
 20
9.9239669444
 10
-0.5433429287
 20
9.8979053998
 10
-0.5261313829
 20
9.8701672294
 10
-0.5110017428
 20
9.8412269492
 10
-0.498212831
 20
9.8115796393
 10
-0.4879834274
 20
9.781732475
 10
-0.4804885264
 20
9.7521960504
 10
-0.4758563428
 20
9.7234756442
 10
-0.4741661192
 20
9.6960625755
  0
LWPOLYLINE
  5
54D
100
AcDbEntity
  8
ASSI
100
AcDbPolyline
 62
250
  6
CONTINUOUS
 90
5
 70
0
 10
4.0484169304
 20
14.9873157437
 10
4.0550679208
 20
14.9617587904
 10
4.0597865906
 20
14.9343153456
 10
4.0626267109
 20
14.9049565914
 10
4.0635882817
 20
14.8736825277
  0
LINE
  5
54E
100
AcDbEntity
  8
IMPORT_IGES
100
AcDbLine
 62
7
  6
CONTINUOUS
 10
3.692431728
 20
19.6779662627
 11
3.6905304044
 21
19.6872609396
  0
LWPOLYLINE
  5
54F
100
AcDbEntity
  8
ASSI
100
AcDbPolyline
 62
7
  6
CONTINUOUS
 90
11
 70
0
 10
4.1336897654
 20
15.0258861163
 10
4.1273588014
 20
15.0823720512
 10
4.1163340446
 20
15.1359834525
 10
4.1007500163
 20
15.1866274718
 10
4.0807026276
 20
15.2341725776
 10
4.0563429206
 20
15.2783336721
 10
4.0278868313
 20
15.3188294331
 10
3.9956091675
 20
15.3553456047
 10
3.9598677816
 20
15.3875466404
 10
3.9211040182
 20
15.4151538415
 10
3.9077974327
 20
15.4231810266
  0
LINE
  5
550
100
AcDbEntity
  8
IMPORT_IGES
100
AcDbLine
 62
7
  6
CONTINUOUS
 10
8.3939709221
 20
18.2748840935
 11
8.3939709221
 21
18.3202237608
  0
LINE
  5
551
100
AcDbEntity
  8
IMPORT_IGES
100
AcDbLine
 62
7
  6
CONTINUOUS
 10
8.9532192248
 20
-8.8453595073
 11
8.9532192248
 21
-8.5382065506
  0
LINE
  5
552
100
AcDbEntity
  8
IMPORT_IGES
100
AcDbLine
 62
7
  6
CONTINUOUS
 10
9.094640581
 20
-8.4522000452
 11
9.094640581
 21
-8.7637044497
  0
LINE
  5
553
100
AcDbEntity
  8
0
100
AcDbLine
 62
7
  6
CONTINUOUS
 10
9.7539594083
 20
23.1882148109
 11
9.7539594083
 21
23.0065399961
  0
LINE
  5
554
100
AcDbEntity
  8
0
100
AcDbLine
 62
250
  6
CONTINUOUS
 10
10.4894990685
 20
23.6129069148
 11
10.4894990685
 21
23.3987946128
  0
LWPOLYLINE
  5
555
100
AcDbEntity
  8
IMPORT_IGES
100
AcDbPolyline
 62
7
  6
CONTINUOUS
 90
4
 70
0
 10
8.0167082698
 20
-5.3037387316
 10
8.0171503004
 20
-5.2963278679
 10
8.0307314506
 20
-5.1289843072
 10
8.0429525853
 20
-5.0094409522
  0
LWPOLYLINE
  5
556
100
AcDbEntity
  8
IMPORT_IGES
100
AcDbPolyline
 62
7
  6
CONTINUOUS
 90
4
 70
0
 10
7.8394098085
 20
-5.133227086
 10
7.8321871672
 20
-5.2476016377
 10
7.825430795
 20
-5.4110713095
 10
7.8253691981
 20
-5.4142157015
  0
LWPOLYLINE
  5
557
100
AcDbEntity
  8
IMPORT_IGES
100
AcDbPolyline
 62
7
  6
CONTINUOUS
 90
4
 70
0
 10
8.1650132174
 20
-5.2181091678
 10
8.1737911932
 20
-5.1142216211
 10
8.1912996193
 20
-4.9493467589
 10
8.1954434705
 20
-4.9167024261
  0
LINE
  5
558
100
AcDbEntity
  8
IMPORT_IGES
100
AcDbLine
 62
250
  6
CONTINUOUS
 10
17.5242321914
 20
12.8991253574
 11
17.120412461
 21
12.1996890681
  0
LINE
  5
559
100
AcDbEntity
  8
IMPORT_IGES
100
AcDbLine
 62
250
  6
CONTINUOUS
 10
17.566355865
 20
12.639046599
 11
17.4088423206
 21
12.3662251375
  0
LINE
  5
55A
100
AcDbEntity
  8
CURVE
100
AcDbLine
 62
250
  6
CONTINUOUS
 10
-0.8680578004
 20
-17.8665469688
 11
-0.6727786957
 21
-17.5360506552
  0
LINE
  5
55B
100
AcDbEntity
  8
CURVE
100
AcDbLine
 62
250
  6
CONTINUOUS
 10
-0.8680578004
 20
-19.0854206119
 11
-0.6727786957
 21
-18.7549242984
  0
LINE
  5
55C
100
AcDbEntity
  8
CURVE
100
AcDbLine
 62
250
  6
CONTINUOUS
 10
-0.0869413409
 20
-18.9823082384
 11
-0.2822204863
 21
-19.3128049445
  0
LINE
  5
55D
100
AcDbEntity
  8
CURVE
100
AcDbLine
 62
250
  6
CONTINUOUS
 10
-0.8680578004
 20
-20.3042940701
 11
-0.6727786957
 21
-19.9737977566
  0
LINE
  5
55E
100
AcDbEntity
  8
CURVE
100
AcDbLine
 62
250
  6
CONTINUOUS
 10
-0.2822204863
 20
-21.1965184456
 11
-0.0869413409
 21
-20.8660220169
  0
LWPOLYLINE
  5
55F
100
AcDbEntity
  8
IMPORT_IGES
100
AcDbPolyline
 62
7
  6
CONTINUOUS
 90
5
 70
0
 10
9.4719177165
 20
-0.3811662215
 10
9.5234986997
 20
-0.2959558193
 10
9.6270509813
 20
-0.1306906708
 10
9.7333725512
 20
0.0332970396
 10
9.8100066845
 20
0.1475582209
  0
LWPOLYLINE
  5
560
100
AcDbEntity
  8
IMPORT_IGES
100
AcDbPolyline
 62
7
  6
CONTINUOUS
 90
5
 70
0
 10
9.8486276628
 20
-0.1636582497
 10
9.9107061097
 20
-0.0679272384
 10
10.0195110451
 20
0.0942741695
 10
10.1307077235
 20
0.254561854
 10
10.2427200353
 20
0.410716234
  0
LWPOLYLINE
  5
561
100
AcDbEntity
  8
IMPORT_IGES
100
AcDbPolyline
 62
7
  6
CONTINUOUS
 90
6
 70
0
 10
10.1201005079
 20
-0.0069129646
 10
10.1491363028
 20
0.0362019619
 10
10.261974006
 20
0.1985188026
 10
10.3714327715
 20
0.3507675865
 10
10.480662788
 20
0.4974421039
 10
10.5648667603
 20
0.6066322877
  0
LINE
  5
562
100
AcDbEntity
  8
IMPORT_IGES
100
AcDbLine
 62
250
  6
CONTINUOUS
 10
18.4757928573
 20
9.6177151562
 11
18.4605046844
 21
9.5958399395
  0
LWPOLYLINE
  5
563
100
AcDbEntity
  8
IMPORT_IGES
100
AcDbPolyline
 62
250
  6
CONTINUOUS
 90
12
 70
0
 10
18.3104816796
 20
9.3995400448
 10
18.2984045916
 20
9.3849491492
 10
18.1918840011
 20
9.2746848557
 10
18.0736923662
 20
9.1682190804
 10
17.9452260367
 20
9.0668880799
 10
17.8059715029
 20
8.9705450577
 10
17.6559971104
 20
8.8788102225
 10
17.4974588773
 20
8.7930890289
 10
17.3300183284
 20
8.7136345488
 10
17.1532625882
 20
8.6399335618
 10
16.9692038411
 20
8.5726967173
 10
16.9310623117
 20
8.5606353533
  0
LINE
  5
564
100
AcDbEntity
  8
CURVE
100
AcDbLine
 62
250
  6
CONTINUOUS
 10
0.3361634165
 20
-12.6520274521
 11
0.2710703715
 21
-12.7252572298
  0
LINE
  5
565
100
AcDbEntity
  8
CURVE
100
AcDbLine
 62
250
  6
CONTINUOUS
 10
0.368709934
 20
-12.7816226924
 11
0.433802974
 21
-12.7083929175
  0
LINE
  5
566
100
AcDbEntity
  8
IMPORT_IGES
100
AcDbLine
 62
7
  6
CONTINUOUS
 10
19.2209341656
 20
1.7358010587
 11
19.320745074
 21
1.7987766681
  0
LINE
  5
567
100
AcDbEntity
  8
0
100
AcDbLine
 62
7
  6
CONTINUOUS
 10
24.4230310302
 20
4.952232035
 11
7.2275975757
 21
-5.5053054867
  0
LINE
  5
568
100
AcDbEntity
  8
ASSI
100
AcDbLine
 62
7
  6
CONTINUOUS
 10
-10.9549426567
 20
-16.1012444718
 11
-10.9550972871
 21
-16.1013381777
  0
LINE
  5
569
100
AcDbEntity
  8
0
100
AcDbLine
 62
7
  6
CONTINUOUS
 10
24.4230310302
 20
3.3641399836
 11
7.2275975757
 21
-6.7406983372
  0
LINE
  5
56A
100
AcDbEntity
  8
0
100
AcDbLine
 62
7
  6
CONTINUOUS
 10
22.6745719098
 20
3.1595424286
 11
6.8126761311
 21
-5.9989329813
  0
LINE
  5
56B
100
AcDbEntity
  8
IMPORT_IGES
100
AcDbLine
 62
250
  6
CONTINUOUS
 10
-15.0014809485
 20
-19.2211516677
 11
-15.3540438323
 21
-19.4246764321
  0
LINE
  5
56C
100
AcDbEntity
  8
DRAFT
100
AcDbLine
 62
7
  6
CONTINUOUS
 10
22.6399780814
 20
3.1795164716
 11
23.7006382532
 21
3.7812405193
  0
LINE
  5
56D
100
AcDbEntity
  8
CURVE
100
AcDbLine
 62
250
  6
CONTINUOUS
 10
-0.0869413409
 20
-10.8195498876
 11
0.3036168889
 21
-10.6017837594
  0
LINE
  5
56E
100
AcDbEntity
  8
CURVE
100
AcDbLine
 62
250
  6
CONTINUOUS
 10
-0.8680578004
 20
-11.9199219094
 11
-0.2822204863
 21
-11.5932727342
  0
LINE
  5
56F
100
AcDbEntity
  8
CURVE
100
AcDbLine
 62
250
  6
CONTINUOUS
 10
0.498896014
 20
-11.6009669655
 11
-0.8680578004
 21
-12.3631484198
  0
LWPOLYLINE
  5
570
100
AcDbEntity
  8
ASSI
100
AcDbPolyline
 62
250
  6
CONTINUOUS
 90
13
 70
0
 10
-10.9550972871
 20
-16.1013381777
 10
-10.9989274108
 20
-16.1249500548
 10
-11.0498553942
 20
-16.1458154472
 10
-11.1043958529
 20
-16.1615103219
 10
-11.1628003094
 20
-16.1717502938
 10
-11.2246098027
 20
-16.1761089823
 10
-11.2895678352
 20
-16.174313424
 10
-11.3576627305
 20
-16.1660919463
 10
-11.4284584995
 20
-16.1512255015
 10
-11.5009546101
 20
-16.1297929237
 10
-11.574568176
 20
-16.1019538647
 10
-11.6491888175
 20
-16.0677266229
 10
-11.7244610511
 20
-16.0272268565
  0
LWPOLYLINE
  5
571
100
AcDbEntity
  8
ASSI
100
AcDbPolyline
 62
7
  6
CONTINUOUS
 90
7
 70
0
 10
-1.1137708511
 20
8.4714103693
 10
-1.0742596738
 20
8.4717616761
 10
-1.0336311486
 20
8.4709149109
 10
-0.9920700851
 20
8.4690476921
 10
-0.9497633057
 20
8.4664024002
 10
-0.9068601636
 20
8.46314001
 10
-0.8634874281
 20
8.459308421
  0
LWPOLYLINE
  5
572
100
AcDbEntity
  8
ASSI
100
AcDbPolyline
 62
7
  6
CONTINUOUS
 90
6
 70
0
 10
-0.6882050159
 20
8.4419266492
 10
-0.6445342515
 20
8.4378871456
 10
-0.6011090316
 20
8.4341815651
 10
-0.5580992285
 20
8.4310162523
 10
-0.5157286999
 20
8.4288025704
 10
-0.4741661192
 20
8.4278932685
  0
LWPOLYLINE
  5
573
100
AcDbEntity
  8
ASSI
100
AcDbPolyline
 62
7
  6
CONTINUOUS
 90
3
 70
0
 10
-0.8634874281
 20
8.459308421
 10
-0.7760115832
 20
8.4507759348
 10
-0.6882050159
 20
8.4419266492
  0
LWPOLYLINE
  5
574
100
AcDbEntity
  8
ASSI
100
AcDbPolyline
 62
7
  6
CONTINUOUS
 90
5
 70
0
 10
-6.0742577433
 20
12.3064935419
 10
-6.0870858996
 20
12.3107643834
 10
-6.1177471453
 20
12.3228380034
 10
-6.1469262628
 20
12.3362735613
 10
-6.1746232519
 20
12.3510710571
  0
LWPOLYLINE
  5
575
100
AcDbEntity
  8
ASSI
100
AcDbPolyline
 62
250
  6
CONTINUOUS
 90
8
 70
0
 10
-1.6594207929
 20
10.5863048421
 10
-1.6828769902
 20
10.5976487951
 10
-1.7059058853
 20
10.6053227683
 10
-1.7281135391
 20
10.6091953499
 10
-1.7491200511
 20
10.6092001447
 10
-1.7685660078
 20
10.6053369141
 10
-1.786118647
 20
10.5976716175
 10
-1.7877615283
 20
10.5966982637
  0
LWPOLYLINE
  5
576
100
AcDbEntity
  8
ASSI
100
AcDbPolyline
 62
250
  6
CONTINUOUS
 90
8
 70
0
 10
-17.781455404
 20
19.8949655699
 10
-17.8049116012
 20
19.906309523
 10
-17.8279404964
 20
19.9139834962
 10
-17.8501481502
 20
19.9178560778
 10
-17.8711546621
 20
19.9178608726
 10
-17.8906006188
 20
19.913997642
 10
-17.9081532581
 20
19.9063323454
 10
-17.9097961393
 20
19.9053589915
  0
LINE
  5
577
100
AcDbEntity
  8
0
100
AcDbLine
 62
250
  6
CONTINUOUS
 10
7.2275975757
 20
5.5063558147
 11
6.7066146997
 21
5.8071647978
  0
LINE
  5
578
100
AcDbEntity
  8
RACCORDO
100
AcDbLine
 62
7
  6
CONTINUOUS
 10
-4.9371863848
 20
12.6161970312
 11
-6.3985878451
 21
13.4599919187
  0
LINE
  5
579
100
AcDbEntity
  8
RACCORDO
100
AcDbLine
 62
7
  6
CONTINUOUS
 10
-11.9610662988
 20
16.6716972636
 11
-13.4224677591
 21
17.5154921511
  0
LINE
  5
57A
100
AcDbEntity
  8
0
100
AcDbLine
 62
250
  6
CONTINUOUS
 10
-4.9371863848
 20
12.8611381142
 11
-13.4224677591
 21
17.7604332342
  0
LINE
  5
57B
100
AcDbEntity
  8
IMPORT_IGES
100
AcDbLine
 62
7
  6
CONTINUOUS
 10
7.0046229487
 20
6.5474951326
 11
7.167897991
 21
6.4532221695
  0
LINE
  5
57C
100
AcDbEntity
  8
IMPORT_IGES
100
AcDbLine
 62
7
  6
CONTINUOUS
 10
14.58355697
 20
2.6229243024
 11
14.222789727
 21
2.831226787
  0
LINE
  5
57D
100
AcDbEntity
  8
0
100
AcDbLine
 62
250
  6
CONTINUOUS
 10
-4.442211638
 20
13.7184595233
 11
-12.9274930122
 21
18.6177546433
  0
LINE
  5
57E
100
AcDbEntity
  8
ASSI
100
AcDbLine
 62
7
  6
CONTINUOUS
 10
-16.3569609
 20
20.7612830585
 11
-15.2963007302
 21
20.1488711697
  0
LINE
  5
57F
100
AcDbEntity
  8
ASSI
100
AcDbLine
 62
7
  6
CONTINUOUS
 10
-0.2349262889
 20
11.4526223306
 11
0.8257338808
 21
10.8402104418
  0
LINE
  5
580
100
AcDbEntity
  8
IMPORT_IGES
100
AcDbLine
 62
7
  6
CONTINUOUS
 10
14.6360222198
 20
3.0825373637
 11
14.7956890044
 21
2.9903477634
  0
LINE
  5
581
100
AcDbEntity
  8
0
100
AcDbLine
 62
250
  6
CONTINUOUS
 10
-4.0786435054
 20
13.9283792065
 11
-12.5639248796
 21
18.8276743265
  0
LINE
  5
582
100
AcDbEntity
  8
0
100
AcDbLine
 62
250
  6
CONTINUOUS
 10
-3.9256878968
 20
13.9887212281
 11
-12.4109692711
 21
18.8880163481
  0
LINE
  5
583
100
AcDbEntity
  8
RACCORDO
100
AcDbLine
 62
7
  6
CONTINUOUS
 10
-4.9371863848
 20
14.7213267111
 11
-6.9877960503
 21
15.9053230318
  0
LINE
  5
584
100
AcDbEntity
  8
RACCORDO
100
AcDbLine
 62
7
  6
CONTINUOUS
 10
-8.9676950376
 20
17.0484918931
 11
-11.018304703
 21
18.2324882137
  0
LINE
  5
585
100
AcDbEntity
  8
0
100
AcDbLine
 62
7
  6
CONTINUOUS
 10
22.6745719098
 20
-0.9228089553
 11
22.6399780814
 21
-0.9028349124
  0
LINE
  5
586
100
AcDbEntity
  8
RACCORDO
100
AcDbLine
 62
7
  6
CONTINUOUS
 10
-6.2794732403
 20
15.8154135707
 11
-4.3864956549
 21
14.7224320375
  0
LWPOLYLINE
  5
587
100
AcDbEntity
  8
RACCORDO
100
AcDbPolyline
 62
7
  6
CONTINUOUS
 90
15
 70
0
 10
-11.018304703
 20
18.2324882137
 10
-11.0273209685
 20
18.2379265602
 10
-11.0356561565
 20
18.2434107878
 10
-11.0433102669
 20
18.2489408963
 10
-11.050310166
 20
18.2545408908
 10
-11.0566289876
 20
18.2601867664
 10
-11.0621861328
 20
18.2658065078
 10
-11.0669718448
 20
18.2713997804
 10
-11.0709958805
 20
18.2769669189
 10
-11.0742069119
 20
18.2824369124
 10
-11.0765945245
 20
18.2878085167
 10
-11.0781691329
 20
18.293082976
 10
-11.0789106523
 20
18.2981930129
 10
-11.078808411
 20
18.3031365211
 10
-11.0781917741
 20
18.3067368652
  0
LWPOLYLINE
  5
588
100
AcDbEntity
  8
RACCORDO
100
AcDbPolyline
 62
7
  6
CONTINUOUS
 90
15
 70
0
 10
-6.9877960503
 20
15.9053230318
 10
-6.9968123158
 20
15.9107613783
 10
-7.0051475037
 20
15.9162456058
 10
-7.0128016141
 20
15.9217757143
 10
-7.0198015132
 20
15.9273757089
 10
-7.0261203348
 20
15.9330215844
 10
-7.0316774801
 20
15.9386413259
 10
-7.0364631921
 20
15.9442345984
 10
-7.0404872277
 20
15.9498017369
 10
-7.0436982591
 20
15.9552717304
 10
-7.0460858718
 20
15.9606433347
 10
-7.0476604801
 20
15.965917794
 10
-7.0484019995
 20
15.9710278309
 10
-7.0482997582
 20
15.9759713391
 10
-7.0476831213
 20
15.9795716832
  0
LWPOLYLINE
  5
589
100
AcDbEntity
  8
IMPORT_IGES
100
AcDbPolyline
 62
250
  6
CONTINUOUS
 90
4
 70
0
 10
9.6661718138
 20
4.1424353018
 10
9.7076827408
 20
4.0308508826
 10
9.7541173999
 20
3.8701559267
 10
9.7552689824
 20
3.8647889106
  0
LINE
  5
58A
100
AcDbEntity
  8
IMPORT_IGES
100
AcDbLine
 62
7
  6
CONTINUOUS
 10
9.8396120456
 20
4.2051910699
 11
9.8285583558
 21
4.2411919491
  0
LWPOLYLINE
  5
58B
100
AcDbEntity
  8
IMPORT_IGES
100
AcDbPolyline
 62
7
  6
CONTINUOUS
 90
4
 70
0
 10
6.1654038829
 20
21.1162243001
 10
6.168879018
 20
21.0992345157
 10
6.1723619833
 20
21.0719157453
 10
6.1736587264
 20
21.0449946155
  0
LWPOLYLINE
  5
58C
100
AcDbEntity
  8
IMPORT_IGES
100
AcDbPolyline
 62
7
  6
CONTINUOUS
 90
12
 70
0
 10
9.8986652989
 20
3.9475842874
 10
9.8983792683
 20
3.9491665277
 10
9.8930252053
 20
3.9774592941
 10
9.8874876273
 20
4.0053717235
 10
9.8817506182
 20
4.0329199314
 10
9.8758648865
 20
4.0600396385
 10
9.8698200254
 20
4.086725383
 10
9.8636018588
 20
4.1129821313
 10
9.8572537439
 20
4.1387572357
 10
9.8507665107
 20
4.1640451764
 10
9.8441270833
 20
4.1888503244
 10
9.8396084498
 20
4.2051907833
  0
LWPOLYLINE
  5
58D
100
AcDbEntity
  8
IMPORT_IGES
100
AcDbPolyline
 62
250
  6
CONTINUOUS
 90
4
 70
0
 10
10.2031214358
 20
4.1233737443
 10
10.2021570481
 20
4.131819462
 10
10.1919704807
 20
4.3188098127
 10
10.1920250133
 20
4.4622370433
  0
LINE
  5
58E
100
AcDbEntity
  8
IMPORT_IGES
100
AcDbLine
 62
7
  6
CONTINUOUS
 10
13.0102443819
 20
1.6618227257
 11
13.0102443819
 21
2.0938078393
  0
LINE
  5
58F
100
AcDbEntity
  8
IMPORT_IGES
100
AcDbLine
 62
7
  6
CONTINUOUS
 10
11.1249258987
 20
-11.673792542
 11
11.1577315462
 21
-11.2798665016
  0
LWPOLYLINE
  5
590
100
AcDbEntity
  8
IMPORT_IGES
100
AcDbPolyline
 62
7
  6
CONTINUOUS
 90
8
 70
0
 10
17.6323247458
 20
12.4915168605
 10
17.6500844385
 20
12.5341425895
 10
17.6963303579
 20
12.6609702832
 10
17.7357926955
 20
12.7877207871
 10
17.768641843
 20
12.9144297806
 10
17.7942871455
 20
13.0388088691
 10
17.8125317182
 20
13.1600952543
 10
17.8143971204
 20
13.1801937189
  0
LINE
  5
591
100
AcDbEntity
  8
IMPORT_IGES
100
AcDbLine
 62
7
  6
CONTINUOUS
 10
9.9839490488
 20
-4.1678766284
 11
10.2854616342
 21
-3.6456415119
  0
LINE
  5
592
100
AcDbEntity
  8
IMPORT_IGES
100
AcDbLine
 62
7
  6
CONTINUOUS
 10
10.328024061
 20
-3.6197568387
 11
10.0253772743
 21
-4.1439564495
  0
LINE
  5
593
100
AcDbEntity
  8
IMPORT_IGES
100
AcDbLine
 62
7
  6
CONTINUOUS
 10
14.58355697
 20
2.6229243024
 11
14.7956890044
 21
2.9903477634
  0
LINE
  5
594
100
AcDbEntity
  8
IMPORT_IGES
100
AcDbLine
 62
7
  6
CONTINUOUS
 10
14.8956890044
 20
2.8847845637
 11
14.7793537917
 21
2.6832860648
  0
LINE
  5
595
100
AcDbEntity
  8
IMPORT_IGES
100
AcDbLine
 62
7
  6
CONTINUOUS
 10
13.1721571848
 20
-2.327042076
 11
13.5609549445
 21
-1.6536246031
  0
LINE
  5
596
100
AcDbEntity
  8
IMPORT_IGES
100
AcDbLine
 62
7
  6
CONTINUOUS
 10
13.4135855805
 20
-2.187644109
 11
13.8089930465
 21
-1.5027782889
  0
LINE
  5
597
100
AcDbEntity
  8
CURVE
100
AcDbLine
 62
250
  6
CONTINUOUS
 10
0.498896014
 20
-21.0934061418
 11
0.3036168889
 21
-21.4239025592
  0
LINE
  5
598
100
AcDbEntity
  8
CURVE
100
AcDbLine
 62
250
  6
CONTINUOUS
 10
0.3361634165
 20
-16.1609059649
 11
0.2710703715
 21
-16.2341357426
  0
LINE
  5
599
100
AcDbEntity
  8
CURVE
100
AcDbLine
 62
250
  6
CONTINUOUS
 10
0.368709934
 20
-16.2905008353
 11
0.433802974
 21
-16.2172710604
  0
LINE
  5
59A
100
AcDbEntity
  8
CURVE
100
AcDbLine
 62
250
  6
CONTINUOUS
 10
0.498896014
 20
-14.6666185981
 11
-0.8680578004
 21
-15.8720265627
  0
LINE
  5
59B
100
AcDbEntity
  8
0
100
AcDbLine
 62
7
  6
CONTINUOUS
 10
24.4230310302
 20
0.869880651
 11
7.2275975757
 21
-9.5876568707
  0
LINE
  5
59C
100
AcDbEntity
  8
0
100
AcDbLine
 62
7
  6
CONTINUOUS
 10
24.4230310302
 20
-0.7182114004
 11
7.2275975757
 21
-10.8230497212
  0
LINE
  5
59D
100
AcDbEntity
  8
0
100
AcDbLine
 62
7
  6
CONTINUOUS
 10
22.6745719098
 20
-0.9228089553
 11
6.8126761311
 21
-10.0812843653
  0
LINE
  5
59E
100
AcDbEntity
  8
IMPORT_IGES
100
AcDbLine
 62
250
  6
CONTINUOUS
 10
-14.0577454003
 20
-20.9857965146
 11
-14.2334208102
 21
-21.0872090253
  0
LINE
  5
59F
100
AcDbEntity
  8
IMPORT_IGES
100
AcDbLine
 62
7
  6
CONTINUOUS
 10
14.0325109971
 20
-5.8708777528
 11
14.3108636461
 21
-5.7113552308
  0
LINE
  5
5A0
100
AcDbEntity
  8
DRAFT
100
AcDbLine
 62
7
  6
CONTINUOUS
 10
22.6399780814
 20
-0.9028349124
 11
23.7006382532
 21
-0.3011108647
  0
LINE
  5
5A1
100
AcDbEntity
  8
CURVE
100
AcDbLine
 62
250
  6
CONTINUOUS
 10
0.368709934
 20
-12.6338802757
 11
0.3361634165
 21
-12.6520274521
  0
LINE
  5
5A2
100
AcDbEntity
  8
CURVE
100
AcDbLine
 62
250
  6
CONTINUOUS
 10
0.3361634165
 20
-12.7997698688
 11
0.368709934
 21
-12.7816226924
  0
LINE
  5
5A3
100
AcDbEntity
  8
CURVE
100
AcDbLine
 62
250
  6
CONTINUOUS
 10
-0.6727786957
 20
-14.8766904836
 11
0.3036168889
 21
-14.3322751575
  0
LWPOLYLINE
  5
5A4
100
AcDbEntity
  8
IMPORT_IGES
100
AcDbPolyline
 62
7
  6
CONTINUOUS
 90
5
 70
0
 10
15.2848703811
 20
11.4310813555
 10
15.3104997626
 20
11.4319582028
 10
15.4003942698
 20
11.4433495558
 10
15.4927623749
 20
11.4633607401
 10
15.5809928815
 20
11.4900043338
  0
LWPOLYLINE
  5
5A5
100
AcDbEntity
  8
RACCORDO
100
AcDbPolyline
 62
7
  6
CONTINUOUS
 90
25
 70
0
 10
-4.8559541657
 20
15.9930175367
 10
-4.8655668068
 20
15.9983352874
 10
-4.8756249108
 20
16.0034711161
 10
-4.8861284777
 20
16.0084250229
 10
-4.8971261613
 20
16.0132166071
 10
-4.9085693078
 20
16.0178262693
 10
-4.9203119559
 20
16.0221952117
 10
-4.9323579422
 20
16.0263203508
 10
-4.94470343
 20
16.0302047701
 10
-4.9571909485
 20
16.0337989224
 10
-4.9698223169
 20
16.0370990896
 10
-4.982595716
 20
16.0401089899
 10
-4.9953482164
 20
16.042790231
 10
-5.0080795506
 20
16.0451386028
 10
-5.0207899863
 20
16.0471583153
 10
-5.0333173973
 20
16.0488236065
 10
-5.0456594392
 20
16.0501299362
 10
-5.0578184566
 20
16.0510818446
 10
-5.0696393568
 20
16.0516671896
 10
-5.0811178087
 20
16.0518812758
 10
-5.0922581435
 20
16.0517287987
 10
-5.1029182624
 20
16.0512117031
 10
-5.113050799
 20
16.0503306375
 10
-5.1227031196
 20
16.0490849535
 10
-5.1318752243
 20
16.0474746511
  0
LWPOLYLINE
  5
5A6
100
AcDbEntity
  8
RACCORDO
100
AcDbPolyline
 62
7
  6
CONTINUOUS
 90
25
 70
0
 10
-8.8864628184
 20
18.3201827187
 10
-8.8960754595
 20
18.3255004694
 10
-8.9061335635
 20
18.3306362981
 10
-8.9166371304
 20
18.3355902049
 10
-8.927634814
 20
18.3403817891
 10
-8.9390779606
 20
18.3449914513
 10
-8.9508206087
 20
18.3493603937
 10
-8.9628665949
 20
18.3534855327
 10
-8.9752120828
 20
18.357369952
 10
-8.9876996013
 20
18.3609641044
 10
-9.0003309697
 20
18.3642642716
 10
-9.0131043687
 20
18.3672741719
 10
-9.0258568692
 20
18.369955413
 10
-9.0385882034
 20
18.3723037847
 10
-9.051298639
 20
18.3743234973
 10
-9.0638260501
 20
18.3759887885
 10
-9.076168092
 20
18.3772951182
 10
-9.0883271093
 20
18.3782470265
 10
-9.1001480096
 20
18.3788323716
 10
-9.1116264615
 20
18.3790464578
 10
-9.1227667963
 20
18.3788939806
 10
-9.1334269151
 20
18.3783768851
 10
-9.1435594517
 20
18.3774958195
 10
-9.1532117724
 20
18.3762501355
 10
-9.1623838771
 20
18.3746398331
  0
LINE
  5
5A7
100
AcDbEntity
  8
RACCORDO
100
AcDbLine
 62
7
  6
CONTINUOUS
 10
-5.7228885157
 20
15.9279631314
 11
-3.8299109303
 21
14.8349815982
  0
LINE
  5
5A8
100
AcDbEntity
  8
IMPORT_IGES
100
AcDbLine
 62
7
  6
CONTINUOUS
 10
19.3262944835
 20
1.529620247
 11
19.0538275029
 21
1.6869088608
  0
LINE
  5
5A9
100
AcDbEntity
  8
IMPORT_IGES
100
AcDbLine
 62
7
  6
CONTINUOUS
 10
19.176448314
 20
1.7614816674
 11
19.2209341656
 21
1.7358010587
  0
LINE
  5
5AA
100
AcDbEntity
  8
RACCORDO
100
AcDbLine
 62
7
  6
CONTINUOUS
 10
-8.8864628184
 20
18.3201827187
 11
-7.1349065893
 21
17.3088561042
  0
LINE
  5
5AB
100
AcDbEntity
  8
RACCORDO
100
AcDbLine
 62
7
  6
CONTINUOUS
 10
-4.8559541657
 20
15.9930175367
 11
-3.1043979365
 21
14.9816909222
  0
LINE
  5
5AC
100
AcDbEntity
  8
DRAFT
100
AcDbLine
 62
7
  6
CONTINUOUS
 10
24.4230310302
 20
-0.7182114004
 11
23.7006382532
 21
-0.3011108647
  0
LINE
  5
5AD
100
AcDbEntity
  8
RACCORDO
100
AcDbLine
 62
7
  6
CONTINUOUS
 10
-8.7990596135
 20
18.6812519846
 11
-6.7484499481
 21
17.497255664
  0
LINE
  5
5AE
100
AcDbEntity
  8
RACCORDO
100
AcDbLine
 62
7
  6
CONTINUOUS
 10
-4.7685509608
 20
16.3540868027
 11
-2.7179412953
 21
15.170090482
  0
LINE
  5
5AF
100
AcDbEntity
  8
ASSI
100
AcDbLine
 62
7
  6
CONTINUOUS
 10
-12.2688822915
 20
21.968169978
 11
-10.8959257854
 21
21.1754420986
  0
LINE
  5
5B0
100
AcDbEntity
  8
ASSI
100
AcDbLine
 62
7
  6
CONTINUOUS
 10
3.7568821332
 20
12.7150944492
 11
5.2229366466
 21
11.8686129472
  0
LINE
  5
5B1
100
AcDbEntity
  8
ASSI
100
AcDbLine
 62
7
  6
CONTINUOUS
 10
-10.7308828405
 20
21.2691007217
 11
-9.52758282
 21
20.5743303708
  0
LINE
  5
5B2
100
AcDbEntity
  8
ASSI
100
AcDbLine
 62
7
  6
CONTINUOUS
 10
2.2045921052
 20
13.8003196076
 11
3.8263585519
 21
12.8639319868
  0
LWPOLYLINE
  5
5B3
100
AcDbEntity
  8
RACCORDO
100
AcDbPolyline
 62
7
  6
CONTINUOUS
 90
15
 70
0
 10
-6.7484499481
 20
17.497255664
 10
-6.7394336826
 20
17.4918173175
 10
-6.7310984947
 20
17.48633309
 10
-6.7234443842
 20
17.4808029814
 10
-6.7164444851
 20
17.4752029869
 10
-6.7101256636
 20
17.4695571113
 10
-6.7045685183
 20
17.4639373699
 10
-6.6997828063
 20
17.4583440973
 10
-6.6957587706
 20
17.4527769588
 10
-6.6925477393
 20
17.4473069653
 10
-6.6901601266
 20
17.4419353611
 10
-6.6885855183
 20
17.4366609017
 10
-6.6878439989
 20
17.4315508648
 10
-6.6879462402
 20
17.4266073567
 10
-6.6885628771
 20
17.4230070125
  0
LWPOLYLINE
  5
5B4
100
AcDbEntity
  8
RACCORDO
100
AcDbPolyline
 62
7
  6
CONTINUOUS
 90
15
 70
0
 10
-2.7179412953
 20
15.170090482
 10
-2.7089250298
 20
15.1646521355
 10
-2.7005898419
 20
15.159167908
 10
-2.6929357315
 20
15.1536377995
 10
-2.6859358324
 20
15.1480378049
 10
-2.6796170108
 20
15.1423919293
 10
-2.6740598656
 20
15.1367721879
 10
-2.6692741536
 20
15.1311789153
 10
-2.6652501179
 20
15.1256117769
 10
-2.6620390865
 20
15.1201417833
 10
-2.6596514738
 20
15.1147701791
 10
-2.6580768655
 20
15.1094957197
 10
-2.6573353461
 20
15.1043856829
 10
-2.6574375874
 20
15.0994421747
 10
-2.6580542243
 20
15.0958418305
  0
LWPOLYLINE
  5
5B5
100
AcDbEntity
  8
RACCORDO
100
AcDbPolyline
 62
7
  6
CONTINUOUS
 90
15
 70
0
 10
-0.7299010368
 20
15.7650429285
 10
-0.7389173023
 20
15.770481275
 10
-0.7472524902
 20
15.7759655026
 10
-0.7549066006
 20
15.7814956111
 10
-0.7619064997
 20
15.7870956056
 10
-0.7682253213
 20
15.7927414812
 10
-0.7737824666
 20
15.7983612226
 10
-0.7785681786
 20
15.8039544952
 10
-0.7825922142
 20
15.8095216337
 10
-0.7858032456
 20
15.8149916272
 10
-0.7881908583
 20
15.8203632315
 10
-0.7897654666
 20
15.8256376908
 10
-0.790506986
 20
15.8307477277
 10
-0.7904047447
 20
15.8356912359
 10
-0.7897881078
 20
15.83929158
  0
LWPOLYLINE
  5
5B6
100
AcDbEntity
  8
ASSI
100
AcDbPolyline
 62
7
  6
CONTINUOUS
 90
16
 70
0
 10
-8.013100884
 20
20.3122401894
 10
-7.9942951093
 20
20.3001630679
 10
-7.9760840767
 20
20.2863181577
 10
-7.9584677863
 20
20.2707054588
 10
-7.9412676407
 20
20.2531166551
 10
-7.9246622373
 20
20.2337600626
 10
-7.9091873682
 20
20.2132606304
 10
-7.8948799848
 20
20.1915812287
 10
-7.8817031357
 20
20.1687589872
 10
-7.8700817588
 20
20.1455302439
 10
-7.8600665409
 20
20.1218818016
 10
-7.8516067951
 20
20.0978268575
 10
-7.8449753992
 20
20.074141341
 10
-7.8402633122
 20
20.0510838954
 10
-7.837379575
 20
20.0283958773
 10
-7.8363241877
 20
20.0060772869
  0
LINE
  5
5B7
100
AcDbEntity
  8
IMPORT_IGES
100
AcDbLine
 62
7
  6
CONTINUOUS
 10
14.7956890044
 20
2.9903477634
 11
14.8956890044
 21
2.8847845637
  0
LINE
  5
5B8
100
AcDbEntity
  8
RACCORDO
100
AcDbLine
 62
7
  6
CONTINUOUS
 10
5.7295318158
 20
11.5351544148
 11
5.2074363841
 21
12.439450228
  0
LINE
  5
5B9
100
AcDbEntity
  8
0
100
AcDbLine
 62
7
  6
CONTINUOUS
 10
13.7799301132
 20
25.2000316025
 11
13.7799301132
 21
25.512763794
  0
LINE
  5
5BA
100
AcDbEntity
  8
0
100
AcDbLine
 62
7
  6
CONTINUOUS
 10
13.8298201545
 20
25.5415697275
 11
13.8298201545
 21
25.5016255022
  0
LINE
  5
5BB
100
AcDbEntity
  8
IMPORT_IGES
100
AcDbLine
 62
7
  6
CONTINUOUS
 10
14.0254399293
 20
-5.5506689627
 11
14.0254399293
 21
-5.8667950069
  0
LINE
  5
5BC
100
AcDbEntity
  8
IMPORT_IGES
100
AcDbLine
 62
7
  6
CONTINUOUS
 10
14.0325109971
 20
-5.5506689627
 11
14.0325109971
 21
-5.8708777528
  0
LINE
  5
5BD
100
AcDbEntity
  8
IMPORT_IGES
100
AcDbLine
 62
7
  6
CONTINUOUS
 10
14.58355697
 20
2.5702352416
 11
14.58355697
 21
2.6229243024
  0
LINE
  5
5BE
100
AcDbEntity
  8
IMPORT_IGES
100
AcDbLine
 62
250
  6
CONTINUOUS
 10
14.6185898976
 20
17.7875154034
 11
14.6185898976
 21
17.7055612716
  0
LINE
  5
5BF
100
AcDbEntity
  8
IMPORT_IGES
100
AcDbLine
 62
250
  6
CONTINUOUS
 10
14.6185898976
 20
11.2366385284
 11
14.6185898976
 21
10.7551656173
  0
LINE
  5
5C0
100
AcDbEntity
  8
IMPORT_IGES
100
AcDbLine
 62
250
  6
CONTINUOUS
 10
14.8600112539
 20
11.3834608169
 11
14.8600112539
 21
10.8945595198
  0
LINE
  5
5C1
100
AcDbEntity
  8
DRAFT
100
AcDbLine
 62
7
  6
CONTINUOUS
 10
14.8812240852
 20
27.3499229506
 11
14.8812240852
 21
26.1193818298
  0
LINE
  5
5C2
100
AcDbEntity
  8
IMPORT_IGES
100
AcDbLine
 62
7
  6
CONTINUOUS
 10
15.485118116
 20
-9.1562679181
 11
15.485118116
 21
-8.6481324692
  0
LINE
  5
5C3
100
AcDbEntity
  8
IMPORT_IGES
100
AcDbLine
 62
7
  6
CONTINUOUS
 10
15.635378307
 20
11.8550063626
 11
15.635378307
 21
11.5902075274
  0
LWPOLYLINE
  5
5C4
100
AcDbEntity
  8
IMPORT_IGES
100
AcDbPolyline
 62
7
  6
CONTINUOUS
 90
8
 70
0
 10
15.635378307
 20
11.5902075274
 10
15.6340252907
 20
11.5685897544
 10
15.630432473
 20
11.5493289775
 10
15.6245998539
 20
11.5324251967
 10
15.6163484752
 20
11.5176572681
 10
15.6058572952
 20
11.5052463356
 10
15.5936631879
 20
11.495855831
 10
15.5809461681
 20
11.4900997701
  0
LWPOLYLINE
  5
5C5
100
AcDbEntity
  8
IMPORT_IGES
100
AcDbPolyline
 62
7
  6
CONTINUOUS
 90
5
 70
0
 10
15.7320909538
 20
7.3157368816
 10
15.7378778588
 20
7.3698377407
 10
15.7506697136
 20
7.5972069092
 10
15.7513019215
 20
7.8198483554
 10
15.7500839462
 20
7.8424141114
  0
LWPOLYLINE
  5
5C6
100
AcDbEntity
  8
IMPORT_IGES
100
AcDbPolyline
 62
250
  6
CONTINUOUS
 90
5
 70
0
 10
18.6612257351
 20
10.0407271867
 10
18.6506430624
 20
9.9972921223
 10
18.6048635546
 20
9.86666865
 10
18.5464713882
 20
9.7399731576
 10
18.4757928573
 20
9.6177151562
  0
LWPOLYLINE
  5
5C7
100
AcDbEntity
  8
IMPORT_IGES
100
AcDbPolyline
 62
7
  6
CONTINUOUS
 90
3
 70
0
 10
17.566355865
 20
12.639046599
 10
17.5354245615
 20
12.5228728867
 10
17.5006038789
 20
12.4192072014
  0
LINE
  5
5C8
100
AcDbEntity
  8
IMPORT_IGES
100
AcDbLine
 62
7
  6
CONTINUOUS
 10
19.2014948305
 20
5.5362274885
 11
19.1075965123
 21
5.3735908307
  0
LINE
  5
5C9
100
AcDbEntity
  8
IMPORT_IGES
100
AcDbLine
 62
7
  6
CONTINUOUS
 10
19.4369823261
 20
5.3725469827
 11
19.448982204
 21
5.3933313808
  0
LINE
  5
5CA
100
AcDbEntity
  8
IMPORT_IGES
100
AcDbLine
 62
7
  6
CONTINUOUS
 10
16.2758884806
 20
-0.463047413
 11
16.2135879629
 21
-0.5709550748
  0
LINE
  5
5CB
100
AcDbEntity
  8
IMPORT_IGES
100
AcDbLine
 62
7
  6
CONTINUOUS
 10
13.0533214167
 20
-6.0446972925
 11
12.6821384806
 21
-6.6876049962
  0
LINE
  5
5CC
100
AcDbEntity
  8
IMPORT_IGES
100
AcDbLine
 62
7
  6
CONTINUOUS
 10
13.3215755873
 20
-5.8815564179
 11
13.0889746975
 21
-6.2844329765
  0
LINE
  5
5CD
100
AcDbEntity
  8
IMPORT_IGES
100
AcDbLine
 62
7
  6
CONTINUOUS
 10
13.0960457653
 20
-6.2885157224
 11
13.3361056138
 21
-5.8727198685
  0
LINE
  5
5CE
100
AcDbEntity
  8
IMPORT_IGES
100
AcDbLine
 62
7
  6
CONTINUOUS
 10
13.7903752355
 20
-6.0489177923
 11
13.7873235157
 21
-6.054203526
  0
LINE
  5
5CF
100
AcDbEntity
  8
IMPORT_IGES
100
AcDbLine
 62
7
  6
CONTINUOUS
 10
15.2133538366
 20
-5.1737395514
 11
15.1639103448
 21
-5.2593781911
  0
LINE
  5
5D0
100
AcDbEntity
  8
IMPORT_IGES
100
AcDbLine
 62
7
  6
CONTINUOUS
 10
15.1780531759
 20
-5.2512122838
 11
15.2204249044
 21
-5.1778222973
  0
LINE
  5
5D1
100
AcDbEntity
  8
0
100
AcDbLine
 62
7
  6
CONTINUOUS
 10
24.4230310302
 20
-3.212470733
 11
7.2275975757
 21
-13.6700082547
  0
LINE
  5
5D2
100
AcDbEntity
  8
0
100
AcDbLine
 62
7
  6
CONTINUOUS
 10
22.6745719098
 20
-5.0051603393
 11
6.8126761311
 21
-14.1636357492
  0
LINE
  5
5D3
100
AcDbEntity
  8
DRAFT
100
AcDbLine
 62
7
  6
CONTINUOUS
 10
22.6399780814
 20
-4.9851862964
 11
23.7006382532
 21
-4.3834622486
  0
LINE
  5
5D4
100
AcDbEntity
  8
CURVE
100
AcDbLine
 62
250
  6
CONTINUOUS
 10
0.368709934
 20
-16.1427587885
 11
0.3361634165
 21
-16.1609059649
  0
LINE
  5
5D5
100
AcDbEntity
  8
CURVE
100
AcDbLine
 62
250
  6
CONTINUOUS
 10
0.3361634165
 20
-16.3086480117
 11
0.368709934
 21
-16.2905008353
  0
LINE
  5
5D6
100
AcDbEntity
  8
CURVE
100
AcDbLine
 62
250
  6
CONTINUOUS
 10
-0.6727786957
 20
-17.5360506552
 11
-0.477499591
 21
-17.4271675968
  0
LINE
  5
5D7
100
AcDbEntity
  8
0
100
AcDbLine
 62
7
  6
CONTINUOUS
 10
-4.0130911017
 20
13.6276519622
 11
-0.0507352897
 21
14.4288981807
  0
LINE
  5
5D8
100
AcDbEntity
  8
0
100
AcDbLine
 62
7
  6
CONTINUOUS
 10
-3.9256878968
 20
13.9887212281
 11
0.7196678647
 21
14.9280800122
  0
LINE
  5
5D9
100
AcDbEntity
  8
RACCORDO
100
AcDbLine
 62
7
  6
CONTINUOUS
 10
-2.7110196415
 20
15.0612377591
 11
-4.6612653262
 21
14.6668695967
  0
LINE
  5
5DA
100
AcDbEntity
  8
RACCORDO
100
AcDbLine
 62
7
  6
CONTINUOUS
 10
-0.6177164587
 20
15.8979806712
 11
-0.7368226906
 21
15.8738956515
  0
LWPOLYLINE
  5
5DB
100
AcDbEntity
  8
RACCORDO
100
AcDbPolyline
 62
7
  6
CONTINUOUS
 90
25
 70
0
 10
-4.6612653262
 20
14.6668695967
 10
-4.6704374309
 20
14.6652592943
 10
-4.6800897515
 20
14.6640136103
 10
-4.6902222882
 20
14.6631325447
 10
-4.700882407
 20
14.6626154492
 10
-4.7120227418
 20
14.662462972
 10
-4.7235011937
 20
14.6626770582
 10
-4.7353220939
 20
14.6632624033
 10
-4.7474811113
 20
14.6642143116
 10
-4.7598231532
 20
14.6655206414
 10
-4.7723505642
 20
14.6671859325
 10
-4.7850609999
 20
14.6692056451
 10
-4.7977923341
 20
14.6715540168
 10
-4.8105448345
 20
14.6742352579
 10
-4.8233182336
 20
14.6772451582
 10
-4.835949602
 20
14.6805453254
 10
-4.8484371205
 20
14.6841394778
 10
-4.8607826083
 20
14.6880238971
 10
-4.8728285946
 20
14.6921490361
 10
-4.8845712427
 20
14.6965179786
 10
-4.8960143892
 20
14.7011276408
 10
-4.9070120728
 20
14.7059192249
 10
-4.9175156397
 20
14.7108731317
 10
-4.9275737437
 20
14.7160089604
 10
-4.9371863848
 20
14.7213267111
  0
LWPOLYLINE
  5
5DC
100
AcDbEntity
  8
ASSI
100
AcDbPolyline
 62
250
  6
CONTINUOUS
 90
5
 70
0
 10
-21.4555091516
 20
13.1054492679
 10
-21.4410026286
 20
13.1067338298
 10
-21.4261102744
 20
13.1061292512
 10
-21.4109023019
 20
13.1035895178
 10
-21.3954643965
 20
13.0990921835
  0
LWPOLYLINE
  5
5DD
100
AcDbEntity
  8
IMPORT_IGES
100
AcDbPolyline
 62
7
  6
CONTINUOUS
 90
5
 70
0
 10
17.3659668152
 20
12.907477317
 10
17.3887808622
 20
12.9068297922
 10
17.4326912415
 20
12.9049346522
 10
17.4778416846
 20
12.9023665073
 10
17.5242321914
 20
12.8991253574
  0
LWPOLYLINE
  5
5DE
100
AcDbEntity
  8
IMPORT_IGES
100
AcDbPolyline
 62
7
  6
CONTINUOUS
 90
34
 70
0
 10
17.5242321914
 20
12.8991253574
 10
17.5287536181
 20
12.8985024466
 10
17.5331347216
 20
12.8973766054
 10
17.5373686485
 20
12.8957517909
 10
17.5414432739
 20
12.8936317149
 10
17.5453566936
 20
12.8910207656
 10
17.549118215
 20
12.8879234351
 10
17.5527247372
 20
12.8843509941
 10
17.5561668813
 20
12.8802993774
 10
17.5594461748
 20
12.8757491285
 10
17.5625645034
 20
12.8706983021
 10
17.5655086741
 20
12.8651553722
 10
17.5682578576
 20
12.8591163602
 10
17.5708075998
 20
12.8525609063
 10
17.57314931
 20
12.8455169022
 10
17.5752541311
 20
12.8380537982
 10
17.577104121
 20
12.8301905439
 10
17.5787016014
 20
12.821917208
 10
17.5800471906
 20
12.8132604505
 10
17.5811343977
 20
12.8042320014
 10
17.5819561523
 20
12.79482796
 10
17.582512671
 20
12.7850512708
 10
17.5828002018
 20
12.7749058784
 10
17.5828109293
 20
12.7643945161
 10
17.58253944
 20
12.7535180428
 10
17.5819828802
 20
12.7422834966
 10
17.581134328
 20
12.7306894827
 10
17.5799826789
 20
12.7187239726
 10
17.5785261306
 20
12.7063910885
 10
17.5767583734
 20
12.6936913911
 10
17.574661992
 20
12.6806072505
 10
17.5722291067
 20
12.6671339873
 10
17.5694613093
 20
12.6532799106
 10
17.566355865
 20
12.639046599
  0
LWPOLYLINE
  5
5DF
100
AcDbEntity
  8
0
100
AcDbPolyline
 62
7
  6
CONTINUOUS
 90
7
 70
0
 10
-4.4518545479
 20
19.1729320118
 10
-4.4594869457
 20
19.1771649512
 10
-4.4886011746
 20
19.1909020615
 10
-4.5191434648
 20
19.2015758864
 10
-4.5509970263
 20
19.209135477
 10
-4.5842786491
 20
19.2136317823
 10
-4.6189883333
 20
19.2150648023
  0
LWPOLYLINE
  5
5E0
100
AcDbEntity
  8
ASSI
100
AcDbPolyline
 62
7
  6
CONTINUOUS
 90
7
 70
0
 10
1.5601816968
 20
16.2346657314
 10
1.5445054622
 20
16.2435655888
 10
1.4731918165
 20
16.2802892204
 10
1.4026184494
 20
16.3105135092
 10
1.3333276621
 20
16.3341173744
 10
1.265360254
 20
16.3512706609
 10
1.199012027
 20
16.3620417471
  0
LINE
  5
5E1
100
AcDbEntity
  8
RACCORDO
100
AcDbLine
 62
7
  6
CONTINUOUS
 10
-7.7656135096
 20
19.8273751321
 11
-6.3160446081
 21
18.9904122158
  0
LINE
  5
5E2
100
AcDbEntity
  8
RACCORDO
100
AcDbLine
 62
7
  6
CONTINUOUS
 10
0.7196678647
 20
14.9280800122
 11
-0.7299010368
 21
15.7650429285
  0
LINE
  5
5E3
100
AcDbEntity
  8
ASSI
100
AcDbLine
 62
7
  6
CONTINUOUS
 10
-8.9323374456
 20
20.8429958593
 11
-6.28680783
 21
19.3155002155
  0
LINE
  5
5E4
100
AcDbEntity
  8
ASSI
100
AcDbLine
 62
7
  6
CONTINUOUS
 10
-0.6177164587
 20
16.0422379082
 11
2.0278131569
 21
14.5147422644
  0
LINE
  5
5E5
100
AcDbEntity
  8
ASSI
100
AcDbLine
 62
7
  6
CONTINUOUS
 10
-7.5466544763
 20
20.3746431494
 11
-6.0008104078
 21
19.4820921582
  0
LINE
  5
5E6
100
AcDbEntity
  8
ASSI
100
AcDbLine
 62
7
  6
CONTINUOUS
 10
-0.3241318927
 20
16.2044491291
 11
1.2217121758
 21
15.3118981379
  0
LINE
  5
5E7
100
AcDbEntity
  8
0
100
AcDbLine
 62
7
  6
CONTINUOUS
 10
22.6745719098
 20
3.1595424286
 11
22.6399780814
 21
3.1795164716
  0
LINE
  5
5E8
100
AcDbEntity
  8
IMPORT_IGES
100
AcDbLine
 62
7
  6
CONTINUOUS
 10
19.1732086916
 20
5.2202471329
 11
19.0568772175
 21
5.2874024861
  0
LINE
  5
5E9
100
AcDbEntity
  8
IMPORT_IGES
100
AcDbLine
 62
7
  6
CONTINUOUS
 10
19.0154558612
 20
5.4267882604
 11
19.2654558612
 21
5.2824692925
  0
LINE
  5
5EA
100
AcDbEntity
  8
IMPORT_IGES
100
AcDbLine
 62
7
  6
CONTINUOUS
 10
18.7462666785
 20
5.5822147208
 11
19.0154558612
 21
5.4267882604
  0
LINE
  5
5EB
100
AcDbEntity
  8
0
100
AcDbLine
 62
250
  6
CONTINUOUS
 10
0.3267371428
 20
16.300539098
 11
-4.7051738348
 21
19.2059014318
  0
LINE
  5
5EC
100
AcDbEntity
  8
SMUSSO
100
AcDbLine
 62
7
  6
CONTINUOUS
 10
19.1854577336
 20
5.5084522113
 11
18.8979444774
 21
5.674458762
  0
LINE
  5
5ED
100
AcDbEntity
  8
0
100
AcDbLine
 62
7
  6
CONTINUOUS
 10
-4.4518093016
 20
19.1729058925
 11
0.4830001987
 21
16.3236087347
  0
LINE
  5
5EE
100
AcDbEntity
  8
IMPORT_IGES
100
AcDbLine
 62
250
  6
CONTINUOUS
 10
19.4609820614
 20
5.3864041527
 11
19.448982204
 21
5.3933313808
  0
LINE
  5
5EF
100
AcDbEntity
  8
IMPORT_IGES
100
AcDbLine
 62
7
  6
CONTINUOUS
 10
18.9291831792
 20
5.6934568231
 11
19.2014948305
 21
5.5362274885
  0
LINE
  5
5F0
100
AcDbEntity
  8
IMPORT_IGES
100
AcDbLine
 62
7
  6
CONTINUOUS
 10
19.3764948926
 20
5.8393363437
 11
19.8110056826
 21
5.5885037486
  0
LINE
  5
5F1
100
AcDbEntity
  8
IMPORT_IGES
100
AcDbLine
 62
7
  6
CONTINUOUS
 10
19.3764948926
 20
5.8393363437
 11
19.2700825933
 21
5.9007774716
  0
LINE
  5
5F2
100
AcDbEntity
  8
ASSI
100
AcDbLine
 62
250
  6
CONTINUOUS
 10
-6.159426639
 20
20.61071201
 11
-4.7002100126
 21
19.7681786182
  0
LINE
  5
5F3
100
AcDbEntity
  8
ASSI
100
AcDbLine
 62
250
  6
CONTINUOUS
 10
1.199012027
 20
16.3620417471
 11
2.1434732515
 21
15.816721673
  0
LINE
  5
5F4
100
AcDbEntity
  8
ASSI
100
AcDbLine
 62
7
  6
CONTINUOUS
 10
-5.9691719945
 20
20.582020193
 11
-4.6740856708
 21
19.8342535809
  0
LINE
  5
5F5
100
AcDbEntity
  8
ASSI
100
AcDbLine
 62
7
  6
CONTINUOUS
 10
1.5601567815
 20
16.2346801224
 11
2.2156105649
 21
15.8562293226
  0
LINE
  5
5F6
100
AcDbEntity
  8
SMUSSO
100
AcDbLine
 62
7
  6
CONTINUOUS
 10
19.9465298714
 20
5.6667538498
 11
19.4021303176
 21
5.9810833293
  0
LINE
  5
5F7
100
AcDbEntity
  8
RACCORDO
100
AcDbLine
 62
7
  6
CONTINUOUS
 10
19.5865987387
 20
6.0932692442
 11
20.1359135139
 21
5.7761017776
  0
LINE
  5
5F8
100
AcDbEntity
  8
ASSI
100
AcDbLine
 62
7
  6
CONTINUOUS
 10
-7.9496077516
 20
22.0105568226
 11
-7.4739662586
 21
21.7359206108
  0
LINE
  5
5F9
100
AcDbEntity
  8
ASSI
100
AcDbLine
 62
7
  6
CONTINUOUS
 10
4.1327416058
 20
15.0343457567
 11
5.1463027939
 21
14.4491422039
  0
LINE
  5
5FA
100
AcDbEntity
  8
ASSI
100
AcDbLine
 62
250
  6
CONTINUOUS
 10
3.5394219985
 20
15.3875173751
 11
2.4783877448
 21
16.0001452553
  0
LINE
  5
5FB
100
AcDbEntity
  8
ASSI
100
AcDbLine
 62
250
  6
CONTINUOUS
 10
-6.3330969857
 20
21.0877861049
 11
-7.3941312394
 21
21.7004139851
  0
LINE
  5
5FC
100
AcDbEntity
  8
DRAFT
100
AcDbLine
 62
7
  6
CONTINUOUS
 10
24.4230310302
 20
3.3641399836
 11
23.7006382532
 21
3.7812405193
  0
LINE
  5
5FD
100
AcDbEntity
  8
ASSI
100
AcDbLine
 62
7
  6
CONTINUOUS
 10
-5.9691719945
 20
21.1260261042
 11
-7.0215862897
 21
21.7336769284
  0
LINE
  5
5FE
100
AcDbEntity
  8
ASSI
100
AcDbLine
 62
7
  6
CONTINUOUS
 10
2.8552431052
 20
16.0309194215
 11
3.9078107346
 21
15.4231799908
  0
LWPOLYLINE
  5
5FF
100
AcDbEntity
  8
ASSI
100
AcDbPolyline
 62
7
  6
CONTINUOUS
 90
13
 70
0
 10
2.0283228945
 20
14.5150365703
 10
2.0515846092
 20
14.5000759062
 10
2.0744220555
 20
14.481863415
 10
2.0964444659
 20
14.4607107275
 10
2.1172750185
 20
14.4369797837
 10
2.1365572855
 20
14.4110766397
 10
2.1539613312
 20
14.3834445197
 10
2.1691893579
 20
14.3545562324
 10
2.1819808014
 20
14.3249060802
 10
2.1921167897
 20
14.2950014019
 10
2.1994238874
 20
14.2653538913
 10
2.2037770642
 20
14.2364708419
 10
2.2051018335
 20
14.2088464666
  0
LWPOLYLINE
  5
600
100
AcDbEntity
  8
ASSI
100
AcDbPolyline
 62
250
  6
CONTINUOUS
 90
13
 70
0
 10
3.5394219985
 20
15.3875173751
 10
3.5626827418
 20
15.3725560295
 10
3.5855190258
 20
15.3543432794
 10
3.6075401424
 20
15.333190769
 10
3.6283693522
 20
15.3094604165
 10
3.6476502845
 20
15.2835582689
 10
3.6650530463
 20
15.2559275681
 10
3.6802799281
 20
15.2270410779
 10
3.6930704653
 20
15.197393016
 10
3.7032058664
 20
15.1674906584
 10
3.7105127891
 20
15.1378455913
 10
3.7148662928
 20
15.1089649575
 10
3.7161919627
 20
15.0813428162
  0
LWPOLYLINE
  5
601
100
AcDbEntity
  8
IMPORT_IGES
100
AcDbPolyline
 62
7
  6
CONTINUOUS
 90
16
 70
0
 10
19.3764948926
 20
5.8393363437
 10
19.4018728779
 20
5.8222117003
 10
19.4245727468
 20
5.8024677431
 10
19.444594499
 20
5.780104472
 10
19.4620829651
 20
5.7548248525
 10
19.4768933145
 20
5.7269259191
 10
19.4885910564
 20
5.697298776
 10
19.4970872125
 20
5.665896107
 10
19.5024707611
 20
5.6327652282
 10
19.5045741455
 20
5.598939192
 10
19.5033042431
 20
5.5643964006
 10
19.4987541766
 20
5.5291584519
 10
19.4910357582
 20
5.4943231909
 10
19.4801862587
 20
5.4602565664
 10
19.4661684072
 20
5.4265926297
 10
19.448982204
 20
5.3933313808
  0
LINE
  5
602
100
AcDbEntity
  8
IMPORT_IGES
100
AcDbLine
 62
7
  6
CONTINUOUS
 10
19.2209341656
 20
1.7358010587
 11
19.1903701591
 21
1.7699483465
  0
LINE
  5
603
100
AcDbEntity
  8
IMPORT_IGES
100
AcDbLine
 62
7
  6
CONTINUOUS
 10
19.320745074
 20
1.7987766681
 11
19.291499503
 21
1.831450949
  0
LWPOLYLINE
  5
604
100
AcDbEntity
  8
IMPORT_IGES
100
AcDbPolyline
 62
250
  6
CONTINUOUS
 90
5
 70
0
 10
15.6277667492
 20
7.7680259501
 10
15.6340639182
 20
7.6524315807
 10
15.6339901955
 20
7.4585320037
 10
15.6236957946
 20
7.2598829442
 10
15.6229710643
 20
7.2527323178
  0
LINE
  5
605
100
AcDbEntity
  8
IMPORT_IGES
100
AcDbLine
 62
7
  6
CONTINUOUS
 10
16.1303530539
 20
11.8759997427
 11
16.1303530539
 21
12.1560291313
  0
LINE
  5
606
100
AcDbEntity
  8
0
100
AcDbLine
 62
7
  6
CONTINUOUS
 10
17.3653540604
 20
23.5001967609
 11
17.3653540604
 21
23.4602525356
  0
LINE
  5
607
100
AcDbEntity
  8
IMPORT_IGES
100
AcDbLine
 62
250
  6
CONTINUOUS
 10
18.1596923754
 20
19.7110614524
 11
18.1596923754
 21
19.6440199965
  0
LINE
  5
608
100
AcDbEntity
  8
IMPORT_IGES
100
AcDbLine
 62
250
  6
CONTINUOUS
 10
18.1596923754
 20
13.3901877325
 11
18.1596923754
 21
12.1864158855
  0
LINE
  5
609
100
AcDbEntity
  8
IMPORT_IGES
100
AcDbLine
 62
7
  6
CONTINUOUS
 10
18.2182710191
 20
12.1525933107
 11
18.2182710191
 21
13.4258127934
  0
LINE
  5
60A
100
AcDbEntity
  8
IMPORT_IGES
100
AcDbLine
 62
7
  6
CONTINUOUS
 10
18.2182710191
 20
19.6760869259
 11
18.2182710191
 21
19.7927163711
  0
LWPOLYLINE
  5
60B
100
AcDbEntity
  8
IMPORT_IGES
100
AcDbPolyline
 62
7
  6
CONTINUOUS
 90
8
 70
0
 10
18.2182709701
 20
19.7927972311
 10
18.2179936372
 20
19.7866728456
 10
18.2152446396
 20
19.7728540252
 10
18.2095894896
 20
19.7591231439
 10
18.2011904608
 20
19.7460240601
 10
18.1901016444
 20
19.73373806
 10
18.1762689493
 20
19.7220838575
 10
18.1596923754
 20
19.7110614524
  0
LINE
  5
60C
100
AcDbEntity
  8
IMPORT_IGES
100
AcDbLine
 62
7
  6
CONTINUOUS
 10
19.2186842924
 20
8.362496052
 11
19.2187979563
 21
8.3634668746
  0
LINE
  5
60D
100
AcDbEntity
  8
IMPORT_IGES
100
AcDbLine
 62
7
  6
CONTINUOUS
 10
11.7510881638
 20
-11.3122536826
 11
12.1009806037
 21
-10.7062222002
  0
LINE
  5
60E
100
AcDbEntity
  8
IMPORT_IGES
100
AcDbLine
 62
7
  6
CONTINUOUS
 10
19.320745074
 20
1.7987766681
 11
19.365642769
 21
1.8765417569
  0
LINE
  5
60F
100
AcDbEntity
  8
IMPORT_IGES
100
AcDbLine
 62
7
  6
CONTINUOUS
 10
19.613680871
 20
2.0273880711
 11
19.3262944835
 21
1.529620247
  0
LINE
  5
610
100
AcDbEntity
  8
IMPORT_IGES
100
AcDbLine
 62
7
  6
CONTINUOUS
 10
12.3490187057
 20
-10.555375886
 11
11.9925165595
 21
-11.1728557156
  0
LINE
  5
611
100
AcDbEntity
  8
IMPORT_IGES
100
AcDbLine
 62
7
  6
CONTINUOUS
 10
17.9780555583
 20
-3.6345232496
 11
18.4984268096
 21
-2.7332138044
  0
LINE
  5
612
100
AcDbEntity
  8
0
100
AcDbLine
 62
7
  6
CONTINUOUS
 10
24.4230310302
 20
-4.8005627843
 11
7.2275975757
 21
-14.9054011051
  0
LINE
  5
613
100
AcDbEntity
  8
CURVE
100
AcDbLine
 62
250
  6
CONTINUOUS
 10
-0.6727786957
 20
-18.7549242984
 11
-0.2822204863
 21
-18.5371581816
  0
LINE
  5
614
100
AcDbEntity
  8
CURVE
100
AcDbLine
 62
250
  6
CONTINUOUS
 10
-0.2822204863
 20
-19.3128049445
 11
-0.6727786957
 21
-19.5305710613
  0
LINE
  5
615
100
AcDbEntity
  8
CURVE
100
AcDbLine
 62
250
  6
CONTINUOUS
 10
-0.6727786957
 20
-19.9737977566
 11
-0.477499591
 21
-19.8649146982
  0
LINE
  5
616
100
AcDbEntity
  8
CURVE
100
AcDbLine
 62
250
  6
CONTINUOUS
 10
-0.0869413409
 20
-20.8660220169
 11
0.3036168889
 21
-20.6482558887
  0
LINE
  5
617
100
AcDbEntity
  8
RACCORDO
100
AcDbLine
 62
7
  6
CONTINUOUS
 10
-6.688742614
 20
15.7326533256
 11
-5.1318752243
 21
16.0474746511
  0
LINE
  5
618
100
AcDbEntity
  8
RACCORDO
100
AcDbLine
 62
7
  6
CONTINUOUS
 10
-6.9947177041
 20
16.0141757547
 11
-5.0444720194
 21
16.408543917
  0
LINE
  5
619
100
AcDbEntity
  8
RACCORDO
100
AcDbLine
 62
7
  6
CONTINUOUS
 10
-6.7415282943
 20
17.388402941
 11
-8.691773979
 21
16.9940347787
  0
LWPOLYLINE
  5
61A
100
AcDbEntity
  8
RACCORDO
100
AcDbPolyline
 62
7
  6
CONTINUOUS
 90
25
 70
0
 10
-5.0444720194
 20
16.408543917
 10
-5.0352999147
 20
16.4101542194
 10
-5.0256475941
 20
16.4113999035
 10
-5.0155150575
 20
16.4122809691
 10
-5.0048549386
 20
16.4127980646
 10
-4.9937146038
 20
16.4129505417
 10
-4.9822361519
 20
16.4127364556
 10
-4.9704152517
 20
16.4121511105
 10
-4.9582562343
 20
16.4111992021
 10
-4.9459141924
 20
16.4098928724
 10
-4.9333867814
 20
16.4082275812
 10
-4.9206763457
 20
16.4062078687
 10
-4.9079450115
 20
16.4038594969
 10
-4.8951925111
 20
16.4011782559
 10
-4.8824191121
 20
16.3981683556
 10
-4.8697877436
 20
16.3948681884
 10
-4.8573002252
 20
16.391274036
 10
-4.8449547373
 20
16.3873896167
 10
-4.832908751
 20
16.3832644776
 10
-4.8211661029
 20
16.3788955352
 10
-4.8097229564
 20
16.374285873
 10
-4.7987252728
 20
16.3694942889
 10
-4.7882217059
 20
16.3645403821
 10
-4.7781636019
 20
16.3594045533
 10
-4.7685509608
 20
16.3540868027
  0
LWPOLYLINE
  5
61B
100
AcDbEntity
  8
RACCORDO
100
AcDbPolyline
 62
7
  6
CONTINUOUS
 90
25
 70
0
 10
-8.691773979
 20
16.9940347787
 10
-8.7009460837
 20
16.9924244763
 10
-8.7105984043
 20
16.9911787923
 10
-8.7207309409
 20
16.9902977267
 10
-8.7313910598
 20
16.9897806311
 10
-8.7425313946
 20
16.989628154
 10
-8.7540098465
 20
16.9898422402
 10
-8.7658307467
 20
16.9904275852
 10
-8.777989764
 20
16.9913794936
 10
-8.790331806
 20
16.9926858233
 10
-8.802859217
 20
16.9943511145
 10
-8.8155696526
 20
16.996370827
 10
-8.8283009868
 20
16.9987191988
 10
-8.8410534873
 20
17.0014004399
 10
-8.8538268863
 20
17.0044103402
 10
-8.8664582548
 20
17.0077105074
 10
-8.8789457732
 20
17.0113046598
 10
-8.8912912611
 20
17.015189079
 10
-8.9033372474
 20
17.0193142181
 10
-8.9150798955
 20
17.0236831605
 10
-8.926523042
 20
17.0282928227
 10
-8.9375207256
 20
17.0330844069
 10
-8.9480242925
 20
17.0380383137
 10
-8.9580823965
 20
17.0431741424
 10
-8.9676950376
 20
17.0484918931
  0
LINE
  5
61C
100
AcDbEntity
  8
ASSI
100
AcDbLine
 62
7
  6
CONTINUOUS
 10
-0.3241318927
 20
16.2044491291
 11
0.7527507478
 21
16.3634329089
  0
LWPOLYLINE
  5
61D
100
AcDbEntity
  8
IMPORT_IGES
100
AcDbPolyline
 62
7
  6
CONTINUOUS
 90
7
 70
0
 10
14.7415977515
 20
17.7728978283
 10
14.7231862459
 20
17.7720914297
 10
14.7013732645
 20
17.7724842314
 10
14.6799388462
 20
17.7742220163
 10
14.6591106336
 20
17.7773081622
 10
14.638660984
 20
17.7817392912
 10
14.6185898976
 20
17.7875154034
  0
LWPOLYLINE
  5
61E
100
AcDbEntity
  8
ASSI
100
AcDbPolyline
 62
250
  6
CONTINUOUS
 90
3
 70
0
 10
-7.062883477
 20
21.7528192822
 10
-7.0332167786
 20
21.739992624
 10
-7.0215863408
 20
21.7336769578
  0
LWPOLYLINE
  5
61F
100
AcDbEntity
  8
IMPORT_IGES
100
AcDbPolyline
 62
7
  6
CONTINUOUS
 90
8
 70
0
 10
15.9889316976
 20
11.7907723345
 10
16.0076590042
 20
11.7814910066
 10
16.0255432003
 20
11.7753143588
 10
16.042584286
 20
11.7722423911
 10
16.0590647555
 20
11.7723108341
 10
16.0747021144
 20
11.7754839572
 10
16.0886488797
 20
11.7816545687
 10
16.096851973
 20
11.7874647889
  0
LWPOLYLINE
  5
620
100
AcDbEntity
  8
ASSI
100
AcDbPolyline
 62
7
  6
CONTINUOUS
 90
13
 70
0
 10
-7.0215808107
 20
21.7336675883
 10
-7.0518513627
 20
21.7495434985
 10
-7.0881016001
 20
21.764687614
 10
-7.1264443061
 20
21.776637951
 10
-7.1667363187
 20
21.785152084
 10
-7.2086585956
 20
21.7899788111
 10
-7.2517528363
 20
21.7909272257
 10
-7.2957978007
 20
21.7878832747
 10
-7.3405630119
 20
21.7807715493
 10
-7.3856678131
 20
21.7695870893
 10
-7.4309218237
 20
21.7543231681
 10
-7.4762421078
 20
21.7349476291
 10
-7.5173704746
 20
21.7137741522
  0
LINE
  5
621
100
AcDbEntity
  8
IMPORT_IGES
100
AcDbLine
 62
7
  6
CONTINUOUS
 10
13.4982296736
 20
10.555282684
 11
13.8853178636
 21
10.3317828145
  0
LINE
  5
622
100
AcDbEntity
  8
0
100
AcDbLine
 62
7
  6
CONTINUOUS
 10
17.6637496621
 20
8.4310543082
 11
18.4141829809
 21
7.9977635151
  0
LINE
  5
623
100
AcDbEntity
  8
0
100
AcDbLine
 62
250
  6
CONTINUOUS
 10
19.733372772
 20
7.8043440891
 11
18.9946581524
 21
8.2308686522
  0
LINE
  5
624
100
AcDbEntity
  8
IMPORT_IGES
100
AcDbLine
 62
250
  6
CONTINUOUS
 10
15.4268025241
 20
11.2218182525
 11
15.3727702877
 21
11.2530097589
  0
LINE
  5
625
100
AcDbEntity
  8
IMPORT_IGES
100
AcDbLine
 62
7
  6
CONTINUOUS
 10
15.5018113383
 20
11.2651274755
 11
15.3047892664
 21
11.3788635638
  0
LINE
  5
626
100
AcDbEntity
  8
RACCORDO
100
AcDbLine
 62
7
  6
CONTINUOUS
 10
19.9061424543
 20
8.7664146765
 11
19.2240470621
 21
9.1602480073
  0
LINE
  5
627
100
AcDbEntity
  8
0
100
AcDbLine
 62
7
  6
CONTINUOUS
 10
22.6745719098
 20
7.2418938126
 11
22.6399780814
 21
7.2618678555
  0
LINE
  5
628
100
AcDbEntity
  8
SMUSSO
100
AcDbLine
 62
7
  6
CONTINUOUS
 10
20.2566104312
 20
8.9723334523
 11
19.2240470621
 21
9.5685226006
  0
LINE
  5
629
100
AcDbEntity
  8
IMPORT_IGES
100
AcDbLine
 62
7
  6
CONTINUOUS
 10
15.9889316976
 20
11.7907723345
 11
15.7533858339
 21
11.9267735642
  0
LINE
  5
62A
100
AcDbEntity
  8
IMPORT_IGES
100
AcDbLine
 62
7
  6
CONTINUOUS
 10
19.3262944835
 20
1.529620247
 11
19.2209341656
 21
1.7358010587
  0
LWPOLYLINE
  5
62B
100
AcDbEntity
  8
IMPORT_IGES
100
AcDbPolyline
 62
7
  6
CONTINUOUS
 90
7
 70
0
 10
15.2359263197
 20
11.6120765082
 10
15.2439545276
 20
11.5677003688
 10
15.2693041956
 20
11.4734212687
 10
15.3017599551
 20
11.3851418345
 10
15.3407496395
 20
11.3043354154
 10
15.386421291
 20
11.2311286682
 10
15.4041864438
 20
11.208759989
  0
LWPOLYLINE
  5
62C
100
AcDbEntity
  8
IMPORT_IGES
100
AcDbPolyline
 62
7
  6
CONTINUOUS
 90
7
 70
0
 10
19.2251150613
 20
9.6321021388
 10
19.2192013021
 20
9.79451453
 10
19.199302204
 20
9.9672175432
 10
19.1651902361
 20
10.1408236483
 10
19.1166159114
 20
10.3148012725
 10
19.052676828
 20
10.489836151
 10
19.0122734936
 20
10.5783018612
  0
LINE
  5
62D
100
AcDbEntity
  8
IMPORT_IGES
100
AcDbLine
 62
7
  6
CONTINUOUS
 10
19.3262944835
 20
1.529620247
 11
19.320745074
 21
1.7987766681
  0
LINE
  5
62E
100
AcDbEntity
  8
DRAFT
100
AcDbLine
 62
7
  6
CONTINUOUS
 10
18.4167579911
 20
25.3085499839
 11
18.4167579911
 21
24.0780088632
  0
LINE
  5
62F
100
AcDbEntity
  8
IMPORT_IGES
100
AcDbLine
 62
7
  6
CONTINUOUS
 10
19.2240470621
 20
9.6321021388
 11
19.2240470621
 21
8.5208556737
  0
LINE
  5
630
100
AcDbEntity
  8
0
100
AcDbLine
 62
7
  6
CONTINUOUS
 10
20.9008879663
 20
21.4588237943
 11
20.9008879663
 21
21.4188795689
  0
LINE
  5
631
100
AcDbEntity
  8
IMPORT_IGES
100
AcDbLine
 62
7
  6
CONTINUOUS
 10
19.2240403005
 20
9.6328153334
 11
19.2240470621
 21
9.6373359811
  0
LINE
  5
632
100
AcDbEntity
  8
IMPORT_IGES
100
AcDbLine
 62
7
  6
CONTINUOUS
 10
19.2187979563
 20
8.3634668746
 11
19.2248321437
 21
8.5258901084
  0
LWPOLYLINE
  5
633
100
AcDbEntity
  8
IMPORT_IGES
100
AcDbPolyline
 62
250
  6
CONTINUOUS
 90
3
 70
0
 10
19.2240470621
 20
8.5208556737
 10
19.2154935061
 20
8.3624624331
 10
19.2151690148
 20
8.3604306374
  0
LWPOLYLINE
  5
634
100
AcDbEntity
  8
ASSI
100
AcDbPolyline
 62
7
  6
CONTINUOUS
 90
9
 70
0
 10
-0.4741661192
 20
-27.7889036992
 10
-0.5154423459
 20
-27.8332678521
 10
-0.557578448
 20
-27.8749748415
 10
-0.6004187032
 20
-27.9138630567
 10
-0.6437937363
 20
-27.9497882879
 10
-0.68750592
 20
-27.9827169983
 10
-0.7313814294
 20
-28.0126643159
 10
-0.7752081322
 20
-28.0395456915
 10
-0.7957030772
 20
-28.0510928252
  0
LINE
  5
635
100
AcDbEntity
  8
RACCORDO
100
AcDbLine
 62
250
  6
CONTINUOUS
 10
1.109086672
 20
-22.1540908556
 11
24.4230310302
 21
-8.0165407657
  0
LINE
  5
636
100
AcDbEntity
  8
RACCORDO
100
AcDbLine
 62
7
  6
CONTINUOUS
 10
2.3683156884
 20
-22.0548988885
 11
24.0212547673
 21
-8.924580564
  0
LINE
  5
637
100
AcDbEntity
  8
CURVE
100
AcDbLine
 62
250
  6
CONTINUOUS
 10
0.3036168889
 20
-21.4239025592
 11
-0.1845808932
 21
-21.6961102166
  0
LINE
  5
638
100
AcDbEntity
  8
CURVE
100
AcDbLine
 62
250
  6
CONTINUOUS
 10
0.498896014
 20
-21.758246231
 11
-0.8680578004
 21
-22.5204276852
  0
LWPOLYLINE
  5
639
100
AcDbEntity
  8
ASSI
100
AcDbPolyline
 62
250
  6
CONTINUOUS
 90
13
 70
0
 10
-6.8565826931
 20
-26.9193185511
 10
-6.8812302748
 20
-26.9324222494
 10
-6.9083713977
 20
-26.9435695317
 10
-6.9375520185
 20
-26.952573821
 10
-6.9682839644
 20
-26.9592843915
 10
-7.0000530409
 20
-26.9635888789
 10
-7.0323276284
 20
-26.9654151792
 10
-7.0645676965
 20
-26.9647326676
 10
-7.0962337412
 20
-26.9615526988
 10
-7.1267957595
 20
-26.9559284428
 10
-7.1557422817
 20
-26.9479539851
 10
-7.1825889224
 20
-26.9377627275
 10
-7.2068863892
 20
-26.9255251767
  0
LINE
  5
63A
100
AcDbEntity
  8
RACCORDO
100
AcDbLine
 62
7
  6
CONTINUOUS
 10
-4.7051738348
 20
19.2059014318
 11
-6.0401235495
 21
18.9359551014
  0
LINE
  5
63B
100
AcDbEntity
  8
RACCORDO
100
AcDbLine
 62
7
  6
CONTINUOUS
 10
-10.7192512667
 20
18.0598185076
 11
-9.1623838771
 21
18.3746398331
  0
LINE
  5
63C
100
AcDbEntity
  8
RACCORDO
100
AcDbLine
 62
7
  6
CONTINUOUS
 10
-11.0252263569
 20
18.3413409367
 11
-9.0749806722
 21
18.735709099
  0
LWPOLYLINE
  5
63D
100
AcDbEntity
  8
RACCORDO
100
AcDbPolyline
 62
7
  6
CONTINUOUS
 90
25
 70
0
 10
-6.0401235495
 20
18.9359551014
 10
-6.0492956542
 20
18.934344799
 10
-6.0589479749
 20
18.933099115
 10
-6.0690805115
 20
18.9322180494
 10
-6.0797406303
 20
18.9317009539
 10
-6.0908809651
 20
18.9315484768
 10
-6.102359417
 20
18.9317625629
 10
-6.1141803172
 20
18.932347908
 10
-6.1263393346
 20
18.9332998163
 10
-6.1386813765
 20
18.9346061461
 10
-6.1512087875
 20
18.9362714372
 10
-6.1639192232
 20
18.9382911498
 10
-6.1766505574
 20
18.9406395216
 10
-6.1894030578
 20
18.9433207626
 10
-6.2021764569
 20
18.9463306629
 10
-6.2148078253
 20
18.9496308301
 10
-6.2272953438
 20
18.9532249825
 10
-6.2396408316
 20
18.9571094018
 10
-6.2516868179
 20
18.9612345408
 10
-6.263429466
 20
18.9656034833
 10
-6.2748726125
 20
18.9702131455
 10
-6.2858702961
 20
18.9750047296
 10
-6.2963738631
 20
18.9799586364
 10
-6.3064319671
 20
18.9850944651
 10
-6.3160446081
 20
18.9904122158
  0
LWPOLYLINE
  5
63E
100
AcDbEntity
  8
RACCORDO
100
AcDbPolyline
 62
7
  6
CONTINUOUS
 90
25
 70
0
 10
-9.0749806722
 20
18.735709099
 10
-9.0658085675
 20
18.7373194014
 10
-9.0561562468
 20
18.7385650854
 10
-9.0460237102
 20
18.739446151
 10
-9.0353635914
 20
18.7399632466
 10
-9.0242232566
 20
18.7401157237
 10
-9.0127448047
 20
18.7399016375
 10
-9.0009239044
 20
18.7393162925
 10
-8.9887648871
 20
18.7383643841
 10
-8.9764228452
 20
18.7370580544
 10
-8.9638954341
 20
18.7353927632
 10
-8.9511849985
 20
18.7333730507
 10
-8.9384536643
 20
18.7310246789
 10
-8.9257011638
 20
18.7283434378
 10
-8.9129277648
 20
18.7253335375
 10
-8.9002963964
 20
18.7220333703
 10
-8.8878088779
 20
18.718439218
 10
-8.8754633901
 20
18.7145547987
 10
-8.8634174038
 20
18.7104296596
 10
-8.8516747557
 20
18.7060607172
 10
-8.8402316092
 20
18.701451055
 10
-8.8292339255
 20
18.6966594708
 10
-8.8187303586
 20
18.691705564
 10
-8.8086722546
 20
18.6865697353
 10
-8.7990596135
 20
18.6812519846
  0
LINE
  5
63F
100
AcDbEntity
  8
ASSI
100
AcDbLine
 62
7
  6
CONTINUOUS
 10
-6.0008104078
 20
19.4820921582
 11
-4.9517577844
 21
19.6571446411
  0
LWPOLYLINE
  5
640
100
AcDbEntity
  8
0
100
AcDbPolyline
 62
7
  6
CONTINUOUS
 90
7
 70
0
 10
-4.6189883333
 20
19.2150648023
 10
-4.6329368759
 20
19.2147623803
 10
-4.6470517016
 20
19.2139700357
 10
-4.6613328103
 20
19.2126877686
 10
-4.6757802021
 20
19.2109155789
 10
-4.6903938769
 20
19.2086534666
 10
-4.7051738348
 20
19.2059014318
  0
LINE
  5
641
100
AcDbEntity
  8
SMUSSO
100
AcDbLine
 62
7
  6
CONTINUOUS
 10
20.7697137029
 20
9.2738092064
 11
19.1454127598
 21
10.2116602137
  0
LINE
  5
642
100
AcDbEntity
  8
RACCORDO
100
AcDbLine
 62
7
  6
CONTINUOUS
 10
19.055424663
 20
10.4823138823
 11
20.6954344332
 21
9.5353927952
  0
LINE
  5
643
100
AcDbEntity
  8
DRAFT
100
AcDbLine
 62
7
  6
CONTINUOUS
 10
24.4230310302
 20
7.4464913675
 11
23.7006382532
 21
7.8635919033
  0
LINE
  5
644
100
AcDbEntity
  8
0
100
AcDbLine
 62
7
  6
CONTINUOUS
 10
17.6285578131
 20
12.493086325
 11
18.3793009974
 21
12.0596166194
  0
LINE
  5
645
100
AcDbEntity
  8
0
100
AcDbLine
 62
250
  6
CONTINUOUS
 10
19.6986345626
 20
11.8659254204
 11
18.9596113547
 21
12.2926281586
  0
LINE
  5
646
100
AcDbEntity
  8
0
100
AcDbLine
 62
7
  6
CONTINUOUS
 10
22.6745719098
 20
10.3930157987
 11
22.5339120643
 21
10.4742310307
  0
LWPOLYLINE
  5
647
100
AcDbEntity
  8
RACCORDO
100
AcDbPolyline
 62
7
  6
CONTINUOUS
 90
16
 70
0
 10
20.6954344332
 20
9.5353927952
 10
20.7113081679
 20
9.5259527649
 10
20.7271443537
 20
9.5159884667
 10
20.7429429904
 20
9.5054999004
 10
20.7587211902
 20
9.4944745461
 10
20.774461841
 20
9.4829249239
 10
20.7901136064
 20
9.4708885934
 10
20.8056701871
 20
9.4583690231
 10
20.8211378824
 20
9.4453627446
 10
20.8364842535
 20
9.4318969124
 10
20.8517153308
 20
9.4179645076
 10
20.866825084
 20
9.403572549
 10
20.8817629841
 20
9.3887692477
 10
20.896521528
 20
9.3735607327
 10
20.9111082188
 20
9.3579408749
 10
20.9117287642
 20
9.3572506889
  0
LWPOLYLINE
  5
648
100
AcDbEntity
  8
IMPORT_IGES
100
AcDbPolyline
 62
7
  6
CONTINUOUS
 90
12
 70
0
 10
16.6296651162
 20
11.9163372196
 10
16.6258815964
 20
11.923431617
 10
16.6093719273
 20
11.9557062462
 10
16.5938979175
 20
11.9873519278
 10
16.5794637143
 20
12.0183655901
 10
16.5660239815
 20
12.0487817968
 10
16.5535746767
 20
12.0786058223
 10
16.5421198424
 20
12.1078323922
 10
16.5316262701
 20
12.1364802467
 10
16.5220929672
 20
12.164547984
 10
16.5135209264
 20
12.192037006
 10
16.5068314809
 20
12.2156161573
  0
LINE
  5
649
100
AcDbEntity
  8
IMPORT_IGES
100
AcDbLine
 62
7
  6
CONTINUOUS
 10
19.0568772175
 20
5.2874024861
 11
19.0154558612
 21
5.4267882604
  0
LINE
  5
64A
100
AcDbEntity
  8
IMPORT_IGES
100
AcDbLine
 62
7
  6
CONTINUOUS
 10
19.2654558612
 20
5.2824692925
 11
19.2667871201
 21
5.2742782366
  0
LINE
  5
64B
100
AcDbEntity
  8
IMPORT_IGES
100
AcDbLine
 62
7
  6
CONTINUOUS
 10
21.1154558612
 20
2.2593268307
 11
21.1154558612
 21
2.9407042926
  0
LINE
  5
64C
100
AcDbEntity
  8
DRAFT
100
AcDbLine
 62
7
  6
CONTINUOUS
 10
21.952291897
 20
23.2671770173
 11
21.952291897
 21
22.0366358965
  0
LINE
  5
64D
100
AcDbEntity
  8
ASSI
100
AcDbLine
 62
7
  6
CONTINUOUS
 10
22.5339120643
 20
10.4742310307
 11
22.5339120643
 21
12.9079679255
  0
LINE
  5
64E
100
AcDbEntity
  8
ASSI
100
AcDbLine
 62
7
  6
CONTINUOUS
 10
22.5339120643
 20
14.5565824146
 11
22.5339120643
 21
16.9903193095
  0
LINE
  5
64F
100
AcDbEntity
  8
DRAFT
100
AcDbLine
 62
7
  6
CONTINUOUS
 10
22.6399780814
 20
7.9502058041
 11
22.6399780814
 21
7.2618678555
  0
LINE
  5
650
100
AcDbEntity
  8
DRAFT
100
AcDbLine
 62
7
  6
CONTINUOUS
 10
22.6399780814
 20
3.8678544202
 11
22.6399780814
 21
3.1795164716
  0
LINE
  5
651
100
AcDbEntity
  8
DRAFT
100
AcDbLine
 62
7
  6
CONTINUOUS
 10
22.6399780814
 20
-0.2144969638
 11
22.6399780814
 21
-0.9028349124
  0
LINE
  5
652
100
AcDbEntity
  8
DRAFT
100
AcDbLine
 62
7
  6
CONTINUOUS
 10
22.6399780814
 20
-4.2968483478
 11
22.6399780814
 21
-4.9851862964
  0
LWPOLYLINE
  5
653
100
AcDbEntity
  8
ASSI
100
AcDbPolyline
 62
250
  6
CONTINUOUS
 90
7
 70
0
 10
-0.5277140239
 20
-29.1724917902
 10
-0.5110035345
 20
-29.1603980908
 10
-0.4982141192
 20
-29.1456496247
 10
-0.4879842305
 20
-29.1276093865
 10
-0.4804889226
 20
-29.1065859803
 10
-0.4758564525
 20
-29.0829390136
 10
-0.4741661145
 20
-29.0570730036
  0
LINE
  5
654
100
AcDbEntity
  8
ASSI
100
AcDbLine
 62
7
  6
CONTINUOUS
 10
5.158535813
 20
-21.8314924552
 11
4.8227791701
 21
-22.028798711
  0
LINE
  5
655
100
AcDbEntity
  8
ASSI
100
AcDbLine
 62
7
  6
CONTINUOUS
 10
-4.2103583679
 20
-27.1168604783
 11
-4.2166364293
 21
-27.1204853403
  0
LINE
  5
656
100
AcDbEntity
  8
ASSI
100
AcDbLine
 62
250
  6
CONTINUOUS
 10
-6.4111139504
 20
-27.2498296899
 11
-4.2103583679
 21
-26.4631230633
  0
LINE
  5
657
100
AcDbEntity
  8
0
100
AcDbLine
 62
7
  6
CONTINUOUS
 10
-12.4109692711
 20
18.8880163481
 11
-7.7656135096
 21
19.8273751321
  0
LINE
  5
658
100
AcDbEntity
  8
ASSI
100
AcDbLine
 62
7
  6
CONTINUOUS
 10
-7.5466544763
 20
20.3746431494
 11
-6.159426639
 21
20.61071201
  0
LINE
  5
659
100
AcDbEntity
  8
IMPORT_IGES
100
AcDbLine
 62
7
  6
CONTINUOUS
 10
14.6185898976
 20
17.7875154034
 11
14.5702974187
 21
17.8036139335
  0
LINE
  5
65A
100
AcDbEntity
  8
IMPORT_IGES
100
AcDbLine
 62
7
  6
CONTINUOUS
 10
10.1965246138
 20
19.2616321338
 11
10.0874210798
 21
19.2980023216
  0
LINE
  5
65B
100
AcDbEntity
  8
IMPORT_IGES
100
AcDbLine
 62
7
  6
CONTINUOUS
 10
6.0157715609
 20
20.9498013475
 11
5.9968820311
 21
20.9607079253
  0
LINE
  5
65C
100
AcDbEntity
  8
DRAFT
100
AcDbLine
 62
7
  6
CONTINUOUS
 10
24.4230310302
 20
10.6083011959
 11
23.5945722361
 21
11.0866429207
  0
LINE
  5
65D
100
AcDbEntity
  8
ASSI
100
AcDbLine
 62
7
  6
CONTINUOUS
 10
23.5945722361
 20
11.0866429207
 11
23.5945722361
 21
13.5421390022
  0
LINE
  5
65E
100
AcDbEntity
  8
ASSI
100
AcDbLine
 62
7
  6
CONTINUOUS
 10
23.5945722361
 20
15.1689943046
 11
23.5945722361
 21
17.6244903861
  0
LINE
  5
65F
100
AcDbEntity
  8
DRAFT
100
AcDbLine
 62
7
  6
CONTINUOUS
 10
23.7006382532
 20
8.5952545942
 11
23.7006382532
 21
7.8635919033
  0
LINE
  5
660
100
AcDbEntity
  8
DRAFT
100
AcDbLine
 62
7
  6
CONTINUOUS
 10
23.7006382532
 20
4.5129032102
 11
23.7006382532
 21
3.7812405193
  0
LINE
  5
661
100
AcDbEntity
  8
DRAFT
100
AcDbLine
 62
7
  6
CONTINUOUS
 10
23.7006382532
 20
0.4305518262
 11
23.7006382532
 21
-0.3011108647
  0
LINE
  5
662
100
AcDbEntity
  8
DRAFT
100
AcDbLine
 62
7
  6
CONTINUOUS
 10
23.7006382532
 20
-3.6517995577
 11
23.7006382532
 21
-4.3834622486
  0
LINE
  5
663
100
AcDbEntity
  8
RACCORDO
100
AcDbLine
 62
7
  6
CONTINUOUS
 10
24.4230310302
 20
20.4152641682
 11
24.4230310302
 21
18.1198277424
  0
LINE
  5
664
100
AcDbEntity
  8
DRAFT
100
AcDbLine
 62
7
  6
CONTINUOUS
 10
24.4230310302
 20
14.6906525799
 11
24.4230310302
 21
14.0374763585
  0
LINE
  5
665
100
AcDbEntity
  8
DRAFT
100
AcDbLine
 62
7
  6
CONTINUOUS
 10
24.4230310302
 20
10.6083011959
 11
24.4230310302
 21
9.0345834189
  0
LINE
  5
666
100
AcDbEntity
  8
DRAFT
100
AcDbLine
 62
7
  6
CONTINUOUS
 10
24.4230310302
 20
7.4464913675
 11
24.4230310302
 21
4.952232035
  0
LINE
  5
667
100
AcDbEntity
  8
DRAFT
100
AcDbLine
 62
7
  6
CONTINUOUS
 10
24.4230310302
 20
3.3641399836
 11
24.4230310302
 21
0.869880651
  0
LINE
  5
668
100
AcDbEntity
  8
DRAFT
100
AcDbLine
 62
7
  6
CONTINUOUS
 10
24.4230310302
 20
-0.7182114004
 11
24.4230310302
 21
-3.212470733
  0
LINE
  5
669
100
AcDbEntity
  8
RACCORDO
100
AcDbLine
 62
7
  6
CONTINUOUS
 10
24.4230310302
 20
-4.8005627843
 11
24.4230310302
 21
-8.0165407657
  0
LINE
  5
66A
100
AcDbEntity
  8
ASSI
100
AcDbLine
 62
7
  6
CONTINUOUS
 10
1.0025105771
 20
-27.1460790503
 11
5.2229366466
 21
-24.6579546438
  0
LINE
  5
66B
100
AcDbEntity
  8
ASSI
100
AcDbLine
 62
250
  6
CONTINUOUS
 10
-4.2166364293
 20
-29.8385531604
 11
-0.4741661192
 21
-27.7889036992
  0
LINE
  5
66C
100
AcDbEntity
  8
ASSI
100
AcDbLine
 62
7
  6
CONTINUOUS
 10
-4.2702132871
 20
-29.9539878089
 11
-0.7957030033
 21
-28.0510927847
  0
LINE
  5
66D
100
AcDbEntity
  8
ASSI
100
AcDbLine
 62
250
  6
CONTINUOUS
 10
1.0025105771
 20
-28.2483372396
 11
-0.4741661192
 21
-29.0570730061
  0
LINE
  5
66E
100
AcDbEntity
  8
ASSI
100
AcDbLine
 62
7
  6
CONTINUOUS
 10
0.949109299
 20
-28.3636757279
 11
-0.5277429814
 21
-29.1725076571
  0
LINE
  5
66F
100
AcDbEntity
  8
ASSI
100
AcDbLine
 62
250
  6
CONTINUOUS
 10
-0.4741661192
 20
-29.0570730426
 11
-0.538772528
 21
-29.0895451337
  0
LWPOLYLINE
  5
670
100
AcDbEntity
  8
ASSI
100
AcDbPolyline
 62
250
  6
CONTINUOUS
 90
16
 70
0
 10
-4.2166364293
 20
-29.8385531604
 10
-4.236258126
 20
-29.8484080309
 10
-4.2575415876
 20
-29.8570307675
 10
-4.2802555178
 20
-29.8643290022
 10
-4.3041387583
 20
-29.8702216803
 10
-4.3289460351
 20
-29.8746510005
 10
-4.3544555727
 20
-29.8775741096
 10
-4.3804510054
 20
-29.8789534978
 10
-4.4065945366
 20
-29.8787586866
 10
-4.4324769245
 20
-29.8769966321
 10
-4.4577960285
 20
-29.8737053932
 10
-4.4823095234
 20
-29.8689342107
 10
-4.5057185818
 20
-29.8627618372
 10
-4.527778319
 20
-29.8552807467
 10
-4.5482941589
 20
-29.846586204
 10
-4.5670777172
 20
-29.8367873624
  0
LINE
  5
671
100
AcDbEntity
  8
ASSI
100
AcDbLine
 62
7
  6
CONTINUOUS
 10
-6.5006259045
 20
-27.381406232
 11
-4.2532685173
 21
-26.5780403875
  0
LINE
  5
672
100
AcDbEntity
  8
0
100
AcDbLine
 62
7
  6
CONTINUOUS
 10
22.6745719098
 20
14.4753671827
 11
22.5339120643
 21
14.5565824146
  0
LINE
  5
673
100
AcDbEntity
  8
DRAFT
100
AcDbLine
 62
7
  6
CONTINUOUS
 10
24.4230310302
 20
14.6906525799
 11
23.5945722361
 21
15.1689943046
  0
LWPOLYLINE
  5
674
100
AcDbEntity
  8
ASSI
100
AcDbPolyline
 62
250
  6
CONTINUOUS
 90
24
 70
0
 10
-0.538772528
 20
-29.0895451337
 10
-0.6082105376
 20
-29.1185657305
 10
-0.6819250993
 20
-29.1438998725
 10
-0.7593264043
 20
-29.1653387212
 10
-0.8397966795
 20
-29.1827116156
 10
-0.9226953802
 20
-29.1958870818
 10
-1.0073634742
 20
-29.204757595
 10
-1.0931220814
 20
-29.2092484466
 10
-1.1792799408
 20
-29.2093296052
 10
-1.2651433621
 20
-29.2050001292
 10
-1.3500331494
 20
-29.1962927998
 10
-1.4332829686
 20
-29.1832803435
 10
-1.5142343202
 20
-29.1660635645
 10
-1.5922342205
 20
-29.1447777781
 10
-1.6666523085
 20
-29.1195975052
 10
-1.7368884762
 20
-29.090727416
 10
-1.8023905803
 20
-29.0583946326
 10
-1.8626481748
 20
-29.0228509262
 10
-1.9171910758
 20
-28.9843695442
 10
-1.9655651108
 20
-28.9432646355
 10
-2.0073594226
 20
-28.8998872223
 10
-2.0423816095
 20
-28.8543934251
 10
-2.0701676863
 20
-28.8073298562
 10
-2.0901524879
 20
-28.760027651
  0
LINE
  5
675
100
AcDbEntity
  8
IMPORT_IGES
100
AcDbLine
 62
250
  6
CONTINUOUS
 10
14.7161394915
 20
21.8055431084
 11
14.5732305879
 21
21.8880569183
  0
LINE
  5
676
100
AcDbEntity
  8
IMPORT_IGES
100
AcDbLine
 62
7
  6
CONTINUOUS
 10
14.7600764766
 20
21.830911773
 11
14.6171675357
 21
21.9134256044
  0
LINE
  5
677
100
AcDbEntity
  8
IMPORT_IGES
100
AcDbLine
 62
250
  6
CONTINUOUS
 10
14.723345619
 20
21.9747316034
 11
14.8662546503
 21
21.8922177197
  0
LINE
  5
678
100
AcDbEntity
  8
IMPORT_IGES
100
AcDbLine
 62
250
  6
CONTINUOUS
 10
14.8906384874
 20
22.0713245732
 11
15.0335476611
 21
21.9888106075
  0
LINE
  5
679
100
AcDbEntity
  8
IMPORT_IGES
100
AcDbLine
 62
250
  6
CONTINUOUS
 10
14.9586868469
 20
22.11061491
 11
15.1015960785
 21
22.0281009108
  0
LINE
  5
67A
100
AcDbEntity
  8
IMPORT_IGES
100
AcDbLine
 62
250
  6
CONTINUOUS
 10
15.2096261495
 20
22.2555043649
 11
15.3525355945
 21
22.1729902424
  0
LINE
  5
67B
100
AcDbEntity
  8
IMPORT_IGES
100
AcDbLine
 62
7
  6
CONTINUOUS
 10
15.758222731
 20
22.3061987083
 11
15.5278239303
 21
22.4392280882
  0
LINE
  5
67C
100
AcDbEntity
  8
0
100
AcDbLine
 62
7
  6
CONTINUOUS
 10
16.0485667942
 20
22.4651379048
 11
15.8106322354
 21
22.602518337
  0
LINE
  5
67D
100
AcDbEntity
  8
IMPORT_IGES
100
AcDbLine
 62
7
  6
CONTINUOUS
 10
18.1591401255
 20
19.8757702595
 11
18.1737002114
 21
19.8653887124
  0
LWPOLYLINE
  5
67E
100
AcDbEntity
  8
IMPORT_IGES
100
AcDbPolyline
 62
7
  6
CONTINUOUS
 90
7
 70
0
 10
18.1737002114
 20
19.8653887124
 10
18.1881905146
 20
19.8534262362
 10
18.1998375915
 20
19.8410010261
 10
18.2086414423
 20
19.828113082
 10
18.2146230422
 20
19.8145788462
 10
18.2177614159
 20
19.8005818764
 10
18.2182709701
 20
19.7927972311
  0
LINE
  5
67F
100
AcDbEntity
  8
DRAFT
100
AcDbLine
 62
7
  6
CONTINUOUS
 10
13.8298201545
 20
25.5016255022
 11
14.0736699359
 21
25.3608296946
  0
LINE
  5
680
100
AcDbEntity
  8
DRAFT
100
AcDbLine
 62
7
  6
CONTINUOUS
 10
17.3653540604
 20
23.4602525356
 11
17.6092038418
 21
23.3194567279
  0
LINE
  5
681
100
AcDbEntity
  8
DRAFT
100
AcDbLine
 62
7
  6
CONTINUOUS
 10
20.9008879663
 20
21.4188795689
 11
21.1447377478
 21
21.2780837613
  0
LINE
  5
682
100
AcDbEntity
  8
DRAFT
100
AcDbLine
 62
7
  6
CONTINUOUS
 10
14.8812240852
 20
26.1193818298
 11
15.1625917123
 21
25.9569236883
  0
LINE
  5
683
100
AcDbEntity
  8
DRAFT
100
AcDbLine
 62
7
  6
CONTINUOUS
 10
18.4167579911
 20
24.0780088632
 11
18.6981256182
 21
23.9155507216
  0
LINE
  5
684
100
AcDbEntity
  8
DRAFT
100
AcDbLine
 62
7
  6
CONTINUOUS
 10
21.952291897
 20
22.0366358965
 11
22.2336595241
 21
21.874177755
  0
LINE
  5
685
100
AcDbEntity
  8
RACCORDO
100
AcDbLine
 62
7
  6
CONTINUOUS
 10
10.4847876088
 20
29.8883702717
 11
14.8812240852
 21
27.3499229506
  0
LINE
  5
686
100
AcDbEntity
  8
DRAFT
100
AcDbLine
 62
7
  6
CONTINUOUS
 10
16.256596454
 20
26.5558001823
 11
18.4167579911
 21
25.3085499839
  0
LINE
  5
687
100
AcDbEntity
  8
DRAFT
100
AcDbLine
 62
7
  6
CONTINUOUS
 10
19.7921303599
 20
24.5144272156
 11
21.952291897
 21
23.2671770173
  0
LINE
  5
688
100
AcDbEntity
  8
RACCORDO
100
AcDbLine
 62
7
  6
CONTINUOUS
 10
23.3276642659
 20
22.473054249
 11
23.4814600551
 21
22.3842544878
  0
LINE
  5
689
100
AcDbEntity
  8
RACCORDO
100
AcDbLine
 62
7
  6
CONTINUOUS
 10
23.9813839027
 20
21.8565025382
 11
24.0088805546
 21
21.8088769402
  0
ARC
  5
68A
100
AcDbEntity
  8
ASSI
100
AcDbCircle
 62
7
  6
CONTINUOUS
 10
-4.3903010219
 20
-29.7347187141
 40
0.25
100
AcDbArc
 50
239.9984015652
 51
298.7209187533
  0
ARC
  5
68B
100
AcDbEntity
  8
ASSI
100
AcDbCircle
 62
7
  6
CONTINUOUS
 10
-21.3939743244
 20
-19.9170108553
 40
0.25
100
AcDbArc
 50
179.99312999
 51
239.9984015652
  0
ARC
  5
68C
100
AcDbEntity
  8
ASSI
100
AcDbCircle
 62
7
  6
CONTINUOUS
 10
-21.3939743244
 20
16.2256573251
 40
0.25
100
AcDbArc
 50
121.3064902564
 51
180.0006072803
  0
ELLIPSE
  5
68D
100
AcDbEntity
  8
ASSI
100
AcDbEllipse
 62
7
  6
CONTINUOUS
 10
0.8257069538
 20
10.6361006475
 30
0.0
 11
-0.125029849
 21
0.2164946157
 31
0.0
 40
0.5774195892
 41
-2.3562809449
 42
-0.7856369171
  0
ELLIPSE
  5
68E
100
AcDbEntity
  8
ASSI
100
AcDbEllipse
 62
7
  6
CONTINUOUS
 10
-15.2963276573
 20
19.9447613753
 30
0.0
 11
-0.125029849
 21
0.2164946157
 31
0.0
 40
0.5774195892
 41
-2.3562809449
 42
-0.7856369171
  0
ELLIPSE
  5
68F
100
AcDbEntity
  8
ASSI
100
AcDbEllipse
 62
7
  6
CONTINUOUS
 10
0.8257069538
 20
-28.1462219553
 30
0.0
 11
-0.1250488738
 21
0.2165276008
 31
0.0
 40
0.5772437351
 41
-3.1546808107
 42
-2.3564331449
  0
ELLIPSE
  5
690
100
AcDbEntity
  8
ASSI
100
AcDbEllipse
 62
7
  6
CONTINUOUS
 10
-8.6567145328
 20
21.6094074574
 30
0.0
 11
0.9999908055
 21
-0.0074926161
 31
0.0
 40
0.5723275643
 41
0.7896864073
 42
2.3430294416
  0
ELLIPSE
  5
691
100
AcDbEntity
  8
ASSI
100
AcDbEllipse
 62
7
  6
CONTINUOUS
 10
4.4391960127
 20
12.8121801547
 30
0.0
 11
0.9999901407
 21
0.0076245443
 31
0.0
 40
0.5824033911
 41
-0.7723854459
 42
-0.0044405743
  0
ELLIPSE
  5
692
100
AcDbEntity
  8
ASSI
100
AcDbEllipse
 62
7
  6
CONTINUOUS
 10
4.4391960127
 20
-22.6660937499
 30
0.0
 11
0.9999901407
 21
0.0076245443
 31
0.0
 40
0.5824033911
 41
-0.6738836195
 42
-0.0044405743
  0
ELLIPSE
  5
693
100
AcDbEntity
  8
ASSI
100
AcDbEllipse
 62
7
  6
CONTINUOUS
 10
2.4736790194
 20
15.3851903892
 30
0.0
 11
0.3849961777
 21
0.643712025
 31
0.0
 40
0.5873179545
 41
0.0090366244
 42
0.7857564631
  0
ELLIPSE
  5
694
100
AcDbEntity
  8
ASSI
100
AcDbEllipse
 62
7
  6
CONTINUOUS
 10
1.4505412077
 20
15.9537389907
 30
0.0
 11
0.9964681619
 21
-0.2402284003
 31
0.0
 40
0.349548336
 41
1.909126671
 42
2.4271749561
  0
ELLIPSE
  5
695
100
AcDbEntity
  8
ASSI
100
AcDbEllipse
 62
7
  6
CONTINUOUS
 10
-16.3569339729
 20
20.5571421695
 30
0.0
 11
-0.1250488738
 21
0.2165276008
 31
0.0
 40
0.5772437351
 41
-0.7854845191
 42
0.0130881578
  0
ELLIPSE
  5
696
100
AcDbEntity
  8
ASSI
100
AcDbEllipse
 62
7
  6
CONTINUOUS
 10
-0.2348993619
 20
11.2484814416
 30
0.0
 11
-0.1250488738
 21
0.2165276008
 31
0.0
 40
0.5772437351
 41
-0.7854845191
 42
0.0130881578
  0
ELLIPSE
  5
697
100
AcDbEntity
  8
ASSI
100
AcDbEllipse
 62
7
  6
CONTINUOUS
 10
-21.3939743244
 20
13.507527324
 30
0.0
 11
0.249991121
 21
-0.0037145729
 31
0.0
 40
0.5672251703
 41
-3.1331645565
 42
-2.3477663933
  0
ELLIPSE
  5
698
100
AcDbEntity
  8
ASSI
100
AcDbEllipse
 62
7
  6
CONTINUOUS
 10
-4.3903010219
 20
3.6898194652
 30
0.0
 11
0.249991121
 21
-0.0037145729
 31
0.0
 40
0.5672251703
 41
-2.3477663933
 42
-0.7944233591
  0
ELLIPSE
  5
699
100
AcDbEntity
  8
ASSI
100
AcDbEllipse
 62
7
  6
CONTINUOUS
 10
-6.561232994
 20
12.2310181191
 30
0.0
 11
0.2499975352
 21
0.0019061361
 31
0.0
 40
0.5824033911
 41
-2.3606350652
 42
-0.8029287078
  0
ELLIPSE
  5
69A
100
AcDbEntity
  8
ASSI
100
AcDbEllipse
 62
7
  6
CONTINUOUS
 10
-4.2134973986
 20
3.383586607
 30
0.0
 11
0.1283320592
 21
0.214570675
 31
0.0
 40
0.5873179545
 41
-0.7763132174
 42
0.7770298169
  0
ELLIPSE
  5
69B
100
AcDbEntity
  8
ASSI
100
AcDbEllipse
 62
7
  6
CONTINUOUS
 10
4.4391960127
 20
-21.4302810658
 30
0.0
 11
0.9999908055
 21
-0.0074926161
 31
0.0
 40
0.5723275643
 41
-0.763656627
 42
0.7896864073
  0
ELLIPSE
  5
69C
100
AcDbEntity
  8
ASSI
100
AcDbEllipse
 62
7
  6
CONTINUOUS
 10
-11.7277104717
 20
15.2140774635
 30
0.0
 11
0.2499975352
 21
0.0019061361
 31
0.0
 40
0.5824033911
 41
2.3648438845
 42
3.9225502419
  0
ELLIPSE
  5
69D
100
AcDbEntity
  8
ASSI
100
AcDbEllipse
 62
7
  6
CONTINUOUS
 10
4.4391960127
 20
14.0479928388
 30
0.0
 11
0.9999908055
 21
-0.0074926161
 31
0.0
 40
0.5723275643
 41
-0.763656627
 42
0.7896864073
  0
ELLIPSE
  5
69E
100
AcDbEntity
  8
ASSI
100
AcDbEllipse
 62
7
  6
CONTINUOUS
 10
-6.337644149
 20
20.4727379548
 30
0.0
 11
0.3653541832
 21
0.6550576743
 31
0.0
 40
0.5671693725
 41
5.4894081695
 42
7.05147785
  0
ELLIPSE
  5
69F
100
AcDbEntity
  8
ASSI
100
AcDbEllipse
 62
7
  6
CONTINUOUS
 10
-5.6680597278
 20
20.0639299539
 30
0.0
 11
0.9964681619
 21
-0.2402284003
 31
0.0
 40
0.349548336
 41
-0.6882377587
 42
-0.1701894736
  0
ELLIPSE
  5
6A0
100
AcDbEntity
  8
ASSI
100
AcDbEllipse
 62
7
  6
CONTINUOUS
 10
-4.3903010219
 20
-27.016588713
 30
0.0
 11
0.2499897905
 21
0.0038465249
 31
0.0
 40
0.5873737521
 41
-2.3652320043
 42
-0.81188897
  0
ELLIPSE
  5
6A1
100
AcDbEntity
  8
ASSI
100
AcDbEllipse
 62
7
  6
CONTINUOUS
 10
-4.2134973986
 20
-26.9145242472
 30
0.0
 11
0.1283320592
 21
0.214570675
 31
0.0
 40
0.5873179545
 41
-2.3296562517
 42
-0.7763132174
  0
ELLIPSE
  5
6A2
100
AcDbEntity
  8
ASSI
100
AcDbEllipse
 62
7
  6
CONTINUOUS
 10
-1.1440392065
 20
9.0326260469
 30
0.0
 11
0.9643106761
 21
0.0073525019
 31
0.0
 40
0.5824033911
 41
3.1371520427
 42
4.7393418453
  0
ELLIPSE
  5
6A3
100
AcDbEntity
  8
ASSI
100
AcDbEllipse
 62
7
  6
CONTINUOUS
 10
-17.2660738176
 20
18.3412867748
 30
0.0
 11
0.9643106761
 21
0.0073525019
 31
0.0
 40
0.5824033911
 41
3.1371519684
 42
5.4758932762
  0
ELLIPSE
  5
6A4
100
AcDbEntity
  8
ASSI
100
AcDbEllipse
 62
7
  6
CONTINUOUS
 10
-4.9947324584
 20
10.2787363117
 30
0.0
 11
0.7778828512
 21
0.0059310607
 31
0.0
 40
0.5824033911
 41
3.1371522268
 42
5.4846199225
  0
ELLIPSE
  5
6A5
100
AcDbEntity
  8
ASSI
100
AcDbEllipse
 62
7
  6
CONTINUOUS
 10
-15.0932454857
 20
16.1094911696
 30
0.0
 11
0.7778828512
 21
0.0059310607
 31
0.0
 40
0.5824033911
 41
3.1371522165
 42
5.4758932762
  0
ELLIPSE
  5
6A6
100
AcDbEntity
  8
ASSI
100
AcDbEllipse
 62
7
  6
CONTINUOUS
 10
-6.337644149
 20
19.9287320436
 30
0.0
 11
0.3653541832
 21
0.6550576743
 31
0.0
 40
0.5671693725
 41
-0.0084273355
 42
0.4279533387
  0
ELLIPSE
  5
6A7
100
AcDbEntity
  8
IMPORT_IGES
100
AcDbEllipse
 62
250
  6
CONTINUOUS
 10
276.586268849
 20
169.6673356814
 30
0.0
 11
-300.5130427581
 21
520.5207347898
 31
0.0
 40
0.5773596291
 41
-4.6806619783
 42
-4.6800566262
  0
ELLIPSE
  5
6A8
100
AcDbEntity
  8
IMPORT_IGES
100
AcDbEllipse
 62
250
  6
CONTINUOUS
 10
289.6727920288
 20
162.11134121
 30
0.0
 11
268.9224700838
 21
334.3194336325
 31
0.0
 40
0.4450708833
 41
-3.8281753256
 42
-3.8239378581
  0
ELLIPSE
  5
6A9
100
AcDbEntity
  8
IMPORT_IGES
100
AcDbEllipse
 62
250
  6
CONTINUOUS
 10
284.3997966228
 20
165.1559026713
 30
0.0
 11
74.5333164052
 21
431.9576278639
 31
0.0
 40
0.7055578127
 41
-4.1499872157
 42
-4.1469603951
  0
ELLIPSE
  5
6AA
100
AcDbEntity
  8
IMPORT_IGES
100
AcDbEllipse
 62
250
  6
CONTINUOUS
 10
290.0061435439
 20
161.9188682231
 30
0.0
 11
287.268354581
 21
323.3182709915
 31
0.0
 40
0.3902181199
 41
-3.8157779054
 42
-3.8127510848
  0
ELLIPSE
  5
6AB
100
AcDbEntity
  8
IMPORT_IGES
100
AcDbEllipse
 62
250
  6
CONTINUOUS
 10
284.7331469156
 20
164.9634303901
 30
0.0
 11
123.7665591641
 21
413.0347193903
 31
0.0
 40
0.6811066893
 41
-4.0569452965
 42
-4.0527078291
  0
ELLIPSE
  5
6AC
100
AcDbEntity
  8
CURVE
100
AcDbEllipse
 62
250
  6
CONTINUOUS
 10
0.1134143189
 20
-2.7324867039
 30
0.0
 11
0.2823347557
 21
0.4720625499
 31
0.0
 40
0.5873179545
 41
-2.4958662571
 42
-1.004097861
  0
ELLIPSE
  5
6AD
100
AcDbEntity
  8
CURVE
100
AcDbEllipse
 62
250
  6
CONTINUOUS
 10
0.0959619159
 20
-0.4326339916
 30
0.0
 11
0.3012739593
 21
0.5037288203
 31
0.0
 40
0.5873179545
 41
-2.2408358938
 42
-1.0799301588
  0
ELLIPSE
  5
6AE
100
AcDbEntity
  8
CURVE
100
AcDbEllipse
 62
250
  6
CONTINUOUS
 10
0.1104055816
 20
0.5277038504
 30
0.0
 11
0.2875440965
 21
0.4807725463
 31
0.0
 40
0.5873179545
 41
-0.5071213348
 42
0.4629864943
  0
ELLIPSE
  5
6AF
100
AcDbEntity
  8
CURVE
100
AcDbEllipse
 62
250
  6
CONTINUOUS
 10
-1.1271451902
 20
-2.4217583893
 30
0.0
 11
0.2329041167
 21
0.3894147249
 31
0.0
 40
0.5873179545
 41
-4.2801660069
 42
-2.998012518
  0
ELLIPSE
  5
6B0
100
AcDbEntity
  8
CURVE
100
AcDbEllipse
 62
250
  6
CONTINUOUS
 10
0.009802817
 20
-2.1869567343
 30
0.0
 11
0.187422321
 21
0.3133693495
 31
0.0
 40
0.5873179545
 41
-2.2468628571
 42
-0.6808662485
  0
ELLIPSE
  5
6B1
100
AcDbEntity
  8
CURVE
100
AcDbEllipse
 62
250
  6
CONTINUOUS
 10
-1.2374698742
 20
2.4488485499
 30
0.0
 11
0.3208878708
 21
0.5365231997
 31
0.0
 40
0.5873179545
 41
0.8788512009
 42
2.0071059643
  0
ELLIPSE
  5
6B2
100
AcDbEntity
  8
CURVE
100
AcDbEllipse
 62
250
  6
CONTINUOUS
 10
-1.1204377637
 20
-0.107763583
 30
0.0
 11
0.2272999779
 21
0.3800446278
 31
0.0
 40
0.5873179545
 41
-4.202438649
 42
-2.8760096656
  0
ELLIPSE
  5
6B3
100
AcDbEntity
  8
CURVE
100
AcDbEllipse
 62
250
  6
CONTINUOUS
 10
0.0023939273
 20
2.4418552562
 30
0.0
 11
0.2095294876
 21
0.3503324412
 31
0.0
 40
0.5873179545
 41
-2.4036983474
 42
-0.9552971787
  0
ELLIPSE
  5
6B4
100
AcDbEntity
  8
RACCORDO
100
AcDbEllipse
 62
7
  6
CONTINUOUS
 10
23.4813708302
 20
21.567711357
 30
0.0
 11
-0.4999425808
 21
0.8660887289
 31
0.0
 40
0.5774045194
 41
-1.570655373
 42
-0.7853833814
  0
ELLIPSE
  5
6B5
100
AcDbEntity
  8
RACCORDO
100
AcDbEllipse
 62
7
  6
CONTINUOUS
 10
10.4848768337
 20
29.0717241063
 30
0.0
 11
-0.5000056969
 21
0.8661980017
 31
0.0
 40
0.5772588242
 41
-0.7852572409
 42
-0.0123398901
  0
ELLIPSE
  5
6B6
100
AcDbEntity
  8
0
100
AcDbEllipse
 62
7
  6
CONTINUOUS
 10
18.9946581524
 20
9.9454562335
 30
0.0
 11
1.0364148088
 21
1.8264749765
 31
0.0
 40
0.5722717666
 41
-2.8020308872
 42
-2.3604340017
  0
ELLIPSE
  5
6B7
100
AcDbEntity
  8
0
100
AcDbEllipse
 62
7
  6
CONTINUOUS
 10
18.9596113547
 20
14.0072157398
 30
0.0
 11
1.0364148088
 21
1.8264749765
 31
0.0
 40
0.5722717666
 41
-2.801805486
 42
-2.3604340017
  0
ELLIPSE
  5
6B8
100
AcDbEntity
  8
0
100
AcDbEllipse
 62
7
  6
CONTINUOUS
 10
10.1879935906
 20
23.0021660766
 30
0.0
 11
0.4340187671
 21
-0.0064490065
 31
0.0
 40
0.5672251703
 41
-3.1331645566
 42
-3.0918387158
  0
ELLIPSE
  5
6B9
100
AcDbEntity
  8
0
100
AcDbEllipse
 62
7
  6
CONTINUOUS
 10
5.1437335617
 20
13.1206352983
 30
0.0
 11
0.756546839
 21
-0.0112413929
 31
0.0
 40
0.5672251703
 41
-1.1818633702
 42
-0.7856967128
  0
ELLIPSE
  5
6BA
100
AcDbEntity
  8
RACCORDO
100
AcDbEllipse
 62
7
  6
CONTINUOUS
 10
23.0086020435
 20
-7.1996611462
 30
0.0
 11
-1.000389877
 21
1.7321775001
 31
0.0
 40
0.5772588101
 41
-3.12925227
 42
-2.3564320312
  0
ELLIPSE
  5
6BB
100
AcDbEntity
  8
RACCORDO
100
AcDbEllipse
 62
7
  6
CONTINUOUS
 10
23.0086020435
 20
21.2317316888
 30
0.0
 11
-1.0002637881
 21
1.7319588718
 31
0.0
 40
0.5774045053
 41
-2.3563059395
 42
-1.5710339479
  0
ELLIPSE
  5
6BC
100
AcDbEntity
  8
DRAFT
100
AcDbEllipse
 62
7
  6
CONTINUOUS
 10
19.6986345626
 20
13.5805130017
 30
0.0
 11
1.0229917131
 21
1.834161488
 31
0.0
 40
0.5671693725
 41
0.7770191891
 42
1.9066849252
  0
ELLIPSE
  5
6BD
100
AcDbEntity
  8
DRAFT
100
AcDbEllipse
 62
7
  6
CONTINUOUS
 10
19.733372772
 20
9.5189316704
 30
0.0
 11
1.0229917131
 21
1.834161488
 31
0.0
 40
0.5671693725
 41
0.7770191891
 42
1.9064541822
  0
ELLIPSE
  5
6BE
100
AcDbEntity
  8
DRAFT
100
AcDbEllipse
 62
7
  6
CONTINUOUS
 10
19.733372772
 20
9.5189316704
 30
0.0
 11
1.0229917131
 21
1.834161488
 31
0.0
 40
0.5671693725
 41
2.7891768496
 42
3.9186118427
  0
ELLIPSE
  5
6BF
100
AcDbEntity
  8
DRAFT
100
AcDbEllipse
 62
7
  6
CONTINUOUS
 10
19.6986345626
 20
13.5805130017
 30
0.0
 11
1.0229917131
 21
1.834161488
 31
0.0
 40
0.5671693725
 41
2.7889461066
 42
3.9186118427
  0
ELLIPSE
  5
6C0
100
AcDbEntity
  8
0
100
AcDbEllipse
 62
7
  6
CONTINUOUS
 10
7.2321845946
 20
-14.2849620911
 30
0.0
 11
0.368556493
 21
0.6607992196
 31
0.0
 40
0.5671693725
 41
0.7857458354
 42
3.9098851964
  0
ELLIPSE
  5
6C1
100
AcDbEntity
  8
0
100
AcDbEllipse
 62
7
  6
CONTINUOUS
 10
7.2321845946
 20
-10.2026107071
 30
0.0
 11
0.368556493
 21
0.6607992196
 31
0.0
 40
0.5671693725
 41
0.7857458354
 42
3.9098851964
  0
ELLIPSE
  5
6C2
100
AcDbEntity
  8
0
100
AcDbEllipse
 62
7
  6
CONTINUOUS
 10
7.2321845946
 20
-6.1202593232
 30
0.0
 11
0.368556493
 21
0.6607992196
 31
0.0
 40
0.5671693725
 41
0.7857458354
 42
3.9098851964
  0
ELLIPSE
  5
6C3
100
AcDbEntity
  8
0
100
AcDbEllipse
 62
7
  6
CONTINUOUS
 10
7.2321845946
 20
-2.0379079392
 30
0.0
 11
0.368556493
 21
0.6607992196
 31
0.0
 40
0.5671693725
 41
0.7857458354
 42
3.9098851964
  0
ELLIPSE
  5
6C4
100
AcDbEntity
  8
0
100
AcDbEllipse
 62
7
  6
CONTINUOUS
 10
7.2321845946
 20
2.0444434447
 30
0.0
 11
0.368556493
 21
0.6607992196
 31
0.0
 40
0.5671693725
 41
0.7857458354
 42
3.9098851964
  0
ELLIPSE
  5
6C5
100
AcDbEntity
  8
0
100
AcDbEllipse
 62
7
  6
CONTINUOUS
 10
7.2321845946
 20
6.1267948287
 30
0.0
 11
0.368556493
 21
0.6607992196
 31
0.0
 40
0.5671693725
 41
0.7857458354
 42
3.9098851964
  0
ENDSEC
  0
SECTION
  2
OBJECTS
  0
DICTIONARY
  5
C
100
AcDbDictionary
280
0
281
1
  3
ACAD_GROUP
350
D
  3
ACAD_MLINESTYLE
350
17
  3
ACAD_LAYOUT
350
1A
  3
ACAD_PLOTSETTINGS
350
19
  3
ACAD_PLOTSTYLENAME
350
E
  0
DICTIONARY
  5
D
102
{ACAD_REACTORS
330
C
102
}
100
AcDbDictionary
280
0
281
1
  0
ACDBDICTIONARYWDFLT
  5
E
102
{ACAD_REACTORS
330
C
102
}
100
AcDbDictionary
281
1
  3
Normal
350
F
100
AcDbDictionaryWithDefault
340
F
  0
DICTIONARY
  5
17
102
{ACAD_REACTORS
330
C
102
}
100
AcDbDictionary
280
0
281
1
  3
Standard
350
18
  0
DICTIONARY
  5
19
102
{ACAD_REACTORS
330
C
102
}
100
AcDbDictionary
281
1
  0
DICTIONARY
  5
1A
102
{ACAD_REACTORS
330
C
102
}
100
AcDbDictionary
281
1
  3
Model
350
6C6
  3
Layout1
350
6C7
  0
ACDBPLACEHOLDER
  5
F
102
{ACAD_REACTORS
330
E
102
}
  0
MLINESTYLE
  5
18
102
{ACAD_REACTORS
330
17
102
}
100
AcDbMlineStyle
  2
STANDARD
 70
0
  3

 62
256
 51
90.0
 52
90.0
 71
2
 49
0.5
 62
256
  6
BYLAYER
 49
-0.5
 62
256
  6
BYLAYER
  0
LAYOUT
  5
6C6
102
{ACAD_REACTORS
330
1A
102
}
100
AcDbPlotSettings
  1

  2
none_device
  4
ISO_A4_(297.00_x_210.00_MM)
  6

 40
0.0
 41
0.0
 42
0.0
 43
0.0
 44
297.0
 45
210.0
 46
0.0
 47
0.0
 48
0.0
 49
0.0
140
0.0
141
0.0
142
1.0
143
1.0
 70
1024
 72
1
 73
0
 74
0
  7

 75
0
147
1.0
148
0.0
149
0.0
100
AcDbLayout
  1
Model
 70
0
 71
0
 10
0.0
 20
0.0
 11
297.0
 21
210.0
 12
0.0
 22
0.0
 32
0.0
 14
0.0
 24
0.0
 34
0.0
 15
0.0
 25
0.0
 35
0.0
146
0.0
 13
0.0
 23
0.0
 33
0.0
 16
1.0
 26
0.0
 36
0.0
 17
0.0
 27
1.0
 37
0.0
 76
0
330
26C
345
0
346
0
  0
LAYOUT
  5
6C7
102
{ACAD_REACTORS
330
1A
102
}
100
AcDbPlotSettings
  1

  2
none_device
  4
ISO_A4_(297.00_x_210.00_MM)
  6

 40
0.0
 41
0.0
 42
0.0
 43
0.0
 44
297.0
 45
210.0
 46
0.0
 47
0.0
 48
0.0
 49
0.0
140
0.0
141
0.0
142
1.0
143
1.0
 70
0
 72
1
 73
0
 74
0
  7

 75
0
147
1.0
148
0.0
149
0.0
100
AcDbLayout
  1
Layout1
 70
0
 71
1
 10
0.0
 20
0.0
 11
297.0
 21
210.0
 12
0.0
 22
0.0
 32
0.0
 14
0.0
 24
0.0
 34
0.0
 15
0.0
 25
0.0
 35
0.0
146
0.0
 13
0.0
 23
0.0
 33
0.0
 16
1.0
 26
0.0
 36
0.0
 17
0.0
 27
1.0
 37
0.0
 76
0
330
26D
345
0
346
0
  0
ENDSEC
  0
EOF
