  0
SECTION
  2
HEADER
  9
$ACADVER
  1
AC1015
  9
$DWGCODEPAGE
  3
ANSI_1252
  9
$EXTMAX
 10
558.8
 20
431.8
 30
0.0
  9
$EXTMIN
 10
0.0
 20
0.0
 30
0.0
  9
$LIMMIN
 10
0.0
 20
0.0
  9
$LIMMAX
 10
558.8
 20
431.8
  9
$VIEWCTR
 10
279.4
 20
215.9
  9
$VIEWSIZE
 40
431.8
  9
$CLAYER
  8
0
  9
$LTSCALE
 40
30.734
  9
$CELTYPE
  6
BYLAYER
  9
$DIMSCALE
 40
1.0
  9
$DIMASZ
 40
3.0
  9
$DIMEXO
 40
3.4925
  9
$DIMDLI
 40
21.2344
  9
$DIMEXE
 40
10.0584
  9
$DIMCEN
 40
5.0292
  9
$DIMLFAC
 40
1.0
  9
$DIMBLK
  1
_FILLED
  9
$DIMTXT
 40
3.0
  9
$DIMTOL
 70
1
  9
$DIMLIM
 70
0
  9
$DIMTFAC
 40
1.0
  9
$DIMTP
 40
0.01
  9
$DIMTM
 40
0.01
  9
$PDMODE
 70
3
  9
$PDSIZE
 40
3.0
  9
$HANDSEED
  5
479
  9
$TILEMODE
 70
1
  9
$MEASUREMENT
 70
1
  9
$INSUNITS
 70
4
  0
ENDSEC
  0
SECTION
  2
CLASSES
  0
CLASS
  1
ACDBDICTIONARYWDFLT
  2
AcDbDictionaryWithDefault
  3
AutoCAD 2000
 90
0
280
0
281
0
  0
CLASS
  1
ACDBPLACEHOLDER
  2
AcDbPlaceHolder
  3
AutoCAD 2000
 90
0
280
0
281
0
  0
CLASS
  1
LAYOUT
  2
AcDbLayout
  3
AutoCAD 2000
 90
0
280
0
281
0
  0
ENDSEC
  0
SECTION
  2
TABLES
  0
TABLE
  2
VPORT
  5
8
100
AcDbSymbolTable
 70
2
  0
VPORT
  5
1F4
100
AcDbSymbolTableRecord
100
AcDbViewportTableRecord
  2
*ACTIVE
 70
0
 10
0.0
 20
0.0
 11
1.0
 21
1.0
 12
279.4
 22
215.9
 13
0.0
 23
0.0
 14
1.0
 24
1.0
 15
0.0
 25
0.0
 16
0.0
 26
0.0
 36
1.0
 17
0.0
 27
0.0
 37
0.0
 40
431.8
 41
1.2941176471
 42
50.0
 43
0.0
 44
0.0
 50
0.0
 51
0.0
 71
0
 72
100
 73
1
 74
1
 75
0
 76
0
 77
0
 78
0
  0
ENDTAB
  0
TABLE
  2
LTYPE
  5
5
100
AcDbSymbolTable
 70
6
  0
LTYPE
  5
14
100
AcDbSymbolTableRecord
100
AcDbLinetypeTableRecord
  2
BYBLOCK
 70
0
  3

 72
65
 73
0
 40
0.0
  0
LTYPE
  5
15
100
AcDbSymbolTableRecord
100
AcDbLinetypeTableRecord
  2
BYLAYER
 70
0
  3

 72
65
 73
0
 40
0.0
  0
LTYPE
  5
16
100
AcDbSymbolTableRecord
100
AcDbLinetypeTableRecord
  2
CONTINUOUS
 70
64
  3
Solid line
 72
65
 73
0
 40
0.0
  0
LTYPE
  5
1F5
100
AcDbSymbolTableRecord
100
AcDbLinetypeTableRecord
  2
CENTER
 70
64
  3
____ _ ____ _ ____ _ ____ _ ____ _ ____ _ ____
 72
65
 73
4
 40
0.6
 49
0.375
 74
0
 49
-0.075
 74
0
 49
0.075
 74
0
 49
-0.075
 74
0
  0
LTYPE
  5
1F6
100
AcDbSymbolTableRecord
100
AcDbLinetypeTableRecord
  2
HIDDEN
 70
64
  3
- - - - - - - - - - - - - - - - - - - -
 72
65
 73
2
 40
0.2
 49
0.1
 74
0
 49
-0.1
 74
0
  0
LTYPE
  5
1F7
100
AcDbSymbolTableRecord
100
AcDbLinetypeTableRecord
  2
PHANTOM
 70
64
  3
_____ _ _ _____ _ _ _____ _ _ _____
 72
65
 73
6
 40
0.8
 49
0.45
 74
0
 49
-0.05
 74
0
 49
0.1
 74
0
 49
-0.05
 74
0
 49
0.1
 74
0
 49
-0.05
 74
0
  0
LTYPE
  5
1F8
100
AcDbSymbolTableRecord
100
AcDbLinetypeTableRecord
  2
DOT
 70
64
  3
. . . . . . . . . . . . . . . . . . . .
 72
65
 73
2
 40
0.2
 49
0.1
 74
0
 49
-0.1
 74
0
  0
LTYPE
  5
1F9
100
AcDbSymbolTableRecord
100
AcDbLinetypeTableRecord
  2
DASHED
 70
64
  3
- - - - - - - - - - - - - - - - - - - -
 72
65
 73
2
 40
0.2
 49
0.1
 74
0
 49
-0.1
 74
0
  0
ENDTAB
  0
TABLE
  2
LAYER
  5
2
100
AcDbSymbolTable
 70
36
  0
LAYER
  5
10
100
AcDbSymbolTableRecord
100
AcDbLayerTableRecord
  2
0
 70
0
 62
7
  6
CONTINUOUS
370
-3
390
F
  0
LAYER
  5
1FA
100
AcDbSymbolTableRecord
100
AcDbLayerTableRecord
  2
DEFAULT_1
 70
0
 62
7
  6
CENTER
370
-3
390
F
  0
LAYER
  5
1FB
100
AcDbSymbolTableRecord
100
AcDbLayerTableRecord
  2
DEFAULT_2
 70
0
 62
7
  6
HIDDEN
370
-3
390
F
  0
LAYER
  5
1FC
100
AcDbSymbolTableRecord
100
AcDbLayerTableRecord
  2
DEFAULT_3
 70
0
 62
7
  6
PHANTOM
370
-3
390
F
  0
LAYER
  5
1FD
100
AcDbSymbolTableRecord
100
AcDbLayerTableRecord
  2
ASSI
 70
0
 62
7
  6
CONTINUOUS
370
-3
390
F
  0
LAYER
  5
1FE
100
AcDbSymbolTableRecord
100
AcDbLayerTableRecord
  2
COORDINATE
 70
0
 62
7
  6
CONTINUOUS
370
-3
390
F
  0
LAYER
  5
1FF
100
AcDbSymbolTableRecord
100
AcDbLayerTableRecord
  2
COORD_ORIGINE
 70
0
 62
7
  6
CONTINUOUS
370
-3
390
F
  0
LAYER
  5
200
100
AcDbSymbolTableRecord
100
AcDbLayerTableRecord
  2
COPY_PUBLISH
 70
0
 62
7
  6
CONTINUOUS
370
-3
390
F
  0
LAYER
  5
201
100
AcDbSymbolTableRecord
100
AcDbLayerTableRecord
  2
COSMETIC
 70
0
 62
7
  6
CONTINUOUS
370
-3
390
F
  0
LAYER
  5
202
100
AcDbSymbolTableRecord
100
AcDbLayerTableRecord
  2
COSMETICI
 70
0
 62
7
  6
CONTINUOUS
370
-3
390
F
  0
LAYER
  5
203
100
AcDbSymbolTableRecord
100
AcDbLayerTableRecord
  2
CURVE
 70
0
 62
7
  6
CONTINUOUS
370
-3
390
F
  0
LAYER
  5
204
100
AcDbSymbolTableRecord
100
AcDbLayerTableRecord
  2
DRAFT
 70
0
 62
7
  6
CONTINUOUS
370
-3
390
F
  0
LAYER
  5
205
100
AcDbSymbolTableRecord
100
AcDbLayerTableRecord
  2
IMPORT_IGES
 70
0
 62
7
  6
CONTINUOUS
370
-3
390
F
  0
LAYER
  5
206
100
AcDbSymbolTableRecord
100
AcDbLayerTableRecord
  2
NOTE
 70
0
 62
7
  6
CONTINUOUS
370
-3
390
F
  0
LAYER
  5
207
100
AcDbSymbolTableRecord
100
AcDbLayerTableRecord
  2
PIANI
 70
0
 62
7
  6
CONTINUOUS
370
-3
390
F
  0
LAYER
  5
208
100
AcDbSymbolTableRecord
100
AcDbLayerTableRecord
  2
PIANI_ORIGINE
 70
0
 62
7
  6
CONTINUOUS
370
-3
390
F
  0
LAYER
  5
209
100
AcDbSymbolTableRecord
100
AcDbLayerTableRecord
  2
PIANI_RIFERIMENTO
 70
0
 62
7
  6
CONTINUOUS
370
-3
390
F
  0
LAYER
  5
20A
100
AcDbSymbolTableRecord
100
AcDbLayerTableRecord
  2
PUNTI
 70
0
 62
7
  6
CONTINUOUS
370
-3
390
F
  0
LAYER
  5
20B
100
AcDbSymbolTableRecord
100
AcDbLayerTableRecord
  2
RACCORDO
 70
0
 62
7
  6
CONTINUOUS
370
-3
390
F
  0
LAYER
  5
20C
100
AcDbSymbolTableRecord
100
AcDbLayerTableRecord
  2
SMUSSO
 70
0
 62
7
  6
CONTINUOUS
370
-3
390
F
  0
LAYER
  5
20D
100
AcDbSymbolTableRecord
100
AcDbLayerTableRecord
  2
SUPERFICI
 70
0
 62
7
  6
CONTINUOUS
370
-3
390
F
  0
LAYER
  5
20E
100
AcDbSymbolTableRecord
100
AcDbLayerTableRecord
  2
TRASH
 70
0
 62
7
  6
CONTINUOUS
370
-3
390
F
  0
ENDTAB
  0
TABLE
  2
STYLE
  5
3
100
AcDbSymbolTable
 70
1
  0
STYLE
  5
11
100
AcDbSymbolTableRecord
100
AcDbTextStyleTableRecord
  2
STANDARD
 70
0
 40
0.0
 41
0.8
 50
0.0
 71
0
 42
0.2
  3
txt
  4

  0
STYLE
  5
20F
100
AcDbSymbolTableRecord
100
AcDbTextStyleTableRecord
  2
TEXTSTYLE_1
 70
0
 40
0.0
 41
0.8
 50
0.0
 71
0
 42
0.2
  3
gdt
  4

  0
ENDTAB
  0
TABLE
  2
VIEW
  5
6
100
AcDbSymbolTable
 70
0
  0
ENDTAB
  0
TABLE
  2
UCS
  5
7
100
AcDbSymbolTable
 70
0
  0
ENDTAB
  0
TABLE
  2
APPID
  5
9
100
AcDbSymbolTable
 70
1
  0
APPID
  5
210
100
AcDbSymbolTableRecord
100
AcDbRegAppTableRecord
  2
ACAD
 70
0
  0
ENDTAB
  0
TABLE
  2
BLOCK_RECORD
  5
1
100
AcDbSymbolTable
 70
0
  0
BLOCK_RECORD
  5
211
100
AcDbSymbolTableRecord
100
AcDbBlockTableRecord
  2
*Model_Space
  0
BLOCK_RECORD
  5
212
100
AcDbSymbolTableRecord
100
AcDbBlockTableRecord
  2
*Paper_Space
  0
ENDTAB
  0
TABLE
  2
DIMSTYLE
  5
A
100
AcDbSymbolTable
 70
1
100
AcDbDimStyleTable
 71
0
  0
DIMSTYLE
105
213
100
AcDbSymbolTableRecord
100
AcDbDimStyleTableRecord
  2
STANDARD
 70
0
  3

  4

 40
1.0
 41
3.0
 42
0.0625
 43
0.38
 44
0.18
 45
0.0
 46
0.0
 47
0.01
 48
0.01
140
3.0
141
0.09
142
0.0
143
25.4
144
1.0
145
0.0
146
1.0
147
0.09
 71
1.0
 72
0.0
 73
0
 74
0
 75
0
 76
0
 77
1
 78
8
170
0
171
2
172
0
173
0
174
0
175
0
176
0
177
0
178
0
270
2
271
2
272
2
273
2
274
2
275
0
280
0
281
0
282
0
283
1
284
8
285
0
286
0
287
3
288
0
340
11
  0
ENDTAB
  0
ENDSEC
  0
SECTION
  2
BLOCKS
  0
BLOCK
  5
20
100
AcDbEntity
  8
0
100
AcDbBlockBegin
  2
*Model_Space
 70
0
 10
0.0
 20
0.0
 30
0.0
  3
*Model_Space
  1

  0
ENDBLK
  5
21
100
AcDbEntity
  8
0
100
AcDbBlockEnd
  0
BLOCK
  5
1C
100
AcDbEntity
  8
0
100
AcDbBlockBegin
  2
*Paper_Space
 70
0
 10
0.0
 20
0.0
 30
0.0
  3
*Paper_Space
  1

  0
ENDBLK
  5
1D
100
AcDbEntity
  8
0
100
AcDbBlockEnd
  0
ENDSEC
  0
SECTION
  2
ENTITIES
  0
LINE
  5
214
100
AcDbEntity
  8
RACCORDO
100
AcDbLine
 62
7
  6
CONTINUOUS
 10
-12.8740808396
 20
22.7457750396
 11
-12.878396685
 21
22.743323225
  0
LINE
  5
215
100
AcDbEntity
  8
RACCORDO
100
AcDbLine
 62
7
  6
CONTINUOUS
 10
-12.8778827829
 20
22.7435993968
 11
-16.098014969
 21
21.0062642071
  0
LINE
  5
216
100
AcDbEntity
  8
RACCORDO
100
AcDbLine
 62
253
  6
CONTINUOUS
 10
-12.9953110122
 20
22.6127746806
 11
-15.9823941926
 21
21.001174776
  0
LINE
  5
217
100
AcDbEntity
  8
RACCORDO
100
AcDbLine
 62
7
  6
CONTINUOUS
 10
-11.0552952734
 20
25.112517932
 11
-12.467910411
 21
24.3811150336
  0
LINE
  5
218
100
AcDbEntity
  8
RACCORDO
100
AcDbLine
 62
253
  6
CONTINUOUS
 10
-10.9422686624
 20
25.1060227942
 11
-12.3529629527
 21
24.3756144436
  0
LINE
  5
219
100
AcDbEntity
  8
RACCORDO
100
AcDbLine
 62
253
  6
CONTINUOUS
 10
-11.3083536141
 20
23.8623470746
 11
-9.8816354187
 21
24.5757061723
  0
LINE
  5
21A
100
AcDbEntity
  8
RACCORDO
100
AcDbLine
 62
253
  6
CONTINUOUS
 10
-11.1315769188
 20
23.557452376
 11
-9.7048587234
 21
24.2708114737
  0
LWPOLYLINE
  5
21B
100
AcDbEntity
  8
RACCORDO
100
AcDbPolyline
 62
7
  6
CONTINUOUS
 90
16
 70
0
 10
-18.2467635191
 20
15.9418981096
 10
-18.2588604239
 20
15.9328387484
 10
-18.3233313726
 20
15.8797218706
 10
-18.3846103374
 20
15.8210493768
 10
-18.442446527
 20
15.7573684151
 10
-18.4966427802
 20
15.6891583108
 10
-18.5469398644
 20
15.6169079855
 10
-18.5930787629
 20
15.5411510839
 10
-18.634770438
 20
15.4624058931
 10
-18.6717082166
 20
15.3812715678
 10
-18.7036442952
 20
15.2983013357
 10
-18.7303019153
 20
15.2140312851
 10
-18.7514320936
 20
15.1290155537
 10
-18.7667807355
 20
15.0437413209
 10
-18.7760764125
 20
14.9587375583
 10
-18.7785446722
 20
14.9115930601
  0
LINE
  5
21C
100
AcDbEntity
  8
RACCORDO
100
AcDbLine
 62
7
  6
CONTINUOUS
 10
-18.2468843124
 20
15.9418288291
 11
-15.9308167589
 21
17.6500611444
  0
LINE
  5
21D
100
AcDbEntity
  8
RACCORDO
100
AcDbLine
 62
253
  6
CONTINUOUS
 10
-18.1291882736
 20
15.9385022566
 11
-15.8061537846
 21
17.6518730854
  0
LWPOLYLINE
  5
21E
100
AcDbEntity
  8
RACCORDO
100
AcDbPolyline
 62
7
  6
CONTINUOUS
 90
12
 70
0
 10
-10.1713736258
 20
21.7318493448
 10
-10.2234521465
 20
21.7026649308
 10
-10.2709682833
 20
21.6705729923
 10
-10.3132162558
 20
21.6361596914
 10
-10.3503760503
 20
21.5995263182
 10
-10.3825991843
 20
21.5606892492
 10
-10.4097941827
 20
21.5198361183
 10
-10.4318315952
 20
21.4772471155
 10
-10.4486213743
 20
21.4332566352
 10
-10.4600698561
 20
21.3883202108
 10
-10.4661394202
 20
21.3429292401
 10
-10.4672111701
 20
21.3144103364
  0
LINE
  5
21F
100
AcDbEntity
  8
RACCORDO
100
AcDbLine
 62
253
  6
CONTINUOUS
 10
-11.1315769188
 20
22.5310491623
 11
-9.7048587234
 21
23.2749086434
  0
LINE
  5
220
100
AcDbEntity
  8
RACCORDO
100
AcDbLine
 62
253
  6
CONTINUOUS
 10
-10.9876874196
 20
22.2883938549
 11
-9.563423905
 21
23.0309597694
  0
LINE
  5
221
100
AcDbEntity
  8
RACCORDO
100
AcDbLine
 62
7
  6
CONTINUOUS
 10
-3.776962375
 20
26.0482789777
 11
-9.6060111392
 21
23.0606485089
  0
LINE
  5
222
100
AcDbEntity
  8
RACCORDO
100
AcDbLine
 62
253
  6
CONTINUOUS
 10
-3.6882064802
 20
26.0422399704
 11
-9.563423905
 21
23.0309597694
  0
LINE
  5
223
100
AcDbEntity
  8
RACCORDO
100
AcDbLine
 62
7
  6
CONTINUOUS
 10
-10.1713512732
 20
21.731867545
 11
-7.8448671343
 21
22.9177925661
  0
LINE
  5
224
100
AcDbEntity
  8
RACCORDO
100
AcDbLine
 62
253
  6
CONTINUOUS
 10
-10.058585296
 20
21.7252547625
 11
-7.8773856341
 21
22.8371210383
  0
LINE
  5
225
100
AcDbEntity
  8
RACCORDO
100
AcDbLine
 62
253
  6
CONTINUOUS
 10
-6.2394441477
 20
23.6720615218
 11
-3.5087285414
 21
25.0640434868
  0
LINE
  5
226
100
AcDbEntity
  8
RACCORDO
100
AcDbLine
 62
7
  6
CONTINUOUS
 10
-6.3966583493
 20
23.6560168271
 11
-3.6211202413
 21
25.0708450261
  0
LINE
  5
227
100
AcDbEntity
  8
0
100
AcDbLine
 62
7
  6
CONTINUOUS
 10
-7.4421170236
 20
23.3734442411
 11
-7.078548891
 21
23.5552283074
  0
LINE
  5
228
100
AcDbEntity
  8
RACCORDO
100
AcDbLine
 62
7
  6
CONTINUOUS
 10
-3.6211202416
 20
25.0708450259
 11
-1.9045260924
 21
25.9274513611
  0
LINE
  5
229
100
AcDbEntity
  8
RACCORDO
100
AcDbLine
 62
253
  6
CONTINUOUS
 10
-3.5087218103
 20
25.0640401212
 11
-1.9927718464
 21
25.8205219859
  0
LINE
  5
22A
100
AcDbEntity
  8
RACCORDO
100
AcDbLine
 62
7
  6
CONTINUOUS
 10
-4.5189614496
 20
22.8448332619
 11
-4.8490604708
 21
22.6785110096
  0
LINE
  5
22B
100
AcDbEntity
  8
RACCORDO
100
AcDbLine
 62
7
  6
CONTINUOUS
 10
-6.8041176775
 20
21.6934444175
 11
-9.1583764968
 21
20.5072378428
  0
LINE
  5
22C
100
AcDbEntity
  8
RACCORDO
100
AcDbLine
 62
253
  6
CONTINUOUS
 10
-9.3328124208
 20
21.3572506574
 11
-7.7129900567
 21
22.1478806071
  0
LINE
  5
22D
100
AcDbEntity
  8
RACCORDO
100
AcDbLine
 62
253
  6
CONTINUOUS
 10
-4.1543049881
 20
23.8848630436
 11
-2.6342425617
 21
24.6268004969
  0
LINE
  5
22E
100
AcDbEntity
  8
RACCORDO
100
AcDbLine
 62
253
  6
CONTINUOUS
 10
-9.1583764968
 20
21.0512145581
 11
-7.3170999598
 21
21.9499355586
  0
LINE
  5
22F
100
AcDbEntity
  8
RACCORDO
100
AcDbLine
 62
253
  6
CONTINUOUS
 10
-3.1409974001
 20
23.9882774348
 11
-2.457452402
 21
24.3219134923
  0
LINE
  5
230
100
AcDbEntity
  8
RACCORDO
100
AcDbLine
 62
253
  6
CONTINUOUS
 10
-2.5989060716
 20
24.6091322519
 11
-1.0497355282
 21
25.3490038267
  0
LINE
  5
231
100
AcDbEntity
  8
RACCORDO
100
AcDbLine
 62
253
  6
CONTINUOUS
 10
-2.0826028109
 20
24.5442106919
 11
-0.5420527754
 21
25.2799651805
  0
LINE
  5
232
100
AcDbEntity
  8
RACCORDO
100
AcDbLine
 62
7
  6
CONTINUOUS
 10
-1.1048132462
 20
-23.213803114
 11
1.2974402393
 21
-22.563768522
  0
LINE
  5
233
100
AcDbEntity
  8
RACCORDO
100
AcDbLine
 62
253
  6
CONTINUOUS
 10
-0.9964486399
 20
-23.0623994093
 11
1.3810302559
 21
-22.4190686645
  0
LWPOLYLINE
  5
234
100
AcDbEntity
  8
RACCORDO
100
AcDbPolyline
 62
7
  6
CONTINUOUS
 90
10
 70
0
 10
-1.5296892129
 20
-23.1789704267
 10
-1.4991854738
 20
-23.1930773488
 10
-1.4535509222
 20
-23.2101210444
 10
-1.4058048624
 20
-23.2232205531
 10
-1.3564080807
 20
-23.2321353137
 10
-1.3056332493
 20
-23.2367467726
 10
-1.2537243685
 20
-23.2369614107
 10
-1.2010755615
 20
-23.2327198106
 10
-1.1479578814
 20
-23.224031222
 10
-1.1049050683
 20
-23.2138077154
  0
LINE
  5
235
100
AcDbEntity
  8
RACCORDO
100
AcDbLine
 62
7
  6
CONTINUOUS
 10
0.9125608897
 20
-26.0848692073
 11
-16.0911124128
 21
-17.5830325561
  0
LINE
  5
236
100
AcDbEntity
  8
RACCORDO
100
AcDbLine
 62
253
  6
CONTINUOUS
 10
0.8475875933
 20
-25.9496507572
 11
-16.1560857092
 21
-17.447814106
  0
LINE
  5
237
100
AcDbEntity
  8
RACCORDO
100
AcDbLine
 62
7
  6
CONTINUOUS
 10
-16.2112205935
 20
-15.8410786522
 11
-3.5540092103
 21
-22.1696843438
  0
LINE
  5
238
100
AcDbEntity
  8
RACCORDO
100
AcDbLine
 62
7
  6
CONTINUOUS
 10
-18.4493967777
 20
-14.7191318984
 11
-16.5451034335
 21
-15.6712785705
  0
LINE
  5
239
100
AcDbEntity
  8
RACCORDO
100
AcDbLine
 62
7
  6
CONTINUOUS
 10
-3.4337466066
 20
-22.226956984
 11
-1.5294532624
 21
-23.1791036561
  0
LINE
  5
23A
100
AcDbEntity
  8
RACCORDO
100
AcDbLine
 62
253
  6
CONTINUOUS
 10
0.9125611039
 20
-26.0848693144
 11
0.9124054026
 21
-26.0847912834
  0
LWPOLYLINE
  5
23B
100
AcDbEntity
  8
RACCORDO
100
AcDbPolyline
 62
7
  6
CONTINUOUS
 90
3
 70
0
 10
-18.7785356477
 20
-14.1249950089
 10
-18.778099635
 20
-14.1364707559
 10
-18.7717851543
 20
-14.2126777555
  0
LWPOLYLINE
  5
23C
100
AcDbEntity
  8
RACCORDO
100
AcDbPolyline
 62
7
  6
CONTINUOUS
 90
10
 70
0
 10
-18.7785542044
 20
14.9116557741
 10
-18.8681224681
 20
11.6893659744
 10
-18.9368244353
 20
8.4129633941
 10
-18.9826229182
 20
5.1477700037
 10
-19.0055124615
 20
1.8940732232
 10
-19.0054919674
 20
-1.3478889868
 10
-18.9825611942
 20
-4.5778974277
 10
-18.9367207342
 20
-7.7957152238
 10
-18.8679755399
 20
-11.001060539
 10
-18.778545987
 20
-14.1250431547
  0
LINE
  5
23D
100
AcDbEntity
  8
RACCORDO
100
AcDbLine
 62
7
  6
CONTINUOUS
 10
-2.3551503511
 20
22.3508075208
 11
-3.1157523456
 21
21.9474071146
  0
LINE
  5
23E
100
AcDbEntity
  8
RACCORDO
100
AcDbLine
 62
7
  6
CONTINUOUS
 10
-6.2642406258
 20
20.2775436903
 11
-6.7350102424
 21
20.0278616543
  0
LINE
  5
23F
100
AcDbEntity
  8
0
100
AcDbLine
 62
253
  6
CONTINUOUS
 10
4.1482271156
 20
24.5979496292
 11
4.1490564568
 21
24.5983267948
  0
LINE
  5
240
100
AcDbEntity
  8
0
100
AcDbLine
 62
7
  6
CONTINUOUS
 10
1.2227533107
 20
23.2776173786
 11
4.1470702556
 21
24.5974303758
  0
LINE
  5
241
100
AcDbEntity
  8
0
100
AcDbLine
 62
253
  6
CONTINUOUS
 10
1.4650478739
 20
23.1564700971
 11
3.9246911261
 21
24.2665652344
  0
LWPOLYLINE
  5
242
100
AcDbEntity
  8
RACCORDO
100
AcDbPolyline
 62
7
  6
CONTINUOUS
 90
6
 70
0
 10
-16.5452280544
 20
-15.6712043266
 10
-16.5155086216
 20
-15.6849565732
 10
-16.4692270434
 20
-15.7021991461
 10
-16.4207947832
 20
-15.715309618
 10
-16.3707174372
 20
-15.7240443615
 10
-16.3479018712
 20
-15.7259261583
  0
LINE
  5
243
100
AcDbEntity
  8
RACCORDO
100
AcDbLine
 62
253
  6
CONTINUOUS
 10
-16.4705616516
 20
-15.3341454816
 11
-3.8133502684
 21
-21.6627511732
  0
LINE
  5
244
100
AcDbEntity
  8
RACCORDO
100
AcDbLine
 62
253
  6
CONTINUOUS
 10
-18.705314589
 20
-14.2138577047
 11
-16.8053024026
 21
-15.1638637979
  0
LINE
  5
245
100
AcDbEntity
  8
RACCORDO
100
AcDbLine
 62
253
  6
CONTINUOUS
 10
-3.6922332637
 20
-21.7203983674
 11
-1.7922210773
 21
-22.6704044606
  0
LINE
  5
246
100
AcDbEntity
  8
RACCORDO
100
AcDbLine
 62
7
  6
CONTINUOUS
 10
-0.2882892217
 20
-22.9928568798
 11
0.8475875933
 21
-23.5607952873
  0
LINE
  5
247
100
AcDbEntity
  8
DRAFT
100
AcDbLine
 62
7
  6
CONTINUOUS
 10
0.1705172848
 20
-22.8687067424
 11
1.3810302559
 21
-23.473963228
  0
LWPOLYLINE
  5
248
100
AcDbEntity
  8
RACCORDO
100
AcDbPolyline
 62
7
  6
CONTINUOUS
 90
11
 70
0
 10
-18.7717851543
 20
-14.2126777555
 10
-18.7596845572
 20
-14.2855556113
 10
-18.7418191172
 20
-14.3549260781
 10
-18.7183152957
 20
-14.4203475351
 10
-18.6895165628
 20
-14.4810466753
 10
-18.6558060975
 20
-14.5365605956
 10
-18.6174112756
 20
-14.5868538575
 10
-18.5746304208
 20
-14.6317099405
 10
-18.5279061506
 20
-14.6707841369
 10
-18.4777422779
 20
-14.7038302547
 10
-18.4494985438
 20
-14.7190658234
  0
LINE
  5
249
100
AcDbEntity
  8
0
100
AcDbLine
 62
7
  6
CONTINUOUS
 10
-0.0115944519
 20
20.2597780002
 11
0.0763932634
 21
20.3122078381
  0
LINE
  5
24A
100
AcDbEntity
  8
0
100
AcDbLine
 62
253
  6
CONTINUOUS
 10
0.2787664345
 20
20.1347483413
 11
0.5508906368
 21
20.2969008391
  0
LINE
  5
24B
100
AcDbEntity
  8
RACCORDO
100
AcDbLine
 62
253
  6
CONTINUOUS
 10
-1.0540950617
 20
18.6603238463
 11
-0.8959857985
 21
18.7393784779
  0
LINE
  5
24C
100
AcDbEntity
  8
0
100
AcDbLine
 62
7
  6
CONTINUOUS
 10
6.7735216883
 20
-16.9193524846
 11
6.7546532464
 21
-16.9246690536
  0
LINE
  5
24D
100
AcDbEntity
  8
0
100
AcDbLine
 62
7
  6
CONTINUOUS
 10
6.4171758877
 20
-17.0113297726
 11
6.7545076025
 21
-16.9247339689
  0
LINE
  5
24E
100
AcDbEntity
  8
0
100
AcDbLine
 62
253
  6
CONTINUOUS
 10
7.434902516
 20
-16.2696978584
 11
6.4338104466
 21
-16.5266863612
  0
LINE
  5
24F
100
AcDbEntity
  8
RACCORDO
100
AcDbLine
 62
7
  6
CONTINUOUS
 10
-3.996814912
 20
-17.0381812494
 11
-16.652326021
 21
-10.7104256949
  0
LINE
  5
250
100
AcDbEntity
  8
RACCORDO
100
AcDbLine
 62
253
  6
CONTINUOUS
 10
-3.8193936641
 20
-17.0492605533
 11
-16.9335766907
 21
-10.49216904
  0
LWPOLYLINE
  5
251
100
AcDbEntity
  8
RACCORDO
100
AcDbPolyline
 62
7
  6
CONTINUOUS
 90
14
 70
0
 10
-3.9972918203
 20
-17.0379429886
 10
-3.9930543363
 20
-17.0401258481
 10
-3.9753863361
 20
-17.0506991566
 10
-3.9592845107
 20
-17.062719985
 10
-3.9448341419
 20
-17.0759342939
 10
-3.9320635852
 20
-17.0901144591
 10
-3.9209361131
 20
-17.1051057036
 10
-3.9114486662
 20
-17.1207213738
 10
-3.9035941828
 20
-17.1367588011
 10
-3.8973241473
 20
-17.1530760318
 10
-3.8925892091
 20
-17.1695342903
 10
-3.8893404876
 20
-17.1859639651
 10
-3.8875102584
 20
-17.2021988593
 10
-3.8870538509
 20
-17.2119350009
  0
LINE
  5
252
100
AcDbEntity
  8
RACCORDO
100
AcDbLine
 62
7
  6
CONTINUOUS
 10
-16.2293090139
 20
-17.3594257584
 11
-16.2293090139
 21
-15.8307860982
  0
LINE
  5
253
100
AcDbEntity
  8
RACCORDO
100
AcDbLine
 62
7
  6
CONTINUOUS
 10
-16.2293090139
 20
17.9946867066
 11
-16.2293090139
 21
20.7862439894
  0
LINE
  5
254
100
AcDbEntity
  8
RACCORDO
100
AcDbLine
 62
253
  6
CONTINUOUS
 10
-16.1560857092
 20
-17.447814106
 11
-16.1560857092
 21
-15.8686460943
  0
LINE
  5
255
100
AcDbEntity
  8
RACCORDO
100
AcDbLine
 62
253
  6
CONTINUOUS
 10
-16.1560857092
 20
17.906298359
 11
-16.1560857092
 21
20.6978556417
  0
LINE
  5
256
100
AcDbEntity
  8
RACCORDO
100
AcDbLine
 62
7
  6
CONTINUOUS
 10
-15.9824215906
 20
17.6119996288
 11
-15.9824215906
 21
17.8194662997
  0
LINE
  5
257
100
AcDbEntity
  8
RACCORDO
100
AcDbLine
 62
7
  6
CONTINUOUS
 10
2.6406479028
 20
19.1054765401
 11
0.8310323163
 21
18.1779731203
  0
LINE
  5
258
100
AcDbEntity
  8
RACCORDO
100
AcDbLine
 62
7
  6
CONTINUOUS
 10
0.5326705752
 20
18.0250502911
 11
-1.0781559929
 21
17.1994345295
  0
LINE
  5
259
100
AcDbEntity
  8
RACCORDO
100
AcDbLine
 62
7
  6
CONTINUOUS
 10
8.108389149
 20
20.9112187556
 11
6.4982676453
 21
20.0863112782
  0
LINE
  5
25A
100
AcDbEntity
  8
RACCORDO
100
AcDbLine
 62
253
  6
CONTINUOUS
 10
8.019729008
 20
20.8142715586
 11
6.5237198735
 21
20.0478268409
  0
LINE
  5
25B
100
AcDbEntity
  8
0
100
AcDbLine
 62
7
  6
CONTINUOUS
 10
1.0431643506
 20
19.130803554
 11
1.4067324832
 21
19.3125876203
  0
LINE
  5
25C
100
AcDbEntity
  8
0
100
AcDbLine
 62
7
  6
CONTINUOUS
 10
1.0431643506
 20
18.7843933925
 11
1.4067324832
 21
18.9661774588
  0
LINE
  5
25D
100
AcDbEntity
  8
0
100
AcDbLine
 62
253
  6
CONTINUOUS
 10
0.8310323163
 20
18.4185197542
 11
0.5481896038
 21
18.277098398
  0
LINE
  5
25E
100
AcDbEntity
  8
0
100
AcDbLine
 62
7
  6
CONTINUOUS
 10
0.8310323163
 20
18.1587121331
 11
0.5481896038
 21
18.0172907768
  0
LINE
  5
25F
100
AcDbEntity
  8
RACCORDO
100
AcDbLine
 62
7
  6
CONTINUOUS
 10
-12.8084942132
 20
22.8517105798
 11
-12.8084948453
 21
23.9047534501
  0
LWPOLYLINE
  5
260
100
AcDbEntity
  8
RACCORDO
100
AcDbPolyline
 62
7
  6
CONTINUOUS
 90
9
 70
0
 10
-12.8084935345
 20
22.8517466831
 10
-12.808888137
 20
22.8446015546
 10
-12.8105598984
 20
22.8337888818
 10
-12.814600981
 20
22.8191196533
 10
-12.8218129604
 20
22.8020841048
 10
-12.8317382751
 20
22.7854879475
 10
-12.8443775376
 20
22.7698358568
 10
-12.8594042239
 20
22.7559296718
 10
-12.8740808396
 20
22.7457750396
  0
LWPOLYLINE
  5
261
100
AcDbEntity
  8
RACCORDO
100
AcDbPolyline
 62
7
  6
CONTINUOUS
 90
12
 70
0
 10
-0.0248477302
 20
16.6510540619
 10
-0.0753555624
 20
16.62206455
 10
-0.1219823734
 20
16.5898953015
 10
-0.1633757879
 20
16.5554887042
 10
-0.1997276183
 20
16.518947026
 10
-0.2312048527
 20
16.4802788654
 10
-0.257721561
 20
16.4396798275
 10
-0.279160917
 20
16.3974312073
 10
-0.2954544197
 20
16.3538396411
 10
-0.306514986
 20
16.3093547489
 10
-0.3123128848
 20
16.264451175
 10
-0.3132761849
 20
16.237410267
  0
LINE
  5
262
100
AcDbEntity
  8
RACCORDO
100
AcDbLine
 62
7
  6
CONTINUOUS
 10
-0.0248099923
 20
16.6510812192
 11
6.4456775025
 21
20.0364667103
  0
LINE
  5
263
100
AcDbEntity
  8
RACCORDO
100
AcDbLine
 62
253
  6
CONTINUOUS
 10
0.0903151739
 20
16.64568686
 11
6.5590488941
 21
20.030154769
  0
LINE
  5
264
100
AcDbEntity
  8
RACCORDO
100
AcDbLine
 62
7
  6
CONTINUOUS
 10
9.1279270577
 20
19.6341732014
 11
1.0030439898
 21
15.4340902004
  0
LINE
  5
265
100
AcDbEntity
  8
RACCORDO
100
AcDbLine
 62
253
  6
CONTINUOUS
 10
0.8262689773
 20
16.2828276258
 11
7.4335348738
 21
19.5929117792
  0
LINE
  5
266
100
AcDbEntity
  8
RACCORDO
100
AcDbLine
 62
253
  6
CONTINUOUS
 10
1.0030439898
 20
15.9779358296
 11
7.6095351893
 21
19.2876318781
  0
LINE
  5
267
100
AcDbEntity
  8
RACCORDO
100
AcDbLine
 62
7
  6
CONTINUOUS
 10
5.0679356217
 20
17.0521193995
 11
3.6412174265
 21
16.3387603019
  0
LINE
  5
268
100
AcDbEntity
  8
RACCORDO
100
AcDbLine
 62
253
  6
CONTINUOUS
 10
5.1797390206
 20
17.0450189527
 11
3.7530208251
 21
16.331659855
  0
LINE
  5
269
100
AcDbEntity
  8
RACCORDO
100
AcDbLine
 62
253
  6
CONTINUOUS
 10
7.4335281426
 20
19.5929151448
 11
8.9627653263
 21
20.3427533995
  0
LINE
  5
26A
100
AcDbEntity
  8
RACCORDO
100
AcDbLine
 62
253
  6
CONTINUOUS
 10
7.6095351893
 20
19.2876318781
 11
9.5357810757
 21
20.2321373276
  0
LINE
  5
26B
100
AcDbEntity
  8
RACCORDO
100
AcDbLine
 62
253
  6
CONTINUOUS
 10
-11.1315769188
 20
22.5310491623
 11
-11.1315769188
 21
23.557452376
  0
LINE
  5
26C
100
AcDbEntity
  8
RACCORDO
100
AcDbLine
 62
7
  6
CONTINUOUS
 10
-10.467212008
 20
21.3140717615
 11
-10.467211782
 21
21.3143735216
  0
LINE
  5
26D
100
AcDbEntity
  8
RACCORDO
100
AcDbLine
 62
253
  6
CONTINUOUS
 10
-5.5398503682
 20
23.1048823473
 11
-5.5565354017
 21
23.033647647
  0
LINE
  5
26E
100
AcDbEntity
  8
0
100
AcDbLine
 62
253
  6
CONTINUOUS
 10
0.4195752758
 20
18.0815979408
 11
0.2709406763
 21
17.890902808
  0
LINE
  5
26F
100
AcDbEntity
  8
RACCORDO
100
AcDbLine
 62
253
  6
CONTINUOUS
 10
6.2063132686
 20
16.5317318287
 11
10.6350608992
 21
18.8806062807
  0
LINE
  5
270
100
AcDbEntity
  8
RACCORDO
100
AcDbLine
 62
253
  6
CONTINUOUS
 10
6.3986644643
 20
16.3147472149
 11
10.780179132
 21
18.6385707249
  0
LINE
  5
271
100
AcDbEntity
  8
RACCORDO
100
AcDbLine
 62
7
  6
CONTINUOUS
 10
10.9639763038
 20
17.5459878301
 11
6.4171758877
 21
15.1835340864
  0
LINE
  5
272
100
AcDbEntity
  8
RACCORDO
100
AcDbLine
 62
253
  6
CONTINUOUS
 10
1.0212791098
 20
12.4993381247
 11
4.114494293
 21
14.057872028
  0
LINE
  5
273
100
AcDbEntity
  8
RACCORDO
100
AcDbLine
 62
253
  6
CONTINUOUS
 10
4.7795555632
 20
15.8093551857
 11
6.2403722643
 21
16.5147023308
  0
LINE
  5
274
100
AcDbEntity
  8
RACCORDO
100
AcDbLine
 62
253
  6
CONTINUOUS
 10
4.9532201558
 20
15.5029313597
 11
6.4171758877
 21
16.2097941682
  0
LINE
  5
275
100
AcDbEntity
  8
0
100
AcDbLine
 62
253
  6
CONTINUOUS
 10
8.1729544132
 20
14.2488859423
 11
7.3582256073
 21
13.9739213413
  0
LINE
  5
276
100
AcDbEntity
  8
0
100
AcDbLine
 62
253
  6
CONTINUOUS
 10
7.434900303
 20
13.6052321773
 11
8.2772079312
 21
13.889547656
  0
LINE
  5
277
100
AcDbEntity
  8
RACCORDO
100
AcDbLine
 62
7
  6
CONTINUOUS
 10
9.0823299234
 20
-17.4948753008
 11
10.9609044698
 21
-18.434162574
  0
LINE
  5
278
100
AcDbEntity
  8
RACCORDO
100
AcDbLine
 62
7
  6
CONTINUOUS
 10
-10.467212008
 20
21.3140749855
 11
-10.467212008
 21
20.763207521
  0
LINE
  5
279
100
AcDbEntity
  8
RACCORDO
100
AcDbLine
 62
7
  6
CONTINUOUS
 10
-10.2558569497
 20
21.0425880646
 11
-10.2558569497
 21
20.4887795156
  0
LINE
  5
27A
100
AcDbEntity
  8
RACCORDO
100
AcDbLine
 62
7
  6
CONTINUOUS
 10
-9.7048587234
 20
23.2749086434
 11
-9.7048587234
 21
24.2708114737
  0
LINE
  5
27B
100
AcDbEntity
  8
RACCORDO
100
AcDbLine
 62
253
  6
CONTINUOUS
 10
-9.1583764968
 20
20.5072378428
 11
-9.1583764968
 21
21.0512145581
  0
LINE
  5
27C
100
AcDbEntity
  8
RACCORDO
100
AcDbLine
 62
253
  6
CONTINUOUS
 10
-3.5896046835
 20
23.3039171444
 11
-3.6770078884
 21
22.9307599005
  0
LINE
  5
27D
100
AcDbEntity
  8
RACCORDO
100
AcDbLine
 62
253
  6
CONTINUOUS
 10
-3.3136836249
 20
23.246933004
 11
-3.4010868298
 21
22.8737757601
  0
LINE
  5
27E
100
AcDbEntity
  8
0
100
AcDbLine
 62
253
  6
CONTINUOUS
 10
-0.7959418926
 20
18.4684635773
 11
-0.6919860684
 21
18.6373786129
  0
LINE
  5
27F
100
AcDbEntity
  8
0
100
AcDbLine
 62
253
  6
CONTINUOUS
 10
0.2316432427
 20
20.1381591529
 11
0.2399423345
 21
20.151644125
  0
LINE
  5
280
100
AcDbEntity
  8
RACCORDO
100
AcDbLine
 62
253
  6
CONTINUOUS
 10
1.1980288812
 20
12.1944898631
 11
4.9532201558
 21
14.0865641509
  0
LINE
  5
281
100
AcDbEntity
  8
0
100
AcDbLine
 62
7
  6
CONTINUOUS
 10
8.5387116107
 20
14.2402002977
 11
8.242899909
 21
14.0922678914
  0
LINE
  5
282
100
AcDbEntity
  8
0
100
AcDbLine
 62
253
  6
CONTINUOUS
 10
16.3746308053
 20
18.0415953948
 11
8.5387116107
 21
14.2402002978
  0
LINE
  5
283
100
AcDbEntity
  8
0
100
AcDbLine
 62
7
  6
CONTINUOUS
 10
-7.9370917704
 20
22.2599314639
 11
-7.9370917704
 21
22.5197390851
  0
LINE
  5
284
100
AcDbEntity
  8
RACCORDO
100
AcDbLine
 62
253
  6
CONTINUOUS
 10
-1.2630739595
 20
22.2216281713
 11
-1.283505219
 21
22.1343994191
  0
LINE
  5
285
100
AcDbEntity
  8
RACCORDO
100
AcDbLine
 62
253
  6
CONTINUOUS
 10
-1.5093417155
 20
21.0896280209
 11
-1.5260267489
 21
21.0183933206
  0
LINE
  5
286
100
AcDbEntity
  8
0
100
AcDbLine
 62
7
  6
CONTINUOUS
 10
-9.5609578603
 20
-2.8915313969
 11
-9.0263625842
 21
-2.1049370128
  0
LINE
  5
287
100
AcDbEntity
  8
RACCORDO
100
AcDbLine
 62
253
  6
CONTINUOUS
 10
1.2047624498
 20
9.1464149682
 11
-1.2008101835
 21
7.4743132116
  0
LINE
  5
288
100
AcDbEntity
  8
RACCORDO
100
AcDbLine
 62
253
  6
CONTINUOUS
 10
1.3810302559
 20
8.8391010163
 11
-0.9964486399
 21
7.186527079
  0
LINE
  5
289
100
AcDbEntity
  8
0
100
AcDbLine
 62
253
  6
CONTINUOUS
 10
6.4338104466
 20
11.5808821552
 11
7.434900303
 21
12.1060313362
  0
LINE
  5
28A
100
AcDbEntity
  8
0
100
AcDbLine
 62
253
  6
CONTINUOUS
 10
9.2455567906
 20
13.0210553451
 11
9.2362001159
 21
13.0162473063
  0
LINE
  5
28B
100
AcDbEntity
  8
0
100
AcDbLine
 62
7
  6
CONTINUOUS
 10
8.2772087644
 20
12.5478329292
 11
9.2362001159
 21
13.0162473063
  0
LINE
  5
28C
100
AcDbEntity
  8
RACCORDO
100
AcDbLine
 62
7
  6
CONTINUOUS
 10
-13.0348536321
 20
2.5993108631
 11
-13.0307335465
 21
2.6013191562
  0
LINE
  5
28D
100
AcDbEntity
  8
0
100
AcDbLine
 62
253
  6
CONTINUOUS
 10
9.2456030866
 20
13.0208750569
 11
18.3770815811
 21
17.4507373825
  0
LINE
  5
28E
100
AcDbEntity
  8
RACCORDO
100
AcDbLine
 62
7
  6
CONTINUOUS
 10
1.3810302559
 20
9.491293767
 11
1.1980288812
 21
9.4029325804
  0
LWPOLYLINE
  5
28F
100
AcDbEntity
  8
RACCORDO
100
AcDbPolyline
 62
7
  6
CONTINUOUS
 90
15
 70
0
 10
-13.034792792
 20
2.5993280119
 10
-12.9015919885
 20
2.6591361075
 10
-12.7148372203
 20
2.7262890015
 10
-12.523587072
 20
2.7769242765
 10
-12.3279719238
 20
2.8116982609
 10
-12.1272758582
 20
2.8311304954
 10
-11.9218397787
 20
2.8354253277
 10
-11.7125194468
 20
2.8248156215
 10
-11.4993707341
 20
2.7994786285
 10
-11.2830139308
 20
2.7596177371
 10
-11.0642256986
 20
2.7055410899
 10
-10.8432447576
 20
2.6374224977
 10
-10.6206111776
 20
2.5555089526
 10
-10.3972555052
 20
2.4602843041
 10
-10.223047831
 20
2.3770845283
  0
LINE
  5
290
100
AcDbEntity
  8
RACCORDO
100
AcDbLine
 62
7
  6
CONTINUOUS
 10
-6.3348071049
 20
21.3006798679
 11
-6.2295902665
 21
19.7751516663
  0
LWPOLYLINE
  5
291
100
AcDbEntity
  8
RACCORDO
100
AcDbPolyline
 62
7
  6
CONTINUOUS
 90
13
 70
0
 10
-3.7654489931
 20
-21.6317010403
 10
-3.7617815146
 20
-21.6903556885
 10
-3.7519256329
 20
-21.7638918726
 10
-3.7365070399
 20
-21.8335165266
 10
-3.7157506375
 20
-21.8989985246
 10
-3.6898669513
 20
-21.960160567
 10
-3.6590633879
 20
-22.0167719167
 10
-3.6236656711
 20
-22.0685078653
 10
-3.583962065
 20
-22.1151770458
 10
-3.5401910648
 20
-22.1566091949
 10
-3.4927943913
 20
-22.192485404
 10
-3.4422576823
 20
-22.222591506
 10
-3.433763817
 20
-22.2269365148
  0
LWPOLYLINE
  5
292
100
AcDbEntity
  8
RACCORDO
100
AcDbPolyline
 62
7
  6
CONTINUOUS
 90
7
 70
0
 10
-3.8696001783
 20
-17.9614285719
 10
-3.8563692297
 20
-18.4958144984
 10
-3.8424915494
 20
-19.0298452027
 10
-3.8279671747
 20
-19.5635195355
 10
-3.8127961317
 20
-20.0968367028
 10
-3.7969784545
 20
-20.6297955541
 10
-3.7654612479
 20
-21.6316891512
  0
LINE
  5
293
100
AcDbEntity
  8
RACCORDO
100
AcDbLine
 62
7
  6
CONTINUOUS
 10
-3.8870542925
 20
-17.2119193764
 11
-3.8696001783
 21
-17.9614285719
  0
LINE
  5
294
100
AcDbEntity
  8
RACCORDO
100
AcDbLine
 62
253
  6
CONTINUOUS
 10
0.4409039692
 20
21.288662818
 11
0.3535007643
 21
20.9155055741
  0
LINE
  5
295
100
AcDbEntity
  8
RACCORDO
100
AcDbLine
 62
253
  6
CONTINUOUS
 10
0.7168250278
 20
21.2316786776
 11
0.629421823
 21
20.8585214337
  0
LINE
  5
296
100
AcDbEntity
  8
0
100
AcDbLine
 62
7
  6
CONTINUOUS
 10
-9.3464167651
 20
1.8386800352
 11
-12.2887427098
 21
0.3675170629
  0
LINE
  5
297
100
AcDbEntity
  8
0
100
AcDbLine
 62
7
  6
CONTINUOUS
 10
-9.0107814106
 20
-3.9918842962
 11
-8.0607487377
 21
-4.0361647057
  0
LINE
  5
298
100
AcDbEntity
  8
RACCORDO
100
AcDbLine
 62
7
  6
CONTINUOUS
 10
-2.457452402
 20
24.0537443729
 11
-2.457452402
 21
24.3219134923
  0
LINE
  5
299
100
AcDbEntity
  8
RACCORDO
100
AcDbLine
 62
7
  6
CONTINUOUS
 10
-1.1593119002
 20
17.2400124832
 11
-1.0540950617
 21
18.6603238463
  0
LINE
  5
29A
100
AcDbEntity
  8
RACCORDO
100
AcDbLine
 62
7
  6
CONTINUOUS
 10
-0.8825237278
 20
17.2997042201
 11
-0.7801625828
 21
18.6814668701
  0
LINE
  5
29B
100
AcDbEntity
  8
0
100
AcDbLine
 62
253
  6
CONTINUOUS
 10
1.4722848869
 20
18.9862377706
 11
1.5596880918
 21
19.3593950144
  0
LINE
  5
29C
100
AcDbEntity
  8
RACCORDO
100
AcDbLine
 62
253
  6
CONTINUOUS
 10
2.7674346933
 20
20.2063738449
 11
2.7470034338
 21
20.1191450928
  0
LINE
  5
29D
100
AcDbEntity
  8
0
100
AcDbLine
 62
7
  6
CONTINUOUS
 10
-8.6235821483
 20
-1.7912838313
 11
-8.7321107619
 21
-1.8455481381
  0
LWPOLYLINE
  5
29E
100
AcDbEntity
  8
RACCORDO
100
AcDbPolyline
 62
7
  6
CONTINUOUS
 90
48
 70
0
 10
-10.2229763357
 20
2.3770502393
 10
-10.0253030893
 20
2.2732091463
 10
-9.7724073003
 20
2.1258455809
 10
-9.5186391221
 20
1.9615333645
 10
-9.2648931127
 20
1.7805258426
 10
-9.0121038145
 20
1.5832422041
 10
-8.7612607211
 20
1.3702322462
 10
-8.5131988423
 20
1.1419902801
 10
-8.2687441365
 20
0.8991158954
 10
-8.0288063639
 20
0.6423604212
 10
-7.7941742397
 20
0.3724116987
 10
-7.5656060653
 20
0.0900481103
 10
-7.3439038139
 20
-0.2038160214
 10
-7.1297734624
 20
-0.5083304031
 10
-6.9238677699
 20
-0.8225964247
 10
-6.7268536762
 20
-1.1456063762
 10
-6.5393336056
 20
-1.4763996531
 10
-6.3618554568
 20
-1.8139802679
 10
-6.1949545569
 20
-2.1572707309
 10
-6.0391178377
 20
-2.5052309233
 10
-5.8947730642
 20
-2.8568063811
 10
-5.7623185999
 20
-3.2108809091
 10
-5.6421166959
 20
-3.5663600587
 10
-5.5344618564
 20
-3.9221721311
 10
-5.4396023899
 20
-4.2772159869
 10
-5.3577584806
 20
-4.630403377
 10
-5.2890935482
 20
-4.9806497415
 10
-5.2337136327
 20
-5.3268373611
 10
-5.1916890883
 20
-5.6678748141
 10
-5.1630259616
 20
-6.002739909
 10
-5.1476631628
 20
-6.3303940753
 10
-5.1455029151
 20
-6.6496262611
 10
-5.1563793448
 20
-6.9596724678
 10
-5.1801101018
 20
-7.2600909264
 10
-5.2164786315
 20
-7.5498491602
 10
-5.2652240177
 20
-7.8280945099
 10
-5.3261282148
 20
-8.0945021483
 10
-5.3988384599
 20
-8.3480809723
 10
-5.4829837549
 20
-8.5880595389
 10
-5.5783464704
 20
-8.814261128
 10
-5.6843041157
 20
-9.0255404277
 10
-5.8005234611
 20
-9.2215730379
 10
-5.9274275734
 20
-9.4030898139
 10
-6.0644679229
 20
-9.56904566
 10
-6.2115518912
 20
-9.7191105802
 10
-6.3704369019
 20
-9.8543951261
 10
-6.5420780759
 20
-9.9743479053
 10
-6.7038521994
 20
-10.0662137698
  0
LINE
  5
29F
100
AcDbEntity
  8
RACCORDO
100
AcDbLine
 62
7
  6
CONTINUOUS
 10
-0.9172418259
 20
23.5504416632
 11
-0.9172418259
 21
23.3946255286
  0
LINE
  5
2A0
100
AcDbEntity
  8
RACCORDO
100
AcDbLine
 62
7
  6
CONTINUOUS
 10
-0.3710492117
 20
24.8881638903
 11
-0.3710492117
 21
24.4839241704
  0
LINE
  5
2A1
100
AcDbEntity
  8
RACCORDO
100
AcDbLine
 62
7
  6
CONTINUOUS
 10
-0.3132766045
 20
16.2371061222
 11
-0.3132766045
 21
15.6862330639
  0
LINE
  5
2A2
100
AcDbEntity
  8
ASSI
100
AcDbLine
 62
253
  6
CONTINUOUS
 10
-0.2649831946
 20
20.3864723715
 11
-0.2649831946
 21
20.6730540303
  0
LINE
  5
2A3
100
AcDbEntity
  8
RACCORDO
100
AcDbLine
 62
7
  6
CONTINUOUS
 10
-0.1019215462
 20
15.9656203614
 11
-0.1019215462
 21
15.4118118139
  0
LINE
  5
2A4
100
AcDbEntity
  8
RACCORDO
100
AcDbLine
 62
253
  6
CONTINUOUS
 10
4.748553298
 20
20.6427043555
 11
4.7318682646
 21
20.5714696552
  0
LINE
  5
2A5
100
AcDbEntity
  8
0
100
AcDbLine
 62
253
  6
CONTINUOUS
 10
6.1696885142
 20
20.7789739017
 11
6.1601543154
 21
20.7506711347
  0
LINE
  5
2A6
100
AcDbEntity
  8
0
100
AcDbLine
 62
7
  6
CONTINUOUS
 10
-7.5690977734
 20
-3.9026021871
 11
-7.6766865446
 21
-3.9563965727
  0
LWPOLYLINE
  5
2A7
100
AcDbEntity
  8
RACCORDO
100
AcDbPolyline
 62
7
  6
CONTINUOUS
 90
28
 70
0
 10
3.2929340199
 20
-25.2734429407
 10
3.2954557362
 20
-25.3199570092
 10
3.3051370602
 20
-25.3754270883
 10
3.3221238721
 20
-25.4301518808
 10
3.3463570945
 20
-25.4834242967
 10
3.3777402942
 20
-25.5347538643
 10
3.4159024399
 20
-25.5834695583
 10
3.4608635539
 20
-25.6295153489
 10
3.5124182898
 20
-25.6725372121
 10
3.5696019608
 20
-25.7118440781
 10
3.6322194069
 20
-25.7474860185
 10
3.7001145089
 20
-25.7794363678
 10
3.7717564929
 20
-25.8071729596
 10
3.8461753995
 20
-25.8306275914
 10
3.9234245505
 20
-25.8500340911
 10
4.0029906386
 20
-25.8654143217
 10
4.084363933
 20
-25.8767550968
 10
4.1670512976
 20
-25.8840388613
 10
4.2503780722
 20
-25.8872620605
 10
4.3337900803
 20
-25.886412932
 10
4.4167627526
 20
-25.8814974632
 10
4.4986526199
 20
-25.8725495265
 10
4.5789363758
 20
-25.8595706268
 10
4.657129303
 20
-25.8425733705
 10
4.7327793791
 20
-25.8215496144
 10
4.8054883343
 20
-25.7964276986
 10
4.874768656
 20
-25.7671833405
 10
4.8843752535
 20
-25.7626572298
  0
LINE
  5
2A8
100
AcDbEntity
  8
0
100
AcDbLine
 62
7
  6
CONTINUOUS
 10
0.5481896038
 20
18.0172907768
 11
0.5481896038
 21
18.277098398
  0
LINE
  5
2A9
100
AcDbEntity
  8
0
100
AcDbLine
 62
7
  6
CONTINUOUS
 10
0.8310323163
 20
18.1587121331
 11
0.8310323163
 21
18.4185197542
  0
LINE
  5
2AA
100
AcDbEntity
  8
RACCORDO
100
AcDbLine
 62
253
  6
CONTINUOUS
 10
0.8475875933
 20
12.1960189905
 11
0.8475875933
 21
9.4044617078
  0
LINE
  5
2AB
100
AcDbEntity
  8
RACCORDO
100
AcDbLine
 62
253
  6
CONTINUOUS
 10
0.8475875933
 20
-23.5607952873
 11
0.8475875933
 21
-25.9496507572
  0
LINE
  5
2AC
100
AcDbEntity
  8
RACCORDO
100
AcDbLine
 62
253
  6
CONTINUOUS
 10
1.0030439898
 20
15.4340902004
 11
1.0030439898
 21
15.9779358296
  0
LINE
  5
2AD
100
AcDbEntity
  8
0
100
AcDbLine
 62
253
  6
CONTINUOUS
 10
1.0431643506
 20
18.7843933925
 11
1.0431643506
 21
19.130803554
  0
LINE
  5
2AE
100
AcDbEntity
  8
RACCORDO
100
AcDbLine
 62
253
  6
CONTINUOUS
 10
1.1980288812
 20
12.1944898631
 11
1.1980288812
 21
9.4029325804
  0
LINE
  5
2AF
100
AcDbEntity
  8
RACCORDO
100
AcDbLine
 62
253
  6
CONTINUOUS
 10
1.1980288812
 20
-23.5623244147
 11
1.1980288812
 21
-25.9511798846
  0
LINE
  5
2B0
100
AcDbEntity
  8
RACCORDO
100
AcDbLine
 62
7
  6
CONTINUOUS
 10
1.3810302559
 20
9.491293767
 11
1.3810302559
 21
8.8391010163
  0
LINE
  5
2B1
100
AcDbEntity
  8
RACCORDO
100
AcDbLine
 62
7
  6
CONTINUOUS
 10
1.3810302559
 20
-22.4190686645
 11
1.3810302559
 21
-23.473963228
  0
LINE
  5
2B2
100
AcDbEntity
  8
0
100
AcDbLine
 62
253
  6
CONTINUOUS
 10
1.4067324832
 20
18.9661774588
 11
1.4067324832
 21
19.3125876203
  0
LWPOLYLINE
  5
2B3
100
AcDbEntity
  8
RACCORDO
100
AcDbPolyline
 62
7
  6
CONTINUOUS
 90
14
 70
0
 10
0.862097595
 20
23.4307106041
 10
0.8628689525
 20
23.4690675562
 10
0.858193572
 20
23.5335550646
 10
0.8477182775
 20
23.5962830569
 10
0.831551723
 20
23.6572874912
 10
0.8098504413
 20
23.7161242746
 10
0.7829952654
 20
23.7720069517
 10
0.7513141639
 20
23.8245616509
 10
0.7149257538
 20
23.8737320599
 10
0.6742968017
 20
23.9189639505
 10
0.6299053474
 20
23.9598588856
 10
0.5817717168
 20
23.996439474
 10
0.5302093295
 20
24.0283978123
 10
0.5127872896
 20
24.037728743
  0
LINE
  5
2B4
100
AcDbEntity
  8
0
100
AcDbLine
 62
253
  6
CONTINUOUS
 10
6.0835030128
 20
20.7789443419
 11
6.0771678678
 21
20.7518972187
  0
LINE
  5
2B5
100
AcDbEntity
  8
RACCORDO
100
AcDbLine
 62
7
  6
CONTINUOUS
 10
-16.5310208526
 20
-10.808744456
 11
-16.4933546756
 21
-10.7899113676
  0
LINE
  5
2B6
100
AcDbEntity
  8
RACCORDO
100
AcDbLine
 62
253
  6
CONTINUOUS
 10
-16.5430005503
 20
-10.8160127023
 11
-16.573138975
 21
-10.8307906217
  0
LINE
  5
2B7
100
AcDbEntity
  8
RACCORDO
100
AcDbLine
 62
253
  6
CONTINUOUS
 10
3.2885304998
 20
14.8171925535
 11
3.2885486866
 21
14.8141343643
  0
LINE
  5
2B8
100
AcDbEntity
  8
RACCORDO
100
AcDbLine
 62
7
  6
CONTINUOUS
 10
3.2885304996
 20
14.8172768904
 11
3.2885304996
 21
15.8562407776
  0
LINE
  5
2B9
100
AcDbEntity
  8
RACCORDO
100
AcDbLine
 62
7
  6
CONTINUOUS
 10
3.292930841
 20
-25.2735009271
 11
3.292930841
 21
-25.0889367906
  0
LINE
  5
2BA
100
AcDbEntity
  8
0
100
AcDbLine
 62
7
  6
CONTINUOUS
 10
-5.1466655011
 20
-6.6827672259
 11
-8.0402135525
 21
-8.1295412516
  0
LINE
  5
2BB
100
AcDbEntity
  8
0
100
AcDbLine
 62
253
  6
CONTINUOUS
 10
-8.3568405255
 20
-7.5656649213
 11
-8.3563950645
 21
-7.565454439
  0
LINE
  5
2BC
100
AcDbEntity
  8
RACCORDO
100
AcDbLine
 62
7
  6
CONTINUOUS
 10
4.8420481583
 20
20.5149805365
 11
4.8420481583
 21
20.6640934317
  0
LINE
  5
2BD
100
AcDbEntity
  8
RACCORDO
100
AcDbLine
 62
253
  6
CONTINUOUS
 10
4.9500710553
 20
-24.2183624702
 11
4.9500710553
 21
-25.6271045793
  0
LINE
  5
2BE
100
AcDbEntity
  8
RACCORDO
100
AcDbLine
 62
253
  6
CONTINUOUS
 10
4.9532201558
 20
15.5029313597
 11
4.9532201558
 21
14.0865641509
  0
LINE
  5
2BF
100
AcDbEntity
  8
RACCORDO
100
AcDbLine
 62
7
  6
CONTINUOUS
 10
6.4171758877
 20
16.2097941682
 11
6.4171758877
 21
-24.9264269377
  0
LINE
  5
2C0
100
AcDbEntity
  8
0
100
AcDbLine
 62
253
  6
CONTINUOUS
 10
6.4338104466
 20
11.5808821552
 11
6.4338104466
 21
-16.5266863612
  0
LINE
  5
2C1
100
AcDbEntity
  8
RACCORDO
100
AcDbLine
 62
7
  6
CONTINUOUS
 10
-6.6985727104
 20
-10.0635212044
 11
-6.7038201569
 21
-10.0662108696
  0
LINE
  5
2C2
100
AcDbEntity
  8
RACCORDO
100
AcDbLine
 62
253
  6
CONTINUOUS
 10
-1.7922210773
 20
6.367543814
 11
-18.705314589
 21
14.8240905698
  0
LINE
  5
2C3
100
AcDbEntity
  8
RACCORDO
100
AcDbLine
 62
253
  6
CONTINUOUS
 10
-1.2008101835
 20
7.4743132116
 11
-18.1291882736
 21
15.9385022566
  0
LINE
  5
2C4
100
AcDbEntity
  8
0
100
AcDbLine
 62
253
  6
CONTINUOUS
 10
6.7735183878
 20
12.7961331947
 11
6.7735183878
 21
13.6254585149
  0
LINE
  5
2C5
100
AcDbEntity
  8
0
100
AcDbLine
 62
253
  6
CONTINUOUS
 10
6.7735216883
 20
-17.748669498
 11
6.7735216883
 21
-16.9193524846
  0
LINE
  5
2C6
100
AcDbEntity
  8
0
100
AcDbLine
 62
253
  6
CONTINUOUS
 10
7.434900303
 20
13.6052321773
 11
7.434900303
 21
12.1060313362
  0
LINE
  5
2C7
100
AcDbEntity
  8
0
100
AcDbLine
 62
253
  6
CONTINUOUS
 10
7.434902516
 20
-16.2696978584
 11
7.434902516
 21
-17.7688978832
  0
LINE
  5
2C8
100
AcDbEntity
  8
0
100
AcDbLine
 62
7
  6
CONTINUOUS
 10
8.2772088365
 20
-17.395140286
 11
8.2772054121
 21
13.8896461162
  0
LINE
  5
2C9
100
AcDbEntity
  8
RACCORDO
100
AcDbLine
 62
7
  6
CONTINUOUS
 10
1.2047624498
 20
9.1464149682
 11
-15.8061537846
 21
17.6518730854
  0
LINE
  5
2CA
100
AcDbEntity
  8
RACCORDO
100
AcDbLine
 62
7
  6
CONTINUOUS
 10
0.8475875933
 20
9.4044617078
 11
-16.1560857092
 21
17.906298359
  0
LINE
  5
2CB
100
AcDbEntity
  8
DRAFT
100
AcDbLine
 62
7
  6
CONTINUOUS
 10
9.0823299234
 20
-16.5121986736
 11
9.0823299234
 21
-17.4948753008
  0
LINE
  5
2CC
100
AcDbEntity
  8
0
100
AcDbLine
 62
7
  6
CONTINUOUS
 10
9.2456030866
 20
-15.5150005349
 11
9.2456030866
 21
13.0208750569
  0
LINE
  5
2CD
100
AcDbEntity
  8
RACCORDO
100
AcDbLine
 62
7
  6
CONTINUOUS
 10
9.6698670811
 20
19.8677057439
 11
9.6698670811
 21
19.5615640895
  0
LINE
  5
2CE
100
AcDbEntity
  8
RACCORDO
100
AcDbLine
 62
253
  6
CONTINUOUS
 10
10.9639763038
 20
18.6789454044
 11
10.9639763038
 21
17.5459878301
  0
LINE
  5
2CF
100
AcDbEntity
  8
RACCORDO
100
AcDbLine
 62
253
  6
CONTINUOUS
 10
10.9639763038
 20
-18.782420717
 11
10.9639763038
 21
-19.9153782913
  0
LWPOLYLINE
  5
2D0
100
AcDbEntity
  8
RACCORDO
100
AcDbPolyline
 62
7
  6
CONTINUOUS
 90
10
 70
0
 10
11.1073521833
 20
18.6893019952
 10
11.1071277897
 20
18.7001094234
 10
11.103439207
 20
18.7338935919
 10
11.0953864151
 20
18.7662235148
 10
11.0830155937
 20
18.7971401313
 10
11.0663157249
 20
18.8263897059
 10
11.0454055719
 20
18.853435609
 10
11.0205841347
 20
18.8776751453
 10
10.9919993836
 20
18.8987934314
 10
10.9652033997
 20
18.9138875083
  0
LINE
  5
2D1
100
AcDbEntity
  8
RACCORDO
100
AcDbLine
 62
7
  6
CONTINUOUS
 10
11.1073510792
 20
18.6891078281
 11
11.1073510792
 21
17.7238217655
  0
LINE
  5
2D2
100
AcDbEntity
  8
RACCORDO
100
AcDbLine
 62
7
  6
CONTINUOUS
 10
11.1073510792
 20
-18.6098000202
 11
11.1073510792
 21
-19.5750860826
  0
LINE
  5
2D3
100
AcDbEntity
  8
0
100
AcDbLine
 62
253
  6
CONTINUOUS
 10
11.8284111772
 20
-12.8272388979
 11
11.8284111772
 21
-6.7789749626
  0
LINE
  5
2D4
100
AcDbEntity
  8
0
100
AcDbLine
 62
7
  6
CONTINUOUS
 10
12.1090160087
 20
-6.7203203397
 11
12.1090160087
 21
-12.4805481151
  0
LINE
  5
2D5
100
AcDbEntity
  8
0
100
AcDbLine
 62
253
  6
CONTINUOUS
 10
15.4457614801
 20
-4.7490899064
 11
11.8284111772
 21
-6.7789749626
  0
LINE
  5
2D6
100
AcDbEntity
  8
0
100
AcDbLine
 62
7
  6
CONTINUOUS
 10
12.0478599981
 20
-6.7546468409
 11
15.3864678409
 21
-4.8807063277
  0
LINE
  5
2D7
100
AcDbEntity
  8
RACCORDO
100
AcDbLine
 62
253
  6
CONTINUOUS
 10
-16.1560857092
 20
20.6978556417
 11
0.8475875933
 21
12.1960189905
  0
LINE
  5
2D8
100
AcDbEntity
  8
RACCORDO
100
AcDbLine
 62
253
  6
CONTINUOUS
 10
-15.9823941926
 20
21.001174776
 11
1.0212791098
 21
12.4993381247
  0
LINE
  5
2D9
100
AcDbEntity
  8
0
100
AcDbLine
 62
253
  6
CONTINUOUS
 10
6.4171758877
 20
14.2400584145
 11
6.7735183878
 21
13.6254585149
  0
LINE
  5
2DA
100
AcDbEntity
  8
RACCORDO
100
AcDbLine
 62
253
  6
CONTINUOUS
 10
-3.8862743782
 20
-17.246314404
 11
-3.9350770209
 21
-17.2707157253
  0
LINE
  5
2DB
100
AcDbEntity
  8
DRAFT
100
AcDbLine
 62
7
  6
CONTINUOUS
 10
-6.7350102424
 20
20.0278616543
 11
-1.0781559929
 21
17.1994345295
  0
LINE
  5
2DC
100
AcDbEntity
  8
ASSI
100
AcDbLine
 62
7
  6
CONTINUOUS
 10
-0.8771036231
 20
17.3728696605
 11
-0.8075880546
 21
17.3381118763
  0
LINE
  5
2DD
100
AcDbEntity
  8
0
100
AcDbLine
 62
253
  6
CONTINUOUS
 10
6.6013991418
 20
15.2792539061
 11
7.3582256073
 21
13.9739213413
  0
LINE
  5
2DE
100
AcDbEntity
  8
0
100
AcDbLine
 62
7
  6
CONTINUOUS
 10
8.172909647
 20
14.248962898
 11
7.3500247989
 21
15.6682293008
  0
LWPOLYLINE
  5
2DF
100
AcDbEntity
  8
RACCORDO
100
AcDbPolyline
 62
7
  6
CONTINUOUS
 90
6
 70
0
 10
11.0577348766
 20
-19.8382902025
 10
11.0752960047
 20
-19.7909623591
 10
11.0890307549
 20
-19.7413912983
 10
11.0989123367
 20
-19.6899751851
 10
11.1050376997
 20
-19.6363104789
 10
11.1073523489
 20
-19.5753169801
  0
LINE
  5
2E0
100
AcDbEntity
  8
0
100
AcDbLine
 62
253
  6
CONTINUOUS
 10
-0.833930233
 20
17.9556628469
 11
-0.2106942269
 21
17.6440448438
  0
LINE
  5
2E1
100
AcDbEntity
  8
RACCORDO
100
AcDbLine
 62
7
  6
CONTINUOUS
 10
0.5481896038
 20
18.0172907768
 11
-0.9132118565
 21
18.747991507
  0
LINE
  5
2E2
100
AcDbEntity
  8
RACCORDO
100
AcDbLine
 62
7
  6
CONTINUOUS
 10
-6.4756903102
 20
21.5292307338
 11
-7.9370917704
 21
22.2599314639
  0
LINE
  5
2E3
100
AcDbEntity
  8
0
100
AcDbLine
 62
7
  6
CONTINUOUS
 10
8.5387116107
 20
14.2402002978
 11
8.0307262512
 21
14.4941929775
  0
LINE
  5
2E4
100
AcDbEntity
  8
0
100
AcDbLine
 62
253
  6
CONTINUOUS
 10
0.5481896038
 20
18.277098398
 11
-7.9370917704
 21
22.5197390851
  0
LINE
  5
2E5
100
AcDbEntity
  8
0
100
AcDbLine
 62
253
  6
CONTINUOUS
 10
18.9406260146
 20
13.6453954024
 11
18.9406047699
 21
16.051711646
  0
LINE
  5
2E6
100
AcDbEntity
  8
0
100
AcDbLine
 62
7
  6
CONTINUOUS
 10
19.0107597895
 20
16.1403592591
 11
19.0107597895
 21
13.732211496
  0
LINE
  5
2E7
100
AcDbEntity
  8
0
100
AcDbLine
 62
7
  6
CONTINUOUS
 10
18.2169016422
 20
-0.3807184767
 11
18.216962544
 21
-0.3801254514
  0
LINE
  5
2E8
100
AcDbEntity
  8
0
100
AcDbLine
 62
253
  6
CONTINUOUS
 10
6.7735216883
 20
-17.748669498
 11
6.4171758877
 21
-18.0069292895
  0
LINE
  5
2E9
100
AcDbEntity
  8
0
100
AcDbLine
 62
253
  6
CONTINUOUS
 10
7.3582256073
 20
-18.0117422643
 11
6.4863322486
 21
-18.6436425044
  0
LINE
  5
2EA
100
AcDbEntity
  8
0
100
AcDbLine
 62
7
  6
CONTINUOUS
 10
7.2276941431
 20
-18.335287256
 11
8.1729296897
 21
-17.6502326414
  0
LWPOLYLINE
  5
2EB
100
AcDbEntity
  8
0
100
AcDbPolyline
 62
7
  6
CONTINUOUS
 90
22
 70
0
 10
10.5770711108
 20
-15.1801214649
 10
10.6449390427
 20
-15.1412492974
 10
10.7724542682
 20
-15.0596095556
 10
10.8954595141
 20
-14.9696208292
 10
11.0140617691
 20
-14.8715757123
 10
11.1281179797
 20
-14.7658554854
 10
11.237169858
 20
-14.6531096989
 10
11.3411155328
 20
-14.5336971712
 10
11.4398937233
 20
-14.4079684628
 10
11.5330288045
 20
-14.276736695
 10
11.6203040178
 20
-14.1404423433
 10
11.7014859053
 20
-13.9994261673
 10
11.776090314
 20
-13.85449417
 10
11.8439637803
 20
-13.7060691139
 10
11.9048791103
 20
-13.554606642
 10
11.9583925074
 20
-13.4010331339
 10
12.0042678883
 20
-13.2456304823
 10
12.0421878105
 20
-13.0888345339
 10
12.0718144195
 20
-12.9316405342
 10
12.0929684316
 20
-12.7744894267
 10
12.1054551717
 20
-12.6173786982
 10
12.1090062283
 20
-12.4799349381
  0
LINE
  5
2EC
100
AcDbEntity
  8
0
100
AcDbLine
 62
253
  6
CONTINUOUS
 10
10.8134901141
 20
-14.6519502092
 11
9.2456030866
 21
-15.5150005349
  0
LINE
  5
2ED
100
AcDbEntity
  8
0
100
AcDbLine
 62
7
  6
CONTINUOUS
 10
8.9998397699
 20
-16.048385146
 11
10.5771007308
 21
-15.1802501307
  0
LINE
  5
2EE
100
AcDbEntity
  8
0
100
AcDbLine
 62
253
  6
CONTINUOUS
 10
9.2455567906
 20
-15.5149782789
 11
8.2772087644
 21
-16.0472218896
  0
LINE
  5
2EF
100
AcDbEntity
  8
0
100
AcDbLine
 62
7
  6
CONTINUOUS
 10
8.2772086505
 20
-16.4455261878
 11
8.9996248106
 21
-16.0484667825
  0
LINE
  5
2F0
100
AcDbEntity
  8
0
100
AcDbLine
 62
253
  6
CONTINUOUS
 10
8.2772088365
 20
-17.395140286
 11
7.434902516
 21
-17.7688978832
  0
LINE
  5
2F1
100
AcDbEntity
  8
0
100
AcDbLine
 62
253
  6
CONTINUOUS
 10
7.3582256073
 20
-18.0117422643
 11
8.1729296897
 21
-17.6502326414
  0
LINE
  5
2F2
100
AcDbEntity
  8
0
100
AcDbLine
 62
7
  6
CONTINUOUS
 10
1.4722848869
 20
18.9862377706
 11
5.157144056
 21
19.362300747
  0
LINE
  5
2F3
100
AcDbEntity
  8
0
100
AcDbLine
 62
7
  6
CONTINUOUS
 10
1.5596880918
 20
19.3593950144
 11
6.0220118871
 21
19.8148031295
  0
LINE
  5
2F4
100
AcDbEntity
  8
RACCORDO
100
AcDbLine
 62
7
  6
CONTINUOUS
 10
6.2403722643
 20
16.5147023308
 11
5.1797390206
 21
17.0450189527
  0
LINE
  5
2F5
100
AcDbEntity
  8
RACCORDO
100
AcDbLine
 62
7
  6
CONTINUOUS
 10
-9.8816354187
 20
24.5757061723
 11
-10.9422686624
 21
25.1060227942
  0
LINE
  5
2F6
100
AcDbEntity
  8
0
100
AcDbLine
 62
253
  6
CONTINUOUS
 10
1.0431643506
 20
19.130803554
 11
-7.4421170236
 21
23.3734442411
  0
LINE
  5
2F7
100
AcDbEntity
  8
0
100
AcDbLine
 62
253
  6
CONTINUOUS
 10
1.4067324832
 20
19.3125876203
 11
-7.078548891
 21
23.5552283074
  0
LINE
  5
2F8
100
AcDbEntity
  8
0
100
AcDbLine
 62
253
  6
CONTINUOUS
 10
1.5596880918
 20
19.3593950144
 11
-6.9255932824
 21
23.6020357016
  0
LINE
  5
2F9
100
AcDbEntity
  8
RACCORDO
100
AcDbLine
 62
7
  6
CONTINUOUS
 10
0.5481896038
 20
19.9798859723
 11
-1.5024200616
 21
21.0051908051
  0
LINE
  5
2FA
100
AcDbEntity
  8
RACCORDO
100
AcDbLine
 62
7
  6
CONTINUOUS
 10
-3.482319049
 20
21.9951402987
 11
-5.5329287144
 21
23.0204451314
  0
LINE
  5
2FB
100
AcDbEntity
  8
0
100
AcDbLine
 62
7
  6
CONTINUOUS
 10
0.2787664345
 20
20.1347483413
 11
0.6750039518
 21
19.9366295827
  0
LINE
  5
2FC
100
AcDbEntity
  8
ASSI
100
AcDbLine
 62
7
  6
CONTINUOUS
 10
0.3611179771
 20
20.3600034445
 11
-0.2649831946
 21
20.6730540303
  0
LINE
  5
2FD
100
AcDbEntity
  8
0
100
AcDbLine
 62
7
  6
CONTINUOUS
 10
0.5508906368
 20
20.2969008391
 11
1.2184076856
 21
19.9631423148
  0
LINE
  5
2FE
100
AcDbEntity
  8
RACCORDO
100
AcDbLine
 62
7
  6
CONTINUOUS
 10
-3.4010868298
 20
22.8737757601
 11
-1.8140444413
 21
22.0802545659
  0
LINE
  5
2FF
100
AcDbEntity
  8
RACCORDO
100
AcDbLine
 62
7
  6
CONTINUOUS
 10
0.629421823
 20
20.8585214337
 11
2.2164642115
 21
20.0650002395
  0
LINE
  5
300
100
AcDbEntity
  8
RACCORDO
100
AcDbLine
 62
7
  6
CONTINUOUS
 10
-3.3136836249
 20
23.246933004
 11
-1.2630739595
 21
22.2216281713
  0
LINE
  5
301
100
AcDbEntity
  8
RACCORDO
100
AcDbLine
 62
7
  6
CONTINUOUS
 10
0.7168250278
 20
21.2316786776
 11
2.7674346933
 21
20.2063738449
  0
LWPOLYLINE
  5
302
100
AcDbEntity
  8
RACCORDO
100
AcDbPolyline
 62
7
  6
CONTINUOUS
 90
5
 70
0
 10
10.9721745904
 20
-19.9766046788
 10
10.9814093437
 20
-19.9656813041
 10
11.0110172471
 20
-19.92561538
 10
11.0364203
 20
-19.8830484535
 10
11.0577348766
 20
-19.8382902025
  0
LINE
  5
303
100
AcDbEntity
  8
DRAFT
100
AcDbLine
 62
7
  6
CONTINUOUS
 10
6.4171758877
 20
-18.8221790832
 11
9.0823299234
 21
-17.4948753008
  0
LINE
  5
304
100
AcDbEntity
  8
RACCORDO
100
AcDbLine
 62
7
  6
CONTINUOUS
 10
10.9639763038
 20
-18.782420717
 11
6.4171758877
 21
-21.046824691
  0
LINE
  5
305
100
AcDbEntity
  8
RACCORDO
100
AcDbLine
 62
7
  6
CONTINUOUS
 10
1.3810302559
 20
-23.473963228
 11
1.1980288812
 21
-23.5623244147
  0
LINE
  5
306
100
AcDbEntity
  8
0
100
AcDbLine
 62
253
  6
CONTINUOUS
 10
7.2276941431
 20
-18.335287256
 11
6.4863322486
 21
-18.6436425044
  0
LINE
  5
307
100
AcDbEntity
  8
0
100
AcDbLine
 62
7
  6
CONTINUOUS
 10
7.1893352015
 20
-18.3567761152
 11
6.4471966104
 21
-18.6654544156
  0
LINE
  5
308
100
AcDbEntity
  8
RACCORDO
100
AcDbLine
 62
7
  6
CONTINUOUS
 10
2.7743563471
 20
20.121936629
 11
0.8241106624
 21
19.9229018319
  0
LINE
  5
309
100
AcDbEntity
  8
RACCORDO
100
AcDbLine
 62
7
  6
CONTINUOUS
 10
6.0835030128
 20
20.7789443419
 11
5.8786679885
 21
20.7580396437
  0
LINE
  5
30A
100
AcDbEntity
  8
RACCORDO
100
AcDbLine
 62
7
  6
CONTINUOUS
 10
4.8432447901
 20
20.6523682159
 11
4.748553298
 21
20.6427043555
  0
LINE
  5
30B
100
AcDbEntity
  8
RACCORDO
100
AcDbLine
 62
7
  6
CONTINUOUS
 10
-1.0388527847
 20
20.7734071666
 11
0.3535007643
 21
20.9155055741
  0
LINE
  5
30C
100
AcDbEntity
  8
RACCORDO
100
AcDbLine
 62
7
  6
CONTINUOUS
 10
-1.5093417155
 20
21.0896280209
 11
0.4409039692
 21
21.288662818
  0
LWPOLYLINE
  5
30D
100
AcDbEntity
  8
RACCORDO
100
AcDbPolyline
 62
7
  6
CONTINUOUS
 90
10
 70
0
 10
6.8683257082
 20
20.7616248667
 10
6.7185763217
 20
20.7550693427
 10
6.5153566124
 20
20.74988088
 10
6.3036188844
 20
20.7487442331
 10
6.0835332029
 20
20.7517002484
 10
5.8551255448
 20
20.7587681464
 10
5.6191107203
 20
20.7699213481
 10
5.3760374809
 20
20.7850756829
 10
5.1261550612
 20
20.8041472276
 10
4.9843516551
 20
20.816566121
  0
LWPOLYLINE
  5
30E
100
AcDbEntity
  8
RACCORDO
100
AcDbPolyline
 62
7
  6
CONTINUOUS
 90
3
 70
0
 10
7.4488190373
 20
20.5733036878
 10
7.3958504262
 20
20.5993934328
 10
7.2065457987
 20
20.6919349258
  0
LINE
  5
30F
100
AcDbEntity
  8
RACCORDO
100
AcDbLine
 62
253
  6
CONTINUOUS
 10
10.9651815601
 20
18.9138991336
 11
10.9662237863
 21
18.9133853848
  0
LINE
  5
310
100
AcDbEntity
  8
RACCORDO
100
AcDbLine
 62
7
  6
CONTINUOUS
 10
-2.2802375209
 20
24.0761233761
 11
-0.8306686195
 21
23.3513389254
  0
LINE
  5
311
100
AcDbEntity
  8
RACCORDO
100
AcDbLine
 62
7
  6
CONTINUOUS
 10
6.1297084299
 20
19.8711504007
 11
4.7554749519
 21
20.5582671397
  0
LINE
  5
312
100
AcDbEntity
  8
RACCORDO
100
AcDbLine
 62
7
  6
CONTINUOUS
 10
6.474200014
 20
20.0616207684
 11
4.983510837
 21
20.8069653569
  0
LINE
  5
313
100
AcDbEntity
  8
RACCORDO
100
AcDbLine
 62
7
  6
CONTINUOUS
 10
-1.0585832837
 20
23.8280124172
 11
-2.5493936817
 21
24.5734176162
  0
LINE
  5
314
100
AcDbEntity
  8
RACCORDO
100
AcDbLine
 62
7
  6
CONTINUOUS
 10
-3.5087285414
 20
25.0640434868
 11
-2.5989060716
 21
24.6091322519
  0
LINE
  5
315
100
AcDbEntity
  8
RACCORDO
100
AcDbLine
 62
7
  6
CONTINUOUS
 10
6.5590488941
 20
20.030154769
 11
7.4335348738
 21
19.5929117792
  0
LINE
  5
316
100
AcDbEntity
  8
0
100
AcDbLine
 62
253
  6
CONTINUOUS
 10
6.0835030128
 20
20.7789443419
 11
0.7802021539
 21
23.4305947714
  0
LINE
  5
317
100
AcDbEntity
  8
0
100
AcDbLine
 62
7
  6
CONTINUOUS
 10
0.9860371788
 20
23.3959754446
 11
6.2798614192
 21
20.7490633244
  0
LINE
  5
318
100
AcDbEntity
  8
RACCORDO
100
AcDbLine
 62
253
  6
CONTINUOUS
 10
-3.6882064802
 20
26.0422399704
 11
-2.6823437795
 21
25.53930862
  0
LINE
  5
319
100
AcDbEntity
  8
RACCORDO
100
AcDbLine
 62
253
  6
CONTINUOUS
 10
9.1279270577
 20
19.6341732014
 11
10.6350608992
 21
18.8806062807
  0
LINE
  5
31A
100
AcDbEntity
  8
RACCORDO
100
AcDbLine
 62
253
  6
CONTINUOUS
 10
-0.7024174498
 20
24.6059342081
 11
-0.1281646235
 21
24.3188077949
  0
LINE
  5
31B
100
AcDbEntity
  8
RACCORDO
100
AcDbLine
 62
7
  6
CONTINUOUS
 10
0.1444656535
 20
24.2258716794
 11
-0.5561900282
 21
24.5764945786
  0
LINE
  5
31C
100
AcDbEntity
  8
RACCORDO
100
AcDbLine
 62
7
  6
CONTINUOUS
 10
0.3464407821
 20
24.1232587152
 11
0.1444656535
 21
24.2258716794
  0
LINE
  5
31D
100
AcDbEntity
  8
RACCORDO
100
AcDbLine
 62
7
  6
CONTINUOUS
 10
0.5133516988
 20
24.0374377873
 11
0.3464407821
 21
24.1232587152
  0
LWPOLYLINE
  5
31E
100
AcDbEntity
  8
RACCORDO
100
AcDbPolyline
 62
7
  6
CONTINUOUS
 90
4
 70
0
 10
10.8746204516
 20
-20.0731038019
 10
10.9139883573
 20
-20.0376675347
 10
10.9513361056
 20
-19.9997617254
 10
10.9721427881
 20
-19.9766367764
  0
LWPOLYLINE
  5
31F
100
AcDbEntity
  8
RACCORDO
100
AcDbPolyline
 62
7
  6
CONTINUOUS
 90
4
 70
0
 10
10.7492898451
 20
-20.1593034518
 10
10.7916258687
 20
-20.1343941419
 10
10.8335455139
 20
-20.105596387
 10
10.8746204516
 20
-20.0731038019
  0
LINE
  5
320
100
AcDbEntity
  8
RACCORDO
100
AcDbLine
 62
7
  6
CONTINUOUS
 10
10.7250875923
 20
-20.1717430992
 11
10.7492898451
 21
-20.1593034518
  0
LINE
  5
321
100
AcDbEntity
  8
RACCORDO
100
AcDbLine
 62
253
  6
CONTINUOUS
 10
10.780179132
 20
-20.0620369726
 11
6.4171758877
 21
-22.1878557214
  0
LINE
  5
322
100
AcDbEntity
  8
RACCORDO
100
AcDbLine
 62
7
  6
CONTINUOUS
 10
10.7251313509
 20
-20.1717399156
 11
6.4171758877
 21
-22.2707373217
  0
LINE
  5
323
100
AcDbEntity
  8
RACCORDO
100
AcDbLine
 62
7
  6
CONTINUOUS
 10
-1.2561523056
 20
22.1371909554
 11
-3.2063979903
 21
21.9381561583
  0
LINE
  5
324
100
AcDbEntity
  8
RACCORDO
100
AcDbLine
 62
7
  6
CONTINUOUS
 10
-5.0693614375
 20
22.788661493
 11
-3.6770078884
 21
22.9307599005
  0
LINE
  5
325
100
AcDbEntity
  8
RACCORDO
100
AcDbLine
 62
7
  6
CONTINUOUS
 10
0.7802021539
 20
23.4305947714
 11
-0.5547475609
 21
23.294354785
  0
LINE
  5
326
100
AcDbEntity
  8
RACCORDO
100
AcDbLine
 62
7
  6
CONTINUOUS
 10
-5.5398503682
 20
23.1048823473
 11
-3.5896046835
 21
23.3039171444
  0
LWPOLYLINE
  5
327
100
AcDbEntity
  8
RACCORDO
100
AcDbPolyline
 62
7
  6
CONTINUOUS
 90
3
 70
0
 10
-3.3556017301
 20
26.0735163131
 10
-3.3952299196
 20
26.0889227382
 10
-3.4344529387
 20
26.1002418095
  0
LINE
  5
328
100
AcDbEntity
  8
RACCORDO
100
AcDbLine
 62
7
  6
CONTINUOUS
 10
-3.3300290576
 20
26.0615114397
 11
-3.3556017301
 21
26.0735163131
  0
LINE
  5
329
100
AcDbEntity
  8
RACCORDO
100
AcDbLine
 62
7
  6
CONTINUOUS
 10
-3.3307911759
 20
26.0618928659
 11
-2.4837873138
 21
25.638391287
  0
LINE
  5
32A
100
AcDbEntity
  8
RACCORDO
100
AcDbLine
 62
7
  6
CONTINUOUS
 10
9.4740854644
 20
19.6594548979
 11
10.9660688481
 21
18.913463206
  0
LINE
  5
32B
100
AcDbEntity
  8
RACCORDO
100
AcDbLine
 62
253
  6
CONTINUOUS
 10
8.9627653263
 20
20.3427533995
 11
8.019729008
 21
20.8142715586
  0
LINE
  5
32C
100
AcDbEntity
  8
RACCORDO
100
AcDbLine
 62
253
  6
CONTINUOUS
 10
-1.0497355282
 20
25.3490038267
 11
-1.9927718464
 21
25.8205219859
  0
LINE
  5
32D
100
AcDbEntity
  8
RACCORDO
100
AcDbLine
 62
7
  6
CONTINUOUS
 10
9.4635257876
 20
20.2790717963
 11
8.2091150935
 21
20.9062771434
  0
LINE
  5
32E
100
AcDbEntity
  8
RACCORDO
100
AcDbLine
 62
7
  6
CONTINUOUS
 10
-0.5729292088
 20
25.2972992945
 11
-1.8273398612
 21
25.9245046207
  0
LINE
  5
32F
100
AcDbEntity
  8
0
100
AcDbLine
 62
253
  6
CONTINUOUS
 10
16.3746308053
 20
18.0415953948
 11
3.9246911261
 21
24.2665652344
  0
LINE
  5
330
100
AcDbEntity
  8
RACCORDO
100
AcDbLine
 62
253
  6
CONTINUOUS
 10
4.9500710553
 20
-25.6271045793
 11
6.4171758877
 21
-24.9264269377
  0
LINE
  5
331
100
AcDbEntity
  8
RACCORDO
100
AcDbLine
 62
7
  6
CONTINUOUS
 10
4.884147533
 20
-25.762779351
 11
6.3506687524
 21
-25.0623804383
  0
LINE
  5
332
100
AcDbEntity
  8
RACCORDO
100
AcDbLine
 62
253
  6
CONTINUOUS
 10
4.9500710553
 20
-24.2183624702
 11
1.1980288812
 21
-25.9511798846
  0
LINE
  5
333
100
AcDbEntity
  8
RACCORDO
100
AcDbLine
 62
7
  6
CONTINUOUS
 10
4.4453411579
 20
-24.5567155167
 11
1.1291839661
 21
-26.0882268015
  0
LINE
  5
334
100
AcDbEntity
  8
0
100
AcDbLine
 62
7
  6
CONTINUOUS
 10
-6.9255932824
 20
23.6020357016
 11
-2.2802375209
 21
24.0761233761
  0
LINE
  5
335
100
AcDbEntity
  8
RACCORDO
100
AcDbLine
 62
7
  6
CONTINUOUS
 10
-2.0826028109
 20
24.5442106919
 11
-0.7024174498
 21
24.6059342081
  0
LWPOLYLINE
  5
336
100
AcDbEntity
  8
RACCORDO
100
AcDbPolyline
 62
7
  6
CONTINUOUS
 90
4
 70
0
 10
-3.4868932055
 20
26.1090193376
 10
-3.534548938
 20
26.1112537444
 10
-3.5836512851
 20
26.108361513
 10
-3.6337639493
 20
26.1001916403
  0
LINE
  5
337
100
AcDbEntity
  8
RACCORDO
100
AcDbLine
 62
7
  6
CONTINUOUS
 10
-3.4720180976
 20
26.1072563222
 11
-3.4868932055
 21
26.1090193376
  0
LINE
  5
338
100
AcDbEntity
  8
RACCORDO
100
AcDbLine
 62
7
  6
CONTINUOUS
 10
-3.4717765986
 20
26.1072238517
 11
-3.4720180976
 21
26.1072563222
  0
LINE
  5
339
100
AcDbEntity
  8
RACCORDO
100
AcDbLine
 62
7
  6
CONTINUOUS
 10
-3.4344529387
 20
26.1002418095
 11
-3.471775803
 21
26.1072299205
  0
LWPOLYLINE
  5
33A
100
AcDbEntity
  8
0
100
AcDbPolyline
 62
7
  6
CONTINUOUS
 90
22
 70
0
 10
4.7183908333
 20
24.5710446935
 10
4.6972053781
 20
24.58138666
 10
4.6583854056
 20
24.5985910368
 10
4.6211732302
 20
24.6129035141
 10
4.5848834363
 20
24.6247754096
 10
4.5493060391
 20
24.6344052215
 10
4.5147564127
 20
24.6418363528
 10
4.4814402634
 20
24.6471682382
 10
4.4493221526
 20
24.6505664431
 10
4.4184044403
 20
24.6521935623
 10
4.3888929946
 20
24.6522200781
 10
4.360880279
 20
24.6508567628
 10
4.3341726839
 20
24.6483045644
 10
4.308531258
 20
24.64472287
 10
4.2836275826
 20
24.6401935258
 10
4.2596691359
 20
24.6348698154
 10
4.2371554305
 20
24.6290246275
 10
4.2158316051
 20
24.6227517854
 10
4.1956921381
 20
24.6161161486
 10
4.1775204552
 20
24.6095241906
 10
4.1617570127
 20
24.6033762696
 10
4.1484029052
 20
24.5975969414
  0
LINE
  5
33B
100
AcDbEntity
  8
0
100
AcDbLine
 62
7
  6
CONTINUOUS
 10
4.7195239547
 20
24.570523302
 11
4.7178812347
 21
24.5713529916
  0
LWPOLYLINE
  5
33C
100
AcDbEntity
  8
0
100
AcDbPolyline
 62
7
  6
CONTINUOUS
 90
5
 70
0
 10
18.3423193783
 20
17.7410207404
 10
18.2859450308
 20
17.7791773099
 10
18.2262625201
 20
17.8149675932
 10
18.1606293172
 20
17.8500153932
 10
4.7204853837
 20
24.5700545732
  0
LINE
  5
33D
100
AcDbEntity
  8
0
100
AcDbLine
 62
7
  6
CONTINUOUS
 10
18.3422853559
 20
17.7411666266
 11
18.343333483
 21
17.7404167469
  0
LWPOLYLINE
  5
33E
100
AcDbEntity
  8
RACCORDO
100
AcDbPolyline
 62
7
  6
CONTINUOUS
 90
4
 70
0
 10
-3.6337639493
 20
26.1001916403
 10
-3.6843237875
 20
26.0866979779
 10
-3.7349912332
 20
26.0678902728
 10
-3.7769244218
 20
26.0482803293
  0
ARC
  5
33F
100
AcDbEntity
  8
RACCORDO
100
AcDbCircle
 62
253
  6
CONTINUOUS
 10
-13.0251173521
 20
-20.6261150258
 40
45.9677352056
100
AcDbArc
 50
63.7740205496
 51
64.0779010637
  0
ARC
  5
340
100
AcDbEntity
  8
RACCORDO
100
AcDbCircle
 62
253
  6
CONTINUOUS
 10
-11.3637242166
 20
-17.2539586097
 40
42.2085243822
100
AcDbArc
 50
63.5961482269
 51
63.7742480229
  0
ARC
  5
341
100
AcDbEntity
  8
RACCORDO
100
AcDbCircle
 62
253
  6
CONTINUOUS
 10
-18.8966442968
 20
-13.1823800579
 40
41.9356377856
100
AcDbArc
 50
62.661654438
 51
63.162731865
  0
ARC
  5
342
100
AcDbEntity
  8
RACCORDO
100
AcDbCircle
 62
253
  6
CONTINUOUS
 10
-17.3077361113
 20
-10.0403998614
 40
38.4147475233
100
AcDbArc
 50
63.1616854855
 51
63.4349919663
  0
ARC
  5
343
100
AcDbEntity
  8
0
100
AcDbCircle
 62
7
  6
CONTINUOUS
 10
12.9910850294
 20
0.1944534159
 40
5.2573740572
100
AcDbArc
 50
352.9811910049
 51
353.7191043039
  0
ARC
  5
344
100
AcDbEntity
  8
0
100
AcDbCircle
 62
253
  6
CONTINUOUS
 10
-11.9485192757
 20
-3.4116074084
 40
3.5928349999
100
AcDbArc
 50
61.5035322703
 51
63.425967767
  0
ARC
  5
345
100
AcDbEntity
  8
0
100
AcDbCircle
 62
7
  6
CONTINUOUS
 10
13.7963605609
 20
-1.8146776747
 40
3.4531351597
100
AcDbArc
 50
297.3443898434
 51
299.3207400635
  0
ARC
  5
346
100
AcDbEntity
  8
0
100
AcDbCircle
 62
7
  6
CONTINUOUS
 10
-11.6899973913
 20
-3.1598672998
 40
3.1601266512
100
AcDbArc
 50
63.4255374798
 51
65.5404231148
  0
ARC
  5
347
100
AcDbEntity
  8
RACCORDO
100
AcDbCircle
 62
253
  6
CONTINUOUS
 10
4.2927158214
 20
-22.7845120854
 40
1.9484762837
100
AcDbArc
 50
263.9563539536
 51
265.4357234709
  0
ARC
  5
348
100
AcDbEntity
  8
0
100
AcDbCircle
 62
253
  6
CONTINUOUS
 10
5.9902389851
 20
-15.3910532089
 40
1.2191875566
100
AcDbArc
 50
290.5186125559
 51
291.3353167608
  0
ARC
  5
349
100
AcDbEntity
  8
RACCORDO
100
AcDbCircle
 62
253
  6
CONTINUOUS
 10
3.1924741739
 20
-24.7143275972
 40
0.945271388
100
AcDbArc
 50
359.2439096893
 51
0.9512029135
  0
ARC
  5
34A
100
AcDbEntity
  8
0
100
AcDbCircle
 62
7
  6
CONTINUOUS
 10
-8.8773402313
 20
-3.2976877562
 40
0.7233169926
100
AcDbArc
 50
228.6278439571
 51
233.2242008854
  0
ARC
  5
34B
100
AcDbEntity
  8
RACCORDO
100
AcDbCircle
 62
253
  6
CONTINUOUS
 10
10.5549465626
 20
-19.5755352519
 40
0.5524046364
100
AcDbArc
 50
355.7279435745
 51
359.9968897723
  0
ARC
  5
34C
100
AcDbEntity
  8
0
100
AcDbCircle
 62
7
  6
CONTINUOUS
 10
6.2551094177
 20
-18.2035947392
 40
0.5002118054
100
AcDbArc
 50
288.9062867649
 51
292.5823999441
  0
ARC
  5
34D
100
AcDbEntity
  8
RACCORDO
100
AcDbCircle
 62
7
  6
CONTINUOUS
 10
-3.3845939489
 20
-21.830474618
 40
0.3791573118
100
AcDbArc
 50
243.4772724158
 51
253.7672327561
  0
ARC
  5
34E
100
AcDbEntity
  8
0
100
AcDbCircle
 62
253
  6
CONTINUOUS
 10
6.3574263574
 20
-18.3338471594
 40
0.335591958
100
AcDbArc
 50
280.2578699579
 51
288.7303357103
  0
ARC
  5
34F
100
AcDbEntity
  8
0
100
AcDbCircle
 62
253
  6
CONTINUOUS
 10
6.3617278301
 20
-18.3471803217
 40
0.3215837167
100
AcDbArc
 50
288.7673594294
 51
292.7972393613
  0
ARC
  5
350
100
AcDbEntity
  8
RACCORDO
100
AcDbCircle
 62
253
  6
CONTINUOUS
 10
-16.6987226446
 20
-10.550810798
 40
0.3069272741
100
AcDbArc
 50
289.0209983404
 51
289.9031159342
  0
ARC
  5
351
100
AcDbEntity
  8
RACCORDO
100
AcDbCircle
 62
253
  6
CONTINUOUS
 10
-16.6873025156
 20
-10.5813541064
 40
0.2743207779
100
AcDbArc
 50
289.8320768624
 51
294.5928951358
  0
ARC
  5
352
100
AcDbEntity
  8
RACCORDO
100
AcDbCircle
 62
7
  6
CONTINUOUS
 10
-15.9782021483
 20
-17.3578853772
 40
0.2518729442
100
AcDbArc
 50
225.2340714677
 51
243.3664477976
  0
ARC
  5
353
100
AcDbEntity
  8
RACCORDO
100
AcDbCircle
 62
7
  6
CONTINUOUS
 10
-15.9792277231
 20
-17.3593901191
 40
0.2500825905
100
AcDbArc
 50
179.9834354107
 51
225.1581200356
  0
ARC
  5
354
100
AcDbEntity
  8
RACCORDO
100
AcDbCircle
 62
7
  6
CONTINUOUS
 10
1.0243721913
 20
-25.8613047638
 40
0.2499582352
100
AcDbArc
 50
243.3891647544
 51
294.7914838205
  0
ARC
  5
355
100
AcDbEntity
  8
RACCORDO
100
AcDbCircle
 62
253
  6
CONTINUOUS
 10
-16.3750391962
 20
-10.8421441928
 40
0.2236517065
100
AcDbArc
 50
174.095039074
 51
179.7021052081
  0
ARC
  5
356
100
AcDbEntity
  8
0
100
AcDbCircle
 62
253
  6
CONTINUOUS
 10
6.3706831388
 20
-18.482157929
 40
0.1986252368
100
AcDbArc
 50
292.6571258637
 51
305.6087976367
  0
ARC
  5
357
100
AcDbEntity
  8
RACCORDO
100
AcDbCircle
 62
253
  6
CONTINUOUS
 10
-16.3781967682
 20
-10.8312375538
 40
0.194942719
100
AcDbArc
 50
173.3789162516
 51
179.8686416958
  0
ARC
  5
358
100
AcDbEntity
  8
0
100
AcDbCircle
 62
7
  6
CONTINUOUS
 10
15.3398915384
 20
-4.7978920941
 40
0.0950031237
100
AcDbArc
 50
299.2958630676
 51
304.6292228555
  0
ARC
  5
359
100
AcDbEntity
  8
RACCORDO
100
AcDbCircle
 62
253
  6
CONTINUOUS
 10
-16.0488690271
 20
-17.4987161161
 40
0.0943028469
100
AcDbArc
 50
237.7841232573
 51
243.3886678985
  0
ARC
  5
35A
100
AcDbEntity
  8
RACCORDO
100
AcDbCircle
 62
253
  6
CONTINUOUS
 10
0.3756506468
 20
26.6511017037
 40
3.3593693928
100
AcDbArc
 50
247.364847938
 51
260.8414248253
  0
ARC
  5
35B
100
AcDbEntity
  8
0
100
AcDbCircle
 62
7
  6
CONTINUOUS
 10
-0.157367163
 20
17.3077497134
 40
2.7842378659
100
AcDbArc
 50
33.8084313704
 51
38.5355612662
  0
ARC
  5
35C
100
AcDbEntity
  8
0
100
AcDbCircle
 62
253
  6
CONTINUOUS
 10
5.9896496751
 20
12.7180226604
 40
1.2208060122
100
AcDbArc
 50
290.5179437781
 51
291.335340679
  0
ARC
  5
35D
100
AcDbEntity
  8
RACCORDO
100
AcDbCircle
 62
7
  6
CONTINUOUS
 10
6.899575243
 20
20.0600533536
 40
0.7024913722
100
AcDbArc
 50
64.0851441491
 51
70.4784488269
  0
ARC
  5
35E
100
AcDbEntity
  8
RACCORDO
100
AcDbCircle
 62
7
  6
CONTINUOUS
 10
6.9003474193
 20
20.0599686936
 40
0.7023871408
100
AcDbArc
 50
80.3670707801
 51
92.6980294575
  0
ARC
  5
35F
100
AcDbEntity
  8
RACCORDO
100
AcDbCircle
 62
7
  6
CONTINUOUS
 10
6.9004897071
 20
20.0622222952
 40
0.7001415452
100
AcDbArc
 50
70.4896700159
 51
80.3476902464
  0
ARC
  5
360
100
AcDbEntity
  8
RACCORDO
100
AcDbCircle
 62
253
  6
CONTINUOUS
 10
-3.5192618301
 20
25.6841812541
 40
0.4221219618
100
AcDbArc
 50
63.4829890331
 51
66.079890767
  0
ARC
  5
361
100
AcDbEntity
  8
RACCORDO
100
AcDbCircle
 62
253
  6
CONTINUOUS
 10
-3.4738493352
 20
25.692462186
 40
0.4060846905
100
AcDbArc
 50
95.8011741356
 51
101.8555941587
  0
ARC
  5
362
100
AcDbEntity
  8
RACCORDO
100
AcDbCircle
 62
7
  6
CONTINUOUS
 10
-0.7469760841
 20
24.9449923956
 40
0.3929406214
100
AcDbArc
 50
63.3470121483
 51
64.888185117
  0
ARC
  5
363
100
AcDbEntity
  8
RACCORDO
100
AcDbCircle
 62
253
  6
CONTINUOUS
 10
-3.5003290029
 20
25.7275537138
 40
0.3747982423
100
AcDbArc
 50
66.0372115706
 51
70.9039928174
  0
ARC
  5
364
100
AcDbEntity
  8
RACCORDO
100
AcDbCircle
 62
7
  6
CONTINUOUS
 10
-15.9792812694
 20
20.7862266867
 40
0.2500277451
100
AcDbArc
 50
118.3527188159
 51
179.9960349571
  0
ARC
  5
365
100
AcDbEntity
  8
RACCORDO
100
AcDbCircle
 62
253
  6
CONTINUOUS
 10
-12.9511227817
 20
22.7985526257
 40
0.1515480382
100
AcDbArc
 50
351.3531647081
 51
359.8490656912
  0
ARC
  5
366
100
AcDbEntity
  8
RACCORDO
100
AcDbCircle
 62
7
  6
CONTINUOUS
 10
6.503227817
 20
19.9515737876
 40
0.0973975039
100
AcDbArc
 50
75.7411115855
 51
86.0777601261
  0
ARC
  5
367
100
AcDbEntity
  8
RACCORDO
100
AcDbCircle
 62
7
  6
CONTINUOUS
 10
4.9317433446
 20
20.7355784837
 40
0.085271403
100
AcDbArc
 50
84.6986703428
 51
87.476787697
  0
ARC
  5
368
100
AcDbEntity
  8
RACCORDO
100
AcDbCircle
 62
253
  6
CONTINUOUS
 10
436.0728998057
 20
0.3047324823
 40
455.009929614
100
AcDbArc
 50
178.1713823594
 51
181.8170997933
  0
ARC
  5
369
100
AcDbEntity
  8
RACCORDO
100
AcDbCircle
 62
253
  6
CONTINUOUS
 10
444.4416534634
 20
-8.1514303233
 40
446.4700117562
100
AcDbArc
 50
178.1364422933
 51
181.8635577067
  0
ARC
  5
36A
100
AcDbEntity
  8
RACCORDO
100
AcDbCircle
 62
253
  6
CONTINUOUS
 10
444.5249762412
 20
-8.1530282473
 40
446.20289431
100
AcDbArc
 50
178.1364235426
 51
181.8635764574
  0
ARC
  5
36B
100
AcDbEntity
  8
RACCORDO
100
AcDbCircle
 62
253
  6
CONTINUOUS
 10
431.0483868411
 20
-7.5483394191
 40
434.9715554194
100
AcDbArc
 50
181.251589836
 51
181.8671172574
  0
ARC
  5
36C
100
AcDbEntity
  8
RACCORDO
100
AcDbCircle
 62
7
  6
CONTINUOUS
 10
415.0591140641
 20
-1.1764495396
 40
431.761857252
100
AcDbArc
 50
181.2960358579
 51
181.8790952631
  0
ARC
  5
36D
100
AcDbEntity
  8
RACCORDO
100
AcDbCircle
 62
7
  6
CONTINUOUS
 10
427.7163254475
 20
-7.5050552312
 40
431.7618572521
100
AcDbArc
 50
181.2960358579
 51
181.8790952631
  0
ARC
  5
36E
100
AcDbEntity
  8
RACCORDO
100
AcDbCircle
 62
253
  6
CONTINUOUS
 10
413.1430591396
 20
-1.0208350869
 40
430.1809140977
100
AcDbArc
 50
181.2615885477
 51
181.8840489668
  0
SPLINE
  5
36F
100
AcDbEntity
  8
RACCORDO
100
AcDbSpline
 62
7
  6
CONTINUOUS
 70
0
 71
3
 72
9
 73
5
 74
3
 42
0.0000001
 43
0.0000001
 44
0.0000000001
 12
0.0824121489
 22
0.0412141459
 32
0.0
 13
0.0824153777
 23
-0.0412076889
 33
0.0
 40
0.0
 40
0.0
 40
0.0
 40
0.0
 40
0.4637026159
 40
1.0
 40
1.0
 40
1.0
 40
1.0
 10
-1.0026639565
 20
18.7536667094
 30
0.0
 10
-0.9899257135
 20
18.7600370785
 30
0.0
 10
-0.9579495348
 20
18.7653598749
 30
0.0
 10
-0.927944907
 20
18.7553580322
 30
0.0
 10
-0.9132118565
 20
18.747991507
 30
0.0
 11
-1.0026639565
 21
18.7536667094
 31
0.0
 11
-0.9606947612
 21
18.7616783621
 31
0.0
 11
-0.9132118565
 21
18.747991507
 31
0.0
  0
SPLINE
  5
370
100
AcDbEntity
  8
RACCORDO
100
AcDbSpline
 62
7
  6
CONTINUOUS
 70
0
 71
3
 72
11
 73
7
 74
5
 42
0.0000001
 43
0.0000001
 44
0.0000000001
 12
-0.0141023425
 22
-0.0602215812
 32
0.0
 13
-0.0615311388
 23
-0.0062796384
 33
0.0
 40
0.0
 40
0.0
 40
0.0
 40
0.0
 40
0.1668656033
 40
0.3782755326
 40
0.6547498671
 40
1.0
 40
1.0
 40
1.0
 40
1.0
 10
2.8276642655
 20
20.1470377677
 30
0.0
 10
2.8268798668
 20
20.1436881308
 30
0.0
 10
2.8224308435
 20
20.1367186304
 30
0.0
 10
2.8106319513
 20
20.1296907079
 30
0.0
 10
2.7941579684
 20
20.1245581463
 30
0.0
 10
2.7814375584
 20
20.122659311
 30
0.0
 10
2.7743563471
 20
20.121936629
 30
0.0
 11
2.8276642655
 21
20.1470377677
 31
0.0
 11
2.8224940217
 21
20.1381054268
 31
0.0
 11
2.8116438487
 21
20.130808036
 31
0.0
 11
2.7954335191
 21
20.12536376
 31
0.0
 11
2.7743563471
 21
20.121936629
 31
0.0
  0
SPLINE
  5
371
100
AcDbEntity
  8
RACCORDO
100
AcDbSpline
 62
7
  6
CONTINUOUS
 70
0
 71
3
 72
11
 73
7
 74
5
 42
0.0000001
 43
0.0000001
 44
0.0000000001
 12
-0.0141023425
 22
-0.0602215812
 32
0.0
 13
-0.0615311388
 23
-0.0062796384
 33
0.0
 40
0.0
 40
0.0
 40
0.0
 40
0.0
 40
0.1668656033
 40
0.3782755326
 40
0.6547498671
 40
1.0
 40
1.0
 40
1.0
 40
1.0
 10
-1.2028443873
 20
22.1622920941
 30
0.0
 10
-1.2036287859
 20
22.1589424572
 30
0.0
 10
-1.2080778092
 20
22.1519729568
 30
0.0
 10
-1.2198767015
 20
22.1449450343
 30
0.0
 10
-1.2363506844
 20
22.1398124727
 30
0.0
 10
-1.2490710943
 20
22.1379136374
 30
0.0
 10
-1.2561523056
 20
22.1371909554
 30
0.0
 11
-1.2028443873
 21
22.1622920941
 31
0.0
 11
-1.208014631
 21
22.1533597532
 31
0.0
 11
-1.218864804
 21
22.1460623623
 31
0.0
 11
-1.2350751337
 21
22.1406180863
 31
0.0
 11
-1.2561523056
 21
22.1371909554
 31
0.0
  0
SPLINE
  5
372
100
AcDbEntity
  8
0
100
AcDbSpline
 62
7
  6
CONTINUOUS
 70
0
 71
3
 72
9
 73
5
 74
3
 42
0.0000001
 43
0.0000001
 44
0.0000000001
 12
-0.1117022366
 22
0.0558254986
 32
0.0
 13
-0.1241581938
 23
0.0133648375
 33
0.0
 40
0.0
 40
0.0
 40
0.0
 40
0.0
 40
0.2473923712
 40
1.0
 40
1.0
 40
1.0
 40
1.0
 10
0.9859755071
 20
23.3960070113
 30
0.0
 10
0.9767640801
 20
23.4006106121
 30
0.0
 10
0.9386919213
 20
23.4175168073
 30
0.0
 10
0.8975351233
 20
23.4272715049
 30
0.0
 10
0.8663876553
 20
23.4306243311
 30
0.0
 11
0.9859755071
 21
23.3960070113
 31
0.0
 11
0.9577377677
 21
23.4085378465
 31
0.0
 11
0.8663876553
 21
23.4306243311
 31
0.0
  0
SPLINE
  5
373
100
AcDbEntity
  8
0
100
AcDbSpline
 62
7
  6
CONTINUOUS
 70
0
 71
3
 72
9
 73
5
 74
3
 42
0.0000001
 43
0.0000001
 44
0.0000000001
 12
-0.0857796487
 22
0.0092336319
 32
0.0
 13
-0.0858293689
 23
-0.0087594251
 33
0.0
 40
0.0
 40
0.0
 40
0.0
 40
0.0
 40
0.2447357831
 40
1.0
 40
1.0
 40
1.0
 40
1.0
 10
0.8663876553
 20
23.4306243311
 30
0.0
 10
0.8593898722
 20
23.4313775978
 30
0.0
 10
0.8307140481
 20
23.4336620288
 30
0.0
 10
0.8018101042
 20
23.4327999982
 30
0.0
 10
0.7802021539
 20
23.4305947714
 30
0.0
 11
0.8663876553
 21
23.4306243311
 31
0.0
 11
0.8453402083
 21
23.4323073026
 31
0.0
 11
0.7802021539
 21
23.4305947714
 31
0.0
  0
SPLINE
  5
374
100
AcDbEntity
  8
RACCORDO
100
AcDbSpline
 62
7
  6
CONTINUOUS
 70
0
 71
3
 72
11
 73
7
 74
5
 42
0.0000001
 43
0.0000001
 44
0.0000000001
 12
-0.2829130402
 22
-0.0288730492
 32
0.0
 13
-0.2543594957
 23
0.1271797478
 33
0.0
 40
0.0
 40
0.0
 40
0.0
 40
0.0
 40
0.2188460577
 40
0.482866723
 40
0.7559032078
 40
1.0
 40
1.0
 40
1.0
 40
1.0
 10
-0.5547475609
 20
23.294354785
 30
0.0
 10
-0.5753856954
 20
23.292248534
 30
0.0
 10
-0.6214451824
 20
23.2934237022
 30
0.0
 10
-0.6923855437
 20
23.3041848754
 30
0.0
 10
-0.7641016493
 20
23.3231463624
 30
0.0
 10
-0.8099725072
 20
23.3409908692
 30
0.0
 10
-0.8306686195
 20
23.3513389254
 30
0.0
 11
-0.5547475609
 21
23.294354785
 31
0.0
 11
-0.6169834284
 21
23.2944843963
 31
0.0
 11
-0.6912745687
 21
23.3053593352
 31
0.0
 11
-0.7663108293
 21
23.3253239908
 31
0.0
 11
-0.8306686195
 21
23.3513389254
 31
0.0
  0
SPLINE
  5
375
100
AcDbEntity
  8
0
100
AcDbSpline
 62
7
  6
CONTINUOUS
 70
0
 71
3
 72
9
 73
5
 74
3
 42
0.0000001
 43
0.0000001
 44
0.0000000001
 12
0.1434906965
 22
0.0717453483
 32
0.0
 13
0.1595984812
 23
0.0162880254
 33
0.0
 40
0.0
 40
0.0
 40
0.0
 40
0.0
 40
0.2656286414
 40
1.0
 40
1.0
 40
1.0
 40
1.0
 10
-7.078548891
 20
23.5552283074
 30
0.0
 10
-7.0658438114
 20
23.5615808472
 30
0.0
 10
-7.0171712404
 20
23.5836809459
 30
0.0
 10
-6.9646614669
 20
23.5980485484
 30
0.0
 10
-6.9255932824
 20
23.6020357016
 30
0.0
 11
-7.078548891
 21
23.5552283074
 31
0.0
 11
-7.0397154061
 21
23.5727760917
 31
0.0
 11
-6.9255932824
 21
23.6020357016
 31
0.0
  0
SPLINE
  5
376
100
AcDbEntity
  8
RACCORDO
100
AcDbSpline
 62
7
  6
CONTINUOUS
 70
0
 71
3
 72
10
 73
6
 74
4
 42
0.0000001
 43
0.0000001
 44
0.0000000001
 12
-0.0784873533
 22
0.0392436767
 32
0.0
 13
0.0200078767
 23
0.0854401291
 33
0.0
 40
0.0
 40
0.0
 40
0.0
 40
0.0
 40
0.3614595451
 40
0.6486951391
 40
1.0
 40
1.0
 40
1.0
 40
1.0
 10
4.7554749519
 20
20.5582671397
 30
0.0
 10
4.7460182842
 20
20.5629954735
 30
0.0
 10
4.7291933385
 20
20.5725260054
 30
0.0
 10
4.7065107429
 20
20.5890385956
 30
0.0
 10
4.6929024249
 20
20.6075980393
 30
0.0
 10
4.6952453797
 20
20.6176032169
 30
0.0
 11
4.7554749519
 21
20.5582671397
 31
0.0
 11
4.727923607
 21
20.5739832059
 31
0.0
 11
4.7081411434
 21
20.5896025666
 31
0.0
 11
4.6952453797
 21
20.6176032169
 31
0.0
  0
SPLINE
  5
377
100
AcDbEntity
  8
0
100
AcDbSpline
 62
7
  6
CONTINUOUS
 70
0
 71
3
 72
11
 73
7
 74
5
 42
0.0000001
 43
0.0000001
 44
0.0000000001
 12
0.0
 22
1.0277529279
 32
0.0
 13
0.9192501643
 23
0.4596250822
 33
0.0
 40
0.0
 40
0.0
 40
0.0
 40
0.0
 40
0.2468124806
 40
0.5117852459
 40
0.7703059488
 40
1.0
 40
1.0
 40
1.0
 40
1.0
 10
-7.9370917704
 20
22.5197390851
 30
0.0
 10
-7.9370917704
 20
22.6042931683
 30
0.0
 10
-7.9079120151
 20
22.7799240478
 30
0.0
 10
-7.8022569046
 20
23.0241755784
 30
0.0
 10
-7.6469759635
 20
23.23304298
 30
0.0
 10
-7.5124991217
 20
23.3382531921
 30
0.0
 10
-7.4421170236
 20
23.3734442411
 30
0.0
 11
-7.9370917704
 21
22.5197390851
 31
0.0
 11
-7.8994080771
 21
22.7705866008
 31
0.0
 11
-7.7921170236
 21
23.0208871635
 31
0.0
 11
-7.6315488591
 21
23.2325754132
 31
0.0
 11
-7.4421170236
 21
23.3734442411
 31
0.0
  0
SPLINE
  5
378
100
AcDbEntity
  8
RACCORDO
100
AcDbSpline
 62
7
  6
CONTINUOUS
 70
0
 71
3
 72
11
 73
7
 74
5
 42
0.0000001
 43
0.0000001
 44
0.0000000001
 12
0.24902617
 22
-0.124513085
 32
0.0
 13
0.0191573084
 23
-0.2777598589
 33
0.0
 40
0.0
 40
0.0
 40
0.0
 40
0.0
 40
0.2279059286
 40
0.4839745214
 40
0.7487298764
 40
1.0
 40
1.0
 40
1.0
 40
1.0
 10
-6.4756903102
 20
21.5292307338
 30
0.0
 10
-6.45677213
 20
21.5197716437
 30
0.0
 10
-6.4204177016
 20
21.4919704843
 30
0.0
 10
-6.37743566
 20
21.4366659872
 30
0.0
 10
-6.3466844716
 20
21.3713367664
 30
0.0
 10
-6.336411658
 20
21.3239441192
 30
0.0
 10
-6.3348071049
 20
21.3006798679
 30
0.0
 11
-6.4756903102
 21
21.5292307338
 31
0.0
 11
-6.4244338312
 21
21.4918259118
 31
0.0
 11
-6.3801474267
 21
21.435954392
 31
0.0
 11
-6.3488533507
 21
21.3692138216
 31
0.0
 11
-6.3348071049
 21
21.3006798679
 31
0.0
  0
SPLINE
  5
379
100
AcDbEntity
  8
RACCORDO
100
AcDbSpline
 62
7
  6
CONTINUOUS
 70
0
 71
3
 72
11
 73
7
 74
5
 42
0.0000001
 43
0.0000001
 44
0.0000000001
 12
-0.2829130402
 22
-0.0288730492
 32
0.0
 13
-0.2543594957
 23
0.1271797478
 33
0.0
 40
0.0
 40
0.0
 40
0.0
 40
0.0
 40
0.2188460577
 40
0.482866723
 40
0.7559032078
 40
1.0
 40
1.0
 40
1.0
 40
1.0
 10
0.8241106624
 20
19.9229018319
 30
0.0
 10
0.8034725279
 20
19.9207955809
 30
0.0
 10
0.7574130409
 20
19.9219707492
 30
0.0
 10
0.6864726796
 20
19.9327319223
 30
0.0
 10
0.614756574
 20
19.9516934093
 30
0.0
 10
0.5688857161
 20
19.9695379162
 30
0.0
 10
0.5481896038
 20
19.9798859723
 30
0.0
 11
0.8241106624
 21
19.9229018319
 31
0.0
 11
0.7618747949
 21
19.9230314432
 31
0.0
 11
0.6875836546
 21
19.9339063821
 31
0.0
 11
0.612547394
 21
19.9538710378
 31
0.0
 11
0.5481896038
 21
19.9798859723
 31
0.0
  0
SPLINE
  5
37A
100
AcDbEntity
  8
RACCORDO
100
AcDbSpline
 62
7
  6
CONTINUOUS
 70
0
 71
3
 72
11
 73
7
 74
5
 42
0.0000001
 43
0.0000001
 44
0.0000000001
 12
-0.2829130402
 22
-0.0288730492
 32
0.0
 13
-0.2543594957
 23
0.1271797478
 33
0.0
 40
0.0
 40
0.0
 40
0.0
 40
0.0
 40
0.2188460577
 40
0.482866723
 40
0.7559032078
 40
1.0
 40
1.0
 40
1.0
 40
1.0
 10
-3.2063979903
 20
21.9381561583
 30
0.0
 10
-3.2270361248
 20
21.9360499073
 30
0.0
 10
-3.2730956118
 20
21.9372250756
 30
0.0
 10
-3.3440359731
 20
21.9479862487
 30
0.0
 10
-3.4157520788
 20
21.9669477357
 30
0.0
 10
-3.4616229366
 20
21.9847922426
 30
0.0
 10
-3.482319049
 20
21.9951402987
 30
0.0
 11
-3.2063979903
 21
21.9381561583
 31
0.0
 11
-3.2686338578
 21
21.9382857696
 31
0.0
 11
-3.3429249982
 21
21.9491607085
 31
0.0
 11
-3.4179612587
 21
21.9691253642
 31
0.0
 11
-3.482319049
 21
21.9951402987
 31
0.0
  0
SPLINE
  5
37B
100
AcDbEntity
  8
RACCORDO
100
AcDbSpline
 62
7
  6
CONTINUOUS
 70
0
 71
3
 72
10
 73
6
 74
4
 42
0.0000001
 43
0.0000001
 44
0.0000000001
 12
-0.0784873533
 22
0.0392436767
 32
0.0
 13
0.0200078767
 23
0.0854401291
 33
0.0
 40
0.0
 40
0.0
 40
0.0
 40
0.0
 40
0.3614595451
 40
0.6486951391
 40
1.0
 40
1.0
 40
1.0
 40
1.0
 10
-1.5024200616
 20
21.0051908051
 30
0.0
 10
-1.5118767293
 20
21.0099191389
 30
0.0
 10
-1.528701675
 20
21.0194496708
 30
0.0
 10
-1.5513842706
 20
21.035962261
 30
0.0
 10
-1.5649925886
 20
21.0545217047
 30
0.0
 10
-1.5626496338
 20
21.0645268823
 30
0.0
 11
-1.5024200616
 21
21.0051908051
 31
0.0
 11
-1.5299714065
 21
21.0209068713
 31
0.0
 11
-1.5497538701
 21
21.036526232
 31
0.0
 11
-1.5626496338
 21
21.0645268823
 31
0.0
  0
SPLINE
  5
37C
100
AcDbEntity
  8
RACCORDO
100
AcDbSpline
 62
7
  6
CONTINUOUS
 70
0
 71
3
 72
10
 73
6
 74
4
 42
0.0000001
 43
0.0000001
 44
0.0000000001
 12
-0.0784873533
 22
0.0392436767
 32
0.0
 13
0.0200078767
 23
0.0854401291
 33
0.0
 40
0.0
 40
0.0
 40
0.0
 40
0.0
 40
0.3614595451
 40
0.6486951391
 40
1.0
 40
1.0
 40
1.0
 40
1.0
 10
-5.5329287144
 20
23.0204451314
 30
0.0
 10
-5.5423853821
 20
23.0251734653
 30
0.0
 10
-5.5592103278
 20
23.0347039972
 30
0.0
 10
-5.5818929233
 20
23.0512165874
 30
0.0
 10
-5.5955012413
 20
23.0697760311
 30
0.0
 10
-5.5931582866
 20
23.0797812086
 30
0.0
 11
-5.5329287144
 21
23.0204451314
 31
0.0
 11
-5.5604800592
 21
23.0361611977
 31
0.0
 11
-5.5802625229
 21
23.0517805584
 31
0.0
 11
-5.5931582866
 21
23.0797812086
 31
0.0
  0
SPLINE
  5
37D
100
AcDbEntity
  8
RACCORDO
100
AcDbSpline
 62
7
  6
CONTINUOUS
 70
0
 71
3
 72
11
 73
7
 74
5
 42
0.0000001
 43
0.0000001
 44
0.0000000001
 12
0.0141023425
 22
0.0602215812
 32
0.0
 13
0.0615311388
 23
0.0062796384
 33
0.0
 40
0.0
 40
0.0
 40
0.0
 40
0.0
 40
0.1668656033
 40
0.3782755326
 40
0.6547498671
 40
1.0
 40
1.0
 40
1.0
 40
1.0
 10
4.6952453797
 20
20.6176032169
 30
0.0
 10
4.6960297783
 20
20.6209528537
 30
0.0
 10
4.7004788016
 20
20.6279223541
 30
0.0
 10
4.7122776939
 20
20.6349502766
 30
0.0
 10
4.7287516768
 20
20.6400828383
 30
0.0
 10
4.7414720867
 20
20.6419816735
 30
0.0
 10
4.748553298
 20
20.6427043555
 30
0.0
 11
4.6952453797
 21
20.6176032169
 31
0.0
 11
4.7004156234
 21
20.6265355577
 31
0.0
 11
4.7112657964
 21
20.6338329486
 31
0.0
 11
4.7274761261
 21
20.6392772246
 31
0.0
 11
4.748553298
 21
20.6427043555
 31
0.0
  0
SPLINE
  5
37E
100
AcDbEntity
  8
RACCORDO
100
AcDbSpline
 62
7
  6
CONTINUOUS
 70
0
 71
3
 72
11
 73
7
 74
5
 42
0.0000001
 43
0.0000001
 44
0.0000000001
 12
0.0141023425
 22
0.0602215812
 32
0.0
 13
0.0615311388
 23
0.0062796384
 33
0.0
 40
0.0
 40
0.0
 40
0.0
 40
0.0
 40
0.1668656033
 40
0.3782755326
 40
0.6547498671
 40
1.0
 40
1.0
 40
1.0
 40
1.0
 10
-5.5931582866
 20
23.0797812086
 30
0.0
 10
-5.5923738879
 20
23.0831308455
 30
0.0
 10
-5.5879248646
 20
23.0901003459
 30
0.0
 10
-5.5761259724
 20
23.0971282684
 30
0.0
 10
-5.5596519895
 20
23.10226083
 30
0.0
 10
-5.5469315795
 20
23.1041596653
 30
0.0
 10
-5.5398503682
 20
23.1048823473
 30
0.0
 11
-5.5931582866
 21
23.0797812086
 31
0.0
 11
-5.5879880429
 21
23.0887135495
 31
0.0
 11
-5.5771378698
 21
23.0960109404
 31
0.0
 11
-5.5609275402
 21
23.1014552164
 31
0.0
 11
-5.5398503682
 21
23.1048823473
 31
0.0
  0
SPLINE
  5
37F
100
AcDbEntity
  8
RACCORDO
100
AcDbSpline
 62
7
  6
CONTINUOUS
 70
0
 71
3
 72
10
 73
6
 74
4
 42
0.0000001
 43
0.0000001
 44
0.0000000001
 12
0.0784873533
 22
-0.0392436767
 32
0.0
 13
-0.0200078767
 23
-0.0854401291
 33
0.0
 40
0.0
 40
0.0
 40
0.0
 40
0.0
 40
0.3614595451
 40
0.6486951391
 40
1.0
 40
1.0
 40
1.0
 40
1.0
 10
2.7674346933
 20
20.2063738449
 30
0.0
 10
2.776891361
 20
20.201645511
 30
0.0
 10
2.7937163067
 20
20.1921149791
 30
0.0
 10
2.8163989022
 20
20.1756023889
 30
0.0
 10
2.8300072202
 20
20.1570429452
 30
0.0
 10
2.8276642655
 20
20.1470377677
 30
0.0
 11
2.7674346933
 21
20.2063738449
 31
0.0
 11
2.7949860381
 21
20.1906577787
 31
0.0
 11
2.8147685018
 21
20.1750384179
 31
0.0
 11
2.8276642655
 21
20.1470377677
 31
0.0
  0
SPLINE
  5
380
100
AcDbEntity
  8
RACCORDO
100
AcDbSpline
 62
7
  6
CONTINUOUS
 70
0
 71
3
 72
10
 73
6
 74
4
 42
0.0000001
 43
0.0000001
 44
0.0000000001
 12
0.0784873533
 22
-0.0392436767
 32
0.0
 13
-0.0200078767
 23
-0.0854401291
 33
0.0
 40
0.0
 40
0.0
 40
0.0
 40
0.0
 40
0.3614595451
 40
0.6486951391
 40
1.0
 40
1.0
 40
1.0
 40
1.0
 10
-1.2630739595
 20
22.2216281713
 30
0.0
 10
-1.2536172918
 20
22.2168998374
 30
0.0
 10
-1.2367923461
 20
22.2073693055
 30
0.0
 10
-1.2141097505
 20
22.1908567153
 30
0.0
 10
-1.2005014325
 20
22.1722972716
 30
0.0
 10
-1.2028443873
 20
22.1622920941
 30
0.0
 11
-1.2630739595
 21
22.2216281713
 31
0.0
 11
-1.2355226146
 21
22.205912105
 31
0.0
 11
-1.215740151
 21
22.1902927443
 31
0.0
 11
-1.2028443873
 21
22.1622920941
 31
0.0
  0
SPLINE
  5
381
100
AcDbEntity
  8
0
100
AcDbSpline
 62
7
  6
CONTINUOUS
 70
0
 71
3
 72
9
 73
5
 74
3
 42
0.0000001
 43
0.0000001
 44
0.0000000001
 12
-0.0857796487
 22
0.0092336319
 32
0.0
 13
-0.0858293689
 23
-0.0087594251
 33
0.0
 40
0.0
 40
0.0
 40
0.0
 40
0.0
 40
0.2447357831
 40
1.0
 40
1.0
 40
1.0
 40
1.0
 10
6.1696885142
 20
20.7789739017
 30
0.0
 10
6.1626907311
 20
20.7797271684
 30
0.0
 10
6.134014907
 20
20.7820115994
 30
0.0
 10
6.1051109631
 20
20.7811495687
 30
0.0
 10
6.0835030128
 20
20.7789443419
 30
0.0
 11
6.1696885142
 21
20.7789739017
 31
0.0
 11
6.1486410672
 21
20.7806568732
 31
0.0
 11
6.0835030128
 21
20.7789443419
 31
0.0
  0
SPLINE
  5
382
100
AcDbEntity
  8
RACCORDO
100
AcDbSpline
 62
7
  6
CONTINUOUS
 70
0
 71
3
 72
11
 73
7
 74
5
 42
0.0000001
 43
0.0000001
 44
0.0000000001
 12
0.2829130402
 22
0.0288730492
 32
0.0
 13
0.2543594957
 23
-0.1271797478
 33
0.0
 40
0.0
 40
0.0
 40
0.0
 40
0.0
 40
0.2188460577
 40
0.482866723
 40
0.7559032078
 40
1.0
 40
1.0
 40
1.0
 40
1.0
 10
0.4409039692
 20
21.288662818
 30
0.0
 10
0.4615421037
 20
21.290769069
 30
0.0
 10
0.5076015907
 20
21.2895939007
 30
0.0
 10
0.578541952
 20
21.2788327276
 30
0.0
 10
0.6502580576
 20
21.2598712406
 30
0.0
 10
0.6961289155
 20
21.2420267338
 30
0.0
 10
0.7168250278
 20
21.2316786776
 30
0.0
 11
0.4409039692
 21
21.288662818
 31
0.0
 11
0.5031398367
 21
21.2885332067
 31
0.0
 11
0.5774309771
 21
21.2776582678
 31
0.0
 11
0.6524672376
 21
21.2576936121
 31
0.0
 11
0.7168250278
 21
21.2316786776
 31
0.0
  0
SPLINE
  5
383
100
AcDbEntity
  8
RACCORDO
100
AcDbSpline
 62
7
  6
CONTINUOUS
 70
0
 71
3
 72
11
 73
7
 74
5
 42
0.0000001
 43
0.0000001
 44
0.0000000001
 12
0.2829130402
 22
0.0288730492
 32
0.0
 13
0.2543594957
 23
-0.1271797478
 33
0.0
 40
0.0
 40
0.0
 40
0.0
 40
0.0
 40
0.2188460577
 40
0.482866723
 40
0.7559032078
 40
1.0
 40
1.0
 40
1.0
 40
1.0
 10
-3.5896046835
 20
23.3039171444
 30
0.0
 10
-3.568966549
 20
23.3060233954
 30
0.0
 10
-3.522907062
 20
23.3048482271
 30
0.0
 10
-3.4519667007
 20
23.294087054
 30
0.0
 10
-3.3802505951
 20
23.275125567
 30
0.0
 10
-3.3343797372
 20
23.2572810601
 30
0.0
 10
-3.3136836249
 20
23.246933004
 30
0.0
 11
-3.5896046835
 21
23.3039171444
 31
0.0
 11
-3.527368816
 21
23.3037875331
 31
0.0
 11
-3.4530776757
 21
23.2929125942
 31
0.0
 11
-3.3780414152
 21
23.2729479385
 31
0.0
 11
-3.3136836249
 21
23.246933004
 31
0.0
  0
SPLINE
  5
384
100
AcDbEntity
  8
0
100
AcDbSpline
 62
7
  6
CONTINUOUS
 70
0
 71
3
 72
9
 73
5
 74
3
 42
0.0000001
 43
0.0000001
 44
0.0000000001
 12
0.1434906965
 22
0.0717453483
 32
0.0
 13
0.1595984812
 23
0.0162880254
 33
0.0
 40
0.0
 40
0.0
 40
0.0
 40
0.0
 40
0.2656286414
 40
1.0
 40
1.0
 40
1.0
 40
1.0
 10
1.4067324832
 20
19.3125876203
 30
0.0
 10
1.4194375628
 20
19.3189401601
 30
0.0
 10
1.4681101338
 20
19.3410402587
 30
0.0
 10
1.5206199073
 20
19.3554078613
 30
0.0
 10
1.5596880918
 20
19.3593950144
 30
0.0
 11
1.4067324832
 21
19.3125876203
 31
0.0
 11
1.4455659682
 21
19.3301354046
 31
0.0
 11
1.5596880918
 21
19.3593950144
 31
0.0
  0
SPLINE
  5
385
100
AcDbEntity
  8
RACCORDO
100
AcDbSpline
 62
7
  6
CONTINUOUS
 70
0
 71
3
 72
11
 73
7
 74
5
 42
0.0000001
 43
0.0000001
 44
0.0000000001
 12
0.0141023425
 22
0.0602215812
 32
0.0
 13
0.0615311388
 23
0.0062796384
 33
0.0
 40
0.0
 40
0.0
 40
0.0
 40
0.0
 40
0.1668656033
 40
0.3782755326
 40
0.6547498671
 40
1.0
 40
1.0
 40
1.0
 40
1.0
 10
-1.5626496338
 20
21.0645268823
 30
0.0
 10
-1.5618652352
 20
21.0678765191
 30
0.0
 10
-1.5574162119
 20
21.0748460195
 30
0.0
 10
-1.5456173196
 20
21.081873942
 30
0.0
 10
-1.5291433367
 20
21.0870065037
 30
0.0
 10
-1.5164229268
 20
21.0889053389
 30
0.0
 10
-1.5093417155
 20
21.0896280209
 30
0.0
 11
-1.5626496338
 21
21.0645268823
 31
0.0
 11
-1.5574793901
 21
21.0734592231
 31
0.0
 11
-1.5466292171
 21
21.080756614
 31
0.0
 11
-1.5304188874
 21
21.08620089
 31
0.0
 11
-1.5093417155
 21
21.0896280209
 31
0.0
  0
SPLINE
  5
386
100
AcDbEntity
  8
0
100
AcDbSpline
 62
7
  6
CONTINUOUS
 70
0
 71
3
 72
9
 73
5
 74
3
 42
0.0000001
 43
0.0000001
 44
0.0000000001
 12
-0.1033023436
 22
0.0473687865
 32
0.0
 13
-0.112992213
 23
0.0121628909
 33
0.0
 40
0.0
 40
0.0
 40
0.0
 40
0.0
 40
0.2472666682
 40
1.0
 40
1.0
 40
1.0
 40
1.0
 10
6.2790827552
 20
20.7492392479
 30
0.0
 10
6.2705683465
 20
20.7531434886
 30
0.0
 10
6.2354868377
 20
20.7674989697
 30
0.0
 10
6.1980395159
 20
20.7759220972
 30
0.0
 10
6.1696885142
 20
20.7789739017
 30
0.0
 11
6.2790827552
 21
20.7492392479
 31
0.0
 11
6.2530747232
 21
20.7598800437
 31
0.0
 11
6.1696885142
 21
20.7789739017
 31
0.0
  0
SPLINE
  5
387
100
AcDbEntity
  8
0
100
AcDbSpline
 62
7
  6
CONTINUOUS
 70
0
 71
3
 72
11
 73
7
 74
5
 42
0.0000001
 43
0.0000001
 44
0.0000000001
 12
0.0
 22
1.0277529279
 32
0.0
 13
0.9192501643
 23
0.4596250822
 33
0.0
 40
0.0
 40
0.0
 40
0.0
 40
0.0
 40
0.2468124806
 40
0.5117852459
 40
0.7703059488
 40
1.0
 40
1.0
 40
1.0
 40
1.0
 10
0.5481896038
 20
18.277098398
 30
0.0
 10
0.5481896038
 20
18.3616524812
 30
0.0
 10
0.5773693591
 20
18.5372833607
 30
0.0
 10
0.6830244697
 20
18.7815348913
 30
0.0
 10
0.8383054107
 20
18.9904022929
 30
0.0
 10
0.9727822525
 20
19.095612505
 30
0.0
 10
1.0431643506
 20
19.130803554
 30
0.0
 11
0.5481896038
 21
18.277098398
 31
0.0
 11
0.5858732971
 21
18.5279459137
 31
0.0
 11
0.6931643506
 21
18.7782464764
 31
0.0
 11
0.8537325151
 21
18.9899347261
 31
0.0
 11
1.0431643506
 21
19.130803554
 31
0.0
  0
SPLINE
  5
388
100
AcDbEntity
  8
RACCORDO
100
AcDbSpline
 62
7
  6
CONTINUOUS
 70
0
 71
3
 72
11
 73
7
 74
5
 42
0.0000001
 43
0.0000001
 44
0.0000000001
 12
0.0082142376
 22
0.110883155
 32
0.0
 13
0.0994447751
 23
0.0497321272
 33
0.0
 40
0.0
 40
0.0
 40
0.0
 40
0.0
 40
0.28547012
 40
0.5436107393
 40
0.7786012075
 40
1.0
 40
1.0
 40
1.0
 40
1.0
 10
-1.0540950617
 20
18.6603238463
 30
0.0
 10
-1.053313422
 20
18.6708751222
 30
0.0
 10
-1.0501525132
 20
18.690915718
 30
0.0
 10
-1.0396894043
 20
18.7180868619
 30
0.0
 10
-1.0239423318
 20
18.7398095946
 30
0.0
 10
-1.0100029409
 20
18.7499964985
 30
0.0
 10
-1.0026639565
 20
18.7536667094
 30
0.0
 11
-1.0540950617
 21
18.6603238463
 31
0.0
 11
-1.0488507276
 21
18.6916281656
 31
0.0
 11
-1.038216187
 21
18.7182872061
 31
0.0
 11
-1.0226138092
 21
18.7392450716
 31
0.0
 11
-1.0026639565
 21
18.7536667094
 31
0.0
  0
SPLINE
  5
389
100
AcDbEntity
  8
RACCORDO
100
AcDbSpline
 62
7
  6
CONTINUOUS
 70
0
 71
3
 72
11
 73
7
 74
5
 42
0.0000001
 43
0.0000001
 44
0.0000000001
 12
-0.5332031314
 22
0.2665185338
 32
0.0
 13
-0.0195504056
 23
0.5957814111
 33
0.0
 40
0.0
 40
0.0
 40
0.0
 40
0.0
 40
0.2190642992
 40
0.4530600547
 40
0.7121419882
 40
1.0
 40
1.0
 40
1.0
 40
1.0
 10
-16.211119081
 20
-15.8411226979
 30
0.0
 10
-16.2500543378
 20
-15.8216611326
 30
0.0
 10
-16.3238721297
 20
-15.7665722693
 30
0.0
 10
-16.4049450251
 20
-15.6481285591
 30
0.0
 10
-16.4559633669
 20
-15.500032857
 30
0.0
 10
-16.468685738
 20
-15.3913122991
 30
0.0
 10
-16.4705616516
 20
-15.3341454816
 30
0.0
 11
-16.211119081
 21
-15.8411226979
 31
0.0
 11
-16.3162398245
 21
-15.7636501867
 31
0.0
 11
-16.3967018683
 21
-15.6497114962
 31
0.0
 11
-16.4489205256
 21
-15.5043680956
 31
0.0
 11
-16.4705616516
 21
-15.3341454816
 31
0.0
  0
SPLINE
  5
38A
100
AcDbEntity
  8
RACCORDO
100
AcDbSpline
 62
7
  6
CONTINUOUS
 70
0
 71
3
 72
11
 73
7
 74
5
 42
0.0000001
 43
0.0000001
 44
0.0000000001
 12
-0.1380309882
 22
-0.0690183409
 32
0.0
 13
0.0034935569
 23
-0.1542850613
 33
0.0
 40
0.0
 40
0.0
 40
0.0
 40
0.0
 40
0.2161719805
 40
0.4484725891
 40
0.7084444715
 40
1.0
 40
1.0
 40
1.0
 40
1.0
 10
-16.5310386659
 20
-10.8087543373
 30
0.0
 10
-16.5409848099
 20
-10.8137276145
 30
0.0
 10
-16.5597754903
 20
-10.8281489461
 30
0.0
 10
-16.5795355958
 20
-10.8594688921
 30
0.0
 10
-16.5908700722
 20
-10.8985869839
 30
0.0
 10
-16.5926279261
 20
-10.9271158129
 30
0.0
 10
-16.5922884042
 20
-10.9421100337
 30
0.0
 11
-16.5310386659
 21
-10.8087543373
 31
0.0
 11
-16.5576401949
 21
-10.828886204
 31
0.0
 11
-16.5772913665
 21
-10.8588700745
 31
0.0
 11
-16.5890319212
 21
-10.8972338404
 31
0.0
 11
-16.5922884042
 21
-10.9421100337
 31
0.0
  0
SPLINE
  5
38B
100
AcDbEntity
  8
RACCORDO
100
AcDbSpline
 62
7
  6
CONTINUOUS
 70
0
 71
3
 72
11
 73
7
 74
5
 42
0.0000001
 43
0.0000001
 44
0.0000000001
 12
0.0195504056
 22
-0.5957814111
 32
0.0
 13
0.5332031314
 23
-0.2665185338
 33
0.0
 40
0.0
 40
0.0
 40
0.0
 40
0.0
 40
0.2878580118
 40
0.5469399453
 40
0.7809357008
 40
1.0
 40
1.0
 40
1.0
 40
1.0
 10
-3.8133502684
 20
-21.6627511732
 30
0.0
 10
-3.8114743548
 20
-21.7199179907
 30
0.0
 10
-3.7987519837
 20
-21.8286385486
 30
0.0
 10
-3.7477336419
 20
-21.9767342507
 30
0.0
 10
-3.6666607465
 20
-22.0951779609
 30
0.0
 10
-3.5928429545
 20
-22.1502668242
 30
0.0
 10
-3.5539076978
 20
-22.1697283895
 30
0.0
 11
-3.8133502684
 21
-21.6627511732
 31
0.0
 11
-3.7917091423
 21
-21.8329737873
 31
0.0
 11
-3.7394904851
 21
-21.9783171879
 31
0.0
 11
-3.6590284412
 21
-22.0922558783
 31
0.0
 11
-3.5539076978
 21
-22.1697283895
 31
0.0
  0
SPLINE
  5
38C
100
AcDbEntity
  8
RACCORDO
100
AcDbSpline
 62
7
  6
CONTINUOUS
 70
0
 71
3
 72
9
 73
5
 74
3
 42
0.0000001
 43
0.0000001
 44
0.0000000001
 12
-0.0583391121
 22
0.0067583861
 32
0.0
 13
-0.0525286274
 23
-0.0262653971
 33
0.0
 40
0.0
 40
0.0
 40
0.0
 40
0.0
 40
0.5152838043
 40
1.0
 40
1.0
 40
1.0
 40
1.0
 10
-16.4736485223
 20
-10.7996743292
 30
0.0
 10
-16.4836689222
 20
-10.7985135003
 30
0.0
 10
-16.5035160736
 20
-10.7985760793
 30
0.0
 10
-16.5225515071
 20
-10.8045105829
 30
0.0
 10
-16.5310386659
 20
-10.8087543373
 30
0.0
 11
-16.4736485223
 21
-10.7996743292
 31
0.0
 11
-16.5039072283
 21
-10.8001370903
 31
0.0
 11
-16.5310386659
 21
-10.8087543373
 31
0.0
  0
SPLINE
  5
38D
100
AcDbEntity
  8
RACCORDO
100
AcDbSpline
 62
7
  6
CONTINUOUS
 70
0
 71
3
 72
9
 73
5
 74
3
 42
0.0000001
 43
0.0000001
 44
0.0000000001
 12
-0.0038685305
 22
0.1708449237
 32
0.0
 13
-0.0821094554
 23
0.149869913
 33
0.0
 40
0.0
 40
0.0
 40
0.0
 40
0.0
 40
0.4804593918
 40
1.0
 40
1.0
 40
1.0
 40
1.0
 10
-3.9350770209
 20
-17.2707157253
 30
0.0
 10
-3.9356965782
 20
-17.243354376
 30
0.0
 10
-3.9456648923
 20
-17.1865359257
 30
0.0
 10
-3.9678885787
 20
-17.1335914243
 30
0.0
 10
-3.9821083108
 20
-17.1076369224
 30
0.0
 11
-3.9350770209
 21
-17.2707157253
 31
0.0
 11
-3.9481043637
 21
-17.189650727
 31
0.0
 11
-3.9821083108
 21
-17.1076369224
 31
0.0
  0
SPLINE
  5
38E
100
AcDbEntity
  8
RACCORDO
100
AcDbSpline
 62
7
  6
CONTINUOUS
 70
0
 71
3
 72
9
 73
5
 74
3
 42
0.0000001
 43
0.0000001
 44
0.0000000001
 12
-0.0462475392
 22
0.0844131122
 32
0.0
 13
-0.0652908699
 23
0.0707213596
 33
0.0
 40
0.0
 40
0.0
 40
0.0
 40
0.0
 40
0.2545533465
 40
1.0
 40
1.0
 40
1.0
 40
1.0
 10
-3.9821083108
 20
-17.1076369224
 30
0.0
 10
-3.9860324661
 20
-17.1004743756
 30
0.0
 10
-4.002268667
 20
-17.0727987049
 30
0.0
 10
-4.0217375472
 20
-17.0469819087
 30
0.0
 10
-4.0379611674
 20
-17.0294089084
 30
0.0
 11
-3.9821083108
 21
-17.1076369224
 31
0.0
 11
-3.9945078939
 21
-17.0865049567
 31
0.0
 11
-4.0379611674
 21
-17.0294089084
 31
0.0
  0
SPLINE
  5
38F
100
AcDbEntity
  8
RACCORDO
100
AcDbSpline
 62
7
  6
CONTINUOUS
 70
0
 71
3
 72
9
 73
5
 74
3
 42
0.0000001
 43
0.0000001
 44
0.0000000001
 12
-0.0236265741
 22
0.025591686
 32
0.0
 13
-0.0261780939
 23
0.0229751342
 33
0.0
 40
0.0
 40
0.0
 40
0.0
 40
0.0
 40
0.2543248903
 40
1.0
 40
1.0
 40
1.0
 40
1.0
 10
-4.0379611674
 20
-17.0294089084
 30
0.0
 10
-4.0399641093
 20
-17.0272393741
 30
0.0
 10
-4.0479454077
 20
-17.0188073678
 30
0.0
 10
-4.0563549447
 20
-17.0107783927
 30
0.0
 10
-4.062861729
 20
-17.0050677308
 30
0.0
 11
-4.0379611674
 21
-17.0294089084
 31
0.0
 11
-4.044051494
 21
-17.0229765045
 31
0.0
 11
-4.062861729
 21
-17.0050677308
 31
0.0
  0
SPLINE
  5
390
100
AcDbEntity
  8
0
100
AcDbSpline
 62
7
  6
CONTINUOUS
 70
0
 71
3
 72
9
 73
5
 74
3
 42
0.0000001
 43
0.0000001
 44
0.0000000001
 12
0.1890137359
 22
-0.0945068679
 32
0.0
 13
0.2110946111
 23
-0.0098389835
 33
0.0
 40
0.0
 40
0.0
 40
0.0
 40
0.0
 40
0.2530779031
 40
1.0
 40
1.0
 40
1.0
 40
1.0
 10
-9.2139557337
 20
-3.9368594014
 30
0.0
 10
-9.1980106671
 20
-3.9448319348
 30
0.0
 10
-9.1336618383
 20
-3.9734840245
 30
0.0
 10
-9.0633384872
 20
-3.9894346448
 30
0.0
 10
-9.0107814106
 20
-3.9918842962
 30
0.0
 11
-9.2139557337
 21
-3.9368594014
 31
0.0
 11
-9.165057475
 21
-3.9585208472
 31
0.0
 11
-9.0107814106
 21
-3.9918842962
 31
0.0
  0
SPLINE
  5
391
100
AcDbEntity
  8
0
100
AcDbSpline
 62
7
  6
CONTINUOUS
 70
0
 71
3
 72
11
 73
7
 74
5
 42
0.0000001
 43
0.0000001
 44
0.0000000001
 12
-0.587063368
 22
-0.8637950408
 32
0.0
 13
0.7840695007
 23
-0.6899422356
 33
0.0
 40
0.0
 40
0.0
 40
0.0
 40
0.0
 40
0.2350606513
 40
0.4834521749
 40
0.7438725975
 40
1.0
 40
1.0
 40
1.0
 40
1.0
 10
-9.5609578603
 20
-2.8915313969
 30
0.0
 10
-9.6069563595
 20
-2.9592128052
 30
0.0
 10
-9.6624386543
 20
-3.1262360406
 30
0.0
 10
-9.6389714478
 20
-3.38883412
 30
0.0
 10
-9.5368235857
 20
-3.6383960444
 30
0.0
 10
-9.4223551748
 20
-3.7815838616
 30
0.0
 10
-9.3554146133
 20
-3.8404882325
 30
0.0
 11
-9.5609578603
 21
-2.8915313969
 31
0.0
 11
-9.6441870599
 21
-3.122491599
 31
0.0
 11
-9.6269836751
 21
-3.3813423163
 31
0.0
 11
-9.5246879741
 21
-3.6333568672
 31
0.0
 11
-9.3554146133
 21
-3.8404882325
 31
0.0
  0
SPLINE
  5
392
100
AcDbEntity
  8
0
100
AcDbSpline
 62
7
  6
CONTINUOUS
 70
0
 71
3
 72
9
 73
5
 74
3
 42
0.0000001
 43
0.0000001
 44
0.0000000001
 12
0.090982462
 22
-0.0679347972
 32
0.0
 13
0.1015596182
 23
-0.0507798091
 33
0.0
 40
0.0
 40
0.0
 40
0.0
 40
0.0
 40
0.2533516157
 40
1.0
 40
1.0
 40
1.0
 40
1.0
 10
-9.3103795023
 20
-3.8770533244
 30
0.0
 10
-9.3026959844
 20
-3.8827904546
 30
0.0
 10
-9.2719073689
 20
-3.9048065657
 30
0.0
 10
-9.2392321753
 20
-3.9242211806
 30
0.0
 10
-9.2139557337
 20
-3.9368594014
 30
0.0
 11
-9.3103795023
 21
-3.8770533244
 31
0.0
 11
-9.2869741996
 21
-3.8937791069
 31
0.0
 11
-9.2139557337
 21
-3.9368594014
 31
0.0
  0
SPLINE
  5
393
100
AcDbEntity
  8
0
100
AcDbSpline
 62
7
  6
CONTINUOUS
 70
0
 71
3
 72
9
 73
5
 74
3
 42
0.0000001
 43
0.0000001
 44
0.0000000001
 12
-0.3537389366
 22
-0.1768694683
 32
0.0
 13
-0.2223070429
 23
-0.3270987966
 33
0.0
 40
0.0
 40
0.0
 40
0.0
 40
0.0
 40
0.5003689879
 40
1.0
 40
1.0
 40
1.0
 40
1.0
 10
-8.7321107619
 20
-1.8455481381
 30
0.0
 10
-8.7911107598
 20
-1.8750481371
 30
0.0
 10
-8.9016980098
 20
-1.9499351386
 30
0.0
 10
-8.9893387532
 20
-2.0504607785
 30
0.0
 10
-9.0263625842
 20
-2.1049370128
 30
0.0
 11
-8.7321107619
 21
-1.8455481381
 31
0.0
 11
-8.8960345238
 21
-1.9564095268
 31
0.0
 11
-9.0263625842
 21
-2.1049370128
 31
0.0
  0
SPLINE
  5
394
100
AcDbEntity
  8
0
100
AcDbSpline
 62
7
  6
CONTINUOUS
 70
0
 71
3
 72
9
 73
5
 74
3
 42
0.0000001
 43
0.0000001
 44
0.0000000001
 12
0.3950632977
 22
-0.0184136452
 32
0.0
 13
0.3537389677
 23
0.1768694838
 33
0.0
 40
0.0
 40
0.0
 40
0.0
 40
0.0
 40
0.4996286558
 40
1.0
 40
1.0
 40
1.0
 40
1.0
 10
-8.0607487377
 20
-4.0361647057
 30
0.0
 10
-7.9949537562
 20
-4.0392313673
 30
0.0
 10
-7.8619487627
 20
-4.0294345045
 30
0.0
 10
-7.7356868255
 20
-3.9858967132
 30
0.0
 10
-7.6766865446
 20
-3.9563965727
 30
0.0
 11
-8.0607487377
 21
-4.0361647057
 31
0.0
 11
-7.863730805
 21
-4.0210190732
 31
0.0
 11
-7.6766865446
 21
-3.9563965727
 31
0.0
  0
SPLINE
  5
395
100
AcDbEntity
  8
0
100
AcDbSpline
 62
7
  6
CONTINUOUS
 70
0
 71
3
 72
18
 73
14
 74
12
 42
0.0000001
 43
0.0000001
 44
0.0000000001
 12
7.7154018192
 22
-3.8577009096
 32
0.0
 13
-7.7996208624
 23
-3.6844532759
 33
0.0
 40
0.0
 40
0.0
 40
0.0
 40
0.0
 40
0.1241699722
 40
0.2642326827
 40
0.4123623179
 40
0.5593667137
 40
0.6962331749
 40
0.7586125285
 40
0.8160212101
 40
0.8682233422
 40
0.9154938049
 40
0.9588147524
 40
1.0
 40
1.0
 40
1.0
 40
1.0
 10
-10.27628153
 20
-0.3335962733
 30
0.0
 10
-9.9569411204
 20
-0.4932664781
 30
0.0
 10
-9.3312362496
 20
-0.9424855021
 30
0.0
 10
-8.5411239823
 20
-1.8360962938
 30
0.0
 10
-7.9012868006
 20
-2.9203208008
 30
0.0
 10
-7.4733411767
 20
-4.0935850607
 30
0.0
 10
-7.3198276374
 20
-5.0863607329
 30
0.0
 10
-7.3432535317
 20
-5.8258768482
 30
0.0
 10
-7.4276193432
 20
-6.3150617612
 30
0.0
 10
-7.5757363303
 20
-6.7435796427
 30
0.0
 10
-7.7827610601
 20
-7.1016013925
 30
0.0
 10
-8.0427053471
 20
-7.3819586256
 30
0.0
 10
-8.2497073014
 20
-7.5151055255
 30
0.0
 10
-8.3567837401
 20
-7.5656872323
 30
0.0
 11
-10.27628153
 21
-0.3335962733
 31
0.0
 11
-9.3952416439
 21
-0.9427141298
 31
0.0
 11
-8.5869293983
 21
-1.8406896711
 31
0.0
 11
-7.9352902085
 21
-2.9398183055
 31
0.0
 11
-7.5049592821
 21
-4.1326391741
 31
0.0
 11
-7.3370675491
 21
-5.3012618201
 31
0.0
 11
-7.3566765203
 21
-5.8389937938
 31
0.0
 11
-7.4438122727
 21
-6.3264794353
 31
0.0
 11
-7.5942457655
 21
-6.7509081274
 31
0.0
 11
-7.8013821969
 21
-7.102137096
 31
0.0
 11
-8.0575099801
 21
-7.374245148
 31
0.0
 11
-8.3567837401
 21
-7.5656872323
 31
0.0
  0
SPLINE
  5
396
100
AcDbEntity
  8
0
100
AcDbSpline
 62
7
  6
CONTINUOUS
 70
0
 71
3
 72
11
 73
7
 74
5
 42
0.0000001
 43
0.0000001
 44
0.0000000001
 12
1.5050992425
 22
0.7935844629
 32
0.0
 13
1.548913851
 23
-0.704248473
 33
0.0
 40
0.0
 40
0.0
 40
0.0
 40
0.0
 40
0.2214302233
 40
0.4558215324
 40
0.7135990407
 40
1.0
 40
1.0
 40
1.0
 40
1.0
 10
-12.0263196777
 20
-0.2233851051
 30
0.0
 10
-11.9152281906
 20
-0.1648105769
 30
0.0
 10
-11.668524558
 20
-0.0757865861
 30
0.0
 10
-11.261098992
 20
-0.0427459449
 30
0.0
 10
-10.8212962676
 20
-0.110026289
 30
0.0
 10
-10.5294134647
 20
-0.216118105
 30
0.0
 10
-10.3815433271
 20
-0.2833505844
 30
0.0
 11
-12.0263196777
 21
-0.2233851051
 31
0.0
 11
-11.6723429964
 21
-0.0943457548
 31
0.0
 11
-11.2751275914
 21
-0.0586435159
 31
0.0
 11
-10.8409468335
 21
-0.1208068267
 31
0.0
 11
-10.3815433271
 21
-0.2833505844
 31
0.0
  0
SPLINE
  5
397
100
AcDbEntity
  8
0
100
AcDbSpline
 62
7
  6
CONTINUOUS
 70
0
 71
3
 72
12
 73
8
 74
6
 42
0.0000001
 43
0.0000001
 44
0.0000000001
 12
0.0
 22
3.1122683473
 32
0.0
 13
2.7836974355
 23
1.3918487177
 33
0.0
 40
0.0
 40
0.0
 40
0.0
 40
0.0
 40
0.2818700122
 40
0.538777324
 40
0.7748786137
 40
0.8881605423
 40
1.0
 40
1.0
 40
1.0
 40
1.0
 10
-13.5964586465
 20
-2.2900218367
 30
0.0
 10
-13.5964586465
 20
-1.9976034644
 30
0.0
 10
-13.5479485823
 20
-1.4364529455
 30
0.0
 10
-13.3035665674
 20
-0.662726159
 30
0.0
 10
-12.95026626
 20
-0.1288212206
 30
0.0
 10
-12.5923944816
 20
0.1919469504
 30
0.0
 10
-12.392518447
 20
0.3156291943
 30
0.0
 10
-12.2887427098
 20
0.3675170629
 30
0.0
 11
-13.5964586465
 21
-2.2900218367
 31
0.0
 11
-13.5124707365
 21
-1.4167964527
 31
0.0
 11
-13.2612142307
 21
-0.657735487
 31
0.0
 11
-12.8478722577
 21
-0.0502036047
 31
0.0
 11
-12.58489427
 21
0.1846235302
 31
0.0
 11
-12.2887427098
 21
0.3675170629
 31
0.0
  0
SPLINE
  5
398
100
AcDbEntity
  8
0
100
AcDbSpline
 62
7
  6
CONTINUOUS
 70
0
 71
3
 72
17
 73
13
 74
11
 42
0.0000001
 43
0.0000001
 44
0.0000000001
 12
-8.2395627988
 22
-4.1197813994
 32
0.0
 13
0.0
 23
9.2121112615
 33
0.0
 40
0.0
 40
0.0
 40
0.0
 40
0.0
 40
0.0477264886
 40
0.0964678572
 40
0.1471826884
 40
0.2006123435
 40
0.317012817
 40
0.4464674271
 40
0.5855355105
 40
0.7284500135
 40
0.8686040256
 40
1.0
 40
1.0
 40
1.0
 40
1.0
 10
-8.0402135525
 20
-8.1295412516
 30
0.0
 10
-8.1712953524
 20
-8.1950821516
 30
0.0
 10
-8.4524439858
 20
-8.2974884029
 30
0.0
 10
-8.9039842593
 20
-8.3551842648
 30
0.0
 10
-9.3750328639
 20
-8.3195236342
 30
0.0
 10
-10.0332436454
 20
-8.1478521576
 30
0.0
 10
-10.854131682
 20
-7.7067191966
 30
0.0
 10
-11.7425147738
 20
-6.9151595086
 30
0.0
 10
-12.512639967
 20
-5.9047704355
 30
0.0
 10
-13.1116536799
 20
-4.747977291
 30
0.0
 10
-13.4971716701
 20
-3.5286785589
 30
0.0
 10
-13.5964586465
 20
-2.6934999486
 30
0.0
 10
-13.5964586465
 20
-2.2900218367
 30
0.0
 11
-8.0402135525
 21
-8.1295412516
 31
0.0
 11
-8.4531097592
 21
-8.280601349
 31
0.0
 11
-8.8982441955
 21
-8.3394752087
 31
0.0
 11
-9.3642833499
 21
-8.3066937048
 31
0.0
 11
-9.8412470243
 21
-8.1851765388
 31
0.0
 11
-10.7943599265
 21
-7.6938615078
 31
0.0
 11
-11.6931068594
 21
-6.910005589
 31
0.0
 11
-12.4743855251
 21
-5.8946986584
 31
0.0
 11
-13.0802986432
 21
-4.7258709577
 31
0.0
 11
-13.4644816527
 21
-3.4932397529
 31
0.0
 11
-13.5964586465
 21
-2.2900218367
 31
0.0
  0
SPLINE
  5
399
100
AcDbEntity
  8
0
100
AcDbSpline
 62
7
  6
CONTINUOUS
 70
0
 71
3
 72
9
 73
5
 74
3
 42
0.0000001
 43
0.0000001
 44
0.0000000001
 12
0.1891999936
 22
-0.326344213
 32
0.0
 13
-0.0000029964
 23
-0.3772229884
 33
0.0
 40
0.0
 40
0.0
 40
0.0
 40
0.0
 40
0.5177262539
 40
1.0
 40
1.0
 40
1.0
 40
1.0
 10
8.172909647
 20
14.248962898
 30
0.0
 10
8.205560915
 20
14.1926439091
 30
0.0
 10
8.2561068675
 20
14.0761844033
 30
0.0
 10
8.2772058938
 20
13.9502876975
 30
0.0
 10
8.2772054121
 20
13.8896461162
 30
0.0
 11
8.172909647
 21
14.248962898
 31
0.0
 11
8.2500058802
 21
14.0695260702
 31
0.0
 11
8.2772054121
 21
13.8896461162
 31
0.0
  0
SPLINE
  5
39A
100
AcDbEntity
  8
0
100
AcDbSpline
 62
7
  6
CONTINUOUS
 70
0
 71
3
 72
9
 73
5
 74
3
 42
0.0000001
 43
0.0000001
 44
0.0000000001
 12
1.5468217134
 22
14.0535137818
 32
0.0
 13
-0.0000000423
 23
14.1383841732
 33
0.0
 40
0.0
 40
0.0
 40
0.0
 40
0.0
 40
0.2550335186
 40
1.0
 40
1.0
 40
1.0
 40
1.0
 10
18.2157372149
 20
-0.3799916102
 30
0.0
 10
18.347234343
 20
0.8147140794
 30
0.0
 10
18.8022723242
 20
5.5055748855
 30
0.0
 10
19.011019261
 20
10.2212075093
 30
0.0
 10
19.0110192505
 20
13.7320816126
 30
0.0
 11
18.2157372149
 21
-0.3799916102
 31
0.0
 11
18.5633149322
 21
3.2089787639
 31
0.0
 11
19.0110192505
 21
13.7320816126
 31
0.0
  0
SPLINE
  5
39B
100
AcDbEntity
  8
0
100
AcDbSpline
 62
7
  6
CONTINUOUS
 70
0
 71
3
 72
11
 73
7
 74
5
 42
0.0000001
 43
0.0000001
 44
0.0000000001
 12
4.6329364091
 22
2.6011449729
 32
0.0
 13
0.649137845
 23
5.2733931201
 33
0.0
 40
0.0
 40
0.0
 40
0.0
 40
0.0
 40
0.2298096022
 40
0.4835028067
 40
0.7461800396
 40
1.0
 40
1.0
 40
1.0
 40
1.0
 10
15.4873542649
 20
-4.8254388284
 30
0.0
 10
15.8422520226
 20
-4.6261827979
 30
0.0
 10
16.5191676659
 20
-4.0804361673
 30
0.0
 10
17.3300823214
 20
-3.0253721611
 30
0.0
 10
17.9289799156
 20
-1.7899627972
 30
0.0
 10
18.1541394232
 20
-0.8941364386
 30
0.0
 10
18.2090608039
 20
-0.4479722944
 30
0.0
 11
15.4873542649
 21
-4.8254388284
 31
0.0
 11
16.4515119739
 21
-4.0762403439
 31
0.0
 11
17.2817855496
 21
-3.0143839705
 31
0.0
 11
17.8902244702
 21
-1.7583358345
 31
0.0
 11
18.2090608039
 21
-0.4479722944
 31
0.0
  0
SPLINE
  5
39C
100
AcDbEntity
  8
0
100
AcDbSpline
 62
7
  6
CONTINUOUS
 70
0
 71
3
 72
9
 73
5
 74
3
 42
0.0000001
 43
0.0000001
 44
0.0000000001
 12
-0.0
 22
-0.2832820164
 32
0.0
 13
-0.2293758854
 23
-0.1662389966
 33
0.0
 40
0.0
 40
0.0
 40
0.0
 40
0.0
 40
0.5476081504
 40
1.0
 40
1.0
 40
1.0
 40
1.0
 10
8.2772088663
 20
-17.3951403031
 30
0.0
 10
8.2772088663
 20
-17.4468494834
 30
0.0
 10
8.2645441434
 20
-17.5428151484
 30
0.0
 10
8.2075189501
 20
-17.6251642523
 30
0.0
 10
8.1729296897
 20
-17.6502326414
 30
0.0
 11
8.2772088663
 21
-17.3951403031
 31
0.0
 11
8.2500356732
 21
-17.5478693821
 31
0.0
 11
8.1729296897
 21
-17.6502326414
 31
0.0
  0
SPLINE
  5
39D
100
AcDbEntity
  8
0
100
AcDbSpline
 62
7
  6
CONTINUOUS
 70
0
 71
3
 72
11
 73
7
 74
5
 42
0.0000001
 43
0.0000001
 44
0.0000000001
 12
-0.000004344
 22
1.7955054316
 32
0.0
 13
-1.455976475
 23
1.0507008419
 33
0.0
 40
0.0
 40
0.0
 40
0.0
 40
0.0
 40
0.2771122321
 40
0.5337675233
 40
0.7727564227
 40
1.0
 40
1.0
 40
1.0
 40
1.0
 10
19.0109022253
 20
16.1402251384
 30
0.0
 10
19.0109018241
 20
16.306077311
 30
0.0
 10
18.9863666255
 20
16.6264358852
 30
0.0
 10
18.8635976067
 20
17.0758135101
 30
0.0
 10
18.6542426643
 20
17.4596091029
 30
0.0
 10
18.4536205838
 20
17.6608284076
 30
0.0
 10
18.343333483
 20
17.7404167469
 30
0.0
 11
19.0109022253
 21
16.1402251384
 31
0.0
 11
18.9691829995
 21
16.6360295299
 31
0.0
 11
18.8434156705
 21
17.0793614067
 31
0.0
 11
18.6336052284
 21
17.4536760118
 31
0.0
 11
18.343333483
 21
17.7404167469
 31
0.0
  0
SPLINE
  5
39E
100
AcDbEntity
  8
0
100
AcDbSpline
 62
253
  6
CONTINUOUS
 70
0
 71
3
 72
11
 73
7
 74
5
 42
0.0000001
 43
0.0000001
 44
0.0000000001
 12
-0.5085108294
 22
0.2563104688
 32
0.0
 13
-0.4619265289
 23
-0.3330198222
 33
0.0
 40
0.0
 40
0.0
 40
0.0
 40
0.0
 40
0.2767936323
 40
0.5178922042
 40
0.7513237492
 40
1.0
 40
1.0
 40
1.0
 40
1.0
 10
4.717853075
 20
24.5713415322
 30
0.0
 10
4.6709355551
 20
24.5949899008
 30
0.0
 10
4.5779874046
 20
24.6308393342
 30
0.0
 10
4.433235891
 20
24.6404151582
 30
0.0
 10
4.2986343399
 20
24.6041637121
 30
0.0
 10
4.2190815468
 20
24.557108349
 30
0.0
 10
4.1807914944
 20
24.529503642
 30
0.0
 11
4.717853075
 21
24.5713415322
 31
0.0
 11
4.569630091
 21
24.6249553183
 31
0.0
 11
4.4325603923
 21
24.6328113332
 31
0.0
 11
4.3038573141
 21
24.5995617299
 31
0.0
 11
4.1807914944
 21
24.529503642
 31
0.0
  0
SPLINE
  5
39F
100
AcDbEntity
  8
0
100
AcDbSpline
 62
253
  6
CONTINUOUS
 70
0
 71
3
 72
9
 73
5
 74
3
 42
0.0000001
 43
0.0000001
 44
0.0000000001
 12
-0.2985630426
 22
-0.2152450772
 32
0.0
 13
-0.2207083866
 23
-0.2945473505
 33
0.0
 40
0.0
 40
0.0
 40
0.0
 40
0.0
 40
0.4680147659
 40
1.0
 40
1.0
 40
1.0
 40
1.0
 10
4.1807914944
 20
24.529503642
 30
0.0
 10
4.1342141902
 20
24.4959243506
 30
0.0
 10
4.0424784426
 20
24.4133371761
 30
0.0
 10
3.9638289398
 20
24.3187968751
 30
0.0
 10
3.9246910722
 20
24.2665652613
 30
0.0
 11
4.1807914944
 21
24.529503642
 31
0.0
 11
4.0512132039
 21
24.4160021295
 31
0.0
 11
3.9246910722
 21
24.2665652613
 31
0.0
  0
SPLINE
  5
3A0
100
AcDbEntity
  8
0
100
AcDbSpline
 62
7
  6
CONTINUOUS
 70
0
 71
3
 72
9
 73
5
 74
3
 42
0.0000001
 43
0.0000001
 44
0.0000000001
 12
0.0963662193
 22
-0.0248607712
 32
0.0
 13
0.0932112948
 23
-0.0348734956
 33
0.0
 40
0.0
 40
0.0
 40
0.0
 40
0.0
 40
0.2418638787
 40
1.0
 40
1.0
 40
1.0
 40
1.0
 10
0.1451209
 20
20.1817794588
 30
0.0
 10
0.1528900692
 20
20.1797751513
 30
0.0
 10
0.1848891937
 20
20.1710143003
 30
0.0
 10
0.2163866604
 20
20.1604570958
 30
0.0
 10
0.2399422769
 20
20.1516441435
 30
0.0
 11
0.1451209
 21
20.1817794588
 31
0.0
 11
0.1683395879
 21
20.1754322012
 31
0.0
 11
0.2399422769
 21
20.1516441435
 31
0.0
  0
SPLINE
  5
3A1
100
AcDbEntity
  8
0
100
AcDbSpline
 62
253
  6
CONTINUOUS
 70
0
 71
3
 72
10
 73
6
 74
4
 42
0.0000001
 43
0.0000001
 44
0.0000000001
 12
0.1545510992
 22
0.374624211
 32
0.0
 13
0.3684668844
 23
0.168705355
 33
0.0
 40
0.0
 40
0.0
 40
0.0
 40
0.0
 40
0.3259762776
 40
0.599098396
 40
1.0
 40
1.0
 40
1.0
 40
1.0
 10
3.9246907684
 20
24.2665645721
 30
0.0
 10
3.9414840991
 20
24.3072707741
 30
0.0
 10
3.9740305878
 20
24.3818342526
 30
0.0
 10
4.0372752851
 20
24.4995629299
 30
0.0
 10
4.0988619724
 20
24.5753492201
 30
0.0
 10
4.1481016274
 20
24.5978939693
 30
0.0
 11
3.9246907684
 21
24.2665645721
 31
0.0
 11
3.9784838563
 21
24.3872186279
 31
0.0
 11
4.0323067866
 21
24.4839341566
 31
0.0
 11
4.1481016274
 21
24.5978939693
 31
0.0
  0
SPLINE
  5
3A2
100
AcDbEntity
  8
0
100
AcDbSpline
 62
7
  6
CONTINUOUS
 70
0
 71
3
 72
12
 73
8
 74
6
 42
0.0000001
 43
0.0000001
 44
0.0000000001
 12
-0.4538860846
 22
-0.8271760442
 32
0.0
 13
-0.9008073866
 23
-0.2806756816
 33
0.0
 40
0.0
 40
0.0
 40
0.0
 40
0.0
 40
0.5460453711
 40
0.6731468329
 40
0.7942991539
 40
0.9047530326
 40
1.0
 40
1.0
 40
1.0
 40
1.0
 10
7.434902516
 20
-16.2696978584
 30
0.0
 10
7.3522883842
 20
-16.4202564084
 30
0.0
 10
7.2233587003
 20
-16.5931687684
 30
0.0
 10
7.0404295039
 20
-16.7634935029
 30
0.0
 10
6.9499696704
 20
-16.8313342071
 30
0.0
 10
6.8617364028
 20
-16.8843555093
 30
0.0
 10
6.8021238761
 20
-16.9104337159
 30
0.0
 10
6.7735241522
 20
-16.919344885
 30
0.0
 11
7.434902516
 21
-16.2696978584
 31
0.0
 11
7.1259443757
 21
-16.6819861233
 31
0.0
 11
7.0376355918
 21
-16.7631222739
 31
0.0
 11
6.9461458574
 21
-16.831652288
 31
0.0
 11
6.8564537772
 21
-16.8847203908
 31
0.0
 11
6.7735241522
 21
-16.919344885
 31
0.0
  0
SPLINE
  5
3A3
100
AcDbEntity
  8
0
100
AcDbSpline
 62
253
  6
CONTINUOUS
 70
0
 71
3
 72
11
 73
7
 74
5
 42
0.0000001
 43
0.0000001
 44
0.0000000001
 12
0.6055199573
 22
-0.3027599787
 32
0.0
 13
0.6305852674
 23
0.2463336029
 33
0.0
 40
0.0
 40
0.0
 40
0.0
 40
0.0
 40
0.231605306
 40
0.49180193
 40
0.7563583751
 40
1.0
 40
1.0
 40
1.0
 40
1.0
 10
6.7735183878
 20
-17.7486718901
 30
0.0
 10
6.8202655994
 20
-17.7720454959
 30
0.0
 10
6.9270613198
 20
-17.8066476978
 30
0.0
 10
7.0973828298
 20
-17.8266110546
 30
0.0
 10
7.2713205941
 20
-17.8166642684
 30
0.0
 10
7.383690243
 20
-17.7889035896
 30
0.0
 10
7.434902516
 20
-17.7688978832
 30
0.0
 11
6.7735183878
 21
-17.7486718901
 31
0.0
 11
6.9217289717
 21
-17.7998409046
 31
0.0
 11
7.0965531533
 21
-17.8214205735
 31
0.0
 11
7.2753317674
 21
-17.8106531584
 31
0.0
 11
7.434902516
 21
-17.7688978832
 31
0.0
  0
SPLINE
  5
3A4
100
AcDbEntity
  8
0
100
AcDbSpline
 62
253
  6
CONTINUOUS
 70
0
 71
3
 72
9
 73
5
 74
3
 42
0.0000001
 43
0.0000001
 44
0.0000000001
 12
0.0115721046
 22
-0.2587545295
 32
0.0
 13
-0.2032111725
 23
-0.1606021154
 33
0.0
 40
0.0
 40
0.0
 40
0.0
 40
0.0
 40
0.3054996122
 40
1.0
 40
1.0
 40
1.0
 40
1.0
 10
7.434902516
 20
-17.7688978832
 30
0.0
 10
7.4360809405
 20
-17.795247686
 30
0.0
 10
7.4348755853
 20
-17.8801144616
 30
0.0
 10
7.40526902
 20
-17.9745628538
 30
0.0
 10
7.3582256073
 20
-18.0117422643
 30
0.0
 11
7.434902516
 21
-17.7688978832
 31
0.0
 11
7.4326937841
 21
-17.8479954725
 31
0.0
 11
7.3582256073
 21
-18.0117422643
 31
0.0
  0
SPLINE
  5
3A5
100
AcDbEntity
  8
0
100
AcDbSpline
 62
253
  6
CONTINUOUS
 70
0
 71
3
 72
11
 73
7
 74
5
 42
0.0000001
 43
0.0000001
 44
0.0000000001
 12
-0.638990769
 22
-0.2686966895
 32
0.0
 13
-0.3476924674
 23
0.5996808
 33
0.0
 40
0.0
 40
0.0
 40
0.0
 40
0.0
 40
0.2226183412
 40
0.4654517188
 40
0.7279880182
 40
1.0
 40
1.0
 40
1.0
 40
1.0
 10
7.3582256073
 20
-18.0117422643
 30
0.0
 10
7.3108085856
 20
-18.0316812014
 30
0.0
 10
7.2002645529
 20
-18.0486359068
 30
0.0
 10
7.0342499395
 20
-18.0039509494
 30
0.0
 10
6.8833686816
 20
-17.9013088451
 30
0.0
 10
6.8050438935
 20
-17.8030453444
 30
0.0
 10
6.7735183878
 20
-17.7486718901
 30
0.0
 11
7.3582256073
 21
-18.0117422643
 31
0.0
 11
7.2060720543
 21
-18.0374854718
 31
0.0
 11
7.0427052856
 21
-17.9969161971
 31
0.0
 11
6.8913407484
 21
-17.8958821537
 31
0.0
 11
6.7735183878
 21
-17.7486718901
 31
0.0
  0
SPLINE
  5
3A6
100
AcDbEntity
  8
0
100
AcDbSpline
 62
253
  6
CONTINUOUS
 70
0
 71
3
 72
9
 73
5
 74
3
 42
0.0000001
 43
0.0000001
 44
0.0000000001
 12
-0.0113129687
 22
-0.1064382217
 32
0.0
 13
-0.0210886258
 23
-0.1049397358
 33
0.0
 40
0.0
 40
0.0
 40
0.0
 40
0.0
 40
0.254203304
 40
1.0
 40
1.0
 40
1.0
 40
1.0
 10
6.4338104466
 20
-16.5266863612
 30
0.0
 10
6.4328518486
 20
-16.5357053437
 30
0.0
 10
6.4286885862
 20
-16.5711414793
 30
0.0
 10
6.4229430221
 20
-16.6063955016
 30
0.0
 10
6.417700413
 20
-16.6324834044
 30
0.0
 11
6.4338104466
 21
-16.5266863612
 31
0.0
 11
6.4306329713
 21
-16.5537095412
 31
0.0
 11
6.417700413
 21
-16.6324834044
 31
0.0
  0
SPLINE
  5
3A7
100
AcDbEntity
  8
0
100
AcDbSpline
 62
253
  6
CONTINUOUS
 70
0
 71
3
 72
10
 73
6
 74
4
 42
0.0000001
 43
0.0000001
 44
0.0000000001
 12
0.5514881768
 22
0.3996882278
 32
0.0
 13
0.6072266962
 23
0.3084892672
 33
0.0
 40
0.0
 40
0.0
 40
0.0
 40
0.0
 40
0.2088782603
 40
0.4701228336
 40
1.0
 40
1.0
 40
1.0
 40
1.0
 10
6.7735183878
 20
13.6254585149
 30
0.0
 10
6.8119163514
 20
13.6532872422
 30
0.0
 10
6.9008573555
 20
13.7124168363
 30
0.0
 10
7.0942510151
 20
13.8313141193
 30
0.0
 10
7.2509737535
 20
13.9194342017
 30
0.0
 10
7.3582256073
 20
13.9739213413
 30
0.0
 11
6.7735183878
 21
13.6254585149
 31
0.0
 11
6.8913407707
 21
13.7051922037
 31
0.0
 11
7.0427053487
 21
13.7987264697
 31
0.0
 11
7.3582256073
 21
13.9739213413
 31
0.0
  0
SPLINE
  5
3A8
100
AcDbEntity
  8
0
100
AcDbSpline
 62
253
  6
CONTINUOUS
 70
0
 71
3
 72
9
 73
5
 74
3
 42
0.0000001
 43
0.0000001
 44
0.0000000001
 12
0.1564777521
 22
-0.3452015863
 32
0.0
 13
-0.0163629791
 23
-0.378657728
 33
0.0
 40
0.0
 40
0.0
 40
0.0
 40
0.0
 40
0.5145284384
 40
1.0
 40
1.0
 40
1.0
 40
1.0
 10
7.3582385517
 20
13.9739003551
 30
0.0
 10
7.3850759695
 20
13.9146950107
 30
0.0
 10
7.4247023797
 20
13.7936524005
 30
0.0
 10
7.4375532287
 20
13.6665051264
 30
0.0
 10
7.4349053084
 20
13.6052292735
 30
0.0
 11
7.3582385517
 21
13.9739003551
 31
0.0
 11
7.4187652504
 21
13.7885191345
 31
0.0
 11
7.4349053084
 21
13.6052292735
 31
0.0
  0
SPLINE
  5
3A9
100
AcDbEntity
  8
0
100
AcDbSpline
 62
253
  6
CONTINUOUS
 70
0
 71
3
 72
11
 73
7
 74
5
 42
0.0000001
 43
0.0000001
 44
0.0000000001
 12
-0.6305845581
 22
-0.2463285134
 32
0.0
 13
-0.6055177101
 23
0.302758855
 33
0.0
 40
0.0
 40
0.0
 40
0.0
 40
0.0
 40
0.2435948412
 40
0.5081566514
 40
0.7683796831
 40
1.0
 40
1.0
 40
1.0
 40
1.0
 10
7.434900303
 20
13.6052316573
 30
0.0
 10
7.3836979212
 20
13.5852302056
 30
0.0
 10
7.2713386457
 20
13.5574705165
 30
0.0
 10
7.0974051478
 20
13.5475180151
 30
0.0
 10
6.9270732263
 20
13.5674795658
 30
0.0
 10
6.8202684557
 20
13.6020834809
 30
0.0
 10
6.7735183878
 20
13.6254585149
 30
0.0
 11
7.434900303
 21
13.6052316573
 31
0.0
 11
7.275361338
 21
13.5634824493
 31
0.0
 11
7.0965801074
 21
13.55270912
 31
0.0
 11
6.9217384097
 21
13.574287481
 31
0.0
 11
6.7735183878
 21
13.6254585149
 31
0.0
  0
SPLINE
  5
3AA
100
AcDbEntity
  8
0
100
AcDbSpline
 62
7
  6
CONTINUOUS
 70
0
 71
3
 72
14
 73
10
 74
8
 42
0.0000001
 43
0.0000001
 44
0.0000000001
 12
-0.6625791775
 22
0.6898406229
 32
0.0
 13
-0.5799396973
 23
0.7606321048
 33
0.0
 40
0.0
 40
0.0
 40
0.0
 40
0.0
 40
0.2111160114
 40
0.3292006101
 40
0.4548225737
 40
0.5868455156
 40
0.7234380642
 40
0.8624563324
 40
1.0
 40
1.0
 40
1.0
 40
1.0
 10
7.434900303
 20
12.1060347818
 30
0.0
 10
7.3882732786
 20
12.1545802488
 30
0.0
 10
7.3139930166
 20
12.2287532166
 30
0.0
 10
7.2110145691
 20
12.330853444
 30
0.0
 10
7.1246140934
 20
12.413832439
 30
0.0
 10
7.03446073
 20
12.5014470211
 30
0.0
 10
6.9452309494
 20
12.5959923676
 30
0.0
 10
6.8569774648
 20
12.6937689213
 30
0.0
 10
6.8001073988
 20
12.7612598182
 30
0.0
 10
6.7735183878
 20
12.7961331947
 30
0.0
 11
7.434900303
 21
12.1060347818
 31
0.0
 11
7.2928964713
 21
12.2496021445
 31
0.0
 11
7.2125186281
 21
12.3289533937
 31
0.0
 11
7.1261641855
 21
12.4125039606
 31
0.0
 11
7.036140365
 21
12.5010608269
 31
0.0
 11
6.9461199049
 21
12.5957493825
 31
0.0
 11
6.8572198816
 21
12.694633387
 31
0.0
 11
6.7735183878
 21
12.7961331947
 31
0.0
  0
SPLINE
  5
3AB
100
AcDbEntity
  8
0
100
AcDbSpline
 62
7
  6
CONTINUOUS
 70
0
 71
3
 72
9
 73
5
 74
3
 42
0.0000001
 43
0.0000001
 44
0.0000000001
 12
0.0396578276
 22
-0.0148373296
 32
0.0
 13
0.037872308
 23
-0.018936154
 33
0.0
 40
0.0
 40
0.0
 40
0.0
 40
0.0
 40
0.5006442627
 40
1.0
 40
1.0
 40
1.0
 40
1.0
 10
0.2399423345
 20
20.151644125
 30
0.0
 10
0.2465604891
 20
20.1491680504
 30
0.0
 10
0.2593470992
 20
20.143157065
 30
0.0
 10
0.2724625164
 20
20.1379003003
 30
0.0
 10
0.2787664345
 20
20.1347483413
 30
0.0
 11
0.2399423345
 21
20.151644125
 31
0.0
 11
0.2594459888
 21
20.1433383611
 31
0.0
 11
0.2787664345
 21
20.1347483413
 31
0.0
  0
SPLINE
  5
3AC
100
AcDbEntity
  8
0
100
AcDbSpline
 62
253
  6
CONTINUOUS
 70
0
 71
3
 72
12
 73
8
 74
6
 42
0.0000001
 43
0.0000001
 44
0.0000000001
 12
0.0
 22
-2.9937271669
 32
0.0
 13
-2.6777164566
 23
-1.3387445342
 33
0.0
 40
0.0
 40
0.0
 40
0.0
 40
0.0
 40
0.2895070958
 40
0.5491143013
 40
0.7821797604
 40
0.8921642748
 40
1.0
 40
1.0
 40
1.0
 40
1.0
 10
-6.8057209205
 20
-5.5603906997
 30
0.0
 10
-6.8057209205
 20
-5.8492924523
 30
0.0
 10
-6.8524981849
 20
-6.3994170376
 30
0.0
 10
-7.0869696065
 20
-7.1514122943
 30
0.0
 10
-7.4221692481
 20
-7.6636691267
 30
0.0
 10
-7.7580235124
 20
-7.9661291723
 30
0.0
 10
-7.9439626383
 20
-8.0814192535
 30
0.0
 10
-8.0402138036
 20
-8.1295407494
 30
0.0
 11
-6.8057209205
 21
-5.5603906997
 31
0.0
 11
-6.8877977811
 21
-6.4232008716
 31
0.0
 11
-7.1300055123
 21
-7.1616889201
 31
0.0
 11
-7.5205023787
 21
-7.7399150744
 31
0.0
 11
-7.7656639964
 21
-7.9597111579
 31
0.0
 11
-8.0402138036
 21
-8.1295407494
 31
0.0
  0
SPLINE
  5
3AD
100
AcDbEntity
  8
0
100
AcDbSpline
 62
253
  6
CONTINUOUS
 70
0
 71
3
 72
23
 73
19
 74
17
 42
0.0000001
 43
0.0000001
 44
0.0000000001
 12
0.0
 22
-11.5438763146
 32
0.0
 13
0.0
 23
11.5438763146
 33
0.0
 40
0.0
 40
0.0
 40
0.0
 40
0.0
 40
0.0634351674
 40
0.1210947318
 40
0.1733525584
 40
0.2216454781
 40
0.2684422256
 40
0.3166639236
 40
0.3687976757
 40
0.4263123227
 40
0.4896016429
 40
0.558191349
 40
0.6309824914
 40
0.7064621826
 40
0.7828778731
 40
0.858404724
 40
0.9312844597
 40
1.0
 40
1.0
 40
1.0
 40
1.0
 10
-7.1592743111
 20
-5.5603906997
 30
0.0
 10
-7.1592743111
 20
-5.8044866084
 30
0.0
 10
-7.1947388878
 20
-6.2717977331
 30
0.0
 10
-7.3706308308
 20
-6.920092673
 30
0.0
 10
-7.6639050108
 20
-7.4612275529
 30
0.0
 10
-8.0687785734
 20
-7.8707309182
 30
0.0
 10
-8.5698597176
 20
-8.1239323634
 30
0.0
 10
-9.1390684122
 20
-8.2064882807
 30
0.0
 10
-9.7472522255
 20
-8.1206339939
 30
0.0
 10
-10.3713967014
 20
-7.8761621691
 30
0.0
 10
-10.9906448117
 20
-7.4850948265
 30
0.0
 10
-11.5837909704
 20
-6.9626790349
 30
0.0
 10
-12.1296643604
 20
-6.3283656272
 30
0.0
 10
-12.6082328841
 20
-5.605728546
 30
0.0
 10
-13.0017188971
 20
-4.8217651117
 30
0.0
 10
-13.2953880342
 20
-4.0056931736
 30
0.0
 10
-13.4782673875
 20
-3.1882311023
 30
0.0
 10
-13.5232353418
 20
-2.6428247504
 30
0.0
 10
-13.5232353418
 20
-2.3784101844
 30
0.0
 11
-7.1592743111
 21
-5.5603906997
 31
0.0
 11
-7.2204154465
 21
-6.2901215237
 31
0.0
 11
-7.4014900795
 21
-6.9306331521
 31
0.0
 11
-7.69553641
 21
-7.4573748659
 31
0.0
 11
-8.0912526884
 21
-7.8500591292
 31
0.0
 11
-8.5734444771
 21
-8.0936248483
 31
0.0
 11
-9.1235714455
 21
-8.1786930262
 31
0.0
 11
-9.7204903378
 21
-8.1019996636
 31
0.0
 11
-10.3412608289
 21
-7.8664939565
 31
0.0
 11
-10.962028677
 21
-7.4812283253
 31
0.0
 11
-11.5589403977
 21
-6.9610076819
 31
0.0
 11
-12.1090591328
 21
-6.3258227238
 31
0.0
 11
-12.5912461595
 21
-5.6000758413
 31
0.0
 11
-12.9869629352
 21
-4.8116804102
 31
0.0
 11
-13.2810133055
 21
-3.9908903921
 31
0.0
 11
-13.4620922727
 21
-3.169293924
 31
0.0
 11
-13.5232353418
 21
-2.3784101844
 31
0.0
  0
SPLINE
  5
3AE
100
AcDbEntity
  8
0
100
AcDbSpline
 62
253
  6
CONTINUOUS
 70
0
 71
3
 72
23
 73
19
 74
17
 42
0.0000001
 43
0.0000001
 44
0.0000000001
 12
0.0
 22
11.5438763146
 32
0.0
 13
0.0
 23
-11.5438763146
 33
0.0
 40
0.0
 40
0.0
 40
0.0
 40
0.0
 40
0.0634351674
 40
0.1210947318
 40
0.1733525584
 40
0.2216454781
 40
0.2684422256
 40
0.3166639236
 40
0.3687976757
 40
0.4263123227
 40
0.4896016429
 40
0.558191349
 40
0.6309824914
 40
0.7064621826
 40
0.7828778731
 40
0.858404724
 40
0.9312844597
 40
1.0
 40
1.0
 40
1.0
 40
1.0
 10
-13.5232353418
 20
-2.3784101844
 30
0.0
 10
-13.5232353418
 20
-2.1343142756
 30
0.0
 10
-13.4877707652
 20
-1.667003151
 30
0.0
 10
-13.3118788221
 20
-1.0187082111
 30
0.0
 10
-13.0186046422
 20
-0.4775733311
 30
0.0
 10
-12.6137310796
 20
-0.0680699659
 30
0.0
 10
-12.1126499353
 20
0.1851314793
 30
0.0
 10
-11.5434412407
 20
0.2676873966
 30
0.0
 10
-10.9352574275
 20
0.1818331099
 30
0.0
 10
-10.3111129515
 20
-0.062638715
 30
0.0
 10
-9.6918648412
 20
-0.4537060576
 30
0.0
 10
-9.0987186825
 20
-0.9761218492
 30
0.0
 10
-8.5528452926
 20
-1.6104352569
 30
0.0
 10
-8.0742767688
 20
-2.3330723381
 30
0.0
 10
-7.6807907559
 20
-3.1170357723
 30
0.0
 10
-7.3871216188
 20
-3.9331077104
 30
0.0
 10
-7.2042422655
 20
-4.7505697817
 30
0.0
 10
-7.1592743111
 20
-5.2959761337
 30
0.0
 10
-7.1592743111
 20
-5.5603906997
 30
0.0
 11
-13.5232353418
 21
-2.3784101844
 31
0.0
 11
-13.4620942064
 21
-1.6486793604
 31
0.0
 11
-13.2810195734
 21
-1.0081677319
 31
0.0
 11
-12.9869732429
 21
-0.4814260181
 31
0.0
 11
-12.5912569645
 21
-0.0887417548
 31
0.0
 11
-12.1090651758
 21
0.1548239643
 31
0.0
 11
-11.5589382074
 21
0.2398921422
 31
0.0
 11
-10.9620193151
 21
0.1631987796
 31
0.0
 11
-10.341248824
 21
-0.0723069275
 31
0.0
 11
-9.7204809759
 21
-0.4575725587
 31
0.0
 11
-9.1235692552
 21
-0.9777932021
 31
0.0
 11
-8.5734505201
 21
-1.6129781602
 31
0.0
 11
-8.0912634935
 21
-2.3387250428
 31
0.0
 11
-7.6955467178
 21
-3.1271204738
 31
0.0
 11
-7.4014963474
 21
-3.947910492
 31
0.0
 11
-7.2204173802
 21
-4.76950696
 31
0.0
 11
-7.1592743111
 21
-5.5603906997
 31
0.0
  0
SPLINE
  5
3AF
100
AcDbEntity
  8
0
100
AcDbSpline
 62
253
  6
CONTINUOUS
 70
0
 71
3
 72
23
 73
19
 74
17
 42
0.0000001
 43
0.0000001
 44
0.0000000001
 12
-9.9912174246
 22
4.9956087123
 32
0.0
 13
9.9912174246
 23
-4.9956087123
 33
0.0
 40
0.0
 40
0.0
 40
0.0
 40
0.0
 40
0.057515806
 40
0.1096476879
 40
0.157869379
 40
0.2046647666
 40
0.252959047
 40
0.3052168476
 40
0.362878447
 40
0.4263122551
 40
0.4950250296
 40
0.5679048375
 40
0.6434302618
 40
0.7198474516
 40
0.7953257475
 40
0.8681183947
 40
0.9367081494
 40
1.0
 40
1.0
 40
1.0
 40
1.0
 10
-10.3412509196
 20
-0.1983299899
 30
0.0
 10
-10.5328018941
 20
-0.1025545027
 30
0.0
 10
-10.9161833371
 20
0.0476620809
 30
0.0
 10
-11.5045299596
 20
0.1306396253
 30
0.0
 10
-12.0553571853
 20
0.0507814858
 30
0.0
 10
-12.5402200671
 20
-0.1942401144
 30
0.0
 10
-12.9319966656
 20
-0.5905091019
 30
0.0
 10
-13.2157978831
 20
-1.1141183463
 30
0.0
 10
-13.3859832009
 20
-1.7415935692
 30
0.0
 10
-13.4397933208
 20
-2.4497791484
 30
0.0
 10
-13.3767960428
 20
-3.213338283
 30
0.0
 10
-13.1998458961
 20
-4.0045357094
 30
0.0
 10
-12.915676775
 20
-4.7941615058
 30
0.0
 10
-12.5349229801
 20
-5.5527864371
 30
0.0
 10
-12.0718566933
 20
-6.2520496948
 30
0.0
 10
-11.5435705957
 20
-6.8658821305
 30
0.0
 10
-10.9698368696
 20
-7.3713111062
 30
0.0
 10
-10.5520479032
 20
-7.6350764057
 30
0.0
 10
-10.3412603563
 20
-7.7404701791
 30
0.0
 11
-10.3412509196
 21
-0.1983299899
 31
0.0
 11
-10.9419565698
 21
0.0295629672
 31
0.0
 11
-11.51955028
 21
0.1037632932
 31
0.0
 11
-12.0518849443
 21
0.0214473954
 31
0.0
 11
-12.5184662887
 21
-0.2142373371
 31
0.0
 11
-12.9013924575
 21
-0.5942345287
 31
0.0
 11
-13.1859295553
 21
-1.10393936
 31
0.0
 11
-13.3611455426
 21
-1.7237596279
 31
0.0
 11
-13.4203081258
 21
-2.4298741254
 31
0.0
 11
-13.3611459863
 21
-3.1951481331
 31
0.0
 11
-13.185933073
 21
-3.9901752008
 31
0.0
 11
-12.9014025762
 21
-4.7844054864
 31
0.0
 11
-12.5184843186
 21
-5.5473211877
 31
0.0
 11
-12.0519081321
 21
-6.2495875218
 31
0.0
 11
-11.5195740597
 21
-6.864244915
 31
0.0
 11
-10.9419743137
 21
-7.3676486697
 31
0.0
 11
-10.3412603563
 21
-7.7404701791
 31
0.0
  0
SPLINE
  5
3B0
100
AcDbEntity
  8
0
100
AcDbSpline
 62
253
  6
CONTINUOUS
 70
0
 71
3
 72
23
 73
19
 74
17
 42
0.0000001
 43
0.0000001
 44
0.0000000001
 12
9.8839071461
 22
-4.9419535731
 32
0.0
 13
-9.7125461945
 23
5.2707657899
 33
0.0
 40
0.0
 40
0.0
 40
0.0
 40
0.0
 40
0.0575306799
 40
0.1097281162
 40
0.1580143988
 40
0.2047969389
 40
0.252937283
 40
0.3048862142
 40
0.3621184826
 40
0.4250636645
 40
0.4932996257
 40
0.5657863991
 40
0.6410696465
 40
0.7174526445
 40
0.7931462637
 40
0.8664228305
 40
0.9357510082
 40
1.0
 40
1.0
 40
1.0
 40
1.0
 10
-10.3412603563
 20
-7.7404701791
 30
0.0
 10
-10.1517177237
 20
-7.8352414954
 30
0.0
 10
-9.772387728
 20
-7.9842710531
 30
0.0
 10
-9.1903380684
 20
-8.0687377095
 30
0.0
 10
-8.6446110182
 20
-7.9942359525
 30
0.0
 10
-8.1624243266
 20
-7.7582904342
 30
0.0
 10
-7.770126644
 20
-7.3736662828
 30
0.0
 10
-7.4827345159
 20
-6.8631247341
 30
0.0
 10
-7.3061227625
 20
-6.2493833691
 30
0.0
 10
-7.2431842778
 20
-5.554765206
 30
0.0
 10
-7.2946013133
 20
-4.8036078
 30
0.0
 10
-7.4579592776
 20
-4.0225853014
 30
0.0
 10
-7.7271486161
 20
-3.2398861038
 30
0.0
 10
-8.0923081461
 20
-2.4840420686
 30
0.0
 10
-8.540033315
 20
-1.782697924
 30
0.0
 10
-9.0541352645
 20
-1.1614802312
 30
0.0
 10
-9.6157457655
 20
-0.6430639178
 30
0.0
 10
-10.0263541401
 20
-0.3669373067
 30
0.0
 10
-10.2343612403
 20
-0.2540568441
 30
0.0
 11
-10.3412603563
 21
-7.7404701791
 31
0.0
 11
-9.7471179681
 21
-7.9666712632
 31
0.0
 11
-9.1753294662
 21
-8.0426171034
 31
0.0
 11
-8.6473453676
 21
-7.9654759634
 31
0.0
 11
-8.1830432606
 21
-7.738134493
 31
0.0
 11
-7.7998471877
 21
-7.3691354479
 31
0.0
 11
-7.5121779328
 21
-6.8723499547
 31
0.0
 11
-7.3308459412
 21
-6.2664549044
 31
0.0
 11
-7.2626658319
 21
-5.574225942
 31
0.0
 11
-7.3101979479
 21
-4.8216810556
 31
0.0
 11
-7.4716551061
 21
-4.0371035361
 31
0.0
 11
-7.7409685144
 21
-3.2499805562
 31
0.0
 11
-8.1080201789
 21
-2.4898927522
 31
0.0
 11
-8.5589994943
 21
-1.7854243276
 31
0.0
 11
-9.0769877349
 21
-1.1630284231
 31
0.0
 11
-9.6424508513
 21
-0.6461316643
 31
0.0
 11
-10.2343612403
 21
-0.2540568441
 31
0.0
  0
SPLINE
  5
3B1
100
AcDbEntity
  8
0
100
AcDbSpline
 62
253
  6
CONTINUOUS
 70
0
 71
3
 72
15
 73
11
 74
9
 42
0.0000001
 43
0.0000001
 44
0.0000000001
 12
6.2525124668
 22
-3.1262562334
 32
0.0
 13
0.0
 23
-6.990521453
 33
0.0
 40
0.0
 40
0.0
 40
0.0
 40
0.0
 40
0.1103240026
 40
0.2298800165
 40
0.3567652898
 40
0.48833393
 40
0.6215366749
 40
0.753188176
 40
0.8802218838
 40
1.0
 40
1.0
 40
1.0
 40
1.0
 10
-10.1644781312
 20
0.2326085736
 30
0.0
 10
-9.9345440639
 20
0.11764154
 30
0.0
 10
-9.4788088864
 20
-0.1700750857
 30
0.0
 10
-8.8529676003
 20
-0.7214133325
 30
0.0
 10
-8.2766902818
 20
-1.3909966499
 30
0.0
 10
-7.7715564979
 20
-2.1537846284
 30
0.0
 10
-7.3562032357
 20
-2.9813098207
 30
0.0
 10
-7.0462261904
 20
-3.8427188635
 30
0.0
 10
-6.8531842184
 20
-4.7055878107
 30
0.0
 10
-6.8057209205
 20
-5.2812868693
 30
0.0
 10
-6.8057209205
 20
-5.5603906997
 30
0.0
 11
-10.1644781312
 21
0.2326085736
 31
0.0
 11
-9.5091980124
 21
-0.1740753488
 31
0.0
 11
-8.8791477099
 21
-0.7231923874
 31
0.0
 11
-8.2984544265
 21
-1.393680318
 31
0.0
 11
-7.7894845192
 21
-2.1597476545
 31
0.0
 11
-7.3717792527
 21
-2.9919585714
 31
0.0
 11
-7.06139519
 21
-3.8583517234
 31
0.0
 11
-6.8702599644
 21
-4.725570213
 31
0.0
 11
-6.8057209205
 21
-5.5603906997
 31
0.0
  0
SPLINE
  5
3B2
100
AcDbEntity
  8
0
100
AcDbSpline
 62
253
  6
CONTINUOUS
 70
0
 71
3
 72
11
 73
7
 74
5
 42
0.0000001
 43
0.0000001
 44
0.0000000001
 12
1.6720624119
 22
-0.8360312059
 32
0.0
 13
1.6904024488
 23
0.7982984701
 33
0.0
 40
0.0
 40
0.0
 40
0.0
 40
0.0
 40
0.2788829283
 40
0.5351188752
 40
0.7729457154
 40
1.0
 40
1.0
 40
1.0
 40
1.0
 10
-10.1613929524
 20
-7.4340187479
 30
0.0
 10
-10.0059563985
 20
-7.5117370248
 30
0.0
 10
-9.6951244045
 20
-7.6379371411
 30
0.0
 10
-9.2188473424
 20
-7.7304670722
 30
0.0
 10
-8.7654198979
 20
-7.7133870293
 30
0.0
 10
-8.4847823182
 20
-7.6260756027
 30
0.0
 10
-8.356844612
 20
-7.5656565734
 30
0.0
 11
-10.1613929524
 21
-7.4340187479
 31
0.0
 11
-9.6768361886
 21
-7.6264001877
 31
0.0
 11
-9.2058294464
 21
-7.7136146564
 31
0.0
 11
-8.7617012386
 21
-7.6931624711
 31
0.0
 11
-8.356844612
 21
-7.5656565734
 31
0.0
  0
SPLINE
  5
3B3
100
AcDbEntity
  8
0
100
AcDbSpline
 62
253
  6
CONTINUOUS
 70
0
 71
3
 72
9
 73
5
 74
3
 42
0.0000001
 43
0.0000001
 44
0.0000000001
 12
-0.0923623345
 22
-0.0843872154
 32
0.0
 13
-0.1119104975
 23
-0.0559289147
 33
0.0
 40
0.0
 40
0.0
 40
0.0
 40
0.0
 40
0.2529381408
 40
1.0
 40
1.0
 40
1.0
 40
1.0
 10
-7.5738682183
 20
-3.885511684
 30
0.0
 10
-7.5816555374
 20
-3.8926265991
 30
0.0
 10
-7.6133616016
 20
-3.9197317016
 30
0.0
 10
-7.6488257229
 20
-3.9424547176
 30
0.0
 10
-7.6766937443
 20
-3.9563821706
 30
0.0
 11
-7.5738682183
 21
-3.885511684
 31
0.0
 11
-7.5979353151
 21
-3.9060580717
 31
0.0
 11
-7.6766937443
 21
-3.9563821706
 31
0.0
  0
SPLINE
  5
3B4
100
AcDbEntity
  8
0
100
AcDbSpline
 62
253
  6
CONTINUOUS
 70
0
 71
3
 72
11
 73
7
 74
5
 42
0.0000001
 43
0.0000001
 44
0.0000000001
 12
-0.5481152155
 22
0.1068701029
 32
0.0
 13
-0.3139677703
 23
-0.4618178727
 33
0.0
 40
0.0
 40
0.0
 40
0.0
 40
0.0
 40
0.2625658502
 40
0.5077317556
 40
0.7487690667
 40
1.0
 40
1.0
 40
1.0
 40
1.0
 10
-8.5361450626
 20
-1.9126365608
 30
0.0
 10
-8.5841171752
 20
-1.903283081
 30
0.0
 10
-8.6796343492
 20
-1.8958608089
 30
0.0
 10
-8.8179992567
 20
-1.9257179939
 30
0.0
 10
-8.9382441331
 20
-1.9965882064
 30
0.0
 10
-9.000068507
 20
-2.0662643049
 30
0.0
 10
-9.0263613123
 20
-2.1049386166
 30
0.0
 11
-8.5361450626
 21
-1.9126365608
 31
0.0
 11
-8.6824548255
 21
-1.9030056857
 31
0.0
 11
-8.8160756631
 21
-1.9328338384
 31
0.0
 11
-8.9321599332
 21
-2.0009711883
 31
0.0
 11
-9.0263613123
 21
-2.1049386166
 31
0.0
  0
SPLINE
  5
3B5
100
AcDbEntity
  8
0
100
AcDbSpline
 62
253
  6
CONTINUOUS
 70
0
 71
3
 72
15
 73
11
 74
9
 42
0.0000001
 43
0.0000001
 44
0.0000000001
 12
1.3384782498
 22
-0.6692391249
 32
0.0
 13
-1.4948471637
 23
0.0695484623
 33
0.0
 40
0.0
 40
0.0
 40
0.0
 40
0.0
 40
0.1289864171
 40
0.2735124872
 40
0.4241182162
 40
0.5696074208
 40
0.7002052176
 40
0.8109453211
 40
0.90594548
 40
1.0
 40
1.0
 40
1.0
 40
1.0
 10
-9.1704044079
 20
-2.8208533189
 30
0.0
 10
-9.1128559033
 20
-2.8496275712
 30
0.0
 10
-9.0016746843
 20
-2.9326530661
 30
0.0
 10
-8.8671727062
 20
-3.097926228
 30
0.0
 10
-8.7663399311
 20
-3.2950549386
 30
0.0
 10
-8.7105980025
 20
-3.5023026354
 30
0.0
 10
-8.7063333327
 20
-3.6974322486
 30
0.0
 10
-8.7560223926
 20
-3.8621274262
 30
0.0
 10
-8.8653825917
 20
-3.9750367444
 30
0.0
 10
-8.9639150642
 20
-3.9940671657
 30
0.0
 10
-9.010780775
 20
-3.9918867166
 30
0.0
 11
-9.1704044079
 21
-2.8208533189
 31
0.0
 11
-9.0134271976
 21
-2.9331753881
 31
0.0
 11
-8.8753494999
 21
-3.0996408802
 31
0.0
 11
-8.7726919781
 21
-3.3002793857
 31
0.0
 11
-8.7178231068
 21
-3.5109714277
 31
0.0
 11
-8.717334277
 21
-3.7064057409
 31
0.0
 11
-8.7712851249
 21
-3.8630963904
 31
0.0
 11
-8.8731937896
 21
-3.9622191531
 31
0.0
 11
-9.010780775
 21
-3.9918867166
 31
0.0
  0
SPLINE
  5
3B6
100
AcDbEntity
  8
0
100
AcDbSpline
 62
253
  6
CONTINUOUS
 70
0
 71
3
 72
17
 73
13
 74
11
 42
0.0000001
 43
0.0000001
 44
0.0000000001
 12
-0.9596228027
 22
0.4798114013
 32
0.0
 13
0.9596228027
 23
-0.4798114013
 33
0.0
 40
0.0
 40
0.0
 40
0.0
 40
0.0
 40
0.1319133723
 40
0.280358331
 40
0.4325165958
 40
0.5056249912
 40
0.5745618317
 40
0.695493458
 40
0.7953915524
 40
0.8423381359
 40
0.8907175235
 40
1.0
 40
1.0
 40
1.0
 40
1.0
 10
-9.2789290302
 20
-3.8016409513
 30
0.0
 10
-9.3211247235
 20
-3.7805431047
 30
0.0
 10
-9.4017504542
 20
-3.7174577398
 30
0.0
 10
-9.4947826846
 20
-3.5923195346
 30
0.0
 10
-9.5484005697
 20
-3.4683447416
 30
0.0
 10
-9.571466825
 20
-3.3653644797
 30
0.0
 10
-9.5790830389
 20
-3.2714756916
 30
0.0
 10
-9.5650850021
 20
-3.1664152613
 30
0.0
 10
-9.5076469376
 20
-3.0828514866
 30
0.0
 10
-9.4441081743
 20
-3.0508513085
 30
0.0
 10
-9.3706597463
 20
-3.0401307447
 30
0.0
 10
-9.3138856823
 20
-3.0573558103
 30
0.0
 10
-9.2789290302
 20
-3.0748341364
 30
0.0
 11
-9.2789290302
 21
-3.8016409513
 31
0.0
 11
-9.3924972701
 21
-3.7171861355
 31
0.0
 11
-9.4887337331
 21
-3.5902847485
 31
0.0
 11
-9.5530543331
 21
-3.4402408617
 31
0.0
 11
-9.5699335388
 21
-3.3636412037
 31
0.0
 11
-9.5756431828
 21
-3.2899002081
 31
0.0
 11
-9.5530628289
 21
-3.1621337532
 31
0.0
 11
-9.488747554
 21
-3.0763955132
 31
0.0
 11
-9.4437998558
 21
-3.0536645534
 31
0.0
 11
-9.3925053996
 21
-3.0457215451
 31
0.0
 11
-9.2789290302
 21
-3.0748341364
 31
0.0
  0
SPLINE
  5
3B7
100
AcDbEntity
  8
0
100
AcDbSpline
 62
253
  6
CONTINUOUS
 70
0
 71
3
 72
17
 73
13
 74
11
 42
0.0000001
 43
0.0000001
 44
0.0000000001
 12
0.9596228027
 22
-0.4798114013
 32
0.0
 13
-0.9596228027
 23
0.4798114013
 33
0.0
 40
0.0
 40
0.0
 40
0.0
 40
0.0
 40
0.1319133723
 40
0.280358331
 40
0.4325165958
 40
0.5056249912
 40
0.5745618317
 40
0.695493458
 40
0.7953915524
 40
0.8423381359
 40
0.8907175235
 40
1.0
 40
1.0
 40
1.0
 40
1.0
 10
-9.2789290302
 20
-3.0748341364
 30
0.0
 10
-9.2367333368
 20
-3.0959319831
 30
0.0
 10
-9.1561076061
 20
-3.1590173479
 30
0.0
 10
-9.0630753757
 20
-3.2841555532
 30
0.0
 10
-9.0094574906
 20
-3.4081303461
 30
0.0
 10
-8.9863912353
 20
-3.511110608
 30
0.0
 10
-8.9787750214
 20
-3.6049993962
 30
0.0
 10
-8.9927730582
 20
-3.7100598265
 30
0.0
 10
-9.0502111228
 20
-3.7936236011
 30
0.0
 10
-9.113749886
 20
-3.8256237792
 30
0.0
 10
-9.1871983141
 20
-3.836344343
 30
0.0
 10
-9.243972378
 20
-3.8191192774
 30
0.0
 10
-9.2789290302
 20
-3.8016409513
 30
0.0
 11
-9.2789290302
 21
-3.0748341364
 31
0.0
 11
-9.1653607902
 21
-3.1592889522
 31
0.0
 11
-9.0691243272
 21
-3.2861903393
 31
0.0
 11
-9.0048037272
 21
-3.4362342261
 31
0.0
 11
-8.9879245215
 21
-3.512833884
 31
0.0
 11
-8.9822148775
 21
-3.5865748797
 31
0.0
 11
-9.0047952314
 21
-3.7143413345
 31
0.0
 11
-9.0691105063
 21
-3.8000795746
 31
0.0
 11
-9.1140582045
 21
-3.8228105344
 31
0.0
 11
-9.1653526607
 21
-3.8307535427
 31
0.0
 11
-9.2789290302
 21
-3.8016409513
 31
0.0
  0
SPLINE
  5
3B8
100
AcDbEntity
  8
0
100
AcDbSpline
 62
253
  6
CONTINUOUS
 70
0
 71
3
 72
11
 73
7
 74
5
 42
0.0000001
 43
0.0000001
 44
0.0000000001
 12
0.2446232526
 22
0.3598907657
 32
0.0
 13
0.3892165453
 23
-0.1946082727
 33
0.0
 40
0.0
 40
0.0
 40
0.0
 40
0.0
 40
0.2392814555
 40
0.4712904621
 40
0.7195888925
 40
1.0
 40
1.0
 40
1.0
 40
1.0
 10
-9.5609520177
 20
-2.8915387642
 30
0.0
 10
-9.5414407483
 20
-2.8628337021
 30
0.0
 10
-9.4925742734
 20
-2.8120609986
 30
0.0
 10
-9.3926237129
 20
-2.7725448719
 30
0.0
 10
-9.2798793892
 20
-2.7759666856
 30
0.0
 10
-9.2067846221
 20
-2.8026632118
 30
0.0
 10
-9.1704044079
 20
-2.8208533189
 30
0.0
 11
-9.5609520177
 21
-2.8915387642
 31
0.0
 11
-9.4875423007
 21
-2.8176940256
 31
0.0
 11
-9.3938431407
 21
-2.7800978336
 31
0.0
 11
-9.2857997364
 21
-2.7811857255
 31
0.0
 11
-9.1704044079
 21
-2.8208533189
 31
0.0
  0
SPLINE
  5
3B9
100
AcDbEntity
  8
0
100
AcDbSpline
 62
253
  6
CONTINUOUS
 70
0
 71
3
 72
9
 73
5
 74
3
 42
0.0000001
 43
0.0000001
 44
0.0000000001
 12
0.4291377291
 22
-0.0199675314
 32
0.0
 13
0.2685341457
 23
0.3353316351
 33
0.0
 40
0.0
 40
0.0
 40
0.0
 40
0.0
 40
0.5032455975
 40
1.0
 40
1.0
 40
1.0
 40
1.0
 10
-8.0607483867
 20
-4.0361660421
 30
0.0
 10
-7.9887611624
 20
-4.0395155662
 30
0.0
 10
-7.8410036545
 20
-4.0162578591
 30
0.0
 10
-7.7243411182
 20
-3.9221442035
 30
0.0
 10
-7.6798759452
 20
-3.8666183814
 30
0.0
 11
-8.0607483867
 21
-4.0361660421
 31
0.0
 11
-7.8479195239
 21
-3.9981621854
 31
0.0
 11
-7.6798759452
 21
-3.8666183814
 31
0.0
  0
SPLINE
  5
3BA
100
AcDbEntity
  8
0
100
AcDbSpline
 62
253
  6
CONTINUOUS
 70
0
 71
3
 72
9
 73
5
 74
3
 42
0.0000001
 43
0.0000001
 44
0.0000000001
 12
0.0794342407
 22
0.0991933958
 32
0.0
 13
0.0553295859
 23
0.1144017713
 33
0.0
 40
0.0
 40
0.0
 40
0.0
 40
0.0
 40
0.2433377908
 40
1.0
 40
1.0
 40
1.0
 40
1.0
 10
-7.6798759452
 20
-3.8666183814
 30
0.0
 10
-7.6734328277
 20
-3.8585725475
 30
0.0
 10
-7.6479561742
 20
-3.8247110025
 30
0.0
 10
-7.6265541259
 20
-3.7878442741
 30
0.0
 10
-7.612598857
 20
-3.7589897751
 30
0.0
 11
-7.6798759452
 21
-3.8666183814
 31
0.0
 11
-7.6612752333
 21
-3.8419150136
 31
0.0
 11
-7.612598857
 21
-3.7589897751
 31
0.0
  0
SPLINE
  5
3BB
100
AcDbEntity
  8
0
100
AcDbSpline
 62
253
  6
CONTINUOUS
 70
0
 71
3
 72
9
 73
5
 74
3
 42
0.0000001
 43
0.0000001
 44
0.0000000001
 12
0.112720312
 22
0.0563336314
 32
0.0
 13
0.123853753
 23
0.0232291764
 33
0.0
 40
0.0
 40
0.0
 40
0.0
 40
0.0
 40
0.7470674414
 40
1.0
 40
1.0
 40
1.0
 40
1.0
 10
-8.7321035621
 20
-1.8455625402
 30
0.0
 10
-8.7040336704
 20
-1.8315341996
 30
0.0
 10
-8.6642754419
 20
-1.8167255231
 30
0.0
 10
-8.623262859
 20
-1.8076030739
 30
0.0
 10
-8.6128206434
 20
-1.8056446022
 30
0.0
 11
-8.7321035621
 21
-1.8455625402
 31
0.0
 11
-8.6439294469
 21
-1.8125815784
 31
0.0
 11
-8.6128206434
 21
-1.8056446022
 31
0.0
  0
SPLINE
  5
3BC
100
AcDbEntity
  8
0
100
AcDbSpline
 62
253
  6
CONTINUOUS
 70
0
 71
3
 72
9
 73
5
 74
3
 42
0.0000001
 43
0.0000001
 44
0.0000000001
 12
0.0199713281
 22
-0.1019343831
 32
0.0
 13
0.0119599879
 23
-0.1031815443
 33
0.0
 40
0.0
 40
0.0
 40
0.0
 40
0.0
 40
0.2560060429
 40
1.0
 40
1.0
 40
1.0
 40
1.0
 10
6.4177002747
 20
11.6834829179
 30
0.0
 10
6.4194045349
 20
11.6747843119
 30
0.0
 10
6.4257525696
 20
11.6407469014
 30
0.0
 10
6.4308443937
 20
11.6064709704
 30
0.0
 10
6.4338104466
 20
11.5808821552
 30
0.0
 11
6.4177002747
 21
11.6834829179
 31
0.0
 11
6.4225724745
 21
11.6573411139
 31
0.0
 11
6.4338104466
 21
11.5808821552
 31
0.0
  0
SPLINE
  5
3BD
100
AcDbEntity
  8
0
100
AcDbSpline
 62
253
  6
CONTINUOUS
 70
0
 71
3
 72
10
 73
6
 74
4
 42
0.0000001
 43
0.0000001
 44
0.0000000001
 12
1.7871659304
 22
0.2812950778
 32
0.0
 13
1.6203038606
 23
-0.8048008343
 33
0.0
 40
0.0
 40
0.0
 40
0.0
 40
0.0
 40
0.5319647837
 40
0.7780037407
 40
1.0
 40
1.0
 40
1.0
 40
1.0
 10
16.3746307514
 20
18.0415954217
 30
0.0
 10
16.6915338639
 20
18.0914751135
 30
0.0
 10
17.1675347254
 20
18.1112612913
 30
0.0
 10
17.7631433442
 20
18.00798198
 30
0.0
 10
18.0317720978
 20
17.9139850461
 30
0.0
 10
18.1516725631
 20
17.8544307879
 30
0.0
 11
16.3746307514
 21
18.0415954217
 31
0.0
 11
17.3365729704
 21
18.0717162585
 31
0.0
 11
17.7746620637
 21
17.9928813734
 31
0.0
 11
18.1516725631
 21
17.8544307879
 31
0.0
  0
SPLINE
  5
3BE
100
AcDbEntity
  8
0
100
AcDbSpline
 62
253
  6
CONTINUOUS
 70
0
 71
3
 72
17
 73
13
 74
11
 42
0.0000001
 43
0.0000001
 44
0.0000000001
 12
-7.5937705445
 22
-4.0081133185
 32
0.0
 13
7.6801210125
 23
-3.8400605062
 33
0.0
 40
0.0
 40
0.0
 40
0.0
 40
0.0
 40
0.0449557441
 40
0.0917107615
 40
0.1415815266
 40
0.1953995237
 40
0.3155220604
 40
0.4505746134
 40
0.5944877918
 40
0.7392314646
 40
0.8766031132
 40
1.0
 40
1.0
 40
1.0
 40
1.0
 10
-12.027179896
 20
-0.2238846839
 30
0.0
 10
-12.1409744311
 20
-0.2839472561
 30
0.0
 10
-12.3583563724
 20
-0.4366955095
 30
0.0
 10
-12.6267213405
 20
-0.7448080339
 30
0.0
 10
-12.8352360369
 20
-1.1249065456
 30
0.0
 10
-13.0354563997
 20
-1.7365364402
 30
0.0
 10
-13.1021336821
 20
-2.6310632677
 30
0.0
 10
-12.9199362462
 20
-3.7664064033
 30
0.0
 10
-12.4970794297
 20
-4.9107502829
 30
0.0
 10
-11.8696953397
 20
-5.964684684
 30
0.0
 10
-11.0932339725
 20
-6.8368499121
 30
0.0
 10
-10.47729396
 20
-7.2760682441
 30
0.0
 10
-10.1613929524
 20
-7.4340187479
 30
0.0
 11
-12.027179896
 21
-0.2238846839
 31
0.0
 11
-12.3436280266
 21
-0.4449524562
 31
0.0
 11
-12.6092891257
 21
-0.7459524582
 31
0.0
 11
-12.8179783235
 21
-1.119881603
 31
0.0
 11
-12.9648375664
 21
-1.5580404352
 31
0.0
 11
-13.0608939959
 21
-2.585006476
 31
0.0
 11
-12.8885803863
 21
-3.7317800149
 31
0.0
 11
-12.4638525896
 21
-4.8922261547
 31
0.0
 11
-11.8260049327
 21
-5.9589287972
 31
0.0
 11
-11.0341094466
 21
-6.8331508796
 31
0.0
 11
-10.1613929524
 21
-7.4340187479
 31
0.0
  0
SPLINE
  5
3BF
100
AcDbEntity
  8
0
100
AcDbSpline
 62
253
  6
CONTINUOUS
 70
0
 71
3
 72
13
 73
9
 74
7
 42
0.0000001
 43
0.0000001
 44
0.0000000001
 12
-1.3857587762
 22
1.6418816493
 32
0.0
 13
-2.1416777997
 23
-0.1712277384
 33
0.0
 40
0.0
 40
0.0
 40
0.0
 40
0.0
 40
0.097958409
 40
0.2086636549
 40
0.3287311245
 40
0.4556212678
 40
0.7225710522
 40
1.0
 40
1.0
 40
1.0
 40
1.0
 10
18.3769919035
 20
17.4507139379
 30
0.0
 10
18.3317429952
 20
17.504325976
 30
0.0
 10
18.2185299193
 20
17.6040264321
 30
0.0
 10
18.0199853245
 20
17.7313227961
 30
0.0
 10
17.7881350388
 20
17.8418184301
 30
0.0
 10
17.440013427
 20
17.9629629429
 30
0.0
 10
16.964904708
 20
18.0534362912
 30
0.0
 10
16.5726853897
 20
18.0574299593
 30
0.0
 10
16.3746309169
 20
18.0415954489
 30
0.0
 11
18.3769919035
 21
17.4507139379
 31
0.0
 11
18.2226217986
 21
17.5937709185
 31
0.0
 11
18.0232891031
 21
17.7235392611
 31
0.0
 11
17.7908552663
 21
17.8354372462
 31
0.0
 11
17.5336482021
 21
17.9258191972
 31
0.0
 11
16.9706574544
 21
18.0353408674
 31
0.0
 11
16.3746309169
 21
18.0415954489
 31
0.0
  0
SPLINE
  5
3C0
100
AcDbEntity
  8
0
100
AcDbSpline
 62
253
  6
CONTINUOUS
 70
0
 71
3
 72
11
 73
7
 74
5
 42
0.0000001
 43
0.0000001
 44
0.0000000001
 12
1.2629436897
 22
-0.9174996691
 32
0.0
 13
0.0027587638
 23
-1.5610332461
 33
0.0
 40
0.0
 40
0.0
 40
0.0
 40
0.0
 40
0.2162098942
 40
0.4514402955
 40
0.7122304919
 40
1.0
 40
1.0
 40
1.0
 40
1.0
 10
18.3770815811
 20
17.4507373825
 30
0.0
 10
18.4681018882
 20
17.3846132137
 30
0.0
 10
18.6364756305
 20
17.2146702638
 30
0.0
 10
18.8131868224
 20
16.8844207608
 30
0.0
 10
18.9194783602
 20
16.4876991046
 30
0.0
 10
18.9403401406
 20
16.2014509025
 30
0.0
 10
18.9406047699
 20
16.051711646
 30
0.0
 11
18.3770815811
 21
17.4507373825
 31
0.0
 11
18.6164522171
 21
17.2127970187
 31
0.0
 11
18.7942956091
 21
16.8915341853
 31
0.0
 11
18.9037212058
 21
16.499413374
 31
0.0
 11
18.9406047699
 21
16.051711646
 31
0.0
  0
SPLINE
  5
3C1
100
AcDbEntity
  8
0
100
AcDbSpline
 62
253
  6
CONTINUOUS
 70
0
 71
3
 72
9
 73
5
 74
3
 42
0.0000001
 43
0.0000001
 44
0.0000000001
 12
0.0005878153
 22
-14.0448375677
 32
0.0
 13
-1.5291620923
 23
-13.9613439878
 33
0.0
 40
0.0
 40
0.0
 40
0.0
 40
0.0
 40
0.2449090539
 40
1.0
 40
1.0
 40
1.0
 40
1.0
 10
18.9406260146
 20
13.6453954024
 30
0.0
 10
18.9406740017
 20
12.4988261086
 30
0.0
 10
18.8729750551
 20
7.8173535847
 30
0.0
 10
18.5395592436
 20
3.1405686836
 30
0.0
 10
18.15467376
 20
-0.3734594631
 30
0.0
 11
18.9406260146
 21
13.6453954024
 31
0.0
 11
18.8915760161
 21
10.2060372605
 31
0.0
 11
18.15467376
 21
-0.3734594631
 31
0.0
  0
LINE
  5
3C2
100
AcDbEntity
  8
0
100
AcDbLine
 62
253
  6
CONTINUOUS
 10
18.15467376
 20
-0.3734594631
 11
18.1473390195
 21
-0.4402773254
  0
SPLINE
  5
3C3
100
AcDbEntity
  8
0
100
AcDbSpline
 62
7
  6
CONTINUOUS
 70
0
 71
3
 72
12
 73
8
 74
6
 42
0.0000001
 43
0.0000001
 44
0.0000000001
 12
-0.5806405733
 22
-5.2256076321
 32
0.0
 13
-4.6687818667
 23
-2.4179732176
 33
0.0
 40
0.0
 40
0.0
 40
0.0
 40
0.0
 40
0.2546955861
 40
0.5197168182
 40
0.6496782734
 40
0.7744494802
 40
1.0
 40
1.0
 40
1.0
 40
1.0
 10
18.1473390195
 20
-0.4402773254
 30
0.0
 10
18.0980434891
 20
-0.8839237248
 30
0.0
 10
17.8795734877
 20
-1.7779134467
 30
0.0
 10
17.3785229333
 20
-2.8097747803
 30
0.0
 10
16.8527609224
 20
-3.5561920331
 30
0.0
 10
16.2916624715
 20
-4.1843627073
 30
0.0
 10
15.7967768724
 20
-4.567298201
 30
0.0
 10
15.4457614801
 20
-4.7490899064
 30
0.0
 11
18.1473390195
 21
-0.4402773254
 31
0.0
 11
17.8401198369
 21
-1.7436905244
 31
0.0
 11
17.2316250657
 21
-2.9972268957
 31
0.0
 11
16.8371203063
 21
-3.5551467833
 31
0.0
 11
16.3985389242
 21
-4.0430053435
 31
0.0
 11
15.4457614801
 21
-4.7490899064
 31
0.0
  0
SPLINE
  5
3C4
100
AcDbEntity
  8
0
100
AcDbSpline
 62
253
  6
CONTINUOUS
 70
0
 71
3
 72
11
 73
7
 74
5
 42
0.0000001
 43
0.0000001
 44
0.0000000001
 12
-0.0055421522
 22
-2.1684146773
 32
0.0
 13
-1.8960113642
 23
-1.0522327856
 33
0.0
 40
0.0
 40
0.0
 40
0.0
 40
0.0
 40
0.2474256817
 40
0.5113121848
 40
0.7690841362
 40
1.0
 40
1.0
 40
1.0
 40
1.0
 10
11.8283585005
 20
-12.8272659625
 30
0.0
 10
11.8279014103
 20
-13.0061064557
 30
0.0
 10
11.7691613398
 20
-13.3763267865
 30
0.0
 10
11.5533316933
 20
-13.8933950943
 30
0.0
 10
11.236153721
 20
-14.3407882417
 30
0.0
 10
10.9594294181
 20
-14.5709414342
 30
0.0
 10
10.8134897175
 20
-14.6519338484
 30
0.0
 11
11.8283585005
 21
-12.8272659625
 31
0.0
 11
11.7512069886
 21
-13.3582130623
 31
0.0
 11
11.5328170111
 21
-13.8871160612
 31
0.0
 11
11.205146374
 21
-14.3399585771
 31
0.0
 11
10.8134897175
 21
-14.6519338484
 31
0.0
  0
SPLINE
  5
3C5
100
AcDbEntity
  8
0
100
AcDbSpline
 62
253
  6
CONTINUOUS
 70
0
 71
3
 72
9
 73
5
 74
3
 42
0.0000001
 43
0.0000001
 44
0.0000000001
 12
0.1027219612
 22
0.0531919973
 32
0.0
 13
0.0002351863
 23
0.1156768541
 33
0.0
 40
0.0
 40
0.0
 40
0.0
 40
0.0
 40
0.5662323193
 40
1.0
 40
1.0
 40
1.0
 40
1.0
 10
18.940604765
 20
16.053532154
 30
0.0
 10
18.9599929298
 20
16.06357183
 30
0.0
 10
18.9930902323
 20
16.0853400287
 30
0.0
 10
19.0107146113
 20
16.123499531
 30
0.0
 10
19.0107486167
 20
16.140225158
 30
0.0
 11
18.940604765
 21
16.053532154
 31
0.0
 11
18.9925135406
 21
16.0934789093
 31
0.0
 11
19.0107486167
 21
16.140225158
 31
0.0
  0
SPLINE
  5
3C6
100
AcDbEntity
  8
0
100
AcDbSpline
 62
253
  6
CONTINUOUS
 70
0
 71
3
 72
11
 73
7
 74
5
 42
0.0000001
 43
0.0000001
 44
0.0000000001
 12
0.4150021022
 22
0.2149085116
 32
0.0
 13
0.0010440519
 23
0.4673449723
 33
0.0
 40
0.0
 40
0.0
 40
0.0
 40
0.0
 40
0.3061132307
 40
0.5682322134
 40
0.7947740702
 40
1.0
 40
1.0
 40
1.0
 40
1.0
 10
11.8284111749
 20
-12.8278486198
 30
0.0
 10
11.8707570529
 20
-12.8059198402
 30
0.0
 10
11.9465942688
 20
-12.759204295
 30
0.0
 10
12.0375089905
 20
-12.6735927669
 30
0.0
 10
12.0949865883
 20
-12.5801793923
 30
0.0
 10
12.108934197
 20
-12.5124901268
 30
0.0
 10
12.1090056192
 20
-12.4805196913
 30
0.0
 11
11.8284111749
 21
-12.8278486198
 31
0.0
 11
11.949320876
 21
-12.7513813259
 31
0.0
 11
12.0371418111
 21
-12.6659775468
 31
0.0
 11
12.0907460391
 21
-12.574677072
 31
0.0
 11
12.1090056192
 21
-12.4805196913
 31
0.0
  0
SPLINE
  5
3C7
100
AcDbEntity
  8
0
100
AcDbSpline
 62
7
  6
CONTINUOUS
 70
0
 71
3
 72
9
 73
5
 74
3
 42
0.0000001
 43
0.0000001
 44
0.0000000001
 12
0.2232215403
 22
-0.0139089252
 32
0.0
 13
0.194783725
 23
0.1099118499
 33
0.0
 40
0.0
 40
0.0
 40
0.0
 40
0.0
 40
0.5693913557
 40
1.0
 40
1.0
 40
1.0
 40
1.0
 10
11.8284111749
 20
-6.7789407062
 30
0.0
 10
11.87077798
 20
-6.7815805802
 30
0.0
 10
11.9448614874
 20
-6.7840110611
 30
0.0
 10
12.0208421869
 20
-6.7698969707
 30
0.0
 10
12.0488007055
 20
-6.7541206398
 30
0.0
 11
11.8284111749
 21
-6.7789407062
 31
0.0
 11
11.9557580794
 21
-6.778984512
 31
0.0
 11
12.0488007055
 21
-6.7541206398
 31
0.0
  0
SPLINE
  5
3C8
100
AcDbEntity
  8
0
100
AcDbSpline
 62
7
  6
CONTINUOUS
 70
0
 71
3
 72
9
 73
5
 74
3
 42
0.0000001
 43
0.0000001
 44
0.0000000001
 12
0.0007282503
 22
-0.0432340908
 32
0.0
 13
-0.0075999525
 23
-0.0425670962
 33
0.0
 40
0.0
 40
0.0
 40
0.0
 40
0.0
 40
0.2587071087
 40
1.0
 40
1.0
 40
1.0
 40
1.0
 10
15.4457581433
 20
-4.7487185817
 30
0.0
 10
15.4458209445
 20
-4.752446904
 30
0.0
 10
15.4457462014
 20
-4.7668600294
 30
0.0
 10
15.4443771885
 20
-4.7812806324
 30
0.0
 10
15.4424992582
 20
-4.791798861
 30
0.0
 11
15.4457581433
 21
-4.7487185817
 31
0.0
 11
15.4456956467
 21
-4.7599049604
 31
0.0
 11
15.4424992582
 21
-4.791798861
 31
0.0
  0
SPLINE
  5
3C9
100
AcDbEntity
  8
0
100
AcDbSpline
 62
7
  6
CONTINUOUS
 70
0
 71
3
 72
9
 73
5
 74
3
 42
0.0000001
 43
0.0000001
 44
0.0000000001
 12
-0.0174420597
 22
-0.0976924314
 32
0.0
 13
-0.0816607978
 23
-0.0563875049
 33
0.0
 40
0.0
 40
0.0
 40
0.0
 40
0.0
 40
0.5322592706
 40
1.0
 40
1.0
 40
1.0
 40
1.0
 10
15.4424992582
 20
-4.791798861
 30
0.0
 10
15.4394046922
 20
-4.8091314285
 30
0.0
 10
15.4291673321
 20
-4.8413427426
 30
0.0
 10
15.406610373
 20
-4.8672735178
 30
0.0
 10
15.393878346
 20
-4.8760650954
 30
0.0
 11
15.4424992582
 21
-4.791798861
 31
0.0
 11
15.425016691
 21
-4.8416416934
 31
0.0
 11
15.393878346
 21
-4.8760650954
 31
0.0
  0
SPLINE
  5
3CA
100
AcDbEntity
  8
0
100
AcDbSpline
 62
7
  6
CONTINUOUS
 70
0
 71
3
 72
10
 73
6
 74
4
 42
0.0000001
 43
0.0000001
 44
0.0000000001
 12
0.0896040613
 22
0.030295024
 32
0.0
 13
0.0102700789
 23
0.0940276648
 33
0.0
 40
0.0
 40
0.0
 40
0.0
 40
0.0
 40
0.3172576541
 40
0.7005400428
 40
1.0
 40
1.0
 40
1.0
 40
1.0
 10
18.1485669937
 20
-0.4400999423
 30
0.0
 10
18.1580428518
 20
-0.4368961662
 30
0.0
 10
18.1784715583
 20
-0.428429001
 30
0.0
 10
18.2052093669
 20
-0.4105432521
 30
0.0
 10
18.2158680277
 20
-0.3901033875
 30
0.0
 10
18.2168931868
 20
-0.3807175474
 30
0.0
 11
18.1485669937
 21
-0.4400999423
 31
0.0
 11
18.1761979736
 21
-0.4283938089
 31
0.0
 11
18.2050565608
 21
-0.4064507711
 31
0.0
 11
18.2168931868
 21
-0.3807175474
 31
0.0
  0
SPLINE
  5
3CB
100
AcDbEntity
  8
0
100
AcDbSpline
 62
253
  6
CONTINUOUS
 70
0
 71
3
 72
9
 73
5
 74
3
 42
0.0000001
 43
0.0000001
 44
0.0000000001
 12
0.1027256879
 22
0.0531939271
 32
0.0
 13
0.0002269553
 23
0.1156810673
 33
0.0
 40
0.0
 40
0.0
 40
0.0
 40
0.0
 40
0.5662392912
 40
1.0
 40
1.0
 40
1.0
 40
1.0
 10
18.940604765
 20
13.6453843909
 30
0.0
 10
18.9599938719
 20
13.6554245547
 30
0.0
 10
18.9930926923
 20
13.6771936067
 30
0.0
 10
19.0107157961
 20
13.7153558228
 30
0.0
 10
19.0107486109
 20
13.7320817901
 30
0.0
 11
18.940604765
 21
13.6453843909
 31
0.0
 11
18.9925156455
 21
13.6853336298
 31
0.0
 11
19.0107486109
 21
13.7320817901
 31
0.0
  0
SPLINE
  5
3CC
100
AcDbEntity
  8
0
100
AcDbSpline
 62
253
  6
CONTINUOUS
 70
0
 71
3
 72
11
 73
7
 74
5
 42
0.0000001
 43
0.0000001
 44
0.0000000001
 12
1.9704900671
 22
0.9851613678
 32
0.0
 13
1.9704566019
 23
-0.985228301
 33
0.0
 40
0.0
 40
0.0
 40
0.0
 40
0.0
 40
0.227111417
 40
0.4646734038
 40
0.7207749341
 40
1.0
 40
1.0
 40
1.0
 40
1.0
 10
-12.2887424587
 20
0.3675165607
 30
0.0
 10
-12.1395688616
 20
0.4420970254
 30
0.0
 10
-11.8108453573
 20
0.5514918303
 30
0.0
 10
-11.2767425644
 20
0.5782075566
 30
0.0
 10
-10.7146389973
 20
0.4725934487
 30
0.0
 10
-10.3478784227
 20
0.3243087193
 30
0.0
 10
-10.1644781312
 20
0.2326085736
 30
0.0
 11
-12.2887424587
 21
0.3675165607
 31
0.0
 11
-11.8145106483
 21
0.5270134576
 31
0.0
 11
-11.2920508383
 21
0.5576613877
 31
0.0
 11
-10.736621718
 21
0.4585576141
 31
0.0
 11
-10.1644781312
 21
0.2326085736
 31
0.0
  0
SPLINE
  5
3CD
100
AcDbEntity
  8
0
100
AcDbSpline
 62
253
  6
CONTINUOUS
 70
0
 71
3
 72
11
 73
7
 74
5
 42
0.0000001
 43
0.0000001
 44
0.0000000001
 12
0.5314437822
 22
0.2917155187
 32
0.0
 13
-0.0128362332
 23
0.6061069779
 33
0.0
 40
0.0
 40
0.0
 40
0.0
 40
0.0
 40
0.2154631958
 40
0.4467859464
 40
0.705875167
 40
1.0
 40
1.0
 40
1.0
 40
1.0
 10
10.5770395213
 20
-15.1801388067
 30
0.0
 10
10.6152083799
 20
-15.1591874874
 30
0.0
 10
10.6868116218
 20
-15.1006777641
 30
0.0
 10
10.7626984498
 20
-14.9774792328
 30
0.0
 10
10.8075033384
 20
-14.8238329929
 30
0.0
 10
10.8147493951
 20
-14.7114114418
 30
0.0
 10
10.8134909101
 20
-14.6519877372
 30
0.0
 11
10.5770395213
 21
-15.1801388067
 31
0.0
 11
10.6787882294
 21
-15.0982268033
 31
0.0
 11
10.7542143424
 21
-14.9800001811
 31
0.0
 11
10.8001620347
 21
-14.8297999559
 31
0.0
 11
10.8134909101
 21
-14.6519877372
 31
0.0
  0
SPLINE
  5
3CE
100
AcDbEntity
  8
0
100
AcDbSpline
 62
7
  6
CONTINUOUS
 70
0
 71
3
 72
11
 73
7
 74
5
 42
0.0000001
 43
0.0000001
 44
0.0000000001
 12
0.5385473115
 22
0.2958493389
 32
0.0
 13
0.00015892
 23
0.6144591222
 33
0.0
 40
0.0
 40
0.0
 40
0.0
 40
0.0
 40
0.217316834
 40
0.4509528051
 40
0.7109107332
 40
1.0
 40
1.0
 40
1.0
 40
1.0
 10
8.9995576044
 20
-16.0485286478
 30
0.0
 10
9.0385694033
 20
-16.0270976339
 30
0.0
 10
9.111826525
 20
-15.9673190438
 30
0.0
 10
9.1898555238
 20
-15.8419596894
 30
0.0
 10
9.2363603225
 20
-15.6870188693
 30
0.0
 10
9.2455875993
 20
-15.574173842
 30
0.0
 10
9.2456029133
 20
-15.514962663
 30
0.0
 11
8.9995576044
 21
-16.0485286478
 31
0.0
 11
9.1036574142
 21
-15.9648978588
 31
0.0
 11
9.1813991977
 21
-15.844209751
 31
0.0
 11
9.2293847313
 21
-15.6918542857
 31
0.0
 11
9.2456029133
 21
-15.514962663
 31
0.0
  0
SPLINE
  5
3CF
100
AcDbEntity
  8
0
100
AcDbSpline
 62
7
  6
CONTINUOUS
 70
0
 71
3
 72
11
 73
7
 74
5
 42
0.0000001
 43
0.0000001
 44
0.0000000001
 12
0.0002584879
 22
1.4684146608
 32
0.0
 13
-1.3138165771
 23
0.6558412037
 33
0.0
 40
0.0
 40
0.0
 40
0.0
 40
0.0
 40
0.2468209234
 40
0.5117425932
 40
0.7702216918
 40
1.0
 40
1.0
 40
1.0
 40
1.0
 10
9.2456030846
 20
13.0208549994
 30
0.0
 10
9.2456243513
 20
13.1416668203
 30
0.0
 10
9.2044461209
 20
13.3926028171
 30
0.0
 10
9.0541578407
 20
13.7419176565
 30
0.0
 10
8.8317352825
 20
14.0400175112
 30
0.0
 10
8.6393404606
 20
14.1899676035
 30
0.0
 10
8.5387116104
 20
14.2402002976
 30
0.0
 11
9.2456030846
 21
13.0208549994
 31
0.0
 11
9.1922532803
 21
13.3793424706
 31
0.0
 11
9.0394663717
 21
13.7370975957
 31
0.0
 11
8.8097494363
 21
14.0392428436
 31
0.0
 11
8.5387116104
 21
14.2402002976
 31
0.0
  0
SPLINE
  5
3D0
100
AcDbEntity
  8
0
100
AcDbSpline
 62
253
  6
CONTINUOUS
 70
0
 71
3
 72
11
 73
7
 74
5
 42
0.0000001
 43
0.0000001
 44
0.0000000001
 12
0.256797403
 22
-0.185442725
 32
0.0
 13
-0.155713294
 23
-0.2758392295
 33
0.0
 40
0.0
 40
0.0
 40
0.0
 40
0.0
 40
0.2251599203
 40
0.4646419595
 40
0.7243395785
 40
1.0
 40
1.0
 40
1.0
 40
1.0
 10
18.3433269126
 20
17.740407646
 30
0.0
 10
18.3626004068
 20
17.7264895563
 30
0.0
 10
18.3960168577
 20
17.6879771429
 30
0.0
 10
18.4180068142
 20
17.6127363994
 30
0.0
 10
18.4121966956
 20
17.529706073
 30
0.0
 10
18.3911115409
 20
17.4762427752
 30
0.0
 10
18.3768035435
 20
17.4508967892
 30
0.0
 11
18.3433269126
 21
17.740407646
 31
0.0
 11
18.3904522173
 21
17.6868741716
 31
0.0
 11
18.4130436263
 21
17.6144590954
 31
0.0
 11
18.4082994018
 21
17.5323354232
 31
0.0
 11
18.3768035435
 21
17.4508967892
 31
0.0
  0
SPLINE
  5
3D1
100
AcDbEntity
  8
RACCORDO
100
AcDbSpline
 62
7
  6
CONTINUOUS
 70
0
 71
3
 72
11
 73
7
 74
5
 42
0.0000001
 43
0.0000001
 44
0.0000000001
 12
-0.2028929065
 22
0.008881575
 32
0.0
 13
0.000002996
 23
-0.2030872076
 33
0.0
 40
0.0
 40
0.0
 40
0.0
 40
0.0
 40
0.2183252759
 40
0.4452988467
 40
0.7072011261
 40
1.0
 40
1.0
 40
1.0
 40
1.0
 10
4.9354973439
 20
20.8207672133
 30
0.0
 10
4.920731794
 20
20.8214135707
 30
0.0
 10
4.8889444999
 20
20.8133151638
 30
0.0
 10
4.8589497523
 20
20.7729819211
 30
0.0
 10
4.844618134
 20
20.7216040172
 30
0.0
 10
4.8420478659
 20
20.683914667
 30
0.0
 10
4.8420481583
 20
20.6640934317
 30
0.0
 11
4.9354973439
 21
20.8207672133
 31
0.0
 11
4.8926629665
 21
20.8093142967
 31
0.0
 11
4.8629685842
 21
20.7740576349
 31
0.0
 11
4.8468788224
 21
20.7233605979
 31
0.0
 11
4.8420481583
 21
20.6640934317
 31
0.0
  0
SPLINE
  5
3D2
100
AcDbEntity
  8
RACCORDO
100
AcDbSpline
 62
7
  6
CONTINUOUS
 70
0
 71
3
 72
11
 73
7
 74
5
 42
0.0000001
 43
0.0000001
 44
0.0000000001
 12
-0.5460676015
 22
-0.2827347772
 32
0.0
 13
0.0005386205
 23
-0.6149215312
 33
0.0
 40
0.0
 40
0.0
 40
0.0
 40
0.0
 40
0.2583245483
 40
0.5069699534
 40
0.7528920261
 40
1.0
 40
1.0
 40
1.0
 40
1.0
 10
-12.467910411
 20
24.3811150337
 30
0.0
 10
-12.5149312998
 20
24.3567692558
 30
0.0
 10
-12.6035861738
 20
24.3011910122
 30
0.0
 10
-12.7145404226
 20
24.1916845667
 30
0.0
 10
-12.7901605696
 20
24.0571426093
 30
0.0
 10
-12.8084786006
 20
23.9552612159
 30
0.0
 10
-12.8084342348
 20
23.9046105447
 30
0.0
 11
-12.467910411
 21
24.3811150337
 31
0.0
 11
-12.601658835
 21
24.2954150508
 31
0.0
 11
-12.7092649075
 21
24.1867938278
 31
0.0
 11
-12.7820903882
 21
24.0542615852
 31
0.0
 11
-12.8084342348
 21
23.9046105447
 31
0.0
  0
SPLINE
  5
3D3
100
AcDbEntity
  8
RACCORDO
100
AcDbSpline
 62
7
  6
CONTINUOUS
 70
0
 71
3
 72
9
 73
5
 74
3
 42
0.0000001
 43
0.0000001
 44
0.0000000001
 12
0.1029499545
 22
0.051463602
 32
0.0
 13
0.1029454048
 23
-0.0514727024
 33
0.0
 40
0.0
 40
0.0
 40
0.0
 40
0.0
 40
0.4636670914
 40
1.0
 40
1.0
 40
1.0
 40
1.0
 10
5.0680017763
 20
17.0521468728
 30
0.0
 10
5.0839132783
 20
17.0601008657
 30
0.0
 10
5.1238621405
 20
17.0667148042
 30
0.0
 10
5.1613346845
 20
17.0542211208
 30
0.0
 10
5.1797390206
 20
17.0450189527
 30
0.0
 11
5.0680017763
 21
17.0521468728
 31
0.0
 11
5.1204268471
 21
17.0621263033
 31
0.0
 11
5.1797390206
 21
17.0450189527
 31
0.0
  0
SPLINE
  5
3D4
100
AcDbEntity
  8
RACCORDO
100
AcDbSpline
 62
7
  6
CONTINUOUS
 70
0
 71
3
 72
11
 73
7
 74
5
 42
0.0000001
 43
0.0000001
 44
0.0000000001
 12
0.3283027165
 22
-0.1641513582
 32
0.0
 13
0.0
 23
-0.3670535956
 33
0.0
 40
0.0
 40
0.0
 40
0.0
 40
0.0
 40
0.2297048771
 40
0.4882145726
 40
0.7531754062
 40
1.0
 40
1.0
 40
1.0
 40
1.0
 10
-9.8816354187
 20
24.5757061723
 30
0.0
 10
-9.8564978403
 20
24.5631373831
 30
0.0
 10
-9.8084665231
 20
24.5255656728
 30
0.0
 10
-9.7530260754
 20
24.4509605458
 30
0.0
 10
-9.715275198
 20
24.3637379525
 30
0.0
 10
-9.7048587234
 20
24.3010107586
 30
0.0
 10
-9.7048587234
 20
24.2708114737
 30
0.0
 11
-9.8816354187
 21
24.5757061723
 31
0.0
 11
-9.8139777154
 21
24.5253942854
 31
0.0
 11
-9.7566414993
 21
24.4497894931
 31
0.0
 11
-9.718317142
 21
24.3604041198
 31
0.0
 11
-9.7048587234
 21
24.2708114737
 31
0.0
  0
SPLINE
  5
3D5
100
AcDbEntity
  8
RACCORDO
100
AcDbSpline
 62
7
  6
CONTINUOUS
 70
0
 71
3
 72
11
 73
7
 74
5
 42
0.0000001
 43
0.0000001
 44
0.0000000001
 12
-0.5619439101
 22
-0.2809719548
 32
0.0
 13
0.0001529289
 23
-0.6282723726
 33
0.0
 40
0.0
 40
0.0
 40
0.0
 40
0.0
 40
0.2589845975
 40
0.5076562578
 40
0.7532542582
 40
1.0
 40
1.0
 40
1.0
 40
1.0
 10
3.6412174265
 20
16.3387603019
 30
0.0
 10
3.5927058208
 20
16.314504499
 30
0.0
 10
3.501211102
 20
16.258922504
 30
0.0
 10
3.3862971967
 20
16.1484922418
 30
0.0
 10
3.3076739507
 20
16.0118759277
 30
0.0
 10
3.2885807226
 20
15.9079028544
 30
0.0
 10
3.2885933008
 20
15.8562283436
 30
0.0
 11
3.6412174265
 21
16.3387603019
 31
0.0
 11
3.5030086516
 21
16.2528893909
 31
0.0
 11
3.3916401737
 21
16.1433175847
 31
0.0
 11
3.3160435013
 21
16.0088022063
 31
0.0
 11
3.2885933008
 21
15.8562283436
 31
0.0
  0
SPLINE
  5
3D6
100
AcDbEntity
  8
RACCORDO
100
AcDbSpline
 62
7
  6
CONTINUOUS
 70
0
 71
3
 72
9
 73
5
 74
3
 42
0.0000001
 43
0.0000001
 44
0.0000000001
 12
0.0910946829
 22
0.0465998098
 32
0.0
 13
0.0914113729
 23
-0.0459754763
 33
0.0
 40
0.0
 40
0.0
 40
0.0
 40
0.0
 40
0.4539481987
 40
1.0
 40
1.0
 40
1.0
 40
1.0
 10
8.1089427537
 20
20.9115026273
 30
0.0
 10
8.1227268428
 20
20.9185539272
 30
0.0
 10
8.1576582725
 20
20.9270155274
 30
0.0
 10
8.1913006225
 20
20.9152236016
 30
0.0
 10
8.2079390707
 20
20.906855271
 30
0.0
 11
8.1089427537
 21
20.9115026273
 31
0.0
 11
8.1541753227
 21
20.9220625604
 31
0.0
 11
8.2079390707
 21
20.906855271
 31
0.0
  0
SPLINE
  5
3D7
100
AcDbEntity
  8
RACCORDO
100
AcDbSpline
 62
7
  6
CONTINUOUS
 70
0
 71
3
 72
9
 73
5
 74
3
 42
0.0000001
 43
0.0000001
 44
0.0000000001
 12
0.070373069
 22
0.0350673886
 32
0.0
 13
0.0702754974
 23
-0.0352625161
 33
0.0
 40
0.0
 40
0.0
 40
0.0
 40
0.0
 40
0.4637540529
 40
1.0
 40
1.0
 40
1.0
 40
1.0
 10
-1.9039591556
 20
25.9277342114
 30
0.0
 10
-1.8930805569
 20
25.9331550926
 30
0.0
 10
-1.8663153758
 20
25.9396123085
 30
0.0
 10
-1.8403334352
 20
25.9310268525
 30
0.0
 10
-1.827771785
 20
25.9247237254
 30
0.0
 11
-1.9039591556
 21
25.9277342114
 31
0.0
 11
-1.8684240843
 21
25.935909018
 31
0.0
 11
-1.827771785
 21
25.9247237254
 31
0.0
  0
SPLINE
  5
3D8
100
AcDbEntity
  8
DRAFT
100
AcDbSpline
 62
7
  6
CONTINUOUS
 70
0
 71
3
 72
11
 73
7
 74
5
 42
0.0000001
 43
0.0000001
 44
0.0000000001
 12
0.2475143957
 22
-0.5136673931
 32
0.0
 13
-0.4809973895
 23
-0.3062010418
 33
0.0
 40
0.0
 40
0.0
 40
0.0
 40
0.0
 40
0.2993112912
 40
0.5727750269
 40
0.8050043562
 40
1.0
 40
1.0
 40
1.0
 40
1.0
 10
9.1185185379
 20
-15.9830972939
 30
0.0
 10
9.1432131556
 20
-16.0343461108
 30
0.0
 10
9.1799537158
 20
-16.1380387482
 30
0.0
 10
9.1951306371
 20
-16.2919637
 30
0.0
 10
9.1675739052
 20
-16.4252957628
 30
0.0
 10
9.1135940553
 20
-16.4922960505
 30
0.0
 10
9.0823299234
 20
-16.5121986736
 30
0.0
 11
9.1185185379
 21
-15.9830972939
 31
0.0
 11
9.1745276797
 21
-16.144309466
 31
0.0
 11
9.1873041299
 21
-16.2997116508
 31
0.0
 11
9.1551244277
 21
-16.4281569977
 31
0.0
 11
9.0823299234
 21
-16.5121986736
 31
0.0
  0
SPLINE
  5
3D9
100
AcDbEntity
  8
RACCORDO
100
AcDbSpline
 62
7
  6
CONTINUOUS
 70
0
 71
3
 72
9
 73
5
 74
3
 42
0.0000001
 43
0.0000001
 44
0.0000000001
 12
-0.1065951646
 22
0.0532975823
 32
0.0
 13
0.0000126843
 23
0.1191770164
 33
0.0
 40
0.0
 40
0.0
 40
0.0
 40
0.0
 40
0.5680741014
 40
1.0
 40
1.0
 40
1.0
 40
1.0
 10
-16.1560857092
 20
17.906298359
 30
0.0
 10
-16.17627036
 20
17.9163906844
 30
0.0
 10
-16.2107211807
 20
17.9382717507
 30
0.0
 10
-16.2292999942
 20
17.9775409401
 30
0.0
 10
-16.229298168
 20
17.9946994868
 30
0.0
 11
-16.1560857092
 21
17.906298359
 31
0.0
 11
-16.2102895714
 21
17.9468621082
 31
0.0
 11
-16.229298168
 21
17.9946994868
 31
0.0
  0
SPLINE
  5
3DA
100
AcDbEntity
  8
RACCORDO
100
AcDbSpline
 62
7
  6
CONTINUOUS
 70
0
 71
3
 72
11
 73
7
 74
5
 42
0.0000001
 43
0.0000001
 44
0.0000000001
 12
-0.3240734999
 22
-0.1564770705
 32
0.0
 13
-0.3218803591
 23
0.1609401795
 33
0.0
 40
0.0
 40
0.0
 40
0.0
 40
0.0
 40
0.2366426031
 40
0.5012513896
 40
0.7651908405
 40
1.0
 40
1.0
 40
1.0
 40
1.0
 10
1.1980288812
 20
9.4029325804
 30
0.0
 10
1.1724656823
 20
9.3905895333
 30
0.0
 10
1.1141673887
 20
9.3730411797
 30
0.0
 10
1.0222511722
 20
9.364921259
 30
0.0
 10
0.9306285796
 20
9.3737974437
 30
0.0
 10
0.8727810788
 20
9.391864965
 30
0.0
 10
0.8475875933
 20
9.4044617078
 30
0.0
 11
1.1980288812
 21
9.4029325804
 31
0.0
 11
1.1169936364
 21
9.3767459303
 31
0.0
 11
1.0221835058
 21
9.3678602595
 31
0.0
 11
0.9276965639
 21
9.3775719403
 31
0.0
 11
0.8475875933
 21
9.4044617078
 31
0.0
  0
SPLINE
  5
3DB
100
AcDbEntity
  8
RACCORDO
100
AcDbSpline
 62
7
  6
CONTINUOUS
 70
0
 71
3
 72
9
 73
5
 74
3
 42
0.0000001
 43
0.0000001
 44
0.0000000001
 12
0.0
 22
-0.150242191
 32
0.0
 13
0.0754417679
 23
-0.1299278862
 33
0.0
 40
0.0
 40
0.0
 40
0.0
 40
0.0
 40
0.234583103
 40
1.0
 40
1.0
 40
1.0
 40
1.0
 10
-9.7048587234
 20
23.2749086434
 30
0.0
 10
-9.7048587234
 20
23.2631605502
 30
0.0
 10
-9.7006626035
 20
23.2131201022
 30
0.0
 10
-9.6825754771
 20
23.1646648514
 30
0.0
 10
-9.6633273425
 20
23.1315151849
 30
0.0
 11
-9.7048587234
 21
23.2749086434
 31
0.0
 11
-9.7021256343
 21
23.2397704953
 31
0.0
 11
-9.6633273425
 21
23.1315151849
 31
0.0
  0
SPLINE
  5
3DC
100
AcDbEntity
  8
RACCORDO
100
AcDbSpline
 62
7
  6
CONTINUOUS
 70
0
 71
3
 72
9
 73
5
 74
3
 42
0.0000001
 43
0.0000001
 44
0.0000000001
 12
0.0459525622
 22
-0.0791407657
 32
0.0
 13
0.068488888
 23
-0.0606973721
 33
0.0
 40
0.0
 40
0.0
 40
0.0
 40
0.0
 40
0.2585762754
 40
1.0
 40
1.0
 40
1.0
 40
1.0
 10
-9.6633273425
 20
23.1315151849
 30
0.0
 10
-9.659366595
 20
23.1246938767
 30
0.0
 10
-9.64308777
 20
23.0988990487
 30
0.0
 10
-9.6230184119
 20
23.0753757874
 30
0.0
 10
-9.6060919831
 20
23.0603749635
 30
0.0
 11
-9.6633273425
 21
23.1315151849
 31
0.0
 11
-9.6506945177
 21
23.1115058964
 31
0.0
 11
-9.6060919831
 21
23.0603749635
 31
0.0
  0
SPLINE
  5
3DD
100
AcDbEntity
  8
RACCORDO
100
AcDbSpline
 62
7
  6
CONTINUOUS
 70
0
 71
3
 72
9
 73
5
 74
3
 42
0.0000001
 43
0.0000001
 44
0.0000000001
 12
0.03884591
 22
-0.0344266745
 32
0.0
 13
0.0464258604
 23
-0.0232129302
 33
0.0
 40
0.0
 40
0.0
 40
0.0
 40
0.0
 40
0.262997452
 40
1.0
 40
1.0
 40
1.0
 40
1.0
 10
-9.6060919831
 20
23.0603749635
 30
0.0
 10
-9.6026865246
 20
23.057356921
 30
0.0
 10
-9.5894180973
 20
23.0462573115
 30
0.0
 10
-9.5748292306
 20
23.0366591593
 30
0.0
 10
-9.5634239048
 20
23.0309564964
 30
0.0
 11
-9.6060919831
 21
23.0603749635
 31
0.0
 11
-9.5956160677
 21
23.0516224353
 31
0.0
 11
-9.5634239048
 21
23.0309564964
 31
0.0
  0
SPLINE
  5
3DE
100
AcDbEntity
  8
RACCORDO
100
AcDbSpline
 62
7
  6
CONTINUOUS
 70
0
 71
3
 72
9
 73
5
 74
3
 42
0.0000001
 43
0.0000001
 44
0.0000000001
 12
-0.0277012434
 22
0.0178120144
 32
0.0
 13
-0.0294311148
 23
0.014779588
 33
0.0
 40
0.0
 40
0.0
 40
0.0
 40
0.0
 40
0.2389208187
 40
1.0
 40
1.0
 40
1.0
 40
1.0
 10
-0.5420527754
 20
25.2799651805
 30
0.0
 10
-0.54425891
 20
25.2813837342
 30
0.0
 10
-0.553585306
 20
25.2871767098
 30
0.0
 10
-0.5632420231
 20
25.2924295739
 30
0.0
 10
-0.5707084927
 20
25.2961790528
 30
0.0
 11
-0.5420527754
 21
25.2799651805
 31
0.0
 11
-0.5487343061
 21
25.2841210279
 31
0.0
 11
-0.5707084927
 21
25.2961790528
 31
0.0
  0
SPLINE
  5
3DF
100
AcDbEntity
  8
RACCORDO
100
AcDbSpline
 62
7
  6
CONTINUOUS
 70
0
 71
3
 72
9
 73
5
 74
3
 42
0.0000001
 43
0.0000001
 44
0.0000000001
 12
-0.0641746166
 22
0.0564580043
 32
0.0
 13
-0.0764207701
 23
0.038285161
 33
0.0
 40
0.0
 40
0.0
 40
0.0
 40
0.0
 40
0.2299674988
 40
1.0
 40
1.0
 40
1.0
 40
1.0
 10
9.5357810757
 20
20.2321373276
 30
0.0
 10
9.530861717
 20
20.236465163
 30
0.0
 10
9.508633086
 20
20.2543311852
 30
0.0
 10
9.4838833142
 20
20.2688769824
 30
0.0
 10
9.4642678219
 20
20.2787039219
 30
0.0
 11
9.5357810757
 21
20.2321373276
 31
0.0
 11
9.520504661
 21
20.2445067816
 31
0.0
 11
9.4642678219
 21
20.2787039219
 31
0.0
  0
SPLINE
  5
3E0
100
AcDbEntity
  8
RACCORDO
100
AcDbSpline
 62
253
  6
CONTINUOUS
 70
0
 71
3
 72
12
 73
8
 74
6
 42
0.0000001
 43
0.0000001
 44
0.0000000001
 12
0.0234948989
 22
-0.7005799344
 32
0.0
 13
0.6766631888
 23
0.1830059661
 33
0.0
 40
0.0
 40
0.0
 40
0.0
 40
0.0
 40
0.2851224147
 40
0.5279492883
 40
0.6413630598
 40
0.7550627125
 40
1.0
 40
1.0
 40
1.0
 40
1.0
 10
-1.4419173825
 20
-22.6634618115
 30
0.0
 10
-1.4396844084
 20
-22.7300454924
 30
0.0
 10
-1.4198269842
 20
-22.8542943069
 30
0.0
 10
-1.3368562253
 20
-22.9863573994
 30
0.0
 10
-1.2449723172
 20
-23.0490177131
 30
0.0
 10
-1.1392521499
 20
-23.0845198557
 30
0.0
 10
-1.0516953219
 20
-23.0773410709
 30
0.0
 10
-0.9964486399
 20
-23.0623994093
 30
0.0
 11
-1.4419173825
 21
-22.6634618115
 31
0.0
 11
-1.4041076787
 21
-22.8597161895
 31
0.0
 11
-1.3091643656
 21
-23.0009925386
 31
0.0
 11
-1.2434176792
 21
-23.0456874616
 31
0.0
 11
-1.1679166819
 21
-23.0712171575
 31
0.0
 11
-0.9964486399
 21
-23.0623994093
 31
0.0
  0
SPLINE
  5
3E1
100
AcDbEntity
  8
RACCORDO
100
AcDbSpline
 62
7
  6
CONTINUOUS
 70
0
 71
3
 72
9
 73
5
 74
3
 42
0.0000001
 43
0.0000001
 44
0.0000000001
 12
0.0589683716
 22
0.0293978325
 32
0.0
 13
0.0657327693
 23
-0.004550214
 33
0.0
 40
0.0
 40
0.0
 40
0.0
 40
0.0
 40
0.4890562902
 40
1.0
 40
1.0
 40
1.0
 40
1.0
 10
6.4456605682
 20
20.0363030291
 30
0.0
 10
6.4552735192
 20
20.0410954274
 30
0.0
 10
6.4766020903
 20
20.047334369
 30
0.0
 10
6.4986948058
 20
20.049518135
 30
0.0
 10
6.5098900542
 20
20.0487431673
 30
0.0
 11
6.4456605682
 21
20.0363030291
 31
0.0
 11
6.476318028
 21
20.0462279138
 31
0.0
 11
6.5098900542
 21
20.0487431673
 31
0.0
  0
SPLINE
  5
3E2
100
AcDbEntity
  8
RACCORDO
100
AcDbSpline
 62
253
  6
CONTINUOUS
 70
0
 71
3
 72
9
 73
5
 74
3
 42
0.0000001
 43
0.0000001
 44
0.0000000001
 12
0.1050264687
 22
0.0548912266
 32
0.0
 13
0.1067207545
 23
-0.0515197677
 33
0.0
 40
0.0
 40
0.0
 40
0.0
 40
0.0
 40
0.4643137906
 40
1.0
 40
1.0
 40
1.0
 40
1.0
 10
-0.0248077759
 20
16.6510769812
 30
0.0
 10
-0.0085526966
 20
16.6595725657
 30
0.0
 10
0.0324556643
 20
16.667143588
 30
0.0
 10
0.0712588951
 20
16.6548863364
 30
0.0
 10
0.0903151739
 20
16.64568686
 30
0.0
 11
-0.0248077759
 21
16.6510769812
 31
0.0
 11
0.0290534003
 21
16.6623285018
 31
0.0
 11
0.0903151739
 21
16.64568686
 31
0.0
  0
SPLINE
  5
3E3
100
AcDbEntity
  8
RACCORDO
100
AcDbSpline
 62
253
  6
CONTINUOUS
 70
0
 71
3
 72
11
 73
7
 74
5
 42
0.0000001
 43
0.0000001
 44
0.0000000001
 12
-0.7964368942
 22
-0.5537109772
 32
0.0
 13
-0.0314933151
 23
-0.9694925187
 33
0.0
 40
0.0
 40
0.0
 40
0.0
 40
0.0
 40
0.239514406
 40
0.4975444922
 40
0.7568900304
 40
1.0
 40
1.0
 40
1.0
 40
1.0
 10
-0.9964486399
 20
7.186527079
 30
0.0
 10
-1.0600346764
 20
7.1423198271
 30
0.0
 10
-1.1788263511
 20
7.0308672929
 30
0.0
 10
-1.3169416636
 20
6.8268246598
 30
0.0
 10
-1.4111710942
 20
6.5979076897
 30
0.0
 10
-1.4393652696
 20
6.4359697492
 30
0.0
 10
-1.4419173825
 20
6.357405317
 30
0.0
 11
-0.9964486399
 21
7.186527079
 31
0.0
 11
-1.1679166819
 21
7.0297600638
 31
0.0
 11
-1.3091643656
 21
6.8231341423
 31
0.0
 11
-1.4041076787
 21
6.5901721015
 31
0.0
 11
-1.4419173825
 21
6.357405317
 31
0.0
  0
SPLINE
  5
3E4
100
AcDbEntity
  8
RACCORDO
100
AcDbSpline
 62
253
  6
CONTINUOUS
 70
0
 71
3
 72
9
 73
5
 74
3
 42
0.0000001
 43
0.0000001
 44
0.0000000001
 12
0.0418655654
 22
0.0485638359
 32
0.0
 13
-0.0300993263
 23
0.0566145059
 33
0.0
 40
0.0
 40
0.0
 40
0.0
 40
0.0
 40
0.3867242863
 40
1.0
 40
1.0
 40
1.0
 40
1.0
 10
10.972169417
 20
-19.9766001735
 30
0.0
 10
10.9775662273
 20
-19.9703399019
 30
0.0
 10
10.9794742871
 20
-19.9461002444
 30
0.0
 10
10.9701293657
 20
-19.9269517251
 30
0.0
 10
10.9639763037
 20
-19.9153782912
 30
0.0
 11
10.972169417
 21
-19.9766001735
 31
0.0
 11
10.9773590662
 21
-19.952353182
 31
0.0
 11
10.9639763037
 21
-19.9153782912
 31
0.0
  0
SPLINE
  5
3E5
100
AcDbEntity
  8
RACCORDO
100
AcDbSpline
 62
7
  6
CONTINUOUS
 70
0
 71
3
 72
9
 73
5
 74
3
 42
0.0000001
 43
0.0000001
 44
0.0000000001
 12
0.1035680815
 22
0.0516294412
 32
0.0
 13
0.103684907
 23
-0.0513944235
 33
0.0
 40
0.0
 40
0.0
 40
0.0
 40
0.0
 40
0.4646898794
 40
1.0
 40
1.0
 40
1.0
 40
1.0
 10
-3.6211177586
 20
25.0708400489
 30
0.0
 10
-3.6050754122
 20
25.0788372751
 30
0.0
 10
-3.5649620735
 20
25.0855941362
 30
0.0
 10
-3.5272230036
 20
25.0732107729
 30
0.0
 10
-3.5087218103
 20
25.0640401212
 30
0.0
 11
-3.6211177586
 21
25.0708400489
 31
0.0
 11
-3.5683075789
 21
25.0809838884
 31
0.0
 11
-3.5087218103
 21
25.0640401212
 31
0.0
  0
SPLINE
  5
3E6
100
AcDbEntity
  8
RACCORDO
100
AcDbSpline
 62
253
  6
CONTINUOUS
 70
0
 71
3
 72
9
 73
5
 74
3
 42
0.0000001
 43
0.0000001
 44
0.0000000001
 12
0.1035003003
 22
0.0527034368
 32
0.0
 13
0.1040655816
 23
-0.0515782815
 33
0.0
 40
0.0
 40
0.0
 40
0.0
 40
0.0
 40
0.4635936195
 40
1.0
 40
1.0
 40
1.0
 40
1.0
 10
-10.1713489011
 20
21.7318628896
 30
0.0
 10
-10.1553548748
 20
21.7400072153
 30
0.0
 10
-10.1150668325
 20
21.7469417917
 30
0.0
 10
-10.0771924433
 20
21.7344770689
 30
0.0
 10
-10.058585296
 20
21.7252547625
 30
0.0
 11
-10.1713489011
 21
21.7318628896
 31
0.0
 11
-10.1185190561
 21
21.7422675872
 31
0.0
 11
-10.058585296
 21
21.7252547625
 31
0.0
  0
SPLINE
  5
3E7
100
AcDbEntity
  8
RACCORDO
100
AcDbSpline
 62
253
  6
CONTINUOUS
 70
0
 71
3
 72
17
 73
13
 74
11
 42
0.0000001
 43
0.0000001
 44
0.0000000001
 12
0.001031591
 22
-1.9019320445
 32
0.0
 13
1.7011399863
 23
0.8505699931
 33
0.0
 40
0.0
 40
0.0
 40
0.0
 40
0.0
 40
0.0382931259
 40
0.0789375016
 40
0.1237287348
 40
0.173724515
 40
0.2900941941
 40
0.425936244
 40
0.5741551328
 40
0.7255196821
 40
0.8703401124
 40
1.0
 40
1.0
 40
1.0
 40
1.0
 10
-12.8084931202
 20
23.9046529447
 30
0.0
 10
-12.8084799525
 20
23.8803759703
 30
0.0
 10
-12.8008111387
 20
23.8300667457
 30
0.0
 10
-12.7674711548
 20
23.7581395759
 30
0.0
 10
-12.713844684
 20
23.6902615674
 30
0.0
 10
-12.6121082967
 20
23.6023152469
 30
0.0
 10
-12.4401771396
 20
23.5126607676
 30
0.0
 10
-12.1951569273
 20
23.4421940495
 30
0.0
 10
-11.9200172961
 20
23.4089601808
 30
0.0
 10
-11.6373573119
 20
23.4157969215
 30
0.0
 10
-11.3704072341
 20
23.4619790393
 30
0.0
 10
-11.2051001253
 20
23.5206907728
 30
0.0
 10
-11.1315769188
 20
23.557452376
 30
0.0
 11
-12.8084931202
 21
23.9046529447
 31
0.0
 11
-12.797838691
 21
23.8326055431
 31
0.0
 11
-12.7661424455
 21
23.7620996642
 31
0.0
 11
-12.7140886901
 21
23.6946628446
 31
0.0
 11
-12.6427787542
 21
23.6317602765
 31
0.0
 11
-12.4489479143
 21
23.5249175932
 31
0.0
 11
-12.2014313039
 21
23.4508456693
 31
0.0
 11
-11.9217002178
 21
23.4159254207
 31
0.0
 11
-11.6339044173
 21
23.4230965229
 31
0.0
 11
-11.3627844806
 21
23.4716808209
 31
0.0
 11
-11.1315769188
 21
23.557452376
 31
0.0
  0
SPLINE
  5
3E8
100
AcDbEntity
  8
RACCORDO
100
AcDbSpline
 62
253
  6
CONTINUOUS
 70
0
 71
3
 72
9
 73
5
 74
3
 42
0.0000001
 43
0.0000001
 44
0.0000000001
 12
0.2078292476
 22
0.0093351081
 32
0.0
 13
0.1862931074
 23
-0.092601396
 33
0.0
 40
0.0
 40
0.0
 40
0.0
 40
0.0
 40
0.4916961645
 40
1.0
 40
1.0
 40
1.0
 40
1.0
 10
6.8684590175
 20
20.7616308189
 30
0.0
 10
6.9025219655
 20
20.7631608312
 30
0.0
 10
6.9725587201
 20
20.7568244564
 30
0.0
 10
7.0382573704
 20
20.7323605901
 30
0.0
 10
7.0698218707
 20
20.7166707085
 30
0.0
 11
6.8684590175
 21
20.7616308189
 31
0.0
 11
6.9703467704
 21
20.7525470937
 31
0.0
 11
7.0698218707
 21
20.7166707085
 31
0.0
  0
SPLINE
  5
3E9
100
AcDbEntity
  8
RACCORDO
100
AcDbSpline
 62
253
  6
CONTINUOUS
 70
0
 71
3
 72
17
 73
13
 74
11
 42
0.0000001
 43
0.0000001
 44
0.0000000001
 12
0.0003066491
 22
-1.8884621872
 32
0.0
 13
1.700600627
 23
0.821125468
 33
0.0
 40
0.0
 40
0.0
 40
0.0
 40
0.0
 40
0.0382791526
 40
0.0788743379
 40
0.123563506
 40
0.1734007729
 40
0.2893370493
 40
0.4247158526
 40
0.5726276096
 40
0.7240204453
 40
0.8693372207
 40
1.0
 40
1.0
 40
1.0
 40
1.0
 10
3.2885332947
 20
15.8562311175
 30
0.0
 10
3.2885372075
 20
15.8321348735
 30
0.0
 10
3.2960658148
 20
15.7822218413
 30
0.0
 10
3.3288817221
 20
15.7107960175
 30
0.0
 10
3.3817190636
 20
15.6433314471
 30
0.0
 10
3.4819908356
 20
15.5558229795
 30
0.0
 10
3.6516837906
 20
15.4663052527
 30
0.0
 10
3.8939006976
 20
15.395395378
 30
0.0
 10
4.1664490417
 20
15.3610733536
 30
0.0
 10
4.4472617665
 20
15.3662239231
 30
0.0
 10
4.7135848723
 20
15.4102793305
 30
0.0
 10
4.8791517544
 20
15.4671678477
 30
0.0
 10
4.9532201558
 20
15.5029313597
 30
0.0
 11
3.2885332947
 21
15.8562311175
 31
0.0
 11
3.2990053244
 21
15.7847049158
 31
0.0
 11
3.330218663
 21
15.7146844736
 31
0.0
 11
3.3815102639
 21
15.6476659237
 31
0.0
 11
3.4518031257
 21
15.5850824072
 31
0.0
 11
3.6430407654
 21
15.4784829328
 31
0.0
 11
3.8876093769
 21
15.4040042
 31
0.0
 11
4.1646006534
 21
15.3679665103
 31
0.0
 11
4.4504493792
 21
15.3733623819
 31
0.0
 11
4.7209385055
 21
15.4196748473
 31
0.0
 11
4.9532201558
 21
15.5029313597
 31
0.0
  0
SPLINE
  5
3EA
100
AcDbEntity
  8
RACCORDO
100
AcDbSpline
 62
253
  6
CONTINUOUS
 70
0
 71
3
 72
11
 73
7
 74
5
 42
0.0000001
 43
0.0000001
 44
0.0000000001
 12
0.7051372528
 22
-0.3120997057
 32
0.0
 13
0.6894750454
 23
0.3453243885
 33
0.0
 40
0.0
 40
0.0
 40
0.0
 40
0.0
 40
0.2392651404
 40
0.5036168698
 40
0.7660154447
 40
1.0
 40
1.0
 40
1.0
 40
1.0
 10
0.0743489545
 20
16.2702705862
 30
0.0
 10
0.1305872091
 20
16.2453790596
 30
0.0
 10
0.2566823376
 20
16.210284958
 30
0.0
 10
0.4540499094
 20
16.1956698791
 30
0.0
 10
0.6494570641
 20
16.2166205027
 30
0.0
 10
0.7724934734
 20
16.2558941013
 30
0.0
 10
0.8262689773
 20
16.2828276258
 30
0.0
 11
0.0743489545
 21
16.2702705862
 31
0.0
 11
0.2512282382
 21
16.2177855082
 31
0.0
 11
0.4544485403
 21
16.201817413
 31
0.0
 11
0.6555072153
 21
16.2245575928
 31
0.0
 11
0.8262689773
 21
16.2828276258
 31
0.0
  0
SPLINE
  5
3EB
100
AcDbEntity
  8
RACCORDO
100
AcDbSpline
 62
253
  6
CONTINUOUS
 70
0
 71
3
 72
9
 73
5
 74
3
 42
0.0000001
 43
0.0000001
 44
0.0000000001
 12
-0.0255637221
 22
-0.0464965062
 32
0.0
 13
-0.0061902456
 23
-0.0526982907
 33
0.0
 40
0.0
 40
0.0
 40
0.0
 40
0.0
 40
0.2338612943
 40
1.0
 40
1.0
 40
1.0
 40
1.0
 10
-16.556632737
 20
-10.7581262798
 30
0.0
 10
-16.5586255254
 20
-10.7617508575
 30
0.0
 10
-16.5662332828
 20
-10.7777531428
 30
0.0
 10
-16.5702584358
 20
-10.7953020681
 30
0.0
 10
-16.571839298
 20
-10.8087601349
 30
0.0
 11
-16.556632737
 21
-10.7581262798
 31
0.0
 11
-16.5619879088
 21
-10.7693200753
 31
0.0
 11
-16.571839298
 21
-10.8087601349
 31
0.0
  0
SPLINE
  5
3EC
100
AcDbEntity
  8
RACCORDO
100
AcDbSpline
 62
253
  6
CONTINUOUS
 70
0
 71
3
 72
9
 73
5
 74
3
 42
0.0000001
 43
0.0000001
 44
0.0000000001
 12
-0.0491682176
 22
-0.0552249129
 32
0.0
 13
-0.007709536
 23
-0.0735382056
 33
0.0
 40
0.0
 40
0.0
 40
0.0
 40
0.0
 40
0.2177976308
 40
1.0
 40
1.0
 40
1.0
 40
1.0
 10
-16.5717247597
 20
-10.7505900904
 30
0.0
 10
-16.5752943335
 20
-10.7545993755
 30
0.0
 10
-16.5895957772
 20
-10.7748934298
 30
0.0
 10
-16.5954940483
 20
-10.7999612848
 30
0.0
 10
-16.5975041874
 20
-10.8191352044
 30
0.0
 11
-16.5717247597
 21
-10.7505900904
 31
0.0
 11
-16.5811253633
 21
-10.7636658185
 31
0.0
 11
-16.5975041874
 21
-10.8191352044
 31
0.0
  0
SPLINE
  5
3ED
100
AcDbEntity
  8
RACCORDO
100
AcDbSpline
 62
253
  6
CONTINUOUS
 70
0
 71
3
 72
12
 73
8
 74
6
 42
0.0000001
 43
0.0000001
 44
0.0000000001
 12
-0.3211301509
 22
0.181337721
 32
0.0
 13
0.2503258066
 23
0.2708226974
 33
0.0
 40
0.0
 40
0.0
 40
0.0
 40
0.0
 40
0.2976560014
 40
0.5389089287
 40
0.6483983835
 40
0.757998455
 40
1.0
 40
1.0
 40
1.0
 40
1.0
 10
0.0743489545
 20
16.2702705862
 30
0.0
 10
0.0424868489
 20
16.2882626732
 30
0.0
 10
-0.0124109061
 20
16.3270457305
 30
0.0
 10
-0.0576609673
 20
16.3966054743
 30
0.0
 10
-0.0660576068
 20
16.4534113138
 30
0.0
 10
-0.057538815
 20
16.5101957276
 30
0.0
 10
-0.0328024154
 20
16.5482518499
 30
0.0
 10
-0.0126093381
 20
16.5700983536
 30
0.0
 11
0.0743489545
 21
16.2702705862
 31
0.0
 11
-0.0128823469
 21
16.3369105197
 31
0.0
 11
-0.0583025029
 21
16.4134159203
 31
0.0
 11
-0.0640466362
 21
16.4533841588
 31
0.0
 11
-0.0582125955
 21
16.4933805995
 31
0.0
 11
-0.0126093381
 21
16.5700983536
 31
0.0
  0
SPLINE
  5
3EE
100
AcDbEntity
  8
RACCORDO
100
AcDbSpline
 62
253
  6
CONTINUOUS
 70
0
 71
3
 72
9
 73
5
 74
3
 42
0.0000001
 43
0.0000001
 44
0.0000000001
 12
0.0869264428
 22
0.0940440541
 32
0.0
 13
0.1134649527
 23
0.059381774
 33
0.0
 40
0.0
 40
0.0
 40
0.0
 40
0.0
 40
0.2286902492
 40
1.0
 40
1.0
 40
1.0
 40
1.0
 10
-0.0126093381
 20
16.5700983536
 30
0.0
 10
-0.0059829282
 20
16.5772673396
 30
0.0
 10
0.0247469386
 20
16.6069963216
 30
0.0
 10
0.0611429658
 20
16.6304196129
 30
0.0
 10
0.0903151739
 20
16.64568686
 30
0.0
 11
-0.0126093381
 21
16.5700983536
 31
0.0
 11
0.0083686494
 21
16.5905350135
 31
0.0
 11
0.0903151739
 21
16.64568686
 31
0.0
  0
SPLINE
  5
3EF
100
AcDbEntity
  8
RACCORDO
100
AcDbSpline
 62
253
  6
CONTINUOUS
 70
0
 71
3
 72
9
 73
5
 74
3
 42
0.0000001
 43
0.0000001
 44
0.0000000001
 12
-0.3199999212
 22
0.1600338177
 32
0.0
 13
-0.2458422251
 23
0.2599468653
 33
0.0
 40
0.0
 40
0.0
 40
0.0
 40
0.0
 40
0.5071069395
 40
1.0
 40
1.0
 40
1.0
 40
1.0
 10
-16.6518174087
 20
-10.7106817768
 30
0.0
 10
-16.7059088022
 20
-10.683630357
 30
0.0
 10
-16.8053420927
 20
-10.615954352
 30
0.0
 10
-16.8931852669
 20
-10.5348777661
 30
0.0
 10
-16.9335765759
 20
-10.4921690974
 30
0.0
 11
-16.6518174087
 21
-10.7106817768
 31
0.0
 11
-16.8037749407
 21
-10.6115463543
 31
0.0
 11
-16.9335765759
 21
-10.4921690974
 31
0.0
  0
SPLINE
  5
3F0
100
AcDbEntity
  8
RACCORDO
100
AcDbSpline
 62
253
  6
CONTINUOUS
 70
0
 71
3
 72
13
 73
9
 74
7
 42
0.0000001
 43
0.0000001
 44
0.0000000001
 12
0.0124946329
 22
-1.0556838707
 32
0.0
 13
1.0540655758
 23
-0.0597520926
 33
0.0
 40
0.0
 40
0.0
 40
0.0
 40
0.0
 40
0.0860534595
 40
0.1790670696
 40
0.283982361
 40
0.4030384774
 40
0.6815799466
 40
1.0
 40
1.0
 40
1.0
 40
1.0
 10
3.2885538332
 20
14.8141344818
 30
0.0
 10
3.2889122353
 20
14.783852732
 30
0.0
 10
3.301242818
 20
14.7205434556
 30
0.0
 10
3.351713166
 20
14.632700383
 30
0.0
 10
3.4308439157
 20
14.5527090284
 30
0.0
 10
3.5784076606
 20
14.4536765288
 30
0.0
 10
3.8178759774
 20
14.3655926224
 30
0.0
 10
4.0270135518
 20
14.3352524148
 30
0.0
 10
4.1388920907
 20
14.3289103266
 30
0.0
 11
3.2885538332
 21
14.8141344818
 31
0.0
 11
3.3052655134
 21
14.7248331093
 31
0.0
 11
3.3527412559
 21
14.6388722842
 31
0.0
 11
3.4294770593
 21
14.55899405
 31
0.0
 11
3.5330287933
 21
14.4877471078
 31
0.0
 11
3.80660424
 21
14.3798814
 31
0.0
 11
4.1388920907
 21
14.3289103266
 31
0.0
  0
SPLINE
  5
3F1
100
AcDbEntity
  8
RACCORDO
100
AcDbSpline
 62
253
  6
CONTINUOUS
 70
0
 71
3
 72
9
 73
5
 74
3
 42
0.0000001
 43
0.0000001
 44
0.0000000001
 12
0.1146819741
 22
0.0558238819
 32
0.0
 13
0.0017887664
 23
0.1275345493
 33
0.0
 40
0.0
 40
0.0
 40
0.0
 40
0.0
 40
0.4507103763
 40
1.0
 40
1.0
 40
1.0
 40
1.0
 10
10.7251292764
 20
-20.171735657
 30
0.0
 10
10.7423587283
 20
-20.1633488561
 30
0.0
 10
10.7730036395
 20
-20.1289223972
 30
0.0
 10
10.7798516151
 20
-20.0853881074
 30
0.0
 10
10.780179132
 20
-20.0620369726
 30
0.0
 11
10.7251292764
 21
-20.171735657
 31
0.0
 11
10.7651485814
 21
-20.1304659683
 31
0.0
 11
10.780179132
 21
-20.0620369726
 31
0.0
  0
SPLINE
  5
3F2
100
AcDbEntity
  8
RACCORDO
100
AcDbSpline
 62
253
  6
CONTINUOUS
 70
0
 71
3
 72
9
 73
5
 74
3
 42
0.0000001
 43
0.0000001
 44
0.0000000001
 12
0.0001942414
 22
-0.0543831313
 32
0.0
 13
0.0139363419
 23
-0.0525674906
 33
0.0
 40
0.0
 40
0.0
 40
0.0
 40
0.0
 40
0.2025277458
 40
1.0
 40
1.0
 40
1.0
 40
1.0
 10
-12.8084941187
 20
22.8517135732
 30
0.0
 10
-12.8084810057
 20
22.8480422089
 30
0.0
 10
-12.8074041742
 20
22.8299174812
 30
0.0
 10
-12.8032964318
 20
22.8121259853
 30
0.0
 10
-12.7995918164
 20
22.7981522802
 30
0.0
 11
-12.8084941187
 21
22.8517135732
 31
0.0
 11
-12.8079205088
 21
22.8407143567
 31
0.0
 11
-12.7995918164
 21
22.7981522802
 31
0.0
  0
SPLINE
  5
3F3
100
AcDbEntity
  8
RACCORDO
100
AcDbSpline
 62
253
  6
CONTINUOUS
 70
0
 71
3
 72
11
 73
7
 74
5
 42
0.0000001
 43
0.0000001
 44
0.0000000001
 12
-2.9257493235
 22
-1.4955241589
 32
0.0
 13
-2.9389624208
 23
1.4693881389
 33
0.0
 40
0.0
 40
0.0
 40
0.0
 40
0.0
 40
0.2258072159
 40
0.4626910586
 40
0.7191875354
 40
1.0
 40
1.0
 40
1.0
 40
1.0
 10
-6.7038308876
 20
-10.0662039269
 30
0.0
 10
-6.924049324
 20
-10.1787706425
 30
0.0
 10
-7.4116484932
 20
-10.3440765561
 30
0.0
 10
-8.2067131742
 20
-10.3841520811
 30
0.0
 10
-9.0462987839
 20
-10.2251161381
 30
0.0
 10
-9.5950747421
 20
-10.0026089607
 30
0.0
 10
-9.8701738357
 20
-9.8650681258
 30
0.0
 11
-6.7038308876
 21
-10.0662039269
 31
0.0
 11
-7.405669742
 21
-10.3068884693
 31
0.0
 11
-8.1826385819
 21
-10.3533582248
 31
0.0
 11
-9.0121997193
 21
-10.2045579617
 31
0.0
 11
-9.8701738357
 21
-9.8650681258
 31
0.0
  0
SPLINE
  5
3F4
100
AcDbEntity
  8
RACCORDO
100
AcDbSpline
 62
253
  6
CONTINUOUS
 70
0
 71
3
 72
9
 73
5
 74
3
 42
0.0000001
 43
0.0000001
 44
0.0000000001
 12
-0.0252528507
 22
-0.3361115992
 32
0.0
 13
-0.2514953741
 23
-0.2244076432
 33
0.0
 40
0.0
 40
0.0
 40
0.0
 40
0.0
 40
0.4990927236
 40
1.0
 40
1.0
 40
1.0
 40
1.0
 10
11.1058163883
 20
-19.6166851899
 30
0.0
 10
11.101615217
 20
-19.672602141
 30
0.0
 10
11.0751402015
 20
-19.7846560129
 30
0.0
 10
11.0059682581
 20
-19.8779091508
 30
0.0
 10
10.9639763038
 20
-19.9153782913
 30
0.0
 11
11.1058163883
 21
-19.6166851899
 31
0.0
 11
11.0645527126
 21
-19.7797695437
 31
0.0
 11
10.9639763038
 21
-19.9153782913
 31
0.0
  0
SPLINE
  5
3F5
100
AcDbEntity
  8
RACCORDO
100
AcDbSpline
 62
253
  6
CONTINUOUS
 70
0
 71
3
 72
11
 73
7
 74
5
 42
0.0000001
 43
0.0000001
 44
0.0000000001
 12
0.6999082593
 22
-0.309803504
 32
0.0
 13
0.6878739207
 23
0.335677303
 33
0.0
 40
0.0
 40
0.0
 40
0.0
 40
0.0
 40
0.2388168177
 40
0.5026875443
 40
0.7651044727
 40
1.0
 40
1.0
 40
1.0
 40
1.0
 10
-10.0795712986
 20
21.347231016
 30
0.0
 10
-10.0238546776
 20
21.3225689203
 30
0.0
 10
-9.8989849417
 20
21.2876573488
 30
0.0
 10
-9.7033640283
 20
21.2726861518
 30
0.0
 10
-9.5092225332
 20
21.2927338242
 30
0.0
 10
-9.3866719233
 20
21.330967625
 30
0.0
 10
-9.3328124208
 20
21.3572506574
 30
0.0
 11
-10.0795712986
 21
21.347231016
 31
0.0
 11
-9.9043831053
 21
21.2950568428
 31
0.0
 11
-9.7030751996
 21
21.2787309321
 31
0.0
 11
-9.5033976432
 21
21.3004573828
 31
0.0
 11
-9.3328124208
 21
21.3572506574
 31
0.0
  0
SPLINE
  5
3F6
100
AcDbEntity
  8
RACCORDO
100
AcDbSpline
 62
253
  6
CONTINUOUS
 70
0
 71
3
 72
11
 73
7
 74
5
 42
0.0000001
 43
0.0000001
 44
0.0000000001
 12
-0.5298392955
 22
0.265373744
 32
0.0
 13
-0.0192118962
 23
0.5922700449
 33
0.0
 40
0.0
 40
0.0
 40
0.0
 40
0.0
 40
0.2177107257
 40
0.4512620179
 40
0.7108537202
 40
1.0
 40
1.0
 40
1.0
 40
1.0
 10
-18.4495321252
 20
-14.7190573238
 30
0.0
 10
-18.4879826911
 20
-14.699799087
 30
0.0
 10
-18.5609158356
 20
-14.6449768676
 30
0.0
 10
-18.6407515784
 20
-14.5270312781
 30
0.0
 10
-18.6909668814
 20
-14.3793777138
 30
0.0
 10
-18.7034629063
 20
-14.2709419314
 30
0.0
 10
-18.705314589
 20
-14.2138577047
 30
0.0
 11
-18.4495321252
 21
-14.7190573238
 31
0.0
 11
-18.5531763625
 21
-14.6422341283
 31
0.0
 11
-18.6325045277
 21
-14.5288273347
 31
0.0
 11
-18.6839834357
 21
-14.3838674718
 31
0.0
 11
-18.705314589
 21
-14.2138577047
 31
0.0
  0
SPLINE
  5
3F7
100
AcDbEntity
  8
RACCORDO
100
AcDbSpline
 62
253
  6
CONTINUOUS
 70
0
 71
3
 72
9
 73
5
 74
3
 42
0.0000001
 43
0.0000001
 44
0.0000000001
 12
0.0038542466
 22
-0.1192604371
 32
0.0
 13
0.1066906435
 23
-0.0534323279
 33
0.0
 40
0.0
 40
0.0
 40
0.0
 40
0.0
 40
0.4394028379
 40
1.0
 40
1.0
 40
1.0
 40
1.0
 10
-18.7785459253
 20
-14.1250431527
 30
0.0
 10
-18.777981403
 20
-14.1425109442
 30
0.0
 10
-18.7595544155
 20
-14.1815310279
 30
0.0
 10
-18.7252514092
 20
-14.2038730322
 30
0.0
 10
-18.7053145852
 20
-14.2138577026
 30
0.0
 11
-18.7785459253
 21
-14.1250431527
 31
0.0
 11
-18.7587224018
 21
-14.1735818975
 31
0.0
 11
-18.7053145852
 21
-14.2138577026
 31
0.0
  0
SPLINE
  5
3F8
100
AcDbEntity
  8
RACCORDO
100
AcDbSpline
 62
7
  6
CONTINUOUS
 70
0
 71
3
 72
10
 73
6
 74
4
 42
0.0000001
 43
0.0000001
 44
0.0000000001
 12
-0.4320046568
 22
0.2025813652
 32
0.0
 13
-0.4719738105
 23
-0.0700568003
 33
0.0
 40
0.0
 40
0.0
 40
0.0
 40
0.0
 40
0.2220578393
 40
0.4694440785
 40
1.0
 40
1.0
 40
1.0
 40
1.0
 10
-0.5802175267
 20
25.3007927827
 30
0.0
 10
-0.6121942002
 20
25.3157877094
 30
0.0
 10
-0.6836787077
 20
25.3392411177
 30
0.0
 10
-0.8408583125
 20
25.3653152075
 30
0.0
 10
-0.9662660282
 20
25.3613935101
 30
0.0
 10
-1.0497355282
 20
25.3490038267
 30
0.0
 11
-0.5802175267
 21
25.3007927827
 31
0.0
 11
-0.6803370226
 21
25.3354667766
 31
0.0
 11
-0.7966664421
 21
25.3554840128
 31
0.0
 11
-1.0497355282
 21
25.3490038267
 31
0.0
  0
SPLINE
  5
3F9
100
AcDbEntity
  8
RACCORDO
100
AcDbSpline
 62
253
  6
CONTINUOUS
 70
0
 71
3
 72
12
 73
8
 74
6
 42
0.0000001
 43
0.0000001
 44
0.0000000001
 12
-0.3241467782
 22
0.1830528986
 32
0.0
 13
0.2562586843
 23
0.2700203404
 33
0.0
 40
0.0
 40
0.0
 40
0.0
 40
0.0
 40
0.2972042651
 40
0.5377091501
 40
0.6470113374
 40
0.7567216232
 40
1.0
 40
1.0
 40
1.0
 40
1.0
 10
-10.0795712986
 20
21.347231016
 30
0.0
 10
-10.1116839003
 20
21.3653657167
 30
0.0
 10
-10.1669800904
 20
21.4044581638
 30
0.0
 10
-10.2122138522
 20
21.4748533134
 30
0.0
 10
-10.2200161882
 20
21.5322055964
 30
0.0
 10
-10.210573208
 20
21.5895537035
 30
0.0
 10
-10.1849275099
 20
21.6277299621
 30
0.0
 10
-10.1641467777
 20
21.6496266655
 30
0.0
 11
-10.0795712986
 21
21.347231016
 31
0.0
 11
-10.1674022572
 21
21.4145102975
 31
0.0
 11
-10.2126337946
 21
21.4917754671
 31
0.0
 11
-10.2179687944
 21
21.532113323
 31
0.0
 11
-10.2115206941
 21
21.5724421327
 31
0.0
 11
-10.1641467777
 21
21.6496266655
 31
0.0
  0
SPLINE
  5
3FA
100
AcDbEntity
  8
RACCORDO
100
AcDbSpline
 62
253
  6
CONTINUOUS
 70
0
 71
3
 72
9
 73
5
 74
3
 42
0.0000001
 43
0.0000001
 44
0.0000000001
 12
0.089642891
 22
0.0944569119
 32
0.0
 13
0.1160114127
 23
0.0591549511
 33
0.0
 40
0.0
 40
0.0
 40
0.0
 40
0.0
 40
0.2286351636
 40
1.0
 40
1.0
 40
1.0
 40
1.0
 10
-10.1641467777
 20
21.6496266655
 30
0.0
 10
-10.1573149386
 20
21.6568253893
 30
0.0
 10
-10.1256827839
 20
21.6866515154
 30
0.0
 10
-10.0884143374
 20
21.7100447461
 30
0.0
 10
-10.058585296
 20
21.7252547625
 30
0.0
 11
-10.1641467777
 21
21.6496266655
 31
0.0
 11
-10.1425558612
 21
21.6701277184
 31
0.0
 11
-10.058585296
 21
21.7252547625
 31
0.0
  0
SPLINE
  5
3FB
100
AcDbEntity
  8
RACCORDO
100
AcDbSpline
 62
7
  6
CONTINUOUS
 70
0
 71
3
 72
10
 73
6
 74
4
 42
0.0000001
 43
0.0000001
 44
0.0000000001
 12
-0.4571812304
 22
0.2290379567
 32
0.0
 13
-0.507152218
 23
-0.0653428716
 33
0.0
 40
0.0
 40
0.0
 40
0.0
 40
0.0
 40
0.227350127
 40
0.4749609204
 40
1.0
 40
1.0
 40
1.0
 40
1.0
 10
9.4642678219
 20
20.2787039219
 30
0.0
 10
9.429621085
 20
20.2960611914
 30
0.0
 10
9.352862945
 20
20.3236892157
 30
0.0
 10
9.1851029077
 20
20.3556880475
 30
0.0
 10
9.0515235709
 20
20.3541892532
 30
0.0
 10
8.9627653263
 20
20.3427533995
 30
0.0
 11
9.4642678219
 21
20.2787039219
 31
0.0
 11
9.3554679075
 21
20.3196626731
 31
0.0
 11
9.231237637
 21
20.3441175764
 31
0.0
 11
8.9627653263
 21
20.3427533995
 31
0.0
  0
SPLINE
  5
3FC
100
AcDbEntity
  8
RACCORDO
100
AcDbSpline
 62
253
  6
CONTINUOUS
 70
0
 71
3
 72
10
 73
6
 74
4
 42
0.0000001
 43
0.0000001
 44
0.0000000001
 12
-0.0036001232
 22
-0.1189069712
 32
0.0
 13
0.1064394286
 23
-0.0531269867
 33
0.0
 40
0.0
 40
0.0
 40
0.0
 40
0.0
 40
0.4227968306
 40
0.6901943902
 40
1.0
 40
1.0
 40
1.0
 40
1.0
 10
-18.7785441624
 20
14.9115930443
 30
0.0
 10
-18.779051536
 20
14.8948352141
 30
0.0
 10
-18.7659772625
 20
14.8673511314
 30
0.0
 10
-18.7361144177
 20
14.8414147098
 30
0.0
 10
-18.7162938781
 20
14.8295825827
 30
0.0
 10
-18.705302034
 20
14.8240962366
 30
0.0
 11
-18.7785441624
 21
14.9115930443
 31
0.0
 11
-18.7602053329
 21
14.8647589965
 31
0.0
 11
-18.7368263644
 21
14.8431881789
 31
0.0
 11
-18.705302034
 21
14.8240962366
 31
0.0
  0
SPLINE
  5
3FD
100
AcDbEntity
  8
RACCORDO
100
AcDbSpline
 62
253
  6
CONTINUOUS
 70
0
 71
3
 72
9
 73
5
 74
3
 42
0.0000001
 43
0.0000001
 44
0.0000000001
 12
0.098315854
 22
0.0722028358
 32
0.0
 13
0.1099786601
 23
-0.0527631592
 33
0.0
 40
0.0
 40
0.0
 40
0.0
 40
0.0
 40
0.4388004559
 40
1.0
 40
1.0
 40
1.0
 40
1.0
 10
-18.2467728872
 20
15.9419108245
 30
0.0
 10
-18.23239254
 20
15.9524717036
 30
0.0
 10
-18.1892913073
 20
15.9621107667
 30
0.0
 10
-18.1497615982
 20
15.9483724769
 30
0.0
 10
-18.1291882736
 20
15.9385022566
 30
0.0
 11
-18.2467728872
 21
15.9419108245
 31
0.0
 11
-18.1952545409
 21
15.9564297421
 31
0.0
 11
-18.1291882736
 21
15.9385022566
 31
0.0
  0
SPLINE
  5
3FE
100
AcDbEntity
  8
RACCORDO
100
AcDbSpline
 62
253
  6
CONTINUOUS
 70
0
 71
3
 72
11
 73
7
 74
5
 42
0.0000001
 43
0.0000001
 44
0.0000000001
 12
-0.5334814255
 22
0.2672172466
 32
0.0
 13
-0.019653768
 23
0.5963398508
 33
0.0
 40
0.0
 40
0.0
 40
0.0
 40
0.0
 40
0.2193928499
 40
0.4535126602
 40
0.7124757374
 40
1.0
 40
1.0
 40
1.0
 40
1.0
 10
-16.5452916826
 20
-15.6711773878
 30
0.0
 10
-16.584305686
 20
-15.6516355367
 30
0.0
 10
-16.6582519509
 20
-15.5964422319
 30
0.0
 10
-16.7395202719
 20
-15.4778922188
 30
0.0
 10
-16.7906682368
 20
-15.3297506906
 30
0.0
 10
-16.8034187576
 20
-15.2210178565
 30
0.0
 10
-16.8053024026
 20
-15.1638637979
 30
0.0
 11
-16.5452916826
 21
-15.6711773878
 31
0.0
 11
-16.6506514275
 21
-15.5934914056
 31
0.0
 11
-16.7312905756
 21
-15.4794263334
 31
0.0
 11
-16.7836193039
 21
-15.3340432739
 31
0.0
 11
-16.8053024026
 21
-15.1638637979
 31
0.0
  0
SPLINE
  5
3FF
100
AcDbEntity
  8
RACCORDO
100
AcDbSpline
 62
253
  6
CONTINUOUS
 70
0
 71
3
 72
16
 73
12
 74
10
 42
0.0000001
 43
0.0000001
 44
0.0000000001
 12
-0.0000203369
 22
-1.7702031869
 32
0.0
 13
1.6633191985
 23
0.6057958132
 33
0.0
 40
0.0
 40
0.0
 40
0.0
 40
0.0
 40
0.0381600393
 40
0.0784101465
 40
0.170730955
 40
0.2835731041
 40
0.4155895163
 40
0.5612518714
 40
0.7128436242
 40
0.8617938631
 40
1.0
 40
1.0
 40
1.0
 40
1.0
 10
3.2929308012
 20
-25.2735140399
 30
0.0
 10
3.2929305426
 20
-25.2960310476
 30
0.0
 10
3.2995706819
 20
-25.3425170129
 30
0.0
 10
3.339952835
 20
-25.435887794
 30
0.0
 10
3.4422088545
 20
-25.5438138921
 30
0.0
 10
3.6159738098
 20
-25.6437118758
 30
0.0
 10
3.8356390324
 20
-25.7173559444
 30
0.0
 10
4.0862981806
 20
-25.7593870662
 30
0.0
 10
4.3503047821
 20
-25.7669531248
 30
0.0
 10
4.6084869748
 20
-25.7395057972
 30
0.0
 10
4.7734286269
 20
-25.6968304483
 30
0.0
 10
4.8500556005
 20
-25.6689222153
 30
0.0
 11
3.2929308012
 21
-25.2735140399
 31
0.0
 11
3.3022135783
 21
-25.3404242093
 31
0.0
 11
3.3298382411
 21
-25.4061019392
 31
0.0
 11
3.4377577213
 21
-25.5288277961
 31
0.0
 11
3.6085440086
 21
-25.632430487
 31
0.0
 11
3.8293080766
 21
-25.7090920006
 31
0.0
 11
4.0833892983
 21
-25.7530279627
 31
0.0
 11
4.3516214832
 21
-25.7609180528
 31
0.0
 11
4.6137234246
 21
-25.7321848874
 31
0.0
 11
4.8500556005
 21
-25.6689222153
 31
0.0
  0
SPLINE
  5
400
100
AcDbEntity
  8
RACCORDO
100
AcDbSpline
 62
253
  6
CONTINUOUS
 70
0
 71
3
 72
9
 73
5
 74
3
 42
0.0000001
 43
0.0000001
 44
0.0000000001
 12
0.1018823043
 22
0.0371064516
 32
0.0
 13
0.0977976507
 23
0.0468242693
 33
0.0
 40
0.0
 40
0.0
 40
0.0
 40
0.0
 40
0.2570260128
 40
1.0
 40
1.0
 40
1.0
 40
1.0
 10
4.8500556005
 20
-25.6689222153
 30
0.0
 10
4.8587844013
 20
-25.6657431075
 30
0.0
 10
4.8926046201
 20
-25.6529946135
 30
0.0
 10
4.9258506852
 20
-25.638700984
 30
0.0
 10
4.9500710553
 20
-25.6271045793
 30
0.0
 11
4.8500556005
 21
-25.6689222153
 31
0.0
 11
4.8761318233
 21
-25.659087643
 31
0.0
 11
4.9500710553
 21
-25.6271045793
 31
0.0
  0
SPLINE
  5
401
100
AcDbEntity
  8
RACCORDO
100
AcDbSpline
 62
253
  6
CONTINUOUS
 70
0
 71
3
 72
9
 73
5
 74
3
 42
0.0000001
 43
0.0000001
 44
0.0000000001
 12
-0.0545716931
 22
0.0188247174
 32
0.0
 13
-0.0572037643
 23
0.0077568695
 33
0.0
 40
0.0
 40
0.0
 40
0.0
 40
0.0
 40
0.2593276437
 40
1.0
 40
1.0
 40
1.0
 40
1.0
 10
-3.3777129908
 20
26.0817274508
 30
0.0
 10
-3.382430307
 20
26.0833547074
 30
0.0
 10
-3.4007514504
 20
26.0892344109
 30
0.0
 10
-3.4196263039
 20
26.0934689583
 30
0.0
 10
-3.4337493862
 20
26.0953840579
 30
0.0
 11
-3.3777129908
 21
26.0817274508
 31
0.0
 11
-3.3919699024
 21
26.0862936086
 31
0.0
 11
-3.4337493862
 21
26.0953840579
 31
0.0
  0
SPLINE
  5
402
100
AcDbEntity
  8
RACCORDO
100
AcDbSpline
 62
253
  6
CONTINUOUS
 70
0
 71
3
 72
9
 73
5
 74
3
 42
0.0000001
 43
0.0000001
 44
0.0000000001
 12
-0.1318906404
 22
0.0659400835
 32
0.0
 13
-0.147239577
 23
-0.007983896
 33
0.0
 40
0.0
 40
0.0
 40
0.0
 40
0.0
 40
0.2444683541
 40
1.0
 40
1.0
 40
1.0
 40
1.0
 10
0.0155935705
 20
24.2906057017
 30
0.0
 10
0.0048458745
 20
24.295979123
 30
0.0
 10
-0.0406240141
 20
24.3149309876
 30
0.0
 10
-0.0910832368
 20
24.3208184903
 30
0.0
 10
-0.1281646235
 20
24.3188077949
 30
0.0
 11
0.0155935705
 21
24.2906057017
 31
0.0
 11
-0.0176842096
 21
24.3044645966
 31
0.0
 11
-0.1281646235
 21
24.3188077949
 31
0.0
  0
SPLINE
  5
403
100
AcDbEntity
  8
RACCORDO
100
AcDbSpline
 62
253
  6
CONTINUOUS
 70
0
 71
3
 72
11
 73
7
 74
5
 42
0.0000001
 43
0.0000001
 44
0.0000000001
 12
0.0678447133
 22
0.7539261801
 32
0.0
 13
-0.6785412363
 23
0.3355434111
 33
0.0
 40
0.0
 40
0.0
 40
0.0
 40
0.0
 40
0.2681875461
 40
0.5306972073
 40
0.7763448516
 40
1.0
 40
1.0
 40
1.0
 40
1.0
 10
0.6655450828
 20
23.4187731997
 30
0.0
 10
0.6716101185
 20
23.4861710704
 30
0.0
 10
0.6662982554
 20
23.6216848377
 30
0.0
 10
0.6089670649
 20
23.8112935093
 30
0.0
 10
0.5080353801
 20
23.9690076117
 30
0.0
 10
0.412639162
 20
24.044454349
 30
0.0
 10
0.3620527484
 20
24.0694696861
 30
0.0
 11
0.6655450828
 21
23.4187731997
 31
0.0
 11
0.6575895106
 21
23.6216278955
 31
0.0
 11
0.5990329507
 21
23.8115169156
 31
0.0
 11
0.4965992297
 21
23.9667077505
 31
0.0
 11
0.3620527484
 21
24.0694696861
 31
0.0
  0
SPLINE
  5
404
100
AcDbEntity
  8
RACCORDO
100
AcDbSpline
 62
253
  6
CONTINUOUS
 70
0
 71
3
 72
9
 73
5
 74
3
 42
0.0000001
 43
0.0000001
 44
0.0000000001
 12
0.2613120466
 22
-0.1283475947
 32
0.0
 13
0.0041419246
 23
-0.2911012456
 33
0.0
 40
0.0
 40
0.0
 40
0.0
 40
0.0
 40
0.4894677147
 40
1.0
 40
1.0
 40
1.0
 40
1.0
 10
10.6350608992
 20
18.8806062807
 30
0.0
 10
10.6776955026
 20
18.8596656127
 30
0.0
 10
10.7468876853
 20
18.7838801263
 30
0.0
 10
10.77947427
 20
18.6881095863
 30
0.0
 10
10.780179132
 20
18.6385707249
 30
0.0
 11
10.6350608992
 21
18.8806062807
 31
0.0
 11
10.7366602622
 21
18.780688523
 31
0.0
 11
10.780179132
 21
18.6385707249
 31
0.0
  0
SPLINE
  5
405
100
AcDbEntity
  8
RACCORDO
100
AcDbSpline
 62
253
  6
CONTINUOUS
 70
0
 71
3
 72
11
 73
7
 74
5
 42
0.0000001
 43
0.0000001
 44
0.0000000001
 12
0.2588977421
 22
-0.1288002097
 32
0.0
 13
-0.0943099154
 23
-0.2733554
 33
0.0
 40
0.0
 40
0.0
 40
0.0
 40
0.0
 40
0.2224559127
 40
0.4674403871
 40
0.7310233
 40
1.0
 40
1.0
 40
1.0
 40
1.0
 10
10.8862815966
 20
18.9353678674
 30
0.0
 10
10.9054793744
 20
18.925817078
 30
0.0
 10
10.9409121121
 20
18.8951695897
 30
0.0
 10
10.9722672956
 20
18.8304329011
 30
0.0
 10
10.9816466242
 20
18.7549012576
 30
0.0
 10
10.9724311481
 20
18.7034545807
 30
0.0
 10
10.9639754249
 20
18.6789458362
 30
0.0
 11
10.8862815966
 21
18.9353678674
 31
0.0
 11
10.9357203787
 21
18.8942125871
 31
0.0
 11
10.967831306
 21
18.8310667656
 31
0.0
 11
10.9777504547
 21
18.7554954859
 31
0.0
 11
10.9639754249
 21
18.6789458362
 31
0.0
  0
SPLINE
  5
406
100
AcDbEntity
  8
RACCORDO
100
AcDbSpline
 62
253
  6
CONTINUOUS
 70
0
 71
3
 72
8
 73
4
 74
2
 42
0.0000001
 43
0.0000001
 44
0.0000000001
 12
-0.035583065
 22
0.0178820177
 32
0.0
 13
-0.0394586165
 23
0.0053794657
 33
0.0
 40
0.0
 40
0.0
 40
0.0
 40
0.0
 40
1.0
 40
1.0
 40
1.0
 40
1.0
 10
-3.433751712
 20
26.0953773917
 30
0.0
 10
-3.4456127336
 20
26.1013380642
 30
0.0
 10
-3.4586269013
 20
26.1054074174
 30
0.0
 10
-3.4717797735
 20
26.1072005727
 30
0.0
 11
-3.433751712
 21
26.0953773917
 31
0.0
 11
-3.4717797735
 21
26.1072005727
 31
0.0
  0
SPLINE
  5
407
100
AcDbEntity
  8
RACCORDO
100
AcDbSpline
 62
253
  6
CONTINUOUS
 70
0
 71
3
 72
9
 73
5
 74
3
 42
0.0000001
 43
0.0000001
 44
0.0000000001
 12
-0.0815490046
 22
0.0415075421
 32
0.0
 13
-0.0814702088
 23
-0.0416619885
 33
0.0
 40
0.0
 40
0.0
 40
0.0
 40
0.0
 40
0.5388762712
 40
1.0
 40
1.0
 40
1.0
 40
1.0
 10
-3.6882064802
 20
26.0422399704
 30
0.0
 10
-3.7028547547
 20
26.0496957802
 30
0.0
 10
-3.7325547413
 20
26.059928949
 30
0.0
 10
-3.7644072652
 20
26.0546947608
 30
0.0
 10
-3.7769298807
 20
26.0482909837
 30
0.0
 11
-3.6882064802
 21
26.0422399704
 31
0.0
 11
-3.735489061
 21
26.0562330747
 31
0.0
 11
-3.7769298807
 21
26.0482909837
 31
0.0
  0
SPLINE
  5
408
100
AcDbEntity
  8
RACCORDO
100
AcDbSpline
 62
253
  6
CONTINUOUS
 70
0
 71
3
 72
10
 73
6
 74
4
 42
0.0000001
 43
0.0000001
 44
0.0000000001
 12
0.0696838233
 22
0.2635513857
 32
0.0
 13
-0.0032956577
 23
0.2725881633
 33
0.0
 40
0.0
 40
0.0
 40
0.0
 40
0.0
 40
0.1919903332
 40
0.4483506656
 40
1.0
 40
1.0
 40
1.0
 40
1.0
 10
4.114494291
 20
14.0578721705
 30
0.0
 10
4.1189538311
 20
14.0747386099
 30
0.0
 10
4.1259396086
 20
14.1149818904
 30
0.0
 10
4.1361205567
 20
14.2052543341
 30
0.0
 10
4.1394982479
 20
14.2787864886
 30
0.0
 10
4.1388922321
 20
14.3289108482
 30
0.0
 11
4.114494291
 21
14.0578721705
 31
0.0
 11
4.1244926963
 21
14.1092463896
 31
0.0
 11
4.1326261602
 21
14.1786573808
 31
0.0
 11
4.1388922321
 21
14.3289108482
 31
0.0
  0
SPLINE
  5
409
100
AcDbEntity
  8
RACCORDO
100
AcDbSpline
 62
253
  6
CONTINUOUS
 70
0
 71
3
 72
8
 73
4
 74
2
 42
0.0000001
 43
0.0000001
 44
0.0000000001
 12
0.1268571378
 22
0.0101172613
 32
0.0
 13
0.1020815316
 23
0.0759898236
 33
0.0
 40
0.0
 40
0.0
 40
0.0
 40
0.0
 40
1.0
 40
1.0
 40
1.0
 40
1.0
 10
-12.9953110837
 20
22.6127796995
 30
0.0
 10
-12.9530253711
 20
22.61615212
 30
0.0
 10
-12.9101064785
 20
22.6319343001
 30
0.0
 10
-12.8760793013
 20
22.6572642413
 30
0.0
 11
-12.9953110837
 21
22.6127796995
 31
0.0
 11
-12.8760793013
 21
22.6572642413
 31
0.0
  0
SPLINE
  5
40A
100
AcDbEntity
  8
RACCORDO
100
AcDbSpline
 62
253
  6
CONTINUOUS
 70
0
 71
3
 72
9
 73
5
 74
3
 42
0.0000001
 43
0.0000001
 44
0.0000000001
 12
0.1145735218
 22
0.0852889017
 32
0.0
 13
0.0213641092
 23
0.1412262847
 33
0.0
 40
0.0
 40
0.0
 40
0.0
 40
0.0
 40
0.51470653
 40
1.0
 40
1.0
 40
1.0
 40
1.0
 10
-12.8760793013
 20
22.6572642413
 30
0.0
 10
-12.8564220547
 20
22.6718971595
 30
0.0
 10
-12.8226254514
 20
22.7070953331
 30
0.0
 10
-12.8047532206
 20
22.7529229603
 30
0.0
 10
-12.8012972664
 20
22.7757683582
 30
0.0
 11
-12.8760793013
 21
22.6572642413
 31
0.0
 11
-12.8258501194
 21
22.7109466039
 31
0.0
 11
-12.8012972664
 21
22.7757683582
 31
0.0
  0
SPLINE
  5
40B
100
AcDbEntity
  8
RACCORDO
100
AcDbSpline
 62
253
  6
CONTINUOUS
 70
0
 71
3
 72
10
 73
6
 74
4
 42
0.0000001
 43
0.0000001
 44
0.0000000001
 12
-0.2614055754
 22
0.1307027868
 32
0.0
 13
-0.0041947595
 23
0.2922302129
 33
0.0
 40
0.0
 40
0.0
 40
0.0
 40
0.0
 40
0.2310836533
 40
0.4912160254
 40
1.0
 40
1.0
 40
1.0
 40
1.0
 10
-10.9876874196
 20
22.2883938549
 30
0.0
 10
-11.0078229381
 20
22.298461614
 30
0.0
 10
-11.0464145926
 20
22.3285007371
 30
0.0
 10
-11.1053153738
 20
22.4063752951
 30
0.0
 10
-11.130865509
 20
22.4814884797
 30
0.0
 10
-11.1315769179
 20
22.5310491628
 30
0.0
 11
-10.9876874196
 21
22.2883938549
 31
0.0
 11
-11.0419949058
 21
22.3285421654
 31
0.0
 11
-11.0884103215
 21
22.388755271
 31
0.0
 11
-11.1315769179
 21
22.5310491628
 31
0.0
  0
SPLINE
  5
40C
100
AcDbEntity
  8
RACCORDO
100
AcDbSpline
 62
253
  6
CONTINUOUS
 70
0
 71
3
 72
11
 73
7
 74
5
 42
0.0000001
 43
0.0000001
 44
0.0000000001
 12
0.1438749989
 22
0.0180273554
 32
0.0
 13
0.001026184
 23
-0.1449963717
 33
0.0
 40
0.0
 40
0.0
 40
0.0
 40
0.0
 40
0.4422880626
 40
0.7544618434
 40
0.9358605475
 40
1.0
 40
1.0
 40
1.0
 40
1.0
 10
10.9639763038
 20
18.6789454044
 30
0.0
 10
10.9851877019
 20
18.6816031657
 30
0.0
 10
11.0203427617
 20
18.6864438229
 30
0.0
 10
11.06823323
 20
18.6916718
 30
0.0
 10
11.0901176536
 20
18.6941104635
 30
0.0
 10
11.1073292585
 20
18.692449884
 30
0.0
 10
11.1073511981
 20
18.689349888
 30
0.0
 11
10.9639763038
 21
18.6789454044
 31
0.0
 11
11.0275921864
 21
18.6870634986
 31
0.0
 11
11.0725692496
 21
18.6921627179
 31
0.0
 11
11.0988542385
 21
18.6931308647
 31
0.0
 11
11.1073511981
 21
18.689349888
 31
0.0
  0
SPLINE
  5
40D
100
AcDbEntity
  8
RACCORDO
100
AcDbSpline
 62
253
  6
CONTINUOUS
 70
0
 71
3
 72
9
 73
5
 74
3
 42
0.0000001
 43
0.0000001
 44
0.0000000001
 12
-0.0005666949
 22
-0.1566590767
 32
0.0
 13
-0.1411990055
 23
-0.0678618325
 33
0.0
 40
0.0
 40
0.0
 40
0.0
 40
0.0
 40
0.5541323363
 40
1.0
 40
1.0
 40
1.0
 40
1.0
 10
4.9500710553
 20
-25.6271045793
 30
0.0
 10
4.9499663807
 20
-25.6560411994
 30
0.0
 10
4.9425642499
 20
-25.7095843717
 30
0.0
 10
4.9053630425
 20
-25.7525764806
 30
0.0
 10
4.8843776856
 20
-25.7626622795
 30
0.0
 11
4.9500710553
 21
-25.6271045793
 31
0.0
 11
4.9326126773
 21
-25.7121413683
 31
0.0
 11
4.8843776856
 21
-25.7626622795
 31
0.0
  0
SPLINE
  5
40E
100
AcDbEntity
  8
RACCORDO
100
AcDbSpline
 62
253
  6
CONTINUOUS
 70
0
 71
3
 72
9
 73
5
 74
3
 42
0.0000001
 43
0.0000001
 44
0.0000000001
 12
-0.1065311168
 22
0.0514379522
 32
0.0
 13
-0.1050766841
 23
-0.0543473297
 33
0.0
 40
0.0
 40
0.0
 40
0.0
 40
0.0
 40
0.5351469492
 40
1.0
 40
1.0
 40
1.0
 40
1.0
 10
-12.3529629527
 20
24.3756144436
 30
0.0
 10
-12.3719662201
 20
24.3847900647
 30
0.0
 10
-12.4107021723
 20
24.3970100553
 30
0.0
 10
-12.4516263865
 20
24.3895318037
 30
0.0
 10
-12.4679081256
 20
24.3811106297
 30
0.0
 11
-12.3529629527
 21
24.3756144436
 31
0.0
 11
-12.4140517528
 21
24.392227819
 31
0.0
 11
-12.4679081256
 21
24.3811106297
 31
0.0
  0
SPLINE
  5
40F
100
AcDbEntity
  8
RACCORDO
100
AcDbSpline
 62
253
  6
CONTINUOUS
 70
0
 71
3
 72
11
 73
7
 74
5
 42
0.0000001
 43
0.0000001
 44
0.0000000001
 12
0.3283037267
 22
-0.1641518634
 32
0.0
 13
0.0
 23
-0.3670547251
 33
0.0
 40
0.0
 40
0.0
 40
0.0
 40
0.0
 40
0.2296755894
 40
0.4882147766
 40
0.7532068921
 40
1.0
 40
1.0
 40
1.0
 40
1.0
 10
-11.3083536141
 20
23.8623470746
 30
0.0
 10
-11.2832191635
 20
23.8497798493
 30
0.0
 10
-11.2351910894
 20
23.8122058133
 30
0.0
 10
-11.1797318443
 20
23.7376083489
 30
0.0
 10
-11.141997195
 20
23.6503732794
 30
0.0
 10
-11.1315769188
 20
23.5876479015
 30
0.0
 10
-11.1315769188
 20
23.557452376
 30
0.0
 11
-11.3083536141
 21
23.8623470746
 31
0.0
 11
-11.2407041016
 21
23.8120417537
 31
0.0
 11
-11.1833536141
 21
23.7364338326
 31
0.0
 11
-11.1450332435
 21
23.6470339319
 31
0.0
 11
-11.1315769188
 21
23.557452376
 31
0.0
  0
SPLINE
  5
410
100
AcDbEntity
  8
RACCORDO
100
AcDbSpline
 62
253
  6
CONTINUOUS
 70
0
 71
3
 72
9
 73
5
 74
3
 42
0.0000001
 43
0.0000001
 44
0.0000000001
 12
-0.1030022054
 22
0.051501103
 32
0.0
 13
-0.1030234029
 23
-0.0514586861
 33
0.0
 40
0.0
 40
0.0
 40
0.0
 40
0.0
 40
0.5360991685
 40
1.0
 40
1.0
 40
1.0
 40
1.0
 10
3.7530208251
 20
16.331659855
 30
0.0
 10
3.7346143596
 20
16.3408630878
 30
0.0
 10
3.6971129469
 20
16.353353042
 30
0.0
 10
3.6571507853
 20
16.3467125991
 30
0.0
 10
3.6412199045
 20
16.3387553567
 30
0.0
 11
3.7530208251
 21
16.331659855
 31
0.0
 11
3.6936981824
 21
16.3487566754
 31
0.0
 11
3.6412199045
 21
16.3387553567
 31
0.0
  0
SPLINE
  5
411
100
AcDbEntity
  8
RACCORDO
100
AcDbSpline
 62
253
  6
CONTINUOUS
 70
0
 71
3
 72
11
 73
7
 74
5
 42
0.0000001
 43
0.0000001
 44
0.0000000001
 12
0.3253468307
 22
-0.1684532528
 32
0.0
 13
-0.0
 23
-0.3663701115
 33
0.0
 40
0.0
 40
0.0
 40
0.0
 40
0.0
 40
0.2284720567
 40
0.4869253182
 40
0.7525266414
 40
1.0
 40
1.0
 40
1.0
 40
1.0
 10
4.7795555632
 20
15.8093551857
 30
0.0
 10
4.8043331164
 20
15.796526232
 30
0.0
 10
4.8515747183
 20
15.7584145706
 30
0.0
 10
4.9059701327
 20
15.6833935096
 30
0.0
 10
4.9429842744
 20
15.5959132461
 30
0.0
 10
4.9532201558
 20
15.5331536403
 30
0.0
 10
4.9532201558
 20
15.5029313597
 30
0.0
 11
4.7795555632
 21
15.8093551857
 31
0.0
 11
4.8460141256
 21
15.758464693
 31
0.0
 11
4.9023549743
 21
15.6823606873
 31
0.0
 11
4.9400007259
 21
15.5926293134
 31
0.0
 11
4.9532201558
 21
15.5029313597
 31
0.0
  0
SPLINE
  5
412
100
AcDbEntity
  8
RACCORDO
100
AcDbSpline
 62
7
  6
CONTINUOUS
 70
0
 71
3
 72
9
 73
5
 74
3
 42
0.0000001
 43
0.0000001
 44
0.0000000001
 12
0.0694661822
 22
0.1135191189
 32
0.0
 13
0.1184839995
 23
0.0606109123
 33
0.0
 40
0.0
 40
0.0
 40
0.0
 40
0.0
 40
0.5552410791
 40
1.0
 40
1.0
 40
1.0
 40
1.0
 10
8.019729008
 20
20.8142715586
 30
0.0
 10
8.032585834
 20
20.835281718
 30
0.0
 10
8.0575008304
 20
20.8720326037
 30
0.0
 10
8.0913771485
 20
20.9025168794
 30
0.0
 10
8.1089427537
 20
20.9115026273
 30
0.0
 11
8.019729008
 21
20.8142715586
 31
0.0
 11
8.0630162026
 21
20.874160971
 31
0.0
 11
8.1089427537
 21
20.9115026273
 31
0.0
  0
SPLINE
  5
413
100
AcDbEntity
  8
RACCORDO
100
AcDbSpline
 62
253
  6
CONTINUOUS
 70
0
 71
3
 72
9
 73
5
 74
3
 42
0.0000001
 43
0.0000001
 44
0.0000000001
 12
0.1676622789
 22
0.0888596857
 32
0.0
 13
0.1881540506
 23
-0.0245913962
 33
0.0
 40
0.0
 40
0.0
 40
0.0
 40
0.0
 40
0.2751929047
 40
1.0
 40
1.0
 40
1.0
 40
1.0
 10
10.780179132
 20
18.6385707249
 30
0.0
 10
10.7955589552
 20
18.6467219099
 30
0.0
 10
10.8528653698
 20
18.6731329133
 30
0.0
 10
10.9185178401
 20
18.6848867439
 30
0.0
 10
10.9639763038
 20
18.6789454044
 30
0.0
 11
10.780179132
 21
18.6385707249
 31
0.0
 11
10.8277316489
 21
18.6601481471
 31
0.0
 11
10.9639763038
 21
18.6789454044
 31
0.0
  0
SPLINE
  5
414
100
AcDbEntity
  8
RACCORDO
100
AcDbSpline
 62
253
  6
CONTINUOUS
 70
0
 71
3
 72
10
 73
6
 74
4
 42
0.0000001
 43
0.0000001
 44
0.0000000001
 12
-1.4418856647
 22
-0.0873355907
 32
0.0
 13
-1.3669172511
 23
-0.4671177623
 33
0.0
 40
0.0
 40
0.0
 40
0.0
 40
0.0
 40
0.2886841015
 40
0.5514086444
 40
1.0
 40
1.0
 40
1.0
 40
1.0
 10
0.3620526373
 20
24.06946968
 30
0.0
 10
0.2233028148
 20
24.0610655478
 30
0.0
 10
-0.041616524
 20
24.0408554664
 30
0.0
 10
-0.5186910902
 20
23.9755468943
 30
0.0
 10
-0.8541875295
 20
23.8978607473
 30
0.0
 10
-1.0585832837
 20
23.8280124172
 30
0.0
 11
0.3620526373
 21
24.06946968
 31
0.0
 11
-0.0535797618
 21
24.0355728811
 31
0.0
 11
-0.4294929619
 21
23.9834250584
 31
0.0
 11
-1.0585832837
 21
23.8280124172
 31
0.0
  0
SPLINE
  5
415
100
AcDbEntity
  8
RACCORDO
100
AcDbSpline
 62
253
  6
CONTINUOUS
 70
0
 71
3
 72
9
 73
5
 74
3
 42
0.0000001
 43
0.0000001
 44
0.0000000001
 12
1.7867222475
 22
-0.1984632091
 32
0.0
 13
1.797442826
 23
0.0310374355
 33
0.0
 40
0.0
 40
0.0
 40
0.0
 40
0.0
 40
0.527077047
 40
1.0
 40
1.0
 40
1.0
 40
1.0
 10
4.983510837
 20
20.8069653569
 30
0.0
 10
5.2974242657
 20
20.7720968895
 30
0.0
 10
5.8945350682
 20
20.7188289714
 30
0.0
 10
6.4941823904
 20
20.701687613
 30
0.0
 10
6.7775330468
 20
20.7065803849
 30
0.0
 11
4.983510837
 21
20.8069653569
 31
0.0
 11
5.9275757338
 21
20.7259806228
 31
0.0
 11
6.7775330468
 21
20.7065803849
 31
0.0
  0
SPLINE
  5
416
100
AcDbEntity
  8
RACCORDO
100
AcDbSpline
 62
253
  6
CONTINUOUS
 70
0
 71
3
 72
9
 73
5
 74
3
 42
0.0000001
 43
0.0000001
 44
0.0000000001
 12
0.2922283607
 22
0.0050460681
 32
0.0
 13
0.2919331846
 23
0.0140674579
 33
0.0
 40
0.0
 40
0.0
 40
0.0
 40
0.0
 40
0.2557869962
 40
1.0
 40
1.0
 40
1.0
 40
1.0
 10
6.7775330468
 20
20.7065803849
 30
0.0
 10
6.8024491183
 20
20.7070106244
 30
0.0
 10
6.8998519118
 20
20.7091360681
 30
0.0
 10
6.997198848
 20
20.7132815826
 30
0.0
 10
7.0696190054
 20
20.716771311
 30
0.0
 11
6.7775330468
 21
20.7065803849
 31
0.0
 11
6.8522741997
 21
20.7082301133
 31
0.0
 11
7.0696190054
 21
20.716771311
 31
0.0
  0
SPLINE
  5
417
100
AcDbEntity
  8
RACCORDO
100
AcDbSpline
 62
253
  6
CONTINUOUS
 70
0
 71
3
 72
9
 73
5
 74
3
 42
0.0000001
 43
0.0000001
 44
0.0000000001
 12
-0.0817611735
 22
-0.0938868129
 32
0.0
 13
-0.0973787216
 23
-0.0775693736
 33
0.0
 40
0.0
 40
0.0
 40
0.0
 40
0.0
 40
0.2572125583
 40
1.0
 40
1.0
 40
1.0
 40
1.0
 10
10.9639763038
 20
-19.9153782913
 30
0.0
 10
10.9569663036
 20
-19.9234279137
 30
0.0
 10
10.9290599943
 20
-19.9541434134
 30
0.0
 10
10.8985318784
 20
-19.982522127
 30
0.0
 10
10.8744213146
 20
-20.0017279792
 30
0.0
 11
10.9639763038
 21
-19.9153782913
 31
0.0
 11
10.9424371429
 21
-19.9390741404
 31
0.0
 11
10.8744213146
 21
-20.0017279792
 31
0.0
  0
SPLINE
  5
418
100
AcDbEntity
  8
RACCORDO
100
AcDbSpline
 62
253
  6
CONTINUOUS
 70
0
 71
3
 72
9
 73
5
 74
3
 42
0.0000001
 43
0.0000001
 44
0.0000000001
 12
-0.0876102982
 22
-0.0697880999
 32
0.0
 13
-0.100677383
 23
-0.0490918301
 33
0.0
 40
0.0
 40
0.0
 40
0.0
 40
0.0
 40
0.2609748988
 40
1.0
 40
1.0
 40
1.0
 40
1.0
 10
10.8744213146
 20
-20.0017279792
 30
0.0
 10
10.8667999517
 20
-20.00779896
 30
0.0
 10
10.8370373385
 20
-20.0303386661
 30
0.0
 10
10.8049801698
 20
-20.0499436077
 30
0.0
 10
10.780179132
 20
-20.0620369726
 30
0.0
 11
10.8744213146
 21
-20.0017279792
 31
0.0
 11
10.8511090844
 21
-20.0193636744
 31
0.0
 11
10.780179132
 21
-20.0620369726
 31
0.0
  0
SPLINE
  5
419
100
AcDbEntity
  8
RACCORDO
100
AcDbSpline
 62
253
  6
CONTINUOUS
 70
0
 71
3
 72
16
 73
12
 74
10
 42
0.0000001
 43
0.0000001
 44
0.0000000001
 12
-1.3201583837
 22
-1.0303526434
 32
0.0
 13
1.6717782957
 23
-0.097990091
 33
0.0
 40
0.0
 40
0.0
 40
0.0
 40
0.0
 40
0.1139787727
 40
0.2104623738
 40
0.2560198306
 40
0.3022037585
 40
0.4031470455
 40
0.5236938132
 40
0.6659356494
 40
0.8267415881
 40
1.0
 40
1.0
 40
1.0
 40
1.0
 10
3.2879385641
 20
14.9810301388
 30
0.0
 10
3.2377818867
 20
14.9418840289
 30
0.0
 10
3.1523161326
 20
14.858303836
 30
0.0
 10
3.0926098068
 20
14.7228472056
 30
0.0
 10
3.0890965531
 20
14.6167258987
 30
0.0
 10
3.1123839388
 20
14.5106278849
 30
0.0
 10
3.1963739589
 20
14.3815527775
 30
0.0
 10
3.358636589
 20
14.2558076632
 30
0.0
 10
3.5744897774
 20
14.1556465823
 30
0.0
 10
3.8321913314
 20
14.086244708
 30
0.0
 10
4.0179444089
 20
14.0635312305
 30
0.0
 10
4.114494293
 20
14.057872028
 30
0.0
 11
3.2879385641
 21
14.9810301388
 31
0.0
 11
3.1558826635
 21
14.8432105792
 31
0.0
 11
3.0947941532
 21
14.693627796
 31
0.0
 11
3.0922646928
 21
14.6173770516
 31
0.0
 11
3.1085626868
 21
14.5417719567
 31
0.0
 11
3.1963105078
 21
14.3972854806
 31
0.0
 11
3.3524680324
 21
14.269349242
 31
0.0
 11
3.5671308302
 21
14.1660947786
 31
0.0
 11
3.8266149577
 21
14.0940749094
 31
0.0
 11
4.114494293
 21
14.057872028
 31
0.0
  0
SPLINE
  5
41A
100
AcDbEntity
  8
RACCORDO
100
AcDbSpline
 62
7
  6
CONTINUOUS
 70
0
 71
3
 72
11
 73
7
 74
5
 42
0.0000001
 43
0.0000001
 44
0.0000000001
 12
-0.0000002638
 22
0.3664157134
 32
0.0
 13
0.3270220175
 23
0.1652787798
 33
0.0
 40
0.0
 40
0.0
 40
0.0
 40
0.0
 40
0.2466715993
 40
0.5115594815
 40
0.7700940025
 40
1.0
 40
1.0
 40
1.0
 40
1.0
 10
-0.1019127432
 20
15.9656240105
 30
0.0
 10
-0.1019127649
 20
15.9957521271
 30
0.0
 10
-0.091498755
 20
16.0583360969
 30
0.0
 10
-0.0539018713
 20
16.1454122358
 30
0.0
 10
0.0013929354
 20
16.2199475961
 30
0.0
 10
0.0492562829
 20
16.2575733544
 30
0.0
 10
0.074317724
 20
16.2702395487
 30
0.0
 11
-0.1019127432
 21
15.9656240105
 31
0.0
 11
-0.0884839975
 21
16.0550052139
 31
0.0
 11
-0.0502967718
 21
16.1442363813
 31
0.0
 11
0.0068594853
 21
16.2197820341
 31
0.0
 11
0.074317724
 21
16.2702395487
 31
0.0
  0
LINE
  5
41B
100
AcDbEntity
  8
RACCORDO
100
AcDbLine
 62
7
  6
CONTINUOUS
 10
6.5237198735
 20
20.0478268409
 11
6.5590488937
 21
20.0301547692
  0
SPLINE
  5
41C
100
AcDbEntity
  8
RACCORDO
100
AcDbSpline
 62
253
  6
CONTINUOUS
 70
0
 71
3
 72
11
 73
7
 74
5
 42
0.0000001
 43
0.0000001
 44
0.0000000001
 12
0.3275212907
 22
-0.1652036415
 32
0.0
 13
0.0013148798
 23
-0.3668251765
 33
0.0
 40
0.0
 40
0.0
 40
0.0
 40
0.0
 40
0.2294912169
 40
0.4881410322
 40
0.7532792749
 40
1.0
 40
1.0
 40
1.0
 40
1.0
 10
0.8262689773
 20
16.2828276258
 30
0.0
 10
0.8513233972
 20
16.2701900309
 30
0.0
 10
0.8991924208
 20
16.2325091764
 30
0.0
 10
0.9545433393
 20
16.1579107537
 30
0.0
 10
0.9923416534
 20
16.0707573205
 30
0.0
 10
1.0029358538
 20
16.0081036208
 30
0.0
 10
1.0030439898
 20
15.9779358296
 30
0.0
 11
0.8262689773
 21
16.2828276258
 31
0.0
 11
0.8936806146
 21
16.2324037625
 31
0.0
 11
0.9509471123
 21
16.1567549774
 31
0.0
 11
0.9893503737
 21
16.0673978369
 31
0.0
 11
1.0030439898
 21
15.9779358296
 31
0.0
  0
SPLINE
  5
41D
100
AcDbEntity
  8
RACCORDO
100
AcDbSpline
 62
7
  6
CONTINUOUS
 70
0
 71
3
 72
11
 73
7
 74
5
 42
0.0000001
 43
0.0000001
 44
0.0000000001
 12
0.327629072
 22
-0.1652426533
 32
0.0
 13
-0.0013106476
 23
-0.3669389942
 33
0.0
 40
0.0
 40
0.0
 40
0.0
 40
0.0
 40
0.2292606313
 40
0.4876464799
 40
0.7527963637
 40
1.0
 40
1.0
 40
1.0
 40
1.0
 10
7.4335281426
 20
19.5929151448
 30
0.0
 10
7.4585656252
 20
19.5802872664
 30
0.0
 10
7.5063629508
 20
19.5425504867
 30
0.0
 10
7.5614012954
 20
19.4677407031
 30
0.0
 10
7.5987135491
 20
19.3803015486
 30
0.0
 10
7.6088684913
 20
19.3174882351
 30
0.0
 10
7.6087604923
 20
19.2872520172
 30
0.0
 11
7.4335281426
 21
19.5929151448
 31
0.0
 11
7.5008239014
 21
19.5424341535
 31
0.0
 11
7.5577568155
 21
19.4666183002
 31
0.0
 11
7.5956591534
 21
19.3770101352
 31
0.0
 11
7.6087604923
 21
19.2872520172
 31
0.0
  0
SPLINE
  5
41E
100
AcDbEntity
  8
RACCORDO
100
AcDbSpline
 62
7
  6
CONTINUOUS
 70
0
 71
3
 72
9
 73
5
 74
3
 42
0.0000001
 43
0.0000001
 44
0.0000000001
 12
0.0661094017
 22
0.1241530037
 32
0.0
 13
0.1258926818
 23
0.0627331968
 33
0.0
 40
0.0
 40
0.0
 40
0.0
 40
0.0
 40
0.568916069
 40
1.0
 40
1.0
 40
1.0
 40
1.0
 10
-1.9927718464
 20
25.8205219859
 30
0.0
 10
-1.9802349461
 20
25.8440661988
 30
0.0
 10
-1.9565103727
 20
25.8843844058
 30
0.0
 10
-1.9220492596
 20
25.9187197871
 30
0.0
 10
-1.9039591556
 20
25.9277342114
 30
0.0
 11
-1.9927718464
 21
25.8205219859
 31
0.0
 11
-1.9497653166
 21
25.8880051162
 31
0.0
 11
-1.9039591556
 21
25.9277342114
 31
0.0
  0
SPLINE
  5
41F
100
AcDbEntity
  8
RACCORDO
100
AcDbSpline
 62
7
  6
CONTINUOUS
 70
0
 71
3
 72
11
 73
7
 74
5
 42
0.0000001
 43
0.0000001
 44
0.0000000001
 12
-0.0000002848
 22
0.3664224179
 32
0.0
 13
0.3270334632
 23
0.1652709965
 33
0.0
 40
0.0
 40
0.0
 40
0.0
 40
0.0
 40
0.2466796101
 40
0.5115623434
 40
0.7700939282
 40
1.0
 40
1.0
 40
1.0
 40
1.0
 10
-10.2558486738
 20
21.0425914639
 30
0.0
 10
-10.2558486972
 20
21.0727211103
 30
0.0
 10
-10.2454542159
 20
21.1353096837
 30
0.0
 10
-10.2078457812
 20
21.2223852244
 30
0.0
 10
-10.1525500675
 20
21.2969195259
 30
0.0
 10
-10.1046842414
 20
21.3345438142
 30
0.0
 10
-10.0796219151
 20
21.347209416
 30
0.0
 11
-10.2558486738
 21
21.0425914639
 31
0.0
 11
-10.2424319533
 21
21.1319791137
 31
0.0
 11
-10.2042425169
 21
21.2212092146
 31
0.0
 11
-10.147083237
 21
21.2967534048
 31
0.0
 11
-10.0796219151
 21
21.347209416
 31
0.0
  0
SPLINE
  5
420
100
AcDbEntity
  8
RACCORDO
100
AcDbSpline
 62
253
  6
CONTINUOUS
 70
0
 71
3
 72
15
 73
11
 74
9
 42
0.0000001
 43
0.0000001
 44
0.0000000001
 12
0.5698597421
 22
-2.1382836494
 32
0.0
 13
1.9622931564
 23
1.0229382481
 33
0.0
 40
0.0
 40
0.0
 40
0.0
 40
0.0
 40
0.0825982833
 40
0.1827631252
 40
0.3026530642
 40
0.4388066808
 40
0.5846603429
 40
0.7321670985
 40
0.8730409593
 40
1.0
 40
1.0
 40
1.0
 40
1.0
 10
-12.9953110122
 20
22.6127746806
 30
0.0
 10
-12.9796212
 20
22.5539018277
 30
0.0
 10
-12.9073267777
 20
22.4336158866
 30
0.0
 10
-12.7277217759
 20
22.2962432526
 30
0.0
 10
-12.4854347049
 20
22.1898672877
 30
0.0
 10
-12.1956531686
 20
22.1214046644
 30
0.0
 10
-11.8788578598
 20
22.0951424079
 30
0.0
 10
-11.5579732248
 20
22.1132162565
 30
0.0
 10
-11.25667049
 20
22.1740964301
 30
0.0
 10
-11.0707310385
 20
22.2451034353
 30
0.0
 10
-10.9876874196
 20
22.2883938549
 30
0.0
 11
-12.9953110122
 21
22.6127746806
 31
0.0
 11
-12.9068889912
 21
22.4528022038
 31
0.0
 11
-12.7354722175
 21
22.3122751968
 31
0.0
 11
-12.4942037551
 21
22.2019257786
 31
0.0
 11
-12.2015604374
 21
22.1302356321
 31
0.0
 11
-11.8799756208
 21
22.1026956859
 31
0.0
 11
-11.5540925466
 21
22.1214113042
 31
0.0
 11
-11.2488879846
 21
22.1849192569
 31
0.0
 11
-10.9876874196
 21
22.2883938549
 31
0.0
  0
SPLINE
  5
421
100
AcDbEntity
  8
RACCORDO
100
AcDbSpline
 62
253
  6
CONTINUOUS
 70
0
 71
3
 72
9
 73
5
 74
3
 42
0.0000001
 43
0.0000001
 44
0.0000000001
 12
-0.1391330492
 22
0.0700034805
 32
0.0
 13
-0.0
 23
0.1557513809
 33
0.0
 40
0.0
 40
0.0
 40
0.0
 40
0.0
 40
0.4484649131
 40
1.0
 40
1.0
 40
1.0
 40
1.0
 10
0.9124072795
 20
-26.0847875385
 30
0.0
 10
0.8916085159
 20
-26.0743228369
 30
0.0
 10
0.8549386389
 20
-26.031550555
 30
0.0
 10
0.8475875933
 20
-25.9782848744
 30
0.0
 10
0.8475875933
 20
-25.9496507572
 30
0.0
 11
0.9124072795
 21
-26.0847875385
 31
0.0
 11
0.8646148357
 21
-26.033848661
 31
0.0
 11
0.8475875933
 21
-25.9496507572
 31
0.0
  0
SPLINE
  5
422
100
AcDbEntity
  8
RACCORDO
100
AcDbSpline
 62
253
  6
CONTINUOUS
 70
0
 71
3
 72
11
 73
7
 74
5
 42
0.0000001
 43
0.0000001
 44
0.0000000001
 12
0.3252767256
 22
-0.168447723
 32
0.0
 13
0.0013297113
 23
-0.3663029012
 33
0.0
 40
0.0
 40
0.0
 40
0.0
 40
0.0
 40
0.2285894278
 40
0.4871740073
 40
0.7527680404
 40
1.0
 40
1.0
 40
1.0
 40
1.0
 10
-9.3328124208
 20
21.3572506574
 30
0.0
 10
-9.3080274806
 20
21.3444155345
 30
0.0
 10
-9.2607517322
 20
21.3063311891
 30
0.0
 10
-9.2062006841
 20
21.2314159014
 30
0.0
 10
-9.1689430503
 20
21.1440797806
 30
0.0
 10
-9.1584860792
 20
21.0814018194
 30
0.0
 10
-9.1583764968
 20
21.0512145581
 30
0.0
 11
-9.3328124208
 21
21.3572506574
 31
0.0
 11
-9.2662981817
 21
21.3063865369
 31
0.0
 11
-9.2097917464
 21
21.2303663241
 31
0.0
 11
-9.171894884
 21
21.1407622996
 31
0.0
 11
-9.1583764968
 21
21.0512145581
 31
0.0
  0
SPLINE
  5
423
100
AcDbEntity
  8
RACCORDO
100
AcDbSpline
 62
253
  6
CONTINUOUS
 70
0
 71
3
 72
9
 73
5
 74
3
 42
0.0000001
 43
0.0000001
 44
0.0000000001
 12
0.0000197897
 22
-0.1191623104
 32
0.0
 13
0.106582012
 23
-0.053291006
 33
0.0
 40
0.0
 40
0.0
 40
0.0
 40
0.0
 40
0.4319578911
 40
1.0
 40
1.0
 40
1.0
 40
1.0
 10
-16.2292981059
 20
-17.3594283138
 30
0.0
 10
-16.2292952564
 20
-17.3765860139
 30
0.0
 10
-16.2107123273
 20
-17.415845466
 30
0.0
 10
-16.1762667328
 20
-17.4377235942
 30
0.0
 10
-16.1560857092
 20
-17.447814106
 30
0.0
 11
-16.2292981059
 21
-17.3594283138
 31
0.0
 11
-16.2102813937
 21
-17.4072597343
 31
0.0
 11
-16.1560857092
 21
-17.447814106
 31
0.0
  0
SPLINE
  5
424
100
AcDbEntity
  8
RACCORDO
100
AcDbSpline
 62
253
  6
CONTINUOUS
 70
0
 71
3
 72
9
 73
5
 74
3
 42
0.0000001
 43
0.0000001
 44
0.0000000001
 12
-0.1244884732
 22
0.0784274121
 32
0.0
 13
0.0
 23
0.1471334052
 33
0.0
 40
0.0
 40
0.0
 40
0.0
 40
0.0
 40
0.4505567198
 40
1.0
 40
1.0
 40
1.0
 40
1.0
 10
-16.0991428873
 20
-17.5785006128
 30
0.0
 10
-16.11783926
 20
-17.566721947
 30
0.0
 10
-16.1493897295
 20
-17.5247596381
 30
0.0
 10
-16.1560857092
 20
-17.4747612596
 30
0.0
 10
-16.1560857092
 20
-17.447814106
 30
0.0
 11
-16.0991428873
 21
-17.5785006128
 31
0.0
 11
-16.1412243169
 21
-17.5272778134
 31
0.0
 11
-16.1560857092
 21
-17.447814106
 31
0.0
  0
SPLINE
  5
425
100
AcDbEntity
  8
RACCORDO
100
AcDbSpline
 62
253
  6
CONTINUOUS
 70
0
 71
3
 72
9
 73
5
 74
3
 42
0.0000001
 43
0.0000001
 44
0.0000000001
 12
-0.0805198388
 22
0.0109443124
 32
0.0
 13
-0.0808521775
 23
-0.0081331293
 33
0.0
 40
0.0
 40
0.0
 40
0.0
 40
0.0
 40
0.2439672843
 40
1.0
 40
1.0
 40
1.0
 40
1.0
 10
-3.4337493862
 20
26.0953840579
 30
0.0
 10
-3.440297455
 20
26.096274076
 30
0.0
 10
-3.4672498803
 20
26.0990722159
 30
0.0
 10
-3.494519399
 20
26.098516807
 30
0.0
 10
-3.5148950294
 20
26.0964671697
 30
0.0
 11
-3.4337493862
 21
26.0953840579
 31
0.0
 11
-3.4534673484
 21
26.0974397818
 31
0.0
 11
-3.5148950294
 21
26.0964671697
 31
0.0
  0
SPLINE
  5
426
100
AcDbEntity
  8
RACCORDO
100
AcDbSpline
 62
253
  6
CONTINUOUS
 70
0
 71
3
 72
9
 73
5
 74
3
 42
0.0000001
 43
0.0000001
 44
0.0000000001
 12
-0.1366202983
 22
-0.0285485882
 32
0.0
 13
-0.1240982604
 23
-0.0638729173
 33
0.0
 40
0.0
 40
0.0
 40
0.0
 40
0.0
 40
0.2390843693
 40
1.0
 40
1.0
 40
1.0
 40
1.0
 10
-3.5572777096
 20
26.0898844831
 30
0.0
 10
-3.5681656355
 20
26.0876093093
 30
0.0
 10
-3.6133314021
 20
26.0763205804
 30
0.0
 10
-3.6567303781
 20
26.0584406041
 30
0.0
 10
-3.6882064802
 20
26.0422399704
 30
0.0
 11
-3.5572777096
 21
26.0898844831
 31
0.0
 11
-3.5896615011
 21
26.0818346276
 31
0.0
 11
-3.6882064802
 21
26.0422399704
 31
0.0
  0
SPLINE
  5
427
100
AcDbEntity
  8
RACCORDO
100
AcDbSpline
 62
253
  6
CONTINUOUS
 70
0
 71
3
 72
9
 73
5
 74
3
 42
0.0000001
 43
0.0000001
 44
0.0000000001
 12
0.2300942994
 22
0.1214374789
 32
0.0
 13
0.2579620543
 23
-0.033853012
 33
0.0
 40
0.0
 40
0.0
 40
0.0
 40
0.0
 40
0.5306268448
 40
1.0
 40
1.0
 40
1.0
 40
1.0
 10
10.6350608992
 20
18.8806062807
 30
0.0
 10
10.6757589699
 20
18.9020856094
 30
0.0
 10
10.7573736057
 20
18.9344777156
 30
0.0
 10
10.8459216497
 20
18.9406650277
 30
0.0
 10
10.8862818041
 20
18.9353684627
 30
0.0
 11
10.6350608992
 21
18.8806062807
 31
0.0
 11
10.7643250073
 21
18.9290835028
 31
0.0
 11
10.8862818041
 21
18.9353684627
 31
0.0
  0
SPLINE
  5
428
100
AcDbEntity
  8
RACCORDO
100
AcDbSpline
 62
253
  6
CONTINUOUS
 70
0
 71
3
 72
9
 73
5
 74
3
 42
0.0000001
 43
0.0000001
 44
0.0000000001
 12
0.0812692878
 22
-0.010638606
 32
0.0
 13
0.0736462807
 23
-0.0359736349
 33
0.0
 40
0.0
 40
0.0
 40
0.0
 40
0.0
 40
0.2827330722
 40
1.0
 40
1.0
 40
1.0
 40
1.0
 10
10.8862818041
 20
18.9353684627
 30
0.0
 10
10.8939409759
 20
18.9343658341
 30
0.0
 10
10.9208921451
 20
18.9300895932
 30
0.0
 10
10.9475852736
 20
18.9224938327
 30
0.0
 10
10.9651932874
 20
18.9138929332
 30
0.0
 11
10.8862818041
 21
18.9353684627
 31
0.0
 11
10.9091603224
 21
18.9316824089
 31
0.0
 11
10.9651932874
 21
18.9138929332
 31
0.0
  0
SPLINE
  5
429
100
AcDbEntity
  8
RACCORDO
100
AcDbSpline
 62
253
  6
CONTINUOUS
 70
0
 71
3
 72
9
 73
5
 74
3
 42
0.0000001
 43
0.0000001
 44
0.0000000001
 12
-0.4584895277
 22
-0.4021367108
 32
0.0
 13
-0.5537015985
 23
-0.2556190937
 33
0.0
 40
0.0
 40
0.0
 40
0.0
 40
0.0
 40
0.4922208826
 40
1.0
 40
1.0
 40
1.0
 40
1.0
 10
4.9500710553
 20
-24.2183624702
 30
0.0
 10
4.8748450153
 20
-24.2843424991
 30
0.0
 10
4.7144571731
 20
-24.4099269083
 30
0.0
 10
4.5383924978
 20
-24.5137587185
 30
0.0
 10
4.4446731282
 20
-24.5570247311
 30
0.0
 11
4.9500710553
 21
-24.2183624702
 31
0.0
 11
4.7131543198
 21
-24.4027027865
 31
0.0
 11
4.4446731282
 21
-24.5570247311
 31
0.0
  0
SPLINE
  5
42A
100
AcDbEntity
  8
RACCORDO
100
AcDbSpline
 62
253
  6
CONTINUOUS
 70
0
 71
3
 72
11
 73
7
 74
5
 42
0.0000001
 43
0.0000001
 44
0.0000000001
 12
-0.3240734585
 22
-0.1564770506
 32
0.0
 13
-0.321880318
 23
0.160940159
 33
0.0
 40
0.0
 40
0.0
 40
0.0
 40
0.0
 40
0.2366229821
 40
0.501240992
 40
0.7651859364
 40
1.0
 40
1.0
 40
1.0
 40
1.0
 10
1.1980288812
 20
-25.9511798846
 30
0.0
 10
1.1724678051
 20
-25.9635219067
 30
0.0
 10
1.1141709225
 20
-25.9810701394
 30
0.0
 10
1.0222553841
 20
-25.9891914044
 30
0.0
 10
0.930630356
 20
-25.9803155508
 30
0.0
 10
0.8727816018
 20
-25.9622477615
 30
0.0
 10
0.8475875933
 20
-25.9496507572
 30
0.0
 11
1.1980288812
 21
-25.9511798846
 31
0.0
 11
1.1170005436
 21
-25.9773649105
 31
0.0
 11
1.0221872409
 21
-25.9862521767
 31
0.0
 11
0.9276982797
 21
-25.9765409254
 31
0.0
 11
0.8475875933
 21
-25.9496507572
 31
0.0
  0
SPLINE
  5
42B
100
AcDbEntity
  8
RACCORDO
100
AcDbSpline
 62
253
  6
CONTINUOUS
 70
0
 71
3
 72
11
 73
7
 74
5
 42
0.0000001
 43
0.0000001
 44
0.0000000001
 12
-0.3240734585
 22
-0.1564770506
 32
0.0
 13
-0.321880318
 23
0.160940159
 33
0.0
 40
0.0
 40
0.0
 40
0.0
 40
0.0
 40
0.2366229821
 40
0.501240992
 40
0.7651859364
 40
1.0
 40
1.0
 40
1.0
 40
1.0
 10
1.1980288812
 20
12.1944898631
 30
0.0
 10
1.1724678051
 20
12.182147841
 30
0.0
 10
1.1141709225
 20
12.1645996083
 30
0.0
 10
1.0222553841
 20
12.1564783433
 30
0.0
 10
0.930630356
 20
12.1653541969
 30
0.0
 10
0.8727816018
 20
12.1834219862
 30
0.0
 10
0.8475875933
 20
12.1960189905
 30
0.0
 11
1.1980288812
 21
12.1944898631
 31
0.0
 11
1.1170005436
 21
12.1683048372
 31
0.0
 11
1.0221872409
 21
12.159417571
 31
0.0
 11
0.9276982797
 21
12.1691288223
 31
0.0
 11
0.8475875933
 21
12.1960189905
 31
0.0
  0
SPLINE
  5
42C
100
AcDbEntity
  8
RACCORDO
100
AcDbSpline
 62
253
  6
CONTINUOUS
 70
0
 71
3
 72
11
 73
7
 74
5
 42
0.0000001
 43
0.0000001
 44
0.0000000001
 12
0.3250589094
 22
-0.1684258008
 32
0.0
 13
0.0053439812
 23
-0.3660628182
 33
0.0
 40
0.0
 40
0.0
 40
0.0
 40
0.0
 40
0.2289723402
 40
0.4879251156
 40
0.7534644965
 40
1.0
 40
1.0
 40
1.0
 40
1.0
 10
1.0212791098
 20
12.4993381247
 30
0.0
 10
1.0460889429
 20
12.4864831748
 30
0.0
 10
1.093470724
 20
12.4484848938
 30
0.0
 10
1.1484698371
 20
12.3738837618
 30
0.0
 10
1.1864727442
 20
12.2869997843
 30
0.0
 10
1.1975897208
 20
12.2245723568
 30
0.0
 10
1.1980288812
 20
12.1944898631
 30
0.0
 11
1.0212791098
 21
12.4993381247
 31
0.0
 11
1.0879683013
 21
12.4485488568
 31
0.0
 11
1.1449581852
 21
12.3727875361
 31
0.0
 11
1.1836118783
 21
12.2835880878
 31
0.0
 11
1.1980288812
 21
12.1944898631
 31
0.0
  0
SPLINE
  5
42D
100
AcDbEntity
  8
RACCORDO
100
AcDbSpline
 62
253
  6
CONTINUOUS
 70
0
 71
3
 72
11
 73
7
 74
5
 42
0.0000001
 43
0.0000001
 44
0.0000000001
 12
0.8359612826
 22
0.0754618631
 32
0.0
 13
0.836034906
 23
0.0746417753
 33
0.0
 40
0.0
 40
0.0
 40
0.0
 40
0.0
 40
0.285689595
 40
0.5466926079
 40
0.7842466188
 40
1.0
 40
1.0
 40
1.0
 40
1.0
 10
4.114494293
 20
14.057872028
 30
0.0
 10
4.1941027731
 20
14.065058251
 30
0.0
 10
4.3471943538
 20
14.0690850815
 30
0.0
 10
4.5665520196
 20
14.0704342814
 30
0.0
 10
4.766393407
 20
14.0741772564
 30
0.0
 10
4.8930943699
 20
14.0811960791
 30
0.0
 10
4.9532201558
 20
14.0865641509
 30
0.0
 11
4.114494293
 21
14.057872028
 31
0.0
 11
4.354058525
 21
14.0684240833
 31
0.0
 11
4.5731194731
 21
14.0709555398
 31
0.0
 11
4.7724595593
 21
14.0755667096
 31
0.0
 11
4.9532201558
 21
14.0865641509
 31
0.0
  0
SPLINE
  5
42E
100
AcDbEntity
  8
RACCORDO
100
AcDbSpline
 62
253
  6
CONTINUOUS
 70
0
 71
3
 72
10
 73
6
 74
4
 42
0.0000001
 43
0.0000001
 44
0.0000000001
 12
-0.3211222823
 22
-0.1674260937
 32
0.0
 13
0.0
 23
-0.3621477835
 33
0.0
 40
0.0
 40
0.0
 40
0.0
 40
0.0
 40
0.2317023484
 40
0.4913625119
 40
1.0
 40
1.0
 40
1.0
 40
1.0
 10
-15.9823941926
 20
21.001174776
 30
0.0
 10
-16.0071957883
 20
20.9882437696
 30
0.0
 10
-16.0544843351
 20
20.9503489754
 30
0.0
 10
-16.1260674489
 20
20.8527658503
 30
0.0
 10
-16.1560857092
 20
20.759256288
 30
0.0
 10
-16.1560857092
 20
20.6978556417
 30
0.0
 11
-15.9823941926
 21
21.001174776
 31
0.0
 11
-16.0490997287
 21
20.9502695493
 31
0.0
 11
-16.1053917269
 21
20.8749445303
 31
0.0
 11
-16.1560857092
 21
20.6978556417
 31
0.0
  0
SPLINE
  5
42F
100
AcDbEntity
  8
RACCORDO
100
AcDbSpline
 62
253
  6
CONTINUOUS
 70
0
 71
3
 72
10
 73
6
 74
4
 42
0.0000001
 43
0.0000001
 44
0.0000000001
 12
-0.3211220575
 22
-0.1674259765
 32
0.0
 13
-0.0
 23
-0.3621475299
 33
0.0
 40
0.0
 40
0.0
 40
0.0
 40
0.0
 40
0.2316783968
 40
0.4913382857
 40
1.0
 40
1.0
 40
1.0
 40
1.0
 10
1.0212791098
 20
12.4993381247
 30
0.0
 10
0.9964800954
 20
12.4864084641
 30
0.0
 10
0.9491937176
 20
12.4485161695
 30
0.0
 10
0.8776077783
 20
12.3509352232
 30
0.0
 10
0.8475875933
 20
12.2574225183
 30
0.0
 10
0.8475875933
 20
12.1960189905
 30
0.0
 11
1.0212791098
 21
12.4993381247
 31
0.0
 11
0.9545799152
 21
12.4484389831
 31
0.0
 11
0.8982859977
 21
12.3731156049
 31
0.0
 11
0.8475875933
 21
12.1960189905
 31
0.0
  0
SPLINE
  5
430
100
AcDbEntity
  8
RACCORDO
100
AcDbSpline
 62
253
  6
CONTINUOUS
 70
0
 71
3
 72
9
 73
5
 74
3
 42
0.0000001
 43
0.0000001
 44
0.0000000001
 12
-0.107262651
 22
0.0517523928
 32
0.0
 13
-0.1047747033
 23
-0.0566202084
 33
0.0
 40
0.0
 40
0.0
 40
0.0
 40
0.0
 40
0.5375426522
 40
1.0
 40
1.0
 40
1.0
 40
1.0
 10
-15.9823941926
 20
21.001174776
 30
0.0
 10
-16.0016136093
 20
21.0104478155
 30
0.0
 10
-16.0406015173
 20
21.0228244551
 30
0.0
 10
-16.0818636338
 20
21.014984657
 30
0.0
 10
-16.0980149109
 20
21.0062565132
 30
0.0
 11
-15.9823941926
 21
21.001174776
 31
0.0
 11
-16.0441860736
 21
21.0179121767
 31
0.0
 11
-16.0980149109
 21
21.0062565132
 31
0.0
  0
LINE
  5
431
100
AcDbEntity
  8
RACCORDO
100
AcDbLine
 62
253
  6
CONTINUOUS
 10
-18.705314589
 20
-14.2138577047
 11
-18.7082241447
 21
-14.1232038137
  0
SPLINE
  5
432
100
AcDbEntity
  8
RACCORDO
100
AcDbSpline
 62
253
  6
CONTINUOUS
 70
0
 71
3
 72
11
 73
7
 74
5
 42
0.0000001
 43
0.0000001
 44
0.0000000001
 12
1.0300345388
 22
-0.473758522
 32
0.0
 13
1.0143714725
 23
0.5064274914
 33
0.0
 40
0.0
 40
0.0
 40
0.0
 40
0.0
 40
0.2380606007
 40
0.5024377386
 40
0.7655081007
 40
1.0
 40
1.0
 40
1.0
 40
1.0
 10
-0.1019215462
 20
15.9656203626
 30
0.0
 10
-0.0201846658
 20
15.9280259498
 30
0.0
 10
0.1644169302
 20
15.8748656029
 30
0.0
 10
0.4542767913
 20
15.851505425
 30
0.0
 10
0.7422022932
 20
15.8810385597
 30
0.0
 10
0.9237566921
 20
15.9383514482
 30
0.0
 10
1.0030439898
 20
15.9779358296
 30
0.0
 11
-0.1019215462
 21
15.9656203626
 31
0.0
 11
0.1560155658
 21
15.8861422929
 31
0.0
 11
0.4546701952
 21
15.8606457826
 31
0.0
 11
0.7511938783
 21
15.8927765035
 31
0.0
 11
1.0030439898
 21
15.9779358296
 31
0.0
  0
SPLINE
  5
433
100
AcDbEntity
  8
RACCORDO
100
AcDbSpline
 62
253
  6
CONTINUOUS
 70
0
 71
3
 72
11
 73
7
 74
5
 42
0.0000001
 43
0.0000001
 44
0.0000000001
 12
-0.3161331516
 22
0.1718206372
 32
0.0
 13
-0.0000462777
 23
0.3598089754
 33
0.0
 40
0.0
 40
0.0
 40
0.0
 40
0.0
 40
0.2992686752
 40
0.5610573261
 40
0.7902028865
 40
1.0
 40
1.0
 40
1.0
 40
1.0
 10
-0.1019215462
 20
15.9656203614
 30
0.0
 10
-0.133457796
 20
15.9827605396
 30
0.0
 10
-0.1904311504
 20
16.0192885029
 30
0.0
 10
-0.2591630864
 20
16.0857043702
 30
0.0
 10
-0.3029086223
 20
16.158915012
 30
0.0
 10
-0.3132730437
 20
16.2119415426
 30
0.0
 10
-0.31327628
 20
16.2371038375
 30
0.0
 11
-0.1019215462
 21
15.9656203614
 31
0.0
 11
-0.1919118907
 21
16.0247526262
 31
0.0
 11
-0.258575023
 21
16.0912997442
 31
0.0
 11
-0.2994732055
 21
16.1628896545
 31
0.0
 11
-0.31327628
 21
16.2371038375
 31
0.0
  0
SPLINE
  5
434
100
AcDbEntity
  8
RACCORDO
100
AcDbSpline
 62
253
  6
CONTINUOUS
 70
0
 71
3
 72
11
 73
7
 74
5
 42
0.0000001
 43
0.0000001
 44
0.0000000001
 12
1.0225141528
 22
-0.4703053311
 32
0.0
 13
1.0121104518
 23
0.4922953691
 33
0.0
 40
0.0
 40
0.0
 40
0.0
 40
0.0
 40
0.2376123158
 40
0.5015041431
 40
0.76459065
 40
1.0
 40
1.0
 40
1.0
 40
1.0
 10
-10.2558569497
 20
21.0425880665
 30
0.0
 10
-10.1748696311
 20
21.0053379535
 30
0.0
 10
-9.9920525547
 20
20.9524421497
 30
0.0
 10
-9.7047329007
 20
20.9285727082
 30
0.0
 10
-9.4186467298
 20
20.9567882184
 30
0.0
 10
-9.2377965847
 20
21.0125842471
 30
0.0
 10
-9.1583764968
 20
21.0512145581
 30
0.0
 11
-10.2558569497
 21
21.0425880665
 31
0.0
 11
-10.000366476
 21
20.9635737131
 31
0.0
 11
-9.7045005879
 21
20.9375637289
 31
0.0
 11
-9.4099907027
 21
20.9682148417
 31
0.0
 11
-9.1583764968
 21
21.0512145581
 31
0.0
  0
SPLINE
  5
435
100
AcDbEntity
  8
RACCORDO
100
AcDbSpline
 62
253
  6
CONTINUOUS
 70
0
 71
3
 72
11
 73
7
 74
5
 42
0.0000001
 43
0.0000001
 44
0.0000000001
 12
-0.316131883
 22
0.1718227993
 32
0.0
 13
-0.0000673215
 23
0.3598088899
 33
0.0
 40
0.0
 40
0.0
 40
0.0
 40
0.0
 40
0.2992628988
 40
0.561058585
 40
0.7902036665
 40
1.0
 40
1.0
 40
1.0
 40
1.0
 10
-10.2558569497
 20
21.0425880646
 30
0.0
 10
-10.2873924642
 20
21.0597281276
 30
0.0
 10
-10.3443654525
 20
21.0962568616
 30
0.0
 10
-10.4130982043
 20
21.1626715091
 30
0.0
 10
-10.4568456243
 20
21.2358827517
 30
0.0
 10
-10.4672065493
 20
21.2889093266
 30
0.0
 10
-10.4672112573
 20
21.3140715219
 30
0.0
 11
-10.2558569497
 21
21.0425880646
 31
0.0
 11
-10.3458452455
 21
21.1017196176
 31
0.0
 11
-10.4125108584
 21
21.1682678033
 31
0.0
 11
-10.4534090696
 21
21.239857477
 31
0.0
 11
-10.4672112573
 21
21.3140715219
 31
0.0
  0
SPLINE
  5
436
100
AcDbEntity
  8
RACCORDO
100
AcDbSpline
 62
253
  6
CONTINUOUS
 70
0
 71
3
 72
15
 73
11
 74
9
 42
0.0000001
 43
0.0000001
 44
0.0000000001
 12
0.4718011506
 22
-1.777911536
 32
0.0
 13
1.6281728111
 23
0.855931687
 33
0.0
 40
0.0
 40
0.0
 40
0.0
 40
0.0
 40
0.0827566608
 40
0.1829427199
 40
0.3027730562
 40
0.4388313495
 40
0.5845951098
 40
0.7320511058
 40
0.8729377111
 40
1.0
 40
1.0
 40
1.0
 40
1.0
 10
-12.7995918164
 20
22.7981522802
 30
0.0
 10
-12.7865769205
 20
22.7491076062
 30
0.0
 10
-12.7265902082
 20
22.6489257873
 30
0.0
 10
-12.5773262263
 20
22.5345373339
 30
0.0
 10
-12.3759699449
 20
22.446191009
 30
0.0
 10
-12.1351708271
 20
22.3895710005
 30
0.0
 10
-11.8719380556
 20
22.3682252455
 30
0.0
 10
-11.6053161719
 20
22.3838786153
 30
0.0
 10
-11.3549684879
 20
22.4352312485
 30
0.0
 10
-11.2005367068
 20
22.4947969492
 30
0.0
 10
-11.1315769188
 20
22.5310491623
 30
0.0
 11
-12.7995918164
 21
22.7981522802
 31
0.0
 11
-12.726124931
 21
22.6648273957
 31
0.0
 11
-12.5837032035
 21
22.5478755474
 31
0.0
 11
-12.3832369363
 21
22.4562297969
 31
0.0
 11
-12.14009103
 21
22.3969325706
 31
0.0
 11
-11.8729042241
 21
22.3745253804
 31
0.0
 11
-11.602150509
 21
22.3907183424
 31
0.0
 11
-11.3485862324
 21
22.4442503393
 31
0.0
 11
-11.1315769188
 21
22.5310491623
 31
0.0
  0
SPLINE
  5
437
100
AcDbEntity
  8
RACCORDO
100
AcDbSpline
 62
253
  6
CONTINUOUS
 70
0
 71
3
 72
11
 73
7
 74
5
 42
0.0000001
 43
0.0000001
 44
0.0000000001
 12
0.8511209823
 22
-0.0481945863
 32
0.0
 13
0.7952523525
 23
-0.3070884895
 33
0.0
 40
0.0
 40
0.0
 40
0.0
 40
0.0
 40
0.2907493948
 40
0.5602443617
 40
0.7976495145
 40
1.0
 40
1.0
 40
1.0
 40
1.0
 10
4.1388920907
 20
14.3289103266
 30
0.0
 10
4.2213797276
 20
14.3242394777
 30
0.0
 10
4.3788073936
 20
14.2931156546
 30
0.0
 10
4.5948289676
 20
14.2246358537
 30
0.0
 10
4.7834830931
 20
14.1534751018
 30
0.0
 10
4.8995802559
 20
14.1072774198
 30
0.0
 10
4.9532201558
 20
14.0865642515
 30
0.0
 11
4.1388920907
 21
14.3289103266
 31
0.0
 11
4.3832444635
 21
14.287363227
 31
0.0
 11
4.6028273146
 21
14.2198061711
 31
0.0
 11
4.7925526509
 21
14.14935295
 31
0.0
 11
4.9532201558
 21
14.0865642515
 31
0.0
  0
SPLINE
  5
438
100
AcDbEntity
  8
RACCORDO
100
AcDbSpline
 62
253
  6
CONTINUOUS
 70
0
 71
3
 72
10
 73
6
 74
4
 42
0.0000001
 43
0.0000001
 44
0.0000000001
 12
0.1457588647
 22
0.0674339752
 32
0.0
 13
0.0023117207
 23
0.1605853156
 33
0.0
 40
0.0
 40
0.0
 40
0.0
 40
0.0
 40
0.2167275257
 40
0.450246699
 40
1.0
 40
1.0
 40
1.0
 40
1.0
 10
1.1291826418
 20
-26.0882239358
 30
0.0
 10
1.1397126278
 20
-26.0833523363
 30
0.0
 10
1.1597973151
 20
-26.068891086
 30
0.0
 10
1.1903014918
 20
-26.0239457326
 30
0.0
 10
1.1976052558
 20
-25.9806073204
 30
0.0
 10
1.1980288812
 20
-25.9511798846
 30
0.0
 11
1.1291826418
 21
-26.0882239358
 31
0.0
 11
1.1575769062
 21
-26.0680922807
 31
0.0
 11
1.1791805195
 21
-26.0374360159
 31
0.0
 11
1.1980288812
 21
-25.9511798846
 31
0.0
  0
SPLINE
  5
439
100
AcDbEntity
  8
RACCORDO
100
AcDbSpline
 62
253
  6
CONTINUOUS
 70
0
 71
3
 72
26
 73
22
 74
20
 42
0.0000001
 43
0.0000001
 44
0.0000000001
 12
-18.1545508616
 22
9.0783968931
 32
0.0
 13
18.155469749
 23
-9.0765591128
 33
0.0
 40
0.0
 40
0.0
 40
0.0
 40
0.0
 40
0.0631546742
 40
0.1316628535
 40
0.2043607125
 40
0.2796811771
 40
0.3558578393
 40
0.4310806555
 40
0.5036439843
 40
0.5720945526
 40
0.6353933054
 40
0.6931034017
 40
0.7456057873
 40
0.7703601711
 40
0.7944191125
 40
0.8181027761
 40
0.8417616596
 40
0.8657493528
 40
0.8903944665
 40
0.9426004004
 40
1.0
 40
1.0
 40
1.0
 40
1.0
 10
-10.4308251848
 20
-10.8510571481
 30
0.0
 10
-10.8130067663
 20
-10.6599427489
 30
0.0
 10
-11.5713837339
 20
-10.1825009626
 30
0.0
 10
-12.6156258473
 20
-9.2694763654
 30
0.0
 10
-13.5802652665
 20
-8.1612707703
 30
0.0
 10
-14.4281577248
 20
-6.8990017444
 30
0.0
 10
-15.1268822697
 20
-5.5292710042
 30
0.0
 10
-15.6492635433
 20
-4.1027411377
 30
0.0
 10
-15.9748873326
 20
-2.6719635007
 30
0.0
 10
-16.090833908
 20
-1.2893342146
 30
0.0
 10
-15.9913556811
 20
-0.004705306
 30
0.0
 10
-15.6781725513
 20
1.1352356247
 30
0.0
 10
-15.2337800484
 20
1.9458770386
 30
0.0
 10
-14.7828585592
 20
2.4651383101
 30
0.0
 10
-14.4082400006
 20
2.784807465
 30
0.0
 10
-13.9945487814
 20
3.0381957083
 30
0.0
 10
-13.5463195155
 20
3.2225217788
 30
0.0
 10
-13.0684368443
 20
3.3357083525
 30
0.0
 10
-12.3861496785
 20
3.39150717
 30
0.0
 10
-11.4748564109
 20
3.2681788904
 30
0.0
 10
-10.7781974161
 20
2.9963495253
 30
0.0
 10
-10.4308251848
 20
2.8226859057
 30
0.0
 11
-10.4308251848
 21
-10.8510571481
 31
0.0
 11
-11.5208510401
 21
-10.1764232412
 31
0.0
 11
-12.5724555172
 21
-9.2665769778
 31
0.0
 11
-13.5445476465
 21
-8.1564082589
 31
0.0
 11
-14.3987042804
 21
-6.8884209283
 31
0.0
 11
-15.1010972555
 21
-5.5109372375
 31
0.0
 11
-15.6238183865
 21
-4.0763357424
 31
0.0
 11
-15.9460419621
 21
-2.639130731
 31
0.0
 11
-16.0549021974
 21
-1.2539986821
 31
0.0
 11
-15.9460421057
 21
0.0262134774
 31
0.0
 11
-15.6238187976
 21
1.1524178821
 31
0.0
 11
-15.1010978498
 21
2.0811023388
 31
0.0
 11
-14.7707661432
 21
2.4597171715
 31
0.0
 11
-14.3987050178
 21
2.7760278946
 31
0.0
 11
-13.9885998346
 21
3.0268543436
 31
0.0
 11
-13.5445486615
 21
3.2097077796
 31
0.0
 11
-13.0709411864
 21
3.3227012501
 31
0.0
 11
-12.5724566285
 21
3.3646228105
 31
0.0
 11
-11.5208517182
 21
3.2341234285
 31
0.0
 11
-10.4308251848
 21
2.8226859057
 31
0.0
  0
SPLINE
  5
43A
100
AcDbEntity
  8
RACCORDO
100
AcDbSpline
 62
253
  6
CONTINUOUS
 70
0
 71
3
 72
26
 73
22
 74
20
 42
0.0000001
 43
0.0000001
 44
0.0000000001
 12
18.0577889263
 22
-9.0299263403
 32
0.0
 13
-18.0587108919
 23
9.0280823845
 33
0.0
 40
0.0
 40
0.0
 40
0.0
 40
0.0
 40
0.0633784554
 40
0.1320170213
 40
0.2048744562
 40
0.2804649443
 40
0.3570491383
 40
0.4327868807
 40
0.5058912644
 40
0.5747910515
 40
0.6383156098
 40
0.6959167362
 40
0.7479322673
 40
0.7723222493
 40
0.7959666629
 40
0.8192191109
 40
0.8424673663
 40
0.8661000589
 40
0.8904732572
 40
0.9424411762
 40
1.0
 40
1.0
 40
1.0
 40
1.0
 10
-10.4308251848
 20
2.8226859057
 30
0.0
 10
-10.049333595
 20
2.6319183112
 30
0.0
 10
-9.2940958872
 20
2.1532722324
 30
0.0
 10
-8.260540912
 20
1.2335922952
 30
0.0
 10
-7.3126158418
 20
0.1161040765
 30
0.0
 10
-6.4848310935
 20
-1.1565777636
 30
0.0
 10
-5.8064487214
 20
-2.5362466446
 30
0.0
 10
-5.3014896286
 20
-3.9707122757
 30
0.0
 10
-4.9876455174
 20
-5.4061977101
 30
0.0
 10
-4.8759093459
 20
-6.7895876338
 30
0.0
 10
-4.9711869709
 20
-8.0710439784
 30
0.0
 10
-5.2721822092
 20
-9.2047362721
 30
0.0
 10
-5.7020604859
 20
-10.0102343248
 30
0.0
 10
-6.1405641692
 20
-10.5241847948
 30
0.0
 10
-6.5051878032
 20
-10.839037529
 30
0.0
 10
-6.909000753
 20
-11.0875369368
 30
0.0
 10
-7.3477814489
 20
-11.267022272
 30
0.0
 10
-7.8169138086
 20
-11.3756176661
 30
0.0
 10
-8.490164474
 20
-11.425917953
 30
0.0
 10
-9.3931199698
 20
-11.2965406259
 30
0.0
 10
-10.0843457986
 20
-11.0242724159
 30
0.0
 10
-10.4308251848
 20
-10.8510571481
 30
0.0
 11
-10.4308251848
 21
2.8226859057
 31
0.0
 11
-9.3447542414
 21
2.1460745848
 31
0.0
 11
-8.3044071446
 21
1.2305996521
 31
0.0
 11
-7.3491535924
 21
0.1120116654
 31
0.0
 11
-6.5148459771
 21
-1.1659001314
 31
0.0
 11
-5.8322875721
 21
-2.5533010489
 31
0.0
 11
-5.3263703038
 21
-3.9963044594
 31
0.0
 11
-5.0153698704
 21
-5.4391211426
 31
0.0
 11
-4.910450168
 21
-6.8262236457
 31
0.0
 11
-5.0153697476
 21
-8.1044656273
 31
0.0
 11
-5.3263699054
 21
-9.2250583771
 31
0.0
 11
-5.8322869903
 21
-10.1453408562
 31
0.0
 11
-6.1528975581
 21
-10.5190951064
 31
0.0
 11
-6.5148452645
 21
-10.8303491049
 31
0.0
 11
-6.9148333062
 21
-11.0761169715
 31
0.0
 11
-7.3491526141
 21
-11.2541044681
 31
0.0
 11
-7.8137874341
 21
-11.3626116031
 31
0.0
 11
-8.3044060566
 21
-11.4006001949
 31
0.0
 11
-9.3447535936
 21
-11.2644721276
 31
0.0
 11
-10.4308251848
 21
-10.8510571481
 31
0.0
  0
SPLINE
  5
43B
100
AcDbEntity
  8
RACCORDO
100
AcDbSpline
 62
253
  6
CONTINUOUS
 70
0
 71
3
 72
9
 73
5
 74
3
 42
0.0000001
 43
0.0000001
 44
0.0000000001
 12
0.0000123007
 22
-0.119164943
 32
0.0
 13
0.1065843658
 23
-0.0532921829
 33
0.0
 40
0.0
 40
0.0
 40
0.0
 40
0.0
 40
0.4319319077
 40
1.0
 40
1.0
 40
1.0
 40
1.0
 10
-16.2292979536
 20
20.7862439896
 30
0.0
 10
-16.2292961825
 20
20.7690869426
 30
0.0
 10
-16.2107151447
 20
20.7298252911
 30
0.0
 10
-16.1762681016
 20
20.7079468379
 30
0.0
 10
-16.1560857092
 20
20.6978556417
 30
0.0
 11
-16.2292979536
 21
20.7862439896
 31
0.0
 11
-16.2102846523
 21
20.7384133219
 31
0.0
 11
-16.1560857092
 21
20.6978556417
 31
0.0
  0
SPLINE
  5
43C
100
AcDbEntity
  8
RACCORDO
100
AcDbSpline
 62
253
  6
CONTINUOUS
 70
0
 71
3
 72
9
 73
5
 74
3
 42
0.0000001
 43
0.0000001
 44
0.0000000001
 12
-0.1258389867
 22
0.0610729258
 32
0.0
 13
-0.1395261221
 23
-0.0098901
 33
0.0
 40
0.0
 40
0.0
 40
0.0
 40
0.0
 40
0.2441342873
 40
1.0
 40
1.0
 40
1.0
 40
1.0
 10
7.2065525403
 20
20.6919315985
 30
0.0
 10
7.1963120032
 20
20.6969015969
 30
0.0
 10
7.1529509535
 20
20.7143309586
 30
0.0
 10
7.104976208
 20
20.719162571
 30
0.0
 10
7.0698218707
 20
20.7166707085
 30
0.0
 11
7.2065525403
 21
20.6919315985
 31
0.0
 11
7.1748651819
 21
20.7046609611
 31
0.0
 11
7.0698218707
 21
20.7166707085
 31
0.0
  0
SPLINE
  5
43D
100
AcDbEntity
  8
RACCORDO
100
AcDbSpline
 62
7
  6
CONTINUOUS
 70
0
 71
3
 72
9
 73
5
 74
3
 42
0.0000001
 43
0.0000001
 44
0.0000000001
 12
-0.0411910692
 22
0.0205955454
 32
0.0
 13
-0.0458572395
 23
0.004241964
 33
0.0
 40
0.0
 40
0.0
 40
0.0
 40
0.0
 40
0.2650133737
 40
1.0
 40
1.0
 40
1.0
 40
1.0
 10
4.9835052626
 20
20.8069681441
 30
0.0
 10
4.9798665345
 20
20.8087875091
 30
0.0
 10
4.9659142194
 20
20.815155668
 30
0.0
 10
4.9508567039
 20
20.8194458806
 30
0.0
 10
4.9396218846
 20
20.8204851428
 30
0.0
 11
4.9835052626
 21
20.8069681441
 31
0.0
 11
4.9723938138
 21
20.8120168651
 31
0.0
 11
4.9396218846
 21
20.8204851428
 31
0.0
  0
SPLINE
  5
43E
100
AcDbEntity
  8
RACCORDO
100
AcDbSpline
 62
7
  6
CONTINUOUS
 70
0
 71
3
 72
9
 73
5
 74
3
 42
0.0000001
 43
0.0000001
 44
0.0000000001
 12
-0.0496370584
 22
0.0248185292
 32
0.0
 13
-0.0554460931
 23
0.0023511105
 33
0.0
 40
0.0
 40
0.0
 40
0.0
 40
0.0
 40
0.2682243793
 40
1.0
 40
1.0
 40
1.0
 40
1.0
 10
6.5272171776
 20
20.0459707385
 30
0.0
 10
6.5227792212
 20
20.0481897167
 30
0.0
 10
6.5060955541
 20
20.0561041012
 30
0.0
 10
6.4877247137
 20
20.0610472733
 30
0.0
 10
6.474200014
 20
20.0616207684
 30
0.0
 11
6.5272171776
 21
20.0459707385
 31
0.0
 11
6.5137079062
 21
20.0522216166
 31
0.0
 11
6.474200014
 21
20.0616207684
 31
0.0
  0
SPLINE
  5
43F
100
AcDbEntity
  8
RACCORDO
100
AcDbSpline
 62
7
  6
CONTINUOUS
 70
0
 71
3
 72
9
 73
5
 74
3
 42
0.0000001
 43
0.0000001
 44
0.0000000001
 12
-0.0000041137
 22
0.3222139762
 32
0.0
 13
-0.2881972824
 23
0.1440977894
 33
0.0
 40
0.0
 40
0.0
 40
0.0
 40
0.0
 40
0.5065759718
 40
1.0
 40
1.0
 40
1.0
 40
1.0
 10
-0.9172418259
 20
23.5504416632
 30
0.0
 10
-0.9172425206
 20
23.6048502825
 30
0.0
 10
-0.9389807403
 20
23.7125406642
 30
0.0
 10
-1.0112070492
 20
23.8043244401
 30
0.0
 10
-1.0586082039
 20
23.8280248773
 30
0.0
 11
-0.9172418259
 21
23.5504416632
 31
0.0
 11
-0.9522228539
 21
23.7098750613
 31
0.0
 11
-1.0586082039
 21
23.8280248773
 31
0.0
  0
SPLINE
  5
440
100
AcDbEntity
  8
RACCORDO
100
AcDbSpline
 62
253
  6
CONTINUOUS
 70
0
 71
3
 72
9
 73
5
 74
3
 42
0.0000001
 43
0.0000001
 44
0.0000000001
 12
-0.3901901367
 22
-0.5283551306
 32
0.0
 13
-0.5875674032
 23
-0.2935507342
 33
0.0
 40
0.0
 40
0.0
 40
0.0
 40
0.0
 40
0.4983065019
 40
1.0
 40
1.0
 40
1.0
 40
1.0
 10
4.9500710553
 20
-24.2183625837
 30
0.0
 10
4.885259628
 20
-24.306123516
 30
0.0
 10
4.7398610399
 20
-24.4712408694
 30
0.0
 10
4.5610189418
 20
-24.603292627
 30
0.0
 10
4.4627593599
 20
-24.6523834586
 30
0.0
 11
4.9500710553
 21
-24.2183625837
 31
0.0
 11
4.7320491675
 21
-24.4624711203
 31
0.0
 11
4.4627593599
 21
-24.6523834586
 31
0.0
  0
SPLINE
  5
441
100
AcDbEntity
  8
RACCORDO
100
AcDbSpline
 62
253
  6
CONTINUOUS
 70
0
 71
3
 72
9
 73
5
 74
3
 42
0.0000001
 43
0.0000001
 44
0.0000000001
 12
-0.3001475733
 22
-0.1499547797
 32
0.0
 13
-0.3344588236
 23
0.0266888931
 33
0.0
 40
0.0
 40
0.0
 40
0.0
 40
0.0
 40
0.2520111773
 40
1.0
 40
1.0
 40
1.0
 40
1.0
 10
4.4627593599
 20
-24.6523834586
 30
0.0
 10
4.4375458454
 20
-24.6649802188
 30
0.0
 10
4.3355830987
 20
-24.7103066002
 30
0.0
 10
4.2210515835
 20
-24.7334634743
 30
0.0
 10
4.1376610962
 20
-24.7268091431
 30
0.0
 11
4.4627593599
 21
-24.6523834586
 31
0.0
 11
4.3853561039
 21
-24.686417751
 31
0.0
 11
4.1376610962
 21
-24.7268091431
 31
0.0
  0
SPLINE
  5
442
100
AcDbEntity
  8
RACCORDO
100
AcDbSpline
 62
253
  6
CONTINUOUS
 70
0
 71
3
 72
9
 73
5
 74
3
 42
0.0000001
 43
0.0000001
 44
0.0000000001
 12
-0.1353129073
 22
-0.0700603087
 32
0.0
 13
-0.1091643204
 23
-0.1063070123
 33
0.0
 40
0.0
 40
0.0
 40
0.0
 40
0.0
 40
0.2695540156
 40
1.0
 40
1.0
 40
1.0
 40
1.0
 10
-12.3529629527
 20
24.3756144436
 30
0.0
 10
-12.3651209986
 20
24.3693194311
 30
0.0
 10
-12.4094991367
 20
24.3446633619
 30
0.0
 10
-12.4510546281
 20
24.314393504
 30
0.0
 10
-12.4776341746
 20
24.2885096606
 30
0.0
 11
-12.3529629527
 21
24.3756144436
 31
0.0
 11
-12.3888405175
 21
24.3556192519
 31
0.0
 11
-12.4776341746
 21
24.2885096606
 31
0.0
  0
SPLINE
  5
443
100
AcDbEntity
  8
RACCORDO
100
AcDbSpline
 62
253
  6
CONTINUOUS
 70
0
 71
3
 72
17
 73
13
 74
11
 42
0.0000001
 43
0.0000001
 44
0.0000000001
 12
-1.150392893
 22
-1.1202820759
 32
0.0
 13
1.436227207
 23
0.7181136035
 33
0.0
 40
0.0
 40
0.0
 40
0.0
 40
0.0
 40
0.0899529697
 40
0.1302930146
 40
0.171818751
 40
0.2177644949
 40
0.2701135568
 40
0.3955089575
 40
0.5441855307
 40
0.7041357844
 40
0.8606873406
 40
1.0
 40
1.0
 40
1.0
 40
1.0
 10
-12.4776341746
 20
24.2885096606
 30
0.0
 10
-12.5121279269
 20
24.2549187607
 30
0.0
 10
-12.5549962623
 20
24.1933613798
 30
0.0
 10
-12.5612689091
 20
24.099627454
 30
0.0
 10
-12.5409336632
 20
24.0329077853
 30
0.0
 10
-12.4978516485
 20
23.970590716
 30
0.0
 10
-12.4078515759
 20
23.8903809839
 30
0.0
 10
-12.2479314269
 20
23.813166661
 30
0.0
 10
-12.0204552856
 20
23.7607172339
 30
0.0
 10
-11.7703564913
 20
23.7489003637
 30
0.0
 10
-11.5272046453
 20
23.779116938
 30
0.0
 10
-11.3750484913
 20
23.828999636
 30
0.0
 10
-11.3083536141
 20
23.8623470746
 30
0.0
 11
-12.4776341746
 21
24.2885096606
 31
0.0
 11
-12.553154171
 21
24.1653827436
 31
0.0
 11
-12.5573372935
 21
24.1007418932
 31
0.0
 11
-12.5386991602
 21
24.0367197058
 31
0.0
 11
-12.4978011876
 21
23.9753156096
 31
0.0
 11
-12.4358909726
 21
23.9184549624
 31
0.0
 11
-12.2573756861
 21
23.8253118851
 31
0.0
 11
-12.0253949767
 21
23.7689154377
 31
0.0
 11
-11.7688683803
 21
23.7562260346
 31
0.0
 11
-11.5195964413
 21
23.7887346249
 31
0.0
 11
-11.3083536141
 21
23.8623470746
 31
0.0
  0
SPLINE
  5
444
100
AcDbEntity
  8
RACCORDO
100
AcDbSpline
 62
253
  6
CONTINUOUS
 70
0
 71
3
 72
9
 73
5
 74
3
 42
0.0000001
 43
0.0000001
 44
0.0000000001
 12
-0.1380484686
 22
-0.0690242343
 32
0.0
 13
-0.1128017801
 23
-0.1053445917
 33
0.0
 40
0.0
 40
0.0
 40
0.0
 40
0.0
 40
0.269276797
 40
1.0
 40
1.0
 40
1.0
 40
1.0
 10
3.7530208251
 20
16.331659855
 30
0.0
 10
3.740629742
 20
16.3254643134
 30
0.0
 10
3.6953153027
 20
16.3011514803
 30
0.0
 10
3.6527230672
 20
16.271240092
 30
0.0
 10
3.6252474411
 20
16.2455808462
 30
0.0
 11
3.7530208251
 21
16.331659855
 31
0.0
 11
3.7164228748
 21
16.3119645985
 31
0.0
 11
3.6252474411
 21
16.2455808462
 31
0.0
  0
SPLINE
  5
445
100
AcDbEntity
  8
RACCORDO
100
AcDbSpline
 62
253
  6
CONTINUOUS
 70
0
 71
3
 72
17
 73
13
 74
11
 42
0.0000001
 43
0.0000001
 44
0.0000000001
 12
-1.1720780677
 22
-1.0945934127
 32
0.0
 13
1.4441796518
 23
0.6973140393
 33
0.0
 40
0.0
 40
0.0
 40
0.0
 40
0.0
 40
0.0911174525
 40
0.1315906077
 40
0.1728925454
 40
0.2183522049
 40
0.2700892459
 40
0.3942898664
 40
0.5422390531
 40
0.7021552133
 40
0.8594003012
 40
1.0
 40
1.0
 40
1.0
 40
1.0
 10
3.6252474411
 20
16.2455808462
 30
0.0
 10
3.5896485186
 20
16.2123353251
 30
0.0
 10
3.5448065812
 20
16.1516543632
 30
0.0
 10
3.5350862218
 20
16.0577668286
 30
0.0
 10
3.5530590881
 20
15.9907450969
 30
0.0
 10
3.594034333
 20
15.9279304991
 30
0.0
 10
3.6814048497
 20
15.8468225473
 30
0.0
 10
3.8389791185
 20
15.7681751012
 30
0.0
 10
4.0646470843
 20
15.7138689516
 30
0.0
 10
4.3142930811
 20
15.699974762
 30
0.0
 10
4.5584211206
 20
15.7281705671
 30
0.0
 10
4.7118718218
 20
15.776674471
 30
0.0
 10
4.7795555632
 20
15.8093551857
 30
0.0
 11
3.6252474411
 21
16.2455808462
 31
0.0
 11
3.5455013733
 21
16.1231329131
 31
0.0
 11
3.5390886245
 21
16.0585430695
 31
0.0
 11
3.5555113352
 21
15.9943747494
 31
0.0
 11
3.5942773774
 21
15.9326314395
 31
0.0
 11
3.6542062215
 21
15.875248532
 31
0.0
 11
3.8294537948
 21
15.7805811415
 31
0.0
 11
4.0594238236
 21
15.7221855526
 31
0.0
 11
4.3154496675
 21
15.7072701629
 31
0.0
 11
4.5657952079
 21
15.7376016346
 31
0.0
 11
4.7795555632
 21
15.8093551857
 31
0.0
  0
SPLINE
  5
446
100
AcDbEntity
  8
RACCORDO
100
AcDbSpline
 62
253
  6
CONTINUOUS
 70
0
 71
3
 72
10
 73
6
 74
4
 42
0.0000001
 43
0.0000001
 44
0.0000000001
 12
-0.1790122971
 22
-0.0128089834
 32
0.0
 13
-0.1605657457
 23
0.0801755191
 33
0.0
 40
0.0
 40
0.0
 40
0.0
 40
0.0
 40
0.5824078821
 40
0.8163735975
 40
1.0
 40
1.0
 40
1.0
 40
1.0
 10
-3.819393788
 20
-17.0492604914
 30
0.0
 10
-3.8541465122
 20
-17.0517471757
 30
0.0
 10
-3.9032065151
 20
-17.0538212303
 30
0.0
 10
-3.9626968494
 20
-17.0486010083
 30
0.0
 10
-3.98746345
 20
-17.0428520263
 30
0.0
 10
-3.9972914868
 20
-17.0379445789
 30
0.0
 11
-3.819393788
 21
-17.0492604914
 31
0.0
 11
-3.9238949091
 21
-17.0514819037
 31
0.0
 11
-3.9656676656
 21
-17.0472178764
 31
0.0
 11
-3.9972914868
 21
-17.0379445789
 31
0.0
  0
SPLINE
  5
447
100
AcDbEntity
  8
RACCORDO
100
AcDbSpline
 62
253
  6
CONTINUOUS
 70
0
 71
3
 72
10
 73
6
 74
4
 42
0.0000001
 43
0.0000001
 44
0.0000000001
 12
-0.0928022884
 22
-0.1514235044
 32
0.0
 13
0.003931197
 23
-0.17755531
 33
0.0
 40
0.0
 40
0.0
 40
0.0
 40
0.0
 40
0.5824657856
 40
0.8164286785
 40
1.0
 40
1.0
 40
1.0
 40
1.0
 10
-3.8193925371
 20
-17.0492703195
 30
0.0
 10
-3.8374105897
 20
-17.0786699897
 30
0.0
 10
-3.8611521988
 20
-17.1211467123
 30
0.0
 10
-3.8820594778
 20
-17.1764565959
 30
0.0
 10
-3.8872947695
 20
-17.2010650306
 30
0.0
 10
-3.8870542178
 20
-17.2119297183
 30
0.0
 11
-3.8193925371
 21
-17.0492703195
 31
0.0
 11
-3.8678905054
 21
-17.1406424405
 31
0.0
 11
-3.8820158958
 21
-17.1797193312
 31
0.0
 11
-3.8870542178
 21
-17.2119297183
 31
0.0
  0
SPLINE
  5
448
100
AcDbEntity
  8
RACCORDO
100
AcDbSpline
 62
253
  6
CONTINUOUS
 70
0
 71
3
 72
9
 73
5
 74
3
 42
0.0000001
 43
0.0000001
 44
0.0000000001
 12
-0.1066238079
 22
0.0533336007
 32
0.0
 13
-0.003945821
 23
0.11915343
 33
0.0
 40
0.0
 40
0.0
 40
0.0
 40
0.0
 40
0.5606304927
 40
1.0
 40
1.0
 40
1.0
 40
1.0
 10
-3.6922208963
 20
-21.7203915825
 30
0.0
 10
-3.7121464156
 20
-21.7104247682
 30
0.0
 10
-3.7464316562
 20
-21.6881229401
 30
0.0
 10
-3.7648708875
 20
-21.6491518279
 30
0.0
 10
-3.7654487787
 20
-21.6317010333
 30
0.0
 11
-3.6922208963
 21
-21.7203915825
 31
0.0
 11
-3.7456086138
 21
-21.6801793333
 31
0.0
 11
-3.7654487787
 21
-21.6317010333
 31
0.0
  0
SPLINE
  5
449
100
AcDbEntity
  8
RACCORDO
100
AcDbSpline
 62
253
  6
CONTINUOUS
 70
0
 71
3
 72
11
 73
7
 74
5
 42
0.0000001
 43
0.0000001
 44
0.0000000001
 12
-0.0564866429
 22
0.3584615218
 32
0.0
 13
-0.3218337489
 23
0.1676557232
 33
0.0
 40
0.0
 40
0.0
 40
0.0
 40
0.0
 40
0.2376450005
 40
0.5028560032
 40
0.7665285447
 40
1.0
 40
1.0
 40
1.0
 40
1.0
 10
-0.9964486399
 20
7.186527079
 30
0.0
 10
-1.0009232293
 20
7.2149226085
 30
0.0
 10
-1.0200421198
 20
7.2734880603
 30
0.0
 10
-1.0665937114
 20
7.3542646093
 30
0.0
 10
-1.1271395436
 20
7.4244858228
 30
0.0
 10
-1.1757638503
 20
7.4612656044
 30
0.0
 10
-1.2008101816
 20
7.4743132129
 30
0.0
 11
-0.9964486399
 21
7.186527079
 31
0.0
 11
-1.0215445539
 21
7.2690325184
 31
0.0
 11
-1.0691726246
 21
7.3526620991
 31
0.0
 11
-1.1321095461
 21
7.4247324518
 31
0.0
 11
-1.2008101816
 21
7.4743132129
 31
0.0
  0
SPLINE
  5
44A
100
AcDbEntity
  8
RACCORDO
100
AcDbSpline
 62
253
  6
CONTINUOUS
 70
0
 71
3
 72
11
 73
7
 74
5
 42
0.0000001
 43
0.0000001
 44
0.0000000001
 12
-0.329174079
 22
-0.1432924284
 32
0.0
 13
-0.32099668
 23
0.1607775659
 33
0.0
 40
0.0
 40
0.0
 40
0.0
 40
0.0
 40
0.2344095305
 40
0.4989539297
 40
0.7640588622
 40
1.0
 40
1.0
 40
1.0
 40
1.0
 10
-1.4419173825
 20
6.357405317
 30
0.0
 10
-1.4676378963
 20
6.3462089467
 30
0.0
 10
-1.5261095342
 20
6.330981238
 30
0.0
 10
-1.617815237
 20
6.3255663503
 30
0.0
 10
-1.7092366506
 20
6.3363163028
 30
0.0
 10
-1.7669756342
 20
6.3548991345
 30
0.0
 10
-1.7922210748
 20
6.3675438151
 30
0.0
 11
-1.4419173825
 21
6.357405317
 31
0.0
 11
-1.522890387
 21
6.334481435
 31
0.0
 11
-1.6176671672
 21
6.3283620639
 31
0.0
 11
-1.712133417
 21
6.3399585101
 31
0.0
 11
-1.7922210748
 21
6.3675438151
 31
0.0
  0
SPLINE
  5
44B
100
AcDbEntity
  8
RACCORDO
100
AcDbSpline
 62
253
  6
CONTINUOUS
 70
0
 71
3
 72
11
 73
7
 74
5
 42
0.0000001
 43
0.0000001
 44
0.0000000001
 12
-0.3186395746
 22
-0.168981284
 32
0.0
 13
-0.3227017788
 23
0.1610882205
 33
0.0
 40
0.0
 40
0.0
 40
0.0
 40
0.0
 40
0.2388329876
 40
0.503569138
 40
0.766380697
 40
1.0
 40
1.0
 40
1.0
 40
1.0
 10
-1.4419173828
 20
-22.6634618114
 30
0.0
 10
-1.4672845967
 20
-22.6769145797
 30
0.0
 10
-1.525327574
 20
-22.6967260507
 30
0.0
 10
-1.6173699069
 20
-22.7075542597
 30
0.0
 10
-1.7091428586
 20
-22.7004993484
 30
0.0
 10
-1.7670787341
 20
-22.6829420116
 30
0.0
 10
-1.7922085223
 20
-22.6703975723
 30
0.0
 11
-1.4419173828
 21
-22.6634618114
 31
0.0
 11
-1.5228897806
 21
-22.6928509833
 31
0.0
 11
-1.6176633217
 21
-22.7044730627
 31
0.0
 11
-1.7121249331
 21
-22.6965976038
 31
0.0
 11
-1.7922085223
 21
-22.6703975723
 31
0.0
  0
SPLINE
  5
44C
100
AcDbEntity
  8
RACCORDO
100
AcDbSpline
 62
253
  6
CONTINUOUS
 70
0
 71
3
 72
10
 73
6
 74
4
 42
0.0000001
 43
0.0000001
 44
0.0000000001
 12
-0.0265249399
 22
-0.1939407316
 32
0.0
 13
-0.1889305112
 23
-0.0512039234
 33
0.0
 40
0.0
 40
0.0
 40
0.0
 40
0.0
 40
0.5425600404
 40
0.7787630952
 40
1.0
 40
1.0
 40
1.0
 40
1.0
 10
-0.9964486399
 20
-23.0623994093
 30
0.0
 10
-1.001245764
 20
-23.0974742397
 30
0.0
 10
-1.0177384026
 20
-23.1484745476
 30
0.0
 10
-1.0633498576
 20
-23.1965224725
 30
0.0
 10
-1.0908818714
 20
-23.2100217819
 30
0.0
 10
-1.1048146719
 20
-23.2137978478
 30
0.0
 11
-0.9964486399
 21
-23.0623994093
 31
0.0
 11
-1.0334622444
 21
-23.1619448674
 31
0.0
 11
-1.0658102188
 21
-23.1949806464
 31
0.0
 11
-1.1048146719
 21
-23.2137978478
 31
0.0
  0
SPLINE
  5
44D
100
AcDbEntity
  8
RACCORDO
100
AcDbSpline
 62
253
  6
CONTINUOUS
 70
0
 71
3
 72
10
 73
6
 74
4
 42
0.0000001
 43
0.0000001
 44
0.0000000001
 12
0.3013024781
 22
-0.1505898087
 32
0.0
 13
0.3096686802
 23
0.1325359661
 33
0.0
 40
0.0
 40
0.0
 40
0.0
 40
0.0
 40
0.2310454629
 40
0.4907584839
 40
1.0
 40
1.0
 40
1.0
 40
1.0
 10
-16.8053023991
 20
-15.1638637928
 30
0.0
 10
-16.7820975422
 20
-15.1754614901
 30
0.0
 10
-16.7288327779
 20
-15.1923142907
 30
0.0
 10
-16.6169587327
 20
-15.2034157461
 30
0.0
 10
-16.5284679391
 20
-15.1894875398
 30
0.0
 10
-16.4759025564
 20
-15.1669899344
 30
0.0
 11
-16.8053023991
 21
-15.1638637928
 31
0.0
 11
-16.7315810902
 21
-15.1888020426
 31
0.0
 11
-16.6445933326
 21
-15.1980829793
 31
0.0
 11
-16.4759025564
 21
-15.1669899344
 31
0.0
  0
SPLINE
  5
44E
100
AcDbEntity
  8
RACCORDO
100
AcDbSpline
 62
253
  6
CONTINUOUS
 70
0
 71
3
 72
13
 73
9
 74
7
 42
0.0000001
 43
0.0000001
 44
0.0000000001
 12
-0.4862442732
 22
-0.1678740475
 32
0.0
 13
-0.1946033519
 23
0.4761771985
 33
0.0
 40
0.0
 40
0.0
 40
0.0
 40
0.0
 40
0.1114648992
 40
0.2286118374
 40
0.3511276095
 40
0.4772076382
 40
0.7358265341
 40
1.0
 40
1.0
 40
1.0
 40
1.0
 10
-16.5986905477
 20
-10.8409795958
 30
0.0
 10
-16.6167569373
 20
-10.8472169504
 30
0.0
 10
-16.6588057936
 20
-10.8452999622
 30
0.0
 10
-16.7121961774
 20
-10.815947338
 30
0.0
 10
-16.7599015938
 20
-10.7748162053
 30
0.0
 10
-16.8172283446
 20
-10.7091590037
 30
0.0
 10
-16.8777924398
 20
-10.6152233301
 30
0.0
 10
-16.9164392198
 20
-10.5341096853
 30
0.0
 10
-16.9335755672
 20
-10.4921785583
 30
0.0
 11
-16.5986905477
 21
-10.8409795958
 31
0.0
 11
-16.6560282536
 21
-10.8412601529
 31
0.0
 11
-16.7101418502
 21
-10.8147433637
 31
0.0
 11
-16.7583853811
 21
-10.7741913478
 31
0.0
 11
-16.8014350364
 21
-10.7256826252
 31
0.0
 11
-16.8747902897
 21
-10.6146985788
 31
0.0
 11
-16.9335755672
 21
-10.4921785583
 31
0.0
  0
SPLINE
  5
44F
100
AcDbEntity
  8
RACCORDO
100
AcDbSpline
 62
253
  6
CONTINUOUS
 70
0
 71
3
 72
11
 73
7
 74
5
 42
0.0000001
 43
0.0000001
 44
0.0000000001
 12
0.019476807
 22
-0.5948081351
 32
0.0
 13
0.5321803676
 23
-0.2663834078
 33
0.0
 40
0.0
 40
0.0
 40
0.0
 40
0.0
 40
0.2881736966
 40
0.5473850535
 40
0.7812748531
 40
1.0
 40
1.0
 40
1.0
 40
1.0
 10
-3.6922332637
 20
-21.7203983674
 30
0.0
 10
-3.6903623626
 20
-21.7775343871
 30
0.0
 10
-3.677709866
 20
-21.8861663286
 30
0.0
 10
-3.6269178796
 20
-22.0341341784
 30
0.0
 10
-3.546192971
 20
-22.1524518307
 30
0.0
 10
-3.4726263718
 20
-22.207488732
 30
0.0
 10
-3.4338259621
 20
-22.2269103153
 30
0.0
 11
-3.6922332637
 21
-21.7203983674
 31
0.0
 11
-3.6706841653
 21
-21.8905390783
 31
0.0
 11
-3.6186775057
 21
-22.0357719393
 31
0.0
 11
-3.5385350355
 21
-22.1495796153
 31
0.0
 11
-3.4338259621
 21
-22.2269103153
 31
0.0
  0
SPLINE
  5
450
100
AcDbEntity
  8
RACCORDO
100
AcDbSpline
 62
253
  6
CONTINUOUS
 70
0
 71
3
 72
11
 73
7
 74
5
 42
0.0000001
 43
0.0000001
 44
0.0000000001
 12
0.0199312735
 22
-0.5987298
 32
0.0
 13
0.5355826165
 23
-0.2683763963
 33
0.0
 40
0.0
 40
0.0
 40
0.0
 40
0.0
 40
0.2865651601
 40
0.5451592544
 40
0.779617279
 40
1.0
 40
1.0
 40
1.0
 40
1.0
 10
-1.7922210773
 20
-22.6704044606
 30
0.0
 10
-1.7903172078
 20
-22.7275961609
 30
0.0
 10
-1.7774163029
 20
-22.836499244
 30
0.0
 10
-1.7257158927
 20
-22.9849215528
 30
0.0
 10
-1.6436053202
 20
-23.1038256877
 30
0.0
 10
-1.5690677676
 20
-23.1592464531
 30
0.0
 10
-1.5297233828
 20
-23.1789616266
 30
0.0
 11
-1.7922210773
 21
-22.6704044606
 31
0.0
 11
-1.7703297394
 21
-22.8406730927
 31
0.0
 11
-1.7174998844
 21
-22.9863002806
 31
0.0
 11
-1.6360894614
 21
-23.1007550064
 31
0.0
 11
-1.5297233828
 21
-23.1789616266
 31
0.0
  0
SPLINE
  5
451
100
AcDbEntity
  8
RACCORDO
100
AcDbSpline
 62
253
  6
CONTINUOUS
 70
0
 71
3
 72
11
 73
7
 74
5
 42
0.0000001
 43
0.0000001
 44
0.0000000001
 12
-1.0590684645
 22
-0.7416754395
 32
0.0
 13
-0.041667826
 23
-1.2922740663
 33
0.0
 40
0.0
 40
0.0
 40
0.0
 40
0.0
 40
0.2392950005
 40
0.4973098521
 40
0.7567633662
 40
1.0
 40
1.0
 40
1.0
 40
1.0
 10
-1.2008101835
 20
7.4743132116
 30
0.0
 10
-1.2852867798
 20
7.41515347
 30
0.0
 10
-1.4430342316
 20
7.2661257601
 30
0.0
 10
-1.6263453149
 20
6.9937097348
 30
0.0
 10
-1.7513974538
 20
6.6882763586
 30
0.0
 10
-1.7888426967
 20
6.4723199452
 30
0.0
 10
-1.7922210773
 20
6.367543814
 30
0.0
 11
-1.2008101835
 21
7.4743132116
 31
0.0
 11
-1.4284638097
 21
7.2647914716
 31
0.0
 11
-1.6159827314
 21
6.9888837553
 31
0.0
 11
-1.7420246641
 21
6.6780037636
 31
0.0
 11
-1.7922210773
 21
6.367543814
 31
0.0
  0
SPLINE
  5
452
100
AcDbEntity
  8
RACCORDO
100
AcDbSpline
 62
253
  6
CONTINUOUS
 70
0
 71
3
 72
21
 73
17
 74
15
 42
0.0000001
 43
0.0000001
 44
0.0000000001
 12
-13.3642070994
 22
6.6824772943
 32
0.0
 13
13.4253844516
 23
6.558703112
 33
0.0
 40
0.0
 40
0.0
 40
0.0
 40
0.0
 40
0.0598025185
 40
0.1237614551
 40
0.1912873331
 40
0.2615695534
 40
0.4063210247
 40
0.5498406915
 40
0.6186928826
 40
0.6844022519
 40
0.7463389721
 40
0.8041374895
 40
0.8577728184
 40
0.9076400998
 40
0.9546092811
 40
1.0
 40
1.0
 40
1.0
 40
1.0
 10
-9.8701738357
 20
-9.8650681258
 30
0.0
 10
-10.1365782498
 20
-9.7318584685
 30
0.0
 10
-10.6672957708
 20
-9.4137752706
 30
0.0
 10
-11.4173379836
 20
-8.8229600766
 30
0.0
 10
-12.1332107632
 20
-8.1147929426
 30
0.0
 10
-13.0275963608
 20
-7.0256005328
 30
0.0
 10
-13.9541918304
 20
-5.4859198684
 30
0.0
 10
-14.5790113136
 20
-3.8077263258
 30
0.0
 10
-14.8569789584
 20
-2.4484849787
 30
0.0
 10
-14.9451702488
 20
-1.4714799434
 30
0.0
 10
-14.9135685325
 20
-0.5457268546
 30
0.0
 10
-14.7623189715
 20
0.3077734786
 30
0.0
 10
-14.4940018018
 20
1.0693938431
 30
0.0
 10
-14.1131224005
 20
1.7209757196
 30
0.0
 10
-13.6273968147
 20
2.2448739544
 30
0.0
 10
-13.2379880764
 20
2.5000630399
 30
0.0
 10
-13.0348587923
 20
2.5992977897
 30
0.0
 11
-9.8701738357
 21
-9.8650681258
 31
0.0
 11
-10.6388609383
 21
-9.4094748201
 31
0.0
 11
-11.3917469437
 21
-8.8208727194
 31
0.0
 11
-12.1107680045
 21
-8.1130549749
 31
0.0
 11
-12.7785317269
 21
-7.3025659837
 31
0.0
 11
-13.8967070848
 21
-5.4511890905
 31
0.0
 11
-14.6369066107
 21
-3.4385441004
 31
0.0
 11
-14.8407165396
 21
-2.4301584674
 31
0.0
 11
-14.9259177319
 21
-1.452045718
 31
0.0
 11
-14.8903723339
 21
-0.5272822097
 31
0.0
 11
-14.7349721757
 21
0.3222354335
 31
0.0
 11
-14.4636147844
 21
1.0763050232
 31
0.0
 11
-14.0830880989
 21
1.7169173593
 31
0.0
 11
-13.602871802
 21
2.2287001702
 31
0.0
 11
-13.0348587923
 21
2.5992977897
 31
0.0
  0
SPLINE
  5
453
100
AcDbEntity
  8
RACCORDO
100
AcDbSpline
 62
253
  6
CONTINUOUS
 70
0
 71
3
 72
11
 73
7
 74
5
 42
0.0000001
 43
0.0000001
 44
0.0000000001
 12
0.0363708132
 22
1.1585919958
 32
0.0
 13
0.8481295351
 23
0.7901484294
 33
0.0
 40
0.0
 40
0.0
 40
0.0
 40
0.0
 40
0.2403656105
 40
0.4966197129
 40
0.7546616582
 40
1.0
 40
1.0
 40
1.0
 40
1.0
 10
-18.705314589
 20
14.8240905698
 30
0.0
 10
-18.7024004914
 20
14.9169191273
 30
0.0
 10
-18.6730735761
 20
15.1082821745
 30
0.0
 10
-18.5744718916
 20
15.3842892541
 30
0.0
 10
-18.4277181945
 20
15.6401957384
 30
0.0
 10
-18.3003966188
 20
15.7893327418
 30
0.0
 10
-18.2310370542
 20
15.8539506436
 30
0.0
 11
-18.705314589
 21
14.8240905698
 31
0.0
 11
-18.6656816206
 21
15.0998802092
 31
0.0
 11
-18.5667211567
 21
15.3799511125
 31
0.0
 11
-18.4173613245
 21
15.6391035626
 31
0.0
 11
-18.2310370542
 21
15.8539506436
 31
0.0
  0
SPLINE
  5
454
100
AcDbEntity
  8
RACCORDO
100
AcDbSpline
 62
253
  6
CONTINUOUS
 70
0
 71
3
 72
9
 73
5
 74
3
 42
0.0000001
 43
0.0000001
 44
0.0000000001
 12
0.0968836486
 22
0.090260343
 32
0.0
 13
0.1068385048
 23
0.0782234286
 33
0.0
 40
0.0
 40
0.0
 40
0.0
 40
0.0
 40
0.255776195
 40
1.0
 40
1.0
 40
1.0
 40
1.0
 10
-18.2310370542
 20
15.8539506436
 30
0.0
 10
-18.2227768772
 20
15.861646126
 30
0.0
 10
-18.1900691103
 20
15.8912841487
 30
0.0
 10
-18.1556921931
 20
15.9190970107
 30
0.0
 10
-18.1291882736
 20
15.9385022566
 30
0.0
 11
-18.2310370542
 21
15.8539506436
 31
0.0
 11
-18.2059359426
 21
15.8766881227
 31
0.0
 11
-18.1291882736
 21
15.9385022566
 31
0.0
  0
LINE
  5
455
100
AcDbEntity
  8
RACCORDO
100
AcDbLine
 62
253
  6
CONTINUOUS
 10
-16.5726994858
 20
-10.8500156727
 11
-16.573138975
 21
-10.8307906217
  0
SPLINE
  5
456
100
AcDbEntity
  8
RACCORDO
100
AcDbSpline
 62
253
  6
CONTINUOUS
 70
0
 71
3
 72
9
 73
5
 74
3
 42
0.0000001
 43
0.0000001
 44
0.0000000001
 12
-0.1378741174
 22
0.0708938831
 32
0.0
 13
-0.1549152221
 23
-0.0060406036
 33
0.0
 40
0.0
 40
0.0
 40
0.0
 40
0.0
 40
0.2445954577
 40
1.0
 40
1.0
 40
1.0
 40
1.0
 10
0.512785302
 20
24.0377298319
 30
0.0
 10
0.5015441743
 20
24.0435099391
 30
0.0
 10
0.4540055923
 20
24.064057585
 30
0.0
 10
0.4010606363
 20
24.070990721
 30
0.0
 10
0.3620527489
 20
24.0694696879
 30
0.0
 11
0.512785302
 21
24.0377298319
 31
0.0
 11
0.4779652851
 21
24.0527471464
 31
0.0
 11
0.3620527489
 21
24.0694696879
 31
0.0
  0
SPLINE
  5
457
100
AcDbEntity
  8
RACCORDO
100
AcDbSpline
 62
7
  6
CONTINUOUS
 70
0
 71
3
 72
11
 73
7
 74
5
 42
0.0000001
 43
0.0000001
 44
0.0000000001
 12
0.3218803591
 22
-0.1609401795
 32
0.0
 13
0.3240734999
 23
0.1564770705
 33
0.0
 40
0.0
 40
0.0
 40
0.0
 40
0.0
 40
0.2348091595
 40
0.4987486104
 40
0.7633573969
 40
1.0
 40
1.0
 40
1.0
 40
1.0
 10
0.8475875933
 20
-23.5607952873
 30
0.0
 10
0.8727810788
 20
-23.5733920301
 30
0.0
 10
0.9306285796
 20
-23.5914595514
 30
0.0
 10
1.0222511722
 20
-23.600335736
 30
0.0
 10
1.1141673887
 20
-23.5922158153
 30
0.0
 10
1.1724656823
 20
-23.5746674618
 30
0.0
 10
1.1980288812
 20
-23.5623244147
 30
0.0
 11
0.8475875933
 21
-23.5607952873
 31
0.0
 11
0.9276965639
 21
-23.5876850548
 31
0.0
 11
1.0221835058
 21
-23.5973967355
 31
0.0
 11
1.1169936364
 21
-23.5885110647
 31
0.0
 11
1.1980288812
 21
-23.5623244147
 31
0.0
  0
SPLINE
  5
458
100
AcDbEntity
  8
RACCORDO
100
AcDbSpline
 62
253
  6
CONTINUOUS
 70
0
 71
3
 72
9
 73
5
 74
3
 42
0.0000001
 43
0.0000001
 44
0.0000000001
 12
-0.1569212284
 22
-0.084826229
 32
0.0
 13
-0.0519022146
 23
-0.1706631805
 33
0.0
 40
0.0
 40
0.0
 40
0.0
 40
0.0
 40
0.4947797317
 40
1.0
 40
1.0
 40
1.0
 40
1.0
 10
-12.8788390477
 20
22.7430848177
 30
0.0
 10
-12.9047195288
 20
22.7290947181
 30
0.0
 10
-12.9546975621
 20
22.6948367185
 30
0.0
 10
-12.9865703286
 20
22.6415155132
 30
0.0
 10
-12.9953110122
 20
22.6127746806
 30
0.0
 11
-12.8788390477
 21
22.7430848177
 31
0.0
 11
-12.9497434688
 21
22.6905275845
 31
0.0
 11
-12.9953110122
 21
22.6127746806
 31
0.0
  0
LINE
  5
459
100
AcDbEntity
  8
DRAFT
100
AcDbLine
 62
7
  6
CONTINUOUS
 10
8.277209324
 20
-16.9255585608
 11
9.0823299234
 21
-16.5121986736
  0
SPLINE
  5
45A
100
AcDbEntity
  8
0
100
AcDbSpline
 62
7
  6
CONTINUOUS
 70
0
 71
3
 72
9
 73
5
 74
3
 42
0.0000001
 43
0.0000001
 44
0.0000000001
 12
0.0614960128
 22
0.0307480064
 32
0.0
 13
0.0683993491
 23
0.0069805823
 33
0.0
 40
0.0
 40
0.0
 40
0.0
 40
0.0
 40
0.2656286414
 40
1.0
 40
1.0
 40
1.0
 40
1.0
 10
1.4067324832
 20
18.9661774588
 30
0.0
 10
1.4121775174
 20
18.9688999759
 30
0.0
 10
1.4330371906
 20
18.9783714467
 30
0.0
 10
1.4555413793
 20
18.9845289907
 30
0.0
 10
1.4722848869
 20
18.9862377706
 30
0.0
 11
1.4067324832
 21
18.9661774588
 31
0.0
 11
1.4233754054
 21
18.9736979378
 31
0.0
 11
1.4722848869
 21
18.9862377706
 31
0.0
  0
SPLINE
  5
45B
100
AcDbEntity
  8
0
100
AcDbSpline
 62
7
  6
CONTINUOUS
 70
0
 71
3
 72
11
 73
7
 74
5
 42
0.0000001
 43
0.0000001
 44
0.0000000001
 12
0.0
 22
0.4404642974
 32
0.0
 13
0.3939632442
 23
0.1969816221
 33
0.0
 40
0.0
 40
0.0
 40
0.0
 40
0.0
 40
0.246822998
 40
0.5117832723
 40
0.7702964853
 40
1.0
 40
1.0
 40
1.0
 40
1.0
 10
0.8310323163
 20
18.4185197542
 30
0.0
 10
0.8310323163
 20
18.4547586603
 30
0.0
 10
0.8435317271
 20
18.5300310425
 30
0.0
 10
0.8888332255
 20
18.6346981583
 30
0.0
 10
0.9553614806
 20
18.7242248253
 30
0.0
 10
1.0129994367
 20
18.7693109355
 30
0.0
 10
1.0431643506
 20
18.7843933925
 30
0.0
 11
0.8310323163
 21
18.4185197542
 31
0.0
 11
0.8471821374
 21
18.5260302566
 31
0.0
 11
0.8931713193
 21
18.6332924515
 31
0.0
 11
0.9619755298
 21
18.7240195715
 31
0.0
 11
1.0431643506
 21
18.7843933925
 31
0.0
  0
SPLINE
  5
45C
100
AcDbEntity
  8
RACCORDO
100
AcDbSpline
 62
7
  6
CONTINUOUS
 70
0
 71
3
 72
11
 73
7
 74
5
 42
0.0000001
 43
0.0000001
 44
0.0000000001
 12
-0.2543594957
 22
0.1271797478
 32
0.0
 13
-0.2829130402
 23
-0.0288730492
 33
0.0
 40
0.0
 40
0.0
 40
0.0
 40
0.0
 40
0.2440967922
 40
0.517133277
 40
0.7811539423
 40
1.0
 40
1.0
 40
1.0
 40
1.0
 10
0.629421823
 20
20.8585214337
 30
0.0
 10
0.6087257106
 20
20.8688694899
 30
0.0
 10
0.5628548528
 20
20.8867139967
 30
0.0
 10
0.4911387471
 20
20.9056754837
 30
0.0
 10
0.4201983859
 20
20.9164366569
 30
0.0
 10
0.3741388988
 20
20.9176118251
 30
0.0
 10
0.3535007643
 20
20.9155055741
 30
0.0
 11
0.629421823
 21
20.8585214337
 31
0.0
 11
0.5650640327
 21
20.8845363683
 31
0.0
 11
0.4900277722
 21
20.9045010239
 31
0.0
 11
0.4157366318
 21
20.9153759628
 31
0.0
 11
0.3535007643
 21
20.9155055741
 31
0.0
  0
SPLINE
  5
45D
100
AcDbEntity
  8
RACCORDO
100
AcDbSpline
 62
7
  6
CONTINUOUS
 70
0
 71
3
 72
11
 73
7
 74
5
 42
0.0000001
 43
0.0000001
 44
0.0000000001
 12
-0.2543594957
 22
0.1271797478
 32
0.0
 13
-0.2829130402
 23
-0.0288730492
 33
0.0
 40
0.0
 40
0.0
 40
0.0
 40
0.0
 40
0.2440967922
 40
0.517133277
 40
0.7811539423
 40
1.0
 40
1.0
 40
1.0
 40
1.0
 10
-3.4010868298
 20
22.8737757601
 30
0.0
 10
-3.4217829421
 20
22.8841238163
 30
0.0
 10
-3.4676538
 20
22.9019683231
 30
0.0
 10
-3.5393699056
 20
22.9209298101
 30
0.0
 10
-3.6103102669
 20
22.9316909832
 30
0.0
 10
-3.6563697539
 20
22.9328661515
 30
0.0
 10
-3.6770078884
 20
22.9307599005
 30
0.0
 11
-3.4010868298
 21
22.8737757601
 31
0.0
 11
-3.46544462
 21
22.8997906947
 31
0.0
 11
-3.5404808806
 21
22.9197553503
 31
0.0
 11
-3.6147720209
 21
22.9306302892
 31
0.0
 11
-3.6770078884
 21
22.9307599005
 31
0.0
  0
SPLINE
  5
45E
100
AcDbEntity
  8
ASSI
100
AcDbSpline
 62
7
  6
CONTINUOUS
 70
0
 71
3
 72
11
 73
7
 74
5
 42
0.0000001
 43
0.0000001
 44
0.0000000001
 12
0.6135201308
 22
0.2075734764
 32
0.0
 13
0.5793055836
 23
-0.2896527918
 33
0.0
 40
0.0
 40
0.0
 40
0.0
 40
0.0
 40
0.2477910345
 40
0.5122293467
 40
0.7701872621
 40
1.0
 40
1.0
 40
1.0
 40
1.0
 10
-0.8986598855
 20
20.7033569851
 30
0.0
 10
-0.8479849562
 20
20.7205019339
 30
0.0
 10
-0.7389985787
 20
20.7437647938
 30
0.0
 10
-0.5721045482
 20
20.7499306052
 30
0.0
 10
-0.4103734885
 20
20.7287483111
 30
0.0
 10
-0.309360462
 20
20.695242664
 30
0.0
 10
-0.2649831946
 20
20.6730540303
 30
0.0
 11
-0.8986598855
 21
20.7033569851
 31
0.0
 11
-0.7420702226
 21
20.7385245416
 31
0.0
 11
-0.5709257981
 21
20.7451413649
 31
0.0
 11
-0.4054020818
 21
20.7224264118
 31
0.0
 11
-0.2649831946
 21
20.6730540303
 31
0.0
  0
ELLIPSE
  5
45F
100
AcDbEntity
  8
0
100
AcDbEllipse
 62
7
  6
CONTINUOUS
 10
0.5508906368
 20
19.4308754354
 30
0.0
 11
-0.4511806643
 21
0.8941510684
 31
0.0
 40
0.6128301338
 41
-0.6888343945
 42
0.0418739721
  0
ELLIPSE
  5
460
100
AcDbEntity
  8
0
100
AcDbEllipse
 62
7
  6
CONTINUOUS
 10
6.977635084
 20
-17.9033034541
 30
0.0
 11
-0.2235489346
 21
0.4480667051
 31
0.0
 40
0.6115518419
 41
-3.1858562046
 42
-3.0405095638
  0
ELLIPSE
  5
461
100
AcDbEntity
  8
0
100
AcDbEllipse
 62
7
  6
CONTINUOUS
 10
1.8182807769
 20
18.7971803653
 30
0.0
 11
-0.4511806643
 21
0.8941510684
 31
0.0
 40
0.6128301338
 41
-1.6677137368
 42
-1.5664701253
  0
ELLIPSE
  5
462
100
AcDbEntity
  8
0
100
AcDbEllipse
 62
7
  6
CONTINUOUS
 10
6.3738989751
 20
12.2664214612
 30
0.0
 11
-0.4445912923
 21
0.8959066538
 31
0.0
 40
0.6213433204
 41
-1.2694429152
 42
-0.7347293808
  0
ELLIPSE
  5
463
100
AcDbEntity
  8
RACCORDO
100
AcDbEllipse
 62
7
  6
CONTINUOUS
 10
10.6073510792
 20
17.72118217
 30
0.0
 11
0.499996712
 21
0.0035883639
 31
0.0
 40
0.5053247124
 41
-0.780298103
 42
-0.0036193612
  0
ELLIPSE
  5
464
100
AcDbEntity
  8
RACCORDO
100
AcDbEllipse
 62
7
  6
CONTINUOUS
 10
-10.9422686624
 20
24.8895164432
 30
0.0
 11
-0.1118429119
 21
0.2236040717
 31
0.0
 40
0.6123910759
 41
-0.6848833758
 42
0.0080743186
  0
ELLIPSE
  5
465
100
AcDbEntity
  8
RACCORDO
100
AcDbEllipse
 62
7
  6
CONTINUOUS
 10
6.2403722643
 20
-24.8380086389
 30
0.0
 11
-0.1118490108
 21
0.2236130466
 31
0.0
 40
0.612344219
 41
-3.1531473278
 42
-2.255724243
  0
ELLIPSE
  5
466
100
AcDbEntity
  8
RACCORDO
100
AcDbEllipse
 62
7
  6
CONTINUOUS
 10
6.2403722643
 20
16.2981959799
 30
0.0
 11
-0.1118429119
 21
0.2236040717
 31
0.0
 40
0.6123910759
 41
-2.2556797026
 42
-0.6848833758
  0
ELLIPSE
  5
467
100
AcDbEntity
  8
RACCORDO
100
AcDbEllipse
 62
7
  6
CONTINUOUS
 10
-0.9106362437
 20
24.6276273204
 30
0.0
 11
0.3449653854
 21
0.6660096921
 31
0.0
 40
0.6229838795
 41
-0.8771909047
 42
-0.0583721188
  0
ELLIPSE
  5
468
100
AcDbEntity
  8
RACCORDO
100
AcDbEllipse
 62
7
  6
CONTINUOUS
 10
9.137222979
 20
19.6036977091
 30
0.0
 11
0.3377633711
 21
0.6696418531
 31
0.0
 40
0.6150397229
 41
-0.8839189047
 42
-0.1585630859
  0
ELLIPSE
  5
469
100
AcDbEntity
  8
RACCORDO
100
AcDbEllipse
 62
7
  6
CONTINUOUS
 10
10.6073510792
 20
-18.6071604247
 30
0.0
 11
0.4999969381
 21
-0.0035375912
 31
0.0
 40
0.4946372042
 41
-0.7731718616
 42
0.7888978189
  0
ELLIPSE
  5
46A
100
AcDbEntity
  8
RACCORDO
100
AcDbEllipse
 62
7
  6
CONTINUOUS
 10
-15.8056179673
 20
17.4317588664
 30
0.0
 11
-0.1098985543
 21
0.2275784384
 31
0.0
 40
0.6085747011
 41
-0.6677344043
 42
0.1137521809
  0
ELLIPSE
  5
46B
100
AcDbEntity
  8
RACCORDO
100
AcDbEllipse
 62
7
  6
CONTINUOUS
 10
-0.8746637749
 20
23.9531076599
 30
0.0
 11
0.321967693
 21
0.6216090459
 31
0.0
 40
0.6229838795
 41
0.0092196167
 42
0.3445395717
  0
ELLIPSE
  5
46C
100
AcDbEntity
  8
RACCORDO
100
AcDbEllipse
 62
7
  6
CONTINUOUS
 10
6.8856602505
 20
20.0600625634
 30
0.0
 11
0.4114694615
 21
-0.0010914044
 31
0.0
 40
0.1820889156
 41
2.8013933319
 42
3.1353620111
  0
ELLIPSE
  5
46D
100
AcDbEntity
  8
RACCORDO
100
AcDbEllipse
 62
7
  6
CONTINUOUS
 10
-2.22407618
 20
24.6149307786
 30
0.0
 11
0.4244068945
 21
-0.0069051701
 31
0.0
 40
0.1711125921
 41
-2.4414166079
 42
-1.2281657579
  0
ELLIPSE
  5
46E
100
AcDbEntity
  8
RACCORDO
100
AcDbEllipse
 62
7
  6
CONTINUOUS
 10
-2.6342560254
 20
24.4102988168
 30
0.0
 11
-0.1118340018
 21
0.2235996949
 31
0.0
 40
0.6124356076
 41
-2.2556146355
 42
-0.6848944589
  0
ELLIPSE
  5
46F
100
AcDbEntity
  8
RACCORDO
100
AcDbEllipse
 62
7
  6
CONTINUOUS
 10
9.137222979
 20
18.989360649
 30
0.0
 11
0.3377633711
 21
0.6696418531
 31
0.0
 40
0.6150397229
 41
0.0017822881
 42
0.7043307146
  0
ELLIPSE
  5
470
100
AcDbEntity
  8
RACCORDO
100
AcDbEllipse
 62
7
  6
CONTINUOUS
 10
0.4398322103
 20
15.7182171171
 30
0.0
 11
0.7999781964
 21
0.0115672875
 31
0.0
 40
0.5106100819
 41
-2.3221193052
 42
-0.7971445206
  0
ELLIPSE
  5
471
100
AcDbEntity
  8
RACCORDO
100
AcDbEllipse
 62
7
  6
CONTINUOUS
 10
0.4867233955
 20
15.6947715245
 30
0.0
 11
0.7999781964
 21
0.0115672875
 31
0.0
 40
0.5106100819
 41
3.1341097262
 42
3.8781495638
  0
ELLIPSE
  5
472
100
AcDbEntity
  8
RACCORDO
100
AcDbEllipse
 62
7
  6
CONTINUOUS
 10
-9.7141031932
 20
20.7951848188
 30
0.0
 11
0.7999781964
 21
0.0115672875
 31
0.0
 40
0.5106100819
 41
-2.3221193052
 42
-0.81023449
  0
ELLIPSE
  5
473
100
AcDbEntity
  8
RACCORDO
100
AcDbEllipse
 62
7
  6
CONTINUOUS
 10
-9.667212008
 20
20.7717392262
 30
0.0
 11
0.7999781964
 21
0.0115672875
 31
0.0
 40
0.5106100819
 41
3.1340604683
 42
3.8781495638
  0
ELLIPSE
  5
474
100
AcDbEntity
  8
RACCORDO
100
AcDbEllipse
 62
7
  6
CONTINUOUS
 10
-2.5988953007
 20
24.4359201369
 30
0.0
 11
-0.0894792087
 21
0.1788904373
 31
0.0
 40
0.612344219
 41
-1.042473393
 42
-0.6848517659
  0
ELLIPSE
  5
475
100
AcDbEntity
  8
RACCORDO
100
AcDbEllipse
 62
7
  6
CONTINUOUS
 10
1.2042266326
 20
8.9268365664
 30
0.0
 11
-0.1092649321
 21
0.2270579893
 31
0.0
 40
0.6121735965
 41
-2.2369946326
 42
-0.669228889
  0
ELLIPSE
  5
476
100
AcDbEntity
  8
RACCORDO
100
AcDbEllipse
 62
7
  6
CONTINUOUS
 10
1.2042266326
 20
-22.3300005913
 30
0.0
 11
-0.1098985543
 21
0.2275784384
 31
0.0
 40
0.6085747011
 41
-3.254853034
 42
-2.2415613143
  0
ENDSEC
  0
SECTION
  2
OBJECTS
  0
DICTIONARY
  5
C
100
AcDbDictionary
280
0
281
1
  3
ACAD_GROUP
350
D
  3
ACAD_MLINESTYLE
350
17
  3
ACAD_LAYOUT
350
1A
  3
ACAD_PLOTSETTINGS
350
19
  3
ACAD_PLOTSTYLENAME
350
E
  0
DICTIONARY
  5
D
102
{ACAD_REACTORS
330
C
102
}
100
AcDbDictionary
280
0
281
1
  0
ACDBDICTIONARYWDFLT
  5
E
102
{ACAD_REACTORS
330
C
102
}
100
AcDbDictionary
281
1
  3
Normal
350
F
100
AcDbDictionaryWithDefault
340
F
  0
DICTIONARY
  5
17
102
{ACAD_REACTORS
330
C
102
}
100
AcDbDictionary
280
0
281
1
  3
Standard
350
18
  0
DICTIONARY
  5
19
102
{ACAD_REACTORS
330
C
102
}
100
AcDbDictionary
281
1
  0
DICTIONARY
  5
1A
102
{ACAD_REACTORS
330
C
102
}
100
AcDbDictionary
281
1
  3
Model
350
477
  3
Layout1
350
478
  0
ACDBPLACEHOLDER
  5
F
102
{ACAD_REACTORS
330
E
102
}
  0
MLINESTYLE
  5
18
102
{ACAD_REACTORS
330
17
102
}
100
AcDbMlineStyle
  2
STANDARD
 70
0
  3

 62
256
 51
90.0
 52
90.0
 71
2
 49
0.5
 62
256
  6
BYLAYER
 49
-0.5
 62
256
  6
BYLAYER
  0
LAYOUT
  5
477
102
{ACAD_REACTORS
330
1A
102
}
100
AcDbPlotSettings
  1

  2
none_device
  4
ANSI_C_(22.00_x_17.00_Inches)
  6

 40
0.0
 41
0.0
 42
0.0
 43
0.0
 44
558.8
 45
431.8
 46
0.0
 47
0.0
 48
0.0
 49
0.0
140
0.0
141
0.0
142
1.0
143
1.0
 70
1024
 72
1
 73
0
 74
0
  7

 75
0
147
1.0
148
0.0
149
0.0
100
AcDbLayout
  1
Model
 70
0
 71
0
 10
0.0
 20
0.0
 11
558.8
 21
431.8
 12
0.0
 22
0.0
 32
0.0
 14
0.0
 24
0.0
 34
0.0
 15
0.0
 25
0.0
 35
0.0
146
0.0
 13
0.0
 23
0.0
 33
0.0
 16
1.0
 26
0.0
 36
0.0
 17
0.0
 27
1.0
 37
0.0
 76
0
330
211
345
0
346
0
  0
LAYOUT
  5
478
102
{ACAD_REACTORS
330
1A
102
}
100
AcDbPlotSettings
  1

  2
none_device
  4
ANSI_C_(22.00_x_17.00_Inches)
  6

 40
0.0
 41
0.0
 42
0.0
 43
0.0
 44
558.8
 45
431.8
 46
0.0
 47
0.0
 48
0.0
 49
0.0
140
0.0
141
0.0
142
1.0
143
1.0
 70
0
 72
1
 73
0
 74
0
  7

 75
0
147
1.0
148
0.0
149
0.0
100
AcDbLayout
  1
Layout1
 70
0
 71
1
 10
0.0
 20
0.0
 11
558.8
 21
431.8
 12
0.0
 22
0.0
 32
0.0
 14
0.0
 24
0.0
 34
0.0
 15
0.0
 25
0.0
 35
0.0
146
0.0
 13
0.0
 23
0.0
 33
0.0
 16
1.0
 26
0.0
 36
0.0
 17
0.0
 27
1.0
 37
0.0
 76
0
330
212
345
0
346
0
  0
ENDSEC
  0
EOF
