  0
SECTION
  2
HEADER
  9
$ACADVER
  1
AC1015
  9
$DWGCODEPAGE
  3
ANSI_1252
  9
$EXTMAX
 10
297.0
 20
210.0
 30
0.0
  9
$EXTMIN
 10
0.0
 20
0.0
 30
0.0
  9
$LIMMIN
 10
0.0
 20
0.0
  9
$LIMMAX
 10
297.0
 20
210.0
  9
$VIEWCTR
 10
148.5
 20
105.0
  9
$VIEWSIZE
 40
210.0
  9
$CLAYER
  8
0
  9
$LTSCALE
 40
16.335
  9
$CELTYPE
  6
BYLAYER
  9
$DIMSCALE
 40
1.0
  9
$DIMASZ
 40
3.0
  9
$DIMEXO
 40
1.85625
  9
$DIMDLI
 40
11.286
  9
$DIMEXE
 40
5.346
  9
$DIMCEN
 40
2.673
  9
$DIMLFAC
 40
1.0
  9
$DIMBLK
  1
_FILLED
  9
$DIMTXT
 40
3.0
  9
$DIMTOL
 70
1
  9
$DIMLIM
 70
0
  9
$DIMTFAC
 40
1.0
  9
$DIMTP
 40
0.01
  9
$DIMTM
 40
0.01
  9
$PDMODE
 70
3
  9
$PDSIZE
 40
3.0
  9
$HANDSEED
  5
62E
  9
$TILEMODE
 70
1
  9
$MEASUREMENT
 70
1
  9
$INSUNITS
 70
4
  0
ENDSEC
  0
SECTION
  2
CLASSES
  0
CLASS
  1
ACDBDICTIONARYWDFLT
  2
AcDbDictionaryWithDefault
  3
AutoCAD 2000
 90
0
280
0
281
0
  0
CLASS
  1
ACDBPLACEHOLDER
  2
AcDbPlaceHolder
  3
AutoCAD 2000
 90
0
280
0
281
0
  0
CLASS
  1
LAYOUT
  2
AcDbLayout
  3
AutoCAD 2000
 90
0
280
0
281
0
  0
ENDSEC
  0
SECTION
  2
TABLES
  0
TABLE
  2
VPORT
  5
8
100
AcDbSymbolTable
 70
2
  0
VPORT
  5
1F4
100
AcDbSymbolTableRecord
100
AcDbViewportTableRecord
  2
*ACTIVE
 70
0
 10
0.0
 20
0.0
 11
1.0
 21
1.0
 12
148.5
 22
105.0
 13
0.0
 23
0.0
 14
1.0
 24
1.0
 15
0.0
 25
0.0
 16
0.0
 26
0.0
 36
1.0
 17
0.0
 27
0.0
 37
0.0
 40
210.0
 41
1.4142857143
 42
50.0
 43
0.0
 44
0.0
 50
0.0
 51
0.0
 71
0
 72
100
 73
1
 74
1
 75
0
 76
0
 77
0
 78
0
  0
ENDTAB
  0
TABLE
  2
LTYPE
  5
5
100
AcDbSymbolTable
 70
6
  0
LTYPE
  5
14
100
AcDbSymbolTableRecord
100
AcDbLinetypeTableRecord
  2
BYBLOCK
 70
0
  3

 72
65
 73
0
 40
0.0
  0
LTYPE
  5
15
100
AcDbSymbolTableRecord
100
AcDbLinetypeTableRecord
  2
BYLAYER
 70
0
  3

 72
65
 73
0
 40
0.0
  0
LTYPE
  5
16
100
AcDbSymbolTableRecord
100
AcDbLinetypeTableRecord
  2
CONTINUOUS
 70
64
  3
Solid line
 72
65
 73
0
 40
0.0
  0
LTYPE
  5
1F5
100
AcDbSymbolTableRecord
100
AcDbLinetypeTableRecord
  2
CENTER
 70
64
  3
____ _ ____ _ ____ _ ____ _ ____ _ ____ _ ____
 72
65
 73
4
 40
0.6
 49
0.375
 74
0
 49
-0.075
 74
0
 49
0.075
 74
0
 49
-0.075
 74
0
  0
LTYPE
  5
1F6
100
AcDbSymbolTableRecord
100
AcDbLinetypeTableRecord
  2
HIDDEN
 70
64
  3
- - - - - - - - - - - - - - - - - - - -
 72
65
 73
2
 40
0.2
 49
0.1
 74
0
 49
-0.1
 74
0
  0
LTYPE
  5
1F7
100
AcDbSymbolTableRecord
100
AcDbLinetypeTableRecord
  2
PHANTOM
 70
64
  3
_____ _ _ _____ _ _ _____ _ _ _____
 72
65
 73
6
 40
0.8
 49
0.45
 74
0
 49
-0.05
 74
0
 49
0.1
 74
0
 49
-0.05
 74
0
 49
0.1
 74
0
 49
-0.05
 74
0
  0
LTYPE
  5
1F8
100
AcDbSymbolTableRecord
100
AcDbLinetypeTableRecord
  2
DOT
 70
64
  3
. . . . . . . . . . . . . . . . . . . .
 72
65
 73
2
 40
0.2
 49
0.1
 74
0
 49
-0.1
 74
0
  0
LTYPE
  5
1F9
100
AcDbSymbolTableRecord
100
AcDbLinetypeTableRecord
  2
DASHED
 70
64
  3
- - - - - - - - - - - - - - - - - - - -
 72
65
 73
2
 40
0.2
 49
0.1
 74
0
 49
-0.1
 74
0
  0
ENDTAB
  0
TABLE
  2
LAYER
  5
2
100
AcDbSymbolTable
 70
36
  0
LAYER
  5
10
100
AcDbSymbolTableRecord
100
AcDbLayerTableRecord
  2
0
 70
0
 62
7
  6
CONTINUOUS
370
-3
390
F
  0
LAYER
  5
1FA
100
AcDbSymbolTableRecord
100
AcDbLayerTableRecord
  2
DEFAULT_1
 70
0
 62
7
  6
CENTER
370
-3
390
F
  0
LAYER
  5
1FB
100
AcDbSymbolTableRecord
100
AcDbLayerTableRecord
  2
DEFAULT_2
 70
0
 62
7
  6
HIDDEN
370
-3
390
F
  0
LAYER
  5
1FC
100
AcDbSymbolTableRecord
100
AcDbLayerTableRecord
  2
DEFAULT_3
 70
0
 62
7
  6
PHANTOM
370
-3
390
F
  0
LAYER
  5
1FD
100
AcDbSymbolTableRecord
100
AcDbLayerTableRecord
  2
ASSI
 70
0
 62
7
  6
CONTINUOUS
370
-3
390
F
  0
LAYER
  5
1FE
100
AcDbSymbolTableRecord
100
AcDbLayerTableRecord
  2
COLOR17
 70
0
 62
7
  6
CONTINUOUS
370
-3
390
F
  0
LAYER
  5
1FF
100
AcDbSymbolTableRecord
100
AcDbLayerTableRecord
  2
COLOR3
 70
0
 62
7
  6
CONTINUOUS
370
-3
390
F
  0
LAYER
  5
200
100
AcDbSymbolTableRecord
100
AcDbLayerTableRecord
  2
COLOR5
 70
0
 62
7
  6
CONTINUOUS
370
-3
390
F
  0
LAYER
  5
201
100
AcDbSymbolTableRecord
100
AcDbLayerTableRecord
  2
COORDINATE
 70
0
 62
7
  6
CONTINUOUS
370
-3
390
F
  0
LAYER
  5
202
100
AcDbSymbolTableRecord
100
AcDbLayerTableRecord
  2
COORD_ORIGINE
 70
0
 62
7
  6
CONTINUOUS
370
-3
390
F
  0
LAYER
  5
203
100
AcDbSymbolTableRecord
100
AcDbLayerTableRecord
  2
COPY_PUBLISH
 70
0
 62
7
  6
CONTINUOUS
370
-3
390
F
  0
LAYER
  5
204
100
AcDbSymbolTableRecord
100
AcDbLayerTableRecord
  2
COSMETICI
 70
0
 62
7
  6
CONTINUOUS
370
-3
390
F
  0
LAYER
  5
205
100
AcDbSymbolTableRecord
100
AcDbLayerTableRecord
  2
CURVE
 70
0
 62
7
  6
CONTINUOUS
370
-3
390
F
  0
LAYER
  5
206
100
AcDbSymbolTableRecord
100
AcDbLayerTableRecord
  2
DRAFT
 70
0
 62
7
  6
CONTINUOUS
370
-3
390
F
  0
LAYER
  5
207
100
AcDbSymbolTableRecord
100
AcDbLayerTableRecord
  2
IGES
 70
0
 62
7
  6
CONTINUOUS
370
-3
390
F
  0
LAYER
  5
208
100
AcDbSymbolTableRecord
100
AcDbLayerTableRecord
  2
IMPORT
 70
0
 62
7
  6
CONTINUOUS
370
-3
390
F
  0
LAYER
  5
209
100
AcDbSymbolTableRecord
100
AcDbLayerTableRecord
  2
IMPORT_IGES
 70
0
 62
7
  6
CONTINUOUS
370
-3
390
F
  0
LAYER
  5
20A
100
AcDbSymbolTableRecord
100
AcDbLayerTableRecord
  2
INCISIONI_LASER
 70
0
 62
7
  6
CONTINUOUS
370
-3
390
F
  0
LAYER
  5
20B
100
AcDbSymbolTableRecord
100
AcDbLayerTableRecord
  2
NOTE
 70
0
 62
7
  6
CONTINUOUS
370
-3
390
F
  0
LAYER
  5
20C
100
AcDbSymbolTableRecord
100
AcDbLayerTableRecord
  2
PIANI
 70
0
 62
7
  6
CONTINUOUS
370
-3
390
F
  0
LAYER
  5
20D
100
AcDbSymbolTableRecord
100
AcDbLayerTableRecord
  2
PIANI_ORIGINE
 70
0
 62
7
  6
CONTINUOUS
370
-3
390
F
  0
LAYER
  5
20E
100
AcDbSymbolTableRecord
100
AcDbLayerTableRecord
  2
PIANI_RIFERIMENTO
 70
0
 62
7
  6
CONTINUOUS
370
-3
390
F
  0
LAYER
  5
20F
100
AcDbSymbolTableRecord
100
AcDbLayerTableRecord
  2
PUNTI
 70
0
 62
7
  6
CONTINUOUS
370
-3
390
F
  0
LAYER
  5
210
100
AcDbSymbolTableRecord
100
AcDbLayerTableRecord
  2
RACCORDO
 70
0
 62
7
  6
CONTINUOUS
370
-3
390
F
  0
LAYER
  5
211
100
AcDbSymbolTableRecord
100
AcDbLayerTableRecord
  2
SIMBOLI
 70
0
 62
7
  6
CONTINUOUS
370
-3
390
F
  0
LAYER
  5
212
100
AcDbSymbolTableRecord
100
AcDbLayerTableRecord
  2
SMUSSO
 70
0
 62
7
  6
CONTINUOUS
370
-3
390
F
  0
LAYER
  5
213
100
AcDbSymbolTableRecord
100
AcDbLayerTableRecord
  2
SNAPLINE
 70
0
 62
7
  6
CONTINUOUS
370
-3
390
F
  0
LAYER
  5
214
100
AcDbSymbolTableRecord
100
AcDbLayerTableRecord
  2
SUPERFICI
 70
0
 62
7
  6
CONTINUOUS
370
-3
390
F
  0
LAYER
  5
215
100
AcDbSymbolTableRecord
100
AcDbLayerTableRecord
  2
TRASH
 70
0
 62
7
  6
CONTINUOUS
370
-3
390
F
  0
LAYER
  5
216
100
AcDbSymbolTableRecord
100
AcDbLayerTableRecord
  2
XSEC_DATUMS
 70
0
 62
7
  6
CONTINUOUS
370
-3
390
F
  0
LAYER
  5
217
100
AcDbSymbolTableRecord
100
AcDbLayerTableRecord
  2
___SHELL
 70
0
 62
7
  6
CONTINUOUS
370
-3
390
F
  0
ENDTAB
  0
TABLE
  2
STYLE
  5
3
100
AcDbSymbolTable
 70
1
  0
STYLE
  5
11
100
AcDbSymbolTableRecord
100
AcDbTextStyleTableRecord
  2
STANDARD
 70
0
 40
0.0
 41
0.8
 50
0.0
 71
0
 42
0.2
  3
txt
  4

  0
STYLE
  5
218
100
AcDbSymbolTableRecord
100
AcDbTextStyleTableRecord
  2
TEXTSTYLE_1
 70
0
 40
0.0
 41
0.8
 50
0.0
 71
0
 42
0.2
  3
gdt
  4

  0
ENDTAB
  0
TABLE
  2
VIEW
  5
6
100
AcDbSymbolTable
 70
0
  0
ENDTAB
  0
TABLE
  2
UCS
  5
7
100
AcDbSymbolTable
 70
0
  0
ENDTAB
  0
TABLE
  2
APPID
  5
9
100
AcDbSymbolTable
 70
1
  0
APPID
  5
219
100
AcDbSymbolTableRecord
100
AcDbRegAppTableRecord
  2
ACAD
 70
0
  0
ENDTAB
  0
TABLE
  2
BLOCK_RECORD
  5
1
100
AcDbSymbolTable
 70
0
  0
BLOCK_RECORD
  5
21A
100
AcDbSymbolTableRecord
100
AcDbBlockTableRecord
  2
*Model_Space
  0
BLOCK_RECORD
  5
21B
100
AcDbSymbolTableRecord
100
AcDbBlockTableRecord
  2
*Paper_Space
  0
ENDTAB
  0
TABLE
  2
DIMSTYLE
  5
A
100
AcDbSymbolTable
 70
1
100
AcDbDimStyleTable
 71
0
  0
DIMSTYLE
105
21C
100
AcDbSymbolTableRecord
100
AcDbDimStyleTableRecord
  2
STANDARD
 70
0
  3

  4

 40
1.0
 41
3.0
 42
0.0625
 43
0.38
 44
0.18
 45
0.0
 46
0.0
 47
0.01
 48
0.01
140
3.0
141
0.09
142
0.0
143
25.4
144
1.0
145
0.0
146
1.0
147
0.09
 71
1.0
 72
0.0
 73
0
 74
0
 75
0
 76
0
 77
1
 78
8
170
0
171
2
172
0
173
0
174
0
175
0
176
0
177
0
178
0
270
2
271
2
272
2
273
2
274
2
275
0
280
0
281
0
282
0
283
1
284
8
285
0
286
0
287
3
288
0
340
11
  0
ENDTAB
  0
ENDSEC
  0
SECTION
  2
BLOCKS
  0
BLOCK
  5
20
100
AcDbEntity
  8
0
100
AcDbBlockBegin
  2
*Model_Space
 70
0
 10
0.0
 20
0.0
 30
0.0
  3
*Model_Space
  1

  0
ENDBLK
  5
21
100
AcDbEntity
  8
0
100
AcDbBlockEnd
  0
BLOCK
  5
1C
100
AcDbEntity
  8
0
100
AcDbBlockBegin
  2
*Paper_Space
 70
0
 10
0.0
 20
0.0
 30
0.0
  3
*Paper_Space
  1

  0
ENDBLK
  5
1D
100
AcDbEntity
  8
0
100
AcDbBlockEnd
  0
ENDSEC
  0
SECTION
  2
ENTITIES
  0
LWPOLYLINE
  5
21D
100
AcDbEntity
  8
RACCORDO
100
AcDbPolyline
 62
7
  6
CONTINUOUS
 90
33
 70
0
 10
-9.9491726596
 20
20.9835437124
 10
-9.9632803491
 20
20.9757641411
 10
-9.9831865354
 20
20.9641868479
 10
-10.0024759144
 20
20.9522418467
 10
-10.0211642668
 20
20.9399198364
 10
-10.0392288101
 20
20.9272359678
 10
-10.0566121677
 20
20.9142344191
 10
-10.0733179544
 20
20.9009198096
 10
-10.0893458668
 20
20.8872991675
 10
-10.1046429025
 20
20.8734281684
 10
-10.1192148739
 20
20.8593173607
 10
-10.1330684192
 20
20.8449761555
 10
-10.1461622379
 20
20.8304679875
 10
-10.1584909481
 20
20.8158278942
 10
-10.1700836464
 20
20.8010514362
 10
-10.1809540955
 20
20.7861492161
 10
-10.191105566
 20
20.7711469522
 10
-10.2005551249
 20
20.7560516342
 10
-10.2093308452
 20
20.7408471211
 10
-10.2174387443
 20
20.7255492526
 10
-10.224885221
 20
20.7101748722
 10
-10.2316904232
 20
20.6947095099
 10
-10.2378588026
 20
20.6791673453
 10
-10.2433932432
 20
20.6635679471
 10
-10.2483055167
 20
20.6479055524
 10
-10.2525989663
 20
20.6321959902
 10
-10.256276578
 20
20.6164587609
 10
-10.2593456956
 20
20.6006943826
 10
-10.2618096099
 20
20.5849213501
 10
-10.2636727256
 20
20.5691573942
 10
-10.2649412822
 20
20.5534022942
 10
-10.2656192872
 20
20.5376679803
 10
-10.2657452593
 20
20.5273189097
  0
LINE
  5
21E
100
AcDbEntity
  8
RACCORDO
100
AcDbLine
 62
7
  6
CONTINUOUS
 10
-8.4849472206
 20
21.7735269759
 11
-9.9491748901
 21
20.9835425564
  0
LINE
  5
21F
100
AcDbEntity
  8
RACCORDO
100
AcDbLine
 62
7
  6
CONTINUOUS
 10
-8.4797349174
 20
21.7761337424
 11
-8.484943057
 21
21.7735292223
  0
LINE
  5
220
100
AcDbEntity
  8
RACCORDO
100
AcDbLine
 62
7
  6
CONTINUOUS
 10
-8.4797327854
 20
21.7761347268
 11
-1.2852390258
 21
25.0987903623
  0
LWPOLYLINE
  5
221
100
AcDbEntity
  8
RACCORDO
100
AcDbPolyline
 62
7
  6
CONTINUOUS
 90
30
 70
0
 10
-13.5255105695
 20
17.7031557637
 10
-13.5336245093
 20
17.6986173551
 10
-13.5415764414
 20
17.6937725572
 10
-13.5493519681
 20
17.6886284285
 10
-13.5569264959
 20
17.6832007801
 10
-13.5642977448
 20
17.6774911955
 10
-13.5714827532
 20
17.6714831083
 10
-13.5784876922
 20
17.6651632493
 10
-13.5852742277
 20
17.6585582767
 10
-13.5917945037
 20
17.651713265
 10
-13.598005826
 20
17.6446801626
 10
-13.6039349478
 20
17.6374365718
 10
-13.6096342877
 20
17.6299135707
 10
-13.6151218413
 20
17.6220672962
 10
-13.6203414265
 20
17.6139574615
 10
-13.6252345326
 20
17.6056696905
 10
-13.6297658673
 20
17.5972756978
 10
-13.6339631568
 20
17.5887374324
 10
-13.6378619555
 20
17.5799759749
 10
-13.6414749677
 20
17.5709307177
 10
-13.6447542194
 20
17.5616875518
 10
-13.6476498705
 20
17.5523867943
 10
-13.6501404921
 20
17.5431431783
 10
-13.6522617656
 20
17.5338761995
 10
-13.6540466035
 20
17.5244323825
 10
-13.6554952509
 20
17.5147096285
 10
-13.6565691774
 20
17.5048404724
 10
-13.6572463492
 20
17.4950197672
 10
-13.6575346881
 20
17.4853463608
 10
-13.6575483173
 20
17.4827377077
  0
LWPOLYLINE
  5
222
100
AcDbEntity
  8
RACCORDO
100
AcDbPolyline
 62
253
  6
CONTINUOUS
 90
112
 70
0
 10
-9.8335541137
 20
20.9784531252
 10
-9.8462119872
 20
20.9714329644
 10
-9.8584706404
 20
20.9642495531
 10
-9.8703300733
 20
20.9569028915
 10
-9.8817993709
 20
20.9493867487
 10
-9.8928694481
 20
20.9417073555
 10
-9.9035130502
 20
20.9338834039
 10
-9.9137287972
 20
20.9259147474
 10
-9.9235180691
 20
20.9178015325
 10
-9.9328577513
 20
20.9095628908
 10
-9.9417467404
 20
20.9011985505
 10
-9.9501861398
 20
20.8927087834
 10
-9.9581561455
 20
20.8841135375
 10
-9.9656556369
 20
20.875412595
 10
-9.9726857347
 20
20.8666061736
 10
-9.9792299967
 20
20.8577148738
 10
-9.9852873122
 20
20.8487384551
 10
-9.9908587919
 20
20.8396771578
 10
-9.9959313268
 20
20.8305523042
 10
-10.0005037288
 20
20.8213637649
 10
-10.0045771859
 20
20.8121116692
 10
-10.0081421531
 20
20.8028177269
 10
-10.0111974374
 20
20.7934818308
 10
-10.0137442318
 20
20.7841040882
 10
-10.0157765701
 20
20.7747065302
 10
-10.017293242
 20
20.7652891307
 10
-10.0182954578
 20
20.7558519158
 10
-10.018780882
 20
20.7464169949
 10
-10.0187483028
 20
20.7369843517
 10
-10.0181989319
 20
20.7275540025
 10
-10.0171340693
 20
20.7181481044
 10
-10.0155525047
 20
20.7087667279
 10
-10.0134554484
 20
20.6994098025
 10
-10.0108478319
 20
20.6900992749
 10
-10.007728455
 20
20.6808352484
 10
-10.0040985178
 20
20.6716176197
 10
-9.9999665519
 20
20.6624680245
 10
-9.9953313795
 20
20.6533866257
 10
-9.9901941785
 20
20.6443732604
 10
-9.9845670139
 20
20.6354490762
 10
-9.9784487388
 20
20.6266142851
 10
-9.9718405002
 20
20.6178686749
 10
-9.9647578043
 20
20.6092327563
 10
-9.9571995297
 20
20.6007067788
 10
-9.9491667979
 20
20.5922904929
 10
-9.9406784793
 20
20.5840036603
 10
-9.9317335188
 20
20.5758465974
 10
-9.9223329716
 20
20.5678189878
 10
-9.9124988741
 20
20.5599396445
 10
-9.9022301894
 20
20.5522089011
 10
-9.8915279544
 20
20.5446264239
 10
-9.8804173161
 20
20.5372100258
 10
-9.8688973416
 20
20.5299601126
 10
-9.8569689637
 20
20.5228762785
 10
-9.8446601283
 20
20.5159751182
 10
-9.8319699127
 20
20.5092570443
 10
-9.8188992395
 20
20.5027216443
 10
-9.8054788225
 20
20.4963842755
 10
-9.7917078732
 20
20.4902454175
 10
-9.77758718
 20
20.4843045907
 10
-9.7631498219
 20
20.4785757135
 10
-9.748395023
 20
20.4730592705
 10
-9.7333235592
 20
20.467754777
 10
-9.7179708366
 20
20.4626746978
 10
-9.7023362236
 20
20.457819569
 10
-9.6864203518
 20
20.4531888544
 10
-9.6702605219
 20
20.44879341
 10
-9.6538561365
 20
20.4446337811
 10
-9.6372077929
 20
20.4407094223
 10
-9.6203545844
 20
20.4370295534
 10
-9.6032960464
 20
20.4335947524
 10
-9.5860326436
 20
20.4304044413
 10
-9.5686048619
 20
20.4274661062
 10
-9.5510123092
 20
20.4247803372
 10
-9.5332553778
 20
20.4223465441
 10
-9.5153757305
 20
20.4201704437
 10
-9.4973730734
 20
20.4182526406
 10
-9.4792477003
 20
20.4165925301
 10
-9.4610421559
 20
20.4151940146
 10
-9.4427562625
 20
20.4140577089
 10
-9.4243901977
 20
20.4131829982
 10
-9.4059870395
 20
20.4125719406
 10
-9.3875466755
 20
20.4122251554
 10
-9.3690692181
 20
20.4121420234
 10
-9.3505980817
 20
20.4123227445
 10
-9.3321333236
 20
20.4127679369
 10
-9.3136748866
 20
20.4134769823
 10
-9.2952660132
 20
20.4144482263
 10
-9.2769067779
 20
20.415682286
 10
-9.2585971063
 20
20.4171785443
 10
-9.2403800166
 20
20.4189334942
 10
-9.2222557448
 20
20.4209477425
 10
-9.204224055
 20
20.4232206826
 10
-9.1863272581
 20
20.4257469876
 10
-9.168565632
 20
20.4285272614
 10
-9.1509388988
 20
20.4315609002
 10
-9.1334885358
 20
20.4348407658
 10
-9.116215039
 20
20.4383674197
 10
-9.0991179124
 20
20.4421403004
 10
-9.0822371461
 20
20.4461505853
 10
-9.0655731856
 20
20.4503988434
 10
-9.0491255853
 20
20.4548845058
 10
-9.0329329991
 20
20.4595970428
 10
-9.0169959858
 20
20.4645370104
 10
-9.0013139864
 20
20.4697038527
 10
-8.9859239778
 20
20.4750853727
 10
-8.9708264035
 20
20.4806822089
 10
-8.9560208199
 20
20.4864937228
 10
-8.9415428729
 20
20.4925058018
 10
-8.9274044445
 20
20.4987137418
 10
-8.9135936527
 20
20.5051222469
 10
-8.9001104975
 20
20.5117313171
  0
LINE
  5
223
100
AcDbEntity
  8
RACCORDO
100
AcDbLine
 62
253
  6
CONTINUOUS
 10
-8.3705618178
 20
21.7677710324
 11
-9.8335541137
 21
20.9784531252
  0
LINE
  5
224
100
AcDbEntity
  8
RACCORDO
100
AcDbLine
 62
7
  6
CONTINUOUS
 10
-10.2657453215
 20
19.4476867711
 11
-13.5255105695
 21
17.7031557637
  0
LINE
  5
225
100
AcDbEntity
  8
RACCORDO
100
AcDbLine
 62
253
  6
CONTINUOUS
 10
-10.2657105388
 20
19.3807276511
 11
-13.4100165054
 21
17.6979870737
  0
LINE
  5
226
100
AcDbEntity
  8
RACCORDO
100
AcDbLine
 62
253
  6
CONTINUOUS
 10
-8.9001104975
 20
20.5117313171
 11
-7.3851376263
 21
21.2750589366
  0
LINE
  5
227
100
AcDbEntity
  8
RACCORDO
100
AcDbLine
 62
253
  6
CONTINUOUS
 10
-8.7233607261
 20
20.2068830555
 11
-7.2115268857
 21
20.9686290566
  0
LINE
  5
228
100
AcDbEntity
  8
RACCORDO
100
AcDbLine
 62
253
  6
CONTINUOUS
 10
-2.9934651062
 20
23.3033824347
 11
-0.2869161059
 21
24.6458506918
  0
LINE
  5
229
100
AcDbEntity
  8
RACCORDO
100
AcDbLine
 62
253
  6
CONTINUOUS
 10
-2.8197466616
 20
22.9970306126
 11
-0.1101663346
 21
24.3410024301
  0
LINE
  5
22A
100
AcDbEntity
  8
RACCORDO
100
AcDbLine
 62
253
  6
CONTINUOUS
 10
-8.3705618178
 20
21.7677710324
 11
-1.1760680582
 21
25.0904266679
  0
LINE
  5
22B
100
AcDbEntity
  8
RACCORDO
100
AcDbLine
 62
253
  6
CONTINUOUS
 10
-7.3852453303
 20
21.2751127886
 11
-2.9934651062
 21
23.3033824347
  0
LINE
  5
22C
100
AcDbEntity
  8
RACCORDO
100
AcDbLine
 62
253
  6
CONTINUOUS
 10
-7.2115268857
 20
20.9686290566
 11
-2.8197466616
 21
22.9968987027
  0
LWPOLYLINE
  5
22D
100
AcDbEntity
  8
RACCORDO
100
AcDbPolyline
 62
7
  6
CONTINUOUS
 90
46
 70
0
 10
-15.6751217639
 20
12.6035514569
 10
-15.6900249502
 20
12.592348385
 10
-15.7103059773
 20
12.5764142193
 10
-15.7302997595
 20
12.5599080289
 10
-15.7499994223
 20
12.5428453983
 10
-15.7693980084
 20
12.5252421696
 10
-15.7884857928
 20
12.5071161818
 10
-15.8072561453
 20
12.4884827434
 10
-15.8257015731
 20
12.4693575656
 10
-15.8438096734
 20
12.4497613183
 10
-15.8615733158
 20
12.4297099633
 10
-15.8789853722
 20
12.4092188061
 10
-15.8960331971
 20
12.3883100312
 10
-15.9127091459
 20
12.3670005248
 10
-15.9290065598
 20
12.3453052791
 10
-15.9449143307
 20
12.3232459402
 10
-15.9604233854
 20
12.3008417747
 10
-15.9755288367
 20
12.2781058256
 10
-15.9902255837
 20
12.2550515231
 10
-16.0045058765
 20
12.2316955763
 10
-16.0183631051
 20
12.2080531509
 10
-16.0317929263
 20
12.1841353612
 10
-16.0447877634
 20
12.1599579478
 10
-16.0573404242
 20
12.1355366964
 10
-16.0694459482
 20
12.1108823568
 10
-16.0810966306
 20
12.0860105192
 10
-16.0922850553
 20
12.0609369166
 10
-16.1030056503
 20
12.0356719955
 10
-16.113250812
 20
12.0102308118
 10
-16.1230125808
 20
11.9846294871
 10
-16.1322843456
 20
11.9588795529
 10
-16.1410589153
 20
11.9329944406
 10
-16.1493273905
 20
11.9069918039
 10
-16.1570810894
 20
11.8808889207
 10
-16.1643123722
 20
11.8547007288
 10
-16.1710128401
 20
11.828443414
 10
-16.1771738874
 20
11.8021351679
 10
-16.1827876875
 20
11.7757912356
 10
-16.1878459807
 20
11.7494272527
 10
-16.1923405539
 20
11.7230607444
 10
-16.1962632073
 20
11.6967076497
 10
-16.1996057426
 20
11.6703827662
 10
-16.2023600954
 20
11.6440999188
 10
-16.2045175826
 20
11.6178731234
 10
-16.2060694778
 20
11.5917197872
 10
-16.2067935551
 20
11.5733748782
  0
LINE
  5
22E
100
AcDbEntity
  8
RACCORDO
100
AcDbLine
 62
7
  6
CONTINUOUS
 10
-15.6751236171
 20
12.6035501403
 11
-13.3587724292
 21
14.3119916522
  0
LINE
  5
22F
100
AcDbEntity
  8
RACCORDO
100
AcDbLine
 62
253
  6
CONTINUOUS
 10
-15.557427577
 20
12.6002235688
 11
-13.234393088
 21
14.3135943976
  0
LWPOLYLINE
  5
230
100
AcDbEntity
  8
RACCORDO
100
AcDbPolyline
 62
253
  6
CONTINUOUS
 90
21
 70
0
 10
-15.6751217878
 20
12.6035514894
 10
-15.6732213636
 20
12.6049043258
 10
-15.6687392602
 20
12.6077378534
 10
-15.6640277061
 20
12.6102395331
 10
-15.6590943139
 20
12.6124053229
 10
-15.6539470549
 20
12.6142317233
 10
-15.6485942458
 20
12.6157157834
 10
-15.6430445352
 20
12.6168551053
 10
-15.6373068903
 20
12.6176478482
 10
-15.6313905815
 20
12.6180927311
 10
-15.6253051683
 20
12.6181890352
 10
-15.6190604831
 20
12.6179366049
 10
-15.6126666157
 20
12.6173358482
 10
-15.6061338971
 20
12.6163877356
 10
-15.5994728825
 20
12.6150937991
 10
-15.5926943345
 20
12.6134561294
 10
-15.5858092055
 20
12.6114773725
 10
-15.5788286202
 20
12.6091607256
 10
-15.5717638575
 20
12.6065099318
 10
-15.5646263323
 20
12.6035292742
 10
-15.557427577
 20
12.6002235688
  0
LINE
  5
231
100
AcDbEntity
  8
RACCORDO
100
AcDbLine
 62
7
  6
CONTINUOUS
 10
-7.6370817363
 20
18.2930040449
 11
-1.1226903867
 21
21.8076676292
  0
LINE
  5
232
100
AcDbEntity
  8
RACCORDO
100
AcDbLine
 62
7
  6
CONTINUOUS
 10
-6.595747899
 20
17.7723371263
 11
-5.3508941895
 21
18.3995636837
  0
LINE
  5
233
100
AcDbEntity
  8
RACCORDO
100
AcDbLine
 62
7
  6
CONTINUOUS
 10
-0.9384069566
 20
20.6228202445
 11
0.1501018194
 21
21.1712715262
  0
LINE
  5
234
100
AcDbEntity
  8
DRAFT
100
AcDbLine
 62
7
  6
CONTINUOUS
 10
-0.1101663346
 20
23.3624411486
 11
-2.8197466616
 21
22.0066767138
  0
LINE
  5
235
100
AcDbEntity
  8
0
100
AcDbLine
 62
7
  6
CONTINUOUS
 10
-5.0117776832
 20
19.5160248161
 11
-4.4018915886
 21
19.8209678634
  0
LINE
  5
236
100
AcDbEntity
  8
RACCORDO
100
AcDbLine
 62
7
  6
CONTINUOUS
 10
-2.8197466616
 20
22.0066767138
 11
-8.7233607261
 21
19.0569195831
  0
LINE
  5
237
100
AcDbEntity
  8
RACCORDO
100
AcDbLine
 62
7
  6
CONTINUOUS
 10
2.5183627067
 20
22.3459463853
 11
0.1501018194
 21
21.1712715262
  0
LWPOLYLINE
  5
238
100
AcDbEntity
  8
0
100
AcDbPolyline
 62
7
  6
CONTINUOUS
 90
13
 70
0
 10
-4.4018915886
 20
19.8209678634
 10
-4.395460624
 20
19.8241115886
 10
-4.3890360283
 20
19.8271092534
 10
-4.3826178017
 20
19.8299608579
 10
-4.3762038274
 20
19.8326672477
 10
-4.3697962221
 20
19.8352275771
 10
-4.3634013359
 20
19.8376393087
 10
-4.3570191813
 20
19.8399022954
 10
-4.3506497458
 20
19.8420166843
 10
-4.3442993417
 20
19.84398038
 10
-4.3379700729
 20
19.8457926842
 10
-4.3316598354
 20
19.8474542952
 10
-4.3253686292
 20
19.8489652131
  0
LINE
  5
239
100
AcDbEntity
  8
RACCORDO
100
AcDbLine
 62
7
  6
CONTINUOUS
 10
-1.1226903867
 20
21.8076676292
 11
1.329715553
 21
22.9402699621
  0
LINE
  5
23A
100
AcDbEntity
  8
RACCORDO
100
AcDbLine
 62
7
  6
CONTINUOUS
 10
1.4669474484
 20
-26.5520818023
 11
3.8694476309
 21
-25.9019804557
  0
LINE
  5
23B
100
AcDbEntity
  8
RACCORDO
100
AcDbLine
 62
253
  6
CONTINUOUS
 10
1.5753120567
 20
-26.4006780971
 11
3.9527909525
 21
-25.7573473523
  0
LWPOLYLINE
  5
23C
100
AcDbEntity
  8
RACCORDO
100
AcDbPolyline
 62
7
  6
CONTINUOUS
 90
8
 70
0
 10
-1.0881997494
 20
-25.5610135449
 10
-1.0558437944
 20
-25.5753549501
 10
-1.0116089869
 20
-25.5893958224
 10
-0.9650286134
 20
-25.5982952243
 10
-0.9168878811
 20
-25.6019034427
 10
-0.8674485259
 20
-25.6001705731
 10
-0.816448812
 20
-25.5931465199
 10
-0.8094458919
 20
-25.5915056809
  0
LWPOLYLINE
  5
23D
100
AcDbEntity
  8
RACCORDO
100
AcDbPolyline
 62
7
  6
CONTINUOUS
 90
24
 70
0
 10
1.0422438393
 20
-26.5173504285
 10
1.0510112679
 20
-26.5216365732
 10
1.0676957895
 20
-26.5292633036
 10
1.0846774591
 20
-26.5363405757
 10
1.1019470008
 20
-26.5428602863
 10
1.1195041017
 20
-26.5488172819
 10
1.1373357865
 20
-26.5542014152
 10
1.1554276526
 20
-26.5590029055
 10
1.1737781701
 20
-26.5632158509
 10
1.1923731452
 20
-26.5668309544
 10
1.2111989674
 20
-26.5698395683
 10
1.2302562452
 20
-26.572235433
 10
1.2495313574
 20
-26.5740101151
 10
1.2690106234
 20
-26.5751556008
 10
1.2886961236
 20
-26.5756645351
 10
1.3085750501
 20
-26.5755288371
 10
1.3286338195
 20
-26.5747409011
 10
1.3488749796
 20
-26.5732920295
 10
1.3692857527
 20
-26.5711739966
 10
1.3898544081
 20
-26.5683790665
 10
1.4105869097
 20
-26.5648963223
 10
1.4314774749
 20
-26.5607154688
 10
1.4525067113
 20
-26.555829511
 10
1.4669435614
 20
-26.5520828228
  0
LINE
  5
23E
100
AcDbEntity
  8
RACCORDO
100
AcDbLine
 62
7
  6
CONTINUOUS
 10
3.4843215863
 20
-29.4579185146
 11
-13.5193517162
 21
-20.9560818634
  0
LINE
  5
23F
100
AcDbEntity
  8
RACCORDO
100
AcDbLine
 62
253
  6
CONTINUOUS
 10
3.4193482899
 20
-29.3227000645
 11
-13.5843250126
 21
-20.8208634133
  0
LINE
  5
240
100
AcDbEntity
  8
RACCORDO
100
AcDbLine
 62
7
  6
CONTINUOUS
 10
-13.7455259141
 20
-19.2323903486
 11
-1.0883145308
 21
-25.5609960402
  0
LINE
  5
241
100
AcDbEntity
  8
RACCORDO
100
AcDbLine
 62
7
  6
CONTINUOUS
 10
1.0422820422
 20
-26.5173696479
 11
-1.0351838638
 21
-25.4786366949
  0
LINE
  5
242
100
AcDbEntity
  8
RACCORDO
100
AcDbLine
 62
7
  6
CONTINUOUS
 10
-13.9369152975
 20
-19.027770978
 11
-15.8776106891
 21
-18.0574232822
  0
LINE
  5
243
100
AcDbEntity
  8
RACCORDO
100
AcDbLine
 62
253
  6
CONTINUOUS
 10
-14.0048669722
 20
-18.725457178
 11
-1.347655589
 21
-25.0540628696
  0
LINE
  5
244
100
AcDbEntity
  8
RACCORDO
100
AcDbLine
 62
253
  6
CONTINUOUS
 10
0.7795396193
 20
-26.0086831484
 11
-1.2931669715
 21
-24.972329853
  0
LINE
  5
245
100
AcDbEntity
  8
RACCORDO
100
AcDbLine
 62
253
  6
CONTINUOUS
 10
-14.0608473016
 20
-18.5884896879
 11
-16.1335538924
 21
-17.5521363925
  0
LWPOLYLINE
  5
246
100
AcDbEntity
  8
RACCORDO
100
AcDbPolyline
 62
253
  6
CONTINUOUS
 90
24
 70
0
 10
-13.5193517094
 20
-20.9560818668
 10
-13.5204170473
 20
-20.9555406843
 10
-13.5257571129
 20
-20.9525608939
 10
-13.5309088172
 20
-20.9492303961
 10
-13.5358639516
 20
-20.9455544964
 10
-13.5406146197
 20
-20.9415390512
 10
-13.5451532511
 20
-20.9371904579
 10
-13.5494726125
 20
-20.9325156453
 10
-13.5535658192
 20
-20.9275220635
 10
-13.5574263479
 20
-20.9222176694
 10
-13.5610480466
 20
-20.9166109148
 10
-13.564425143
 20
-20.9107107346
 10
-13.5675522554
 20
-20.9045265305
 10
-13.5704244003
 20
-20.8980681566
 10
-13.573037
 20
-20.8913459059
 10
-13.5753858909
 20
-20.8843704904
 10
-13.5774673301
 20
-20.8771530252
 10
-13.5792780002
 20
-20.8697050119
 10
-13.5808150164
 20
-20.8620383171
 10
-13.5820759286
 20
-20.8541651595
 10
-13.5830587269
 20
-20.8460980921
 10
-13.5837618454
 20
-20.8378499725
 10
-13.5841841648
 20
-20.8294339424
 10
-13.5843250126
 20
-20.8208634133
  0
LWPOLYLINE
  5
247
100
AcDbEntity
  8
RACCORDO
100
AcDbPolyline
 62
7
  6
CONTINUOUS
 90
31
 70
0
 10
-13.5193506158
 20
-20.9560824136
 10
-13.5221563948
 20
-20.9546573975
 10
-13.5302615223
 20
-20.9502856928
 10
-13.5382010947
 20
-20.9456178622
 10
-13.5459737062
 20
-20.9406538631
 10
-13.5535715659
 20
-20.9353967522
 10
-13.5609795594
 20
-20.9298550392
 10
-13.5681850886
 20
-20.9240366163
 10
-13.5751762363
 20
-20.9179498099
 10
-13.5819439108
 20
-20.9116012138
 10
-13.5884800462
 20
-20.904996686
 10
-13.5947748155
 20
-20.8981441285
 10
-13.6008181194
 20
-20.8910524398
 10
-13.6066015335
 20
-20.8837292131
 10
-13.612116214
 20
-20.8761830182
 10
-13.6173525772
 20
-20.8684242198
 10
-13.6223015037
 20
-20.8604636155
 10
-13.6269542347
 20
-20.8523126366
 10
-13.6313034934
 20
-20.8439812141
 10
-13.6353427916
 20
-20.8354783543
 10
-13.6390653657
 20
-20.8268141153
 10
-13.6424636735
 20
-20.8180015259
 10
-13.6455306485
 20
-20.8090545016
 10
-13.6482604175
 20
-20.7999856931
 10
-13.6506477184
 20
-20.7908075709
 10
-13.6526874432
 20
-20.7815343048
 10
-13.6543752683
 20
-20.7721796781
 10
-13.6557076028
 20
-20.7627565619
 10
-13.6566812808
 20
-20.7532781055
 10
-13.657293692
 20
-20.7437554829
 10
-13.6575423299
 20
-20.7342052819
  0
LWPOLYLINE
  5
248
100
AcDbEntity
  8
RACCORDO
100
AcDbPolyline
 62
253
  6
CONTINUOUS
 90
24
 70
0
 10
3.4843215931
 20
-29.457918518
 10
3.4832562552
 20
-29.4573773355
 10
3.4779161896
 20
-29.4543975452
 10
3.4727644853
 20
-29.4510670474
 10
3.4678093509
 20
-29.4473911476
 10
3.4630586828
 20
-29.4433757025
 10
3.4585200513
 20
-29.4390271091
 10
3.4542006899
 20
-29.4343522966
 10
3.4501074833
 20
-29.4293587148
 10
3.4462469546
 20
-29.4240543206
 10
3.4426252559
 20
-29.418447566
 10
3.4392481595
 20
-29.4125473859
 10
3.436121047
 20
-29.4063631817
 10
3.4332489021
 20
-29.3999048079
 10
3.4306363024
 20
-29.3931825571
 10
3.4282874115
 20
-29.3862071416
 10
3.4262059724
 20
-29.3789896764
 10
3.4243953022
 20
-29.3715416631
 10
3.4228582861
 20
-29.3638749683
 10
3.4215973738
 20
-29.3560018108
 10
3.4206145756
 20
-29.3479347433
 10
3.4199114571
 20
-29.3396866238
 10
3.4194891377
 20
-29.3312705937
 10
3.4193482899
 20
-29.3227000645
  0
LWPOLYLINE
  5
249
100
AcDbEntity
  8
RACCORDO
100
AcDbPolyline
 62
7
  6
CONTINUOUS
 90
13
 70
0
 10
-13.7454111326
 20
-19.2324078533
 10
-13.754905201
 20
-19.2274794854
 10
-13.7944096583
 20
-19.203068242
 10
-13.8309009967
 20
-19.1739275326
 10
-13.8643278759
 20
-19.1399767722
 10
-13.8947416363
 20
-19.1012965458
 10
-13.9216287462
 20
-19.0585406135
 10
-13.9449290549
 20
-19.0116404336
 10
-13.9647027133
 20
-18.9606645478
 10
-13.9806166421
 20
-18.9064723408
 10
-13.992559815
 20
-18.8493502744
 10
-14.0006432583
 20
-18.7890118867
 10
-14.0048669722
 20
-18.725457178
  0
LWPOLYLINE
  5
24A
100
AcDbEntity
  8
RACCORDO
100
AcDbPolyline
 62
253
  6
CONTINUOUS
 90
33
 70
0
 10
-15.8776062993
 20
-18.0574254771
 10
-15.8893450364
 20
-18.0512876607
 10
-15.9033033915
 20
-18.0432612304
 10
-15.9169311658
 20
-18.0346097342
 10
-15.9302185679
 20
-18.0253393759
 10
-15.9431564193
 20
-18.0154566185
 10
-15.9557354305
 20
-18.0049685445
 10
-15.9679466048
 20
-17.993882629
 10
-15.9797815859
 20
-17.9822065591
 10
-15.991231922
 20
-17.9699486231
 10
-16.0022893667
 20
-17.9571175803
 10
-16.0129462822
 20
-17.9437224346
 10
-16.0231950322
 20
-17.9297727273
 10
-16.0330282685
 20
-17.9152783769
 10
-16.0424392266
 20
-17.900249541
 10
-16.0514211867
 20
-17.8846968704
 10
-16.0599676822
 20
-17.8686314471
 10
-16.0680727938
 20
-17.8520646336
 10
-16.0757307047
 20
-17.8350082536
 10
-16.0829359475
 20
-17.8174743728
 10
-16.0896836057
 20
-17.7994752304
 10
-16.0959688651
 20
-17.7810235525
 10
-16.1017871922
 20
-17.7621324675
 10
-16.1071345792
 20
-17.742815286
 10
-16.1120072192
 20
-17.7230856334
 10
-16.1164015866
 20
-17.7029575617
 10
-16.1203146192
 20
-17.6824454665
 10
-16.1237435076
 20
-17.6615640859
 10
-16.1266858324
 20
-17.6403280355
 10
-16.1291396225
 20
-17.6187519059
 10
-16.1311031417
 20
-17.5968508114
 10
-16.1325749219
 20
-17.5746404018
 10
-16.1335538924
 20
-17.5521363925
  0
LWPOLYLINE
  5
24B
100
AcDbEntity
  8
RACCORDO
100
AcDbPolyline
 62
253
  6
CONTINUOUS
 90
20
 70
0
 10
-16.2067155332
 20
-17.4649140113
 10
-16.2062285048
 20
-17.4701175678
 10
-16.205346017
 20
-17.4752975831
 10
-16.2040694696
 20
-17.4804458408
 10
-16.2024008874
 20
-17.4855541747
 10
-16.2003429173
 20
-17.4906144821
 10
-16.1978988234
 20
-17.4956187362
 10
-16.1950724826
 20
-17.5005589995
 10
-16.191868378
 20
-17.5054274356
 10
-16.1882915919
 20
-17.5102163224
 10
-16.1843477978
 20
-17.5149180637
 10
-16.1800432514
 20
-17.5195252017
 10
-16.1753847804
 20
-17.5240304285
 10
-16.1703797741
 20
-17.5284265981
 10
-16.1650361713
 20
-17.5327067372
 10
-16.1593624481
 20
-17.5368640567
 10
-16.1533676041
 20
-17.5408919624
 10
-16.1470611483
 20
-17.5447840651
 10
-16.1404530838
 20
-17.5485341913
 10
-16.1335538924
 20
-17.5521363925
  0
LWPOLYLINE
  5
24C
100
AcDbEntity
  8
RACCORDO
100
AcDbPolyline
 62
7
  6
CONTINUOUS
 90
36
 70
0
 10
-16.2067852952
 20
-17.4633205556
 10
-16.206057979
 20
-17.4810668378
 10
-16.2045320027
 20
-17.5055701583
 10
-16.2024091313
 20
-17.5297989841
 10
-16.1996872485
 20
-17.5537552732
 10
-16.1963672421
 20
-17.577414296
 10
-16.1924559127
 20
-17.6007245352
 10
-16.1879556186
 20
-17.6236777331
 10
-16.1828690709
 20
-17.6462637473
 10
-16.1772096882
 20
-17.6684313882
 10
-16.170983067
 20
-17.6901734018
 10
-16.1641951787
 20
-17.7114815841
 10
-16.1568668157
 20
-17.7323067273
 10
-16.1490074925
 20
-17.7526426499
 10
-16.1406268595
 20
-17.772483419
 10
-16.131753309
 20
-17.7917834901
 10
-16.1224059432
 20
-17.8105280658
 10
-16.112593799
 20
-17.8287243956
 10
-16.1023351201
 20
-17.8463614483
 10
-16.0916508544
 20
-17.8634266441
 10
-16.0805515316
 20
-17.879926053
 10
-16.0690398689
 20
-17.8958742085
 10
-16.057130692
 20
-17.9112662579
 10
-16.0448395754
 20
-17.9260978132
 10
-16.0321685878
 20
-17.9403799996
 10
-16.0191331156
 20
-17.9541068973
 10
-16.0057485419
 20
-17.9672736381
 10
-15.9920156923
 20
-17.9798894717
 10
-15.9779505202
 20
-17.9919481115
 10
-15.9635685663
 20
-18.0034443828
 10
-15.9488688549
 20
-18.0143860482
 10
-15.9338671126
 20
-18.0247672551
 10
-15.9185797198
 20
-18.0345824342
 10
-15.9030054529
 20
-18.043836864
 10
-15.8871543479
 20
-18.0525279123
 10
-15.8775649707
 20
-18.057446023
  0
LWPOLYLINE
  5
24D
100
AcDbEntity
  8
RACCORDO
100
AcDbPolyline
 62
253
  6
CONTINUOUS
 90
28
 70
0
 10
-16.1335538924
 20
-17.5521363925
 10
-16.1663377545
 20
-16.4941284755
 10
-16.1966008658
 20
-15.4347005843
 10
-16.2243429634
 20
-14.3738617715
 10
-16.2495638026
 20
-13.3116211043
 10
-16.2722631678
 20
-12.2479876562
 10
-16.292440872
 20
-11.1829705069
 10
-16.310096741
 20
-10.1165787549
 10
-16.3252306203
 20
-9.0488215123
 10
-16.3378423851
 20
-7.9797078976
 10
-16.3479319271
 20
-6.9092470451
 10
-16.3554991574
 20
-5.8374480998
 10
-16.3605440138
 20
-4.7643202121
 10
-16.3630664535
 20
-3.6898725498
 10
-16.3630664535
 20
-2.6141142917
 10
-16.3605440138
 20
-1.5370546216
 10
-16.3554991574
 20
-0.458702739
 10
-16.3479319271
 20
0.6209321433
 10
-16.3378423851
 20
1.7018408056
 10
-16.3252306203
 20
2.7840140167
 10
-16.310096741
 20
3.8674425311
 10
-16.292440872
 20
4.9521170924
 10
-16.2722631678
 20
6.0380284358
 10
-16.2495638026
 20
7.1251672864
 10
-16.2243429634
 20
8.2135243571
 10
-16.1966008658
 20
9.3030903516
 10
-16.1663377545
 20
10.3938559652
 10
-16.1335538924
 20
11.485811882
  0
LWPOLYLINE
  5
24E
100
AcDbEntity
  8
RACCORDO
100
AcDbPolyline
 62
7
  6
CONTINUOUS
 90
28
 70
0
 10
-16.2067935103
 20
11.5733770813
 10
-16.2393947039
 20
10.4877289035
 10
-16.2696838006
 20
9.3965059574
 10
-16.2974497324
 20
8.3064810347
 10
-16.3226922052
 20
7.2176646097
 10
-16.3454110103
 20
6.1300657486
 10
-16.3656059628
 20
5.0436929213
 10
-16.3832768787
 20
3.9585548437
 10
-16.3984235972
 20
2.8746611184
 10
-16.4110459675
 20
1.7920215456
 10
-16.4211438571
 20
0.7106455271
 10
-16.4287171806
 20
-0.3694577777
 10
-16.4337658626
 20
-1.448278935
 10
-16.4362898401
 20
-2.5258087388
 10
-16.4362890933
 20
-3.6020379788
 10
-16.4337636135
 20
-4.6769572157
 10
-16.4287134035
 20
-5.7505572484
 10
-16.4211385089
 20
-6.8228289295
 10
-16.411038988
 20
-7.8937629028
 10
-16.3984149088
 20
-8.9633500882
 10
-16.3832663865
 20
-10.0315812125
 10
-16.3655935545
 20
-11.0984466324
 10
-16.3453965563
 20
-12.163936903
 10
-16.3226755585
 20
-13.2280434891
 10
-16.2974307286
 20
-14.2907581118
 10
-16.2696622575
 20
-15.3520719164
 10
-16.239370422
 20
-16.4119747232
 10
-16.2067852942
 20
-17.463321841
  0
LWPOLYLINE
  5
24F
100
AcDbEntity
  8
RACCORDO
100
AcDbPolyline
 62
253
  6
CONTINUOUS
 90
52
 70
0
 10
-16.1335538924
 20
11.485811882
 10
-16.1325749193
 20
11.5093209498
 10
-16.1311031352
 20
11.5330422159
 10
-16.1291396117
 20
11.5569588934
 10
-16.1266858185
 20
11.581053914
 10
-16.1237434924
 20
11.605310377
 10
-16.1203146032
 20
11.6297115711
 10
-16.1164015696
 20
11.6542404933
 10
-16.1120072015
 20
11.6788795643
 10
-16.1071345603
 20
11.7036110823
 10
-16.1017871704
 20
11.7284174997
 10
-16.0959688393
 20
11.7532813544
 10
-16.0896835764
 20
11.7781849929
 10
-16.0829359168
 20
11.8031107748
 10
-16.0757306736
 20
11.8280411385
 10
-16.0680727626
 20
11.8529585278
 10
-16.0599676506
 20
11.8778454365
 10
-16.0514211547
 20
11.9026841974
 10
-16.0424391938
 20
11.9274570482
 10
-16.0330282343
 20
11.9521464645
 10
-16.0231949961
 20
11.9767350515
 10
-16.0129462438
 20
12.0012053334
 10
-16.0022893252
 20
12.0255400673
 10
-15.991231877
 20
12.0497220517
 10
-15.9797815377
 20
12.0737340202
 10
-15.9679465544
 20
12.0975589872
 10
-15.9557353784
 20
12.1211801924
 10
-15.9431563662
 20
12.1445809069
 10
-15.9302185149
 20
12.167744679
 10
-15.9169311136
 20
12.1906551166
 10
-15.9033033397
 20
12.2132958318
 10
-15.8893449844
 20
12.2356508482
 10
-15.8750660343
 20
12.2577044212
 10
-15.8604763176
 20
12.2794408163
 10
-15.8455862766
 20
12.3008447552
 10
-15.8304066032
 20
12.3219011133
 10
-15.8149478266
 20
12.3425947456
 10
-15.7992210954
 20
12.3629110153
 10
-15.7832376297
 20
12.3828356853
 10
-15.7670083539
 20
12.4023546108
 10
-15.7505448781
 20
12.4214540872
 10
-15.7338590312
 20
12.440120627
 10
-15.7169623135
 20
12.4583408508
 10
-15.699866792
 20
12.4761019951
 10
-15.6825847723
 20
12.4933915018
 10
-15.6651283324
 20
12.5101968018
 10
-15.6475101661
 20
12.5265059411
 10
-15.6297427432
 20
12.5423076275
 10
-15.6118379767
 20
12.5575907986
 10
-15.5938084244
 20
12.5723447077
 10
-15.5756672887
 20
12.5865589633
 10
-15.557427577
 20
12.6002235688
  0
LINE
  5
250
100
AcDbEntity
  8
DRAFT
100
AcDbLine
 62
7
  6
CONTINUOUS
 10
0.2318821193
 20
18.9486041868
 11
-0.9962805763
 21
18.3025217936
  0
LINE
  5
251
100
AcDbEntity
  8
DRAFT
100
AcDbLine
 62
7
  6
CONTINUOUS
 10
-3.1225824374
 20
17.1839678756
 11
-4.0925388677
 21
16.6737164456
  0
LINE
  5
252
100
AcDbEntity
  8
RACCORDO
100
AcDbLine
 62
7
  6
CONTINUOUS
 10
-4.8257526639
 20
18.0355529889
 11
-6.595747899
 21
17.1511699638
  0
LWPOLYLINE
  5
253
100
AcDbEntity
  8
RACCORDO
100
AcDbPolyline
 62
7
  6
CONTINUOUS
 90
40
 70
0
 10
3.4193482899
 20
-26.4963721623
 10
3.4265453241
 20
-26.4998289965
 10
3.4339887071
 20
-26.5031306358
 10
3.4416784389
 20
-26.5062770804
 10
3.4496291481
 20
-26.5092733307
 10
3.457826206
 20
-26.5121143863
 10
3.4662257267
 20
-26.5147852457
 10
3.4748243191
 20
-26.5172839243
 10
3.4836253743
 20
-26.5196124069
 10
3.4925951797
 20
-26.5217616458
 10
3.501740791
 20
-26.5237321076
 10
3.5110551526
 20
-26.5255233258
 10
3.5204833844
 20
-26.5271248532
 10
3.530018168
 20
-26.528534619
 10
3.5396668219
 20
-26.529754694
 10
3.549396421
 20
-26.5307808437
 10
3.5592164164
 20
-26.5316129612
 10
3.5691173569
 20
-26.5322511535
 10
3.579037964
 20
-26.5326915066
 10
3.5889686194
 20
-26.5329327633
 10
3.5989189413
 20
-26.5329761809
 10
3.6088565053
 20
-26.5328216179
 10
3.6187909718
 20
-26.532467901
 10
3.6287126804
 20
-26.5319162035
 10
3.6385602251
 20
-26.531169904
 10
3.6483241598
 20
-26.5302288131
 10
3.6580139307
 20
-26.52909312
 10
3.6675964698
 20
-26.5277667714
 10
3.6770791666
 20
-26.5262477606
 10
3.6864546317
 20
-26.5245380942
 10
3.6956676287
 20
-26.522647739
 10
3.7047110867
 20
-26.5205770998
 10
3.7135920767
 20
-26.5183257717
 10
3.7222765754
 20
-26.5159025066
 10
3.7307680427
 20
-26.5133053499
 10
3.7390630187
 20
-26.5105362563
 10
3.7471171005
 20
-26.5076098418
 10
3.7549154871
 20
-26.5045309786
 10
3.7624729796
 20
-26.5012947946
 10
3.7697895778
 20
-26.4979012897
  0
LINE
  5
254
100
AcDbEntity
  8
RACCORDO
100
AcDbLine
 62
7
  6
CONTINUOUS
 10
2.8060579265
 20
-26.1897269807
 11
3.4193482899
 21
-26.4963721623
  0
LINE
  5
255
100
AcDbEntity
  8
DRAFT
100
AcDbLine
 62
7
  6
CONTINUOUS
 10
3.264864433
 20
-26.0655768433
 11
3.9527909525
 21
-26.4095401031
  0
LWPOLYLINE
  5
256
100
AcDbEntity
  8
RACCORDO
100
AcDbPolyline
 62
253
  6
CONTINUOUS
 90
20
 70
0
 10
-13.6574461398
 20
-20.7360485195
 10
-13.6569633273
 20
-20.7410213042
 10
-13.6560848519
 20
-20.7459805365
 10
-13.654812106
 20
-20.7509183489
 10
-13.6531471082
 20
-20.7558269066
 10
-13.6510924991
 20
-20.7606984226
 10
-13.6486515373
 20
-20.765525169
 10
-13.6458280948
 20
-20.7702994878
 10
-13.6426266501
 20
-20.7750138052
 10
-13.6390522814
 20
-20.7796606424
 10
-13.6351106594
 20
-20.7842326265
 10
-13.6308080372
 20
-20.7887225044
 10
-13.6261512397
 20
-20.7931231537
 10
-13.6211476546
 20
-20.7974275927
 10
-13.6158052181
 20
-20.8016289941
 10
-13.6101324062
 20
-20.8057206917
 10
-13.6041382236
 20
-20.8096961909
 10
-13.5978321819
 20
-20.8135491843
 10
-13.5912242838
 20
-20.8172735611
 10
-13.5843250126
 20
-20.8208634133
  0
LWPOLYLINE
  5
257
100
AcDbEntity
  8
RACCORDO
100
AcDbPolyline
 62
7
  6
CONTINUOUS
 90
10
 70
0
 10
-14.0048669722
 20
-18.725457178
 10
-14.0205654867
 20
-18.2386324299
 10
-14.0357206921
 20
-17.7515121429
 10
-14.0503325883
 20
-17.264096317
 10
-14.0644012031
 20
-16.7763839639
 10
-14.0779265088
 20
-16.288376072
 10
-14.0909084221
 20
-15.8000756061
 10
-14.1033469153
 20
-15.3114835547
 10
-14.1152420162
 20
-14.8225989294
 10
-14.1265937247
 20
-14.3334217301
  0
LINE
  5
258
100
AcDbEntity
  8
RACCORDO
100
AcDbLine
 62
253
  6
CONTINUOUS
 10
-13.6575483173
 20
-20.7324750606
 11
-13.6575423299
 21
-20.7342052819
  0
LWPOLYLINE
  5
259
100
AcDbEntity
  8
RACCORDO
100
AcDbPolyline
 62
253
  6
CONTINUOUS
 90
21
 70
0
 10
-16.2068063057
 20
11.5729011827
 10
-16.2067155084
 20
11.5681676279
 10
-16.2062284794
 20
11.5634299859
 10
-16.205345991
 20
11.5586957714
 10
-16.2040694431
 20
11.5539724939
 10
-16.2024008605
 20
11.5492676454
 10
-16.2003428899
 20
11.5445886886
 10
-16.1978987957
 20
11.5399430454
 10
-16.1950724547
 20
11.5353380844
 10
-16.1918683499
 20
11.5307811102
 10
-16.1882915638
 20
11.526279351
 10
-16.1843477697
 20
11.5218399473
 10
-16.1800432233
 20
11.517469941
 10
-16.1753847524
 20
11.5131762637
 10
-16.1703797463
 20
11.508965726
 10
-16.1650361438
 20
11.5048450067
 10
-16.1593624209
 20
11.5008206419
 10
-16.1533675773
 20
11.4968990151
 10
-16.1470611218
 20
11.4930863468
 10
-16.1404530578
 20
11.4893886845
 10
-16.1335538669
 20
11.4858118935
  0
LWPOLYLINE
  5
25A
100
AcDbEntity
  8
ASSI
100
AcDbPolyline
 62
7
  6
CONTINUOUS
 90
16
 70
0
 10
4.2063290117
 20
21.0089655533
 10
4.2164778851
 20
21.0154543349
 10
4.2211966785
 20
21.0184297898
 10
4.2256695713
 20
21.0212081111
 10
4.2298845347
 20
21.0237834488
 10
4.2338230331
 20
21.0261566994
 10
4.2374763265
 20
21.0283174902
 10
4.240831838
 20
21.0302530394
 10
4.2438642408
 20
21.0319593119
 10
4.2465597337
 20
21.0334247598
 10
4.2489086032
 20
21.0346401298
 10
4.2508901417
 20
21.0356028981
 10
4.2524909415
 20
21.036300923
 10
4.2536961301
 20
21.0367221529
 10
4.2544804287
 20
21.0368608096
 10
4.2547175864
 20
21.036816619
  0
LINE
  5
25B
100
AcDbEntity
  8
ASSI
100
AcDbLine
 62
7
  6
CONTINUOUS
 10
-3.4336163036
 20
16.3442551635
 11
-2.4512715998
 21
16.8483124568
  0
LINE
  5
25C
100
AcDbEntity
  8
ASSI
100
AcDbLine
 62
7
  6
CONTINUOUS
 10
0.908467502
 20
18.572250084
 11
0.9460361437
 21
18.5915271746
  0
LINE
  5
25D
100
AcDbEntity
  8
ASSI
100
AcDbLine
 62
7
  6
CONTINUOUS
 10
4.0538258382
 20
20.1861853993
 11
4.1114701629
 21
20.2157636545
  0
LINE
  5
25E
100
AcDbEntity
  8
ASSI
100
AcDbLine
 62
7
  6
CONTINUOUS
 10
-2.1833505585
 20
15.759863536
 11
-1.900507846
 21
15.9012848923
  0
LINE
  5
25F
100
AcDbEntity
  8
ASSI
100
AcDbLine
 62
7
  6
CONTINUOUS
 10
2.2510062242
 20
17.2879007318
 11
1.6419838857
 21
16.9833895626
  0
LINE
  5
260
100
AcDbEntity
  8
DRAFT
100
AcDbLine
 62
7
  6
CONTINUOUS
 10
8.9889365843
 20
-21.7581760192
 11
15.9365784484
 21
-22.1992719188
  0
LINE
  5
261
100
AcDbEntity
  8
DRAFT
100
AcDbLine
 62
7
  6
CONTINUOUS
 10
8.9889365843
 20
-21.4866524732
 11
15.4606326559
 21
-21.9612990225
  0
LWPOLYLINE
  5
262
100
AcDbEntity
  8
RACCORDO
100
AcDbPolyline
 62
7
  6
CONTINUOUS
 90
12
 70
0
 10
-13.9546125613
 20
-14.2077014927
 10
-13.9661660576
 20
-14.2023779832
 10
-13.977650045
 20
-14.1979948033
 10
-13.9890151999
 20
-14.1945706469
 10
-14.0002123061
 20
-14.1921198679
 10
-14.0111934162
 20
-14.1906529919
 10
-14.021912067
 20
-14.1901766329
 10
-14.0323216428
 20
-14.1906924265
 10
-14.042377273
 20
-14.192197948
 10
-14.0520369907
 20
-14.1946872484
 10
-14.0612585371
 20
-14.1981491365
 10
-14.0653442846
 20
-14.2000652082
  0
LINE
  5
263
100
AcDbEntity
  8
RACCORDO
100
AcDbLine
 62
7
  6
CONTINUOUS
 10
-1.6509545686
 20
-20.3595304891
 11
-13.9546125613
 21
-14.2077014927
  0
LINE
  5
264
100
AcDbEntity
  8
DRAFT
100
AcDbLine
 62
7
  6
CONTINUOUS
 10
-14.1855724955
 20
-14.0812489763
 11
-1.4165928376
 21
-20.4657388053
  0
LWPOLYLINE
  5
265
100
AcDbEntity
  8
RACCORDO
100
AcDbPolyline
 62
253
  6
CONTINUOUS
 90
21
 70
0
 10
-13.6575483173
 20
17.482735926
 10
-13.6574461398
 20
17.4791624672
 10
-13.6569633273
 20
17.4741896825
 10
-13.6560848519
 20
17.4692304501
 10
-13.654812106
 20
17.4642926378
 10
-13.6531471082
 20
17.4593840801
 10
-13.6510924991
 20
17.4545125641
 10
-13.6486515373
 20
17.4496858177
 10
-13.6458280948
 20
17.4449114989
 10
-13.6426266501
 20
17.4401971814
 10
-13.6390522814
 20
17.4355503443
 10
-13.6351106594
 20
17.4309783601
 10
-13.6308080372
 20
17.4264884822
 10
-13.6261512397
 20
17.422087833
 10
-13.6211476546
 20
17.417783394
 10
-13.6158052181
 20
17.4135819926
 10
-13.6101324062
 20
17.409490295
 10
-13.6041382236
 20
17.4055147958
 10
-13.5978321819
 20
17.4016618023
 10
-13.5912242838
 20
17.3979374256
 10
-13.5843250126
 20
17.3943475734
  0
LWPOLYLINE
  5
266
100
AcDbEntity
  8
RACCORDO
100
AcDbPolyline
 62
253
  6
CONTINUOUS
 90
10
 70
0
 10
-12.8175075373
 20
-8.1261868956
 10
-12.8228355428
 20
-7.2704332724
 10
-12.8265203674
 20
-6.4138538025
 10
-12.8285619911
 20
-5.5564531451
 10
-12.8289604029
 20
-4.6982359643
 10
-12.8277156005
 20
-3.839206928
 10
-12.8248275909
 20
-2.9793707087
 10
-12.8202963896
 20
-2.1187319835
 10
-12.8141220213
 20
-1.2572954338
 10
-12.8063045192
 20
-0.3950657455
  0
LWPOLYLINE
  5
267
100
AcDbEntity
  8
RACCORDO
100
AcDbPolyline
 62
253
  6
CONTINUOUS
 90
7
 70
0
 10
-12.1151628496
 20
-7.6917945992
 10
-12.119233374
 20
-6.9326301082
 10
-12.122010311
 20
-6.1728246538
 10
-12.1234936604
 20
-5.4123782361
 10
-12.1236834159
 20
-4.6512880595
 10
-12.1225795839
 20
-3.8895569195
 10
-12.1201821836
 20
-3.1271932028
  0
LINE
  5
268
100
AcDbEntity
  8
RACCORDO
100
AcDbLine
 62
7
  6
CONTINUOUS
 10
-13.6575423299
 20
-20.7342052819
 11
-13.6575483173
 21
-19.276379147
  0
LINE
  5
269
100
AcDbEntity
  8
RACCORDO
100
AcDbLine
 62
7
  6
CONTINUOUS
 10
-13.6575483173
 20
14.6564080188
 11
-13.6575483173
 21
17.482735921
  0
LINE
  5
26A
100
AcDbEntity
  8
RACCORDO
100
AcDbLine
 62
253
  6
CONTINUOUS
 10
-13.5843250126
 20
-20.8208634133
 11
-13.5843250126
 21
-19.3129907993
  0
LINE
  5
26B
100
AcDbEntity
  8
RACCORDO
100
AcDbLine
 62
253
  6
CONTINUOUS
 10
-13.5843250126
 20
14.5680196712
 11
-13.5843250126
 21
17.3943475734
  0
LINE
  5
26C
100
AcDbEntity
  8
RACCORDO
100
AcDbLine
 62
7
  6
CONTINUOUS
 10
-13.410660894
 20
14.273720941
 11
-13.410660894
 21
14.4811876119
  0
LWPOLYLINE
  5
26D
100
AcDbEntity
  8
RACCORDO
100
AcDbPolyline
 62
253
  6
CONTINUOUS
 90
4
 70
0
 10
-12.1201821836
 20
-3.1271932028
 10
-12.1164912216
 20
-2.3641997048
 10
-12.1115066913
 20
-1.60057363
 10
-12.1062110385
 20
-0.9559121244
  0
LWPOLYLINE
  5
26E
100
AcDbEntity
  8
RACCORDO
100
AcDbPolyline
 62
253
  6
CONTINUOUS
 90
40
 70
0
 10
-13.5843250126
 20
17.3943475734
 10
-13.5841841648
 20
17.4030589503
 10
-13.5837618454
 20
17.4118972998
 10
-13.5830587269
 20
17.4208485379
 10
-13.5820759286
 20
17.4298984036
 10
-13.5808150164
 20
17.4390324733
 10
-13.5792780002
 20
17.4482361843
 10
-13.5774673301
 20
17.4574948677
 10
-13.5753858909
 20
17.4667937721
 10
-13.573037
 20
17.4761180785
 10
-13.5704244003
 20
17.4854529289
 10
-13.5675522554
 20
17.4947834477
 10
-13.564425143
 20
17.5040947643
 10
-13.5610480466
 20
17.5133720409
 10
-13.5574263479
 20
17.5226004942
 10
-13.5535658192
 20
17.531765417
 10
-13.5494726125
 20
17.5408522055
 10
-13.5451532511
 20
17.5498463794
 10
-13.5406146197
 20
17.5587336042
 10
-13.5358639516
 20
17.5674997175
 10
-13.5309088172
 20
17.5761307516
 10
-13.5257571129
 20
17.5846129537
 10
-13.5204170473
 20
17.5929328096
 10
-13.5148971313
 20
17.6010770603
 10
-13.509206165
 20
17.6090327236
 10
-13.5033532255
 20
17.616787113
 10
-13.4973476325
 20
17.6243278838
 10
-13.4911989354
 20
17.6316430454
 10
-13.4849168991
 20
17.6387209749
 10
-13.4785115641
 20
17.645550355
 10
-13.4719932131
 20
17.6521202267
 10
-13.4653722838
 20
17.6584200847
 10
-13.4586592828
 20
17.6644399466
 10
-13.4518648419
 20
17.6701702838
 10
-13.4449992027
 20
17.6756024129
 10
-13.4380738793
 20
17.6807271789
 10
-13.431101618
 20
17.6855352783
 10
-13.4240941286
 20
17.6900189343
 10
-13.4170620232
 20
17.6941716537
 10
-13.4100165054
 20
17.6979870737
  0
LINE
  5
26F
100
AcDbEntity
  8
0
100
AcDbLine
 62
7
  6
CONTINUOUS
 10
-0.0030402043
 20
15.6241967591
 11
-0.0433814814
 21
15.6023007631
  0
LINE
  5
270
100
AcDbEntity
  8
ASSI
100
AcDbLine
 62
7
  6
CONTINUOUS
 10
-0.0620302149
 20
14.6992033643
 11
0.2208124976
 21
14.8406247205
  0
LINE
  5
271
100
AcDbEntity
  8
0
100
AcDbLine
 62
7
  6
CONTINUOUS
 10
3.473503691
 20
15.273384129
 11
4.0833897857
 21
15.5783271763
  0
LWPOLYLINE
  5
272
100
AcDbEntity
  8
0
100
AcDbPolyline
 62
7
  6
CONTINUOUS
 90
13
 70
0
 10
4.0833897857
 20
15.5783271763
 10
4.0898207503
 20
15.5814709015
 10
4.0962453459
 20
15.5844685663
 10
4.1026635725
 20
15.5873201707
 10
4.1090775468
 20
15.5900265605
 10
4.1154851521
 20
15.5925868899
 10
4.1218800384
 20
15.5949986216
 10
4.1282621929
 20
15.5972616082
 10
4.1346316284
 20
15.5993759971
 10
4.1409820326
 20
15.6013396929
 10
4.1473113014
 20
15.6031519971
 10
4.1536215388
 20
15.6048136081
 10
4.159912745
 20
15.606324526
  0
LWPOLYLINE
  5
273
100
AcDbEntity
  8
0
100
AcDbPolyline
 62
7
  6
CONTINUOUS
 90
10
 70
0
 10
4.0833897857
 20
15.2319170148
 10
4.0851053681
 20
15.2327492385
 10
4.0868179329
 20
15.2335292216
 10
4.08852748
 20
15.2342569643
 10
4.0902350101
 20
15.2349328324
 10
4.0919395226
 20
15.23555646
 10
4.0936380157
 20
15.2361267489
 10
4.095329489
 20
15.2366433329
 10
4.0970149429
 20
15.2371065782
 10
4.0986943775
 20
15.2375164847
  0
LWPOLYLINE
  5
274
100
AcDbEntity
  8
RACCORDO
100
AcDbPolyline
 62
253
  6
CONTINUOUS
 90
85
 70
0
 10
-10.2657453188
 20
20.5273167421
 10
-10.2656324762
 20
20.5200765933
 10
-10.2648750015
 20
20.5071543663
 10
-10.26340531
 20
20.4942536741
 10
-10.2612245638
 20
20.481384507
 10
-10.2583344767
 20
20.4685567728
 10
-10.2547373149
 20
20.4557807743
 10
-10.2504358975
 20
20.4430663938
 10
-10.2454336004
 20
20.4304234564
 10
-10.2397343496
 20
20.4178621137
 10
-10.2333426169
 20
20.405392107
 10
-10.2262634128
 20
20.3930230724
 10
-10.2185022847
 20
20.3807649036
 10
-10.2100653195
 20
20.3686271211
 10
-10.2009591276
 20
20.3566191158
 10
-10.1911908328
 20
20.344750454
 10
-10.1807680777
 20
20.3330303537
 10
-10.1696990371
 20
20.3214679105
 10
-10.1579924016
 20
20.3100723418
 10
-10.1456573645
 20
20.2988525397
 10
-10.1327035746
 20
20.2878171951
 10
-10.1191411407
 20
20.276975026
 10
-10.104980657
 20
20.2663344738
 10
-10.090233239
 20
20.2559038329
 10
-10.0749104789
 20
20.2456913732
 10
-10.0590244178
 20
20.2357051015
 10
-10.0425874683
 20
20.225952772
 10
-10.0256124393
 20
20.2164420203
 10
-10.0081125806
 20
20.2071802807
 10
-9.9901016358
 20
20.1981748068
 10
-9.9715937692
 20
20.1894326807
 10
-9.9526035247
 20
20.1809607925
 10
-9.9331457341
 20
20.1727657489
 10
-9.9132355586
 20
20.1648538992
 10
-9.8928885426
 20
20.1572314679
 10
-9.8721206634
 20
20.1499044574
 10
-9.8509482426
 20
20.1428785545
 10
-9.8293879054
 20
20.1361593349
 10
-9.8074564978
 20
20.1297520776
 10
-9.7851711291
 20
20.1236616736
 10
-9.7625492151
 20
20.1178929649
 10
-9.7396085057
 20
20.1124505305
 10
-9.7163670047
 20
20.1073385002
 10
-9.6928429383
 20
20.1025609782
 10
-9.6690547072
 20
20.0981217689
 10
-9.6450209092
 20
20.0940241666
 10
-9.6207603579
 20
20.0902714932
 10
-9.5962920622
 20
20.0868667756
 10
-9.5716351779
 20
20.0838124716
 10
-9.5468090089
 20
20.0811111019
 10
-9.5218330063
 20
20.0787648869
 10
-9.4967267456
 20
20.0767754258
 10
-9.4715099063
 20
20.0751444214
 10
-9.4462022239
 20
20.0738732685
 10
-9.4208234888
 20
20.0729626925
 10
-9.3953935449
 20
20.0724135644
 10
-9.3699323445
 20
20.0722264511
 10
-9.344459901
 20
20.0724012024
 10
-9.3189962261
 20
20.0729378476
 10
-9.2935612057
 20
20.0738361129
 10
-9.2681746546
 20
20.0750949765
 10
-9.2428564023
 20
20.07671364
 10
-9.2176263387
 20
20.0786909974
 10
-9.1925042892
 20
20.0810251506
 10
-9.1675099591
 20
20.0837144595
 10
-9.1426629018
 20
20.0867569934
 10
-9.1179825654
 20
20.0901500048
 10
-9.093488229
 20
20.0938910451
 10
-9.069199138
 20
20.097977362
 10
-9.0451344672
 20
20.102405342
 10
-9.0213131779
 20
20.1071716949
 10
-8.997753813
 20
20.1122728958
 10
-8.9744746358
 20
20.1177045882
 10
-8.9514938054
 20
20.1234627534
 10
-8.9288294114
 20
20.1295430675
 10
-8.9064992675
 20
20.1359403412
 10
-8.8845208017
 20
20.1426498025
 10
-8.8629113036
 20
20.1496663848
 10
-8.8416879513
 20
20.156984079
 10
-8.8208676149
 20
20.1645972652
 10
-8.8004663272
 20
20.1725002742
 10
-8.7804995555
 20
20.1806866889
 10
-8.7609827989
 20
20.1891501848
 10
-8.7419315397
 20
20.1978845107
 10
-8.7233607261
 20
20.2068830555
  0
LINE
  5
275
100
AcDbEntity
  8
RACCORDO
100
AcDbLine
 62
253
  6
CONTINUOUS
 10
-9.9988175708
 20
-12.0676676505
 11
-10.0036684231
 21
-11.6799320631
  0
LINE
  5
276
100
AcDbEntity
  8
RACCORDO
100
AcDbLine
 62
253
  6
CONTINUOUS
 10
-10.0036684231
 20
-11.6799320631
 11
-10.0081798179
 21
-11.2920224673
  0
LINE
  5
277
100
AcDbEntity
  8
RACCORDO
100
AcDbLine
 62
253
  6
CONTINUOUS
 10
-9.2989722324
 20
-11.6315538993
 11
-9.3034407495
 21
-11.2440812308
  0
LINE
  5
278
100
AcDbEntity
  8
RACCORDO
100
AcDbLine
 62
253
  6
CONTINUOUS
 10
-10.0081798179
 20
-11.2920224673
 11
-10.0123517501
 21
-10.9039392991
  0
LINE
  5
279
100
AcDbEntity
  8
RACCORDO
100
AcDbLine
 62
253
  6
CONTINUOUS
 10
-9.3034407495
 20
-11.2440812308
 11
-9.3075701956
 21
-10.8564331607
  0
LINE
  5
27A
100
AcDbEntity
  8
RACCORDO
100
AcDbLine
 62
253
  6
CONTINUOUS
 10
-9.3075701956
 20
-10.8564331607
 11
-9.3113605706
 21
-10.4686096888
  0
LINE
  5
27B
100
AcDbEntity
  8
RACCORDO
100
AcDbLine
 62
253
  6
CONTINUOUS
 10
-10.8255245485
 20
-10.4973528999
 11
-10.8300293718
 21
-10.0371896144
  0
LINE
  5
27C
100
AcDbEntity
  8
RACCORDO
100
AcDbLine
 62
253
  6
CONTINUOUS
 10
-10.1245333689
 20
-10.0620232896
 11
-10.1285865295
 21
-9.6021675607
  0
LINE
  5
27D
100
AcDbEntity
  8
RACCORDO
100
AcDbLine
 62
253
  6
CONTINUOUS
 10
-10.8300293718
 20
-10.0371896144
 11
-10.8340573746
 21
-9.5767838685
  0
LINE
  5
27E
100
AcDbEntity
  8
RACCORDO
100
AcDbLine
 62
253
  6
CONTINUOUS
 10
-10.1285865295
 20
-9.6021675607
 11
-10.1321633557
 21
-9.1420744926
  0
LINE
  5
27F
100
AcDbEntity
  8
RACCORDO
100
AcDbLine
 62
253
  6
CONTINUOUS
 10
-10.8340573746
 20
-9.5767838685
 11
-10.8376085504
 21
-9.116136389
  0
LINE
  5
280
100
AcDbEntity
  8
RACCORDO
100
AcDbLine
 62
253
  6
CONTINUOUS
 10
-10.1321633557
 20
-9.1420744926
 11
-10.1352638475
 21
-8.6817440853
  0
LINE
  5
281
100
AcDbEntity
  8
DRAFT
100
AcDbLine
 62
7
  6
CONTINUOUS
 10
-11.411094053
 20
-7.3389216448
 11
-11.411094053
 21
-1.3034706172
  0
LINE
  5
282
100
AcDbEntity
  8
IMPORT_IGES
100
AcDbLine
 62
253
  6
CONTINUOUS
 10
-10.9868299843
 20
-7.2682109667
 11
-10.9868299843
 21
-1.5156026515
  0
LINE
  5
283
100
AcDbEntity
  8
IMPORT_IGES
100
AcDbLine
 62
253
  6
CONTINUOUS
 10
-10.5625659155
 20
-1.7277346859
 11
-10.5625659155
 21
-7.0084033456
  0
LINE
  5
284
100
AcDbEntity
  8
RACCORDO
100
AcDbLine
 62
7
  6
CONTINUOUS
 10
-10.2657453215
 20
20.5273557951
 11
-10.2657453215
 21
19.3766834391
  0
LINE
  5
285
100
AcDbEntity
  8
RACCORDO
100
AcDbLine
 62
7
  6
CONTINUOUS
 10
-10.2657453215
 20
20.5273526929
 11
-10.2657453188
 21
20.5273167421
  0
LINE
  5
286
100
AcDbEntity
  8
DRAFT
100
AcDbLine
 62
7
  6
CONTINUOUS
 10
-9.4311950656
 20
-9.7145117846
 11
-9.4311950656
 21
-8.3288711385
  0
LINE
  5
287
100
AcDbEntity
  8
0
100
AcDbLine
 62
253
  6
CONTINUOUS
 10
3.4028360879
 20
14.8020152405
 11
3.1201656756
 21
14.648590494
  0
LINE
  5
288
100
AcDbEntity
  8
0
100
AcDbLine
 62
7
  6
CONTINUOUS
 10
3.4200348106
 20
14.2074192043
 11
3.1373643983
 21
14.0539944578
  0
LINE
  5
289
100
AcDbEntity
  8
RACCORDO
100
AcDbLine
 62
7
  6
CONTINUOUS
 10
2.4038345565
 20
13.2725458985
 11
8.9182259061
 21
16.7872094828
  0
LINE
  5
28A
100
AcDbEntity
  8
DRAFT
100
AcDbLine
 62
7
  6
CONTINUOUS
 10
2.4099288599
 20
14.417712227
 11
1.4228940256
 21
13.9159999989
  0
LINE
  5
28B
100
AcDbEntity
  8
RACCORDO
100
AcDbLine
 62
7
  6
CONTINUOUS
 10
3.4451683939
 20
12.7518789799
 11
10.1910181123
 21
16.1508133797
  0
LINE
  5
28C
100
AcDbEntity
  8
0
100
AcDbLine
 62
7
  6
CONTINUOUS
 10
3.473503691
 20
14.9269739675
 11
4.0833897857
 21
15.2319170148
  0
LINE
  5
28D
100
AcDbEntity
  8
RACCORDO
100
AcDbLine
 62
7
  6
CONTINUOUS
 10
10.1910181123
 20
16.1508133797
 11
12.5592789996
 21
17.3254882389
  0
LINE
  5
28E
100
AcDbEntity
  8
RACCORDO
100
AcDbLine
 62
7
  6
CONTINUOUS
 10
11.3706318459
 20
17.9198118157
 11
8.9182259061
 21
16.7872094828
  0
LWPOLYLINE
  5
28F
100
AcDbEntity
  8
RACCORDO
100
AcDbPolyline
 62
7
  6
CONTINUOUS
 90
21
 70
0
 10
11.9596963579
 20
15.7814324768
 10
11.9644026511
 20
15.783358349
 10
11.9692164404
 20
15.7850393921
 10
11.974132672
 20
15.7864738449
 10
11.9791461727
 20
15.7876602055
 10
11.9842514249
 20
15.788597116
 10
11.9894430686
 20
15.7892836088
 10
11.994715643
 20
15.7897189802
 10
12.0000633456
 20
15.7899026614
 10
12.0054805609
 20
15.7898344875
 10
12.0109615918
 20
15.7895145598
 10
12.0165004058
 20
15.7889431041
 10
12.0220911847
 20
15.7881207601
 10
12.0277280489
 20
15.7870484338
 10
12.0334047928
 20
15.7857271434
 10
12.0391154504
 20
15.7841583276
 10
12.044854015
 20
15.782343689
 10
12.0506141664
 20
15.7802850289
 10
12.0563897509
 20
15.7779845157
 10
12.0621747877
 20
15.775444688
 10
12.0679631892
 20
15.772668287
  0
LINE
  5
290
100
AcDbEntity
  8
RACCORDO
100
AcDbLine
 62
253
  6
CONTINUOUS
 10
-5.7491486223
 20
-14.1925021248
 11
-9.9988175708
 21
-12.0676676505
  0
LINE
  5
291
100
AcDbEntity
  8
RACCORDO
100
AcDbLine
 62
253
  6
CONTINUOUS
 10
9.5366406151
 20
-21.5268221328
 11
8.9889365843
 21
-21.2529701174
  0
LINE
  5
292
100
AcDbEntity
  8
RACCORDO
100
AcDbLine
 62
7
  6
CONTINUOUS
 10
9.6807085314
 20
-21.5373883489
 11
8.9889365843
 21
-21.1915023754
  0
LINE
  5
293
100
AcDbEntity
  8
RACCORDO
100
AcDbLine
 62
253
  6
CONTINUOUS
 10
-5.9039224699
 20
-13.3236612617
 11
-9.2936102793
 21
-11.628817357
  0
LINE
  5
294
100
AcDbEntity
  8
RACCORDO
100
AcDbLine
 62
253
  6
CONTINUOUS
 10
-4.949369176
 20
-13.4354305861
 11
-5.7625419731
 21
-13.0288441876
  0
LINE
  5
295
100
AcDbEntity
  8
RACCORDO
100
AcDbLine
 62
253
  6
CONTINUOUS
 10
-10.0123517501
 20
-10.9039392991
 11
-10.8255245485
 21
-10.4973528999
  0
LINE
  5
296
100
AcDbEntity
  8
ASSI
100
AcDbLine
 62
7
  6
CONTINUOUS
 10
9.9788860779
 20
-20.8472458353
 11
8.9889365843
 21
-20.3522710885
  0
LINE
  5
297
100
AcDbEntity
  8
DRAFT
100
AcDbLine
 62
7
  6
CONTINUOUS
 10
-5.9110572357
 20
-12.6437149946
 11
-8.6180222673
 21
-11.2902324789
  0
LINE
  5
298
100
AcDbEntity
  8
IMPORT_IGES
100
AcDbLine
 62
7
  6
CONTINUOUS
 10
-5.9118178199
 20
-12.5656065017
 11
-8.6180222673
 21
-11.212504278
  0
LINE
  5
299
100
AcDbEntity
  8
IMPORT_IGES
100
AcDbLine
 62
253
  6
CONTINUOUS
 10
-8.6180222673
 20
-11.0892261157
 11
-5.9036326164
 21
-12.4464209412
  0
LINE
  5
29A
100
AcDbEntity
  8
IMPORT_IGES
100
AcDbLine
 62
7
  6
CONTINUOUS
 10
-5.8975649819
 20
-12.4188035117
 11
-8.2114358681
 21
-11.2618680686
  0
LINE
  5
29B
100
AcDbEntity
  8
RACCORDO
100
AcDbLine
 62
253
  6
CONTINUOUS
 10
-5.1023089462
 20
-12.5688678927
 11
-5.7644159301
 21
-12.2378144008
  0
LINE
  5
29C
100
AcDbEntity
  8
RACCORDO
100
AcDbLine
 62
253
  6
CONTINUOUS
 10
-9.3071286184
 20
-10.4664580566
 11
-10.1203014168
 21
-10.0598716574
  0
LINE
  5
29D
100
AcDbEntity
  8
IMPORT_IGES
100
AcDbLine
 62
253
  6
CONTINUOUS
 10
-9.0069309969
 20
-9.6004998363
 11
-9.0069309969
 21
-8.2581604604
  0
LINE
  5
29E
100
AcDbEntity
  8
RACCORDO
100
AcDbLine
 62
253
  6
CONTINUOUS
 10
-8.7233607261
 20
20.2068830555
 11
-8.7233607261
 21
19.0569195831
  0
LINE
  5
29F
100
AcDbEntity
  8
DRAFT
100
AcDbLine
 62
7
  6
CONTINUOUS
 10
-8.6180222673
 20
-11.2902324789
 11
-8.6180222673
 21
-10.1210981837
  0
LINE
  5
2A0
100
AcDbEntity
  8
IMPORT_IGES
100
AcDbLine
 62
253
  6
CONTINUOUS
 10
-8.5826669282
 20
-7.9983528393
 11
-8.5826669282
 21
-9.3406922151
  0
LINE
  5
2A1
100
AcDbEntity
  8
IMPORT_IGES
100
AcDbLine
 62
253
  6
CONTINUOUS
 10
-8.2114358681
 20
-11.2618680687
 11
-8.2114358681
 21
-9.9982474007
  0
LINE
  5
2A2
100
AcDbEntity
  8
RACCORDO
100
AcDbLine
 62
7
  6
CONTINUOUS
 10
-7.843772925
 20
17.4099120874
 11
-7.843772925
 21
18.0295451002
  0
LINE
  5
2A3
100
AcDbEntity
  8
IMPORT_IGES
100
AcDbLine
 62
253
  6
CONTINUOUS
 10
-7.7871717994
 20
-9.7384397795
 11
-7.7871717994
 21
-11.1922528264
  0
LINE
  5
2A4
100
AcDbEntity
  8
IMPORT_IGES
100
AcDbLine
 62
7
  6
CONTINUOUS
 10
-7.4512960783
 20
-8.911536249
 11
-7.4512960783
 21
-8.7750067902
  0
LWPOLYLINE
  5
2A5
100
AcDbEntity
  8
RACCORDO
100
AcDbPolyline
 62
7
  6
CONTINUOUS
 90
12
 70
0
 10
-3.0203944171
 20
19.3492548244
 10
-3.0193395822
 20
19.3534114929
 10
-3.0173935577
 20
19.3577793256
 10
-3.0146072798
 20
19.3619686907
 10
-3.0109913759
 20
19.3659818453
 10
-3.006591968
 20
19.3697676001
 10
-3.0013990197
 20
19.3733230424
 10
-2.9954225675
 20
19.3766510849
 10
-2.9887388431
 20
19.3797092774
 10
-2.9813732571
 20
19.3824834698
 10
-2.973300399
 20
19.3849878121
 10
-2.9645202686
 20
19.3872223044
  0
LWPOLYLINE
  5
2A6
100
AcDbEntity
  8
RACCORDO
100
AcDbPolyline
 62
253
  6
CONTINUOUS
 90
112
 70
0
 10
6.3637703255
 20
12.8797909056
 10
6.3511110578
 20
12.8727698917
 10
6.3388513821
 20
12.8655858285
 10
6.3269912984
 20
12.8582387162
 10
6.3155218439
 20
12.8507223909
 10
6.3044519815
 20
12.8430430165
 10
6.2938085993
 20
12.8352190842
 10
6.2835929569
 20
12.8272503811
 10
6.2738037948
 20
12.8191371201
 10
6.2644642224
 20
12.8108984321
 10
6.25557534
 20
12.8025340431
 10
6.2471360474
 20
12.794044227
 10
6.2391661537
 20
12.7854489354
 10
6.2316667825
 20
12.776747953
 10
6.2246368102
 20
12.7679414951
 10
6.2180926758
 20
12.75905016
 10
6.212035489
 20
12.7500737063
 10
6.2064641401
 20
12.7410123754
 10
6.2013917384
 20
12.7318874894
 10
6.196819472
 20
12.7226989191
 10
6.1927461528
 20
12.7134467937
 10
6.1891813257
 20
12.704152823
 10
6.1861261836
 20
12.6948168993
 10
6.1835795336
 20
12.6854391302
 10
6.1815473421
 20
12.6760415487
 10
6.1800308193
 20
12.6666241294
 10
6.179028755
 20
12.6571868976
 10
6.178543484
 20
12.6477519617
 10
6.178576218
 20
12.6383193054
 10
6.1791257454
 20
12.628888945
 10
6.1801907657
 20
12.6194830379
 10
6.1817724896
 20
12.6101016545
 10
6.1838697065
 20
12.6007447244
 10
6.1864774848
 20
12.5914341943
 10
6.1895970244
 20
12.5821701678
 10
6.1932271253
 20
12.5729525413
 10
6.1973592556
 20
12.5638029506
 10
6.2019945933
 20
12.5547215585
 10
6.2071319604
 20
12.5457082023
 10
6.2127592912
 20
12.5367840297
 10
6.2188777323
 20
12.5279492533
 10
6.2254861371
 20
12.5192036606
 10
6.2325689992
 20
12.5105677617
 10
6.2401274404
 20
12.5020418056
 10
6.248160339
 20
12.4936255433
 10
6.2566488231
 20
12.4853387375
 10
6.2655939479
 20
12.4771817046
 10
6.2749946581
 20
12.4691541281
 10
6.2848289157
 20
12.4612748216
 10
6.2950977574
 20
12.4535441187
 10
6.3058001464
 20
12.4459616858
 10
6.3169109342
 20
12.4385453355
 10
6.3284310533
 20
12.4312954741
 10
6.3403595713
 20
12.4242116953
 10
6.3526685414
 20
12.4173105936
 10
6.3653588865
 20
12.4105925813
 10
6.3784296838
 20
12.404057246
 10
6.3918502188
 20
12.3977199446
 10
6.4056212799
 20
12.3915811567
 10
6.4197420786
 20
12.3856404025
 10
6.434179535
 20
12.3799116002
 10
6.4489344245
 20
12.3743952345
 10
6.4640059716
 20
12.3690908206
 10
6.4793587704
 20
12.3640108223
 10
6.494993452
 20
12.359155776
 10
6.5109093852
 20
12.3545251454
 10
6.5270692704
 20
12.3501297854
 10
6.5434737048
 20
12.3459702415
 10
6.5601220913
 20
12.3420459684
 10
6.5769753383
 20
12.338366185
 10
6.5940339112
 20
12.3349314692
 10
6.6112973447
 20
12.3317412433
 10
6.6287251517
 20
12.3288029933
 10
6.6463177238
 20
12.3261173093
 10
6.6640746693
 20
12.3236836012
 10
6.6819543263
 20
12.3215075854
 10
6.6999569889
 20
12.3195898663
 10
6.718082363
 20
12.3179298395
 10
6.7362879039
 20
12.316531407
 10
6.7545737891
 20
12.3153951838
 10
6.7729398412
 20
12.3145205549
 10
6.7913429825
 20
12.3139095785
 10
6.8097833256
 20
12.3135628737
 10
6.828260758
 20
12.3134798213
 10
6.8467318654
 20
12.3136606211
 10
6.8651965911
 20
12.3141058914
 10
6.8836549917
 20
12.3148150138
 10
6.9020638232
 20
12.3157863335
 10
6.9204230092
 20
12.3170204677
 10
6.9387326261
 20
12.3185167991
 10
6.9569496586
 20
12.3202718211
 10
6.9750738718
 20
12.3222861403
 10
6.9931055007
 20
12.3245591501
 10
7.0110022341
 20
12.3270855237
 10
7.0287637941
 20
12.3298658648
 10
7.0463904586
 20
12.3328995697
 10
7.0638407505
 20
12.3361795002
 10
7.0811141756
 20
12.3397062185
 10
7.098211228
 20
12.3434791625
 10
7.1150919135
 20
12.347489508
 10
7.1317557824
 20
12.3517378223
 10
7.1482032843
 20
12.3562235381
 10
7.1643957731
 20
12.3609361286
 10
7.1803326932
 20
12.3658761513
 10
7.1960146002
 20
12.3710430487
 10
7.2114045154
 20
12.3764246211
 10
7.2265021229
 20
12.38202157
 10
7.2413077387
 20
12.3878331939
 10
7.2557853316
 20
12.393845189
 10
7.2699228912
 20
12.4000527873
 10
7.2837324279
 20
12.4064607569
 10
7.2972139417
 20
12.4130690975
  0
LWPOLYLINE
  5
2A7
100
AcDbEntity
  8
RACCORDO
100
AcDbPolyline
 62
7
  6
CONTINUOUS
 90
33
 70
0
 10
6.2481519731
 20
12.8848816155
 10
6.2340508016
 20
12.8771057168
 10
6.214149631
 20
12.8655316455
 10
6.194863631
 20
12.8535892792
 10
6.176177311
 20
12.8412692792
 10
6.1581136992
 20
12.8285868397
 10
6.1407305118
 20
12.8155862978
 10
6.1240241853
 20
12.8022721494
 10
6.1079950621
 20
12.7886514079
 10
6.09269653
 20
12.7747800106
 10
6.0781228838
 20
12.7606684692
 10
6.0642674741
 20
12.7463261902
 10
6.0511719109
 20
12.7318169228
 10
6.0388417083
 20
12.717175781
 10
6.0272476464
 20
12.7023982534
 10
6.0163759755
 20
12.6874950265
 10
6.0062235026
 20
12.6724918572
 10
5.996773107
 20
12.6573957033
 10
5.9879966356
 20
12.6421903819
 10
5.9798880503
 20
12.6268917091
 10
5.9724410145
 20
12.611516549
 10
5.9656353581
 20
12.5960504668
 10
5.9594665952
 20
12.5805076606
 10
5.9539318386
 20
12.564907696
 10
5.9490193529
 20
12.5492448158
 10
5.9447257646
 20
12.5335348734
 10
5.9410480464
 20
12.5177973585
 10
5.9379788314
 20
12.5020327428
 10
5.9355148691
 20
12.4862594873
 10
5.9336517395
 20
12.4704953556
 10
5.9323831777
 20
12.454740174
 10
5.9317051477
 20
12.4390058895
 10
5.9315791647
 20
12.4286567718
  0
LINE
  5
2A8
100
AcDbEntity
  8
RACCORDO
100
AcDbLine
 62
7
  6
CONTINUOUS
 10
7.7104190167
 20
13.6738082615
 11
6.2481495491
 21
12.8848803368
  0
LINE
  5
2A9
100
AcDbEntity
  8
RACCORDO
100
AcDbLine
 62
253
  6
CONTINUOUS
 10
7.8267626214
 20
13.6691088128
 11
6.3637703255
 21
12.8797909056
  0
LINE
  5
2AA
100
AcDbEntity
  8
RACCORDO
100
AcDbLine
 62
7
  6
CONTINUOUS
 10
7.7104205354
 20
13.673809082
 11
7.7133775819
 21
13.6753395653
  0
LINE
  5
2AB
100
AcDbEntity
  8
RACCORDO
100
AcDbLine
 62
253
  6
CONTINUOUS
 10
7.2972139417
 20
12.4130690975
 11
8.8121868129
 21
13.176396717
  0
LINE
  5
2AC
100
AcDbEntity
  8
RACCORDO
100
AcDbLine
 62
253
  6
CONTINUOUS
 10
7.473963713
 20
12.1082208359
 11
8.9889365843
 21
12.8715484554
  0
LINE
  5
2AD
100
AcDbEntity
  8
DRAFT
100
AcDbLine
 62
7
  6
CONTINUOUS
 10
12.9005984393
 20
16.8570587617
 11
10.1910181123
 21
15.5012943269
  0
LINE
  5
2AE
100
AcDbEntity
  8
RACCORDO
100
AcDbLine
 62
7
  6
CONTINUOUS
 10
10.1910181123
 20
15.5012943269
 11
3.4451683939
 21
12.1307118173
  0
LINE
  5
2AF
100
AcDbEntity
  8
RACCORDO
100
AcDbLine
 62
7
  6
CONTINUOUS
 10
7.7133780923
 20
13.6753398185
 11
11.9557024505
 21
15.779563975
  0
LINE
  5
2B0
100
AcDbEntity
  8
RACCORDO
100
AcDbLine
 62
253
  6
CONTINUOUS
 10
7.8268703254
 20
13.6690549608
 11
12.0679631892
 21
15.772668287
  0
LINE
  5
2B1
100
AcDbEntity
  8
RACCORDO
100
AcDbLine
 62
253
  6
CONTINUOUS
 10
8.8121868129
 20
13.176396717
 11
15.759828677
 21
16.6224783003
  0
LINE
  5
2B2
100
AcDbEntity
  8
RACCORDO
100
AcDbLine
 62
253
  6
CONTINUOUS
 10
8.9889365843
 20
12.8715484554
 11
15.9365784484
 21
16.3176300386
  0
LINE
  5
2B3
100
AcDbEntity
  8
RACCORDO
100
AcDbLine
 62
7
  6
CONTINUOUS
 10
11.9557028072
 20
15.7795641524
 11
11.9581203831
 21
15.7807217041
  0
LWPOLYLINE
  5
2B4
100
AcDbEntity
  8
RACCORDO
100
AcDbPolyline
 62
7
  6
CONTINUOUS
 90
22
 70
0
 10
7.7133775819
 20
13.6753395653
 10
7.7173379827
 20
13.6771940613
 10
7.7220656484
 20
13.6791333276
 10
7.7269055468
 20
13.6808298661
 10
7.7318524385
 20
13.6822818403
 10
7.7369009551
 20
13.6834876686
 10
7.7420457595
 20
13.684446114
 10
7.7472812939
 20
13.6851561406
 10
7.7526018885
 20
13.6856169709
 10
7.7580018939
 20
13.6858281674
 10
7.7634754888
 20
13.6857895046
 10
7.7690167575
 20
13.6855010167
 10
7.7746197943
 20
13.6849630691
 10
7.7802785712
 20
13.6841762488
 10
7.7859869852
 20
13.6831414006
 10
7.7917389323
 20
13.681859689
 10
7.7975262645
 20
13.6803330898
 10
7.8033447067
 20
13.6785628356
 10
7.8091939878
 20
13.6765486233
 10
7.815069876
 20
13.674291063
 10
7.8209641002
 20
13.6717925158
 10
7.8268703254
 20
13.6690549608
  0
LINE
  5
2B5
100
AcDbEntity
  8
RACCORDO
100
AcDbLine
 62
7
  6
CONTINUOUS
 10
11.9581219941
 20
15.7807224481
 11
14.7615057571
 21
17.0754179708
  0
LINE
  5
2B6
100
AcDbEntity
  8
RACCORDO
100
AcDbLine
 62
253
  6
CONTINUOUS
 10
12.0679631892
 20
15.772668287
 11
14.8706767247
 21
17.0670542764
  0
LINE
  5
2B7
100
AcDbEntity
  8
RACCORDO
100
AcDbLine
 62
7
  6
CONTINUOUS
 10
11.9581203831
 20
15.7807217041
 11
11.9596963579
 21
15.7814324768
  0
LWPOLYLINE
  5
2B8
100
AcDbEntity
  8
RACCORDO
100
AcDbPolyline
 62
7
  6
CONTINUOUS
 90
49
 70
0
 10
11.9731734316
 20
-20.3041719508
 10
11.9633986198
 20
-20.2994384596
 10
11.9533237738
 20
-20.2948683488
 10
11.9429488935
 20
-20.2904616182
 10
11.932256251
 20
-20.2862109783
 10
11.9212635743
 20
-20.2821237186
 10
11.9100240478
 20
-20.2782217083
 10
11.898537123
 20
-20.2745073435
 10
11.8868033484
 20
-20.270978228
 10
11.8748775544
 20
-20.2676490424
 10
11.8627716538
 20
-20.2645236228
 10
11.8504737339
 20
-20.261598133
 10
11.8380028866
 20
-20.2588757456
 10
11.825358477
 20
-20.2563555895
 10
11.8125411401
 20
-20.2540385357
 10
11.7995718732
 20
-20.2519303693
 10
11.7864362527
 20
-20.2500297534
 10
11.7731487022
 20
-20.2483380249
 10
11.7597734891
 20
-20.24686498
 10
11.7463104306
 20
-20.2456128247
 10
11.7327597095
 20
-20.2445793531
 10
11.7191861424
 20
-20.2437677437
 10
11.705604548
 20
-20.2431794236
 10
11.6920001075
 20
-20.2428129657
 10
11.678393181
 20
-20.2426672678
 10
11.6647836804
 20
-20.2427415521
 10
11.6511716937
 20
-20.2430365964
 10
11.6375778453
 20
-20.2435536321
 10
11.6239872497
 20
-20.2442940327
 10
11.6104147924
 20
-20.2452564248
 10
11.5969257541
 20
-20.2464379193
 10
11.5835204912
 20
-20.2478407071
 10
11.5701986472
 20
-20.2494625973
 10
11.5570244342
 20
-20.2512941278
 10
11.5440123819
 20
-20.2533339991
 10
11.5311479605
 20
-20.2555835108
 10
11.5184517928
 20
-20.2580370997
 10
11.5059243169
 20
-20.260693927
 10
11.4935650946
 20
-20.2635548316
 10
11.4813934353
 20
-20.2666167665
 10
11.4693972361
 20
-20.2698835581
 10
11.4575885997
 20
-20.2733513801
 10
11.4460231435
 20
-20.2770057071
 10
11.434701571
 20
-20.2808488867
 10
11.4236231785
 20
-20.2848785713
 10
11.4128414726
 20
-20.2890731929
 10
11.4023742887
 20
-20.2934255623
 10
11.3922037913
 20
-20.2979428687
 10
11.3823299805
 20
-20.3026251121
  0
LINE
  5
2B9
100
AcDbEntity
  8
ASSI
100
AcDbLine
 62
7
  6
CONTINUOUS
 10
10.1379920839
 20
-20.0579635918
 11
10.1212303345
 21
-20.0495827171
  0
LINE
  5
2BA
100
AcDbEntity
  8
RACCORDO
100
AcDbLine
 62
7
  6
CONTINUOUS
 10
10.1956295682
 20
-20.0866546941
 11
11.0009981359
 21
-20.489338978
  0
LINE
  5
2BB
100
AcDbEntity
  8
RACCORDO
100
AcDbLine
 62
253
  6
CONTINUOUS
 10
-2.9814284515
 20
-13.0442264385
 11
-4.9613274389
 21
-12.0542769448
  0
LINE
  5
2BC
100
AcDbEntity
  8
RACCORDO
100
AcDbLine
 62
253
  6
CONTINUOUS
 10
-10.8376085504
 20
-9.116136389
 11
-12.8175075373
 21
-8.1261868956
  0
LINE
  5
2BD
100
AcDbEntity
  8
DRAFT
100
AcDbLine
 62
7
  6
CONTINUOUS
 10
-8.6180222673
 20
-10.1210981837
 11
-9.4311950656
 21
-9.7145117846
  0
LINE
  5
2BE
100
AcDbEntity
  8
RACCORDO
100
AcDbLine
 62
7
  6
CONTINUOUS
 10
12.5080196781
 20
-20.571595074
 11
11.9731734316
 21
-20.3041719508
  0
LINE
  5
2BF
100
AcDbEntity
  8
DRAFT
100
AcDbLine
 62
7
  6
CONTINUOUS
 10
12.5951811683
 20
-20.5285732787
 11
15.9365784484
 21
-22.1992719188
  0
LINE
  5
2C0
100
AcDbEntity
  8
IMPORT_IGES
100
AcDbLine
 62
253
  6
CONTINUOUS
 10
-8.2114358681
 20
-9.9982474007
 11
-9.0069309969
 21
-9.6004998363
  0
LINE
  5
2C1
100
AcDbEntity
  8
RACCORDO
100
AcDbLine
 62
253
  6
CONTINUOUS
 10
-3.1321673033
 20
-12.1803820566
 11
-4.9631872527
 21
-11.2648720819
  0
LINE
  5
2C2
100
AcDbEntity
  8
RACCORDO
100
AcDbLine
 62
253
  6
CONTINUOUS
 10
-10.1323712758
 20
-8.6802800703
 11
-12.1122702631
 21
-7.6903305767
  0
LINE
  5
2C3
100
AcDbEntity
  8
IMPORT_IGES
100
AcDbLine
 62
253
  6
CONTINUOUS
 10
-8.5826669282
 20
-9.3406922151
 11
-7.7871717994
 21
-9.7384397795
  0
LINE
  5
2C4
100
AcDbEntity
  8
IMPORT_IGES
100
AcDbLine
 62
253
  6
CONTINUOUS
 10
-4.9233893356
 20
-11.1703310114
 11
-4.8500718232
 21
-11.2069897676
  0
LINE
  5
2C5
100
AcDbEntity
  8
IMPORT_IGES
100
AcDbLine
 62
7
  6
CONTINUOUS
 10
-6.6558009495
 20
-10.2552861093
 11
-4.8745502404
 21
-11.1459114639
  0
LINE
  5
2C6
100
AcDbEntity
  8
DRAFT
100
AcDbLine
 62
7
  6
CONTINUOUS
 10
-3.1354251077
 20
-11.4767561175
 11
-4.269315563
 21
-10.9098108898
  0
LINE
  5
2C7
100
AcDbEntity
  8
DRAFT
100
AcDbLine
 62
7
  6
CONTINUOUS
 10
-9.4311950656
 20
-8.3288711385
 11
-11.411094053
 21
-7.3389216448
  0
LINE
  5
2C8
100
AcDbEntity
  8
IMPORT_IGES
100
AcDbLine
 62
253
  6
CONTINUOUS
 10
-3.1366344979
 20
-11.1933087099
 11
-4.1278942067
 21
-10.6976788555
  0
LINE
  5
2C9
100
AcDbEntity
  8
IMPORT_IGES
100
AcDbLine
 62
253
  6
CONTINUOUS
 10
-9.0069309969
 20
-8.2581604604
 11
-10.9868299843
 21
-7.2682109667
  0
LINE
  5
2CA
100
AcDbEntity
  8
IMPORT_IGES
100
AcDbLine
 62
253
  6
CONTINUOUS
 10
-7.6634281127
 20
-8.8810728074
 11
-6.8679329838
 21
-9.2788203718
  0
LINE
  5
2CB
100
AcDbEntity
  8
IMPORT_IGES
100
AcDbLine
 62
7
  6
CONTINUOUS
 10
-6.7337689052
 20
-9.2702998356
 11
-7.529264034
 21
-8.8725522712
  0
LWPOLYLINE
  5
2CC
100
AcDbEntity
  8
IMPORT_IGES
100
AcDbPolyline
 62
7
  6
CONTINUOUS
 90
8
 70
0
 10
-6.7336287317
 20
-9.2704481258
 10
-6.7179362378
 20
-9.2799218744
 10
-6.6999452346
 20
-9.2961089664
 10
-6.6844505
 20
-9.3166014846
 10
-6.6722126432
 20
-9.3405754433
 10
-6.6634852007
 20
-9.3677561803
 10
-6.6580146362
 20
-9.3984183578
 10
-6.6558009495
 20
-9.4325619757
  0
LWPOLYLINE
  5
2CD
100
AcDbEntity
  8
RACCORDO
100
AcDbPolyline
 62
7
  6
CONTINUOUS
 90
49
 70
0
 10
-5.899288704
 20
-13.717981939
 10
-5.8990095692
 20
-13.7279668754
 10
-5.8985739364
 20
-13.7379850706
 10
-5.8979893515
 20
-13.7480341054
 10
-5.8972560271
 20
-13.7581109798
 10
-5.8963738402
 20
-13.7682126541
 10
-5.8953497
 20
-13.7783368594
 10
-5.894183843
 20
-13.78848084
 10
-5.8928762297
 20
-13.7986417682
 10
-5.8914332308
 20
-13.8088174382
 10
-5.8898551022
 20
-13.8190053105
 10
-5.8881418783
 20
-13.8292027422
 10
-5.8862994848
 20
-13.8394075136
 10
-5.8843281955
 20
-13.8496172754
 10
-5.8822281124
 20
-13.8598295484
 10
-5.8800048044
 20
-13.8700420307
 10
-5.8776585639
 20
-13.8802525438
 10
-5.8751895569
 20
-13.8904587527
 10
-5.8726030792
 20
-13.9006582129
 10
-5.8698994448
 20
-13.9108489012
 10
-5.8670788827
 20
-13.9210286106
 10
-5.8641464959
 20
-13.9311946971
 10
-5.8611026447
 20
-13.941345217
 10
-5.8579476031
 20
-13.9514781431
 10
-5.8546862946
 20
-13.9615907703
 10
-5.8513190879
 20
-13.9716813542
 10
-5.8478463378
 20
-13.9817479098
 10
-5.8442729137
 20
-13.991787427
 10
-5.8405992296
 20
-14.0017982625
 10
-5.8368256989
 20
-14.0117785599
 10
-5.8329571785
 20
-14.021725042
 10
-5.8289941277
 20
-14.0316361875
 10
-5.8249370299
 20
-14.041510242
 10
-5.8207907892
 20
-14.0513436318
 10
-5.8165559188
 20
-14.0611349564
 10
-5.812232977
 20
-14.0708825647
 10
-5.8078269706
 20
-14.080582565
 10
-5.8033384769
 20
-14.0902336774
 10
-5.7987681344
 20
-14.0998343604
 10
-5.7941211003
 20
-14.1093803947
 10
-5.7893980286
 20
-14.1188706224
 10
-5.7845996419
 20
-14.1283036218
 10
-5.7797312834
 20
-14.1376748558
 10
-5.7747936929
 20
-14.146983286
 10
-5.7697876841
 20
-14.1562276295
 10
-5.7647188191
 20
-14.1654030747
 10
-5.7595895552
 20
-14.1745073466
 10
-5.7543991916
 20
-14.1835406836
 10
-5.7491486224
 20
-14.1925021247
  0
LWPOLYLINE
  5
2CE
100
AcDbEntity
  8
RACCORDO
100
AcDbPolyline
 62
7
  6
CONTINUOUS
 90
50
 70
0
 10
-5.9119814779
 20
-12.5483954723
 10
-5.9118986002
 20
-12.5543048316
 10
-5.9116339206
 20
-12.5642805562
 10
-5.9112128968
 20
-12.5742900202
 10
-5.9106430731
 20
-12.5843307966
 10
-5.9099246548
 20
-12.5943998811
 10
-5.9090575106
 20
-12.6044942299
 10
-5.9080485485
 20
-12.614611567
 10
-5.9068979981
 20
-12.6247491328
 10
-5.905605812
 20
-12.6349040955
 10
-5.9041783599
 20
-12.6450742431
 10
-5.9026158911
 20
-12.6552570319
 10
-5.9009184329
 20
-12.6654498154
 10
-5.8990919096
 20
-12.675650368
 10
-5.8971365887
 20
-12.6858563368
 10
-5.8950525656
 20
-12.6960652383
 10
-5.8928454075
 20
-12.706274766
 10
-5.8905154011
 20
-12.7164827374
 10
-5.8880627061
 20
-12.7266868134
 10
-5.8854926162
 20
-12.7368845452
 10
-5.88280544
 20
-12.7470739056
 10
-5.8800014003
 20
-12.7572526837
 10
-5.877085598
 20
-12.7674182312
 10
-5.8740583878
 20
-12.7775686007
 10
-5.8709200383
 20
-12.7877017609
 10
-5.8676754703
 20
-12.7978150025
 10
-5.8643250475
 20
-12.8079065775
 10
-5.8608691192
 20
-12.8179744965
 10
-5.8573125517
 20
-12.8280157457
 10
-5.8536557542
 20
-12.8380286776
 10
-5.8498991346
 20
-12.8480114317
 10
-5.8460475466
 20
-12.8579607269
 10
-5.8421014445
 20
-12.8678750375
 10
-5.8380613067
 20
-12.8777526048
 10
-5.8339320332
 20
-12.8875898511
 10
-5.8297141326
 20
-12.8973853714
 10
-5.8254081585
 20
-12.9071375102
 10
-5.8210191126
 20
-12.9168423712
 10
-5.8165475681
 20
-12.9264986699
 10
-5.8119941589
 20
-12.9361048602
 10
-5.8073640366
 20
-12.9456567179
 10
-5.802657851
 20
-12.95515308
 10
-5.7978763204
 20
-12.9645925202
 10
-5.793024783
 20
-12.9739704964
 10
-5.7881039785
 20
-12.9832859681
 10
-5.7831147124
 20
-12.9925376444
 10
-5.7780625299
 20
-13.0017206999
 10
-5.7729498808
 20
-13.0108328519
 10
-5.7677760651
 20
-13.0198743365
 10
-5.7625419736
 20
-13.0288441874
  0
LWPOLYLINE
  5
2CF
100
AcDbEntity
  8
RACCORDO
100
AcDbPolyline
 62
7
  6
CONTINUOUS
 90
50
 70
0
 10
-5.0988086795
 20
-12.9549818718
 10
-5.0987258019
 20
-12.9608912308
 10
-5.0984611223
 20
-12.9708669554
 10
-5.0980400984
 20
-12.9808764194
 10
-5.0974702748
 20
-12.9909171958
 10
-5.0967518565
 20
-13.0009862802
 10
-5.0958847122
 20
-13.0110806291
 10
-5.0948757502
 20
-13.0211979662
 10
-5.0937251997
 20
-13.031335532
 10
-5.0924330136
 20
-13.0414904946
 10
-5.0910055616
 20
-13.0516606422
 10
-5.0894430928
 20
-13.0618434311
 10
-5.0877456345
 20
-13.0720362145
 10
-5.0859191112
 20
-13.0822367672
 10
-5.0839637903
 20
-13.0924427359
 10
-5.0818797672
 20
-13.1026516375
 10
-5.0796726092
 20
-13.1128611652
 10
-5.0773426028
 20
-13.1230691365
 10
-5.0748899077
 20
-13.1332732126
 10
-5.0723198179
 20
-13.1434709443
 10
-5.0696326416
 20
-13.1536603047
 10
-5.066828602
 20
-13.1638390828
 10
-5.0639127996
 20
-13.1740046304
 10
-5.0608855895
 20
-13.1841549999
 10
-5.05774724
 20
-13.19428816
 10
-5.0545026719
 20
-13.2044014017
 10
-5.0511522491
 20
-13.2144929766
 10
-5.0476963209
 20
-13.2245608957
 10
-5.0441397533
 20
-13.2346021449
 10
-5.0404829558
 20
-13.2446150768
 10
-5.0367263363
 20
-13.2545978309
 10
-5.0328747482
 20
-13.2645471261
 10
-5.0289286462
 20
-13.2744614367
 10
-5.0248885084
 20
-13.284339004
 10
-5.0207592348
 20
-13.2941762503
 10
-5.0165413343
 20
-13.3039717706
 10
-5.0122353601
 20
-13.3137239094
 10
-5.0078463142
 20
-13.3234287703
 10
-5.0033747698
 20
-13.3330850691
 10
-4.9988213605
 20
-13.3426912594
 10
-4.9941912382
 20
-13.352243117
 10
-4.9894850526
 20
-13.3617394791
 10
-4.984703522
 20
-13.3711789194
 10
-4.9798519847
 20
-13.3805568956
 10
-4.9749311801
 20
-13.3898723673
 10
-4.969941914
 20
-13.3991240436
 10
-4.9648897316
 20
-13.4083070991
 10
-4.9597770824
 20
-13.4174192511
 10
-4.9546032667
 20
-13.4264607357
 10
-4.9493691752
 20
-13.4354305865
  0
LINE
  5
2D0
100
AcDbEntity
  8
RACCORDO
100
AcDbLine
 62
7
  6
CONTINUOUS
 10
-5.9020667674
 20
-13.486065976
 11
-5.899288704
 21
-13.717981939
  0
LINE
  5
2D1
100
AcDbEntity
  8
RACCORDO
100
AcDbLine
 62
253
  6
CONTINUOUS
 10
-5.7562232165
 20
-13.6108706573
 11
-5.7491486223
 21
-14.1925021248
  0
LWPOLYLINE
  5
2D2
100
AcDbEntity
  8
RACCORDO
100
AcDbPolyline
 62
7
  6
CONTINUOUS
 90
50
 70
0
 10
-5.1098358952
 20
-11.5729421977
 10
-5.1097568177
 20
-11.5797194503
 10
-5.1095092142
 20
-11.5896841568
 10
-5.10910545
 20
-11.5996831723
 10
-5.1085530678
 20
-11.6097140602
 10
-5.1078522639
 20
-11.6197738114
 10
-5.1070028972
 20
-11.6298593773
 10
-5.1060118746
 20
-11.6399684736
 10
-5.1048794169
 20
-11.6500983358
 10
-5.1036054681
 20
-11.6602461273
 10
-5.1021963963
 20
-11.670409629
 10
-5.1006524429
 20
-11.6805862923
 10
-5.0989736266
 20
-11.690773466
 10
-5.0971658705
 20
-11.7009689181
 10
-5.0952294345
 20
-11.7111702909
 10
-5.0931644059
 20
-11.7213750964
 10
-5.0909763504
 20
-11.7315810221
 10
-5.0886655474
 20
-11.741785881
 10
-5.0862321491
 20
-11.7519873294
 10
-5.0836814473
 20
-11.762182913
 10
-5.0810137436
 20
-11.7723706003
 10
-5.0782292539
 20
-11.7825481755
 10
-5.0753330762
 20
-11.7927129855
 10
-5.0723255589
 20
-11.8028630781
 10
-5.0692069638
 20
-11.8129964173
 10
-5.0659822087
 20
-11.8231102893
 10
-5.0626516515
 20
-11.8332029412
 10
-5.0592156349
 20
-11.8432723789
 10
-5.0556790214
 20
-11.8533155839
 10
-5.0520422145
 20
-11.8633309039
 10
-5.0483056159
 20
-11.8733164735
 10
-5.0444740747
 20
-11.8832690068
 10
-5.0405480402
 20
-11.8931869733
 10
-5.0365279843
 20
-11.9030686091
 10
-5.0324188021
 20
-11.9129103314
 10
-5.028220997
 20
-11.9227107303
 10
-5.0239351167
 20
-11.9324681449
 10
-5.019566157
 20
-11.9421786732
 10
-5.0151146861
 20
-11.9518410257
 10
-5.0105813323
 20
-11.9614536506
 10
-5.0059712402
 20
-11.9710123174
 10
-5.0012850552
 20
-11.9805158578
 10
-4.99652349
 20
-11.9899628395
 10
-4.9916918738
 20
-11.9993487125
 10
-4.9867909382
 20
-12.008672428
 10
-4.9818214875
 20
-12.0179326916
 10
-4.9767890677
 20
-12.0271246765
 10
-4.9716961251
 20
-12.036246095
 10
-4.9665419534
 20
-12.0452971754
 10
-4.9613274387
 20
-12.0542769449
  0
LINE
  5
2D3
100
AcDbEntity
  8
RACCORDO
100
AcDbLine
 62
7
  6
CONTINUOUS
 10
-5.9079789951
 20
-12.9498144951
 11
-5.9020667674
 21
-13.486065976
  0
LINE
  5
2D4
100
AcDbEntity
  8
RACCORDO
100
AcDbLine
 62
253
  6
CONTINUOUS
 10
-5.7625419731
 20
-13.0288441876
 11
-5.7562232165
 21
-13.6108706573
  0
LINE
  5
2D5
100
AcDbEntity
  8
RACCORDO
100
AcDbLine
 62
253
  6
CONTINUOUS
 10
-4.9538271245
 20
-12.975290738
 11
-4.949369176
 21
-13.4354305861
  0
LINE
  5
2D6
100
AcDbEntity
  8
RACCORDO
100
AcDbLine
 62
7
  6
CONTINUOUS
 10
-5.1033045868
 20
-12.453481327
 11
-5.098809778
 21
-12.9549821454
  0
LINE
  5
2D7
100
AcDbEntity
  8
RACCORDO
100
AcDbLine
 62
253
  6
CONTINUOUS
 10
-4.9578132142
 20
-12.5149059486
 11
-4.9538271245
 21
-12.975290738
  0
LINE
  5
2D8
100
AcDbEntity
  8
RACCORDO
100
AcDbLine
 62
7
  6
CONTINUOUS
 10
-5.1065318448
 20
-12.0474459838
 11
-5.1033045868
 21
-12.453481327
  0
LINE
  5
2D9
100
AcDbEntity
  8
RACCORDO
100
AcDbLine
 62
253
  6
CONTINUOUS
 10
-4.9613274389
 20
-12.0542769448
 11
-4.9578132142
 21
-12.5149059486
  0
LINE
  5
2DA
100
AcDbEntity
  8
IMPORT_IGES
100
AcDbLine
 62
7
  6
CONTINUOUS
 10
-6.6558009495
 20
-9.4325619757
 11
-6.6558009495
 21
-10.2552861093
  0
LINE
  5
2DB
100
AcDbEntity
  8
RACCORDO
100
AcDbLine
 62
253
  6
CONTINUOUS
 10
-6.595747899
 20
17.1511699638
 11
-6.595747899
 21
17.7723371263
  0
LWPOLYLINE
  5
2DC
100
AcDbEntity
  8
0
100
AcDbPolyline
 62
7
  6
CONTINUOUS
 90
16
 70
0
 10
-5.3651156987
 20
18.8912311811
 10
-5.3642458534
 20
18.9388448441
 10
-5.3595227511
 20
18.9869961827
 10
-5.3509463916
 20
19.0356851971
 10
-5.3383317871
 20
19.0854772545
 10
-5.3218639254
 20
19.1358069877
 10
-5.3020977703
 20
19.1849782946
 10
-5.2789209071
 20
19.2329516931
 10
-5.2524457503
 20
19.2797666655
 10
-5.2235645075
 20
19.3238455565
 10
-5.1921951729
 20
19.3650951132
 10
-5.1584197523
 20
19.4036085885
 10
-5.1233764705
 20
19.4380880861
 10
-5.0874447359
 20
19.4681009739
 10
-5.0502451401
 20
19.4940798839
 10
-5.0117776832
 20
19.5160248161
  0
LINE
  5
2DD
100
AcDbEntity
  8
RACCORDO
100
AcDbLine
 62
253
  6
CONTINUOUS
 10
-2.9645202686
 20
19.3872223044
 11
-2.9797756804
 21
19.2953165781
  0
LINE
  5
2DE
100
AcDbEntity
  8
RACCORDO
100
AcDbLine
 62
253
  6
CONTINUOUS
 10
3.5936567971
 20
9.1961504225
 11
6.8496809413
 21
10.823031911
  0
LINE
  5
2DF
100
AcDbEntity
  8
RACCORDO
100
AcDbLine
 62
253
  6
CONTINUOUS
 10
3.7697895778
 20
8.8909817947
 11
7.473963713
 21
10.7417826684
  0
LWPOLYLINE
  5
2E0
100
AcDbEntity
  8
RACCORDO
100
AcDbPolyline
 62
253
  6
CONTINUOUS
 90
40
 70
0
 10
3.7697895778
 20
8.8909817947
 10
3.7624979486
 20
8.8875986306
 10
3.7549410678
 20
8.884362422
 10
3.7471307197
 20
8.8812784033
 10
3.7390784507
 20
8.878351346
 10
3.7307974775
 20
8.8755862604
 10
3.7223028445
 20
8.8729882557
 10
3.7136087599
 20
8.8705616485
 10
3.7047283168
 20
8.8683100647
 10
3.6956755157
 20
8.8662370573
 10
3.6864646485
 20
8.8643459073
 10
3.6771103842
 20
8.8626396347
 10
3.6676276656
 20
8.8611209676
 10
3.6580315833
 20
8.85979232
 10
3.6483373145
 20
8.8586557907
 10
3.6385602054
 20
8.8577131788
 10
3.6287157524
 20
8.8569659794
 10
3.6188195846
 20
8.8564153801
 10
3.6088874062
 20
8.8560622554
 10
3.5989349752
 20
8.8559071661
 10
3.5889780775
 20
8.8559503585
 10
3.5790325081
 20
8.8561917648
 10
3.5691140434
 20
8.8566310025
 10
3.5592384187
 20
8.8572673754
 10
3.5494213033
 20
8.8580998743
 10
3.5396782713
 20
8.8591271789
 10
3.5300247785
 20
8.8603476598
 10
3.5204761409
 20
8.861759381
 10
3.511047506
 20
8.8633601034
 10
3.5017538317
 20
8.8651472877
 10
3.4926098634
 20
8.8671180987
 10
3.4836301076
 20
8.8692694098
 10
3.4748288091
 20
8.8715978086
 10
3.4662199311
 20
8.8740996011
 10
3.4578171283
 20
8.8767708194
 10
3.4496337332
 20
8.8796072253
 10
3.4416827347
 20
8.8826043166
 10
3.4339767478
 20
8.8857573375
 10
3.4265279943
 20
8.8890612865
 10
3.4193482899
 20
8.8925109221
  0
LINE
  5
2E1
100
AcDbEntity
  8
IMPORT_IGES
100
AcDbLine
 62
253
  6
CONTINUOUS
 10
10.3449036125
 20
-11.5122401112
 11
9.9980082977
 21
-11.5477450605
  0
LINE
  5
2E2
100
AcDbEntity
  8
IMPORT_IGES
100
AcDbLine
 62
7
  6
CONTINUOUS
 10
10.0879522345
 20
-11.5846255223
 11
9.7755673231
 21
-11.6163304065
  0
LWPOLYLINE
  5
2E3
100
AcDbEntity
  8
IMPORT_IGES
100
AcDbPolyline
 62
7
  6
CONTINUOUS
 90
7
 70
0
 10
-7.5291238605
 20
-8.8727005614
 10
-7.5339928682
 20
-8.8704206719
 10
-7.5570506382
 20
-8.8629724601
 10
-7.5816213775
 20
-8.8602695774
 10
-7.6073773199
 20
-8.8624586583
 10
-7.6346462316
 20
-8.8693930682
 10
-7.6634281127
 20
-8.8810728074
  0
LINE
  5
2E4
100
AcDbEntity
  8
IMPORT_IGES
100
AcDbLine
 62
253
  6
CONTINUOUS
 10
-4.1278942067
 20
-10.2257392
 11
-3.1378169492
 21
-10.7207778288
  0
LINE
  5
2E5
100
AcDbEntity
  8
IMPORT_IGES
100
AcDbLine
 62
253
  6
CONTINUOUS
 10
-8.5826669282
 20
-7.9983528393
 11
-10.5625659155
 21
-7.0084033456
  0
LWPOLYLINE
  5
2E6
100
AcDbEntity
  8
RACCORDO
100
AcDbPolyline
 62
7
  6
CONTINUOUS
 90
13
 70
0
 10
-1.347655589
 20
-25.0540628696
 10
-1.3434318751
 20
-25.1176175784
 10
-1.3353484317
 20
-25.177955966
 10
-1.3234052588
 20
-25.2350780325
 10
-1.30749133
 20
-25.2892702394
 10
-1.2877176717
 20
-25.3402461252
 10
-1.264417363
 20
-25.3871463051
 10
-1.237530253
 20
-25.4299022374
 10
-1.2071164927
 20
-25.4685824638
 10
-1.1736896135
 20
-25.5025332242
 10
-1.137198275
 20
-25.5316739336
 10
-1.0976938177
 20
-25.5560851771
 10
-1.0881997494
 20
-25.5610135449
  0
LINE
  5
2E7
100
AcDbEntity
  8
0
100
AcDbLine
 62
7
  6
CONTINUOUS
 10
-5.3479169759
 20
18.2966351449
 11
-5.3651156987
 21
18.8912311811
  0
LWPOLYLINE
  5
2E8
100
AcDbEntity
  8
IMPORT_IGES
100
AcDbPolyline
 62
7
  6
CONTINUOUS
 90
9
 70
0
 10
-4.2157620654
 20
-10.4076649555
 10
-4.2156093788
 20
-10.4187198568
 10
-4.2130083763
 20
-10.4547019985
 10
-4.2071323837
 20
-10.4926224906
 10
-4.1979481179
 20
-10.5322124417
 10
-4.1854048362
 20
-10.572767774
 10
-4.1694912904
 20
-10.6139152415
 10
-4.1502832269
 20
-10.655621593
 10
-4.1278942067
 20
-10.6976788555
  0
LWPOLYLINE
  5
2E9
100
AcDbEntity
  8
RACCORDO
100
AcDbPolyline
 62
7
  6
CONTINUOUS
 90
50
 70
0
 10
-3.1299369079
 20
-12.5628916978
 10
-3.1298578304
 20
-12.5696689439
 10
-3.1296102269
 20
-12.5796336505
 10
-3.1292064627
 20
-12.5896326659
 10
-3.1286540805
 20
-12.5996635538
 10
-3.1279532765
 20
-12.609723305
 10
-3.1271039099
 20
-12.619808871
 10
-3.1261128873
 20
-12.6299179673
 10
-3.1249804296
 20
-12.6400478295
 10
-3.1237064808
 20
-12.650195621
 10
-3.122297409
 20
-12.6603591227
 10
-3.1207534555
 20
-12.670535786
 10
-3.1190746393
 20
-12.6807229597
 10
-3.1172668831
 20
-12.6909184118
 10
-3.1153304471
 20
-12.7011197846
 10
-3.1132654185
 20
-12.7113245901
 10
-3.111077363
 20
-12.7215305158
 10
-3.1087665601
 20
-12.7317353748
 10
-3.1063331618
 20
-12.7419368232
 10
-3.10378246
 20
-12.7521324068
 10
-3.1011147563
 20
-12.7623200941
 10
-3.0983302665
 20
-12.7724976693
 10
-3.0954340888
 20
-12.7826624793
 10
-3.0924265715
 20
-12.7928125719
 10
-3.0893079764
 20
-12.8029459112
 10
-3.0860832214
 20
-12.8130597832
 10
-3.0827526642
 20
-12.823152435
 10
-3.0793166475
 20
-12.8332218727
 10
-3.075780034
 20
-12.8432650777
 10
-3.0721432271
 20
-12.8532803978
 10
-3.0684066285
 20
-12.8632659674
 10
-3.0645750873
 20
-12.8732185007
 10
-3.0606490528
 20
-12.8831364671
 10
-3.0566289969
 20
-12.8930181029
 10
-3.0525198147
 20
-12.9028598253
 10
-3.0483220096
 20
-12.9126602241
 10
-3.0440361293
 20
-12.9224176387
 10
-3.0396671696
 20
-12.932128167
 10
-3.0352156987
 20
-12.9417905195
 10
-3.0306823449
 20
-12.9514031444
 10
-3.0260722528
 20
-12.9609618112
 10
-3.0213860678
 20
-12.9704653515
 10
-3.0166245026
 20
-12.9799123333
 10
-3.0117928864
 20
-12.9892982063
 10
-3.0068919508
 20
-12.9986219217
 10
-3.0019225002
 20
-13.0078821853
 10
-2.9968900803
 20
-13.0170741702
 10
-2.9917971378
 20
-13.0261955887
 10
-2.9866429661
 20
-13.0352466691
 10
-2.9814284514
 20
-13.0442264385
  0
LINE
  5
2EA
100
AcDbEntity
  8
IMPORT_IGES
100
AcDbLine
 62
7
  6
CONTINUOUS
 10
-4.2157621724
 20
-10.4100791893
 11
-4.2157621724
 21
-10.9365875851
  0
LINE
  5
2EB
100
AcDbEntity
  8
IMPORT_IGES
100
AcDbLine
 62
253
  6
CONTINUOUS
 10
-4.1278942067
 20
-10.6976788555
 11
-4.1278942067
 21
-10.980521568
  0
LWPOLYLINE
  5
2EC
100
AcDbEntity
  8
RACCORDO
100
AcDbPolyline
 62
7
  6
CONTINUOUS
 90
10
 70
0
 10
-3.1197513203
 20
-5.4458887986
 10
-3.1244799554
 20
-5.9930965815
 10
-3.130609903
 20
-6.85604886
 10
-3.1351080821
 20
-7.718194628
 10
-3.1379744507
 20
-8.5795291939
 10
-3.1392089853
 20
-9.4400478657
 10
-3.1388116752
 20
-10.2997459522
 10
-3.1367825101
 20
-11.1586187602
 10
-3.1331214832
 20
-12.016661599
 10
-3.1299379958
 20
-12.5628919662
  0
LWPOLYLINE
  5
2ED
100
AcDbEntity
  8
RACCORDO
100
AcDbPolyline
 62
253
  6
CONTINUOUS
 90
10
 70
0
 10
-2.9703420047
 20
-5.3130470028
 10
-2.9780781624
 20
-6.1753173629
 10
-2.9841882844
 20
-7.0367860356
 10
-2.9886723372
 20
-7.897448335
 10
-2.9915302963
 20
-8.7572995796
 10
-2.992762146
 20
-9.6163350923
 10
-2.9923678798
 20
-10.4745502006
 10
-2.9903474998
 20
-11.3319402361
 10
-2.9867010171
 20
-12.1885005352
 10
-2.9814284515
 20
-13.0442264385
  0
LWPOLYLINE
  5
2EE
100
AcDbEntity
  8
RACCORDO
100
AcDbPolyline
 62
7
  6
CONTINUOUS
 90
34
 70
0
 10
-3.1197507299
 20
-5.4458891411
 10
-3.1197481437
 20
-5.4457582727
 10
-3.1196406368
 20
-5.4446347883
 10
-3.1193770262
 20
-5.4434226644
 10
-3.1189570828
 20
-5.4421252901
 10
-3.118388351
 20
-5.4407413664
 10
-3.1176710352
 20
-5.4392738326
 10
-3.1168050037
 20
-5.4377258708
 10
-3.1157971644
 20
-5.436096205
 10
-3.1146477462
 20
-5.43438761
 10
-3.1133567015
 20
-5.4326030842
 10
-3.1119303996
 20
-5.430741391
 10
-3.1103690895
 20
-5.4288051601
 10
-3.1086727977
 20
-5.4267972283
 10
-3.1068474486
 20
-5.4247164163
 10
-3.1048933094
 20
-5.422565227
 10
-3.1028104746
 20
-5.4203463562
 10
-3.1006045117
 20
-5.4180587008
 10
-3.0982757067
 20
-5.4157046536
 10
-3.0958242188
 20
-5.4132867891
 10
-3.0932553418
 20
-5.4108041009
 10
-3.0905693837
 20
-5.4082588862
 10
-3.0877665669
 20
-5.4056536168
 10
-3.0848519921
 20
-5.4029874054
 10
-3.0818260137
 20
-5.4002624841
 10
-3.0786888997
 20
-5.3974812227
 10
-3.0754455708
 20
-5.3946428255
 10
-3.0720963905
 20
-5.3917494314
 10
-3.0686417074
 20
-5.3888033516
 10
-3.0650863878
 20
-5.3858039596
 10
-3.0614308404
 20
-5.3827533387
 10
-3.0576754729
 20
-5.3796537306
 10
-3.0538251384
 20
-5.3765046827
 10
-3.0498802912
 20
-5.3733082225
  0
LINE
  5
2EF
100
AcDbEntity
  8
RACCORDO
100
AcDbLine
 62
253
  6
CONTINUOUS
 10
-0.9625182401
 20
19.8446409269
 11
-1.0237366076
 21
19.4758328856
  0
LINE
  5
2F0
100
AcDbEntity
  8
RACCORDO
100
AcDbLine
 62
253
  6
CONTINUOUS
 10
-0.6830277784
 20
19.8054763607
 11
-0.7442461459
 21
19.4366683194
  0
LWPOLYLINE
  5
2F1
100
AcDbEntity
  8
IMPORT_IGES
100
AcDbPolyline
 62
7
  6
CONTINUOUS
 90
4
 70
0
 10
-5.0055608912
 20
-11.2927063565
 10
-5.0001038994
 20
-11.2693168239
 10
-4.9904843922
 20
-11.2430965462
 10
-4.9778351839
 20
-11.2198668578
  0
LWPOLYLINE
  5
2F2
100
AcDbEntity
  8
RACCORDO
100
AcDbPolyline
 62
7
  6
CONTINUOUS
 90
12
 70
0
 10
1.0101142357
 20
17.334000498
 10
1.0111690706
 20
17.3381571665
 10
1.0131150951
 20
17.3425249993
 10
1.015901373
 20
17.3467143643
 10
1.0195172769
 20
17.3507275189
 10
1.0239166847
 20
17.3545132737
 10
1.029109633
 20
17.358068716
 10
1.0350860852
 20
17.3613967585
 10
1.0417698096
 20
17.364454951
 10
1.0491353956
 20
17.3672291434
 10
1.0572082538
 20
17.3697334857
 10
1.0659883842
 20
17.371967978
  0
LWPOLYLINE
  5
2F3
100
AcDbEntity
  8
RACCORDO
100
AcDbPolyline
 62
7
  6
CONTINUOUS
 90
12
 70
0
 10
1.4268082863
 20
18.7158822179
 10
1.4257534514
 20
18.7117255495
 10
1.4238074269
 20
18.7073577167
 10
1.421021149
 20
18.7031683516
 10
1.4174052451
 20
18.699155197
 10
1.4130058373
 20
18.6953694422
 10
1.407812889
 20
18.691814
 10
1.4018364368
 20
18.6884859574
 10
1.3951527124
 20
18.6854277649
 10
1.3877871264
 20
18.6826535726
 10
1.3797142682
 20
18.6801492302
 10
1.3709341378
 20
18.6779147379
  0
LWPOLYLINE
  5
2F4
100
AcDbEntity
  8
RACCORDO
100
AcDbPolyline
 62
253
  6
CONTINUOUS
 90
52
 70
0
 10
1.3709505131
 20
4.1360345238
 10
1.3522263309
 20
4.1226121535
 10
1.3336040274
 20
4.1086384818
 10
1.3150966098
 20
4.0941235053
 10
1.2967169511
 20
4.0790777804
 10
1.2784779386
 20
4.0635118887
 10
1.2603924743
 20
4.0474363984
 10
1.2424730313
 20
4.0308626
 10
1.2247323
 20
4.0138024491
 10
1.2071833379
 20
3.996268025
 10
1.1898384644
 20
3.9782718792
 10
1.1727097327
 20
3.9598267818
 10
1.1558095816
 20
3.940945643
 10
1.1391498535
 20
3.9216419438
 10
1.1227421449
 20
3.9019293951
 10
1.106598278
 20
3.8818216933
 10
1.0907294865
 20
3.8613330685
 10
1.0751469052
 20
3.8404781643
 10
1.0598619197
 20
3.8192716976
 10
1.0448852394
 20
3.7977287843
 10
1.0302272889
 20
3.7758647115
 10
1.0158986999
 20
3.753694812
 10
1.0019094773
 20
3.7312348212
 10
0.988269394
 20
3.7085007245
 10
0.9749883756
 20
3.685508536
 10
0.9620757321
 20
3.6622746371
 10
0.94954044
 20
3.63881549
 10
0.937391541
 20
3.6151474808
 10
0.9256375077
 20
3.5912873593
 10
0.9142865663
 20
3.5672521216
 10
0.9033469778
 20
3.5430587227
 10
0.8928264024
 20
3.5187243523
 10
0.8827321645
 20
3.4942662651
 10
0.873071582
 20
3.4697016603
 10
0.8638513986
 20
3.4450479208
 10
0.8550780568
 20
3.4203225828
 10
0.8467579569
 20
3.395543168
 10
0.8388969419
 20
3.3707273307
 10
0.831500453
 20
3.34589259
 10
0.8245738099
 20
3.3210562997
 10
0.8181218514
 20
3.2962360091
 10
0.8121490869
 20
3.271449371
 10
0.8066598534
 20
3.2467138754
 10
0.8016579846
 20
3.2220469713
 10
0.7971469786
 20
3.1974662192
 10
0.7931301448
 20
3.1729891971
 10
0.7896103212
 20
3.1486334702
 10
0.7865898983
 20
3.1244160556
 10
0.7840710102
 20
3.1003535825
 10
0.7820554482
 20
3.0764629242
 10
0.7805446274
 20
3.0527611765
 10
0.7795396193
 20
3.0292651262
  0
LINE
  5
2F5
100
AcDbEntity
  8
RACCORDO
100
AcDbLine
 62
253
  6
CONTINUOUS
 10
3.7765231464
 20
5.8081362804
 11
1.3709505131
 21
4.1360345238
  0
LWPOLYLINE
  5
2F6
100
AcDbEntity
  8
IMPORT_IGES
100
AcDbPolyline
 62
253
  6
CONTINUOUS
 90
16
 70
0
 10
16.0868311239
 20
12.5610617914
 10
16.0570751046
 20
12.5437955619
 10
16.0317291593
 20
12.5260218349
 10
16.0107932881
 20
12.5077406105
 10
15.9943850145
 20
12.4888983356
 10
15.982386815
 20
12.4695485634
 10
15.9744461187
 20
12.4498519527
 10
15.9704506233
 20
12.4296210833
 10
15.9705126311
 20
12.4090433755
 10
15.9746164783
 20
12.3888417494
 10
15.9826546384
 20
12.3692110016
 10
15.994734638
 20
12.3499563354
 10
16.0111633927
 20
12.3312162816
 10
16.0320432077
 20
12.3130370172
 10
16.0572717779
 20
12.2953723652
 10
16.0868491032
 20
12.2782223257
  0
LINE
  5
2F7
100
AcDbEntity
  8
IMPORT_IGES
100
AcDbLine
 62
253
  6
CONTINUOUS
 10
16.2110068929
 20
12.3090270937
 11
16.2282574618
 21
12.3184144879
  0
LWPOLYLINE
  5
2F8
100
AcDbEntity
  8
IMPORT_IGES
100
AcDbPolyline
 62
253
  6
CONTINUOUS
 90
16
 70
0
 10
16.2282339031
 20
12.3188967258
 10
16.2712054549
 20
12.3416995343
 10
16.3162453821
 20
12.3630264629
 10
16.3633536847
 20
12.3828775116
 10
16.4124911667
 20
12.4015969819
 10
16.4636970242
 20
12.4188405723
 10
16.5170888452
 20
12.4335753785
 10
16.5733345472
 20
12.4458828809
 10
16.6317662128
 20
12.4556815992
 10
16.690497678
 20
12.4616941877
 10
16.7491573977
 20
12.4638036689
 10
16.808116917
 20
12.4621270203
 10
16.8666047074
 20
12.4557378291
 10
16.9243635928
 20
12.4443272908
 10
16.9816507493
 20
12.4282042099
 10
17.0384661769
 20
12.4073685862
  0
LINE
  5
2F9
100
AcDbEntity
  8
IMPORT_IGES
100
AcDbLine
 62
253
  6
CONTINUOUS
 10
16.1279751494
 20
12.5816334925
 11
16.0868311239
 21
12.5610617914
  0
LINE
  5
2FA
100
AcDbEntity
  8
RACCORDO
100
AcDbLine
 62
7
  6
CONTINUOUS
 10
3.7697895778
 20
6.0646538926
 11
3.9527909525
 21
6.1530150792
  0
LWPOLYLINE
  5
2FB
100
AcDbEntity
  8
IMPORT_IGES
100
AcDbPolyline
 62
253
  6
CONTINUOUS
 90
8
 70
0
 10
17.6422875151
 20
11.4657223487
 10
17.6596030663
 20
11.4738047873
 10
17.6757364682
 20
11.4799880574
 10
17.6902202937
 20
11.4840453238
 10
17.7025095539
 20
11.4858516683
 10
17.7125458025
 20
11.4854863827
 10
17.720487166
 20
11.4829218711
 10
17.7253658844
 20
11.4789683901
  0
LWPOLYLINE
  5
2FC
100
AcDbEntity
  8
RACCORDO
100
AcDbPolyline
 62
7
  6
CONTINUOUS
 90
40
 70
0
 10
3.7697895778
 20
6.0646538926
 10
3.7624729796
 20
6.0612603877
 10
3.7549154871
 20
6.0580242037
 10
3.7471171005
 20
6.0549453405
 10
3.7390630187
 20
6.052018926
 10
3.7307680427
 20
6.0492498324
 10
3.7222765754
 20
6.0466526757
 10
3.7135920767
 20
6.0442294106
 10
3.7047110867
 20
6.0419780825
 10
3.6956676287
 20
6.0399074433
 10
3.6864546317
 20
6.0380170881
 10
3.6770791666
 20
6.0363074217
 10
3.6675964698
 20
6.0347884109
 10
3.6580139307
 20
6.0334620623
 10
3.6483241598
 20
6.0323263692
 10
3.6385602251
 20
6.0313852783
 10
3.6287126804
 20
6.0306389787
 10
3.6187909718
 20
6.0300872813
 10
3.6088565053
 20
6.0297335644
 10
3.5989189413
 20
6.0295790014
 10
3.5889686194
 20
6.029622419
 10
3.579037964
 20
6.0298636757
 10
3.5691173569
 20
6.0303040288
 10
3.5592164164
 20
6.0309422211
 10
3.549396421
 20
6.0317743386
 10
3.5396668219
 20
6.0328004883
 10
3.530018168
 20
6.0340205633
 10
3.5204833844
 20
6.0354303291
 10
3.5110551526
 20
6.0370318565
 10
3.501740791
 20
6.0388230747
 10
3.4925951797
 20
6.0407935365
 10
3.4836253743
 20
6.0429427754
 10
3.4748243191
 20
6.0452712579
 10
3.4662257267
 20
6.0477699366
 10
3.457826206
 20
6.050440796
 10
3.4496291481
 20
6.0532818516
 10
3.4416784389
 20
6.0562781019
 10
3.4339887071
 20
6.0594245465
 10
3.4265453241
 20
6.0627261858
 10
3.4193482899
 20
6.0661830199
  0
LWPOLYLINE
  5
2FD
100
AcDbEntity
  8
IMPORT_IGES
100
AcDbPolyline
 62
253
  6
CONTINUOUS
 90
6
 70
0
 10
16.0868516969
 20
12.2782236225
 10
16.1050540542
 20
12.2858836881
 10
16.1228921598
 20
12.2905240836
 10
16.1400760006
 20
12.2920997547
 10
16.1562515913
 20
12.2906320647
 10
16.1712570491
 20
12.2861920992
  0
LWPOLYLINE
  5
2FE
100
AcDbEntity
  8
IMPORT_IGES
100
AcDbPolyline
 62
253
  6
CONTINUOUS
 90
5
 70
0
 10
12.3033006721
 20
9.5155810355
 10
12.3152265773
 20
9.5203036908
 10
12.3268791898
 20
9.5224144104
 10
12.3379113504
 20
9.5218039049
 10
12.3479492395
 20
9.5184586673
  0
LWPOLYLINE
  5
2FF
100
AcDbEntity
  8
IMPORT_IGES
100
AcDbPolyline
 62
253
  6
CONTINUOUS
 90
14
 70
0
 10
18.7635866555
 20
10.6057795899
 10
18.7303228275
 20
10.5929449194
 10
18.6958957208
 20
10.5839737709
 10
18.6603053354
 20
10.5788661442
 10
18.6234844378
 20
10.5776794353
 10
18.5855002614
 20
10.5803562483
 10
18.5465545065
 20
10.5867243957
 10
18.5061418698
 20
10.5968603847
 10
18.4647676546
 20
10.610687708
 10
18.4241494713
 20
10.6278046567
 10
18.3850656023
 20
10.6478868739
 10
18.3467377651
 20
10.6712587164
 10
18.3085487234
 20
10.6984915461
 10
18.2702927315
 20
10.7297758168
  0
LINE
  5
300
100
AcDbEntity
  8
IMPORT_IGES
100
AcDbLine
 62
253
  6
CONTINUOUS
 10
9.5589958358
 20
-11.6004977348
 11
9.5335546256
 21
-11.5952220176
  0
LWPOLYLINE
  5
301
100
AcDbEntity
  8
IMPORT_IGES
100
AcDbPolyline
 62
7
  6
CONTINUOUS
 90
5
 70
0
 10
9.5326463736
 20
-11.5949646401
 10
9.6068950821
 20
-11.6113222843
 10
9.675432698
 20
-11.6186463136
 10
9.7410173842
 20
-11.6188875947
 10
9.7780251294
 20
-11.6160815406
  0
LINE
  5
302
100
AcDbEntity
  8
IMPORT_IGES
100
AcDbLine
 62
7
  6
CONTINUOUS
 10
8.9889365843
 20
-11.4423731644
 11
9.5335546256
 21
-11.5952220176
  0
LINE
  5
303
100
AcDbEntity
  8
IMPORT_IGES
100
AcDbLine
 62
253
  6
CONTINUOUS
 10
9.8267182947
 20
-11.4169659903
 11
9.0392168777
 21
-11.195951115
  0
LWPOLYLINE
  5
304
100
AcDbEntity
  8
ASSI
100
AcDbPolyline
 62
7
  6
CONTINUOUS
 90
11
 70
0
 10
8.9889365843
 20
-20.0408107518
 10
8.9983709707
 20
-20.052057316
 10
9.0181427626
 20
-20.0808114783
 10
9.0358814291
 20
-20.1122582647
 10
9.0513580366
 20
-20.1459878827
 10
9.0645427177
 20
-20.1820292104
 10
9.0754653399
 20
-20.2203533696
 10
9.0839865725
 20
-20.260463933
 10
9.0900599718
 20
-20.3021954247
 10
9.0937319814
 20
-20.3457133207
 10
9.0950026014
 20
-20.3910176208
  0
LWPOLYLINE
  5
305
100
AcDbEntity
  8
RACCORDO
100
AcDbPolyline
 62
7
  6
CONTINUOUS
 90
25
 70
0
 10
-1.4693823415
 20
-20.6620274217
 10
-1.4700796596
 20
-20.6478401268
 10
-1.471527632
 20
-20.6333335961
 10
-1.4737214181
 20
-20.6185705954
 10
-1.4766542147
 20
-20.6036156719
 10
-1.4803135372
 20
-20.5885328075
 10
-1.484681297
 20
-20.5733851386
 10
-1.4897399874
 20
-20.5582380469
 10
-1.4954693188
 20
-20.5431570832
 10
-1.5018425852
 20
-20.528205613
 10
-1.5088335257
 20
-20.5134481558
 10
-1.5164134943
 20
-20.4989485302
 10
-1.5245481937
 20
-20.484767788
 10
-1.5332036621
 20
-20.470967023
 10
-1.5423439477
 20
-20.4576059755
 10
-1.5519283334
 20
-20.444741195
 10
-1.5619163654
 20
-20.4324280994
 10
-1.5722662106
 20
-20.4207199199
 10
-1.5829323662
 20
-20.4096663288
 10
-1.5938695047
 20
-20.3993148496
 10
-1.6050314694
 20
-20.3897102324
 10
-1.6163696385
 20
-20.3808934027
 10
-1.6278353461
 20
-20.3729021437
 10
-1.6393800971
 20
-20.3657709616
 10
-1.6509545686
 20
-20.3595304891
  0
LWPOLYLINE
  5
306
100
AcDbEntity
  8
RACCORDO
100
AcDbPolyline
 62
7
  6
CONTINUOUS
 90
10
 70
0
 10
-1.347655589
 20
-25.0540628696
 10
-1.3633541035
 20
-24.5672381215
 10
-1.3785093089
 20
-24.0801178345
 10
-1.3931212051
 20
-23.5927020086
 10
-1.4071898199
 20
-23.1049896555
 10
-1.4207151255
 20
-22.6169817636
 10
-1.4336970388
 20
-22.1286812977
 10
-1.4461355321
 20
-21.6400892463
 10
-1.458030633
 20
-21.151204621
 10
-1.4693823415
 20
-20.6620274217
  0
LINE
  5
307
100
AcDbEntity
  8
0
100
AcDbLine
 62
7
  6
CONTINUOUS
 10
-2.164701825
 20
16.6629609349
 11
-2.1659364606
 21
16.7056448872
  0
LINE
  5
308
100
AcDbEntity
  8
0
100
AcDbLine
 62
7
  6
CONTINUOUS
 10
-2.1833505585
 20
15.759863536
 11
-2.1833505585
 21
15.719122291
  0
LINE
  5
309
100
AcDbEntity
  8
RACCORDO
100
AcDbLine
 62
253
  6
CONTINUOUS
 10
1.0659883842
 20
17.371967978
 11
1.0507329724
 21
17.2800622518
  0
LINE
  5
30A
100
AcDbEntity
  8
RACCORDO
100
AcDbLine
 62
253
  6
CONTINUOUS
 10
1.367581887
 20
18.7801715279
 11
1.3498070502
 21
18.6730876083
  0
LINE
  5
30B
100
AcDbEntity
  8
RACCORDO
100
AcDbLine
 62
7
  6
CONTINUOUS
 10
-12.8016237119
 20
-8.1147073544
 11
-12.8175075375
 21
-8.1261868955
  0
LWPOLYLINE
  5
30C
100
AcDbEntity
  8
RACCORDO
100
AcDbPolyline
 62
253
  6
CONTINUOUS
 90
52
 70
0
 10
1.5753120567
 20
3.8482483912
 10
1.5611978876
 20
3.8382033271
 10
1.5471783995
 20
3.8277589403
 10
1.5332535922
 20
3.816915231
 10
1.5194133213
 20
3.80566367
 10
1.5056677313
 20
3.7940127864
 10
1.492047256
 20
3.7819881674
 10
1.4785525428
 20
3.7695892737
 10
1.4651829443
 20
3.7568166445
 10
1.4519669524
 20
3.7436974841
 10
1.438904939
 20
3.7302310891
 10
1.4259965322
 20
3.716418163
 10
1.413269108
 20
3.7022880207
 10
1.4007230727
 20
3.687840021
 10
1.3883580201
 20
3.6730748052
 10
1.3762001067
 20
3.6580236117
 10
1.3642497317
 20
3.6426857826
 10
1.352506496
 20
3.6270619758
 10
1.3409953592
 20
3.6111854029
 10
1.3297168357
 20
3.5950555534
 10
1.3186704111
 20
3.5786729379
 10
1.3078795024
 20
3.5620723004
 10
1.297344644
 20
3.5452531642
 10
1.2870653015
 20
3.528216006
 10
1.2770632877
 20
3.5109969996
 10
1.2673392111
 20
3.4935957973
 10
1.2578924633
 20
3.4760127468
 10
1.2487430316
 20
3.4582850649
 10
1.2398915257
 20
3.4404124056
 10
1.2313373358
 20
3.4223951149
 10
1.2230986205
 20
3.4042714483
 10
1.2151760579
 20
3.3860411966
 10
1.2075689698
 20
3.3677045689
 10
1.2002934795
 20
3.3493004478
 10
1.1933502825
 20
3.3308286625
 10
1.1867386833
 20
3.3122893838
 10
1.180472718
 20
3.2937220071
 10
1.1745531399
 20
3.2751265374
 10
1.1689791958
 20
3.2565029698
 10
1.1637626615
 20
3.2378906847
 10
1.1589042801
 20
3.2192896672
 10
1.1544033085
 20
3.2006999321
 10
1.1502692936
 20
3.182160905
 10
1.1465030114
 20
3.1636726399
 10
1.1431036859
 20
3.1452350829
 10
1.1400785363
 20
3.126887497
 10
1.1374283563
 20
3.1086297579
 10
1.1351523522
 20
3.09046199
 10
1.1332553622
 20
3.0724238296
 10
1.1317389988
 20
3.0545284887
 10
1.1306016494
 20
3.0367627552
 10
1.1298433141
 20
3.0191266292
  0
LINE
  5
30D
100
AcDbEntity
  8
RACCORDO
100
AcDbLine
 62
7
  6
CONTINUOUS
 10
-12.7848782817
 20
-8.1027555087
 11
-12.8016237119
 21
-8.1147073544
  0
LINE
  5
30E
100
AcDbEntity
  8
RACCORDO
100
AcDbLine
 62
7
  6
CONTINUOUS
 10
-12.7672928404
 20
-8.0903515173
 11
-12.7848782817
 21
-8.1027555087
  0
LINE
  5
30F
100
AcDbEntity
  8
RACCORDO
100
AcDbLine
 62
253
  6
CONTINUOUS
 10
3.9527909525
 20
5.5008223285
 11
1.5753120567
 21
3.8482483912
  0
LINE
  5
310
100
AcDbEntity
  8
RACCORDO
100
AcDbLine
 62
7
  6
CONTINUOUS
 10
-12.7488906593
 20
-8.0775164221
 11
-12.7672928404
 21
-8.0903515173
  0
LINE
  5
311
100
AcDbEntity
  8
IMPORT_IGES
100
AcDbLine
 62
7
  6
CONTINUOUS
 10
-10.9868299843
 20
-7.2682109667
 11
-10.934565437
 21
-7.2318773066
  0
LINE
  5
312
100
AcDbEntity
  8
RACCORDO
100
AcDbLine
 62
7
  6
CONTINUOUS
 10
-12.7296961954
 20
-8.0642716349
 11
-12.7488906593
 21
-8.0775164221
  0
LWPOLYLINE
  5
313
100
AcDbEntity
  8
IMPORT_IGES
100
AcDbPolyline
 62
7
  6
CONTINUOUS
 90
13
 70
0
 10
-10.934565437
 20
-7.2318773066
 10
-10.9063664627
 20
-7.21248643
 10
-10.8768734986
 20
-7.1929066926
 10
-10.8464265295
 20
-7.1733639106
 10
-10.8156372537
 20
-7.1538168506
 10
-10.7847731137
 20
-7.1345553541
 10
-10.7539672704
 20
-7.1158511017
 10
-10.7235852622
 20
-7.0976262677
 10
-10.6938247288
 20
-7.0801170334
 10
-10.6648769302
 20
-7.0635609013
 10
-10.6370596235
 20
-7.0479152621
 10
-10.6106098417
 20
-7.0333288791
 10
-10.5857037805
 20
-7.0200963218
  0
LINE
  5
314
100
AcDbEntity
  8
RACCORDO
100
AcDbLine
 62
7
  6
CONTINUOUS
 10
-12.709734638
 20
-8.0506387253
 11
-12.7296961954
 21
-8.0642716349
  0
LINE
  5
315
100
AcDbEntity
  8
RACCORDO
100
AcDbLine
 62
7
  6
CONTINUOUS
 10
-12.6890316015
 20
-8.0366392939
 11
-12.709734638
 21
-8.0506387253
  0
LINE
  5
316
100
AcDbEntity
  8
RACCORDO
100
AcDbLine
 62
7
  6
CONTINUOUS
 10
-12.6676129385
 20
-8.0222949246
 11
-12.6890316015
 21
-8.0366392939
  0
LWPOLYLINE
  5
317
100
AcDbEntity
  8
RACCORDO
100
AcDbPolyline
 62
7
  6
CONTINUOUS
 90
3
 70
0
 10
-12.6303948619
 20
-7.9976800413
 10
-12.6379867933
 20
-8.0026694059
 10
-12.6676129385
 20
-8.0222949246
  0
LWPOLYLINE
  5
318
100
AcDbEntity
  8
IMPORT_IGES
100
AcDbPolyline
 62
253
  6
CONTINUOUS
 90
10
 70
0
 10
11.9497497795
 20
9.3388056887
 10
11.9378241246
 20
9.331602046
 10
11.9261716998
 20
9.3220598286
 10
11.915139668
 20
9.3104169278
 10
11.9050846523
 20
9.2970080005
 10
11.8963035643
 20
9.2821826725
 10
11.8890502812
 20
9.2662756513
 10
11.8835982762
 20
9.2497212413
 10
11.8802006086
 20
9.233062496
 10
11.8790387028
 20
9.2168465692
  0
LWPOLYLINE
  5
319
100
AcDbEntity
  8
IMPORT_IGES
100
AcDbPolyline
 62
253
  6
CONTINUOUS
 90
10
 70
0
 10
15.9800029344
 20
11.3539322662
 10
15.9680768778
 20
11.3467289028
 10
15.9564241514
 20
11.3371869202
 10
15.9453919149
 20
11.3255441916
 10
15.9353368281
 20
11.3121353265
 10
15.9265557746
 20
11.2973099682
 10
15.9193025281
 20
11.2814029151
 10
15.9138505231
 20
11.2648485051
 10
15.9104528555
 20
11.2481897598
 10
15.9092909497
 20
11.231973833
  0
LWPOLYLINE
  5
31A
100
AcDbEntity
  8
IMPORT_IGES
100
AcDbPolyline
 62
7
  6
CONTINUOUS
 90
10
 70
0
 10
9.312159889
 20
5.8137576593
 10
9.2814134575
 20
5.7964765016
 10
9.2511728797
 20
5.7762824171
 10
9.2214381557
 20
5.7531754058
 10
9.1918942058
 20
5.7268271043
 10
9.1628561096
 20
5.697565876
 10
9.1352691059
 20
5.6663768109
 10
9.1094482744
 20
5.6335882725
 10
9.0850785354
 20
5.5988718973
 10
9.062159889
 20
5.5622276854
  0
LWPOLYLINE
  5
31B
100
AcDbEntity
  8
IMPORT_IGES
100
AcDbPolyline
 62
7
  6
CONTINUOUS
 90
5
 70
0
 10
9.1502717564
 20
5.9828662014
 10
9.100860061
 20
5.955632836
 10
9.0518260357
 20
5.9233331662
 10
9.0035420483
 20
5.8862134274
 10
8.9889365843
 20
5.8733145883
  0
LINE
  5
31C
100
AcDbEntity
  8
IMPORT_IGES
100
AcDbLine
 62
253
  6
CONTINUOUS
 10
17.5361972618
 20
11.55355084
 11
11.859528212
 21
8.7152135928
  0
LINE
  5
31D
100
AcDbEntity
  8
IMPORT_IGES
100
AcDbLine
 62
253
  6
CONTINUOUS
 10
17.6422835557
 20
11.4657271297
 11
11.9538389178
 21
8.6215114923
  0
LINE
  5
31E
100
AcDbEntity
  8
IMPORT_IGES
100
AcDbLine
 62
7
  6
CONTINUOUS
 10
10.3176733614
 20
7.6698150694
 11
10.5153636757
 21
7.7686602265
  0
LINE
  5
31F
100
AcDbEntity
  8
IMPORT_IGES
100
AcDbLine
 62
7
  6
CONTINUOUS
 10
10.5812679885
 20
7.7357080702
 11
10.3361478912
 21
7.6131480216
  0
LINE
  5
320
100
AcDbEntity
  8
IMPORT_IGES
100
AcDbLine
 62
253
  6
CONTINUOUS
 10
17.9573022685
 20
11.2005963237
 11
18.1110930524
 21
11.2774909618
  0
LINE
  5
321
100
AcDbEntity
  8
IMPORT_IGES
100
AcDbLine
 62
7
  6
CONTINUOUS
 10
10.9579844128
 20
7.547349858
 11
10.7302094989
 21
7.4334564893
  0
LINE
  5
322
100
AcDbEntity
  8
IMPORT_IGES
100
AcDbLine
 62
253
  6
CONTINUOUS
 10
11.0335885082
 20
7.5095478103
 11
10.8058135943
 21
7.3956544415
  0
LINE
  5
323
100
AcDbEntity
  8
IMPORT_IGES
100
AcDbLine
 62
253
  6
CONTINUOUS
 10
11.3931000711
 20
7.1020112032
 11
9.8027268796
 21
6.3068246074
  0
LINE
  5
324
100
AcDbEntity
  8
IMPORT_IGES
100
AcDbLine
 62
7
  6
CONTINUOUS
 10
18.6033580707
 20
10.6699834919
 11
18.9466509334
 21
10.8416299753
  0
LINE
  5
325
100
AcDbEntity
  8
IMPORT_IGES
100
AcDbLine
 62
253
  6
CONTINUOUS
 10
11.4412024621
 20
7.0769527462
 11
11.6699846113
 21
7.1913497588
  0
LINE
  5
326
100
AcDbEntity
  8
IMPORT_IGES
100
AcDbLine
 62
253
  6
CONTINUOUS
 10
18.7635866555
 20
10.6057795899
 11
19.1068091536
 21
10.777390839
  0
LINE
  5
327
100
AcDbEntity
  8
IMPORT_IGES
100
AcDbLine
 62
7
  6
CONTINUOUS
 10
9.3121598811
 20
5.8140541656
 11
12.167562222
 21
7.241755336
  0
LINE
  5
328
100
AcDbEntity
  8
IMPORT_IGES
100
AcDbLine
 62
7
  6
CONTINUOUS
 10
9.7754521859
 20
5.5824080053
 11
12.6357978351
 21
7.0048149554
  0
LINE
  5
329
100
AcDbEntity
  8
IMPORT_IGES
100
AcDbLine
 62
253
  6
CONTINUOUS
 10
9.8027268796
 20
6.3068246074
 11
9.1502717569
 21
5.9828662017
  0
LINE
  5
32A
100
AcDbEntity
  8
IMPORT_IGES
100
AcDbLine
 62
7
  6
CONTINUOUS
 10
9.7230610498
 20
7.1718169564
 11
10.501631663
 21
7.5477454072
  0
LINE
  5
32B
100
AcDbEntity
  8
IMPORT_IGES
100
AcDbLine
 62
7
  6
CONTINUOUS
 10
10.7126619916
 20
7.6700110686
 11
10.6540694645
 21
7.6422202784
  0
LINE
  5
32C
100
AcDbEntity
  8
IMPORT_IGES
100
AcDbLine
 62
7
  6
CONTINUOUS
 10
10.2298053957
 20
7.4409892631
 11
10.0935271939
 21
7.3763516873
  0
LWPOLYLINE
  5
32D
100
AcDbEntity
  8
IMPORT_IGES
100
AcDbPolyline
 62
7
  6
CONTINUOUS
 90
18
 70
0
 10
18.6033666449
 20
10.6699876974
 10
18.6006703973
 20
10.668776922
 10
18.5931129723
 20
10.6663107766
 10
18.5821634308
 20
10.6641659075
 10
18.5678937305
 20
10.6629622521
 10
18.5503589912
 20
10.6632374141
 10
18.5300855656
 20
10.6654400445
 10
18.5076963711
 20
10.6698272756
 10
18.4835642468
 20
10.6765674925
 10
18.4582808619
 20
10.6856995292
 10
18.4326062764
 20
10.6970699986
 10
18.4070569222
 20
10.7104812445
 10
18.3819182709
 20
10.7257928236
 10
18.3574381231
 20
10.7428746417
 10
18.3341598715
 20
10.7613356248
 10
18.3121111903
 20
10.781131008
 10
18.2908799244
 20
10.8027574307
 10
18.2773863877
 20
10.8181121154
  0
LWPOLYLINE
  5
32E
100
AcDbEntity
  8
IMPORT_IGES
100
AcDbPolyline
 62
253
  6
CONTINUOUS
 90
10
 70
0
 10
18.9467719518
 20
10.8416903481
 10
18.9523955411
 20
10.844207128
 10
18.9687507848
 20
10.8487229217
 10
18.9866871046
 20
10.8497391834
 10
19.0059819327
 20
10.8470337463
 10
19.026225076
 20
10.8404616856
 10
19.0468916949
 20
10.8300449757
 10
19.0675002309
 20
10.815921206
 10
19.0876293993
 20
10.7982717356
 10
19.1068043314
 20
10.7773891972
  0
LWPOLYLINE
  5
32F
100
AcDbEntity
  8
RACCORDO
100
AcDbPolyline
 62
253
  6
CONTINUOUS
 90
40
 70
0
 10
1.1298433141
 20
3.0191266292
 10
1.122550286
 20
3.016083178
 10
1.1149933608
 20
3.0131871808
 10
1.107184525
 20
3.010443231
 10
1.0991361651
 20
3.0078556811
 10
1.0908610472
 20
3.0054286354
 10
1.0823722974
 20
3.0031659438
 10
1.0736833803
 20
3.0010711952
 10
1.0648080782
 20
2.9991477124
 10
1.0557604692
 20
2.9973985464
 10
1.0465549044
 20
2.9958264716
 10
1.0372059857
 20
2.9944339817
 10
1.0277285421
 20
2.9932232855
 10
1.0181376069
 20
2.9921963033
 10
1.0084483929
 20
2.9913546641
 10
0.9986762692
 20
2.990699703
 10
0.9888367363
 20
2.9902324588
 10
0.9789454014
 20
2.9899536726
 10
0.9690179543
 20
2.9898637867
 10
0.9590701416
 20
2.9899629437
 10
0.9491177427
 20
2.9902509863
 10
0.9391765437
 20
2.9907274575
 10
0.9292623135
 20
2.9913916016
 10
0.9193907779
 20
2.9922423652
 10
0.909577595
 20
2.9932783987
 10
0.8998383305
 20
2.9944980588
 10
0.8901884326
 20
2.995899411
 10
0.880643208
 20
2.9974802324
 10
0.8712177972
 20
2.9992380154
 10
0.8619271507
 20
3.001169972
 10
0.8527860053
 20
3.0032730376
 10
0.8438088606
 20
3.0055438765
 10
0.835009956
 20
3.0079788866
 10
0.8264032484
 20
3.0105742054
 10
0.8180023895
 20
3.0133257165
 10
0.8098207048
 20
3.0162290553
 10
0.8018711721
 20
3.0192796165
 10
0.7941664006
 20
3.0224725615
 10
0.7867186119
 20
3.0258028255
 10
0.7795396193
 20
3.0292651262
  0
LINE
  5
330
100
AcDbEntity
  8
RACCORDO
100
AcDbLine
 62
7
  6
CONTINUOUS
 10
-12.4000186947
 20
-0.8090082963
 11
-3.1197793114
 21
-5.4491279879
  0
LINE
  5
331
100
AcDbEntity
  8
RACCORDO
100
AcDbLine
 62
253
  6
CONTINUOUS
 10
-12.8063045192
 20
-0.3950657455
 11
-2.9703420047
 21
-5.3130470028
  0
LWPOLYLINE
  5
332
100
AcDbEntity
  8
RACCORDO
100
AcDbPolyline
 62
7
  6
CONTINUOUS
 90
56
 70
0
 10
-12.3999821586
 20
-0.8090265601
 10
-12.4097380815
 20
-0.8040384869
 10
-12.4187890139
 20
-0.7992170267
 10
-12.4277970744
 20
-0.7942341589
 10
-12.4367579159
 20
-0.7890953227
 10
-12.4456712632
 20
-0.7838040494
 10
-12.4545371757
 20
-0.7783637566
 10
-12.4633516695
 20
-0.7727792719
 10
-12.4721145849
 20
-0.7670538851
 10
-12.4808260247
 20
-0.7611908191
 10
-12.4894822626
 20
-0.7551944106
 10
-12.4980832331
 20
-0.7490677337
 10
-12.5066290744
 20
-0.7428138354
 10
-12.5151162339
 20
-0.7364366703
 10
-12.5235447264
 20
-0.7299391199
 10
-12.5319147182
 20
-0.7233240758
 10
-12.5402227605
 20
-0.7165952106
 10
-12.5484689388
 20
-0.7097552355
 10
-12.556653443
 20
-0.7028069056
 10
-12.564772868
 20
-0.6957537066
 10
-12.5728273634
 20
-0.6885981999
 10
-12.5808171414
 20
-0.6813430228
 10
-12.5887387917
 20
-0.6739915608
 10
-12.5965925246
 20
-0.6665462447
 10
-12.6043785751
 20
-0.659009611
 10
-12.6120934875
 20
-0.651385028
 10
-12.6197375318
 20
-0.6436748122
 10
-12.6273109684
 20
-0.635881416
 10
-12.6348102616
 20
-0.6280082706
 10
-12.6422356957
 20
-0.6200576431
 10
-12.6495876088
 20
-0.6120318682
 10
-12.6568624957
 20
-0.6039343631
 10
-12.6640607469
 20
-0.5957672532
 10
-12.6711826842
 20
-0.5875328633
 10
-12.6782246667
 20
-0.5792348202
 10
-12.68518713
 20
-0.5708751939
 10
-12.692070455
 20
-0.5624562395
 10
-12.6988709076
 20
-0.553981798
 10
-12.7055889895
 20
-0.5454538733
 10
-12.7122251311
 20
-0.5368746784
 10
-12.7187755022
 20
-0.5282483263
 10
-12.7252406752
 20
-0.5195767625
 10
-12.7316211393
 20
-0.5108621642
 10
-12.7379129748
 20
-0.5021089688
 10
-12.7441168282
 20
-0.4933190708
 10
-12.7502332595
 20
-0.4844946133
 10
-12.7562582772
 20
-0.4756404011
 10
-12.7621926058
 20
-0.4667582841
 10
-12.7680368884
 20
-0.4578503698
 10
-12.7737870962
 20
-0.448921855
 10
-12.7794440332
 20
-0.4399745525
 10
-12.7850084398
 20
-0.4310105264
 10
-12.7904762994
 20
-0.4220353662
 10
-12.7958468739
 20
-0.4130522109
 10
-12.8011226504
 20
-0.4040617182
 10
-12.8063045195
 20
-0.3950657454
  0
LWPOLYLINE
  5
333
100
AcDbEntity
  8
RACCORDO
100
AcDbPolyline
 62
253
  6
CONTINUOUS
 90
52
 70
0
 10
1.1298433141
 20
-26.0017404993
 10
1.1306014977
 20
-26.0186425581
 10
1.1317387095
 20
-26.0353086574
 10
1.1332549497
 20
-26.0517387973
 10
1.1351518367
 20
-26.0679447784
 10
1.1374277521
 20
-26.0839148001
 10
1.1400778401
 20
-26.0996134604
 10
1.1431028882
 20
-26.1150397236
 10
1.146502109
 20
-26.1301946253
 10
1.1502682851
 20
-26.1450458702
 10
1.1544021927
 20
-26.1595927601
 10
1.1589030557
 20
-26.1738359932
 10
1.1637613275
 20
-26.1877453686
 10
1.1689777516
 20
-26.2013201564
 10
1.1745515847
 20
-26.2145610864
 10
1.1804710507
 20
-26.2274401476
 10
1.186736903
 20
-26.2399566167
 10
1.1933483882
 20
-26.2521112169
 10
1.2002914699
 20
-26.2638781074
 10
1.2075668424
 20
-26.275256444
 10
1.2151738114
 20
-26.2862470708
 10
1.2230962571
 20
-26.296826679
 10
1.2313348573
 20
-26.3069944048
 10
1.2398889342
 20
-26.3167511119
 10
1.2487403353
 20
-26.3260760829
 10
1.2578896716
 20
-26.3349683848
 10
1.2673363322
 20
-26.3434289505
 10
1.2770603319
 20
-26.3514398614
 10
1.2870622812
 20
-26.3590001831
 10
1.2973415696
 20
-26.3661108499
 10
1.3078763805
 20
-26.3727567466
 10
1.3186672489
 20
-26.3789368793
 10
1.3297136398
 20
-26.384652242
 10
1.3409921324
 20
-26.3898907009
 10
1.3525032395
 20
-26.3946512476
 10
1.3642464484
 20
-26.3989348906
 10
1.3761967996
 20
-26.4027325215
 10
1.3883546913
 20
-26.4060430975
 10
1.4007197253
 20
-26.4088676616
 10
1.413265747
 20
-26.4112002339
 10
1.4259931649
 20
-26.4130397806
 10
1.4389015705
 20
-26.4143873356
 10
1.4519635834
 20
-26.4152400214
 10
1.4651795732
 20
-26.4155967765
 10
1.4785491702
 20
-26.4154586624
 10
1.4920438852
 20
-26.4148259859
 10
1.5056642446
 20
-26.4136976138
 10
1.5194097219
 20
-26.4120746794
 10
1.5332502487
 20
-26.4099608898
 10
1.5471758019
 20
-26.4073574807
 10
1.5611964046
 20
-26.4042632165
 10
1.5753120567
 20
-26.4006780971
  0
LWPOLYLINE
  5
334
100
AcDbEntity
  8
RACCORDO
100
AcDbPolyline
 62
253
  6
CONTINUOUS
 90
33
 70
0
 10
0.7795396193
 20
-26.0086831484
 10
0.7805446244
 20
-26.0312001749
 10
0.7820554412
 20
-26.0534301029
 10
0.7840709988
 20
-26.0753572165
 10
0.786589884
 20
-26.0969658937
 10
0.7896103058
 20
-26.1182409926
 10
0.7931301286
 20
-26.1391678405
 10
0.7971469613
 20
-26.1597318357
 10
0.8016579664
 20
-26.1799182262
 10
0.8066598337
 20
-26.1997124925
 10
0.8121490642
 20
-26.2191005957
 10
0.8181218245
 20
-26.2380688973
 10
0.8245737795
 20
-26.2566039229
 10
0.831500421
 20
-26.2746925571
 10
0.8388969095
 20
-26.2923220607
 10
0.8467579242
 20
-26.3094799926
 10
0.8550780235
 20
-26.3261542999
 10
0.8638513649
 20
-26.3423331462
 10
0.8730715475
 20
-26.358004928
 10
0.8827321284
 20
-26.3731585753
 10
0.8928263641
 20
-26.3877834255
 10
0.9033469371
 20
-26.4018690443
 10
0.9142865223
 20
-26.4154055247
 10
0.92563746
 20
-26.4283833142
 10
0.93739149
 20
-26.4407930971
 10
0.9495403866
 20
-26.4526261246
 10
0.962075677
 20
-26.4638740982
 10
0.9749883193
 20
-26.4745289878
 10
0.9882693378
 20
-26.4845833287
 10
1.001909422
 20
-26.4940300281
 10
1.0158986449
 20
-26.5028622486
 10
1.0302272338
 20
-26.5110737958
 10
1.0422426687
 20
-26.517349959
  0
LINE
  5
335
100
AcDbEntity
  8
0
100
AcDbLine
 62
7
  6
CONTINUOUS
 10
-0.044616117
 20
15.6449847155
 11
-0.0433814814
 21
15.6023007631
  0
LINE
  5
336
100
AcDbEntity
  8
RACCORDO
100
AcDbLine
 62
7
  6
CONTINUOUS
 10
-0.1101663346
 20
24.3410024301
 11
-0.1101663346
 21
23.3624411486
  0
LINE
  5
337
100
AcDbEntity
  8
0
100
AcDbLine
 62
7
  6
CONTINUOUS
 10
-0.0620302149
 20
14.6992033643
 11
-0.0620302149
 21
14.6584621192
  0
LINE
  5
338
100
AcDbEntity
  8
DRAFT
100
AcDbLine
 62
7
  6
CONTINUOUS
 10
0.1501018194
 20
20.8715233816
 11
0.1501018194
 21
21.1712715262
  0
LINE
  5
339
100
AcDbEntity
  8
0
100
AcDbLine
 62
7
  6
CONTINUOUS
 10
0.2208124976
 20
14.8406247205
 11
0.2208124976
 21
14.5170407629
  0
LINE
  5
33A
100
AcDbEntity
  8
RACCORDO
100
AcDbLine
 62
253
  6
CONTINUOUS
 10
0.7864979225
 20
14.2341980505
 11
0.7864979225
 21
14.2857616521
  0
LINE
  5
33B
100
AcDbEntity
  8
DRAFT
100
AcDbLine
 62
7
  6
CONTINUOUS
 10
1.7252295488
 20
20.3837076615
 11
1.7252295488
 21
20.1869822312
  0
LWPOLYLINE
  5
33C
100
AcDbEntity
  8
RACCORDO
100
AcDbPolyline
 62
253
  6
CONTINUOUS
 90
28
 70
0
 10
0.7795396193
 20
3.0292651262
 10
0.7455916194
 20
1.9378912782
 10
0.7142538971
 20
0.8476629702
 10
0.6855267154
 20
-0.2414104823
 10
0.6594103119
 20
-1.3293197708
 10
0.6359049093
 20
-2.4160556028
 10
0.6150107152
 20
-3.5016087012
 10
0.596727906
 20
-4.5859697924
 10
0.5810566341
 20
-5.6691296105
 10
0.5679970378
 20
-6.7510789058
 10
0.5575492279
 20
-7.8318084342
 10
0.549713291
 20
-8.9113089632
 10
0.5444892961
 20
-9.9895712765
 10
0.5418772883
 20
-11.0665861626
 10
0.5418772883
 20
-12.1423444207
 10
0.5444892961
 20
-13.216836867
 10
0.549713291
 20
-14.290054324
 10
0.5575492279
 20
-15.3619876226
 10
0.5679970378
 20
-16.432627609
 10
0.5810566341
 20
-17.5019651395
 10
0.596727906
 20
-18.5699910784
 10
0.6150107152
 20
-19.6366963005
 10
0.6359049093
 20
-20.7020716948
 10
0.6594103119
 20
-21.7661081615
 10
0.6855267154
 20
-22.8287966109
 10
0.7142538971
 20
-23.8901279658
 10
0.7455916194
 20
-24.9500931625
 10
0.7795396193
 20
-26.0086831484
  0
LWPOLYLINE
  5
33D
100
AcDbEntity
  8
RACCORDO
100
AcDbPolyline
 62
253
  6
CONTINUOUS
 90
28
 70
0
 10
1.1298433141
 20
3.0191266292
 10
1.0959145419
 20
1.9283795257
 10
1.0645950266
 20
0.8387958509
 10
1.0358847682
 20
-0.2496243954
 10
1.0097835658
 20
-1.3368904993
 10
0.9862916203
 20
-2.4229931746
 10
0.9654095344
 20
-3.5079045626
 10
0.9471373751
 20
-4.5916246243
 10
0.9314750754
 20
-5.6741533987
 10
0.9184230364
 20
-6.7554631443
 10
0.907981325
 20
-7.835553829
 10
0.9001498743
 20
-8.9144254849
 10
0.894928885
 20
-9.9920504678
 10
0.8923184238
 20
-11.068428745
 10
0.892318424
 20
-12.1435603491
 10
0.8949288854
 20
-13.2174177331
 10
0.900149875
 20
-14.290000865
 10
0.9079813259
 20
-15.3613097768
 10
0.9184230375
 20
-16.4313170179
 10
0.9314750767
 20
-17.5000225558
 10
0.9471373767
 20
-18.567426423
 10
0.9654095363
 20
-19.6335012654
 10
0.9862916226
 20
-20.698247061
 10
1.0097835685
 20
-21.7616638318
 10
1.0358847709
 20
-22.8237242899
 10
1.0645950287
 20
-23.8844193392
 10
1.0959145431
 20
-24.9437580756
 10
1.1298433141
 20
-26.0017404993
  0
LINE
  5
33E
100
AcDbEntity
  8
RACCORDO
100
AcDbLine
 62
253
  6
CONTINUOUS
 10
3.0679904127
 20
17.8293866005
 11
3.0067720452
 21
17.4605785592
  0
LINE
  5
33F
100
AcDbEntity
  8
RACCORDO
100
AcDbLine
 62
253
  6
CONTINUOUS
 10
3.3474808743
 20
17.7902220343
 11
3.2862625068
 21
17.421413993
  0
LINE
  5
340
100
AcDbEntity
  8
0
100
AcDbLine
 62
253
  6
CONTINUOUS
 10
4.0986943775
 20
15.2375164847
 11
4.159912745
 21
15.606324526
  0
LWPOLYLINE
  5
341
100
AcDbEntity
  8
RACCORDO
100
AcDbPolyline
 62
7
  6
CONTINUOUS
 90
12
 70
0
 10
5.4573169391
 20
16.7006278915
 10
5.4562621042
 20
16.6964712231
 10
5.4543160797
 20
16.6921033903
 10
5.4515298018
 20
16.6879140252
 10
5.4479138979
 20
16.6839008707
 10
5.44351449
 20
16.6801151158
 10
5.4383215417
 20
16.6765596736
 10
5.4323450895
 20
16.673231631
 10
5.4256613651
 20
16.6701734385
 10
5.4182957791
 20
16.6673992462
 10
5.410222921
 20
16.6648949038
 10
5.4014427906
 20
16.6626604115
  0
LINE
  5
342
100
AcDbEntity
  8
DRAFT
100
AcDbLine
 62
7
  6
CONTINUOUS
 10
15.9365784484
 20
14.0005899594
 11
8.9889365843
 21
6.3650003002
  0
LINE
  5
343
100
AcDbEntity
  8
IMPORT_IGES
100
AcDbLine
 62
7
  6
CONTINUOUS
 10
14.5593533937
 20
11.2864383701
 11
13.1107072666
 21
9.8896963557
  0
LINE
  5
344
100
AcDbEntity
  8
IMPORT_IGES
100
AcDbLine
 62
7
  6
CONTINUOUS
 10
13.1107072666
 20
9.7164912749
 11
14.5593533937
 21
11.1132332894
  0
LINE
  5
345
100
AcDbEntity
  8
IMPORT_IGES
100
AcDbLine
 62
7
  6
CONTINUOUS
 10
12.6297445478
 20
10.1301777151
 11
13.6854266878
 21
11.062331836
  0
LWPOLYLINE
  5
346
100
AcDbEntity
  8
IMPORT_IGES
100
AcDbPolyline
 62
7
  6
CONTINUOUS
 90
3
 70
0
 10
-9.0069309969
 20
-8.2581604604
 10
-8.9819293678
 20
-8.2398591323
 10
-8.9549708906
 20
-8.2213017174
  0
LINE
  5
347
100
AcDbEntity
  8
RACCORDO
100
AcDbLine
 62
7
  6
CONTINUOUS
 10
-10.8217247245
 20
-9.1046568481
 11
-10.8376085501
 21
-9.1161363892
  0
LINE
  5
348
100
AcDbEntity
  8
RACCORDO
100
AcDbLine
 62
7
  6
CONTINUOUS
 10
-10.8049792943
 20
-9.0927050023
 11
-10.8217247245
 21
-9.1046568481
  0
LINE
  5
349
100
AcDbEntity
  8
RACCORDO
100
AcDbLine
 62
7
  6
CONTINUOUS
 10
-10.7873938531
 20
-9.080301011
 11
-10.8049792943
 21
-9.0927050023
  0
LINE
  5
34A
100
AcDbEntity
  8
RACCORDO
100
AcDbLine
 62
7
  6
CONTINUOUS
 10
-10.768991672
 20
-9.0674659158
 11
-10.7873938531
 21
-9.080301011
  0
LINE
  5
34B
100
AcDbEntity
  8
RACCORDO
100
AcDbLine
 62
7
  6
CONTINUOUS
 10
-10.7497972081
 20
-9.0542211286
 11
-10.768991672
 21
-9.0674659158
  0
LINE
  5
34C
100
AcDbEntity
  8
RACCORDO
100
AcDbLine
 62
7
  6
CONTINUOUS
 10
-10.7298356507
 20
-9.040588219
 11
-10.7497972081
 21
-9.0542211286
  0
LINE
  5
34D
100
AcDbEntity
  8
RACCORDO
100
AcDbLine
 62
7
  6
CONTINUOUS
 10
-10.7091326142
 20
-9.0265887876
 11
-10.7298356507
 21
-9.040588219
  0
LINE
  5
34E
100
AcDbEntity
  8
RACCORDO
100
AcDbLine
 62
7
  6
CONTINUOUS
 10
-10.6877139512
 20
-9.0122444183
 11
-10.7091326142
 21
-9.0265887876
  0
LINE
  5
34F
100
AcDbEntity
  8
RACCORDO
100
AcDbLine
 62
7
  6
CONTINUOUS
 10
-10.6580878059
 20
-8.9926188996
 11
-10.6877139512
 21
-9.0122444183
  0
LWPOLYLINE
  5
350
100
AcDbEntity
  8
IMPORT_IGES
100
AcDbPolyline
 62
7
  6
CONTINUOUS
 90
4
 70
0
 10
-8.9549708906
 20
-8.2213017174
 10
-8.8968777975
 20
-8.1830229929
 10
-8.8665523794
 20
-8.1632705665
 10
-8.8357366321
 20
-8.143769163
  0
LINE
  5
351
100
AcDbEntity
  8
RACCORDO
100
AcDbLine
 62
7
  6
CONTINUOUS
 10
-10.627295843
 20
-8.9724707333
 11
-10.6580878059
 21
-8.9926188996
  0
LINE
  5
352
100
AcDbEntity
  8
RACCORDO
100
AcDbLine
 62
7
  6
CONTINUOUS
 10
-12.5993229263
 20
-7.9774077342
 11
-12.6303948619
 21
-7.9976800413
  0
LINE
  5
353
100
AcDbEntity
  8
RACCORDO
100
AcDbLine
 62
7
  6
CONTINUOUS
 10
-10.5954040893
 20
-8.9518498087
 11
-10.627295843
 21
-8.9724707333
  0
LINE
  5
354
100
AcDbEntity
  8
RACCORDO
100
AcDbLine
 62
7
  6
CONTINUOUS
 10
-12.5671658884
 20
-7.9566773352
 11
-12.5993229263
 21
-7.9774077342
  0
LINE
  5
355
100
AcDbEntity
  8
RACCORDO
100
AcDbLine
 62
7
  6
CONTINUOUS
 10
-10.562475601
 20
-8.9308110609
 11
-10.5954040893
 21
-8.9518498087
  0
LINE
  5
356
100
AcDbEntity
  8
RACCORDO
100
AcDbLine
 62
7
  6
CONTINUOUS
 10
-12.533987329
 20
-7.9355443798
 11
-12.5671658884
 21
-7.9566773352
  0
LINE
  5
357
100
AcDbEntity
  8
RACCORDO
100
AcDbLine
 62
7
  6
CONTINUOUS
 10
-12.4998572225
 20
-7.9140619829
 11
-12.533987329
 21
-7.9355443798
  0
LWPOLYLINE
  5
358
100
AcDbEntity
  8
RACCORDO
100
AcDbPolyline
 62
7
  6
CONTINUOUS
 90
3
 70
0
 10
-10.5199582351
 20
-8.9040114765
 10
-10.52857589
 20
-8.9094119983
 10
-10.562475601
 20
-8.9308110609
  0
LINE
  5
359
100
AcDbEntity
  8
RACCORDO
100
AcDbLine
 62
7
  6
CONTINUOUS
 10
-12.4648470821
 20
-7.8922930518
 11
-12.4998572225
 21
-7.9140619829
  0
LINE
  5
35A
100
AcDbEntity
  8
RACCORDO
100
AcDbLine
 62
7
  6
CONTINUOUS
 10
-12.4290368857
 20
-7.8703075951
 11
-12.4648470821
 21
-7.8922930518
  0
LINE
  5
35B
100
AcDbEntity
  8
RACCORDO
100
AcDbLine
 62
7
  6
CONTINUOUS
 10
-12.4017116196
 20
-7.8537200001
 11
-12.4290368857
 21
-7.8703075951
  0
LINE
  5
35C
100
AcDbEntity
  8
RACCORDO
100
AcDbLine
 62
7
  6
CONTINUOUS
 10
-12.3740358907
 20
-7.837090306
 11
-12.4017116196
 21
-7.8537200001
  0
LINE
  5
35D
100
AcDbEntity
  8
RACCORDO
100
AcDbLine
 62
7
  6
CONTINUOUS
 10
-12.3460637124
 20
-7.8204615549
 11
-12.3740358907
 21
-7.837090306
  0
LINE
  5
35E
100
AcDbEntity
  8
RACCORDO
100
AcDbLine
 62
7
  6
CONTINUOUS
 10
-12.3178614219
 20
-7.8038850592
 11
-12.3460637124
 21
-7.8204615549
  0
LINE
  5
35F
100
AcDbEntity
  8
RACCORDO
100
AcDbLine
 62
7
  6
CONTINUOUS
 10
-12.2895100036
 20
-7.7874216794
 11
-12.3178614219
 21
-7.8038850592
  0
LWPOLYLINE
  5
360
100
AcDbEntity
  8
IMPORT_IGES
100
AcDbPolyline
 62
7
  6
CONTINUOUS
 90
10
 70
0
 10
9.9875519246
 20
5.2210836906
 10
9.9750973591
 20
5.2139663926
 10
9.9629393542
 20
5.2057581215
 10
9.9510779098
 20
5.1964588776
 10
9.9394338124
 20
5.1859857308
 10
9.9280862756
 20
5.1744216112
 10
9.9172729403
 20
5.1620153079
 10
9.9070730201
 20
5.1488497508
 10
9.8974073014
 20
5.1348420101
 10
9.8882757841
 20
5.1199920859
  0
LINE
  5
361
100
AcDbEntity
  8
RACCORDO
100
AcDbLine
 62
7
  6
CONTINUOUS
 10
-12.2611088641
 20
-7.7711439612
 11
-12.2895100036
 21
-7.7874216794
  0
LINE
  5
362
100
AcDbEntity
  8
RACCORDO
100
AcDbLine
 62
7
  6
CONTINUOUS
 10
-12.2422091874
 20
-7.760435452
 11
-12.2611088641
 21
-7.7711439612
  0
LWPOLYLINE
  5
363
100
AcDbEntity
  8
IMPORT_IGES
100
AcDbPolyline
 62
253
  6
CONTINUOUS
 90
8
 70
0
 10
20.0382163328
 20
10.8076272885
 10
20.0554731921
 20
10.8173627274
 10
20.0700108387
 20
10.8282061156
 10
20.0815819739
 20
10.8399637388
 10
20.0899890868
 20
10.8524470036
 10
20.0950913969
 20
10.8654198184
 10
20.0968047519
 20
10.8786025163
 10
20.096785402
 20
10.8800224109
  0
LINE
  5
364
100
AcDbEntity
  8
RACCORDO
100
AcDbLine
 62
7
  6
CONTINUOUS
 10
-12.2140115297
 20
-7.7446680899
 11
-12.2422091874
 21
-7.760435452
  0
LINE
  5
365
100
AcDbEntity
  8
RACCORDO
100
AcDbLine
 62
7
  6
CONTINUOUS
 10
-12.1953888289
 20
-7.7344019364
 11
-12.2140115297
 21
-7.7446680899
  0
LINE
  5
366
100
AcDbEntity
  8
RACCORDO
100
AcDbLine
 62
7
  6
CONTINUOUS
 10
-12.1769740809
 20
-7.7243750612
 11
-12.1953888289
 21
-7.7344019364
  0
LINE
  5
367
100
AcDbEntity
  8
RACCORDO
100
AcDbLine
 62
7
  6
CONTINUOUS
 10
-12.1588386092
 20
-7.7146274489
 11
-12.1769740809
 21
-7.7243750612
  0
LINE
  5
368
100
AcDbEntity
  8
RACCORDO
100
AcDbLine
 62
7
  6
CONTINUOUS
 10
-12.1410419859
 20
-7.7052086079
 11
-12.1588386092
 21
-7.7146274489
  0
LWPOLYLINE
  5
369
100
AcDbEntity
  8
RACCORDO
100
AcDbPolyline
 62
7
  6
CONTINUOUS
 90
3
 70
0
 10
-12.115162882
 20
-7.6917946157
 10
-12.123677137
 20
-7.6961592763
 10
-12.1410419859
 20
-7.7052086079
  0
LINE
  5
36A
100
AcDbEntity
  8
RACCORDO
100
AcDbLine
 62
7
  6
CONTINUOUS
 10
-11.411094053
 20
-7.3389216448
 11
-12.1122702631
 21
-7.6903305767
  0
LINE
  5
36B
100
AcDbEntity
  8
IMPORT_IGES
100
AcDbLine
 62
253
  6
CONTINUOUS
 10
19.8001797336
 20
10.4538981577
 11
12.7396717884
 21
6.923677393
  0
LINE
  5
36C
100
AcDbEntity
  8
IMPORT_IGES
100
AcDbLine
 62
253
  6
CONTINUOUS
 10
19.9062134402
 20
10.1804155676
 11
9.9875519246
 21
5.2210836906
  0
LINE
  5
36D
100
AcDbEntity
  8
IMPORT_IGES
100
AcDbLine
 62
7
  6
CONTINUOUS
 10
-10.5857037805
 20
-7.0200963218
 11
-5.2818972558
 21
-4.3680690157
  0
LWPOLYLINE
  5
36E
100
AcDbEntity
  8
IMPORT_IGES
100
AcDbPolyline
 62
253
  6
CONTINUOUS
 90
3
 70
0
 10
9.0446829216
 20
3.5576111443
 10
9.0156009507
 20
3.5447982502
 10
8.9889365843
 20
3.535740959
  0
LINE
  5
36F
100
AcDbEntity
  8
0
100
AcDbLine
 62
7
  6
CONTINUOUS
 10
3.1373643983
 20
14.0539944578
 11
3.1201656756
 21
14.648590494
  0
LINE
  5
370
100
AcDbEntity
  8
0
100
AcDbLine
 62
7
  6
CONTINUOUS
 10
3.4200348106
 20
14.2074192043
 11
3.4028360879
 21
14.8020152405
  0
LINE
  5
371
100
AcDbEntity
  8
RACCORDO
100
AcDbLine
 62
7
  6
CONTINUOUS
 10
2.1971433679
 20
13.0090869538
 11
2.1971433679
 21
12.389453941
  0
LINE
  5
372
100
AcDbEntity
  8
RACCORDO
100
AcDbLine
 62
7
  6
CONTINUOUS
 10
2.8596821464
 20
22.0897229466
 11
2.8596821464
 21
21.7343343575
  0
LINE
  5
373
100
AcDbEntity
  8
RACCORDO
100
AcDbLine
 62
253
  6
CONTINUOUS
 10
3.4193482899
 20
8.8925109221
 11
3.4193482899
 21
6.0661830199
  0
LINE
  5
374
100
AcDbEntity
  8
RACCORDO
100
AcDbLine
 62
253
  6
CONTINUOUS
 10
3.4193482899
 20
-26.4963721623
 11
3.4193482899
 21
-29.3227000645
  0
LINE
  5
375
100
AcDbEntity
  8
RACCORDO
100
AcDbLine
 62
253
  6
CONTINUOUS
 10
3.4451683939
 20
12.7518789799
 11
3.4451683939
 21
12.1307118173
  0
LINE
  5
376
100
AcDbEntity
  8
0
100
AcDbLine
 62
253
  6
CONTINUOUS
 10
3.473503691
 20
14.9269739675
 11
3.473503691
 21
15.273384129
  0
LINE
  5
377
100
AcDbEntity
  8
RACCORDO
100
AcDbLine
 62
253
  6
CONTINUOUS
 10
3.7697895778
 20
8.8909817947
 11
3.7697895778
 21
6.0646538926
  0
LINE
  5
378
100
AcDbEntity
  8
RACCORDO
100
AcDbLine
 62
253
  6
CONTINUOUS
 10
3.7697895778
 20
-26.4979012897
 11
3.7697895778
 21
-29.3242291919
  0
LINE
  5
379
100
AcDbEntity
  8
RACCORDO
100
AcDbLine
 62
7
  6
CONTINUOUS
 10
3.9527909525
 20
6.1530150792
 11
3.9527909525
 21
5.5008223285
  0
LINE
  5
37A
100
AcDbEntity
  8
RACCORDO
100
AcDbLine
 62
7
  6
CONTINUOUS
 10
3.9527909525
 20
-25.7573473523
 11
3.9527909525
 21
-26.4095401031
  0
LINE
  5
37B
100
AcDbEntity
  8
0
100
AcDbLine
 62
253
  6
CONTINUOUS
 10
4.0833897857
 20
15.2319170148
 11
4.0833897857
 21
15.5783271763
  0
LINE
  5
37C
100
AcDbEntity
  8
ASSI
100
AcDbLine
 62
253
  6
CONTINUOUS
 10
4.1114701629
 20
20.2157636545
 11
4.1114701629
 21
20.9711626197
  0
LWPOLYLINE
  5
37D
100
AcDbEntity
  8
RACCORDO
100
AcDbPolyline
 62
253
  6
CONTINUOUS
 90
40
 70
0
 10
3.4193482899
 20
8.8925109221
 10
3.4194891377
 20
8.9012222991
 10
3.4199114571
 20
8.9100606485
 10
3.4206145756
 20
8.9190118867
 10
3.4215973738
 20
8.9280617523
 10
3.4228582861
 20
8.9371958221
 10
3.4243953022
 20
8.9463995331
 10
3.4262059724
 20
8.9556582165
 10
3.4282874115
 20
8.9649571209
 10
3.4306363024
 20
8.9742814273
 10
3.4332489021
 20
8.9836162777
 10
3.436121047
 20
8.9929467965
 10
3.4392481595
 20
9.0022581131
 10
3.4426252559
 20
9.0115353897
 10
3.4462469546
 20
9.020763843
 10
3.4501074833
 20
9.0299287658
 10
3.4542006899
 20
9.0390155542
 10
3.4585200513
 20
9.0480097282
 10
3.4630586828
 20
9.056896953
 10
3.4678093509
 20
9.0656630662
 10
3.4727644853
 20
9.0742941004
 10
3.4779161896
 20
9.0827763025
 10
3.4832562552
 20
9.0910961584
 10
3.4887761711
 20
9.0992404091
 10
3.4944671374
 20
9.1071960724
 10
3.500320077
 20
9.1149504618
 10
3.5063256699
 20
9.1224912325
 10
3.5124743671
 20
9.1298063941
 10
3.5187564033
 20
9.1368843237
 10
3.5251617384
 20
9.1437137038
 10
3.5316800894
 20
9.1502835755
 10
3.5383010186
 20
9.1565834334
 10
3.5450140197
 20
9.1626032954
 10
3.5518084606
 20
9.1683336325
 10
3.5586740998
 20
9.1737657616
 10
3.5655994231
 20
9.1788905276
 10
3.5725716845
 20
9.183698627
 10
3.5795791738
 20
9.188182283
 10
3.5866112793
 20
9.1923350025
 10
3.5936567971
 20
9.1961504225
  0
LWPOLYLINE
  5
37E
100
AcDbEntity
  8
0
100
AcDbPolyline
 62
7
  6
CONTINUOUS
 90
16
 70
0
 10
3.1201656756
 20
14.648590494
 10
3.1210355208
 20
14.696204157
 10
3.1257586232
 20
14.7443554956
 10
3.1343349827
 20
14.79304451
 10
3.1469495872
 20
14.8428365674
 10
3.1634174488
 20
14.8931663005
 10
3.1831836039
 20
14.9423376075
 10
3.2063604672
 20
14.990311006
 10
3.2328356239
 20
15.0371259784
 10
3.2617168667
 20
15.0812048694
 10
3.2930862013
 20
15.1224544261
 10
3.326861622
 20
15.1609679014
 10
3.3619049038
 20
15.195447399
 10
3.3978366384
 20
15.2254602868
 10
3.4350362341
 20
15.2514391967
 10
3.473503691
 20
15.273384129
  0
LWPOLYLINE
  5
37F
100
AcDbEntity
  8
0
100
AcDbPolyline
 62
7
  6
CONTINUOUS
 90
13
 70
0
 10
3.4028360879
 20
14.8020152405
 10
3.403221076
 20
14.8141086495
 10
3.404772242
 20
14.8262368858
 10
3.407489586
 20
14.8383999494
 10
3.4114623139
 20
14.8508139385
 10
3.4166012198
 20
14.8632627549
 10
3.4226386859
 20
14.8750981041
 10
3.4296223331
 20
14.8862874744
 10
3.4375045405
 20
14.8968633775
 10
3.445874828
 20
14.9062750543
 10
3.4545963689
 20
14.9143389184
 10
3.4638059899
 20
14.9212385561
 10
3.473503691
 20
14.9269739675
  0
LINE
  5
380
100
AcDbEntity
  8
RACCORDO
100
AcDbLine
 62
253
  6
CONTINUOUS
 10
5.3980905398
 20
16.7649172016
 11
5.380315703
 21
16.6578332819
  0
LINE
  5
381
100
AcDbEntity
  8
RACCORDO
100
AcDbLine
 62
253
  6
CONTINUOUS
 10
7.3238833977
 20
17.4882359714
 11
7.3086279859
 21
17.3963302452
  0
LWPOLYLINE
  5
382
100
AcDbEntity
  8
RACCORDO
100
AcDbPolyline
 62
7
  6
CONTINUOUS
 90
12
 70
0
 10
7.2680092492
 20
17.4502684914
 10
7.2690640841
 20
17.4544251599
 10
7.2710101086
 20
17.4587929927
 10
7.2737963865
 20
17.4629823577
 10
7.2774122904
 20
17.4669955123
 10
7.2818116982
 20
17.4707812672
 10
7.2870046465
 20
17.4743367094
 10
7.2929810987
 20
17.4776647519
 10
7.2996648231
 20
17.4807229444
 10
7.3070304091
 20
17.4834971368
 10
7.3151032673
 20
17.4860014791
 10
7.3238833977
 20
17.4882359714
  0
LWPOLYLINE
  5
383
100
AcDbEntity
  8
IMPORT_IGES
100
AcDbPolyline
 62
7
  6
CONTINUOUS
 90
4
 70
0
 10
-4.9778351839
 20
-11.2198668578
 10
-4.9622282149
 20
-11.1998590683
 10
-4.9440047736
 20
-11.1832852011
 10
-4.9233893356
 20
-11.1703310114
  0
LINE
  5
384
100
AcDbEntity
  8
IMPORT_IGES
100
AcDbLine
 62
7
  6
CONTINUOUS
 10
-6.6558009495
 20
-10.2552861093
 11
-7.7871717994
 21
-11.1922528264
  0
LINE
  5
385
100
AcDbEntity
  8
RACCORDO
100
AcDbLine
 62
7
  6
CONTINUOUS
 10
-3.0498802912
 20
-5.3733082225
 11
-3.0417133917
 21
-5.3667793815
  0
LINE
  5
386
100
AcDbEntity
  8
RACCORDO
100
AcDbLine
 62
7
  6
CONTINUOUS
 10
-3.0417133917
 20
-5.3667793815
 11
-3.0331920298
 21
-5.3600767189
  0
LWPOLYLINE
  5
387
100
AcDbEntity
  8
IMPORT_IGES
100
AcDbPolyline
 62
253
  6
CONTINUOUS
 90
13
 70
0
 10
18.1110930524
 20
11.2774909618
 10
18.1591978752
 20
11.3151356499
 10
18.2041898246
 20
11.348951409
 10
18.2460689006
 20
11.3789382391
 10
18.2841920751
 20
11.4050206854
 10
18.3192023762
 20
11.4272742027
 10
18.3530288883
 20
11.445925155
 10
18.3861273932
 20
11.4614447113
 10
18.4180421091
 20
11.4733617027
 10
18.4493347755
 20
11.480488987
 10
18.4801926389
 20
11.4824308502
 10
18.5104284528
 20
11.4795830064
 10
18.5400422171
 20
11.4719454555
  0
LINE
  5
388
100
AcDbEntity
  8
RACCORDO
100
AcDbLine
 62
7
  6
CONTINUOUS
 10
-3.0331920298
 20
-5.3600767189
 11
-3.0243339503
 21
-5.3532105098
  0
LINE
  5
389
100
AcDbEntity
  8
RACCORDO
100
AcDbLine
 62
7
  6
CONTINUOUS
 10
-3.0243339503
 20
-5.3532105098
 11
-3.0151529248
 21
-5.3461930773
  0
LINE
  5
38A
100
AcDbEntity
  8
RACCORDO
100
AcDbLine
 62
7
  6
CONTINUOUS
 10
-3.0151529248
 20
-5.3461930773
 11
-3.005667707
 21
-5.3390349605
  0
LINE
  5
38B
100
AcDbEntity
  8
RACCORDO
100
AcDbLine
 62
7
  6
CONTINUOUS
 10
-3.005667707
 20
-5.3390349605
 11
-2.9958978525
 21
-5.3317476429
  0
LINE
  5
38C
100
AcDbEntity
  8
RACCORDO
100
AcDbLine
 62
7
  6
CONTINUOUS
 10
-2.9958978525
 20
-5.3317476429
 11
-2.9858588779
 21
-5.3243440769
  0
LWPOLYLINE
  5
38D
100
AcDbEntity
  8
IMPORT_IGES
100
AcDbPolyline
 62
7
  6
CONTINUOUS
 90
3
 70
0
 10
-8.2114358681
 20
-9.9982474007
 10
-8.186434239
 20
-9.9799460725
 10
-8.1594757617
 20
-9.9613886577
  0
LWPOLYLINE
  5
38E
100
AcDbEntity
  8
RACCORDO
100
AcDbPolyline
 62
7
  6
CONTINUOUS
 90
3
 70
0
 10
-2.9858588779
 20
-5.3243440769
 10
-2.9755748725
 20
-5.3168356072
 10
-2.9703420045
 20
-5.3130470029
  0
LINE
  5
38F
100
AcDbEntity
  8
RACCORDO
100
AcDbLine
 62
7
  6
CONTINUOUS
 10
-9.9830431851
 20
-12.0562408917
 11
-9.9988175714
 21
-12.0676676502
  0
LINE
  5
390
100
AcDbEntity
  8
RACCORDO
100
AcDbLine
 62
7
  6
CONTINUOUS
 10
-10.8097000359
 20
-10.485901947
 11
-10.8255245486
 21
-10.4973528998
  0
LINE
  5
391
100
AcDbEntity
  8
RACCORDO
100
AcDbLine
 62
7
  6
CONTINUOUS
 10
-9.9965272375
 20
-10.8924883462
 11
-10.0123517503
 21
-10.903939299
  0
LINE
  5
392
100
AcDbEntity
  8
RACCORDO
100
AcDbLine
 62
7
  6
CONTINUOUS
 10
-9.9664083038
 20
-12.0443363457
 11
-9.9830431851
 21
-12.0562408917
  0
LINE
  5
393
100
AcDbEntity
  8
RACCORDO
100
AcDbLine
 62
7
  6
CONTINUOUS
 10
-10.7930145814
 20
-10.4739755973
 11
-10.8097000359
 21
-10.485901947
  0
LINE
  5
394
100
AcDbEntity
  8
RACCORDO
100
AcDbLine
 62
7
  6
CONTINUOUS
 10
-9.979841783
 20
-10.8805619964
 11
-9.9965272375
 21
-10.8924883462
  0
LINE
  5
395
100
AcDbEntity
  8
RACCORDO
100
AcDbLine
 62
7
  6
CONTINUOUS
 10
-9.9489342258
 20
-12.0319738321
 11
-9.9664083038
 21
-12.0443363457
  0
LINE
  5
396
100
AcDbEntity
  8
RACCORDO
100
AcDbLine
 62
7
  6
CONTINUOUS
 10
-10.775489538
 20
-10.4615939672
 11
-10.7930145814
 21
-10.4739755973
  0
LINE
  5
397
100
AcDbEntity
  8
RACCORDO
100
AcDbLine
 62
7
  6
CONTINUOUS
 10
-9.9623167396
 20
-10.8681803664
 11
-9.979841783
 21
-10.8805619964
  0
LINE
  5
398
100
AcDbEntity
  8
RACCORDO
100
AcDbLine
 62
7
  6
CONTINUOUS
 10
-9.930643928
 20
-12.0191740864
 11
-9.9489342258
 21
-12.0319738321
  0
LINE
  5
399
100
AcDbEntity
  8
RACCORDO
100
AcDbLine
 62
7
  6
CONTINUOUS
 10
-10.7571480285
 20
-10.4487779132
 11
-10.775489538
 21
-10.4615939672
  0
LINE
  5
39A
100
AcDbEntity
  8
RACCORDO
100
AcDbLine
 62
7
  6
CONTINUOUS
 10
-9.9439752301
 20
-10.8553643124
 11
-9.9623167396
 21
-10.8681803664
  0
LINE
  5
39B
100
AcDbEntity
  8
RACCORDO
100
AcDbLine
 62
7
  6
CONTINUOUS
 10
-9.911561581
 20
-12.0059582361
 11
-9.930643928
 21
-12.0191740864
  0
LINE
  5
39C
100
AcDbEntity
  8
RACCORDO
100
AcDbLine
 62
7
  6
CONTINUOUS
 10
-10.7380143568
 20
-10.4355486893
 11
-10.7571480285
 21
-10.4487779132
  0
LINE
  5
39D
100
AcDbEntity
  8
RACCORDO
100
AcDbLine
 62
7
  6
CONTINUOUS
 10
-9.9248415584
 20
-10.8421350885
 11
-9.9439752301
 21
-10.8553643124
  0
LINE
  5
39E
100
AcDbEntity
  8
RACCORDO
100
AcDbLine
 62
7
  6
CONTINUOUS
 10
-9.8917120949
 20
-11.992347584
 11
-9.911561581
 21
-12.0059582361
  0
LINE
  5
39F
100
AcDbEntity
  8
RACCORDO
100
AcDbLine
 62
7
  6
CONTINUOUS
 10
-10.7181135615
 20
-10.4219277194
 11
-10.7380143568
 21
-10.4355486893
  0
LINE
  5
3A0
100
AcDbEntity
  8
RACCORDO
100
AcDbLine
 62
7
  6
CONTINUOUS
 10
-9.9049407631
 20
-10.8285141186
 11
-9.9248415584
 21
-10.8421350885
  0
LWPOLYLINE
  5
3A1
100
AcDbEntity
  8
IMPORT_IGES
100
AcDbPolyline
 62
7
  6
CONTINUOUS
 90
4
 70
0
 10
-8.9506778928
 20
-9.5610860783
 10
-8.9702590932
 20
-9.5743992111
 10
-8.9890695653
 20
-9.5875340758
 10
-9.0069309969
 20
-9.6004998363
  0
LINE
  5
3A2
100
AcDbEntity
  8
RACCORDO
100
AcDbLine
 62
7
  6
CONTINUOUS
 10
-10.697471109
 20
-10.407936467
 11
-10.7181135615
 21
-10.4219277194
  0
LINE
  5
3A3
100
AcDbEntity
  8
RACCORDO
100
AcDbLine
 62
7
  6
CONTINUOUS
 10
-9.8842983107
 20
-10.8145228662
 11
-9.9049407631
 21
-10.8285141186
  0
LINE
  5
3A4
100
AcDbEntity
  8
RACCORDO
100
AcDbLine
 62
7
  6
CONTINUOUS
 10
-10.66883907
 20
-10.388742245
 11
-10.697471109
 21
-10.407936467
  0
LINE
  5
3A5
100
AcDbEntity
  8
RACCORDO
100
AcDbLine
 62
7
  6
CONTINUOUS
 10
-9.8556662716
 20
-10.7953286442
 11
-9.8842983107
 21
-10.8145228662
  0
LINE
  5
3A6
100
AcDbEntity
  8
RACCORDO
100
AcDbLine
 62
7
  6
CONTINUOUS
 10
-10.6389939552
 20
-10.3689796479
 11
-10.66883907
 21
-10.388742245
  0
LINE
  5
3A7
100
AcDbEntity
  8
RACCORDO
100
AcDbLine
 62
7
  6
CONTINUOUS
 10
-9.8258211568
 20
-10.7755660471
 11
-9.8556662716
 21
-10.7953286442
  0
LWPOLYLINE
  5
3A8
100
AcDbEntity
  8
IMPORT_IGES
100
AcDbPolyline
 62
7
  6
CONTINUOUS
 90
4
 70
0
 10
-8.1594757617
 20
-9.9613886577
 10
-8.1013826686
 20
-9.9231099331
 10
-8.0710572505
 20
-9.9033575068
 10
-8.0402415032
 20
-9.8838561033
  0
LWPOLYLINE
  5
3A9
100
AcDbEntity
  8
IMPORT_IGES
100
AcDbPolyline
 62
7
  6
CONTINUOUS
 90
3
 70
0
 10
-8.8889920385
 20
-9.5201081132
 10
-8.9098653252
 20
-9.5337627631
 10
-8.9506778928
 20
-9.5610860783
  0
LINE
  5
3AA
100
AcDbEntity
  8
RACCORDO
100
AcDbLine
 62
7
  6
CONTINUOUS
 10
-10.6080000995
 20
-10.34869742
 11
-10.6389939552
 21
-10.3689796479
  0
LINE
  5
3AB
100
AcDbEntity
  8
RACCORDO
100
AcDbLine
 62
7
  6
CONTINUOUS
 10
-9.7948273012
 20
-10.7552838191
 11
-9.8258211568
 21
-10.7755660471
  0
LINE
  5
3AC
100
AcDbEntity
  8
RACCORDO
100
AcDbLine
 62
7
  6
CONTINUOUS
 10
-10.5759195355
 20
-10.327949264
 11
-10.6080000995
 21
-10.34869742
  0
LINE
  5
3AD
100
AcDbEntity
  8
RACCORDO
100
AcDbLine
 62
7
  6
CONTINUOUS
 10
-9.7627467372
 20
-10.7345356632
 11
-9.7948273012
 21
-10.7552838191
  0
LINE
  5
3AE
100
AcDbEntity
  8
RACCORDO
100
AcDbLine
 62
7
  6
CONTINUOUS
 10
-10.5428154811
 20
-10.3067903913
 11
-10.5759195355
 21
-10.327949264
  0
LINE
  5
3AF
100
AcDbEntity
  8
RACCORDO
100
AcDbLine
 62
7
  6
CONTINUOUS
 10
-9.7296426828
 20
-10.7133767904
 11
-9.7627467372
 21
-10.7345356632
  0
LINE
  5
3B0
100
AcDbEntity
  8
RACCORDO
100
AcDbLine
 62
7
  6
CONTINUOUS
 10
-10.5087575336
 20
-10.2852735664
 11
-10.5428154811
 21
-10.3067903913
  0
LINE
  5
3B1
100
AcDbEntity
  8
RACCORDO
100
AcDbLine
 62
7
  6
CONTINUOUS
 10
-9.6955847353
 20
-10.6918599655
 11
-9.7296426828
 21
-10.7133767904
  0
LINE
  5
3B2
100
AcDbEntity
  8
RACCORDO
100
AcDbLine
 62
7
  6
CONTINUOUS
 10
-10.4738167911
 20
-10.2634613185
 11
-10.5087575336
 21
-10.2852735664
  0
LINE
  5
3B3
100
AcDbEntity
  8
RACCORDO
100
AcDbLine
 62
7
  6
CONTINUOUS
 10
-9.6606439927
 20
-10.6700477177
 11
-9.6955847353
 21
-10.6918599655
  0
LINE
  5
3B4
100
AcDbEntity
  8
RACCORDO
100
AcDbLine
 62
7
  6
CONTINUOUS
 10
-10.4849480948
 20
-8.8822425455
 11
-10.5199582351
 21
-8.9040114765
  0
LWPOLYLINE
  5
3B5
100
AcDbEntity
  8
IMPORT_IGES
100
AcDbPolyline
 62
7
  6
CONTINUOUS
 90
9
 70
0
 10
-8.8357366321
 20
-8.143769163
 10
-8.774097429
 20
-8.1057503261
 10
-8.7436864186
 20
-8.0875755135
 10
-8.7138890081
 20
-8.0701298827
 10
-8.6850144774
 20
-8.0534473823
 10
-8.6571706266
 20
-8.0378475248
 10
-8.6306040377
 20
-8.0234626042
 10
-8.6056746375
 20
-8.0102703008
 10
-8.5826669282
 20
-7.9983528393
  0
LWPOLYLINE
  5
3B6
100
AcDbEntity
  8
IMPORT_IGES
100
AcDbPolyline
 62
7
  6
CONTINUOUS
 90
9
 70
0
 10
-8.0402415032
 20
-9.8838561033
 10
-7.9786023002
 20
-9.8458372664
 10
-7.9481912897
 20
-9.8276624538
 10
-7.9183938793
 20
-9.810216823
 10
-7.8895193485
 20
-9.7935343226
 10
-7.8616754978
 20
-9.7779344651
 10
-7.8351089089
 20
-9.7635495445
 10
-7.8101795086
 20
-9.7503572411
 10
-7.7871717994
 20
-9.7384397795
  0
LINE
  5
3B7
100
AcDbEntity
  8
RACCORDO
100
AcDbLine
 62
7
  6
CONTINUOUS
 10
-10.4380727731
 20
-10.2414232437
 11
-10.4738167911
 21
-10.2634613185
  0
LINE
  5
3B8
100
AcDbEntity
  8
RACCORDO
100
AcDbLine
 62
7
  6
CONTINUOUS
 10
-9.6248999747
 20
-10.6480096429
 11
-9.6606439927
 21
-10.6700477177
  0
LINE
  5
3B9
100
AcDbEntity
  8
RACCORDO
100
AcDbLine
 62
7
  6
CONTINUOUS
 10
-10.4491378984
 20
-8.8602570888
 11
-10.4849480948
 21
-8.8822425455
  0
LINE
  5
3BA
100
AcDbEntity
  8
RACCORDO
100
AcDbLine
 62
7
  6
CONTINUOUS
 10
-10.401621803
 20
-10.2192316772
 11
-10.4380727731
 21
-10.2414232437
  0
LINE
  5
3BB
100
AcDbEntity
  8
RACCORDO
100
AcDbLine
 62
7
  6
CONTINUOUS
 10
-9.5884490047
 20
-10.6258180764
 11
-9.6248999747
 21
-10.6480096429
  0
LINE
  5
3BC
100
AcDbEntity
  8
RACCORDO
100
AcDbLine
 62
7
  6
CONTINUOUS
 10
-10.4218126322
 20
-8.8436694937
 11
-10.4491378984
 21
-8.8602570888
  0
LINE
  5
3BD
100
AcDbEntity
  8
RACCORDO
100
AcDbLine
 62
7
  6
CONTINUOUS
 10
-10.373884983
 20
-10.2025436858
 11
-10.401621803
 21
-10.2192316772
  0
LINE
  5
3BE
100
AcDbEntity
  8
RACCORDO
100
AcDbLine
 62
7
  6
CONTINUOUS
 10
-10.3941369034
 20
-8.8270397996
 11
-10.4218126322
 21
-8.8436694937
  0
LWPOLYLINE
  5
3BF
100
AcDbEntity
  8
RACCORDO
100
AcDbPolyline
 62
7
  6
CONTINUOUS
 90
3
 70
0
 10
-9.5514019111
 20
-10.603566479
 10
-9.5607121847
 20
-10.609130085
 10
-9.5884490047
 20
-10.6258180764
  0
LINE
  5
3C0
100
AcDbEntity
  8
RACCORDO
100
AcDbLine
 62
7
  6
CONTINUOUS
 10
-10.3458694513
 20
-10.1858666652
 11
-10.373884983
 21
-10.2025436858
  0
LINE
  5
3C1
100
AcDbEntity
  8
RACCORDO
100
AcDbLine
 62
7
  6
CONTINUOUS
 10
-10.366164725
 20
-8.8104110485
 11
-10.3941369034
 21
-8.8270397996
  0
LINE
  5
3C2
100
AcDbEntity
  8
RACCORDO
100
AcDbLine
 62
7
  6
CONTINUOUS
 10
-10.3176461622
 20
-10.1692549315
 11
-10.3458694513
 21
-10.1858666652
  0
LINE
  5
3C3
100
AcDbEntity
  8
RACCORDO
100
AcDbLine
 62
7
  6
CONTINUOUS
 10
-10.3379624346
 20
-8.7938345529
 11
-10.366164725
 21
-8.8104110485
  0
LINE
  5
3C4
100
AcDbEntity
  8
RACCORDO
100
AcDbLine
 62
7
  6
CONTINUOUS
 10
-10.2893012143
 20
-10.152772665
 11
-10.3176461622
 21
-10.1692549315
  0
LINE
  5
3C5
100
AcDbEntity
  8
RACCORDO
100
AcDbLine
 62
7
  6
CONTINUOUS
 10
-10.3096110163
 20
-8.777371173
 11
-10.3379624346
 21
-8.7938345529
  0
LINE
  5
3C6
100
AcDbEntity
  8
RACCORDO
100
AcDbLine
 62
7
  6
CONTINUOUS
 10
-10.2609408632
 20
-10.1364967217
 11
-10.2893012143
 21
-10.152772665
  0
LINE
  5
3C7
100
AcDbEntity
  8
RACCORDO
100
AcDbLine
 62
7
  6
CONTINUOUS
 10
-10.2812098768
 20
-8.7610934549
 11
-10.3096110163
 21
-8.777371173
  0
LINE
  5
3C8
100
AcDbEntity
  8
RACCORDO
100
AcDbLine
 62
7
  6
CONTINUOUS
 10
-10.2623102001
 20
-8.7503849456
 11
-10.2812098768
 21
-8.7610934549
  0
LINE
  5
3C9
100
AcDbEntity
  8
RACCORDO
100
AcDbLine
 62
7
  6
CONTINUOUS
 10
-10.2326959745
 20
-10.1205189386
 11
-10.2609408632
 21
-10.1364967217
  0
LINE
  5
3CA
100
AcDbEntity
  8
RACCORDO
100
AcDbLine
 62
7
  6
CONTINUOUS
 10
-10.2341125423
 20
-8.7346175836
 11
-10.2623102001
 21
-8.7503849456
  0
LINE
  5
3CB
100
AcDbEntity
  8
RACCORDO
100
AcDbLine
 62
7
  6
CONTINUOUS
 10
-10.2140058156
 20
-10.1100864677
 11
-10.2326959745
 21
-10.1205189386
  0
LINE
  5
3CC
100
AcDbEntity
  8
RACCORDO
100
AcDbLine
 62
7
  6
CONTINUOUS
 10
-10.1954974611
 20
-10.099868441
 11
-10.2140058156
 21
-10.1100864677
  0
LINE
  5
3CD
100
AcDbEntity
  8
RACCORDO
100
AcDbLine
 62
7
  6
CONTINUOUS
 10
-10.2154898416
 20
-8.72435143
 11
-10.2341125423
 21
-8.7346175836
  0
LINE
  5
3CE
100
AcDbEntity
  8
RACCORDO
100
AcDbLine
 62
7
  6
CONTINUOUS
 10
-10.1970750936
 20
-8.7143245549
 11
-10.2154898416
 21
-8.72435143
  0
LWPOLYLINE
  5
3CF
100
AcDbEntity
  8
RACCORDO
100
AcDbPolyline
 62
7
  6
CONTINUOUS
 90
3
 70
0
 10
-10.1681973083
 20
-10.085039794
 10
-10.1772223147
 20
-10.089910411
 10
-10.1954974611
 20
-10.099868441
  0
LINE
  5
3D0
100
AcDbEntity
  8
RACCORDO
100
AcDbLine
 62
7
  6
CONTINUOUS
 10
-10.1789396219
 20
-8.7045769426
 11
-10.1970750936
 21
-8.7143245549
  0
LINE
  5
3D1
100
AcDbEntity
  8
RACCORDO
100
AcDbLine
 62
7
  6
CONTINUOUS
 10
-10.1611429985
 20
-8.6951581016
 11
-10.1789396219
 21
-8.7045769426
  0
LWPOLYLINE
  5
3D2
100
AcDbEntity
  8
RACCORDO
100
AcDbPolyline
 62
7
  6
CONTINUOUS
 90
3
 70
0
 10
-10.1352638947
 20
-8.6817441093
 10
-10.1437781497
 20
-8.68610877
 10
-10.1611429985
 20
-8.6951581016
  0
LINE
  5
3D3
100
AcDbEntity
  8
RACCORDO
100
AcDbLine
 62
7
  6
CONTINUOUS
 10
-9.4311950656
 20
-8.3288711385
 11
-10.1323712758
 21
-8.6802800703
  0
LINE
  5
3D4
100
AcDbEntity
  8
IMPORT_IGES
100
AcDbLine
 62
7
  6
CONTINUOUS
 10
-8.5826669282
 20
-7.9983528393
 11
-3.3019982685
 21
-5.3580185094
  0
LWPOLYLINE
  5
3D5
100
AcDbEntity
  8
IMPORT_IGES
100
AcDbPolyline
 62
7
  6
CONTINUOUS
 90
8
 70
0
 10
22.7568497674
 20
6.5398945741
 10
22.7754709609
 20
6.5481988017
 10
22.8125024718
 20
6.5590870413
 10
22.8522519112
 20
6.5640831997
 10
22.8934990279
 20
6.5629753907
 10
22.9358370716
 20
6.5556929854
 10
22.9796727925
 20
6.5423066126
 10
23.0250061908
 20
6.5228162724
  0
LWPOLYLINE
  5
3D6
100
AcDbEntity
  8
IMPORT_IGES
100
AcDbPolyline
 62
253
  6
CONTINUOUS
 90
5
 70
0
 10
23.5553362767
 20
6.7879813153
 10
23.5827809381
 20
6.7995201422
 10
23.6096511643
 20
6.8064781855
 10
23.6355078241
 20
6.808797998
 10
23.6598109014
 20
6.806525091
  0
LWPOLYLINE
  5
3D7
100
AcDbEntity
  8
IMPORT_IGES
100
AcDbPolyline
 62
253
  6
CONTINUOUS
 90
7
 70
0
 10
23.8028236501
 20
6.6642376286
 10
23.8302683115
 20
6.6757764555
 10
23.8571385377
 20
6.6827344988
 10
23.8829951975
 20
6.6850543113
 10
23.9072982748
 20
6.6827814043
 10
23.9298143219
 20
6.6760360204
 10
23.9368528411
 20
6.6728254957
  0
LWPOLYLINE
  5
3D8
100
AcDbEntity
  8
IMPORT_IGES
100
AcDbPolyline
 62
7
  6
CONTINUOUS
 90
9
 70
0
 10
10.0219423972
 20
-5.1271154591
 10
10.0589904211
 20
-5.1418550028
 10
10.0972829772
 20
-5.1564461992
 10
10.1364979738
 20
-5.1705078885
 10
10.1758513662
 20
-5.1836316321
 10
10.2143513204
 20
-5.1959278341
 10
10.2512635794
 20
-5.2070715264
 10
10.2861370022
 20
-5.2163097881
 10
10.3184075336
 20
-5.2230577174
  0
LINE
  5
3D9
100
AcDbEntity
  8
IMPORT_IGES
100
AcDbLine
 62
7
  6
CONTINUOUS
 10
9.9908335825
 20
-5.1139464742
 11
10.0219423972
 21
-5.1271154591
  0
LINE
  5
3DA
100
AcDbEntity
  8
IMPORT_IGES
100
AcDbLine
 62
7
  6
CONTINUOUS
 10
9.1657132796
 20
-5.5099547872
 11
8.9889365843
 21
-5.4215664395
  0
LWPOLYLINE
  5
3DB
100
AcDbEntity
  8
IMPORT_IGES
100
AcDbPolyline
 62
253
  6
CONTINUOUS
 90
7
 70
0
 10
8.9889365843
 20
-6.5318599035
 10
8.9964759088
 20
-6.5388142562
 10
9.0234325398
 20
-6.5656636721
 10
9.0480911421
 20
-6.5923421903
 10
9.0700206292
 20
-6.6183817452
 10
9.0888424854
 20
-6.643331006
 10
9.1042302627
 20
-6.6667555057
  0
LWPOLYLINE
  5
3DC
100
AcDbEntity
  8
RACCORDO
100
AcDbPolyline
 62
253
  6
CONTINUOUS
 90
40
 70
0
 10
1.5753120567
 20
3.8482483912
 10
1.5739169423
 20
3.8562840242
 10
1.5722434833
 20
3.8644519579
 10
1.5702943835
 20
3.872738995
 10
1.5680727923
 20
3.8811317458
 10
1.565582299
 20
3.8896166496
 10
1.5628269278
 20
3.898179997
 10
1.5598111306
 20
3.9068079516
 10
1.5565397802
 20
3.9154865729
 10
1.5530181623
 20
3.9242018385
 10
1.5492519669
 20
3.9329396664
 10
1.5452472793
 20
3.9416859388
 10
1.54101057
 20
3.9504265236
 10
1.5365486845
 20
3.9591472983
 10
1.5318688321
 20
3.9678341724
 10
1.5269785743
 20
3.9764731099
 10
1.5218858124
 20
3.9850501524
 10
1.5165987752
 20
3.9935514417
 10
1.5111260052
 20
4.0019632418
 10
1.505476345
 20
4.0102719612
 10
1.499658923
 20
4.018464175
 10
1.4936831388
 20
4.0265266469
 10
1.4875586477
 20
4.0344463497
 10
1.4812953454
 20
4.0422104871
 10
1.4749033518
 20
4.0498065144
 10
1.4683929949
 20
4.0572221581
 10
1.4617747937
 20
4.0644454364
 10
1.4550594416
 20
4.0714646783
 10
1.4482577889
 20
4.0782685424
 10
1.4413808255
 20
4.0848460353
 10
1.4344396628
 20
4.0911865295
 10
1.427445516
 20
4.0972797803
 10
1.4204096859
 20
4.1031159425
 10
1.4133435407
 20
4.1086855863
 10
1.4062584975
 20
4.1139797125
 10
1.399166004
 20
4.1189897671
 10
1.3920775199
 20
4.1237076551
 10
1.3850044985
 20
4.1281257536
 10
1.377958368
 20
4.1322369241
 10
1.3709505131
 20
4.1360345238
  0
LWPOLYLINE
  5
3DD
100
AcDbEntity
  8
RACCORDO
100
AcDbPolyline
 62
253
  6
CONTINUOUS
 90
85
 70
0
 10
5.9315791204
 20
12.4286546219
 10
5.9316919653
 20
12.4214142962
 10
5.9324494442
 20
12.4084920698
 10
5.9339191398
 20
12.3955913782
 10
5.9360998902
 20
12.3827222115
 10
5.9389899814
 20
12.3698944776
 10
5.9425871474
 20
12.3571184793
 10
5.9468885688
 20
12.3444040993
 10
5.95189087
 20
12.3317611625
 10
5.9575901248
 20
12.3191998202
 10
5.9639818618
 20
12.3067298137
 10
5.9710610704
 20
12.2943607791
 10
5.9788222026
 20
12.2821026107
 10
5.9872591715
 20
12.2699648295
 10
5.9963653666
 20
12.2579568258
 10
6.0061336648
 20
12.2460881654
 10
6.016556424
 20
12.2343680657
 10
6.027625469
 20
12.2228056228
 10
6.0393321086
 20
12.2114100548
 10
6.051667149
 20
12.2001902541
 10
6.0646209419
 20
12.1891549112
 10
6.0781833789
 20
12.1783127437
 10
6.0923438663
 20
12.1676721926
 10
6.1070912883
 20
12.1572415525
 10
6.1224140521
 20
12.1470290939
 10
6.1383001163
 20
12.1370428237
 10
6.1547370686
 20
12.1272904959
 10
6.1717121005
 20
12.1177797458
 10
6.1892119622
 20
12.1085180078
 10
6.2072229098
 20
12.0995125355
 10
6.2257307794
 20
12.0907704109
 10
6.2447210271
 20
12.0822985243
 10
6.2641788208
 20
12.0741034822
 10
6.284088999
 20
12.0661916342
 10
6.304436017
 20
12.0585692049
 10
6.3252038977
 20
12.0512421965
 10
6.3463763204
 20
12.0442162955
 10
6.3679366606
 20
12.0374970775
 10
6.3898680714
 20
12.0310898218
 10
6.4121534428
 20
12.0249994196
 10
6.434775358
 20
12.019230713
 10
6.4577160678
 20
12.0137882809
 10
6.4809575699
 20
12.0086762527
 10
6.5044816388
 20
12.0038987326
 10
6.528269873
 20
11.9994595249
 10
6.5523036734
 20
11.9953619245
 10
6.5765642255
 20
11.9916092533
 10
6.6010325212
 20
11.988204538
 10
6.6256894056
 20
11.9851502361
 10
6.6505155752
 20
11.9824488686
 10
6.6754915788
 20
11.9801026556
 10
6.7005978403
 20
11.9781131967
 10
6.7258146802
 20
11.9764821944
 10
6.751122363
 20
11.9752110436
 10
6.7765010987
 20
11.9743004697
 10
6.8019310435
 20
11.9737513437
 10
6.8273922451
 20
11.9735642326
 10
6.8528646899
 20
11.973738986
 10
6.878328367
 20
11.9742756335
 10
6.9037633898
 20
11.9751739011
 10
6.9291499409
 20
11.9764327669
 10
6.9544681884
 20
11.9780514323
 10
6.9796982449
 20
11.9800287913
 10
7.0048202889
 20
11.9823629461
 10
7.0298146167
 20
11.9850522567
 10
7.0546616732
 20
11.9880947926
 10
7.07934201
 20
11.991487806
 10
7.1038363476
 20
11.9952288487
 10
7.128125441
 20
11.9993151682
 10
7.1521901153
 20
12.0037431511
 10
7.1760114114
 20
12.0085095076
 10
7.1995707842
 20
12.0136107128
 10
7.2228499632
 20
12.0190424083
 10
7.2458307835
 20
12.0248005737
 10
7.2684951621
 20
12.0308808863
 10
7.2908252963
 20
12.0372781596
 10
7.3128037635
 20
12.0439876235
 10
7.334413268
 20
12.0510042103
 10
7.3556366261
 20
12.0583219091
 10
7.3764569721
 20
12.0659351022
 10
7.3968582687
 20
12.0738381183
 10
7.4168250304
 20
12.0820245325
 10
7.4363417537
 20
12.0904880169
 10
7.4553929634
 20
12.0992223219
 10
7.473963713
 20
12.1082208359
  0
LWPOLYLINE
  5
3DE
100
AcDbEntity
  8
RACCORDO
100
AcDbPolyline
 62
7
  6
CONTINUOUS
 90
81
 70
0
 10
5.9315791647
 20
-28.6301137461
 10
5.9317299022
 20
-28.6412443805
 10
5.9324529191
 20
-28.6568510509
 10
5.9337754627
 20
-28.6724609225
 10
5.9357005314
 20
-28.6880649679
 10
5.9382351856
 20
-28.7036736283
 10
5.9413836247
 20
-28.7192692108
 10
5.9451487075
 20
-28.7348317743
 10
5.9495405002
 20
-28.7503686197
 10
5.9545649076
 20
-28.7658650318
 10
5.9602243713
 20
-28.7812986451
 10
5.966527924
 20
-28.79666627
 10
5.9734798918
 20
-28.8119509336
 10
5.9810836556
 20
-28.8271349909
 10
5.9893502038
 20
-28.8422161912
 10
5.9982845388
 20
-28.8571796232
 10
6.0078905659
 20
-28.87200914
 10
6.0181819901
 20
-28.8867030165
 10
6.0291651216
 20
-28.9012477044
 10
6.0408459707
 20
-28.9156295828
 10
6.053243162
 20
-28.9298490856
 10
6.0663647942
 20
-28.9438927617
 10
6.0802210216
 20
-28.9577496506
 10
6.0948407197
 20
-28.971424986
 10
6.1102486644
 20
-28.9849160713
 10
6.1264476073
 20
-28.9982002054
 10
6.1434376574
 20
-29.0112541881
 10
6.1612890372
 20
-29.024105892
 10
6.1799624074
 20
-29.0367012439
 10
6.1992760821
 20
-29.0489075256
 10
6.2192273948
 20
-29.0607245266
 10
6.2398131434
 20
-29.0721506632
 10
6.2608146091
 20
-29.0830747567
 10
6.2821494265
 20
-29.0934770503
 10
6.3038599667
 20
-29.1033988988
 10
6.3258907324
 20
-29.1128328355
 10
6.3482028001
 20
-29.1217809485
 10
6.370794901
 20
-29.1302596813
 10
6.3936607765
 20
-29.1382815226
 10
6.4167821126
 20
-29.1458529489
 10
6.4401403183
 20
-29.1529798284
 10
6.4637255892
 20
-29.1596701066
 10
6.4875192075
 20
-29.1659280009
 10
6.5115039426
 20
-29.1717581053
 10
6.5356700221
 20
-29.1771660493
 10
6.5599974259
 20
-29.182154515
 10
6.5844707572
 20
-29.1867272095
 10
6.6090856296
 20
-29.1908889211
 10
6.6338242949
 20
-29.1946416863
 10
6.6586697881
 20
-29.1979875087
 10
6.6836176549
 20
-29.2009294367
 10
6.7086506593
 20
-29.2034687102
 10
6.7337517854
 20
-29.2056062586
 10
6.7589159372
 20
-29.2073437608
 10
6.7841259453
 20
-29.2086816676
 10
6.8093649777
 20
-29.2096201334
 10
6.8346279656
 20
-29.2101597174
 10
6.8598984344
 20
-29.2103000807
 10
6.8851589127
 20
-29.2100407598
 10
6.9104028495
 20
-29.209381179
 10
6.935613639
 20
-29.2083202747
 10
6.9607738558
 20
-29.2068571553
 10
6.9858760756
 20
-29.2049901061
 10
7.0109032185
 20
-29.2027174543
 10
7.0358382012
 20
-29.2000377739
 10
7.0606742399
 20
-29.1969479466
 10
7.0853942468
 20
-29.1934456196
 10
7.1099809237
 20
-29.1895285139
 10
7.134428343
 20
-29.1851917704
 10
7.1587200212
 20
-29.1804319672
 10
7.1828375539
 20
-29.1752456888
 10
7.2067742818
 20
-29.1696263264
 10
7.2305129354
 20
-29.1635691846
 10
7.2540352282
 20
-29.1570691015
 10
7.2773360635
 20
-29.1501166876
 10
7.3003966596
 20
-29.1427054346
 10
7.323198465
 20
-29.1348278828
 10
7.3457406123
 20
-29.1264694306
 10
7.3680108876
 20
-29.1176171205
 10
7.3899816168
 20
-29.1082632582
 10
7.4051257723
 20
-29.1014325026
  0
LINE
  5
3DF
100
AcDbEntity
  8
RACCORDO
100
AcDbLine
 62
7
  6
CONTINUOUS
 10
5.9315791177
 20
-28.6301581716
 11
5.9315791177
 21
-28.4217217926
  0
LINE
  5
3E0
100
AcDbEntity
  8
RACCORDO
100
AcDbLine
 62
7
  6
CONTINUOUS
 10
5.9315791177
 20
11.2780223422
 11
5.9315791177
 21
12.4286935744
  0
LINE
  5
3E1
100
AcDbEntity
  8
RACCORDO
100
AcDbLine
 62
7
  6
CONTINUOUS
 10
5.9315791177
 20
12.4286904722
 11
5.9315791204
 21
12.4286546219
  0
LINE
  5
3E2
100
AcDbEntity
  8
ASSI
100
AcDbLine
 62
7
  6
CONTINUOUS
 10
4.2548449384
 20
21.0362793298
 11
4.2548446036
 21
20.3917560564
  0
LWPOLYLINE
  5
3E3
100
AcDbEntity
  8
RACCORDO
100
AcDbPolyline
 62
253
  6
CONTINUOUS
 90
27
 70
0
 10
1.5753120567
 20
-26.4006780971
 10
1.5739169421
 20
-26.4097802079
 10
1.5722434828
 20
-26.4187223277
 10
1.5702943826
 20
-26.4274900082
 10
1.5680727909
 20
-26.4360690829
 10
1.5655822972
 20
-26.4444456903
 10
1.5628269255
 20
-26.4526062958
 10
1.5598111277
 20
-26.4605377139
 10
1.5565397768
 20
-26.4682271294
 10
1.5530181583
 20
-26.4756621181
 10
1.5492519624
 20
-26.4828306669
 10
1.5452472742
 20
-26.4897211933
 10
1.5410105644
 20
-26.4963225637
 10
1.5365486784
 20
-26.5026241122
 10
1.5318688255
 20
-26.5086156568
 10
1.5269785672
 20
-26.5142875169
 10
1.521885805
 20
-26.519630528
 10
1.5165987675
 20
-26.5246360571
 10
1.5111259972
 20
-26.5292960167
 10
1.5054763367
 20
-26.5336028773
 10
1.4996589146
 20
-26.5375496801
 10
1.4936831303
 20
-26.5411300482
 10
1.4875586392
 20
-26.5443381964
 10
1.4812953369
 20
-26.5471689412
 10
1.4749033435
 20
-26.5496177088
 10
1.4683929868
 20
-26.5516805427
 10
1.4669474484
 20
-26.5520818023
  0
LWPOLYLINE
  5
3E4
100
AcDbEntity
  8
IMPORT_IGES
100
AcDbPolyline
 62
7
  6
CONTINUOUS
 90
10
 70
0
 10
9.0843601555
 20
3.7016678212
 10
9.0762207061
 20
3.6860322928
 10
9.0689906327
 20
3.6702171627
 10
9.0626699353
 20
3.6542224311
 10
9.0572274928
 20
3.6379322186
 10
9.0526944262
 20
3.6214624045
 10
9.0491640995
 20
3.6051606263
 10
9.0466676338
 20
3.5891427631
 10
9.0451739078
 20
3.5732929357
 10
9.0446829216
 20
3.5576111443
  0
LINE
  5
3E5
100
AcDbEntity
  8
IMPORT_IGES
100
AcDbLine
 62
253
  6
CONTINUOUS
 10
9.5261859908
 20
5.3302390417
 11
8.9889365843
 21
4.3823873078
  0
LINE
  5
3E6
100
AcDbEntity
  8
IMPORT_IGES
100
AcDbLine
 62
253
  6
CONTINUOUS
 10
9.0843601555
 20
3.7016678212
 11
9.8882757841
 21
5.1199920859
  0
LINE
  5
3E7
100
AcDbEntity
  8
IMPORT_IGES
100
AcDbLine
 62
7
  6
CONTINUOUS
 10
9.062159889
 20
5.5622276854
 11
8.9889365843
 21
5.4359361662
  0
LWPOLYLINE
  5
3E8
100
AcDbEntity
  8
IMPORT_IGES
100
AcDbPolyline
 62
7
  6
CONTINUOUS
 90
10
 70
0
 10
9.5261859911
 20
5.3302390415
 10
9.5487801395
 20
5.3672025019
 10
9.5731191955
 20
5.402496992
 10
9.5990167921
 20
5.4358545793
 10
9.626273591
 20
5.4670216578
 10
9.6546825353
 20
5.4957621631
 10
9.6840306758
 20
5.5218587801
 10
9.7140956276
 20
5.5451130657
 10
9.74464703
 20
5.5653475556
 10
9.7754521998
 20
5.5824079983
  0
LWPOLYLINE
  5
3E9
100
AcDbEntity
  8
IMPORT_IGES
100
AcDbPolyline
 62
253
  6
CONTINUOUS
 90
4
 70
0
 10
16.1811748067
 20
12.2814610244
 10
16.1849034741
 20
12.286936709
 10
16.1964731964
 20
12.2984722891
 10
16.2110068929
 20
12.3090270937
  0
LINE
  5
3EA
100
AcDbEntity
  8
RACCORDO
100
AcDbLine
 62
7
  6
CONTINUOUS
 10
-9.8711208109
 20
-11.9783634785
 11
-9.8917120949
 21
-11.992347584
  0
LINE
  5
3EB
100
AcDbEntity
  8
RACCORDO
100
AcDbLine
 62
7
  6
CONTINUOUS
 10
-9.8425565658
 20
-11.959173662
 11
-9.8711208109
 21
-11.9783634785
  0
LINE
  5
3EC
100
AcDbEntity
  8
RACCORDO
100
AcDbLine
 62
7
  6
CONTINUOUS
 10
-9.8127784886
 20
-11.9394093794
 11
-9.8425565658
 21
-11.959173662
  0
LINE
  5
3ED
100
AcDbEntity
  8
RACCORDO
100
AcDbLine
 62
7
  6
CONTINUOUS
 10
-9.7818506283
 20
-11.9191191188
 11
-9.8127784886
 21
-11.9394093794
  0
LINE
  5
3EE
100
AcDbEntity
  8
RACCORDO
100
AcDbLine
 62
7
  6
CONTINUOUS
 10
-9.7498347216
 20
-11.8983563207
 11
-9.7818506283
 21
-11.9191191188
  0
LINE
  5
3EF
100
AcDbEntity
  8
RACCORDO
100
AcDbLine
 62
7
  6
CONTINUOUS
 10
-9.7167936805
 20
-11.8771759213
 11
-9.7498347216
 21
-11.8983563207
  0
LINE
  5
3F0
100
AcDbEntity
  8
RACCORDO
100
AcDbLine
 62
7
  6
CONTINUOUS
 10
-9.6827967844
 20
-11.8556303889
 11
-9.7167936805
 21
-11.8771759213
  0
LWPOLYLINE
  5
3F1
100
AcDbEntity
  8
IMPORT_IGES
100
AcDbPolyline
 62
7
  6
CONTINUOUS
 90
9
 70
0
 10
-4.1278942067
 20
-10.2257392
 10
-4.1485149252
 20
-10.2386721832
 10
-4.1666474517
 20
-10.2551186629
 10
-4.1821187561
 20
-10.2749425064
 10
-4.1947635106
 20
-10.2980683482
 10
-4.2045028587
 20
-10.3242774116
 10
-4.2112873306
 20
-10.3532188983
 10
-4.2150128272
 20
-10.3847570849
 10
-4.2157620654
 20
-10.4076649555
  0
LINE
  5
3F2
100
AcDbEntity
  8
RACCORDO
100
AcDbLine
 62
7
  6
CONTINUOUS
 10
-9.6479147814
 20
-11.8337819324
 11
-9.6827967844
 21
-11.8556303889
  0
LINE
  5
3F3
100
AcDbEntity
  8
RACCORDO
100
AcDbLine
 62
7
  6
CONTINUOUS
 10
-9.6122268049
 20
-11.8116997983
 11
-9.6479147814
 21
-11.8337819324
  0
LINE
  5
3F4
100
AcDbEntity
  8
RACCORDO
100
AcDbLine
 62
7
  6
CONTINUOUS
 10
-9.5758287511
 20
-11.7894559339
 11
-9.6122268049
 21
-11.8116997983
  0
LINE
  5
3F5
100
AcDbEntity
  8
RACCORDO
100
AcDbLine
 62
7
  6
CONTINUOUS
 10
-9.5481292706
 20
-11.7727230645
 11
-9.5758287511
 21
-11.7894559339
  0
LINE
  5
3F6
100
AcDbEntity
  8
RACCORDO
100
AcDbLine
 62
7
  6
CONTINUOUS
 10
-9.5201488067
 20
-11.7559961122
 11
-9.5481292706
 21
-11.7727230645
  0
LINE
  5
3F7
100
AcDbEntity
  8
RACCORDO
100
AcDbLine
 62
7
  6
CONTINUOUS
 10
-9.5233086348
 20
-10.5869046809
 11
-9.5514019111
 21
-10.603566479
  0
LINE
  5
3F8
100
AcDbEntity
  8
RACCORDO
100
AcDbLine
 62
7
  6
CONTINUOUS
 10
-9.4919580458
 20
-11.7393292069
 11
-9.5201488067
 21
-11.7559961122
  0
LINE
  5
3F9
100
AcDbEntity
  8
RACCORDO
100
AcDbLine
 62
7
  6
CONTINUOUS
 10
-9.4950344207
 20
-10.5703283404
 11
-9.5233086348
 21
-10.5869046809
  0
LINE
  5
3FA
100
AcDbEntity
  8
RACCORDO
100
AcDbLine
 62
7
  6
CONTINUOUS
 10
-9.4636427862
 20
-11.7227863464
 11
-9.4919580458
 21
-11.7393292069
  0
LINE
  5
3FB
100
AcDbEntity
  8
RACCORDO
100
AcDbLine
 62
7
  6
CONTINUOUS
 10
-9.4666715441
 20
-10.5539055716
 11
-9.4950344207
 21
-10.5703283404
  0
LINE
  5
3FC
100
AcDbEntity
  8
RACCORDO
100
AcDbLine
 62
7
  6
CONTINUOUS
 10
-9.4353089467
 20
-11.7064442218
 11
-9.4636427862
 21
-11.7227863464
  0
LINE
  5
3FD
100
AcDbEntity
  8
RACCORDO
100
AcDbLine
 62
7
  6
CONTINUOUS
 10
-9.4383339775
 20
-10.5377179867
 11
-9.4666715441
 21
-10.5539055716
  0
LINE
  5
3FE
100
AcDbEntity
  8
RACCORDO
100
AcDbLine
 62
7
  6
CONTINUOUS
 10
-9.4070870187
 20
-11.6903945387
 11
-9.4353089467
 21
-11.7064442218
  0
LWPOLYLINE
  5
3FF
100
AcDbEntity
  8
IMPORT_IGES
100
AcDbPolyline
 62
253
  6
CONTINUOUS
 90
16
 70
0
 10
22.6714527367
 20
5.480014205
 10
22.708679254
 20
5.5010344212
 10
22.7451078052
 20
5.5263423999
 10
22.7803610429
 20
5.5555240909
 10
22.8138892152
 20
5.5879272718
 10
22.8456089386
 20
5.6232701501
 10
22.8758033534
 20
5.6618449994
 10
22.9042729261
 20
5.7035655164
 10
22.9304858728
 20
5.7478354188
 10
22.9541354312
 20
5.7942993628
 10
22.9749068714
 20
5.8425525606
 10
22.9924513171
 20
5.8920325297
 10
23.0064510089
 20
5.942090795
 10
23.0166631711
 20
5.9921189611
 10
23.0229001947
 20
6.0415584827
 10
23.0250061908
 20
6.0898035705
  0
LINE
  5
400
100
AcDbEntity
  8
RACCORDO
100
AcDbLine
 62
7
  6
CONTINUOUS
 10
-9.4101617398
 20
-10.5218628783
 11
-9.4383339775
 21
-10.5377179867
  0
LINE
  5
401
100
AcDbEntity
  8
RACCORDO
100
AcDbLine
 62
7
  6
CONTINUOUS
 10
-9.3884099939
 20
-11.6799109161
 11
-9.4070870187
 21
-11.6903945387
  0
LINE
  5
402
100
AcDbEntity
  8
RACCORDO
100
AcDbLine
 62
7
  6
CONTINUOUS
 10
-9.391553309
 20
-10.5115344141
 11
-9.4101617398
 21
-10.5218628783
  0
LINE
  5
403
100
AcDbEntity
  8
RACCORDO
100
AcDbLine
 62
7
  6
CONTINUOUS
 10
-9.3699128854
 20
-11.6696391561
 11
-9.3884099939
 21
-11.6799109161
  0
LINE
  5
404
100
AcDbEntity
  8
RACCORDO
100
AcDbLine
 62
7
  6
CONTINUOUS
 10
-9.351646965
 20
-11.6596248275
 11
-9.3699128854
 21
-11.6696391561
  0
LINE
  5
405
100
AcDbEntity
  8
RACCORDO
100
AcDbLine
 62
7
  6
CONTINUOUS
 10
-9.373150511
 20
-10.5014421788
 11
-9.391553309
 21
-10.5115344141
  0
LINE
  5
406
100
AcDbEntity
  8
RACCORDO
100
AcDbLine
 62
7
  6
CONTINUOUS
 10
-9.3550245099
 20
-10.4916261932
 11
-9.373150511
 21
-10.5014421788
  0
LINE
  5
407
100
AcDbEntity
  8
RACCORDO
100
AcDbLine
 62
7
  6
CONTINUOUS
 10
-9.3336839038
 20
-11.6499078877
 11
-9.351646965
 21
-11.6596248275
  0
LWPOLYLINE
  5
408
100
AcDbEntity
  8
RACCORDO
100
AcDbPolyline
 62
7
  6
CONTINUOUS
 90
15
 70
0
 10
-14.0653442846
 20
-14.2000652082
 10
-14.0700018863
 20
-14.2025684325
 10
-14.0782311406
 20
-14.2079268852
 10
-14.0859099758
 20
-14.2142008841
 10
-14.0930048092
 20
-14.2213631077
 10
-14.0994872902
 20
-14.2293838321
 10
-14.1053284643
 20
-14.2382280341
 10
-14.1105023856
 20
-14.2478572994
 10
-14.1149892273
 20
-14.2582315461
 10
-14.1187684687
 20
-14.2693056308
 10
-14.1218228349
 20
-14.2810315627
 10
-14.1241418052
 20
-14.2933605267
 10
-14.1257154152
 20
-14.3062397721
 10
-14.1265343361
 20
-14.3196128144
 10
-14.1265937247
 20
-14.3334217301
  0
LINE
  5
409
100
AcDbEntity
  8
RACCORDO
100
AcDbLine
 62
7
  6
CONTINUOUS
 10
-10.1504075195
 20
-10.0755496228
 11
-10.1681973083
 21
-10.085039794
  0
LINE
  5
40A
100
AcDbEntity
  8
RACCORDO
100
AcDbLine
 62
7
  6
CONTINUOUS
 10
-9.3372347211
 20
-10.482136022
 11
-9.3550245099
 21
-10.4916261932
  0
LWPOLYLINE
  5
40B
100
AcDbEntity
  8
RACCORDO
100
AcDbPolyline
 62
7
  6
CONTINUOUS
 90
4
 70
0
 10
-9.2989722645
 20
-11.6315539158
 10
-9.3074847146
 20
-11.6359888542
 10
-9.3161093757
 20
-11.6405318379
 10
-9.3336839038
 20
-11.6499078877
  0
LWPOLYLINE
  5
40C
100
AcDbEntity
  8
IMPORT_IGES
100
AcDbPolyline
 62
7
  6
CONTINUOUS
 90
17
 70
0
 10
-8.5943413194
 20
-9.3465691583
 10
-8.6067197642
 20
-9.3529731114
 10
-8.6197831994
 20
-9.3598784866
 10
-8.6334796529
 20
-9.3672241014
 10
-8.647809621
 20
-9.3750217708
 10
-8.6628358876
 20
-9.3833481776
 10
-8.6785388954
 20
-9.3921681381
 10
-8.6948787712
 20
-9.4014508693
 10
-8.7118930905
 20
-9.4112656796
 10
-8.7295323995
 20
-9.4215687162
 10
-8.7477550274
 20
-9.4323262479
 10
-8.7666068901
 20
-9.4436072251
 10
-8.7860455131
 20
-9.4553897386
 10
-8.8059721086
 20
-9.4676006464
 10
-8.8263347129
 20
-9.480220488
 10
-8.8470625287
 20
-9.4932565152
 10
-8.8889920385
 20
-9.5201081132
  0
LWPOLYLINE
  5
40D
100
AcDbEntity
  8
RACCORDO
100
AcDbPolyline
 62
7
  6
CONTINUOUS
 90
3
 70
0
 10
-10.1245333861
 20
-10.0620232984
 10
-10.1330467124
 20
-10.0664261026
 10
-10.1504075195
 20
-10.0755496228
  0
LWPOLYLINE
  5
40E
100
AcDbEntity
  8
RACCORDO
100
AcDbPolyline
 62
7
  6
CONTINUOUS
 90
3
 70
0
 10
-9.3113605878
 20
-10.4686096976
 10
-9.3198739141
 20
-10.4730125017
 10
-9.3372347211
 20
-10.482136022
  0
LINE
  5
40F
100
AcDbEntity
  8
RACCORDO
100
AcDbLine
 62
7
  6
CONTINUOUS
 10
-9.4311950656
 20
-9.7145117846
 11
-10.1203014168
 21
-10.0598716574
  0
LINE
  5
410
100
AcDbEntity
  8
RACCORDO
100
AcDbLine
 62
7
  6
CONTINUOUS
 10
-8.6180222673
 20
-10.1210981837
 11
-9.3071286184
 21
-10.4664580566
  0
LINE
  5
411
100
AcDbEntity
  8
RACCORDO
100
AcDbLine
 62
7
  6
CONTINUOUS
 10
-8.6180222673
 20
-11.2902324789
 11
-9.2936102793
 21
-11.628817357
  0
LINE
  5
412
100
AcDbEntity
  8
IMPORT_IGES
100
AcDbLine
 62
7
  6
CONTINUOUS
 10
23.2870081194
 20
6.8050223876
 11
22.7566780335
 21
6.5398573447
  0
LINE
  5
413
100
AcDbEntity
  8
IMPORT_IGES
100
AcDbLine
 62
253
  6
CONTINUOUS
 10
23.0250061908
 20
6.5228162724
 11
23.5553362767
 21
6.7879813153
  0
LINE
  5
414
100
AcDbEntity
  8
IMPORT_IGES
100
AcDbLine
 62
7
  6
CONTINUOUS
 10
-3.1288891213
 20
-6.6138033116
 11
-7.4512960783
 21
-8.7750067902
  0
LINE
  5
415
100
AcDbEntity
  8
IMPORT_IGES
100
AcDbLine
 62
7
  6
CONTINUOUS
 10
-8.5943413194
 20
-9.3465691583
 11
-7.6634281127
 21
-8.8810728074
  0
LINE
  5
416
100
AcDbEntity
  8
IMPORT_IGES
100
AcDbLine
 62
253
  6
CONTINUOUS
 10
23.8028236501
 20
6.6642376286
 11
23.2724935642
 21
6.3990725857
  0
LINE
  5
417
100
AcDbEntity
  8
IMPORT_IGES
100
AcDbLine
 62
7
  6
CONTINUOUS
 10
-6.851703944
 20
-9.2113323162
 11
-3.1331979036
 21
-7.352079296
  0
LINE
  5
418
100
AcDbEntity
  8
IMPORT_IGES
100
AcDbLine
 62
7
  6
CONTINUOUS
 10
-6.8679329838
 20
-9.2788203718
 11
-7.7871717994
 21
-9.7384397795
  0
LINE
  5
419
100
AcDbEntity
  8
IMPORT_IGES
100
AcDbLine
 62
253
  6
CONTINUOUS
 10
22.6165490133
 20
5.4525623506
 11
22.6714527297
 21
5.4800142085
  0
LINE
  5
41A
100
AcDbEntity
  8
IMPORT_IGES
100
AcDbLine
 62
7
  6
CONTINUOUS
 10
8.9889365843
 20
-1.4143726293
 11
9.1657132796
 21
-1.3259842817
  0
LINE
  5
41B
100
AcDbEntity
  8
IMPORT_IGES
100
AcDbLine
 62
253
  6
CONTINUOUS
 10
22.9189388207
 20
5.356271163
 11
22.7100995701
 21
5.2518515937
  0
LINE
  5
41C
100
AcDbEntity
  8
IMPORT_IGES
100
AcDbLine
 62
7
  6
CONTINUOUS
 10
-6.6558009495
 20
-9.4597909805
 11
-3.1350099991
 21
-7.6993955053
  0
LINE
  5
41D
100
AcDbEntity
  8
IMPORT_IGES
100
AcDbLine
 62
253
  6
CONTINUOUS
 10
24.2270877188
 20
5.9324903521
 11
23.6967576329
 21
5.6673253091
  0
LINE
  5
41E
100
AcDbEntity
  8
IMPORT_IGES
100
AcDbLine
 62
253
  6
CONTINUOUS
 10
23.2872188625
 20
6.8051276213
 11
23.2870081194
 21
6.8050223876
  0
LWPOLYLINE
  5
41F
100
AcDbEntity
  8
IMPORT_IGES
100
AcDbPolyline
 62
7
  6
CONTINUOUS
 90
7
 70
0
 10
-6.8679329838
 20
-9.2788203718
 10
-6.8391511028
 20
-9.2671406326
 10
-6.8118821911
 20
-9.2602062227
 10
-6.7861262487
 20
-9.2580171419
 10
-6.7615555093
 20
-9.2607200245
 10
-6.7384977393
 20
-9.2681682363
 10
-6.7336287317
 20
-9.2704481258
  0
LWPOLYLINE
  5
420
100
AcDbEntity
  8
IMPORT_IGES
100
AcDbPolyline
 62
253
  6
CONTINUOUS
 90
5
 70
0
 10
8.9889365843
 20
-0.4008901935
 10
9.0027622755
 20
-0.3984476743
 10
9.0379569431
 20
-0.3895869609
 10
9.0706264874
 20
-0.3785642773
 10
9.1002003586
 20
-0.3655611084
  0
LWPOLYLINE
  5
421
100
AcDbEntity
  8
IMPORT_IGES
100
AcDbPolyline
 62
7
  6
CONTINUOUS
 90
6
 70
0
 10
21.6616663521
 20
-3.5227562128
 10
21.7046738419
 20
-3.5284917069
 10
21.7676998386
 20
-3.5306542472
 10
21.8213409171
 20
-3.5257505741
 10
21.8665007255
 20
-3.5134732067
 10
21.8886767812
 20
-3.5034929117
  0
LINE
  5
422
100
AcDbEntity
  8
IMPORT_IGES
100
AcDbLine
 62
7
  6
CONTINUOUS
 10
8.9889365843
 20
-0.6893726293
 11
10.014241417
 21
-0.901720213
  0
LINE
  5
423
100
AcDbEntity
  8
DRAFT
100
AcDbLine
 62
7
  6
CONTINUOUS
 10
7.3430981768
 20
17.5747733475
 11
7.3430981768
 21
17.3780479172
  0
LINE
  5
424
100
AcDbEntity
  8
RACCORDO
100
AcDbLine
 62
253
  6
CONTINUOUS
 10
7.473963713
 20
12.1082208359
 11
7.473963713
 21
10.7417826684
  0
LINE
  5
425
100
AcDbEntity
  8
RACCORDO
100
AcDbLine
 62
253
  6
CONTINUOUS
 10
7.473963713
 20
-27.5979506833
 11
7.473963713
 21
-28.9643888507
  0
LINE
  5
426
100
AcDbEntity
  8
IMPORT_IGES
100
AcDbLine
 62
7
  6
CONTINUOUS
 10
12.1650463233
 20
7.2409115551
 11
12.1932713861
 21
7.3148984863
  0
LWPOLYLINE
  5
427
100
AcDbEntity
  8
IMPORT_IGES
100
AcDbPolyline
 62
253
  6
CONTINUOUS
 90
10
 70
0
 10
11.7877280365
 20
8.6285555603
 10
11.7928011963
 20
8.6410599772
 10
11.7988780308
 20
8.6533176943
 10
11.8058549183
 20
8.6650654714
 10
11.8135132668
 20
8.6759589054
 10
11.8217424632
 20
8.6859009378
 10
11.8306106299
 20
8.6949711577
 10
11.8400372513
 20
8.7030292164
 10
11.84974583
 20
8.7098147826
 10
11.8595309344
 20
8.7152122314
  0
LWPOLYLINE
  5
428
100
AcDbEntity
  8
IMPORT_IGES
100
AcDbPolyline
 62
253
  6
CONTINUOUS
 90
7
 70
0
 10
9.1002001586
 20
-0.3655612084
 10
9.0843432636
 20
-0.4015115285
 10
9.0650754838
 20
-0.4350097705
 10
9.0427466738
 20
-0.46548132
 10
9.0177720462
 20
-0.4923943806
 10
8.9905837897
 20
-0.5153142562
 10
8.9889365843
 20
-0.5163702521
  0
LINE
  5
429
100
AcDbEntity
  8
IMPORT_IGES
100
AcDbLine
 62
253
  6
CONTINUOUS
 10
19.1185883389
 20
10.792692086
 11
19.1068096026
 21
10.7773902968
  0
LWPOLYLINE
  5
42A
100
AcDbEntity
  8
IMPORT_IGES
100
AcDbPolyline
 62
253
  6
CONTINUOUS
 90
3
 70
0
 10
19.1407106298
 20
10.8184063444
 10
19.1299069723
 20
10.806414611
 10
19.1185883389
 20
10.792692086
  0
LWPOLYLINE
  5
42B
100
AcDbEntity
  8
IMPORT_IGES
100
AcDbPolyline
 62
7
  6
CONTINUOUS
 90
12
 70
0
 10
10.3148711414
 20
-0.6541610582
 10
10.2836136555
 20
-0.6880013248
 10
10.2495964334
 20
-0.7192377626
 10
10.2132511783
 20
-0.7472684134
 10
10.1748277013
 20
-0.771563052
 10
10.1350670779
 20
-0.7916790412
 10
10.0952213357
 20
-0.807333129
 10
10.0559159472
 20
-0.8183870479
 10
10.0176617657
 20
-0.8246926608
 10
9.9815633913
 20
-0.8263137645
 10
9.948300569
 20
-0.8235384819
 10
9.930038087
 20
-0.8199549851
  0
LWPOLYLINE
  5
42C
100
AcDbEntity
  8
IMPORT_IGES
100
AcDbPolyline
 62
7
  6
CONTINUOUS
 90
7
 70
0
 10
23.1824940425
 20
3.3860160351
 10
23.2084134101
 20
3.4007925547
 10
23.2302372501
 20
3.4171377892
 10
23.2475950583
 20
3.4347677621
 10
23.2601943651
 20
3.453371851
 10
23.2678219972
 20
3.472629795
 10
23.2703447032
 20
3.4909986561
  0
LWPOLYLINE
  5
42D
100
AcDbEntity
  8
IMPORT_IGES
100
AcDbPolyline
 62
253
  6
CONTINUOUS
 90
6
 70
0
 10
24.2270877188
 20
3.8540293829
 10
24.2527495569
 20
3.8686431253
 10
24.2743312777
 20
3.884722491
 10
24.2915261193
 20
3.90198173
 10
24.304051686
 20
3.920022024
 10
24.3118680126
 20
3.9386299078
  0
LWPOLYLINE
  5
42E
100
AcDbEntity
  8
RACCORDO
100
AcDbPolyline
 62
7
  6
CONTINUOUS
 90
40
 70
0
 10
-5.7686038128
 20
-12.2399880851
 10
-5.7768157061
 20
-12.2445416057
 10
-5.7847704721
 20
-12.2493887395
 10
-5.7924637767
 20
-12.2545214942
 10
-5.799887147
 20
-12.2599348189
 10
-5.8070410265
 20
-12.2656179349
 10
-5.8139347908
 20
-12.2715541729
 10
-5.8205643403
 20
-12.2777352641
 10
-5.8269270529
 20
-12.2841536451
 10
-5.8330348557
 20
-12.2907936408
 10
-5.8388845554
 20
-12.2976470978
 10
-5.8444738652
 20
-12.3047068156
 10
-5.8498163576
 20
-12.311958747
 10
-5.8549096667
 20
-12.3193950893
 10
-5.8597517991
 20
-12.3270090759
 10
-5.8643570991
 20
-12.3347886037
 10
-5.8687239
 20
-12.3427263808
 10
-5.8728504784
 20
-12.3508161045
 10
-5.8767512269
 20
-12.3590476587
 10
-5.8804250332
 20
-12.3674143483
 10
-5.8838704287
 20
-12.3759103364
 10
-5.8871013286
 20
-12.3845273483
 10
-5.8901170386
 20
-12.3932593089
 10
-5.89291633
 20
-12.4021008333
 10
-5.8955123075
 20
-12.4110452371
 10
-5.8979045852
 20
-12.420087074
 10
-5.90009215
 20
-12.4292213595
 10
-5.9020871094
 20
-12.4384426226
 10
-5.9038892746
 20
-12.4477458793
 10
-5.9054978534
 20
-12.4571266295
 10
-5.9069239523
 20
-12.4665806026
 10
-5.9081675429
 20
-12.4761033986
 10
-5.9092279896
 20
-12.4856908044
 10
-5.9101153649
 20
-12.4953392511
 10
-5.9108297329
 20
-12.5050447638
 10
-5.9113706164
 20
-12.5148034747
 10
-5.9117471425
 20
-12.5246123353
 10
-5.9119594393
 20
-12.5344677409
 10
-5.9120071641
 20
-12.544366132
 10
-5.9079789951
 20
-12.9498144951
  0
LWPOLYLINE
  5
42F
100
AcDbEntity
  8
RACCORDO
100
AcDbPolyline
 62
7
  6
CONTINUOUS
 90
40
 70
0
 10
-4.9660497376
 20
-11.2663511879
 10
-4.9742625458
 20
-11.2708665719
 10
-4.9822189483
 20
-11.2756762713
 10
-4.9899145929
 20
-11.2807723044
 10
-4.9973409886
 20
-11.2861496276
 10
-5.0044985606
 20
-11.2917974733
 10
-5.0113966656
 20
-11.2976991875
 10
-5.0180311845
 20
-11.3038465096
 10
-5.0243994762
 20
-11.3102318792
 10
-5.0305134493
 20
-11.3168396263
 10
-5.0363698906
 20
-11.3236616026
 10
-5.0419664944
 20
-11.3306906077
 10
-5.047316816
 20
-11.3379125912
 10
-5.0524184701
 20
-11.3453197525
 10
-5.0572694447
 20
-11.3529053235
 10
-5.0618840691
 20
-11.3606571915
 10
-5.066260658
 20
-11.3685680645
 10
-5.0703974701
 20
-11.3766316368
 10
-5.0743088856
 20
-11.3848377791
 10
-5.0779937747
 20
-11.393179794
 10
-5.0814506518
 20
-11.4016518411
 10
-5.0846934221
 20
-11.4102456302
 10
-5.0877213752
 20
-11.4189550827
 10
-5.0905332663
 20
-11.4277748098
 10
-5.0931421925
 20
-11.4366981106
 10
-5.0955477529
 20
-11.4457195348
 10
-5.0977489196
 20
-11.4548340933
 10
-5.0997577939
 20
-11.4640362994
 10
-5.1015741734
 20
-11.4733211647
 10
-5.1031972522
 20
-11.4826841841
 10
-5.1046381323
 20
-11.492121072
 10
-5.1058967732
 20
-11.5016274234
 10
-5.1069725261
 20
-11.5111990205
 10
-5.1078754605
 20
-11.5208322805
 10
-5.1086056289
 20
-11.5305232236
 10
-5.1091625423
 20
-11.5402679773
 10
-5.1095553254
 20
-11.5500634807
 10
-5.1097840955
 20
-11.5599061241
 10
-5.1098484992
 20
-11.5697923433
 10
-5.1065318448
 20
-12.0474459838
  0
LINE
  5
430
100
AcDbEntity
  8
RACCORDO
100
AcDbLine
 62
7
  6
CONTINUOUS
 10
-4.269315563
 20
-10.9098108898
 11
-4.9631872527
 21
-11.2648720819
  0
LINE
  5
431
100
AcDbEntity
  8
RACCORDO
100
AcDbLine
 62
7
  6
CONTINUOUS
 10
-5.1075910763
 20
-11.9017104509
 11
-5.7644159301
 21
-12.2378144008
  0
LINE
  5
432
100
AcDbEntity
  8
IMPORT_IGES
100
AcDbLine
 62
253
  6
CONTINUOUS
 10
23.9675317577
 20
3.3133244068
 11
23.9671945331
 21
3.3131555825
  0
LINE
  5
433
100
AcDbEntity
  8
IMPORT_IGES
100
AcDbLine
 62
253
  6
CONTINUOUS
 10
23.0668896685
 20
4.486365923
 11
23.3432042424
 21
4.62452321
  0
LINE
  5
434
100
AcDbEntity
  8
RACCORDO
100
AcDbLine
 62
7
  6
CONTINUOUS
 10
-14.0653261731
 20
-14.2000561524
 11
-14.0066421582
 21
-14.170714145
  0
LINE
  5
435
100
AcDbEntity
  8
RACCORDO
100
AcDbLine
 62
253
  6
CONTINUOUS
 10
-13.9546125613
 20
-14.2077014927
 11
-13.9436400119
 21
-14.2022152181
  0
LINE
  5
436
100
AcDbEntity
  8
IMPORT_IGES
100
AcDbLine
 62
7
  6
CONTINUOUS
 10
-3.1390743694
 20
-9.7313292813
 11
-4.1278942067
 21
-10.2257392
  0
LINE
  5
437
100
AcDbEntity
  8
IMPORT_IGES
100
AcDbLine
 62
7
  6
CONTINUOUS
 10
10.3485058499
 20
-3.0309780612
 11
23.1824940425
 21
3.3860160351
  0
LINE
  5
438
100
AcDbEntity
  8
IMPORT_IGES
100
AcDbLine
 62
253
  6
CONTINUOUS
 10
23.2686770996
 20
3.3748240733
 11
24.2270877188
 21
3.8540293829
  0
LINE
  5
439
100
AcDbEntity
  8
IMPORT_IGES
100
AcDbLine
 62
7
  6
CONTINUOUS
 10
20.4319719756
 20
1.9240290353
 11
10.3486292758
 21
-3.1176423145
  0
LINE
  5
43A
100
AcDbEntity
  8
IMPORT_IGES
100
AcDbLine
 62
7
  6
CONTINUOUS
 10
23.9671945331
 20
3.3131555825
 11
23.2627358906
 21
2.9609262612
  0
LINE
  5
43B
100
AcDbEntity
  8
IMPORT_IGES
100
AcDbLine
 62
7
  6
CONTINUOUS
 10
-4.2157621724
 20
-10.8165174298
 11
-4.9233893356
 21
-11.1703310114
  0
LINE
  5
43C
100
AcDbEntity
  8
IMPORT_IGES
100
AcDbLine
 62
253
  6
CONTINUOUS
 10
23.2595277631
 20
2.7374301754
 11
23.3308444664
 21
2.773088527
  0
LINE
  5
43D
100
AcDbEntity
  8
IMPORT_IGES
100
AcDbLine
 62
7
  6
CONTINUOUS
 10
8.9889365843
 20
-0.5963552588
 11
9.932552987
 21
-0.820553892
  0
LINE
  5
43E
100
AcDbEntity
  8
IMPORT_IGES
100
AcDbLine
 62
253
  6
CONTINUOUS
 10
10.3148711333
 20
-0.6541610796
 11
9.1002002218
 21
-0.3655611768
  0
LINE
  5
43F
100
AcDbEntity
  8
RACCORDO
100
AcDbLine
 62
253
  6
CONTINUOUS
 10
0.7795396193
 20
3.0292651262
 11
-16.1335538924
 21
11.485811882
  0
LINE
  5
440
100
AcDbEntity
  8
IMPORT_IGES
100
AcDbLine
 62
7
  6
CONTINUOUS
 10
10.014241417
 20
-0.901720213
 11
9.7788892942
 21
-0.7840441516
  0
LINE
  5
441
100
AcDbEntity
  8
RACCORDO
100
AcDbLine
 62
253
  6
CONTINUOUS
 10
1.3709505131
 20
4.1360345238
 11
-15.557427577
 21
12.6002235688
  0
LINE
  5
442
100
AcDbEntity
  8
IMPORT_IGES
100
AcDbLine
 62
7
  6
CONTINUOUS
 10
9.8914149182
 20
-0.8107796884
 11
9.891854314
 21
-0.8405266615
  0
LINE
  5
443
100
AcDbEntity
  8
IMPORT_IGES
100
AcDbLine
 62
253
  6
CONTINUOUS
 10
9.1002002218
 20
-0.3655611768
 11
9.0446829216
 21
3.5576111443
  0
LINE
  5
444
100
AcDbEntity
  8
IMPORT_IGES
100
AcDbLine
 62
253
  6
CONTINUOUS
 10
10.3148711333
 20
-0.6541610796
 11
10.3485058499
 21
-3.0309780612
  0
LINE
  5
445
100
AcDbEntity
  8
RACCORDO
100
AcDbLine
 62
7
  6
CONTINUOUS
 10
8.9889365843
 20
-28.2647241743
 11
8.9889365843
 21
-21.7581760192
  0
LINE
  5
446
100
AcDbEntity
  8
DRAFT
100
AcDbLine
 62
7
  6
CONTINUOUS
 10
8.9889365843
 20
-21.7581760192
 11
8.9889365843
 21
6.3650003002
  0
LINE
  5
447
100
AcDbEntity
  8
RACCORDO
100
AcDbLine
 62
7
  6
CONTINUOUS
 10
8.9889365843
 20
6.3650003002
 11
8.9889365843
 21
12.8715484554
  0
LINE
  5
448
100
AcDbEntity
  8
IMPORT_IGES
100
AcDbLine
 62
7
  6
CONTINUOUS
 10
9.1657132796
 20
-1.3259842817
 11
9.1657132796
 21
-5.5099547872
  0
LINE
  5
449
100
AcDbEntity
  8
ASSI
100
AcDbLine
 62
7
  6
CONTINUOUS
 10
9.9788860779
 20
-20.8472458353
 11
9.9788860779
 21
-20.9898020169
  0
LINE
  5
44A
100
AcDbEntity
  8
IMPORT_IGES
100
AcDbLine
 62
7
  6
CONTINUOUS
 10
10.014241417
 20
-0.901720213
 11
10.014241417
 21
-5.0856907185
  0
LINE
  5
44B
100
AcDbEntity
  8
DRAFT
100
AcDbLine
 62
7
  6
CONTINUOUS
 10
10.1910181123
 20
15.5012943269
 11
10.1910181123
 21
16.1508133797
  0
LINE
  5
44C
100
AcDbEntity
  8
IMPORT_IGES
100
AcDbLine
 62
253
  6
CONTINUOUS
 10
10.2298053957
 20
7.7287385657
 11
10.2298053957
 21
7.4409892631
  0
LINE
  5
44D
100
AcDbEntity
  8
IMPORT_IGES
100
AcDbLine
 62
7
  6
CONTINUOUS
 10
10.3176733614
 20
7.8253071199
 11
10.3176733614
 21
7.5432013032
  0
LINE
  5
44E
100
AcDbEntity
  8
IMPORT_IGES
100
AcDbLine
 62
253
  6
CONTINUOUS
 10
9.1042302627
 20
-6.6667555057
 11
9.0392168777
 21
-11.195951115
  0
LINE
  5
44F
100
AcDbEntity
  8
IMPORT_IGES
100
AcDbLine
 62
253
  6
CONTINUOUS
 10
10.3486292758
 20
-3.1176423145
 11
10.3184075336
 21
-5.2230577174
  0
LINE
  5
450
100
AcDbEntity
  8
0
100
AcDbLine
 62
7
  6
CONTINUOUS
 10
9.0950026008
 20
-20.3910176365
 11
9.0946174639
 21
-20.4051115283
  0
LWPOLYLINE
  5
451
100
AcDbEntity
  8
IMPORT_IGES
100
AcDbPolyline
 62
253
  6
CONTINUOUS
 90
19
 70
0
 10
12.3765181011
 20
9.4271709072
 10
12.3743669457
 20
9.4111034925
 10
12.3680475916
 20
9.3950584821
 10
12.3578233253
 20
9.3797678889
 10
12.3434763587
 20
9.3652311881
 10
12.3252244798
 20
9.3514489045
 10
12.30398434
 20
9.3391546249
 10
12.279599433
 20
9.3284411974
 10
12.2522262651
 20
9.319215774
 10
12.2232510066
 20
9.311933397
 10
12.1926424794
 20
9.3066882012
 10
12.1604318616
 20
9.3033860517
 10
12.1280988578
 20
9.3021995871
 10
12.09557151
 20
9.3032252194
 10
12.0629217763
 20
9.3063665365
 10
12.0318452346
 20
9.3115069398
 10
12.0029070778
 20
9.3186075632
 10
11.9755421131
 20
9.3277072729
 10
11.9497503406
 20
9.3388060688
  0
LWPOLYLINE
  5
452
100
AcDbEntity
  8
IMPORT_IGES
100
AcDbPolyline
 62
253
  6
CONTINUOUS
 90
13
 70
0
 10
17.0384523421
 20
12.4073386035
 10
17.048260178
 20
12.4318614713
 10
17.0554444348
 20
12.4572156535
 10
17.0598596923
 20
12.4829607118
 10
17.0614084371
 20
12.5087997171
 10
17.0600063267
 20
12.5341100236
 10
17.0557624994
 20
12.5580009084
 10
17.048984449
 20
12.5798570201
 10
17.0398766118
 20
12.5996847122
 10
17.0284786268
 20
12.6175608869
 10
17.0148782961
 20
12.633278818
 10
16.9993505134
 20
12.6464623732
 10
16.9821412756
 20
12.6568883819
  0
LINE
  5
453
100
AcDbEntity
  8
IMPORT_IGES
100
AcDbLine
 62
7
  6
CONTINUOUS
 10
10.014241417
 20
-5.0856907185
 11
8.9889365843
 21
-6.3233431348
  0
LINE
  5
454
100
AcDbEntity
  8
IMPORT_IGES
100
AcDbLine
 62
253
  6
CONTINUOUS
 10
9.1042302627
 20
-6.6667555057
 11
10.3184075336
 21
-5.2230577174
  0
LWPOLYLINE
  5
455
100
AcDbEntity
  8
IMPORT_IGES
100
AcDbPolyline
 62
253
  6
CONTINUOUS
 90
3
 70
0
 10
24.0275424806
 20
3.3508327489
 10
23.9828018665
 20
3.3214241272
 10
23.9675317577
 20
3.3133244068
  0
LWPOLYLINE
  5
456
100
AcDbEntity
  8
IMPORT_IGES
100
AcDbPolyline
 62
253
  6
CONTINUOUS
 90
7
 70
0
 10
23.3308444664
 20
2.7730885271
 10
23.3481043258
 20
2.7831130239
 10
23.3626702006
 20
2.7945558011
 10
23.3742928647
 20
2.8072210697
 10
23.3827734511
 20
2.8208921234
 10
23.3879668546
 20
2.8353350467
 10
23.3893520788
 20
2.8432029817
  0
LWPOLYLINE
  5
457
100
AcDbEntity
  8
IMPORT_IGES
100
AcDbPolyline
 62
7
  6
CONTINUOUS
 90
11
 70
0
 10
23.9671945331
 20
3.3131555825
 10
24.015598555
 20
3.3404233436
 10
24.0618802723
 20
3.3729226439
 10
24.1055410621
 20
3.4105983099
 10
24.1460256642
 20
3.4532463157
 10
24.1829749287
 20
3.5007622658
 10
24.2161876906
 20
3.5532859192
 10
24.2453916659
 20
3.6110297767
 10
24.2699752326
 20
3.6735334644
 10
24.2894076371
 20
3.7399761069
 10
24.3034717805
 20
3.8099289329
  0
LINE
  5
458
100
AcDbEntity
  8
IMPORT_IGES
100
AcDbLine
 62
7
  6
CONTINUOUS
 10
9.1657132796
 20
-5.5099547872
 11
8.9889365843
 21
-5.5983431348
  0
LWPOLYLINE
  5
459
100
AcDbEntity
  8
IMPORT_IGES
100
AcDbPolyline
 62
253
  6
CONTINUOUS
 90
5
 70
0
 10
9.1042302627
 20
-6.6667555057
 10
9.0747559618
 20
-6.6796427697
 10
9.0421477432
 20
-6.6904255866
 10
9.0069592516
 20
-6.6989167406
 10
8.9889365843
 20
-6.7018506641
  0
LINE
  5
45A
100
AcDbEntity
  8
RACCORDO
100
AcDbLine
 62
7
  6
CONTINUOUS
 10
-13.234393088
 20
14.3135943976
 11
3.7765231464
 21
5.8081362804
  0
LWPOLYLINE
  5
45B
100
AcDbEntity
  8
RACCORDO
100
AcDbPolyline
 62
7
  6
CONTINUOUS
 90
21
 70
0
 10
-13.5843250126
 20
14.5680196712
 10
-13.5912386808
 20
14.5716181883
 10
-13.5978419595
 20
14.5753398798
 10
-13.6041348487
 20
14.5791847457
 10
-13.6101273493
 20
14.5831601003
 10
-13.6158094604
 20
14.5872586292
 10
-13.6211511793
 20
14.5914583896
 10
-13.6261485366
 20
14.5957576858
 10
-13.6308055016
 20
14.6001582134
 10
-13.6351039794
 20
14.6046431161
 10
-13.6390449031
 20
14.6092159218
 10
-13.6426273395
 20
14.6138731025
 10
-13.6458303943
 20
14.6185872184
 10
-13.6486499258
 20
14.6233546103
 10
-13.6510900758
 20
14.6281789372
 10
-13.6531423752
 20
14.6330437367
 10
-13.6548066103
 20
14.6379537344
 10
-13.6560829948
 20
14.6429042047
 10
-13.6569637011
 20
14.6478645082
 10
-13.6574462145
 20
14.6528298359
 10
-13.6575486365
 20
14.6564086891
  0
LWPOLYLINE
  5
45C
100
AcDbEntity
  8
IMPORT_IGES
100
AcDbPolyline
 62
253
  6
CONTINUOUS
 90
6
 70
0
 10
20.4132671894
 20
-6.1001641288
 10
20.430435717
 20
-6.1130322686
 10
20.4437613464
 20
-6.1238160116
 10
20.4530742321
 20
-6.1323650468
 10
20.4582571793
 20
-6.1385422458
 10
20.4592272167
 20
-6.142567263
  0
LWPOLYLINE
  5
45D
100
AcDbEntity
  8
IMPORT_IGES
100
AcDbPolyline
 62
7
  6
CONTINUOUS
 90
6
 70
0
 10
12.476524899
 20
9.3406711201
 10
12.4753071905
 20
9.3604568243
 10
12.4698998967
 20
9.3866575822
 10
12.4600125491
 20
9.4125358326
 10
12.4457274364
 20
9.4373287715
 10
12.4272846753
 20
9.4604868125
  0
LINE
  5
45E
100
AcDbEntity
  8
IMPORT_IGES
100
AcDbLine
 62
7
  6
CONTINUOUS
 10
12.6297445478
 20
10.1301777151
 11
12.6297445478
 21
9.9569726343
  0
LINE
  5
45F
100
AcDbEntity
  8
RACCORDO
100
AcDbLine
 62
7
  6
CONTINUOUS
 10
12.9005984393
 20
16.8570587617
 11
12.9005984393
 21
17.0692648002
  0
LINE
  5
460
100
AcDbEntity
  8
IMPORT_IGES
100
AcDbLine
 62
7
  6
CONTINUOUS
 10
13.1107072666
 20
9.8896963557
 11
13.1107072666
 21
9.7164912749
  0
LWPOLYLINE
  5
461
100
AcDbEntity
  8
IMPORT_IGES
100
AcDbPolyline
 62
253
  6
CONTINUOUS
 90
20
 70
0
 10
12.4765249355
 20
9.340599415
 10
12.476370561
 20
9.3353937462
 10
12.4715243454
 20
9.3111145329
 10
12.4600584235
 20
9.2875450613
 10
12.4425035081
 20
9.2653287142
 10
12.4195314703
 20
9.2448735721
 10
12.3917775438
 20
9.2264187476
 10
12.3600321145
 20
9.2102313255
 10
12.3252719578
 20
9.1965425518
 10
12.2880809043
 20
9.1853493456
 10
12.2485613676
 20
9.1765732132
 10
12.2072540026
 20
9.1703095751
 10
12.1648848256
 20
9.1666450595
 10
12.1217011464
 20
9.1656074475
 10
12.0783981462
 20
9.1672531411
 10
12.035608594
 20
9.1715980608
 10
11.9935300849
 20
9.1787171333
 10
11.9527811249
 20
9.1886754811
 10
11.914344445
 20
9.2014151823
 10
11.879052724
 20
9.216839559
  0
LWPOLYLINE
  5
462
100
AcDbEntity
  8
IMPORT_IGES
100
AcDbPolyline
 62
253
  6
CONTINUOUS
 90
10
 70
0
 10
11.8790384176
 20
9.2168467115
 10
11.8780255584
 20
9.2017344128
 10
11.8749917417
 20
9.1859462927
 10
11.8699894174
 20
9.1699337394
 10
11.8631461224
 20
9.1541973093
 10
11.8546261066
 20
9.1391827901
 10
11.8445991747
 20
9.125285987
 10
11.8333083611
 20
9.1129633154
 10
11.821093689
 20
9.1026947361
 10
11.8083278372
 20
9.0948887835
  0
LWPOLYLINE
  5
463
100
AcDbEntity
  8
IMPORT_IGES
100
AcDbPolyline
 62
253
  6
CONTINUOUS
 90
4
 70
0
 10
9.0392168777
 20
-11.195951115
 10
9.0222692738
 20
-11.2304824275
 10
9.0020416159
 20
-11.26259271
 10
8.9889365843
 20
-11.2790772253
  0
LWPOLYLINE
  5
464
100
AcDbEntity
  8
IMPORT_IGES
100
AcDbPolyline
 62
253
  6
CONTINUOUS
 90
7
 70
0
 10
9.8267182947
 20
-11.4169659903
 10
9.8097556353
 20
-11.4515242916
 10
9.7895162565
 20
-11.4836453777
 10
9.7663400156
 20
-11.5127898751
 10
9.7406160854
 20
-11.5384683927
 10
9.7127764192
 20
-11.5602497398
 10
9.6832884977
 20
-11.5777681666
  0
LINE
  5
465
100
AcDbEntity
  8
IMPORT_IGES
100
AcDbLine
 62
7
  6
CONTINUOUS
 10
21.8439664339
 20
-2.795391383
 11
23.1027991153
 21
-2.1659778219
  0
LINE
  5
466
100
AcDbEntity
  8
IMPORT_IGES
100
AcDbLine
 62
7
  6
CONTINUOUS
 10
22.6082803059
 20
-3.1433571599
 11
21.8868826037
 21
-3.504056011
  0
LWPOLYLINE
  5
467
100
AcDbEntity
  8
IMPORT_IGES
100
AcDbPolyline
 62
253
  6
CONTINUOUS
 90
10
 70
0
 10
11.953838915
 20
8.6215114877
 10
11.941566379
 20
8.619356857
 10
11.9286943256
 20
8.6161418781
 10
11.9155134789
 20
8.6119069508
 10
11.9024493462
 20
8.6067901304
 10
11.8896988227
 20
8.6008937705
 10
11.8772316065
 20
8.5942052031
 10
11.8652518712
 20
8.5868076096
 10
11.8541479084
 20
8.5789367951
 10
11.8441499027
 20
8.5707922125
  0
LWPOLYLINE
  5
468
100
AcDbEntity
  8
IMPORT_IGES
100
AcDbPolyline
 62
7
  6
CONTINUOUS
 90
5
 70
0
 10
23.4567356253
 20
6.8486008471
 10
23.4122292188
 20
6.8443854509
 10
23.3687045345
 20
6.8355795659
 10
23.3268253658
 20
6.8223749456
 10
23.2870081194
 20
6.8050223876
  0
LWPOLYLINE
  5
469
100
AcDbEntity
  8
IMPORT_IGES
100
AcDbPolyline
 62
253
  6
CONTINUOUS
 90
13
 70
0
 10
9.5261859569
 20
5.330239058
 10
9.5548935618
 20
5.3161241835
 10
9.5854774302
 20
5.3005142354
 10
9.6174135471
 20
5.2836833085
 10
9.6499922086
 20
5.2660166461
 10
9.682848919
 20
5.2477210257
 10
9.7159814299
 20
5.2287896201
 10
9.7490569069
 20
5.2093897993
 10
9.7812609711
 20
5.1899775322
 10
9.8118579761
 20
5.1709815071
 10
9.8402327276
 20
5.1527730899
 10
9.8658790441
 20
5.1356655689
 10
9.8882761456
 20
5.1199918254
  0
LINE
  5
46A
100
AcDbEntity
  8
RACCORDO
100
AcDbLine
 62
7
  6
CONTINUOUS
 10
-13.5843250126
 20
14.5680196712
 11
3.4193482899
 21
6.0661830199
  0
LINE
  5
46B
100
AcDbEntity
  8
IMPORT_IGES
100
AcDbLine
 62
253
  6
CONTINUOUS
 10
21.6710534691
 20
-2.868797197
 11
21.9100815321
 21
-2.988311149
  0
LINE
  5
46C
100
AcDbEntity
  8
IMPORT_IGES
100
AcDbLine
 62
253
  6
CONTINUOUS
 10
21.8002312264
 20
-2.4313336803
 11
21.6782087203
 21
-2.3703224272
  0
LINE
  5
46D
100
AcDbEntity
  8
IMPORT_IGES
100
AcDbLine
 62
253
  6
CONTINUOUS
 10
9.0621650363
 20
5.5622365632
 11
9.5261859908
 21
5.3302390417
  0
LWPOLYLINE
  5
46E
100
AcDbEntity
  8
IMPORT_IGES
100
AcDbPolyline
 62
253
  6
CONTINUOUS
 90
5
 70
0
 10
8.9889365843
 20
3.7644565723
 10
9.0080551654
 20
3.7525857073
 10
9.0364148384
 20
3.734384646
 10
9.0620192328
 20
3.7173030567
 10
9.084359794
 20
3.7016680817
  0
LWPOLYLINE
  5
46F
100
AcDbEntity
  8
IMPORT_IGES
100
AcDbPolyline
 62
253
  6
CONTINUOUS
 90
6
 70
0
 10
21.5240943131
 20
-4.2266675288
 10
21.54139657
 20
-4.2396394705
 10
21.5548350452
 20
-4.2505303708
 10
21.5641833965
 20
-4.259156796
 10
21.5692841716
 20
-4.2653734512
 10
21.5700454055
 20
-4.2690859315
  0
LWPOLYLINE
  5
470
100
AcDbEntity
  8
IMPORT_IGES
100
AcDbPolyline
 62
253
  6
CONTINUOUS
 90
6
 70
0
 10
9.2789579988
 20
5.8643839319
 10
9.2559668917
 20
5.894840777
 10
9.2311673116
 20
5.922358381
 10
9.2049835862
 20
5.9464659102
 10
9.1778637263
 20
5.9667508782
 10
9.1502717602
 20
5.9828662033
  0
LWPOLYLINE
  5
471
100
AcDbEntity
  8
IMPORT_IGES
100
AcDbPolyline
 62
253
  6
CONTINUOUS
 90
3
 70
0
 10
9.309770667
 20
5.8124147873
 10
9.2997472487
 20
5.831508971
 10
9.2789579988
 20
5.8643839319
  0
LINE
  5
472
100
AcDbEntity
  8
IMPORT_IGES
100
AcDbLine
 62
7
  6
CONTINUOUS
 10
14.5593533937
 20
11.1132332894
 11
14.5593533937
 21
11.2864383701
  0
LWPOLYLINE
  5
473
100
AcDbEntity
  8
IMPORT_IGES
100
AcDbPolyline
 62
253
  6
CONTINUOUS
 90
10
 70
0
 10
15.9092915198
 20
11.2319735477
 10
15.9082787872
 20
11.2168611856
 10
15.9052450655
 20
11.201073018
 10
15.9002428046
 20
11.185060433
 10
15.8933995307
 20
11.1693239924
 10
15.8848795043
 20
11.1543094784
 10
15.8748525619
 20
11.1404126806
 10
15.8635617483
 20
11.128090009
 10
15.8513470762
 20
11.1178214297
 10
15.8385812244
 20
11.1100154771
  0
LWPOLYLINE
  5
474
100
AcDbEntity
  8
IMPORT_IGES
100
AcDbPolyline
 62
253
  6
CONTINUOUS
 90
19
 70
0
 10
16.4067714884
 20
11.4422977591
 10
16.4046203713
 20
11.4262303347
 10
16.3983010512
 20
11.410185312
 10
16.3880768132
 20
11.3948947052
 10
16.3737298686
 20
11.3803579895
 10
16.3554780061
 20
11.3665756895
 10
16.334237877
 20
11.354281394
 10
16.3098529745
 20
11.343567951
 10
16.2824798054
 20
11.3343425123
 10
16.2535045415
 20
11.3270601216
 10
16.2228960046
 20
11.3218149138
 10
16.1906853728
 20
11.3185127539
 10
16.1583523531
 20
11.317326281
 10
16.1258249872
 20
11.3183519075
 10
16.0931752333
 20
11.321493221
 10
16.0620986723
 20
11.3266336231
 10
16.0331604978
 20
11.3337342476
 10
16.0057955164
 20
11.3428339607
 10
15.9800037278
 20
11.3539327624
  0
LWPOLYLINE
  5
475
100
AcDbEntity
  8
IMPORT_IGES
100
AcDbPolyline
 62
253
  6
CONTINUOUS
 90
10
 70
0
 10
19.8001797336
 20
10.4538981577
 10
19.8063911835
 20
10.4718166584
 10
19.8117665253
 20
10.4883770688
 10
19.816242903
 20
10.5034134529
 10
19.8197736831
 20
10.516824455
 10
19.8222877806
 20
10.5283850295
 10
19.8237376181
 20
10.5378377392
 10
19.8241343315
 20
10.5451130436
 10
19.8235001825
 20
10.5502394402
 10
19.8218596534
 20
10.5532154656
  0
LWPOLYLINE
  5
476
100
AcDbEntity
  8
IMPORT_IGES
100
AcDbPolyline
 62
253
  6
CONTINUOUS
 90
8
 70
0
 10
10.0213035554
 20
-11.5255246438
 10
10.0310998526
 20
-11.5117897132
 10
10.0395639859
 20
-11.4964338714
 10
10.0466343351
 20
-11.4795688499
 10
10.0522594142
 20
-11.4613174277
 10
10.0563982885
 20
-11.4418124376
 10
10.0590208513
 20
-11.4211957784
 10
10.0601080201
 20
-11.3996174634
  0
LWPOLYLINE
  5
477
100
AcDbEntity
  8
IMPORT_IGES
100
AcDbPolyline
 62
253
  6
CONTINUOUS
 90
3
 70
0
 10
9.9980087951
 20
-11.5477447
 10
10.0102463798
 20
-11.5375387705
 10
10.0213035554
 20
-11.5255246438
  0
LWPOLYLINE
  5
478
100
AcDbEntity
  8
IMPORT_IGES
100
AcDbPolyline
 62
7
  6
CONTINUOUS
 90
11
 70
0
 10
21.8886767812
 20
-3.5034929117
 10
21.9049406841
 20
-3.4940414056
 10
21.9376605674
 20
-3.46762504
 10
21.9636606008
 20
-3.4340542407
 10
21.9817028806
 20
-3.3930386599
 10
21.9917557501
 20
-3.3445449566
 10
21.9938508661
 20
-3.2886064717
 10
21.9868452955
 20
-3.225032881
 10
21.9703580609
 20
-3.1537607429
 10
21.9447701397
 20
-3.0748534989
 10
21.9100815321
 20
-2.988311149
  0
LWPOLYLINE
  5
479
100
AcDbEntity
  8
IMPORT_IGES
100
AcDbPolyline
 62
253
  6
CONTINUOUS
 90
7
 70
0
 10
21.5672611758
 20
-4.084355116
 10
21.5929223957
 20
-4.0697039831
 10
21.6145044666
 20
-4.0535125659
 10
21.6317005574
 20
-4.0360693792
 10
21.644228154
 20
-4.0177786952
 10
21.6520471925
 20
-3.9988580536
 10
21.6551302515
 20
-3.9780973092
  0
LWPOLYLINE
  5
47A
100
AcDbEntity
  8
IMPORT_IGES
100
AcDbPolyline
 62
7
  6
CONTINUOUS
 90
5
 70
0
 10
18.4990404383
 20
-7.4319754606
 10
18.5232288224
 20
-7.418739168
 10
18.5459329895
 20
-7.4065666518
 10
18.5667354354
 20
-7.3956674606
 10
18.5854573152
 20
-7.3861257614
  0
LINE
  5
47B
100
AcDbEntity
  8
IMPORT_IGES
100
AcDbLine
 62
253
  6
CONTINUOUS
 10
18.1538365673
 20
-7.6411066141
 11
18.1640165086
 21
-7.6355463841
  0
LINE
  5
47C
100
AcDbEntity
  8
IMPORT_IGES
100
AcDbLine
 62
253
  6
CONTINUOUS
 10
18.5375839985
 20
-7.4101689716
 11
18.5045859989
 21
-7.4281383301
  0
LINE
  5
47D
100
AcDbEntity
  8
IMPORT_IGES
100
AcDbLine
 62
253
  6
CONTINUOUS
 10
19.0084718667
 20
-7.1725435169
 11
18.9819317173
 21
-7.1867739576
  0
LWPOLYLINE
  5
47E
100
AcDbEntity
  8
IMPORT_IGES
100
AcDbPolyline
 62
7
  6
CONTINUOUS
 90
12
 70
0
 10
22.6079165129
 20
-3.143538927
 10
22.635460041
 20
-3.1291850065
 10
22.7285257468
 20
-3.0710662538
 10
22.8154795391
 20
-3.0008890795
 10
22.8950737165
 20
-2.9192288926
 10
22.9667260467
 20
-2.8262260207
 10
23.0298205384
 20
-2.7219654452
 10
23.0834131915
 20
-2.6071814134
 10
23.1267088664
 20
-2.4829142592
 10
23.159248882
 20
-2.3499078391
 10
23.1806994885
 20
-2.208581314
 10
23.190670541
 20
-2.059586517
  0
LINE
  5
47F
100
AcDbEntity
  8
IMPORT_IGES
100
AcDbLine
 62
253
  6
CONTINUOUS
 10
20.147606581
 20
-6.4729461379
 11
20.168191728
 21
-6.4623605187
  0
LWPOLYLINE
  5
480
100
AcDbEntity
  8
IMPORT_IGES
100
AcDbPolyline
 62
253
  6
CONTINUOUS
 90
3
 70
0
 10
18.5980841864
 20
-7.378697723
 10
18.5687500611
 20
-7.3936887692
 10
18.5375839985
 20
-7.4101689716
  0
LWPOLYLINE
  5
481
100
AcDbEntity
  8
IMPORT_IGES
100
AcDbPolyline
 62
7
  6
CONTINUOUS
 90
4
 70
0
 10
18.9714020746
 20
-7.1931857568
 10
18.9764459377
 20
-7.190622221
 10
19.0041495097
 20
-7.1751623363
 10
19.0079602342
 20
-7.1728559533
  0
LINE
  5
482
100
AcDbEntity
  8
IMPORT_IGES
100
AcDbLine
 62
7
  6
CONTINUOUS
 10
10.5504045239
 20
-11.4093823759
 11
10.3449036125
 21
-11.5122401112
  0
LINE
  5
483
100
AcDbEntity
  8
IMPORT_IGES
100
AcDbLine
 62
253
  6
CONTINUOUS
 10
10.0601080201
 20
-11.3996174634
 11
20.209714158
 21
-6.3248143944
  0
LINE
  5
484
100
AcDbEntity
  8
IMPORT_IGES
100
AcDbLine
 62
253
  6
CONTINUOUS
 10
20.1476041135
 20
-6.4729470408
 11
9.9586274552
 21
-11.5674877442
  0
LINE
  5
485
100
AcDbEntity
  8
IMPORT_IGES
100
AcDbLine
 62
253
  6
CONTINUOUS
 10
18.9819317173
 20
-7.1867739576
 11
18.5980841864
 21
-7.378697723
  0
LINE
  5
486
100
AcDbEntity
  8
IMPORT_IGES
100
AcDbLine
 62
7
  6
CONTINUOUS
 10
18.9713744362
 20
-7.1931849088
 11
18.5854573152
 21
-7.3861257614
  0
LINE
  5
487
100
AcDbEntity
  8
IMPORT_IGES
100
AcDbLine
 62
253
  6
CONTINUOUS
 10
18.1538379965
 20
-7.6411055982
 11
10.7510719404
 21
-11.3424886262
  0
LINE
  5
488
100
AcDbEntity
  8
IMPORT_IGES
100
AcDbLine
 62
7
  6
CONTINUOUS
 10
18.136087442
 20
-7.651679198
 11
10.7684167074
 21
-11.3355147369
  0
LWPOLYLINE
  5
489
100
AcDbEntity
  8
IMPORT_IGES
100
AcDbPolyline
 62
7
  6
CONTINUOUS
 90
9
 70
0
 10
10.3444262728
 20
-11.5125860607
 10
10.3133633654
 20
-11.5271158545
 10
10.2811958502
 20
-11.5401570716
 10
10.247923727
 20
-11.5517097119
 10
10.2135505935
 20
-11.5618162592
 10
10.1780728521
 20
-11.5704342298
 10
10.1414797098
 20
-11.5774361726
 10
10.1037626589
 20
-11.5828715872
 10
10.0889951361
 20
-11.5845430624
  0
LWPOLYLINE
  5
48A
100
AcDbEntity
  8
IMPORT_IGES
100
AcDbPolyline
 62
253
  6
CONTINUOUS
 90
5
 70
0
 10
9.6832884977
 20
-11.5777681666
 10
9.6526474787
 20
-11.5907295055
 10
9.6213678825
 20
-11.5989161114
 10
9.5899749528
 20
-11.6021905156
 10
9.5589958358
 20
-11.6004977348
  0
LWPOLYLINE
  5
48B
100
AcDbEntity
  8
IMPORT_IGES
100
AcDbPolyline
 62
253
  6
CONTINUOUS
 90
10
 70
0
 10
10.0601080201
 20
-11.3996174634
 10
10.033712149
 20
-11.4104655882
 10
10.0074221839
 20
-11.4189762305
 10
9.9812381249
 20
-11.4251493905
 10
9.9551466201
 20
-11.4288419285
 10
9.9291610214
 20
-11.430196984
 10
9.903321384
 20
-11.4296439761
 10
9.8776410596
 20
-11.4273260443
 10
9.8521066965
 20
-11.423100049
 10
9.8267182947
 20
-11.4169659903
  0
LWPOLYLINE
  5
48C
100
AcDbEntity
  8
IMPORT_IGES
100
AcDbPolyline
 62
253
  6
CONTINUOUS
 90
6
 70
0
 10
9.9586274552
 20
-11.5674877442
 10
9.9188088239
 20
-11.5837333744
 10
9.8789003963
 20
-11.5966566234
 10
9.8400172288
 20
-11.6062851226
 10
9.8016430671
 20
-11.6131209512
 10
9.7779933202
 20
-11.6160796877
  0
LINE
  5
48D
100
AcDbEntity
  8
IMPORT_IGES
100
AcDbLine
 62
7
  6
CONTINUOUS
 10
10.7510719404
 20
-11.3424886262
 11
10.5504045239
 21
-11.4093823759
  0
LWPOLYLINE
  5
48E
100
AcDbEntity
  8
IMPORT_IGES
100
AcDbPolyline
 62
253
  6
CONTINUOUS
 90
3
 70
0
 10
8.9889365843
 20
-11.2157175333
 10
9.0097165722
 20
-11.2088482931
 10
9.0392168777
 20
-11.195951115
  0
LINE
  5
48F
100
AcDbEntity
  8
IMPORT_IGES
100
AcDbLine
 62
7
  6
CONTINUOUS
 10
12.9090913527
 20
10.6733244479
 11
13.3991429072
 21
10.8095468397
  0
LINE
  5
490
100
AcDbEntity
  8
IMPORT_IGES
100
AcDbLine
 62
7
  6
CONTINUOUS
 10
13.6854266878
 20
11.062331836
 11
13.1200486675
 21
10.9051705221
  0
LINE
  5
491
100
AcDbEntity
  8
IMPORT_IGES
100
AcDbLine
 62
7
  6
CONTINUOUS
 10
13.4845280734
 20
11.3057402747
 11
14.1691803571
 21
11.4815248884
  0
LWPOLYLINE
  5
492
100
AcDbEntity
  8
IMPORT_IGES
100
AcDbPolyline
 62
7
  6
CONTINUOUS
 90
11
 70
0
 10
18.1110914511
 20
11.2774917389
 10
18.1565402328
 20
11.2852977625
 10
18.1793903303
 20
11.2889870046
 10
18.2019019539
 20
11.2920295761
 10
18.2240119273
 20
11.2943665179
 10
18.2458955656
 20
11.2963762266
 10
18.2675178346
 20
11.2979684152
 10
18.2887355524
 20
11.2990021028
 10
18.3095920431
 20
11.2998413385
 10
18.3300875769
 20
11.3004184357
 10
18.3696669229
 20
11.3009548652
  0
LWPOLYLINE
  5
493
100
AcDbEntity
  8
IMPORT_IGES
100
AcDbPolyline
 62
253
  6
CONTINUOUS
 90
10
 70
0
 10
22.8038990757
 20
6.1603039727
 10
22.7800882246
 20
6.1630507267
 10
22.7565699341
 20
6.1647608487
 10
22.733344204
 20
6.1654343387
 10
22.7103884965
 20
6.1650698035
 10
22.6877253495
 20
6.1636686363
 10
22.6654223771
 20
6.1612350175
 10
22.6435021174
 20
6.1577703406
 10
22.6219420324
 20
6.153273212
 10
22.6007421221
 20
6.1477436318
  0
LWPOLYLINE
  5
494
100
AcDbEntity
  8
RACCORDO
100
AcDbPolyline
 62
253
  6
CONTINUOUS
 90
20
 70
0
 10
-13.4100165054
 20
17.6979870737
 10
-13.4167379586
 20
17.7010808954
 10
-13.4234465632
 20
17.7038694365
 10
-13.4301329396
 20
17.7063487984
 10
-13.4367877391
 20
17.7085155144
 10
-13.4434016574
 20
17.7103665553
 10
-13.4499654471
 20
17.7118993328
 10
-13.456469931
 20
17.713111704
 10
-13.4629060148
 20
17.7140019739
 10
-13.4692646999
 20
17.7145688975
 10
-13.4755370958
 20
17.7148116823
 10
-13.4817144327
 20
17.7147299889
 10
-13.4877880739
 20
17.7143239315
 10
-13.4937495272
 20
17.7135940778
 10
-13.4995904578
 20
17.7125414482
 10
-13.5053026991
 20
17.7111675144
 10
-13.5108782644
 20
17.7094741976
 10
-13.5163093583
 20
17.7074638651
 10
-13.5215883872
 20
17.7051393278
 10
-13.5255105695
 20
17.7031557637
  0
LINE
  5
495
100
AcDbEntity
  8
IMPORT_IGES
100
AcDbLine
 62
253
  6
CONTINUOUS
 10
9.3121598811
 20
5.8140541656
 11
9.7754521859
 21
5.5824080053
  0
LINE
  5
496
100
AcDbEntity
  8
IMPORT_IGES
100
AcDbLine
 62
253
  6
CONTINUOUS
 10
8.9889365843
 20
6.063533788
 11
9.1502717569
 21
5.9828662017
  0
LINE
  5
497
100
AcDbEntity
  8
RACCORDO
100
AcDbLine
 62
253
  6
CONTINUOUS
 10
3.4193482899
 20
8.8925109221
 11
-13.5843250126
 21
17.3943475734
  0
LINE
  5
498
100
AcDbEntity
  8
RACCORDO
100
AcDbLine
 62
253
  6
CONTINUOUS
 10
3.5936567971
 20
9.1961504225
 11
-13.4100165054
 21
17.6979870737
  0
LINE
  5
499
100
AcDbEntity
  8
IMPORT_IGES
100
AcDbLine
 62
7
  6
CONTINUOUS
 10
21.8496612145
 20
1.0122339776
 11
21.3192354865
 21
1.2774468431
  0
LINE
  5
49A
100
AcDbEntity
  8
IMPORT_IGES
100
AcDbLine
 62
7
  6
CONTINUOUS
 10
20.3452460092
 20
1.9673920185
 11
20.4319719756
 21
1.9240290353
  0
LINE
  5
49B
100
AcDbEntity
  8
IMPORT_IGES
100
AcDbLine
 62
7
  6
CONTINUOUS
 10
10.501631663
 20
7.5477454072
 11
11.3931000711
 21
7.1020112032
  0
LWPOLYLINE
  5
49C
100
AcDbEntity
  8
RACCORDO
100
AcDbPolyline
 62
253
  6
CONTINUOUS
 90
43
 70
0
 10
3.5936567971
 20
9.1961504225
 10
3.6001510649
 20
9.1926363836
 10
3.6066397036
 20
9.1888263031
 10
3.6131136411
 20
9.184725508
 10
3.6195638258
 20
9.180339732
 10
3.6259812393
 20
9.1756751069
 10
3.6323569091
 20
9.1707381547
 10
3.638681921
 20
9.1655357781
 10
3.6449474316
 20
9.1600752506
 10
3.6511446808
 20
9.1543642071
 10
3.6572650039
 20
9.1484106325
 10
3.6632998436
 20
9.1422228507
 10
3.6692407624
 20
9.1358095134
 10
3.6750794539
 20
9.1291795872
 10
3.6808077546
 20
9.1223423419
 10
3.6864176556
 20
9.1153073371
 10
3.6919013133
 20
9.1080844088
 10
3.6972510607
 20
9.1006836557
 10
3.702459418
 20
9.0931154252
 10
3.7075191031
 20
9.0853902991
 10
3.7124230418
 20
9.0775190781
 10
3.7171643776
 20
9.0695127674
 10
3.7217364813
 20
9.0613825613
 10
3.7261329606
 20
9.0531398269
 10
3.7303476683
 20
9.0447960888
 10
3.7343747117
 20
9.0363630131
 10
3.7382084603
 20
9.0278523903
 10
3.741843554
 20
9.0192761197
 10
3.7452749103
 20
9.0106461923
 10
3.7484977317
 20
9.001974674
 10
3.7515075121
 20
8.993273689
 10
3.7543000434
 20
8.9845554026
 10
3.7568714212
 20
8.9758320043
 10
3.7592180503
 20
8.9671156909
 10
3.7613366497
 20
8.9584186491
 10
3.7632242574
 20
8.9497530388
 10
3.7648782341
 20
8.9411309757
 10
3.7662962674
 20
8.9325645149
 10
3.7674763746
 20
8.9240656337
 10
3.7684169057
 20
8.9156462149
 10
3.7691165457
 20
8.90731803
 10
3.7695743164
 20
8.8990927232
 10
3.7697895778
 20
8.8909817947
  0
LWPOLYLINE
  5
49D
100
AcDbEntity
  8
IMPORT_IGES
100
AcDbPolyline
 62
253
  6
CONTINUOUS
 90
13
 70
0
 10
9.7754521237
 20
5.582407991
 10
9.8024648911
 20
5.5667865657
 10
9.8289768702
 20
5.5472393733
 10
9.8545629569
 20
5.524109704
 10
9.8787103477
 20
5.4979219325
 10
9.9011642568
 20
5.4690161106
 10
9.9218495359
 20
5.4374221321
 10
9.9404648203
 20
5.4033613271
 10
9.9564714859
 20
5.3675454121
 10
9.9694369724
 20
5.3307498383
 10
9.9790675252
 20
5.2936703912
 10
9.9851621288
 20
5.2568937258
 10
9.9875519192
 20
5.2210840686
  0
LWPOLYLINE
  5
49E
100
AcDbEntity
  8
IMPORT_IGES
100
AcDbPolyline
 62
7
  6
CONTINUOUS
 90
8
 70
0
 10
9.8027273104
 20
6.306824392
 10
9.8303588785
 20
6.2907287297
 10
9.8575122493
 20
6.2704603997
 10
9.8837233943
 20
6.2463664832
 10
9.9085436622
 20
6.2188591482
 10
9.9315493656
 20
6.1884095468
 10
9.9523490413
 20
6.15553976
 10
9.9612469733
 20
6.1385977117
  0
LINE
  5
49F
100
AcDbEntity
  8
IMPORT_IGES
100
AcDbLine
 62
7
  6
CONTINUOUS
 10
10.1056544287
 20
7.3565500221
 11
10.0193595301
 21
7.4974545838
  0
LWPOLYLINE
  5
4A0
100
AcDbEntity
  8
IMPORT_IGES
100
AcDbPolyline
 62
7
  6
CONTINUOUS
 90
6
 70
0
 10
16.5067782863
 20
11.3557978129
 10
16.5055605828
 20
11.3755834762
 10
16.5001532955
 20
11.4017842363
 10
16.490265954
 20
11.4276624892
 10
16.475980847
 20
11.4524554309
 10
16.457538091
 20
11.4756134751
  0
LINE
  5
4A1
100
AcDbEntity
  8
IMPORT_IGES
100
AcDbLine
 62
7
  6
CONTINUOUS
 10
16.2292090939
 20
12.2574438808
 11
16.2282339031
 21
12.3188967258
  0
LINE
  5
4A2
100
AcDbEntity
  8
RACCORDO
100
AcDbLine
 62
7
  6
CONTINUOUS
 10
15.9365784484
 20
-24.516311998
 11
15.9365784484
 21
-22.1992719188
  0
LINE
  5
4A3
100
AcDbEntity
  8
RACCORDO
100
AcDbLine
 62
7
  6
CONTINUOUS
 10
15.9365784484
 20
14.0005899594
 11
15.9365784484
 21
16.3176300386
  0
LWPOLYLINE
  5
4A4
100
AcDbEntity
  8
IMPORT_IGES
100
AcDbPolyline
 62
253
  6
CONTINUOUS
 90
16
 70
0
 10
18.4001735135
 20
11.0112481514
 10
18.4016293284
 20
11.0368056091
 10
18.405924349
 20
11.0630531108
 10
18.4128952125
 20
11.0894406408
 10
18.4222443009
 20
11.1152293013
 10
18.4337703458
 20
11.1401467332
 10
18.4475553448
 20
11.1643232709
 10
18.4635241624
 20
11.1873628475
 10
18.4813497973
 20
11.2085552609
 10
18.5008275696
 20
11.2274417468
 10
18.5216866555
 20
11.2434972797
 10
18.5434095463
 20
11.2560674404
 10
18.5653361432
 20
11.2645850582
 10
18.5868739984
 20
11.2686925454
 10
18.6075161074
 20
11.2681609493
 10
18.6266948756
 20
11.262847162
  0
LWPOLYLINE
  5
4A5
100
AcDbEntity
  8
IMPORT_IGES
100
AcDbPolyline
 62
253
  6
CONTINUOUS
 90
9
 70
0
 10
21.5300996057
 20
9.492029743
 10
21.5442893271
 20
9.5276910729
 10
21.5547482096
 20
9.5643187436
 10
21.5613401588
 20
9.601309658
 10
21.5639904792
 20
9.637887286
 10
21.56273374
 20
9.6736507738
 10
21.557522199
 20
9.7085357884
 10
21.5482403637
 20
9.7421133495
 10
21.5349307694
 20
9.7735338801
  0
LINE
  5
4A6
100
AcDbEntity
  8
IMPORT_IGES
100
AcDbLine
 62
253
  6
CONTINUOUS
 10
20.1598427543
 20
-6.4627406953
 11
20.1476049244
 21
-6.472946746
  0
LINE
  5
4A7
100
AcDbEntity
  8
IMPORT_IGES
100
AcDbLine
 62
7
  6
CONTINUOUS
 10
20.1969191934
 20
-6.4435780641
 11
20.2390125878
 21
-6.4114330201
  0
LINE
  5
4A8
100
AcDbEntity
  8
IMPORT_IGES
100
AcDbLine
 62
7
  6
CONTINUOUS
 10
18.1640165086
 20
-7.6355463841
 11
18.1761765714
 21
-7.627553317
  0
LINE
  5
4A9
100
AcDbEntity
  8
IMPORT_IGES
100
AcDbLine
 62
7
  6
CONTINUOUS
 10
20.1686798123
 20
-6.4620754686
 11
20.1969191934
 21
-6.4435780641
  0
LINE
  5
4AA
100
AcDbEntity
  8
IMPORT_IGES
100
AcDbLine
 62
253
  6
CONTINUOUS
 10
18.194902912
 20
-7.6143369495
 11
18.1538379965
 21
-7.6411055982
  0
LINE
  5
4AB
100
AcDbEntity
  8
IMPORT_IGES
100
AcDbLine
 62
7
  6
CONTINUOUS
 10
18.1761765714
 20
-7.627553317
 11
18.2024029396
 21
-7.6104612918
  0
LINE
  5
4AC
100
AcDbEntity
  8
IMPORT_IGES
100
AcDbLine
 62
7
  6
CONTINUOUS
 10
18.2024029396
 20
-7.6104612918
 11
18.2288897081
 21
-7.5934339415
  0
LINE
  5
4AD
100
AcDbEntity
  8
IMPORT_IGES
100
AcDbLine
 62
253
  6
CONTINUOUS
 10
18.2355926866
 20
-7.5882674766
 11
18.194902912
 21
-7.6143369495
  0
LINE
  5
4AE
100
AcDbEntity
  8
IMPORT_IGES
100
AcDbLine
 62
7
  6
CONTINUOUS
 10
18.1570378058
 20
-7.6400015525
 11
18.1640665065
 21
-7.6355133843
  0
LWPOLYLINE
  5
4AF
100
AcDbEntity
  8
IMPORT_IGES
100
AcDbPolyline
 62
7
  6
CONTINUOUS
 90
11
 70
0
 10
18.2288897081
 20
-7.5934339415
 10
18.255731966
 20
-7.5764087684
 10
18.2827828148
 20
-7.5594751843
 10
18.3099405512
 20
-7.5426878993
 10
18.3373606913
 20
-7.5259503181
 10
18.3649677044
 20
-7.5093210367
 10
18.3925512852
 20
-7.4929292775
 10
18.4199695394
 20
-7.4768593451
 10
18.4470539859
 20
-7.4612279978
 10
18.4735537226
 20
-7.4461877949
 10
18.4990404383
 20
-7.4319754606
  0
LINE
  5
4B0
100
AcDbEntity
  8
IMPORT_IGES
100
AcDbLine
 62
7
  6
CONTINUOUS
 10
20.1709241543
 20
-6.4606904062
 11
19.0113462422
 21
-7.1707839566
  0
LINE
  5
4B1
100
AcDbEntity
  8
IMPORT_IGES
100
AcDbLine
 62
7
  6
CONTINUOUS
 10
19.008859404
 20
-7.1723068068
 11
19.0084718667
 21
-7.1725435169
  0
LWPOLYLINE
  5
4B2
100
AcDbEntity
  8
IMPORT_IGES
100
AcDbPolyline
 62
253
  6
CONTINUOUS
 90
3
 70
0
 10
18.1538379965
 20
-7.6411055982
 10
18.1383302942
 20
-7.6505287377
 10
18.136087442
 20
-7.651679198
  0
LINE
  5
4B3
100
AcDbEntity
  8
IMPORT_IGES
100
AcDbLine
 62
253
  6
CONTINUOUS
 10
20.1476041135
 20
-6.4729470408
 11
18.9713744361
 21
-7.1931849089
  0
LINE
  5
4B4
100
AcDbEntity
  8
IMPORT_IGES
100
AcDbLine
 62
253
  6
CONTINUOUS
 10
18.5980869603
 20
-7.3786963361
 11
18.5874976556
 21
-7.385123291
  0
LWPOLYLINE
  5
4B5
100
AcDbEntity
  8
IMPORT_IGES
100
AcDbPolyline
 62
253
  6
CONTINUOUS
 90
8
 70
0
 10
18.5045859989
 20
-7.4281383301
 10
18.469467914
 20
-7.4477571997
 10
18.432517892
 20
-7.4688652254
 10
18.3946003772
 20
-7.4909813427
 10
18.3558060671
 20
-7.5140481686
 10
18.3160442642
 20
-7.5381230862
 10
18.2759073205
 20
-7.5628971795
 10
18.2355926866
 20
-7.5882674766
  0
LINE
  5
4B6
100
AcDbEntity
  8
IMPORT_IGES
100
AcDbLine
 62
7
  6
CONTINUOUS
 10
18.1362370081
 20
-7.6516043886
 11
18.1570378058
 21
-7.6400015525
  0
LINE
  5
4B7
100
AcDbEntity
  8
RACCORDO
100
AcDbLine
 62
253
  6
CONTINUOUS
 10
-1.6399820193
 20
-20.3540442144
 11
-1.6509545686
 21
-20.3595304891
  0
LINE
  5
4B8
100
AcDbEntity
  8
IMPORT_IGES
100
AcDbLine
 62
7
  6
CONTINUOUS
 10
18.3696669229
 20
11.3009548652
 11
18.3887139761
 21
11.3012290177
  0
LWPOLYLINE
  5
4B9
100
AcDbEntity
  8
IMPORT_IGES
100
AcDbPolyline
 62
7
  6
CONTINUOUS
 90
13
 70
0
 10
18.3887139761
 20
11.3012290177
 10
18.4424436521
 20
11.3016697331
 10
18.4590820754
 20
11.301614301
 10
18.4750775855
 20
11.3013860061
 10
18.4903091803
 20
11.3009595299
 10
18.5047400978
 20
11.3002487115
 10
18.5184588071
 20
11.2991651301
 10
18.5313060953
 20
11.2977421479
 10
18.5431830333
 20
11.2959787565
 10
18.5543001662
 20
11.2937496487
 10
18.5646709037
 20
11.2910561704
 10
18.5740753143
 20
11.2880318737
 10
18.582409598
 20
11.2847611907
  0
LWPOLYLINE
  5
4BA
100
AcDbEntity
  8
RACCORDO
100
AcDbPolyline
 62
7
  6
CONTINUOUS
 90
16
 70
0
 10
6.8496809413
 20
10.823031911
 10
6.8675778737
 20
10.8231147653
 10
6.8853984259
 20
10.8228611066
 10
6.9031251886
 20
10.8223116903
 10
6.920739694
 20
10.8215173558
 10
6.9382325999
 20
10.8205065724
 10
6.9556026785
 20
10.8192801946
 10
6.9728401407
 20
10.81786723
 10
6.9899365997
 20
10.816300729
 10
7.0068934964
 20
10.8145782891
 10
7.0237046877
 20
10.8127232405
 10
7.0403644111
 20
10.8107622818
 10
7.0568743624
 20
10.8086914259
 10
7.0732304799
 20
10.8065298203
 10
7.0894290149
 20
10.8042992954
 10
7.1054713661
 20
10.8019951997
  0
LWPOLYLINE
  5
4BB
100
AcDbEntity
  8
IMPORT_IGES
100
AcDbPolyline
 62
7
  6
CONTINUOUS
 90
6
 70
0
 10
19.1032849455
 20
10.8712971504
 10
19.0688545816
 20
10.8725026832
 10
19.0340670342
 20
10.8694489078
 10
18.9995222183
 20
10.8620461232
 10
18.9659792929
 20
10.8504514611
 10
18.9468207093
 20
10.8417180041
  0
LWPOLYLINE
  5
4BC
100
AcDbEntity
  8
RACCORDO
100
AcDbPolyline
 62
7
  6
CONTINUOUS
 90
4
 70
0
 10
7.4396572433
 20
10.7465912778
 10
7.4512895439
 20
10.7448934314
 10
7.4627246916
 20
10.7432882548
 10
7.473963713
 20
10.7417826684
  0
LINE
  5
4BD
100
AcDbEntity
  8
RACCORDO
100
AcDbLine
 62
7
  6
CONTINUOUS
 10
7.1054713661
 20
10.8019951997
 11
7.1370774745
 21
10.7972323825
  0
LINE
  5
4BE
100
AcDbEntity
  8
RACCORDO
100
AcDbLine
 62
7
  6
CONTINUOUS
 10
7.4157923819
 20
10.7502298728
 11
7.4396572433
 21
10.7465912778
  0
LINE
  5
4BF
100
AcDbEntity
  8
RACCORDO
100
AcDbLine
 62
7
  6
CONTINUOUS
 10
7.1370774745
 20
10.7972323825
 11
7.168037098
 21
10.7923113681
  0
LINE
  5
4C0
100
AcDbEntity
  8
RACCORDO
100
AcDbLine
 62
7
  6
CONTINUOUS
 10
7.3911572413
 20
10.7541799712
 11
7.4157923819
 21
10.7502298728
  0
LINE
  5
4C1
100
AcDbEntity
  8
RACCORDO
100
AcDbLine
 62
7
  6
CONTINUOUS
 10
7.168037098
 20
10.7923113681
 11
7.198339291
 21
10.7873098898
  0
LINE
  5
4C2
100
AcDbEntity
  8
RACCORDO
100
AcDbLine
 62
7
  6
CONTINUOUS
 10
7.3657637981
 20
10.7584001059
 11
7.3911572413
 21
10.7541799712
  0
LINE
  5
4C3
100
AcDbEntity
  8
RACCORDO
100
AcDbLine
 62
7
  6
CONTINUOUS
 10
7.198339291
 20
10.7873098898
 11
7.2425390019
 21
10.7797670132
  0
LINE
  5
4C4
100
AcDbEntity
  8
RACCORDO
100
AcDbLine
 62
7
  6
CONTINUOUS
 10
7.3127739708
 20
10.7675172708
 11
7.3657637981
 21
10.7584001059
  0
LINE
  5
4C5
100
AcDbEntity
  8
RACCORDO
100
AcDbLine
 62
7
  6
CONTINUOUS
 10
7.2425390019
 20
10.7797670132
 11
7.3127739708
 21
10.7675172708
  0
LWPOLYLINE
  5
4C6
100
AcDbEntity
  8
IMPORT_IGES
100
AcDbPolyline
 62
253
  6
CONTINUOUS
 90
27
 70
0
 10
11.8083282496
 20
9.0948895001
 10
11.8487640923
 20
9.077134354
 10
11.8916588362
 20
9.062143712
 10
11.9370124812
 20
9.049917574
 10
11.9855336525
 20
9.0403868759
 10
12.0365137249
 20
9.0336206819
 10
12.0878268227
 20
9.0298261848
 10
12.1393289041
 20
9.0290980624
 10
12.1911640109
 20
9.0313416369
 10
12.2416383934
 20
9.0364800678
 10
12.2908726154
 20
9.0446285109
 10
12.3387461131
 20
9.0556718104
 10
12.3832034463
 20
9.0691876583
 10
12.4240595954
 20
9.0852830701
 10
12.46149958
 20
9.1038510304
 10
12.4940230178
 20
9.1241481844
 10
12.5214211048
 20
9.1462461526
 10
12.543902645
 20
9.1700733145
 10
12.5605936691
 20
9.1946714551
 10
12.5712917937
 20
9.2200226168
 10
12.5761994021
 20
9.2461447571
 10
12.5750496751
 20
9.2721335335
 10
12.5675941931
 20
9.2980716189
 10
12.5540813757
 20
9.3238763405
 10
12.5349896627
 20
9.3483953368
 10
12.5104785343
 20
9.3712444875
 10
12.4803885103
 20
9.392807913
  0
LINE
  5
4C7
100
AcDbEntity
  8
IMPORT_IGES
100
AcDbLine
 62
253
  6
CONTINUOUS
 10
11.2723901096
 20
8.8745588621
 11
11.7877280324
 21
8.6285555612
  0
LINE
  5
4C8
100
AcDbEntity
  8
IMPORT_IGES
100
AcDbLine
 62
7
  6
CONTINUOUS
 10
11.8683678394
 20
7.0921581447
 11
10.3440634585
 21
7.8543103352
  0
LINE
  5
4C9
100
AcDbEntity
  8
IMPORT_IGES
100
AcDbLine
 62
253
  6
CONTINUOUS
 10
10.4211595847
 20
7.9390404343
 11
11.9916460017
 21
7.1537972258
  0
LINE
  5
4CA
100
AcDbEntity
  8
IMPORT_IGES
100
AcDbLine
 62
253
  6
CONTINUOUS
 10
10.4859429584
 20
8.0102385859
 11
12.0952358402
 21
7.2055921451
  0
LINE
  5
4CB
100
AcDbEntity
  8
IMPORT_IGES
100
AcDbLine
 62
253
  6
CONTINUOUS
 10
10.5849562441
 20
8.1190560573
 11
12.1932713861
 21
7.3148984863
  0
LINE
  5
4CC
100
AcDbEntity
  8
DRAFT
100
AcDbLine
 62
7
  6
CONTINUOUS
 10
-4.0925388677
 20
16.6737164456
 11
1.4228940256
 21
13.9159999989
  0
LINE
  5
4CD
100
AcDbEntity
  8
ASSI
100
AcDbLine
 62
7
  6
CONTINUOUS
 10
-0.0620302149
 20
14.6992033643
 11
-2.1833505585
 21
15.759863536
  0
LINE
  5
4CE
100
AcDbEntity
  8
RACCORDO
100
AcDbLine
 62
7
  6
CONTINUOUS
 10
1.4740330478
 20
13.9419940894
 11
0.7864979225
 21
14.2857616521
  0
LINE
  5
4CF
100
AcDbEntity
  8
RACCORDO
100
AcDbLine
 62
7
  6
CONTINUOUS
 10
-2.1725282019
 20
15.7652747143
 11
-3.3827202806
 21
16.3703707536
  0
LINE
  5
4D0
100
AcDbEntity
  8
ASSI
100
AcDbLine
 62
7
  6
CONTINUOUS
 10
0.2208124976
 20
14.8406247205
 11
-1.900507846
 21
15.9012848923
  0
LINE
  5
4D1
100
AcDbEntity
  8
IMPORT_IGES
100
AcDbLine
 62
253
  6
CONTINUOUS
 10
11.8083282496
 20
9.0948895001
 11
11.5777647069
 21
9.2101713135
  0
LINE
  5
4D2
100
AcDbEntity
  8
IMPORT_IGES
100
AcDbLine
 62
253
  6
CONTINUOUS
 10
11.6761451915
 20
9.3182933246
 11
11.8790384176
 21
9.2168467115
  0
LINE
  5
4D3
100
AcDbEntity
  8
IMPORT_IGES
100
AcDbLine
 62
253
  6
CONTINUOUS
 10
11.7745275891
 20
9.4264174381
 11
11.9497503406
 21
9.3388060688
  0
LINE
  5
4D4
100
AcDbEntity
  8
IMPORT_IGES
100
AcDbLine
 62
7
  6
CONTINUOUS
 10
12.167562222
 20
7.241755336
 11
12.6357978351
 21
7.0048149554
  0
LINE
  5
4D5
100
AcDbEntity
  8
IMPORT_IGES
100
AcDbLine
 62
253
  6
CONTINUOUS
 10
11.859528212
 20
8.7152135928
 11
11.3609461941
 21
8.971883672
  0
LWPOLYLINE
  5
4D6
100
AcDbEntity
  8
RACCORDO
100
AcDbPolyline
 62
253
  6
CONTINUOUS
 90
40
 70
0
 10
-8.9001104975
 20
20.5117313171
 10
-8.8931165453
 20
20.5079345298
 10
-8.8861289308
 20
20.5037954151
 10
-8.8791589833
 20
20.4993206842
 10
-8.8722180039
 20
20.4945175922
 10
-8.8653172465
 20
20.4893939267
 10
-8.8584678997
 20
20.4839579951
 10
-8.8516810689
 20
20.4782186112
 10
-8.8449677582
 20
20.4721850805
 10
-8.8383388523
 20
20.4658671858
 10
-8.8318050991
 20
20.4592751707
 10
-8.8253770924
 20
20.4524197233
 10
-8.8190652542
 20
20.4453119588
 10
-8.8128798186
 20
20.4379634017
 10
-8.8068308143
 20
20.4303859666
 10
-8.8009280492
 20
20.4225919395
 10
-8.7951810937
 20
20.4145939574
 10
-8.7895992659
 20
20.406404988
 10
-8.784191616
 20
20.3980383086
 10
-8.7789669118
 20
20.389507485
 10
-8.7739336245
 20
20.3808263485
 10
-8.769099915
 20
20.3720089748
 10
-8.7644736205
 20
20.3630696599
 10
-8.760062242
 20
20.354022898
 10
-8.755872932
 20
20.3448833572
 10
-8.7519124829
 20
20.3356658561
 10
-8.7481873161
 20
20.3263853397
 10
-8.7447034714
 20
20.3170568553
 10
-8.7414665976
 20
20.3076955278
 10
-8.7384819427
 20
20.2983165354
 10
-8.7357543461
 20
20.288935085
 10
-8.7332882302
 20
20.2795663874
 10
-8.7310875934
 20
20.2702256328
 10
-8.7291560039
 20
20.2609279661
 10
-8.7274965935
 20
20.2516884623
 10
-8.7261120527
 20
20.242522102
 10
-8.7250046263
 20
20.2334437474
 10
-8.7241761099
 20
20.2244681179
 10
-8.7236278469
 20
20.2156097664
 10
-8.7233607261
 20
20.2068830555
  0
LWPOLYLINE
  5
4D7
100
AcDbEntity
  8
IMPORT_IGES
100
AcDbPolyline
 62
253
  6
CONTINUOUS
 90
10
 70
0
 10
11.8595309344
 20
8.7152122315
 10
11.8715574807
 20
8.7084703921
 10
11.8832966389
 20
8.7007405073
 10
11.8947067539
 20
8.6920458166
 10
11.9057511409
 20
8.6824059787
 10
11.9163833683
 20
8.6718556632
 10
11.9265484767
 20
8.6604488467
 10
11.9362028446
 20
8.6482314158
 10
11.9453132388
 20
8.6352366429
 10
11.9538428318
 20
8.6215067677
  0
LINE
  5
4D8
100
AcDbEntity
  8
IMPORT_IGES
100
AcDbLine
 62
7
  6
CONTINUOUS
 10
21.6408616599
 20
1.0430657898
 11
20.4319719756
 21
1.9240290353
  0
LINE
  5
4D9
100
AcDbEntity
  8
IMPORT_IGES
100
AcDbLine
 62
7
  6
CONTINUOUS
 10
20.4601328209
 20
2.0248354243
 11
21.8496612145
 21
1.0122339776
  0
LWPOLYLINE
  5
4DA
100
AcDbEntity
  8
IMPORT_IGES
100
AcDbPolyline
 62
7
  6
CONTINUOUS
 90
10
 70
0
 10
12.7396523333
 20
6.9237008707
 10
12.7273667576
 20
6.9356235742
 10
12.7150576603
 20
6.9468575691
 10
12.7027727141
 20
6.9573869197
 10
12.6904203876
 20
6.9672577426
 10
12.6781787872
 20
6.9763943952
 10
12.6665096274
 20
6.9846553831
 10
12.6556007129
 20
6.9920528115
 10
12.64535237
 20
6.9986950035
 10
12.6357968389
 20
7.0046413426
  0
LWPOLYLINE
  5
4DB
100
AcDbEntity
  8
IMPORT_IGES
100
AcDbPolyline
 62
253
  6
CONTINUOUS
 90
4
 70
0
 10
12.3576990886
 20
9.474775565
 10
12.3679970038
 20
9.4594035211
 10
12.3743416518
 20
9.4432760119
 10
12.3765181011
 20
9.4271709072
  0
LWPOLYLINE
  5
4DC
100
AcDbEntity
  8
IMPORT_IGES
100
AcDbPolyline
 62
253
  6
CONTINUOUS
 90
10
 70
0
 10
11.8441498939
 20
8.5707922161
 10
11.8399414516
 20
8.5786342394
 10
11.8352236807
 20
8.5861731146
 10
11.8299965813
 20
8.5934088417
 10
11.8242679331
 20
8.6004118477
 10
11.8180299563
 20
8.6071117056
 10
11.8112593118
 20
8.613297134
 10
11.8039482198
 20
8.6188977058
 10
11.7961044599
 20
8.6239838482
 10
11.7877280324
 20
8.6285555612
  0
LWPOLYLINE
  5
4DD
100
AcDbEntity
  8
IMPORT_IGES
100
AcDbPolyline
 62
7
  6
CONTINUOUS
 90
10
 70
0
 10
11.8441498939
 20
8.5707922161
 10
11.9326764585
 20
8.3970526763
 10
12.0209145233
 20
8.2232601458
 10
12.1088640881
 20
8.0494146245
 10
12.1963277958
 20
7.8755369101
 10
12.2835030036
 20
7.7016062049
 10
12.3709817837
 20
7.5275601163
 10
12.4589614937
 20
7.3533778465
 10
12.5472447761
 20
7.1790801933
 10
12.6358316308
 20
7.0046671565
  0
LINE
  5
4DE
100
AcDbEntity
  8
IMPORT_IGES
100
AcDbLine
 62
253
  6
CONTINUOUS
 10
12.4867288345
 20
7.4709148671
 11
12.223996257
 21
8.0366693326
  0
LWPOLYLINE
  5
4DF
100
AcDbEntity
  8
IMPORT_IGES
100
AcDbPolyline
 62
253
  6
CONTINUOUS
 90
3
 70
0
 10
12.223996257
 20
8.0366693326
 10
12.0447163377
 20
8.4244432508
 10
11.9538389178
 20
8.6215114923
  0
LWPOLYLINE
  5
4E0
100
AcDbEntity
  8
IMPORT_IGES
100
AcDbPolyline
 62
253
  6
CONTINUOUS
 90
3
 70
0
 10
12.7396717884
 20
6.923677393
 10
12.6564452064
 20
7.1040324409
 10
12.4867288345
 20
7.4709148671
  0
LINE
  5
4E1
100
AcDbEntity
  8
IMPORT_IGES
100
AcDbLine
 62
253
  6
CONTINUOUS
 10
18.4174324872
 20
10.7050349521
 11
18.4001676971
 21
11.011250652
  0
LINE
  5
4E2
100
AcDbEntity
  8
IMPORT_IGES
100
AcDbLine
 62
253
  6
CONTINUOUS
 10
18.1193216983
 20
11.0067510454
 11
18.1110929662
 21
11.2774998017
  0
LWPOLYLINE
  5
4E3
100
AcDbEntity
  8
IMPORT_IGES
100
AcDbPolyline
 62
7
  6
CONTINUOUS
 90
6
 70
0
 10
18.7542440919
 20
11.258940276
 10
18.7551746754
 20
11.2762524841
 10
18.7583026666
 20
11.2939214252
 10
18.7635936534
 20
11.3116634543
 10
18.7709886111
 20
11.329149683
 10
18.7803843812
 20
11.3460721507
  0
LWPOLYLINE
  5
4E4
100
AcDbEntity
  8
IMPORT_IGES
100
AcDbPolyline
 62
7
  6
CONTINUOUS
 90
13
 70
0
 10
22.5027096942
 20
5.6968022214
 10
22.51247133
 20
5.7224019374
 10
22.5288467953
 20
5.7687964096
 10
22.5434251831
 20
5.8136401426
 10
22.556181612
 20
5.8569298535
 10
22.5671409634
 20
5.8986688252
 10
22.5764815113
 20
5.9388506323
 10
22.5841939524
 20
5.9774540414
 10
22.5902875901
 20
6.0145002858
 10
22.5949686075
 20
6.0500466396
 10
22.5983057325
 20
6.0841121943
 10
22.6002302374
 20
6.1166778583
 10
22.6007421221
 20
6.1477436318
  0
LINE
  5
4E5
100
AcDbEntity
  8
IMPORT_IGES
100
AcDbLine
 62
253
  6
CONTINUOUS
 10
21.5240943131
 20
-4.2266675288
 11
20.4132671894
 21
-6.1001641288
  0
LWPOLYLINE
  5
4E6
100
AcDbEntity
  8
IMPORT_IGES
100
AcDbPolyline
 62
253
  6
CONTINUOUS
 90
3
 70
0
 10
20.4132671894
 20
-6.1001641288
 10
20.3927749635
 20
-6.1335579929
 10
20.371238386
 20
-6.1654377504
  0
LINE
  5
4E7
100
AcDbEntity
  8
IMPORT_IGES
100
AcDbLine
 62
7
  6
CONTINUOUS
 10
20.4272770793
 20
-6.1937381401
 11
20.4592291317
 21
-6.1425664452
  0
LWPOLYLINE
  5
4E8
100
AcDbEntity
  8
IMPORT_IGES
100
AcDbPolyline
 62
253
  6
CONTINUOUS
 90
8
 70
0
 10
20.371238386
 20
-6.1654377504
 10
20.3486574569
 20
-6.1958034011
 10
20.3243479667
 20
-6.225447044
 10
20.2989941249
 20
-6.2535765802
 10
20.2746485603
 20
-6.2778157131
 10
20.2519954824
 20
-6.2973723436
 10
20.2303506816
 20
-6.3130385707
 10
20.209714158
 20
-6.3248143944
  0
LWPOLYLINE
  5
4E9
100
AcDbEntity
  8
IMPORT_IGES
100
AcDbPolyline
 62
7
  6
CONTINUOUS
 90
5
 70
0
 10
20.2792185704
 20
-6.3753108357
 10
20.3181526174
 20
-6.3352608362
 10
20.3560781056
 20
-6.2912386707
 10
20.3924949372
 20
-6.2439657937
 10
20.4272770793
 20
-6.1937381401
  0
LINE
  5
4EA
100
AcDbEntity
  8
IMPORT_IGES
100
AcDbLine
 62
7
  6
CONTINUOUS
 10
20.2390125878
 20
-6.4114330201
 11
20.2792185704
 21
-6.3753108357
  0
LINE
  5
4EB
100
AcDbEntity
  8
RACCORDO
100
AcDbLine
 62
253
  6
CONTINUOUS
 10
-1.4127653191
 20
-20.6337189106
 11
-1.4693823415
 21
-20.6620274217
  0
LWPOLYLINE
  5
4EC
100
AcDbEntity
  8
IMPORT_IGES
100
AcDbPolyline
 62
253
  6
CONTINUOUS
 90
7
 70
0
 10
19.1908557506
 20
10.8476171678
 10
19.1846289354
 20
10.8482243056
 10
19.1775349809
 20
10.846539924
 10
19.169578596
 20
10.8426278471
 10
19.1607103861
 20
10.8365918566
 10
19.1510139039
 20
10.8285025527
 10
19.1407106298
 20
10.8184063444
  0
LINE
  5
4ED
100
AcDbEntity
  8
IMPORT_IGES
100
AcDbLine
 62
7
  6
CONTINUOUS
 10
19.1370939826
 20
10.865881722
 11
19.1032849455
 21
10.8712971504
  0
LWPOLYLINE
  5
4EE
100
AcDbEntity
  8
IMPORT_IGES
100
AcDbPolyline
 62
253
  6
CONTINUOUS
 90
3
 70
0
 10
23.6598109014
 20
6.806525091
 10
23.6823269485
 20
6.7997797072
 10
23.6893654677
 20
6.7965691824
  0
LWPOLYLINE
  5
4EF
100
AcDbEntity
  8
IMPORT_IGES
100
AcDbPolyline
 62
7
  6
CONTINUOUS
 90
5
 70
0
 10
23.6425187795
 20
6.8172155979
 10
23.5952730554
 20
6.8326736281
 10
23.5482064018
 20
6.8429501335
 10
23.501975431
 20
6.8481722275
 10
23.4567356253
 20
6.8486008471
  0
LWPOLYLINE
  5
4F0
100
AcDbEntity
  8
IMPORT_IGES
100
AcDbPolyline
 62
253
  6
CONTINUOUS
 90
3
 70
0
 10
22.6714528002
 20
5.4800141733
 10
22.6267810133
 20
5.4994616838
 10
22.5893657646
 20
5.5108834402
  0
LWPOLYLINE
  5
4F1
100
AcDbEntity
  8
IMPORT_IGES
100
AcDbPolyline
 62
253
  6
CONTINUOUS
 90
7
 70
0
 10
23.5553362767
 20
6.7879813153
 10
23.5106644898
 20
6.8074288258
 10
23.4669502539
 20
6.8207734747
 10
23.4246463855
 20
6.8280593053
 10
23.3844125843
 20
6.8294092867
 10
23.3463489134
 20
6.825061505
 10
23.3101156129
 20
6.8150049878
  0
LINE
  5
4F2
100
AcDbEntity
  8
IMPORT_IGES
100
AcDbLine
 62
7
  6
CONTINUOUS
 10
23.6895003554
 20
6.7965018515
 11
23.6425187795
 21
6.8172155979
  0
LWPOLYLINE
  5
4F3
100
AcDbEntity
  8
RACCORDO
100
AcDbPolyline
 62
253
  6
CONTINUOUS
 90
19
 70
0
 10
6.3637703255
 20
12.8797909056
 10
6.3565330449
 20
12.8831097347
 10
6.3493125007
 20
12.8860746995
 10
6.3421204003
 20
12.8886809926
 10
6.3349684048
 20
12.8909243883
 10
6.3278681101
 20
12.8928012492
 10
6.3208310285
 20
12.8943085321
 10
6.3138685698
 20
12.8954437932
 10
6.3069920228
 20
12.8962051918
 10
6.3002125368
 20
12.8965914934
 10
6.293541104
 20
12.8966020716
 10
6.2869885413
 20
12.8962369092
 10
6.2805654728
 20
12.8954965985
 10
6.2742823127
 20
12.8943823395
 10
6.2681492485
 20
12.8928959391
 10
6.262176224
 20
12.8910398071
 10
6.2563729239
 20
12.888816953
 10
6.2507487573
 20
12.886230981
 10
6.248151961
 20
12.884881638
  0
LWPOLYLINE
  5
4F4
100
AcDbEntity
  8
RACCORDO
100
AcDbPolyline
 62
253
  6
CONTINUOUS
 90
19
 70
0
 10
-9.8335541137
 20
20.9784531252
 10
-9.8407913939
 20
20.9817719541
 10
-9.8480119376
 20
20.9847369188
 10
-9.8552040376
 20
20.9873432118
 10
-9.8623560328
 20
20.9895866074
 10
-9.8694563271
 20
20.9914634683
 10
-9.8764934084
 20
20.9929707513
 10
-9.8834558668
 20
20.9941060124
 10
-9.8903324137
 20
20.9948674111
 10
-9.8971118995
 20
20.9952537129
 10
-9.9037833321
 20
20.9952642912
 10
-9.9103358948
 20
20.9948991291
 10
-9.9167589632
 20
20.9941588185
 10
-9.9230421232
 20
20.9930445598
 10
-9.9291751875
 20
20.9915581595
 10
-9.935148212
 20
20.9897020278
 10
-9.9409515122
 20
20.987479174
 10
-9.9465756788
 20
20.9848932022
 10
-9.9491726794
 20
20.9835437491
  0
LWPOLYLINE
  5
4F5
100
AcDbEntity
  8
IMPORT_IGES
100
AcDbPolyline
 62
7
  6
CONTINUOUS
 90
10
 70
0
 10
23.0250061907
 20
6.0898035705
 10
23.0000542111
 20
6.1016359311
 10
22.975179965
 20
6.112474412
 10
22.9503834525
 20
6.1223190132
 10
22.9256401441
 20
6.1311775559
 10
22.9009745692
 20
6.139042219
 10
22.8764603161
 20
6.1458895385
 10
22.8521219141
 20
6.1517116934
 10
22.827934834
 20
6.1565165048
 10
22.8038990757
 20
6.1603039727
  0
LINE
  5
4F6
100
AcDbEntity
  8
IMPORT_IGES
100
AcDbLine
 62
253
  6
CONTINUOUS
 10
12.3479492395
 20
9.5184586673
 11
12.3480254666
 21
9.5184206548
  0
LINE
  5
4F7
100
AcDbEntity
  8
0
100
AcDbLine
 62
7
  6
CONTINUOUS
 10
-0.0433814814
 20
15.6023007631
 11
-2.164701825
 21
16.6629609349
  0
LINE
  5
4F8
100
AcDbEntity
  8
0
100
AcDbLine
 62
7
  6
CONTINUOUS
 10
-5.3479169759
 20
18.2966351449
 11
-2.1659364606
 21
16.7056448872
  0
LINE
  5
4F9
100
AcDbEntity
  8
0
100
AcDbLine
 62
7
  6
CONTINUOUS
 10
3.1373643983
 20
14.0539944578
 11
-0.044616117
 21
15.6449847155
  0
LINE
  5
4FA
100
AcDbEntity
  8
IMPORT_IGES
100
AcDbLine
 62
253
  6
CONTINUOUS
 10
12.3033006721
 20
9.5155810355
 11
11.9956319899
 21
9.6694153517
  0
LINE
  5
4FB
100
AcDbEntity
  8
IMPORT_IGES
100
AcDbLine
 62
7
  6
CONTINUOUS
 10
12.3480229907
 20
9.5184218928
 11
12.0113929304
 21
9.686736923
  0
LINE
  5
4FC
100
AcDbEntity
  8
0
100
AcDbLine
 62
253
  6
CONTINUOUS
 10
3.1201656756
 20
14.648590494
 11
-5.3651156987
 21
18.8912311811
  0
LINE
  5
4FD
100
AcDbEntity
  8
IMPORT_IGES
100
AcDbLine
 62
7
  6
CONTINUOUS
 10
13.1107072666
 20
9.7164912749
 11
12.6297445478
 21
9.9569726343
  0
LINE
  5
4FE
100
AcDbEntity
  8
IMPORT_IGES
100
AcDbLine
 62
7
  6
CONTINUOUS
 10
13.1107072666
 20
9.8896963557
 11
12.6297445478
 21
10.1301777151
  0
LINE
  5
4FF
100
AcDbEntity
  8
IMPORT_IGES
100
AcDbLine
 62
253
  6
CONTINUOUS
 10
22.6714527297
 20
5.4800142085
 11
22.9189388207
 21
5.356271163
  0
LINE
  5
500
100
AcDbEntity
  8
0
100
AcDbLine
 62
253
  6
CONTINUOUS
 10
3.473503691
 20
15.273384129
 11
-5.0117776832
 21
19.5160248161
  0
LINE
  5
501
100
AcDbEntity
  8
RACCORDO
100
AcDbLine
 62
7
  6
CONTINUOUS
 10
8.8121868129
 20
13.176396717
 11
7.8267626214
 21
13.6691088128
  0
LINE
  5
502
100
AcDbEntity
  8
RACCORDO
100
AcDbLine
 62
7
  6
CONTINUOUS
 10
-7.3851376263
 20
21.2750589366
 11
-8.3705618178
 21
21.7677710324
  0
LINE
  5
503
100
AcDbEntity
  8
IMPORT_IGES
100
AcDbLine
 62
253
  6
CONTINUOUS
 10
23.0250061907
 20
6.0898035705
 11
23.2724935643
 21
5.9660598837
  0
LINE
  5
504
100
AcDbEntity
  8
0
100
AcDbLine
 62
253
  6
CONTINUOUS
 10
4.0833897857
 20
15.5783271763
 11
-4.4018915886
 21
19.8209678634
  0
LINE
  5
505
100
AcDbEntity
  8
0
100
AcDbLine
 62
253
  6
CONTINUOUS
 10
4.159912745
 20
15.606324526
 11
-4.3253686292
 21
19.8489652131
  0
LINE
  5
506
100
AcDbEntity
  8
RACCORDO
100
AcDbLine
 62
7
  6
CONTINUOUS
 10
3.1199503004
 20
16.2444063553
 11
1.069340635
 21
17.269711188
  0
LINE
  5
507
100
AcDbEntity
  8
RACCORDO
100
AcDbLine
 62
7
  6
CONTINUOUS
 10
-0.9105583523
 20
18.2596606816
 11
-2.9611680178
 21
19.2849655144
  0
LWPOLYLINE
  5
508
100
AcDbEntity
  8
RACCORDO
100
AcDbPolyline
 62
7
  6
CONTINUOUS
 90
43
 70
0
 10
8.8121868129
 20
13.176396717
 10
8.8187935468
 20
13.1729423815
 10
8.8253928733
 20
13.1691890016
 10
8.8319757138
 20
13.1651416074
 10
8.8385353125
 20
13.1608042121
 10
8.84506026
 20
13.1561839222
 10
8.8515346281
 20
13.1512918543
 10
8.8579443527
 20
13.1461397559
 10
8.864286021
 20
13.1407315373
 10
8.8705596782
 20
13.1350668081
 10
8.8767626194
 20
13.1291469398
 10
8.8828798058
 20
13.1229852645
 10
8.8888930244
 20
13.1165998709
 10
8.8947883064
 20
13.1100069311
 10
8.9005638047
 20
13.103209942
 10
8.9062196829
 20
13.0962085664
 10
8.9117523063
 20
13.0890062696
 10
8.917149083
 20
13.0816184431
 10
8.922396883
 20
13.0740627382
 10
8.927486234
 20
13.0663534315
 10
8.9324126457
 20
13.0584981013
 10
8.93717104
 20
13.0505050186
 10
8.9417547572
 20
13.0423853424
 10
8.9461574071
 20
13.0341504215
 10
8.9503743131
 20
13.025808809
 10
8.9544011125
 20
13.0173681963
 10
8.9582300178
 20
13.0088440751
 10
8.9618519919
 20
13.0002570269
 10
8.9652595931
 20
12.9916262127
 10
8.9684514666
 20
12.9829567733
 10
8.9714278436
 20
12.9742483648
 10
8.9741866088
 20
12.9655043243
 10
8.9767202541
 20
12.956745522
 10
8.9790214774
 20
12.9479978762
 10
8.9810855072
 20
12.9392822225
 10
8.9829123103
 20
12.9306019118
 10
8.984502228
 20
12.9219566683
 10
8.9858534387
 20
12.9133516093
 10
8.9869620752
 20
12.9048059144
 10
8.9878256107
 20
12.896340297
 10
8.9884428972
 20
12.8879693091
 10
8.9888133649
 20
12.8797015723
 10
8.9889365843
 20
12.8715484554
  0
LWPOLYLINE
  5
509
100
AcDbEntity
  8
RACCORDO
100
AcDbPolyline
 62
7
  6
CONTINUOUS
 90
14
 70
0
 10
-2.9611680178
 20
19.2849655144
 10
-2.9701763699
 20
19.2896926792
 10
-2.9784886961
 20
19.2944930521
 10
-2.9861049966
 20
19.299366633
 10
-2.9930518483
 20
19.3043348571
 10
-2.9993026743
 20
19.3093762892
 10
-3.004777743
 20
19.3144266242
 10
-3.009467117
 20
19.319485976
 10
-3.0133807338
 20
19.3245542306
 10
-3.0164686738
 20
19.3295667408
 10
-3.0187203601
 20
19.3345227923
 10
-3.0201463696
 20
19.3394230993
 10
-3.0207285131
 20
19.3442051566
 10
-3.0203944171
 20
19.3492548244
  0
LWPOLYLINE
  5
50A
100
AcDbEntity
  8
RACCORDO
100
AcDbPolyline
 62
7
  6
CONTINUOUS
 90
14
 70
0
 10
1.069340635
 20
17.269711188
 10
1.0603322829
 20
17.2744383528
 10
1.0520199566
 20
17.2792387257
 10
1.0444036562
 20
17.2841123066
 10
1.0374568044
 20
17.2890805307
 10
1.0312059785
 20
17.2941219628
 10
1.0257309098
 20
17.2991722978
 10
1.0210415357
 20
17.3042316496
 10
1.017127919
 20
17.3092999042
 10
1.014039979
 20
17.3143124144
 10
1.0117882926
 20
17.3192684659
 10
1.0103622831
 20
17.3241687729
 10
1.0097801397
 20
17.3289508302
 10
1.0101142357
 20
17.334000498
  0
LWPOLYLINE
  5
50B
100
AcDbEntity
  8
RACCORDO
100
AcDbPolyline
 62
7
  6
CONTINUOUS
 90
49
 70
0
 10
-7.3851376263
 20
21.2750589366
 10
-7.3794765967
 20
21.2720101742
 10
-7.3738159626
 20
21.2687311985
 10
-7.3681617761
 20
21.2652248372
 10
-7.3625181628
 20
21.2614928714
 10
-7.3568931903
 20
21.2575398006
 10
-7.3512987803
 20
21.253373572
 10
-7.3457429077
 20
21.2490001853
 10
-7.3402295585
 20
21.2444229684
 10
-7.3347645419
 20
21.2396468454
 10
-7.3293537461
 20
21.2346769335
 10
-7.3240029838
 20
21.2295185651
 10
-7.3187178689
 20
21.224177287
 10
-7.3135041052
 20
21.21865881
 10
-7.3083673029
 20
21.2129690424
 10
-7.3033128278
 20
21.2071141005
 10
-7.298346145
 20
21.2011002347
 10
-7.2934726097
 20
21.1949338728
 10
-7.2886972884
 20
21.1886216425
 10
-7.2840253565
 20
21.1821702743
 10
-7.2794618634
 20
21.1755866546
 10
-7.2750115288
 20
21.1688778594
 10
-7.2706791891
 20
21.1620510357
 10
-7.2664695406
 20
21.1551134631
 10
-7.2623869112
 20
21.1480725988
 10
-7.2584357532
 20
21.1409359384
 10
-7.2546203652
 20
21.133711086
 10
-7.2509446428
 20
21.1264058094
 10
-7.2474126117
 20
21.1190278819
 10
-7.2440281326
 20
21.11158516
 10
-7.2407946317
 20
21.1040856486
 10
-7.2377156705
 20
21.0965373253
 10
-7.2347946349
 20
21.088948225
 10
-7.2320344497
 20
21.0813265136
 10
-7.2294381782
 20
21.0736802978
 10
-7.2270086997
 20
21.0660177151
 10
-7.2247484098
 20
21.0583470153
 10
-7.2226598445
 20
21.0506763576
 10
-7.2207453495
 20
21.043013905
 10
-7.2190067681
 20
21.0353679136
 10
-7.2174460852
 20
21.0277465178
 10
-7.2160650899
 20
21.0201578295
 10
-7.2148650564
 20
21.0126100326
 10
-7.2138473989
 20
21.0051111605
 10
-7.2130133332
 20
20.9976691965
 10
-7.2123635514
 20
20.9902921758
 10
-7.2118987732
 20
20.9829879919
 10
-7.2116197403
 20
20.9757643873
 10
-7.2115268857
 20
20.9686290566
  0
LWPOLYLINE
  5
50C
100
AcDbEntity
  8
RACCORDO
100
AcDbPolyline
 62
253
  6
CONTINUOUS
 90
40
 70
0
 10
7.2972139417
 20
12.4130690975
 10
7.3042078938
 20
12.4092723102
 10
7.3111955084
 20
12.4051331955
 10
7.3181654558
 20
12.4006584646
 10
7.3251064353
 20
12.3958553726
 10
7.3320071927
 20
12.3907317071
 10
7.3388565395
 20
12.3852957755
 10
7.3456433703
 20
12.3795563916
 10
7.352356681
 20
12.3735228609
 10
7.3589855869
 20
12.3672049662
 10
7.3655193401
 20
12.3606129511
 10
7.3719473468
 20
12.3537575037
 10
7.378259185
 20
12.3466497392
 10
7.3844446206
 20
12.3393011821
 10
7.3904936248
 20
12.331723747
 10
7.39639639
 20
12.3239297199
 10
7.4021433455
 20
12.3159317378
 10
7.4077251733
 20
12.3077427684
 10
7.4131328232
 20
12.2993760891
 10
7.4183575274
 20
12.2908452654
 10
7.4233908147
 20
12.2821641289
 10
7.4282245242
 20
12.2733467552
 10
7.4328508187
 20
12.2644074404
 10
7.4372621972
 20
12.2553606784
 10
7.4414515072
 20
12.2462211376
 10
7.4454119563
 20
12.2370036365
 10
7.4491371231
 20
12.2277231201
 10
7.4526209678
 20
12.2183946357
 10
7.4558578416
 20
12.2090333082
 10
7.4588424964
 20
12.1996543158
 10
7.4615700931
 20
12.1902728654
 10
7.464036209
 20
12.1809041678
 10
7.4662368458
 20
12.1715634132
 10
7.4681684353
 20
12.1622657465
 10
7.4698278457
 20
12.1530262427
 10
7.4712123865
 20
12.1438598824
 10
7.4723198129
 20
12.1347815278
 10
7.4731483293
 20
12.1258058983
 10
7.4736965923
 20
12.1169475468
 10
7.473963713
 20
12.1082208359
  0
LINE
  5
50D
100
AcDbEntity
  8
IMPORT_IGES
100
AcDbLine
 62
253
  6
CONTINUOUS
 10
12.4803885103
 20
9.392807913
 11
12.4639876488
 21
9.4021317658
  0
LINE
  5
50E
100
AcDbEntity
  8
IMPORT_IGES
100
AcDbLine
 62
7
  6
CONTINUOUS
 10
12.378401996
 20
9.501152592
 11
12.3480372959
 21
9.5184147398
  0
LWPOLYLINE
  5
50F
100
AcDbEntity
  8
IMPORT_IGES
100
AcDbPolyline
 62
253
  6
CONTINUOUS
 90
4
 70
0
 10
12.3033006721
 20
9.5155810355
 10
12.3253867447
 20
9.5027346773
 10
12.3435195502
 20
9.4891328537
 10
12.3576990886
 20
9.474775565
  0
LWPOLYLINE
  5
510
100
AcDbEntity
  8
IMPORT_IGES
100
AcDbPolyline
 62
7
  6
CONTINUOUS
 90
3
 70
0
 10
12.4272846753
 20
9.4604868125
 10
12.4048299492
 20
9.4817968226
 10
12.378401996
 20
9.501152592
  0
LINE
  5
511
100
AcDbEntity
  8
IMPORT_IGES
100
AcDbLine
 62
253
  6
CONTINUOUS
 10
20.0448590054
 20
10.5656961269
 11
20.0380777301
 21
10.8075539381
  0
LINE
  5
512
100
AcDbEntity
  8
IMPORT_IGES
100
AcDbLine
 62
7
  6
CONTINUOUS
 10
20.1063290195
 20
10.5349611199
 11
20.0967850946
 21
10.8800335294
  0
LWPOLYLINE
  5
513
100
AcDbEntity
  8
IMPORT_IGES
100
AcDbPolyline
 62
7
  6
CONTINUOUS
 90
10
 70
0
 10
21.8002318955
 20
-2.4313333457
 10
21.8002202781
 20
-2.4749727728
 10
21.8014306781
 20
-2.517850035
 10
21.8038630953
 20
-2.5599651324
 10
21.8075232159
 20
-2.6013646897
 10
21.8124053538
 20
-2.6420020821
 10
21.8184924504
 20
-2.6817374351
 10
21.8257788196
 20
-2.7205241239
 10
21.8342701474
 20
-2.7584087732
 10
21.8439664339
 20
-2.795391383
  0
LINE
  5
514
100
AcDbEntity
  8
IMPORT_IGES
100
AcDbLine
 62
253
  6
CONTINUOUS
 10
21.5672611758
 20
-4.0843551168
 11
21.6408616599
 21
1.0430657898
  0
LINE
  5
515
100
AcDbEntity
  8
IMPORT_IGES
100
AcDbLine
 62
7
  6
CONTINUOUS
 10
21.6551305481
 20
-3.9780768282
 11
21.726125894
 21
0.9678555915
  0
LINE
  5
516
100
AcDbEntity
  8
IMPORT_IGES
100
AcDbLine
 62
7
  6
CONTINUOUS
 10
21.8496611937
 20
1.0122339927
 11
21.8002312264
 21
-2.4313336803
  0
LINE
  5
517
100
AcDbEntity
  8
IMPORT_IGES
100
AcDbLine
 62
7
  6
CONTINUOUS
 10
21.6551309893
 20
-3.9780757914
 11
21.6535329841
 21
-4.0119734683
  0
LWPOLYLINE
  5
518
100
AcDbEntity
  8
IMPORT_IGES
100
AcDbPolyline
 62
7
  6
CONTINUOUS
 90
10
 70
0
 10
22.6007421221
 20
6.2153330646
 10
22.6033368277
 20
6.2695654817
 10
22.6103044596
 20
6.3197756265
 10
22.6216450178
 20
6.3659634989
 10
22.6375825341
 20
6.4085151809
 10
22.6578929767
 20
6.4470445906
 10
22.6819042502
 20
6.4803934821
 10
22.7097199569
 20
6.5084129611
 10
22.7412364947
 20
6.531251922
 10
22.7568497674
 20
6.5398945741
  0
LWPOLYLINE
  5
519
100
AcDbEntity
  8
IMPORT_IGES
100
AcDbPolyline
 62
253
  6
CONTINUOUS
 90
3
 70
0
 10
20.209714158
 20
-6.3248143944
 10
20.2086227593
 20
-6.3463948247
 10
20.205997024
 20
-6.3670130698
  0
LWPOLYLINE
  5
51A
100
AcDbEntity
  8
IMPORT_IGES
100
AcDbPolyline
 62
253
  6
CONTINUOUS
 90
10
 70
0
 10
21.5672611758
 20
-4.0843551168
 10
21.5664719171
 20
-4.099811926
 10
21.5646528694
 20
-4.1154500454
 10
21.5618040328
 20
-4.1312694749
 10
21.5578880416
 20
-4.1473934011
 10
21.5529422615
 20
-4.1636986374
 10
21.5470787889
 20
-4.1798156244
 10
21.5403349894
 20
-4.1956211753
 10
21.5326734975
 20
-4.2112384768
 10
21.5240943131
 20
-4.2266675288
  0
LWPOLYLINE
  5
51B
100
AcDbEntity
  8
IMPORT_IGES
100
AcDbPolyline
 62
7
  6
CONTINUOUS
 90
9
 70
0
 10
21.6535329841
 20
-4.0119734683
 10
21.6497864617
 20
-4.0456476912
 10
21.6439837479
 20
-4.0790559411
 10
21.6361502886
 20
-4.1123305424
 10
21.6263444625
 20
-4.1453116818
 10
21.6147539542
 20
-4.177530534
 10
21.6015130545
 20
-4.2088268573
 10
21.5866066134
 20
-4.2393494005
 10
21.5700439692
 20
-4.2690850592
  0
LWPOLYLINE
  5
51C
100
AcDbEntity
  8
IMPORT_IGES
100
AcDbPolyline
 62
253
  6
CONTINUOUS
 90
7
 70
0
 10
20.205997024
 20
-6.3670130698
 10
20.201856035
 20
-6.3865191165
 10
20.1962302607
 20
-6.4047708641
 10
20.1891602785
 20
-6.4216356862
 10
20.1806964767
 20
-6.4369913972
 10
20.1709000906
 20
-6.4507264392
 10
20.1598427543
 20
-6.4627406953
  0
LWPOLYLINE
  5
51D
100
AcDbEntity
  8
IMPORT_IGES
100
AcDbPolyline
 62
253
  6
CONTINUOUS
 90
3
 70
0
 10
23.2539795962
 20
2.3509138724
 10
23.2972444369
 20
2.5468461067
 10
23.3308444664
 20
2.773088527
  0
LWPOLYLINE
  5
51E
100
AcDbEntity
  8
IMPORT_IGES
100
AcDbPolyline
 62
7
  6
CONTINUOUS
 90
4
 70
0
 10
23.2519996344
 20
2.2129786762
 10
23.2623251885
 20
2.2415219795
 10
23.3164331482
 20
2.4329226529
 10
23.3588393309
 20
2.6337173061
  0
LINE
  5
51F
100
AcDbEntity
  8
IMPORT_IGES
100
AcDbLine
 62
7
  6
CONTINUOUS
 10
20.4592182534
 20
-6.1425825794
 11
21.5700453517
 21
-4.2690860222
  0
LINE
  5
520
100
AcDbEntity
  8
0
100
AcDbLine
 62
7
  6
CONTINUOUS
 10
4.0986943775
 20
15.2375164847
 11
7.4762243319
 21
16.0092165516
  0
LINE
  5
521
100
AcDbEntity
  8
0
100
AcDbLine
 62
7
  6
CONTINUOUS
 10
4.159912745
 20
15.606324526
 11
8.6169720154
 21
16.6246760975
  0
LINE
  5
522
100
AcDbEntity
  8
RACCORDO
100
AcDbLine
 62
7
  6
CONTINUOUS
 10
5.4014427906
 20
16.6626604115
 11
3.3994407621
 21
16.205241789
  0
LINE
  5
523
100
AcDbEntity
  8
RACCORDO
100
AcDbLine
 62
7
  6
CONTINUOUS
 10
7.3430981768
 20
17.4926261757
 11
7.3238833977
 21
17.4882359714
  0
LWPOLYLINE
  5
524
100
AcDbEntity
  8
RACCORDO
100
AcDbPolyline
 62
7
  6
CONTINUOUS
 90
25
 70
0
 10
3.3994407621
 20
16.205241789
 10
3.3900335653
 20
16.2033208299
 10
3.380149126
 20
16.2017222782
 10
3.3697874441
 20
16.2004461338
 10
3.3589002004
 20
16.1994897009
 10
3.347535714
 20
16.1988556755
 10
3.3358389432
 20
16.1985521445
 10
3.3238056312
 20
16.1985833417
 10
3.3114400346
 20
16.1989450335
 10
3.298899881
 20
16.1996326063
 10
3.2861829342
 20
16.2006502346
 10
3.2732914304
 20
16.201993744
 10
3.2603898051
 20
16.2036459975
 10
3.2474779287
 20
16.2056109501
 10
3.2345559309
 20
16.2078846468
 10
3.2217886361
 20
16.2104380858
 10
3.2091780262
 20
16.2132748506
 10
3.1967221195
 20
16.2163913577
 10
3.1845797953
 20
16.219747855
 10
3.1727550706
 20
16.2233474168
 10
3.1612439284
 20
16.2271869687
 10
3.1501931975
 20
16.231217536
 10
3.1396518206
 20
16.2354227937
 10
3.1295708549
 20
16.2398190668
 10
3.1199503004
 20
16.2444063553
  0
LWPOLYLINE
  5
525
100
AcDbEntity
  8
RACCORDO
100
AcDbPolyline
 62
7
  6
CONTINUOUS
 90
12
 70
0
 10
0.6258065766
 20
14.3145437234
 10
0.627787848
 20
14.3146731516
 10
0.6451456267
 20
14.315050968
 10
0.6624964762
 20
14.3146680981
 10
0.6798418813
 20
14.3135287776
 10
0.6968596508
 20
14.3116409737
 10
0.7136254847
 20
14.3089647598
 10
0.730063683
 20
14.3055400624
 10
0.745624955
 20
14.3014946283
 10
0.7601262038
 20
14.2968710397
 10
0.7737505263
 20
14.2916267143
 10
0.7864979225
 20
14.2857616521
  0
LINE
  5
526
100
AcDbEntity
  8
IMPORT_IGES
100
AcDbLine
 62
7
  6
CONTINUOUS
 10
19.1698759871
 20
10.8563276286
 11
19.1370939826
 21
10.865881722
  0
LWPOLYLINE
  5
527
100
AcDbEntity
  8
IMPORT_IGES
100
AcDbPolyline
 62
253
  6
CONTINUOUS
 90
4
 70
0
 10
20.6352413491
 20
10.2585739272
 10
20.6181750507
 20
10.2635523032
 10
20.5998756572
 20
10.2646998664
 10
20.5807468422
 20
10.2620963557
  0
LWPOLYLINE
  5
528
100
AcDbEntity
  8
IMPORT_IGES
100
AcDbPolyline
 62
7
  6
CONTINUOUS
 90
10
 70
0
 10
16.9821645049
 20
12.6568767619
 10
16.8983651507
 20
12.6867836779
 10
16.8106863456
 20
12.7071921732
 10
16.7195767535
 20
12.717999353
 10
16.6255026444
 20
12.7191525182
 10
16.5289466402
 20
12.7106468628
 10
16.4304048835
 20
12.6925240394
 10
16.3303832509
 20
12.6648760444
 10
16.2293951002
 20
12.6278461898
 10
16.1279595348
 20
12.5816247952
  0
LWPOLYLINE
  5
529
100
AcDbEntity
  8
IMPORT_IGES
100
AcDbPolyline
 62
253
  6
CONTINUOUS
 90
5
 70
0
 10
16.378277659
 20
11.5335479459
 10
16.3698261315
 20
11.5365825937
 10
16.3585350608
 20
11.5376143697
 10
16.3463200097
 20
11.5356680272
 10
16.3335536785
 20
11.5307076382
  0
LINE
  5
52A
100
AcDbEntity
  8
IMPORT_IGES
100
AcDbLine
 62
7
  6
CONTINUOUS
 10
19.1835776483
 20
10.8509707749
 11
19.1698759871
 21
10.8563276286
  0
LWPOLYLINE
  5
52B
100
AcDbEntity
  8
IMPORT_IGES
100
AcDbPolyline
 62
253
  6
CONTINUOUS
 90
3
 70
0
 10
20.7151766097
 20
10.204323134
 10
20.6936469331
 20
10.2127767932
 10
20.6670020853
 20
10.2235922965
  0
LINE
  5
52C
100
AcDbEntity
  8
IMPORT_IGES
100
AcDbLine
 62
253
  6
CONTINUOUS
 10
20.6670020853
 20
10.2235922965
 11
20.6352420663
 21
10.2367696439
  0
LINE
  5
52D
100
AcDbEntity
  8
IMPORT_IGES
100
AcDbLine
 62
253
  6
CONTINUOUS
 10
20.6352420663
 20
10.2367696439
 11
19.1908557506
 21
10.8476171678
  0
LINE
  5
52E
100
AcDbEntity
  8
IMPORT_IGES
100
AcDbLine
 62
7
  6
CONTINUOUS
 10
19.1834222905
 20
10.8510344374
 11
19.8700726423
 21
10.5606423979
  0
LINE
  5
52F
100
AcDbEntity
  8
IMPORT_IGES
100
AcDbLine
 62
7
  6
CONTINUOUS
 10
19.8700726423
 20
10.5606423979
 11
20.6353445854
 21
10.237012537
  0
LINE
  5
530
100
AcDbEntity
  8
IMPORT_IGES
100
AcDbLine
 62
253
  6
CONTINUOUS
 10
18.5824076106
 20
11.2847569615
 11
18.7357675153
 21
11.2198181225
  0
LINE
  5
531
100
AcDbEntity
  8
IMPORT_IGES
100
AcDbLine
 62
253
  6
CONTINUOUS
 10
18.6937153622
 20
11.4068598248
 11
18.5400422171
 21
11.4719454555
  0
LINE
  5
532
100
AcDbEntity
  8
IMPORT_IGES
100
AcDbLine
 62
253
  6
CONTINUOUS
 10
21.4456649811
 20
9.864869256
 11
19.8220782182
 21
10.5531049914
  0
LINE
  5
533
100
AcDbEntity
  8
IMPORT_IGES
100
AcDbLine
 62
253
  6
CONTINUOUS
 10
19.9062134402
 20
10.1804155676
 11
21.5300994948
 21
9.4920295005
  0
LWPOLYLINE
  5
534
100
AcDbEntity
  8
IMPORT_IGES
100
AcDbPolyline
 62
253
  6
CONTINUOUS
 90
27
 70
0
 10
15.8385816368
 20
11.1100161937
 10
15.8790174795
 20
11.0922610476
 10
15.9219122234
 20
11.0772704056
 10
15.9672658684
 20
11.0650442676
 10
16.0157870397
 20
11.0555135695
 10
16.0667671121
 20
11.0487473755
 10
16.11808021
 20
11.0449528784
 10
16.1695822913
 20
11.044224756
 10
16.2214173981
 20
11.0464683305
 10
16.2718917807
 20
11.0516067614
 10
16.3211260026
 20
11.0597552045
 10
16.3689995004
 20
11.070798504
 10
16.4134568335
 20
11.0843143519
 10
16.4543129827
 20
11.1004097637
 10
16.4917529672
 20
11.118977724
 10
16.5242764051
 20
11.1392748781
 10
16.551674492
 20
11.1613728462
 10
16.5741560322
 20
11.1852000081
 10
16.5908470564
 20
11.2097981487
 10
16.6015451809
 20
11.2351493104
 10
16.6064527893
 20
11.2612714507
 10
16.6053030624
 20
11.2872602271
 10
16.5978475803
 20
11.3131983125
 10
16.5843347629
 20
11.3390030341
 10
16.5652430499
 20
11.3635220305
 10
16.5407319215
 20
11.3863711811
 10
16.5106418976
 20
11.4079346066
  0
LWPOLYLINE
  5
535
100
AcDbEntity
  8
IMPORT_IGES
100
AcDbPolyline
 62
253
  6
CONTINUOUS
 90
19
 70
0
 10
15.9092923568
 20
11.2319715848
 10
15.9429137803
 20
11.2171869199
 10
15.9808630973
 20
11.2044278565
 10
16.0227004162
 20
11.1940673458
 10
16.0682876121
 20
11.1864032859
 10
16.1164975476
 20
11.1818803979
 10
16.1650999664
 20
11.1807669908
 10
16.2127351702
 20
11.1829685463
 10
16.2589436536
 20
11.1883390225
 10
16.3028199598
 20
11.1966799138
 10
16.3436480646
 20
11.2077481819
 10
16.3808010765
 20
11.2212613875
 10
16.4136796137
 20
11.2368670602
 10
16.4418008797
 20
11.2541520947
 10
16.4650126816
 20
11.2728145941
 10
16.4832780859
 20
11.2926740726
 10
16.4963648186
 20
11.3133470934
 10
16.5042092745
 20
11.3345530803
 10
16.5067783231
 20
11.3557175113
  0
LWPOLYLINE
  5
536
100
AcDbEntity
  8
IMPORT_IGES
100
AcDbPolyline
 62
253
  6
CONTINUOUS
 90
3
 70
0
 10
18.735766802
 20
11.2198184241
 10
18.7445406967
 20
11.215837778
 10
18.7467453325
 20
11.2147529634
  0
LINE
  5
537
100
AcDbEntity
  8
IMPORT_IGES
100
AcDbLine
 62
253
  6
CONTINUOUS
 10
16.1712570491
 20
12.2861920992
 11
16.1762018283
 21
12.2839474385
  0
LINE
  5
538
100
AcDbEntity
  8
IMPORT_IGES
100
AcDbLine
 62
7
  6
CONTINUOUS
 10
21.4559587044
 20
9.8601449566
 11
21.4456646536
 21
9.8648693962
  0
LINE
  5
539
100
AcDbEntity
  8
IMPORT_IGES
100
AcDbLine
 62
253
  6
CONTINUOUS
 10
19.1908557621
 20
10.847617162
 11
19.1836151736
 21
10.8509531213
  0
LINE
  5
53A
100
AcDbEntity
  8
IMPORT_IGES
100
AcDbLine
 62
253
  6
CONTINUOUS
 10
20.6352421195
 20
10.2367696206
 11
20.6280384481
 21
10.2400899736
  0
LINE
  5
53B
100
AcDbEntity
  8
IMPORT_IGES
100
AcDbLine
 62
253
  6
CONTINUOUS
 10
19.1068091536
 20
10.777390839
 11
19.1692575099
 21
10.7482604484
  0
LINE
  5
53C
100
AcDbEntity
  8
IMPORT_IGES
100
AcDbLine
 62
253
  6
CONTINUOUS
 10
19.1692575099
 20
10.7482604484
 11
19.8001797336
 21
10.4538981577
  0
LINE
  5
53D
100
AcDbEntity
  8
IMPORT_IGES
100
AcDbLine
 62
253
  6
CONTINUOUS
 10
19.8220782182
 20
10.5531049914
 11
19.1908557506
 21
10.8476171678
  0
LWPOLYLINE
  5
53E
100
AcDbEntity
  8
RACCORDO
100
AcDbPolyline
 62
7
  6
CONTINUOUS
 90
25
 70
0
 10
3.2862625068
 20
17.421413993
 10
3.2766419523
 20
17.4260012815
 10
3.2665609867
 20
17.4303975546
 10
3.2560196098
 20
17.4346028123
 10
3.2449688788
 20
17.4386333796
 10
3.2334577367
 20
17.4424729315
 10
3.221633012
 20
17.4460724932
 10
3.2094906878
 20
17.4494289906
 10
3.197034781
 20
17.4525454977
 10
3.1844241711
 20
17.4553822625
 10
3.1716568764
 20
17.4579357015
 10
3.1587348785
 20
17.4602093982
 10
3.1458230021
 20
17.4621743508
 10
3.1329213768
 20
17.4638266043
 10
3.120029873
 20
17.4651701137
 10
3.1073129263
 20
17.466187742
 10
3.0947727726
 20
17.4668753148
 10
3.0824071761
 20
17.4672370066
 10
3.0703738641
 20
17.4672682038
 10
3.0586770932
 20
17.4669646728
 10
3.0473126069
 20
17.4663306473
 10
3.0364253631
 20
17.4653742145
 10
3.0260636813
 20
17.4640980701
 10
3.0161792419
 20
17.4624995183
 10
3.0067720452
 20
17.4605785592
  0
LWPOLYLINE
  5
53F
100
AcDbEntity
  8
RACCORDO
100
AcDbPolyline
 62
7
  6
CONTINUOUS
 90
25
 70
0
 10
-0.7442461459
 20
19.4366683194
 10
-0.7538667004
 20
19.4412556079
 10
-0.7639476661
 20
19.445651881
 10
-0.774489043
 20
19.4498571387
 10
-0.7855397739
 20
19.453887706
 10
-0.7970509161
 20
19.4577272579
 10
-0.8088756408
 20
19.4613268196
 10
-0.821017965
 20
19.4646833169
 10
-0.8334738717
 20
19.4677998241
 10
-0.8460844816
 20
19.4706365889
 10
-0.8588517764
 20
19.4731900279
 10
-0.8717737742
 20
19.4754637246
 10
-0.8846856506
 20
19.4774286772
 10
-0.8975872759
 20
19.4790809307
 10
-0.9104787798
 20
19.48042444
 10
-0.9231957265
 20
19.4814420684
 10
-0.9357358801
 20
19.4821296412
 10
-0.9481014767
 20
19.4824913329
 10
-0.9601347887
 20
19.4825225301
 10
-0.9718315596
 20
19.4822189992
 10
-0.9831960459
 20
19.4815849737
 10
-0.9940832896
 20
19.4806285409
 10
-1.0044449715
 20
19.4793523965
 10
-1.0143294108
 20
19.4777538447
 10
-1.0237366076
 20
19.4758328856
  0
LWPOLYLINE
  5
540
100
AcDbEntity
  8
RACCORDO
100
AcDbPolyline
 62
7
  6
CONTINUOUS
 90
19
 70
0
 10
-8.3705618178
 20
21.7677710324
 10
-8.3771680511
 20
21.7709231805
 10
-8.3837674819
 20
21.7737691792
 10
-8.3903507187
 20
21.7763048237
 10
-8.3969104486
 20
21.7785270926
 10
-8.4034352243
 20
21.7804316643
 10
-8.409909633
 20
21.7820139849
 10
-8.4163194233
 20
21.7832716439
 10
-8.4226609433
 20
21.7842050194
 10
-8.4289346831
 20
21.7848139887
 10
-8.4351377461
 20
21.7850971225
 10
-8.4412548171
 20
21.7850525759
 10
-8.4472680293
 20
21.7846803977
 10
-8.4531633435
 20
21.783982756
 10
-8.4589387591
 20
21.7829612239
 10
-8.4645946878
 20
21.7816157517
 10
-8.4701273924
 20
21.779946119
 10
-8.4755241149
 20
21.7779550421
 10
-8.4797349174
 20
21.7761337424
  0
LWPOLYLINE
  5
541
100
AcDbEntity
  8
IMPORT_IGES
100
AcDbPolyline
 62
253
  6
CONTINUOUS
 90
7
 70
0
 10
17.6255981118
 20
11.5592493576
 10
17.6238198261
 20
11.560108148
 10
17.6084541549
 20
11.5653627892
 10
17.5917140432
 20
11.5674037551
 10
17.5738980183
 20
11.5661322263
 10
17.5552829209
 20
11.5615086228
 10
17.5361945448
 20
11.5535494384
  0
LINE
  5
542
100
AcDbEntity
  8
IMPORT_IGES
100
AcDbLine
 62
253
  6
CONTINUOUS
 10
23.9368528411
 20
6.6728254957
 11
23.9369877288
 21
6.6727581648
  0
LINE
  5
543
100
AcDbEntity
  8
IMPORT_IGES
100
AcDbLine
 62
253
  6
CONTINUOUS
 10
23.6893654677
 20
6.7965691824
 11
23.6895003554
 21
6.7965018515
  0
LINE
  5
544
100
AcDbEntity
  8
IMPORT_IGES
100
AcDbLine
 62
7
  6
CONTINUOUS
 10
23.2724935642
 20
6.3990725857
 11
23.0250061908
 21
6.5228162724
  0
LINE
  5
545
100
AcDbEntity
  8
IMPORT_IGES
100
AcDbLine
 62
253
  6
CONTINUOUS
 10
23.5553362767
 20
6.7879813153
 11
23.8028236501
 21
6.6642376286
  0
LINE
  5
546
100
AcDbEntity
  8
IMPORT_IGES
100
AcDbLine
 62
7
  6
CONTINUOUS
 10
14.1691803571
 20
11.4815248884
 11
14.5593533937
 21
11.2864383701
  0
LINE
  5
547
100
AcDbEntity
  8
IMPORT_IGES
100
AcDbLine
 62
7
  6
CONTINUOUS
 10
23.6895003554
 20
6.7965018515
 11
23.9369877288
 21
6.6727581648
  0
LINE
  5
548
100
AcDbEntity
  8
RACCORDO
100
AcDbLine
 62
253
  6
CONTINUOUS
 10
4.8529984051
 20
16.5373515099
 11
3.0067264974
 21
17.4604874637
  0
LINE
  5
549
100
AcDbEntity
  8
RACCORDO
100
AcDbLine
 62
7
  6
CONTINUOUS
 10
4.9215096594
 20
16.5530050023
 11
3.0937066676
 21
17.4669064982
  0
LINE
  5
54A
100
AcDbEntity
  8
IMPORT_IGES
100
AcDbLine
 62
253
  6
CONTINUOUS
 10
15.8385816368
 20
11.1100161937
 11
14.0982187705
 21
11.9801979443
  0
LINE
  5
54B
100
AcDbEntity
  8
RACCORDO
100
AcDbLine
 62
7
  6
CONTINUOUS
 10
-0.7442461459
 20
19.4366683194
 11
0.9607151686
 21
18.5841876622
  0
LINE
  5
54C
100
AcDbEntity
  8
RACCORDO
100
AcDbLine
 62
7
  6
CONTINUOUS
 10
3.2862625068
 20
17.421413993
 11
4.9912238214
 21
16.5689333358
  0
LINE
  5
54D
100
AcDbEntity
  8
IMPORT_IGES
100
AcDbLine
 62
253
  6
CONTINUOUS
 10
15.9092909497
 20
11.231973833
 11
14.196599083
 21
12.0883197663
  0
LINE
  5
54E
100
AcDbEntity
  8
IMPORT_IGES
100
AcDbLine
 62
253
  6
CONTINUOUS
 10
14.2949813667
 20
12.1964437547
 11
15.9800037278
 21
11.3539327624
  0
LINE
  5
54F
100
AcDbEntity
  8
RACCORDO
100
AcDbLine
 62
7
  6
CONTINUOUS
 10
-0.6830277784
 20
19.8054763607
 11
1.367581887
 21
18.7801715279
  0
LINE
  5
550
100
AcDbEntity
  8
RACCORDO
100
AcDbLine
 62
7
  6
CONTINUOUS
 10
3.3474808743
 20
17.7902220343
 11
5.3980905398
 21
16.7649172016
  0
LINE
  5
551
100
AcDbEntity
  8
IMPORT_IGES
100
AcDbLine
 62
253
  6
CONTINUOUS
 10
16.3335529184
 20
11.5307073577
 11
14.5160853497
 21
12.4394412089
  0
LINE
  5
552
100
AcDbEntity
  8
IMPORT_IGES
100
AcDbLine
 62
7
  6
CONTINUOUS
 10
16.3782763779
 20
11.5335485864
 11
14.5318468218
 21
12.4567633645
  0
LINE
  5
553
100
AcDbEntity
  8
IMPORT_IGES
100
AcDbLine
 62
253
  6
CONTINUOUS
 10
18.8430300818
 20
10.7898195495
 11
18.4001676971
 21
11.011250652
  0
LINE
  5
554
100
AcDbEntity
  8
IMPORT_IGES
100
AcDbLine
 62
253
  6
CONTINUOUS
 10
16.0868491032
 20
12.2782223257
 11
17.5361972618
 21
11.55355084
  0
LINE
  5
555
100
AcDbEntity
  8
IMPORT_IGES
100
AcDbLine
 62
7
  6
CONTINUOUS
 10
16.1762018283
 20
12.2839474385
 11
17.6256372639
 21
11.5592297958
  0
LINE
  5
556
100
AcDbEntity
  8
IMPORT_IGES
100
AcDbLine
 62
7
  6
CONTINUOUS
 10
17.6257711974
 20
11.5591626618
 11
17.6255981118
 21
11.5592493576
  0
LWPOLYLINE
  5
557
100
AcDbEntity
  8
IMPORT_IGES
100
AcDbPolyline
 62
7
  6
CONTINUOUS
 90
4
 70
0
 10
16.1762757382
 20
12.2839096625
 10
16.1739108374
 20
12.2851133688
 10
16.1633428706
 20
12.291103096
 10
16.1576710596
 20
12.2949122828
  0
LWPOLYLINE
  5
558
100
AcDbEntity
  8
RACCORDO
100
AcDbPolyline
 62
7
  6
CONTINUOUS
 90
14
 70
0
 10
1.367581887
 20
18.7801715279
 10
1.3765902391
 20
18.7754443631
 10
1.3849025654
 20
18.7706439902
 10
1.3925188658
 20
18.7657704093
 10
1.3994657176
 20
18.7608021852
 10
1.4057165435
 20
18.7557607531
 10
1.4111916122
 20
18.7507104182
 10
1.4158809863
 20
18.7456510663
 10
1.419794603
 20
18.7405828117
 10
1.422882543
 20
18.7355703016
 10
1.4251342293
 20
18.73061425
 10
1.4265602389
 20
18.725713943
 10
1.4271423823
 20
18.7209318857
 10
1.4268082863
 20
18.7158822179
  0
LWPOLYLINE
  5
559
100
AcDbEntity
  8
RACCORDO
100
AcDbPolyline
 62
7
  6
CONTINUOUS
 90
14
 70
0
 10
5.3980905398
 20
16.7649172016
 10
5.4070988919
 20
16.7601900367
 10
5.4154112181
 20
16.7553896638
 10
5.4230275186
 20
16.7505160829
 10
5.4299743703
 20
16.7455478588
 10
5.4362251963
 20
16.7405064267
 10
5.4417002649
 20
16.7354560918
 10
5.446389639
 20
16.73039674
 10
5.4503032558
 20
16.7253284853
 10
5.4533911958
 20
16.7203159752
 10
5.4556428821
 20
16.7153599237
 10
5.4570688916
 20
16.7104596167
 10
5.4576510351
 20
16.7056775593
 10
5.4573169391
 20
16.7006278915
  0
LWPOLYLINE
  5
55A
100
AcDbEntity
  8
IMPORT_IGES
100
AcDbPolyline
 62
7
  6
CONTINUOUS
 90
10
 70
0
 10
23.2724935643
 20
5.9660598837
 10
23.3226104365
 20
5.9386995344
 10
23.3721253625
 20
5.9078807771
 10
23.4210383422
 20
5.8736036116
 10
23.4695389207
 20
5.8357042666
 10
23.5174375528
 20
5.7943465135
 10
23.5641656036
 20
5.7500216665
 10
23.6095335281
 20
5.702893497
 10
23.6537308712
 20
5.6527982336
 10
23.6967576329
 20
5.5997358764
  0
LWPOLYLINE
  5
55B
100
AcDbEntity
  8
IMPORT_IGES
100
AcDbPolyline
 62
253
  6
CONTINUOUS
 90
4
 70
0
 10
23.8028236501
 20
6.6642376286
 10
23.847495437
 20
6.6390133522
 10
23.891209673
 20
6.6086437651
 10
23.9335135413
 20
6.5736257274
  0
LINE
  5
55C
100
AcDbEntity
  8
IMPORT_IGES
100
AcDbLine
 62
253
  6
CONTINUOUS
 10
16.5106418976
 20
11.4079346066
 11
16.4942410369
 21
11.4172584589
  0
LINE
  5
55D
100
AcDbEntity
  8
IMPORT_IGES
100
AcDbLine
 62
7
  6
CONTINUOUS
 10
16.4086554201
 20
11.5162792618
 11
16.3782907141
 21
11.5335414179
  0
LWPOLYLINE
  5
55E
100
AcDbEntity
  8
IMPORT_IGES
100
AcDbPolyline
 62
7
  6
CONTINUOUS
 90
16
 70
0
 10
23.2724935642
 20
6.3990725857
 10
23.3178334315
 20
6.3732247997
 10
23.3616743668
 20
6.3427707606
 10
23.4040163702
 20
6.3077104684
 10
23.4452661369
 20
6.2675661938
 10
23.4850169716
 20
6.222815666
 10
23.5220487889
 20
6.1748920733
 10
23.5562823125
 20
6.1237081673
 10
23.5877968186
 20
6.0693511963
 10
23.6156100503
 20
6.0135160936
 10
23.6396183117
 20
5.9561578097
 10
23.6599252987
 20
5.8973213942
 10
23.6758598413
 20
5.8388369282
 10
23.6871982162
 20
5.7813144389
 10
23.6941641468
 20
5.7241438992
 10
23.6967576329
 20
5.667325309
  0
LWPOLYLINE
  5
55F
100
AcDbEntity
  8
IMPORT_IGES
100
AcDbPolyline
 62
7
  6
CONTINUOUS
 90
13
 70
0
 10
23.9369877288
 20
6.6727581648
 10
23.9912227601
 20
6.6417163266
 10
24.0421436797
 20
6.6048385198
 10
24.0896333824
 20
6.562639424
 10
24.1339868694
 20
6.5150367855
 10
24.1746452382
 20
6.4626098118
 10
24.2104210415
 20
6.4071284647
 10
24.2411158573
 20
6.3494169445
 10
24.2668854728
 20
6.2894589583
 10
24.2873779995
 20
6.228082147
 10
24.3023996163
 20
6.1657169705
 10
24.3117322252
 20
6.1024292104
 10
24.3149556845
 20
6.0385563692
  0
LWPOLYLINE
  5
560
100
AcDbEntity
  8
IMPORT_IGES
100
AcDbPolyline
 62
253
  6
CONTINUOUS
 90
4
 70
0
 10
16.3335529184
 20
11.5307073577
 10
16.3556394201
 20
11.5178612416
 10
16.3737725592
 20
11.5042595987
 10
16.3879523356
 20
11.489902429
  0
LWPOLYLINE
  5
561
100
AcDbEntity
  8
ASSI
100
AcDbPolyline
 62
7
  6
CONTINUOUS
 90
3
 70
0
 10
4.2547175864
 20
21.036816619
 10
4.2548266017
 20
21.0367048849
 10
4.2548431932
 20
21.0366177682
  0
LWPOLYLINE
  5
562
100
AcDbEntity
  8
IMPORT_IGES
100
AcDbPolyline
 62
253
  6
CONTINUOUS
 90
4
 70
0
 10
16.3879523356
 20
11.489902429
 10
16.3982503627
 20
11.474530423
 10
16.4045950271
 20
11.4584028901
 10
16.4067714884
 20
11.4422977591
  0
LWPOLYLINE
  5
563
100
AcDbEntity
  8
IMPORT_IGES
100
AcDbPolyline
 62
7
  6
CONTINUOUS
 90
10
 70
0
 10
21.8439680029
 20
-2.7953882107
 10
21.8505487676
 20
-2.8192083336
 10
21.8573089733
 20
-2.842470429
 10
21.86425146
 20
-2.8651554282
 10
21.8713708614
 20
-2.8872341716
 10
21.8786767857
 20
-2.9086977344
 10
21.8861955393
 20
-2.9295556529
 10
21.8939383651
 20
-2.9497962725
 10
21.9018996931
 20
-2.9693885535
 10
21.9100815321
 20
-2.988311149
  0
LWPOLYLINE
  5
564
100
AcDbEntity
  8
IMPORT_IGES
100
AcDbPolyline
 62
253
  6
CONTINUOUS
 90
7
 70
0
 10
19.8265390324
 20
11.3788323188
 10
19.8299960473
 20
11.3553304024
 10
19.8307685717
 20
11.3313719815
 10
19.8289194865
 20
11.3069309597
 10
19.8244350196
 20
11.2822507501
 10
19.8173820919
 20
11.2578768782
 10
19.8078666294
 20
11.2342069168
  0
LWPOLYLINE
  5
565
100
AcDbEntity
  8
IMPORT_IGES
100
AcDbPolyline
 62
253
  6
CONTINUOUS
 90
8
 70
0
 10
21.6725884334
 20
9.5405330041
 10
21.6732480113
 20
9.5321360503
 10
21.6714501043
 20
9.5098246477
 10
21.664471014
 20
9.4871559644
 10
21.6523395752
 20
9.4646501325
 10
21.6352189551
 20
9.4427525706
 10
21.6133148225
 20
9.4218283855
 10
21.5869455701
 20
9.402277291
  0
LWPOLYLINE
  5
566
100
AcDbEntity
  8
IMPORT_IGES
100
AcDbPolyline
 62
253
  6
CONTINUOUS
 90
8
 70
0
 10
21.9897762176
 20
6.9705392766
 10
21.9904262024
 20
6.9621873728
 10
21.9886282672
 20
6.9399294726
 10
21.9816724781
 20
6.9173117462
 10
21.9695713352
 20
6.8948308979
 10
21.9524650296
 20
6.8729258644
 10
21.9305468752
 20
6.8519719286
 10
21.9041221996
 20
6.8323743632
  0
LWPOLYLINE
  5
567
100
AcDbEntity
  8
IMPORT_IGES
100
AcDbPolyline
 62
253
  6
CONTINUOUS
 90
16
 70
0
 10
23.3432042424
 20
4.6245232099
 10
23.340845876
 20
4.6804140692
 10
23.3338954404
 20
4.7374281993
 10
23.3225737606
 20
4.794900599
 10
23.3072505649
 20
4.8518384353
 10
23.2881611024
 20
4.9080015314
 10
23.2651577066
 20
4.9638798422
 10
23.2382271838
 20
5.0191867058
 10
23.2076932541
 20
5.0729787011
 10
23.1737538016
 20
5.1247060365
 10
23.1366512492
 20
5.1737849432
 10
23.0967658076
 20
5.2195125682
 10
23.0545771947
 20
5.2611820372
 10
23.0105625874
 20
5.2981979572
 10
22.9651773381
 20
5.3300569298
 10
22.9189386311
 20
5.3562712579
  0
LINE
  5
568
100
AcDbEntity
  8
IMPORT_IGES
100
AcDbLine
 62
253
  6
CONTINUOUS
 10
23.1824945203
 20
3.386016274
 11
23.179760191
 21
3.5790474911
  0
LINE
  5
569
100
AcDbEntity
  8
IMPORT_IGES
100
AcDbLine
 62
7
  6
CONTINUOUS
 10
23.2703448813
 20
3.4931394717
 11
23.2676325342
 21
3.684809073
  0
LINE
  5
56A
100
AcDbEntity
  8
IMPORT_IGES
100
AcDbLine
 62
7
  6
CONTINUOUS
 10
22.6007421221
 20
6.1477436318
 11
22.6007421221
 21
6.2153330646
  0
LINE
  5
56B
100
AcDbEntity
  8
IMPORT_IGES
100
AcDbLine
 62
7
  6
CONTINUOUS
 10
23.6967576329
 20
5.667325309
 11
23.6967576329
 21
5.5997358764
  0
LINE
  5
56C
100
AcDbEntity
  8
IMPORT_IGES
100
AcDbLine
 62
253
  6
CONTINUOUS
 10
24.2270877188
 20
3.8540293829
 11
24.2270877188
 21
5.9324903521
  0
LINE
  5
56D
100
AcDbEntity
  8
IMPORT_IGES
100
AcDbLine
 62
7
  6
CONTINUOUS
 10
24.3149556845
 20
6.0385563692
 11
24.3149556845
 21
3.9600954001
  0
LINE
  5
56E
100
AcDbEntity
  8
IMPORT_IGES
100
AcDbLine
 62
7
  6
CONTINUOUS
 10
23.2703447032
 20
3.4909986561
 11
23.2703449094
 21
3.4931374764
  0
LINE
  5
56F
100
AcDbEntity
  8
IMPORT_IGES
100
AcDbLine
 62
253
  6
CONTINUOUS
 10
24.3149556753
 20
3.9600582198
 11
24.3149556845
 21
3.9600954001
  0
LINE
  5
570
100
AcDbEntity
  8
IMPORT_IGES
100
AcDbLine
 62
253
  6
CONTINUOUS
 10
23.1824940425
 20
3.3860160351
 11
23.1027991153
 21
-2.1659778219
  0
LINE
  5
571
100
AcDbEntity
  8
IMPORT_IGES
100
AcDbLine
 62
7
  6
CONTINUOUS
 10
23.270344617
 20
3.4909926526
 11
23.1906847955
 21
-2.0585555509
  0
LWPOLYLINE
  5
572
100
AcDbEntity
  8
IMPORT_IGES
100
AcDbPolyline
 62
7
  6
CONTINUOUS
 90
22
 70
0
 10
23.6967576329
 20
5.5997358764
 10
23.6962454271
 20
5.5686695492
 10
23.6943210566
 20
5.5361050708
 10
23.6909845216
 20
5.5020424413
 10
23.6863047449
 20
5.4665019004
 10
23.6802128036
 20
5.4294632083
 10
23.6725019289
 20
5.3908656461
 10
23.6631625549
 20
5.3506862466
 10
23.6522042476
 20
5.3089479771
 10
23.6394489354
 20
5.26565902
 10
23.6248721196
 20
5.2208173407
 10
23.6084982989
 20
5.1744249738
 10
23.5902228985
 20
5.1264962055
 10
23.5699953984
 20
5.0770348217
 10
23.5478663186
 20
5.0260370365
 10
23.5238826439
 20
4.9735057776
 10
23.4979831406
 20
4.9195012033
 10
23.4702290424
 20
4.8639631554
 10
23.4408510349
 20
4.8067140867
 10
23.4099260133
 20
4.7476948151
 10
23.3773770825
 20
4.6869645229
 10
23.3432042424
 20
4.62452321
  0
LINE
  5
573
100
AcDbEntity
  8
IMPORT_IGES
100
AcDbLine
 62
7
  6
CONTINUOUS
 10
23.1906847529
 20
-2.0585585162
 11
23.1906639241
 21
-2.0595690488
  0
LINE
  5
574
100
AcDbEntity
  8
IMPORT_IGES
100
AcDbLine
 62
253
  6
CONTINUOUS
 10
23.1027982605
 20
-2.1660005122
 11
23.1025085965
 21
-2.1758344784
  0
LINE
  5
575
100
AcDbEntity
  8
IMPORT_IGES
100
AcDbLine
 62
253
  6
CONTINUOUS
 10
23.1025085965
 20
-2.1758344784
 11
23.1021697869
 21
-2.1856374716
  0
LWPOLYLINE
  5
576
100
AcDbEntity
  8
IMPORT_IGES
100
AcDbPolyline
 62
253
  6
CONTINUOUS
 90
10
 70
0
 10
24.2270877188
 20
3.8540293829
 10
24.224348087
 20
3.7792389838
 10
24.216272899
 20
3.7085518802
 10
24.2031043431
 20
3.6423838213
 10
24.1852347061
 20
3.5814322355
 10
24.16290013
 20
3.5255925015
 10
24.1359046636
 20
3.4742305654
 10
24.104192386
 20
3.427578007
 10
24.0680419882
 20
3.3863378229
 10
24.0275424806
 20
3.3508327489
  0
LINE
  5
577
100
AcDbEntity
  8
IMPORT_IGES
100
AcDbLine
 62
7
  6
CONTINUOUS
 10
24.3120515599
 20
3.8833781965
 11
24.3149556845
 21
3.9600954001
  0
LINE
  5
578
100
AcDbEntity
  8
IMPORT_IGES
100
AcDbLine
 62
253
  6
CONTINUOUS
 10
23.1021697869
 20
-2.1856374716
 11
23.1017818579
 21
-2.1954102686
  0
LWPOLYLINE
  5
579
100
AcDbEntity
  8
IMPORT_IGES
100
AcDbPolyline
 62
253
  6
CONTINUOUS
 90
16
 70
0
 10
23.2724935643
 20
5.9660598837
 10
23.2705282686
 20
5.9194842843
 10
23.264736267
 20
5.8719726283
 10
23.2553015785
 20
5.8240790792
 10
23.2425323074
 20
5.7766309923
 10
23.2266244928
 20
5.7298285135
 10
23.2074550804
 20
5.6832633498
 10
23.1850130753
 20
5.6371743842
 10
23.159568242
 20
5.5923477954
 10
23.1312854824
 20
5.5492417403
 10
23.1003668664
 20
5.5083426673
 10
23.0671291809
 20
5.4702363046
 10
23.0319720284
 20
5.4355117779
 10
22.995292999
 20
5.4046652705
 10
22.9574716019
 20
5.3781162602
 10
22.9189388207
 20
5.356271163
  0
LWPOLYLINE
  5
57A
100
AcDbEntity
  8
IMPORT_IGES
100
AcDbPolyline
 62
253
  6
CONTINUOUS
 90
3
 70
0
 10
23.1017818579
 20
-2.1954102686
 10
23.1013446586
 20
-2.2051569335
 10
23.101107594
 20
-2.2100200765
  0
LWPOLYLINE
  5
57B
100
AcDbEntity
  8
IMPORT_IGES
100
AcDbPolyline
 62
253
  6
CONTINUOUS
 90
11
 70
0
 10
23.101107594
 20
-2.2100200765
 10
23.0898902415
 20
-2.3399491922
 10
23.0691758595
 20
-2.4657077359
 10
23.0386609429
 20
-2.5860827687
 10
22.9978988853
 20
-2.7003560338
 10
22.9468815376
 20
-2.8066223099
 10
22.8865024451
 20
-2.9022930182
 10
22.81736349
 20
-2.9864225747
 10
22.739862098
 20
-3.0585344508
 10
22.6552902039
 20
-3.1176065741
 10
22.6079159798
 20
-3.1435391932
  0
LWPOLYLINE
  5
57C
100
AcDbEntity
  8
IMPORT_IGES
100
AcDbPolyline
 62
253
  6
CONTINUOUS
 90
7
 70
0
 10
23.2676325753
 20
3.684806162
 10
23.2656378351
 20
3.6668421482
 10
23.2584722909
 20
3.6476841965
 10
23.2461247076
 20
3.628974955
 10
23.2287397531
 20
3.6110869502
 10
23.2065153708
 20
3.5943340223
 10
23.1797628856
 20
3.5790488463
  0
LWPOLYLINE
  5
57D
100
AcDbEntity
  8
IMPORT_IGES
100
AcDbPolyline
 62
253
  6
CONTINUOUS
 90
7
 70
0
 10
24.3149556845
 20
6.0385563692
 10
24.312956297
 20
6.0212673918
 10
24.3057930743
 20
6.0017677409
 10
24.2934472619
 20
5.9827835233
 10
24.2760635647
 20
5.9646938705
 10
24.2538399349
 20
5.9478172997
 10
24.2270877188
 20
5.9324903521
  0
LINE
  5
57E
100
AcDbEntity
  8
IMPORT_IGES
100
AcDbLine
 62
7
  6
CONTINUOUS
 10
24.3034717805
 20
3.8099289329
 11
24.3120515599
 21
3.8833781965
  0
LWPOLYLINE
  5
57F
100
AcDbEntity
  8
IMPORT_IGES
100
AcDbPolyline
 62
7
  6
CONTINUOUS
 90
7
 70
0
 10
23.1906639241
 20
-2.0595690488
 10
23.1881347873
 20
-2.0776507277
 10
23.1805220569
 20
-2.0974361481
 10
23.1679574215
 20
-2.1164799733
 10
23.1506173493
 20
-2.134462206
 10
23.1287802676
 20
-2.1510640471
 10
23.1027987729
 20
-2.1659939196
  0
LINE
  5
580
100
AcDbEntity
  8
IMPORT_IGES
100
AcDbLine
 62
7
  6
CONTINUOUS
 10
23.3588393309
 20
2.6337173061
 11
23.3893520788
 21
2.8432029817
  0
LWPOLYLINE
  5
581
100
AcDbEntity
  8
IMPORT_IGES
100
AcDbPolyline
 62
253
  6
CONTINUOUS
 90
3
 70
0
 10
24.3118680126
 20
3.9386299078
 10
24.3149208474
 20
3.9578095186
 10
24.3149556753
 20
3.9600582198
  0
LWPOLYLINE
  5
582
100
AcDbEntity
  8
RACCORDO
100
AcDbPolyline
 62
7
  6
CONTINUOUS
 90
27
 70
0
 10
7.473963713
 20
-27.5979506833
 10
7.4627246916
 20
-27.6101265448
 10
7.4512895439
 20
-27.6222234698
 10
7.4396572433
 20
-27.6342332997
 10
7.4278240734
 20
-27.6461478033
 10
7.4157923819
 20
-27.6579589732
 10
7.4035701703
 20
-27.6696587439
 10
7.3911572413
 20
-27.681238259
 10
7.378552878
 20
-27.6926896616
 10
7.3657637981
 20
-27.7040057623
 10
7.3527899782
 20
-27.7151774168
 10
7.3396309899
 20
-27.726196384
 10
7.3262923056
 20
-27.7370559431
 10
7.3127739708
 20
-27.7477465887
 10
7.2990759412
 20
-27.7582594761
 10
7.2852028116
 20
-27.7685876838
 10
7.2711549668
 20
-27.7787210061
 10
7.2569325595
 20
-27.7886500258
 10
7.2425390019
 20
-27.7983674419
 10
7.2279749674
 20
-27.807862238
 10
7.2132409766
 20
-27.8171241293
 10
7.198339291
 20
-27.8261448768
 10
7.1832710047
 20
-27.8349124157
 10
7.168037098
 20
-27.843415357
 10
7.1526386773
 20
-27.8516438478
 10
7.1370774745
 20
-27.8595845013
 10
7.1213550764
 20
-27.8672245361
  0
LWPOLYLINE
  5
583
100
AcDbEntity
  8
RACCORDO
100
AcDbPolyline
 62
253
  6
CONTINUOUS
 90
40
 70
0
 10
1.1298433141
 20
-26.0017404993
 10
1.1225502858
 20
-26.0054642089
 10
1.1149933605
 20
-26.0090393856
 10
1.1071845248
 20
-26.0124603585
 10
1.099136165
 20
-26.0157217012
 10
1.0908610474
 20
-26.0188182408
 10
1.0823722979
 20
-26.0217450654
 10
1.0736833813
 20
-26.0244975326
 10
1.0648080799
 20
-26.0270712764
 10
1.0557604716
 20
-26.0294622144
 10
1.0465549076
 20
-26.0316665541
 10
1.0372059898
 20
-26.033680799
 10
1.0277285472
 20
-26.0355017541
 10
1.018137613
 20
-26.037126531
 10
1.0084484002
 20
-26.0385525525
 10
0.9986762777
 20
-26.0397775567
 10
0.988836746
 20
-26.0407996005
 10
0.9789454125
 20
-26.0416170627
 10
0.9690179668
 20
-26.0422286467
 10
0.9590701556
 20
-26.0426333824
 10
0.949117758
 20
-26.0428306278
 10
0.9391765606
 20
-26.04282007
 10
0.9292623319
 20
-26.0426017257
 10
0.9193907979
 20
-26.0421759414
 10
0.9095776165
 20
-26.0415433924
 10
0.8998383535
 20
-26.040705082
 10
0.8901884572
 20
-26.03966234
 10
0.8806432341
 20
-26.0384168202
 10
0.8712178249
 20
-26.0369704985
 10
0.8619271799
 20
-26.0353256689
 10
0.852786036
 20
-26.0334849404
 10
0.8438088927
 20
-26.0314512328
 10
0.8350099896
 20
-26.0292277719
 10
0.8264032833
 20
-26.0268180846
 10
0.8180024258
 20
-26.0242259931
 10
0.8098207424
 20
-26.0214556089
 10
0.8018712108
 20
-26.0185113264
 10
0.7941664405
 20
-26.0153978158
 10
0.7867186528
 20
-26.0121200157
 10
0.7795396613
 20
-26.0086831254
  0
LINE
  5
584
100
AcDbEntity
  8
ASSI
100
AcDbLine
 62
253
  6
CONTINUOUS
 10
9.0950026014
 20
-20.3910176208
 11
9.0807161256
 21
-20.3981608592
  0
LINE
  5
585
100
AcDbEntity
  8
ASSI
100
AcDbLine
 62
7
  6
CONTINUOUS
 10
9.9788860779
 20
-20.8472458353
 11
9.139654791
 21
-21.2668614788
  0
LINE
  5
586
100
AcDbEntity
  8
RACCORDO
100
AcDbLine
 62
7
  6
CONTINUOUS
 10
10.1379920839
 20
-20.0579635918
 11
9.2653200962
 21
-20.4904628444
  0
LINE
  5
587
100
AcDbEntity
  8
DRAFT
100
AcDbLine
 62
7
  6
CONTINUOUS
 10
12.5951811683
 20
-20.5285732787
 11
10.4387068314
 21
-21.5929813919
  0
LINE
  5
588
100
AcDbEntity
  8
RACCORDO
100
AcDbLine
 62
7
  6
CONTINUOUS
 10
11.3823299805
 20
-20.3026251121
 11
9.2749151413
 21
-21.3344916539
  0
LINE
  5
589
100
AcDbEntity
  8
ASSI
100
AcDbLine
 62
7
  6
CONTINUOUS
 10
9.1399513977
 20
-20.4277784952
 11
9.7713542671
 21
-20.1202155693
  0
LINE
  5
58A
100
AcDbEntity
  8
ASSI
100
AcDbLine
 62
7
  6
CONTINUOUS
 10
7.3430981768
 20
17.5747733475
 11
9.7713542671
 21
18.1412205676
  0
LINE
  5
58B
100
AcDbEntity
  8
RACCORDO
100
AcDbLine
 62
7
  6
CONTINUOUS
 10
1.4149889859
 20
17.0968870125
 11
3.0067720452
 21
17.4605785592
  0
LINE
  5
58C
100
AcDbEntity
  8
RACCORDO
100
AcDbLine
 62
7
  6
CONTINUOUS
 10
1.0659883842
 20
17.371967978
 11
3.0679904127
 21
17.8293866005
  0
LWPOLYLINE
  5
58D
100
AcDbEntity
  8
RACCORDO
100
AcDbPolyline
 62
7
  6
CONTINUOUS
 90
25
 70
0
 10
3.0679904127
 20
17.8293866005
 10
3.0773976094
 20
17.8313075596
 10
3.0872820488
 20
17.8329061114
 10
3.0976437306
 20
17.8341822558
 10
3.1085309744
 20
17.8351386886
 10
3.1198954607
 20
17.8357727141
 10
3.1315922316
 20
17.836076245
 10
3.1436255436
 20
17.8360450478
 10
3.1559911401
 20
17.8356833561
 10
3.1685312937
 20
17.8349957832
 10
3.1812482405
 20
17.8339781549
 10
3.1941397443
 20
17.8326346455
 10
3.2070413696
 20
17.830982392
 10
3.219953246
 20
17.8290174395
 10
3.2328752439
 20
17.8267437428
 10
3.2456425386
 20
17.8241903037
 10
3.2582531485
 20
17.8213535389
 10
3.2707090553
 20
17.8182370318
 10
3.2828513795
 20
17.8148805345
 10
3.2946761042
 20
17.8112809728
 10
3.3061872463
 20
17.8074414208
 10
3.3172379773
 20
17.8034108536
 10
3.3277793541
 20
17.7992055958
 10
3.3378603198
 20
17.7948093227
 10
3.3474808743
 20
17.7902220343
  0
LINE
  5
58E
100
AcDbEntity
  8
IMPORT_IGES
100
AcDbLine
 62
253
  6
CONTINUOUS
 10
17.0384661769
 20
12.4073685862
 11
19.8078804642
 21
11.2342368995
  0
LINE
  5
58F
100
AcDbEntity
  8
IMPORT_IGES
100
AcDbLine
 62
253
  6
CONTINUOUS
 10
19.7515781137
 20
11.4837453612
 11
16.9821645231
 21
12.6568767528
  0
LINE
  5
590
100
AcDbEntity
  8
IMPORT_IGES
100
AcDbLine
 62
7
  6
CONTINUOUS
 10
19.7515782821
 20
11.4837452769
 11
19.7725682227
 21
11.4740969157
  0
LWPOLYLINE
  5
591
100
AcDbEntity
  8
0
100
AcDbPolyline
 62
7
  6
CONTINUOUS
 90
6
 70
0
 10
3.5837746407
 20
20.4211760581
 10
3.5673593165
 20
20.4287807269
 10
3.5369646485
 20
20.4399002145
 10
3.5053624041
 20
20.4477774186
 10
3.4724236386
 20
20.4524742187
 10
3.4381483519
 20
20.4539906147
  0
LINE
  5
592
100
AcDbEntity
  8
IMPORT_IGES
100
AcDbLine
 62
253
  6
CONTINUOUS
 10
18.6124500376
 20
11.2699438229
 11
18.5824076106
 21
11.2847569615
  0
LINE
  5
593
100
AcDbEntity
  8
IMPORT_IGES
100
AcDbLine
 62
253
  6
CONTINUOUS
 10
18.6124500376
 20
11.2699438229
 11
20.6352413677
 21
10.2585739193
  0
LINE
  5
594
100
AcDbEntity
  8
IMPORT_IGES
100
AcDbLine
 62
253
  6
CONTINUOUS
 10
18.7357675153
 20
11.2198181225
 11
21.4456649811
 21
9.864869256
  0
LINE
  5
595
100
AcDbEntity
  8
IMPORT_IGES
100
AcDbLine
 62
7
  6
CONTINUOUS
 10
21.4565585079
 20
9.8598463757
 11
18.7467495465
 21
11.2147508564
  0
LINE
  5
596
100
AcDbEntity
  8
DRAFT
100
AcDbLine
 62
7
  6
CONTINUOUS
 10
-2.8197466616
 20
22.0066767138
 11
-1.7475145505
 21
21.4705606583
  0
LINE
  5
597
100
AcDbEntity
  8
DRAFT
100
AcDbLine
 62
7
  6
CONTINUOUS
 10
10.1910181123
 20
15.5012943269
 11
10.7904381666
 21
15.2015842997
  0
LINE
  5
598
100
AcDbEntity
  8
IMPORT_IGES
100
AcDbLine
 62
253
  6
CONTINUOUS
 10
16.1279751494
 20
12.5816334925
 11
15.1090346817
 21
13.0911037264
  0
LINE
  5
599
100
AcDbEntity
  8
RACCORDO
100
AcDbLine
 62
7
  6
CONTINUOUS
 10
0.2915231757
 20
20.9038354178
 11
1.7410920771
 21
20.1790509671
  0
LINE
  5
59A
100
AcDbEntity
  8
RACCORDO
100
AcDbLine
 62
7
  6
CONTINUOUS
 10
8.7289800297
 20
16.6851069908
 11
7.3272356485
 21
17.3859791814
  0
LINE
  5
59B
100
AcDbEntity
  8
IMPORT_IGES
100
AcDbLine
 62
253
  6
CONTINUOUS
 10
16.9821645231
 20
12.6568767528
 11
15.4231885355
 21
13.4363647465
  0
LINE
  5
59C
100
AcDbEntity
  8
DRAFT
100
AcDbLine
 62
7
  6
CONTINUOUS
 10
10.1910181123
 20
16.1508133797
 11
7.3430981768
 21
17.5747733475
  0
LINE
  5
59D
100
AcDbEntity
  8
DRAFT
100
AcDbLine
 62
7
  6
CONTINUOUS
 10
1.7252295488
 20
20.3837076615
 11
-1.1226903867
 21
21.8076676292
  0
LINE
  5
59E
100
AcDbEntity
  8
IMPORT_IGES
100
AcDbLine
 62
253
  6
CONTINUOUS
 10
15.5555041348
 20
13.5817820898
 11
19.7515781137
 21
11.4837453612
  0
LINE
  5
59F
100
AcDbEntity
  8
IMPORT_IGES
100
AcDbLine
 62
7
  6
CONTINUOUS
 10
15.5560345714
 20
13.5823650497
 11
19.7734335151
 21
11.4736655779
  0
LINE
  5
5A0
100
AcDbEntity
  8
0
100
AcDbLine
 62
253
  6
CONTINUOUS
 10
8.531172509
 20
17.8519193229
 11
3.3484530526
 21
20.4432790511
  0
LINE
  5
5A1
100
AcDbEntity
  8
0
100
AcDbLine
 62
7
  6
CONTINUOUS
 10
3.583787194
 20
20.4212047214
 11
8.6615369255
 21
17.8823298557
  0
LINE
  5
5A2
100
AcDbEntity
  8
IMPORT_IGES
100
AcDbLine
 62
7
  6
CONTINUOUS
 10
18.7467453325
 20
11.2147529634
 11
18.7470509984
 21
11.2145997913
  0
LWPOLYLINE
  5
5A3
100
AcDbEntity
  8
IMPORT_IGES
100
AcDbPolyline
 62
253
  6
CONTINUOUS
 90
5
 70
0
 10
20.6352413677
 20
10.2585739193
 10
20.6638975064
 20
10.2440425558
 10
20.6885572213
 20
10.231320717
 10
20.7092205123
 20
10.2204084029
 10
20.7258948145
 20
10.2112982549
  0
LWPOLYLINE
  5
5A4
100
AcDbEntity
  8
RACCORDO
100
AcDbPolyline
 62
7
  6
CONTINUOUS
 90
49
 70
0
 10
-2.9934651062
 20
23.3033824347
 10
-2.9876845905
 20
23.3003749145
 10
-2.981913489
 20
23.2971371173
 10
-2.9761578682
 20
23.2936725233
 10
-2.9704236595
 20
23.2899848987
 10
-2.9647170141
 20
23.2860781635
 10
-2.9590442964
 20
23.2819563923
 10
-2.9534114764
 20
23.2776240175
 10
-2.9478244798
 20
23.2730856997
 10
-2.9422895415
 20
23.2683462027
 10
-2.9368124905
 20
23.2634106252
 10
-2.93139909
 20
23.2582842796
 10
-2.9260553844
 20
23.2529725729
 10
-2.9207870042
 20
23.2474812209
 10
-2.9155994934
 20
23.2418161363
 10
-2.9104986468
 20
23.2359833165
 10
-2.9054898407
 20
23.2299890391
 10
-2.9005783456
 20
23.2238397592
 10
-2.8957696494
 20
23.2175420068
 10
-2.8910688216
 20
23.2111025595
 10
-2.8864808071
 20
23.2045283522
 10
-2.8820107328
 20
23.1978263835
 10
-2.8776633118
 20
23.1910038648
 10
-2.8734431146
 20
23.1840681429
 10
-2.8693548566
 20
23.1770266165
 10
-2.8654028478
 20
23.1698868603
 10
-2.8615912397
 20
23.1626565609
 10
-2.8579242895
 20
23.1553434442
 10
-2.8544058618
 20
23.1479553744
 10
-2.8510396484
 20
23.140500302
 10
-2.8478294062
 20
23.1329862048
 10
-2.8447785168
 20
23.1254211585
 10
-2.8418901754
 20
23.1178133
 10
-2.8391676024
 20
23.1101707802
 10
-2.8366136627
 20
23.1025018073
 10
-2.8342310241
 20
23.0948146246
 10
-2.8320223387
 20
23.0871174755
 10
-2.8299899267
 20
23.0794186204
 10
-2.8281359028
 20
23.0717263277
 10
-2.8264623245
 20
23.0640488528
 10
-2.8249709455
 20
23.0563944266
 10
-2.8236633063
 20
23.048771262
 10
-2.8225408506
 20
23.0411875445
 10
-2.8216050681
 20
23.0336539706
 10
-2.8208564639
 20
23.0261759996
 10
-2.8202952748
 20
23.0187540673
 10
-2.8199225284
 20
23.011393845
 10
-2.8197394086
 20
23.0041060222
 10
-2.8197466616
 20
22.0066767138
  0
LWPOLYLINE
  5
5A5
100
AcDbEntity
  8
RACCORDO
100
AcDbPolyline
 62
7
  6
CONTINUOUS
 90
14
 70
0
 10
7.3272356485
 20
17.3859791814
 10
7.3182272964
 20
17.3907063462
 10
7.3099149701
 20
17.3955067191
 10
7.3022986697
 20
17.4003803001
 10
7.2953518179
 20
17.4053485241
 10
7.289100992
 20
17.4103899562
 10
7.2836259233
 20
17.4154402912
 10
7.2789365492
 20
17.420499643
 10
7.2750229325
 20
17.4255678977
 10
7.2719349925
 20
17.4305804078
 10
7.2696833061
 20
17.4355364593
 10
7.2682572966
 20
17.4404367663
 10
7.2676751532
 20
17.4452188237
 10
7.2680092492
 20
17.4502684914
  0
LINE
  5
5A6
100
AcDbEntity
  8
IMPORT_IGES
100
AcDbLine
 62
7
  6
CONTINUOUS
 10
19.772560806
 20
11.4740992702
 11
19.7923393027
 21
11.4637049909
  0
LWPOLYLINE
  5
5A7
100
AcDbEntity
  8
IMPORT_IGES
100
AcDbPolyline
 62
253
  6
CONTINUOUS
 90
10
 70
0
 10
19.8078804642
 20
11.2342368995
 10
19.852353424
 20
11.2107234786
 10
19.8922998829
 20
11.18086766
 10
19.927719841
 20
11.1446694435
 10
19.9588764588
 20
11.1016375646
 10
19.9855065759
 20
11.0522632879
 10
20.0068207097
 20
10.9980204076
 10
20.0225556997
 20
10.9394001881
 10
20.0329747065
 20
10.875911365
 10
20.0380777301
 20
10.8075539381
  0
LINE
  5
5A8
100
AcDbEntity
  8
IMPORT_IGES
100
AcDbLine
 62
7
  6
CONTINUOUS
 10
21.4559559629
 20
9.8601454374
 11
21.4742689477
 21
9.850391865
  0
LINE
  5
5A9
100
AcDbEntity
  8
IMPORT_IGES
100
AcDbLine
 62
253
  6
CONTINUOUS
 10
17.5484965264
 20
11.5469726559
 11
17.5362050976
 21
11.5535548577
  0
LINE
  5
5AA
100
AcDbEntity
  8
IMPORT_IGES
100
AcDbLine
 62
7
  6
CONTINUOUS
 10
17.6452024406
 20
11.5484602405
 11
17.6255584497
 21
11.5592562049
  0
LWPOLYLINE
  5
5AB
100
AcDbEntity
  8
IMPORT_IGES
100
AcDbPolyline
 62
253
  6
CONTINUOUS
 90
9
 70
0
 10
20.7258948145
 20
10.2112982549
 10
20.7385726928
 20
10.2039976317
 10
20.7472318423
 20
10.1985286091
 10
20.7518489839
 20
10.1948948089
 10
20.7524473967
 20
10.1930926095
 10
20.7490746125
 20
10.1931332212
 10
20.7421278
 20
10.19484737
 10
20.7312097904
 20
10.1984043299
 10
20.7151766097
 20
10.204323134
  0
LWPOLYLINE
  5
5AC
100
AcDbEntity
  8
IMPORT_IGES
100
AcDbPolyline
 62
253
  6
CONTINUOUS
 90
19
 70
0
 10
18.4001735134
 20
11.0112482412
 10
18.3869255725
 20
11.0189157943
 10
18.3724002661
 20
11.0282333709
 10
18.3566821866
 20
11.0391507831
 10
18.3394785491
 20
11.0521583751
 10
18.3212764467
 20
11.0666370621
 10
18.3034812843
 20
11.0810247247
 10
18.2871966336
 20
11.0947441537
 10
18.2717314967
 20
11.1086546654
 10
18.2558224199
 20
11.1233559241
 10
18.2390991561
 20
11.1390212919
 10
18.2221467209
 20
11.1553691554
 10
18.2051184381
 20
11.17217683
 10
18.1881134311
 20
11.1894915931
 10
18.1713319522
 20
11.207208071
 10
18.1550772007
 20
11.224900047
 10
18.139542937
 20
11.2424364288
 10
18.1248315093
 20
11.2599621684
 10
18.1110930525
 20
11.2774909618
  0
LWPOLYLINE
  5
5AD
100
AcDbEntity
  8
IMPORT_IGES
100
AcDbPolyline
 62
253
  6
CONTINUOUS
 90
13
 70
0
 10
16.0868310073
 20
12.5610614027
 10
16.1049560522
 20
12.5505704688
 10
16.1227192391
 20
12.5374474329
 10
16.1398344207
 20
12.5219346802
 10
16.1559516808
 20
12.5044035586
 10
16.1709121587
 20
12.4850836175
 10
16.1846891937
 20
12.4639698736
 10
16.1970764798
 20
12.4412192357
 10
16.2077186964
 20
12.417299688
 10
16.2163438835
 20
12.3926672781
 10
16.2227414675
 20
12.367767963
 10
16.2267491691
 20
12.3430242779
 10
16.2282336517
 20
12.3188968488
  0
LWPOLYLINE
  5
5AE
100
AcDbEntity
  8
IMPORT_IGES
100
AcDbPolyline
 62
253
  6
CONTINUOUS
 90
13
 70
0
 10
18.582407668
 20
11.2847570957
 10
18.56936849
 20
11.2926448033
 10
18.5576457536
 20
11.302613372
 10
18.5474167047
 20
11.3144746674
 10
18.5388701458
 20
11.3279392473
 10
18.5320675101
 20
11.3428280345
 10
18.527034151
 20
11.3591479061
 10
18.5239042812
 20
11.3767893987
 10
18.5228390538
 20
11.3953801927
 10
18.5239185792
 20
11.4145362535
 10
18.5271616837
 20
11.433900085
 10
18.5325542629
 20
11.4531545842
 10
18.5400415774
 20
11.471945809
  0
LWPOLYLINE
  5
5AF
100
AcDbEntity
  8
IMPORT_IGES
100
AcDbPolyline
 62
253
  6
CONTINUOUS
 90
13
 70
0
 10
19.8217779616
 20
10.5532548809
 10
19.8474555575
 20
10.5376852409
 10
19.8707579109
 20
10.5178673932
 10
19.89126433
 20
10.4940663479
 10
19.9086051595
 20
10.4665947603
 10
19.9224207236
 20
10.4358832912
 10
19.9324024848
 20
10.4025015611
 10
19.9383561494
 20
10.3670002323
 10
19.9401543261
 20
10.3299720629
 10
19.9377517536
 20
10.2921442948
 10
19.9312040545
 20
10.2541970982
 10
19.9206291689
 20
10.2167423908
 10
19.9062133882
 20
10.1804154539
  0
LWPOLYLINE
  5
5B0
100
AcDbEntity
  8
IMPORT_IGES
100
AcDbPolyline
 62
253
  6
CONTINUOUS
 90
4
 70
0
 10
18.7357676054
 20
11.2198183116
 10
18.7228818944
 20
11.2276651557
 10
18.7112605598
 20
11.2375748227
 10
18.7010869481
 20
11.2493789892
  0
LWPOLYLINE
  5
5B1
100
AcDbEntity
  8
IMPORT_IGES
100
AcDbPolyline
 62
253
  6
CONTINUOUS
 90
4
 70
0
 10
19.7515548914
 20
11.4837569797
 10
19.7693442034
 20
11.4729101491
 10
19.7853750482
 20
11.459060463
 10
19.7993524794
 20
11.4424301275
  0
LINE
  5
5B2
100
AcDbEntity
  8
IMPORT_IGES
100
AcDbLine
 62
253
  6
CONTINUOUS
 10
21.4728087819
 20
9.8482303462
 11
21.4456723784
 21
9.8648655285
  0
LWPOLYLINE
  5
5B3
100
AcDbEntity
  8
IMPORT_IGES
100
AcDbPolyline
 62
253
  6
CONTINUOUS
 90
16
 70
0
 10
16.1279586453
 20
12.5816252405
 10
16.1460252623
 20
12.5705212704
 10
16.1634167678
 20
12.557355651
 10
16.1799035723
 20
12.5426463257
 10
16.1955089267
 20
12.5271060545
 10
16.2099679828
 20
12.5109728425
 10
16.2226662794
 20
12.4939235943
 10
16.2337116971
 20
12.4761276632
 10
16.242912678
 20
12.4579731073
 10
16.249233664
 20
12.4393664621
 10
16.2523486889
 20
12.4207345863
 10
16.2527763748
 20
12.4020482767
 10
16.2506444084
 20
12.3824790827
 10
16.2458880315
 20
12.3618413299
 10
16.2384311679
 20
12.3405987668
 10
16.2282336517
 20
12.3188968488
  0
LINE
  5
5B4
100
AcDbEntity
  8
IMPORT_IGES
100
AcDbLine
 62
7
  6
CONTINUOUS
 10
19.7923393027
 20
11.4637049909
 11
19.8381500427
 21
11.4350417357
  0
LINE
  5
5B5
100
AcDbEntity
  8
IMPORT_IGES
100
AcDbLine
 62
7
  6
CONTINUOUS
 10
21.4742689477
 20
9.850391865
 11
21.5115539878
 21
9.8261939056
  0
LINE
  5
5B6
100
AcDbEntity
  8
IMPORT_IGES
100
AcDbLine
 62
7
  6
CONTINUOUS
 10
17.6739383376
 20
11.5287924422
 11
17.6452024406
 21
11.5484602405
  0
LINE
  5
5B7
100
AcDbEntity
  8
IMPORT_IGES
100
AcDbLine
 62
253
  6
CONTINUOUS
 10
19.4474175828
 20
10.8644168382
 11
18.7803812458
 21
11.3460666589
  0
LWPOLYLINE
  5
5B8
100
AcDbEntity
  8
IMPORT_IGES
100
AcDbPolyline
 62
253
  6
CONTINUOUS
 90
4
 70
0
 10
17.5851395464
 20
11.5220806153
 10
17.5729949991
 20
11.5312228904
 10
17.5607737769
 20
11.5395221492
 10
17.5484965264
 20
11.5469726559
  0
LWPOLYLINE
  5
5B9
100
AcDbEntity
  8
IMPORT_IGES
100
AcDbPolyline
 62
7
  6
CONTINUOUS
 90
11
 70
0
 10
19.8381500427
 20
11.4350417357
 10
19.8814466801
 20
11.4010713546
 10
19.9217282235
 20
11.3619508561
 10
19.9586433278
 20
11.3177851541
 10
19.991969899
 20
11.2685118131
 10
20.0214835822
 20
11.2139333129
 10
20.0466249267
 20
11.1544656237
 10
20.0668637017
 20
11.0909964923
 10
20.0820161834
 20
11.0240326247
 10
20.0920333696
 20
10.9536056289
 10
20.0967822285
 20
10.8800218052
  0
LWPOLYLINE
  5
5BA
100
AcDbEntity
  8
IMPORT_IGES
100
AcDbPolyline
 62
7
  6
CONTINUOUS
 90
8
 70
0
 10
21.5115539878
 20
9.8261939056
 10
21.546286479
 20
9.7973115159
 10
21.5777276635
 20
9.7641506206
 10
21.6054575077
 20
9.7269879603
 10
21.6292851185
 20
9.6857364815
 10
21.648768235
 20
9.6405249959
 10
21.6633309055
 20
9.5919467035
 10
21.6725847117
 20
9.5405315125
  0
LWPOLYLINE
  5
5BB
100
AcDbEntity
  8
IMPORT_IGES
100
AcDbPolyline
 62
253
  6
CONTINUOUS
 90
8
 70
0
 10
18.2773486006
 20
10.8181531368
 10
18.2737473713
 20
10.8212999612
 10
18.2662817919
 20
10.8241986927
 10
18.2564810956
 20
10.8248659301
 10
18.2441480133
 20
10.8232269071
 10
18.2293112457
 20
10.819123655
 10
18.2124905315
 20
10.8126199966
 10
18.1941964058
 20
10.8039261304
  0
LINE
  5
5BC
100
AcDbEntity
  8
IMPORT_IGES
100
AcDbLine
 62
253
  6
CONTINUOUS
 10
18.2702927315
 20
10.7297758168
 11
18.232175535
 21
10.7649210746
  0
LWPOLYLINE
  5
5BD
100
AcDbEntity
  8
IMPORT_IGES
100
AcDbPolyline
 62
7
  6
CONTINUOUS
 90
3
 70
0
 10
16.457538091
 20
11.4756134751
 10
16.4350833694
 20
11.4969234887
 10
16.4086554201
 20
11.5162792618
  0
LWPOLYLINE
  5
5BE
100
AcDbEntity
  8
IMPORT_IGES
100
AcDbPolyline
 62
253
  6
CONTINUOUS
 90
13
 70
0
 10
23.9335135413
 20
6.5736257274
 10
23.9737473425
 20
6.5347419076
 10
24.0118110134
 20
6.492330455
 10
24.0480443139
 20
6.4460406373
 10
24.0822078011
 20
6.3959760169
 10
24.1136633373
 20
6.3428521339
 10
24.1420428073
 20
6.2870954011
 10
24.1669685356
 20
6.2291915638
 10
24.1880218704
 20
6.1698156009
 10
24.2048215005
 20
6.1097456825
 10
24.2170760952
 20
6.0497118832
 10
24.2245605235
 20
5.9903844573
 10
24.2270877188
 20
5.932490352
  0
LWPOLYLINE
  5
5BF
100
AcDbEntity
  8
IMPORT_IGES
100
AcDbPolyline
 62
253
  6
CONTINUOUS
 90
10
 70
0
 10
18.7803812458
 20
11.3460666589
 10
18.7720548916
 20
11.3545662213
 10
18.7633978146
 20
11.3626359954
 10
18.7544100148
 20
11.370275981
 10
18.7450849246
 20
11.3774947158
 10
18.7354291116
 20
11.3842836623
 10
18.7254622786
 20
11.3906172077
 10
18.7151909931
 20
11.3964868144
 10
18.7046086876
 20
11.4019010202
 10
18.6937153622
 20
11.4068598248
  0
LINE
  5
5C0
100
AcDbEntity
  8
IMPORT_IGES
100
AcDbLine
 62
253
  6
CONTINUOUS
 10
18.232175535
 20
10.7649210746
 11
18.194197134
 21
10.8039273195
  0
LWPOLYLINE
  5
5C1
100
AcDbEntity
  8
IMPORT_IGES
100
AcDbPolyline
 62
7
  6
CONTINUOUS
 90
3
 70
0
 10
17.7253745795
 20
11.4789504236
 10
17.700206917
 20
11.5060740821
 10
17.6739383376
 20
11.5287924422
  0
LWPOLYLINE
  5
5C2
100
AcDbEntity
  8
IMPORT_IGES
100
AcDbPolyline
 62
253
  6
CONTINUOUS
 90
10
 70
0
 10
18.7635866555
 20
10.6057795899
 10
18.7462074383
 20
10.6248863253
 10
18.7280060912
 20
10.6413460877
 10
18.7093400495
 20
10.6549304296
 10
18.690705155
 20
10.6654052999
 10
18.6722879512
 20
10.6727891634
 10
18.6539756524
 20
10.6771092562
 10
18.6360028648
 20
10.6781537857
 10
18.6188496427
 20
10.675729749
 10
18.6034486128
 20
10.6700288126
  0
LWPOLYLINE
  5
5C3
100
AcDbEntity
  8
IMPORT_IGES
100
AcDbPolyline
 62
253
  6
CONTINUOUS
 90
6
 70
0
 10
17.6422710763
 20
11.4657143484
 10
17.6314896194
 20
11.4782284767
 10
17.6203546965
 20
11.4901641432
 10
17.6089008203
 20
11.5014752254
 10
17.5971430315
 20
11.5121354001
 10
17.5851395464
 20
11.5220806153
  0
LWPOLYLINE
  5
5C4
100
AcDbEntity
  8
IMPORT_IGES
100
AcDbPolyline
 62
253
  6
CONTINUOUS
 90
6
 70
0
 10
18.194197134
 20
10.8039273195
 10
18.132417902
 20
10.87723018
 10
18.0708245397
 20
10.9506264932
 10
18.0094170472
 20
11.0241162592
 10
17.9482914169
 20
11.0977472644
 10
17.8263097877
 20
11.2451462738
  0
LINE
  5
5C5
100
AcDbEntity
  8
IMPORT_IGES
100
AcDbLine
 62
7
  6
CONTINUOUS
 10
18.2773486006
 20
10.8181531368
 11
18.1068097501
 21
11.0216961103
  0
LINE
  5
5C6
100
AcDbEntity
  8
IMPORT_IGES
100
AcDbLine
 62
7
  6
CONTINUOUS
 10
18.1068097501
 20
11.0216961103
 11
17.9629459148
 21
11.193831962
  0
LINE
  5
5C7
100
AcDbEntity
  8
IMPORT_IGES
100
AcDbLine
 62
7
  6
CONTINUOUS
 10
17.9629459148
 20
11.193831962
 11
17.8193094518
 21
11.3660905783
  0
LWPOLYLINE
  5
5C8
100
AcDbEntity
  8
IMPORT_IGES
100
AcDbPolyline
 62
253
  6
CONTINUOUS
 90
3
 70
0
 10
17.8263097877
 20
11.2451462738
 10
17.7650698184
 20
11.3187231323
 10
17.6422835557
 20
11.4657271297
  0
LINE
  5
5C9
100
AcDbEntity
  8
IMPORT_IGES
100
AcDbLine
 62
7
  6
CONTINUOUS
 10
17.8193094518
 20
11.3660905783
 11
17.7253658844
 21
11.4789683901
  0
LWPOLYLINE
  5
5CA
100
AcDbEntity
  8
IMPORT_IGES
100
AcDbPolyline
 62
253
  6
CONTINUOUS
 90
10
 70
0
 10
19.8001602802
 20
10.4539216383
 10
19.8201645058
 20
10.4278717922
 10
19.8386251225
 20
10.3998718888
 10
19.8552888068
 20
10.3702633813
 10
19.8699160153
 20
10.3394271541
 10
19.8823029852
 20
10.3077414886
 10
19.8922754432
 20
10.2755751379
 10
19.8996705632
 20
10.2433366511
 10
19.9043498017
 20
10.2114712055
 10
19.906213442
 20
10.1804155717
  0
LWPOLYLINE
  5
5CB
100
AcDbEntity
  8
IMPORT_IGES
100
AcDbPolyline
 62
253
  6
CONTINUOUS
 90
10
 70
0
 10
18.7010869481
 20
11.2493789892
 10
18.6925530103
 20
11.262818529
 10
18.68574215
 20
11.2777189479
 10
18.6807038161
 20
11.2940530256
 10
18.6775738936
 20
11.3116949978
 10
18.6765087249
 20
11.3302863696
 10
18.6775884513
 20
11.3494431445
 10
18.6808319427
 20
11.368807815
 10
18.6862251276
 20
11.3880632111
 10
18.6937132887
 20
11.4068553301
  0
LWPOLYLINE
  5
5CC
100
AcDbEntity
  8
IMPORT_IGES
100
AcDbPolyline
 62
253
  6
CONTINUOUS
 90
4
 70
0
 10
19.7993524794
 20
11.4424301275
 10
19.8110780467
 20
11.4231694238
 10
19.8202316615
 20
11.4017005511
 10
19.8265390324
 20
11.3788323188
  0
LWPOLYLINE
  5
5CD
100
AcDbEntity
  8
IMPORT_IGES
100
AcDbPolyline
 62
7
  6
CONTINUOUS
 90
5
 70
0
 10
18.7694314178
 20
11.2034099207
 10
18.7646462216
 20
11.2116953617
 10
18.7590262198
 20
11.2263817481
 10
18.7555372602
 20
11.2422218266
 10
18.7542440919
 20
11.258940276
  0
LINE
  5
5CE
100
AcDbEntity
  8
IMPORT_IGES
100
AcDbLine
 62
253
  6
CONTINUOUS
 10
22.0432653095
 20
6.3259473761
 11
23.0648733304
 21
4.1341066581
  0
LINE
  5
5CF
100
AcDbEntity
  8
IMPORT_IGES
100
AcDbLine
 62
7
  6
CONTINUOUS
 10
23.1246880662
 20
4.3623606732
 11
22.1030793783
 21
6.5542006799
  0
LWPOLYLINE
  5
5D0
100
AcDbEntity
  8
IMPORT_IGES
100
AcDbPolyline
 62
253
  6
CONTINUOUS
 90
10
 70
0
 10
22.0432653095
 20
6.3259473761
 10
22.0210413715
 20
6.3762421841
 10
22.000495878
 20
6.4280773987
 10
21.9816288292
 20
6.48145302
 10
21.964423591
 20
6.5364312849
 10
21.9488967974
 20
6.5929499565
 10
21.9350983505
 20
6.6508223234
 10
21.9230448841
 20
6.7099861484
 10
21.9127197644
 20
6.7705036687
 10
21.9041229914
 20
6.8323748842
  0
LWPOLYLINE
  5
5D1
100
AcDbEntity
  8
IMPORT_IGES
100
AcDbPolyline
 62
7
  6
CONTINUOUS
 90
10
 70
0
 10
23.1246813327
 20
4.3623639592
 10
23.1532642909
 20
4.2964272496
 10
23.1787864805
 20
4.2278099848
 10
23.2011954644
 20
4.1566179032
 10
23.2204695689
 20
4.0828411587
 10
23.2365259314
 20
4.0066909902
 10
23.2492687862
 20
3.9286365803
 10
23.2586876841
 20
3.84893888
 10
23.2648077714
 20
3.7676150861
 10
23.267633118
 20
3.6848058882
  0
LWPOLYLINE
  5
5D2
100
AcDbEntity
  8
IMPORT_IGES
100
AcDbPolyline
 62
7
  6
CONTINUOUS
 90
8
 70
0
 10
22.1030639117
 20
6.5542408855
 10
22.0793918084
 20
6.6088967591
 10
22.0595177473
 20
6.6620076499
 10
22.0415907905
 20
6.7176494487
 10
22.025687652
 20
6.775692379
 10
22.011885269
 20
6.8359587522
 10
22.0002370939
 20
6.8983003543
 10
21.9907793425
 20
6.9625797376
  0
LWPOLYLINE
  5
5D3
100
AcDbEntity
  8
IMPORT_IGES
100
AcDbPolyline
 62
253
  6
CONTINUOUS
 90
10
 70
0
 10
23.0648733304
 20
4.1341066581
 10
23.0877858229
 20
4.0807061487
 10
23.1081826917
 20
4.0251355381
 10
23.1260639367
 20
3.9673948261
 10
23.1414578215
 20
3.9073481217
 10
23.1543360825
 20
3.8451313159
 10
23.164613929
 20
3.7811520826
 10
23.1722630974
 20
3.715546313
 10
23.1773118515
 20
3.6481781159
 10
23.179760191
 20
3.5790474911
  0
LWPOLYLINE
  5
5D4
100
AcDbEntity
  8
IMPORT_IGES
100
AcDbPolyline
 62
253
  6
CONTINUOUS
 90
9
 70
0
 10
22.103067154
 20
6.5542269
 10
22.1119906076
 20
6.5295363352
 10
22.1165650111
 20
6.5026898173
 10
22.1164399594
 20
6.4740875645
 10
22.1114047225
 20
6.4443570063
 10
22.1014355167
 20
6.414128123
 10
22.0866339363
 20
6.3839745655
 10
22.0671567313
 20
6.3543966238
 10
22.0432649759
 20
6.3259470205
  0
LWPOLYLINE
  5
5D5
100
AcDbEntity
  8
IMPORT_IGES
100
AcDbPolyline
 62
253
  6
CONTINUOUS
 90
9
 70
0
 10
23.1246857158
 20
4.3623657157
 10
23.1335990014
 20
4.3376974349
 10
23.138173709
 20
4.3108496885
 10
23.1380485426
 20
4.2822463612
 10
23.1330128628
 20
4.2525148064
 10
23.1230431367
 20
4.2222855103
 10
23.1082413264
 20
4.192132295
 10
23.0887644034
 20
4.1625552567
 10
23.0648736639
 20
4.1341070137
  0
LWPOLYLINE
  5
5D6
100
AcDbEntity
  8
IMPORT_IGES
100
AcDbPolyline
 62
253
  6
CONTINUOUS
 90
5
 70
0
 10
23.3180234239
 20
2.9885700279
 10
23.3253592838
 20
2.9518231773
 10
23.3326333793
 20
2.8899033111
 10
23.3344696542
 20
2.830068302
 10
23.3308444664
 20
2.773088527
  0
LWPOLYLINE
  5
5D7
100
AcDbEntity
  8
IMPORT_IGES
100
AcDbPolyline
 62
7
  6
CONTINUOUS
 90
5
 70
0
 10
23.3834666195
 20
3.0212916257
 10
23.3850566133
 20
3.0131249375
 10
23.3915030845
 20
2.9558827352
 10
23.3930184539
 20
2.8991021571
 10
23.3893520788
 20
2.8432029817
  0
LWPOLYLINE
  5
5D8
100
AcDbEntity
  8
IMPORT_IGES
100
AcDbPolyline
 62
7
  6
CONTINUOUS
 90
10
 70
0
 10
21.5869447783
 20
9.40227677
 10
21.5843925685
 20
9.4165001362
 10
21.5808631919
 20
9.4297157489
 10
21.5763566485
 20
9.4419236079
 10
21.5708246937
 20
9.4531969887
 10
21.5643155722
 20
9.4634626158
 10
21.5569740181
 20
9.4725006632
 10
21.5488482762
 20
9.4802378554
 10
21.5398901018
 20
9.4867474678
 10
21.5300994948
 20
9.4920295005
  0
LINE
  5
5D9
100
AcDbEntity
  8
IMPORT_IGES
100
AcDbLine
 62
253
  6
CONTINUOUS
 10
21.5869447783
 20
9.40227677
 11
21.9041229914
 21
6.8323748842
  0
LINE
  5
5DA
100
AcDbEntity
  8
IMPORT_IGES
100
AcDbLine
 62
7
  6
CONTINUOUS
 10
21.9907793425
 20
6.9625797376
 11
21.6725875001
 21
9.5405405685
  0
LINE
  5
5DB
100
AcDbEntity
  8
RACCORDO
100
AcDbLine
 62
7
  6
CONTINUOUS
 10
3.9527909525
 20
-26.4095401031
 11
3.7697895778
 21
-26.4979012897
  0
LINE
  5
5DC
100
AcDbEntity
  8
ASSI
100
AcDbLine
 62
7
  6
CONTINUOUS
 10
1.7252295488
 20
20.3837076615
 11
4.1114701629
 21
20.9711626197
  0
LINE
  5
5DD
100
AcDbEntity
  8
RACCORDO
100
AcDbLine
 62
7
  6
CONTINUOUS
 10
1.3709341378
 20
18.6779147379
 11
-0.6310678907
 21
18.2204961154
  0
LINE
  5
5DE
100
AcDbEntity
  8
RACCORDO
100
AcDbLine
 62
7
  6
CONTINUOUS
 10
3.3484530526
 20
20.4432790511
 11
2.0205825388
 21
20.1398864009
  0
LINE
  5
5DF
100
AcDbEntity
  8
RACCORDO
100
AcDbLine
 62
7
  6
CONTINUOUS
 10
-2.6155196669
 20
19.1121413389
 11
-1.0237366076
 21
19.4758328856
  0
LINE
  5
5E0
100
AcDbEntity
  8
RACCORDO
100
AcDbLine
 62
7
  6
CONTINUOUS
 10
-2.9645202686
 20
19.3872223044
 11
-0.9625182401
 21
19.8446409269
  0
LWPOLYLINE
  5
5E1
100
AcDbEntity
  8
RACCORDO
100
AcDbPolyline
 62
7
  6
CONTINUOUS
 90
25
 70
0
 10
-0.6310678907
 20
18.2204961154
 10
-0.6404750874
 20
18.2185751563
 10
-0.6503595268
 20
18.2169766046
 10
-0.6607212086
 20
18.2157004602
 10
-0.6716084524
 20
18.2147440273
 10
-0.6829729387
 20
18.2141100018
 10
-0.6946697096
 20
18.2138064709
 10
-0.7067030216
 20
18.2138376681
 10
-0.7190686181
 20
18.2141993599
 10
-0.7316087718
 20
18.2148869327
 10
-0.7443257185
 20
18.215904561
 10
-0.7572172224
 20
18.2172480704
 10
-0.7701188476
 20
18.2189003239
 10
-0.783030724
 20
18.2208652765
 10
-0.7959527219
 20
18.2231389732
 10
-0.8087200166
 20
18.2256924122
 10
-0.8213306265
 20
18.228529177
 10
-0.8337865333
 20
18.2316456841
 10
-0.8459288575
 20
18.2350021814
 10
-0.8577535822
 20
18.2386017432
 10
-0.8692647243
 20
18.2424412951
 10
-0.8803154553
 20
18.2464718624
 10
-0.8908568322
 20
18.2506771201
 10
-0.9009377978
 20
18.2550733932
 10
-0.9105583523
 20
18.2596606816
  0
LWPOLYLINE
  5
5E2
100
AcDbEntity
  8
RACCORDO
100
AcDbPolyline
 62
7
  6
CONTINUOUS
 90
25
 70
0
 10
2.0205825388
 20
20.1398864009
 10
2.011175342
 20
20.1379654418
 10
2.0012909027
 20
20.13636689
 10
1.9909292208
 20
20.1350907456
 10
1.9800419771
 20
20.1341343128
 10
1.9686774907
 20
20.1335002873
 10
1.9569807198
 20
20.1331967564
 10
1.9449474079
 20
20.1332279536
 10
1.9325818113
 20
20.1335896453
 10
1.9200416577
 20
20.1342772181
 10
1.9073247109
 20
20.1352948465
 10
1.8944332071
 20
20.1366383558
 10
1.8815315818
 20
20.1382906093
 10
1.8686197054
 20
20.1402555619
 10
1.8556977075
 20
20.1425292586
 10
1.8429304128
 20
20.1450826976
 10
1.8303198029
 20
20.1479194624
 10
1.8178638962
 20
20.1510359696
 10
1.805721572
 20
20.1543924669
 10
1.7938968473
 20
20.1579920286
 10
1.7823857051
 20
20.1618315805
 10
1.7713349742
 20
20.1658621478
 10
1.7607935973
 20
20.1700674055
 10
1.7507126316
 20
20.1744636786
 10
1.7410920771
 20
20.1790509671
  0
LWPOLYLINE
  5
5E3
100
AcDbEntity
  8
RACCORDO
100
AcDbPolyline
 62
7
  6
CONTINUOUS
 90
25
 70
0
 10
-0.9625182401
 20
19.8446409269
 10
-0.9531110433
 20
19.846561886
 10
-0.943226604
 20
19.8481604377
 10
-0.9328649221
 20
19.8494365822
 10
-0.9219776784
 20
19.850393015
 10
-0.9106131921
 20
19.8510270405
 10
-0.8989164212
 20
19.8513305714
 10
-0.8868831092
 20
19.8512993742
 10
-0.8745175126
 20
19.8509376824
 10
-0.861977359
 20
19.8502501096
 10
-0.8492604123
 20
19.8492324813
 10
-0.8363689084
 20
19.8478889719
 10
-0.8234672831
 20
19.8462367184
 10
-0.8105554067
 20
19.8442717658
 10
-0.7976334089
 20
19.8419980691
 10
-0.7848661141
 20
19.8394446301
 10
-0.7722555042
 20
19.8366078653
 10
-0.7597995975
 20
19.8334913582
 10
-0.7476572733
 20
19.8301348609
 10
-0.7358325486
 20
19.8265352992
 10
-0.7243214064
 20
19.8226957472
 10
-0.7132706755
 20
19.8186651799
 10
-0.7027292986
 20
19.8144599222
 10
-0.6926483329
 20
19.8100636491
 10
-0.6830277784
 20
19.8054763607
  0
LWPOLYLINE
  5
5E4
100
AcDbEntity
  8
0
100
AcDbPolyline
 62
7
  6
CONTINUOUS
 90
7
 70
0
 10
3.438148352
 20
20.4539906147
 10
3.423593738
 20
20.4536438482
 10
3.408881283
 20
20.4527216841
 10
3.394010987
 20
20.4512241223
 10
3.3789828499
 20
20.4491511629
 10
3.3637968717
 20
20.4465028058
 10
3.3484530526
 20
20.4432790511
  0
LWPOLYLINE
  5
5E5
100
AcDbEntity
  8
ASSI
100
AcDbPolyline
 62
7
  6
CONTINUOUS
 90
17
 70
0
 10
10.1106048524
 20
18.1088729863
 10
10.1027423785
 20
18.1127302457
 10
10.0879414741
 20
18.1196007033
 10
10.0733880535
 20
18.1258543267
 10
10.0590673752
 20
18.1315168603
 10
10.0449972121
 20
18.1365988772
 10
10.0311880412
 20
18.1411139096
 10
10.017611847
 20
18.1450888433
 10
10.00427145
 20
18.1485363624
 10
9.9911875363
 20
18.1514645329
 10
9.9783573874
 20
18.1538914093
 10
9.9657980874
 20
18.155827262
 10
9.9535138612
 20
18.157284902
 10
9.9414817114
 20
18.1582850538
 10
9.9296998637
 20
18.1588409472
 10
9.9181881669
 20
18.1589598881
 10
9.9069551548
 20
18.1586524817
  0
LINE
  5
5E6
100
AcDbEntity
  8
ASSI
100
AcDbLine
 62
253
  6
CONTINUOUS
 10
2.6285500188
 20
21.7978550497
 11
4.2063290117
 21
21.0089655533
  0
LINE
  5
5E7
100
AcDbEntity
  8
ASSI
100
AcDbLine
 62
253
  6
CONTINUOUS
 10
9.9069551548
 20
18.1586524817
 11
10.8580713407
 21
17.6830943887
  0
LINE
  5
5E8
100
AcDbEntity
  8
RACCORDO
100
AcDbLine
 62
7
  6
CONTINUOUS
 10
2.7524338071
 20
21.7879585271
 11
4.2545631935
 21
21.0368938339
  0
LINE
  5
5E9
100
AcDbEntity
  8
RACCORDO
100
AcDbLine
 62
7
  6
CONTINUOUS
 10
10.1108867478
 20
18.1087320568
 11
10.9121819442
 21
17.7080844586
  0
LINE
  5
5EA
100
AcDbEntity
  8
DRAFT
100
AcDbLine
 62
7
  6
CONTINUOUS
 10
-0.1101663346
 20
23.3624411486
 11
1.0201298824
 21
22.7972930401
  0
LINE
  5
5EB
100
AcDbEntity
  8
DRAFT
100
AcDbLine
 62
7
  6
CONTINUOUS
 10
12.9005984393
 20
16.8570587617
 11
13.5671064152
 21
16.5238047737
  0
LINE
  5
5EC
100
AcDbEntity
  8
RACCORDO
100
AcDbLine
 62
253
  6
CONTINUOUS
 10
12.5592789996
 20
17.3254882389
 11
11.3706318459
 21
17.9198118157
  0
LINE
  5
5ED
100
AcDbEntity
  8
RACCORDO
100
AcDbLine
 62
253
  6
CONTINUOUS
 10
2.5183627067
 20
22.3459463853
 11
1.329715553
 21
22.9402699621
  0
LINE
  5
5EE
100
AcDbEntity
  8
RACCORDO
100
AcDbLine
 62
7
  6
CONTINUOUS
 10
12.7729220894
 20
17.3385665789
 11
11.5918616366
 21
17.9290968053
  0
LINE
  5
5EF
100
AcDbEntity
  8
RACCORDO
100
AcDbLine
 62
7
  6
CONTINUOUS
 10
2.7320057965
 20
22.3590247253
 11
1.5509453437
 21
22.9495549517
  0
LINE
  5
5F0
100
AcDbEntity
  8
RACCORDO
100
AcDbLine
 62
7
  6
CONTINUOUS
 10
-1.1760680582
 20
25.0904266679
 11
-0.2869161059
 21
24.6458506918
  0
LINE
  5
5F1
100
AcDbEntity
  8
RACCORDO
100
AcDbLine
 62
7
  6
CONTINUOUS
 10
14.8706767247
 20
17.0670542764
 11
15.759828677
 21
16.6224783003
  0
LWPOLYLINE
  5
5F2
100
AcDbEntity
  8
IMPORT_IGES
100
AcDbPolyline
 62
253
  6
CONTINUOUS
 90
4
 70
0
 10
21.5349307694
 20
9.7735338801
 10
21.5177568832
 20
9.802076716
 10
21.4969584397
 20
9.8271416557
 10
21.4728087819
 20
9.8482303462
  0
LWPOLYLINE
  5
5F3
100
AcDbEntity
  8
RACCORDO
100
AcDbPolyline
 62
253
  6
CONTINUOUS
 90
25
 70
0
 10
3.702459418
 20
-29.4605679422
 10
3.7075191031
 20
-29.4579623991
 10
3.7124230418
 20
-29.4550441573
 10
3.7171643776
 20
-29.4518172969
 10
3.7217364813
 20
-29.4482863298
 10
3.7261329606
 20
-29.4444561925
 10
3.7303476683
 20
-29.4403322405
 10
3.7343747117
 20
-29.4359202394
 10
3.7382084603
 20
-29.4312263581
 10
3.741843554
 20
-29.4262571593
 10
3.7452749103
 20
-29.4210195906
 10
3.7484977317
 20
-29.4155209752
 10
3.7515075121
 20
-29.4097690008
 10
3.7543000434
 20
-29.4037717097
 10
3.7568714212
 20
-29.3975374869
 10
3.7592180503
 20
-29.391075049
 10
3.7613366497
 20
-29.3843934314
 10
3.7632242574
 20
-29.3775019761
 10
3.7648782341
 20
-29.3704103183
 10
3.7662962674
 20
-29.3631283734
 10
3.7674763746
 20
-29.3556663226
 10
3.7684169057
 20
-29.3480345991
 10
3.7691165457
 20
-29.3402438732
 10
3.7695743164
 20
-29.3323050376
 10
3.7697895778
 20
-29.3242291919
  0
LINE
  5
5F4
100
AcDbEntity
  8
RACCORDO
100
AcDbLine
 62
7
  6
CONTINUOUS
 10
7.1213550764
 20
-27.8672245361
 11
3.7017289853
 21
-29.4609122358
  0
LWPOLYLINE
  5
5F5
100
AcDbEntity
  8
RACCORDO
100
AcDbPolyline
 62
253
  6
CONTINUOUS
 90
40
 70
0
 10
7.473963713
 20
-27.5979506833
 10
3.7624979486
 20
-29.327612356
 10
3.7549410678
 20
-29.3308485647
 10
3.7471307197
 20
-29.3339325833
 10
3.7390784507
 20
-29.3368596407
 10
3.7307974775
 20
-29.3396247263
 10
3.7223028445
 20
-29.3422227309
 10
3.7136087599
 20
-29.3446493381
 10
3.7047283168
 20
-29.3469009219
 10
3.6956755157
 20
-29.3489739293
 10
3.6864646485
 20
-29.3508650794
 10
3.6771103842
 20
-29.3525713519
 10
3.6676276656
 20
-29.3540900191
 10
3.6580315833
 20
-29.3554186666
 10
3.6483373145
 20
-29.3565551959
 10
3.6385602054
 20
-29.3574978079
 10
3.6287157524
 20
-29.3582450073
 10
3.6188195846
 20
-29.3587956066
 10
3.6088874062
 20
-29.3591487312
 10
3.5989349752
 20
-29.3593038206
 10
3.5889780775
 20
-29.3592606281
 10
3.5790325081
 20
-29.3590192219
 10
3.5691140434
 20
-29.3585799842
 10
3.5592384187
 20
-29.3579436112
 10
3.5494213033
 20
-29.3571111123
 10
3.5396782713
 20
-29.3560838078
 10
3.5300247785
 20
-29.3548633269
 10
3.5204761409
 20
-29.3534516056
 10
3.511047506
 20
-29.3518508833
 10
3.5017538317
 20
-29.3500636989
 10
3.4926098634
 20
-29.348092888
 10
3.4836301076
 20
-29.3459415768
 10
3.4748288091
 20
-29.3436131781
 10
3.4662199311
 20
-29.3411113856
 10
3.4578171283
 20
-29.3384401673
 10
3.4496337332
 20
-29.3356037613
 10
3.4416827347
 20
-29.33260667
 10
3.4339767478
 20
-29.3294536492
 10
3.4265279943
 20
-29.3261497001
 10
3.4193482899
 20
-29.3227000645
  0
LWPOLYLINE
  5
5F6
100
AcDbEntity
  8
RACCORDO
100
AcDbPolyline
 62
7
  6
CONTINUOUS
 90
25
 70
0
 10
3.7017289853
 20
-29.4609122358
 10
3.6932539657
 20
-29.464672219
 10
3.6846411412
 20
-29.4681169563
 10
3.6759048645
 20
-29.4712403366
 10
3.6671073056
 20
-29.4740230228
 10
3.6582167417
 20
-29.4764782169
 10
3.649103686
 20
-29.4786337529
 10
3.6396662273
 20
-29.480490839
 10
3.6300340203
 20
-29.4820013964
 10
3.620424468
 20
-29.4831279847
 10
3.6109907401
 20
-29.4838693441
 10
3.6016119244
 20
-29.4842514964
 10
3.592095059
 20
-29.4842792342
 10
3.5823182144
 20
-29.4839301716
 10
3.5724425523
 20
-29.4831874737
 10
3.5626962612
 20
-29.4820666773
 10
3.5532062835
 20
-29.4806001353
 10
3.5438669125
 20
-29.4787889014
 10
3.5345533453
 20
-29.4766109805
 10
3.5252111364
 20
-29.4740432876
 10
3.5159278901
 20
-29.4710994402
 10
3.5067910594
 20
-29.4678057204
 10
3.49781853
 20
-29.4641721982
 10
3.4890096048
 20
-29.4602017239
 10
3.4843221824
 20
-29.4579188127
  0
LINE
  5
5F7
100
AcDbEntity
  8
RACCORDO
100
AcDbLine
 62
7
  6
CONTINUOUS
 10
0.1501018194
 20
21.1712715262
 11
2.6285500188
 21
21.7978550497
  0
LINE
  5
5F8
100
AcDbEntity
  8
0
100
AcDbLine
 62
7
  6
CONTINUOUS
 10
-4.3253686292
 20
19.8489652131
 11
0.2915231757
 21
20.9038354178
  0
LWPOLYLINE
  5
5F9
100
AcDbEntity
  8
RACCORDO
100
AcDbPolyline
 62
7
  6
CONTINUOUS
 90
25
 70
0
 10
8.9265680273
 20
-28.3985808669
 10
8.927486234
 20
-28.3980788256
 10
8.9324126457
 20
-28.3951498944
 10
8.93717104
 20
-28.3919151934
 10
8.9417547572
 20
-28.388379247
 10
8.9461574071
 20
-28.3845469887
 10
8.9503743131
 20
-28.3804222569
 10
8.9544011125
 20
-28.3760084705
 10
8.9582300178
 20
-28.3713133088
 10
8.9618519919
 20
-28.3663481534
 10
8.9652595931
 20
-28.36112489
 10
8.9684514666
 20
-28.3556474069
 10
8.9714278436
 20
-28.3499153431
 10
8.9741866088
 20
-28.3439300742
 10
8.9767202541
 20
-28.3377050326
 10
8.9790214774
 20
-28.3312584883
 10
8.9810855072
 20
-28.3246067818
 10
8.9829123103
 20
-28.3177534226
 10
8.984502228
 20
-28.310698031
 10
8.9858534387
 20
-28.3034441421
 10
8.9869620752
 20
-28.2960072555
 10
8.9878256107
 20
-28.2884050425
 10
8.9884428972
 20
-28.2806509447
 10
8.9888133649
 20
-28.2727535713
 10
8.9889365843
 20
-28.2647241743
  0
LINE
  5
5FA
100
AcDbEntity
  8
RACCORDO
100
AcDbLine
 62
253
  6
CONTINUOUS
 10
8.9889365843
 20
-28.2647241743
 11
15.9365784484
 21
-24.516311998
  0
LINE
  5
5FB
100
AcDbEntity
  8
RACCORDO
100
AcDbLine
 62
7
  6
CONTINUOUS
 10
8.9265722157
 20
-28.3985786082
 11
15.8742140799
 21
-24.6501664318
  0
LINE
  5
5FC
100
AcDbEntity
  8
RACCORDO
100
AcDbLine
 62
7
  6
CONTINUOUS
 10
8.9213599193
 20
-28.4011853713
 11
8.9265680273
 21
-28.3985808669
  0
LWPOLYLINE
  5
5FD
100
AcDbEntity
  8
RACCORDO
100
AcDbPolyline
 62
253
  6
CONTINUOUS
 90
24
 70
0
 10
7.4051257889
 20
-29.1014325386
 10
7.4077251655
 20
-29.1001825887
 10
7.4131328156
 20
-29.0972518237
 10
7.4183575201
 20
-29.0939598481
 10
7.4233908078
 20
-29.0903119994
 10
7.4282245177
 20
-29.0863141921
 10
7.4328508126
 20
-29.0819729082
 10
7.4372621916
 20
-29.0772951864
 10
7.4414515021
 20
-29.0722886112
 10
7.4454119517
 20
-29.0669613
 10
7.449137119
 20
-29.0613218905
 10
7.4526209641
 20
-29.0553795262
 10
7.4558578384
 20
-29.0491438419
 10
7.4588424937
 20
-29.042624948
 10
7.4615700908
 20
-29.0358334141
 10
7.4640362072
 20
-29.0287802518
 10
7.4662368443
 20
-29.0214768968
 10
7.4681684342
 20
-29.0139351908
 10
7.4698278449
 20
-29.0061673616
 10
7.471212386
 20
-28.9981860038
 10
7.4723198126
 20
-28.9900040581
 10
7.4731483291
 20
-28.9816347906
 10
7.4736965923
 20
-28.973091771
 10
7.473963713
 20
-28.9643888507
  0
LINE
  5
5FE
100
AcDbEntity
  8
RACCORDO
100
AcDbLine
 62
253
  6
CONTINUOUS
 10
8.9889365843
 20
-28.2647241743
 11
7.473963713
 21
-28.9643888507
  0
LINE
  5
5FF
100
AcDbEntity
  8
RACCORDO
100
AcDbLine
 62
7
  6
CONTINUOUS
 10
8.9213577805
 20
-28.4011863591
 11
7.4051187979
 21
-29.1014357676
  0
LWPOLYLINE
  5
600
100
AcDbEntity
  8
RACCORDO
100
AcDbPolyline
 62
253
  6
CONTINUOUS
 90
84
 70
0
 10
7.473963713
 20
-28.9643888507
 10
7.4553929634
 20
-28.9728282913
 10
7.4363417537
 20
-28.981005115
 10
7.4168250304
 20
-28.9889127102
 10
7.3968582687
 20
-28.9965444003
 10
7.3764569721
 20
-29.0038942844
 10
7.3556366261
 20
-29.0109572188
 10
7.334413268
 20
-29.0177275303
 10
7.3128037635
 20
-29.024199603
 10
7.2908252963
 20
-29.0303687138
 10
7.2684951621
 20
-29.0362298077
 10
7.2458307835
 20
-29.0417781017
 10
7.2228499632
 20
-29.0470096577
 10
7.1995707842
 20
-29.0519201668
 10
7.1760114114
 20
-29.0565055946
 10
7.1521901153
 20
-29.0607627899
 10
7.128125441
 20
-29.0646882408
 10
7.1038363476
 20
-29.0682786442
 10
7.07934201
 20
-29.0715315536
 10
7.0546616732
 20
-29.0744442359
 10
7.0298146167
 20
-29.0770142232
 10
7.0048202889
 20
-29.0792398767
 10
6.9796982449
 20
-29.081119286
 10
6.9544681884
 20
-29.0826507908
 10
6.9291499409
 20
-29.0838335403
 10
6.9037633898
 20
-29.0846664528
 10
6.878328367
 20
-29.0851487053
 10
6.8528646899
 20
-29.0852802503
 10
6.8273922451
 20
-29.0850608386
 10
6.8019310435
 20
-29.084490475
 10
6.7765010987
 20
-29.0835699095
 10
6.751122363
 20
-29.0822997372
 10
6.7258146802
 20
-29.0806808009
 10
6.7005978403
 20
-29.0787146414
 10
6.6754915788
 20
-29.076402683
 10
6.6505155752
 20
-29.0737465988
 10
6.6256894056
 20
-29.0707487155
 10
6.6010325212
 20
-29.0674112847
 10
6.5765642255
 20
-29.0637367959
 10
6.5523036734
 20
-29.0597283391
 10
6.528269873
 20
-29.0553889742
 10
6.5044816388
 20
-29.0507219899
 10
6.4809575699
 20
-29.0457312153
 10
6.4577160678
 20
-29.0404204885
 10
6.434775358
 20
-29.0347938799
 10
6.4121534428
 20
-29.028855951
 10
6.3898680714
 20
-29.0226113161
 10
6.3679366606
 20
-29.0160647819
 10
6.3463763204
 20
-29.009221566
 10
6.3252038977
 20
-29.0020869833
 10
6.304436017
 20
-28.9946665737
 10
6.284088999
 20
-28.9869662429
 10
6.2641788208
 20
-28.9789920298
 10
6.2447210271
 20
-28.9707501224
 10
6.2257307794
 20
-28.96224698
 10
6.2072229098
 20
-28.9534892458
 10
6.1892119622
 20
-28.9444837734
 10
6.1717121005
 20
-28.9352376448
 10
6.1547370686
 20
-28.9257581503
 10
6.1383001163
 20
-28.9160526876
 10
6.1224140521
 20
-28.9061287823
 10
6.1070912883
 20
-28.8959942249
 10
6.0923438663
 20
-28.8856569858
 10
6.0781833789
 20
-28.8751251162
 10
6.0646209419
 20
-28.8644069464
 10
6.051667149
 20
-28.8535108818
 10
6.0393321086
 20
-28.8424453137
 10
6.027625469
 20
-28.8312189677
 10
6.016556424
 20
-28.8198407012
 10
6.0061336648
 20
-28.8083192999
 10
5.9963653666
 20
-28.7966638939
 10
5.9872591715
 20
-28.7848836666
 10
5.9788222026
 20
-28.7729876498
 10
5.9710610704
 20
-28.7609852668
 10
5.9639818618
 20
-28.7488860056
 10
5.9575901248
 20
-28.7366991279
 10
5.95189087
 20
-28.7244343012
 10
5.9468885688
 20
-28.7121012354
 10
5.9425871474
 20
-28.6997093548
 10
5.9389899814
 20
-28.6872685136
 10
5.9360998902
 20
-28.6747885652
 10
5.9339191398
 20
-28.6622789968
 10
5.9324494442
 20
-28.6497497446
 10
5.9316919653
 20
-28.6372107705
  0
ELLIPSE
  5
601
100
AcDbEntity
  8
IMPORT_IGES
100
AcDbEllipse
 62
7
  6
CONTINUOUS
 10
10.2510718148
 20
-11.2587769865
 30
0.0
 11
0.5384358886
 21
-0.0547002141
 31
0.0
 40
0.1703160628
 41
-0.3632055326
 42
-0.2624822218
  0
ELLIPSE
  5
602
100
AcDbEntity
  8
IMPORT_IGES
100
AcDbEllipse
 62
7
  6
CONTINUOUS
 10
21.4286973119
 20
1.1491479638
 30
0.0
 11
0.2970260391
 21
-0.1836219405
 31
0.0
 40
0.0829501116
 41
0.0479465802
 42
0.8277528762
  0
ELLIPSE
  5
603
100
AcDbEntity
  8
IMPORT_IGES
100
AcDbEllipse
 62
7
  6
CONTINUOUS
 10
10.1364649278
 20
-3.0115601405
 30
0.0
 11
0.3000228497
 21
-0.0000304656
 31
0.0
 40
0.4999999903
 41
-1.9909770138
 42
-0.785271233
  0
ELLIPSE
  5
604
100
AcDbEntity
  8
IMPORT_IGES
100
AcDbEllipse
 62
7
  6
CONTINUOUS
 10
10.4419374301
 20
7.7482862956
 30
0.0
 11
0.2999899059
 21
-0.0050528313
 31
0.0
 40
0.4870476356
 41
-1.9904499309
 42
-0.7771948395
  0
ELLIPSE
  5
605
100
AcDbEntity
  8
IMPORT_IGES
100
AcDbEllipse
 62
7
  6
CONTINUOUS
 10
10.0176733614
 20
7.5470552803
 30
0.0
 11
0.2999899059
 21
-0.0050528313
 31
0.0
 40
0.4870476356
 41
-0.7771948395
 42
0.0082045976
  0
ELLIPSE
  5
606
100
AcDbEntity
  8
IMPORT_IGES
100
AcDbEllipse
 62
7
  6
CONTINUOUS
 10
10.1363415019
 20
-2.9248958872
 30
0.0
 11
0.3000228497
 21
-0.0000304656
 31
0.0
 40
0.4999999903
 41
-1.9911361521
 42
-0.785271233
  0
ELLIPSE
  5
607
100
AcDbEntity
  8
IMPORT_IGES
100
AcDbEllipse
 62
7
  6
CONTINUOUS
 10
11.6052316747
 20
6.9482698146
 30
0.0
 11
0.2996199708
 21
-0.1851753256
 31
0.0
 40
0.0815198604
 41
1.5570317333
 42
2.4065339704
  0
ELLIPSE
  5
608
100
AcDbEntity
  8
IMPORT_IGES
100
AcDbEllipse
 62
7
  6
CONTINUOUS
 10
-7.9993038337
 20
-11.0861868092
 30
0.0
 11
0.2952573947
 21
0.0837317531
 31
0.0
 40
0.6345570966
 41
-2.5342423105
 42
-0.9634459838
  0
ELLIPSE
  5
609
100
AcDbEntity
  8
RACCORDO
100
AcDbEllipse
 62
7
  6
CONTINUOUS
 10
11.3643537844
 20
17.483833737
 30
0.0
 11
0.2299769236
 21
0.4440064614
 31
0.0
 40
0.6229838795
 41
0.0088498286
 42
0.6761521296
  0
ELLIPSE
  5
60A
100
AcDbEntity
  8
RACCORDO
100
AcDbEllipse
 62
7
  6
CONTINUOUS
 10
1.3234374916
 20
22.5042918834
 30
0.0
 11
0.2299769236
 21
0.4440064614
 31
0.0
 40
0.6229838795
 41
0.0088498286
 42
0.6761521296
  0
ELLIPSE
  5
60B
100
AcDbEntity
  8
RACCORDO
100
AcDbEllipse
 62
7
  6
CONTINUOUS
 10
-1.1760142062
 20
24.873860411
 30
0.0
 11
-0.1118504554
 21
0.2236675568
 31
0.0
 40
0.6121897086
 41
-0.6846338794
 42
-0.0190005936
  0
ELLIPSE
  5
60C
100
AcDbEntity
  8
RACCORDO
100
AcDbEllipse
 62
7
  6
CONTINUOUS
 10
14.8707305767
 20
16.8504880195
 30
0.0
 11
-0.1118504554
 21
0.2236675568
 31
0.0
 40
0.6121897086
 41
-0.6846338794
 42
-0.0190005936
  0
ELLIPSE
  5
60D
100
AcDbEntity
  8
RACCORDO
100
AcDbEllipse
 62
7
  6
CONTINUOUS
 10
-0.5903101174
 20
-24.5830395793
 30
0.0
 11
0.4434889245
 21
0.896285932
 31
0.0
 40
0.6091593932
 41
-3.9907480739
 42
-3.1441255967
  0
ELLIPSE
  5
60E
100
AcDbEntity
  8
ASSI
100
AcDbEllipse
 62
7
  6
CONTINUOUS
 10
10.1218088993
 20
-20.2985149914
 30
0.0
 11
0.4999994995
 21
-0.0014210155
 31
0.0
 40
0.4978593837
 41
1.5733683889
 42
2.3488827762
  0
ELLIPSE
  5
60F
100
AcDbEntity
  8
ASSI
100
AcDbEllipse
 62
7
  6
CONTINUOUS
 10
3.7548449384
 20
20.3909777804
 30
0.0
 11
0.499999485
 21
0.0014291387
 31
0.0
 40
0.5021345238
 41
-0.7781067574
 42
-0.0025923701
  0
ELLIPSE
  5
610
100
AcDbEntity
  8
RACCORDO
100
AcDbEllipse
 62
7
  6
CONTINUOUS
 10
-0.2869699579
 20
24.4293382868
 30
0.0
 11
-0.1117903878
 21
0.2236141634
 31
0.0
 40
0.6125552124
 41
-2.255296188
 42
-0.6848044477
  0
ELLIPSE
  5
611
100
AcDbEntity
  8
ASSI
100
AcDbEllipse
 62
7
  6
CONTINUOUS
 10
10.1218088993
 20
17.963711143
 30
0.0
 11
0.4992582488
 21
-0.0750541342
 31
0.0
 40
0.3627382712
 41
2.0694420902
 42
2.4019447993
  0
ELLIPSE
  5
612
100
AcDbEntity
  8
RACCORDO
100
AcDbEllipse
 62
7
  6
CONTINUOUS
 10
297.4209960153
 20
140.4760364456
 30
0.0
 11
188.4827929018
 21
380.9215211067
 31
0.0
 40
0.6091593932
 41
-4.0031686018
 42
-3.9907480739
  0
ELLIPSE
  5
613
100
AcDbEntity
  8
RACCORDO
100
AcDbEllipse
 62
7
  6
CONTINUOUS
 10
15.759774825
 20
-24.4278442314
 30
0.0
 11
-0.1118504554
 21
0.2236675568
 31
0.0
 40
0.6121897086
 41
-3.1225889012
 42
-2.2557347926
  0
ELLIPSE
  5
614
100
AcDbEntity
  8
RACCORDO
100
AcDbEllipse
 62
7
  6
CONTINUOUS
 10
-4.9613457528
 20
-11.6969484053
 30
0.0
 11
0.2217444622
 21
0.448142966
 31
0.0
 40
0.6091593932
 41
0.6874194394
 42
0.6955586689
  0
ELLIPSE
  5
615
100
AcDbEntity
  8
RACCORDO
100
AcDbEllipse
 62
7
  6
CONTINUOUS
 10
-5.7625744302
 20
-12.6698907242
 30
0.0
 11
0.2217444622
 21
0.448142966
 31
0.0
 40
0.6091593932
 41
0.6874194394
 42
0.6993276201
  0
ELLIPSE
  5
616
100
AcDbEntity
  8
RACCORDO
100
AcDbEllipse
 62
7
  6
CONTINUOUS
 10
15.759774825
 20
16.4059658954
 30
0.0
 11
-0.1117903878
 21
0.2236141634
 31
0.0
 40
0.6125552124
 41
-2.255296188
 42
-0.6848044477
  0
ELLIPSE
  5
617
100
AcDbEntity
  8
RACCORDO
100
AcDbEllipse
 62
7
  6
CONTINUOUS
 10
2.5123000532
 20
21.9098606026
 30
0.0
 11
0.2174819613
 21
0.4502570851
 31
0.0
 40
0.6016116119
 41
5.3888788736
 42
6.9422219079
  0
ELLIPSE
  5
618
100
AcDbEntity
  8
RACCORDO
100
AcDbEllipse
 62
7
  6
CONTINUOUS
 10
-13.2338572707
 20
14.0934801785
 30
0.0
 11
-0.1098985543
 21
0.2275784384
 31
0.0
 40
0.6085747011
 41
-0.6677344043
 42
0.11377396
  0
ELLIPSE
  5
619
100
AcDbEntity
  8
RACCORDO
100
AcDbEllipse
 62
7
  6
CONTINUOUS
 10
-7.1073265428
 20
18.0374090122
 30
0.0
 11
0.7364263107
 21
0.0106483588
 31
0.0
 40
0.5106100819
 41
8.6494500558
 42
11.7561361244
  0
ELLIPSE
  5
61A
100
AcDbEntity
  8
RACCORDO
100
AcDbEllipse
 62
7
  6
CONTINUOUS
 10
2.9335897501
 20
13.0169508658
 30
0.0
 11
0.7364263107
 21
0.0106483588
 31
0.0
 40
0.5106100819
 41
8.6494500558
 42
11.7561361244
  0
ELLIPSE
  5
61B
100
AcDbEntity
  8
RACCORDO
100
AcDbEllipse
 62
7
  6
CONTINUOUS
 10
2.5678811881
 20
21.4106605613
 30
0.0
 11
0.1826848475
 21
0.3782159515
 31
0.0
 40
0.6016116119
 41
-0.0082343174
 42
0.467050383
  0
ELLIPSE
  5
61C
100
AcDbEntity
  8
RACCORDO
100
AcDbEllipse
 62
7
  6
CONTINUOUS
 10
6.7089292705
 20
-18.8128788206
 30
0.0
 11
4.2574588734
 21
-1.7503245732
 31
0.0
 40
0.0541723843
 41
0.1309934522
 42
0.6570090045
  0
ELLIPSE
  5
61D
100
AcDbEntity
  8
ASSI
100
AcDbEllipse
 62
7
  6
CONTINUOUS
 10
3.7548449384
 20
21.1471931234
 30
0.0
 11
0.4992582488
 21
-0.0750541342
 31
0.0
 40
0.3627382712
 41
-0.7221945618
 42
-0.3896918528
  0
ELLIPSE
  5
61E
100
AcDbEntity
  8
RACCORDO
100
AcDbEllipse
 62
7
  6
CONTINUOUS
 10
-13.3505913385
 20
-18.2028989688
 30
0.0
 11
0.450982406
 21
0.8925390218
 31
0.0
 40
0.6155720462
 41
-3.9856174733
 42
-3.5270674554
  0
ELLIPSE
  5
61F
100
AcDbEntity
  8
RACCORDO
100
AcDbEllipse
 62
7
  6
CONTINUOUS
 10
287.7979370211
 20
145.2875659427
 30
0.0
 11
191.6675225449
 21
379.3290842483
 31
0.0
 40
0.6155720462
 41
-3.9980380012
 42
-3.9856174733
  0
ELLIPSE
  5
620
100
AcDbEntity
  8
RACCORDO
100
AcDbEllipse
 62
7
  6
CONTINUOUS
 10
-9.2917493936
 20
-12.0609033733
 30
0.0
 11
0.225491203
 21
0.4462695109
 31
0.0
 40
0.6155720462
 41
0.6925500401
 42
0.7076383135
  0
ELLIPSE
  5
621
100
AcDbEntity
  8
RACCORDO
100
AcDbEllipse
 62
7
  6
CONTINUOUS
 10
-9.3052677327
 20
-10.8985440729
 30
0.0
 11
0.225491203
 21
0.4462695109
 31
0.0
 40
0.6155720462
 41
0.6925500401
 42
0.7044582766
  0
ELLIPSE
  5
622
100
AcDbEntity
  8
RACCORDO
100
AcDbEllipse
 62
7
  6
CONTINUOUS
 10
-10.1184405311
 20
-10.4919576737
 30
0.0
 11
0.225491203
 21
0.4462695109
 31
0.0
 40
0.6155720462
 41
0.6925500401
 42
0.7044582766
  0
ELLIPSE
  5
623
100
AcDbEntity
  8
RACCORDO
100
AcDbEllipse
 62
7
  6
CONTINUOUS
 10
-10.1305103901
 20
-9.1123660867
 30
0.0
 11
0.225491203
 21
0.4462695109
 31
0.0
 40
0.6155720462
 41
0.6925500401
 42
0.700689228
  0
ELLIPSE
  5
624
100
AcDbEntity
  8
RACCORDO
100
AcDbEllipse
 62
7
  6
CONTINUOUS
 10
3.7759873292
 20
5.5885578786
 30
0.0
 11
-0.1092649321
 21
0.2270579893
 31
0.0
 40
0.6121735965
 41
-2.2369946326
 42
-0.669228889
  0
ELLIPSE
  5
625
100
AcDbEntity
  8
RACCORDO
100
AcDbEllipse
 62
7
  6
CONTINUOUS
 10
-12.1104093775
 20
-8.122416593
 30
0.0
 11
0.225491203
 21
0.4462695109
 31
0.0
 40
0.6155720462
 41
0.6925500401
 42
0.7006892696
  0
ELLIPSE
  5
626
100
AcDbEntity
  8
RACCORDO
100
AcDbEllipse
 62
7
  6
CONTINUOUS
 10
3.7759873292
 20
-25.6682792791
 30
0.0
 11
-0.1098985543
 21
0.2275784384
 31
0.0
 40
0.6085747011
 41
-3.2553715609
 42
-2.2415613143
  0
ELLIPSE
  5
627
100
AcDbEntity
  8
RACCORDO
100
AcDbEllipse
 62
7
  6
CONTINUOUS
 10
-7.1073265428
 20
17.4162029862
 30
0.0
 11
0.7364337174
 21
0.0084935924
 31
0.0
 40
0.5085007391
 41
3.135720205
 42
5.4744691707
  0
ELLIPSE
  5
628
100
AcDbEntity
  8
RACCORDO
100
AcDbEllipse
 62
7
  6
CONTINUOUS
 10
2.9335897501
 20
12.3957448397
 30
0.0
 11
0.7364337174
 21
0.0084935924
 31
0.0
 40
0.5085007391
 41
3.135720205
 42
5.4744691707
  0
ELLIPSE
  5
629
100
AcDbEntity
  8
RACCORDO
100
AcDbEllipse
 62
7
  6
CONTINUOUS
 10
6.8417239718
 20
11.2858011568
 30
0.0
 11
0.9101292022
 21
0.0104968938
 31
0.0
 40
0.5085007391
 41
3.1357207382
 42
4.7152669421
  0
ELLIPSE
  5
62A
100
AcDbEntity
  8
RACCORDO
100
AcDbEllipse
 62
7
  6
CONTINUOUS
 10
-9.3556004674
 20
19.3844633763
 30
0.0
 11
0.9101292022
 21
0.0104968938
 31
0.0
 40
0.5085007391
 41
3.1357437483
 42
5.4744691707
  0
ELLIPSE
  5
62B
100
AcDbEntity
  8
RACCORDO
100
AcDbEllipse
 62
7
  6
CONTINUOUS
 10
12.5532163461
 20
16.8894024562
 30
0.0
 11
0.2174819613
 21
0.4502570851
 31
0.0
 40
0.6016116119
 41
5.3888788736
 42
6.9422219079
  0
ENDSEC
  0
SECTION
  2
OBJECTS
  0
DICTIONARY
  5
C
100
AcDbDictionary
280
0
281
1
  3
ACAD_GROUP
350
D
  3
ACAD_MLINESTYLE
350
17
  3
ACAD_LAYOUT
350
1A
  3
ACAD_PLOTSETTINGS
350
19
  3
ACAD_PLOTSTYLENAME
350
E
  0
DICTIONARY
  5
D
102
{ACAD_REACTORS
330
C
102
}
100
AcDbDictionary
280
0
281
1
  0
ACDBDICTIONARYWDFLT
  5
E
102
{ACAD_REACTORS
330
C
102
}
100
AcDbDictionary
281
1
  3
Normal
350
F
100
AcDbDictionaryWithDefault
340
F
  0
DICTIONARY
  5
17
102
{ACAD_REACTORS
330
C
102
}
100
AcDbDictionary
280
0
281
1
  3
Standard
350
18
  0
DICTIONARY
  5
19
102
{ACAD_REACTORS
330
C
102
}
100
AcDbDictionary
281
1
  0
DICTIONARY
  5
1A
102
{ACAD_REACTORS
330
C
102
}
100
AcDbDictionary
281
1
  3
Model
350
62C
  3
Layout1
350
62D
  0
ACDBPLACEHOLDER
  5
F
102
{ACAD_REACTORS
330
E
102
}
  0
MLINESTYLE
  5
18
102
{ACAD_REACTORS
330
17
102
}
100
AcDbMlineStyle
  2
STANDARD
 70
0
  3

 62
256
 51
90.0
 52
90.0
 71
2
 49
0.5
 62
256
  6
BYLAYER
 49
-0.5
 62
256
  6
BYLAYER
  0
LAYOUT
  5
62C
102
{ACAD_REACTORS
330
1A
102
}
100
AcDbPlotSettings
  1

  2
none_device
  4
ISO_A4_(297.00_x_210.00_MM)
  6

 40
0.0
 41
0.0
 42
0.0
 43
0.0
 44
297.0
 45
210.0
 46
0.0
 47
0.0
 48
0.0
 49
0.0
140
0.0
141
0.0
142
1.0
143
1.0
 70
1024
 72
1
 73
0
 74
0
  7

 75
0
147
1.0
148
0.0
149
0.0
100
AcDbLayout
  1
Model
 70
0
 71
0
 10
0.0
 20
0.0
 11
297.0
 21
210.0
 12
0.0
 22
0.0
 32
0.0
 14
0.0
 24
0.0
 34
0.0
 15
0.0
 25
0.0
 35
0.0
146
0.0
 13
0.0
 23
0.0
 33
0.0
 16
1.0
 26
0.0
 36
0.0
 17
0.0
 27
1.0
 37
0.0
 76
0
330
21A
345
0
346
0
  0
LAYOUT
  5
62D
102
{ACAD_REACTORS
330
1A
102
}
100
AcDbPlotSettings
  1

  2
none_device
  4
ISO_A4_(297.00_x_210.00_MM)
  6

 40
0.0
 41
0.0
 42
0.0
 43
0.0
 44
297.0
 45
210.0
 46
0.0
 47
0.0
 48
0.0
 49
0.0
140
0.0
141
0.0
142
1.0
143
1.0
 70
0
 72
1
 73
0
 74
0
  7

 75
0
147
1.0
148
0.0
149
0.0
100
AcDbLayout
  1
Layout1
 70
0
 71
1
 10
0.0
 20
0.0
 11
297.0
 21
210.0
 12
0.0
 22
0.0
 32
0.0
 14
0.0
 24
0.0
 34
0.0
 15
0.0
 25
0.0
 35
0.0
146
0.0
 13
0.0
 23
0.0
 33
0.0
 16
1.0
 26
0.0
 36
0.0
 17
0.0
 27
1.0
 37
0.0
 76
0
330
21B
345
0
346
0
  0
ENDSEC
  0
EOF
