0
SECTION
2
HEADER
9
$ACADVER
1
AC1015
9
$DWGCODEPAGE
3
ANSI_1252
9
$EXTMAX
10
431.8000000000
20
558.8000000000
30
0.0000000000
9
$EXTMIN
10
0.0000000000
20
0.0000000000
30
0.0000000000
9
$LIMMIN
10
0.0000000000
20
0.0000000000
9
$LIMMAX
10
431.8000000000
20
558.8000000000
9
$VIEWCTR
10
215.9000000000
20
279.4000000000
9
$VIEWSIZE
40
558.8000000000
9
$CLAYER
8
0
9
$LTSCALE
40
36.4254814815
9
$CELTYPE
6
BYLAYER
9
$DIMSCALE
40
1
9
$DIMASZ
40
3.0000000000
9
$DIMEXO
40
4.1392592593
9
$DIMDLI
40
25.1666962963
9
$DIMEXE
40
11.9210666667
9
$DIMCEN
40
5.9605333333
9
$DIMLFAC
40
1.0000000000
9
$DIMBLK
1
_FILLED
9
$DIMTXT
40
3.0000000000
9
$DIMTOL
70
1
9
$DIMLIM
70
0
9
$DIMTFAC
40
1.0000000000
9
$DIMTP
40
0.0100000000
9
$DIMTM
40
0.0100000000
9
$PDMODE
70
3
9
$PDSIZE
40
3.0000000000
9
$HANDSEED
5
399
9
$MEASUREMENT
70
1
9
$INSUNITS
70
4
0
ENDSEC
0
SECTION
2
CLASSES
0
CLASS
1
ACDBDICTIONARYWDFLT
2
AcDbDictionaryWithDefault
3
AutoCAD 2000
90
0
280
0
281
0
0
CLASS
1
ACDBPLACEHOLDER
2
AcDbPlaceHolder
3
AutoCAD 2000
90
0
280
0
281
0
0
CLASS
1
LAYOUT
2
AcDbLayout
3
AutoCAD 2000
90
0
280
0
281
0
0
ENDSEC
0
SECTION
2
TABLES
0
TABLE
2
VPORT
5
8
100
AcDbSymbolTable
70
2
0
VPORT
5
1F4
100
AcDbSymbolTableRecord
100
AcDbViewportTableRecord
2
*ACTIVE
70
0
10
0.0
20
0.0
11
1.0
21
1.0
12
215.9000000000
22
279.4000000000
13
0.0
23
0.0
14
1.0
24
1.0
15
0.0
25
0.0
16
0.0
26
0.0
36
1.0
17
0.0
27
0.0
37
0.0
40
558.8000000000
41
0.7727272727
42
50.0
43
0.0
44
0.0
50
0.0
51
0.0
71
0
72
100
73
1
74
1
75
0
76
0
77
0
78
0
0
ENDTAB
0
TABLE
2
LTYPE
5
5
100
AcDbSymbolTable
70
6
0
LTYPE
5
14
100
AcDbSymbolTableRecord
100
AcDbLinetypeTableRecord
2
BYBLOCK
70
0
3

72
65
73
0
40
0.0
0
LTYPE
5
15
100
AcDbSymbolTableRecord
100
AcDbLinetypeTableRecord
2
BYLAYER
70
0
3

72
65
73
0
40
0.0
0
LTYPE
5
16
100
AcDbSymbolTableRecord
100
AcDbLinetypeTableRecord
2
CONTINUOUS
70
64
3
Solid line
72
65
73
0
40
0
0
LTYPE
5
1F5
100
AcDbSymbolTableRecord
100
AcDbLinetypeTableRecord
2
CENTER
70
64
3
____ _ ____ _ ____ _ ____ _ ____ _ ____ _ ____
72
65
73
4
40
0.6
49
0.375
74
0
49
-0.075
74
0
49
0.075
74
0
49
-0.075
74
0
0
LTYPE
5
1F6
100
AcDbSymbolTableRecord
100
AcDbLinetypeTableRecord
2
HIDDEN
70
64
3
- - - - - - - - - - - - - - - - - - - -
72
65
73
2
40
0.2
49
0.1
74
0
49
-0.1
74
0
0
LTYPE
5
1F7
100
AcDbSymbolTableRecord
100
AcDbLinetypeTableRecord
2
PHANTOM
70
64
3
_____ _ _ _____ _ _ _____ _ _ _____
72
65
73
6
40
0.8
49
0.45
74
0
49
-0.05
74
0
49
0.1
74
0
49
-0.05
74
0
49
0.1
74
0
49
-0.05
74
0
0
LTYPE
5
1F8
100
AcDbSymbolTableRecord
100
AcDbLinetypeTableRecord
2
DOT
70
64
3
. . . . . . . . . . . . . . . . . . . .
72
65
73
2
40
0.2
49
0.1
74
0
49
-0.1
74
0
0
LTYPE
5
1F9
100
AcDbSymbolTableRecord
100
AcDbLinetypeTableRecord
2
DASHED
70
64
3
- - - - - - - - - - - - - - - - - - - -
72
65
73
2
40
0.2
49
0.1
74
0
49
-0.1
74
0
0
ENDTAB
0
TABLE
2
LAYER
5
2
100
AcDbSymbolTable
70
36
0
LAYER
5
10
100
AcDbSymbolTableRecord
100
AcDbLayerTableRecord
2
0
70
0
62
7
6
CONTINUOUS
370
-3
390
F
0
LAYER
5
1FA
100
AcDbSymbolTableRecord
100
AcDbLayerTableRecord
2
DEFAULT_1
70
0
62
7
6
CENTER
370
-3
390
F
0
LAYER
5
1FB
100
AcDbSymbolTableRecord
100
AcDbLayerTableRecord
2
DEFAULT_2
70
0
62
8
6
HIDDEN
370
-3
390
F
0
LAYER
5
1FC
100
AcDbSymbolTableRecord
100
AcDbLayerTableRecord
2
DEFAULT_3
70
0
62
7
6
PHANTOM
370
-3
390
F
0
LAYER
5
1FD
100
AcDbSymbolTableRecord
100
AcDbLayerTableRecord
2
_BLACK_HOLE
70
0
62
7
6
CONTINUOUS
370
-3
390
F
0
LAYER
5
1FE
100
AcDbSymbolTableRecord
100
AcDbLayerTableRecord
2
ASSI
70
0
62
7
6
CONTINUOUS
370
-3
390
F
0
LAYER
5
1FF
100
AcDbSymbolTableRecord
100
AcDbLayerTableRecord
2
COORDINATE
70
0
62
7
6
CONTINUOUS
370
-3
390
F
0
LAYER
5
200
100
AcDbSymbolTableRecord
100
AcDbLayerTableRecord
2
COORD_ORIGINE
70
0
62
7
6
CONTINUOUS
370
-3
390
F
0
LAYER
5
201
100
AcDbSymbolTableRecord
100
AcDbLayerTableRecord
2
COPY-16350-NEW
70
0
62
7
6
CONTINUOUS
370
-3
390
F
0
LAYER
5
202
100
AcDbSymbolTableRecord
100
AcDbLayerTableRecord
2
COPY-Z16350
70
0
62
7
6
CONTINUOUS
370
-3
390
F
0
LAYER
5
203
100
AcDbSymbolTableRecord
100
AcDbLayerTableRecord
2
COSMETICI
70
0
62
7
6
CONTINUOUS
370
-3
390
F
0
LAYER
5
204
100
AcDbSymbolTableRecord
100
AcDbLayerTableRecord
2
CURVE
70
0
62
7
6
CONTINUOUS
370
-3
390
F
0
LAYER
5
205
100
AcDbSymbolTableRecord
100
AcDbLayerTableRecord
2
DRAFT
70
0
62
7
6
CONTINUOUS
370
-3
390
F
0
LAYER
5
206
100
AcDbSymbolTableRecord
100
AcDbLayerTableRecord
2
INCISIONI_LASER
70
0
62
7
6
CONTINUOUS
370
-3
390
F
0
LAYER
5
207
100
AcDbSymbolTableRecord
100
AcDbLayerTableRecord
2
NOTE
70
0
62
7
6
CONTINUOUS
370
-3
390
F
0
LAYER
5
208
100
AcDbSymbolTableRecord
100
AcDbLayerTableRecord
2
PIANI
70
0
62
7
6
CONTINUOUS
370
-3
390
F
0
LAYER
5
209
100
AcDbSymbolTableRecord
100
AcDbLayerTableRecord
2
PIANI-RIFERIMENTO
70
0
62
7
6
CONTINUOUS
370
-3
390
F
0
LAYER
5
20A
100
AcDbSymbolTableRecord
100
AcDbLayerTableRecord
2
PIANI_ORIGINE
70
0
62
7
6
CONTINUOUS
370
-3
390
F
0
LAYER
5
20B
100
AcDbSymbolTableRecord
100
AcDbLayerTableRecord
2
PUNTI
70
0
62
7
6
CONTINUOUS
370
-3
390
F
0
LAYER
5
20C
100
AcDbSymbolTableRecord
100
AcDbLayerTableRecord
2
RACCORDO
70
0
62
7
6
CONTINUOUS
370
-3
390
F
0
LAYER
5
20D
100
AcDbSymbolTableRecord
100
AcDbLayerTableRecord
2
TRASH
70
0
62
7
6
CONTINUOUS
370
-3
390
F
0
ENDTAB
0
TABLE
2
STYLE
5
3
100
AcDbSymbolTable
70
1
0
STYLE
5
11
100
AcDbSymbolTableRecord
100
AcDbTextStyleTableRecord
2
STANDARD
70
0
40
0.0
41
0.8000000000
50
0.0
71
0
42
0.2
3
txt
4

0
ENDTAB
0
TABLE
2
VIEW
5
6
100
AcDbSymbolTable
70
0
0
ENDTAB
0
TABLE
2
UCS
5
7
100
AcDbSymbolTable
70
0
0
ENDTAB
0
TABLE
2
APPID
5
9
100
AcDbSymbolTable
70
1
0
APPID
5
20E
100
AcDbSymbolTableRecord
100
AcDbRegAppTableRecord
2
ACAD
70
0
0
ENDTAB
0
TABLE
2
BLOCK_RECORD
5
1
100
AcDbSymbolTable
70
0
0
BLOCK_RECORD
5
1F
100
AcDbSymbolTableRecord
100
AcDbBlockTableRecord
2
*MODEL_SPACE
0
BLOCK_RECORD
5
1B
100
AcDbSymbolTableRecord
100
AcDbBlockTableRecord
2
*PAPER_SPACE
0
ENDTAB
0
TABLE
2
DIMSTYLE
5
A
100
AcDbSymbolTable
70
1
100
AcDbDimStyleTable
71
0
0
DIMSTYLE
105
20F
100
AcDbSymbolTableRecord
100
AcDbDimStyleTableRecord
2
STANDARD
70
0
3

4

40
1.0
41
3.0000000000
42
0.0625
43
0.38
44
0.18
45
0.0
46
0.0
47
0.0100000000
48
0.0100000000
140
3.0000000000
141
0.09
142
0.0
143
25.4
144
1.0000000000
145
0.0
146
1.0000000000
147
0.09
71
1
72
0
73
0
74
0
75
0
76
0
77
1
78
8
170
0
171
2
172
0
173
0
174
0
175
0
176
0
177
0
178
0
270
2
271
2
272
2
273
2
274
2
275
0
280
0
281
0
282
0
283
1
284
8
285
0
286
0
287
3
288
0
340
11
0
ENDTAB
0
ENDSEC
0
SECTION
2
BLOCKS
0
BLOCK
5
20
100
AcDbEntity
8
0
100
AcDbBlockBegin
2
*MODEL_SPACE
70
0
10
0.0
20
0.0
30
0.0
3
*MODEL_SPACE
1

0
ENDBLK
5
21
100
AcDbEntity
8
0
100
AcDbBlockEnd
0
BLOCK
5
1C
100
AcDbEntity
8
0
100
AcDbBlockBegin
2
*PAPER_SPACE
70
0
10
0.0
20
0.0
30
0.0
3
*PAPER_SPACE
1

0
ENDBLK
5
1D
100
AcDbEntity
8
0
100
AcDbBlockEnd
0
ENDSEC
0
SECTION
2
ENTITIES
0
LINE
5
210
100
AcDbEntity
8
0
100
AcDbLine
62
9
6
CONTINUOUS
10
-12.6895220442
20
-13.5747965600
11
-0.0323106610
21
-19.9034022516
0
LINE
5
211
100
AcDbEntity
8
0
100
AcDbLine
62
9
6
CONTINUOUS
10
-12.5180314177
20
-14.0210189249
11
-0.0235993959
21
-20.2846722051
0
LWPOLYLINE
5
212
100
AcDbEntity
8
0
100
AcDbPolyline
62
7
6
CONTINUOUS
90
33
70
0
10
-8.7304222409
20
26.0562843323
10
-8.7466515354
20
26.0473215765
10
-8.7676580953
20
26.0350755571
10
-8.7880312545
20
26.0224442388
10
-8.8077861866
20
26.0094168199
10
-8.8268964116
20
25.9960091390
10
-8.8452982810
20
25.9822682875
10
-8.8629942968
20
25.9681983024
10
-8.8799829364
20
25.9538059141
10
-8.8962059490
20
25.9391499705
10
-8.9116691228
20
25.9242398878
10
-8.9263778529
20
25.9090853541
10
-8.9402849774
20
25.8937551155
10
-8.9533852494
20
25.8782837008
10
-8.9657079155
20
25.8626666305
10
-8.9772622207
20
25.8469209322
10
-8.9880507658
20
25.8310744329
10
-8.9980929405
20
25.8151323094
10
-9.0074173181
20
25.7990793652
10
-9.0160306959
20
25.7829315894
10
-9.0239399517
20
25.7667062040
10
-9.0311655086
20
25.7503903191
10
-9.0377123761
20
25.7339991870
10
-9.0435843833
20
25.7175522836
10
-9.0487940564
20
25.7010439067
10
-9.0533453944
20
25.6844905567
10
-9.0572420861
20
25.6679122640
10
-9.0604922492
20
25.6513095379
10
-9.0630996487
20
25.6347013450
10
-9.0650692905
20
25.6181062551
10
-9.0664081008
20
25.6015246581
10
-9.0671207597
20
25.5849691436
10
-9.0672504249
20
25.5742366104
0
LINE
5
213
100
AcDbEntity
8
0
100
AcDbLine
62
7
6
CONTINUOUS
10
-8.7304245202
20
26.0562831298
11
-7.3154635296
21
26.8196870459
0
LINE
5
214
100
AcDbEntity
8
0
100
AcDbLine
62
9
6
CONTINUOUS
10
-8.6148037439
20
26.0511936987
11
-7.2010781268
21
26.8139311024
0
LINE
5
215
100
AcDbEntity
8
0
100
AcDbLine
62
7
6
CONTINUOUS
10
-7.3102490944
20
26.8222947968
11
-0.8352047108
21
29.8126848687
0
LINE
5
216
100
AcDbEntity
8
0
100
AcDbLine
62
9
6
CONTINUOUS
10
-7.2010781268
20
26.8139311024
11
-0.7260337432
21
29.8043211743
0
LWPOLYLINE
5
217
100
AcDbEntity
8
0
100
AcDbPolyline
62
7
6
CONTINUOUS
90
30
70
0
10
-12.3567705814
20
22.7085372988
10
-12.3648540673
20
22.7039803898
10
-12.3727749597
20
22.6991188995
10
-12.3805189843
20
22.6939599098
10
-12.3880615613
20
22.6885193797
10
-12.3954006540
20
22.6827987693
10
-12.4025537278
20
22.6767810857
10
-12.4095272709
20
22.6704526781
10
-12.4162827616
20
22.6638404857
10
-12.4227720325
20
22.6569901474
10
-12.4289524018
20
22.6499539330
10
-12.4348508913
20
22.6427090584
10
-12.4405200202
20
22.6351861421
10
-12.4459781521
20
22.6273405868
10
-12.4511688652
20
22.6192327395
10
-12.4560329883
20
22.6109498918
10
-12.4605349395
20
22.6025651399
10
-12.4647033678
20
22.5940390256
10
-12.4685748994
20
22.5852900834
10
-12.4721627604
20
22.5762556901
10
-12.4754182606
20
22.5670234647
10
-12.4782908378
20
22.5577367841
10
-12.4807590034
20
22.5485124085
10
-12.4828592077
20
22.5392675767
10
-12.4846248895
20
22.5298454804
10
-12.4860562221
20
22.5201425182
10
-12.4871144858
20
22.5102924678
10
-12.4877777126
20
22.5004909925
10
-12.4880538694
20
22.4908362070
10
-12.4880646263
20
22.4885186651
0
LINE
5
218
100
AcDbEntity
8
0
100
AcDbLine
62
7
6
CONTINUOUS
10
-9.0672504577
20
24.4833088727
11
-12.3567705814
21
22.7085372988
0
LINE
5
219
100
AcDbEntity
8
0
100
AcDbLine
62
9
6
CONTINUOUS
10
-9.0672504577
20
24.4158393801
11
-12.2411498050
21
22.7034478676
0
LINE
5
21A
100
AcDbEntity
8
0
100
AcDbLine
62
9
6
CONTINUOUS
10
-6.1403910311
20
26.2835875545
11
-7.5701944053
21
25.5381195291
0
LINE
5
21B
100
AcDbEntity
8
0
100
AcDbLine
62
9
6
CONTINUOUS
10
-5.9636143358
20
25.9786598759
11
-7.3903325312
21
25.2348003948
0
LINE
5
21C
100
AcDbEntity
8
0
100
AcDbLine
62
9
6
CONTINUOUS
10
-6.1403910311
20
26.2835875545
11
0.2235699996
21
29.3295193030
0
LINE
5
21D
100
AcDbEntity
8
0
100
AcDbLine
62
9
6
CONTINUOUS
10
-5.9636143358
20
25.9786598759
11
0.4003466949
21
29.0245916244
0
LINE
5
21E
100
AcDbEntity
8
0
100
AcDbLine
62
7
6
CONTINUOUS
10
0.4003466949
20
28.0343036805
11
-1.6502629706
21
27.0528367838
0
LINE
5
21F
100
AcDbEntity
8
0
100
AcDbLine
62
7
6
CONTINUOUS
10
2.6364311394
20
-21.5059217323
11
5.0389313219
21
-20.8558203857
0
LINE
5
220
100
AcDbEntity
8
0
100
AcDbLine
62
9
6
CONTINUOUS
10
2.7447957477
20
-21.3545180271
11
5.1222746435
21
-20.7111872823
0
LWPOLYLINE
5
221
100
AcDbEntity
8
0
100
AcDbPolyline
62
7
6
CONTINUOUS
90
46
70
0
10
-14.5056381277
20
17.6497115062
10
-14.5209353814
20
17.6382064317
10
-14.5411924932
20
17.6222759095
10
-14.5611629590
20
17.6057745808
10
-14.5808397085
20
17.5887180834
10
-14.6002157657
20
17.5711222633
10
-14.6192814826
20
17.5530048812
10
-14.6380303109
20
17.5343810887
10
-14.6564547635
20
17.5152666181
10
-14.6745423942
20
17.4956821259
10
-14.6922860817
20
17.4756435268
10
-14.7096787316
20
17.4551661217
10
-14.7267076609
20
17.4342720580
10
-14.7433652581
20
17.4129782107
10
-14.7596448955
20
17.3912995376
10
-14.7755354474
20
17.3692576411
10
-14.7910278841
20
17.3468717964
10
-14.8061173310
20
17.3241549746
10
-14.8207987210
20
17.3011205520
10
-14.8350643506
20
17.2777852246
10
-14.8489076010
20
17.2541640848
10
-14.8623241913
20
17.2302682010
10
-14.8753065796
20
17.2061132612
10
-14.8878475622
20
17.1817150050
10
-14.8999422303
20
17.1570841860
10
-14.9115828810
20
17.1322363230
10
-14.9227621223
20
17.1071871221
10
-14.9334744076
20
17.0819470734
10
-14.9437121123
20
17.0565311896
10
-14.9534673488
20
17.0309555441
10
-14.9627335247
20
17.0052316633
10
-14.9715034332
20
16.9793729861
10
-14.9797682791
20
16.9533970714
10
-14.9875194110
20
16.9273210139
10
-14.9947492229
20
16.9011597233
10
-15.0014493810
20
16.8749293224
10
-15.0076112931
20
16.8486477746
10
-15.0132271946
20
16.8223302731
10
-15.0182888321
20
16.7959923998
10
-15.0227880080
20
16.7696514409
10
-15.0267165920
20
16.7433232243
10
-15.0300663234
20
16.7170226724
10
-15.0328291616
20
16.6907636088
10
-15.0349964609
20
16.6645599147
10
-15.0365594510
20
16.6384286305
10
-15.0373098409
20
16.6195352212
0
LINE
5
222
100
AcDbEntity
8
0
100
AcDbLine
62
7
6
CONTINUOUS
10
-14.5056399261
20
17.6497102103
11
-12.1892887382
21
19.3581517222
0
LINE
5
223
100
AcDbEntity
8
0
100
AcDbLine
62
9
6
CONTINUOUS
10
-14.3879438860
20
17.6463836388
11
-12.0649093970
21
19.3597544676
0
LINE
5
224
100
AcDbEntity
8
0
100
AcDbLine
62
7
6
CONTINUOUS
10
-6.4675980453
20
23.3391641149
11
-4.1323733968
21
24.5990713868
0
LINE
5
225
100
AcDbEntity
8
0
100
AcDbLine
62
7
6
CONTINUOUS
10
-2.6296414992
20
25.4098297208
11
0.0467933043
21
26.8538276992
0
LINE
5
226
100
AcDbEntity
8
0
100
AcDbLine
62
7
6
CONTINUOUS
10
-1.6502629706
20
27.0528367838
11
-7.3903325312
21
24.0600907892
0
LINE
5
227
100
AcDbEntity
8
0
100
AcDbLine
62
7
6
CONTINUOUS
10
-5.4262642080
20
22.8184971963
11
-3.6253824199
21
23.7258816348
0
LINE
5
228
100
AcDbEntity
8
0
100
AcDbLine
62
7
6
CONTINUOUS
10
0.3127185607
20
25.7101160088
11
1.3195855104
21
26.2174315961
0
LINE
5
229
100
AcDbEntity
8
0
100
AcDbLine
62
7
6
CONTINUOUS
10
-3.7008726360
20
25.1246268935
11
-3.3373045034
21
25.3064109598
0
LINE
5
22A
100
AcDbEntity
8
0
100
AcDbLine
62
7
6
CONTINUOUS
10
2.8224224914
20
26.9628498178
11
1.6771687217
21
26.3947955051
0
LINE
5
22B
100
AcDbEntity
8
0
100
AcDbLine
62
7
6
CONTINUOUS
10
0.0467933043
20
26.8538276992
11
1.6030265548
21
27.5725477861
0
LWPOLYLINE
5
22C
100
AcDbEntity
8
0
100
AcDbPolyline
62
7
6
CONTINUOUS
90
24
70
0
10
2.2117263171
20
-21.4711897459
10
2.2217646873
20
-21.4760810804
10
2.2383934277
20
-21.4836317228
10
2.2553160312
20
-21.4906375043
10
2.2725233583
20
-21.4970904153
10
2.2900151157
20
-21.5029853698
10
2.3077784748
20
-21.5083123714
10
2.3257992678
20
-21.5130617601
10
2.3440760934
20
-21.5172277092
10
2.3625949449
20
-21.5208010580
10
2.3813424124
20
-21.5237732775
10
2.4003192440
20
-21.5261381360
10
2.4195120270
20
-21.5278873001
10
2.4389072567
20
-21.5290128581
10
2.4585070829
20
-21.5295075000
10
2.4782989171
20
-21.5293631795
10
2.4982693409
20
-21.5285723820
10
2.5184208801
20
-21.5271265046
10
2.5387409124
20
-21.5250173452
10
2.5592178454
20
-21.5222372475
10
2.5798575455
20
-21.5187754431
10
2.6006544531
20
-21.5146216533
10
2.6215895361
20
-21.5097689015
10
2.6364271651
20
-21.5059227570
0
LINE
5
22D
100
AcDbEntity
8
0
100
AcDbLine
62
7
6
CONTINUOUS
10
-12.3498680252
20
-15.8695428834
11
4.6538052773
21
-24.3713795347
0
LINE
5
22E
100
AcDbEntity
8
0
100
AcDbLine
62
9
6
CONTINUOUS
10
-12.4148413216
20
-15.7343244333
11
4.5888319809
21
-24.2361610846
0
LINE
5
22F
100
AcDbEntity
8
0
100
AcDbLine
62
7
6
CONTINUOUS
10
-14.7081269990
20
-13.0112632118
11
-12.6183204438
21
-14.0561664894
0
LINE
5
230
100
AcDbEntity
8
0
100
AcDbLine
62
7
6
CONTINUOUS
10
0.1219591789
20
-20.4263063008
11
2.2117657341
21
-21.4712095784
0
LWPOLYLINE
5
231
100
AcDbEntity
8
0
100
AcDbPolyline
62
7
6
CONTINUOUS
90
31
70
0
10
-12.3498668451
20
-15.8695434735
10
-12.3530883446
20
-15.8679035252
10
-12.3611862233
20
-15.8635161224
10
-12.3691179453
20
-15.8588328390
10
-12.3768821109
20
-15.8538536318
10
-12.3844709251
20
-15.8485815783
10
-12.3918692820
20
-15.8430252226
10
-12.3990646067
20
-15.8371924746
10
-12.4060449920
20
-15.8310916871
10
-12.4128013501
20
-15.8247294786
10
-12.4193256287
20
-15.8181117198
10
-12.4256080102
20
-15.8112463369
10
-12.4316384064
20
-15.8041422539
10
-12.4374084091
20
-15.7968070778
10
-12.4429091860
20
-15.7892494011
10
-12.4481311684
20
-15.7814796133
10
-12.4530652591
20
-15.7735085275
10
-12.4577027170
20
-15.7653475974
10
-12.4620362804
20
-15.7570067755
10
-12.4660594785
20
-15.7484950802
10
-12.4697655632
20
-15.7398225909
10
-12.4731470149
20
-15.7310023573
10
-12.4761967956
20
-15.7220483051
10
-12.4789090532
20
-15.7129731055
10
-12.4812785481
20
-15.7037892466
10
-12.4833002015
20
-15.6945109009
10
-12.4849697145
20
-15.6851518660
10
-12.4862835188
20
-15.6757250332
10
-12.4872384741
20
-15.6662435620
10
-12.4878319906
20
-15.6567186520
10
-12.4880615965
20
-15.6471668991
0
LINE
5
232
100
AcDbEntity
8
0
100
AcDbLine
62
7
6
CONTINUOUS
10
-0.5665641852
20
24.6175653889
11
-1.0233008508
21
24.3874360458
0
LINE
5
233
100
AcDbEntity
8
0
100
AcDbLine
62
7
6
CONTINUOUS
10
-2.9783580575
20
23.4023694536
11
-5.4262642080
21
22.1689781434
0
LINE
5
234
100
AcDbEntity
8
0
100
AcDbLine
62
7
6
CONTINUOUS
10
3.2554729539
20
25.6056433890
11
2.8947132398
21
25.4298677315
0
LINE
5
235
100
AcDbEntity
8
0
100
AcDbLine
62
9
6
CONTINUOUS
10
-14.9640702014
20
-12.5059763225
11
-12.8791740565
21
-13.5484243950
0
LINE
5
236
100
AcDbEntity
8
0
100
AcDbLine
62
9
6
CONTINUOUS
10
-0.1358728347
20
-19.9200750059
11
1.9490233103
21
-20.9625230784
0
LINE
5
237
100
AcDbEntity
8
0
100
AcDbLine
62
7
6
CONTINUOUS
10
4.5888319809
20
-21.4502120924
11
3.9755416175
21
-21.1435669107
0
LINE
5
238
100
AcDbEntity
8
0
100
AcDbLine
62
7
6
CONTINUOUS
10
-0.1625248970
20
-19.0745336534
11
-10.9230032677
21
-13.6942944681
0
LINE
5
239
100
AcDbEntity
8
0
100
AcDbLine
62
7
6
CONTINUOUS
10
-11.4790472291
20
-13.1691459203
11
-0.1701508089
21
-18.8235941304
0
LINE
5
23A
100
AcDbEntity
8
0
100
AcDbLine
62
7
6
CONTINUOUS
10
5.1222746435
20
-21.3633800331
11
4.4343481240
21
-21.0194167733
0
LINE
5
23B
100
AcDbEntity
8
0
100
AcDbLine
62
7
6
CONTINUOUS
10
1.5042726779
20
24.0429008524
11
0.9097877202
21
23.7276039230
0
LINE
5
23C
100
AcDbEntity
8
0
100
AcDbLine
62
7
6
CONTINUOUS
10
-2.5148941992
20
21.9112557050
11
-2.9230551767
21
21.6947794069
0
LINE
5
23D
100
AcDbEntity
8
0
100
AcDbLine
62
7
6
CONTINUOUS
10
10.1584202753
20
-16.2503587286
11
16.4112979529
21
-17.5128365368
0
LINE
5
23E
100
AcDbEntity
8
0
100
AcDbLine
62
7
6
CONTINUOUS
10
-0.2592491323
20
-15.4125011251
11
-13.0039943194
21
-9.0401285315
0
LWPOLYLINE
5
23F
100
AcDbEntity
8
0
100
AcDbPolyline
62
7
6
CONTINUOUS
90
36
70
0
10
-15.0373016201
20
-12.4171604859
10
-15.0365523469
20
-12.4353453713
10
-15.0350212022
20
-12.4597710700
10
-15.0328966465
20
-12.4839248739
10
-15.0301764587
20
-12.5078086050
10
-15.0268614778
20
-12.5313974920
10
-15.0229584916
20
-12.5546400273
10
-15.0184697366
20
-12.5775280671
10
-15.0133978885
20
-12.6000515285
10
-15.0077563702
20
-12.6221591264
10
-15.0015506673
20
-12.6438436094
10
-14.9947867215
20
-12.6650968516
10
-14.9874853373
20
-12.6858695476
10
-14.9796559740
20
-12.7061554038
10
-14.9713082022
20
-12.7259487228
10
-14.9624702429
20
-12.7452042722
10
-14.9531610900
20
-12.7639071529
10
-14.9433896578
20
-12.7820647879
10
-14.9331738119
20
-12.7996667234
10
-14.9225341251
20
-12.8167006023
10
-14.9114811158
20
-12.8331722377
10
-14.9000175820
20
-12.8490959624
10
-14.8881581902
20
-12.8644669699
10
-14.8759183290
20
-12.8792808339
10
-14.8633002015
20
-12.8935484882
10
-14.8503190703
20
-12.9072641053
10
-14.8369901500
20
-12.9204227986
10
-14.8233144306
20
-12.9330336095
10
-14.8093077600
20
-12.9450903511
10
-14.7949855588
20
-12.9565879290
10
-14.7803470159
20
-12.9675338987
10
-14.7654077579
20
-12.9779224937
10
-14.7501840493
20
-12.9877482600
10
-14.7346748673
20
-12.9970164208
10
-14.7188902078
20
-13.0057243258
10
-14.7080820012
20
-13.0112855863
0
LWPOLYLINE
5
240
100
AcDbEntity
8
0
100
AcDbPolyline
62
7
6
CONTINUOUS
90
28
70
0
10
-15.0373098193
20
16.6195371512
10
-15.0699243124
20
15.5334287287
10
-15.1002113196
20
14.4422448353
10
-15.1279753401
20
13.3522588896
10
-15.1532160797
20
12.2634813619
10
-15.1759333301
20
11.1759213157
10
-15.1961269061
20
10.0895872212
10
-15.2137966240
20
9.0044877948
10
-15.2289423229
20
7.9206326377
10
-15.2415638520
20
6.8380315482
10
-15.2516610790
20
5.7566939267
10
-15.2592339186
20
4.6766289314
10
-15.2642822950
20
3.5978459949
10
-15.2668061456
20
2.5203543217
10
-15.2668054505
20
1.4441631217
10
-15.2642802010
20
0.3692818328
10
-15.2592303999
20
-0.7042803449
10
-15.2516560928
20
-1.7765142651
10
-15.2415573380
20
-2.8474105720
10
-15.2289342035
20
-3.9169601868
10
-15.2137868045
20
-4.9851538368
10
-15.1961152745
20
-6.0519818792
10
-15.1759197568
20
-7.1174348698
10
-15.1532004182
20
-8.1815042754
10
-15.1279574258
20
-9.2441818190
10
-15.1001909709
20
-10.3054586456
10
-15.0699013302
20
-11.3653245746
10
-15.0373016032
20
-12.4171617710
0
LINE
5
241
100
AcDbEntity
8
0
100
AcDbLine
62
9
6
CONTINUOUS
10
2.6871493258
20
20.4115064987
11
2.8452585891
21
20.4905611303
0
LINE
5
242
100
AcDbEntity
8
0
100
AcDbLine
62
7
6
CONTINUOUS
10
8.8796936199
20
22.7935330560
11
8.5125818678
21
22.6209334175
0
LINE
5
243
100
AcDbEntity
8
0
100
AcDbLine
62
7
6
CONTINUOUS
10
10.1584202753
20
-16.0060942436
11
15.7849365215
21
-17.1996558210
0
LINE
5
244
100
AcDbEntity
8
0
100
AcDbLine
62
7
6
CONTINUOUS
10
-12.4880615965
20
-15.6471668991
11
-12.4880646263
21
-14.0946403450
0
LINE
5
245
100
AcDbEntity
8
0
100
AcDbLine
62
7
6
CONTINUOUS
10
-12.4880646263
20
19.7025680888
11
-12.4880646263
21
22.4885170810
0
LINE
5
246
100
AcDbEntity
8
0
100
AcDbLine
62
9
6
CONTINUOUS
10
-12.4148413216
20
-15.7343244333
11
-12.4148413216
21
-14.0971394191
0
LINE
5
247
100
AcDbEntity
8
0
100
AcDbLine
62
9
6
CONTINUOUS
10
-12.4148413216
20
19.6141797412
11
-12.4148413216
21
22.4001287334
0
LINE
5
248
100
AcDbEntity
8
0
100
AcDbLine
62
7
6
CONTINUOUS
10
-12.2411772030
20
19.3198810110
11
-12.2411772030
21
19.5273476819
0
LINE
5
249
100
AcDbEntity
8
0
100
AcDbLine
62
7
6
CONTINUOUS
10
3.5733182475
20
18.3187059685
11
10.0877095971
21
21.8333695528
0
LINE
5
24A
100
AcDbEntity
8
0
100
AcDbLine
62
7
6
CONTINUOUS
10
6.3266212685
20
20.8510184382
11
4.5722767039
21
19.9518437211
0
LINE
5
24B
100
AcDbEntity
8
0
100
AcDbLine
62
7
6
CONTINUOUS
10
4.2515080350
20
19.7874364074
11
2.5923777166
21
18.9370629603
0
LINE
5
24C
100
AcDbEntity
8
0
100
AcDbLine
62
7
6
CONTINUOUS
10
4.7844087382
20
20.8819862064
11
5.1479768708
21
21.0637702727
0
LINE
5
24D
100
AcDbEntity
8
0
100
AcDbLine
62
3
6
CONTINUOUS
10
4.7844087382
20
20.5355760449
11
5.1479768708
21
20.7173601112
0
LINE
5
24E
100
AcDbEntity
8
0
100
AcDbLine
62
9
6
CONTINUOUS
10
4.5722767039
20
20.1697024066
11
4.2894339914
21
20.0282810503
0
LINE
5
24F
100
AcDbEntity
8
0
100
AcDbLine
62
7
6
CONTINUOUS
10
4.5722767039
20
19.9098947854
11
4.2894339914
21
19.7684734292
0
LINE
5
250
100
AcDbEntity
8
0
100
AcDbLine
62
7
6
CONTINUOUS
10
11.6439428476
20
22.5520896397
11
10.4579978521
21
22.0043809399
0
LINE
5
251
100
AcDbEntity
8
0
100
AcDbLine
62
7
6
CONTINUOUS
10
-10.6059749255
20
-13.6056820721
11
-12.2920091855
21
-14.0769444658
0
LINE
5
252
100
AcDbEntity
8
0
100
AcDbLine
62
9
6
CONTINUOUS
10
-11.2496388566
20
-6.9136379694
11
-2.1279613793
21
-11.4744767081
0
LINE
5
253
100
AcDbEntity
8
0
100
AcDbLine
62
9
6
CONTINUOUS
10
-10.9668209120
20
-6.7372037933
11
-2.1907351801
21
-11.1252466592
0
LINE
5
254
100
AcDbEntity
8
0
100
AcDbLine
62
9
6
CONTINUOUS
10
-12.4713014197
20
-4.8927730468
11
-11.2692198917
21
-5.4938138109
0
LINE
5
255
100
AcDbEntity
8
0
100
AcDbLine
62
9
6
CONTINUOUS
10
-2.1475424143
20
-10.0546525495
11
-0.9454608863
21
-10.6556933135
0
LINE
5
256
100
AcDbEntity
8
0
100
AcDbLine
62
7
6
CONTINUOUS
10
-2.1040039238
20
-9.8070056343
11
-3.1586437896
21
-9.2796857014
0
LINE
5
257
100
AcDbEntity
8
0
100
AcDbLine
62
7
6
CONTINUOUS
10
-7.2129499634
20
-7.2525326146
11
-9.6052142589
21
-6.0564004668
0
LINE
5
258
100
AcDbEntity
8
0
100
AcDbLine
62
9
6
CONTINUOUS
10
-12.1884742604
20
-4.7170070233
11
-11.1278140887
21
-5.2473371092
0
LINE
5
259
100
AcDbEntity
8
0
100
AcDbLine
62
9
6
CONTINUOUS
10
-2.0061366114
20
-9.8081758478
11
-1.0072058438
21
-10.3076412316
0
LINE
5
25A
100
AcDbEntity
8
0
100
AcDbLine
62
7
6
CONTINUOUS
10
-11.6911792634
20
-9.6965360595
11
-11.6911792634
21
-12.8032722820
0
LINE
5
25B
100
AcDbEntity
8
0
100
AcDbLine
62
7
6
CONTINUOUS
10
-10.8072957869
20
-4.0264177865
11
-10.8072957869
21
9.1570934226
0
LWPOLYLINE
5
25C
100
AcDbEntity
8
0
100
AcDbPolyline
62
7
6
CONTINUOUS
90
33
70
0
10
7.3786894389
20
18.0141819685
10
7.3624026051
20
18.0054916298
10
7.3407816573
20
17.9933106325
10
7.3197852644
20
17.9807189698
10
7.2993969567
20
17.9677031965
10
7.2796484420
20
17.9542794951
10
7.2606139154
20
17.9404987477
10
7.2422919232
20
17.9263643580
10
7.2246856293
20
17.9118824756
10
7.2078625959
20
17.8971168512
10
7.1918172773
20
17.8820766718
10
7.1765449829
20
17.8667713761
10
7.1621005990
20
17.8512756761
10
7.1484899803
20
17.8356251904
10
7.1356825944
20
17.8198149820
10
7.1236723761
20
17.8038667070
10
7.1124566528
20
17.7878096704
10
7.1020146043
20
17.7716488372
10
7.0923179760
20
17.7553716750
10
7.0833593456
20
17.7389950389
10
7.0751308766
20
17.7225368361
10
7.0676120737
20
17.7059868461
10
7.0607976372
20
17.6893622356
10
7.0546823453
20
17.6726823461
10
7.0492520650
20
17.6559412283
10
7.0445024397
20
17.6391572067
10
7.0404288492
20
17.6223502385
10
7.0370214974
20
17.6055177083
10
7.0342760858
20
17.5886796513
10
7.0321872499
20
17.5718552188
10
7.0307473443
20
17.5550409038
10
7.0299517476
20
17.5382485195
10
7.0297750078
20
17.5257204317
0
LINE
5
25D
100
AcDbEntity
8
0
100
AcDbLine
62
7
6
CONTINUOUS
10
8.8077735522
20
18.7592750334
11
7.3786866414
21
18.0141805562
0
LINE
5
25E
100
AcDbEntity
8
0
100
AcDbLine
62
9
6
CONTINUOUS
10
8.9209834082
20
18.7529003349
11
7.4911800340
21
18.0074323095
0
LINE
5
25F
100
AcDbEntity
8
0
100
AcDbLine
62
7
6
CONTINUOUS
10
4.6146520848
20
17.7980390498
11
11.3605018033
21
21.1969734497
0
LINE
5
260
100
AcDbEntity
8
0
100
AcDbLine
62
7
6
CONTINUOUS
10
11.3605018033
20
20.5474543969
11
4.6146520848
21
17.1485199970
0
LINE
5
261
100
AcDbEntity
8
0
100
AcDbLine
62
7
6
CONTINUOUS
10
11.3605018033
20
21.1969734497
11
12.8633387843
21
21.9423916713
0
LINE
5
262
100
AcDbEntity
8
0
100
AcDbLine
62
7
6
CONTINUOUS
10
13.3753179439
20
21.5468180560
11
11.3605018033
21
20.5474543969
0
LINE
5
263
100
AcDbEntity
8
0
100
AcDbLine
62
7
6
CONTINUOUS
10
8.8106442488
20
18.7607098454
11
15.1746040213
21
21.8066409917
0
LINE
5
264
100
AcDbEntity
8
0
100
AcDbLine
62
9
6
CONTINUOUS
10
8.9209834082
20
18.7529003349
11
15.2849444389
21
21.7988320833
0
LINE
5
265
100
AcDbEntity
8
0
100
AcDbLine
62
9
6
CONTINUOUS
10
12.7040046875
20
-16.0127432947
11
14.5567596131
21
-16.9391207574
0
LINE
5
266
100
AcDbEntity
8
0
100
AcDbLine
62
7
6
CONTINUOUS
10
12.8478419850
20
-15.9586576509
11
14.9944744434
21
-17.0319738801
0
LINE
5
267
100
AcDbEntity
8
0
100
AcDbLine
62
7
6
CONTINUOUS
10
-10.6658744307
20
-4.0971284647
11
-10.8072957869
21
-4.0264177865
0
LINE
5
268
100
AcDbEntity
8
0
100
AcDbLine
62
7
6
CONTINUOUS
10
16.4112979529
20
-17.5128365368
11
15.7849365215
21
-17.1996558210
0
LINE
5
269
100
AcDbEntity
8
0
100
AcDbLine
62
7
6
CONTINUOUS
10
-9.6052142589
20
-4.4860371943
11
-10.5244530745
21
-4.0264177865
0
LINE
5
26A
100
AcDbEntity
8
0
100
AcDbLine
62
7
6
CONTINUOUS
10
-1.0241698415
20
-8.5402287689
11
-1.2478843984
21
-8.4283714905
0
LINE
5
26B
100
AcDbEntity
8
0
100
AcDbLine
62
7
6
CONTINUOUS
10
-5.3431649154
20
-6.3807312320
11
-10.8072957869
21
-3.6486657962
0
LINE
5
26C
100
AcDbEntity
8
0
100
AcDbLine
62
7
6
CONTINUOUS
10
-9.4637929027
20
-6.1271111449
11
-9.4637929027
21
-4.7299529532
0
LINE
5
26D
100
AcDbEntity
8
0
100
AcDbLine
62
7
6
CONTINUOUS
10
-9.0672504577
20
25.5742761916
11
-9.0672504577
21
24.3969008110
0
LINE
5
26E
100
AcDbEntity
8
0
100
AcDbLine
62
9
6
CONTINUOUS
10
8.5177147721
20
17.4849344407
11
9.9816705039
21
18.2225567870
0
LINE
5
26F
100
AcDbEntity
8
0
100
AcDbLine
62
9
6
CONTINUOUS
10
8.6944645434
20
17.1800861791
11
10.1584202753
21
17.9177085253
0
LINE
5
270
100
AcDbEntity
8
0
100
AcDbLine
62
9
6
CONTINUOUS
10
4.7625234974
20
14.2016112164
11
8.0499481808
21
15.8579986708
0
LINE
5
271
100
AcDbEntity
8
0
100
AcDbLine
62
9
6
CONTINUOUS
10
9.9816705039
20
18.2225567870
11
16.2345481816
21
21.3240302120
0
LINE
5
272
100
AcDbEntity
8
0
100
AcDbLine
62
9
6
CONTINUOUS
10
10.1584202753
20
17.9177085253
11
16.4112979529
21
21.0191819503
0
LINE
5
273
100
AcDbEntity
8
0
100
AcDbLine
62
9
6
CONTINUOUS
10
10.3161239856
20
-13.3898610275
11
12.3504512969
21
-14.4070246831
0
LINE
5
274
100
AcDbEntity
8
0
100
AcDbLine
62
7
6
CONTINUOUS
10
10.7438501871
20
-13.4777198357
11
12.5740580947
21
-14.3928237895
0
LINE
5
275
100
AcDbEntity
8
0
100
AcDbLine
62
9
6
CONTINUOUS
10
-7.3903325312
20
25.2348003948
11
-7.3903325312
21
24.0600907892
0
LINE
5
276
100
AcDbEntity
8
0
100
AcDbLine
62
7
6
CONTINUOUS
10
-6.6742892340
20
22.4261861173
11
-6.6742892340
21
23.0757051702
0
LINE
5
277
100
AcDbEntity
8
0
100
AcDbLine
62
7
6
CONTINUOUS
10
-6.5292997608
20
6.9677546182
11
-6.5292997608
21
-5.7876638093
0
LINE
5
278
100
AcDbEntity
8
0
100
AcDbLine
62
9
6
CONTINUOUS
10
-1.7986059806
20
24.8560649996
11
-1.8152910141
21
24.7848302994
0
LINE
5
279
100
AcDbEntity
8
0
100
AcDbLine
62
9
6
CONTINUOUS
10
4.9392732688
20
13.8967629547
11
8.6944645434
21
15.7888372425
0
LINE
5
27A
100
AcDbEntity
8
0
100
AcDbLine
62
9
6
CONTINUOUS
10
-5.4262642080
20
22.1689781434
11
-5.4262642080
21
22.8184971963
0
LINE
5
27B
100
AcDbEntity
8
0
100
AcDbLine
62
7
6
CONTINUOUS
10
-4.1958473828
20
24.0111141163
11
-4.1958473828
21
24.2709217374
0
LINE
5
27C
100
AcDbEntity
8
0
100
AcDbLine
62
9
6
CONTINUOUS
10
0.1516397040
20
25.0550997967
11
0.0642364992
21
24.6819425529
0
LINE
5
27D
100
AcDbEntity
8
0
100
AcDbLine
62
9
6
CONTINUOUS
10
0.4275607627
20
24.9981156563
11
0.3401575578
21
24.6249584125
0
LINE
5
27E
100
AcDbEntity
8
0
100
AcDbLine
62
9
6
CONTINUOUS
10
4.9460068374
20
10.8542963503
11
2.5404342041
21
9.1821945937
0
LINE
5
27F
100
AcDbEntity
8
0
100
AcDbLine
62
7
6
CONTINUOUS
10
5.1222746435
20
11.1991751492
11
4.9392732688
21
11.1108139625
0
LINE
5
280
100
AcDbEntity
8
0
100
AcDbLine
62
7
6
CONTINUOUS
10
-2.1883823200
20
-11.2829892126
11
-2.1935718063
21
-10.9306124375
0
LINE
5
281
100
AcDbEntity
8
0
100
AcDbLine
62
7
6
CONTINUOUS
10
-2.1935718063
20
-10.9306124375
11
-2.1979790551
21
-10.6151304282
0
LINE
5
282
100
AcDbEntity
8
0
100
AcDbLine
62
7
6
CONTINUOUS
10
-2.1979790551
20
-10.6151304282
11
-2.2021623767
21
-10.2995320477
0
LINE
5
283
100
AcDbEntity
8
0
100
AcDbLine
62
7
6
CONTINUOUS
10
-2.2021623767
20
-10.2995320477
11
-2.2061217676
21
-9.9838175815
0
LWPOLYLINE
5
284
100
AcDbEntity
8
0
100
AcDbPolyline
62
7
6
CONTINUOUS
90
29
70
0
10
-2.2061217676
20
-9.9838175815
10
-2.2060598091
20
-9.9758388287
10
-2.2056789261
20
-9.9678581869
10
-2.2049787029
20
-9.9598908701
10
-2.2039616019
20
-9.9519654037
10
-2.2026280913
20
-9.9440834984
10
-2.2009713440
20
-9.9362209135
10
-2.1989826284
20
-9.9283675933
10
-2.1966665229
20
-9.9205668446
10
-2.1940375336
20
-9.9128736778
10
-2.1911127733
20
-9.9053295018
10
-2.1878899890
20
-9.8979201013
10
-2.1843552194
20
-9.8906167960
10
-2.1804998422
20
-9.8834142826
10
-2.1763380637
20
-9.8763501445
10
-2.1718885081
20
-9.8694599353
10
-2.1671605392
20
-9.8627584407
10
-2.1621612774
20
-9.8562557769
10
-2.1569101174
20
-9.8499756400
10
-2.1514332061
20
-9.8439440356
10
-2.1457264622
20
-9.8381514849
10
-2.1397606637
20
-9.8325702682
10
-2.1335077277
20
-9.8271843052
10
-2.1270072584
20
-9.8220376304
10
-2.1203321978
20
-9.8171878470
10
-2.1135222770
20
-9.8126553561
10
-2.1065616507
20
-9.8084219408
10
-2.0994419977
20
-9.8044795298
10
-2.0955778507
20
-9.8024947505
0
LINE
5
285
100
AcDbEntity
8
0
100
AcDbLine
62
9
6
CONTINUOUS
10
2.4781704281
20
23.9728108236
11
2.4577391686
21
23.8855820715
0
LINE
5
286
100
AcDbEntity
8
0
100
AcDbLine
62
9
6
CONTINUOUS
10
2.2319026721
20
22.8408106733
11
2.2152176386
21
22.7695759730
0
LINE
5
287
100
AcDbEntity
8
0
100
AcDbLine
62
9
6
CONTINUOUS
10
5.1222746435
20
10.5469823984
11
2.7447957477
21
8.8944084612
0
LINE
5
288
100
AcDbEntity
8
0
100
AcDbLine
62
7
6
CONTINUOUS
10
-2.5935627173
20
23.0518625202
11
-2.4848520638
21
21.4756778504
0
LWPOLYLINE
5
289
100
AcDbEntity
8
0
100
AcDbPolyline
62
7
6
CONTINUOUS
90
15
70
0
10
-1.0054983274
20
-10.4638293769
10
-1.0149765710
20
-9.5968454269
10
-1.0237230659
20
-8.6077063092
10
-1.0302796656
20
-7.6174481959
10
-1.0346463274
20
-6.6260782805
10
-1.0368230243
20
-5.6336038003
10
-1.0368097455
20
-4.6400320367
10
-1.0346064963
20
-3.6453702411
10
-1.0302132979
20
-2.6496256416
10
-1.0236301877
20
-1.6528054962
10
-1.0148572186
20
-0.6549170645
10
-1.0038944598
20
0.3440323864
10
-0.9907419962
20
1.3440355755
10
-0.9753999288
20
2.3450852181
10
-0.9578683744
20
3.3471740260
0
LINE
5
28A
100
AcDbEntity
8
0
100
AcDbLine
62
7
6
CONTINUOUS
10
0.4003466949
20
28.0343036805
11
0.4003466949
21
29.0245916244
0
LINE
5
28B
100
AcDbEntity
8
0
100
AcDbLine
62
7
6
CONTINUOUS
10
-0.9578683744
20
3.3471740260
11
-0.9407228109
21
4.2253122103
0
LINE
5
28C
100
AcDbEntity
8
0
100
AcDbLine
62
9
6
CONTINUOUS
10
4.1821483568
20
23.0398454704
11
4.0947451519
21
22.6666882265
0
LINE
5
28D
100
AcDbEntity
8
0
100
AcDbLine
62
9
6
CONTINUOUS
10
4.4580694154
20
22.9828613300
11
4.3706662106
21
22.6097040861
0
LINE
5
28E
100
AcDbEntity
8
0
100
AcDbLine
62
7
6
CONTINUOUS
10
1.3195855104
20
25.8128730925
11
1.3195855104
21
26.2174315961
0
LINE
5
28F
100
AcDbEntity
8
0
100
AcDbLine
62
7
6
CONTINUOUS
10
2.8947132398
20
25.4298677315
11
2.8947132398
21
25.1104528419
0
LINE
5
290
100
AcDbEntity
8
0
100
AcDbLine
62
7
6
CONTINUOUS
10
2.5784386723
20
18.9440324824
11
2.6871493258
21
20.4115064987
0
LINE
5
291
100
AcDbEntity
8
0
100
AcDbLine
62
3
6
CONTINUOUS
10
2.8604677201
20
19.0744702621
11
2.9610818048
21
20.4326495225
0
LINE
5
292
100
AcDbEntity
8
0
100
AcDbLine
62
9
6
CONTINUOUS
10
5.2135292745
20
20.7374204229
11
5.3009324794
21
21.1105776668
0
LINE
5
293
100
AcDbEntity
8
0
100
AcDbLine
62
9
6
CONTINUOUS
10
6.5086790809
20
21.9575564972
11
6.4882478214
21
21.8703277451
0
LINE
5
294
100
AcDbEntity
8
0
100
AcDbLine
62
7
6
CONTINUOUS
10
16.4112979529
20
18.6870253414
11
10.1584202753
21
10.9495031496
0
LINE
5
295
100
AcDbEntity
8
0
100
AcDbLine
62
7
6
CONTINUOUS
10
-10.8072957869
20
-4.0264177865
11
-12.1884742604
21
-4.7170070233
0
LINE
5
296
100
AcDbEntity
8
0
100
AcDbLine
62
7
6
CONTINUOUS
10
-10.5244530745
20
-4.0264177865
11
-10.6658744307
21
-4.0971284647
0
LINE
5
297
100
AcDbEntity
8
0
100
AcDbLine
62
9
6
CONTINUOUS
10
-9.6052142589
20
-4.4860371943
11
-11.1278140887
21
-5.2473371092
0
LINE
5
298
100
AcDbEntity
8
0
100
AcDbLine
62
9
6
CONTINUOUS
10
-9.4637929027
20
-4.7299529532
11
-10.9863927323
21
-5.4912528680
0
LINE
5
299
100
AcDbEntity
8
0
100
AcDbLine
62
7
6
CONTINUOUS
10
-7.3835652799
20
7.3948873778
11
-4.2722954427
21
5.8392524592
0
LINE
5
29A
100
AcDbEntity
8
0
100
AcDbLine
62
7
6
CONTINUOUS
10
-0.9413249212
20
4.2241079898
11
-12.2417414853
21
9.8743162718
0
LINE
5
29B
100
AcDbEntity
8
0
100
AcDbLine
62
9
6
CONTINUOUS
10
-0.8795652606
20
4.2799044562
11
-12.4054057939
21
10.0428247229
0
LINE
5
29C
100
AcDbEntity
8
0
100
AcDbLine
62
7
6
CONTINUOUS
10
3.3344016510
20
26.5785146597
11
3.3344016510
21
26.3543804594
0
LINE
5
29D
100
AcDbEntity
8
0
100
AcDbLine
62
7
6
CONTINUOUS
10
3.3666270588
20
17.4057279709
11
3.3666270588
21
18.0552470238
0
LINE
5
29E
100
AcDbEntity
8
0
100
AcDbLine
62
9
6
CONTINUOUS
10
3.4762611930
20
22.1376550239
11
3.4762611930
21
22.4242366827
0
LINE
5
29F
100
AcDbEntity
8
0
100
AcDbLine
62
9
6
CONTINUOUS
10
4.2326082945
20
25.6634004802
11
4.2326082945
21
25.1522996701
0
LINE
5
2A0
100
AcDbEntity
8
0
100
AcDbLine
62
7
6
CONTINUOUS
10
4.2894339914
20
19.7684734292
11
4.2894339914
21
20.0282810503
0
LINE
5
2A1
100
AcDbEntity
8
0
100
AcDbLine
62
7
6
CONTINUOUS
10
4.5193578453
20
25.7611612843
11
4.5193578453
21
25.1817774238
0
LINE
5
2A2
100
AcDbEntity
8
0
100
AcDbLine
62
3
6
CONTINUOUS
10
4.5722767039
20
19.9098947854
11
4.5722767039
21
20.1697024066
0
LINE
5
2A3
100
AcDbEntity
8
0
100
AcDbLine
62
9
6
CONTINUOUS
10
4.5888319809
20
13.8982920821
11
4.5888319809
21
11.1123430899
0
LINE
5
2A4
100
AcDbEntity
8
0
100
AcDbLine
62
9
6
CONTINUOUS
10
4.5888319809
20
-21.4502120924
11
4.5888319809
21
-24.2361610846
0
LINE
5
2A5
100
AcDbEntity
8
0
100
AcDbLine
62
9
6
CONTINUOUS
10
4.6146520848
20
17.1485199970
11
4.6146520848
21
17.7980390498
0
LINE
5
2A6
100
AcDbEntity
8
0
100
AcDbLine
62
9
6
CONTINUOUS
10
4.7844087382
20
20.5355760449
11
4.7844087382
21
20.8819862064
0
LINE
5
2A7
100
AcDbEntity
8
0
100
AcDbLine
62
9
6
CONTINUOUS
10
4.9392732688
20
13.8967629547
11
4.9392732688
21
11.1108139625
0
LINE
5
2A8
100
AcDbEntity
8
0
100
AcDbLine
62
9
6
CONTINUOUS
10
4.9392732688
20
-21.4517412198
11
4.9392732688
21
-24.2376902120
0
LINE
5
2A9
100
AcDbEntity
8
0
100
AcDbLine
62
9
6
CONTINUOUS
10
8.4897976856
20
22.3938870079
11
8.4731126521
21
22.3226523076
0
LINE
5
2AA
100
AcDbEntity
8
0
100
AcDbLine
62
7
6
CONTINUOUS
10
-9.6052142589
20
-6.0564004668
11
-10.9668209120
21
-6.7372037933
0
LWPOLYLINE
5
2AB
100
AcDbEntity
8
0
100
AcDbPolyline
62
7
6
CONTINUOUS
90
81
70
0
10
7.0297750081
20
-23.5336763172
10
7.0299934732
20
-23.5473552613
10
7.0308625599
20
-23.5641319749
10
7.0323925000
20
-23.5808733921
10
7.0345828018
20
-23.5975731193
10
7.0374391702
20
-23.6142529114
10
7.0409633304
20
-23.6308927900
10
7.0451560846
20
-23.6474728106
10
7.0500304657
20
-23.6640149923
10
7.0555905105
20
-23.6805002751
10
7.0618390228
20
-23.6969089526
10
7.0687962463
20
-23.7132623137
10
7.0764704332
20
-23.7295441181
10
7.0848664209
20
-23.7457329787
10
7.0940086237
20
-23.7618430519
10
7.1039070430
20
-23.7778567784
10
7.1145708616
20
-23.7937559479
10
7.1260324922
20
-23.8095547158
10
7.1383077925
20
-23.8252384406
10
7.1514087681
20
-23.8407871547
10
7.1653716848
20
-23.8562080187
10
7.1802534393
20
-23.8715226093
10
7.1960374183
20
-23.8866732523
10
7.2126434774
20
-23.9015569408
10
7.2300946968
20
-23.9161765881
10
7.2483865436
20
-23.9305099383
10
7.2673702849
20
-23.9444350057
10
7.2870128357
20
-23.9579345344
10
7.3073348956
20
-23.9710278875
10
7.3282427636
20
-23.9836626149
10
7.3497186597
20
-23.9958397338
10
7.3717569791
20
-24.0075661040
10
7.3942646644
20
-24.0188050158
10
7.4172090716
20
-24.0295556382
10
7.4405882734
20
-24.0398312690
10
7.4643424510
20
-24.0496196725
10
7.4884414627
20
-24.0589229558
10
7.5128762698
20
-24.0677513887
10
7.5376114438
20
-24.0761047187
10
7.5626240524
20
-24.0839873687
10
7.5878966360
20
-24.0914053624
10
7.6133971137
20
-24.0983598558
10
7.6390948511
20
-24.1048532615
10
7.6649792128
20
-24.1108928756
10
7.6910448953
20
-24.1164858581
10
7.7172697087
20
-24.1216352790
10
7.7436362974
20
-24.1263447278
10
7.7701448725
20
-24.1306202571
10
7.7967761942
20
-24.1344640045
10
7.8235113809
20
-24.1378777586
10
7.8503500654
20
-24.1408654483
10
7.8772740101
20
-24.1434281094
10
7.9042641591
20
-24.1455665014
10
7.9313183085
20
-24.1472826562
10
7.9584183950
20
-24.1485766564
10
7.9855455263
20
-24.1494486212
10
8.0126960470
20
-24.1498989937
10
8.0398515333
20
-24.1499270969
10
8.0669934681
20
-24.1495325428
10
8.0941180906
20
-24.1487143092
10
8.1212079321
20
-24.1474710130
10
8.1482432891
20
-24.1458016774
10
8.1752172986
20
-24.1437040050
10
8.2021126773
20
-24.1411760458
10
8.2289091618
20
-24.1382162396
10
8.2555961342
20
-24.1348214423
10
8.2821548440
20
-24.1309894161
10
8.3085661790
20
-24.1267177855
10
8.3348204602
20
-24.1220021146
10
8.3608990108
20
-24.1168393532
10
8.3867821236
20
-24.1112261460
10
8.4124609736
20
-24.1051563876
10
8.4379167639
20
-24.0986256723
10
8.4631292282
20
-24.0916292979
10
8.4880903304
20
-24.0841588595
10
8.5127795654
20
-24.0762084246
10
8.5371769605
20
-24.0677712115
10
8.5612788120
20
-24.0588338829
10
8.5850708485
20
-24.0493846125
10
8.6085241909
20
-24.0394167760
10
8.6256256603
20
-24.0317114794
0
LINE
5
2AC
100
AcDbEntity
8
0
100
AcDbLine
62
7
6
CONTINUOUS
10
5.1222746435
20
11.1991751492
11
5.1222746435
21
10.5469823984
0
LINE
5
2AD
100
AcDbEntity
8
0
100
AcDbLine
62
7
6
CONTINUOUS
10
5.1222746435
20
-20.7111872823
11
5.1222746435
21
-21.3633800331
0
LINE
5
2AE
100
AcDbEntity
8
0
100
AcDbLine
62
9
6
CONTINUOUS
10
5.1479768708
20
20.7173601112
11
5.1479768708
21
21.0637702727
0
LINE
5
2AF
100
AcDbEntity
8
0
100
AcDbLine
62
7
6
CONTINUOUS
10
7.0297748872
20
17.5257670142
11
7.0297748872
21
16.3483881500
0
LINE
5
2B0
100
AcDbEntity
8
0
100
AcDbLine
62
7
6
CONTINUOUS
10
7.0297748872
20
-23.3774793414
11
7.0297748872
21
-23.5337293744
0
LINE
5
2B1
100
AcDbEntity
8
0
100
AcDbLine
62
7
6
CONTINUOUS
10
-7.2129499634
20
-7.2525326146
11
-1.0362173293
21
-4.3725844324
0
LINE
5
2B2
100
AcDbEntity
8
0
100
AcDbLine
62
9
6
CONTINUOUS
10
-14.9640702014
20
16.5319719520
11
1.9490233103
21
8.0754251961
0
LINE
5
2B3
100
AcDbEntity
8
0
100
AcDbLine
62
7
6
CONTINUOUS
10
8.5125818678
20
22.6209334175
11
8.5125818678
21
22.3015185279
0
LINE
5
2B4
100
AcDbEntity
8
0
100
AcDbLine
62
9
6
CONTINUOUS
10
8.6944645434
20
17.1800861791
11
8.6944645434
21
15.7888372425
0
LINE
5
2B5
100
AcDbEntity
8
0
100
AcDbLine
62
9
6
CONTINUOUS
10
8.6944645434
20
-22.5034184386
11
8.6944645434
21
-23.8946673751
0
LINE
5
2B6
100
AcDbEntity
8
0
100
AcDbLine
62
9
6
CONTINUOUS
10
-14.3879438860
20
17.6463836388
11
2.5404342041
21
9.1821945937
0
LINE
5
2B7
100
AcDbEntity
8
0
100
AcDbLine
62
7
6
CONTINUOUS
10
10.1584202753
20
17.9177085253
11
10.1584202753
21
-23.2185641044
0
LINE
5
2B8
100
AcDbEntity
8
0
100
AcDbLine
62
7
6
CONTINUOUS
10
-3.1586437896
20
-9.2796857014
11
-1.0268419979
21
-8.1366469328
0
LINE
5
2B9
100
AcDbEntity
8
0
100
AcDbLine
62
7
6
CONTINUOUS
10
-1.2478843984
20
-8.4283714905
11
-2.9914871636
21
-9.3632640145
0
LINE
5
2BA
100
AcDbEntity
8
0
100
AcDbLine
62
7
6
CONTINUOUS
10
-2.0955793305
20
-9.8024954904
11
-1.0179227105
21
-9.2636671804
0
LINE
5
2BB
100
AcDbEntity
8
0
100
AcDbLine
62
9
6
CONTINUOUS
10
-2.0061366114
20
-9.8081758478
11
-1.0174789935
21
-9.3138470389
0
LINE
5
2BC
100
AcDbEntity
8
0
100
AcDbLine
62
7
6
CONTINUOUS
10
4.9460068374
20
10.8542963503
11
-12.0649093970
21
19.3597544676
0
LINE
5
2BD
100
AcDbEntity
8
0
100
AcDbLine
62
7
6
CONTINUOUS
10
4.5888319809
20
11.1123430899
11
-12.4148413216
21
19.6141797412
0
LWPOLYLINE
5
2BE
100
AcDbEntity
8
0
100
AcDbPolyline
62
7
6
CONTINUOUS
90
35
70
0
10
12.8504512969
20
-14.8400373850
10
12.8501920952
20
-14.8239397349
10
12.8494140224
20
-14.8078473487
10
12.8481170816
20
-14.7917800877
10
12.8463052057
20
-14.7757808588
10
12.8439787702
20
-14.7598461563
10
12.8411271838
20
-14.7439271668
10
12.8377378339
20
-14.7280024313
10
12.8338159148
20
-14.7121364617
10
12.8293780899
20
-14.6964089514
10
12.8244407074
20
-14.6808706838
10
12.8190019652
20
-14.6655086731
10
12.8130546976
20
-14.6503057491
10
12.8066015825
20
-14.6352767516
10
12.7996502908
20
-14.6204462562
10
12.7921967766
20
-14.6058132805
10
12.7842308711
20
-14.5913703767
10
12.7757729313
20
-14.5771657294
10
12.7668693702
20
-14.5632775826
10
12.7575693986
20
-14.5497705228
10
12.7478537714
20
-14.5366048996
10
12.7376634487
20
-14.5237040963
10
12.7269468807
20
-14.5110220733
10
12.7157644856
20
-14.4986486415
10
12.7042268747
20
-14.4867063213
10
12.6924183232
20
-14.4752654659
10
12.6802916865
20
-14.4642644251
10
12.6677611695
20
-14.4536251119
10
12.6547636121
20
-14.4433082396
10
12.6413766392
20
-14.4333895703
10
12.6277243684
20
-14.4239608970
10
12.6138802009
20
-14.4150606650
10
12.5998023419
20
-14.4066506566
10
12.5854439664
20
-14.3987002743
10
12.5740549582
20
-14.3928222213
0
LINE
5
2BF
100
AcDbEntity
8
0
100
AcDbLine
62
7
6
CONTINUOUS
10
11.3605018033
20
20.5474543969
11
11.3605018033
21
21.1969734497
0
LINE
5
2C0
100
AcDbEntity
8
0
100
AcDbLine
62
9
6
CONTINUOUS
10
12.7040046875
20
-15.0168140803
11
12.7040046875
21
-16.0127432947
0
LINE
5
2C1
100
AcDbEntity
8
0
100
AcDbLine
62
7
6
CONTINUOUS
10
12.8504512969
20
-14.8400373850
11
12.8504512969
21
-15.9599623069
0
LINE
5
2C2
100
AcDbEntity
8
0
100
AcDbLine
62
7
6
CONTINUOUS
10
13.3753179439
20
21.5468180560
11
13.3753179439
21
21.5580565133
0
LINE
5
2C3
100
AcDbEntity
8
0
100
AcDbLine
62
9
6
CONTINUOUS
10
-12.4148413216
20
22.4001287334
11
4.5888319809
21
13.8982920821
0
LINE
5
2C4
100
AcDbEntity
8
0
100
AcDbLine
62
9
6
CONTINUOUS
10
-12.2411498050
20
22.7034478676
11
4.7625234974
21
14.2016112164
0
LINE
5
2C5
100
AcDbEntity
8
0
100
AcDbLine
62
7
6
CONTINUOUS
10
16.4112979529
20
-19.8449931456
11
16.4112979529
21
-17.5128365368
0
LINE
5
2C6
100
AcDbEntity
8
0
100
AcDbLine
62
7
6
CONTINUOUS
10
16.4112979529
20
18.6870253414
11
16.4112979529
21
21.0191819503
0
LINE
5
2C7
100
AcDbEntity
8
0
100
AcDbLine
62
7
6
CONTINUOUS
10
2.5923777166
20
18.9370629603
11
-2.9230551767
21
21.6947794069
0
LINE
5
2C8
100
AcDbEntity
8
0
100
AcDbLine
62
3
6
CONTINUOUS
10
2.8641407645
20
19.1240523129
11
2.9112494052
21
19.1004979925
0
LINE
5
2C9
100
AcDbEntity
8
0
100
AcDbLine
62
7
6
CONTINUOUS
10
4.2894339914
20
19.7684734292
11
2.8280325311
21
20.4991741593
0
LINE
5
2CA
100
AcDbEntity
8
0
100
AcDbLine
62
7
6
CONTINUOUS
10
-2.7344459226
20
23.2804133862
11
-4.1958473828
21
24.0111141163
0
LINE
5
2CB
100
AcDbEntity
8
0
100
AcDbLine
62
3
6
CONTINUOUS
10
5.2135292745
20
20.7374204229
11
8.7195860095
21
21.0952354902
0
LINE
5
2CC
100
AcDbEntity
8
0
100
AcDbLine
62
7
6
CONTINUOUS
10
5.3009324794
20
21.1105776668
11
9.5521916025
21
21.5444453090
0
LINE
5
2CD
100
AcDbEntity
8
0
100
AcDbLine
62
7
6
CONTINUOUS
10
6.5156007347
20
21.8731192814
11
4.5653550500
21
21.6740844843
0
LINE
5
2CE
100
AcDbEntity
8
0
100
AcDbLine
62
7
6
CONTINUOUS
10
8.5125818678
20
22.3962122765
11
8.4897976856
21
22.3938870079
0
LINE
5
2CF
100
AcDbEntity
8
0
100
AcDbLine
62
9
6
CONTINUOUS
10
4.2894339914
20
20.0282810503
11
-4.1958473828
21
24.2709217374
0
LINE
5
2D0
100
AcDbEntity
8
0
100
AcDbLine
62
7
6
CONTINUOUS
10
9.9816705039
20
18.2225567870
11
8.9209834082
21
18.7529003349
0
LINE
5
2D1
100
AcDbEntity
8
0
100
AcDbLine
62
7
6
CONTINUOUS
10
-6.1403910311
20
26.2835875545
11
-7.2010781268
21
26.8139311024
0
LINE
5
2D2
100
AcDbEntity
8
0
100
AcDbLine
62
9
6
CONTINUOUS
10
4.7844087382
20
20.8819862064
11
-3.7008726360
21
25.1246268935
0
LINE
5
2D3
100
AcDbEntity
8
0
100
AcDbLine
62
9
6
CONTINUOUS
10
5.1479768708
20
21.0637702727
11
-3.3373045034
21
25.3064109598
0
LINE
5
2D4
100
AcDbEntity
8
0
100
AcDbLine
62
9
6
CONTINUOUS
10
5.3009324794
20
21.1105776668
11
-3.1843488948
21
25.3532183539
0
LINE
5
2D5
100
AcDbEntity
8
0
100
AcDbLine
62
7
6
CONTINUOUS
10
6.1307064158
20
20.7506039098
11
5.9971305461
21
20.8173918446
0
LINE
5
2D6
100
AcDbEntity
8
0
100
AcDbLine
62
7
6
CONTINUOUS
10
4.2894339914
20
21.7310686247
11
2.2388243260
21
22.7563734574
0
LINE
5
2D7
100
AcDbEntity
8
0
100
AcDbLine
62
7
6
CONTINUOUS
10
0.2589253386
20
23.7463229511
11
-1.7916843268
21
24.7716277838
0
LINE
5
2D8
100
AcDbEntity
8
0
100
AcDbLine
62
3
6
CONTINUOUS
10
4.9068601230
20
21.7089372177
11
3.4762611930
21
22.4242366827
0
LINE
5
2D9
100
AcDbEntity
8
0
100
AcDbLine
62
9
6
CONTINUOUS
10
10.1584202753
20
-15.5030401940
11
12.3504512969
21
-14.4070246831
0
LINE
5
2DA
100
AcDbEntity
8
0
100
AcDbLine
62
3
6
CONTINUOUS
10
2.7023916029
20
22.5245898189
11
4.0947451519
21
22.6666882265
0
LINE
5
2DB
100
AcDbEntity
8
0
100
AcDbLine
62
7
6
CONTINUOUS
10
2.2319026721
20
22.8408106733
11
4.1821483568
21
23.0398454704
0
LINE
5
2DC
100
AcDbEntity
8
0
100
AcDbLine
62
7
6
CONTINUOUS
10
2.4850920820
20
23.8883736078
11
0.5348463973
21
23.6893388107
0
LINE
5
2DD
100
AcDbEntity
8
0
100
AcDbLine
62
7
6
CONTINUOUS
10
9.8740337664
20
22.8426877442
11
8.8796936199
21
22.7935330560
0
LINE
5
2DE
100
AcDbEntity
8
0
100
AcDbLine
62
3
6
CONTINUOUS
10
0.3401575578
20
24.6249584125
11
1.9271999463
21
23.8314372182
0
LINE
5
2DF
100
AcDbEntity
8
0
100
AcDbLine
62
3
6
CONTINUOUS
10
4.3706662106
20
22.6097040861
11
5.9577085991
21
21.8161828918
0
LINE
5
2E0
100
AcDbEntity
8
0
100
AcDbLine
62
7
6
CONTINUOUS
10
0.4275607627
20
24.9981156563
11
2.4781704281
21
23.9728108236
0
LINE
5
2E1
100
AcDbEntity
8
0
100
AcDbLine
62
7
6
CONTINUOUS
10
4.4580694154
20
22.9828613300
11
6.5086790809
21
21.9575564972
0
LINE
5
2E2
100
AcDbEntity
8
0
100
AcDbLine
62
7
6
CONTINUOUS
10
-1.6502629706
20
27.0528367838
11
-0.5780308596
21
26.5167207283
0
LINE
5
2E3
100
AcDbEntity
8
0
100
AcDbLine
62
7
6
CONTINUOUS
10
11.3605018033
20
20.5474543969
11
11.9391998429
21
20.2581053771
0
LINE
5
2E4
100
AcDbEntity
8
0
100
AcDbLine
62
7
6
CONTINUOUS
10
9.7804389475
20
21.6675899880
11
8.4967193395
21
22.3094497920
0
LINE
5
2E5
100
AcDbEntity
8
0
100
AcDbLine
62
7
6
CONTINUOUS
10
1.4610068667
20
25.8273060284
11
2.9105757681
21
25.1025215777
0
LINE
5
2E6
100
AcDbEntity
8
0
100
AcDbLine
62
9
6
CONTINUOUS
10
10.5565377934
20
-16.0905475274
11
12.7040046875
21
-15.0168140803
0
LINE
5
2E7
100
AcDbEntity
8
0
100
AcDbLine
62
7
6
CONTINUOUS
10
11.9550564000
20
-16.3872174384
11
12.7040046875
21
-16.0127432947
0
LINE
5
2E8
100
AcDbEntity
8
0
100
AcDbLine
62
3
6
CONTINUOUS
10
-1.3281170499
20
24.5398441453
11
0.0642364992
21
24.6819425529
0
LINE
5
2E9
100
AcDbEntity
8
0
100
AcDbLine
62
7
6
CONTINUOUS
10
4.5214465415
20
25.1817774238
11
3.1864968267
21
25.0455374373
0
LINE
5
2EA
100
AcDbEntity
8
0
100
AcDbLine
62
7
6
CONTINUOUS
10
-1.7986059806
20
24.8560649996
11
0.1516397040
21
25.0550997967
0
LINE
5
2EB
100
AcDbEntity
8
0
100
AcDbLine
62
7
6
CONTINUOUS
10
-3.1843488948
20
25.3532183539
11
1.4610068667
21
25.8273060284
0
LINE
5
2EC
100
AcDbEntity
8
0
100
AcDbLine
62
7
6
CONTINUOUS
10
4.2326082945
20
25.6634004802
11
3.2554729539
21
25.6056433890
0
LINE
5
2ED
100
AcDbEntity
8
0
100
AcDbLine
62
7
6
CONTINUOUS
10
11.3605018033
20
21.1969734497
11
8.5125818678
21
22.6209334175
0
LINE
5
2EE
100
AcDbEntity
8
0
100
AcDbLine
62
7
6
CONTINUOUS
10
2.8947132398
20
25.4298677315
11
0.0467933043
21
26.8538276992
0
LINE
5
2EF
100
AcDbEntity
8
0
100
AcDbLine
62
7
6
CONTINUOUS
10
10.4579978521
20
22.0043809399
11
8.8796936199
21
22.7935330560
0
LINE
5
2F0
100
AcDbEntity
8
0
100
AcDbLine
62
7
6
CONTINUOUS
10
3.2554729539
20
25.6056433890
11
1.6771687217
21
26.3947955051
0
LINE
5
2F1
100
AcDbEntity
8
0
100
AcDbLine
62
9
6
CONTINUOUS
10
9.2603046593
20
22.8123483648
11
4.5214465415
21
25.1817774238
0
LINE
5
2F2
100
AcDbEntity
8
0
100
AcDbLine
62
7
6
CONTINUOUS
10
4.7272815664
20
25.1471580970
11
9.3846109927
21
22.8184933838
0
LINE
5
2F3
100
AcDbEntity
8
0
100
AcDbLine
62
9
6
CONTINUOUS
10
2.9915460212
20
26.4790146158
11
4.4872075606
21
25.7311838461
0
LINE
5
2F4
100
AcDbEntity
8
0
100
AcDbLine
62
9
6
CONTINUOUS
10
10.3234138501
20
22.8130807013
11
11.2288256917
21
22.3603747805
0
LINE
5
2F5
100
AcDbEntity
8
0
100
AcDbLine
62
7
6
CONTINUOUS
10
3.1428869324
20
26.4501378187
11
4.5189900218
21
25.7620862740
0
LINE
5
2F6
100
AcDbEntity
8
0
100
AcDbLine
62
7
6
CONTINUOUS
10
10.5996841220
20
22.7217392239
11
11.2774761869
21
22.3828431915
0
LINE
5
2F7
100
AcDbEntity
8
0
100
AcDbLine
62
7
6
CONTINUOUS
10
0.4003466949
20
28.0343036805
11
1.4579036329
21
27.5055252115
0
LINE
5
2F8
100
AcDbEntity
8
0
100
AcDbLine
62
7
6
CONTINUOUS
10
13.3753179439
20
21.5468180560
11
13.9898095083
21
21.2395722738
0
LINE
5
2F9
100
AcDbEntity
8
0
100
AcDbLine
62
9
6
CONTINUOUS
10
12.8633387843
20
21.9423916713
11
11.6439428476
21
22.5520896397
0
LINE
5
2FA
100
AcDbEntity
8
0
100
AcDbLine
62
9
6
CONTINUOUS
10
2.8224224914
20
26.9628498178
11
1.6030265548
21
27.5725477861
0
LINE
5
2FB
100
AcDbEntity
8
0
100
AcDbLine
62
7
6
CONTINUOUS
10
13.1838046059
20
21.9620085880
11
11.9757863469
21
22.5660177175
0
LINE
5
2FC
100
AcDbEntity
8
0
100
AcDbLine
62
7
6
CONTINUOUS
10
3.1428883130
20
26.9824667344
11
1.9348700540
21
27.5864758639
0
LINE
5
2FD
100
AcDbEntity
8
0
100
AcDbLine
62
7
6
CONTINUOUS
10
4.9392732688
20
-21.4517412198
11
5.1222746435
21
-21.3633800331
0
LINE
5
2FE
100
AcDbEntity
8
0
100
AcDbLine
62
7
6
CONTINUOUS
10
2.9915460212
20
26.4790146158
11
1.6771687217
21
26.3947955051
0
LINE
5
2FF
100
AcDbEntity
8
0
100
AcDbLine
62
7
6
CONTINUOUS
10
-0.7260337432
20
29.8043211743
11
0.2235699996
21
29.3295193030
0
LINE
5
300
100
AcDbEntity
8
0
100
AcDbLine
62
7
6
CONTINUOUS
10
15.2849444389
20
21.7988320833
11
16.2345481816
21
21.3240302120
0
LINE
5
301
100
AcDbEntity
8
0
100
AcDbLine
62
9
6
CONTINUOUS
10
10.1584202753
20
-23.2185641044
11
16.4112979529
21
-19.8449931456
0
LINE
5
302
100
AcDbEntity
8
0
100
AcDbLine
62
7
6
CONTINUOUS
10
10.0960559067
20
-23.3524185382
11
16.3489335845
21
-19.9788475794
0
LINE
5
303
100
AcDbEntity
8
0
100
AcDbLine
62
9
6
CONTINUOUS
10
8.6944645434
20
-22.5034184386
11
4.9392732688
21
-24.2376902120
0
LINE
5
304
100
AcDbEntity
8
0
100
AcDbLine
62
7
6
CONTINUOUS
10
8.3242068708
20
-22.7796677554
11
4.8704283537
21
-24.3747371288
0
LWPOLYLINE
5
305
100
AcDbEntity
8
0
100
AcDbPolyline
62
7
6
CONTINUOUS
90
25
70
0
10
4.8704283537
20
-24.3747371288
10
4.8619618284
20
-24.3784588220
10
4.8533591742
20
-24.3818664147
10
4.8446346602
20
-24.3849538783
10
4.8358505833
20
-24.3877020484
10
4.8269749024
20
-24.3901241063
10
4.8178774324
20
-24.3922476377
10
4.8084559719
20
-24.3940735879
10
4.7988404247
20
-24.3955541948
10
4.7892482694
20
-24.3966525666
10
4.7798321489
20
-24.3973677946
10
4.7704714076
20
-24.3977254399
10
4.7609743174
20
-24.3977297787
10
4.7512193655
20
-24.3973582886
10
4.7413671969
20
-24.3965946625
10
4.7316458077
20
-24.3954550406
10
4.7221827755
20
-24.3939722315
10
4.7128713969
20
-24.3921469976
10
4.7035842988
20
-24.3899565031
10
4.6942651569
20
-24.3873767899
10
4.6850035529
20
-24.3844218741
10
4.6758901048
20
-24.3811192131
10
4.6669440584
20
-24.3774797094
10
4.6581628814
20
-24.3735057677
10
4.6538058553
20
-24.3713798237
0
LINE
5
306
100
AcDbEntity
8
0
100
AcDbLine
62
9
6
CONTINUOUS
10
10.1584202753
20
-23.2185641044
11
8.6944645434
21
-23.8946673751
0
LINE
5
307
100
AcDbEntity
8
0
100
AcDbLine
62
7
6
CONTINUOUS
10
10.0908414715
20
-23.3550262891
11
8.6256196283
21
-24.0317142920
0
SPLINE
5
308
100
AcDbEntity
8
0
100
AcDbSpline
62
9
6
CONTINUOUS
70
0
71
3
72
10
73
6
74
4
42
0.0000001000
43
0.0000001000
44
0.0000000001
12
-0.1441017840
22
4.3913750875
32
0.0000000000
13
-0.0994642172
23
4.3926128162
33
0.0000000000
40
0.0000000000
40
0.0000000000
40
0.0000000000
40
0.0000000000
40
0.3327616916
40
0.6660957749
40
1.0000000000
40
1.0000000000
40
1.0000000000
40
1.0000000000
10
-12.6895220442
20
-13.5747965600
30
0.0000000000
10
-12.7055058954
20
-13.0877027592
30
0.0000000000
10
-12.7358395933
20
-12.1126219344
30
0.0000000000
10
-12.7764111571
20
-10.6486018798
30
0.0000000000
10
-12.8001782893
20
-9.6716651049
30
0.0000000000
10
-12.8112487968
20
-9.1827611121
30
0.0000000000
11
-12.6895220442
21
-13.5747965600
31
0.0000000000
11
-12.7349876604
21
-12.1134356989
31
0.0000000000
11
-12.7755634941
21
-10.6494149881
31
0.0000000000
11
-12.8112487968
21
-9.1827611121
31
0.0000000000
0
SPLINE
5
309
100
AcDbEntity
8
0
100
AcDbSpline
62
9
6
CONTINUOUS
70
0
71
3
72
10
73
6
74
4
42
0.0000001000
43
0.0000001000
44
0.0000000001
12
-0.3623511651
22
0.3318967653
32
0.0000000000
13
-0.0160442126
23
0.4889332622
33
0.0000000000
40
0.0000000000
40
0.0000000000
40
0.0000000000
40
0.0000000000
40
0.2932477685
40
0.6266687238
40
1.0000000000
40
1.0000000000
40
1.0000000000
40
1.0000000000
10
-12.5180314177
20
-14.0210189249
30
0.0000000000
10
-12.5534509745
20
-13.9885762629
30
0.0000000000
10
-12.6161918804
20
-13.9056120003
30
0.0000000000
10
-12.6734167974
20
-13.7509925966
30
0.0000000000
10
-12.6875254421
20
-13.6356412529
30
0.0000000000
10
-12.6895220442
20
-13.5747965600
30
0.0000000000
11
-12.5180314177
21
-14.0210189249
31
0.0000000000
11
-12.6062838182
21
-13.9078799954
31
0.0000000000
11
-12.6652717141
21
-13.7558117228
31
0.0000000000
11
-12.6895220442
21
-13.5747965600
31
0.0000000000
0
SPLINE
5
30A
100
AcDbEntity
8
0
100
AcDbSpline
62
7
6
CONTINUOUS
70
0
71
3
72
15
73
11
74
9
42
0.0000001000
43
0.0000001000
44
0.0000000001
12
0.0000000000
22
-0.4415068352
32
0.0000000000
13
0.3948957184
23
-0.1974478592
33
0.0000000000
40
0.0000000000
40
0.0000000000
40
0.0000000000
40
0.0000000000
40
0.1197746015
40
0.2468130135
40
0.3784628664
40
0.5116661699
40
0.6432352752
40
0.7701190224
40
0.8896792279
40
1.0000000000
40
1.0000000000
40
1.0000000000
40
1.0000000000
10
-11.6911792634
20
-12.8032722820
30
0.0000000000
10
-11.6911792634
20
-12.8208993838
30
0.0000000000
10
-11.6881812302
20
-12.8572594469
30
0.0000000000
10
-11.6759902969
20
-12.9117566758
30
0.0000000000
10
-11.6564119953
20
-12.9661617818
30
0.0000000000
10
-11.6301797051
20
-13.0184267326
30
0.0000000000
10
-11.5982760589
20
-13.0666024422
30
0.0000000000
10
-11.5618797756
20
-13.1088927493
30
0.0000000000
10
-11.5223521421
20
-13.1437131217
30
0.0000000000
10
-11.4935689626
20
-13.1618850536
30
0.0000000000
10
-11.4790472291
20
-13.1691459203
30
0.0000000000
11
-11.6911792634
21
-12.8032722820
31
0.0000000000
11
-11.6871032059
21
-12.8559962633
31
0.0000000000
11
-11.6750316738
21
-12.9107701490
31
0.0000000000
11
-11.6554285694
21
-12.9654890096
31
0.0000000000
11
-11.6290472291
21
-13.0180500299
31
0.0000000000
11
-11.5969014728
21
-13.0664333193
31
0.0000000000
11
-11.5602266441
21
-13.1087795352
31
0.0000000000
11
-11.5204321359
21
-13.1434613363
31
0.0000000000
11
-11.4790472291
21
-13.1691459203
31
0.0000000000
0
SPLINE
5
30B
100
AcDbEntity
8
0
100
AcDbSpline
62
7
6
CONTINUOUS
70
0
71
3
72
11
73
7
74
5
42
0.0000001000
43
0.0000001000
44
0.0000000001
12
0.0832820003
22
0.0415822957
32
0.0000000000
13
0.0829422948
23
-0.0414711474
33
0.0000000000
40
0.0000000000
40
0.0000000000
40
0.0000000000
40
0.0000000000
40
0.1698017477
40
0.4239833087
40
0.6985785075
40
1.0000000000
40
1.0000000000
40
1.0000000000
40
1.0000000000
10
2.7385823822
20
20.5048454588
30
0.0000000000
10
2.7432961920
20
20.5071990410
30
0.0000000000
10
2.7556863178
20
20.5118474941
30
0.0000000000
10
2.7774568085
20
20.5140915895
30
0.0000000000
10
2.8030261497
20
20.5099625242
30
0.0000000000
10
2.8196990010
20
20.5033409244
30
0.0000000000
10
2.8280325311
20
20.4991741593
30
0.0000000000
11
2.7385823822
21
20.5048454588
31
0.0000000000
11
2.7533524595
21
20.5103952468
31
0.0000000000
11
2.7767760522
21
20.5130258163
31
0.0000000000
11
2.8019572304
21
20.5092422071
31
0.0000000000
11
2.8280325311
21
20.4991741593
31
0.0000000000
0
SPLINE
5
30C
100
AcDbEntity
8
0
100
AcDbSpline
62
7
6
CONTINUOUS
70
0
71
3
72
11
73
7
74
5
42
0.0000001000
43
0.0000001000
44
0.0000000001
12
-0.0145939321
22
-0.0613302985
32
0.0000000000
13
-0.0614548224
23
-0.0062718499
33
0.0000000000
40
0.0000000000
40
0.0000000000
40
0.0000000000
40
0.0000000000
40
0.0966540175
40
0.3156819854
40
0.6136554429
40
1.0000000000
40
1.0000000000
40
1.0000000000
40
1.0000000000
10
6.5688024040
20
21.8982456802
30
0.0000000000
10
6.5683322166
20
21.8962697402
30
0.0000000000
10
6.5657702084
20
21.8900452792
30
0.0000000000
10
6.5551413045
20
21.8821767369
30
0.0000000000
10
6.5375262319
20
21.8761010976
30
0.0000000000
10
6.5235149801
20
21.8739269797
30
0.0000000000
10
6.5156007347
20
21.8731192814
30
0.0000000000
11
6.5688024040
21
21.8982456802
31
0.0000000000
11
6.5664909697
21
21.8926622352
31
0.0000000000
11
6.5563064827
21
21.8837547298
31
0.0000000000
11
6.5391229533
21
21.8771558819
31
0.0000000000
11
6.5156007347
21
21.8731192814
31
0.0000000000
0
SPLINE
5
30D
100
AcDbEntity
8
0
100
AcDbSpline
62
7
6
CONTINUOUS
70
0
71
3
72
11
73
7
74
5
42
0.0000001000
43
0.0000001000
44
0.0000000001
12
-0.0145939321
22
-0.0613302985
32
0.0000000000
13
-0.0614548224
23
-0.0062718499
33
0.0000000000
40
0.0000000000
40
0.0000000000
40
0.0000000000
40
0.0000000000
40
0.0966540175
40
0.3156819854
40
0.6136554429
40
1.0000000000
40
1.0000000000
40
1.0000000000
40
1.0000000000
10
2.5382937512
20
23.9135000065
30
0.0000000000
10
2.5378235638
20
23.9115240666
30
0.0000000000
10
2.5352615557
20
23.9052996056
30
0.0000000000
10
2.5246326517
20
23.8974310633
30
0.0000000000
10
2.5070175791
20
23.8913554240
30
0.0000000000
10
2.4930063273
20
23.8891813061
30
0.0000000000
10
2.4850920820
20
23.8883736078
30
0.0000000000
11
2.5382937512
21
23.9135000065
31
0.0000000000
11
2.5359823170
21
23.9079165615
31
0.0000000000
11
2.5257978300
21
23.8990090562
31
0.0000000000
11
2.5086143005
21
23.8924102083
31
0.0000000000
11
2.4850920820
21
23.8883736078
31
0.0000000000
0
SPLINE
5
30E
100
AcDbEntity
8
0
100
AcDbSpline
62
7
6
CONTINUOUS
70
0
71
3
72
9
73
5
74
3
42
0.0000001000
43
0.0000001000
44
0.0000000001
12
-0.1119495102
22
0.0560459254
32
0.0000000000
13
-0.1239910689
23
0.0133468475
33
0.0000000000
40
0.0000000000
40
0.0000000000
40
0.0000000000
40
0.0000000000
40
0.1736013343
40
1.0000000000
40
1.0000000000
40
1.0000000000
40
1.0000000000
10
4.7272149021
20
25.1471796702
30
0.0000000000
10
4.7207367073
20
25.1504228860
30
0.0000000000
10
4.6828161357
20
25.1679036864
30
0.0000000000
10
4.6417873942
20
25.1781303778
30
0.0000000000
10
4.6076320429
20
25.1818069835
30
0.0000000000
11
4.7272149021
21
25.1471796702
31
0.0000000000
11
4.7074769114
21
25.1562736464
31
0.0000000000
11
4.6076320429
21
25.1818069835
31
0.0000000000
0
SPLINE
5
30F
100
AcDbEntity
8
0
100
AcDbSpline
62
7
6
CONTINUOUS
70
0
71
3
72
9
73
5
74
3
42
0.0000001000
43
0.0000001000
44
0.0000000001
12
-0.0858076653
22
0.0092366477
32
0.0000000000
13
-0.0858574017
23
-0.0087622860
33
0.0000000000
40
0.0000000000
40
0.0000000000
40
0.0000000000
40
0.0000000000
40
0.4913326222
40
1.0000000000
40
1.0000000000
40
1.0000000000
40
1.0000000000
10
4.6076320429
20
25.1818069835
30
0.0000000000
10
4.5935786745
20
25.1833197389
30
0.0000000000
10
4.5647856720
20
25.1848011135
30
0.0000000000
10
4.5360041613
20
25.1832631201
30
0.0000000000
10
4.5214465415
20
25.1817774238
30
0.0000000000
11
4.6076320429
21
25.1818069835
31
0.0000000000
11
4.5652875659
21
25.1840465354
31
0.0000000000
11
4.5214465415
21
25.1817774238
31
0.0000000000
0
SPLINE
5
310
100
AcDbEntity
8
0
100
AcDbSpline
62
7
6
CONTINUOUS
70
0
71
3
72
15
73
11
74
9
42
0.0000001000
43
0.0000001000
44
0.0000000001
12
-0.2830840723
22
-0.0288905041
32
0.0000000000
13
-0.2545132660
23
0.1272566330
33
0.0000000000
40
0.0000000000
40
0.0000000000
40
0.0000000000
40
0.0000000000
40
0.1018680046
40
0.2189296968
40
0.3474096568
40
0.4829133080
40
0.6206942281
40
0.7558954912
40
0.8837854688
40
1.0000000000
40
1.0000000000
40
1.0000000000
40
1.0000000000
10
3.1864968267
20
25.0455374373
30
0.0000000000
10
3.1768844235
20
25.0445564313
30
0.0000000000
10
3.1560884408
20
25.0437818805
30
0.0000000000
10
3.1231482323
20
25.0453568373
30
0.0000000000
10
3.0872242186
20
25.0495557242
30
0.0000000000
10
3.0496848368
20
25.0562313908
30
0.0000000000
10
3.0119564193
20
25.0651371601
30
0.0000000000
10
2.9754753416
20
25.0759335218
30
0.0000000000
10
2.9416315259
20
25.0882028980
30
0.0000000000
10
2.9204351480
20
25.0975918877
30
0.0000000000
10
2.9105757681
20
25.1025215777
30
0.0000000000
11
3.1864968267
21
25.0455374373
31
0.0000000000
11
3.1575398648
21
25.0442182085
31
0.0000000000
11
3.1242609592
21
25.0456670486
31
0.0000000000
11
3.0879389997
21
25.0498282796
31
0.0000000000
11
3.0499698189
21
25.0565419875
31
0.0000000000
11
3.0118125509
21
25.0655501685
31
0.0000000000
11
2.9749335583
21
25.0765066432
31
0.0000000000
11
2.9407500801
21
25.0889903603
31
0.0000000000
11
2.9105757681
21
25.1025215777
31
0.0000000000
0
SPLINE
5
311
100
AcDbEntity
8
0
100
AcDbSpline
62
7
6
CONTINUOUS
70
0
71
3
72
10
73
6
74
4
42
0.0000001000
43
0.0000001000
44
0.0000000001
12
0.1437626329
22
0.0718813165
32
0.0000000000
13
0.1599009443
23
0.0163188937
33
0.0000000000
40
0.0000000000
40
0.0000000000
40
0.0000000000
40
0.0000000000
40
0.3511381091
40
0.6840818606
40
1.0000000000
40
1.0000000000
40
1.0000000000
40
1.0000000000
10
-3.3373045034
20
25.3064109598
30
0.0000000000
10
-3.3204776570
20
25.3148243830
30
0.0000000000
10
-3.2868426668
20
25.3295969182
30
0.0000000000
10
-3.2355522276
20
25.3454752436
30
0.0000000000
10
-3.2011874311
20
25.3514998757
30
0.0000000000
10
-3.1843488948
20
25.3532183539
30
0.0000000000
11
-3.3373045034
21
25.3064109598
31
0.0000000000
11
-3.2855655538
21
25.3289595102
31
0.0000000000
11
-3.2343934669
21
25.3446191650
31
0.0000000000
11
-3.1843488948
21
25.3532183539
31
0.0000000000
0
SPLINE
5
312
100
AcDbEntity
8
0
100
AcDbSpline
62
7
6
CONTINUOUS
70
0
71
3
72
12
73
8
74
6
42
0.0000001000
43
0.0000001000
44
0.0000000001
12
-0.0794482303
22
0.0397241152
32
0.0000000000
13
0.0209848366
23
0.0881877676
33
0.0000000000
40
0.0000000000
40
0.0000000000
40
0.0000000000
40
0.0000000000
40
0.3229543341
40
0.5878371421
40
0.7912834233
40
0.9408237800
40
1.0000000000
40
1.0000000000
40
1.0000000000
40
1.0000000000
10
8.4967193395
20
22.3094497920
30
0.0000000000
10
8.4881666227
20
22.3137261504
30
0.0000000000
10
8.4729009029
20
22.3221312991
30
0.0000000000
10
8.4537831684
20
22.3358843457
30
0.0000000000
10
8.4410784357
20
22.3491074015
30
0.0000000000
10
8.4355811087
20
22.3606938551
30
0.0000000000
10
8.4361820819
20
22.3670210695
30
0.0000000000
10
8.4365960164
20
22.3687606091
30
0.0000000000
11
8.4967193395
21
22.3094497920
31
0.0000000000
11
8.4717137756
21
22.3235085126
31
0.0000000000
11
8.4528379097
21
22.3375544675
31
0.0000000000
11
8.4408171306
21
22.3510478787
31
0.0000000000
11
8.4361133902
21
22.3634702018
31
0.0000000000
11
8.4365960164
21
22.3687606091
31
0.0000000000
0
SPLINE
5
313
100
AcDbEntity
8
0
100
AcDbSpline
62
7
6
CONTINUOUS
70
0
71
3
72
13
73
9
74
7
42
0.0000001000
43
0.0000001000
44
0.0000000001
12
0.0000000000
22
1.0295482093
32
0.0000000000
13
0.9208559129
23
0.4604279564
33
0.0000000000
40
0.0000000000
40
0.0000000000
40
0.0000000000
40
0.0000000000
40
0.1614219316
40
0.3342559043
40
0.5116973510
40
0.6862432064
40
0.8508246292
40
1.0000000000
40
1.0000000000
40
1.0000000000
40
1.0000000000
10
-4.1958473828
20
24.2709217374
30
0.0000000000
10
-4.1958473828
20
24.3263189577
30
0.0000000000
10
-4.1831598050
20
24.4411916575
30
0.0000000000
10
-4.1334674866
20
24.6103869843
30
0.0000000000
10
-4.0555360300
20
24.7736084952
30
0.0000000000
10
-3.9543823808
20
24.9201771635
30
0.0000000000
10
-3.8366353452
20
25.0405769119
30
0.0000000000
10
-3.7466623101
20
25.1017320565
30
0.0000000000
10
-3.7008726360
20
25.1246268935
30
0.0000000000
11
-4.1958473828
21
24.2709217374
31
0.0000000000
11
-4.1789815273
21
24.4362553728
31
0.0000000000
11
-4.1295333410
21
24.6071876497
31
0.0000000000
11
-4.0508726360
21
24.7720698158
31
0.0000000000
11
-3.9483600094
21
24.9196654241
31
0.0000000000
11
-3.8289815273
21
25.0399160778
31
0.0000000000
11
-3.7008726360
21
25.1246268935
31
0.0000000000
0
SPLINE
5
314
100
AcDbEntity
8
0
100
AcDbSpline
62
7
6
CONTINUOUS
70
0
71
3
72
15
73
11
74
9
42
0.0000001000
43
0.0000001000
44
0.0000000001
12
0.2495447045
22
-0.1247723523
32
0.0000000000
13
0.0191971987
23
-0.2783382241
33
0.0000000000
40
0.0000000000
40
0.0000000000
40
0.0000000000
40
0.0000000000
40
0.1096655338
40
0.2281053033
40
0.3536807021
40
0.4841159681
40
0.6167482564
40
0.7487500837
40
0.8773406044
40
1.0000000000
40
1.0000000000
40
1.0000000000
40
1.0000000000
10
-2.7344459226
20
23.2804133862
30
0.0000000000
10
-2.7253237715
20
23.2758523106
30
0.0000000000
10
-2.7072225531
20
23.2645664390
30
0.0000000000
10
-2.6821870578
20
23.2430799999
30
0.0000000000
10
-2.6589204502
20
23.2170428932
30
0.0000000000
10
-2.6382008023
20
23.1873284066
30
0.0000000000
10
-2.6207128039
20
23.1549274648
30
0.0000000000
10
-2.6070420628
20
23.1209219344
30
0.0000000000
10
-2.5976471211
20
23.0864579380
30
0.0000000000
10
-2.5943476229
20
23.0632427863
30
0.0000000000
10
-2.5935627173
20
23.0518625202
30
0.0000000000
11
-2.7344459226
21
23.2804133862
31
0.0000000000
11
-2.7083706218
21
23.2644061332
31
0.0000000000
11
-2.6831894436
21
23.2430085642
31
0.0000000000
11
-2.6597658509
21
23.2169544020
31
0.0000000000
11
-2.6389030391
21
23.1871370444
31
0.0000000000
11
-2.6213163944
21
23.1545789289
31
0.0000000000
11
-2.6076089631
21
23.1203964740
31
0.0000000000
11
-2.5982507732
21
23.0857617965
31
0.0000000000
11
-2.5935627173
21
23.0518625202
31
0.0000000000
0
SPLINE
5
315
100
AcDbEntity
8
0
100
AcDbSpline
62
7
6
CONTINUOUS
70
0
71
3
72
15
73
11
74
9
42
0.0000001000
43
0.0000001000
44
0.0000000001
12
-0.2830840723
22
-0.0288905041
32
0.0000000000
13
-0.2545132660
23
0.1272566330
33
0.0000000000
40
0.0000000000
40
0.0000000000
40
0.0000000000
40
0.0000000000
40
0.1018680046
40
0.2189296968
40
0.3474096568
40
0.4829133080
40
0.6206942281
40
0.7558954912
40
0.8837854688
40
1.0000000000
40
1.0000000000
40
1.0000000000
40
1.0000000000
10
4.5653550500
20
21.6740844843
30
0.0000000000
10
4.5557426468
20
21.6731034783
30
0.0000000000
10
4.5349466642
20
21.6723289275
30
0.0000000000
10
4.5020064556
20
21.6739038843
30
0.0000000000
10
4.4660824419
20
21.6781027712
30
0.0000000000
10
4.4285430601
20
21.6847784378
30
0.0000000000
10
4.3908146427
20
21.6936842071
30
0.0000000000
10
4.3543335649
20
21.7044805688
30
0.0000000000
10
4.3204897492
20
21.7167499450
30
0.0000000000
10
4.2992933714
20
21.7261389347
30
0.0000000000
10
4.2894339914
20
21.7310686247
30
0.0000000000
11
4.5653550500
21
21.6740844843
31
0.0000000000
11
4.5363980881
21
21.6727652555
31
0.0000000000
11
4.5031191825
21
21.6742140956
31
0.0000000000
11
4.4667972230
21
21.6783753265
31
0.0000000000
11
4.4288280422
21
21.6850890345
31
0.0000000000
11
4.3906707742
21
21.6940972155
31
0.0000000000
11
4.3537917816
21
21.7050536902
31
0.0000000000
11
4.3196083034
21
21.7175374073
31
0.0000000000
11
4.2894339914
21
21.7310686247
31
0.0000000000
0
SPLINE
5
316
100
AcDbEntity
8
0
100
AcDbSpline
62
7
6
CONTINUOUS
70
0
71
3
72
15
73
11
74
9
42
0.0000001000
43
0.0000001000
44
0.0000000001
12
-0.2830840723
22
-0.0288905041
32
0.0000000000
13
-0.2545132660
23
0.1272566330
33
0.0000000000
40
0.0000000000
40
0.0000000000
40
0.0000000000
40
0.0000000000
40
0.1018680046
40
0.2189296968
40
0.3474096568
40
0.4829133080
40
0.6206942281
40
0.7558954912
40
0.8837854688
40
1.0000000000
40
1.0000000000
40
1.0000000000
40
1.0000000000
10
0.5348463973
20
23.6893388107
30
0.0000000000
10
0.5252339941
20
23.6883578047
30
0.0000000000
10
0.5044380114
20
23.6875832538
30
0.0000000000
10
0.4714978028
20
23.6891582107
30
0.0000000000
10
0.4355737891
20
23.6933570976
30
0.0000000000
10
0.3980344073
20
23.7000327641
30
0.0000000000
10
0.3603059899
20
23.7089385335
30
0.0000000000
10
0.3238249121
20
23.7197348952
30
0.0000000000
10
0.2899810964
20
23.7320042714
30
0.0000000000
10
0.2687847186
20
23.7413932611
30
0.0000000000
10
0.2589253386
20
23.7463229511
30
0.0000000000
11
0.5348463973
21
23.6893388107
31
0.0000000000
11
0.5058894353
21
23.6880195819
31
0.0000000000
11
0.4726105298
21
23.6894684220
31
0.0000000000
11
0.4362885703
21
23.6936296529
31
0.0000000000
11
0.3983193894
21
23.7003433609
31
0.0000000000
11
0.3601621215
21
23.7093515419
31
0.0000000000
11
0.3232831289
21
23.7203080165
31
0.0000000000
11
0.2890996506
21
23.7327917337
31
0.0000000000
11
0.2589253386
21
23.7463229511
31
0.0000000000
0
SPLINE
5
317
100
AcDbEntity
8
0
100
AcDbSpline
62
7
6
CONTINUOUS
70
0
71
3
72
12
73
8
74
6
42
0.0000001000
43
0.0000001000
44
0.0000000001
12
-0.0794482303
22
0.0397241152
32
0.0000000000
13
0.0209848366
23
0.0881877676
33
0.0000000000
40
0.0000000000
40
0.0000000000
40
0.0000000000
40
0.0000000000
40
0.3229543341
40
0.5878371421
40
0.7912834233
40
0.9408237800
40
1.0000000000
40
1.0000000000
40
1.0000000000
40
1.0000000000
10
2.2388243260
20
22.7563734574
30
0.0000000000
10
2.2302716092
20
22.7606498158
30
0.0000000000
10
2.2150058894
20
22.7690549645
30
0.0000000000
10
2.1958881549
20
22.7828080111
30
0.0000000000
10
2.1831834222
20
22.7960310669
30
0.0000000000
10
2.1776860952
20
22.8076175204
30
0.0000000000
10
2.1782870684
20
22.8139447349
30
0.0000000000
10
2.1787010029
20
22.8156842745
30
0.0000000000
11
2.2388243260
21
22.7563734574
31
0.0000000000
11
2.2138187621
21
22.7704321779
31
0.0000000000
11
2.1949428962
21
22.7844781329
31
0.0000000000
11
2.1829221171
21
22.7979715441
31
0.0000000000
11
2.1782183767
21
22.8103938672
31
0.0000000000
11
2.1787010029
21
22.8156842745
31
0.0000000000
0
SPLINE
5
318
100
AcDbEntity
8
0
100
AcDbSpline
62
7
6
CONTINUOUS
70
0
71
3
72
12
73
8
74
6
42
0.0000001000
43
0.0000001000
44
0.0000000001
12
-0.0794482303
22
0.0397241152
32
0.0000000000
13
0.0209848366
23
0.0881877676
33
0.0000000000
40
0.0000000000
40
0.0000000000
40
0.0000000000
40
0.0000000000
40
0.3229543341
40
0.5878371421
40
0.7912834233
40
0.9408237800
40
1.0000000000
40
1.0000000000
40
1.0000000000
40
1.0000000000
10
-1.7916843268
20
24.7716277838
30
0.0000000000
10
-1.8002370436
20
24.7759041422
30
0.0000000000
10
-1.8155027633
20
24.7843092909
30
0.0000000000
10
-1.8346204978
20
24.7980623375
30
0.0000000000
10
-1.8473252306
20
24.8112853932
30
0.0000000000
10
-1.8528225575
20
24.8228718468
30
0.0000000000
10
-1.8522215843
20
24.8291990613
30
0.0000000000
10
-1.8518076499
20
24.8309386009
30
0.0000000000
11
-1.7916843268
21
24.7716277838
31
0.0000000000
11
-1.8166898907
21
24.7856865043
31
0.0000000000
11
-1.8355657566
21
24.7997324593
31
0.0000000000
11
-1.8475865357
21
24.8132258704
31
0.0000000000
11
-1.8522902760
21
24.8256481936
31
0.0000000000
11
-1.8518076499
21
24.8309386009
31
0.0000000000
0
SPLINE
5
319
100
AcDbEntity
8
0
100
AcDbSpline
62
7
6
CONTINUOUS
70
0
71
3
72
11
73
7
74
5
42
0.0000001000
43
0.0000001000
44
0.0000000001
12
0.0145939321
22
0.0613302985
32
0.0000000000
13
0.0614548224
23
0.0062718499
33
0.0000000000
40
0.0000000000
40
0.0000000000
40
0.0000000000
40
0.0000000000
40
0.0966540175
40
0.3156819854
40
0.6136554429
40
1.0000000000
40
1.0000000000
40
1.0000000000
40
1.0000000000
10
8.4365960164
20
22.3687606091
30
0.0000000000
10
8.4370662038
20
22.3707365490
30
0.0000000000
10
8.4396282119
20
22.3769610100
30
0.0000000000
10
8.4502571159
20
22.3848295523
30
0.0000000000
10
8.4678721884
20
22.3909051917
30
0.0000000000
10
8.4818834402
20
22.3930793095
30
0.0000000000
10
8.4897976856
20
22.3938870079
30
0.0000000000
11
8.4365960164
21
22.3687606091
31
0.0000000000
11
8.4389074506
21
22.3743440541
31
0.0000000000
11
8.4490919376
21
22.3832515594
31
0.0000000000
11
8.4662754671
21
22.3898504074
31
0.0000000000
11
8.4897976856
21
22.3938870079
31
0.0000000000
0
SPLINE
5
31A
100
AcDbEntity
8
0
100
AcDbSpline
62
7
6
CONTINUOUS
70
0
71
3
72
11
73
7
74
5
42
0.0000001000
43
0.0000001000
44
0.0000000001
12
0.0145939321
22
0.0613302985
32
0.0000000000
13
0.0614548224
23
0.0062718499
33
0.0000000000
40
0.0000000000
40
0.0000000000
40
0.0000000000
40
0.0000000000
40
0.0966540175
40
0.3156819854
40
0.6136554429
40
1.0000000000
40
1.0000000000
40
1.0000000000
40
1.0000000000
10
-1.8518076499
20
24.8309386009
30
0.0000000000
10
-1.8513374625
20
24.8329145408
30
0.0000000000
10
-1.8487754544
20
24.8391390018
30
0.0000000000
10
-1.8381465504
20
24.8470075441
30
0.0000000000
10
-1.8205314778
20
24.8530831834
30
0.0000000000
10
-1.8065202260
20
24.8552573013
30
0.0000000000
10
-1.7986059806
20
24.8560649996
30
0.0000000000
11
-1.8518076499
21
24.8309386009
31
0.0000000000
11
-1.8494962157
21
24.8365220459
31
0.0000000000
11
-1.8393117287
21
24.8454295512
31
0.0000000000
11
-1.8221281992
21
24.8520283991
31
0.0000000000
11
-1.7986059806
21
24.8560649996
31
0.0000000000
0
SPLINE
5
31B
100
AcDbEntity
8
0
100
AcDbSpline
62
7
6
CONTINUOUS
70
0
71
3
72
12
73
8
74
6
42
0.0000001000
43
0.0000001000
44
0.0000000001
12
0.0794482303
22
-0.0397241152
32
0.0000000000
13
-0.0209848366
23
-0.0881877676
33
0.0000000000
40
0.0000000000
40
0.0000000000
40
0.0000000000
40
0.0000000000
40
0.3229543341
40
0.5878371421
40
0.7912834233
40
0.9408237800
40
1.0000000000
40
1.0000000000
40
1.0000000000
40
1.0000000000
10
6.5086790809
20
21.9575564972
30
0.0000000000
10
6.5172317977
20
21.9532801389
30
0.0000000000
10
6.5324975174
20
21.9448749901
30
0.0000000000
10
6.5516152519
20
21.9311219436
30
0.0000000000
10
6.5643199847
20
21.9178988878
30
0.0000000000
10
6.5698173116
20
21.9063124342
30
0.0000000000
10
6.5692163384
20
21.8999852197
30
0.0000000000
10
6.5688024040
20
21.8982456802
30
0.0000000000
11
6.5086790809
21
21.9575564972
31
0.0000000000
11
6.5336846447
21
21.9434977767
31
0.0000000000
11
6.5525605107
21
21.9294518218
31
0.0000000000
11
6.5645812897
21
21.9159584106
31
0.0000000000
11
6.5692850301
21
21.9035360874
31
0.0000000000
11
6.5688024040
21
21.8982456802
31
0.0000000000
0
SPLINE
5
31C
100
AcDbEntity
8
0
100
AcDbSpline
62
7
6
CONTINUOUS
70
0
71
3
72
12
73
8
74
6
42
0.0000001000
43
0.0000001000
44
0.0000000001
12
0.0794482303
22
-0.0397241152
32
0.0000000000
13
-0.0209848366
23
-0.0881877676
33
0.0000000000
40
0.0000000000
40
0.0000000000
40
0.0000000000
40
0.0000000000
40
0.3229543341
40
0.5878371421
40
0.7912834233
40
0.9408237800
40
1.0000000000
40
1.0000000000
40
1.0000000000
40
1.0000000000
10
2.4781704281
20
23.9728108236
30
0.0000000000
10
2.4867231449
20
23.9685344652
30
0.0000000000
10
2.5019888646
20
23.9601293165
30
0.0000000000
10
2.5211065992
20
23.9463762700
30
0.0000000000
10
2.5338113319
20
23.9331532142
30
0.0000000000
10
2.5393086589
20
23.9215667606
30
0.0000000000
10
2.5387076856
20
23.9152395461
30
0.0000000000
10
2.5382937512
20
23.9135000065
30
0.0000000000
11
2.4781704281
21
23.9728108236
31
0.0000000000
11
2.5031759920
21
23.9587521031
31
0.0000000000
11
2.5220518579
21
23.9447061481
31
0.0000000000
11
2.5340726370
21
23.9312127370
31
0.0000000000
11
2.5387763774
21
23.9187904138
31
0.0000000000
11
2.5382937512
21
23.9135000065
31
0.0000000000
0
SPLINE
5
31D
100
AcDbEntity
8
0
100
AcDbSpline
62
7
6
CONTINUOUS
70
0
71
3
72
15
73
11
74
9
42
0.0000001000
43
0.0000001000
44
0.0000000001
12
0.2830840723
22
0.0288905041
32
0.0000000000
13
0.2545132660
23
-0.1272566330
33
0.0000000000
40
0.0000000000
40
0.0000000000
40
0.0000000000
40
0.0000000000
40
0.1018680046
40
0.2189296968
40
0.3474096568
40
0.4829133080
40
0.6206942281
40
0.7558954912
40
0.8837854688
40
1.0000000000
40
1.0000000000
40
1.0000000000
40
1.0000000000
10
4.1821483568
20
23.0398454704
30
0.0000000000
10
4.1917607600
20
23.0408264764
30
0.0000000000
10
4.2125567427
20
23.0416010272
30
0.0000000000
10
4.2454969513
20
23.0400260703
30
0.0000000000
10
4.2814209650
20
23.0358271834
30
0.0000000000
10
4.3189603468
20
23.0291515169
30
0.0000000000
10
4.3566887642
20
23.0202457475
30
0.0000000000
10
4.3931698420
20
23.0094493858
30
0.0000000000
10
4.4270136577
20
22.9971800096
30
0.0000000000
10
4.4482100355
20
22.9877910199
30
0.0000000000
10
4.4580694154
20
22.9828613300
30
0.0000000000
11
4.1821483568
21
23.0398454704
31
0.0000000000
11
4.2111053188
21
23.0411646992
31
0.0000000000
11
4.2443842243
21
23.0397158590
31
0.0000000000
11
4.2807061838
21
23.0355546281
31
0.0000000000
11
4.3186753647
21
23.0288409201
31
0.0000000000
11
4.3568326326
21
23.0198327392
31
0.0000000000
11
4.3937116252
21
23.0088762645
31
0.0000000000
11
4.4278951034
21
22.9963925474
31
0.0000000000
11
4.4580694154
21
22.9828613300
31
0.0000000000
0
SPLINE
5
31E
100
AcDbEntity
8
0
100
AcDbSpline
62
7
6
CONTINUOUS
70
0
71
3
72
15
73
11
74
9
42
0.0000001000
43
0.0000001000
44
0.0000000001
12
0.2830840723
22
0.0288905041
32
0.0000000000
13
0.2545132660
23
-0.1272566330
33
0.0000000000
40
0.0000000000
40
0.0000000000
40
0.0000000000
40
0.0000000000
40
0.1018680046
40
0.2189296968
40
0.3474096568
40
0.4829133080
40
0.6206942281
40
0.7558954912
40
0.8837854688
40
1.0000000000
40
1.0000000000
40
1.0000000000
40
1.0000000000
10
0.1516397040
20
25.0550997967
30
0.0000000000
10
0.1612521072
20
25.0560808027
30
0.0000000000
10
0.1820480899
20
25.0568553536
30
0.0000000000
10
0.2149882985
20
25.0552803967
30
0.0000000000
10
0.2509123122
20
25.0510815098
30
0.0000000000
10
0.2884516940
20
25.0444058433
30
0.0000000000
10
0.3261801114
20
25.0355000739
30
0.0000000000
10
0.3626611892
20
25.0247037122
30
0.0000000000
10
0.3965050049
20
25.0124343360
30
0.0000000000
10
0.4177013827
20
25.0030453463
30
0.0000000000
10
0.4275607627
20
24.9981156563
30
0.0000000000
11
0.1516397040
21
25.0550997967
31
0.0000000000
11
0.1805966660
21
25.0564190255
31
0.0000000000
11
0.2138755716
21
25.0549701854
31
0.0000000000
11
0.2501975310
21
25.0508089545
31
0.0000000000
11
0.2881667119
21
25.0440952465
31
0.0000000000
11
0.3263239799
21
25.0350870655
31
0.0000000000
11
0.3632029724
21
25.0241305909
31
0.0000000000
11
0.3973864507
21
25.0116468737
31
0.0000000000
11
0.4275607627
21
24.9981156563
31
0.0000000000
0
SPLINE
5
31F
100
AcDbEntity
8
0
100
AcDbSpline
62
7
6
CONTINUOUS
70
0
71
3
72
10
73
6
74
4
42
0.0000001000
43
0.0000001000
44
0.0000000001
12
0.1437626329
22
0.0718813165
32
0.0000000000
13
0.1599009443
23
0.0163188937
33
0.0000000000
40
0.0000000000
40
0.0000000000
40
0.0000000000
40
0.0000000000
40
0.3511381091
40
0.6840818606
40
1.0000000000
40
1.0000000000
40
1.0000000000
40
1.0000000000
10
5.1479768708
20
21.0637702727
30
0.0000000000
10
5.1648037172
20
21.0721836959
30
0.0000000000
10
5.1984387074
20
21.0869562311
30
0.0000000000
10
5.2497291466
20
21.1028345565
30
0.0000000000
10
5.2840939431
20
21.1088591886
30
0.0000000000
10
5.3009324794
20
21.1105776668
30
0.0000000000
11
5.1479768708
21
21.0637702727
31
0.0000000000
11
5.1997158205
21
21.0863188231
31
0.0000000000
11
5.2508879074
21
21.1019784779
31
0.0000000000
11
5.3009324794
21
21.1105776668
31
0.0000000000
0
SPLINE
5
320
100
AcDbEntity
8
0
100
AcDbSpline
62
7
6
CONTINUOUS
70
0
71
3
72
11
73
7
74
5
42
0.0000001000
43
0.0000001000
44
0.0000000001
12
0.0145939321
22
0.0613302985
32
0.0000000000
13
0.0614548224
23
0.0062718499
33
0.0000000000
40
0.0000000000
40
0.0000000000
40
0.0000000000
40
0.0000000000
40
0.0966540175
40
0.3156819854
40
0.6136554429
40
1.0000000000
40
1.0000000000
40
1.0000000000
40
1.0000000000
10
2.1787010029
20
22.8156842745
30
0.0000000000
10
2.1791711903
20
22.8176602144
30
0.0000000000
10
2.1817331984
20
22.8238846754
30
0.0000000000
10
2.1923621024
20
22.8317532177
30
0.0000000000
10
2.2099771749
20
22.8378288571
30
0.0000000000
10
2.2239884267
20
22.8400029749
30
0.0000000000
10
2.2319026721
20
22.8408106733
30
0.0000000000
11
2.1787010029
21
22.8156842745
31
0.0000000000
11
2.1810124371
21
22.8212677195
31
0.0000000000
11
2.1911969241
21
22.8301752248
31
0.0000000000
11
2.2083804536
21
22.8367740727
31
0.0000000000
11
2.2319026721
21
22.8408106733
31
0.0000000000
0
SPLINE
5
321
100
AcDbEntity
8
0
100
AcDbSpline
62
7
6
CONTINUOUS
70
0
71
3
72
13
73
9
74
7
42
0.0000001000
43
0.0000001000
44
0.0000000001
12
0.0000000000
22
1.0295482093
32
0.0000000000
13
0.9208559129
23
0.4604279564
33
0.0000000000
40
0.0000000000
40
0.0000000000
40
0.0000000000
40
0.0000000000
40
0.1614219316
40
0.3342559043
40
0.5116973510
40
0.6862432064
40
0.8508246292
40
1.0000000000
40
1.0000000000
40
1.0000000000
40
1.0000000000
10
4.2894339914
20
20.0282810503
30
0.0000000000
10
4.2894339914
20
20.0836782705
30
0.0000000000
10
4.3021215692
20
20.1985509704
30
0.0000000000
10
4.3518138876
20
20.3677462971
30
0.0000000000
10
4.4297453443
20
20.5309678080
30
0.0000000000
10
4.5308989934
20
20.6775364764
30
0.0000000000
10
4.6486460290
20
20.7979362247
30
0.0000000000
10
4.7386190642
20
20.8590913693
30
0.0000000000
10
4.7844087382
20
20.8819862064
30
0.0000000000
11
4.2894339914
21
20.0282810503
31
0.0000000000
11
4.3062998469
21
20.1936146857
31
0.0000000000
11
4.3557480332
21
20.3645469626
31
0.0000000000
11
4.4344087382
21
20.5294291287
31
0.0000000000
11
4.5369213648
21
20.6770247370
31
0.0000000000
11
4.6562998469
21
20.7972753907
31
0.0000000000
11
4.7844087382
21
20.8819862064
31
0.0000000000
0
SPLINE
5
322
100
AcDbEntity
8
0
100
AcDbSpline
62
7
6
CONTINUOUS
70
0
71
3
72
12
73
8
74
6
42
0.0000001000
43
0.0000001000
44
0.0000000001
12
0.0082175243
22
0.1109275219
32
0.0000000000
13
0.0998959363
23
0.0498775528
33
0.0000000000
40
0.0000000000
40
0.0000000000
40
0.0000000000
40
0.0000000000
40
0.2659770126
40
0.5082935587
40
0.7298118726
40
0.9374528333
40
1.0000000000
40
1.0000000000
40
1.0000000000
40
1.0000000000
10
2.6871493258
20
20.4115064987
30
0.0000000000
10
2.6878778834
20
20.4213412223
30
0.0000000000
10
2.6907310457
20
20.4400846413
30
0.0000000000
10
2.6999325040
20
20.4657412156
30
0.0000000000
10
2.7137072323
20
20.4868106184
30
0.0000000000
10
2.7277121659
20
20.4988986180
30
0.0000000000
10
2.7364996463
20
20.5038055589
30
0.0000000000
10
2.7385823822
20
20.5048454588
30
0.0000000000
11
2.6871493258
21
20.4115064987
31
0.0000000000
11
2.6918373818
21
20.4407177190
31
0.0000000000
11
2.7011955716
21
20.4659942066
31
0.0000000000
11
2.7149030030
21
20.4864692302
31
0.0000000000
11
2.7324896477
21
20.5014407009
31
0.0000000000
11
2.7385823822
21
20.5048454588
31
0.0000000000
0
SPLINE
5
323
100
AcDbEntity
8
0
100
AcDbSpline
62
7
6
CONTINUOUS
70
0
71
3
72
14
73
10
74
8
42
0.0000001000
43
0.0000001000
44
0.0000000001
12
0.0909231701
22
-0.0454724527
32
0.0000000000
13
0.0940744708
23
0.0383596956
33
0.0000000000
40
0.0000000000
40
0.0000000000
40
0.0000000000
40
0.0000000000
40
0.0172933149
40
0.1871840319
40
0.3605345419
40
0.5411503436
40
0.7305836359
40
0.9312866044
40
1.0000000000
40
1.0000000000
40
1.0000000000
40
1.0000000000
10
-4.2722937070
20
5.8392517223
30
0.0000000000
10
-4.2717695860
20
5.8389895992
30
0.0000000000
10
-4.2660698001
20
5.8362057753
30
0.0000000000
10
-4.2545539913
20
5.8319721964
30
0.0000000000
10
-4.2369998220
20
5.8289173279
30
0.0000000000
10
-4.2185308820
20
5.8288510688
30
0.0000000000
10
-4.1993656093
20
5.8317489800
30
0.0000000000
10
-4.1844355977
20
5.8361673227
30
0.0000000000
10
-4.1759201419
20
5.8394486688
30
0.0000000000
10
-4.1737654165
20
5.8403272771
30
0.0000000000
11
-4.2722937070
21
5.8392517223
31
0.0000000000
11
-4.2707140355
21
5.8384802227
31
0.0000000000
11
-4.2545326035
21
5.8325098749
31
0.0000000000
11
-4.2372026720
21
5.8294444153
31
0.0000000000
11
-4.2188666059
21
5.8293104928
31
0.0000000000
11
-4.1998397913
21
5.8321104388
31
0.0000000000
11
-4.1802801105
21
5.8378195784
31
0.0000000000
11
-4.1737654165
21
5.8403272771
31
0.0000000000
0
SPLINE
5
324
100
AcDbEntity
8
0
100
AcDbSpline
62
7
6
CONTINUOUS
70
0
71
3
72
13
73
9
74
7
42
0.0000001000
43
0.0000001000
44
0.0000000001
12
-0.0909022267
22
0.0454619785
32
0.0000000000
13
-0.0257605244
23
0.0982374516
33
0.0000000000
40
0.0000000000
40
0.0000000000
40
0.0000000000
40
0.0000000000
40
0.1520885179
40
0.3245953015
40
0.5035690103
40
0.6909886792
40
0.8894732324
40
1.0000000000
40
1.0000000000
40
1.0000000000
40
1.0000000000
10
-7.3835635443
20
7.3948866410
30
0.0000000000
10
-7.3881719392
20
7.3971913893
30
0.0000000000
10
-7.3976009577
20
7.4029245500
30
0.0000000000
10
-7.4104908367
20
7.4142013524
30
0.0000000000
10
-7.4220150376
20
7.4284362181
30
0.0000000000
10
-7.4316074165
20
7.4450473672
30
0.0000000000
10
-7.4378984417
20
7.4606739057
30
0.0000000000
10
-7.4408672829
20
7.4707096430
30
0.0000000000
10
-7.4418163587
20
7.4743289323
30
0.0000000000
11
-7.3835635443
21
7.3948866410
31
0.0000000000
11
-7.3967618810
21
7.4029010666
31
0.0000000000
11
-7.4099686556
21
7.4143969692
31
0.0000000000
11
-7.4214494661
21
7.4284746897
31
0.0000000000
11
-7.4310273183
21
7.4449105084
31
0.0000000000
11
-7.4386223332
21
7.4635700039
31
0.0000000000
11
-7.4418163587
21
7.4743289323
31
0.0000000000
0
SPLINE
5
325
100
AcDbEntity
8
0
100
AcDbSpline
62
7
6
CONTINUOUS
70
0
71
3
72
9
73
5
74
3
42
0.0000001000
43
0.0000001000
44
0.0000000001
12
0.0000952773
22
0.0006542107
32
0.0000000000
13
-0.0002504813
23
0.0003674385
33
0.0000000000
40
0.0000000000
40
0.0000000000
40
0.0000000000
40
0.0000000000
40
0.8195180933
40
1.0000000000
40
1.0000000000
40
1.0000000000
40
1.0000000000
10
4.5191626821
20
25.7615615709
30
0.0000000000
10
4.5191887093
20
25.7617402834
30
0.0000000000
10
4.5191796705
20
25.7619263113
30
0.0000000000
10
4.5191071834
20
25.7620582180
30
0.0000000000
10
4.5190921143
20
25.7620803233
30
0.0000000000
11
4.5191626821
21
25.7615615709
31
0.0000000000
11
4.5191312819
21
25.7620088415
31
0.0000000000
11
4.5190921143
21
25.7620803233
31
0.0000000000
0
SPLINE
5
326
100
AcDbEntity
8
0
100
AcDbSpline
62
7
6
CONTINUOUS
70
0
71
3
72
14
73
10
74
8
42
0.0000001000
43
0.0000001000
44
0.0000000001
12
-0.3958959797
22
0.1978426925
32
0.0000000000
13
-0.4385457426
23
-0.0587539888
33
0.0000000000
40
0.0000000000
40
0.0000000000
40
0.0000000000
40
0.0000000000
40
0.1394366235
40
0.3095001614
40
0.4668738529
40
0.6134899189
40
0.7504397279
40
0.8789464711
40
1.0000000000
40
1.0000000000
40
1.0000000000
40
1.0000000000
10
10.7433656594
20
-13.4774774037
30
0.0000000000
10
10.7249648598
20
-13.4682818980
30
0.0000000000
10
10.6835443919
20
-13.4490261930
30
0.0000000000
10
10.6191890404
20
-13.4243270241
30
0.0000000000
10
10.5520000408
20
-13.4046917957
30
0.0000000000
10
10.4881594590
20
-13.3918624454
30
0.0000000000
10
10.4276532188
20
-13.3852854528
30
0.0000000000
10
10.3705716500
20
-13.3844561343
30
0.0000000000
10
10.3338198222
20
-13.3874902349
30
0.0000000000
10
10.3161239856
20
-13.3898610275
30
0.0000000000
11
10.7433656594
21
-13.4774774037
31
0.0000000000
11
10.6873911087
21
-13.4515166465
31
0.0000000000
11
10.6170962500
21
-13.4246699881
31
0.0000000000
11
10.5502268377
21
-13.4052503019
31
0.0000000000
11
10.4866044791
21
-13.3925769046
31
0.0000000000
11
10.4263533910
21
-13.3861267708
31
0.0000000000
11
10.3694985996
21
-13.3853866344
31
0.0000000000
11
10.3161239856
21
-13.3898610275
31
0.0000000000
0
SPLINE
5
327
100
AcDbEntity
8
0
100
AcDbSpline
62
7
6
CONTINUOUS
70
0
71
3
72
12
73
8
74
6
42
0.0000001000
43
0.0000001000
44
0.0000000001
12
-0.2612044436
22
0.1305851353
32
0.0000000000
13
-0.2887023519
23
0.0435558084
33
0.0000000000
40
0.0000000000
40
0.0000000000
40
0.0000000000
40
0.0000000000
40
0.0126779456
40
0.2859689738
40
0.5408164481
40
0.7782471675
40
1.0000000000
40
1.0000000000
40
1.0000000000
40
1.0000000000
10
10.5995713494
20
22.7217956199
30
0.0000000000
10
10.5984675042
20
22.7223474703
30
0.0000000000
10
10.5735491870
20
22.7347563472
30
0.0000000000
10
10.5255917192
20
22.7565545047
30
0.0000000000
10
10.4556074395
20
22.7823296221
30
0.0000000000
10
10.3886668895
20
22.8012412873
30
0.0000000000
10
10.3447540382
20
22.8098611600
30
0.0000000000
10
10.3234138501
20
22.8130807013
30
0.0000000000
11
10.5995713494
21
22.7217956199
31
0.0000000000
11
10.5962572169
21
22.7234459883
31
0.0000000000
11
10.5235689253
21
22.7563591471
31
0.0000000000
11
10.4537071650
21
22.7819684543
31
0.0000000000
11
10.3869660021
21
22.8007095396
31
0.0000000000
11
10.3234138501
21
22.8130807013
31
0.0000000000
0
SPLINE
5
328
100
AcDbEntity
8
0
100
AcDbSpline
62
7
6
CONTINUOUS
70
0
71
3
72
9
73
5
74
3
42
0.0000001000
43
0.0000001000
44
0.0000000001
12
-0.0051252844
22
-0.0027662597
32
0.0000000000
13
-0.0052874733
23
-0.0024414510
33
0.0000000000
40
0.0000000000
40
0.0000000000
40
0.0000000000
40
0.0000000000
40
0.8033148475
40
1.0000000000
40
1.0000000000
40
1.0000000000
40
1.0000000000
10
10.0960514876
20
-23.3524203113
30
0.0000000000
10
10.0946790819
20
-23.3531610371
30
0.0000000000
10
10.0929477335
20
-23.3540405615
30
0.0000000000
10
10.0911902395
20
-23.3548651960
30
0.0000000000
10
10.0908435836
20
-23.3550252618
30
0.0000000000
11
10.0960514876
21
-23.3524203113
31
0.0000000000
11
10.0918805740
21
-23.3545386859
31
0.0000000000
11
10.0908435836
21
-23.3550252618
31
0.0000000000
0
SPLINE
5
329
100
AcDbEntity
8
0
100
AcDbSpline
62
7
6
CONTINUOUS
70
0
71
3
72
9
73
5
74
3
42
0.0000001000
43
0.0000001000
44
0.0000000001
12
0.0051252541
22
0.0027662414
32
0.0000000000
13
0.0052874410
23
0.0024414366
33
0.0000000000
40
0.0000000000
40
0.0000000000
40
0.0000000000
40
0.0000000000
40
0.8033149615
40
1.0000000000
40
1.0000000000
40
1.0000000000
40
1.0000000000
10
-7.3154590862
20
26.8196888321
30
0.0000000000
10
-7.3140866884
20
26.8204295532
30
0.0000000000
10
-7.3123553503
20
26.8213090720
30
0.0000000000
10
-7.3105978670
20
26.8221337016
30
0.0000000000
10
-7.3102512135
20
26.8222937663
30
0.0000000000
11
-7.3154590862
21
26.8196888321
31
0.0000000000
11
-7.3112881969
21
26.8218071936
31
0.0000000000
11
-7.3102512135
21
26.8222937663
31
0.0000000000
0
SPLINE
5
32A
100
AcDbEntity
8
0
100
AcDbSpline
62
7
6
CONTINUOUS
70
0
71
3
72
13
73
9
74
7
42
0.0000001000
43
0.0000001000
44
0.0000000001
12
0.1028976749
22
0.0475148396
32
0.0000000000
13
0.1012368686
23
-0.0506184343
33
0.0000000000
40
0.0000000000
40
0.0000000000
40
0.0000000000
40
0.0000000000
40
0.1422585511
40
0.2977134748
40
0.4596915959
40
0.6295871494
40
0.8096014810
40
1.0000000000
40
1.0000000000
40
1.0000000000
40
1.0000000000
10
-0.8352085966
20
29.8126830224
30
0.0000000000
10
-0.8303292385
20
29.8149361531
30
0.0000000000
10
-0.8197103634
20
29.8187692491
30
0.0000000000
10
-0.8025365268
20
29.8217575884
30
0.0000000000
10
-0.7840703801
20
29.8218234447
30
0.0000000000
10
-0.7649069686
20
29.8189254400
30
0.0000000000
10
-0.7453067331
20
29.8131247157
30
0.0000000000
10
-0.7324588598
20
29.8075337326
30
0.0000000000
10
-0.7260337432
20
29.8043211743
30
0.0000000000
11
-0.8352085966
21
29.8126830224
31
0.0000000000
11
-0.8200660796
21
29.8181660375
31
0.0000000000
11
-0.8027396432
21
29.8212305677
31
0.0000000000
11
-0.7844064319
21
29.8213641180
31
0.0000000000
11
-0.7653815311
21
29.8185641208
31
0.0000000000
11
-0.7458225937
21
29.8128549474
31
0.0000000000
11
-0.7260337432
21
29.8043211743
31
0.0000000000
0
SPLINE
5
32B
100
AcDbEntity
8
0
100
AcDbSpline
62
7
6
CONTINUOUS
70
0
71
3
72
13
73
9
74
7
42
0.0000001000
43
0.0000001000
44
0.0000000001
12
0.1033929496
22
0.0494878067
32
0.0000000000
13
0.1023869425
23
-0.0511934713
33
0.0000000000
40
0.0000000000
40
0.0000000000
40
0.0000000000
40
0.0000000000
40
0.1518773582
40
0.3056146567
40
0.4657903237
40
0.6337816991
40
0.8117652147
40
1.0000000000
40
1.0000000000
40
1.0000000000
40
1.0000000000
10
15.1746040957
20
21.8066410258
30
0.0000000000
10
15.1798384450
20
21.8091463850
30
0.0000000000
10
15.1908428630
20
21.8132014258
30
0.0000000000
10
15.2084420482
20
21.8162649011
30
0.0000000000
10
15.2269101073
20
21.8163317607
30
0.0000000000
10
15.2460741209
20
21.8134344708
30
0.0000000000
10
15.2656734301
20
21.8076345638
30
0.0000000000
10
15.2785201775
20
21.8020442140
30
0.0000000000
10
15.2849444389
20
21.7988320833
30
0.0000000000
11
15.1746040957
21
21.8066410258
31
0.0000000000
11
15.1909099374
21
21.8126716934
31
0.0000000000
11
15.2082394109
21
21.8157378109
31
0.0000000000
11
15.2265745596
21
21.8158723117
31
0.0000000000
11
15.2456000443
21
21.8130729844
31
0.0000000000
11
15.2651581527
21
21.8073645590
31
0.0000000000
11
15.2849444389
21
21.7988320833
31
0.0000000000
0
SPLINE
5
32C
100
AcDbEntity
8
0
100
AcDbSpline
62
7
6
CONTINUOUS
70
0
71
3
72
9
73
5
74
3
42
0.0000001000
43
0.0000001000
44
0.0000000001
12
0.0028436566
22
0.0014828453
32
0.0000000000
13
0.0028929256
23
0.0013843052
33
0.0000000000
40
0.0000000000
40
0.0000000000
40
0.0000000000
40
0.0000000000
40
0.3706474530
40
1.0000000000
40
1.0000000000
40
1.0000000000
40
1.0000000000
10
8.8077743576
20
18.7592754083
30
0.0000000000
10
8.8081256889
20
18.7594586126
30
0.0000000000
10
8.8090767169
20
18.7599468643
30
0.0000000000
10
8.8100360448
20
18.7604186949
30
0.0000000000
10
8.8106429348
20
18.7607091002
30
0.0000000000
11
8.8077743576
21
18.7592754083
31
0.0000000000
11
8.8088318213
21
18.7598182952
31
0.0000000000
11
8.8106429348
21
18.7607091002
31
0.0000000000
0
SPLINE
5
32D
100
AcDbEntity
8
0
100
AcDbSpline
62
7
6
CONTINUOUS
70
0
71
3
72
14
73
10
74
8
42
0.0000001000
43
0.0000001000
44
0.0000000001
12
0.2993330694
22
-0.1496752583
32
0.0000000000
13
0.3220880380
23
0.0900266284
33
0.0000000000
40
0.0000000000
40
0.0000000000
40
0.0000000000
40
0.0000000000
40
0.0576045817
40
0.2052752106
40
0.3549712920
40
0.5082836198
40
0.6662214569
40
0.8299111679
40
1.0000000000
40
1.0000000000
40
1.0000000000
40
1.0000000000
10
-12.6183205584
20
-14.0561655742
30
0.0000000000
10
-12.6125729063
20
-14.0590395678
30
0.0000000000
10
-12.5918313584
20
-14.0687615844
30
0.0000000000
10
-12.5545255421
20
-14.0822847498
30
0.0000000000
10
-12.5053719529
20
-14.0932960957
30
0.0000000000
10
-12.4541112235
20
-14.0983287769
30
0.0000000000
10
-12.4010626861
20
-14.0973683992
30
0.0000000000
10
-12.3465901627
20
-14.0904405690
30
0.0000000000
10
-12.3102703782
20
-14.0820486405
30
0.0000000000
10
-12.2920091855
20
-14.0769444658
30
0.0000000000
11
-12.6183205584
21
-14.0561655742
31
0.0000000000
11
-12.6008663573
21
-14.0643462168
31
0.0000000000
11
-12.5544472548
21
-14.0812055941
31
0.0000000000
11
-12.5056079509
21
-14.0922082688
31
0.0000000000
11
-12.4545887886
21
-14.0973010660
31
0.0000000000
11
-12.4017760996
21
-14.0964441559
31
0.0000000000
11
-12.3474569102
21
-14.0896434287
31
0.0000000000
11
-12.2920091855
21
-14.0769444658
31
0.0000000000
0
SPLINE
5
32E
100
AcDbEntity
8
0
100
AcDbSpline
62
7
6
CONTINUOUS
70
0
71
3
72
18
73
14
74
12
42
0.0000001000
43
0.0000001000
44
0.0000000001
12
-0.5335720935
22
0.2668025567
32
0.0000000000
13
-0.0194081160
23
0.5958139385
33
0.0000000000
40
0.0000000000
40
0.0000000000
40
0.0000000000
40
0.0000000000
40
0.0495218709
40
0.1316198732
40
0.2150470635
40
0.3007311160
40
0.3891706090
40
0.4810533303
40
0.5766216964
40
0.6762734441
40
0.7800208290
40
0.8879788781
40
1.0000000000
40
1.0000000000
40
1.0000000000
40
1.0000000000
10
0.1219630328
20
-20.4263073422
30
0.0000000000
10
0.1131552034
20
-20.4219031549
30
0.0000000000
10
0.0902110881
20
-20.4092663340
30
0.0000000000
10
0.0550619170
20
-20.3847541307
30
0.0000000000
10
0.0179962919
20
-20.3511241260
30
0.0000000000
10
-0.0155044994
20
-20.3122750434
30
0.0000000000
10
-0.0452541447
20
-20.2684519642
30
0.0000000000
10
-0.0710588077
20
-20.2199723677
30
0.0000000000
10
-0.0927819752
20
-20.1671269349
30
0.0000000000
10
-0.1102883836
20
-20.1102777971
30
0.0000000000
10
-0.1234840442
20
-20.0497624186
30
0.0000000000
10
-0.1322890893
20
-19.9859824174
30
0.0000000000
10
-0.1351481283
20
-19.9423229212
30
0.0000000000
10
-0.1358728347
20
-19.9200750059
30
0.0000000000
11
0.1219630328
21
-20.4263073422
31
0.0000000000
11
0.0960923729
21
-20.4120590413
31
0.0000000000
11
0.0559266062
21
-20.3840958450
31
0.0000000000
11
0.0190484765
21
-20.3507279064
31
0.0000000000
11
-0.0143771662
21
-20.3121044248
31
0.0000000000
11
-0.0440750352
21
-20.2685431361
31
0.0000000000
11
-0.0699093018
21
-20.2202442085
31
0.0000000000
11
-0.0916726605
21
-20.1675937578
31
0.0000000000
11
-0.1092588472
21
-20.1108511228
31
0.0000000000
11
-0.1225337048
21
-20.0504456581
31
0.0000000000
11
-0.1314261188
21
-19.9867059381
31
0.0000000000
11
-0.1358728347
21
-19.9200750059
31
0.0000000000
0
SPLINE
5
32F
100
AcDbEntity
8
0
100
AcDbSpline
62
7
6
CONTINUOUS
70
0
71
3
72
10
73
6
74
4
42
0.0000001000
43
0.0000001000
44
0.0000000001
12
0.1562558142
22
0.0357945149
32
0.0000000000
13
0.1588714759
23
0.0212847418
33
0.0000000000
40
0.0000000000
40
0.0000000000
40
0.0000000000
40
0.0000000000
40
0.1209831236
40
0.5564051384
40
1.0000000000
40
1.0000000000
40
1.0000000000
40
1.0000000000
10
10.1584155174
20
-13.4182622949
30
0.0000000000
10
10.1647169562
20
-13.4168187842
30
0.0000000000
10
10.1937371255
20
-13.4103532899
30
0.0000000000
10
10.2461963352
20
-13.4001386709
30
0.0000000000
10
10.2926324622
20
-13.3930082948
30
0.0000000000
10
10.3161239856
20
-13.3898610275
30
0.0000000000
11
10.1584155174
21
-13.4182622949
31
0.0000000000
11
10.1773450415
21
-13.4140440808
31
0.0000000000
11
10.2458469958
21
-13.4006757118
31
0.0000000000
11
10.3161239856
21
-13.3898610275
31
0.0000000000
0
SPLINE
5
330
100
AcDbEntity
8
0
100
AcDbSpline
62
7
6
CONTINUOUS
70
0
71
3
72
14
73
10
74
8
42
0.0000001000
43
0.0000001000
44
0.0000000001
12
0.4504912868
22
0.0222698026
32
0.0000000000
13
0.4459943162
23
-0.0672860573
33
0.0000000000
40
0.0000000000
40
0.0000000000
40
0.0000000000
40
0.0000000000
40
0.1231328770
40
0.2541382212
40
0.3923132255
40
0.5368558726
40
0.6869161498
40
0.8416077665
40
1.0000000000
40
1.0000000000
40
1.0000000000
40
1.0000000000
10
9.8740337664
20
22.8426877442
30
0.0000000000
10
9.8925238625
20
22.8436017925
30
0.0000000000
10
9.9307284724
20
22.8446873345
30
0.0000000000
10
9.9897202129
20
22.8442740112
30
0.0000000000
10
10.0518856992
20
22.8418810837
30
0.0000000000
10
10.1168151514
20
22.8375346043
30
0.0000000000
10
10.1840819018
20
22.8312767882
30
0.0000000000
10
10.2532462152
20
22.8231651623
30
0.0000000000
10
10.2998665048
20
22.8166332310
30
0.0000000000
10
10.3234138501
20
22.8130807013
30
0.0000000000
11
9.8740337664
21
22.8426877442
31
0.0000000000
11
9.9295473271
21
22.8443360208
31
0.0000000000
11
9.9886350881
21
22.8439799682
31
0.0000000000
11
10.0509134254
21
22.8416302753
31
0.0000000000
11
10.1159651388
21
22.8373145118
31
0.0000000000
11
10.1833604439
21
22.8310763125
31
0.0000000000
11
10.2526607310
21
22.8229740108
31
0.0000000000
11
10.3234138501
21
22.8130807013
31
0.0000000000
0
SPLINE
5
331
100
AcDbEntity
8
0
100
AcDbSpline
62
7
6
CONTINUOUS
70
0
71
3
72
20
73
16
74
14
42
0.0000001000
43
0.0000001000
44
0.0000000001
12
0.2633939125
22
-0.1316969563
32
0.0000000000
13
0.0000000000
23
-0.2944833466
33
0.0000000000
40
0.0000000000
40
0.0000000000
40
0.0000000000
40
0.0000000000
40
0.0667384029
40
0.1372105197
40
0.2109691587
40
0.2877632170
40
0.3667514415
40
0.4476080453
40
0.5292648051
40
0.6113589092
40
0.6927777880
40
0.7731259179
40
0.8514284100
40
0.9272782859
40
1.0000000000
40
1.0000000000
40
1.0000000000
40
1.0000000000
10
-9.6052142589
20
-4.4860371943
30
0.0000000000
10
-9.5993547626
20
-4.4889669425
30
0.0000000000
10
-9.5876660804
20
-4.4957260686
30
0.0000000000
10
-9.5709008548
20
-4.5079372116
30
0.0000000000
10
-9.5546317123
20
-4.5223371098
30
0.0000000000
10
-9.5391075548
20
-4.5387043035
30
0.0000000000
10
-9.5245315345
20
-4.5568218021
30
0.0000000000
10
-9.5111320976
20
-4.5764054411
30
0.0000000000
10
-9.4990833730
20
-4.5971998912
30
0.0000000000
10
-9.4885763103
20
-4.6188755664
30
0.0000000000
10
-9.4797480676
20
-4.6411497301
30
0.0000000000
10
-9.4727372145
20
-4.6636724549
30
0.0000000000
10
-9.4676375106
20
-4.6861453693
30
0.0000000000
10
-9.4645271517
20
-4.7082233387
30
0.0000000000
10
-9.4637929027
20
-4.7228145086
30
0.0000000000
10
-9.4637929027
20
-4.7299529532
30
0.0000000000
11
-9.6052142589
21
-4.4860371943
31
0.0000000000
11
-9.5881698349
21
-4.4958219635
31
0.0000000000
11
-9.5713638017
21
-4.5079972928
31
0.0000000000
11
-9.5550711058
21
-4.5223617097
31
0.0000000000
11
-9.5394844220
21
-4.5387468896
31
0.0000000000
11
-9.5248851937
21
-4.5568555470
31
0.0000000000
11
-9.5114269791
21
-4.5764982691
31
0.0000000000
11
-9.4993655643
21
-4.5973011324
31
0.0000000000
11
-9.4888216420
21
-4.6190559728
31
0.0000000000
11
-9.4799960951
21
-4.6413490763
31
0.0000000000
11
-9.4729808887
21
-4.6639463905
31
0.0000000000
11
-9.4679038567
21
-4.6864393023
31
0.0000000000
11
-9.4648237763
21
-4.7085624455
31
0.0000000000
11
-9.4637929027
21
-4.7299529532
31
0.0000000000
0
SPLINE
5
332
100
AcDbEntity
8
0
100
AcDbSpline
62
7
6
CONTINUOUS
70
0
71
3
72
10
73
6
74
4
42
0.0000001000
43
0.0000001000
44
0.0000000001
12
-0.1468079703
22
4.5068895457
32
0.0000000000
13
-0.1000663185
23
4.5081695497
33
0.0000000000
40
0.0000000000
40
0.0000000000
40
0.0000000000
40
0.0000000000
40
0.3327428746
40
0.6660769154
40
1.0000000000
40
1.0000000000
40
1.0000000000
40
1.0000000000
10
-0.1358728347
20
-19.9200750059
30
0.0000000000
10
-0.1521559367
20
-19.4201965450
30
0.0000000000
10
-0.1830109654
20
-18.4194939373
30
0.0000000000
10
-0.2241320486
20
-16.9169605084
30
0.0000000000
10
-0.2481109810
20
-15.9142950858
30
0.0000000000
10
-0.2592491323
20
-15.4125011251
30
0.0000000000
11
-0.1358728347
21
-19.9200750059
31
0.0000000000
11
-0.1821188114
21
-18.4203570838
31
0.0000000000
11
-0.2232445019
21
-16.9178232843
31
0.0000000000
11
-0.2592491323
21
-15.4125011251
31
0.0000000000
0
SPLINE
5
333
100
AcDbEntity
8
0
100
AcDbSpline
62
7
6
CONTINUOUS
70
0
71
3
72
16
73
12
74
10
42
0.0000001000
43
0.0000001000
44
0.0000000001
12
-0.3089224027
22
-0.1666707234
32
0.0000000000
13
0.0000219625
23
-0.3514928338
33
0.0000000000
40
0.0000000000
40
0.0000000000
40
0.0000000000
40
0.0000000000
40
0.1471433930
40
0.2857792890
40
0.4158741402
40
0.5376364671
40
0.6517714639
40
0.7591868615
40
0.8614936554
40
0.9604234526
40
1.0000000000
40
1.0000000000
40
1.0000000000
40
1.0000000000
10
-6.4675980453
20
23.3391641149
30
0.0000000000
10
-6.4827500088
20
23.3309892830
30
0.0000000000
10
-6.5116180237
20
23.3140356765
30
0.0000000000
10
-6.5514243987
20
23.2859433003
30
0.0000000000
10
-6.5861604996
20
23.2561428775
30
0.0000000000
10
-6.6155402130
20
23.2248584907
30
0.0000000000
10
-6.6393038593
20
23.1923291881
30
0.0000000000
10
-6.6572326303
20
23.1587881495
30
0.0000000000
10
-6.6691208512
20
23.1245141240
30
0.0000000000
10
-6.6737035497
20
23.0965648420
30
0.0000000000
10
-6.6742877517
20
23.0803370856
30
0.0000000000
10
-6.6742874619
20
23.0757001280
30
0.0000000000
11
-6.4675980453
21
23.3391641149
31
0.0000000000
11
-6.5120760446
21
23.3129077547
31
0.0000000000
11
-6.5517582352
21
23.2847394926
31
0.0000000000
11
-6.5863184030
21
23.2548912039
31
0.0000000000
11
-6.6154576563
21
23.2236237188
31
0.0000000000
11
-6.6389541214
21
23.1911741231
31
0.0000000000
11
-6.6565887803
21
23.1578477179
31
0.0000000000
11
-6.6682373942
21
23.1238781392
31
0.0000000000
11
-6.6737863895
21
23.0895984197
31
0.0000000000
11
-6.6742874619
21
23.0757001280
31
0.0000000000
0
SPLINE
5
334
100
AcDbEntity
8
0
100
AcDbSpline
62
7
6
CONTINUOUS
70
0
71
3
72
16
73
12
74
10
42
0.0000001000
43
0.0000001000
44
0.0000000001
12
-0.3089224027
22
-0.1666707234
32
0.0000000000
13
0.0000219625
23
-0.3514928338
33
0.0000000000
40
0.0000000000
40
0.0000000000
40
0.0000000000
40
0.0000000000
40
0.1471433930
40
0.2857792890
40
0.4158741402
40
0.5376364671
40
0.6517714639
40
0.7591868615
40
0.8614936554
40
0.9604234526
40
1.0000000000
40
1.0000000000
40
1.0000000000
40
1.0000000000
10
3.5733182475
20
18.3187059685
30
0.0000000000
10
3.5581662840
20
18.3105311366
30
0.0000000000
10
3.5292982692
20
18.2935775301
30
0.0000000000
10
3.4894918941
20
18.2654851539
30
0.0000000000
10
3.4547557932
20
18.2356847311
30
0.0000000000
10
3.4253760799
20
18.2044003443
30
0.0000000000
10
3.4016124336
20
18.1718710417
30
0.0000000000
10
3.3836836625
20
18.1383300031
30
0.0000000000
10
3.3717954417
20
18.1040559776
30
0.0000000000
10
3.3672127431
20
18.0761066955
30
0.0000000000
10
3.3666285412
20
18.0598789392
30
0.0000000000
10
3.3666288309
20
18.0552419816
30
0.0000000000
11
3.5733182475
21
18.3187059685
31
0.0000000000
11
3.5288402482
21
18.2924496083
31
0.0000000000
11
3.4891580577
21
18.2642813462
31
0.0000000000
11
3.4545978899
21
18.2344330575
31
0.0000000000
11
3.4254586365
21
18.2031655723
31
0.0000000000
11
3.4019621715
21
18.1707159766
31
0.0000000000
11
3.3843275125
21
18.1373895715
31
0.0000000000
11
3.3726788987
21
18.1034199928
31
0.0000000000
11
3.3671299033
21
18.0691402732
31
0.0000000000
11
3.3666288309
21
18.0552419816
31
0.0000000000
0
SPLINE
5
335
100
AcDbEntity
8
0
100
AcDbSpline
62
7
6
CONTINUOUS
70
0
71
3
72
18
73
14
74
12
42
0.0000001000
43
0.0000001000
44
0.0000000001
12
0.0000000000
22
0.4702803448
32
0.0000000000
13
-0.4210034427
23
0.2104746044
33
0.0000000000
40
0.0000000000
40
0.0000000000
40
0.0000000000
40
0.0000000000
40
0.1169557852
40
0.2294319875
40
0.3371200122
40
0.4402097751
40
0.5385721906
40
0.6327398663
40
0.7229415084
40
0.8100059166
40
0.8946242844
40
0.9777970705
40
1.0000000000
40
1.0000000000
40
1.0000000000
40
1.0000000000
10
13.3753179439
20
21.5580565133
30
0.0000000000
10
13.3753179439
20
21.5763905156
30
0.0000000000
10
13.3740981316
20
21.6123717040
30
0.0000000000
10
13.3683776164
20
21.6649593234
30
0.0000000000
10
13.3588366021
20
21.7147879698
30
0.0000000000
10
13.3455437199
20
21.7614616076
30
0.0000000000
10
13.3285768200
20
21.8046701327
30
0.0000000000
10
13.3080606343
20
21.8440593249
30
0.0000000000
10
13.2841158455
20
21.8793572014
30
0.0000000000
10
13.2569202045
20
21.9102647086
30
0.0000000000
10
13.2266567886
20
21.9365390316
30
0.0000000000
10
13.2015658915
20
21.9527730530
30
0.0000000000
10
13.1869203215
20
21.9604502733
30
0.0000000000
10
13.1838044849
20
21.9620079909
30
0.0000000000
11
13.3753179439
21
21.5580565133
31
0.0000000000
11
13.3733796199
21
21.6130243555
31
0.0000000000
11
13.3675754155
21
21.6656002907
31
0.0000000000
11
13.3579590109
21
21.7153224696
31
0.0000000000
11
13.3445810569
21
21.7619212503
31
0.0000000000
11
13.3275737405
21
21.8049392173
31
0.0000000000
11
13.3070200417
21
21.8441658030
31
0.0000000000
11
13.2831216898
21
21.8792133451
31
0.0000000000
11
13.2560082621
21
21.9098944280
31
0.0000000000
11
13.2259169660
21
21.9359348698
31
0.0000000000
11
13.1930596522
21
21.9571561589
31
0.0000000000
11
13.1838044849
21
21.9620079909
31
0.0000000000
0
SPLINE
5
336
100
AcDbEntity
8
0
100
AcDbSpline
62
7
6
CONTINUOUS
70
0
71
3
72
15
73
11
74
9
42
0.0000001000
43
0.0000001000
44
0.0000000001
12
0.3118571736
22
0.1440259774
32
0.0000000000
13
0.3074952756
23
-0.1537310599
33
0.0000000000
40
0.0000000000
40
0.0000000000
40
0.0000000000
40
0.0000000000
40
0.1461823221
40
0.2863861139
40
0.4207020330
40
0.5499019967
40
0.6744059085
40
0.7954846060
40
0.9139916500
40
1.0000000000
40
1.0000000000
40
1.0000000000
40
1.0000000000
10
11.6439428476
20
22.5520896397
30
0.0000000000
10
11.6591388496
20
22.5591076569
30
0.0000000000
10
11.6895053912
20
22.5716187366
30
0.0000000000
10
11.7356257612
20
22.5857759156
30
0.0000000000
10
11.7810468912
20
22.5948235095
30
0.0000000000
10
11.8254065065
20
22.5986739827
30
0.0000000000
10
11.8684060111
20
22.5972840755
30
0.0000000000
10
11.9096840858
20
22.5906469411
30
0.0000000000
10
11.9454844375
20
22.5798370669
30
0.0000000000
10
11.9669790981
20
22.5704202871
30
0.0000000000
10
11.9757948185
20
22.5660129021
30
0.0000000000
11
11.6439428476
21
22.5520896397
31
0.0000000000
11
11.6904074592
21
22.5711311533
31
0.0000000000
11
11.7364774158
21
22.5851691525
31
0.0000000000
11
11.7817468286
21
22.5940832657
31
0.0000000000
11
11.8259702705
21
22.5978236585
31
0.0000000000
11
11.8687132443
21
22.5963548154
31
0.0000000000
11
11.9097664099
21
22.5896839944
31
0.0000000000
11
11.9487245118
21
22.5778761145
31
0.0000000000
11
11.9757948185
21
22.5660129021
31
0.0000000000
0
SPLINE
5
337
100
AcDbEntity
8
0
100
AcDbSpline
62
7
6
CONTINUOUS
70
0
71
3
72
18
73
14
74
12
42
0.0000001000
43
0.0000001000
44
0.0000000001
12
0.0000000000
22
0.4702803448
32
0.0000000000
13
-0.4210034427
23
0.2104746044
33
0.0000000000
40
0.0000000000
40
0.0000000000
40
0.0000000000
40
0.0000000000
40
0.1169557852
40
0.2294319875
40
0.3371200122
40
0.4402097751
40
0.5385721906
40
0.6327398663
40
0.7229415084
40
0.8100059166
40
0.8946242844
40
0.9777970705
40
1.0000000000
40
1.0000000000
40
1.0000000000
40
1.0000000000
10
3.3344016510
20
26.5785146597
30
0.0000000000
10
3.3344016510
20
26.5968486621
30
0.0000000000
10
3.3331818388
20
26.6328298504
30
0.0000000000
10
3.3274613235
20
26.6854174698
30
0.0000000000
10
3.3179203093
20
26.7352461162
30
0.0000000000
10
3.3046274271
20
26.7819197541
30
0.0000000000
10
3.2876605272
20
26.8251282791
30
0.0000000000
10
3.2671443415
20
26.8645174713
30
0.0000000000
10
3.2431995526
20
26.8998153479
30
0.0000000000
10
3.2160039116
20
26.9307228551
30
0.0000000000
10
3.1857404957
20
26.9569971780
30
0.0000000000
10
3.1606495986
20
26.9732311994
30
0.0000000000
10
3.1460040286
20
26.9809084197
30
0.0000000000
10
3.1428881920
20
26.9824661373
30
0.0000000000
11
3.3344016510
21
26.5785146597
31
0.0000000000
11
3.3324633271
21
26.6334825019
31
0.0000000000
11
3.3266591227
21
26.6860584371
31
0.0000000000
11
3.3170427180
21
26.7357806160
31
0.0000000000
11
3.3036647640
21
26.7823793967
31
0.0000000000
11
3.2866574477
21
26.8253973637
31
0.0000000000
11
3.2661037489
21
26.8646239494
31
0.0000000000
11
3.2422053970
21
26.8996714916
31
0.0000000000
11
3.2150919692
21
26.9303525744
31
0.0000000000
11
3.1850006732
21
26.9563930162
31
0.0000000000
11
3.1521433593
21
26.9776143054
31
0.0000000000
11
3.1428881920
21
26.9824661373
31
0.0000000000
0
SPLINE
5
338
100
AcDbEntity
8
0
100
AcDbSpline
62
7
6
CONTINUOUS
70
0
71
3
72
15
73
11
74
9
42
0.0000001000
43
0.0000001000
44
0.0000000001
12
0.3118571736
22
0.1440259774
32
0.0000000000
13
0.3074952755
23
-0.1537310599
33
0.0000000000
40
0.0000000000
40
0.0000000000
40
0.0000000000
40
0.0000000000
40
0.1461823221
40
0.2863861139
40
0.4207020330
40
0.5499019967
40
0.6744059085
40
0.7954846060
40
0.9139916500
40
1.0000000000
40
1.0000000000
40
1.0000000000
40
1.0000000000
10
1.6030265548
20
27.5725477861
30
0.0000000000
10
1.6182225567
20
27.5795658034
30
0.0000000000
10
1.6485890983
20
27.5920768831
30
0.0000000000
10
1.6947094684
20
27.6062340620
30
0.0000000000
10
1.7401305984
20
27.6152816559
30
0.0000000000
10
1.7844902136
20
27.6191321291
30
0.0000000000
10
1.8274897183
20
27.6177422219
30
0.0000000000
10
1.8687677929
20
27.6111050876
30
0.0000000000
10
1.9045681446
20
27.6002952133
30
0.0000000000
10
1.9260628052
20
27.5908784335
30
0.0000000000
10
1.9348785256
20
27.5864710486
30
0.0000000000
11
1.6030265548
21
27.5725477861
31
0.0000000000
11
1.6494911664
21
27.5915892997
31
0.0000000000
11
1.6955611229
21
27.6056272989
31
0.0000000000
11
1.7408305358
21
27.6145414122
31
0.0000000000
11
1.7850539777
21
27.6182818050
31
0.0000000000
11
1.8277969515
21
27.6168129618
31
0.0000000000
11
1.8688501170
21
27.6101421409
31
0.0000000000
11
1.9078082189
21
27.5983342610
31
0.0000000000
11
1.9348785256
21
27.5864710486
31
0.0000000000
0
SPLINE
5
339
100
AcDbEntity
8
0
100
AcDbSpline
62
7
6
CONTINUOUS
70
0
71
3
72
15
73
11
74
9
42
0.0000001000
43
0.0000001000
44
0.0000000001
12
0.0000000000
22
-0.1548716404
32
0.0000000000
13
-0.1364789914
23
-0.0736554468
33
0.0000000000
40
0.0000000000
40
0.0000000000
40
0.0000000000
40
0.0000000000
40
0.1530742171
40
0.2986100703
40
0.4360028993
40
0.5660646767
40
0.6888700053
40
0.8061372262
40
0.9191649245
40
1.0000000000
40
1.0000000000
40
1.0000000000
40
1.0000000000
10
16.4112979529
20
-19.8449931456
30
0.0000000000
10
16.4112979529
20
-19.8528954307
30
0.0000000000
10
16.4106105914
20
-19.8683230336
30
0.0000000000
10
16.4073496794
20
-19.8906348220
30
0.0000000000
10
16.4019153353
20
-19.9113025117
30
0.0000000000
10
16.3943694964
20
-19.9300468823
30
0.0000000000
10
16.3847792744
20
-19.9466549291
30
0.0000000000
10
16.3732579047
20
-19.9608866501
30
0.0000000000
10
16.3611061186
20
-19.9715178260
30
0.0000000000
10
16.3526037376
20
-19.9768662469
30
0.0000000000
10
16.3489263078
20
-19.9788508948
30
0.0000000000
11
16.4112979529
21
-19.8449931456
31
0.0000000000
11
16.4101869851
21
-19.8686739550
31
0.0000000000
11
16.4068636029
21
-19.8909669722
31
0.0000000000
11
16.4013829078
21
-19.9115272743
31
0.0000000000
11
16.3937893622
21
-19.9301840080
31
0.0000000000
11
16.3842136957
21
-19.9466166389
31
0.0000000000
11
16.3727357513
21
-19.9606911562
31
0.0000000000
11
16.3595324087
21
-19.9721841647
31
0.0000000000
11
16.3489263078
21
-19.9788508948
31
0.0000000000
0
SPLINE
5
33A
100
AcDbEntity
8
0
100
AcDbSpline
62
7
6
CONTINUOUS
70
0
71
3
72
21
73
17
74
15
42
0.0000001000
43
0.0000001000
44
0.0000000001
12
0.3292825474
22
-0.1646412737
32
0.0000000000
13
0.0000000000
23
-0.3681490799
33
0.0000000000
40
0.0000000000
40
0.0000000000
40
0.0000000000
40
0.0000000000
40
0.0618304050
40
0.1269270025
40
0.1948482492
40
0.2655399816
40
0.3382377303
40
0.4127541376
40
0.4883113456
40
0.5644056063
40
0.6405225261
40
0.7158325832
40
0.7900855689
40
0.8623933234
40
0.9325770472
40
1.0000000000
40
1.0000000000
40
1.0000000000
40
1.0000000000
10
0.2235699996
20
29.3295193030
30
0.0000000000
10
0.2303565573
20
29.3261260241
30
0.0000000000
10
0.2439039454
20
29.3183716147
30
0.0000000000
10
0.2634131576
20
29.3044902714
30
0.0000000000
10
0.2824287570
20
29.2882147060
30
0.0000000000
10
0.3006919307
20
29.2697673859
30
0.0000000000
10
0.3180024751
20
29.2493530980
30
0.0000000000
10
0.3341264827
20
29.2272477193
30
0.0000000000
10
0.3488750271
20
29.2037097703
30
0.0000000000
10
0.3620604570
20
29.1790394848
30
0.0000000000
10
0.3735137685
20
29.1535520338
30
0.0000000000
10
0.3831012913
20
29.1275458991
30
0.0000000000
10
0.3906929887
20
29.1013739336
30
0.0000000000
10
0.3962037410
20
29.0753265317
30
0.0000000000
10
0.3995583295
20
29.0497595133
30
0.0000000000
10
0.4003466949
20
29.0328655237
30
0.0000000000
10
0.4003466949
20
29.0245916244
30
0.0000000000
11
0.2235699996
21
29.3295193030
31
0.0000000000
11
0.2433562857
21
29.3182654925
31
0.0000000000
11
0.2629143941
21
29.3044158094
31
0.0000000000
11
0.2819398789
21
29.2881896521
31
0.0000000000
11
0.3002750276
21
29.2697200025
31
0.0000000000
11
0.3176045011
21
29.2493244115
31
0.0000000000
11
0.3337859147
21
29.2271717730
31
0.0000000000
11
0.3485644091
21
29.2036060442
31
0.0000000000
11
0.3617719279
21
29.1789008334
31
0.0000000000
11
0.3732537784
21
29.1533387413
31
0.0000000000
11
0.3828327394
21
29.1273207219
31
0.0000000000
11
0.3904288133
21
29.1010611377
31
0.0000000000
11
0.3959112044
21
29.0750117700
31
0.0000000000
11
0.3992354826
21
29.0493884367
31
0.0000000000
11
0.4003466949
21
29.0245916244
31
0.0000000000
0
SPLINE
5
33B
100
AcDbEntity
8
0
100
AcDbSpline
62
7
6
CONTINUOUS
70
0
71
3
72
21
73
17
74
15
42
0.0000001000
43
0.0000001000
44
0.0000000001
12
0.3292079164
22
-0.1646039582
32
0.0000000000
13
0.0000000000
23
-0.3680656399
33
0.0000000000
40
0.0000000000
40
0.0000000000
40
0.0000000000
40
0.0000000000
40
0.0618521799
40
0.1269655000
40
0.1948987269
40
0.2655972083
40
0.3382965201
40
0.4128100452
40
0.4883601078
40
0.5644450417
40
0.6405510013
40
0.7158502513
40
0.7900938764
40
0.8623948195
40
0.9325754586
40
1.0000000000
40
1.0000000000
40
1.0000000000
40
1.0000000000
10
16.2345481816
20
21.3240302120
30
0.0000000000
10
16.2413355907
20
21.3206365074
30
0.0000000000
10
16.2548840856
20
21.3128816409
30
0.0000000000
10
16.2743941942
20
21.2990002295
30
0.0000000000
10
16.2934091928
20
21.2827259931
30
0.0000000000
10
16.3116704739
20
21.2642815720
30
0.0000000000
10
16.3289780680
20
21.2438718609
30
0.0000000000
10
16.3450983534
20
21.2217727273
30
0.0000000000
10
16.3598428046
20
21.1982424452
30
0.0000000000
10
16.3730241038
20
21.1735809568
30
0.0000000000
10
16.3844736071
20
21.1481029206
30
0.0000000000
10
16.3940578836
20
21.1221063552
30
0.0000000000
10
16.4016470783
20
21.0959435414
30
0.0000000000
10
16.4071561380
20
21.0699043645
30
0.0000000000
10
16.4105098111
20
21.0443441480
30
0.0000000000
10
16.4112979529
20
21.0274541693
30
0.0000000000
10
16.4112979529
20
21.0191819503
30
0.0000000000
11
16.2345481816
21
21.3240302120
31
0.0000000000
11
16.2543370321
21
21.3127751345
31
0.0000000000
11
16.2738959696
21
21.2989253705
31
0.0000000000
11
16.2929208704
21
21.2827004669
31
0.0000000000
11
16.3112540817
21
21.2642337052
31
0.0000000000
11
16.3285805181
21
21.2438427386
31
0.0000000000
11
16.3447581645
21
21.2216963618
31
0.0000000000
11
16.3595324087
21
21.1981385136
31
0.0000000000
11
16.3727357513
21
21.1734421625
31
0.0000000000
11
16.3842136957
21
21.1478897007
31
0.0000000000
11
16.3937893622
21
21.1218814034
31
0.0000000000
11
16.4013829078
21
21.0956311241
31
0.0000000000
11
16.4068636029
21
21.0695901269
31
0.0000000000
11
16.4101869851
21
21.0439737275
31
0.0000000000
11
16.4112979529
21
21.0191819503
31
0.0000000000
0
SPLINE
5
33C
100
AcDbEntity
8
0
100
AcDbSpline
62
7
6
CONTINUOUS
70
0
71
3
72
14
73
10
74
8
42
0.0000001000
43
0.0000001000
44
0.0000000001
12
-0.1078375592
22
0.0539187796
32
0.0000000000
13
-0.0000180400
23
0.1208611180
33
0.0000000000
40
0.0000000000
40
0.0000000000
40
0.0000000000
40
0.0000000000
40
0.1886068153
40
0.3626267087
40
0.5218490799
40
0.6677644490
40
0.8021347176
40
0.9290815808
40
1.0000000000
40
1.0000000000
40
1.0000000000
40
1.0000000000
10
-12.4148413216
20
19.6141797412
30
0.0000000000
10
-12.4216209545
20
19.6175695576
30
0.0000000000
10
-12.4343706753
20
19.6246892926
30
0.0000000000
10
-12.4514823289
20
19.6368988207
30
0.0000000000
10
-12.4656119698
20
19.6500785103
30
0.0000000000
10
-12.4765405986
20
19.6640648733
30
0.0000000000
10
-12.4840882190
20
19.6787129339
30
0.0000000000
10
-12.4875188684
20
19.6917397712
30
0.0000000000
10
-12.4880621047
20
19.6997116663
30
0.0000000000
10
-12.4880625312
20
19.7025687595
30
0.0000000000
11
-12.4148413216
21
19.6141797412
31
0.0000000000
11
-12.4346511577
21
19.6253448157
31
0.0000000000
11
-12.4516674883
21
19.6376184596
31
0.0000000000
11
-12.4656202884
21
19.6508031861
31
0.0000000000
11
-12.4763467033
21
19.6647472884
31
0.0000000000
11
-12.4836586842
21
19.6792038067
31
0.0000000000
11
-12.4874800102
21
19.6940245782
31
0.0000000000
11
-12.4880625312
21
19.7025687595
31
0.0000000000
0
SPLINE
5
33D
100
AcDbEntity
8
0
100
AcDbSpline
62
7
6
CONTINUOUS
70
0
71
3
72
20
73
16
74
14
42
0.0000001000
43
0.0000001000
44
0.0000000001
12
-0.3247014228
22
-0.1567802596
32
0.0000000000
13
-0.3225040326
23
0.1612520163
33
0.0000000000
40
0.0000000000
40
0.0000000000
40
0.0000000000
40
0.0000000000
40
0.0684018357
40
0.1410316459
40
0.2171626099
40
0.2962985772
40
0.3773784088
40
0.4598854627
40
0.5425844847
40
0.6249624422
40
0.7057878796
40
0.7845498053
40
0.8601985326
40
0.9322509056
40
1.0000000000
40
1.0000000000
40
1.0000000000
40
1.0000000000
10
4.9392732688
20
11.1108139625
30
0.0000000000
10
4.9318698777
20
11.1072392767
30
0.0000000000
10
4.9162451904
20
11.1006006288
30
0.0000000000
10
4.8914476291
20
11.0923798149
30
0.0000000000
10
4.8648642148
20
11.0856832259
30
0.0000000000
10
4.8368935965
20
11.0806123804
30
0.0000000000
10
4.8078983764
20
11.0772328271
30
0.0000000000
10
4.7783245895
20
11.0755971982
30
0.0000000000
10
4.7485501944
20
11.0757264268
30
0.0000000000
10
4.7190378095
20
11.0776184836
30
0.0000000000
10
4.6901645485
20
11.0812491516
30
0.0000000000
10
4.6623744854
20
11.0865619109
30
0.0000000000
10
4.6360276552
20
11.0934881522
30
0.0000000000
10
4.6115190445
20
11.1019229482
30
0.0000000000
10
4.5961150996
20
11.1087015306
30
0.0000000000
10
4.5888319809
20
11.1123430899
30
0.0000000000
11
4.9392732688
21
11.1108139625
31
0.0000000000
11
4.9166007915
21
11.1011054105
31
0.0000000000
11
4.8917602664
21
11.0928127456
31
0.0000000000
11
4.8651513197
21
11.0860675133
31
0.0000000000
11
4.8370801607
21
11.0809484808
31
0.0000000000
11
4.8080439161
21
11.0775453483
31
0.0000000000
11
4.7783401963
21
11.0758936344
31
0.0000000000
11
4.7485216550
21
11.0760237456
31
0.0000000000
11
4.7188801120
21
11.0779344086
31
0.0000000000
11
4.6899670754
21
11.0815903991
31
0.0000000000
11
4.6620788707
21
11.0869536065
31
0.0000000000
11
4.6357094177
21
11.0939300066
31
0.0000000000
11
4.6111621299
21
11.1024381719
31
0.0000000000
11
4.5888319809
21
11.1123430899
31
0.0000000000
0
SPLINE
5
33E
100
AcDbEntity
8
0
100
AcDbSpline
62
9
6
CONTINUOUS
70
0
71
3
72
14
73
10
74
8
42
0.0000001000
43
0.0000001000
44
0.0000000001
12
0.0011675458
22
-0.0966966634
32
0.0000000000
13
0.0862850779
23
-0.0431425389
33
0.0000000000
40
0.0000000000
40
0.0000000000
40
0.0000000000
40
0.0000000000
40
0.0572168800
40
0.1870167811
40
0.3240144018
40
0.4719707993
40
0.6333237477
40
0.8092742175
40
1.0000000000
40
1.0000000000
40
1.0000000000
40
1.0000000000
10
-2.2061200387
20
-9.9838175606
30
0.0000000000
10
-2.2060977709
20
-9.9856617878
30
0.0000000000
10
-2.2057059120
20
-9.9916856695
30
0.0000000000
10
-2.2032146197
20
-10.0018988640
30
0.0000000000
10
-2.1972529013
20
-10.0139349198
30
0.0000000000
10
-2.1885106349
20
-10.0254090142
30
0.0000000000
10
-2.1771471999
20
-10.0361850333
30
0.0000000000
10
-2.1633369181
20
-10.0461346412
30
0.0000000000
10
-2.1530280107
20
-10.0519097513
30
0.0000000000
10
-2.1475424143
20
-10.0546525495
30
0.0000000000
11
-2.2061200387
21
-9.9838175606
31
0.0000000000
11
-2.2057600804
21
-9.9893356715
31
0.0000000000
11
-2.2028477927
21
-10.0015140470
31
0.0000000000
11
-2.1970670129
21
-10.0133988362
31
0.0000000000
11
-2.1885020380
21
-10.0248167322
31
0.0000000000
11
-2.1772777645
21
-10.0356012365
31
0.0000000000
11
-2.1635578676
21
-10.0455950865
31
0.0000000000
11
-2.1475424143
21
-10.0546525495
31
0.0000000000
0
SPLINE
5
33F
100
AcDbEntity
8
0
100
AcDbSpline
62
7
6
CONTINUOUS
70
0
71
3
72
20
73
16
74
14
42
0.0000001000
43
0.0000001000
44
0.0000000001
12
0.0030684102
22
-0.2029494919
32
0.0000000000
13
0.1036232878
23
-0.1744951168
33
0.0000000000
40
0.0000000000
40
0.0000000000
40
0.0000000000
40
0.0000000000
40
0.0577414072
40
0.1335608183
40
0.2103561047
40
0.2880164536
40
0.3664154968
40
0.4454114187
40
0.5248460404
40
0.6045519569
40
0.6843428016
40
0.7640147817
40
0.8433455077
40
0.9220936261
40
1.0000000000
40
1.0000000000
40
1.0000000000
40
1.0000000000
10
-2.1883823372
20
-11.2829894518
30
0.0000000000
10
-2.1883232791
20
-11.2868956482
30
0.0000000000
10
-2.1879769839
20
-11.2959277425
30
0.0000000000
10
-2.1867292927
20
-11.3101098976
30
0.0000000000
10
-2.1845695585
20
-11.3255434873
30
0.0000000000
10
-2.1816461909
20
-11.3410276411
30
0.0000000000
10
-2.1780037754
20
-11.3565109221
30
0.0000000000
10
-2.1736849523
20
-11.3719434725
30
0.0000000000
10
-2.1687312304
20
-11.3872765992
30
0.0000000000
10
-2.1631838493
20
-11.4024619811
30
0.0000000000
10
-2.1570845598
20
-11.4174512626
30
0.0000000000
10
-2.1504766165
20
-11.4321952889
30
0.0000000000
10
-2.1434054628
20
-11.4466441889
30
0.0000000000
10
-2.1359195902
20
-11.4607471843
30
0.0000000000
10
-2.1306523508
20
-11.4699452808
30
0.0000000000
10
-2.1279613793
20
-11.4744767081
30
0.0000000000
11
-2.1883823372
21
-11.2829894518
31
0.0000000000
11
-2.1879405167
21
-11.2947000796
31
0.0000000000
11
-2.1866052190
21
-11.3100291379
31
0.0000000000
11
-2.1844564215
21
-11.3254654497
31
0.0000000000
11
-2.1815417857
21
-11.3409543169
31
0.0000000000
11
-2.1779060252
21
-11.3564439691
31
0.0000000000
11
-2.1735918799
21
-11.3718843547
31
0.0000000000
11
-2.1686411028
21
-11.3872261198
31
0.0000000000
11
-2.1630948228
21
-11.4024214120
31
0.0000000000
11
-2.1569948843
21
-11.4174216380
31
0.0000000000
11
-2.1503845491
21
-11.4321776142
31
0.0000000000
11
-2.1433093114
21
-11.4466393427
31
0.0000000000
11
-2.1358176164
21
-11.4607560672
31
0.0000000000
11
-2.1279613793
21
-11.4744767081
31
0.0000000000
0
SPLINE
5
340
100
AcDbEntity
8
0
100
AcDbSpline
62
7
6
CONTINUOUS
70
0
71
3
72
15
73
11
74
9
42
0.0000001000
43
0.0000001000
44
0.0000000001
12
-0.2979219638
22
0.1489417927
32
0.0000000000
13
-0.2981333902
23
-0.1478763594
33
0.0000000000
40
0.0000000000
40
0.0000000000
40
0.0000000000
40
0.0000000000
40
0.0856604763
40
0.2035595409
40
0.3240281029
40
0.4480782154
40
0.5771147727
40
0.7116651546
40
0.8525797443
40
1.0000000000
40
1.0000000000
40
1.0000000000
40
1.0000000000
10
13.1838044849
20
21.9620079909
30
0.0000000000
10
13.1752977724
20
21.9662607992
30
0.0000000000
10
13.1545518282
20
21.9753061215
30
0.0000000000
10
13.1199602221
20
21.9855092547
30
0.0000000000
10
13.0800713837
20
21.9914399432
30
0.0000000000
10
13.0385252891
20
21.9920871894
30
0.0000000000
10
12.9956728436
20
21.9874669108
30
0.0000000000
10
12.9518023338
20
21.9776302520
30
0.0000000000
10
12.9072622996
20
21.9626728245
30
0.0000000000
10
12.8779890845
20
21.9496583283
30
0.0000000000
10
12.8633387843
20
21.9423916713
30
0.0000000000
11
13.1838044849
21
21.9620079909
31
0.0000000000
11
13.1576630161
21
21.9734068624
31
0.0000000000
11
13.1200416144
21
21.9845463922
31
0.0000000000
11
13.0803970333
21
21.9905129209
31
0.0000000000
11
13.0391206233
21
21.9912484822
31
0.0000000000
11
12.9964145418
21
21.9867494091
31
0.0000000000
11
12.9526983780
21
21.9770586714
31
0.0000000000
11
12.9082091381
21
21.9622303138
31
0.0000000000
11
12.8633387843
21
21.9423916713
31
0.0000000000
0
SPLINE
5
341
100
AcDbEntity
8
0
100
AcDbSpline
62
7
6
CONTINUOUS
70
0
71
3
72
15
73
11
74
9
42
0.0000001000
43
0.0000001000
44
0.0000000001
12
-0.2979219638
22
0.1489417927
32
0.0000000000
13
-0.2981333902
23
-0.1478763594
33
0.0000000000
40
0.0000000000
40
0.0000000000
40
0.0000000000
40
0.0000000000
40
0.0856604763
40
0.2035595409
40
0.3240281029
40
0.4480782154
40
0.5771147727
40
0.7116651546
40
0.8525797443
40
1.0000000000
40
1.0000000000
40
1.0000000000
40
1.0000000000
10
3.1428881920
20
26.9824661373
30
0.0000000000
10
3.1343814796
20
26.9867189456
30
0.0000000000
10
3.1136355353
20
26.9957642679
30
0.0000000000
10
3.0790439293
20
27.0059674011
30
0.0000000000
10
3.0391550909
20
27.0118980896
30
0.0000000000
10
2.9976089962
20
27.0125453359
30
0.0000000000
10
2.9547565508
20
27.0079250572
30
0.0000000000
10
2.9108860410
20
26.9980883985
30
0.0000000000
10
2.8663460068
20
26.9831309709
30
0.0000000000
10
2.8370727916
20
26.9701164747
30
0.0000000000
10
2.8224224914
20
26.9628498178
30
0.0000000000
11
3.1428881920
21
26.9824661373
31
0.0000000000
11
3.1167467232
21
26.9938650088
31
0.0000000000
11
3.0791253215
21
27.0050045386
31
0.0000000000
11
3.0394807404
21
27.0109710673
31
0.0000000000
11
2.9982043304
21
27.0117066286
31
0.0000000000
11
2.9554982490
21
27.0072075556
31
0.0000000000
11
2.9117820851
21
26.9975168178
31
0.0000000000
11
2.8672928453
21
26.9826884602
31
0.0000000000
11
2.8224224914
21
26.9628498178
31
0.0000000000
0
SPLINE
5
342
100
AcDbEntity
8
0
100
AcDbSpline
62
9
6
CONTINUOUS
70
0
71
3
72
15
73
11
74
9
42
0.0000001000
43
0.0000001000
44
0.0000000001
12
0.1468862834
22
0.0678478163
32
0.0000000000
13
0.0023250712
23
0.1615127165
33
0.0000000000
40
0.0000000000
40
0.0000000000
40
0.0000000000
40
0.0000000000
40
0.0558574797
40
0.1712447032
40
0.2905959758
40
0.4160535543
40
0.5491399969
40
0.6907286038
40
0.8410945990
40
1.0000000000
40
1.0000000000
40
1.0000000000
40
1.0000000000
10
8.6256251478
20
-24.0317103699
30
0.0000000000
10
8.6283600470
20
-24.0304471005
30
0.0000000000
10
8.6365574919
20
-24.0261693568
30
0.0000000000
10
8.6492853274
20
-24.0168992637
30
0.0000000000
10
8.6626080357
20
-24.0026591178
30
0.0000000000
10
8.6737937713
20
-23.9855540213
30
0.0000000000
10
8.6827052504
20
-23.9658564605
30
0.0000000000
10
8.6892384389
20
-23.9438578776
30
0.0000000000
10
8.6933171412
20
-23.9198765767
30
0.0000000000
10
8.6943413880
20
-23.9032224561
30
0.0000000000
10
8.6944645434
20
-23.8946673751
30
0.0000000000
11
8.6256251478
21
-24.0317103699
31
0.0000000000
11
8.6336336490
21
-24.0275303463
31
0.0000000000
11
8.6487253507
21
-24.0165927142
31
0.0000000000
11
8.6619523345
21
-24.0025671330
31
0.0000000000
11
8.6731217960
21
-23.9856580479
31
0.0000000000
11
8.6820709221
21
-23.9661119361
31
0.0000000000
11
8.6886692650
21
-23.9442137133
31
0.0000000000
11
8.6928206431
21
-23.9202825815
31
0.0000000000
11
8.6944645434
21
-23.8946673751
31
0.0000000000
0
SPLINE
5
343
100
AcDbEntity
8
0
100
AcDbSpline
62
9
6
CONTINUOUS
70
0
71
3
72
13
73
9
74
7
42
0.0000001000
43
0.0000001000
44
0.0000000001
12
0.1058563759
22
0.0570824423
32
0.0000000000
13
0.1081474234
23
-0.0521792803
33
0.0000000000
40
0.0000000000
40
0.0000000000
40
0.0000000000
40
0.0000000000
40
0.1274917485
40
0.2850704415
40
0.4489445434
40
0.6217041576
40
0.8050910851
40
1.0000000000
40
1.0000000000
40
1.0000000000
40
1.0000000000
10
-8.7304220617
20
26.0562839999
30
0.0000000000
10
-8.7259234569
20
26.0587098467
30
0.0000000000
10
-8.7154220081
20
26.0633156774
30
0.0000000000
10
-8.6978404566
20
26.0675222951
30
0.0000000000
10
-8.6779845603
20
26.0685452070
30
0.0000000000
10
-8.6572220445
20
26.0661501646
30
0.0000000000
10
-8.6358562247
20
26.0604046784
30
0.0000000000
10
-8.6218300428
20
26.0545837677
30
0.0000000000
10
-8.6148037439
20
26.0511936987
30
0.0000000000
11
-8.7304220617
21
26.0562839999
31
0.0000000000
11
-8.7163978503
21
26.0624425984
31
0.0000000000
11
-8.6980086015
21
26.0668993908
31
0.0000000000
11
-8.6783615370
21
26.0679942866
31
0.0000000000
11
-8.6577430443
21
26.0657113258
31
0.0000000000
11
-8.6364536710
21
26.0600837864
31
0.0000000000
11
-8.6148037439
21
26.0511936987
31
0.0000000000
0
SPLINE
5
344
100
AcDbEntity
8
0
100
AcDbSpline
62
7
6
CONTINUOUS
70
0
71
3
72
20
73
16
74
14
42
0.0000001000
43
0.0000001000
44
0.0000000001
12
0.0024187995
22
-0.2032127767
32
0.0000000000
13
0.1033698734
23
-0.1749407659
33
0.0000000000
40
0.0000000000
40
0.0000000000
40
0.0000000000
40
0.0000000000
40
0.0594133423
40
0.1350593459
40
0.2116882493
40
0.2891889287
40
0.3674347304
40
0.4462835839
40
0.5255770883
40
0.6051476358
40
0.6848086907
40
0.7643563171
40
0.8435680066
40
0.9222023074
40
1.0000000000
40
1.0000000000
40
1.0000000000
40
1.0000000000
10
-1.0054983422
20
-10.4638296161
30
0.0000000000
10
-1.0054504392
20
-10.4678541329
30
0.0000000000
10
-1.0051219200
20
-10.4769999763
30
0.0000000000
10
-1.0038896187
20
-10.4912919910
30
0.0000000000
10
-1.0017588190
20
-10.5067151446
30
0.0000000000
10
-0.9988651361
20
-10.5221919151
30
0.0000000000
10
-0.9952530253
20
-10.5376707489
30
0.0000000000
10
-0.9909650016
20
-10.5531016765
30
0.0000000000
10
-0.9860424517
20
-10.5684358961
30
0.0000000000
10
-0.9805264941
20
-10.5836249782
30
0.0000000000
10
-0.9744587583
20
-10.5986204566
30
0.0000000000
10
-0.9678823751
20
-10.6133730610
30
0.0000000000
10
-0.9608426612
20
-10.6278327963
30
0.0000000000
10
-0.9533879767
20
-10.6419487500
30
0.0000000000
10
-0.9481415322
20
-10.6511566509
30
0.0000000000
10
-0.9454608863
20
-10.6556933135
30
0.0000000000
11
-1.0054983422
21
-10.4638296161
31
0.0000000000
11
-1.0050728314
21
-10.4758954458
31
0.0000000000
11
-1.0037656148
21
-10.4912109091
31
0.0000000000
11
-1.0016457819
21
-10.5066368091
31
0.0000000000
11
-0.9987608574
21
-10.5221183217
31
0.0000000000
11
-0.9951554256
21
-10.5376035582
31
0.0000000000
11
-0.9908721021
21
-10.5530423550
31
0.0000000000
11
-0.9859525174
21
-10.5683852492
31
0.0000000000
11
-0.9804376810
21
-10.5835842802
31
0.0000000000
11
-0.9743693162
21
-10.5985907442
31
0.0000000000
11
-0.9677905614
21
-10.6133553423
31
0.0000000000
11
-0.9607467840
21
-10.6278279533
31
0.0000000000
11
-0.9532862986
21
-10.6419576863
31
0.0000000000
11
-0.9454608863
21
-10.6556933135
31
0.0000000000
0
SPLINE
5
345
100
AcDbEntity
8
0
100
AcDbSpline
62
7
6
CONTINUOUS
70
0
71
3
72
13
73
9
74
7
42
0.0000001000
43
0.0000001000
44
0.0000000001
12
0.1028968925
22
0.0475118767
32
0.0000000000
13
0.1012351303
23
-0.0506175651
33
0.0000000000
40
0.0000000000
40
0.0000000000
40
0.0000000000
40
0.0000000000
40
0.1422389580
40
0.2976986625
40
0.4596807589
40
0.6295805436
40
0.8095977393
40
1.0000000000
40
1.0000000000
40
1.0000000000
40
1.0000000000
10
-7.3102512135
20
26.8222937663
30
0.0000000000
10
-7.3053725645
20
26.8245464462
30
0.0000000000
10
-7.2947543863
20
26.8283792066
30
0.0000000000
10
-7.2775812585
20
26.8313674978
30
0.0000000000
10
-7.2591149358
20
26.8314333935
30
0.0000000000
10
-7.2399514355
20
26.8285353896
30
0.0000000000
10
-7.2203511422
20
26.8227346539
30
0.0000000000
10
-7.2075032594
20
26.8171436686
30
0.0000000000
10
-7.2010781268
20
26.8139311024
30
0.0000000000
11
-7.3102512135
21
26.8222937663
31
0.0000000000
11
-7.2951109969
21
26.8277758217
31
0.0000000000
11
-7.2777843383
21
26.8308404677
31
0.0000000000
11
-7.2594509921
21
26.8309740587
31
0.0000000000
11
-7.2404259420
21
26.8281740548
31
0.0000000000
11
-7.2208670277
21
26.8224648937
31
0.0000000000
11
-7.2010781268
21
26.8139311024
31
0.0000000000
0
SPLINE
5
346
100
AcDbEntity
8
0
100
AcDbSpline
62
7
6
CONTINUOUS
70
0
71
3
72
14
73
10
74
8
42
0.0000001000
43
0.0000001000
44
0.0000000001
12
-0.2041942102
22
-0.1722202124
32
0.0000000000
13
-0.2666582885
23
-0.0157617952
33
0.0000000000
40
0.0000000000
40
0.0000000000
40
0.0000000000
40
0.0000000000
40
0.0969811062
40
0.2079773190
40
0.3343432474
40
0.4767540268
40
0.6353723992
40
0.8099593880
40
1.0000000000
40
1.0000000000
40
1.0000000000
40
1.0000000000
10
4.4872075606
20
25.7311838461
30
0.0000000000
10
4.4806065671
20
25.7256164772
30
0.0000000000
10
4.4652498301
20
25.7150832835
30
0.0000000000
10
4.4384685241
20
25.7019249201
30
0.0000000000
10
4.4065936905
20
25.6904639107
30
0.0000000000
10
4.3697525608
20
25.6807757577
30
0.0000000000
10
4.3281077861
20
25.6729236505
30
0.0000000000
10
4.2818782417
20
25.6669682980
30
0.0000000000
10
4.2495002626
20
25.6643989406
30
0.0000000000
10
4.2326082945
20
25.6634004802
30
0.0000000000
11
4.4872075606
21
25.7311838461
31
0.0000000000
11
4.4660014668
21
25.7163036584
31
0.0000000000
11
4.4395008597
21
25.7030061497
31
0.0000000000
11
4.4078056146
21
25.6913943399
31
0.0000000000
11
4.3710579908
21
25.6815580631
31
0.0000000000
11
4.3294462029
21
25.6735744722
31
0.0000000000
11
4.2832063147
21
25.6675065660
31
0.0000000000
11
4.2326082945
21
25.6634004802
31
0.0000000000
0
SPLINE
5
347
100
AcDbEntity
8
0
100
AcDbSpline
62
7
6
CONTINUOUS
70
0
71
3
72
14
73
10
74
8
42
0.0000001000
43
0.0000001000
44
0.0000000001
12
0.1033903412
22
0.0494737186
32
0.0000000000
13
0.1024100091
23
-0.0512050045
33
0.0000000000
40
0.0000000000
40
0.0000000000
40
0.0000000000
40
0.0000000000
40
0.1138510736
40
0.2473289225
40
0.3847314923
40
0.5276669208
40
0.6773666513
40
0.8346621667
40
1.0000000000
40
1.0000000000
40
1.0000000000
40
1.0000000000
10
8.8106429348
20
18.7607091002
30
0.0000000000
10
8.8145666352
20
18.7625866456
30
0.0000000000
10
8.8233750776
20
18.7660713204
30
0.0000000000
10
8.8377355057
20
18.7694083934
30
0.0000000000
10
8.8535393268
20
18.7706220615
30
0.0000000000
10
8.8699677800
20
18.7695598836
30
0.0000000000
10
8.8868611779
20
18.7662442893
30
0.0000000000
10
8.9040579065
20
18.7607178947
30
0.0000000000
10
8.9153393252
20
18.7557223764
30
0.0000000000
10
8.9209834082
20
18.7529003349
30
0.0000000000
11
8.8106429348
21
18.7607091002
31
0.0000000000
11
8.8227657840
21
18.7655109795
31
0.0000000000
11
8.8376458802
21
18.7689967609
31
0.0000000000
11
8.8533288247
21
18.7702419785
31
0.0000000000
11
8.8696635906
21
18.7692345529
31
0.0000000000
11
8.8864928650
21
18.7659841035
31
0.0000000000
11
8.9036545666
21
18.7605218550
31
0.0000000000
11
8.9209834082
21
18.7529003349
31
0.0000000000
0
SPLINE
5
348
100
AcDbEntity
8
0
100
AcDbSpline
62
9
6
CONTINUOUS
70
0
71
3
72
35
73
31
74
29
42
0.0000001000
43
0.0000001000
44
0.0000000001
12
0.0005281545
22
-1.8971035061
32
0.0000000000
13
1.6958755421
23
0.8454003766
33
0.0000000000
40
0.0000000000
40
0.0000000000
40
0.0000000000
40
0.0000000000
40
0.0155122326
40
0.0380292006
40
0.0612596961
40
0.0855743583
40
0.1112687751
40
0.1385574836
40
0.1675787461
40
0.1984021522
40
0.2310392833
40
0.2654518678
40
0.3015609596
40
0.3392525911
40
0.3783847871
40
0.4187912061
40
0.4602867191
40
0.5026699016
40
0.5457278234
40
0.5892380110
40
0.6329726897
40
0.6767005943
40
0.7201911669
40
0.7632165244
40
0.8055548802
40
0.8469929333
40
0.8873307736
40
0.9263840708
40
0.9639867031
40
1.0000000000
40
1.0000000000
40
1.0000000000
40
1.0000000000
10
7.0297761985
20
17.5257190034
30
0.0000000000
10
7.0297789294
20
17.5159095665
30
0.0000000000
10
7.0311786847
20
17.4918604466
30
0.0000000000
10
7.0388808534
20
17.4537656300
30
0.0000000000
10
7.0544533189
20
17.4121581594
30
0.0000000000
10
7.0768835742
20
17.3715286286
30
0.0000000000
10
7.1059647993
20
17.3321542838
30
0.0000000000
10
7.1414616289
20
17.2942899958
30
0.0000000000
10
7.1831093705
20
17.2581789069
30
0.0000000000
10
7.2306104000
20
17.2240560488
30
0.0000000000
10
7.2836306516
20
17.1921483695
30
0.0000000000
10
7.3417991599
20
17.1626720045
30
0.0000000000
10
7.4047083083
20
17.1358298278
30
0.0000000000
10
7.4719165631
20
17.1118084882
30
0.0000000000
10
7.5429506287
20
17.0907764801
30
0.0000000000
10
7.6173095339
20
17.0728820324
30
0.0000000000
10
7.6944675054
20
17.0582518552
30
0.0000000000
10
7.7738786313
20
17.0469897562
30
0.0000000000
10
7.8549800966
20
17.0391758700
30
0.0000000000
10
7.9371970679
20
17.0348658627
30
0.0000000000
10
8.0199460977
20
17.0340905351
30
0.0000000000
10
8.1026401705
20
17.0368555141
30
0.0000000000
10
8.1846924256
20
17.0431412166
30
0.0000000000
10
8.2655208983
20
17.0529030361
30
0.0000000000
10
8.3445519578
20
17.0660715791
30
0.0000000000
10
8.4212255221
20
17.0825533712
30
0.0000000000
10
8.4949984537
20
17.1022313850
30
0.0000000000
10
8.5653498275
20
17.1249669066
30
0.0000000000
10
8.6317798370
20
17.1505978667
30
0.0000000000
10
8.6741065203
20
17.1699376275
30
0.0000000000
10
8.6944645434
20
17.1800861791
30
0.0000000000
11
7.0297761985
21
17.5257190034
31
0.0000000000
11
7.0314835143
21
17.4963567557
31
0.0000000000
11
7.0398610472
21
17.4545195788
31
0.0000000000
11
7.0551656883
21
17.4132460022
31
0.0000000000
11
7.0772881272
21
17.3728303245
31
0.0000000000
11
7.1060707816
21
17.3335601443
31
0.0000000000
11
7.1413082511
21
17.2957155010
31
0.0000000000
11
7.1827496967
21
17.2595656546
31
0.0000000000
11
7.2300994953
21
17.2253683859
31
0.0000000000
11
7.2830207157
21
17.1933669798
31
0.0000000000
11
7.3411359158
21
17.1637896480
31
0.0000000000
11
7.4040316358
21
17.1368468159
31
0.0000000000
11
7.4712593425
21
17.1127306414
31
0.0000000000
11
7.5423407687
21
17.0916127259
31
0.0000000000
11
7.6167690352
21
17.0736437122
31
0.0000000000
11
7.6940146019
21
17.0589515086
31
0.0000000000
11
7.7735266182
21
17.0476409606
31
0.0000000000
11
7.8547392914
21
17.0397926309
31
0.0000000000
11
7.9370735328
21
17.0354625732
31
0.0000000000
11
8.0199432695
21
17.0346817030
31
0.0000000000
11
8.1027574026
21
17.0374556761
31
0.0000000000
11
8.1849263977
21
17.0437648259
31
0.0000000000
11
8.2658646415
21
17.0535642980
31
0.0000000000
11
8.3449954319
21
17.0667843802
31
0.0000000000
11
8.4217537923
21
17.0833307261
31
0.0000000000
11
8.4955935731
21
17.1030856290
31
0.0000000000
11
8.5659888921
21
17.1259085237
31
0.0000000000
11
8.6324358011
21
17.1516359599
31
0.0000000000
11
8.6944645434
21
17.1800861791
31
0.0000000000
0
SPLINE
5
349
100
AcDbEntity
8
0
100
AcDbSpline
62
9
6
CONTINUOUS
70
0
71
3
72
14
73
10
74
8
42
0.0000001000
43
0.0000001000
44
0.0000000001
12
0.0000193406
22
-0.1208613400
32
0.0000000000
13
0.1078369398
23
-0.0539184699
33
0.0000000000
40
0.0000000000
40
0.0000000000
40
0.0000000000
40
0.0000000000
40
0.0709351019
40
0.1977503649
40
0.3322666906
40
0.4780654864
40
0.6374087147
40
0.8113588234
40
1.0000000000
40
1.0000000000
40
1.0000000000
40
1.0000000000
10
-12.4880625022
20
22.4885170863
30
0.0000000000
10
-12.4880620449
20
22.4856593158
30
0.0000000000
10
-12.4875189480
20
22.4776920369
30
0.0000000000
10
-12.4840891963
20
22.4646640705
30
0.0000000000
10
-12.4765440448
20
22.4500190888
30
0.0000000000
10
-12.4656123648
20
22.4360278152
30
0.0000000000
10
-12.4514847918
20
22.4228496936
30
0.0000000000
10
-12.4343705212
20
22.4106382618
30
0.0000000000
10
-12.4216221507
20
22.4035191479
30
0.0000000000
10
-12.4148413216
20
22.4001287334
30
0.0000000000
11
-12.4880625022
21
22.4885170863
31
0.0000000000
11
-12.4874796458
21
22.4799709113
31
0.0000000000
11
-12.4836634385
21
22.4651652961
31
0.0000000000
11
-12.4763444313
21
22.4506927022
31
0.0000000000
11
-12.4656269968
21
22.4367595512
31
0.0000000000
11
-12.4516639875
21
22.4235645736
31
0.0000000000
11
-12.4346545474
21
22.4112959652
31
0.0000000000
11
-12.4148413216
21
22.4001287334
31
0.0000000000
0
SPLINE
5
34A
100
AcDbEntity
8
0
100
AcDbSpline
62
7
6
CONTINUOUS
70
0
71
3
72
33
73
29
74
27
42
0.0000001000
43
0.0000001000
44
0.0000000001
12
0.0000889505
22
-1.4235812450
32
0.0000000000
13
1.2695980960
23
0.6396941561
33
0.0000000000
40
0.0000000000
40
0.0000000000
40
0.0000000000
40
0.0000000000
40
0.0143977072
40
0.0388425539
40
0.0641319362
40
0.0907014855
40
0.1189317700
40
0.1490571267
40
0.1812375565
40
0.2155259988
40
0.2519116995
40
0.2903169984
40
0.3306129843
40
0.3726351868
40
0.4161704840
40
0.4610047294
40
0.5068591316
40
0.5535015755
40
0.6006021312
40
0.6479319160
40
0.6951322088
40
0.7419840196
40
0.7881343100
40
0.8333705756
40
0.8773854470
40
0.9199732787
40
0.9609038676
40
1.0000000000
40
1.0000000000
40
1.0000000000
40
1.0000000000
10
-6.6742874619
20
23.0757001280
30
0.0000000000
10
-6.6742870350
20
23.0688680261
30
0.0000000000
10
-6.6733065259
20
23.0504357815
30
0.0000000000
10
-6.6673362593
20
23.0204766949
30
0.0000000000
10
-6.6542798212
20
22.9865828159
30
0.0000000000
10
-6.6352131970
20
22.9536068240
30
0.0000000000
10
-6.6103489118
20
22.9218162799
30
0.0000000000
10
-6.5799163965
20
22.8914415832
30
0.0000000000
10
-6.5441821782
20
22.8627120190
30
0.0000000000
10
-6.5034399136
20
22.8358431919
30
0.0000000000
10
-6.4580251234
20
22.8110454122
30
0.0000000000
10
-6.4083088985
20
22.7885156660
30
0.0000000000
10
-6.3546981367
20
22.7684355739
30
0.0000000000
10
-6.2976368357
20
22.7509702382
30
0.0000000000
10
-6.2375905631
20
22.7362616311
30
0.0000000000
10
-6.1750645426
20
22.7244335091
30
0.0000000000
10
-6.1105636644
20
22.7155813236
30
0.0000000000
10
-6.0446401287
20
22.7097810983
30
0.0000000000
10
-5.9778181821
20
22.7070789304
30
0.0000000000
10
-5.9106788351
20
22.7074984752
30
0.0000000000
10
-5.8437494024
20
22.7110363970
30
0.0000000000
10
-5.7776158469
20
22.7176616810
30
0.0000000000
10
-5.7127969203
20
22.7273223654
30
0.0000000000
10
-5.6498557861
20
22.7399343512
30
0.0000000000
10
-5.5892925780
20
22.7553975858
30
0.0000000000
10
-5.5316214820
20
22.7735811152
30
0.0000000000
10
-5.4773128678
20
22.7943369929
30
0.0000000000
10
-5.4428096664
20
22.8101606738
30
0.0000000000
10
-5.4262642080
20
22.8184971963
30
0.0000000000
11
-6.6742874619
21
23.0757001280
31
0.0000000000
11
-6.6731980455
21
23.0552429621
31
0.0000000000
11
-6.6664775061
21
23.0211469724
31
0.0000000000
11
-6.6536731338
21
22.9875517254
31
0.0000000000
11
-6.6349037625
21
22.9547724723
31
0.0000000000
11
-6.6103116156
21
22.9230560687
31
0.0000000000
11
-6.5801147890
21
22.8926856228
31
0.0000000000
11
-6.5445542353
21
22.8639028955
31
0.0000000000
11
-6.5039341215
21
22.8369549097
31
0.0000000000
11
-6.4585890826
21
22.8120634532
31
0.0000000000
11
-6.4088990568
21
22.7894373773
31
0.0000000000
11
-6.3552809562
21
22.7692662559
31
0.0000000000
11
-6.2981760761
21
22.7517162664
31
0.0000000000
11
-6.2380744883
21
22.7369375051
31
0.0000000000
11
-6.1754546375
21
22.7250479098
31
0.0000000000
11
-6.1108754535
21
22.7161528853
31
0.0000000000
11
-6.0448232909
21
22.7103198647
31
0.0000000000
11
-5.9779179424
21
22.7076029105
31
0.0000000000
11
-5.9106328700
21
22.7080216599
31
0.0000000000
11
-5.8436245610
21
22.7115717226
31
0.0000000000
11
-5.7773512193
21
22.7182289374
31
0.0000000000
11
-5.7124625919
21
22.7279283583
31
0.0000000000
11
-5.6494135700
21
22.7406016756
31
0.0000000000
11
-5.5887973915
21
22.7561306982
31
0.0000000000
11
-5.5310736593
21
22.7743972047
31
0.0000000000
11
-5.4767468595
21
22.7952431622
31
0.0000000000
11
-5.4262642080
21
22.8184971963
31
0.0000000000
0
SPLINE
5
34B
100
AcDbEntity
8
0
100
AcDbSpline
62
9
6
CONTINUOUS
70
0
71
3
72
16
73
12
74
10
42
0.0000001000
43
0.0000001000
44
0.0000000001
12
0.1468756730
22
0.0678166955
32
0.0000000000
13
0.0023254680
23
0.1615402797
33
0.0000000000
40
0.0000000000
40
0.0000000000
40
0.0000000000
40
0.0000000000
40
0.0070258649
40
0.1132577155
40
0.2218228600
40
0.3346595825
40
0.4532977182
40
0.5787876496
40
0.7117027662
40
0.8521838988
40
1.0000000000
40
1.0000000000
40
1.0000000000
40
1.0000000000
10
4.8704283310
20
-24.3747370798
30
0.0000000000
10
4.8707723072
20
-24.3745782561
30
0.0000000000
10
4.8763015090
20
-24.3719839796
30
0.0000000000
10
4.8866198197
20
-24.3658316914
30
0.0000000000
10
4.8999698108
20
-24.3541567901
30
0.0000000000
10
4.9115721912
20
-24.3398857913
30
0.0000000000
10
4.9212939222
20
-24.3232224430
30
0.0000000000
10
4.9290315549
20
-24.3043877719
30
0.0000000000
10
4.9347047578
20
-24.2836191263
30
0.0000000000
10
4.9382544174
20
-24.2611755348
30
0.0000000000
10
4.9391586883
20
-24.2456496301
30
0.0000000000
10
4.9392732688
20
-24.2376902120
30
0.0000000000
11
4.8704283310
21
-24.3747370798
31
0.0000000000
11
4.8714573037
21
-24.3742542830
31
0.0000000000
11
4.8862081714
21
-24.3654814077
31
0.0000000000
11
4.8994430179
21
-24.3539717802
31
0.0000000000
11
4.9109954719
21
-24.3398700845
31
0.0000000000
11
4.9207203108
21
-24.3233535889
31
0.0000000000
11
4.9284952864
21
-24.3046299176
31
0.0000000000
11
4.9342226620
21
-24.2839344404
31
0.0000000000
11
4.9378304402
21
-24.2615273140
31
0.0000000000
11
4.9392732688
21
-24.2376902120
31
0.0000000000
0
SPLINE
5
34C
100
AcDbEntity
8
0
100
AcDbSpline
62
7
6
CONTINUOUS
70
0
71
3
72
33
73
29
74
27
42
0.0000001000
43
0.0000001000
44
0.0000000001
12
0.0000889505
22
-1.4235812450
32
0.0000000000
13
1.2695980960
23
0.6396941561
33
0.0000000000
40
0.0000000000
40
0.0000000000
40
0.0000000000
40
0.0000000000
40
0.0143977072
40
0.0388425539
40
0.0641319362
40
0.0907014855
40
0.1189317700
40
0.1490571267
40
0.1812375565
40
0.2155259988
40
0.2519116995
40
0.2903169984
40
0.3306129843
40
0.3726351868
40
0.4161704840
40
0.4610047294
40
0.5068591316
40
0.5535015755
40
0.6006021312
40
0.6479319160
40
0.6951322088
40
0.7419840196
40
0.7881343100
40
0.8333705756
40
0.8773854470
40
0.9199732787
40
0.9609038676
40
1.0000000000
40
1.0000000000
40
1.0000000000
40
1.0000000000
10
3.3666288309
20
18.0552419816
30
0.0000000000
10
3.3666292578
20
18.0484098796
30
0.0000000000
10
3.3676097670
20
18.0299776351
30
0.0000000000
10
3.3735800335
20
18.0000185484
30
0.0000000000
10
3.3866364717
20
17.9661246695
30
0.0000000000
10
3.4057030958
20
17.9331486776
30
0.0000000000
10
3.4305673810
20
17.9013581335
30
0.0000000000
10
3.4609998963
20
17.8709834368
30
0.0000000000
10
3.4967341146
20
17.8422538726
30
0.0000000000
10
3.5374763793
20
17.8153850454
30
0.0000000000
10
3.5828911695
20
17.7905872657
30
0.0000000000
10
3.6326073943
20
17.7680575196
30
0.0000000000
10
3.6862181561
20
17.7479774275
30
0.0000000000
10
3.7432794572
20
17.7305120917
30
0.0000000000
10
3.8033257298
20
17.7158034847
30
0.0000000000
10
3.8658517502
20
17.7039753627
30
0.0000000000
10
3.9303526285
20
17.6951231772
30
0.0000000000
10
3.9962761641
20
17.6893229519
30
0.0000000000
10
4.0630981107
20
17.6866207840
30
0.0000000000
10
4.1302374578
20
17.6870403288
30
0.0000000000
10
4.1971668905
20
17.6905782506
30
0.0000000000
10
4.2633004459
20
17.6972035346
30
0.0000000000
10
4.3281193725
20
17.7068642190
30
0.0000000000
10
4.3910605068
20
17.7194762047
30
0.0000000000
10
4.4516237149
20
17.7349394393
30
0.0000000000
10
4.5092948109
20
17.7531229687
30
0.0000000000
10
4.5636034250
20
17.7738788464
30
0.0000000000
10
4.5981066264
20
17.7897025274
30
0.0000000000
10
4.6146520848
20
17.7980390498
30
0.0000000000
11
3.3666288309
21
18.0552419816
31
0.0000000000
11
3.3677182473
21
18.0347848157
31
0.0000000000
11
3.3744387867
21
18.0006888259
31
0.0000000000
11
3.3872431591
21
17.9670935790
31
0.0000000000
11
3.4060125304
21
17.9343143259
31
0.0000000000
11
3.4306046772
21
17.9025979223
31
0.0000000000
11
3.4608015038
21
17.8722274764
31
0.0000000000
11
3.4963620576
21
17.8434447490
31
0.0000000000
11
3.5369821714
21
17.8164967633
31
0.0000000000
11
3.5823272102
21
17.7916053068
31
0.0000000000
11
3.6320172361
21
17.7689792309
31
0.0000000000
11
3.6856353367
21
17.7488081095
31
0.0000000000
11
3.7427402167
21
17.7312581200
31
0.0000000000
11
3.8028418046
21
17.7164793587
31
0.0000000000
11
3.8654616554
21
17.7045897634
31
0.0000000000
11
3.9300408393
21
17.6956947388
31
0.0000000000
11
3.9960930019
21
17.6898617183
31
0.0000000000
11
4.0629983505
21
17.6871447641
31
0.0000000000
11
4.1302834229
21
17.6875635135
31
0.0000000000
11
4.1972917319
21
17.6911135762
31
0.0000000000
11
4.2635650735
21
17.6977707910
31
0.0000000000
11
4.3284537010
21
17.7074702119
31
0.0000000000
11
4.3915027228
21
17.7201435292
31
0.0000000000
11
4.4521189014
21
17.7356725517
31
0.0000000000
11
4.5098426335
21
17.7539390583
31
0.0000000000
11
4.5641694334
21
17.7747850157
31
0.0000000000
11
4.6146520848
21
17.7980390498
31
0.0000000000
0
SPLINE
5
34D
100
AcDbEntity
8
0
100
AcDbSpline
62
9
6
CONTINUOUS
70
0
71
3
72
14
73
10
74
8
42
0.0000001000
43
0.0000001000
44
0.0000000001
12
0.0000193406
22
-0.1208613400
32
0.0000000000
13
0.1078369398
23
-0.0539184699
33
0.0000000000
40
0.0000000000
40
0.0000000000
40
0.0000000000
40
0.0000000000
40
0.0709351019
40
0.1977503649
40
0.3322666906
40
0.4780654864
40
0.6374087147
40
0.8113588234
40
1.0000000000
40
1.0000000000
40
1.0000000000
40
1.0000000000
10
-12.4880625022
20
-15.6459360804
30
0.0000000000
10
-12.4880620449
20
-15.6487938509
30
0.0000000000
10
-12.4875189480
20
-15.6567611298
30
0.0000000000
10
-12.4840891963
20
-15.6697890963
30
0.0000000000
10
-12.4765440448
20
-15.6844340779
30
0.0000000000
10
-12.4656123648
20
-15.6984253516
30
0.0000000000
10
-12.4514847918
20
-15.7116034731
30
0.0000000000
10
-12.4343705212
20
-15.7238149049
30
0.0000000000
10
-12.4216221507
20
-15.7309340188
30
0.0000000000
10
-12.4148413216
20
-15.7343244333
30
0.0000000000
11
-12.4880625022
21
-15.6459360804
31
0.0000000000
11
-12.4874796458
21
-15.6544822555
31
0.0000000000
11
-12.4836634385
21
-15.6692878706
31
0.0000000000
11
-12.4763444313
21
-15.6837604645
31
0.0000000000
11
-12.4656269968
21
-15.6976936155
31
0.0000000000
11
-12.4516639875
21
-15.7108885931
31
0.0000000000
11
-12.4346545474
21
-15.7231572015
31
0.0000000000
11
-12.4148413216
21
-15.7343244333
31
0.0000000000
0
SPLINE
5
34E
100
AcDbEntity
8
0
100
AcDbSpline
62
7
6
CONTINUOUS
70
0
71
3
72
13
73
9
74
7
42
0.0000001000
43
0.0000001000
44
0.0000000001
12
0.0257605244
22
-0.0982374516
32
0.0000000000
13
0.0909022267
23
-0.0454619785
33
0.0000000000
40
0.0000000000
40
0.0000000000
40
0.0000000000
40
0.0000000000
40
0.1105267676
40
0.3090113208
40
0.4964309897
40
0.6754046985
40
0.8479114821
40
1.0000000000
40
1.0000000000
40
1.0000000000
40
1.0000000000
10
-4.3305465215
20
5.9186940137
30
0.0000000000
10
-4.3295974457
20
5.9150747244
30
0.0000000000
10
-4.3266286045
20
5.9050389871
30
0.0000000000
10
-4.3203375793
20
5.8894124486
30
0.0000000000
10
-4.3107452004
20
5.8728012995
30
0.0000000000
10
-4.2992209995
20
5.8585664338
30
0.0000000000
10
-4.2863311205
20
5.8472896314
30
0.0000000000
10
-4.2769021020
20
5.8415564707
30
0.0000000000
10
-4.2722937070
20
5.8392517223
30
0.0000000000
11
-4.3305465215
21
5.9186940137
31
0.0000000000
11
-4.3273524959
21
5.9079350853
31
0.0000000000
11
-4.3197574811
21
5.8892755898
31
0.0000000000
11
-4.3101796288
21
5.8728397711
31
0.0000000000
11
-4.2986988184
21
5.8587620506
31
0.0000000000
11
-4.2854920438
21
5.8472661480
31
0.0000000000
11
-4.2722937070
21
5.8392517223
31
0.0000000000
0
SPLINE
5
34F
100
AcDbEntity
8
0
100
AcDbSpline
62
9
6
CONTINUOUS
70
0
71
3
72
12
73
8
74
6
42
0.0000001000
43
0.0000001000
44
0.0000000001
12
-0.1819739976
22
14.9352819737
32
0.0000000000
13
0.3097165871
23
14.9331790924
33
0.0000000000
40
0.0000000000
40
0.0000000000
40
0.0000000000
40
0.0000000000
40
0.1986817612
40
0.3980269476
40
0.5980314761
40
0.7986908845
40
1.0000000000
40
1.0000000000
40
1.0000000000
40
1.0000000000
10
-0.9454608863
20
-10.6556933135
30
0.0000000000
10
-0.9575125244
20
-9.6665706046
30
0.0000000000
10
-0.9750130651
20
-7.6849351464
30
0.0000000000
10
-0.9815105715
20
-4.7074443832
30
0.0000000000
10
-0.9682983218
20
-1.7201279242
30
0.0000000000
10
-0.9353771613
20
1.2768130565
30
0.0000000000
10
-0.9003481846
20
3.2778427648
30
0.0000000000
10
-0.8795652606
20
4.2799044562
30
0.0000000000
11
-0.9454608863
21
-10.6556933135
31
0.0000000000
11
-0.9717008551
21
-7.6882209477
31
0.0000000000
11
-0.9782310958
21
-4.7107305533
31
0.0000000000
11
-0.9650511402
21
-1.7234138823
31
0.0000000000
11
-0.9321617735
21
1.2735329427
31
0.0000000000
11
-0.8795652606
21
4.2799044562
31
0.0000000000
0
SPLINE
5
350
100
AcDbEntity
8
0
100
AcDbSpline
62
9
6
CONTINUOUS
70
0
71
3
72
20
73
16
74
14
42
0.0000001000
43
0.0000001000
44
0.0000000001
12
-0.2656820836
22
-0.1328410418
32
0.0000000000
13
0.0036189364
23
-0.2970195536
33
0.0000000000
40
0.0000000000
40
0.0000000000
40
0.0000000000
40
0.0000000000
40
0.0668183485
40
0.1373632225
40
0.2113092635
40
0.2881852585
40
0.3674071464
40
0.4483076868
40
0.5301634446
40
0.6122202256
40
0.6937173369
40
0.7739129445
40
0.8521044186
40
0.9276625264
40
1.0000000000
40
1.0000000000
40
1.0000000000
40
1.0000000000
10
-2.0061366114
20
-9.8081758478
30
0.0000000000
10
-2.0120540907
20
-9.8111345875
30
0.0000000000
10
-2.0238539145
20
-9.8179673541
30
0.0000000000
10
-2.0407744470
20
-9.8303293404
30
0.0000000000
10
-2.0571787337
20
-9.8449132173
30
0.0000000000
10
-2.0728256795
20
-9.8615030765
30
0.0000000000
10
-2.0874884991
20
-9.8798561329
30
0.0000000000
10
-2.1009523639
20
-9.8997028042
30
0.0000000000
10
-2.1130198201
20
-9.9207514855
30
0.0000000000
10
-2.1235135108
20
-9.9426926321
30
0.0000000000
10
-2.1322791616
20
-9.9652037551
30
0.0000000000
10
-2.1391877624
20
-9.9879536662
30
0.0000000000
10
-2.1441376188
20
-10.0106095204
30
0.0000000000
10
-2.1470548642
20
-10.0328313914
30
0.0000000000
10
-2.1476296759
20
-10.0474906681
30
0.0000000000
10
-2.1475424143
20
-10.0546525495
30
0.0000000000
11
-2.0061366114
21
-9.8081758478
31
0.0000000000
11
-2.0233443831
21
-9.8180666977
31
0.0000000000
11
-2.0402964722
21
-9.8303845196
31
0.0000000000
11
-2.0567409172
21
-9.8449462387
31
0.0000000000
11
-2.0724333394
21
-9.8615354503
31
0.0000000000
11
-2.0871405310
21
-9.8799056103
31
0.0000000000
11
-2.1006439319
21
-9.8997837078
31
0.0000000000
11
-2.1127428721
21
-9.9208743153
31
0.0000000000
11
-2.1232575696
21
-9.9428640070
31
0.0000000000
11
-2.1320317763
21
-9.9654259689
31
0.0000000000
11
-2.1389351947
21
-9.9882251666
31
0.0000000000
11
-2.1438650733
21
-10.0109220601
31
0.0000000000
11
-2.1467483645
21
-10.0331799875
31
0.0000000000
11
-2.1475424143
21
-10.0546525495
31
0.0000000000
0
SPLINE
5
351
100
AcDbEntity
8
0
100
AcDbSpline
62
9
6
CONTINUOUS
70
0
71
3
72
10
73
6
74
4
42
0.0000001000
43
0.0000001000
44
0.0000000001
12
-0.0218659839
22
1.4197913515
32
0.0000000000
13
-0.0172997449
23
1.4198543312
33
0.0000000000
40
0.0000000000
40
0.0000000000
40
0.0000000000
40
0.0000000000
40
0.3331536364
40
0.6664868763
40
1.0000000000
40
1.0000000000
40
1.0000000000
40
1.0000000000
10
-2.1279613793
20
-11.4744767081
30
0.0000000000
10
-2.1303896233
20
-11.3168071575
30
0.0000000000
10
-2.1350780307
20
-11.0013804207
30
0.0000000000
10
-2.1416049091
20
-10.5281054364
30
0.0000000000
10
-2.1456191837
20
-10.2124992339
30
0.0000000000
10
-2.1475424143
20
-10.0546525495
30
0.0000000000
11
-2.1279613793
21
-11.4744767081
31
0.0000000000
11
-2.1349922307
21
-11.0014642145
31
0.0000000000
11
-2.1415192430
21
-10.5281894465
31
0.0000000000
11
-2.1475424143
21
-10.0546525495
31
0.0000000000
0
SPLINE
5
352
100
AcDbEntity
8
0
100
AcDbSpline
62
7
6
CONTINUOUS
70
0
71
3
72
30
73
26
74
24
42
0.0000001000
43
0.0000001000
44
0.0000000001
12
-0.2930313011
22
-0.1531488020
32
0.0000000000
13
-0.2671660497
23
-0.1947927126
33
0.0000000000
40
0.0000000000
40
0.0000000000
40
0.0000000000
40
0.0000000000
40
0.0448826984
40
0.0919857572
40
0.1406182974
40
0.1901934926
40
0.2402350521
40
0.2903678130
40
0.3403003457
40
0.3898034136
40
0.4387005393
40
0.4868466009
40
0.5341188068
40
0.5804100208
40
0.6256238681
40
0.6696709717
40
0.7124660352
40
0.7539257306
40
0.7939671938
40
0.8325112205
40
0.8694774985
40
0.9047863150
40
0.9383592704
40
0.9701207084
40
1.0000000000
40
1.0000000000
40
1.0000000000
40
1.0000000000
10
-10.9694342832
20
-6.7385400550
30
0.0000000000
10
-10.9738182950
20
-6.7408312988
30
0.0000000000
10
-10.9827689452
20
-6.7455928211
30
0.0000000000
10
-10.9963664597
20
-6.7530293519
30
0.0000000000
10
-11.0103419359
20
-6.7608509499
30
0.0000000000
10
-11.0245320137
20
-6.7689509185
30
0.0000000000
10
-11.0388041213
20
-6.7772397200
30
0.0000000000
10
-11.0530540034
20
-6.7856444143
30
0.0000000000
10
-11.0672008085
20
-6.7941063996
30
0.0000000000
10
-11.0811823052
20
-6.8025789065
30
0.0000000000
10
-11.0949498263
20
-6.8110241282
30
0.0000000000
10
-11.1084644669
20
-6.8194109560
30
0.0000000000
10
-11.1216935933
20
-6.8277128034
30
0.0000000000
10
-11.1346089298
20
-6.8359063514
30
0.0000000000
10
-11.1471851485
20
-6.8439705889
30
0.0000000000
10
-11.1593988177
20
-6.8518860680
30
0.0000000000
10
-11.1712276147
20
-6.8596343189
30
0.0000000000
10
-11.1826497522
20
-6.8671973971
30
0.0000000000
10
-11.1936439705
20
-6.8745577985
30
0.0000000000
10
-11.2041892851
20
-6.8816982163
30
0.0000000000
10
-11.2142650311
20
-6.8886014930
30
0.0000000000
10
-11.2238506861
20
-6.8952504104
30
0.0000000000
10
-11.2329262659
20
-6.9016278637
30
0.0000000000
10
-11.2414727554
20
-6.9077170647
30
0.0000000000
10
-11.2469779458
20
-6.9116978800
30
0.0000000000
10
-11.2496388566
20
-6.9136379694
30
0.0000000000
11
-10.9694342832
21
-6.7385400550
31
0.0000000000
11
-10.9825396072
21
-6.7455024328
31
0.0000000000
11
-10.9962064737
21
-6.7529703010
31
0.0000000000
11
-11.0102402261
21
-6.7608197364
31
0.0000000000
11
-11.0244772309
21
-6.7689430437
31
0.0000000000
11
-11.0387860563
21
-6.7772506782
31
0.0000000000
11
-11.0530642864
21
-6.7856703092
31
0.0000000000
11
-11.0672332413
21
-6.7941442927
31
0.0000000000
11
-11.0812316729
21
-6.8026262206
31
0.0000000000
11
-11.0950129942
21
-6.8110793898
31
0.0000000000
11
-11.1085391896
21
-6.8194731333
31
0.0000000000
11
-11.1217782789
21
-6.8277811985
31
0.0000000000
11
-11.1347024622
21
-6.8359805164
31
0.0000000000
11
-11.1472867739
21
-6.8440502735
31
0.0000000000
11
-11.1595080600
21
-6.8519711798
31
0.0000000000
11
-11.1713441957
21
-6.8597248838
31
0.0000000000
11
-11.1827735316
21
-6.8672935289
31
0.0000000000
11
-11.1937745120
21
-6.8746594152
31
0.0000000000
11
-11.2043265843
21
-6.8818055313
31
0.0000000000
11
-11.2144089198
21
-6.8887146203
31
0.0000000000
11
-11.2240009229
21
-6.8953694273
31
0.0000000000
11
-11.2330824677
21
-6.9017527645
31
0.0000000000
11
-11.2416343308
21
-6.9078477099
31
0.0000000000
11
-11.2496388566
21
-6.9136379694
31
0.0000000000
0
SPLINE
5
353
100
AcDbEntity
8
0
100
AcDbSpline
62
9
6
CONTINUOUS
70
0
71
3
72
20
73
16
74
14
42
0.0000001000
43
0.0000001000
44
0.0000000001
12
-0.2588363281
22
-0.1341200779
32
0.0000000000
13
-0.2607442272
23
0.1303721136
33
0.0000000000
40
0.0000000000
40
0.0000000000
40
0.0000000000
40
0.0000000000
40
0.0682525991
40
0.1407212107
40
0.2168191062
40
0.2958422142
40
0.3770001736
40
0.4594435143
40
0.5422885529
40
0.6246411102
40
0.7056198874
40
0.7843802626
40
0.8601393619
40
0.9322035516
40
1.0000000000
40
1.0000000000
40
1.0000000000
40
1.0000000000
10
-10.9863927324
20
-5.4912528681
30
0.0000000000
10
-10.9922814831
20
-5.4943042160
30
0.0000000000
10
-11.0047412708
20
-5.4999924889
30
0.0000000000
10
-11.0245969523
20
-5.5071007805
30
0.0000000000
10
-11.0459425146
20
-5.5129615715
30
0.0000000000
10
-11.0684692096
20
-5.5174894842
30
0.0000000000
10
-11.0918534006
20
-5.5206194137
30
0.0000000000
10
-11.1157573343
20
-5.5223058352
30
0.0000000000
10
-11.1398355746
20
-5.5225242640
30
0.0000000000
10
-11.1637399367
20
-5.5212715494
30
0.0000000000
10
-11.1871250075
20
-5.5185659190
30
0.0000000000
10
-11.2096530720
20
-5.5144467728
30
0.0000000000
10
-11.2310005976
20
-5.5089733037
30
0.0000000000
10
-11.2508588756
20
-5.5022252500
30
0.0000000000
10
-11.2633273808
20
-5.4967600663
30
0.0000000000
10
-11.2692198917
20
-5.4938138109
30
0.0000000000
11
-10.9863927324
21
-5.4912528681
31
0.0000000000
11
-11.0044684394
21
-5.4995692255
31
0.0000000000
11
-11.0243428037
21
-5.5067331909
31
0.0000000000
11
-11.0457260123
21
-5.5126402974
31
0.0000000000
11
-11.0683062499
21
-5.5172044060
31
0.0000000000
11
-11.0917542458
21
-5.5203589620
31
0.0000000000
11
-11.1157280755
21
-5.5220579646
31
0.0000000000
11
-11.1398781464
21
-5.5222766386
31
0.0000000000
11
-11.1638522962
21
-5.5210117952
31
0.0000000000
11
-11.1873009277
21
-5.5182818788
31
0.0000000000
11
-11.2098821072
21
-5.5141266976
31
0.0000000000
11
-11.2312665502
21
-5.5086068436
31
0.0000000000
11
-11.2511424233
21
-5.5018028086
31
0.0000000000
11
-11.2692198917
21
-5.4938138109
31
0.0000000000
0
SPLINE
5
354
100
AcDbEntity
8
0
100
AcDbSpline
62
9
6
CONTINUOUS
70
0
71
3
72
10
73
6
74
4
42
0.0000001000
43
0.0000001000
44
0.0000000001
12
0.0172997449
22
-1.4198543312
32
0.0000000000
13
0.0218659839
23
-1.4197913515
33
0.0000000000
40
0.0000000000
40
0.0000000000
40
0.0000000000
40
0.0000000000
40
0.3335131235
40
0.6668463633
40
1.0000000000
40
1.0000000000
40
1.0000000000
40
1.0000000000
10
-11.2692198917
20
-5.4938138109
30
0.0000000000
10
-11.2672966610
20
-5.6516604952
30
0.0000000000
10
-11.2632823864
20
-5.9672666975
30
0.0000000000
10
-11.2567555080
20
-6.4405416818
30
0.0000000000
10
-11.2520671006
20
-6.7559684187
30
0.0000000000
10
-11.2496388566
20
-6.9136379694
30
0.0000000000
11
-11.2692198917
21
-5.4938138109
31
0.0000000000
11
-11.2631967203
21
-5.9673507075
31
0.0000000000
11
-11.2566697080
21
-6.4406254755
31
0.0000000000
11
-11.2496388566
21
-6.9136379694
31
0.0000000000
0
SPLINE
5
355
100
AcDbEntity
8
0
100
AcDbSpline
62
9
6
CONTINUOUS
70
0
71
3
72
11
73
7
74
5
42
0.0000001000
43
0.0000001000
44
0.0000000001
12
0.0151974390
22
-1.2473102759
32
0.0000000000
13
0.0187219414
23
-1.2472623522
33
0.0000000000
40
0.0000000000
40
0.0000000000
40
0.0000000000
40
0.0000000000
40
0.2501333195
40
0.5001777052
40
0.7501332383
40
1.0000000000
40
1.0000000000
40
1.0000000000
40
1.0000000000
10
-10.9863927323
20
-5.4912528680
30
0.0000000000
10
-10.9851256037
20
-5.5952508213
30
0.0000000000
10
-10.9825184597
20
-5.8032088656
30
0.0000000000
10
-10.9783882725
20
-6.1150876587
30
0.0000000000
10
-10.9740393110
20
-6.4268526320
30
0.0000000000
10
-10.9709936135
20
-6.6346569200
30
0.0000000000
10
-10.9694342832
20
-6.7385400550
30
0.0000000000
11
-10.9863927323
21
-5.4912528680
31
0.0000000000
11
-10.9824812822
21
-5.8032453673
31
0.0000000000
11
-10.9783510568
21
-6.1151241011
31
0.0000000000
11
-10.9740020569
21
-6.4268890151
31
0.0000000000
11
-10.9694342832
21
-6.7385400550
31
0.0000000000
0
SPLINE
5
356
100
AcDbEntity
8
0
100
AcDbSpline
62
9
6
CONTINUOUS
70
0
71
3
72
20
73
16
74
14
42
0.0000001000
43
0.0000001000
44
0.0000000001
12
0.0000000000
22
0.2944833487
32
0.0000000000
13
-0.2633939143
23
0.1316969572
33
0.0000000000
40
0.0000000000
40
0.0000000000
40
0.0000000000
40
0.0000000000
40
0.0726800516
40
0.1484935635
40
0.2268535686
40
0.3071346815
40
0.3886435758
40
0.4706504146
40
0.5524088776
40
0.6331805066
40
0.7122580394
40
0.7889899963
40
0.8628067162
40
0.9332490200
40
1.0000000000
40
1.0000000000
40
1.0000000000
40
1.0000000000
10
-10.9863927324
20
-5.4912528681
30
0.0000000000
10
-10.9863927324
20
-5.4841185131
30
0.0000000000
10
-10.9871261776
20
-5.4695350116
30
0.0000000000
10
-10.9902347258
20
-5.4474588485
30
0.0000000000
10
-10.9953323330
20
-5.4249900237
30
0.0000000000
10
-11.0023443322
20
-5.4024594308
30
0.0000000000
10
-11.0111694229
20
-5.3801907303
30
0.0000000000
10
-11.0216801256
20
-5.3585054955
30
0.0000000000
10
-11.0337247655
20
-5.3377165936
30
0.0000000000
10
-11.0471295909
20
-5.3181241099
30
0.0000000000
10
-11.0617016473
20
-5.3000106042
30
0.0000000000
10
-11.0772313791
20
-5.2836372392
30
0.0000000000
10
-11.0934978394
20
-5.2692392274
30
0.0000000000
10
-11.1102663363
20
-5.2570258267
30
0.0000000000
10
-11.1219534880
20
-5.2502674095
30
0.0000000000
10
-11.1278140887
20
-5.2473371092
30
0.0000000000
11
-10.9863927324
21
-5.4912528681
31
0.0000000000
11
-10.9874224515
21
-5.4698745877
31
0.0000000000
11
-10.9904995500
21
-5.4477618411
31
0.0000000000
11
-10.9955791524
21
-5.4252521468
31
0.0000000000
11
-11.0025873397
21
-5.4026733178
31
0.0000000000
11
-11.0114217655
21
-5.3803552195
31
0.0000000000
11
-11.0219536722
21
-5.3586231128
31
0.0000000000
11
-11.0340294686
21
-5.3377939678
31
0.0000000000
11
-11.0474730584
21
-5.3181715591
31
0.0000000000
11
-11.0620883763
21
-5.3000420906
31
0.0000000000
11
-11.0776622689
21
-5.2836699832
31
0.0000000000
11
-11.0939675953
21
-5.2692940290
31
0.0000000000
11
-11.1107665527
21
-5.2571238971
31
0.0000000000
11
-11.1278140887
21
-5.2473371092
31
0.0000000000
0
SPLINE
5
357
100
AcDbEntity
8
0
100
AcDbSpline
62
7
6
CONTINUOUS
70
0
71
3
72
30
73
26
74
24
42
0.0000001000
43
0.0000001000
44
0.0000000001
12
-0.2938528372
22
-0.1521796885
32
0.0000000000
13
-0.2674982317
23
-0.1948148957
33
0.0000000000
40
0.0000000000
40
0.0000000000
40
0.0000000000
40
0.0000000000
40
0.0447702125
40
0.0917739650
40
0.1403205214
40
0.1898228153
40
0.2398040677
40
0.2898884947
40
0.3397839962
40
0.3892606719
40
0.4381414118
40
0.4862805113
40
0.5335546460
40
0.5798561930
40
0.6250883309
40
0.6691612688
40
0.7119893210
40
0.7534887870
40
0.7935764375
40
0.8321727080
40
0.8691969180
40
0.9045689721
40
0.9382100656
40
0.9700441076
40
1.0000000000
40
1.0000000000
40
1.0000000000
40
1.0000000000
10
-12.1905383234
20
-4.7180575036
30
0.0000000000
10
-12.1949236080
20
-4.7203285426
30
0.0000000000
10
-12.2038780762
20
-4.7250514272
30
0.0000000000
10
-12.2174823917
20
-4.7324344266
30
0.0000000000
10
-12.2314682856
20
-4.7402068927
30
0.0000000000
10
-12.2456719743
20
-4.7482621962
30
0.0000000000
10
-12.2599604883
20
-4.7565107577
30
0.0000000000
10
-12.2742292107
20
-4.7648795202
30
0.0000000000
10
-12.2883969707
20
-4.7733097242
30
0.0000000000
10
-12.3024012599
20
-4.7817544239
30
0.0000000000
10
-12.3161931708
20
-4.7901756345
30
0.0000000000
10
-12.3297335895
20
-4.7985420753
30
0.0000000000
10
-12.3429896983
20
-4.8068269999
30
0.0000000000
10
-12.3559330566
20
-4.8150069417
30
0.0000000000
10
-12.3685381872
20
-4.8230607535
30
0.0000000000
10
-12.3807815200
20
-4.8309688612
30
0.0000000000
10
-12.3926406018
20
-4.8387126773
30
0.0000000000
10
-12.4040935196
20
-4.8462741449
30
0.0000000000
10
-12.4151188918
20
-4.8536356506
30
0.0000000000
10
-12.4256956125
20
-4.8607797790
30
0.0000000000
10
-12.4358028955
20
-4.8676892618
30
0.0000000000
10
-12.4454200945
20
-4.8743467650
30
0.0000000000
10
-12.4545270981
20
-4.8807350600
30
0.0000000000
10
-12.4631047604
20
-4.8868372234
30
0.0000000000
10
-12.4686303703
20
-4.8908277622
30
0.0000000000
10
-12.4713014197
20
-4.8927730468
30
0.0000000000
11
-12.1905383234
21
-4.7180575036
31
0.0000000000
11
-12.2036466246
21
-4.7249616688
31
0.0000000000
11
-12.2173205072
21
-4.7323756462
31
0.0000000000
11
-12.2313648821
21
-4.7401757004
31
0.0000000000
11
-12.2456156858
21
-4.7482541781
31
0.0000000000
11
-12.2599410836
21
-4.7565214682
31
0.0000000000
11
-12.2742382977
21
-4.7649051047
31
0.0000000000
11
-12.2884283310
21
-4.7733472713
31
0.0000000000
11
-12.3024496594
21
-4.7818013757
31
0.0000000000
11
-12.3162554600
21
-4.7902305284
31
0.0000000000
11
-12.3298075107
21
-4.7986038869
31
0.0000000000
11
-12.3430736496
21
-4.8068950367
31
0.0000000000
11
-12.3560259140
21
-4.8150807595
31
0.0000000000
11
-12.3686391903
21
-4.8231401049
31
0.0000000000
11
-12.3808901878
21
-4.8310536565
31
0.0000000000
11
-12.3927566522
21
-4.8388029449
31
0.0000000000
11
-12.4042168099
21
-4.8463700012
31
0.0000000000
11
-12.4152489826
21
-4.8537370166
31
0.0000000000
11
-12.4258324985
21
-4.8608868714
31
0.0000000000
11
-12.4359464077
21
-4.8678021984
31
0.0000000000
11
-12.4455699913
21
-4.8744656274
31
0.0000000000
11
-12.4546829963
21
-4.8808598472
31
0.0000000000
11
-12.4632660691
21
-4.8869678011
31
0.0000000000
11
-12.4713014197
21
-4.8927730468
31
0.0000000000
0
SPLINE
5
358
100
AcDbEntity
8
0
100
AcDbSpline
62
9
6
CONTINUOUS
70
0
71
3
72
20
73
16
74
14
42
0.0000001000
43
0.0000001000
44
0.0000000001
12
-0.2656820836
22
-0.1328410418
32
0.0000000000
13
0.0036189364
23
-0.2970195536
33
0.0000000000
40
0.0000000000
40
0.0000000000
40
0.0000000000
40
0.0000000000
40
0.0668183485
40
0.1373632225
40
0.2113092635
40
0.2881852585
40
0.3674071464
40
0.4483076868
40
0.5301634446
40
0.6122202256
40
0.6937173369
40
0.7739129445
40
0.8521044186
40
0.9276625264
40
1.0000000000
40
1.0000000000
40
1.0000000000
40
1.0000000000
10
-11.1278140887
20
-5.2473371092
30
0.0000000000
10
-11.1337315680
20
-5.2502958489
30
0.0000000000
10
-11.1455313918
20
-5.2571286155
30
0.0000000000
10
-11.1624519243
20
-5.2694906017
30
0.0000000000
10
-11.1788562110
20
-5.2840744787
30
0.0000000000
10
-11.1945031568
20
-5.3006643379
30
0.0000000000
10
-11.2091659764
20
-5.3190173942
30
0.0000000000
10
-11.2226298412
20
-5.3388640656
30
0.0000000000
10
-11.2346972974
20
-5.3599127469
30
0.0000000000
10
-11.2451909881
20
-5.3818538935
30
0.0000000000
10
-11.2539566389
20
-5.4043650164
30
0.0000000000
10
-11.2608652397
20
-5.4271149276
30
0.0000000000
10
-11.2658150961
20
-5.4497707817
30
0.0000000000
10
-11.2687323415
20
-5.4719926527
30
0.0000000000
10
-11.2693071532
20
-5.4866519295
30
0.0000000000
10
-11.2692198917
20
-5.4938138109
30
0.0000000000
11
-11.1278140887
21
-5.2473371092
31
0.0000000000
11
-11.1450218605
21
-5.2572279590
31
0.0000000000
11
-11.1619739495
21
-5.2695457810
31
0.0000000000
11
-11.1784183945
21
-5.2841075000
31
0.0000000000
11
-11.1941108167
21
-5.3006967117
31
0.0000000000
11
-11.2088180083
21
-5.3190668716
31
0.0000000000
11
-11.2223214092
21
-5.3389449691
31
0.0000000000
11
-11.2344203494
21
-5.3600355767
31
0.0000000000
11
-11.2449350469
21
-5.3820252684
31
0.0000000000
11
-11.2537092536
21
-5.4045872303
31
0.0000000000
11
-11.2606126720
21
-5.4273864280
31
0.0000000000
11
-11.2655425506
21
-5.4500833214
31
0.0000000000
11
-11.2684258418
21
-5.4723412489
31
0.0000000000
11
-11.2692198917
21
-5.4938138109
31
0.0000000000
0
SPLINE
5
359
100
AcDbEntity
8
0
100
AcDbSpline
62
9
6
CONTINUOUS
70
0
71
3
72
12
73
8
74
6
42
0.0000001000
43
0.0000001000
44
0.0000000001
12
-0.3097165871
22
-14.9331790924
32
0.0000000000
13
0.1819739976
23
-14.9352819737
33
0.0000000000
40
0.0000000000
40
0.0000000000
40
0.0000000000
40
0.0000000000
40
0.2013091134
40
0.4019685181
40
0.6019730479
40
0.8013182382
40
1.0000000000
40
1.0000000000
40
1.0000000000
40
1.0000000000
10
-12.4054057939
20
10.0428247229
30
0.0000000000
10
-12.4261887178
20
9.0407630417
30
0.0000000000
10
-12.4612176940
20
7.0397333621
30
0.0000000000
10
-12.4941388547
20
4.0427924034
30
0.0000000000
10
-12.5073511049
20
1.0554759371
30
0.0000000000
10
-12.5008535987
20
-1.9220148548
30
0.0000000000
10
-12.4833530578
20
-3.9036503350
30
0.0000000000
10
-12.4713014197
20
-4.8927730468
30
0.0000000000
11
-12.4054057939
21
10.0428247229
31
0.0000000000
11
-12.4580023064
21
7.0364532401
31
0.0000000000
11
-12.4908916728
21
4.0395064704
31
0.0000000000
11
-12.5040716291
21
1.0521897796
31
0.0000000000
11
-12.4975413885
21
-1.9253006724
31
0.0000000000
11
-12.4713014197
21
-4.8927730468
31
0.0000000000
0
SPLINE
5
35A
100
AcDbEntity
8
0
100
AcDbSpline
62
9
6
CONTINUOUS
70
0
71
3
72
14
73
10
74
8
42
0.0000001000
43
0.0000001000
44
0.0000000001
12
-0.2944842257
22
-14.5328265358
32
0.0000000000
13
0.1714386472
23
-14.5347978757
33
0.0000000000
40
0.0000000000
40
0.0000000000
40
0.0000000000
40
0.0000000000
40
0.1411014769
40
0.2850715814
40
0.4287157021
40
0.5720321078
40
0.7150191844
40
0.8576754642
40
1.0000000000
40
1.0000000000
40
1.0000000000
40
1.0000000000
10
-12.1271477874
20
9.8170037538
30
0.0000000000
10
-12.1409985072
20
9.1334693244
30
0.0000000000
10
-12.1659320314
20
7.7524402872
30
0.0000000000
10
-12.1941017428
20
5.6753813053
30
0.0000000000
10
-12.2128927952
20
3.5874833878
30
0.0000000000
10
-12.2220947728
20
1.5042843732
30
0.0000000000
10
-12.2217074019
20
-0.5741487820
30
0.0000000000
10
-12.2117307150
20
-2.6477516697
30
0.0000000000
10
-12.1986716320
20
-4.0285047169
30
0.0000000000
10
-12.1905383234
20
-4.7180575036
30
0.0000000000
11
-12.1271477874
21
9.8170037538
31
0.0000000000
11
-12.1641616120
21
7.7663135464
31
0.0000000000
11
-12.1925303844
21
5.6737839110
31
0.0000000000
11
-12.2113105853
21
3.5858848834
31
0.0000000000
11
-12.2205016032
21
1.5026852720
31
0.0000000000
11
-12.2201031693
21
-0.5757475110
31
0.0000000000
11
-12.2101153258
21
-2.6493478796
31
0.0000000000
11
-12.1905383234
21
-4.7180575036
31
0.0000000000
0
SPLINE
5
35B
100
AcDbEntity
8
0
100
AcDbSpline
62
7
6
CONTINUOUS
70
0
71
3
72
10
73
6
74
4
42
0.0000001000
43
0.0000001000
44
0.0000000001
12
-0.1485211342
22
4.5075956868
32
0.0000000000
13
-0.1012408434
23
4.5089053766
33
0.0000000000
40
0.0000000000
40
0.0000000000
40
0.0000000000
40
0.0000000000
40
0.3327503625
40
0.6660843730
40
1.0000000000
40
1.0000000000
40
1.0000000000
40
1.0000000000
10
-12.8791740565
20
-13.5484243950
30
0.0000000000
10
-12.8956475436
20
-13.0484563620
30
0.0000000000
10
-12.9268633812
20
-12.0475844378
30
0.0000000000
10
-12.9684658005
20
-10.5448101471
30
0.0000000000
10
-12.9927256862
20
-9.5419931868
30
0.0000000000
10
-13.0039943194
20
-9.0401285315
30
0.0000000000
11
-12.8791740565
21
-13.5484243950
31
0.0000000000
11
-12.9259612846
21
-12.0484358473
31
0.0000000000
11
-12.9675682999
21
-10.5456613853
31
0.0000000000
11
-13.0039943194
21
-9.0401285315
31
0.0000000000
0
SPLINE
5
35C
100
AcDbEntity
8
0
100
AcDbSpline
62
7
6
CONTINUOUS
70
0
71
3
72
22
73
18
74
16
42
0.0000001000
43
0.0000001000
44
0.0000000001
12
-0.2130437001
22
0.1065607284
32
0.0000000000
13
-0.1164936903
23
0.2077349597
33
0.0000000000
40
0.0000000000
40
0.0000000000
40
0.0000000000
40
0.0000000000
40
0.0465987444
40
0.1124664457
40
0.1791755003
40
0.2466249830
40
0.3147056044
40
0.3833004725
40
0.4522846701
40
0.5215242064
40
0.5908744630
40
0.6601859297
40
0.7292954091
40
0.7980272758
40
0.8661924927
40
0.9335884185
40
1.0000000000
40
1.0000000000
40
1.0000000000
40
1.0000000000
10
-12.2417200412
20
9.8743055121
30
0.0000000000
10
-12.2450292308
20
9.8759607108
30
0.0000000000
10
-12.2529237284
20
9.8801398660
30
0.0000000000
10
-12.2651455010
20
9.8874327750
30
0.0000000000
10
-12.2783278032
20
9.8963000099
30
0.0000000000
10
-12.2911928659
20
9.9059162720
30
0.0000000000
10
-12.3037162970
20
9.9162096113
30
0.0000000000
10
-12.3158753360
20
9.9271133825
30
0.0000000000
10
-12.3276481507
20
9.9385647224
30
0.0000000000
10
-12.3390133205
20
9.9505031447
30
0.0000000000
10
-12.3499498864
20
9.9628696876
30
0.0000000000
10
-12.3604371017
20
9.9756058133
30
0.0000000000
10
-12.3704544829
20
9.9886525880
30
0.0000000000
10
-12.3799816560
20
10.0019494930
30
0.0000000000
10
-12.3889987927
20
10.0154339473
30
0.0000000000
10
-12.3974869028
20
10.0290405539
30
0.0000000000
10
-12.4028269505
20
10.0382260538
30
0.0000000000
10
-12.4054057939
20
10.0428247229
30
0.0000000000
11
-12.2417200412
21
9.8743055121
31
0.0000000000
11
-12.2515328705
21
9.8794922639
31
0.0000000000
11
-12.2650125720
21
9.8875172475
31
0.0000000000
11
-12.2782030548
21
9.8963739490
31
0.0000000000
11
-12.2910768095
21
9.9059828594
31
0.0000000000
11
-12.3036091346
21
9.9162715754
31
0.0000000000
11
-12.3157771200
21
9.9271731284
31
0.0000000000
11
-12.3275588718
21
9.9386244353
31
0.0000000000
11
-12.3389329626
21
9.9505648787
31
0.0000000000
11
-12.3498780555
21
9.9629349836
31
0.0000000000
11
-12.3603738106
21
9.9756765918
31
0.0000000000
11
-12.3703996154
21
9.9887305839
31
0.0000000000
11
-12.3799350949
21
10.0020364305
31
0.0000000000
11
-12.3889603489
21
10.0155314455
31
0.0000000000
11
-12.3974563875
21
10.0291502703
31
0.0000000000
11
-12.4054057939
21
10.0428247229
31
0.0000000000
0
SPLINE
5
35D
100
AcDbEntity
8
0
100
AcDbSpline
62
7
6
CONTINUOUS
70
0
71
3
72
15
73
11
74
9
42
0.0000001000
43
0.0000001000
44
0.0000000001
12
0.1055773757
22
0.0778655192
32
0.0000000000
13
0.1171839816
23
-0.0585919908
33
0.0000000000
40
0.0000000000
40
0.0000000000
40
0.0000000000
40
0.0000000000
40
0.0025684028
40
0.1340544990
40
0.2653519826
40
0.3990850354
40
0.5377861365
40
0.6833203880
40
0.8371407381
40
1.0000000000
40
1.0000000000
40
1.0000000000
40
1.0000000000
10
-12.1892851678
20
19.3581543658
30
0.0000000000
10
-12.1891947794
20
19.3582210292
30
0.0000000000
10
-12.1844709442
20
19.3616921814
30
0.0000000000
10
-12.1744887487
20
19.3677065602
30
0.0000000000
10
-12.1581728435
20
19.3737936920
30
0.0000000000
10
-12.1407248227
20
19.3769016104
30
0.0000000000
10
-12.1223915853
20
19.3770222862
30
0.0000000000
10
-12.1034022056
20
19.3741888883
30
0.0000000000
10
-12.0839872295
20
19.3684647320
30
0.0000000000
10
-12.0712708959
20
19.3629352170
30
0.0000000000
10
-12.0649093970
20
19.3597544676
30
0.0000000000
11
-12.1892851678
21
19.3581543658
31
0.0000000000
11
-12.1890136506
21
19.3583538807
31
0.0000000000
11
-12.1742494531
21
19.3672296358
31
0.0000000000
11
-12.1581384978
21
19.3732584747
31
0.0000000000
11
-12.1408971275
21
19.3763769695
31
0.0000000000
11
-12.1227260613
21
19.3765629877
31
0.0000000000
11
-12.1038565588
21
19.3738239028
31
0.0000000000
11
-12.0845050591
21
19.3681973667
31
0.0000000000
11
-12.0649093970
21
19.3597544676
31
0.0000000000
0
SPLINE
5
35E
100
AcDbEntity
8
0
100
AcDbSpline
62
9
6
CONTINUOUS
70
0
71
3
72
14
73
10
74
8
42
0.0000001000
43
0.0000001000
44
0.0000000001
12
-0.0036928619
22
-0.1204152664
32
0.0000000000
13
0.1075077667
23
-0.0536603744
33
0.0000000000
40
0.0000000000
40
0.0000000000
40
0.0000000000
40
0.0000000000
40
0.0827873966
40
0.2048830061
40
0.3358773817
40
0.4793582952
40
0.6374540711
40
0.8110383827
40
1.0000000000
40
1.0000000000
40
1.0000000000
40
1.0000000000
10
-15.0373080330
20
16.6195351658
30
0.0000000000
10
-15.0374099405
20
16.6162122103
30
0.0000000000
10
-15.0369391552
20
16.6079641753
30
0.0000000000
10
-15.0333087589
20
16.5948788362
30
0.0000000000
10
-15.0257381513
20
16.5807903211
30
0.0000000000
10
-15.0147972038
20
16.5672512180
30
0.0000000000
10
-15.0006713914
20
16.5544072269
30
0.0000000000
10
-14.9835643265
20
16.5424059277
30
0.0000000000
10
-14.9708417737
20
16.5353518878
30
0.0000000000
10
-14.9640701599
20
16.5319719708
30
0.0000000000
11
-15.0373080330
21
16.6195351658
31
0.0000000000
11
-15.0367447727
21
16.6095900587
31
0.0000000000
11
-15.0329171528
21
16.5954277190
31
0.0000000000
11
-15.0255887464
21
16.5814981589
31
0.0000000000
11
-15.0148640612
21
16.5680000226
31
0.0000000000
11
-15.0008960379
21
16.5551258021
31
0.0000000000
11
-14.9838838694
21
16.5430590918
31
0.0000000000
11
-14.9640701599
21
16.5319719708
31
0.0000000000
0
SPLINE
5
35F
100
AcDbEntity
8
0
100
AcDbSpline
62
7
6
CONTINUOUS
70
0
71
3
72
33
73
29
74
27
42
0.0000001000
43
0.0000001000
44
0.0000000001
12
-1.2695980960
22
-0.6396941561
32
0.0000000000
13
-0.0000889505
23
1.4235812450
33
0.0000000000
40
0.0000000000
40
0.0000000000
40
0.0000000000
40
0.0000000000
40
0.0390961324
40
0.0800267213
40
0.1226145530
40
0.1666294244
40
0.2118656900
40
0.2580159804
40
0.3048677912
40
0.3520680840
40
0.3993978688
40
0.4464984245
40
0.4931408684
40
0.5389952706
40
0.5838295160
40
0.6273648132
40
0.6693870157
40
0.7096830016
40
0.7480883005
40
0.7844740012
40
0.8187624435
40
0.8509428733
40
0.8810682300
40
0.9092985145
40
0.9358680638
40
0.9611574461
40
0.9856022928
40
1.0000000000
40
1.0000000000
40
1.0000000000
40
1.0000000000
10
-5.4262642080
20
22.1689781434
30
0.0000000000
10
-5.4428096664
20
22.1606416210
30
0.0000000000
10
-5.4773128678
20
22.1448179400
30
0.0000000000
10
-5.5316214820
20
22.1240620623
30
0.0000000000
10
-5.5892925780
20
22.1058785329
30
0.0000000000
10
-5.6498557861
20
22.0904152983
30
0.0000000000
10
-5.7127969203
20
22.0778033126
30
0.0000000000
10
-5.7776158469
20
22.0681426282
30
0.0000000000
10
-5.8437494024
20
22.0615173442
30
0.0000000000
10
-5.9106788351
20
22.0579794224
30
0.0000000000
10
-5.9778181821
20
22.0575598776
30
0.0000000000
10
-6.0446401287
20
22.0602620455
30
0.0000000000
10
-6.1105636644
20
22.0660622708
30
0.0000000000
10
-6.1750645426
20
22.0749144563
30
0.0000000000
10
-6.2375905631
20
22.0867425783
30
0.0000000000
10
-6.2976368357
20
22.1014511853
30
0.0000000000
10
-6.3546981367
20
22.1189165211
30
0.0000000000
10
-6.4083088985
20
22.1389966132
30
0.0000000000
10
-6.4580251234
20
22.1615263593
30
0.0000000000
10
-6.5034399136
20
22.1863241390
30
0.0000000000
10
-6.5441821782
20
22.2131929662
30
0.0000000000
10
-6.5799163965
20
22.2419225304
30
0.0000000000
10
-6.6103489118
20
22.2722972270
30
0.0000000000
10
-6.6352131970
20
22.3040877711
30
0.0000000000
10
-6.6542798212
20
22.3370637631
30
0.0000000000
10
-6.6673362593
20
22.3709576420
30
0.0000000000
10
-6.6733065259
20
22.4009167287
30
0.0000000000
10
-6.6742870350
20
22.4193489732
30
0.0000000000
10
-6.6742874619
20
22.4261810752
30
0.0000000000
11
-5.4262642080
21
22.1689781434
31
0.0000000000
11
-5.4767468595
21
22.1457241093
31
0.0000000000
11
-5.5310736593
21
22.1248781519
31
0.0000000000
11
-5.5887973915
21
22.1066116453
31
0.0000000000
11
-5.6494135700
21
22.0910826228
31
0.0000000000
11
-5.7124625919
21
22.0784093055
31
0.0000000000
11
-5.7773512193
21
22.0687098846
31
0.0000000000
11
-5.8436245610
21
22.0620526698
31
0.0000000000
11
-5.9106328700
21
22.0585026070
31
0.0000000000
11
-5.9779179424
21
22.0580838577
31
0.0000000000
11
-6.0448232909
21
22.0608008119
31
0.0000000000
11
-6.1108754535
21
22.0666338324
31
0.0000000000
11
-6.1754546375
21
22.0755288570
31
0.0000000000
11
-6.2380744883
21
22.0874184522
31
0.0000000000
11
-6.2981760761
21
22.1021972135
31
0.0000000000
11
-6.3552809562
21
22.1197472031
31
0.0000000000
11
-6.4088990568
21
22.1399183245
31
0.0000000000
11
-6.4585890826
21
22.1625444003
31
0.0000000000
11
-6.5039341215
21
22.1874358568
31
0.0000000000
11
-6.5445542353
21
22.2143838426
31
0.0000000000
11
-6.5801147890
21
22.2431665700
31
0.0000000000
11
-6.6103116156
21
22.2735370159
31
0.0000000000
11
-6.6349037625
21
22.3052534195
31
0.0000000000
11
-6.6536731338
21
22.3380326726
31
0.0000000000
11
-6.6664775061
21
22.3716279195
31
0.0000000000
11
-6.6731980455
21
22.4057239093
31
0.0000000000
11
-6.6742874619
21
22.4261810752
31
0.0000000000
0
SPLINE
5
360
100
AcDbEntity
8
0
100
AcDbSpline
62
7
6
CONTINUOUS
70
0
71
3
72
10
73
6
74
4
42
0.0000001000
43
0.0000001000
44
0.0000000001
12
0.0020565952
22
0.0010650638
32
0.0000000000
13
0.0020715105
23
0.0010357553
33
0.0000000000
40
0.0000000000
40
0.0000000000
40
0.0000000000
40
0.0000000000
40
0.3341243550
40
0.6674578293
40
1.0000000000
40
1.0000000000
40
1.0000000000
40
1.0000000000
10
-12.1905383234
20
-4.7180575036
30
0.0000000000
10
-12.1903092705
20
-4.7179388824
30
0.0000000000
10
-12.1898511501
20
-4.7177029941
30
0.0000000000
10
-12.1891631236
20
-4.7173528264
30
0.0000000000
10
-12.1887038820
20
-4.7171218341
30
0.0000000000
10
-12.1884742604
20
-4.7170070233
30
0.0000000000
11
-12.1905383234
21
-4.7180575036
31
0.0000000000
11
-12.1898503295
21
-4.7177032574
31
0.0000000000
11
-12.1891623031
21
-4.7173530945
31
0.0000000000
11
-12.1884742604
21
-4.7170070233
31
0.0000000000
0
SPLINE
5
361
100
AcDbEntity
8
0
100
AcDbSpline
62
7
6
CONTINUOUS
70
0
71
3
72
10
73
6
74
4
42
0.0000001000
43
0.0000001000
44
0.0000000001
12
0.0026013628
22
0.0013595667
32
0.0000000000
13
0.0026253396
23
0.0013126698
33
0.0000000000
40
0.0000000000
40
0.0000000000
40
0.0000000000
40
0.0000000000
40
0.3343336818
40
0.6676672562
40
1.0000000000
40
1.0000000000
40
1.0000000000
40
1.0000000000
10
-10.9694342832
20
-6.7385400550
30
0.0000000000
10
-10.9691443755
20
-6.7383885386
30
0.0000000000
10
-10.9685645302
20
-6.7380876719
30
0.0000000000
10
-10.9676933954
20
-6.7376422358
30
0.0000000000
10
-10.9671117407
20
-6.7373492077
30
0.0000000000
10
-10.9668209120
20
-6.7372037933
30
0.0000000000
11
-10.9694342832
21
-6.7385400550
31
0.0000000000
11
-10.9685632145
21
-6.7380880897
31
0.0000000000
11
-10.9676920798
21
-6.7376426635
31
0.0000000000
11
-10.9668209120
21
-6.7372037933
31
0.0000000000
0
SPLINE
5
362
100
AcDbEntity
8
0
100
AcDbSpline
62
9
6
CONTINUOUS
70
0
71
3
72
14
73
10
74
8
42
0.0000001000
43
0.0000001000
44
0.0000000001
12
0.0995948152
22
0.0734577093
32
0.0000000000
13
0.1113269200
23
-0.0534099901
33
0.0000000000
40
0.0000000000
40
0.0000000000
40
0.0000000000
40
0.0000000000
40
0.0617146078
40
0.1925487150
40
0.3301236902
40
0.4779151586
40
0.6382121066
40
0.8121724544
40
1.0000000000
40
1.0000000000
40
1.0000000000
40
1.0000000000
10
-14.5056369768
20
17.6497099458
30
0.0000000000
10
-14.5035881585
20
17.6512210837
30
0.0000000000
10
-14.4969383959
20
17.6555865401
30
0.0000000000
10
-14.4843707927
20
17.6610426187
30
0.0000000000
10
-14.4674556837
20
17.6644010018
30
0.0000000000
10
-14.4490226360
20
17.6645658912
30
0.0000000000
10
-14.4293356739
20
17.6615853350
30
0.0000000000
10
-14.4086622400
20
17.6555322827
30
0.0000000000
10
-14.3949139734
20
17.6497275945
30
0.0000000000
10
-14.3879438860
20
17.6463836388
30
0.0000000000
11
-14.5056369768
21
17.6497099458
31
0.0000000000
11
-14.4992555692
21
17.6538979234
31
0.0000000000
11
-14.4844633639
21
17.6603917933
31
0.0000000000
11
-14.4678231993
21
17.6638079182
31
0.0000000000
11
-14.4495767921
21
17.6640966749
31
0.0000000000
11
-14.4299891915
21
17.6612538691
31
0.0000000000
11
-14.4093449293
21
17.6553207955
31
0.0000000000
11
-14.3879438860
21
17.6463836388
31
0.0000000000
0
SPLINE
5
363
100
AcDbEntity
8
0
100
AcDbSpline
62
7
6
CONTINUOUS
70
0
71
3
72
33
73
29
74
27
42
0.0000001000
43
0.0000001000
44
0.0000000001
12
-1.2695980960
22
-0.6396941561
32
0.0000000000
13
-0.0000889505
23
1.4235812450
33
0.0000000000
40
0.0000000000
40
0.0000000000
40
0.0000000000
40
0.0000000000
40
0.0390961324
40
0.0800267213
40
0.1226145530
40
0.1666294244
40
0.2118656900
40
0.2580159804
40
0.3048677912
40
0.3520680840
40
0.3993978688
40
0.4464984245
40
0.4931408684
40
0.5389952706
40
0.5838295160
40
0.6273648132
40
0.6693870157
40
0.7096830016
40
0.7480883005
40
0.7844740012
40
0.8187624435
40
0.8509428733
40
0.8810682300
40
0.9092985145
40
0.9358680638
40
0.9611574461
40
0.9856022928
40
1.0000000000
40
1.0000000000
40
1.0000000000
40
1.0000000000
10
4.6146520848
20
17.1485199970
30
0.0000000000
10
4.5981066264
20
17.1401834745
30
0.0000000000
10
4.5636034250
20
17.1243597936
30
0.0000000000
10
4.5092948109
20
17.1036039159
30
0.0000000000
10
4.4516237149
20
17.0854203865
30
0.0000000000
10
4.3910605068
20
17.0699571519
30
0.0000000000
10
4.3281193725
20
17.0573451661
30
0.0000000000
10
4.2633004459
20
17.0476844817
30
0.0000000000
10
4.1971668905
20
17.0410591977
30
0.0000000000
10
4.1302374578
20
17.0375212759
30
0.0000000000
10
4.0630981107
20
17.0371017311
30
0.0000000000
10
3.9962761641
20
17.0398038990
30
0.0000000000
10
3.9303526285
20
17.0456041244
30
0.0000000000
10
3.8658517502
20
17.0544563098
30
0.0000000000
10
3.8033257298
20
17.0662844319
30
0.0000000000
10
3.7432794572
20
17.0809930389
30
0.0000000000
10
3.6862181561
20
17.0984583746
30
0.0000000000
10
3.6326073943
20
17.1185384667
30
0.0000000000
10
3.5828911695
20
17.1410682129
30
0.0000000000
10
3.5374763793
20
17.1658659926
30
0.0000000000
10
3.4967341146
20
17.1927348197
30
0.0000000000
10
3.4609998963
20
17.2214643839
30
0.0000000000
10
3.4305673810
20
17.2518390806
30
0.0000000000
10
3.4057030958
20
17.2836296247
30
0.0000000000
10
3.3866364717
20
17.3166056166
30
0.0000000000
10
3.3735800335
20
17.3504994956
30
0.0000000000
10
3.3676097670
20
17.3804585822
30
0.0000000000
10
3.3666292578
20
17.3988908268
30
0.0000000000
10
3.3666288309
20
17.4057229288
30
0.0000000000
11
4.6146520848
21
17.1485199970
31
0.0000000000
11
4.5641694334
21
17.1252659629
31
0.0000000000
11
4.5098426335
21
17.1044200055
31
0.0000000000
11
4.4521189014
21
17.0861534989
31
0.0000000000
11
4.3915027228
21
17.0706244764
31
0.0000000000
11
4.3284537010
21
17.0579511591
31
0.0000000000
11
4.2635650735
21
17.0482517381
31
0.0000000000
11
4.1972917319
21
17.0415945234
31
0.0000000000
11
4.1302834229
21
17.0380444606
31
0.0000000000
11
4.0629983505
21
17.0376257112
31
0.0000000000
11
3.9960930019
21
17.0403426655
31
0.0000000000
11
3.9300408393
21
17.0461756860
31
0.0000000000
11
3.8654616554
21
17.0550707105
31
0.0000000000
11
3.8028418046
21
17.0669603058
31
0.0000000000
11
3.7427402167
21
17.0817390671
31
0.0000000000
11
3.6856353367
21
17.0992890567
31
0.0000000000
11
3.6320172361
21
17.1194601781
31
0.0000000000
11
3.5823272102
21
17.1420862539
31
0.0000000000
11
3.5369821714
21
17.1669777104
31
0.0000000000
11
3.4963620576
21
17.1939256962
31
0.0000000000
11
3.4608015038
21
17.2227084236
31
0.0000000000
11
3.4306046772
21
17.2530788695
31
0.0000000000
11
3.4060125304
21
17.2847952730
31
0.0000000000
11
3.3872431591
21
17.3175745261
31
0.0000000000
11
3.3744387867
21
17.3511697731
31
0.0000000000
11
3.3677182473
21
17.3852657628
31
0.0000000000
11
3.3666288309
21
17.4057229288
31
0.0000000000
0
SPLINE
5
364
100
AcDbEntity
8
0
100
AcDbSpline
62
9
6
CONTINUOUS
70
0
71
3
72
15
73
11
74
9
42
0.0000001000
43
0.0000001000
44
0.0000000001
12
0.0000000000
22
-0.2415899782
32
0.0000000000
13
-0.2157570451
23
-0.1078785226
33
0.0000000000
40
0.0000000000
40
0.0000000000
40
0.0000000000
40
0.0000000000
40
0.1020723901
40
0.2070113063
40
0.3173570296
40
0.4351112158
40
0.5616688887
40
0.6978522699
40
0.8439894108
40
1.0000000000
40
1.0000000000
40
1.0000000000
40
1.0000000000
10
12.8504512969
20
-14.8400373850
30
0.0000000000
10
12.8504512969
20
-14.8482572738
30
0.0000000000
10
12.8487890055
20
-14.8649278928
30
0.0000000000
10
12.8413956601
20
-14.8895048809
30
0.0000000000
10
12.8292247173
20
-14.9134980407
30
0.0000000000
10
12.8124501423
20
-14.9366850647
30
0.0000000000
10
12.7912659234
20
-14.9588712165
30
0.0000000000
10
12.7658862506
20
-14.9798725838
30
0.0000000000
10
12.7365565510
20
-14.9995083050
30
0.0000000000
10
12.7152248154
20
-15.0112040163
30
0.0000000000
10
12.7040046875
20
-15.0168140803
30
0.0000000000
11
12.8504512969
21
-14.8400373850
31
0.0000000000
11
12.8480436603
21
-14.8645416701
31
0.0000000000
11
12.8408439371
21
-14.8888099655
31
0.0000000000
11
12.8289214648
21
-14.9126085543
31
0.0000000000
11
12.8123910632
21
-14.9357082431
31
0.0000000000
11
12.7914119291
21
-14.9578865692
31
0.0000000000
11
12.7661861031
21
-14.9789299433
31
0.0000000000
11
12.7369565236
21
-14.9986357060
31
0.0000000000
11
12.7040046875
21
-15.0168140803
31
0.0000000000
0
SPLINE
5
365
100
AcDbEntity
8
0
100
AcDbSpline
62
9
6
CONTINUOUS
70
0
71
3
72
14
73
10
74
8
42
0.0000001000
43
0.0000001000
44
0.0000000001
12
0.0038765591
22
-0.1208421217
32
0.0000000000
13
0.1078644919
23
-0.0540202054
33
0.0000000000
40
0.0000000000
40
0.0000000000
40
0.0000000000
40
0.0000000000
40
0.0564235971
40
0.1882593119
40
0.3266829652
40
0.4752469721
40
0.6363237051
40
0.8111500091
40
1.0000000000
40
1.0000000000
40
1.0000000000
40
1.0000000000
10
-15.0372997519
20
-12.4171617117
30
0.0000000000
10
-15.0372268421
20
-12.4194344940
30
0.0000000000
10
-15.0366098505
20
-12.4270054269
30
0.0000000000
10
-15.0333719411
20
-12.4398495569
30
0.0000000000
10
-15.0258340359
20
-12.4550370739
30
0.0000000000
10
-15.0148992637
20
-12.4694700908
30
0.0000000000
10
-15.0007616859
20
-12.4829752825
30
0.0000000000
10
-14.9836356839
20
-12.4953923996
30
0.0000000000
10
-14.9708602708
20
-12.5025757508
30
0.0000000000
10
-14.9640702014
20
-12.5059763225
30
0.0000000000
11
-15.0372997519
21
-12.4171617117
31
0.0000000000
11
-15.0367448138
21
-12.4239574978
31
0.0000000000
11
-15.0329171965
21
-12.4393941047
31
0.0000000000
11
-15.0255887916
21
-12.4543989295
31
0.0000000000
11
-15.0148641069
21
-12.4687579937
31
0.0000000000
11
-15.0008960831
21
-12.4822665281
31
0.0000000000
11
-14.9838839132
21
-12.4947318924
31
0.0000000000
11
-14.9640702014
21
-12.5059763225
31
0.0000000000
0
SPLINE
5
366
100
AcDbEntity
8
0
100
AcDbSpline
62
7
6
CONTINUOUS
70
0
71
3
72
19
73
15
74
13
42
0.0000001000
43
0.0000001000
44
0.0000000001
12
0.1388183054
22
0.0694091527
32
0.0000000000
13
0.1419068496
23
-0.0708667476
33
0.0000000000
40
0.0000000000
40
0.0000000000
40
0.0000000000
40
0.0000000000
40
0.1675428535
40
0.3180768329
40
0.4517904875
40
0.5691045130
40
0.6706179522
40
0.7570553393
40
0.8292251178
40
0.8879985950
40
0.9343232604
40
0.9693051362
40
0.9944820339
40
1.0000000000
40
1.0000000000
40
1.0000000000
40
1.0000000000
10
12.7040046875
20
-16.0127432947
30
0.0000000000
10
12.7117573592
20
-16.0088669588
30
0.0000000000
10
12.7265190343
20
-16.0015939586
30
0.0000000000
10
12.7476301579
20
-15.9915607160
30
0.0000000000
10
12.7665388434
20
-15.9829530542
30
0.0000000000
10
12.7832845612
20
-15.9757228014
30
0.0000000000
10
12.7979305075
20
-15.9698097084
30
0.0000000000
10
12.8105566800
20
-15.9651465530
30
0.0000000000
10
12.8212526000
20
-15.9616604752
30
0.0000000000
10
12.8301157354
20
-15.9592812620
30
0.0000000000
10
12.8372434220
20
-15.9579253047
30
0.0000000000
10
12.8427619267
20
-15.9575405651
30
0.0000000000
10
12.8461584922
20
-15.9579393470
30
0.0000000000
10
12.8476638505
20
-15.9585706242
30
0.0000000000
10
12.8479248629
20
-15.9587009709
30
0.0000000000
11
12.7040046875
21
-16.0127432947
31
0.0000000000
11
12.7273365128
21
-16.0012630940
31
0.0000000000
11
12.7484448475
21
-15.9912487404
31
0.0000000000
11
12.7673404234
21
-15.9826675103
31
0.0000000000
11
12.7840651392
21
-15.9754703566
31
0.0000000000
11
12.7986846291
21
-15.9695968225
31
0.0000000000
11
12.8112805020
21
-15.9649798175
31
0.0000000000
11
12.8219433646
21
-15.9615496650
31
0.0000000000
11
12.8307672269
21
-15.9592371598
31
0.0000000000
11
12.8378454406
21
-15.9579756311
31
0.0000000000
11
12.8432678608
21
-15.9577021483
31
0.0000000000
11
12.8471199666
21
-15.9583580346
31
0.0000000000
11
12.8479248629
21
-15.9587009709
31
0.0000000000
0
SPLINE
5
367
100
AcDbEntity
8
0
100
AcDbSpline
62
9
6
CONTINUOUS
70
0
71
3
72
23
73
19
74
17
42
0.0000001000
43
0.0000001000
44
0.0000000001
12
0.6585523229
22
-0.3292761615
32
0.0000000000
13
0.0000000000
23
-0.7362838804
33
0.0000000000
40
0.0000000000
40
0.0000000000
40
0.0000000000
40
0.0000000000
40
0.0539492403
40
0.1103639079
40
0.1690983938
40
0.2299394620
40
0.2926181657
40
0.3568207346
40
0.4221985136
40
0.4883772071
40
0.5549656237
40
0.6215641040
40
0.6877728270
40
0.7532000021
40
0.8174705107
40
0.8802333548
40
0.9411734775
40
1.0000000000
40
1.0000000000
40
1.0000000000
40
1.0000000000
10
12.3504512969
20
-14.4070246831
30
0.0000000000
10
12.3622940961
20
-14.4129460827
30
0.0000000000
10
12.3859368699
20
-14.4262560092
30
0.0000000000
10
12.4202238959
20
-14.4497191245
30
0.0000000000
10
12.4538346634
20
-14.4769169817
30
0.0000000000
10
12.4864471010
20
-14.5075870745
30
0.0000000000
10
12.5177534144
20
-14.5414371788
30
0.0000000000
10
12.5474554828
20
-14.5781438434
30
0.0000000000
10
12.5752702691
20
-14.6173564044
30
0.0000000000
10
12.6009321631
20
-14.6586999774
30
0.0000000000
10
12.6241958966
20
-14.7017791552
30
0.0000000000
10
12.6448389868
20
-14.7461818632
30
0.0000000000
10
12.6626639594
20
-14.7914833750
30
0.0000000000
10
12.6775002840
20
-14.8372506899
30
0.0000000000
10
12.6892058989
20
-14.8830460774
30
0.0000000000
10
12.6976686251
20
-14.9284335931
30
0.0000000000
10
12.7028064024
20
-14.9729720179
30
0.0000000000
10
12.7040046875
20
-15.0023764069
30
0.0000000000
10
12.7040046875
20
-15.0168140803
30
0.0000000000
11
12.3504512969
21
-14.4070246831
31
0.0000000000
11
12.3851064404
21
-14.4264374320
31
0.0000000000
11
12.4194278530
21
-14.4498335957
31
0.0000000000
11
12.4530849465
21
-14.4769878248
31
0.0000000000
11
12.4857535662
21
-14.5076385929
31
0.0000000000
11
12.5171190735
21
-14.5414906920
31
0.0000000000
11
12.5468793843
21
-14.5782180833
31
0.0000000000
11
12.5747478737
21
-14.6174670326
31
0.0000000000
11
12.6004561391
21
-14.6588595188
31
0.0000000000
11
12.6237565867
21
-14.7019968778
31
0.0000000000
11
12.6444248175
21
-14.7464636459
31
0.0000000000
11
12.6622617959
21
-14.7918315885
31
0.0000000000
11
12.6770957432
21
-14.8376637766
31
0.0000000000
11
12.6887838331
21
-14.8835189587
31
0.0000000000
11
12.6972133786
21
-14.9289548946
31
0.0000000000
11
12.7023033368
21
-14.9735344877
31
0.0000000000
11
12.7040046875
21
-15.0168140803
31
0.0000000000
0
SPLINE
5
368
100
AcDbEntity
8
0
100
AcDbSpline
62
9
6
CONTINUOUS
70
0
71
3
72
14
73
10
74
8
42
0.0000001000
43
0.0000001000
44
0.0000000001
12
0.2077259176
22
0.1038629588
32
0.0000000000
13
0.2079464966
23
-0.1039619869
33
0.0000000000
40
0.0000000000
40
0.0000000000
40
0.0000000000
40
0.0000000000
40
0.1630098610
40
0.3180940882
40
0.4656917910
40
0.6066215269
40
0.7420961635
40
0.8737000638
40
1.0000000000
40
1.0000000000
40
1.0000000000
40
1.0000000000
10
12.3504512969
20
-14.4070246831
30
0.0000000000
10
12.3617384212
20
-14.4013811210
30
0.0000000000
10
12.3842992837
20
-14.3913906509
30
0.0000000000
10
12.4186897715
20
-14.3803373105
30
0.0000000000
10
12.4524741543
20
-14.3737040964
30
0.0000000000
10
12.4853292524
20
-14.3715763968
30
0.0000000000
10
12.5169357352
20
-14.3739992542
30
0.0000000000
10
12.5467198565
20
-14.3809152440
30
0.0000000000
10
12.5653004106
20
-14.3884454327
30
0.0000000000
10
12.5740549537
20
-14.3928222302
30
0.0000000000
11
12.3504512969
21
-14.4070246831
31
0.0000000000
11
12.3851055892
21
-14.3917826115
31
0.0000000000
11
12.4194261417
21
-14.3808574784
31
0.0000000000
11
12.4530824288
21
-14.3743544987
31
0.0000000000
11
12.4857503220
21
-14.3723362999
31
0.0000000000
11
12.5171152115
21
-14.3748223182
31
0.0000000000
11
12.5468750365
21
-14.3817886118
31
0.0000000000
11
12.5740549537
21
-14.3928222302
31
0.0000000000
0
SPLINE
5
369
100
AcDbEntity
8
0
100
AcDbSpline
62
9
6
CONTINUOUS
70
0
71
3
72
18
73
14
74
12
42
0.0000001000
43
0.0000001000
44
0.0000000001
12
-0.5319411258
22
0.2659909878
32
0.0000000000
13
-0.0192111786
23
0.5939922229
33
0.0000000000
40
0.0000000000
40
0.0000000000
40
0.0000000000
40
0.0000000000
40
0.0493497103
40
0.1311158084
40
0.2143509002
40
0.2998339382
40
0.3882284323
40
0.4800654032
40
0.5757347852
40
0.6754928267
40
0.7794664220
40
0.8876638035
40
1.0000000000
40
1.0000000000
40
1.0000000000
40
1.0000000000
10
-14.7081222461
20
-13.0112646785
30
0.0000000000
10
-14.7168726262
20
-13.0068891525
30
0.0000000000
10
-14.7396552611
20
-12.9943314966
30
0.0000000000
10
-14.7745586969
20
-12.9699360928
30
0.0000000000
10
-14.8113472668
20
-12.9364414755
30
0.0000000000
10
-14.8446057375
20
-12.8977055081
30
0.0000000000
10
-14.8741300985
20
-12.8539955573
30
0.0000000000
10
-14.8997453905
20
-12.8056041065
30
0.0000000000
10
-14.9213032540
20
-12.7528459566
30
0.0000000000
10
-14.9386798132
20
-12.6960584514
30
0.0000000000
10
-14.9517751600
20
-12.6356001666
30
0.0000000000
10
-14.9605140907
20
-12.5718547697
30
0.0000000000
10
-14.9633508312
20
-12.5282185982
30
0.0000000000
10
-14.9640702014
20
-12.5059763225
30
0.0000000000
11
-14.7081222461
21
-13.0112646785
31
0.0000000000
11
-14.7338196491
21
-12.9971011915
31
0.0000000000
11
-14.7736726755
21
-12.9692965909
31
0.0000000000
11
-14.8102978469
21
-12.9360465389
31
0.0000000000
11
-14.8434625528
21
-12.8975624154
31
0.0000000000
11
-14.8729555028
21
-12.8540895261
31
0.0000000000
11
-14.8985890714
21
-12.8059046311
31
0.0000000000
11
-14.9201998852
21
-12.7533152433
31
0.0000000000
11
-14.9376508692
21
-12.6966552892
31
0.0000000000
11
-14.9508309121
21
-12.6362854872
31
0.0000000000
11
-14.9596559206
21
-12.5725919440
31
0.0000000000
11
-14.9640702014
21
-12.5059763225
31
0.0000000000
0
SPLINE
5
36A
100
AcDbEntity
8
0
100
AcDbSpline
62
7
6
CONTINUOUS
70
0
71
3
72
11
73
7
74
5
42
0.0000001000
43
0.0000001000
44
0.0000000001
12
0.1554593659
22
0.0099611044
32
0.0000000000
13
0.1394560383
23
-0.0697188729
33
0.0000000000
40
0.0000000000
40
0.0000000000
40
0.0000000000
40
0.0000000000
40
0.2696224653
40
0.5306968454
40
0.7860472075
40
1.0000000000
40
1.0000000000
40
1.0000000000
40
1.0000000000
10
2.9915460212
20
26.4790146158
30
0.0000000000
10
3.0055178003
20
26.4799098616
30
0.0000000000
10
3.0331621783
20
26.4800148713
30
0.0000000000
10
3.0737625936
20
26.4747682606
30
0.0000000000
10
3.1104552205
20
26.4646743071
30
0.0000000000
10
3.1329423659
20
26.4551091592
30
0.0000000000
10
3.1428880355
20
26.4501369767
30
0.0000000000
11
2.9915460212
21
26.4790146158
31
0.0000000000
11
3.0335472716
21
26.4790751427
31
0.0000000000
11
3.0738716903
21
26.4737869613
31
0.0000000000
11
3.1122123539
21
26.4631905589
31
0.0000000000
11
3.1428880355
21
26.4501369767
31
0.0000000000
0
SPLINE
5
36B
100
AcDbEntity
8
0
100
AcDbSpline
62
7
6
CONTINUOUS
70
0
71
3
72
11
73
7
74
5
42
0.0000001000
43
0.0000001000
44
0.0000000001
12
0.0336653770
22
0.0283938431
32
0.0000000000
13
0.0050593559
23
0.0347394726
33
0.0000000000
40
0.0000000000
40
0.0000000000
40
0.0000000000
40
0.0000000000
40
0.4278568979
40
0.7470188782
40
0.9453505608
40
1.0000000000
40
1.0000000000
40
1.0000000000
40
1.0000000000
10
4.4872075606
20
25.7311838461
30
0.0000000000
10
4.4920088818
20
25.7352333466
30
0.0000000000
10
4.5003499827
20
25.7420528959
30
0.0000000000
10
4.5107806300
20
25.7521555609
30
0.0000000000
10
4.5167031503
20
25.7564750352
30
0.0000000000
10
4.5190705185
20
25.7609287400
30
0.0000000000
10
4.5191626821
20
25.7615615709
30
0.0000000000
11
4.4872075606
21
25.7311838461
31
0.0000000000
11
4.5015312523
21
25.7434268898
31
0.0000000000
11
4.5119795487
21
25.7528293345
31
0.0000000000
11
4.5180359825
21
25.7591232522
31
0.0000000000
11
4.5191626821
21
25.7615615709
31
0.0000000000
0
SPLINE
5
36C
100
AcDbEntity
8
0
100
AcDbSpline
62
9
6
CONTINUOUS
70
0
71
3
72
35
73
31
74
29
42
0.0000001000
43
0.0000001000
44
0.0000000001
12
-1.7096495375
22
-0.7987096936
32
0.0000000000
13
-0.0002408460
23
1.8893322681
33
0.0000000000
40
0.0000000000
40
0.0000000000
40
0.0000000000
40
0.0000000000
40
0.0357630702
40
0.0731802867
40
0.1121102716
40
0.1523836239
40
0.1938122213
40
0.2361919282
40
0.2793048153
40
0.3229240872
40
0.3668164826
40
0.4107457010
40
0.4544743638
40
0.4977682100
40
0.5403978867
40
0.5821431774
40
0.6227949270
40
0.6621598029
40
0.7000627349
40
0.7363524539
40
0.7709050899
40
0.8036311887
40
0.8344814429
40
0.8634561317
40
0.8906138564
40
0.9160833123
40
0.9400727207
40
0.9628771017
40
0.9848748382
40
1.0000000000
40
1.0000000000
40
1.0000000000
40
1.0000000000
10
8.6944645434
20
-23.8946673751
30
0.0000000000
10
8.6740837713
20
-23.9041888121
30
0.0000000000
10
8.6317146457
20
-23.9222724893
30
0.0000000000
10
8.5652889239
20
-23.9460516590
30
0.0000000000
10
8.4949421356
20
-23.9669655028
30
0.0000000000
10
8.4211739075
20
-23.9848648954
30
0.0000000000
10
8.3445050480
20
-23.9996234974
30
0.0000000000
10
8.2654786602
20
-24.0111364012
30
0.0000000000
10
8.1846548226
20
-24.0193217680
30
0.0000000000
10
8.1026071919
20
-24.0241213263
30
0.0000000000
10
8.0199177772
20
-24.0255009608
30
0.0000000000
10
7.9371734989
20
-24.0234508930
30
0.0000000000
10
7.8549614444
20
-24.0179857878
30
0.0000000000
10
7.7738651439
20
-24.0091446630
30
0.0000000000
10
7.6944595235
20
-23.9969905161
30
0.0000000000
10
7.6173074983
20
-23.9816098930
30
0.0000000000
10
7.5429550840
20
-23.9631120506
30
0.0000000000
10
7.4719281497
20
-23.9416281709
30
0.0000000000
10
7.4047277354
20
-23.9173099610
30
0.0000000000
10
7.3418271387
20
-23.8903284047
30
0.0000000000
10
7.2836677620
20
-23.8608716495
30
0.0000000000
10
7.2306568443
20
-23.8291430637
30
0.0000000000
10
7.1831645640
20
-23.7953581956
30
0.0000000000
10
7.1415235948
20
-23.7597421045
30
0.0000000000
10
7.1060294542
20
-23.7225261650
30
0.0000000000
10
7.0769443012
20
-23.6839473298
30
0.0000000000
10
7.0545017273
20
-23.6442510338
30
0.0000000000
10
7.0389098039
20
-23.6037022701
30
0.0000000000
10
7.0311820130
20
-23.5666292529
30
0.0000000000
10
7.0297774969
20
-23.5432490210
30
0.0000000000
10
7.0297762826
20
-23.5337235356
30
0.0000000000
11
8.6944645434
21
-23.8946673751
31
0.0000000000
11
8.6324358011
21
-23.9212519167
31
0.0000000000
11
8.5659888921
21
-23.9451298086
31
0.0000000000
11
8.4955935731
21
-23.9661323282
31
0.0000000000
11
8.4217537923
21
-23.9841090869
31
0.0000000000
11
8.3449954319
21
-23.9989321681
31
0.0000000000
11
8.2658646415
21
-24.0104961295
31
0.0000000000
11
8.1849263977
21
-24.0187184467
31
0.0000000000
11
8.1027574026
21
-24.0235406417
31
0.0000000000
11
8.0199432695
21
-24.0249284542
31
0.0000000000
11
7.9370735328
21
-24.0228720827
31
0.0000000000
11
7.8547392914
21
-24.0173862784
31
0.0000000000
11
7.7735266182
21
-24.0085101807
31
0.0000000000
11
7.6940146019
21
-23.9963071688
31
0.0000000000
11
7.6167690352
21
-23.9808641538
31
0.0000000000
11
7.5423407687
21
-23.9622913330
31
0.0000000000
11
7.4712593425
21
-23.9407209086
31
0.0000000000
11
7.4040316358
21
-23.9163067488
31
0.0000000000
11
7.3411359158
21
-23.8892225735
31
0.0000000000
11
7.2830207157
21
-23.8596615483
31
0.0000000000
11
7.2300994953
21
-23.8278339824
31
0.0000000000
11
7.1827496967
21
-23.7939668486
31
0.0000000000
11
7.1413082511
21
-23.7583010843
31
0.0000000000
11
7.1060707816
21
-23.7210910202
31
0.0000000000
11
7.0772881272
21
-23.6826014033
31
0.0000000000
11
7.0551656883
21
-23.6431067089
31
0.0000000000
11
7.0398610472
21
-23.6028879845
31
0.0000000000
11
7.0314835143
21
-23.5622320101
31
0.0000000000
11
7.0297762826
21
-23.5337235356
31
0.0000000000
0
SPLINE
5
36D
100
AcDbEntity
8
0
100
AcDbSpline
62
7
6
CONTINUOUS
70
0
71
3
72
15
73
11
74
9
42
0.0000001000
43
0.0000001000
44
0.0000000001
12
0.0000000000
22
-0.1548683982
32
0.0000000000
13
-0.1364735891
23
-0.0736586228
33
0.0000000000
40
0.0000000000
40
0.0000000000
40
0.0000000000
40
0.0000000000
40
0.1530778030
40
0.2986165204
40
0.4360132861
40
0.5660787250
40
0.6888882284
40
0.8061547488
40
0.9191841697
40
1.0000000000
40
1.0000000000
40
1.0000000000
40
1.0000000000
10
10.1584202753
20
-23.2185641044
30
0.0000000000
10
10.1584202753
20
-23.2264664091
30
0.0000000000
10
10.1577329115
20
-23.2418940224
30
0.0000000000
10
10.1544719854
20
-23.2642058743
30
0.0000000000
10
10.1490376049
20
-23.2848736527
30
0.0000000000
10
10.1414916639
20
-23.3036181840
30
0.0000000000
10
10.1319013969
20
-23.3202261719
30
0.0000000000
10
10.1203800553
20
-23.3344577631
30
0.0000000000
10
10.1082292305
20
-23.3450880871
30
0.0000000000
10
10.0997278964
20
-23.3504360503
30
0.0000000000
10
10.0960514876
20
-23.3524203113
30
0.0000000000
11
10.1584202753
21
-23.2185641044
31
0.0000000000
11
10.1573093017
21
-23.2422449725
31
0.0000000000
11
10.1539859190
21
-23.2645379610
31
0.0000000000
11
10.1485051684
21
-23.2850984183
31
0.0000000000
11
10.1409115346
21
-23.3037552731
31
0.0000000000
11
10.1313356828
21
-23.3201880835
31
0.0000000000
11
10.1198580041
21
-23.3342621869
31
0.0000000000
11
10.1066547310
21
-23.3457551234
31
0.0000000000
11
10.0960514876
21
-23.3524203113
31
0.0000000000
0
SPLINE
5
36E
100
AcDbEntity
8
0
100
AcDbSpline
62
7
6
CONTINUOUS
70
0
71
3
72
23
73
19
74
17
42
0.0000001000
43
0.0000001000
44
0.0000000001
12
0.0000000000
22
0.3681715352
32
0.0000000000
13
-0.3293026320
23
0.1646513160
33
0.0000000000
40
0.0000000000
40
0.0000000000
40
0.0000000000
40
0.0000000000
40
0.0588442525
40
0.1197825074
40
0.1825434300
40
0.2468113924
40
0.3122363628
40
0.3784431025
40
0.4450398766
40
0.5116268596
40
0.5778043998
40
0.6431812909
40
0.7073832024
40
0.7700614293
40
0.8309021458
40
0.8896363660
40
0.9460508302
40
1.0000000000
40
1.0000000000
40
1.0000000000
40
1.0000000000
10
-5.9636143358
20
25.9786598759
30
0.0000000000
10
-5.9636143358
20
25.9858814688
30
0.0000000000
10
-5.9642136514
20
26.0005867943
30
0.0000000000
10
-5.9667828527
20
26.0228594973
30
0.0000000000
10
-5.9710139713
20
26.0455543902
30
0.0000000000
10
-5.9768663091
20
26.0684533130
30
0.0000000000
10
-5.9842838416
20
26.0913383335
30
0.0000000000
10
-5.9931956411
20
26.1139906810
30
0.0000000000
10
-6.0035165075
20
26.1361938247
30
0.0000000000
10
-6.0151477698
20
26.1577353757
30
0.0000000000
10
-6.0279782441
20
26.1784092547
30
0.0000000000
10
-6.0418853462
20
26.1980177049
30
0.0000000000
10
-6.0567363103
20
26.2163732176
30
0.0000000000
10
-6.0723896459
20
26.2333003837
30
0.0000000000
10
-6.0886963097
20
26.2486373933
30
0.0000000000
10
-6.1055024123
20
26.2622380459
30
0.0000000000
10
-6.1226469222
20
26.2739710001
30
0.0000000000
10
-6.1344691632
20
26.2806266206
30
0.0000000000
10
-6.1403910311
20
26.2835875545
30
0.0000000000
11
-5.9636143358
21
25.9786598759
31
0.0000000000
11
-5.9644653997
21
26.0003079319
31
0.0000000000
11
-5.9670104323
21
26.0225988455
31
0.0000000000
11
-5.9712249865
21
26.0453180237
31
0.0000000000
11
-5.9770685438
21
26.0682467345
31
0.0000000000
11
-5.9844849013
21
26.0911642100
31
0.0000000000
11
-5.9934027087
21
26.1138497702
31
0.0000000000
11
-6.0037361522
21
26.1360849472
31
0.0000000000
11
-6.0153857772
21
26.1576555900
31
0.0000000000
11
-6.0282394443
21
26.1783539280
31
0.0000000000
11
-6.0421734069
21
26.1979805750
31
0.0000000000
11
-6.0570535031
21
26.2163464525
31
0.0000000000
11
-6.0727364476
21
26.2332746146
31
0.0000000000
11
-6.0890712135
21
26.2486019549
31
0.0000000000
11
-6.1059004880
21
26.2621807800
31
0.0000000000
11
-6.1230621895
21
26.2738802331
31
0.0000000000
11
-6.1403910311
21
26.2835875545
31
0.0000000000
0
SPLINE
5
36F
100
AcDbEntity
8
0
100
AcDbSpline
62
9
6
CONTINUOUS
70
0
71
3
72
20
73
16
74
14
42
0.0000001000
43
0.0000001000
44
0.0000000001
12
-0.0052796392
22
0.3678091544
32
0.0000000000
13
-0.3290123993
23
0.1645061998
33
0.0000000000
40
0.0000000000
40
0.0000000000
40
0.0000000000
40
0.0000000000
40
0.0723218679
40
0.1478282724
40
0.2259798289
40
0.3061432700
40
0.3876186704
40
0.4696645852
40
0.5515219575
40
0.6324375221
40
0.7116873738
40
0.7886013874
40
0.8625892741
40
0.9331692032
40
1.0000000000
40
1.0000000000
40
1.0000000000
40
1.0000000000
10
-7.3903325312
20
25.2348003948
30
0.0000000000
10
-7.3904598090
20
25.2436672765
30
0.0000000000
10
-7.3916331970
20
25.2617872100
30
0.0000000000
10
-7.3958883487
20
25.2891992444
30
0.0000000000
10
-7.4026173896
20
25.3171007294
30
0.0000000000
10
-7.4117227080
20
25.3450870833
30
0.0000000000
10
-7.4230728030
20
25.3727563090
30
0.0000000000
10
-7.4365038022
20
25.3997090183
30
0.0000000000
10
-7.4518218337
20
25.4255562764
30
0.0000000000
10
-7.4688058765
20
25.4499250046
30
0.0000000000
10
-7.4872113577
20
25.4724637891
30
0.0000000000
10
-7.5067734742
20
25.4928477317
30
0.0000000000
10
-7.5272136780
20
25.5107841163
30
0.0000000000
10
-7.5482370067
20
25.5260125446
30
0.0000000000
10
-7.5628650183
20
25.5344548356
30
0.0000000000
10
-7.5701944053
20
25.5381195291
30
0.0000000000
11
-7.3903325312
21
25.2348003948
31
0.0000000000
11
-7.3919933098
21
25.2613518906
31
0.0000000000
11
-7.3962076730
21
25.2888051070
31
0.0000000000
11
-7.4029141660
21
25.3167597141
31
0.0000000000
11
-7.4120149929
21
25.3448080707
31
0.0000000000
11
-7.4233774430
21
25.3725411685
31
0.0000000000
11
-7.4368358262
21
25.3995545965
31
0.0000000000
11
-7.4521938888
21
25.4254544379
31
0.0000000000
11
-7.4692276755
21
25.4498630148
31
0.0000000000
11
-7.4876887953
21
25.4724243952
31
0.0000000000
11
-7.5073080434
21
25.4928095835
31
0.0000000000
11
-7.5277993270
21
25.5107213178
31
0.0000000000
11
-7.5488638369
21
25.5258984050
31
0.0000000000
11
-7.5701944053
21
25.5381195291
31
0.0000000000
0
SPLINE
5
370
100
AcDbEntity
8
0
100
AcDbSpline
62
9
6
CONTINUOUS
70
0
71
3
72
44
73
40
74
38
42
0.0000001000
43
0.0000001000
44
0.0000000001
12
-1.5722023264
22
-0.8196973931
32
0.0000000000
13
1.5604258098
23
0.8418997943
33
0.0000000000
40
0.0000000000
40
0.0000000000
40
0.0000000000
40
0.0000000000
40
0.0284692344
40
0.0582250487
40
0.0891538871
40
0.1211273916
40
0.1540020456
40
0.1876213685
40
0.2218177121
40
0.2564161913
40
0.2912366139
40
0.3260962127
40
0.3608112328
40
0.3952002651
40
0.4290856907
40
0.4622970379
40
0.4946725285
40
0.5260628506
40
0.5563330919
40
0.5853671037
40
0.6130702895
40
0.6393750452
40
0.6642450591
40
0.6876824117
40
0.7097338222
40
0.7304990189
40
0.7501369312
40
0.7688702232
40
0.7869820096
40
0.8048036362
40
0.8226906551
40
0.8409932710
40
0.8600274435
40
0.8800552472
40
0.9012757299
40
0.9238258602
40
0.9477852931
40
0.9731827860
40
1.0000000000
40
1.0000000000
40
1.0000000000
40
1.0000000000
10
-7.5701944053
20
25.5381195291
30
0.0000000000
10
-7.5851142041
20
25.5303408100
30
0.0000000000
10
-7.6161856098
20
25.5154838638
30
0.0000000000
10
-7.6650571367
20
25.4957106662
30
0.0000000000
10
-7.7169304363
20
25.4780710957
30
0.0000000000
10
-7.7714328442
20
25.4626926927
30
0.0000000000
10
-7.8281796260
20
25.4496836989
30
0.0000000000
10
-7.8867688825
20
25.4391364661
30
0.0000000000
10
-7.9467854590
20
25.4311258235
30
0.0000000000
10
-8.0078034675
20
25.4257087074
30
0.0000000000
10
-8.0693901518
20
25.4229235623
30
0.0000000000
10
-8.1311084494
20
25.4227901359
30
0.0000000000
10
-8.1925205204
20
25.4253092936
30
0.0000000000
10
-8.2531905298
20
25.4304630113
30
0.0000000000
10
-8.3126884093
20
25.4382145600
30
0.0000000000
10
-8.3705924089
20
25.4485087696
30
0.0000000000
10
-8.4264927490
20
25.4612725765
30
0.0000000000
10
-8.4799940529
20
25.4764155642
30
0.0000000000
10
-8.5307188471
20
25.4938309433
30
0.0000000000
10
-8.5783097348
20
25.5133964430
30
0.0000000000
10
-8.6224324926
20
25.5349758212
30
0.0000000000
10
-8.6627777469
20
25.5584202415
30
0.0000000000
10
-8.6990631473
20
25.5835704160
30
0.0000000000
10
-8.7310337476
20
25.6102584063
30
0.0000000000
10
-8.7584619731
20
25.6383097430
30
0.0000000000
10
-8.7811453221
20
25.6675437517
30
0.0000000000
10
-8.7989037880
20
25.6977716067
30
0.0000000000
10
-8.8115785712
20
25.7287893724
30
0.0000000000
10
-8.8190380839
20
25.7603686891
30
0.0000000000
10
-8.8211937961
20
25.7922516419
30
0.0000000000
10
-8.8180194300
20
25.8241609272
30
0.0000000000
10
-8.8095575397
20
25.8558226880
30
0.0000000000
10
-8.7959072116
20
25.8869866133
30
0.0000000000
10
-8.7772047727
20
25.9174299884
30
0.0000000000
10
-8.7536110140
20
25.9469506146
30
0.0000000000
10
-8.7253084668
20
25.9753576766
30
0.0000000000
10
-8.6925027071
20
26.0024667231
30
0.0000000000
10
-8.6554317790
20
26.0280954552
30
0.0000000000
10
-8.6287525015
20
26.0436678964
30
0.0000000000
10
-8.6148037439
20
26.0511936987
30
0.0000000000
11
-7.5701944053
21
25.5381195291
31
0.0000000000
11
-7.6157012545
21
25.5162767620
31
0.0000000000
11
-7.6645843122
21
25.4964291788
31
0.0000000000
11
-7.7164858107
21
25.4787232774
31
0.0000000000
11
-7.7710342456
21
25.4632858892
31
0.0000000000
11
-7.8278411023
21
25.4502268570
31
0.0000000000
11
-7.8865021725
21
25.4396390927
31
0.0000000000
11
-7.9465986161
21
25.4315981617
31
0.0000000000
11
-8.0077022171
21
25.4261612787
31
0.0000000000
11
-8.0693774792
21
25.4233671123
31
0.0000000000
11
-8.1311853245
21
25.4232354958
31
0.0000000000
11
-8.1926848712
21
25.4257673045
31
0.0000000000
11
-8.2534383287
21
25.4309444465
31
0.0000000000
11
-8.3130124788
21
25.4387299372
31
0.0000000000
11
-8.3709833795
21
25.4490683145
31
0.0000000000
11
-8.4269376181
21
25.4618857967
31
0.0000000000
11
-8.4804770736
21
25.4770911386
31
0.0000000000
11
-8.5312199471
21
25.4945758689
31
0.0000000000
11
-8.5788052322
21
25.5142155663
31
0.0000000000
11
-8.6228935717
21
25.5358701541
31
0.0000000000
11
-8.6631712872
21
25.5593855646
31
0.0000000000
11
-8.6993510991
21
25.5845940907
31
0.0000000000
11
-8.7311755592
21
25.6113163882
31
0.0000000000
11
-8.7584176490
21
25.6393618967
31
0.0000000000
11
-8.7808834502
21
25.6685310719
31
0.0000000000
11
-8.7984126471
21
25.6986158997
31
0.0000000000
11
-8.8108803866
21
25.7294022946
31
0.0000000000
11
-8.8181976344
21
25.7606707300
31
0.0000000000
11
-8.8203121687
21
25.7921986239
31
0.0000000000
11
-8.8172087822
21
25.8237610883
31
0.0000000000
11
-8.8089094524
21
25.8551334304
31
0.0000000000
11
-8.7954731695
21
25.8860920580
31
0.0000000000
11
-8.7769955127
21
25.9164163800
31
0.0000000000
11
-8.7536083488
21
25.9458898835
31
0.0000000000
11
-8.7254780617
21
25.9743028545
31
0.0000000000
11
-8.6928047964
21
26.0014529261
31
0.0000000000
11
-8.6558225977
21
26.0271457572
31
0.0000000000
11
-8.6148037439
21
26.0511936987
31
0.0000000000
0
SPLINE
5
371
100
AcDbEntity
8
0
100
AcDbSpline
62
9
6
CONTINUOUS
70
0
71
3
72
35
73
31
74
29
42
0.0000001000
43
0.0000001000
44
0.0000000001
12
-1.6961788669
22
-0.8751140136
32
0.0000000000
13
-0.0004762193
23
1.9107582329
33
0.0000000000
40
0.0000000000
40
0.0000000000
40
0.0000000000
40
0.0000000000
40
0.0354132497
40
0.0724299410
40
0.1109178799
40
0.1507167075
40
0.1916471334
40
0.2335136308
40
0.2761066976
40
0.3192077505
40
0.3625915314
40
0.4060295105
40
0.4492918619
40
0.4921516145
40
0.5343864473
40
0.5757828673
40
0.6161381284
40
0.6552649256
40
0.6929937929
40
0.7291785315
40
0.7636996749
40
0.7964712657
40
0.8274462243
40
0.8566252174
40
0.8840645344
40
0.9098866823
40
0.9342883804
40
0.9575465973
40
0.9800148788
40
1.0000000000
40
1.0000000000
40
1.0000000000
40
1.0000000000
10
-7.3903325312
20
25.2348003948
30
0.0000000000
10
-7.4103549332
20
25.2244701845
30
0.0000000000
10
-7.4520466201
20
25.2047535871
30
0.0000000000
10
-7.5176072139
20
25.1785457441
30
0.0000000000
10
-7.5871884496
20
25.1551976304
30
0.0000000000
10
-7.6602960469
20
25.1348756009
30
0.0000000000
10
-7.7364139923
20
25.1177228041
30
0.0000000000
10
-7.8150032025
20
25.1038609877
30
0.0000000000
10
-7.8955068204
20
25.0933885246
30
0.0000000000
10
-7.9773535846
20
25.0863798560
30
0.0000000000
10
-8.0599630197
20
25.0828847299
30
0.0000000000
10
-8.1427488725
20
25.0829279290
30
0.0000000000
10
-8.2251238457
20
25.0865090382
30
0.0000000000
10
-8.3065033304
20
25.0936024434
30
0.0000000000
10
-8.3863104520
20
25.1041575908
30
0.0000000000
10
-8.4639794926
20
25.1180993473
30
0.0000000000
10
-8.5389607907
20
25.1353287419
30
0.0000000000
10
-8.6107240053
20
25.1557236940
30
0.0000000000
10
-8.6787628142
20
25.1791403315
30
0.0000000000
10
-8.7425978355
20
25.2054141862
30
0.0000000000
10
-8.8017807932
20
25.2343622200
30
0.0000000000
10
-8.8558967857
20
25.2657846771
30
0.0000000000
10
-8.9045672217
20
25.2994679684
30
0.0000000000
10
-8.9474503596
20
25.3351871197
30
0.0000000000
10
-8.9842412818
20
25.3727086834
30
0.0000000000
10
-9.0146687775
20
25.4117912966
30
0.0000000000
10
-9.0384917117
20
25.4521831871
30
0.0000000000
10
-9.0554969561
20
25.4936128000
30
0.0000000000
10
-9.0651959303
20
25.5344651274
30
0.0000000000
10
-9.0672470607
20
25.5615055704
30
0.0000000000
10
-9.0672502332
20
25.5742344820
30
0.0000000000
11
-7.3903325312
21
25.2348003948
31
0.0000000000
11
-7.4513913286
21
25.2058122647
31
0.0000000000
11
-7.5169624227
21
25.1795065609
31
0.0000000000
11
-7.5865822151
21
25.1560691486
31
0.0000000000
11
-7.6597523181
21
25.1356678772
31
0.0000000000
11
-7.7359516236
21
25.1184479164
31
0.0000000000
11
-7.8146379426
21
25.1045317724
31
0.0000000000
11
-7.8952494708
21
25.0940187624
31
0.0000000000
11
-7.9772118271
21
25.0869836847
31
0.0000000000
11
-8.0599408670
21
25.0834765684
31
0.0000000000
11
-8.1428476433
21
25.0835223006
31
0.0000000000
11
-8.2253407901
21
25.0871204686
31
0.0000000000
11
-8.3068330888
21
25.0942453657
31
0.0000000000
11
-8.3867434552
21
25.1048460956
31
0.0000000000
11
-8.4645032483
21
25.1188471432
31
0.0000000000
11
-8.5395579505
21
25.1361485899
31
0.0000000000
11
-8.6113735564
21
25.1566272729
31
0.0000000000
11
-8.6794379540
21
25.1801371057
31
0.0000000000
11
-8.7432669208
21
25.2065107963
31
0.0000000000
11
-8.8024052734
21
25.2355602436
31
0.0000000000
11
-8.8564322757
21
25.2670787750
31
0.0000000000
11
-8.9049626063
21
25.3008416211
31
0.0000000000
11
-8.9476509416
21
25.3366085877
31
0.0000000000
11
-8.9841927728
21
25.3741246242
31
0.0000000000
11
-9.0143279877
21
25.4131228118
31
0.0000000000
11
-9.0378415451
21
25.4533250513
31
0.0000000000
11
-9.0545659699
21
25.4944452700
31
0.0000000000
11
-9.0643818300
21
25.5361902631
31
0.0000000000
11
-9.0672502332
21
25.5742344820
31
0.0000000000
0
SPLINE
5
372
100
AcDbEntity
8
0
100
AcDbSpline
62
9
6
CONTINUOUS
70
0
71
3
72
44
73
40
74
38
42
0.0000001000
43
0.0000001000
44
0.0000000001
12
-1.5720982315
22
-0.8196732441
32
0.0000000000
13
1.5833321492
23
0.7977570945
33
0.0000000000
40
0.0000000000
40
0.0000000000
40
0.0000000000
40
0.0000000000
40
0.0271060526
40
0.0528022306
40
0.0770596845
40
0.0998977821
40
0.1213852591
40
0.1416466995
40
0.1608679811
40
0.1792986033
40
0.1972446562
40
0.2150514400
40
0.2330759163
40
0.2516567521
40
0.2710884251
40
0.2916066761
40
0.3133834020
40
0.3365301376
40
0.3611038679
40
0.3871153775
40
0.4145356687
40
0.4433032418
40
0.4733285887
40
0.5044997829
40
0.5366853789
40
0.5697388817
40
0.6035007389
40
0.6378021608
40
0.6724666893
40
0.7073135832
40
0.7421592647
40
0.7768206664
40
0.8111168016
40
0.8448714917
40
0.8779152685
40
0.9100892865
40
0.9412470500
40
0.9712565375
40
1.0000000000
40
1.0000000000
40
1.0000000000
40
1.0000000000
10
7.4911800340
20
18.0074323095
30
0.0000000000
10
7.4769755749
20
18.0000262741
30
0.0000000000
10
7.4497683440
20
17.9846819022
30
0.0000000000
10
7.4118471807
20
17.9593811480
30
0.0000000000
10
7.3781383764
20
17.9325630559
30
0.0000000000
10
7.3488869634
20
17.9044093991
30
0.0000000000
10
7.3243037768
20
17.8751035987
30
0.0000000000
10
7.3045760072
20
17.8448348796
30
0.0000000000
10
7.2898689026
20
17.8138024583
30
0.0000000000
10
7.2803245471
20
17.7822240359
30
0.0000000000
10
7.2760512215
20
17.7503439919
30
0.0000000000
10
7.2771046822
20
17.7184325362
30
0.0000000000
10
7.2834730002
20
17.6867683271
30
0.0000000000
10
7.2950791205
20
17.6556147054
30
0.0000000000
10
7.3117987604
20
17.6252060806
30
0.0000000000
10
7.3334779291
20
17.5957506808
30
0.0000000000
10
7.3599409661
20
17.5674397280
30
0.0000000000
10
7.3909902310
20
17.5404552999
30
0.0000000000
10
7.4264035717
20
17.5149731027
30
0.0000000000
10
7.4659317522
20
17.4911625854
30
0.0000000000
10
7.5092981017
20
17.4691849649
30
0.0000000000
10
7.5561986776
20
17.4491914309
30
0.0000000000
10
7.6063042815
20
17.4313209478
30
0.0000000000
10
7.6592620471
20
17.4156988203
30
0.0000000000
10
7.7146984791
20
17.4024351180
30
0.0000000000
10
7.7722215947
20
17.3916237386
30
0.0000000000
10
7.8314244035
20
17.3833413786
30
0.0000000000
10
7.8918873159
20
17.3776469625
30
0.0000000000
10
7.9531817815
20
17.3745810546
30
0.0000000000
10
8.0148728273
20
17.3741655688
30
0.0000000000
10
8.0765228197
20
17.3764035459
30
0.0000000000
10
8.1376942398
20
17.3812791337
30
0.0000000000
10
8.1979532175
20
17.3887577375
30
0.0000000000
10
8.2568720955
20
17.3987861988
30
0.0000000000
10
8.3140333122
20
17.4112933514
30
0.0000000000
10
8.3690319432
20
17.4261903752
30
0.0000000000
10
8.4214795939
20
17.4433723354
30
0.0000000000
10
8.4709995594
20
17.4627149956
30
0.0000000000
10
8.5025446227
20
17.4772910070
30
0.0000000000
10
8.5177147721
20
17.4849344407
30
0.0000000000
11
7.4911800340
21
18.0074323095
31
0.0000000000
11
7.4493642282
21
17.9837472391
31
0.0000000000
11
7.4115227143
21
17.9583787888
31
0.0000000000
11
7.3779380665
21
17.9315143440
31
0.0000000000
11
7.3488508934
21
17.9033461977
31
0.0000000000
11
7.3244681295
21
17.8740749582
31
0.0000000000
11
7.3049632678
21
17.8439089165
31
0.0000000000
11
7.2904755109
21
17.8130634585
31
0.0000000000
11
7.2811079318
21
17.7817583692
31
0.0000000000
11
7.2769271366
21
17.7502167604
31
0.0000000000
11
7.2779627761
21
17.7186631871
31
0.0000000000
11
7.2842073391
21
17.6873227218
31
0.0000000000
11
7.2956162385
21
17.6564184655
31
0.0000000000
11
7.3121079892
21
17.6261707863
31
0.0000000000
11
7.3335651167
21
17.5967949343
31
0.0000000000
11
7.3598344956
21
17.5685003990
31
0.0000000000
11
7.3907291233
21
17.5414884997
31
0.0000000000
11
7.4260286081
21
17.5159518629
31
0.0000000000
11
7.4654817606
21
17.4920721676
31
0.0000000000
11
7.5088071878
21
17.4700197141
31
0.0000000000
11
7.5556966432
21
17.4499513997
31
0.0000000000
11
7.6058157306
21
17.4320103596
31
0.0000000000
11
7.6588078841
21
17.4163242618
31
0.0000000000
11
7.7142951868
21
17.4030050122
31
0.0000000000
11
7.7718828367
21
17.3921474250
31
0.0000000000
11
7.8311601508
21
17.3838289831
31
0.0000000000
11
7.8917053064
21
17.3781089387
31
0.0000000000
11
7.9530865692
21
17.3750281464
31
0.0000000000
11
8.0148669982
21
17.3746086047
31
0.0000000000
11
8.0766059067
21
17.3768533690
31
0.0000000000
11
8.1378637750
21
17.3817465173
31
0.0000000000
11
8.1982040079
21
17.3892532565
31
0.0000000000
11
8.2571966551
21
17.3993201790
31
0.0000000000
11
8.3144205082
21
17.4118754378
31
0.0000000000
11
8.3694684020
21
17.4268297100
31
0.0000000000
11
8.4219482617
21
17.4440765923
31
0.0000000000
11
8.4714844302
21
17.4634925404
31
0.0000000000
11
8.5177147721
21
17.4849344407
31
0.0000000000
0
SPLINE
5
373
100
AcDbEntity
8
0
100
AcDbSpline
62
9
6
CONTINUOUS
70
0
71
3
72
13
73
9
74
7
42
0.0000001000
43
0.0000001000
44
0.0000000001
12
-0.1045767363
22
0.0522883681
32
0.0000000000
13
-0.1038596099
23
-0.0541185823
33
0.0000000000
40
0.0000000000
40
0.0000000000
40
0.0000000000
40
0.0000000000
40
0.1979474243
40
0.3837523913
40
0.5583960159
40
0.7237674766
40
0.8826658132
40
1.0000000000
40
1.0000000000
40
1.0000000000
40
1.0000000000
10
7.4911800340
20
18.0074323095
30
0.0000000000
10
7.4842798021
20
18.0108824254
30
0.0000000000
10
7.4705069131
20
18.0168258247
30
0.0000000000
10
7.4494999125
20
18.0227690270
30
0.0000000000
10
7.4290828989
20
18.0253554197
30
0.0000000000
10
7.4095536662
20
18.0245124752
30
0.0000000000
10
7.3926914357
20
18.0205610492
30
0.0000000000
10
7.3827518429
20
18.0162980274
30
0.0000000000
10
7.3786897486
20
18.0141813741
30
0.0000000000
11
7.4911800340
21
18.0074323095
31
0.0000000000
11
7.4698944556
21
18.0165192589
31
0.0000000000
11
7.4489642570
21
18.0223395264
31
0.0000000000
11
7.4286946476
21
18.0248082391
31
0.0000000000
11
7.4093812040
21
18.0238893973
31
0.0000000000
11
7.3913055597
21
18.0195963995
31
0.0000000000
11
7.3786897486
21
18.0141813741
31
0.0000000000
0
SPLINE
5
374
100
AcDbEntity
8
0
100
AcDbSpline
62
7
6
CONTINUOUS
70
0
71
3
72
21
73
17
74
15
42
0.0000001000
43
0.0000001000
44
0.0000000001
12
0.3292079163
22
-0.1646039582
32
0.0000000000
13
-0.0000000000
23
-0.3680656398
33
0.0000000000
40
0.0000000000
40
0.0000000000
40
0.0000000000
40
0.0000000000
40
0.0618523421
40
0.1269655935
40
0.1948993807
40
0.2655984585
40
0.3382988610
40
0.4128104670
40
0.4883601078
40
0.5644446137
40
0.6405485932
40
0.7158489471
40
0.7900931850
40
0.8623947193
40
0.9325752827
40
1.0000000000
40
1.0000000000
40
1.0000000000
40
1.0000000000
10
9.9816705039
20
18.2225567870
30
0.0000000000
10
9.9884579308
20
18.2191630736
30
0.0000000000
10
10.0020064347
20
18.2114081992
30
0.0000000000
10
10.0215166061
20
18.1975267378
30
0.0000000000
10
10.0405316986
20
18.1812524048
30
0.0000000000
10
10.0587931541
20
18.1628077675
30
0.0000000000
10
10.0761006921
20
18.1423980451
30
0.0000000000
10
10.0922208573
20
18.1202990158
30
0.0000000000
10
10.1069651234
20
18.0967690190
30
0.0000000000
10
10.1201462635
20
18.0721078398
30
0.0000000000
10
10.1315957331
20
18.0466299656
30
0.0000000000
10
10.1411800436
20
18.0206334463
30
0.0000000000
10
10.1487693431
20
17.9944703675
30
0.0000000000
10
10.1542784426
20
17.9684310569
30
0.0000000000
10
10.1576321308
20
17.9428707569
30
0.0000000000
10
10.1584202753
20
17.9259807659
30
0.0000000000
10
10.1584202753
20
17.9177085253
30
0.0000000000
11
9.9816705039
21
18.2225567870
31
0.0000000000
11
10.0014594048
21
18.2113016774
31
0.0000000000
11
10.0210183191
21
18.1974519243
31
0.0000000000
11
10.0400433692
21
18.1812268780
31
0.0000000000
11
10.0583767153
21
18.1627599409
31
0.0000000000
11
10.0757033739
21
18.1423686363
31
0.0000000000
11
10.0918805740
21
18.1202228081
31
0.0000000000
11
10.1066547310
21
18.0966650886
31
0.0000000000
11
10.1198580041
21
18.0719688790
31
0.0000000000
11
10.1313356828
21
18.0464170969
31
0.0000000000
11
10.1409115346
21
18.0204084347
31
0.0000000000
11
10.1485051684
21
17.9941579462
31
0.0000000000
11
10.1539859190
21
17.9681167383
31
0.0000000000
11
10.1573093017
21
17.9425003670
31
0.0000000000
11
10.1584202753
21
17.9177085253
31
0.0000000000
0
SPLINE
5
375
100
AcDbEntity
8
0
100
AcDbSpline
62
7
6
CONTINUOUS
70
0
71
3
72
21
73
17
74
15
42
0.0000001000
43
0.0000001000
44
0.0000000001
12
-0.0004704177
22
0.0848005049
32
0.0000000000
13
0.0671929938
23
0.0483123609
33
0.0000000000
40
0.0000000000
40
0.0000000000
40
0.0000000000
40
0.0000000000
40
0.0007021003
40
0.0256926162
40
0.0600112594
40
0.1042146146
40
0.1581467727
40
0.2214213223
40
0.2935639320
40
0.3740573971
40
0.4623633907
40
0.5579150595
40
0.6601144503
40
0.7683251285
40
0.8818647863
40
1.0000000000
40
1.0000000000
40
1.0000000000
40
1.0000000000
10
-0.9407212687
20
4.2253120387
30
0.0000000000
10
-0.9407213788
20
4.2253318848
30
0.0000000000
10
-0.9407188995
20
4.2260572431
30
0.0000000000
10
-0.9401660039
20
4.2276491210
30
0.0000000000
10
-0.9387236695
20
4.2301183010
30
0.0000000000
10
-0.9364816369
20
4.2330146795
30
0.0000000000
10
-0.9335014959
20
4.2363248015
30
0.0000000000
10
-0.9298056313
20
4.2400190565
30
0.0000000000
10
-0.9254373819
20
4.2440692879
30
0.0000000000
10
-0.9204349497
20
4.2484469731
30
0.0000000000
10
-0.9148393174
20
4.2531241115
30
0.0000000000
10
-0.9086918487
20
4.2580724440
30
0.0000000000
10
-0.9020358614
20
4.2632629698
30
0.0000000000
10
-0.8949169818
20
4.2686654960
30
0.0000000000
10
-0.8873838583
20
4.2742482745
30
0.0000000000
10
-0.8822112134
20
4.2780019925
30
0.0000000000
10
-0.8795652606
20
4.2799044562
30
0.0000000000
11
-0.9407212687
21
4.2253120387
31
0.0000000000
11
-0.9407210684
21
4.2253714957
31
0.0000000000
11
-0.9402022366
21
4.2273735398
31
0.0000000000
11
-0.9388165103
21
4.2298527099
31
0.0000000000
11
-0.9366157261
21
4.2327748712
31
0.0000000000
11
-0.9336477897
21
4.2361084632
31
0.0000000000
11
-0.9299576452
21
4.2398238220
31
0.0000000000
11
-0.9255882549
21
4.2438925248
31
0.0000000000
11
-0.9205815903
21
4.2482867510
31
0.0000000000
11
-0.9149789930
21
4.2529791830
31
0.0000000000
11
-0.9088225239
21
4.2579420381
31
0.0000000000
11
-0.9021556650
21
4.2631467155
31
0.0000000000
11
-0.8950241366
21
4.2685633393
31
0.0000000000
11
-0.8874766170
21
4.2741603851
31
0.0000000000
11
-0.8795652606
21
4.2799044562
31
0.0000000000
0
SPLINE
5
376
100
AcDbEntity
8
0
100
AcDbSpline
62
9
6
CONTINUOUS
70
0
71
3
72
13
73
9
74
7
42
0.0000001000
43
0.0000001000
44
0.0000000001
12
0.0832014680
22
0.0415825694
32
0.0000000000
13
0.0830584734
23
-0.0415292367
33
0.0000000000
40
0.0000000000
40
0.0000000000
40
0.0000000000
40
0.0000000000
40
0.1062064051
40
0.2680791496
40
0.4360090007
40
0.6128202256
40
0.8004639749
40
1.0000000000
40
1.0000000000
40
1.0000000000
40
1.0000000000
10
-2.0955775032
20
-9.8024954459
30
0.0000000000
10
-2.0926319936
20
-9.8010233342
30
0.0000000000
10
-2.0849527540
20
-9.7977952672
30
0.0000000000
10
-2.0717408603
20
-9.7946558389
30
0.0000000000
10
-2.0559936638
20
-9.7939135833
30
0.0000000000
10
-2.0395671606
20
-9.7959341033
30
0.0000000000
10
-2.0227027151
20
-9.8006604145
30
0.0000000000
10
-2.0116609972
20
-9.8054136549
30
0.0000000000
10
-2.0061366114
20
-9.8081758478
30
0.0000000000
11
-2.0955775032
21
-9.8024954459
31
0.0000000000
11
-2.0864776416
21
-9.7986692675
31
0.0000000000
11
-2.0718623237
21
-9.7951551170
31
0.0000000000
11
-2.0562884311
21
-9.7943569021
31
0.0000000000
11
-2.0399831047
21
-9.7962862743
31
0.0000000000
11
-2.0231841473
21
-9.8009150998
31
0.0000000000
11
-2.0061366114
21
-9.8081758478
31
0.0000000000
0
SPLINE
5
377
100
AcDbEntity
8
0
100
AcDbSpline
62
9
6
CONTINUOUS
70
0
71
3
72
20
73
16
74
14
42
0.0000001000
43
0.0000001000
44
0.0000000001
12
0.3259403144
22
-0.1688824914
32
0.0000000000
13
0.0053584715
23
-0.3670554063
33
0.0000000000
40
0.0000000000
40
0.0000000000
40
0.0000000000
40
0.0000000000
40
0.0663354527
40
0.1365374848
40
0.2102621574
40
0.2870211609
40
0.3662149135
40
0.4471617247
40
0.5291241730
40
0.6113337131
40
0.6930143491
40
0.7734060905
40
0.8517888776
40
0.9275077279
40
1.0000000000
40
1.0000000000
40
1.0000000000
40
1.0000000000
10
8.5177147721
20
17.4849344407
30
0.0000000000
10
8.5249219048
20
17.4812001419
30
0.0000000000
10
8.5393033867
20
17.4726175814
30
0.0000000000
10
8.5599508187
20
17.4572033259
30
0.0000000000
10
8.5800265168
20
17.4390885468
30
0.0000000000
10
8.5992410094
20
17.4185359084
30
0.0000000000
10
8.6173208606
20
17.3958402483
30
0.0000000000
10
8.6340060222
20
17.3713285217
30
0.0000000000
10
8.6490562748
20
17.3453540489
30
0.0000000000
10
8.6622545032
20
17.3182916326
30
0.0000000000
10
8.6734102475
20
17.2905317168
30
0.0000000000
10
8.6823625137
20
17.2624749402
30
0.0000000000
10
8.6889821233
20
17.2345243263
30
0.0000000000
10
8.6931732111
20
17.2070850184
30
0.0000000000
10
8.6943350608
20
17.1889557392
30
0.0000000000
10
8.6944645434
20
17.1800861791
30
0.0000000000
11
8.5177147721
21
17.4849344407
31
0.0000000000
11
8.5386662862
21
17.4725238078
31
0.0000000000
11
8.5593573699
21
17.4571611187
31
0.0000000000
11
8.5794864173
21
17.4390703094
31
0.0000000000
11
8.5987600153
21
17.4185150824
31
0.0000000000
11
8.6168972204
21
17.3957950631
31
0.0000000000
11
8.6336336536
21
17.3712414322
31
0.0000000000
11
8.6487253545
21
17.3452120984
31
0.0000000000
11
8.6619523376
21
17.3180864808
31
0.0000000000
11
8.6731217981
21
17.2902599789
31
0.0000000000
11
8.6820709234
21
17.2621382085
31
0.0000000000
11
8.6886692656
21
17.2341310897
31
0.0000000000
11
8.6928206433
21
17.2066468710
31
0.0000000000
11
8.6944645434
21
17.1800861791
31
0.0000000000
0
SPLINE
5
378
100
AcDbEntity
8
0
100
AcDbSpline
62
9
6
CONTINUOUS
70
0
71
3
72
21
73
17
74
15
42
0.0000001000
43
0.0000001000
44
0.0000000001
12
0.3259531603
22
-0.1688891474
32
0.0000000000
13
0.0053586827
23
-0.3670698726
33
0.0000000000
40
0.0000000000
40
0.0000000000
40
0.0000000000
40
0.0000000000
40
0.0614678082
40
0.1262861993
40
0.1941935461
40
0.2648171460
40
0.3376966215
40
0.4123046395
40
0.4880656407
40
0.5643732193
40
0.6406066886
40
0.7161472857
40
0.7903944245
40
0.8627824112
40
0.9327980930
40
1.0000000000
40
1.0000000000
40
1.0000000000
40
1.0000000000
10
4.7625234974
20
14.2016112164
30
0.0000000000
10
4.7692020396
20
14.1981508012
30
0.0000000000
10
4.7825345866
20
14.1902729159
30
0.0000000000
10
4.8017554610
20
14.1762468619
30
0.0000000000
10
4.8205203471
20
14.1598590531
30
0.0000000000
10
4.8385954354
20
14.1413148776
30
0.0000000000
10
4.8557585593
20
14.1208441311
30
0.0000000000
10
4.8717966299
20
14.0987014640
30
0.0000000000
10
4.8865103386
20
14.0751624405
30
0.0000000000
10
4.8997164525
20
14.0505202987
30
0.0000000000
10
4.9112504168
20
14.0250821460
30
0.0000000000
10
4.9209684840
20
13.9991648982
30
0.0000000000
10
4.9287495457
20
13.9730914981
30
0.0000000000
10
4.9344966215
20
13.9471853481
30
0.0000000000
10
4.9381377942
20
13.9217707554
30
0.0000000000
10
4.9391532309
20
13.9049855532
30
0.0000000000
10
4.9392732688
20
13.8967629547
30
0.0000000000
11
4.7625234974
21
14.2016112164
31
0.0000000000
11
4.7819835056
21
14.1901873524
31
0.0000000000
11
4.8012376705
21
14.1762052621
31
0.0000000000
11
4.8200439537
21
14.1598407104
31
0.0000000000
11
4.8381659469
21
14.1412994111
31
0.0000000000
11
4.8553758438
21
14.1208144417
31
0.0000000000
11
4.8714573037
21
14.0986433127
31
0.0000000000
11
4.8862081714
21
14.0750647308
31
0.0000000000
11
4.8994430179
21
14.0503750957
31
0.0000000000
11
4.9109954719
21
14.0248847734
31
0.0000000000
11
4.9207203108
21
13.9989141955
31
0.0000000000
11
4.9284952864
21
13.9727898304
31
0.0000000000
11
4.9342226620
21
13.9468400801
31
0.0000000000
11
4.9378304402
21
13.9213911512
31
0.0000000000
11
4.9392732688
21
13.8967629547
31
0.0000000000
0
SPLINE
5
379
100
AcDbEntity
8
0
100
AcDbSpline
62
7
6
CONTINUOUS
70
0
71
3
72
20
73
16
74
14
42
0.0000001000
43
0.0000001000
44
0.0000000001
12
0.6486291045
22
0.0197086609
32
0.0000000000
13
0.6454744724
23
-0.0668644295
33
0.0000000000
40
0.0000000000
40
0.0000000000
40
0.0000000000
40
0.0000000000
40
0.0911854310
40
0.1806343918
40
0.2680636233
40
0.3532804087
40
0.4361389155
40
0.5165171310
40
0.5943009482
40
0.6693775740
40
0.7416320985
40
0.8109457706
40
0.8771966426
40
0.9402581858
40
1.0000000000
40
1.0000000000
40
1.0000000000
40
1.0000000000
10
8.0499481808
20
15.8579986708
30
0.0000000000
10
8.0696633556
20
15.8585977184
30
0.0000000000
10
8.1087580725
20
15.8586164020
30
0.0000000000
10
8.1666985277
20
15.8560571348
30
0.0000000000
10
8.2232296585
20
15.8516592596
30
0.0000000000
10
8.2782099735
20
15.8459864633
30
0.0000000000
10
8.3315588730
20
15.8394725773
30
0.0000000000
10
8.3832213487
20
15.8324614356
30
0.0000000000
10
8.4331530669
20
15.8252338512
30
0.0000000000
10
8.4813112392
20
15.8180262459
30
0.0000000000
10
8.5276504002
20
15.8110434554
30
0.0000000000
10
8.5721202137
20
15.8044676771
30
0.0000000000
10
8.6146640676
20
15.7984647706
30
0.0000000000
10
8.6552175037
20
15.7931888082
30
0.0000000000
10
8.6816106048
20
15.7901687766
30
0.0000000000
10
8.6944645434
20
15.7888372425
30
0.0000000000
11
8.0499481808
21
15.8579986708
31
0.0000000000
11
8.1091207472
21
15.8581723515
31
0.0000000000
11
8.1671145020
21
15.8557106902
31
0.0000000000
11
8.2236844500
21
15.8513820494
31
0.0000000000
11
8.2786975842
21
15.8457606140
31
0.0000000000
11
8.3320756778
21
15.8392867709
31
0.0000000000
11
8.3837664705
21
15.8323084139
31
0.0000000000
11
8.4337265693
21
15.8251092124
31
0.0000000000
11
8.4819137235
21
15.8179276996
31
0.0000000000
11
8.5282827038
21
15.8109704130
31
0.0000000000
11
8.5727829502
21
15.8044210783
31
0.0000000000
11
8.6153579257
21
15.7984469592
31
0.0000000000
11
8.6559430397
21
15.7932035051
31
0.0000000000
11
8.6944645434
21
15.7888372425
31
0.0000000000
0
SPLINE
5
37A
100
AcDbEntity
8
0
100
AcDbSpline
62
9
6
CONTINUOUS
70
0
71
3
72
14
73
10
74
8
42
0.0000001000
43
0.0000001000
44
0.0000000001
12
-0.1081663861
22
0.0521884295
32
0.0000000000
13
-0.1058344693
23
-0.0571198585
33
0.0000000000
40
0.0000000000
40
0.0000000000
40
0.0000000000
40
0.0000000000
40
0.1813585329
40
0.3527505987
40
0.5148222611
40
0.6688438726
40
0.8167258704
40
0.9609459076
40
1.0000000000
40
1.0000000000
40
1.0000000000
40
1.0000000000
10
-12.2411498050
20
22.7034478676
30
0.0000000000
10
-12.2476887707
20
22.7066028066
30
0.0000000000
10
-12.2607435488
20
22.7120797565
30
0.0000000000
10
-12.2806199003
20
22.7177285951
30
0.0000000000
10
-12.3000049669
20
22.7204991370
30
0.0000000000
10
-12.3186561073
20
22.7203350903
30
0.0000000000
10
-12.3363309567
20
22.7172144709
30
0.0000000000
10
-12.3488403751
20
22.7126090784
30
0.0000000000
10
-12.3553925608
20
22.7092803973
30
0.0000000000
10
-12.3567703172
20
22.7085368092
30
0.0000000000
11
-12.2411498050
21
22.7034478676
31
0.0000000000
11
-12.2612615474
21
22.7118098789
31
0.0000000000
11
-12.2810816880
21
22.7173649414
31
0.0000000000
11
-12.3003610736
21
22.7200432240
31
0.0000000000
11
-12.3188573488
21
22.7198110590
31
0.0000000000
11
-12.3363380021
21
22.7166713647
31
0.0000000000
11
-12.3525832895
21
22.7106636093
31
0.0000000000
11
-12.3567703172
21
22.7085368092
31
0.0000000000
0
SPLINE
5
37B
100
AcDbEntity
8
0
100
AcDbSpline
62
9
6
CONTINUOUS
70
0
71
3
72
20
73
16
74
14
42
0.0000001000
43
0.0000001000
44
0.0000000001
12
-0.3233360173
22
-0.1685802865
32
0.0000000000
13
0.0000000000
23
-0.3646443378
33
0.0000000000
40
0.0000000000
40
0.0000000000
40
0.0000000000
40
0.0000000000
40
0.0671085764
40
0.1378762364
40
0.2119268150
40
0.2888003223
40
0.3679284895
40
0.4486699965
40
0.5303309064
40
0.6121889653
40
0.6935158242
40
0.7735994342
40
0.8517667386
40
0.9274075459
40
1.0000000000
40
1.0000000000
40
1.0000000000
40
1.0000000000
10
-12.2411498050
20
22.7034478676
30
0.0000000000
10
-12.2483826783
20
22.6996768066
30
0.0000000000
10
-12.2627949789
20
22.6910477333
30
0.0000000000
10
-12.2834554772
20
22.6755998343
30
0.0000000000
10
-12.3034725338
20
22.6575062469
30
0.0000000000
10
-12.3225588137
20
22.6370274912
30
0.0000000000
10
-12.3404484557
20
22.6144512557
30
0.0000000000
10
-12.3568895698
20
22.5900961122
30
0.0000000000
10
-12.3716506387
20
22.5643055637
30
0.0000000000
10
-12.3845233232
20
22.5374437572
30
0.0000000000
10
-12.3953258451
20
22.5098898564
30
0.0000000000
10
-12.4039055933
20
22.4820329273
30
0.0000000000
10
-12.4101412601
20
22.4542644509
30
0.0000000000
10
-12.4139442810
20
22.4269784460
30
0.0000000000
10
-12.4148413216
20
22.4089522092
30
0.0000000000
10
-12.4148413216
20
22.4001287334
30
0.0000000000
11
-12.2411498050
21
22.7034478676
31
0.0000000000
11
-12.2621824780
21
22.6909400748
31
0.0000000000
11
-12.2828865606
21
22.6755374661
31
0.0000000000
11
-12.3029514234
21
22.6574677125
31
0.0000000000
11
-12.3220914586
21
22.6369878825
31
0.0000000000
11
-12.3400329993
21
22.6143906802
31
0.0000000000
11
-12.3565203451
21
22.5899981636
31
0.0000000000
11
-12.3713183058
21
22.5641582466
31
0.0000000000
11
-12.3842158173
21
22.5372394496
31
0.0000000000
11
-12.3950289076
21
22.5096257110
31
0.0000000000
11
-12.4036033413
21
22.4817108774
31
0.0000000000
11
-12.4098168143
21
22.4538930978
31
0.0000000000
11
-12.4135807027
21
22.4265691260
31
0.0000000000
11
-12.4148413216
21
22.4001287334
31
0.0000000000
0
SPLINE
5
37C
100
AcDbEntity
8
0
100
AcDbSpline
62
9
6
CONTINUOUS
70
0
71
3
72
20
73
16
74
14
42
0.0000001000
43
0.0000001000
44
0.0000000001
12
-0.3233360173
22
-0.1685802865
32
0.0000000000
13
0.0000000000
23
-0.3646443378
33
0.0000000000
40
0.0000000000
40
0.0000000000
40
0.0000000000
40
0.0000000000
40
0.0671085764
40
0.1378762364
40
0.2119268150
40
0.2888003223
40
0.3679284895
40
0.4486699965
40
0.5303309064
40
0.6121889653
40
0.6935158242
40
0.7735994342
40
0.8517667386
40
0.9274075459
40
1.0000000000
40
1.0000000000
40
1.0000000000
40
1.0000000000
10
4.7625234974
20
14.2016112164
30
0.0000000000
10
4.7552906242
20
14.1978401554
30
0.0000000000
10
4.7408783236
20
14.1892110821
30
0.0000000000
10
4.7202178253
20
14.1737631830
30
0.0000000000
10
4.7002007687
20
14.1556695957
30
0.0000000000
10
4.6811144887
20
14.1351908399
30
0.0000000000
10
4.6632248468
20
14.1126146044
30
0.0000000000
10
4.6467837327
20
14.0882594610
30
0.0000000000
10
4.6320226638
20
14.0624689124
30
0.0000000000
10
4.6191499792
20
14.0356071059
30
0.0000000000
10
4.6083474573
20
14.0080532052
30
0.0000000000
10
4.5997677092
20
13.9801962761
30
0.0000000000
10
4.5935320423
20
13.9524277997
30
0.0000000000
10
4.5897290214
20
13.9251417948
30
0.0000000000
10
4.5888319809
20
13.9071155579
30
0.0000000000
10
4.5888319809
20
13.8982920821
30
0.0000000000
11
4.7625234974
21
14.2016112164
31
0.0000000000
11
4.7414908245
21
14.1891034236
31
0.0000000000
11
4.7207867418
21
14.1737008149
31
0.0000000000
11
4.7007218791
21
14.1556310613
31
0.0000000000
11
4.6815818439
21
14.1351512313
31
0.0000000000
11
4.6636403032
21
14.1125540290
31
0.0000000000
11
4.6471529574
21
14.0881615124
31
0.0000000000
11
4.6323549967
21
14.0623215954
31
0.0000000000
11
4.6194574852
21
14.0354027983
31
0.0000000000
11
4.6086443949
21
14.0077890597
31
0.0000000000
11
4.6000699612
21
13.9798742262
31
0.0000000000
11
4.5938564881
21
13.9520564465
31
0.0000000000
11
4.5900925998
21
13.9247324748
31
0.0000000000
11
4.5888319809
21
13.8982920821
31
0.0000000000
0
SPLINE
5
37D
100
AcDbEntity
8
0
100
AcDbSpline
62
9
6
CONTINUOUS
70
0
71
3
72
20
73
16
74
14
42
0.0000001000
43
0.0000001000
44
0.0000000001
12
-0.3247014263
22
-0.1567802612
32
0.0000000000
13
-0.3225040360
23
0.1612520180
33
0.0000000000
40
0.0000000000
40
0.0000000000
40
0.0000000000
40
0.0000000000
40
0.0683609818
40
0.1409552537
40
0.2171396534
40
0.2962105943
40
0.3773779599
40
0.4597993323
40
0.5425992437
40
0.6248928491
40
0.7058079711
40
0.7845078926
40
0.8602152094
40
0.9322380621
40
1.0000000000
40
1.0000000000
40
1.0000000000
40
1.0000000000
10
4.9392732688
20
13.8967629547
30
0.0000000000
10
4.9318742994
20
13.8931904039
30
0.0000000000
10
4.9162582887
20
13.8865549200
30
0.0000000000
10
4.8914638908
20
13.8783334040
30
0.0000000000
10
4.8648862218
20
13.8716370157
30
0.0000000000
10
4.8369069015
20
13.8665632350
30
0.0000000000
10
4.8079192768
20
13.8631836074
30
0.0000000000
10
4.7783332626
20
13.8615463522
30
0.0000000000
10
4.7485671147
20
13.8616747801
30
0.0000000000
10
4.7190420027
20
13.8635670741
30
0.0000000000
10
4.6901753694
20
13.8671963158
30
0.0000000000
10
4.6623751237
20
13.8725107969
30
0.0000000000
10
4.6360319813
20
13.8794356843
30
0.0000000000
10
4.6115186613
20
13.8878721938
30
0.0000000000
10
4.5961164804
20
13.8946498324
30
0.0000000000
10
4.5888319809
20
13.8982920821
30
0.0000000000
11
4.9392732688
21
13.8967629547
31
0.0000000000
11
4.9166145785
21
13.8870596269
31
0.0000000000
11
4.8917867249
21
13.8787694711
31
0.0000000000
11
4.8651594161
21
13.8720182628
31
0.0000000000
11
4.8371115563
21
13.8669021574
31
0.0000000000
11
4.8080440805
21
13.8634943546
31
0.0000000000
11
4.7783712590
21
13.8618434196
31
0.0000000000
11
4.7485163366
21
13.8619729201
31
0.0000000000
11
4.7189051064
21
13.8638810237
31
0.0000000000
11
4.6899599186
21
13.8675405273
31
0.0000000000
11
4.6620936166
21
13.8728992446
31
0.0000000000
11
4.6357036614
21
13.8798807492
31
0.0000000000
11
4.6111664445
21
13.8883854692
31
0.0000000000
11
4.5888319809
21
13.8982920821
31
0.0000000000
0
SPLINE
5
37E
100
AcDbEntity
8
0
100
AcDbSpline
62
7
6
CONTINUOUS
70
0
71
3
72
16
73
12
74
10
42
0.0000001000
43
0.0000001000
44
0.0000000001
12
-0.3174201157
22
-0.3394104591
32
0.0000000000
13
-0.4219350432
23
-0.1949461982
33
0.0000000000
40
0.0000000000
40
0.0000000000
40
0.0000000000
40
0.0000000000
40
0.1189370807
40
0.2394716141
40
0.3612779593
40
0.4840820193
40
0.6076551278
40
0.7318090894
40
0.8563992623
40
0.9813285541
40
1.0000000000
40
1.0000000000
40
1.0000000000
40
1.0000000000
10
8.6944645434
20
-22.5034184386
30
0.0000000000
10
8.6818802028
20
-22.5168746016
30
0.0000000000
10
8.6560225538
20
-22.5434869130
30
0.0000000000
10
8.6154712759
20
-22.5820752069
30
0.0000000000
10
8.5729260975
20
-22.6193721910
30
0.0000000000
10
8.5284522991
20
-22.6551062515
30
0.0000000000
10
8.4821059647
20
-22.6889999789
30
0.0000000000
10
8.4339362512
20
-22.7207595844
30
0.0000000000
10
8.3839863604
20
-22.7500647111
30
0.0000000000
10
8.3469932150
20
-22.7690231939
30
0.0000000000
10
8.3268409817
20
-22.7784507603
30
0.0000000000
10
8.3242149360
20
-22.7796640695
30
0.0000000000
11
8.6944645434
21
-22.5034184386
31
0.0000000000
11
8.6559430397
21
-22.5430542725
31
0.0000000000
11
8.6153579257
21
-22.5816595379
31
0.0000000000
11
8.5727829502
21
-22.6189616741
31
0.0000000000
11
8.5282827038
21
-22.6546899556
31
0.0000000000
11
8.4819137235
21
-22.6885664665
31
0.0000000000
11
8.4337265693
21
-22.7202961513
31
0.0000000000
11
8.3837664705
21
-22.7495569691
31
0.0000000000
11
8.3320756778
21
-22.7759869199
31
0.0000000000
11
8.3242149360
21
-22.7796640695
31
0.0000000000
0
SPLINE
5
37F
100
AcDbEntity
8
0
100
AcDbSpline
62
7
6
CONTINUOUS
70
0
71
3
72
20
73
16
74
14
42
0.0000001000
43
0.0000001000
44
0.0000000001
12
0.3225040326
22
-0.1612520163
32
0.0000000000
13
0.3247014228
23
0.1567802596
33
0.0000000000
40
0.0000000000
40
0.0000000000
40
0.0000000000
40
0.0000000000
40
0.0677490944
40
0.1398014674
40
0.2154501947
40
0.2942121204
40
0.3750375578
40
0.4574155153
40
0.5401145373
40
0.6226215912
40
0.7037014228
40
0.7828373901
40
0.8589683541
40
0.9315981643
40
1.0000000000
40
1.0000000000
40
1.0000000000
40
1.0000000000
10
4.5888319809
20
-21.4502120924
30
0.0000000000
10
4.5961150996
20
-21.4538536517
30
0.0000000000
10
4.6115190445
20
-21.4606322341
30
0.0000000000
10
4.6360276552
20
-21.4690670301
30
0.0000000000
10
4.6623744854
20
-21.4759932714
30
0.0000000000
10
4.6901645485
20
-21.4813060307
30
0.0000000000
10
4.7190378095
20
-21.4849366987
30
0.0000000000
10
4.7485501944
20
-21.4868287555
30
0.0000000000
10
4.7783245895
20
-21.4869579841
30
0.0000000000
10
4.8078983764
20
-21.4853223552
30
0.0000000000
10
4.8368935965
20
-21.4819428019
30
0.0000000000
10
4.8648642148
20
-21.4768719564
30
0.0000000000
10
4.8914476291
20
-21.4701753674
30
0.0000000000
10
4.9162451904
20
-21.4619545535
30
0.0000000000
10
4.9318698777
20
-21.4553159056
30
0.0000000000
10
4.9392732688
20
-21.4517412198
30
0.0000000000
11
4.5888319809
21
-21.4502120924
31
0.0000000000
11
4.6111621299
21
-21.4601170104
31
0.0000000000
11
4.6357094177
21
-21.4686251757
31
0.0000000000
11
4.6620788707
21
-21.4756015758
31
0.0000000000
11
4.6899670754
21
-21.4809647832
31
0.0000000000
11
4.7188801120
21
-21.4846207737
31
0.0000000000
11
4.7485216550
21
-21.4865314366
31
0.0000000000
11
4.7783401963
21
-21.4866615479
31
0.0000000000
11
4.8080439161
21
-21.4850098340
31
0.0000000000
11
4.8370801607
21
-21.4816067014
31
0.0000000000
11
4.8651513197
21
-21.4764876690
31
0.0000000000
11
4.8917602664
21
-21.4697424367
31
0.0000000000
11
4.9166007915
21
-21.4614497718
31
0.0000000000
11
4.9392732688
21
-21.4517412198
31
0.0000000000
0
SPLINE
5
380
100
AcDbEntity
8
0
100
AcDbSpline
62
9
6
CONTINUOUS
70
0
71
3
72
20
73
16
74
14
42
0.0000001000
43
0.0000001000
44
0.0000000001
12
-0.3247014263
22
-0.1567802612
32
0.0000000000
13
-0.3225040360
23
0.1612520180
33
0.0000000000
40
0.0000000000
40
0.0000000000
40
0.0000000000
40
0.0000000000
40
0.0683609818
40
0.1409552537
40
0.2171396534
40
0.2962105943
40
0.3773779599
40
0.4597993323
40
0.5425992437
40
0.6248928491
40
0.7058079711
40
0.7845078926
40
0.8602152094
40
0.9322380621
40
1.0000000000
40
1.0000000000
40
1.0000000000
40
1.0000000000
10
4.9392732688
20
-24.2376902120
30
0.0000000000
10
4.9318742994
20
-24.2412627628
30
0.0000000000
10
4.9162582887
20
-24.2478982467
30
0.0000000000
10
4.8914638908
20
-24.2561197627
30
0.0000000000
10
4.8648862218
20
-24.2628161510
30
0.0000000000
10
4.8369069015
20
-24.2678899317
30
0.0000000000
10
4.8079192768
20
-24.2712695594
30
0.0000000000
10
4.7783332626
20
-24.2729068146
30
0.0000000000
10
4.7485671147
20
-24.2727783866
30
0.0000000000
10
4.7190420027
20
-24.2708860926
30
0.0000000000
10
4.6901753694
20
-24.2672568509
30
0.0000000000
10
4.6623751237
20
-24.2619423698
30
0.0000000000
10
4.6360319813
20
-24.2550174824
30
0.0000000000
10
4.6115186613
20
-24.2465809729
30
0.0000000000
10
4.5961164804
20
-24.2398033343
30
0.0000000000
10
4.5888319809
20
-24.2361610846
30
0.0000000000
11
4.9392732688
21
-24.2376902120
31
0.0000000000
11
4.9166145785
21
-24.2473935398
31
0.0000000000
11
4.8917867249
21
-24.2556836956
31
0.0000000000
11
4.8651594161
21
-24.2624349039
31
0.0000000000
11
4.8371115563
21
-24.2675510093
31
0.0000000000
11
4.8080440805
21
-24.2709588121
31
0.0000000000
11
4.7783712590
21
-24.2726097471
31
0.0000000000
11
4.7485163366
21
-24.2724802467
31
0.0000000000
11
4.7189051064
21
-24.2705721430
31
0.0000000000
11
4.6899599186
21
-24.2669126394
31
0.0000000000
11
4.6620936166
21
-24.2615539222
31
0.0000000000
11
4.6357036614
21
-24.2545724175
31
0.0000000000
11
4.6111664445
21
-24.2460676975
31
0.0000000000
11
4.5888319809
21
-24.2361610846
31
0.0000000000
0
SPLINE
5
381
100
AcDbEntity
8
0
100
AcDbSpline
62
7
6
CONTINUOUS
70
0
71
3
72
36
73
32
74
30
42
0.0000001000
43
0.0000001000
44
0.0000000001
12
-1.6937029736
22
-0.8830594711
32
0.0000000000
13
-0.0001943632
23
1.9124762117
33
0.0000000000
40
0.0000000000
40
0.0000000000
40
0.0000000000
40
0.0000000000
40
0.0346653681
40
0.0708595930
40
0.1084499669
40
0.1472939831
40
0.1872302587
40
0.2280623566
40
0.2696241629
40
0.3116765987
40
0.3540549675
40
0.3964984742
40
0.4388435034
40
0.4808283915
40
0.5222927089
40
0.5629903058
40
0.6027711091
40
0.6414179662
40
0.6788014333
40
0.7147481817
40
0.7491618605
40
0.7819312157
40
0.8130106895
40
0.8423732475
40
0.8700512180
40
0.8961292034
40
0.9207525981
40
0.9441463506
40
0.9665938518
40
0.9884608746
40
1.0000000000
40
1.0000000000
40
1.0000000000
40
1.0000000000
10
-7.3903325312
20
24.0600907892
30
0.0000000000
10
-7.4099034769
20
24.0498869287
30
0.0000000000
10
-7.4506235754
20
24.0303787067
30
0.0000000000
10
-7.5146145541
20
24.0043410950
30
0.0000000000
10
-7.5824698289
20
23.9810381386
30
0.0000000000
10
-7.6537279557
20
23.9606277993
30
0.0000000000
10
-7.7279044871
20
23.9432482007
30
0.0000000000
10
-7.8045070991
20
23.9290143809
30
0.0000000000
10
-7.8830015108
20
23.9180256619
30
0.0000000000
10
-7.9628772959
20
23.9103534074
30
0.0000000000
10
-8.0435670406
20
23.9060522228
30
0.0000000000
10
-8.1245524162
20
23.9051497391
30
0.0000000000
10
-8.2052537436
20
23.9076524139
30
0.0000000000
10
-8.2851540277
20
23.9135442245
30
0.0000000000
10
-8.3636817589
20
23.9227829035
30
0.0000000000
10
-8.4403323728
20
23.9353090815
30
0.0000000000
10
-8.5145606333
20
23.9510334752
30
0.0000000000
10
-8.5858871601
20
23.9698546125
30
0.0000000000
10
-8.6538091764
20
23.9916398080
30
0.0000000000
10
-8.7178854479
20
24.0162481304
30
0.0000000000
10
-8.7776702929
20
24.0435093193
30
0.0000000000
10
-8.8327726711
20
24.0732474731
30
0.0000000000
10
-8.8828154997
20
24.1052632286
30
0.0000000000
10
-8.9274676060
20
24.1393527774
30
0.0000000000
10
-8.9664251537
20
24.1752981320
30
0.0000000000
10
-8.9994195047
20
24.2128755535
30
0.0000000000
10
-9.0262127069
20
24.2518543968
30
0.0000000000
10
-9.0465909430
20
24.2919855250
30
0.0000000000
10
-9.0603727117
20
24.3330090623
30
0.0000000000
10
-9.0663324231
20
24.3682149513
30
0.0000000000
10
-9.0672476535
20
24.3895193694
30
0.0000000000
10
-9.0672484011
20
24.3968754703
30
0.0000000000
11
-7.3903325312
21
24.0600907892
31
0.0000000000
11
-7.4500060286
21
24.0313968897
31
0.0000000000
11
-7.5140112425
21
24.0052655342
31
0.0000000000
11
-7.5818969825
21
23.9818800428
31
0.0000000000
11
-7.6532085794
21
23.9613957047
31
0.0000000000
11
-7.7274685104
21
23.9439499020
31
0.0000000000
11
-7.8041423006
21
23.9296669840
31
0.0000000000
11
-7.8827586290
21
23.9186351724
31
0.0000000000
11
-7.9627127579
21
23.9109386316
31
0.0000000000
11
-8.0435438533
21
23.9066219562
31
0.0000000000
11
-8.1246095228
21
23.9057192546
31
0.0000000000
11
-8.2054529634
21
23.9082356549
31
0.0000000000
11
-8.2854291813
21
23.9141512000
31
0.0000000000
11
-8.3640838650
21
23.9234322492
31
0.0000000000
11
-8.4407961185
21
23.9360057947
31
0.0000000000
11
-8.5151214343
21
23.9517989258
31
0.0000000000
11
-8.5864822587
21
23.9706892399
31
0.0000000000
11
-8.6544545888
21
23.9925643567
31
0.0000000000
11
-8.7185216276
21
24.0172583566
31
0.0000000000
11
-8.7782896788
21
24.0446191508
31
0.0000000000
11
-8.8333184700
21
24.0744456724
31
0.0000000000
11
-8.8832553513
21
24.1065461921
31
0.0000000000
11
-8.9277465442
21
24.1406937852
31
0.0000000000
11
-8.9664947044
21
24.1766594393
31
0.0000000000
11
-8.9992357356
21
24.2141984429
31
0.0000000000
11
-9.0257430651
21
24.2530499941
31
0.0000000000
11
-9.0458420592
21
24.2929585744
31
0.0000000000
11
-9.0593896748
21
24.3336386371
31
0.0000000000
11
-9.0662992797
21
24.3748310159
31
0.0000000000
11
-9.0672484011
21
24.3968754703
31
0.0000000000
0
SPLINE
5
382
100
AcDbEntity
8
0
100
AcDbSpline
62
7
6
CONTINUOUS
70
0
71
3
72
27
73
23
74
21
42
0.0000001000
43
0.0000001000
44
0.0000000001
12
-1.2297307781
22
-0.0373654939
32
0.0000000000
13
0.0000087940
23
1.2316595557
33
0.0000000000
40
0.0000000000
40
0.0000000000
40
0.0000000000
40
0.0000000000
40
0.0659020487
40
0.1316169670
40
0.1967803886
40
0.2610985021
40
0.3242374309
40
0.3859153654
40
0.4458471361
40
0.5037810762
40
0.5595017336
40
0.6128095491
40
0.6635841390
40
0.7117093376
40
0.7571908529
40
0.8000412708
40
0.8404332373
40
0.8785635504
40
0.9148164450
40
0.9496096156
40
0.9835390275
40
1.0000000000
40
1.0000000000
40
1.0000000000
40
1.0000000000
10
8.0499481808
20
15.8579986708
30
0.0000000000
10
8.0229342549
20
15.8571778500
30
0.0000000000
10
7.9689416672
20
15.8566752634
30
0.0000000000
10
7.8882627334
20
15.8593264348
30
0.0000000000
10
7.8084157570
20
15.8653649022
30
0.0000000000
10
7.7299557394
20
15.8747487874
30
0.0000000000
10
7.6534053064
20
15.8874154822
30
0.0000000000
10
7.5792893425
20
15.9032780427
30
0.0000000000
10
7.5081065300
20
15.9222297658
30
0.0000000000
10
7.4403384525
20
15.9441425446
30
0.0000000000
10
7.3764451715
20
15.9688681329
30
0.0000000000
10
7.3168518798
20
15.9962431163
30
0.0000000000
10
7.2619664795
20
16.0260824294
30
0.0000000000
10
7.2121479066
20
16.0581954758
30
0.0000000000
10
7.1677408544
20
16.0923680906
30
0.0000000000
10
7.1290347741
20
16.1283922055
30
0.0000000000
10
7.0963078325
20
16.1660333774
30
0.0000000000
10
7.0697880823
20
16.2050706357
30
0.0000000000
10
7.0496949147
20
16.2452449640
30
0.0000000000
10
7.0362035497
20
16.2863011202
30
0.0000000000
10
7.0305918684
20
16.3209331074
30
0.0000000000
10
7.0297764700
20
16.3416209519
30
0.0000000000
10
7.0297765182
20
16.3483790566
30
0.0000000000
11
8.0499481808
21
15.8579986708
31
0.0000000000
11
7.9688725024
21
15.8572451248
31
0.0000000000
11
7.8880674811
21
15.8599100591
31
0.0000000000
11
7.8081267087
21
15.8659741904
31
0.0000000000
11
7.7295594822
21
15.8753987205
31
0.0000000000
11
7.6529279352
21
15.8881166075
31
0.0000000000
11
7.5787360642
21
15.9040440550
31
0.0000000000
11
7.5074992974
21
15.9230708644
31
0.0000000000
11
7.4397023418
21
15.9450673455
31
0.0000000000
11
7.3757998592
21
15.9698865079
31
0.0000000000
11
7.3162436040
21
15.9973525094
31
0.0000000000
11
7.2614163904
21
16.0272893476
31
0.0000000000
11
7.2117211502
21
16.0594764872
31
0.0000000000
11
7.1674639350
21
16.0937161431
31
0.0000000000
11
7.1289804549
21
16.1297479812
31
0.0000000000
11
7.0964996409
21
16.1673579151
31
0.0000000000
11
7.0702732626
21
16.2062536854
31
0.0000000000
11
7.0504533935
21
16.2462099125
31
0.0000000000
11
7.0371959884
21
16.2869111790
31
0.0000000000
11
7.0305764297
21
16.3281262784
31
0.0000000000
11
7.0297765182
21
16.3483790566
31
0.0000000000
0
SPLINE
5
383
100
AcDbEntity
8
0
100
AcDbSpline
62
9
6
CONTINUOUS
70
0
71
3
72
15
73
11
74
9
42
0.0000001000
43
0.0000001000
44
0.0000000001
12
0.0000000000
22
-0.1577880136
32
0.0000000000
13
0.1413634934
23
-0.0706671899
33
0.0000000000
40
0.0000000000
40
0.0000000000
40
0.0000000000
40
0.0000000000
40
0.1597796291
40
0.3109878379
40
0.4534578790
40
0.5875358520
40
0.7141589507
40
0.8348971671
40
0.9519123780
40
1.0000000000
40
1.0000000000
40
1.0000000000
40
1.0000000000
10
-12.4148413216
20
-15.7343244333
30
0.0000000000
10
-12.4148413216
20
-15.7427282034
30
0.0000000000
10
-12.4140658367
20
-15.7590998600
30
0.0000000000
10
-12.4103733699
20
-15.7827127205
30
0.0000000000
10
-12.4042232173
20
-15.8044188208
30
0.0000000000
10
-12.3956843208
20
-15.8239102039
30
0.0000000000
10
-12.3848535702
20
-15.8409038039
30
0.0000000000
10
-12.3718614950
20
-15.8551340659
30
0.0000000000
10
-12.3597562120
20
-15.8642062168
30
0.0000000000
10
-12.3521334674
20
-15.8684091563
30
0.0000000000
10
-12.3498675227
20
-15.8695418953
30
0.0000000000
11
-12.4148413216
21
-15.7343244333
31
0.0000000000
11
-12.4135807027
21
-15.7595042071
31
0.0000000000
11
-12.4098168143
21
-15.7830642905
31
0.0000000000
11
-12.4036033413
21
-15.8046685971
31
0.0000000000
11
-12.3950289076
21
-15.8240089970
31
0.0000000000
11
-12.3842158173
21
-15.8408096452
31
0.0000000000
11
-12.3713183058
21
-15.8548309308
31
0.0000000000
11
-12.3565203451
21
-15.8658728871
31
0.0000000000
11
-12.3498675227
21
-15.8695418953
31
0.0000000000
0
SPLINE
5
384
100
AcDbEntity
8
0
100
AcDbSpline
62
9
6
CONTINUOUS
70
0
71
3
72
15
73
11
74
9
42
0.0000001000
43
0.0000001000
44
0.0000000001
12
0.0000000000
22
-0.1577880136
32
0.0000000000
13
0.1413634934
23
-0.0706671899
33
0.0000000000
40
0.0000000000
40
0.0000000000
40
0.0000000000
40
0.0000000000
40
0.1597796291
40
0.3109878379
40
0.4534578790
40
0.5875358520
40
0.7141589507
40
0.8348971671
40
0.9519123780
40
1.0000000000
40
1.0000000000
40
1.0000000000
40
1.0000000000
10
4.5888319809
20
-24.2361610846
30
0.0000000000
10
4.5888319809
20
-24.2445648547
30
0.0000000000
10
4.5896074658
20
-24.2609365112
30
0.0000000000
10
4.5932999325
20
-24.2845493717
30
0.0000000000
10
4.5994500852
20
-24.3062554720
30
0.0000000000
10
4.6079889817
20
-24.3257468551
30
0.0000000000
10
4.6188197323
20
-24.3427404551
30
0.0000000000
10
4.6318118075
20
-24.3569707172
30
0.0000000000
10
4.6439170905
20
-24.3660428681
30
0.0000000000
10
4.6515398351
20
-24.3702458075
30
0.0000000000
10
4.6538057798
20
-24.3713785466
30
0.0000000000
11
4.5888319809
21
-24.2361610846
31
0.0000000000
11
4.5900925998
21
-24.2613408583
31
0.0000000000
11
4.5938564881
21
-24.2849009417
31
0.0000000000
11
4.6000699612
21
-24.3065052483
31
0.0000000000
11
4.6086443949
21
-24.3258456482
31
0.0000000000
11
4.6194574852
21
-24.3426462965
31
0.0000000000
11
4.6323549967
21
-24.3566675820
31
0.0000000000
11
4.6471529574
21
-24.3677095383
31
0.0000000000
11
4.6538057798
21
-24.3713785466
31
0.0000000000
0
SPLINE
5
385
100
AcDbEntity
8
0
100
AcDbSpline
62
7
6
CONTINUOUS
70
0
71
3
72
21
73
17
74
15
42
0.0000001000
43
0.0000001000
44
0.0000000001
12
0.3309764231
22
-0.1654882115
32
0.0000000000
13
0.0000000000
23
-0.3700428904
33
0.0000000000
40
0.0000000000
40
0.0000000000
40
0.0000000000
40
0.0000000000
40
0.0609311874
40
0.1250442117
40
0.1921292810
40
0.2619310218
40
0.3340290784
40
0.4080239048
40
0.4833439581
40
0.5594986715
40
0.6358290875
40
0.7118004249
40
0.7867436839
40
0.8601252777
40
0.9313595064
40
1.0000000000
40
1.0000000000
40
1.0000000000
40
1.0000000000
10
4.9460068374
20
10.8542963503
30
0.0000000000
10
4.9527290996
20
10.8509352193
30
0.0000000000
10
4.9661421522
20
10.8432522559
30
0.0000000000
10
4.9854676540
20
10.8294791606
30
0.0000000000
10
5.0043079436
20
10.8133149316
30
0.0000000000
10
5.0224359446
20
10.7949499301
30
0.0000000000
10
5.0396405230
20
10.7745906407
30
0.0000000000
10
5.0557078027
20
10.7524772758
30
0.0000000000
10
5.0704416281
20
10.7288632369
30
0.0000000000
10
5.0836493407
20
10.7040365952
30
0.0000000000
10
5.0951614619
20
10.6782916099
30
0.0000000000
10
5.1048198192
20
10.6519537732
30
0.0000000000
10
5.1124934319
20
10.6253481386
30
0.0000000000
10
5.1180718891
20
10.5988200234
30
0.0000000000
10
5.1214748924
20
10.5727097712
30
0.0000000000
10
5.1222746435
20
10.5554490407
30
0.0000000000
10
5.1222746435
20
10.5469823984
30
0.0000000000
11
4.9460068374
21
10.8542963503
31
0.0000000000
11
4.9656024996
21
10.8431435874
31
0.0000000000
11
4.9849539992
21
10.8294186238
31
0.0000000000
11
5.0038235018
21
10.8132882062
31
0.0000000000
11
5.0219945680
21
10.7949311217
31
0.0000000000
11
5.0392359383
21
10.7745712566
31
0.0000000000
11
5.0553468936
21
10.7524314624
31
0.0000000000
11
5.0701110911
21
10.7287915098
31
0.0000000000
11
5.0833505851
21
10.7039146740
31
0.0000000000
11
5.0948777641
21
10.6781283602
31
0.0000000000
11
5.1045464684
21
10.6517306817
31
0.0000000000
11
5.1122134701
21
10.6250793567
31
0.0000000000
11
5.1177745642
21
10.5985005634
31
0.0000000000
11
5.1211448095
21
10.5723571841
31
0.0000000000
11
5.1222746435
21
10.5469823984
31
0.0000000000
0
SPLINE
5
386
100
AcDbEntity
8
0
100
AcDbSpline
62
7
6
CONTINUOUS
70
0
71
3
72
18
73
14
74
12
42
0.0000001000
43
0.0000001000
44
0.0000000001
12
0.0197275489
22
-0.5987283535
32
0.0000000000
13
0.5361803409
23
-0.2681057967
33
0.0000000000
40
0.0000000000
40
0.0000000000
40
0.0000000000
40
0.0000000000
40
0.1115236295
40
0.2190650124
40
0.3224886888
40
0.4219203383
40
0.5173817497
40
0.6092772570
40
0.6978522699
40
0.7837928944
40
0.8675892054
40
0.9501548748
40
1.0000000000
40
1.0000000000
40
1.0000000000
40
1.0000000000
10
-12.8791740565
20
-13.5484243950
30
0.0000000000
10
-12.8784406939
20
-13.5706818480
30
0.0000000000
10
-12.8755465059
20
-13.6143718441
30
0.0000000000
10
-12.8666362431
20
-13.6782073519
30
0.0000000000
10
-12.8532831840
20
-13.7388037672
30
0.0000000000
10
-12.8355681490
20
-13.7957585148
30
0.0000000000
10
-12.8135864073
20
-13.8487331020
30
0.0000000000
10
-12.7874752452
20
-13.8973640001
30
0.0000000000
10
-12.7573735496
20
-13.9413592363
30
0.0000000000
10
-12.7234784743
20
-13.9804000022
30
0.0000000000
10
-12.6859796127
20
-14.0142405408
30
0.0000000000
10
-12.6504295510
20
-14.0389472173
30
0.0000000000
10
-12.6272292171
20
-14.0517109852
30
0.0000000000
10
-12.6183205584
20
-14.0561655742
30
0.0000000000
11
-12.8791740565
21
-13.5484243950
31
0.0000000000
11
-12.8746752973
21
-13.6150813488
31
0.0000000000
11
-12.8656788087
21
-13.6788731061
31
0.0000000000
11
-12.8522485856
21
-13.7393562536
31
0.0000000000
11
-12.8344565745
21
-13.7962018008
31
0.0000000000
11
-12.8124385030
21
-13.8489796079
31
0.0000000000
11
-12.7863018785
21
-13.8974297144
31
0.0000000000
11
-12.7562564331
21
-13.9411647914
31
0.0000000000
11
-12.7224395850
21
-13.9799838756
31
0.0000000000
11
-12.6851298429
21
-14.0135676204
31
0.0000000000
11
-12.6444939861
21
-14.0417658618
31
0.0000000000
11
-12.6183205584
21
-14.0561655742
31
0.0000000000
0
SPLINE
5
387
100
AcDbEntity
8
0
100
AcDbSpline
62
9
6
CONTINUOUS
70
0
71
3
72
20
73
16
74
14
42
0.0000001000
43
0.0000001000
44
0.0000000001
12
-0.0566010296
22
0.3591872000
32
0.0000000000
13
-0.3224852626
23
0.1679951683
33
0.0000000000
40
0.0000000000
40
0.0000000000
40
0.0000000000
40
0.0000000000
40
0.0687513674
40
0.1416690507
40
0.2181477340
40
0.2974695631
40
0.3788343870
40
0.4613863684
40
0.5442384773
40
0.6264959242
40
0.7072793426
40
0.7857484746
40
0.8611272279
40
0.9327312879
40
1.0000000000
40
1.0000000000
40
1.0000000000
40
1.0000000000
10
2.7447957477
20
8.8944084612
30
0.0000000000
10
2.7434986150
20
8.9026399982
30
0.0000000000
10
2.7399991412
20
8.9194783073
30
0.0000000000
10
2.7324922252
20
8.9448570984
30
0.0000000000
10
2.7226669433
20
8.9708053069
30
0.0000000000
10
2.7106642534
20
8.9969484649
30
0.0000000000
10
2.6966559280
20
9.0229121476
30
0.0000000000
10
2.6808432586
20
9.0483224512
30
0.0000000000
10
2.6634538136
20
9.0728134348
30
0.0000000000
10
2.6447381366
20
9.0960322940
30
0.0000000000
10
2.6249657719
20
9.1176449200
30
0.0000000000
10
2.6044214908
20
9.1373406799
30
0.0000000000
10
2.5833991596
20
9.1548379286
30
0.0000000000
10
2.5622021381
20
9.1698851127
30
0.0000000000
10
2.5476652602
20
9.1784276542
30
0.0000000000
10
2.5404342041
20
9.1821945937
30
0.0000000000
11
2.7447957477
21
8.8944084612
31
0.0000000000
11
2.7397780742
21
8.9188990666
31
0.0000000000
11
2.7323106178
21
8.9443400698
31
0.0000000000
11
2.7225018516
21
8.9703619124
31
0.0000000000
11
2.7104942586
21
8.9965865983
31
0.0000000000
11
2.6964622623
21
9.0226331849
31
0.0000000000
11
2.6806096928
21
9.0481233169
31
0.0000000000
11
2.6631668262
21
9.0726867216
31
0.0000000000
11
2.6443870393
21
9.0959665885
31
0.0000000000
11
2.6245431294
21
9.1176247515
31
0.0000000000
11
2.6039233512
21
9.1373466019
31
0.0000000000
11
2.5828272299
21
9.1548456577
31
0.0000000000
11
2.5615612100
21
9.1698677257
31
0.0000000000
11
2.5404342041
21
9.1821945937
31
0.0000000000
0
SPLINE
5
388
100
AcDbEntity
8
0
100
AcDbSpline
62
9
6
CONTINUOUS
70
0
71
3
72
24
73
20
74
18
42
0.0000001000
43
0.0000001000
44
0.0000000001
12
-1.0613254958
22
-0.7431906834
32
0.0000000000
13
-0.0416308962
23
-1.2949946210
33
0.0000000000
40
0.0000000000
40
0.0000000000
40
0.0000000000
40
0.0000000000
40
0.0538950528
40
0.1094018957
40
0.1663766670
40
0.2246458278
40
0.2840166276
40
0.3442806710
40
0.4052146508
40
0.4665866365
40
0.5281581239
40
0.5896890580
40
0.6509387843
40
0.7116710330
40
0.7716559039
40
0.8306760625
40
0.8885274009
40
0.9450222925
40
1.0000000000
40
1.0000000000
40
1.0000000000
40
1.0000000000
10
2.5404342041
20
9.1821945937
30
0.0000000000
10
2.5213674729
20
9.1688431600
30
0.0000000000
10
2.4835716799
20
9.1404233150
30
0.0000000000
10
2.4289229069
20
9.0937029551
30
0.0000000000
10
2.3757735794
20
9.0425203858
30
0.0000000000
10
2.3244620664
20
8.9872017866
30
0.0000000000
10
2.2753116128
20
8.9280971153
30
0.0000000000
10
2.2286332530
20
8.8655809642
30
0.0000000000
10
2.1847222387
20
8.8000493145
30
0.0000000000
10
2.1438568781
20
8.7319179144
30
0.0000000000
10
2.1062958612
20
8.6616184336
30
0.0000000000
10
2.0722771258
20
8.5895964362
30
0.0000000000
10
2.0420161189
20
8.5163081289
30
0.0000000000
10
2.0157047461
20
8.4422182896
30
0.0000000000
10
1.9935096476
20
8.3677959220
30
0.0000000000
10
1.9755714923
20
8.2935123154
30
0.0000000000
10
1.9620041992
20
8.2198364462
30
0.0000000000
10
1.9528941044
20
8.1472373328
30
0.0000000000
10
1.9497862340
20
8.0991571413
30
0.0000000000
10
1.9490233103
20
8.0754251961
30
0.0000000000
11
2.5404342041
21
9.1821945937
31
0.0000000000
11
2.4845802040
21
9.1402834989
31
0.0000000000
11
2.4298760808
21
9.0935963925
31
0.0000000000
11
2.3766669575
21
9.0424280235
31
0.0000000000
11
2.3252931914
21
8.9871056219
31
0.0000000000
11
2.2760819009
21
8.9279816786
31
0.0000000000
11
2.2293455532
21
8.8654316881
31
0.0000000000
11
2.1853823359
21
8.7998547971
31
0.0000000000
11
2.1444720104
21
8.7316685088
31
0.0000000000
11
2.1068751811
21
8.6613074516
31
0.0000000000
11
2.0728306282
21
8.5892187026
31
0.0000000000
11
2.0425552387
21
8.5158616423
31
0.0000000000
11
2.0162416155
21
8.4417031401
31
0.0000000000
11
1.9940574708
21
8.3672162588
31
0.0000000000
11
1.9761435250
21
8.2928738547
31
0.0000000000
11
1.9626138199
21
8.2191491631
31
0.0000000000
11
1.9535546900
21
8.1465135360
31
0.0000000000
11
1.9490233103
21
8.0754251961
31
0.0000000000
0
SPLINE
5
389
100
AcDbEntity
8
0
100
AcDbSpline
62
9
6
CONTINUOUS
70
0
71
3
72
24
73
20
74
18
42
0.0000001000
43
0.0000001000
44
0.0000000001
12
-0.7981723391
22
-0.5548132839
32
0.0000000000
13
-0.0313732617
23
-0.9715516360
33
0.0000000000
40
0.0000000000
40
0.0000000000
40
0.0000000000
40
0.0000000000
40
0.0539589923
40
0.1095292189
40
0.1665539562
40
0.2248602823
40
0.2842561848
40
0.3445341463
40
0.4054718530
40
0.4668384103
40
0.5283964452
40
0.5899072038
40
0.6511314288
40
0.7118343412
40
0.7717876236
40
0.8307756160
40
0.8885959620
40
0.9450629093
40
1.0000000000
40
1.0000000000
40
1.0000000000
40
1.0000000000
10
2.7447957477
20
8.8944084612
30
0.0000000000
10
2.7304395560
20
8.8844294060
30
0.0000000000
10
2.7019769596
20
8.8631812122
30
0.0000000000
10
2.6608149353
20
8.8282315193
30
0.0000000000
10
2.6207789947
20
8.7899296472
30
0.0000000000
10
2.5821274250
20
8.7485223763
30
0.0000000000
10
2.5451037014
20
8.7042717237
30
0.0000000000
10
2.5099421543
20
8.6574581455
30
0.0000000000
10
2.4768652160
20
8.6083782017
30
0.0000000000
10
2.4460825688
20
8.5573433232
30
0.0000000000
10
2.4177891067
20
8.5046769199
30
0.0000000000
10
2.3921640739
20
8.4507128391
30
0.0000000000
10
2.3693697616
20
8.3957929230
30
0.0000000000
10
2.3495507216
20
8.3402654791
30
0.0000000000
10
2.3328324925
20
8.2844820160
30
0.0000000000
10
2.3193209980
20
8.2287958116
30
0.0000000000
10
2.3091021533
20
8.1735584113
30
0.0000000000
10
2.3022414812
20
8.1191271810
30
0.0000000000
10
2.2999015236
20
8.0830781059
30
0.0000000000
10
2.2993270051
20
8.0652866991
30
0.0000000000
11
2.7447957477
21
8.8944084612
31
0.0000000000
11
2.7027338909
21
8.8630725991
31
0.0000000000
11
2.6615275345
21
8.8281451740
31
0.0000000000
11
2.6214472405
21
8.7898541152
31
0.0000000000
11
2.5827494119
21
8.7484442663
31
0.0000000000
11
2.5456804724
21
8.7041794941
31
0.0000000000
11
2.5104758132
21
8.6573409301
31
0.0000000000
11
2.4773600689
21
8.6082274761
31
0.0000000000
11
2.4465440268
21
8.5571518897
31
0.0000000000
11
2.4182240353
21
8.5044398193
31
0.0000000000
11
2.3925799607
21
8.4504262275
31
0.0000000000
11
2.3697751757
21
8.3954553389
31
0.0000000000
11
2.3499547574
21
8.3398770324
31
0.0000000000
11
2.3332450338
21
8.2840458699
31
0.0000000000
11
2.3197519896
21
8.2283162992
31
0.0000000000
11
2.3095615419
21
8.1730430978
31
0.0000000000
11
2.3027386479
21
8.1185796512
31
0.0000000000
11
2.2993270051
21
8.0652866991
31
0.0000000000
0
SPLINE
5
38A
100
AcDbEntity
8
0
100
AcDbSpline
62
9
6
CONTINUOUS
70
0
71
3
72
20
73
16
74
14
42
0.0000001000
43
0.0000001000
44
0.0000000001
12
-0.3297578722
22
-0.1435465628
32
0.0000000000
13
-0.3215659771
23
0.1610626968
33
0.0000000000
40
0.0000000000
40
0.0000000000
40
0.0000000000
40
0.0000000000
40
0.0674707872
40
0.1393674456
40
0.2150795498
40
0.2938823126
40
0.3749664903
40
0.4574643383
40
0.5404732805
40
0.6230783926
40
0.7043744963
40
0.7834885599
40
0.8596031787
40
0.9319821894
40
1.0000000000
40
1.0000000000
40
1.0000000000
40
1.0000000000
10
2.2993270051
20
8.0652866991
30
0.0000000000
10
2.2919106640
20
8.0620582993
30
0.0000000000
10
2.2762685855
20
8.0561169798
30
0.0000000000
10
2.2514894177
20
8.0489078685
30
0.0000000000
10
2.2249327014
20
8.0431955516
30
0.0000000000
10
2.1969741029
20
8.0390619092
30
0.0000000000
10
2.1680067541
20
8.0365654651
30
0.0000000000
10
2.1384401472
20
8.0357420542
30
0.0000000000
10
2.1086924885
20
8.0366035574
30
0.0000000000
10
2.0791848396
20
8.0391377954
30
0.0000000000
10
2.0503346015
20
8.0433087116
30
0.0000000000
10
2.0225496565
20
8.0490568160
30
0.0000000000
10
1.9962208432
20
8.0563008474
30
0.0000000000
10
1.9717206594
20
8.0649372295
30
0.0000000000
10
1.9563140482
20
8.0717734855
30
0.0000000000
10
1.9490233103
20
8.0754251962
30
0.0000000000
11
2.2993270051
21
8.0652866991
31
0.0000000000
11
2.2766682160
21
8.0566033009
31
0.0000000000
11
2.2518559883
21
8.0493260138
31
0.0000000000
11
2.2252441602
21
8.0435586164
31
0.0000000000
11
2.1972122331
21
8.0393833555
31
0.0000000000
11
2.1681599602
21
8.0368597730
31
0.0000000000
11
2.1385016453
21
8.0360238567
31
0.0000000000
11
2.1086602347
21
8.0368875275
31
0.0000000000
11
2.0790612860
21
8.0394384687
31
0.0000000000
11
2.0501268990
21
8.0436403023
31
0.0000000000
11
2.0222696963
21
8.0494331076
31
0.0000000000
11
1.9958869394
21
8.0567342754
31
0.0000000000
11
1.9713548630
21
8.0654396865
31
0.0000000000
11
1.9490233103
21
8.0754251962
31
0.0000000000
0
SPLINE
5
38B
100
AcDbEntity
8
0
100
AcDbSpline
62
9
6
CONTINUOUS
70
0
71
3
72
16
73
12
74
10
42
0.0000001000
43
0.0000001000
44
0.0000000001
12
-0.9371580308
22
-29.0279621384
32
0.0000000000
13
0.9672836901
23
-29.0269738924
33
0.0000000000
40
0.0000000000
40
0.0000000000
40
0.0000000000
40
0.0000000000
40
0.1126611159
40
0.2249412202
40
0.3368373966
40
0.4483468166
40
0.5594667430
40
0.6701945303
40
0.7805276257
40
0.8904635699
40
1.0000000000
40
1.0000000000
40
1.0000000000
40
1.0000000000
10
1.9490233103
20
8.0754251961
30
0.0000000000
10
1.9138295538
20
6.9853176603
30
0.0000000000
10
1.8512336512
20
4.8085335327
30
0.0000000000
10
1.7806780908
20
1.5483380690
30
0.0000000000
10
1.7336241997
20
-1.7011324757
30
0.0000000000
10
1.7100756795
20
-4.9396261872
30
0.0000000000
10
1.7100343386
20
-8.1668947595
30
0.0000000000
10
1.7335001967
20
-11.3826898210
30
0.0000000000
10
1.7804714897
20
-14.5867648782
30
0.0000000000
10
1.8509445465
20
-17.7788712551
30
0.0000000000
10
1.9137057095
20
-19.9026860458
30
0.0000000000
10
1.9490233103
20
-20.9625230784
30
0.0000000000
11
1.9490233103
21
8.0754251961
31
0.0000000000
11
1.8550104063
21
4.8047495877
31
0.0000000000
11
1.7844944062
21
1.5445513687
31
0.0000000000
11
1.7374807288
21
-1.7049188359
31
0.0000000000
11
1.7139729871
21
-4.9434112066
31
0.0000000000
11
1.7139729871
21
-8.1706767971
31
0.0000000000
11
1.7374807288
21
-11.3864675391
31
0.0000000000
11
1.7844944062
21
-14.5905362306
31
0.0000000000
11
1.8550104063
21
-17.7826365409
31
0.0000000000
11
1.9490233103
21
-20.9625230784
31
0.0000000000
0
SPLINE
5
38C
100
AcDbEntity
8
0
100
AcDbSpline
62
9
6
CONTINUOUS
70
0
71
3
72
16
73
12
74
10
42
0.0000001000
43
0.0000001000
44
0.0000000001
12
-0.9366163067
22
-29.0108866621
32
0.0000000000
13
0.9667242305
23
-29.0098989879
33
0.0000000000
40
0.0000000000
40
0.0000000000
40
0.0000000000
40
0.0000000000
40
0.1126610903
40
0.2249411848
40
0.3368373551
40
0.4483467730
40
0.5594667013
40
0.6701944946
40
0.7805276003
40
0.8904635591
40
1.0000000000
40
1.0000000000
40
1.0000000000
40
1.0000000000
10
2.2993270051
20
8.0652866991
30
0.0000000000
10
2.2641536003
20
6.9758206587
30
0.0000000000
10
2.2015938852
20
4.8003173454
30
0.0000000000
10
2.1310791174
20
1.5420400481
30
0.0000000000
10
2.0840524282
20
-1.7055188750
30
0.0000000000
10
2.0605175217
20
-4.9421075401
30
0.0000000000
10
2.0604762047
20
-8.1674777871
30
0.0000000000
10
2.0839284970
20
-11.3813813905
30
0.0000000000
10
2.1308726360
20
-14.5835720018
30
0.0000000000
10
2.2013049488
20
-17.7738010106
30
0.0000000000
10
2.2640298279
20
-19.8963667338
30
0.0000000000
10
2.2993270051
20
-20.9555804294
30
0.0000000000
11
2.2993270051
21
8.0652866991
31
0.0000000000
11
2.2053684618
21
4.7965357774
31
0.0000000000
11
2.1348932272
21
1.5382556104
31
0.0000000000
11
2.0879067285
21
-1.7093029711
31
0.0000000000
11
2.0644125764
21
-4.9458902944
31
0.0000000000
11
2.0644125760
21
-8.1712575597
31
0.0000000000
11
2.0879067273
21
-11.3851568445
31
0.0000000000
11
2.1348932254
21
-14.5873410921
31
0.0000000000
11
2.2053684592
21
-17.7775641167
31
0.0000000000
11
2.2993270051
21
-20.9555804294
31
0.0000000000
0
SPLINE
5
38D
100
AcDbEntity
8
0
100
AcDbSpline
62
9
6
CONTINUOUS
70
0
71
3
72
20
73
16
74
14
42
0.0000001000
43
0.0000001000
44
0.0000000001
12
-0.3193128795
22
-0.1693570580
32
0.0000000000
13
-0.3233917077
23
0.1614321267
33
0.0000000000
40
0.0000000000
40
0.0000000000
40
0.0000000000
40
0.0000000000
40
0.0693511607
40
0.1426472185
40
0.2193066965
40
0.2986414704
40
0.3798854468
40
0.4622200205
40
0.5447976282
40
0.6267643498
40
0.7072823095
40
0.7855525880
40
0.8608394635
40
0.9324970697
40
1.0000000000
40
1.0000000000
40
1.0000000000
40
1.0000000000
10
2.2993270051
20
-20.9555804294
30
0.0000000000
10
2.2919454321
20
-20.9594954655
30
0.0000000000
10
2.2763660287
20
-20.9668154301
30
0.0000000000
10
2.2515773021
20
-20.9760352141
30
0.0000000000
10
2.2250105683
20
-20.9836982649
30
0.0000000000
10
2.1970419515
20
-20.9896954921
30
0.0000000000
10
2.1680646865
20
-20.9939426240
30
0.0000000000
10
2.1384881713
20
-20.9963793681
30
0.0000000000
10
2.1087304030
20
-20.9969712067
30
0.0000000000
10
2.0792121526
20
-20.9957098024
30
0.0000000000
10
2.0503504459
20
-20.9926130999
30
0.0000000000
10
2.0225527858
20
-20.9877251385
30
0.0000000000
10
1.9962094059
20
-20.9811143816
30
0.0000000000
10
1.9716929418
20
-20.9728748187
30
0.0000000000
10
1.9562999648
20
-20.9661554451
30
0.0000000000
10
1.9490233355
20
-20.9625230646
30
0.0000000000
11
2.2993270051
21
-20.9555804294
31
0.0000000000
11
2.2766682157
21
-20.9663002900
31
0.0000000000
11
2.2518559885
21
-20.9755849985
31
0.0000000000
11
2.2252441614
21
-20.9833021490
31
0.0000000000
11
2.1972122359
21
-20.9893416899
31
0.0000000000
11
2.1681599650
21
-20.9936174937
31
0.0000000000
11
2.1385016525
21
-20.9960685847
31
0.0000000000
11
2.1086602446
21
-20.9966600087
31
0.0000000000
11
2.0790612987
21
-20.9953833317
31
0.0000000000
11
2.0501269145
21
-20.9922567599
31
0.0000000000
11
2.0222697146
21
-20.9873248803
31
0.0000000000
11
1.9958869602
21
-20.9806580244
31
0.0000000000
11
1.9713548863
21
-20.9723512660
31
0.0000000000
11
1.9490233355
21
-20.9625230646
31
0.0000000000
0
SPLINE
5
38E
100
AcDbEntity
8
0
100
AcDbSpline
62
9
6
CONTINUOUS
70
0
71
3
72
18
73
14
74
12
42
0.0000001000
43
0.0000001000
44
0.0000000001
12
0.0199287686
22
-0.6005104345
32
0.0000000000
13
0.5377468226
23
-0.2689611641
33
0.0000000000
40
0.0000000000
40
0.0000000000
40
0.0000000000
40
0.0000000000
40
0.1112240679
40
0.2184911389
40
0.3217429742
40
0.4210124372
40
0.5164473362
40
0.6083190877
40
0.6970244845
40
0.7830902405
40
0.8671618623
40
0.9499852982
40
1.0000000000
40
1.0000000000
40
1.0000000000
40
1.0000000000
10
1.9490233103
20
-20.9625230784
30
0.0000000000
10
1.9497621632
20
-20.9847868162
30
0.0000000000
10
1.9526779827
20
-21.0284916058
30
0.0000000000
10
1.9616536644
20
-21.0923619054
30
0.0000000000
10
1.9751031378
20
-21.1530025066
30
0.0000000000
10
1.9929491605
20
-21.2100276700
30
0.0000000000
10
2.0150887718
20
-21.2630763883
30
0.0000000000
10
2.0413938053
20
-21.3118083383
30
0.0000000000
10
2.0717102182
20
-21.3559056052
30
0.0000000000
10
2.1058560174
20
-21.3950729633
30
0.0000000000
10
2.1436193018
20
-21.4290412390
30
0.0000000000
10
2.1794140249
20
-21.4538667354
30
0.0000000000
10
2.2027608372
20
-21.4667048162
30
0.0000000000
10
2.2117259195
20
-21.4711888204
30
0.0000000000
11
1.9490233103
21
-20.9625230784
31
0.0000000000
11
1.9535547012
21
-21.0291972549
31
0.0000000000
11
1.9626138360
21
-21.0930078612
31
0.0000000000
11
1.9761435446
21
-21.1535524961
31
0.0000000000
11
1.9940575011
21
-21.2104439364
31
0.0000000000
11
2.0162416481
21
-21.2633199908
31
0.0000000000
11
2.0425552731
21
-21.3118449141
31
0.0000000000
11
2.0728306687
21
-21.3557090262
31
0.0000000000
11
2.1068752318
21
-21.3946330782
31
0.0000000000
11
2.1444720663
21
-21.4283689618
31
0.0000000000
11
2.1853823905
21
-21.4567022113
31
0.0000000000
11
2.2117259195
21
-21.4711888204
31
0.0000000000
0
SPLINE
5
38F
100
AcDbEntity
8
0
100
AcDbSpline
62
9
6
CONTINUOUS
70
0
71
3
72
24
73
20
74
18
42
0.0000001000
43
0.0000001000
44
0.0000000001
12
0.0234903743
22
-0.7047702435
32
0.0000000000
13
0.6806835520
23
0.1841814210
33
0.0000000000
40
0.0000000000
40
0.0000000000
40
0.0000000000
40
0.0000000000
40
0.0710738662
40
0.1396515884
40
0.2056807065
40
0.2691848193
40
0.3302607490
40
0.3890838253
40
0.4459087657
40
0.5010722373
40
0.5549855438
40
0.6081228251
40
0.6609980812
40
0.7141400191
40
0.7680620521
40
0.8232381816
40
0.8800796751
40
0.9389209071
40
1.0000000000
40
1.0000000000
40
1.0000000000
40
1.0000000000
10
2.2993270051
20
-20.9555804294
30
0.0000000000
10
2.2998835223
20
-20.9722773447
30
0.0000000000
10
2.3020797409
20
-21.0050616057
30
0.0000000000
10
2.3088401413
20
-21.0529777591
30
0.0000000000
10
2.3189712648
20
-21.0984829619
30
0.0000000000
10
2.3324145198
20
-21.1412833921
30
0.0000000000
10
2.3490922264
20
-21.1811079617
30
0.0000000000
10
2.3689077474
20
-21.2177010187
30
0.0000000000
10
2.3917448198
20
-21.2508237020
30
0.0000000000
10
2.4174660511
20
-21.2802542074
30
0.0000000000
10
2.4459115033
20
-21.3057903957
30
0.0000000000
10
2.4768970721
20
-21.3272530490
30
0.0000000000
10
2.5102150541
20
-21.3444910176
30
0.0000000000
10
2.5456368884
20
-21.3573859686
30
0.0000000000
10
2.5829192825
20
-21.3658554638
30
0.0000000000
10
2.6218093655
20
-21.3698527379
30
0.0000000000
10
2.6620505556
20
-21.3693633853
30
0.0000000000
10
2.7033739608
20
-21.3644052585
30
0.0000000000
10
2.7309372364
20
-21.3582679051
30
0.0000000000
10
2.7447957477
20
-21.3545180271
30
0.0000000000
11
2.2993270051
21
-20.9555804294
31
0.0000000000
11
2.3027390592
21
-21.0055827105
31
0.0000000000
11
2.3095622359
21
-21.0534573058
31
0.0000000000
11
2.3197529948
21
-21.0988896038
31
0.0000000000
11
2.3332463629
21
-21.1415889800
31
0.0000000000
11
2.3499564180
21
-21.1812835793
31
0.0000000000
11
2.3697771768
21
-21.2177213243
31
0.0000000000
11
2.3925823134
21
-21.2506696484
31
0.0000000000
11
2.4182267190
21
-21.2799187388
31
0.0000000000
11
2.4465469687
21
-21.3052821160
31
0.0000000000
11
2.4773631766
21
-21.3265985420
31
0.0000000000
11
2.5104790263
21
-21.3437320329
31
0.0000000000
11
2.5456837664
21
-21.3565734135
31
0.0000000000
11
2.5827527604
21
-21.3650407069
31
0.0000000000
11
2.6214505979
21
-21.3690801006
31
0.0000000000
11
2.6615308945
21
-21.3686656902
31
0.0000000000
11
2.7027372245
21
-21.3638002638
31
0.0000000000
11
2.7447957477
21
-21.3545180271
31
0.0000000000
0
SPLINE
5
390
100
AcDbEntity
8
0
100
AcDbSpline
62
9
6
CONTINUOUS
70
0
71
3
72
16
73
12
74
10
42
0.0000001000
43
0.0000001000
44
0.0000000001
12
-0.9346714571
22
29.0276959060
32
0.0000000000
13
0.9045423378
23
29.0286503906
33
0.0000000000
40
0.0000000000
40
0.0000000000
40
0.0000000000
40
0.0000000000
40
0.1094790329
40
0.2193728598
40
0.3296787179
40
0.4403937481
40
0.5515149991
40
0.6630394282
40
0.7749639016
40
0.8872851956
40
1.0000000000
40
1.0000000000
40
1.0000000000
40
1.0000000000
10
-14.9640702014
20
-12.5059763225
30
0.0000000000
10
-14.9981791772
20
-11.4466682978
30
0.0000000000
10
-15.0587912894
20
-9.3237817618
30
0.0000000000
10
-15.1268459987
20
-6.1328901916
30
0.0000000000
10
-15.1722049553
20
-2.9296270731
30
0.0000000000
10
-15.1948646168
20
0.2857591376
30
0.0000000000
10
-15.1948232762
20
3.5130219350
30
0.0000000000
10
-15.1720809503
20
6.7519129704
30
0.0000000000
10
-15.1266393845
20
10.0021838659
30
0.0000000000
10
-15.0585021467
20
13.2635827941
30
0.0000000000
10
-14.9980553057
20
15.4413190682
30
0.0000000000
10
-14.9640702014
20
16.5319719520
30
0.0000000000
11
-14.9640702014
21
-12.5059763225
31
0.0000000000
11
-15.0548592724
21
-9.3277017016
31
0.0000000000
11
-15.1229571810
21
-6.1368104370
31
0.0000000000
11
-15.1683586941
21
-2.9335478277
31
0.0000000000
11
-15.1910603228
21
0.2818398578
31
0.0000000000
11
-15.1910603228
21
3.5091054483
31
0.0000000000
11
-15.1683586941
21
6.7480008755
31
0.0000000000
11
-15.1229571810
21
9.9982771623
31
0.0000000000
11
-15.0548592724
21
13.2596844270
31
0.0000000000
11
-14.9640702014
21
16.5319719520
31
0.0000000000
0
SPLINE
5
391
100
AcDbEntity
8
0
100
AcDbSpline
62
9
6
CONTINUOUS
70
0
71
3
72
16
73
12
74
10
42
0.0000001000
43
0.0000001000
44
0.0000000001
12
-0.0267036180
22
-0.1952471603
32
0.0000000000
13
-0.1904798021
23
-0.0515302338
33
0.0000000000
40
0.0000000000
40
0.0000000000
40
0.0000000000
40
0.0000000000
40
0.1384183407
40
0.2713841348
40
0.3985280733
40
0.5197895362
40
0.6354648679
40
0.7462417898
40
0.8532034335
40
0.9577820007
40
1.0000000000
40
1.0000000000
40
1.0000000000
40
1.0000000000
10
2.7447957477
20
-21.3545180271
30
0.0000000000
10
2.7435636575
20
-21.3635266231
30
0.0000000000
10
2.7403111201
20
-21.3810893731
30
0.0000000000
10
2.7328946571
20
-21.4062463858
30
0.0000000000
10
2.7231284319
20
-21.4293796473
30
0.0000000000
10
2.7111422831
20
-21.4501526253
30
0.0000000000
10
2.6970945546
20
-21.4682613076
30
0.0000000000
10
2.6811734036
20
-21.4834304860
30
0.0000000000
10
2.6636001818
20
-21.4954176144
30
0.0000000000
10
2.6483411997
20
-21.5023388595
30
0.0000000000
10
2.6391114848
20
-21.5051957760
30
0.0000000000
10
2.6364309261
20
-21.5059209438
30
0.0000000000
11
2.7447957477
21
-21.3545180271
31
0.0000000000
11
2.7397780736
21
-21.3813299382
31
0.0000000000
11
2.7323106165
21
-21.4064462258
31
0.0000000000
11
2.7225018493
21
-21.4295020481
31
0.0000000000
11
2.7104942554
21
-21.4501624938
31
0.0000000000
11
2.6964622582
21
-21.4681274469
31
0.0000000000
11
2.6806096881
21
-21.4831359467
31
0.0000000000
11
2.6631668213
21
-21.4949699782
31
0.0000000000
11
2.6443870345
21
-21.5034576389
31
0.0000000000
11
2.6364309261
21
-21.5059209438
31
0.0000000000
0
SPLINE
5
392
100
AcDbEntity
8
0
100
AcDbSpline
62
7
6
CONTINUOUS
70
0
71
3
72
17
73
13
74
11
42
0.0000001000
43
0.0000001000
44
0.0000000001
12
0.0000000000
22
-0.1795327840
32
0.0000000000
13
-0.1735226082
23
-0.0469575405
33
0.0000000000
40
0.0000000000
40
0.0000000000
40
0.0000000000
40
0.0000000000
40
0.1351912585
40
0.2634194718
40
0.3845169225
40
0.4985577521
40
0.6061819443
40
0.7083121726
40
0.8064949233
40
0.9024480924
40
0.9982636196
40
1.0000000000
40
1.0000000000
40
1.0000000000
40
1.0000000000
10
5.1222746435
20
-20.7111872823
30
0.0000000000
10
5.1222746435
20
-20.7192777033
30
0.0000000000
10
5.1215765553
20
-20.7350541793
30
0.0000000000
10
5.1182670788
20
-20.7578673430
30
0.0000000000
10
5.1127640900
20
-20.7789571064
30
0.0000000000
10
5.1051342820
20
-20.7980617613
30
0.0000000000
10
5.0954709070
20
-20.8149391495
30
0.0000000000
10
5.0838875224
20
-20.8293775412
30
0.0000000000
10
5.0705330339
20
-20.8411798880
30
0.0000000000
10
5.0555861892
20
-20.8501855208
30
0.0000000000
10
5.0446752374
20
-20.8542561746
30
0.0000000000
10
5.0390352023
20
-20.8557922828
30
0.0000000000
10
5.0389347685
20
-20.8558194616
30
0.0000000000
11
5.1222746435
21
-20.7111872823
31
0.0000000000
11
5.1211448095
21
-20.7354322340
31
0.0000000000
11
5.1177745642
21
-20.7582053679
31
0.0000000000
11
5.1122134701
21
-20.7792230671
31
0.0000000000
11
5.1045464684
21
-20.7982073904
31
0.0000000000
11
5.0948777641
21
-20.8149363647
31
0.0000000000
11
5.0833505851
21
-20.8291954995
31
0.0000000000
11
5.0701110911
21
-20.8408328413
31
0.0000000000
11
5.0553468936
21
-20.8497085964
31
0.0000000000
11
5.0392359383
21
-20.8557374353
31
0.0000000000
11
5.0389347685
21
-20.8558194616
31
0.0000000000
0
SPLINE
5
393
100
AcDbEntity
8
0
100
AcDbSpline
62
9
6
CONTINUOUS
70
0
71
3
72
24
73
20
74
18
42
0.0000001000
43
0.0000001000
44
0.0000000001
12
0.0404660335
22
1.2926968509
32
0.0000000000
13
1.0435667454
23
0.7639837014
33
0.0000000000
40
0.0000000000
40
0.0000000000
40
0.0000000000
40
0.0000000000
40
0.0551164051
40
0.1117809648
40
0.1698215694
40
0.2290396480
40
0.2892206241
40
0.3501371848
40
0.4115499431
40
0.4732136511
40
0.5348791931
40
0.5962985873
40
0.6572259548
40
0.7174225751
40
0.7766589788
40
0.8347212886
40
0.8914120326
40
0.9465538417
40
1.0000000000
40
1.0000000000
40
1.0000000000
40
1.0000000000
10
-14.9640702014
20
16.5319719520
30
0.0000000000
10
-14.9633267540
20
16.5557215531
30
0.0000000000
10
-14.9602977443
20
16.6038511504
30
0.0000000000
10
-14.9514232364
20
16.6765606905
30
0.0000000000
10
-14.9382074466
20
16.7504050723
30
0.0000000000
10
-14.9207343466
20
16.8249143372
30
0.0000000000
10
-14.8991148133
20
16.8996179322
30
0.0000000000
10
-14.8734858097
20
16.9740427121
30
0.0000000000
10
-14.8440096250
20
17.0477174663
30
0.0000000000
10
-14.8108731790
20
17.1201748964
30
0.0000000000
10
-14.7742863394
20
17.1909559824
30
0.0000000000
10
-14.7344808925
20
17.2596120718
30
0.0000000000
10
-14.6917088456
20
17.3257081579
30
0.0000000000
10
-14.6462413141
20
17.3888249218
30
0.0000000000
10
-14.5983659164
20
17.4485626238
30
0.0000000000
10
-14.5483856131
20
17.5045427225
30
0.0000000000
10
-14.4966152564
20
17.5564112294
30
0.0000000000
10
-14.4433843008
20
17.6038376887
30
0.0000000000
10
-14.4065354305
20
17.6327729742
30
0.0000000000
10
-14.3879438860
20
17.6463836388
30
0.0000000000
11
-14.9640702014
21
16.5319719520
31
0.0000000000
11
-14.9596559313
21
16.6031188467
31
0.0000000000
11
-14.9508309280
21
16.6758715371
31
0.0000000000
11
-14.9376508879
21
16.7497710612
31
0.0000000000
11
-14.9201999143
21
16.8243449513
31
0.0000000000
11
-14.8985891024
21
16.8991184991
31
0.0000000000
11
-14.8729555353
21
16.9736170293
31
0.0000000000
11
-14.8434625911
21
17.0473653123
31
0.0000000000
11
-14.8102978948
21
17.1198939895
31
0.0000000000
11
-14.7736727283
21
17.1907408781
31
0.0000000000
11
-14.7338197006
21
17.2594558154
31
0.0000000000
11
-14.6909926808
21
17.3256008051
31
0.0000000000
11
-14.6454642001
21
17.3887547291
31
0.0000000000
11
-14.5975247404
21
17.4485145878
31
0.0000000000
11
-14.5474786905
21
17.5045008475
31
0.0000000000
11
-14.4956447226
21
17.5563567942
31
0.0000000000
11
-14.4423543783
21
17.6037507900
31
0.0000000000
11
-14.3879438860
21
17.6463836388
31
0.0000000000
0
SPLINE
5
394
100
AcDbEntity
8
0
100
AcDbSpline
62
3
6
CONTINUOUS
70
0
71
3
72
10
73
6
74
4
42
0.0000001000
43
0.0000001000
44
0.0000000001
12
0.0616125570
22
0.0308062785
32
0.0000000000
13
0.0685289761
23
0.0069938116
33
0.0000000000
40
0.0000000000
40
0.0000000000
40
0.0000000000
40
0.0000000000
40
0.3511381091
40
0.6840818606
40
1.0000000000
40
1.0000000000
40
1.0000000000
40
1.0000000000
10
5.1479768708
20
20.7173601112
30
0.0000000000
10
5.1551883764
20
20.7209658640
30
0.0000000000
10
5.1696033722
20
20.7272969505
30
0.0000000000
10
5.1915849890
20
20.7341019471
30
0.0000000000
10
5.2063127590
20
20.7366839323
30
0.0000000000
10
5.2135292745
20
20.7374204229
30
0.0000000000
11
5.1479768708
21
20.7173601112
31
0.0000000000
11
5.1701507064
21
20.7270237756
31
0.0000000000
11
5.1920816008
21
20.7337350563
31
0.0000000000
11
5.2135292745
21
20.7374204229
31
0.0000000000
0
SPLINE
5
395
100
AcDbEntity
8
0
100
AcDbSpline
62
3
6
CONTINUOUS
70
0
71
3
72
12
73
8
74
6
42
0.0000001000
43
0.0000001000
44
0.0000000001
12
0.0000000000
22
0.4409628938
32
0.0000000000
13
0.3944092024
23
0.1972046012
33
0.0000000000
40
0.0000000000
40
0.0000000000
40
0.0000000000
40
0.0000000000
40
0.1952646443
40
0.4051116665
40
0.6172925625
40
0.8190521716
40
1.0000000000
40
1.0000000000
40
1.0000000000
40
1.0000000000
10
4.5722767039
20
20.1697024066
30
0.0000000000
10
4.5722767039
20
20.1984038941
30
0.0000000000
10
4.5802011226
20
20.2580487490
30
0.0000000000
10
4.6102686010
20
20.3441901448
30
0.0000000000
10
4.6564074315
20
20.4240989491
30
0.0000000000
10
4.7143148408
20
20.4903466372
30
0.0000000000
10
4.7606195753
20
20.5236814634
30
0.0000000000
10
4.7844087382
20
20.5355760449
30
0.0000000000
11
4.5722767039
21
20.1697024066
31
0.0000000000
11
4.5826591846
21
20.2551786171
31
0.0000000000
11
4.6127903174
21
20.3426703014
31
0.0000000000
11
4.6597206569
21
20.4236131638
31
0.0000000000
11
4.7188563346
21
20.4900839530
31
0.0000000000
11
4.7844087382
21
20.5355760449
31
0.0000000000
0
SPLINE
5
396
100
AcDbEntity
8
0
100
AcDbSpline
62
3
6
CONTINUOUS
70
0
71
3
72
15
73
11
74
9
42
0.0000001000
43
0.0000001000
44
0.0000000001
12
-0.2545132660
22
0.1272566330
32
0.0000000000
13
-0.2830840723
23
-0.0288905041
33
0.0000000000
40
0.0000000000
40
0.0000000000
40
0.0000000000
40
0.0000000000
40
0.1162145312
40
0.2441045088
40
0.3793057719
40
0.5170866920
40
0.6525903432
40
0.7810703032
40
0.8981319954
40
1.0000000000
40
1.0000000000
40
1.0000000000
40
1.0000000000
10
4.3706662106
20
22.6097040861
30
0.0000000000
10
4.3608068306
20
22.6146337761
30
0.0000000000
10
4.3396104528
20
22.6240227658
30
0.0000000000
10
4.3057666371
20
22.6362921420
30
0.0000000000
10
4.2692855593
20
22.6470885037
30
0.0000000000
10
4.2315571419
20
22.6559942730
30
0.0000000000
10
4.1940177601
20
22.6626699396
30
0.0000000000
10
4.1580937464
20
22.6668688265
30
0.0000000000
10
4.1251535378
20
22.6684437833
30
0.0000000000
10
4.1043575551
20
22.6676692325
30
0.0000000000
10
4.0947451519
20
22.6666882265
30
0.0000000000
11
4.3706662106
21
22.6097040861
31
0.0000000000
11
4.3404918986
21
22.6232353035
31
0.0000000000
11
4.3063084203
21
22.6357190206
31
0.0000000000
11
4.2694294277
21
22.6466754953
31
0.0000000000
11
4.2312721598
21
22.6556836763
31
0.0000000000
11
4.1933029789
21
22.6623973843
31
0.0000000000
11
4.1569810194
21
22.6665586152
31
0.0000000000
11
4.1237021139
21
22.6680074553
31
0.0000000000
11
4.0947451519
21
22.6666882265
31
0.0000000000
0
SPLINE
5
397
100
AcDbEntity
8
0
100
AcDbSpline
62
3
6
CONTINUOUS
70
0
71
3
72
15
73
11
74
9
42
0.0000001000
43
0.0000001000
44
0.0000000001
12
-0.2545132660
22
0.1272566330
32
0.0000000000
13
-0.2830840723
23
-0.0288905041
33
0.0000000000
40
0.0000000000
40
0.0000000000
40
0.0000000000
40
0.0000000000
40
0.1162145312
40
0.2441045088
40
0.3793057719
40
0.5170866920
40
0.6525903432
40
0.7810703032
40
0.8981319954
40
1.0000000000
40
1.0000000000
40
1.0000000000
40
1.0000000000
10
0.3401575578
20
24.6249584125
30
0.0000000000
10
0.3302981778
20
24.6298881025
30
0.0000000000
10
0.3091018000
20
24.6392770922
30
0.0000000000
10
0.2752579843
20
24.6515464684
30
0.0000000000
10
0.2387769065
20
24.6623428301
30
0.0000000000
10
0.2010484891
20
24.6712485994
30
0.0000000000
10
0.1635091073
20
24.6779242660
30
0.0000000000
10
0.1275850936
20
24.6821231528
30
0.0000000000
10
0.0946448850
20
24.6836981097
30
0.0000000000
10
0.0738489023
20
24.6829235589
30
0.0000000000
10
0.0642364992
20
24.6819425529
30
0.0000000000
11
0.3401575578
21
24.6249584125
31
0.0000000000
11
0.3099832458
21
24.6384896299
31
0.0000000000
11
0.2757997676
21
24.6509733470
31
0.0000000000
11
0.2389207750
21
24.6619298217
31
0.0000000000
11
0.2007635070
21
24.6709380027
31
0.0000000000
11
0.1627943262
21
24.6776517106
31
0.0000000000
11
0.1264723667
21
24.6818129416
31
0.0000000000
11
0.0931934611
21
24.6832617817
31
0.0000000000
11
0.0642364992
21
24.6819425529
31
0.0000000000
0
SPLINE
5
398
100
AcDbEntity
8
0
100
AcDbSpline
62
3
6
CONTINUOUS
70
0
71
3
72
14
73
10
74
8
42
0.0000001000
43
0.0000001000
44
0.0000000001
12
0.6150856016
22
0.2076721131
32
0.0000000000
13
0.5797085112
23
-0.2898542556
33
0.0000000000
40
0.0000000000
40
0.0000000000
40
0.0000000000
40
0.0000000000
40
0.0226478444
40
0.1827376881
40
0.3522486903
40
0.5249977011
40
0.6945087034
40
0.8545985471
40
1.0000000000
40
1.0000000000
40
1.0000000000
40
1.0000000000
10
2.8427134528
20
22.4545881858
30
0.0000000000
10
2.8473569072
20
22.4561559610
30
0.0000000000
10
2.8849599553
20
22.4683948408
30
0.0000000000
10
2.9592121557
20
22.4858866749
30
0.0000000000
10
3.0673147057
20
22.4979885300
30
0.0000000000
10
3.1781008992
20
22.4979885300
30
0.0000000000
10
3.2862034492
20
22.4858866749
30
0.0000000000
10
3.3863314748
20
22.4622991879
30
0.0000000000
10
3.4481643731
20
22.4382850926
30
0.0000000000
10
3.4762611930
20
22.4242366827
30
0.0000000000
11
2.8427134528
21
22.4545881858
31
0.0000000000
11
2.8566917642
21
22.4591410372
31
0.0000000000
11
2.9575682715
21
22.4834308200
31
0.0000000000
11
3.0667255644
21
22.4958880399
31
0.0000000000
11
3.1786900405
21
22.4958880399
31
0.0000000000
11
3.2878473334
21
22.4834308200
31
0.0000000000
11
3.3887238407
21
22.4591410372
31
0.0000000000
11
3.4762611930
21
22.4242366827
31
0.0000000000
0
ENDSEC
0
SECTION
2
OBJECTS
0
DICTIONARY
5
C
100
AcDbDictionary
280
0
281
1
3
ACAD_GROUP
350
D
3
ACAD_MLINESTYLE
350
17
3
ACAD_LAYOUT
350
1A
3
ACAD_PLOTSETTINGS
350
19
3
ACAD_PLOTSTYLENAME
350
E
0
DICTIONARY
5
D
102
{ACAD_REACTORS
330
C
102
}
100
AcDbDictionary
280
0
281
1
0
ACDBDICTIONARYWDFLT
5
E
102
{ACAD_REACTORS
330
C
102
}
100
AcDbDictionary
281
1
3
Normal
350
F
100
AcDbDictionaryWithDefault
340
F
0
DICTIONARY
5
17
102
{ACAD_REACTORS
330
C
102
}
100
AcDbDictionary
280
0
281
1
3
Standard
350
18
0
DICTIONARY
5
19
102
{ACAD_REACTORS
330
C
102
}
100
AcDbDictionary
281
1
0
DICTIONARY
5
1A
102
{ACAD_REACTORS
330
C
102
}
100
AcDbDictionary
281
1
3
Layout1
350
1E
3
Model
350
22
0
ACDBPLACEHOLDER
5
F
102
{ACAD_REACTORS
330
E
102
}
0
MLINESTYLE
5
18
102
{ACAD_REACTORS
330
17
102
}
100
AcDbMlineStyle
2
STANDARD
70
0
3

62
256
51
90.0
52
90.0
71
2
49
0.5
62
256
6
BYLAYER
49
-0.5
62
256
6
BYLAYER
0
LAYOUT
5
1E
102
{ACAD_REACTORS
330
1A
102
}
100
AcDbPlotSettings
1

2

4

6

40
0.0
41
0.0
42
0.0
43
0.0
44
0.0
45
0.0
46
0.0
47
0.0
48
0.0
49
0.0
140
0.0
141
0.0
142
1.0
143
1.0
70
0
72
0
73
0
74
0
7

75
0
147
1.0
148
0.0
149
0.0
100
AcDbLayout
1
Layout1
70
0
71
0
10
0.0
20
0.0
11
0.0
21
0.0
12
0.0
22
0.0
32
0.0
14
0.0
24
0.0
34
0.0
15
0.0
25
0.0
35
0.0
146
0.0
13
0.0
23
0.0
33
0.0
16
0.0
26
0.0
36
0.0
17
0.0
27
0.0
37
0.0
76
0
330
1B
331
0
345
0
346
0
0
LAYOUT
5
22
102
{ACAD_REACTORS
330
1A
102
}
100
AcDbPlotSettings
1

2

4

6

40
0.0
41
0.0
42
0.0
43
0.0
44
0.0
45
0.0
46
0.0
47
0.0
48
0.0
49
0.0
140
0.0
141
0.0
142
1.0
143
1.0
70
0
72
0
73
0
74
0
7

75
0
147
1.0
148
0.0
149
0.0
100
AcDbLayout
1
Model
70
0
71
0
10
0.0
20
0.0
11
0.0
21
0.0
12
0.0
22
0.0
32
0.0
14
0.0
24
0.0
34
0.0
15
0.0
25
0.0
35
0.0
146
0.0
13
0.0
23
0.0
33
0.0
16
0.0
26
0.0
36
0.0
17
0.0
27
0.0
37
0.0
76
0
330
1F
331
0
345
0
346
0
0
ENDSEC
0
EOF
