  0
SECTION
  2
HEADER
  9
$ACADVER
  1
AC1015
  9
$DWGCODEPAGE
  3
ANSI_1252
  9
$EXTMAX
 10
297.0
 20
210.0
 30
0.0
  9
$EXTMIN
 10
0.0
 20
0.0
 30
0.0
  9
$LIMMIN
 10
0.0
 20
0.0
  9
$LIMMAX
 10
297.0
 20
210.0
  9
$VIEWCTR
 10
148.5
 20
105.0
  9
$VIEWSIZE
 40
210.0
  9
$CLAYER
  8
0
  9
$LTSCALE
 40
16.335
  9
$CELTYPE
  6
BYLAYER
  9
$DIMSCALE
 40
1.0
  9
$DIMASZ
 40
3.0
  9
$DIMEXO
 40
0.5
  9
$DIMDLI
 40
11.286
  9
$DIMEXE
 40
1.5
  9
$DIMCEN
 40
2.673
  9
$DIMLFAC
 40
1.0
  9
$DIMBLK
  1
_FILLED
  9
$DIMALT
 70
0
  9
$DIMALTF
 40
0.0393700787
  9
$DIMTXT
 40
3.0
  9
$DIMTOL
 70
1
  9
$DIMLIM
 70
0
  9
$DIMTFAC
 40
1.0
  9
$DIMTP
 40
0.01
  9
$DIMTM
 40
0.01
  9
$DIMGAP
 40
0.625
  9
$DIMDSEP
 70
44
  9
$AUNITS
 70
0
  9
$PDMODE
 70
3
  9
$PDSIZE
 40
3.0
  9
$HANDSEED
  5
549
  9
$TILEMODE
 70
1
  9
$MEASUREMENT
 70
1
  9
$INSUNITS
 70
4
  0
ENDSEC
  0
SECTION
  2
CLASSES
  0
CLASS
  1
ACDBDICTIONARYWDFLT
  2
AcDbDictionaryWithDefault
  3
AutoCAD 2000
 90
0
280
0
281
0
  0
CLASS
  1
ACDBPLACEHOLDER
  2
AcDbPlaceHolder
  3
AutoCAD 2000
 90
0
280
0
281
0
  0
CLASS
  1
LAYOUT
  2
AcDbLayout
  3
AutoCAD 2000
 90
0
280
0
281
0
  0
ENDSEC
  0
SECTION
  2
TABLES
  0
TABLE
  2
VPORT
  5
8
100
AcDbSymbolTable
 70
2
  0
VPORT
  5
1F4
100
AcDbSymbolTableRecord
100
AcDbViewportTableRecord
  2
*ACTIVE
 70
0
 10
0.0
 20
0.0
 11
1.0
 21
1.0
 12
148.5
 22
105.0
 13
0.0
 23
0.0
 14
1.0
 24
1.0
 15
0.0
 25
0.0
 16
0.0
 26
0.0
 36
1.0
 17
0.0
 27
0.0
 37
0.0
 40
210.0
 41
1.4142857143
 42
50.0
 43
0.0
 44
0.0
 50
0.0
 51
0.0
 71
0
 72
100
 73
1
 74
1
 75
0
 76
0
 77
0
 78
0
  0
ENDTAB
  0
TABLE
  2
LTYPE
  5
5
100
AcDbSymbolTable
 70
6
  0
LTYPE
  5
14
100
AcDbSymbolTableRecord
100
AcDbLinetypeTableRecord
  2
BYBLOCK
 70
0
  3

 72
65
 73
0
 40
0.0
  0
LTYPE
  5
15
100
AcDbSymbolTableRecord
100
AcDbLinetypeTableRecord
  2
BYLAYER
 70
0
  3

 72
65
 73
0
 40
0.0
  0
LTYPE
  5
16
100
AcDbSymbolTableRecord
100
AcDbLinetypeTableRecord
  2
CONTINUOUS
 70
64
  3
Solid line
 72
65
 73
0
 40
0.0
  0
LTYPE
  5
1F5
100
AcDbSymbolTableRecord
100
AcDbLinetypeTableRecord
  2
CENTER
 70
64
  3
____ _ ____ _ ____ _ ____ _ ____ _ ____ _ ____
 72
65
 73
4
 40
0.6
 49
0.375
 74
0
 49
-0.075
 74
0
 49
0.075
 74
0
 49
-0.075
 74
0
  0
LTYPE
  5
1F6
100
AcDbSymbolTableRecord
100
AcDbLinetypeTableRecord
  2
HIDDEN
 70
64
  3
- - - - - - - - - - - - - - - - - - - -
 72
65
 73
2
 40
0.2
 49
0.1
 74
0
 49
-0.1
 74
0
  0
LTYPE
  5
1F7
100
AcDbSymbolTableRecord
100
AcDbLinetypeTableRecord
  2
PHANTOM
 70
64
  3
_____ _ _ _____ _ _ _____ _ _ _____
 72
65
 73
6
 40
0.8
 49
0.45
 74
0
 49
-0.05
 74
0
 49
0.1
 74
0
 49
-0.05
 74
0
 49
0.1
 74
0
 49
-0.05
 74
0
  0
LTYPE
  5
1F8
100
AcDbSymbolTableRecord
100
AcDbLinetypeTableRecord
  2
DOT
 70
64
  3
. . . . . . . . . . . . . . . . . . . .
 72
65
 73
2
 40
0.2
 49
0.1
 74
0
 49
-0.1
 74
0
  0
LTYPE
  5
1F9
100
AcDbSymbolTableRecord
100
AcDbLinetypeTableRecord
  2
DASHED
 70
64
  3
- - - - - - - - - - - - - - - - - - - -
 72
65
 73
2
 40
0.2
 49
0.1
 74
0
 49
-0.1
 74
0
  0
ENDTAB
  0
TABLE
  2
LAYER
  5
2
100
AcDbSymbolTable
 70
36
  0
LAYER
  5
10
100
AcDbSymbolTableRecord
100
AcDbLayerTableRecord
  2
0
 70
0
 62
7
  6
CONTINUOUS
370
-3
390
F
  0
LAYER
  5
1FA
100
AcDbSymbolTableRecord
100
AcDbLayerTableRecord
  2
DEFAULT_1
 70
0
 62
7
  6
CENTER
370
-3
390
F
  0
LAYER
  5
1FB
100
AcDbSymbolTableRecord
100
AcDbLayerTableRecord
  2
DEFAULT_2
 70
0
 62
7
  6
HIDDEN
370
-3
390
F
  0
LAYER
  5
1FC
100
AcDbSymbolTableRecord
100
AcDbLayerTableRecord
  2
DEFAULT_3
 70
0
 62
7
  6
PHANTOM
370
-3
390
F
  0
LAYER
  5
1FD
100
AcDbSymbolTableRecord
100
AcDbLayerTableRecord
  2
ASSI
 70
0
 62
7
  6
CONTINUOUS
370
-3
390
F
  0
LAYER
  5
1FE
100
AcDbSymbolTableRecord
100
AcDbLayerTableRecord
  2
COORDINATE
 70
0
 62
7
  6
CONTINUOUS
370
-3
390
F
  0
LAYER
  5
1FF
100
AcDbSymbolTableRecord
100
AcDbLayerTableRecord
  2
COORD_ORIGINE
 70
0
 62
7
  6
CONTINUOUS
370
-3
390
F
  0
LAYER
  5
200
100
AcDbSymbolTableRecord
100
AcDbLayerTableRecord
  2
COPY_PUBLISH
 70
0
 62
7
  6
CONTINUOUS
370
-3
390
F
  0
LAYER
  5
201
100
AcDbSymbolTableRecord
100
AcDbLayerTableRecord
  2
COSMETIC
 70
0
 62
7
  6
CONTINUOUS
370
-3
390
F
  0
LAYER
  5
202
100
AcDbSymbolTableRecord
100
AcDbLayerTableRecord
  2
COSMETICI
 70
0
 62
7
  6
CONTINUOUS
370
-3
390
F
  0
LAYER
  5
203
100
AcDbSymbolTableRecord
100
AcDbLayerTableRecord
  2
CURVE
 70
0
 62
7
  6
CONTINUOUS
370
-3
390
F
  0
LAYER
  5
204
100
AcDbSymbolTableRecord
100
AcDbLayerTableRecord
  2
DRAFT
 70
0
 62
7
  6
CONTINUOUS
370
-3
390
F
  0
LAYER
  5
205
100
AcDbSymbolTableRecord
100
AcDbLayerTableRecord
  2
IMPORT_IGES
 70
0
 62
7
  6
CONTINUOUS
370
-3
390
F
  0
LAYER
  5
206
100
AcDbSymbolTableRecord
100
AcDbLayerTableRecord
  2
NOTE
 70
0
 62
7
  6
CONTINUOUS
370
-3
390
F
  0
LAYER
  5
207
100
AcDbSymbolTableRecord
100
AcDbLayerTableRecord
  2
PIANI
 70
0
 62
7
  6
CONTINUOUS
370
-3
390
F
  0
LAYER
  5
208
100
AcDbSymbolTableRecord
100
AcDbLayerTableRecord
  2
PIANI_ORIGINE
 70
0
 62
7
  6
CONTINUOUS
370
-3
390
F
  0
LAYER
  5
209
100
AcDbSymbolTableRecord
100
AcDbLayerTableRecord
  2
PIANI_RIFERIMENTO
 70
0
 62
7
  6
CONTINUOUS
370
-3
390
F
  0
LAYER
  5
20A
100
AcDbSymbolTableRecord
100
AcDbLayerTableRecord
  2
PUNTI
 70
0
 62
7
  6
CONTINUOUS
370
-3
390
F
  0
LAYER
  5
20B
100
AcDbSymbolTableRecord
100
AcDbLayerTableRecord
  2
RACCORDO
 70
0
 62
7
  6
CONTINUOUS
370
-3
390
F
  0
LAYER
  5
20C
100
AcDbSymbolTableRecord
100
AcDbLayerTableRecord
  2
SIMBOLI
 70
0
 62
7
  6
CONTINUOUS
370
-3
390
F
  0
LAYER
  5
20D
100
AcDbSymbolTableRecord
100
AcDbLayerTableRecord
  2
SMUSSO
 70
0
 62
7
  6
CONTINUOUS
370
-3
390
F
  0
LAYER
  5
20E
100
AcDbSymbolTableRecord
100
AcDbLayerTableRecord
  2
SUPERFICI
 70
0
 62
7
  6
CONTINUOUS
370
-3
390
F
  0
LAYER
  5
20F
100
AcDbSymbolTableRecord
100
AcDbLayerTableRecord
  2
TRASH
 70
0
 62
7
  6
CONTINUOUS
370
-3
390
F
  0
LAYER
  5
210
100
AcDbSymbolTableRecord
100
AcDbLayerTableRecord
  2
XSEC_DATUMS
 70
0
 62
7
  6
CONTINUOUS
370
-3
390
F
  0
ENDTAB
  0
TABLE
  2
STYLE
  5
3
100
AcDbSymbolTable
 70
1
  0
STYLE
  5
11
100
AcDbSymbolTableRecord
100
AcDbTextStyleTableRecord
  2
STANDARD
 70
0
 40
0.0
 41
0.8
 50
0.0
 71
0
 42
0.2
  3
txt
  4

  0
STYLE
  5
211
100
AcDbSymbolTableRecord
100
AcDbTextStyleTableRecord
  2
TEXTSTYLE_1
 70
0
 40
0.0
 41
0.8
 50
0.0
 71
0
 42
0.2
  3
gdt
  4

  0
ENDTAB
  0
TABLE
  2
VIEW
  5
6
100
AcDbSymbolTable
 70
0
  0
ENDTAB
  0
TABLE
  2
UCS
  5
7
100
AcDbSymbolTable
 70
0
  0
ENDTAB
  0
TABLE
  2
APPID
  5
9
100
AcDbSymbolTable
 70
1
  0
APPID
  5
212
100
AcDbSymbolTableRecord
100
AcDbRegAppTableRecord
  2
ACAD
 70
0
  0
ENDTAB
  0
TABLE
  2
BLOCK_RECORD
  5
1
100
AcDbSymbolTable
 70
0
  0
BLOCK_RECORD
  5
213
100
AcDbSymbolTableRecord
100
AcDbBlockTableRecord
  2
*Model_Space
  0
BLOCK_RECORD
  5
214
100
AcDbSymbolTableRecord
100
AcDbBlockTableRecord
  2
*Paper_Space
  0
ENDTAB
  0
TABLE
  2
DIMSTYLE
  5
A
100
AcDbSymbolTable
 70
1
100
AcDbDimStyleTable
 71
0
  0
DIMSTYLE
105
215
100
AcDbSymbolTableRecord
100
AcDbDimStyleTableRecord
  2
STANDARD
 70
0
  3

  4

 40
1.0
 41
3.0
 42
0.5
 43
0.38
 44
1.5
 45
0.0
 46
0.0
 47
0.01
 48
0.01
140
3.0
141
0.09
142
0.0
143
25.4
144
1.0
145
0.0
146
1.0
147
0.625
 71
1.0
 72
0.0
 73
0
 74
0
 75
0
 76
0
 77
1
 78
8
170
0
171
2
172
0
173
0
174
0
175
0
176
0
177
0
178
0
270
2
271
2
272
2
273
2
274
2
275
0
280
0
281
0
282
0
283
1
284
8
285
0
286
0
287
3
288
0
340
11
278
44
  0
ENDTAB
  0
ENDSEC
  0
SECTION
  2
BLOCKS
  0
BLOCK
  5
20
100
AcDbEntity
  8
0
100
AcDbBlockBegin
  2
*Model_Space
 70
0
 10
0.0
 20
0.0
 30
0.0
  3
*Model_Space
  1

  0
ENDBLK
  5
21
100
AcDbEntity
  8
0
100
AcDbBlockEnd
  0
BLOCK
  5
1C
100
AcDbEntity
  8
0
100
AcDbBlockBegin
  2
*Paper_Space
 70
0
 10
0.0
 20
0.0
 30
0.0
  3
*Paper_Space
  1

  0
ENDBLK
  5
1D
100
AcDbEntity
  8
0
100
AcDbBlockEnd
  0
ENDSEC
  0
SECTION
  2
ENTITIES
  0
LWPOLYLINE
  5
216
100
AcDbEntity
  8
RACCORDO
100
AcDbPolyline
 62
253
  6
CONTINUOUS
 90
12
 70
0
 10
-3.7875799419
 20
26.8821924405
 10
-3.7343998635
 20
26.9093626795
 10
-3.6815555735
 20
26.9318514342
 10
-3.6293358243
 20
26.9495323292
 10
-3.5780226736
 20
26.9623037018
 10
-3.527899796
 20
26.9700949036
 10
-3.479250936
 20
26.972866686
 10
-3.4323420779
 20
26.9706020417
 10
-3.3874293717
 20
26.9633115255
 10
-3.3447675499
 20
26.9510390741
 10
-3.304590385
 20
26.9338514866
 10
-3.2878745556
 20
26.9248230428
  0
LWPOLYLINE
  5
217
100
AcDbEntity
  8
RACCORDO
100
AcDbPolyline
 62
253
  6
CONTINUOUS
 90
7
 70
0
 10
-3.9334898883
 20
26.8993402087
 10
-3.9148187248
 20
26.9071894566
 10
-3.8920198018
 20
26.9115171329
 10
-3.8674657477
 20
26.9111346948
 10
-3.8415766256
 20
26.906048633
 10
-3.814795304
 20
26.8963459024
 10
-3.7875799443
 20
26.8821924391
  0
LWPOLYLINE
  5
218
100
AcDbEntity
  8
RACCORDO
100
AcDbPolyline
 62
253
  6
CONTINUOUS
 90
79
 70
0
 10
-11.0031206429
 20
22.8844268875
 10
-11.0228035774
 20
22.8719682594
 10
-11.0415717342
 20
22.8591064483
 10
-11.0594251133
 20
22.845841454
 10
-11.0763904821
 20
22.8321501682
 10
-11.0924410732
 20
22.8180556993
 10
-11.1074965838
 20
22.8036273726
 10
-11.1215512456
 20
22.7888640775
 10
-11.1346108268
 20
22.7737669247
 10
-11.1466123299
 20
22.7584085708
 10
-11.1575504027
 20
22.74278804
 10
-11.1674303973
 20
22.7269063081
 10
-11.1762053723
 20
22.7108389605
 10
-11.1838701223
 20
22.6945850767
 10
-11.1904298527
 20
22.6781455771
 10
-11.1958532383
 20
22.6615988077
 10
-11.2001348634
 20
22.6449441459
 10
-11.2032801436
 20
22.6281822144
 10
-11.2052740002
 20
22.6113932273
 10
-11.2061108933
 20
22.5945771191
 10
-11.2057963629
 20
22.5777339552
 10
-11.2043319502
 20
22.5609441465
 10
-11.2017121726
 20
22.5442079835
 10
-11.1979425128
 20
22.5275251756
 10
-11.1930409598
 20
22.5109752612
 10
-11.1870021052
 20
22.4945588449
 10
-11.1798313574
 20
22.478275322
 10
-11.1715629305
 20
22.462202417
 10
-11.1621915674
 20
22.446341127
 10
-11.1517225253
 20
22.4306904549
 10
-11.14020579
 20
22.4153251332
 10
-11.1276363521
 20
22.4002465334
 10
-11.114019221
 20
22.3854532842
 10
-11.0994194112
 20
22.3710160041
 10
-11.0838322303
 20
22.356936401
 10
-11.0672623706
 20
22.3432127671
 10
-11.0497889233
 20
22.3299105979
 10
-11.0314075672
 20
22.3170319064
 10
-11.0121226235
 20
22.3045746795
 10
-10.9920261465
 20
22.2925983742
 10
-10.9711142569
 20
22.2811052895
 10
-10.9493908339
 20
22.2700931264
 10
-10.9269595704
 20
22.2596144441
 10
-10.9038170899
 20
22.2496717948
 10
-10.8799667689
 20
22.2402626264
 10
-10.8555224286
 20
22.2314318407
 10
-10.8304812267
 20
22.2231822001
 10
-10.8048460056
 20
22.2155109423
 10
-10.778739114
 20
22.2084546825
 10
-10.7521582772
 20
22.2020163578
 10
-10.7251057698
 20
22.196193031
 10
-10.6977107641
 20
22.1910125063
 10
-10.6699716372
 20
22.1864778615
 10
-10.641890012
 20
22.1825860187
 10
-10.61359993
 20
22.1793555474
 10
-10.5851004483
 20
22.1767896076
 10
-10.5563925097
 20
22.1748850393
 10
-10.5276129848
 20
22.1736509321
 10
-10.4987614749
 20
22.1730904831
 10
-10.4698383786
 20
22.1732004951
 10
-10.4409817623
 20
22.1739804669
 10
-10.4121918307
 20
22.1754336221
 10
-10.3834683791
 20
22.1775567369
 10
-10.3549488594
 20
22.1803396389
 10
-10.3266344255
 20
22.1837854733
 10
-10.2985239236
 20
22.1878910948
 10
-10.2707513437
 20
22.1926368947
 10
-10.2433183703
 20
22.1980258835
 10
-10.2162233189
 20
22.2040550506
 10
-10.1895951266
 20
22.2106957552
 10
-10.1634355679
 20
22.2179510987
 10
-10.1377428684
 20
22.2258179798
 10
-10.1126406414
 20
22.234258454
 10
-10.0881304295
 20
22.2432761141
 10
-10.0642106903
 20
22.2528673672
 10
-10.0410004101
 20
22.2629834903
 10
-10.0185392513
 20
22.2736082424
 10
-9.9967875516
 20
22.2847578645
 10
-9.975745311
 20
22.2964323566
  0
LWPOLYLINE
  5
219
100
AcDbEntity
  8
RACCORDO
100
AcDbPolyline
 62
7
  6
CONTINUOUS
 90
24
 70
0
 10
-11.131480945
 20
22.8948081796
 10
-11.1482440961
 20
22.8843619458
 10
-11.1761358433
 20
22.8657971266
 10
-11.2027150376
 20
22.8465754762
 10
-11.2279692114
 20
22.8267320864
 10
-11.2519030815
 20
22.8062917255
 10
-11.2745280843
 20
22.7852697394
 10
-11.2958424441
 20
22.7636893853
 10
-11.3158391586
 20
22.7415811071
 10
-11.334514061
 20
22.7189719986
 10
-11.3518591915
 20
22.6958924199
 10
-11.3678678658
 20
22.6723749222
 10
-11.3825326184
 20
22.6484564596
 10
-11.3958459306
 20
22.6241754702
 10
-11.4078015691
 20
22.5995721714
 10
-11.4183934829
 20
22.5746959756
 10
-11.4276210075
 20
22.5495898105
 10
-11.4354817393
 20
22.5243067618
 10
-11.4419732661
 20
22.4989210488
 10
-11.4471061055
 20
22.4734862056
 10
-11.4508935033
 20
22.4480564943
 10
-11.4533497911
 20
22.4227129283
 10
-11.4544996286
 20
22.3975185941
 10
-11.4546005259
 20
22.3874019329
  0
LINE
  5
21A
100
AcDbEntity
  8
RACCORDO
100
AcDbLine
 62
7
  6
CONTINUOUS
 10
-9.7114556446
 20
23.7584079204
 11
-11.1314808997
 21
22.8948084405
  0
LINE
  5
21B
100
AcDbEntity
  8
RACCORDO
100
AcDbLine
 62
253
  6
CONTINUOUS
 10
-9.5848085894
 20
23.7469844703
 11
-11.0031206429
 21
22.8844268875
  0
LINE
  5
21C
100
AcDbEntity
  8
RACCORDO
100
AcDbLine
 62
7
  6
CONTINUOUS
 10
-14.7517249186
 20
19.4249593814
 11
-11.4546010933
 21
21.4301310573
  0
LINE
  5
21D
100
AcDbEntity
  8
RACCORDO
100
AcDbLine
 62
253
  6
CONTINUOUS
 10
-11.4540052681
 20
21.3420485645
 11
-14.6233646619
 21
19.4145778283
  0
LWPOLYLINE
  5
21E
100
AcDbEntity
  8
RACCORDO
100
AcDbPolyline
 62
253
  6
CONTINUOUS
 90
17
 70
0
 10
-14.7517249186
 20
19.4249593814
 10
-14.7500433544
 20
19.4259556632
 10
-14.743267132
 20
19.4294699983
 10
-14.7361580102
 20
19.432386364
 10
-14.7287354201
 20
19.4346967931
 10
-14.7210196031
 20
19.4363949655
 10
-14.7130318081
 20
19.4374761859
 10
-14.7047941972
 20
19.4379374806
 10
-14.6963295498
 20
19.4377776491
 10
-14.6876609216
 20
19.4369971995
 10
-14.678811824
 20
19.4355982745
 10
-14.6698045165
 20
19.4335841976
 10
-14.6606656258
 20
19.4309607305
 10
-14.6514260639
 20
19.4277372856
 10
-14.6421132779
 20
19.4239246818
 10
-14.6327509283
 20
19.4195338372
 10
-14.6233646619
 20
19.4145778283
  0
LINE
  5
21F
100
AcDbEntity
  8
RACCORDO
100
AcDbLine
 62
253
  6
CONTINUOUS
 10
-9.975745311
 20
22.2964323566
 11
-8.5241416875
 21
23.1345686945
  0
LINE
  5
220
100
AcDbEntity
  8
RACCORDO
100
AcDbLine
 62
7
  6
CONTINUOUS
 10
-2.7691226895
 20
26.2941479872
 11
-8.3827270624
 21
23.0529176623
  0
LINE
  5
221
100
AcDbEntity
  8
RACCORDO
100
AcDbLine
 62
253
  6
CONTINUOUS
 10
-9.7989753468
 20
21.9902577977
 11
-8.3473717233
 21
22.8283941356
  0
LINE
  5
222
100
AcDbEntity
  8
RACCORDO
100
AcDbLine
 62
7
  6
CONTINUOUS
 10
-9.6475464968
 20
23.7699064343
 11
-3.9335363984
 21
26.8993147527
  0
LINE
  5
223
100
AcDbEntity
  8
RACCORDO
100
AcDbLine
 62
253
  6
CONTINUOUS
 10
-9.5494532501
 20
23.7265707405
 11
-3.7875799419
 21
26.8821924405
  0
LWPOLYLINE
  5
224
100
AcDbEntity
  8
RACCORDO
100
AcDbPolyline
 62
7
  6
CONTINUOUS
 90
4
 70
0
 10
0.0567665271
 20
-24.4433295246
 10
0.1270867995
 20
-24.4377745432
 10
0.1990882284
 20
-24.423633169
 10
0.266842367
 20
-24.4029269703
  0
LWPOLYLINE
  5
225
100
AcDbEntity
  8
RACCORDO
100
AcDbPolyline
 62
253
  6
CONTINUOUS
 90
3
 70
0
 10
0.113790606
 20
-24.3190215135
 10
0.1834197142
 20
-24.3277048127
 10
0.2583460596
 20
-24.3206121348
  0
LWPOLYLINE
  5
226
100
AcDbEntity
  8
RACCORDO
100
AcDbPolyline
 62
253
  6
CONTINUOUS
 90
3
 70
0
 10
-17.061975098
 20
14.0348946888
 10
-16.9742964417
 20
14.1464663717
 10
-16.8829105982
 20
14.2437650971
  0
LWPOLYLINE
  5
227
100
AcDbEntity
  8
RACCORDO
100
AcDbPolyline
 62
7
  6
CONTINUOUS
 90
6
 70
0
 10
-17.0368829684
 20
14.1967141872
 10
-17.1325336612
 20
14.0793947891
 10
-17.2172476522
 20
13.9516009443
 10
-17.2894798819
 20
13.8159921209
 10
-17.3478557274
 20
13.6749022382
 10
-17.3910017169
 20
13.5309215071
  0
LINE
  5
228
100
AcDbEntity
  8
RACCORDO
100
AcDbLine
 62
253
  6
CONTINUOUS
 10
-16.8829105982
 20
14.2437650971
 11
-16.7901216188
 21
14.3258989706
  0
LWPOLYLINE
  5
229
100
AcDbEntity
  8
RACCORDO
100
AcDbPolyline
 62
7
  6
CONTINUOUS
 90
3
 70
0
 10
-16.8907462034
 20
14.335125839
 10
-16.9318588402
 20
14.3004926851
 10
-17.0368829684
 20
14.1967141872
  0
LINE
  5
22A
100
AcDbEntity
  8
RACCORDO
100
AcDbLine
 62
7
  6
CONTINUOUS
 10
-16.890988581
 20
14.335049057
 11
-14.5746460251
 21
16.1999769406
  0
LINE
  5
22B
100
AcDbEntity
  8
RACCORDO
100
AcDbLine
 62
253
  6
CONTINUOUS
 10
-16.7901216188
 20
14.3258989706
 11
-14.4670788988
 21
16.1962212735
  0
LINE
  5
22C
100
AcDbEntity
  8
RACCORDO
100
AcDbLine
 62
253
  6
CONTINUOUS
 10
-16.890988581
 20
14.335049057
 11
-16.8908034424
 21
14.3351973256
  0
LINE
  5
22D
100
AcDbEntity
  8
RACCORDO
100
AcDbLine
 62
7
  6
CONTINUOUS
 10
-2.3369640832
 20
23.9307672203
 11
-8.8473779777
 21
20.0393687427
  0
LINE
  5
22E
100
AcDbEntity
  8
DRAFT
100
AcDbLine
 62
7
  6
CONTINUOUS
 10
-3.996378311
 20
24.2765394905
 11
-8.3473717233
 21
21.7643346256
  0
LINE
  5
22F
100
AcDbEntity
  8
RACCORDO
100
AcDbLine
 62
7
  6
CONTINUOUS
 10
-8.3473717233
 20
21.7643346256
 11
-9.7989753468
 21
20.9261982878
  0
LINE
  5
230
100
AcDbEntity
  8
0
100
AcDbLine
 62
7
  6
CONTINUOUS
 10
-5.9972268186
 20
21.6250466859
 11
-5.633658686
 21
21.8349663691
  0
LINE
  5
231
100
AcDbEntity
  8
ASSI
100
AcDbLine
 62
7
  6
CONTINUOUS
 10
-2.6349264123
 20
25.0354232152
 11
-3.996378311
 21
24.2765394905
  0
LINE
  5
232
100
AcDbEntity
  8
RACCORDO
100
AcDbLine
 62
7
  6
CONTINUOUS
 10
-0.8022841588
 20
24.7862095745
 11
-2.3369640832
 21
23.9307672203
  0
LWPOLYLINE
  5
233
100
AcDbEntity
  8
0
100
AcDbPolyline
 62
7
  6
CONTINUOUS
 90
10
 70
0
 10
-5.633658686
 20
21.8349663691
 10
-5.6163493847
 20
21.8446088539
 10
-5.5991030682
 20
21.8535230287
 10
-5.5819197364
 20
21.8617088934
 10
-5.5647786244
 20
21.8691746401
 10
-5.5477004973
 20
21.8759120767
 10
-5.5307476495
 20
21.8818966276
 10
-5.5139408461
 20
21.887120101
 10
-5.4972593221
 20
21.8915906887
 10
-5.4807030775
 20
21.8953083907
  0
LINE
  5
234
100
AcDbEntity
  8
RACCORDO
100
AcDbLine
 62
7
  6
CONTINUOUS
 10
-0.4535209052
 20
24.8325892586
 11
0.4241377549
 21
25.3132590972
  0
LINE
  5
235
100
AcDbEntity
  8
RACCORDO
100
AcDbLine
 62
253
  6
CONTINUOUS
 10
-0.3077200226
 20
24.7506759403
 11
0.6673985207
 21
25.2847219129
  0
LINE
  5
236
100
AcDbEntity
  8
RACCORDO
100
AcDbLine
 62
253
  6
CONTINUOUS
 10
0.4241377549
 20
25.3132590972
 11
0.4241825056
 21
25.3132835968
  0
LWPOLYLINE
  5
237
100
AcDbEntity
  8
RACCORDO
100
AcDbPolyline
 62
253
  6
CONTINUOUS
 90
14
 70
0
 10
0.6673985207
 20
25.2847219129
 10
0.6857895516
 20
25.2946023465
 10
0.7041175909
 20
25.3033431268
 10
0.7223330776
 20
25.3109214928
 10
0.7403856643
 20
25.3173174856
 10
0.7582278473
 20
25.3225152704
 10
0.7758149488
 20
25.3265024
 10
0.7930987528
 20
25.3292682609
 10
0.8100333937
 20
25.3308058362
 10
0.8265784754
 20
25.3311111302
 10
0.8426888745
 20
25.3301823902
 10
0.8583207626
 20
25.3280211977
 10
0.8734364901
 20
25.3246311123
 10
0.8879978928
 20
25.320017774
  0
LWPOLYLINE
  5
238
100
AcDbEntity
  8
RACCORDO
100
AcDbPolyline
 62
253
  6
CONTINUOUS
 90
9
 70
0
 10
0.4241825056
 20
25.3132835968
 10
0.4342155561
 20
25.3183353608
 10
0.4626712997
 20
25.3284511584
 10
0.4933358644
 20
25.3335967137
 10
0.5258733358
 20
25.3337156622
 10
0.5599272218
 20
25.3288067204
 10
0.5951244589
 20
25.3189237039
 10
0.6310795105
 20
25.3041749043
 10
0.6673985207
 20
25.2847219129
  0
LWPOLYLINE
  5
239
100
AcDbEntity
  8
RACCORDO
100
AcDbPolyline
 62
7
  6
CONTINUOUS
 90
19
 70
0
 10
2.2568452486
 20
-26.9655201659
 10
2.2691923765
 20
-26.972194288
 10
2.2819825076
 20
-26.9782033073
 10
2.2951722512
 20
-26.9835098277
 10
2.3087205716
 20
-26.988081934
 10
2.3225708436
 20
-26.9918872854
 10
2.3366518049
 20
-26.9948973679
 10
2.3508970118
 20
-26.9970935661
 10
2.3652610307
 20
-26.9984662213
 10
2.3797049472
 20
-26.9990080886
 10
2.3941607692
 20
-26.9987140716
 10
2.4085843647
 20
-26.9975838778
 10
2.4229766103
 20
-26.9956115194
 10
2.4373209436
 20
-26.9927858752
 10
2.4515224826
 20
-26.9891129597
 10
2.4654758133
 20
-26.9846164086
 10
2.4791429411
 20
-26.9793091479
 10
2.492475942
 20
-26.9732095993
 10
2.5019354171
 20
-26.9682883721
  0
LWPOLYLINE
  5
23A
100
AcDbEntity
  8
RACCORDO
100
AcDbPolyline
 62
7
  6
CONTINUOUS
 90
6
 70
0
 10
-0.2101959255
 20
-24.3760299518
 10
-0.1930568186
 20
-24.385590245
 10
-0.1367257818
 20
-24.4109956402
 10
-0.0760168664
 20
-24.4294607534
 10
-0.0112739658
 20
-24.440429433
 10
0.0567665271
 20
-24.4433295246
  0
LINE
  5
23B
100
AcDbEntity
  8
RACCORDO
100
AcDbLine
 62
7
  6
CONTINUOUS
 10
2.2568452486
 20
-26.9655201659
 11
-14.7468280539
 21
-17.1478123071
  0
LINE
  5
23C
100
AcDbEntity
  8
RACCORDO
100
AcDbLine
 62
253
  6
CONTINUOUS
 10
2.2050745934
 20
-26.8510859506
 11
-14.7985987091
 21
-17.0333780918
  0
LINE
  5
23D
100
AcDbEntity
  8
RACCORDO
100
AcDbLine
 62
7
  6
CONTINUOUS
 10
-0.2074246841
 20
-24.3776753571
 11
-0.6151323456
 21
-24.1422700631
  0
LINE
  5
23E
100
AcDbEntity
  8
RACCORDO
100
AcDbLine
 62
7
  6
CONTINUOUS
 10
-1.2121745276
 20
-23.7975453899
 11
-1.725289992
 21
-23.5012789516
  0
LINE
  5
23F
100
AcDbEntity
  8
RACCORDO
100
AcDbLine
 62
7
  6
CONTINUOUS
 10
-2.3223321741
 20
-23.1565542784
 11
-2.8354476385
 21
-22.8602878401
  0
LINE
  5
240
100
AcDbEntity
  8
RACCORDO
100
AcDbLine
 62
7
  6
CONTINUOUS
 10
-3.4324898206
 20
-22.5155631668
 11
-3.945605285
 21
-22.2192967285
  0
LINE
  5
241
100
AcDbEntity
  8
RACCORDO
100
AcDbLine
 62
7
  6
CONTINUOUS
 10
-4.542647467
 20
-21.8745720553
 11
-5.0557629314
 21
-21.578305617
  0
LINE
  5
242
100
AcDbEntity
  8
RACCORDO
100
AcDbLine
 62
7
  6
CONTINUOUS
 10
-5.6528051135
 20
-21.2335809438
 11
-6.1659205779
 21
-20.9373145055
  0
LINE
  5
243
100
AcDbEntity
  8
RACCORDO
100
AcDbLine
 62
7
  6
CONTINUOUS
 10
-6.7629627599
 20
-20.5925898323
 11
-7.2760782243
 21
-20.296323394
  0
LINE
  5
244
100
AcDbEntity
  8
RACCORDO
100
AcDbLine
 62
7
  6
CONTINUOUS
 10
-7.8731204064
 20
-19.9515987207
 11
-8.3862358708
 21
-19.6553322824
  0
LINE
  5
245
100
AcDbEntity
  8
RACCORDO
100
AcDbLine
 62
7
  6
CONTINUOUS
 10
-8.9832780529
 20
-19.3106076092
 11
-9.4963935173
 21
-19.0143411709
  0
LINE
  5
246
100
AcDbEntity
  8
RACCORDO
100
AcDbLine
 62
7
  6
CONTINUOUS
 10
-10.0934356993
 20
-18.6696164977
 11
-10.6065511637
 21
-18.3733500594
  0
LINE
  5
247
100
AcDbEntity
  8
RACCORDO
100
AcDbLine
 62
7
  6
CONTINUOUS
 10
-11.2035933458
 20
-18.0286253862
 11
-11.7167088102
 21
-17.7323589479
  0
LINE
  5
248
100
AcDbEntity
  8
RACCORDO
100
AcDbLine
 62
7
  6
CONTINUOUS
 10
-12.3137509923
 20
-17.3876342746
 11
-12.8268664567
 21
-17.0913678363
  0
LINE
  5
249
100
AcDbEntity
  8
RACCORDO
100
AcDbLine
 62
7
  6
CONTINUOUS
 10
-13.4239086387
 20
-16.7466431631
 11
-13.9370241031
 21
-16.4503767248
  0
LINE
  5
24A
100
AcDbEntity
  8
RACCORDO
100
AcDbLine
 62
7
  6
CONTINUOUS
 10
-14.5340662852
 20
-16.1056520516
 11
-15.0471817496
 21
-15.8093856133
  0
LINE
  5
24B
100
AcDbEntity
  8
RACCORDO
100
AcDbLine
 62
7
  6
CONTINUOUS
 10
-15.6442239317
 20
-15.4646609401
 11
-16.157339396
 21
-15.1683945018
  0
LINE
  5
24C
100
AcDbEntity
  8
RACCORDO
100
AcDbLine
 62
7
  6
CONTINUOUS
 10
-16.7543815781
 20
-14.8236698285
 11
-17.1620902803
 21
-14.5882639337
  0
LINE
  5
24D
100
AcDbEntity
  8
RACCORDO
100
AcDbLine
 62
253
  6
CONTINUOUS
 10
-17.1621115147
 20
-14.5882516732
 11
-17.1642396384
 21
-14.5870121154
  0
LWPOLYLINE
  5
24E
100
AcDbEntity
  8
RACCORDO
100
AcDbPolyline
 62
7
  6
CONTINUOUS
 90
19
 70
0
 10
-14.7468280539
 20
-17.1478123071
 10
-14.7588209189
 20
-17.1404297377
 10
-14.7704538455
 20
-17.1323282907
 10
-14.7816725917
 20
-17.12352753
 10
-14.7924280786
 20
-17.1140485214
 10
-14.8026649691
 20
-17.1039241167
 10
-14.8123252735
 20
-17.0931998634
 10
-14.8213596324
 20
-17.0819239802
 10
-14.8297363119
 20
-17.0701317922
 10
-14.8374302201
 20
-17.0578523271
 10
-14.8444023766
 20
-17.0451425758
 10
-14.8506301301
 20
-17.0320409962
 10
-14.8561090729
 20
-17.0185423155
 10
-14.8608206451
 20
-17.0046555681
 10
-14.8647219021
 20
-16.9904672345
 10
-14.8677804328
 20
-16.9760805965
 10
-14.8699879382
 20
-16.9615364803
 10
-14.8713362536
 20
-16.9468864824
 10
-14.8718220138
 20
-16.9313080251
  0
LWPOLYLINE
  5
24F
100
AcDbEntity
  8
RACCORDO
100
AcDbPolyline
 62
253
  6
CONTINUOUS
 90
16
 70
0
 10
-14.7468280539
 20
-17.1478123071
 10
-14.7536733244
 20
-17.1434011765
 10
-14.7596230193
 20
-17.138728585
 10
-14.7651991954
 20
-17.1334937699
 10
-14.770386738
 20
-17.1277109207
 10
-14.775171586
 20
-17.1213957121
 10
-14.7795407696
 20
-17.1145652619
 10
-14.7834824459
 20
-17.1072380844
 10
-14.7869859308
 20
-17.0994340406
 10
-14.7900417278
 20
-17.0911742838
 10
-14.792641554
 20
-17.0824812026
 10
-14.7947783623
 20
-17.0733783601
 10
-14.7964463608
 20
-17.0638904304
 10
-14.7976410283
 20
-17.0540431309
 10
-14.7983591266
 20
-17.0438631536
 10
-14.7985987091
 20
-17.0333780918
  0
LWPOLYLINE
  5
250
100
AcDbEntity
  8
RACCORDO
100
AcDbPolyline
 62
253
  6
CONTINUOUS
 90
16
 70
0
 10
2.2568452486
 20
-26.9655201659
 10
2.2499999781
 20
-26.9611090352
 10
2.2440502831
 20
-26.9564364437
 10
2.2384741071
 20
-26.9512016287
 10
2.2332865645
 20
-26.9454187795
 10
2.2285017165
 20
-26.9391035709
 10
2.2241325329
 20
-26.9322731206
 10
2.2201908566
 20
-26.9249459432
 10
2.2166873717
 20
-26.9171418994
 10
2.2136315747
 20
-26.9088821426
 10
2.2110317485
 20
-26.9001890613
 10
2.2088949402
 20
-26.8910862189
 10
2.2072269417
 20
-26.8815982891
 10
2.2060322742
 20
-26.8717509897
 10
2.2053141759
 20
-26.8615710123
 10
2.2050745934
 20
-26.8510859506
  0
LWPOLYLINE
  5
251
100
AcDbEntity
  8
RACCORDO
100
AcDbPolyline
 62
253
  6
CONTINUOUS
 90
6
 70
0
 10
-17.1642396384
 20
-14.5870121154
 10
-17.235753881
 20
-14.5303403802
 10
-17.2904156746
 20
-14.4575285591
 10
-17.330039868
 20
-14.3704913512
 10
-17.3550096544
 20
-14.2717213016
 10
-17.3657384486
 20
-14.1640819969
  0
LWPOLYLINE
  5
252
100
AcDbEntity
  8
RACCORDO
100
AcDbPolyline
 62
7
  6
CONTINUOUS
 90
3
 70
0
 10
-17.2842125652
 20
-14.4861895568
 10
-17.2150110353
 20
-14.5525419804
 10
-17.1644115715
 20
-14.5868300856
  0
LWPOLYLINE
  5
253
100
AcDbEntity
  8
RACCORDO
100
AcDbPolyline
 62
7
  6
CONTINUOUS
 90
3
 70
0
 10
-17.3910017169
 20
13.5309215071
 10
-17.4170589327
 20
13.3869915225
 10
-17.4241238374
 20
13.2938151873
  0
LINE
  5
254
100
AcDbEntity
  8
RACCORDO
100
AcDbLine
 62
253
  6
CONTINUOUS
 10
-17.3526966716
 20
13.3484363213
 11
-17.322772186
 21
13.4896096397
  0
LWPOLYLINE
  5
255
100
AcDbEntity
  8
RACCORDO
100
AcDbPolyline
 62
253
  6
CONTINUOUS
 90
5
 70
0
 10
-17.322772186
 20
13.4896096397
 10
-17.2771052133
 20
13.6322154226
 10
-17.2168091231
 20
13.7736486446
 10
-17.1438958655
 20
13.9096797746
 10
-17.061975098
 20
14.0348946888
  0
LINE
  5
256
100
AcDbEntity
  8
RACCORDO
100
AcDbLine
 62
7
  6
CONTINUOUS
 10
-15.7998731596
 20
13.754141921
 11
-15.2345917721
 21
14.2380862738
  0
LINE
  5
257
100
AcDbEntity
  8
RACCORDO
100
AcDbLine
 62
7
  6
CONTINUOUS
 10
-14.6897155131
 20
13.1131508095
 11
-14.1244341256
 21
13.5970951623
  0
LINE
  5
258
100
AcDbEntity
  8
RACCORDO
100
AcDbLine
 62
7
  6
CONTINUOUS
 10
-16.3573751023
 20
14.0760365556
 11
-15.7295665189
 21
14.5238784891
  0
LINE
  5
259
100
AcDbEntity
  8
RACCORDO
100
AcDbLine
 62
7
  6
CONTINUOUS
 10
-15.2472174558
 20
13.435045444
 11
-14.6194088724
 21
13.8828873776
  0
LINE
  5
25A
100
AcDbEntity
  8
RACCORDO
100
AcDbLine
 62
7
  6
CONTINUOUS
 10
0.4306747804
 20
24.0743145356
 11
-0.7778471465
 21
23.364130712
  0
LINE
  5
25B
100
AcDbEntity
  8
RACCORDO
100
AcDbLine
 62
7
  6
CONTINUOUS
 10
-7.6892171875
 20
19.3706612176
 11
-6.0930045569
 21
20.2922928442
  0
LINE
  5
25C
100
AcDbEntity
  8
RACCORDO
100
AcDbLine
 62
7
  6
CONTINUOUS
 10
-2.1502805396
 20
22.5687684713
 11
-1.0641718771
 21
23.1958729523
  0
LINE
  5
25D
100
AcDbEntity
  8
RACCORDO
100
AcDbLine
 62
7
  6
CONTINUOUS
 10
-7.6892171875
 20
18.75830851
 11
-5.5627252779
 21
19.9861162344
  0
LINE
  5
25E
100
AcDbEntity
  8
RACCORDO
100
AcDbLine
 62
7
  6
CONTINUOUS
 10
-3.7397454246
 20
21.0386801943
 11
-3.637426108
 21
21.0977579866
  0
LWPOLYLINE
  5
25F
100
AcDbEntity
  8
RACCORDO
100
AcDbPolyline
 62
253
  6
CONTINUOUS
 90
6
 70
0
 10
-16.8908034424
 20
14.3351973256
 10
-16.8766782129
 20
14.3429149433
 10
-16.8586152423
 20
14.3461446079
 10
-16.8377358192
 20
14.3443232152
 10
-16.8146719148
 20
14.3375058892
 10
-16.7901216188
 20
14.3258989706
  0
LINE
  5
260
100
AcDbEntity
  8
RACCORDO
100
AcDbLine
 62
253
  6
CONTINUOUS
 10
-0.4168399726
 20
-23.9501635574
 11
-0.8108406977
 21
-23.7226724822
  0
LINE
  5
261
100
AcDbEntity
  8
RACCORDO
100
AcDbLine
 62
253
  6
CONTINUOUS
 10
-1.4295306727
 20
-23.3654486446
 11
-1.9209983441
 21
-23.0816813707
  0
LINE
  5
262
100
AcDbEntity
  8
RACCORDO
100
AcDbLine
 62
253
  6
CONTINUOUS
 10
-2.5396883192
 20
-22.7244575331
 11
-3.0311559906
 21
-22.4406902592
  0
LINE
  5
263
100
AcDbEntity
  8
RACCORDO
100
AcDbLine
 62
253
  6
CONTINUOUS
 10
-3.6498459657
 20
-22.0834664216
 11
-4.1413136371
 21
-21.7996991476
  0
LINE
  5
264
100
AcDbEntity
  8
RACCORDO
100
AcDbLine
 62
253
  6
CONTINUOUS
 10
-4.7600036121
 20
-21.44247531
 11
-5.2514712835
 21
-21.1587080361
  0
LINE
  5
265
100
AcDbEntity
  8
RACCORDO
100
AcDbLine
 62
253
  6
CONTINUOUS
 10
-5.8701612586
 20
-20.8014841985
 11
-6.36162893
 21
-20.5177169246
  0
LINE
  5
266
100
AcDbEntity
  8
RACCORDO
100
AcDbLine
 62
253
  6
CONTINUOUS
 10
-6.980318905
 20
-20.160493087
 11
-7.4717865764
 21
-19.8767258131
  0
LINE
  5
267
100
AcDbEntity
  8
RACCORDO
100
AcDbLine
 62
253
  6
CONTINUOUS
 10
-8.0904765515
 20
-19.5195019755
 11
-8.5819442229
 21
-19.2357347015
  0
LINE
  5
268
100
AcDbEntity
  8
RACCORDO
100
AcDbLine
 62
253
  6
CONTINUOUS
 10
-9.200634198
 20
-18.8785108639
 11
-9.6921018694
 21
-18.59474359
  0
LINE
  5
269
100
AcDbEntity
  8
RACCORDO
100
AcDbLine
 62
253
  6
CONTINUOUS
 10
-10.3107918444
 20
-18.2375197524
 11
-10.8022595158
 21
-17.9537524785
  0
LINE
  5
26A
100
AcDbEntity
  8
RACCORDO
100
AcDbLine
 62
253
  6
CONTINUOUS
 10
-11.4209494909
 20
-17.5965286409
 11
-11.9124171623
 21
-17.312761367
  0
LINE
  5
26B
100
AcDbEntity
  8
RACCORDO
100
AcDbLine
 62
253
  6
CONTINUOUS
 10
-12.5311071374
 20
-16.9555375294
 11
-13.0225748088
 21
-16.6717702554
  0
LINE
  5
26C
100
AcDbEntity
  8
RACCORDO
100
AcDbLine
 62
253
  6
CONTINUOUS
 10
-13.6412647838
 20
-16.3145464178
 11
-14.1327324552
 21
-16.0307791439
  0
LINE
  5
26D
100
AcDbEntity
  8
RACCORDO
100
AcDbLine
 62
253
  6
CONTINUOUS
 10
-14.7514224303
 20
-15.6735553063
 11
-15.2428901017
 21
-15.3897880324
  0
LINE
  5
26E
100
AcDbEntity
  8
RACCORDO
100
AcDbLine
 62
253
  6
CONTINUOUS
 10
-15.8615800767
 20
-15.0325641948
 11
-16.3530477481
 21
-14.7487969209
  0
LINE
  5
26F
100
AcDbEntity
  8
RACCORDO
100
AcDbLine
 62
253
  6
CONTINUOUS
 10
-16.9717377232
 20
-14.3915730833
 11
-17.3657384486
 21
-14.1640819969
  0
LINE
  5
270
100
AcDbEntity
  8
RACCORDO
100
AcDbLine
 62
7
  6
CONTINUOUS
 10
1.7109252813
 20
-23.8868288134
 11
2.2050745934
 21
-24.1721444331
  0
LINE
  5
271
100
AcDbEntity
  8
RACCORDO
100
AcDbLine
 62
7
  6
CONTINUOUS
 10
2.4518966807
 20
-23.6219529159
 11
2.580275992
 21
-23.6960775213
  0
LINE
  5
272
100
AcDbEntity
  8
RACCORDO
100
AcDbLine
 62
7
  6
CONTINUOUS
 10
-0.2098384613
 20
-24.3762683333
 11
-0.2074071696
 21
-24.3776854697
  0
LWPOLYLINE
  5
273
100
AcDbEntity
  8
RACCORDO
100
AcDbPolyline
 62
253
  6
CONTINUOUS
 90
3
 70
0
 10
-0.0137347906
 20
-24.2536179416
 10
0.0473792891
 20
-24.2942077161
 10
0.113790606
 20
-24.3190215135
  0
LWPOLYLINE
  5
274
100
AcDbEntity
  8
RACCORDO
100
AcDbPolyline
 62
7
  6
CONTINUOUS
 90
4
 70
0
 10
-17.4122765587
 20
-14.2000728776
 10
-17.3841414862
 20
-14.3086642142
 10
-17.3409554126
 20
-14.4046240623
 10
-17.2842125652
 20
-14.4861895568
  0
LINE
  5
275
100
AcDbEntity
  8
RACCORDO
100
AcDbLine
 62
7
  6
CONTINUOUS
 10
-17.424245817
 20
-14.0828185487
 11
-17.4122765587
 21
-14.2000728776
  0
LWPOLYLINE
  5
276
100
AcDbEntity
  8
RACCORDO
100
AcDbPolyline
 62
253
  6
CONTINUOUS
 90
6
 70
0
 10
-17.4243097429
 20
-14.082901498
 10
-17.4234425692
 20
-14.0918523255
 10
-17.4172143927
 20
-14.1120722556
 10
-17.4052575007
 20
-14.1312217455
 10
-17.387927194
 20
-14.1487317656
 10
-17.3657384461
 20
-14.164082001
  0
LINE
  5
277
100
AcDbEntity
  8
RACCORDO
100
AcDbLine
 62
7
  6
CONTINUOUS
 10
-17.6508741372
 20
-0.1819396978
 11
-17.6539625304
 21
-0.1473317591
  0
LWPOLYLINE
  5
278
100
AcDbEntity
  8
RACCORDO
100
AcDbPolyline
 62
253
  6
CONTINUOUS
 90
6
 70
0
 10
-17.6539619358
 20
-0.9165824066
 10
-17.6530119162
 20
-0.9277464647
 10
-17.6468438808
 20
-0.9468720905
 10
-17.6351805326
 20
-0.9643221198
 10
-17.6180902441
 20
-0.9812253262
 10
-17.5953842119
 20
-0.9980166656
  0
LWPOLYLINE
  5
279
100
AcDbEntity
  8
RACCORDO
100
AcDbPolyline
 62
253
  6
CONTINUOUS
 90
13
 70
0
 10
-17.3657384486
 20
-14.1640819969
 10
-17.4014567182
 20
-13.0772656722
 10
-17.4341604838
 20
-11.9885416089
 10
-17.4638495974
 20
-10.897921048
 10
-17.4905237623
 20
-9.8054229429
 10
-17.5141831162
 20
-8.7110509024
 10
-17.5348280152
 20
-7.6147930597
 10
-17.5524582403
 20
-6.5166605534
 10
-17.5670736075
 20
-5.4166646546
 10
-17.5786741854
 20
-4.3147934901
 10
-17.5872597111
 20
-3.2110504837
 10
-17.5928298043
 20
-2.1054544832
 10
-17.5953842119
 20
-0.9980166666
  0
LWPOLYLINE
  5
27A
100
AcDbEntity
  8
RACCORDO
100
AcDbPolyline
 62
7
  6
CONTINUOUS
 90
10
 70
0
 10
-17.6539629274
 20
-0.9162486502
 10
-17.6504403219
 20
-2.2675464597
 10
-17.6411571288
 20
-3.7784424808
 10
-17.6262347319
 20
-5.2859085024
 10
-17.6056734125
 20
-6.7899148379
 10
-17.5794735348
 20
-8.2904337412
 10
-17.5476355402
 20
-9.7874379884
 10
-17.5101599672
 20
-11.2808999474
 10
-17.4670474936
 20
-12.7707902919
 10
-17.4243097429
 20
-14.082901498
  0
LWPOLYLINE
  5
27B
100
AcDbEntity
  8
RACCORDO
100
AcDbPolyline
 62
253
  6
CONTINUOUS
 90
13
 70
0
 10
-17.5953842119
 20
-0.2283994698
 10
-17.5928298043
 20
0.8820928881
 10
-17.5872597111
 20
1.994349518
 10
-17.5786741854
 20
3.1083589495
 10
-17.5670736075
 20
4.2241019017
 10
-17.5524582403
 20
5.3415746414
 10
-17.5348280152
 20
6.4607891029
 10
-17.5141831162
 20
7.5817337962
 10
-17.4905237623
 20
8.7043973367
 10
-17.4638495974
 20
9.8287920042
 10
-17.4341604838
 20
10.9549143499
 10
-17.4014567182
 20
12.082745077
 10
-17.3657384486
 20
13.2122727735
  0
LWPOLYLINE
  5
27C
100
AcDbEntity
  8
RACCORDO
100
AcDbPolyline
 62
7
  6
CONTINUOUS
 90
10
 70
0
 10
-17.4241184567
 20
13.2939990984
 10
-17.467499666
 20
11.9158891315
 10
-17.5105553602
 20
10.3745491291
 10
-17.5479746247
 20
8.8363692983
 10
-17.5797567225
 20
7.301379781
 10
-17.6059010531
 20
5.7696088926
 10
-17.6264071146
 20
4.2410844266
 10
-17.641274481
 20
2.7158346043
 10
-17.650502811
 20
1.1938895137
 10
-17.6539625096
 20
-0.1471322806
  0
LWPOLYLINE
  5
27D
100
AcDbEntity
  8
RACCORDO
100
AcDbPolyline
 62
253
  6
CONTINUOUS
 90
12
 70
0
 10
-17.5953842119
 20
-0.9980166666
 10
-17.5949255397
 20
-0.984428347
 10
-17.5934635325
 20
-0.9699048465
 10
-17.5909110172
 20
-0.9545073543
 10
-17.5871951208
 20
-0.9383468501
 10
-17.5822424044
 20
-0.9215054173
 10
-17.5759637455
 20
-0.9040357217
 10
-17.5683020762
 20
-0.8861011505
 10
-17.5592205201
 20
-0.8678974009
 10
-17.5486596968
 20
-0.8495770775
 10
-17.536622992
 20
-0.8314123851
 10
-17.5231485428
 20
-0.8137103519
  0
LWPOLYLINE
  5
27E
100
AcDbEntity
  8
RACCORDO
100
AcDbPolyline
 62
7
  6
CONTINUOUS
 90
3
 70
0
 10
-17.6539629274
 20
-0.9162486502
 10
-17.6533257125
 20
-0.9002281224
 10
-17.6477121395
 20
-0.8665697368
  0
LINE
  5
27F
100
AcDbEntity
  8
RACCORDO
100
AcDbLine
 62
253
  6
CONTINUOUS
 10
-17.3657384486
 20
13.2122727735
 11
-17.3526966716
 21
13.3484363213
  0
LINE
  5
280
100
AcDbEntity
  8
RACCORDO
100
AcDbLine
 62
7
  6
CONTINUOUS
 10
-13.5795578666
 20
12.472159698
 11
-13.0142764791
 21
12.9561040507
  0
LINE
  5
281
100
AcDbEntity
  8
RACCORDO
100
AcDbLine
 62
7
  6
CONTINUOUS
 10
-12.4694002202
 20
11.8311685864
 11
-11.9041188327
 21
12.3151129392
  0
LINE
  5
282
100
AcDbEntity
  8
RACCORDO
100
AcDbLine
 62
7
  6
CONTINUOUS
 10
-14.1370598093
 20
12.7940543325
 11
-13.509251226
 21
13.2418962661
  0
LINE
  5
283
100
AcDbEntity
  8
RACCORDO
100
AcDbLine
 62
7
  6
CONTINUOUS
 10
-13.0269021629
 20
12.153063221
 11
-12.3990935795
 21
12.6009051546
  0
LINE
  5
284
100
AcDbEntity
  8
RACCORDO
100
AcDbLine
 62
7
  6
CONTINUOUS
 10
-0.982641806
 20
20.7653564104
 11
-2.1047471299
 21
20.0946526703
  0
LINE
  5
285
100
AcDbEntity
  8
RACCORDO
100
AcDbLine
 62
7
  6
CONTINUOUS
 10
-4.8190422278
 20
18.472266754
 11
-5.2932367439
 21
18.1888316532
  0
LINE
  5
286
100
AcDbEntity
  8
DRAFT
100
AcDbLine
 62
7
  6
CONTINUOUS
 10
0.5245316725
 20
22.2785754339
 11
0.8133998987
 21
22.4453646111
  0
LWPOLYLINE
  5
287
100
AcDbEntity
  8
RACCORDO
100
AcDbPolyline
 62
253
  6
CONTINUOUS
 90
6
 70
0
 10
-17.4241238374
 20
13.2938151873
 10
-17.4232243396
 20
13.2814579172
 10
-17.4169800209
 20
13.2625501388
 10
-17.4050179164
 20
13.2443832002
 10
-17.3876928983
 20
13.2274960702
 10
-17.3655189411
 20
13.2123897434
  0
LINE
  5
288
100
AcDbEntity
  8
DRAFT
100
AcDbLine
 62
7
  6
CONTINUOUS
 10
-15.7295665189
 20
13.8143323013
 11
-15.7295665189
 21
14.5238784891
  0
LINE
  5
289
100
AcDbEntity
  8
RACCORDO
100
AcDbLine
 62
7
  6
CONTINUOUS
 10
-14.8718220138
 20
-16.9313094435
 11
-14.8718220138
 21
-15.910636127
  0
LINE
  5
28A
100
AcDbEntity
  8
RACCORDO
100
AcDbLine
 62
7
  6
CONTINUOUS
 10
-14.8718220138
 20
16.5318954866
 11
-14.8718220138
 21
19.2113587369
  0
LINE
  5
28B
100
AcDbEntity
  8
RACCORDO
100
AcDbLine
 62
253
  6
CONTINUOUS
 10
-14.7985987091
 20
-17.0333780918
 11
-14.7985987091
 21
-15.9529143454
  0
LINE
  5
28C
100
AcDbEntity
  8
RACCORDO
100
AcDbLine
 62
253
  6
CONTINUOUS
 10
-14.7985987091
 20
16.4303485711
 11
-14.7985987091
 21
19.1092900886
  0
LWPOLYLINE
  5
28D
100
AcDbEntity
  8
RACCORDO
100
AcDbPolyline
 62
253
  6
CONTINUOUS
 90
31
 70
0
 10
-14.7985987091
 20
19.1092900886
 10
-14.7983591266
 20
19.1200518143
 10
-14.7976410283
 20
19.1310610335
 10
-14.7964463608
 20
19.142287905
 10
-14.7947783623
 20
19.1537019977
 10
-14.792641554
 20
19.1652723728
 10
-14.7900417278
 20
19.1769676681
 10
-14.7869859308
 20
19.1887561827
 10
-14.7834824459
 20
19.200605963
 10
-14.7795407696
 20
19.2124848895
 10
-14.775171586
 20
19.2243607634
 10
-14.770386738
 20
19.2362013945
 10
-14.7651991954
 20
19.2479746879
 10
-14.7596230193
 20
19.2596487313
 10
-14.7536733244
 20
19.2711918815
 10
-14.7473662376
 20
19.2825728498
 10
-14.7407188547
 20
19.2937607876
 10
-14.733749194
 20
19.304725369
 10
-14.7264761471
 20
19.3154368739
 10
-14.7189194282
 20
19.325866268
 10
-14.7110995202
 20
19.3359852818
 10
-14.7030376196
 20
19.345766487
 10
-14.6947555786
 20
19.3551833709
 10
-14.6862758462
 20
19.3642104085
 10
-14.6776214074
 20
19.3728231314
 10
-14.6688157207
 20
19.3809981941
 10
-14.6598826543
 20
19.3887134378
 10
-14.650846422
 20
19.3959479496
 10
-14.641731517
 20
19.40268212
 10
-14.6325626461
 20
19.4088976954
 10
-14.6233646619
 20
19.4145778283
  0
LWPOLYLINE
  5
28E
100
AcDbEntity
  8
RACCORDO
100
AcDbPolyline
 62
7
  6
CONTINUOUS
 90
21
 70
0
 10
-14.8718220138
 20
19.2113586975
 10
-14.8715486809
 20
19.2230459837
 10
-14.8706218974
 20
19.2358254062
 10
-14.8690396225
 20
19.2485535475
 10
-14.8668022754
 20
19.2612052158
 10
-14.8639120387
 20
19.2737479977
 10
-14.8603735298
 20
19.286146264
 10
-14.8561915829
 20
19.298369685
 10
-14.8513731915
 20
19.310385283
 10
-14.8459278871
 20
19.322158365
 10
-14.8398663605
 20
19.3336561731
 10
-14.8332013762
 20
19.3448456844
 10
-14.825947471
 20
19.3556944488
 10
-14.8181204885
 20
19.3661712326
 10
-14.8097370662
 20
19.3762463747
 10
-14.8008181618
 20
19.3858877575
 10
-14.7913892371
 20
19.3950621849
 10
-14.7814744849
 20
19.4037413985
 10
-14.7710987567
 20
19.4118991419
 10
-14.7602918237
 20
19.4195079905
 10
-14.7517249913
 20
19.4249593372
  0
LWPOLYLINE
  5
28F
100
AcDbEntity
  8
RACCORDO
100
AcDbPolyline
 62
7
  6
CONTINUOUS
 90
3
 70
0
 10
-17.6477121395
 20
-0.8665697368
 10
-17.6363837397
 20
-0.834188926
 10
-17.61958436
 20
-0.8040667239
  0
LINE
  5
290
100
AcDbEntity
  8
RACCORDO
100
AcDbLine
 62
7
  6
CONTINUOUS
 10
-11.3592425737
 20
11.1901774749
 11
-10.7939611862
 21
11.6741218277
  0
LINE
  5
291
100
AcDbEntity
  8
RACCORDO
100
AcDbLine
 62
7
  6
CONTINUOUS
 10
-11.9167445164
 20
11.5120721095
 11
-11.2889359331
 21
11.959914043
  0
LINE
  5
292
100
AcDbEntity
  8
RACCORDO
100
AcDbLine
 62
7
  6
CONTINUOUS
 10
-10.8065868699
 20
10.8710809979
 11
-10.1787782866
 21
11.3189229315
  0
LINE
  5
293
100
AcDbEntity
  8
DRAFT
100
AcDbLine
 62
7
  6
CONTINUOUS
 10
6.4479544509
 20
-21.6798835981
 11
6.6954888238
 21
-21.8228068427
  0
LWPOLYLINE
  5
294
100
AcDbEntity
  8
RACCORDO
100
AcDbPolyline
 62
253
  6
CONTINUOUS
 90
5
 70
0
 10
-17.6530118079
 20
-0.1578521311
 10
-17.6468436169
 20
-0.1773060548
 10
-17.6351802129
 20
-0.1964940044
 10
-17.6180900071
 20
-0.2138538191
 10
-17.5953842119
 20
-0.2283994712
  0
LWPOLYLINE
  5
295
100
AcDbEntity
  8
RACCORDO
100
AcDbPolyline
 62
253
  6
CONTINUOUS
 90
14
 70
0
 10
-14.8716439525
 20
-16.9367564739
 10
-14.8706877916
 20
-16.9450437988
 10
-14.8689076314
 20
-16.9532858267
 10
-14.8663093688
 20
-16.9614551149
 10
-14.86290177
 20
-16.9695242559
 10
-14.8586963514
 20
-16.9774663197
 10
-14.8537070459
 20
-16.9852552706
 10
-14.8479502028
 20
-16.9928656693
 10
-14.8414429624
 20
-17.0002743557
 10
-14.8342083698
 20
-17.007454649
 10
-14.8262769409
 20
-17.0143773875
 10
-14.8176788987
 20
-17.0210185872
 10
-14.8084421789
 20
-17.0273588752
 10
-14.7985987091
 20
-17.0333780918
  0
LWPOLYLINE
  5
296
100
AcDbEntity
  8
RACCORDO
100
AcDbPolyline
 62
253
  6
CONTINUOUS
 90
15
 70
0
 10
-14.8718220138
 20
19.2113586975
 10
-14.8716439525
 20
19.2059117065
 10
-14.8706877916
 20
19.1976243816
 10
-14.8689076314
 20
19.1893823537
 10
-14.8663093688
 20
19.1812130655
 10
-14.86290177
 20
19.1731439245
 10
-14.8586963514
 20
19.1652018607
 10
-14.8537070459
 20
19.1574129098
 10
-14.8479502028
 20
19.1498025112
 10
-14.8414429624
 20
19.1423938247
 10
-14.8342083698
 20
19.1352135314
 10
-14.8262769409
 20
19.1282907929
 10
-14.8176788987
 20
19.1216495933
 10
-14.8084421789
 20
19.1153093053
 10
-14.7985987091
 20
19.1092900886
  0
LINE
  5
297
100
AcDbEntity
  8
0
100
AcDbLine
 62
7
  6
CONTINUOUS
 10
-14.6194088724
 20
13.1733411898
 11
-14.6194088724
 21
13.8828873776
  0
LINE
  5
298
100
AcDbEntity
  8
RACCORDO
100
AcDbLine
 62
7
  6
CONTINUOUS
 10
-14.6080931437
 20
16.1730480808
 11
-14.6080931437
 21
16.28092955
  0
LINE
  5
299
100
AcDbEntity
  8
0
100
AcDbLine
 62
7
  6
CONTINUOUS
 10
-13.509251226
 20
12.5323500783
 11
-13.509251226
 21
13.2418962661
  0
LWPOLYLINE
  5
29A
100
AcDbEntity
  8
RACCORDO
100
AcDbPolyline
 62
7
  6
CONTINUOUS
 90
4
 70
0
 10
-17.61958436
 20
-0.8040667239
 10
-17.597724439
 20
-0.7771388746
 10
-17.5713813177
 20
-0.7542766523
 10
-17.5591810561
 20
-0.7460950061
  0
LINE
  5
29B
100
AcDbEntity
  8
RACCORDO
100
AcDbLine
 62
253
  6
CONTINUOUS
 10
-17.5231485428
 20
-0.8137103519
 11
-17.5082554759
 21
-0.7967491599
  0
LINE
  5
29C
100
AcDbEntity
  8
RACCORDO
100
AcDbLine
 62
7
  6
CONTINUOUS
 10
-10.2490849273
 20
10.5491863634
 11
-9.6838035398
 21
11.0331307162
  0
LINE
  5
29D
100
AcDbEntity
  8
RACCORDO
100
AcDbLine
 62
7
  6
CONTINUOUS
 10
-9.1389272808
 20
9.9081952519
 11
-8.5736458933
 21
10.3921396046
  0
LINE
  5
29E
100
AcDbEntity
  8
RACCORDO
100
AcDbLine
 62
7
  6
CONTINUOUS
 10
-9.6964292235
 20
10.2300898864
 11
-9.0686206401
 21
10.67793182
  0
LINE
  5
29F
100
AcDbEntity
  8
RACCORDO
100
AcDbLine
 62
7
  6
CONTINUOUS
 10
-8.586271577
 20
9.5890987749
 11
-7.9584629937
 21
10.0369407085
  0
LINE
  5
2A0
100
AcDbEntity
  8
RACCORDO
100
AcDbLine
 62
253
  6
CONTINUOUS
 10
0.3907951432
 20
16.3995661177
 11
0.5192627207
 21
16.4737416868
  0
LINE
  5
2A1
100
AcDbEntity
  8
0
100
AcDbLine
 62
7
  6
CONTINUOUS
 10
2.4880545556
 20
16.725751566
 11
2.8516226882
 21
16.9356712491
  0
LINE
  5
2A2
100
AcDbEntity
  8
0
100
AcDbLine
 62
7
  6
CONTINUOUS
 10
2.4880545556
 20
16.3991634552
 11
2.8516226882
 21
16.6090831384
  0
LINE
  5
2A3
100
AcDbEntity
  8
RACCORDO
100
AcDbLine
 62
7
  6
CONTINUOUS
 10
3.0324707971
 20
16.6582584804
 11
2.3543425563
 21
16.2667163878
  0
LINE
  5
2A4
100
AcDbEntity
  8
RACCORDO
100
AcDbLine
 62
7
  6
CONTINUOUS
 10
1.6166952592
 20
15.8408087955
 11
0.1950445088
 21
15.0199668422
  0
LINE
  5
2A5
100
AcDbEntity
  8
0
100
AcDbLine
 62
253
  6
CONTINUOUS
 10
2.2759225213
 20
16.0317399942
 11
1.9930798088
 21
15.8684301569
  0
LINE
  5
2A6
100
AcDbEntity
  8
DRAFT
100
AcDbLine
 62
7
  6
CONTINUOUS
 10
6.4092031025
 20
19.2144179731
 11
6.11524866
 21
19.0505655135
  0
LWPOLYLINE
  5
2A7
100
AcDbEntity
  8
0
100
AcDbPolyline
 62
7
  6
CONTINUOUS
 90
10
 70
0
 10
2.8516226882
 20
16.9356712491
 10
2.8689319895
 20
16.9453137339
 10
2.8861783061
 20
16.9542279087
 10
2.9033616379
 20
16.9624137735
 10
2.9205027498
 20
16.9698795201
 10
2.937580877
 20
16.9766169568
 10
2.9545337247
 20
16.9826015077
 10
2.9713405282
 20
16.9878249811
 10
2.9880220522
 20
16.9922955688
 10
3.0045782968
 20
16.9960132708
  0
LWPOLYLINE
  5
2A8
100
AcDbEntity
  8
0
100
AcDbPolyline
 62
7
  6
CONTINUOUS
 90
10
 70
0
 10
2.8516226882
 20
16.6090831384
 10
2.8590409602
 20
16.6132156319
 10
2.8664322387
 20
16.6170359925
 10
2.8737965238
 20
16.6205442203
 10
2.8811427146
 20
16.623743826
 10
2.888461912
 20
16.6266312988
 10
2.8957274182
 20
16.6291961064
 10
2.9029303339
 20
16.6314347378
 10
2.9100795585
 20
16.633350704
 10
2.9171750919
 20
16.6349440048
  0
LWPOLYLINE
  5
2A9
100
AcDbEntity
  8
RACCORDO
100
AcDbPolyline
 62
7
  6
CONTINUOUS
 90
14
 70
0
 10
0.4316749544
 20
16.4771897079
 10
0.4361354651
 20
16.4795481757
 10
0.4427522129
 20
16.482301878
 10
0.4497329793
 20
16.4843867029
 10
0.4569982769
 20
16.4857789114
 10
0.4645513579
 20
16.4864705869
 10
0.4723889701
 20
16.4864696458
 10
0.4804218696
 20
16.4857760991
 10
0.4886522885
 20
16.4843820302
 10
0.4970779947
 20
16.4822953555
 10
0.5056030478
 20
16.4795398352
 10
0.5141954677
 20
16.4761233895
 10
0.5228872347
 20
16.4720380982
 10
0.5316783485
 20
16.4672839613
  0
LWPOLYLINE
  5
2AA
100
AcDbEntity
  8
RACCORDO
100
AcDbPolyline
 62
253
  6
CONTINUOUS
 90
60
 70
0
 10
-11.4546010729
 20
22.38740045
 10
-11.4541368873
 20
22.3700501359
 10
-11.4521607108
 20
22.3474951134
 10
-11.44863583
 20
22.3250099237
 10
-11.4435678879
 20
22.3026301435
 10
-11.4369649508
 20
22.2803917455
 10
-11.4288375325
 20
22.2583300052
 10
-11.4191986051
 20
22.2364799418
 10
-11.4080635397
 20
22.2148767398
 10
-11.3954500868
 20
22.193554724
 10
-11.3813783694
 20
22.1725477396
 10
-11.3658708592
 20
22.1518895949
 10
-11.3489523088
 20
22.1316131704
 10
-11.3306496992
 20
22.1117506477
 10
-11.3109922229
 20
22.0923338919
 10
-11.2900112422
 20
22.0733938315
 10
-11.2677402227
 20
22.0549605636
 10
-11.2442146707
 20
22.0370635881
 10
-11.2194721036
 20
22.0197314414
 10
-11.1935519935
 20
22.002991704
 10
-11.1664956834
 20
21.9868711122
 10
-11.1383463293
 20
21.9713954134
 10
-11.1091488309
 20
21.956589261
 10
-11.0789497594
 20
21.9424762294
 10
-11.0477972925
 20
21.9290789062
 10
-11.0157411118
 20
21.9164186652
 10
-10.9828323202
 20
21.9045155707
 10
-10.9491234015
 20
21.8933887199
 10
-10.9146681264
 20
21.8830559123
 10
-10.8795214386
 20
21.8735334324
 10
-10.8437393714
 20
21.8648366135
 10
-10.8073790221
 20
21.8569794239
 10
-10.7704984508
 20
21.8499741419
 10
-10.7331565063
 20
21.8438321248
 10
-10.6954127321
 20
21.8385632876
 10
-10.657327336
 20
21.8341756948
 10
-10.6189611379
 20
21.830676562
 10
-10.5803752651
 20
21.8280716195
 10
-10.5416310547
 20
21.8263646106
 10
-10.5027902295
 20
21.825558512
 10
-10.4639148182
 20
21.8256548192
 10
-10.4250668463
 20
21.8266529291
 10
-10.3863081272
 20
21.8285515376
 10
-10.3477006437
 20
21.8313478491
 10
-10.3093064576
 20
21.8350368493
 10
-10.2711870398
 20
21.8396128901
 10
-10.2334029507
 20
21.8450689218
 10
-10.1960142266
 20
21.8513957017
 10
-10.1590806211
 20
21.8585834133
 10
-10.1226609202
 20
21.8666208808
 10
-10.0868126525
 20
21.8754948303
 10
-10.0515923585
 20
21.8851916527
 10
-10.0170569374
 20
21.8956960453
 10
-9.9832628957
 20
21.9069901739
 10
-9.9502652145
 20
21.9190558481
 10
-9.9181152607
 20
21.9318744528
 10
-9.8868622852
 20
21.9454257227
 10
-9.8565556043
 20
21.9596884328
 10
-9.8272443354
 20
21.9746402753
 10
-9.7989753468
 20
21.9902577977
  0
LINE
  5
2AB
100
AcDbEntity
  8
0
100
AcDbLine
 62
7
  6
CONTINUOUS
 10
-12.3990935795
 20
11.8913589668
 11
-12.3990935795
 21
12.6009051546
  0
LINE
  5
2AC
100
AcDbEntity
  8
RACCORDO
100
AcDbLine
 62
7
  6
CONTINUOUS
 10
-11.4546010933
 20
21.3222125346
 11
-11.4546010933
 21
22.3875160812
  0
LINE
  5
2AD
100
AcDbEntity
  8
0
100
AcDbLine
 62
7
  6
CONTINUOUS
 10
-11.2889359331
 20
11.2503678552
 11
-11.2889359331
 21
11.959914043
  0
LWPOLYLINE
  5
2AE
100
AcDbEntity
  8
RACCORDO
100
AcDbPolyline
 62
253
  6
CONTINUOUS
 90
3
 70
0
 10
-17.5082554759
 20
-0.7967491599
 10
-17.4920388995
 20
-0.7809024638
 10
-17.4746880267
 20
-0.7666168297
  0
LINE
  5
2AF
100
AcDbEntity
  8
RACCORDO
100
AcDbLine
 62
7
  6
CONTINUOUS
 10
-8.0287696343
 20
9.2672041403
 11
-7.4634882468
 21
9.7511484931
  0
LINE
  5
2B0
100
AcDbEntity
  8
RACCORDO
100
AcDbLine
 62
7
  6
CONTINUOUS
 10
-6.9186119879
 20
8.6262130288
 11
-6.3533306004
 21
9.1101573816
  0
LINE
  5
2B1
100
AcDbEntity
  8
RACCORDO
100
AcDbLine
 62
7
  6
CONTINUOUS
 10
-7.4761139305
 20
8.9481076634
 11
-6.8483053472
 21
9.3959495969
  0
LINE
  5
2B2
100
AcDbEntity
  8
RACCORDO
100
AcDbLine
 62
7
  6
CONTINUOUS
 10
7.7039522096
 20
18.1332679951
 11
1.1935383151
 21
14.2418695175
  0
LINE
  5
2B3
100
AcDbEntity
  8
0
100
AcDbLine
 62
7
  6
CONTINUOUS
 10
2.2759225213
 20
15.7867989112
 11
1.9930798088
 21
15.6234890738
  0
LINE
  5
2B4
100
AcDbEntity
  8
RACCORDO
100
AcDbLine
 62
7
  6
CONTINUOUS
 10
2.3516991054
 20
13.5731619923
 11
10.4848701772
 21
18.2691481221
  0
LINE
  5
2B5
100
AcDbEntity
  8
RACCORDO
100
AcDbLine
 62
7
  6
CONTINUOUS
 10
9.251911238
 20
18.9810431611
 11
8.0004501477
 21
18.2956518722
  0
LWPOLYLINE
  5
2B6
100
AcDbEntity
  8
RACCORDO
100
AcDbPolyline
 62
253
  6
CONTINUOUS
 90
3
 70
0
 10
-0.0992767776
 20
-24.1286556702
 10
-0.0633132949
 20
-24.1983157527
 10
-0.0137347906
 20
-24.2536179416
  0
LINE
  5
2B7
100
AcDbEntity
  8
0
100
AcDbLine
 62
7
  6
CONTINUOUS
 10
-10.1787782866
 20
10.6093767437
 11
-10.1787782866
 21
11.3189229315
  0
LINE
  5
2B8
100
AcDbEntity
  8
RACCORDO
100
AcDbLine
 62
253
  6
CONTINUOUS
 10
-9.7989753468
 20
20.9261982878
 11
-9.7989753468
 21
21.9902577977
  0
LINE
  5
2B9
100
AcDbEntity
  8
RACCORDO
100
AcDbLine
 62
7
  6
CONTINUOUS
 10
-9.0822185571
 20
19.0915048193
 11
-9.0822185571
 21
19.7038575269
  0
LINE
  5
2BA
100
AcDbEntity
  8
0
100
AcDbLine
 62
7
  6
CONTINUOUS
 10
-9.0686206401
 20
9.9683856322
 11
-9.0686206401
 21
10.67793182
  0
LINE
  5
2BB
100
AcDbEntity
  8
SMUSSO
100
AcDbLine
 62
7
  6
CONTINUOUS
 10
-8.3827270624
 20
22.9711834632
 11
-8.3827270624
 21
23.0529176623
  0
LINE
  5
2BC
100
AcDbEntity
  8
RACCORDO
100
AcDbLine
 62
7
  6
CONTINUOUS
 10
-8.3473717233
 20
21.7643346256
 11
-8.3473717233
 21
22.8283941356
  0
LINE
  5
2BD
100
AcDbEntity
  8
RACCORDO
100
AcDbLine
 62
253
  6
CONTINUOUS
 10
-4.0949601633
 20
21.3486329793
 11
-4.1166323366
 21
21.2591035881
  0
LWPOLYLINE
  5
2BE
100
AcDbEntity
  8
RACCORDO
100
AcDbPolyline
 62
7
  6
CONTINUOUS
 90
12
 70
0
 10
-4.1479183063
 20
21.3140310585
 10
-4.1476068871
 20
21.3152076494
 10
-4.1458503983
 20
21.3197613537
 10
-4.1432622321
 20
21.3240867896
 10
-4.1398529074
 20
21.3281868441
 10
-4.1356659113
 20
21.3320092196
 10
-4.130691282
 20
21.3355503591
 10
-4.1249389813
 20
21.3388138196
 10
-4.1184823818
 20
21.3417579745
 10
-4.1113459411
 20
21.3443689484
 10
-4.1035052016
 20
21.3466606166
 10
-4.0949601633
 20
21.3486329793
  0
LINE
  5
2BF
100
AcDbEntity
  8
RACCORDO
100
AcDbLine
 62
7
  6
CONTINUOUS
 10
-5.8084543414
 20
7.9852219173
 11
-5.2431729539
 21
8.4691662701
  0
LINE
  5
2C0
100
AcDbEntity
  8
RACCORDO
100
AcDbLine
 62
7
  6
CONTINUOUS
 10
-4.6982966949
 20
7.3442308058
 11
-4.1330153074
 21
7.8281751585
  0
LINE
  5
2C1
100
AcDbEntity
  8
RACCORDO
100
AcDbLine
 62
7
  6
CONTINUOUS
 10
-6.3659562841
 20
8.3071165519
 11
-5.7381477007
 21
8.7549584854
  0
LINE
  5
2C2
100
AcDbEntity
  8
RACCORDO
100
AcDbLine
 62
7
  6
CONTINUOUS
 10
-5.2557986376
 20
7.6661254403
 11
-4.6279900543
 21
8.1139673739
  0
LINE
  5
2C3
100
AcDbEntity
  8
RACCORDO
100
AcDbLine
 62
253
  6
CONTINUOUS
 10
-17.4746880267
 20
-0.7666168297
 11
-17.4564310857
 21
-0.7543366006
  0
LWPOLYLINE
  5
2C4
100
AcDbEntity
  8
RACCORDO
100
AcDbPolyline
 62
253
  6
CONTINUOUS
 90
79
 70
0
 10
5.1107323816
 20
13.5856892149
 10
5.0908650134
 20
13.5733301677
 10
5.0719062778
 20
13.5605632724
 10
5.053856175
 20
13.5473885288
 10
5.0366875942
 20
13.5337829638
 10
5.020427646
 20
13.5197695505
 10
5.0051576631
 20
13.5054172088
 10
4.9908833966
 20
13.4907247986
 10
4.9775990953
 20
13.4756934599
 10
4.9653688386
 20
13.460395532
 10
4.9541979634
 20
13.4448300117
 10
4.9440811328
 20
13.4289979022
 10
4.9350664155
 20
13.412974553
 10
4.9271590026
 20
13.3967590172
 10
4.920353703
 20
13.3803522418
 10
4.9146830125
 20
13.3638324166
 10
4.9101523366
 20
13.3471988913
 10
4.9067562699
 20
13.3304523161
 10
4.904511091
 20
13.3136728318
 10
4.9034223385
 20
13.2968603446
 10
4.9034844739
 20
13.2800149482
 10
4.9046971609
 20
13.2632170641
 10
4.9070658857
 20
13.2464669554
 10
4.9105851622
 20
13.2297643592
 10
4.9152381949
 20
13.2131889082
 10
4.9210304006
 20
13.1967411798
 10
4.9279563626
 20
13.1804205968
 10
4.9359830349
 20
13.1643050603
 10
4.9451156891
 20
13.1483955411
 10
4.9553490537
 20
13.1326910685
 10
4.9666342678
 20
13.117266632
 10
4.9789763611
 20
13.1021235778
 10
4.992370304
 20
13.0872605597
 10
5.0067521475
 20
13.0727485297
 10
5.0221266089
 20
13.0585891717
 10
5.0384889708
 20
13.0447808018
 10
5.0557611322
 20
13.0313893199
 10
5.0739474439
 20
13.018416717
 10
5.0930435551
 20
13.005861002
 10
5.1129583125
 20
12.9937821019
 10
5.1336956297
 20
12.9821822962
 10
5.155251593
 20
12.9710593053
 10
5.1775233092
 20
12.9604662175
 10
5.2005141922
 20
12.9504055679
 10
5.224220828
 20
12.9408748214
 10
5.2485300808
 20
12.9319194601
 10
5.273444834
 20
12.9235422318
 10
5.2989622043
 20
12.9157403888
 10
5.3249604054
 20
12.9085511692
 10
5.3514417557
 20
12.9019774987
 10
5.3784039369
 20
12.8960164518
 10
5.4057182081
 20
12.8906964898
 10
5.4333862381
 20
12.8860206827
 10
5.461406358
 20
12.8819859605
 10
5.48964482
 20
12.8786115748
 10
5.5181026143
 20
12.8759006809
 10
5.5467787506
 20
12.8738501234
 10
5.5755365105
 20
12.8724696879
 10
5.6043763405
 20
12.8717625695
 10
5.633297794
 20
12.8717255733
 10
5.6621628131
 20
12.8723588993
 10
5.6909712415
 20
12.8736657727
 10
5.7197232354
 20
12.8756429684
 10
5.7482812064
 20
12.8782810122
 10
5.7766440478
 20
12.8815830555
 10
5.8048128662
 20
12.8855459468
 10
5.8326533932
 20
12.8901507579
 10
5.8601639895
 20
12.8954005079
 10
5.8873462944
 20
12.9012921777
 10
5.9140709563
 20
12.9077977808
 10
5.9403362476
 20
12.9149204277
 10
5.9661438959
 20
12.9226570079
 10
5.9913697333
 20
12.9309702041
 10
6.0160122714
 20
12.9398636169
 10
6.0400729987
 20
12.9493336455
 10
6.063432212
 20
12.9593321701
 10
6.0860500105
 20
12.9698431506
 10
6.107966295
 20
12.9808826269
 10
6.1291810656
 20
12.9924505992
  0
LINE
  5
2C5
100
AcDbEntity
  8
RACCORDO
100
AcDbLine
 62
7
  6
CONTINUOUS
 10
-17.5591560584
 20
-0.7460795396
 11
-17.2004453
 21
-0.5242474258
  0
LINE
  5
2C6
100
AcDbEntity
  8
RACCORDO
100
AcDbLine
 62
253
  6
CONTINUOUS
 10
-17.4564310857
 20
-0.7543366006
 11
-17.1558414145
 21
-0.568447439
  0
LWPOLYLINE
  5
2C7
100
AcDbEntity
  8
RACCORDO
100
AcDbPolyline
 62
7
  6
CONTINUOUS
 90
24
 70
0
 10
4.9840102089
 20
13.5970581859
 10
4.961031395
 20
13.5828581143
 10
4.933128528
 20
13.564276312
 10
4.9065437041
 20
13.5450392817
 10
4.8812877193
 20
13.5251819152
 10
4.8573549366
 20
13.5047289258
 10
4.8347340575
 20
13.4836957672
 10
4.8134264484
 20
13.4621061546
 10
4.7934388202
 20
13.4399909275
 10
4.7747754553
 20
13.4173773709
 10
4.7574440948
 20
13.3942963316
 10
4.7414503156
 20
13.3707803978
 10
4.7268010535
 20
13.3468658939
 10
4.7135037255
 20
13.3225912148
 10
4.7015638367
 20
13.2979968649
 10
4.6909869488
 20
13.2731318632
 10
4.6817737494
 20
13.2480391399
 10
4.6739264416
 20
13.2227717344
 10
4.667446528
 20
13.1974033142
 10
4.662323471
 20
13.1719873161
 10
4.6585440962
 20
13.146577907
 10
4.6560939005
 20
13.1212554397
 10
4.6549477051
 20
13.0960827105
 10
4.6548476044
 20
13.0860018827
  0
LINE
  5
2C8
100
AcDbEntity
  8
RACCORDO
100
AcDbLine
 62
7
  6
CONTINUOUS
 10
6.4111313241
 20
14.4500759095
 11
4.9840111721
 21
13.5970589928
  0
LINE
  5
2C9
100
AcDbEntity
  8
RACCORDO
100
AcDbLine
 62
253
  6
CONTINUOUS
 10
6.5372192895
 20
14.4383276295
 11
5.1107323816
 21
13.5856892149
  0
LINE
  5
2CA
100
AcDbEntity
  8
RACCORDO
100
AcDbLine
 62
7
  6
CONTINUOUS
 10
8.9767444158
 20
16.7860210195
 11
2.3516991054
 21
12.9608092848
  0
LINE
  5
2CB
100
AcDbEntity
  8
DRAFT
100
AcDbLine
 62
7
  6
CONTINUOUS
 10
11.0094586818
 20
17.9596867578
 11
8.9767444158
 21
16.7860210195
  0
LINE
  5
2CC
100
AcDbEntity
  8
RACCORDO
100
AcDbLine
 62
7
  6
CONTINUOUS
 10
12.1082499754
 20
17.7041394678
 11
6.3958046644
 21
14.5199786617
  0
LWPOLYLINE
  5
2CD
100
AcDbEntity
  8
RACCORDO
100
AcDbPolyline
 62
253
  6
CONTINUOUS
 90
22
 70
0
 10
13.3406579901
 20
16.7497683002
 10
13.3769143252
 20
16.7694667569
 10
13.4126172082
 20
16.785760236
 10
13.4477666391
 20
16.7986487374
 10
13.4825699914
 20
16.8081779428
 10
13.5168198916
 20
16.8143021705
 10
13.5498942199
 20
16.8168843756
 10
13.5817548877
 20
16.8158553466
 10
13.6124399837
 20
16.8112842951
 10
13.6414416542
 20
16.8032418105
 10
13.6687333147
 20
16.7916677637
 10
13.6943415497
 20
16.7766222839
 10
13.7178382588
 20
16.7583563485
 10
13.7391858175
 20
16.7368158529
 10
13.7584218502
 20
16.7120549017
 10
13.7752311301
 20
16.6844867864
 10
13.7895732348
 20
16.6540437201
 10
13.8014885866
 20
16.6207934897
 10
13.8107832252
 20
16.585352747
 10
13.8173924972
 20
16.5479270426
 10
13.821381056
 20
16.508310826
 10
13.8227489016
 20
16.4665040971
  0
LWPOLYLINE
  5
2CE
100
AcDbEntity
  8
RACCORDO
100
AcDbPolyline
 62
253
  6
CONTINUOUS
 90
12
 70
0
 10
13.1267072278
 20
17.1160950145
 10
13.1785919265
 20
17.1440131259
 10
13.2301627522
 20
17.1672371213
 10
13.2811309531
 20
17.1856406227
 10
13.3312078585
 20
17.1991257933
 10
13.3801164061
 20
17.2076181502
 10
13.4275926915
 20
17.2110669629
 10
13.4733713236
 20
17.2094548754
 10
13.5171955703
 20
17.2027928171
 10
13.5588287719
 20
17.1911143166
 10
13.598038245
 20
17.1744855292
 10
13.6145270911
 20
17.1655882434
  0
LINE
  5
2CF
100
AcDbEntity
  8
RACCORDO
100
AcDbLine
 62
7
  6
CONTINUOUS
 10
-0.4800763793
 20
-10.1255326581
 11
-0.4460656999
 21
-10.1166870919
  0
LWPOLYLINE
  5
2D0
100
AcDbEntity
  8
RACCORDO
100
AcDbPolyline
 62
7
  6
CONTINUOUS
 90
3
 70
0
 10
-0.5496007454
 20
-10.1249593167
 10
-0.5151001827
 20
-10.1282895399
 10
-0.4800763793
 20
-10.1255326581
  0
LWPOLYLINE
  5
2D1
100
AcDbEntity
  8
RACCORDO
100
AcDbPolyline
 62
253
  6
CONTINUOUS
 90
4
 70
0
 10
-0.5326969196
 20
-10.0429067682
 10
-0.5661057397
 20
-10.03950963
 10
-0.5978333117
 20
-10.0336444321
 10
-0.6275042335
 20
-10.0240051257
  0
LWPOLYLINE
  5
2D2
100
AcDbEntity
  8
RACCORDO
100
AcDbPolyline
 62
7
  6
CONTINUOUS
 90
3
 70
0
 10
-0.6132246927
 20
-10.1015007178
 10
-0.5826666512
 20
-10.1158503442
 10
-0.5496007454
 20
-10.1249593167
  0
LINE
  5
2D3
100
AcDbEntity
  8
RACCORDO
100
AcDbLine
 62
253
  6
CONTINUOUS
 10
-0.6275042335
 20
-10.0240051257
 11
-0.6546412141
 21
-10.0097721603
  0
LINE
  5
2D4
100
AcDbEntity
  8
RACCORDO
100
AcDbLine
 62
253
  6
CONTINUOUS
 10
-0.6546412141
 20
-10.7793893562
 11
-1.0323152705
 21
-10.5613250883
  0
LINE
  5
2D5
100
AcDbEntity
  8
RACCORDO
100
AcDbLine
 62
253
  6
CONTINUOUS
 10
-1.675503105
 20
-10.1899564937
 11
-2.142472917
 21
-9.9203339768
  0
LINE
  5
2D6
100
AcDbEntity
  8
RACCORDO
100
AcDbLine
 62
253
  6
CONTINUOUS
 10
-2.7856607515
 20
-9.5489653822
 11
-3.2526305634
 21
-9.2793428653
  0
LINE
  5
2D7
100
AcDbEntity
  8
RACCORDO
100
AcDbLine
 62
253
  6
CONTINUOUS
 10
-3.895818398
 20
-8.9079742706
 11
-4.3627882099
 21
-8.6383517537
  0
LINE
  5
2D8
100
AcDbEntity
  8
RACCORDO
100
AcDbLine
 62
253
  6
CONTINUOUS
 10
-5.0059760444
 20
-8.2669831591
 11
-5.4729458563
 21
-7.9973606422
  0
LINE
  5
2D9
100
AcDbEntity
  8
RACCORDO
100
AcDbLine
 62
253
  6
CONTINUOUS
 10
-6.1161336909
 20
-7.6259920476
 11
-6.5831035028
 21
-7.3563695307
  0
LINE
  5
2DA
100
AcDbEntity
  8
RACCORDO
100
AcDbLine
 62
253
  6
CONTINUOUS
 10
-7.2262913374
 20
-6.9850009361
 11
-7.6932611493
 21
-6.7153784192
  0
LINE
  5
2DB
100
AcDbEntity
  8
RACCORDO
100
AcDbLine
 62
253
  6
CONTINUOUS
 10
-8.3364489838
 20
-6.3440098245
 11
-8.8034187957
 21
-6.0743873076
  0
LINE
  5
2DC
100
AcDbEntity
  8
RACCORDO
100
AcDbLine
 62
253
  6
CONTINUOUS
 10
-9.4466066303
 20
-5.703018713
 11
-9.9135764422
 21
-5.4333961961
  0
LINE
  5
2DD
100
AcDbEntity
  8
RACCORDO
100
AcDbLine
 62
253
  6
CONTINUOUS
 10
-10.5567642767
 20
-5.0620276015
 11
-11.0237340887
 21
-4.7924050846
  0
LINE
  5
2DE
100
AcDbEntity
  8
RACCORDO
100
AcDbLine
 62
253
  6
CONTINUOUS
 10
-11.6669219232
 20
-4.42103649
 11
-12.1338917351
 21
-4.1514139731
  0
LINE
  5
2DF
100
AcDbEntity
  8
RACCORDO
100
AcDbLine
 62
253
  6
CONTINUOUS
 10
-12.7770795697
 20
-3.7800453784
 11
-13.2440493816
 21
-3.5104228615
  0
LINE
  5
2E0
100
AcDbEntity
  8
RACCORDO
100
AcDbLine
 62
253
  6
CONTINUOUS
 10
-13.8872372161
 20
-3.1390542669
 11
-14.354207028
 21
-2.86943175
  0
LINE
  5
2E1
100
AcDbEntity
  8
RACCORDO
100
AcDbLine
 62
253
  6
CONTINUOUS
 10
-14.9973948626
 20
-2.4980631554
 11
-15.4643646745
 21
-2.2284406385
  0
LINE
  5
2E2
100
AcDbEntity
  8
RACCORDO
100
AcDbLine
 62
253
  6
CONTINUOUS
 10
-16.1075525091
 20
-1.8570720439
 11
-16.574522321
 21
-1.587449527
  0
LINE
  5
2E3
100
AcDbEntity
  8
RACCORDO
100
AcDbLine
 62
253
  6
CONTINUOUS
 10
-17.2177101555
 20
-1.2160809323
 11
-17.5953842119
 21
-0.9980166666
  0
LINE
  5
2E4
100
AcDbEntity
  8
RACCORDO
100
AcDbLine
 62
253
  6
CONTINUOUS
 10
-0.5156880878
 20
-10.5357092902
 11
-0.900644369
 21
-10.3134403581
  0
LINE
  5
2E5
100
AcDbEntity
  8
RACCORDO
100
AcDbLine
 62
253
  6
CONTINUOUS
 10
-1.529267754
 20
-9.9504810941
 11
-2.0108020154
 21
-9.6724492466
  0
LINE
  5
2E6
100
AcDbEntity
  8
RACCORDO
100
AcDbLine
 62
253
  6
CONTINUOUS
 10
-2.6394254004
 20
-9.3094899826
 11
-3.1209596619
 21
-9.031458135
  0
LINE
  5
2E7
100
AcDbEntity
  8
RACCORDO
100
AcDbLine
 62
253
  6
CONTINUOUS
 10
-3.7495830469
 20
-8.668498871
 11
-4.2311173084
 21
-8.3904670235
  0
LINE
  5
2E8
100
AcDbEntity
  8
RACCORDO
100
AcDbLine
 62
253
  6
CONTINUOUS
 10
-4.8597406934
 20
-8.0275077595
 11
-5.3412749548
 21
-7.749475912
  0
LINE
  5
2E9
100
AcDbEntity
  8
RACCORDO
100
AcDbLine
 62
253
  6
CONTINUOUS
 10
-5.9698983398
 20
-7.386516648
 11
-6.4514326013
 21
-7.1084848005
  0
LINE
  5
2EA
100
AcDbEntity
  8
RACCORDO
100
AcDbLine
 62
253
  6
CONTINUOUS
 10
-7.0800559863
 20
-6.7455255365
 11
-7.5615902478
 21
-6.4674936889
  0
LINE
  5
2EB
100
AcDbEntity
  8
RACCORDO
100
AcDbLine
 62
253
  6
CONTINUOUS
 10
-8.1902136328
 20
-6.1045344249
 11
-8.6717478942
 21
-5.8265025774
  0
LINE
  5
2EC
100
AcDbEntity
  8
RACCORDO
100
AcDbLine
 62
253
  6
CONTINUOUS
 10
-9.3003712792
 20
-5.4635433134
 11
-9.7819055407
 21
-5.1855114659
  0
LINE
  5
2ED
100
AcDbEntity
  8
RACCORDO
100
AcDbLine
 62
253
  6
CONTINUOUS
 10
-10.4105289257
 20
-4.8225522019
 11
-10.8920631871
 21
-4.5445203544
  0
LINE
  5
2EE
100
AcDbEntity
  8
RACCORDO
100
AcDbLine
 62
253
  6
CONTINUOUS
 10
-11.5206865721
 20
-4.1815610904
 11
-12.0022208336
 21
-3.9035292428
  0
LINE
  5
2EF
100
AcDbEntity
  8
RACCORDO
100
AcDbLine
 62
253
  6
CONTINUOUS
 10
-12.6308442186
 20
-3.5405699788
 11
-13.1123784801
 21
-3.2625381313
  0
LINE
  5
2F0
100
AcDbEntity
  8
RACCORDO
100
AcDbLine
 62
253
  6
CONTINUOUS
 10
-13.7410018651
 20
-2.8995788673
 11
-14.2225361265
 21
-2.6215470198
  0
LINE
  5
2F1
100
AcDbEntity
  8
RACCORDO
100
AcDbLine
 62
253
  6
CONTINUOUS
 10
-14.8511595115
 20
-2.2585877558
 11
-15.332693773
 21
-1.9805559083
  0
LINE
  5
2F2
100
AcDbEntity
  8
RACCORDO
100
AcDbLine
 62
253
  6
CONTINUOUS
 10
-15.961317158
 20
-1.6175966443
 11
-16.4428514195
 21
-1.3395647967
  0
LINE
  5
2F3
100
AcDbEntity
  8
RACCORDO
100
AcDbLine
 62
253
  6
CONTINUOUS
 10
-17.0714748045
 20
-0.9766055327
 11
-17.4564310857
 21
-0.7543366006
  0
LINE
  5
2F4
100
AcDbEntity
  8
RACCORDO
100
AcDbLine
 62
7
  6
CONTINUOUS
 10
-17.5539677747
 20
-0.3201279797
 11
-17.1741231748
 21
-0.5394454911
  0
LINE
  5
2F5
100
AcDbEntity
  8
RACCORDO
100
AcDbLine
 62
7
  6
CONTINUOUS
 10
-16.5352764272
 20
-0.9083075965
 11
-16.0639655283
 21
-1.1804366026
  0
LINE
  5
2F6
100
AcDbEntity
  8
RACCORDO
100
AcDbLine
 62
7
  6
CONTINUOUS
 10
-15.4251187808
 20
-1.549298708
 11
-14.9538078818
 21
-1.8214277141
  0
LINE
  5
2F7
100
AcDbEntity
  8
RACCORDO
100
AcDbLine
 62
7
  6
CONTINUOUS
 10
-14.3149611343
 20
-2.1902898195
 11
-13.8436502354
 21
-2.4624188257
  0
LINE
  5
2F8
100
AcDbEntity
  8
RACCORDO
100
AcDbLine
 62
7
  6
CONTINUOUS
 10
-13.2048034878
 20
-2.8312809311
 11
-12.7334925889
 21
-3.1034099372
  0
LINE
  5
2F9
100
AcDbEntity
  8
RACCORDO
100
AcDbLine
 62
7
  6
CONTINUOUS
 10
-12.0946458414
 20
-3.4722720426
 11
-11.6233349425
 21
-3.7444010487
  0
LINE
  5
2FA
100
AcDbEntity
  8
RACCORDO
100
AcDbLine
 62
7
  6
CONTINUOUS
 10
-10.9844881949
 20
-4.1132631541
 11
-10.513177296
 21
-4.3853921602
  0
LINE
  5
2FB
100
AcDbEntity
  8
RACCORDO
100
AcDbLine
 62
7
  6
CONTINUOUS
 10
-9.8743305485
 20
-4.7542542656
 11
-9.4030196495
 21
-5.0263832718
  0
LINE
  5
2FC
100
AcDbEntity
  8
RACCORDO
100
AcDbLine
 62
7
  6
CONTINUOUS
 10
-8.764172902
 20
-5.3952453772
 11
-8.2928620031
 21
-5.6673743833
  0
LINE
  5
2FD
100
AcDbEntity
  8
RACCORDO
100
AcDbLine
 62
7
  6
CONTINUOUS
 10
-7.6540152555
 20
-6.0362364887
 11
-7.1827043566
 21
-6.3083654948
  0
LINE
  5
2FE
100
AcDbEntity
  8
RACCORDO
100
AcDbLine
 62
7
  6
CONTINUOUS
 10
-6.5438576091
 20
-6.6772276002
 11
-6.0725467101
 21
-6.9493566063
  0
LINE
  5
2FF
100
AcDbEntity
  8
RACCORDO
100
AcDbLine
 62
7
  6
CONTINUOUS
 10
-5.4336999626
 20
-7.3182187117
 11
-4.9623890637
 21
-7.5903477179
  0
LINE
  5
300
100
AcDbEntity
  8
RACCORDO
100
AcDbLine
 62
7
  6
CONTINUOUS
 10
-4.3235423161
 20
-7.9592098233
 11
-3.8522314172
 21
-8.2313388294
  0
LINE
  5
301
100
AcDbEntity
  8
RACCORDO
100
AcDbLine
 62
7
  6
CONTINUOUS
 10
-3.2133846697
 20
-8.6002009348
 11
-2.7420737707
 21
-8.8723299409
  0
LINE
  5
302
100
AcDbEntity
  8
RACCORDO
100
AcDbLine
 62
7
  6
CONTINUOUS
 10
-2.1032270232
 20
-9.2411920463
 11
-1.6319161243
 21
-9.5133210524
  0
LINE
  5
303
100
AcDbEntity
  8
RACCORDO
100
AcDbLine
 62
7
  6
CONTINUOUS
 10
-0.9930693767
 20
-9.8821831578
 11
-0.6132247768
 21
-10.1015006693
  0
LINE
  5
304
100
AcDbEntity
  8
RACCORDO
100
AcDbLine
 62
253
  6
CONTINUOUS
 10
-17.5953842119
 20
-0.2283994698
 11
-17.2177101555
 21
-0.4464637376
  0
LINE
  5
305
100
AcDbEntity
  8
RACCORDO
100
AcDbLine
 62
253
  6
CONTINUOUS
 10
-16.574522321
 20
-0.8178323323
 11
-16.1075525091
 21
-1.0874548492
  0
LINE
  5
306
100
AcDbEntity
  8
RACCORDO
100
AcDbLine
 62
253
  6
CONTINUOUS
 10
-15.4643646745
 20
-1.4588234438
 11
-14.9973948626
 21
-1.7284459607
  0
LINE
  5
307
100
AcDbEntity
  8
RACCORDO
100
AcDbLine
 62
253
  6
CONTINUOUS
 10
-14.354207028
 20
-2.0998145553
 11
-13.8872372161
 21
-2.3694370722
  0
LINE
  5
308
100
AcDbEntity
  8
RACCORDO
100
AcDbLine
 62
253
  6
CONTINUOUS
 10
-13.2440493816
 20
-2.7408056668
 11
-12.7770795697
 21
-3.0104281837
  0
LINE
  5
309
100
AcDbEntity
  8
RACCORDO
100
AcDbLine
 62
253
  6
CONTINUOUS
 10
-12.1338917351
 20
-3.3817967784
 11
-11.6669219232
 21
-3.6514192953
  0
LINE
  5
30A
100
AcDbEntity
  8
RACCORDO
100
AcDbLine
 62
253
  6
CONTINUOUS
 10
-11.0237340887
 20
-4.0227878899
 11
-10.5567642767
 21
-4.2924104068
  0
LINE
  5
30B
100
AcDbEntity
  8
RACCORDO
100
AcDbLine
 62
253
  6
CONTINUOUS
 10
-9.9135764422
 20
-4.6637790014
 11
-9.4466066303
 21
-4.9334015183
  0
LINE
  5
30C
100
AcDbEntity
  8
RACCORDO
100
AcDbLine
 62
253
  6
CONTINUOUS
 10
-8.8034187957
 20
-5.3047701129
 11
-8.3364489838
 21
-5.5743926298
  0
LINE
  5
30D
100
AcDbEntity
  8
RACCORDO
100
AcDbLine
 62
253
  6
CONTINUOUS
 10
-7.6932611493
 20
-5.9457612245
 11
-7.2262913374
 21
-6.2153837414
  0
LINE
  5
30E
100
AcDbEntity
  8
RACCORDO
100
AcDbLine
 62
253
  6
CONTINUOUS
 10
-6.5831035028
 20
-6.586752336
 11
-6.1161336909
 21
-6.8563748529
  0
LINE
  5
30F
100
AcDbEntity
  8
RACCORDO
100
AcDbLine
 62
253
  6
CONTINUOUS
 10
-5.4729458563
 20
-7.2277434475
 11
-5.0059760444
 21
-7.4973659644
  0
LINE
  5
310
100
AcDbEntity
  8
RACCORDO
100
AcDbLine
 62
253
  6
CONTINUOUS
 10
-4.3627882099
 20
-7.868734559
 11
-3.895818398
 21
-8.1383570759
  0
LINE
  5
311
100
AcDbEntity
  8
RACCORDO
100
AcDbLine
 62
253
  6
CONTINUOUS
 10
-3.2526305634
 20
-8.5097256706
 11
-2.7856607515
 21
-8.7793481875
  0
LINE
  5
312
100
AcDbEntity
  8
RACCORDO
100
AcDbLine
 62
253
  6
CONTINUOUS
 10
-2.142472917
 20
-9.1507167821
 11
-1.675503105
 21
-9.420339299
  0
LINE
  5
313
100
AcDbEntity
  8
RACCORDO
100
AcDbLine
 62
253
  6
CONTINUOUS
 10
-1.0323152705
 20
-9.7917078936
 11
-0.6546412141
 21
-10.0097721594
  0
LWPOLYLINE
  5
314
100
AcDbEntity
  8
RACCORDO
100
AcDbPolyline
 62
253
  6
CONTINUOUS
 90
8
 70
0
 10
-17.55396819
 20
-0.3201277398
 10
-17.5612175275
 20
-0.3152856939
 10
-17.5706311778
 20
-0.3065787118
 10
-17.5788806995
 20
-0.2956044047
 10
-17.5857400266
 20
-0.2822806223
 10
-17.5909511447
 20
-0.2665848753
 10
-17.5942476845
 20
-0.2485837251
 10
-17.5953842119
 20
-0.2283994698
  0
LWPOLYLINE
  5
315
100
AcDbEntity
  8
RACCORDO
100
AcDbPolyline
 62
7
  6
CONTINUOUS
 90
6
 70
0
 10
-17.5539678065
 20
-0.3201279613
 10
-17.5817999941
 20
-0.3007315022
 10
-17.6063310569
 20
-0.2764749564
 10
-17.6265275328
 20
-0.2480269362
 10
-17.6416308851
 20
-0.2160676181
 10
-17.6508741372
 20
-0.1819396978
  0
LINE
  5
316
100
AcDbEntity
  8
0
100
AcDbLine
 62
7
  6
CONTINUOUS
 10
-7.9584629937
 20
9.3273945207
 11
-7.9584629937
 21
10.0369407085
  0
LINE
  5
317
100
AcDbEntity
  8
RACCORDO
100
AcDbLine
 62
253
  6
CONTINUOUS
 10
-7.6892171875
 20
18.75830851
 11
-7.6892171875
 21
19.3706612176
  0
LINE
  5
318
100
AcDbEntity
  8
0
100
AcDbLine
 62
7
  6
CONTINUOUS
 10
-6.8483053472
 20
8.6864034091
 11
-6.8483053472
 21
9.3959495969
  0
LINE
  5
319
100
AcDbEntity
  8
0
100
AcDbLine
 62
7
  6
CONTINUOUS
 10
-6.4922015655
 20
20.5227841938
 11
-6.4922015655
 21
20.7677252768
  0
LWPOLYLINE
  5
31A
100
AcDbEntity
  8
0
100
AcDbPolyline
 62
7
  6
CONTINUOUS
 90
19
 70
0
 10
-6.4922015655
 20
20.7677252768
 10
-6.4901998726
 20
20.8193086518
 10
-6.4845779208
 20
20.8718622431
 10
-6.47533571
 20
20.9253860506
 10
-6.4623484323
 20
20.9803000516
 10
-6.4457408957
 20
21.0361842689
 10
-6.4258875236
 20
21.0917787703
 10
-6.4027145834
 20
21.1470769746
 10
-6.3762958078
 20
21.2020854631
 10
-6.3472268186
 20
21.2555640472
 10
-6.3154474134
 20
21.3074779735
 10
-6.2810177947
 20
21.3578619956
 10
-6.244714192
 20
21.4055801853
 10
-6.2064940358
 20
21.4505719853
 10
-6.1663998956
 20
21.4928979531
 10
-6.12533571
 20
21.5316038326
 10
-6.0836027916
 20
21.5663715386
 10
-6.0408998279
 20
21.5975191563
 10
-5.9972268186
 20
21.6250466859
  0
LINE
  5
31B
100
AcDbEntity
  8
RACCORDO
100
AcDbLine
 62
253
  6
CONTINUOUS
 10
-2.1447144786
 20
21.7430011416
 11
-2.2321176835
 21
21.3819318757
  0
LINE
  5
31C
100
AcDbEntity
  8
RACCORDO
100
AcDbLine
 62
253
  6
CONTINUOUS
 10
-1.8687934199
 20
21.6885440273
 11
-1.9561966248
 21
21.3274747613
  0
LINE
  5
31D
100
AcDbEntity
  8
0
100
AcDbLine
 62
7
  6
CONTINUOUS
 10
1.5015796928
 20
15.7743426213
 11
1.5586378861
 21
15.8743303951
  0
LINE
  5
31E
100
AcDbEntity
  8
RACCORDO
100
AcDbLine
 62
7
  6
CONTINUOUS
 10
-3.5881390485
 20
6.7032396942
 11
-3.022857661
 21
7.187184047
  0
LINE
  5
31F
100
AcDbEntity
  8
RACCORDO
100
AcDbLine
 62
7
  6
CONTINUOUS
 10
-2.477981402
 20
6.0622485827
 11
-1.9127000145
 21
6.5461929355
  0
LINE
  5
320
100
AcDbEntity
  8
RACCORDO
100
AcDbLine
 62
7
  6
CONTINUOUS
 10
-4.1456409912
 20
7.0251343288
 11
-3.5178324078
 21
7.4729762624
  0
LINE
  5
321
100
AcDbEntity
  8
RACCORDO
100
AcDbLine
 62
7
  6
CONTINUOUS
 10
-3.0354833447
 20
6.3841432173
 11
-2.4076747613
 21
6.8319851508
  0
LINE
  5
322
100
AcDbEntity
  8
RACCORDO
100
AcDbLine
 62
7
  6
CONTINUOUS
 10
-16.4428514195
 20
-1.3395647967
 11
-16.1380777099
 21
-1.1376451578
  0
LINE
  5
323
100
AcDbEntity
  8
RACCORDO
100
AcDbLine
 62
7
  6
CONTINUOUS
 10
-15.332693773
 20
-1.9805559083
 11
-15.0279200634
 21
-1.7786362693
  0
LINE
  5
324
100
AcDbEntity
  8
RACCORDO
100
AcDbLine
 62
253
  6
CONTINUOUS
 10
7.5625308522
 20
13.8463255834
 11
13.1267072278
 21
17.1160950145
  0
LINE
  5
325
100
AcDbEntity
  8
RACCORDO
100
AcDbLine
 62
253
  6
CONTINUOUS
 10
7.7746628877
 20
13.4789301004
 11
13.3406579901
 21
16.7497683002
  0
LINE
  5
326
100
AcDbEntity
  8
RACCORDO
100
AcDbLine
 62
253
  6
CONTINUOUS
 10
6.1291810656
 20
12.9924505992
 11
7.5978861914
 21
13.8259118536
  0
LINE
  5
327
100
AcDbEntity
  8
RACCORDO
100
AcDbLine
 62
253
  6
CONTINUOUS
 10
6.3043883063
 20
12.6853970615
 11
7.7746628877
 21
13.5197489511
  0
LINE
  5
328
100
AcDbEntity
  8
RACCORDO
100
AcDbLine
 62
253
  6
CONTINUOUS
 10
5.6622763681
 20
11.4593220651
 11
2.3803086406
 21
9.5968699695
  0
LINE
  5
329
100
AcDbEntity
  8
RACCORDO
100
AcDbLine
 62
253
  6
CONTINUOUS
 10
6.3043883063
 20
11.4172277545
 11
2.5555158813
 21
9.2898164319
  0
LINE
  5
32A
100
AcDbEntity
  8
RACCORDO
100
AcDbLine
 62
7
  6
CONTINUOUS
 10
-16.5742323341
 20
-0.7085753977
 11
-17.0714748045
 21
-0.9766055327
  0
LWPOLYLINE
  5
32B
100
AcDbEntity
  8
RACCORDO
100
AcDbPolyline
 62
253
  6
CONTINUOUS
 90
28
 70
0
 10
2.5555158813
 20
9.2898164319
 10
2.5448847301
 20
9.2842209528
 10
2.5337137421
 20
9.2789877815
 10
2.5220399002
 20
9.2741342482
 10
2.509901833
 20
9.2696764198
 10
2.4973397447
 20
9.265629068
 10
2.4843952888
 20
9.2620056138
 10
2.4711113455
 20
9.2588180565
 10
2.4575318832
 20
9.2560769424
 10
2.4437018753
 20
9.2537913465
 10
2.4296670946
 20
9.2519688305
 10
2.4154740318
 20
9.2506154288
 10
2.4011697539
 20
9.2497356223
 10
2.3868016985
 20
9.2493323137
 10
2.372417363
 20
9.2494068218
 10
2.35806422
 20
9.2499588971
 10
2.3437895286
 20
9.2509867393
 10
2.329640818
 20
9.2524869435
 10
2.3156655562
 20
9.2544544484
 10
2.3019103844
 20
9.2568826044
 10
2.2884203949
 20
9.2597633669
 10
2.275239647
 20
9.2630872959
 10
2.2624082523
 20
9.2668444949
 10
2.2499724207
 20
9.2710216581
 10
2.2379826584
 20
9.2756011657
 10
2.2264805043
 20
9.2805655675
 10
2.2154995108
 20
9.2858987338
 10
2.2050745934
 20
9.2915822298
  0
LINE
  5
32C
100
AcDbEntity
  8
RACCORDO
100
AcDbLine
 62
7
  6
CONTINUOUS
 10
-17.0714748045
 20
-0.5338888806
 11
-16.5731063409
 21
-0.2843403657
  0
LWPOLYLINE
  5
32D
100
AcDbEntity
  8
RACCORDO
100
AcDbPolyline
 62
253
  6
CONTINUOUS
 90
6
 70
0
 10
-17.5591560584
 20
-0.7460795396
 10
-17.5470792616
 20
-0.7401931749
 10
-17.5265467332
 20
-0.7358104628
 10
-17.5041455794
 20
-0.7368860245
 10
-17.4805325701
 20
-0.7431807972
 10
-17.4564310857
 20
-0.7543366006
  0
LINE
  5
32E
100
AcDbEntity
  8
0
100
AcDbLine
 62
7
  6
CONTINUOUS
 10
-5.7381477007
 20
8.0454122976
 11
-5.7381477007
 21
8.7549584854
  0
LINE
  5
32F
100
AcDbEntity
  8
0
100
AcDbLine
 62
7
  6
CONTINUOUS
 10
-4.6279900543
 20
7.4044211861
 11
-4.6279900543
 21
8.1139673739
  0
LINE
  5
330
100
AcDbEntity
  8
RACCORDO
100
AcDbLine
 62
253
  6
CONTINUOUS
 10
0.1818162455
 20
20.5045477066
 11
0.1537540726
 21
20.3886207429
  0
LINE
  5
331
100
AcDbEntity
  8
RACCORDO
100
AcDbLine
 62
253
  6
CONTINUOUS
 10
-0.0644515105
 20
19.0214677973
 11
-0.0861236838
 21
18.9319384062
  0
LWPOLYLINE
  5
332
100
AcDbEntity
  8
RACCORDO
100
AcDbPolyline
 62
7
  6
CONTINUOUS
 90
12
 70
0
 10
0.2416960424
 20
20.4302969044
 10
0.2413846231
 20
20.4291203136
 10
0.2396281343
 20
20.4245666092
 10
0.2370399682
 20
20.4202411733
 10
0.2336306434
 20
20.4161411188
 10
0.2294436474
 20
20.4123187433
 10
0.2244690181
 20
20.4087776038
 10
0.2187167174
 20
20.4055141433
 10
0.2122601179
 20
20.4025699884
 10
0.2051236772
 20
20.3999590146
 10
0.1972829376
 20
20.3976673463
 10
0.1887378993
 20
20.3956949836
  0
LWPOLYLINE
  5
333
100
AcDbEntity
  8
RACCORDO
100
AcDbPolyline
 62
7
  6
CONTINUOUS
 90
12
 70
0
 10
-0.1174096536
 20
18.9868658766
 10
-0.1170982343
 20
18.9880424674
 10
-0.1153417455
 20
18.9925961718
 10
-0.1127535793
 20
18.9969216076
 10
-0.1093442546
 20
19.0010216621
 10
-0.1051572585
 20
19.0048440377
 10
-0.1001826292
 20
19.0083851771
 10
-0.0944303285
 20
19.0116486376
 10
-0.0879737291
 20
19.0145927926
 10
-0.0808372883
 20
19.0172037664
 10
-0.0729965488
 20
19.0194954347
 10
-0.0644515105
 20
19.0214677973
  0
LINE
  5
334
100
AcDbEntity
  8
RACCORDO
100
AcDbLine
 62
7
  6
CONTINUOUS
 10
-1.3678237555
 20
5.4212574712
 11
-0.8025423681
 21
5.905201824
  0
LINE
  5
335
100
AcDbEntity
  8
RACCORDO
100
AcDbLine
 62
7
  6
CONTINUOUS
 10
-1.9253256982
 20
5.7431521058
 11
-1.2975171149
 21
6.1909940393
  0
LINE
  5
336
100
AcDbEntity
  8
RACCORDO
100
AcDbLine
 62
7
  6
CONTINUOUS
 10
-0.8151680518
 20
5.1021609942
 11
-0.1873594684
 21
5.5500029278
  0
LINE
  5
337
100
AcDbEntity
  8
RACCORDO
100
AcDbLine
 62
7
  6
CONTINUOUS
 10
-14.2225361265
 20
-2.6215470198
 11
-13.917762417
 21
-2.4196273809
  0
LINE
  5
338
100
AcDbEntity
  8
RACCORDO
100
AcDbLine
 62
7
  6
CONTINUOUS
 10
-13.1123784801
 20
-3.2625381313
 11
-12.8076047705
 21
-3.0606184924
  0
LINE
  5
339
100
AcDbEntity
  8
RACCORDO
100
AcDbLine
 62
253
  6
CONTINUOUS
 10
13.9069469615
 20
13.8611271422
 11
17.150839547
 21
15.7673896504
  0
LINE
  5
33A
100
AcDbEntity
  8
RACCORDO
100
AcDbLine
 62
253
  6
CONTINUOUS
 10
17.507424151
 20
15.1568451265
 11
13.8227489016
 21
12.9915581764
  0
LINE
  5
33B
100
AcDbEntity
  8
RACCORDO
100
AcDbLine
 62
253
  6
CONTINUOUS
 10
6.0412669169
 20
8.5181759743
 11
2.580275992
 21
6.5198498168
  0
LINE
  5
33C
100
AcDbEntity
  8
RACCORDO
100
AcDbLine
 62
253
  6
CONTINUOUS
 10
6.6786473769
 20
8.5596363648
 11
2.7216758091
 21
6.2749381497
  0
LINE
  5
33D
100
AcDbEntity
  8
RACCORDO
100
AcDbLine
 62
7
  6
CONTINUOUS
 10
2.5555158813
 20
6.6091246953
 11
6.6954888238
 21
8.8764755647
  0
LINE
  5
33E
100
AcDbEntity
  8
RACCORDO
100
AcDbLine
 62
7
  6
CONTINUOUS
 10
-15.4640746877
 20
-1.3495665092
 11
-15.961317158
 21
-1.6175966443
  0
LINE
  5
33F
100
AcDbEntity
  8
RACCORDO
100
AcDbLine
 62
7
  6
CONTINUOUS
 10
-14.3539170412
 20
-1.9905576207
 11
-14.8511595115
 21
-2.2585877558
  0
LWPOLYLINE
  5
340
100
AcDbEntity
  8
RACCORDO
100
AcDbPolyline
 62
253
  6
CONTINUOUS
 90
16
 70
0
 10
17.150839547
 20
15.7673896504
 10
17.1692305779
 20
15.7772700839
 10
17.1875586172
 20
15.7860108642
 10
17.2057741039
 20
15.7935892303
 10
17.2238266906
 20
15.799985223
 10
17.2416688736
 20
15.8051830078
 10
17.2592559751
 20
15.8091701374
 10
17.2765397791
 20
15.8119359983
 10
17.29347442
 20
15.8134735737
 10
17.3100195017
 20
15.8137788676
 10
17.3261299008
 20
15.8128501277
 10
17.3417617889
 20
15.8106889352
 10
17.3568775164
 20
15.8072988497
 10
17.3714389191
 20
15.8026855114
 10
17.3854013912
 20
15.7968600175
 10
17.397760291
 20
15.7903978593
  0
LINE
  5
341
100
AcDbEntity
  8
RACCORDO
100
AcDbLine
 62
7
  6
CONTINUOUS
 10
-15.961317158
 20
-1.1748799921
 11
-15.4629486944
 21
-0.9253314772
  0
LINE
  5
342
100
AcDbEntity
  8
RACCORDO
100
AcDbLine
 62
7
  6
CONTINUOUS
 10
-14.8511595115
 20
-1.8158711037
 11
-14.352791048
 21
-1.5663225888
  0
LINE
  5
343
100
AcDbEntity
  8
RACCORDO
100
AcDbLine
 62
7
  6
CONTINUOUS
 10
-4.8899168999
 20
19.4485830685
 11
-4.7768210668
 21
17.8906597134
  0
LINE
  5
344
100
AcDbEntity
  8
0
100
AcDbLine
 62
7
  6
CONTINUOUS
 10
-3.5178324078
 20
6.7634300746
 11
-3.5178324078
 21
7.4729762624
  0
LINE
  5
345
100
AcDbEntity
  8
0
100
AcDbLine
 62
7
  6
CONTINUOUS
 10
-2.4076747613
 20
6.122438963
 11
-2.4076747613
 21
6.8319851508
  0
LINE
  5
346
100
AcDbEntity
  8
RACCORDO
100
AcDbLine
 62
7
  6
CONTINUOUS
 10
-2.0743034782
 20
25.8859524358
 11
-2.0743034782
 21
25.1910075435
  0
LINE
  5
347
100
AcDbEntity
  8
RACCORDO
100
AcDbLine
 62
253
  6
CONTINUOUS
 10
1.8857941742
 20
19.4158359597
 11
1.7983909693
 21
19.0547666937
  0
LINE
  5
348
100
AcDbEntity
  8
RACCORDO
100
AcDbLine
 62
253
  6
CONTINUOUS
 10
2.1617152328
 20
19.3613788453
 11
2.0743120279
 21
19.0003095794
  0
LWPOLYLINE
  5
349
100
AcDbEntity
  8
RACCORDO
100
AcDbPolyline
 62
253
  6
CONTINUOUS
 90
10
 70
0
 10
0.3385696423
 20
4.3007023636
 10
0.2493932806
 20
4.223435601
 10
0.1683960719
 20
4.1386989574
 10
0.0955780163
 20
4.0464924328
 10
0.0297179623
 20
3.9437831478
 10
-0.0279629386
 20
3.8336039818
 10
-0.0738012323
 20
3.7250535731
 10
-0.1065757676
 20
3.6211648012
 10
-0.1275076957
 20
3.5189047867
 10
-0.1365970166
 20
3.4182735296
  0
LINE
  5
34A
100
AcDbEntity
  8
RACCORDO
100
AcDbLine
 62
7
  6
CONTINUOUS
 10
-0.2576661091
 20
4.7802663597
 11
0.3076152784
 21
5.2642107125
  0
LWPOLYLINE
  5
34B
100
AcDbEntity
  8
RACCORDO
100
AcDbPolyline
 62
253
  6
CONTINUOUS
 90
10
 70
0
 10
0.1750804075
 20
4.5304039446
 10
0.0670651943
 20
4.4381058966
 10
-0.0349056429
 20
4.3306734833
 10
-0.1284915365
 20
4.2108602708
 10
-0.2120452432
 20
4.0809157177
 10
-0.2831497339
 20
3.9446921249
 10
-0.3393808123
 20
3.8078521493
 10
-0.3801250061
 20
3.6744112419
 10
-0.4058069213
 20
3.5463955346
 10
-0.4168399726
 20
3.426191213
  0
LINE
  5
34C
100
AcDbEntity
  8
RACCORDO
100
AcDbLine
 62
253
  6
CONTINUOUS
 10
2.5806615642
 20
6.3530695885
 11
0.1750804075
 21
4.5304039446
  0
LINE
  5
34D
100
AcDbEntity
  8
RACCORDO
100
AcDbLine
 62
253
  6
CONTINUOUS
 10
2.7216758091
 20
6.1063391112
 11
0.3385696423
 21
4.3007023636
  0
LINE
  5
34E
100
AcDbEntity
  8
RACCORDO
100
AcDbLine
 62
7
  6
CONTINUOUS
 10
-12.0022208336
 20
-3.9035292428
 11
-11.697447124
 21
-3.7016096039
  0
LINE
  5
34F
100
AcDbEntity
  8
RACCORDO
100
AcDbLine
 62
7
  6
CONTINUOUS
 10
-10.8920631871
 20
-4.5445203544
 11
-10.5872894776
 21
-4.3426007154
  0
LWPOLYLINE
  5
350
100
AcDbEntity
  8
RACCORDO
100
AcDbPolyline
 62
253
  6
CONTINUOUS
 90
16
 70
0
 10
17.507424151
 20
15.1568451265
 10
17.524912488
 20
15.1678580413
 10
17.5413865315
 20
15.1793756527
 10
17.5568029603
 20
15.1913667514
 10
17.571120442
 20
15.2037980783
 10
17.5843025729
 20
15.2166368301
 10
17.5963172236
 20
15.2298510077
 10
17.6071320542
 20
15.2434046464
 10
17.6167189188
 20
15.257262033
 10
17.6250549143
 20
15.2713907084
 10
17.6321167498
 20
15.285753102
 10
17.6378845158
 20
15.300310971
 10
17.6423429698
 20
15.3150302829
 10
17.6454785128
 20
15.3298759108
 10
17.647278979
 20
15.3448041691
 10
17.6477542508
 20
15.357388645
  0
LINE
  5
351
100
AcDbEntity
  8
RACCORDO
100
AcDbLine
 62
7
  6
CONTINUOUS
 10
-13.2437593948
 20
-2.6315487322
 11
-13.7410018651
 21
-2.8995788673
  0
LINE
  5
352
100
AcDbEntity
  8
RACCORDO
100
AcDbLine
 62
7
  6
CONTINUOUS
 10
-12.1336017483
 20
-3.2725398438
 11
-12.6308442186
 21
-3.5405699788
  0
LINE
  5
353
100
AcDbEntity
  8
RACCORDO
100
AcDbLine
 62
7
  6
CONTINUOUS
 10
-13.7410018651
 20
-2.4568622152
 11
-13.2426334015
 21
-2.2073137003
  0
LINE
  5
354
100
AcDbEntity
  8
RACCORDO
100
AcDbLine
 62
7
  6
CONTINUOUS
 10
-12.6308442186
 20
-3.0978533267
 11
-12.1324757551
 21
-2.8483048118
  0
LWPOLYLINE
  5
355
100
AcDbEntity
  8
RACCORDO
100
AcDbPolyline
 62
253
  6
CONTINUOUS
 90
10
 70
0
 10
-0.1365970166
 20
3.4182735296
 10
-0.1633497871
 20
3.4068483711
 10
-0.1934359782
 20
3.3982310847
 10
-0.2259615725
 20
3.3926777354
 10
-0.2599600649
 20
3.3903533446
 10
-0.2944211831
 20
3.3913269804
 10
-0.3283209083
 20
3.395569705
 10
-0.3606519028
 20
3.4029554436
 10
-0.3904534434
 20
3.4132647295
 10
-0.41683997
 20
3.4261912201
  0
LINE
  5
356
100
AcDbEntity
  8
RACCORDO
100
AcDbLine
 62
7
  6
CONTINUOUS
 10
6.4479544509
 20
-6.4118894221
 11
6.5372475598
 21
-6.4634461441
  0
LWPOLYLINE
  5
357
100
AcDbEntity
  8
RACCORDO
100
AcDbPolyline
 62
7
  6
CONTINUOUS
 90
10
 70
0
 10
13.8227489016
 20
-17.5021168844
 10
13.8415176282
 20
-17.5197665801
 10
13.8578902009
 20
-17.5356876839
 10
13.8718429704
 20
-17.5500428336
 10
13.8833542156
 20
-17.5630598031
 10
13.8924988804
 20
-17.574816558
 10
13.8993849142
 20
-17.5852271002
 10
13.9040365993
 20
-17.5943923227
 10
13.9064963036
 20
-17.602446712
 10
13.9069469611
 20
-17.6070573828
  0
LWPOLYLINE
  5
358
100
AcDbEntity
  8
RACCORDO
100
AcDbPolyline
 62
7
  6
CONTINUOUS
 90
52
 70
0
 10
4.6700449713
 20
-25.7808735869
 10
4.6766772812
 20
-25.8048021184
 10
4.6853569418
 20
-25.8306788611
 10
4.6955391294
 20
-25.856430944
 10
4.707239323
 20
-25.8820048341
 10
4.7204671396
 20
-25.9073391147
 10
4.7352819675
 20
-25.9324615754
 10
4.7517394044
 20
-25.9573672996
 10
4.7698287117
 20
-25.981946924
 10
4.7895136984
 20
-26.0060829684
 10
4.8108259033
 20
-26.0297582921
 10
4.8337504288
 20
-26.0529010656
 10
4.8581496556
 20
-26.0753406604
 10
4.8840008348
 20
-26.0970458713
 10
4.9112984889
 20
-26.1179980834
 10
4.9398896322
 20
-26.1380762038
 10
4.9697365755
 20
-26.1572632785
 10
5.0008200053
 20
-26.1755508542
 10
5.0329760481
 20
-26.1928535362
 10
5.066155448
 20
-26.2091637117
 10
5.1003258716
 20
-26.2244787074
 10
5.135312881
 20
-26.2387396587
 10
5.1710492845
 20
-26.2519431474
 10
5.2074992019
 20
-26.26409563
 10
5.244507297
 20
-26.275168288
 10
5.2819768036
 20
-26.2851575413
 10
5.3198888326
 20
-26.2940816244
 10
5.3581917435
 20
-26.3019476091
 10
5.3968222812
 20
-26.3087579949
 10
5.4357306996
 20
-26.3145191443
 10
5.4748820491
 20
-26.3192371009
 10
5.5142174948
 20
-26.3229130826
 10
5.553684484
 20
-26.3255502958
 10
5.5932559274
 20
-26.3271506877
 10
5.632876147
 20
-26.3277140492
 10
5.6724901067
 20
-26.3272404965
 10
5.7120713124
 20
-26.3257273089
 10
5.7515735639
 20
-26.3231718781
 10
5.7909316538
 20
-26.3195715619
 10
5.8300926223
 20
-26.314922761
 10
5.8690085967
 20
-26.3092219366
 10
5.9076152728
 20
-26.3024658657
 10
5.945841532
 20
-26.2946544981
 10
5.9836337433
 20
-26.285784946
 10
6.020935007
 20
-26.2758532281
 10
6.0576791104
 20
-26.2648598505
 10
6.0938104217
 20
-26.252800965
 10
6.1292755893
 20
-26.239670684
 10
6.1640229239
 20
-26.2254621292
 10
6.1980013963
 20
-26.2101644603
 10
6.2311497777
 20
-26.1937717493
 10
6.2508244427
 20
-26.1832926392
  0
LWPOLYLINE
  5
359
100
AcDbEntity
  8
RACCORDO
100
AcDbPolyline
 62
253
  6
CONTINUOUS
 90
3
 70
0
 10
-0.1365970166
 20
-23.9451982618
 10
-0.1237046848
 20
-24.0442831732
 10
-0.0992767776
 20
-24.1286556702
  0
LWPOLYLINE
  5
35A
100
AcDbEntity
  8
RACCORDO
100
AcDbPolyline
 62
253
  6
CONTINUOUS
 90
6
 70
0
 10
-0.4168399726
 20
-23.9501635573
 10
-0.4033584535
 20
-24.0710128864
 10
-0.3725963961
 20
-24.1771465555
 10
-0.3256940221
 20
-24.2663039577
 10
-0.263691516
 20
-24.337123503
 10
-0.2098384613
 20
-24.3762683333
  0
LWPOLYLINE
  5
35B
100
AcDbEntity
  8
RACCORDO
100
AcDbPolyline
 62
253
  6
CONTINUOUS
 90
10
 70
0
 10
-0.3742882707
 20
-10.7806209573
 10
-0.3768901651
 20
-10.7508911823
 10
-0.3837304885
 20
-10.719510599
 10
-0.3945933431
 20
-10.6874557568
 10
-0.4091969819
 20
-10.6556097941
 10
-0.4270496848
 20
-10.6250836502
 10
-0.4473563868
 20
-10.5971208707
 10
-0.4693340457
 20
-10.5725726783
 10
-0.4923445879
 20
-10.551947616
 10
-0.5156880876
 20
-10.5357092901
  0
LWPOLYLINE
  5
35C
100
AcDbEntity
  8
RACCORDO
100
AcDbPolyline
 62
253
  6
CONTINUOUS
 90
10
 70
0
 10
-0.6546412141
 20
-10.0097721594
 10
-0.6541825147
 20
-10.0228308001
 10
-0.6527205082
 20
-10.0356660118
 10
-0.6501680215
 20
-10.0481159397
 10
-0.6464521871
 20
-10.0599854557
 10
-0.6414995606
 20
-10.0711076678
 10
-0.6352210025
 20
-10.0813269835
 10
-0.627559397
 20
-10.0904140879
 10
-0.6184779157
 20
-10.0981307274
 10
-0.6132250157
 20
-10.1015005313
  0
LWPOLYLINE
  5
35D
100
AcDbEntity
  8
RACCORDO
100
AcDbPolyline
 62
253
  6
CONTINUOUS
 90
13
 70
0
 10
-0.6546412141
 20
-10.7793893562
 10
-0.6519960742
 20
-11.8868795604
 10
-0.6462281715
 20
-12.9925897737
 10
-0.6373377594
 20
-14.0965088176
 10
-0.6253252128
 20
-15.1986178477
 10
-0.6101907998
 20
-16.2989134371
 10
-0.5919344672
 20
-17.39740745
 10
-0.5705564047
 20
-18.4940886121
 10
-0.5460568256
 20
-19.5889457882
 10
-0.5184353718
 20
-20.681990846
 10
-0.487691905
 20
-21.7732201771
 10
-0.4538267226
 20
-22.862614828
 10
-0.4168399726
 20
-23.9501635574
  0
LWPOLYLINE
  5
35E
100
AcDbEntity
  8
RACCORDO
100
AcDbPolyline
 62
253
  6
CONTINUOUS
 90
13
 70
0
 10
-0.3742882707
 20
-10.7806209573
 10
-0.371643887
 20
-11.8876079617
 10
-0.3658787399
 20
-12.9927938031
 10
-0.3569928293
 20
-14.0961784817
 10
-0.3449860056
 20
-15.197765595
 10
-0.3298584184
 20
-16.2975515455
 10
-0.3116105168
 20
-17.3955255397
 10
-0.2902424648
 20
-18.4916876308
 10
-0.2657540984
 20
-19.5860377658
 10
-0.2381453746
 20
-20.6785649916
 10
-0.2074162793
 20
-21.7692656574
 10
-0.1735668266
 20
-22.8581434141
 10
-0.1365970166
 20
-23.9451982618
  0
LINE
  5
35F
100
AcDbEntity
  8
0
100
AcDbLine
 62
7
  6
CONTINUOUS
 10
-1.2975171149
 20
5.4814478515
 11
-1.2975171149
 21
6.1909940393
  0
LINE
  5
360
100
AcDbEntity
  8
RACCORDO
100
AcDbLine
 62
7
  6
CONTINUOUS
 10
-1.0641718771
 20
22.7883955063
 11
-1.0641718771
 21
23.1958729523
  0
LINE
  5
361
100
AcDbEntity
  8
DRAFT
100
AcDbLine
 62
7
  6
CONTINUOUS
 10
-0.1873594684
 20
4.84045674
 11
-0.1873594684
 21
5.5500029278
  0
LWPOLYLINE
  5
362
100
AcDbEntity
  8
RACCORDO
100
AcDbPolyline
 62
253
  6
CONTINUOUS
 90
11
 70
0
 10
-0.2074162793
 20
1.1633665985
 10
-0.2381453746
 20
0.0383982839
 10
-0.2657540984
 20
-1.0849168983
 10
-0.2902424648
 20
-2.2065753132
 10
-0.3116105168
 20
-3.3265660557
 10
-0.3298584184
 20
-4.4448892557
 10
-0.3449860056
 20
-5.5615447832
 10
-0.3569928293
 20
-6.6765213444
 10
-0.3658787399
 20
-7.7898151745
 10
-0.371643887
 20
-8.9014300381
 10
-0.3742882707
 20
-10.0113659354
  0
LWPOLYLINE
  5
363
100
AcDbEntity
  8
RACCORDO
100
AcDbPolyline
 62
253
  6
CONTINUOUS
 90
13
 70
0
 10
-0.4168399726
 20
3.426191213
 10
-0.4538267226
 20
2.2973959213
 10
-0.487691905
 20
1.1702357816
 10
-0.5184353718
 20
0.0447222063
 10
-0.5460568256
 20
-1.0791255086
 10
-0.5705564047
 20
-2.2013039135
 10
-0.5919344672
 20
-3.3218252875
 10
-0.6101907998
 20
-4.4406782423
 10
-0.6253252128
 20
-5.5578512914
 10
-0.6373377594
 20
-6.6733563781
 10
-0.6462281715
 20
-7.7871897719
 10
-0.6519960742
 20
-8.8993321892
 10
-0.6546412141
 20
-10.0097721594
  0
LINE
  5
364
100
AcDbEntity
  8
RACCORDO
100
AcDbLine
 62
253
  6
CONTINUOUS
 10
-0.1365970166
 20
3.4182735296
 11
-0.1720464199
 21
2.3363929825
  0
LINE
  5
365
100
AcDbEntity
  8
RACCORDO
100
AcDbLine
 62
253
  6
CONTINUOUS
 10
-0.1720464199
 20
2.3363929825
 11
-0.2074162793
 21
1.1633665985
  0
LINE
  5
366
100
AcDbEntity
  8
RACCORDO
100
AcDbLine
 62
7
  6
CONTINUOUS
 10
0.2856248197
 20
15.0722666911
 11
0.3907951432
 21
16.3995661177
  0
LINE
  5
367
100
AcDbEntity
  8
RACCORDO
100
AcDbLine
 62
7
  6
CONTINUOUS
 10
0.5684675095
 20
15.2355762423
 11
0.6601843411
 21
16.3930862118
  0
LWPOLYLINE
  5
368
100
AcDbEntity
  8
RACCORDO
100
AcDbPolyline
 62
7
  6
CONTINUOUS
 90
13
 70
0
 10
0.3907951432
 20
16.3995661177
 10
0.3918389248
 20
16.4090475597
 10
0.3934016101
 20
16.4180618232
 10
0.3954831991
 20
16.426608908
 10
0.3980955769
 20
16.4347178186
 10
0.4012268584
 20
16.4423595507
 10
0.404841389
 20
16.4494470906
 10
0.4089446922
 20
16.4559741039
 10
0.4135312444
 20
16.4619469252
 10
0.4185488203
 20
16.467297544
 10
0.4240023466
 20
16.4720188486
 10
0.4298868966
 20
16.4761179508
 10
0.4316749544
 20
16.4771897079
  0
LINE
  5
369
100
AcDbEntity
  8
0
100
AcDbLine
 62
253
  6
CONTINUOUS
 10
2.9171750919
 20
16.6349440048
 11
3.0045782968
 21
16.9960132708
  0
LINE
  5
36A
100
AcDbEntity
  8
RACCORDO
100
AcDbLine
 62
253
  6
CONTINUOUS
 10
4.2123248983
 20
18.1773825246
 11
4.1842627254
 21
18.0614555609
  0
LWPOLYLINE
  5
36B
100
AcDbEntity
  8
RACCORDO
100
AcDbPolyline
 62
7
  6
CONTINUOUS
 90
12
 70
0
 10
4.2722046952
 20
18.1031317224
 10
4.2718932759
 20
18.1019551316
 10
4.2701367871
 20
18.0974014272
 10
4.2675486209
 20
18.0930759914
 10
4.2641392962
 20
18.0889759369
 10
4.2599523001
 20
18.0851535614
 10
4.2549776708
 20
18.0816124219
 10
4.2492253701
 20
18.0783489614
 10
4.2427687706
 20
18.0754048064
 10
4.2356323299
 20
18.0727938326
 10
4.2277915904
 20
18.0705021644
 10
4.2192465521
 20
18.0685298017
  0
LINE
  5
36C
100
AcDbEntity
  8
RACCORDO
100
AcDbLine
 62
7
  6
CONTINUOUS
 10
-9.7819055407
 20
-5.1855114659
 11
-9.4771318311
 21
-4.983591827
  0
LINE
  5
36D
100
AcDbEntity
  8
RACCORDO
100
AcDbLine
 62
7
  6
CONTINUOUS
 10
-8.6717478942
 20
-5.8265025774
 11
-8.3669741846
 21
-5.6245829385
  0
LINE
  5
36E
100
AcDbEntity
  8
RACCORDO
100
AcDbLine
 62
7
  6
CONTINUOUS
 10
-11.0234441018
 20
-3.9135309553
 11
-11.5206865721
 21
-4.1815610904
  0
LINE
  5
36F
100
AcDbEntity
  8
RACCORDO
100
AcDbLine
 62
7
  6
CONTINUOUS
 10
-9.9132864554
 20
-4.5545220668
 11
-10.4105289257
 21
-4.8225522019
  0
LINE
  5
370
100
AcDbEntity
  8
RACCORDO
100
AcDbLine
 62
7
  6
CONTINUOUS
 10
-11.5206865721
 20
-3.7388444382
 11
-11.0223181086
 21
-3.4892959233
  0
LINE
  5
371
100
AcDbEntity
  8
RACCORDO
100
AcDbLine
 62
7
  6
CONTINUOUS
 10
-10.4105289257
 20
-4.3798355497
 11
-9.9121604621
 21
-4.1302870349
  0
LINE
  5
372
100
AcDbEntity
  8
RACCORDO
100
AcDbLine
 62
7
  6
CONTINUOUS
 10
0.5245316725
 20
22.0494900901
 11
0.5245316725
 21
22.2785754339
  0
LINE
  5
373
100
AcDbEntity
  8
RACCORDO
100
AcDbLine
 62
7
  6
CONTINUOUS
 10
0.9506442635
 20
23.7687938594
 11
0.9506442635
 21
23.4819592905
  0
LINE
  5
374
100
AcDbEntity
  8
RACCORDO
100
AcDbLine
 62
7
  6
CONTINUOUS
 10
0.9586977357
 20
13.294005594
 11
0.9586977357
 21
13.9063583016
  0
LINE
  5
375
100
AcDbEntity
  8
ASSI
100
AcDbLine
 62
253
  6
CONTINUOUS
 10
1.8624267272
 20
22.1398571866
 11
1.8624267272
 21
22.6169757498
  0
LINE
  5
376
100
AcDbEntity
  8
0
100
AcDbLine
 62
7
  6
CONTINUOUS
 10
1.9930798088
 20
15.6234890738
 11
1.9930798088
 21
15.8684301569
  0
LINE
  5
377
100
AcDbEntity
  8
ASSI
100
AcDbLine
 62
7
  6
CONTINUOUS
 10
2.1491762781
 20
22.197842134
 11
2.1491762781
 21
22.7829447853
  0
LINE
  5
378
100
AcDbEntity
  8
RACCORDO
100
AcDbLine
 62
253
  6
CONTINUOUS
 10
2.2050745934
 20
9.2915822298
 11
2.2050745934
 21
6.6126407123
  0
LINE
  5
379
100
AcDbEntity
  8
RACCORDO
100
AcDbLine
 62
253
  6
CONTINUOUS
 10
2.2050745934
 20
-24.1721444331
 11
2.2050745934
 21
-26.8510859506
  0
LINE
  5
37A
100
AcDbEntity
  8
0
100
AcDbLine
 62
7
  6
CONTINUOUS
 10
2.2759225213
 20
15.7867989112
 11
2.2759225213
 21
16.0317399942
  0
LINE
  5
37B
100
AcDbEntity
  8
RACCORDO
100
AcDbLine
 62
253
  6
CONTINUOUS
 10
2.3516991054
 20
12.9608092848
 11
2.3516991054
 21
13.5731619923
  0
LWPOLYLINE
  5
37C
100
AcDbEntity
  8
RACCORDO
100
AcDbPolyline
 62
253
  6
CONTINUOUS
 90
31
 70
0
 10
2.2050745934
 20
9.2915822298
 10
2.2053141759
 20
9.3023439555
 10
2.2060322742
 20
9.3133531747
 10
2.2072269417
 20
9.3245800462
 10
2.2088949402
 20
9.3359941389
 10
2.2110317485
 20
9.347564514
 10
2.2136315747
 20
9.3592598093
 10
2.2166873717
 20
9.3710483239
 10
2.2201908566
 20
9.3828981043
 10
2.2241325329
 20
9.3947770307
 10
2.2285017165
 20
9.4066529047
 10
2.2332865645
 20
9.4184935358
 10
2.2384741071
 20
9.4302668292
 10
2.2440502831
 20
9.4419408726
 10
2.2499999781
 20
9.4534840227
 10
2.2563070649
 20
9.4648649911
 10
2.2629544478
 20
9.4760529288
 10
2.2699241085
 20
9.4870175102
 10
2.2771971553
 20
9.4977290151
 10
2.2847538743
 20
9.5081584093
 10
2.2925737822
 20
9.518277423
 10
2.3006356829
 20
9.5280586282
 10
2.3089177239
 20
9.5374755121
 10
2.3173974563
 20
9.5465025497
 10
2.326051895
 20
9.5551152726
 10
2.3348575818
 20
9.5632903354
 10
2.3437906482
 20
9.571005579
 10
2.3528268805
 20
9.5782400908
 10
2.3619417854
 20
9.5849742612
 10
2.3711106564
 20
9.5911898367
 10
2.3803086406
 20
9.5968699695
  0
LWPOLYLINE
  5
37D
100
AcDbEntity
  8
RACCORDO
100
AcDbPolyline
 62
7
  6
CONTINUOUS
 90
9
 70
0
 10
2.1491899554
 20
22.7829382636
 10
2.1491559669
 20
22.7817292564
 10
2.1482456099
 20
22.7767083395
 10
2.1461462872
 20
22.7708424116
 10
2.1428540837
 20
22.7640754086
 10
2.1382049954
 20
22.7564107355
 10
2.1321503035
 20
22.7477959843
 10
2.1247622547
 20
22.7381367356
 10
2.1160603109
 20
22.7273627817
  0
LWPOLYLINE
  5
37E
100
AcDbEntity
  8
0
100
AcDbPolyline
 62
7
  6
CONTINUOUS
 90
19
 70
0
 10
1.9930798088
 20
15.8684301569
 10
1.9950815016
 20
15.9200135319
 10
2.0007034535
 20
15.9725671232
 10
2.0099456643
 20
16.0260909306
 10
2.0229329419
 20
16.0810049317
 10
2.0395404786
 20
16.136889149
 10
2.0593938506
 20
16.1924836504
 10
2.0825667908
 20
16.2477818547
 10
2.1089855665
 20
16.3027903432
 10
2.1380545556
 20
16.3562689273
 10
2.1698339608
 20
16.4081828536
 10
2.2042635795
 20
16.4585668756
 10
2.2405671822
 20
16.5062850653
 10
2.2787873384
 20
16.5512768654
 10
2.3188814786
 20
16.5936028331
 10
2.3599456643
 20
16.6323087127
 10
2.4016785826
 20
16.6670764186
 10
2.4443815464
 20
16.6982240364
 10
2.4880545556
 20
16.725751566
  0
LWPOLYLINE
  5
37F
100
AcDbEntity
  8
0
100
AcDbPolyline
 62
7
  6
CONTINUOUS
 90
16
 70
0
 10
2.2759225213
 20
16.0317399942
 10
2.2771890535
 20
16.058524833
 10
2.2806498804
 20
16.0857533901
 10
2.286305002
 20
16.1134256658
 10
2.294263657
 20
16.1418522846
 10
2.3044166066
 20
16.170722622
 10
2.3164361348
 20
16.1991048032
 10
2.330383146
 20
16.2269829002
 10
2.3461967358
 20
16.2543728412
 10
2.3633664743
 20
16.2803905355
 10
2.3819366112
 20
16.3049912084
 10
2.4018628968
 20
16.3282196347
 10
2.4225021519
 20
16.349326049
 10
2.4436399836
 20
16.3680605297
 10
2.4654907848
 20
16.3846729984
 10
2.4880545556
 20
16.3991634552
  0
LWPOLYLINE
  5
380
100
AcDbEntity
  8
RACCORDO
100
AcDbPolyline
 62
253
  6
CONTINUOUS
 90
6
 70
0
 10
-0.3742882707
 20
-10.0113659354
 10
-0.37689017
 20
-10.0390036201
 10
-0.3837305011
 20
-10.0631918023
 10
-0.3945933584
 20
-10.0831814525
 10
-0.4091969799
 20
-10.0984004944
 10
-0.418494748
 20
-10.1044435943
  0
LINE
  5
381
100
AcDbEntity
  8
RACCORDO
100
AcDbLine
 62
7
  6
CONTINUOUS
 10
-7.5615902478
 20
-6.4674936889
 11
-7.2568165382
 21
-6.26557405
  0
LINE
  5
382
100
AcDbEntity
  8
RACCORDO
100
AcDbLine
 62
7
  6
CONTINUOUS
 10
-6.4514326013
 20
-7.1084848005
 11
-6.1466588917
 21
-6.9065651615
  0
LINE
  5
383
100
AcDbEntity
  8
RACCORDO
100
AcDbLine
 62
7
  6
CONTINUOUS
 10
-8.8031288089
 20
-5.1955131783
 11
-9.3003712792
 21
-5.4635433134
  0
LINE
  5
384
100
AcDbEntity
  8
RACCORDO
100
AcDbLine
 62
7
  6
CONTINUOUS
 10
-7.6929711624
 20
-5.8365042899
 11
-8.1902136328
 21
-6.1045344249
  0
LINE
  5
385
100
AcDbEntity
  8
RACCORDO
100
AcDbLine
 62
7
  6
CONTINUOUS
 10
-9.3003712792
 20
-5.0208266613
 11
-8.8020028157
 21
-4.7712781464
  0
LINE
  5
386
100
AcDbEntity
  8
RACCORDO
100
AcDbLine
 62
7
  6
CONTINUOUS
 10
-8.1902136328
 20
-5.6618177728
 11
-7.6918451692
 21
-5.4122692579
  0
LWPOLYLINE
  5
387
100
AcDbEntity
  8
RACCORDO
100
AcDbPolyline
 62
253
  6
CONTINUOUS
 90
10
 70
0
 10
0.3385696423
 20
4.3007023636
 10
0.3321462732
 20
4.3273902289
 10
0.3217167422
 20
4.3557889327
 10
0.3075932239
 20
4.3850411537
 10
0.2901995531
 20
4.4142634066
 10
0.2700599797
 20
4.442570302
 10
0.2477841552
 20
4.4691017052
 10
0.2240463805
 20
4.4930522887
 10
0.199564608
 20
4.5136956126
 10
0.1750805765
 20
4.530404071
  0
LWPOLYLINE
  5
388
100
AcDbEntity
  8
RACCORDO
100
AcDbPolyline
 62
253
  6
CONTINUOUS
 90
31
 70
0
 10
2.5555158813
 20
9.2898164319
 10
2.5551956897
 20
9.3005965981
 10
2.5544002518
 20
9.3116319041
 10
2.5531317458
 20
9.3228920965
 10
2.5513936454
 20
9.3343463147
 10
2.549190714
 20
9.3459631469
 10
2.5465289962
 20
9.3577107144
 10
2.5434157923
 20
9.3695568025
 10
2.5398596373
 20
9.3814689397
 10
2.5358702857
 20
9.3934144557
 10
2.5314586781
 20
9.4053605976
 10
2.5266369107
 20
9.4172746162
 10
2.5214182065
 20
9.4291238445
 10
2.5158168683
 20
9.4408758115
 10
2.5098482612
 20
9.4524982839
 10
2.5035287767
 20
9.4639593528
 10
2.4968757746
 20
9.4752275537
 10
2.4899074744
 20
9.4862720465
 10
2.4826429223
 20
9.4970626475
 10
2.475101929
 20
9.5075699109
 10
2.4673052621
 20
9.5177648818
 10
2.4592745532
 20
9.5276193005
 10
2.4510320084
 20
9.5371059923
 10
2.4426000772
 20
9.5461991914
 10
2.4340016289
 20
9.5548742608
 10
2.4252582952
 20
9.5631091816
 10
2.4163959254
 20
9.5708794167
 10
2.4074444883
 20
9.5781592266
 10
2.398430556
 20
9.5849282403
 10
2.3893770118
 20
9.5911705019
 10
2.3803086406
 20
9.5968699695
  0
LINE
  5
389
100
AcDbEntity
  8
0
100
AcDbLine
 62
253
  6
CONTINUOUS
 10
2.4880545556
 20
16.3991634552
 11
2.4880545556
 21
16.725751566
  0
LINE
  5
38A
100
AcDbEntity
  8
RACCORDO
100
AcDbLine
 62
253
  6
CONTINUOUS
 10
2.5555158813
 20
9.2898164319
 11
2.5555158813
 21
6.6091246953
  0
LINE
  5
38B
100
AcDbEntity
  8
RACCORDO
100
AcDbLine
 62
253
  6
CONTINUOUS
 10
2.5555158813
 20
-24.1721600121
 11
2.5555158813
 21
-26.8528517486
  0
LINE
  5
38C
100
AcDbEntity
  8
RACCORDO
100
AcDbLine
 62
7
  6
CONTINUOUS
 10
2.7216758091
 20
-23.4458517801
 11
2.7216758091
 21
-23.6144508186
  0
LINE
  5
38D
100
AcDbEntity
  8
RACCORDO
100
AcDbLine
 62
7
  6
CONTINUOUS
 10
2.7216758091
 20
6.1063391112
 11
2.7216758091
 21
6.2749381497
  0
LINE
  5
38E
100
AcDbEntity
  8
0
100
AcDbLine
 62
253
  6
CONTINUOUS
 10
2.8516226882
 20
16.6090831384
 11
2.8516226882
 21
16.9356712491
  0
LWPOLYLINE
  5
38F
100
AcDbEntity
  8
RACCORDO
100
AcDbPolyline
 62
253
  6
CONTINUOUS
 90
17
 70
0
 10
2.5555158813
 20
-26.8528517486
 10
2.5551956897
 20
-26.8634388284
 10
2.5544002518
 20
-26.8737122264
 10
2.5531317458
 20
-26.8836437748
 10
2.5513936454
 20
-26.8932062511
 10
2.549190714
 20
-26.9023734275
 10
2.5465289962
 20
-26.9111201468
 10
2.5434157923
 20
-26.919422425
 10
2.5398596373
 20
-26.927257506
 10
2.5358702857
 20
-26.9346039031
 10
2.5314586781
 20
-26.9414414762
 10
2.5266369107
 20
-26.9477514835
 10
2.5214182065
 20
-26.9535166264
 10
2.5158168683
 20
-26.9587211083
 10
2.5098482612
 20
-26.9633506565
 10
2.5035287767
 20
-26.967392567
 10
2.5019390235
 20
-26.9682863971
  0
LINE
  5
390
100
AcDbEntity
  8
RACCORDO
100
AcDbLine
 62
7
  6
CONTINUOUS
 10
-5.3412749548
 20
-7.749475912
 11
-5.0365012453
 21
-7.5475562731
  0
LINE
  5
391
100
AcDbEntity
  8
RACCORDO
100
AcDbLine
 62
7
  6
CONTINUOUS
 10
-6.582813516
 20
-6.4774954014
 11
-7.0800559863
 21
-6.7455255365
  0
LINE
  5
392
100
AcDbEntity
  8
RACCORDO
100
AcDbLine
 62
7
  6
CONTINUOUS
 10
-5.4726558695
 20
-7.1184865129
 11
-5.9698983398
 21
-7.386516648
  0
LINE
  5
393
100
AcDbEntity
  8
RACCORDO
100
AcDbLine
 62
7
  6
CONTINUOUS
 10
-7.0800559863
 20
-6.3028088843
 11
-6.5816875227
 21
-6.0532603694
  0
LINE
  5
394
100
AcDbEntity
  8
RACCORDO
100
AcDbLine
 62
7
  6
CONTINUOUS
 10
-5.9698983398
 20
-6.9437999958
 11
-5.4715298763
 21
-6.6942514809
  0
LINE
  5
395
100
AcDbEntity
  8
RACCORDO
100
AcDbLine
 62
253
  6
CONTINUOUS
 10
-16.3530477481
 20
12.627557861
 11
-15.8615800767
 21
12.343790587
  0
LINE
  5
396
100
AcDbEntity
  8
RACCORDO
100
AcDbLine
 62
253
  6
CONTINUOUS
 10
-15.2428901017
 20
11.9865667494
 11
-14.7514224303
 21
11.7027994755
  0
LINE
  5
397
100
AcDbEntity
  8
RACCORDO
100
AcDbLine
 62
253
  6
CONTINUOUS
 10
-14.1327324552
 20
11.3455756379
 11
-13.6412647838
 21
11.061808364
  0
LINE
  5
398
100
AcDbEntity
  8
RACCORDO
100
AcDbLine
 62
253
  6
CONTINUOUS
 10
-13.0225748088
 20
10.7045845264
 11
-12.5311071374
 21
10.4208172525
  0
LINE
  5
399
100
AcDbEntity
  8
RACCORDO
100
AcDbLine
 62
253
  6
CONTINUOUS
 10
-11.9124171623
 20
10.0635934149
 11
-11.4209494909
 21
9.7798261409
  0
LINE
  5
39A
100
AcDbEntity
  8
RACCORDO
100
AcDbLine
 62
253
  6
CONTINUOUS
 10
-10.8022595158
 20
9.4226023033
 11
-10.3107918444
 21
9.1388350294
  0
LINE
  5
39B
100
AcDbEntity
  8
RACCORDO
100
AcDbLine
 62
253
  6
CONTINUOUS
 10
-9.6921018694
 20
8.7816111918
 11
-9.200634198
 21
8.4978439179
  0
LINE
  5
39C
100
AcDbEntity
  8
RACCORDO
100
AcDbLine
 62
253
  6
CONTINUOUS
 10
-8.5819442229
 20
8.1406200803
 11
-8.0904765515
 21
7.8568528064
  0
LINE
  5
39D
100
AcDbEntity
  8
RACCORDO
100
AcDbLine
 62
253
  6
CONTINUOUS
 10
-7.4717865764
 20
7.4996289688
 11
-6.980318905
 21
7.2158616948
  0
LINE
  5
39E
100
AcDbEntity
  8
RACCORDO
100
AcDbLine
 62
253
  6
CONTINUOUS
 10
-6.36162893
 20
6.8586378572
 11
-5.8701612586
 21
6.5748705833
  0
LINE
  5
39F
100
AcDbEntity
  8
RACCORDO
100
AcDbLine
 62
253
  6
CONTINUOUS
 10
-5.2514712835
 20
6.2176467457
 11
-4.7600036121
 21
5.9338794718
  0
LINE
  5
3A0
100
AcDbEntity
  8
RACCORDO
100
AcDbLine
 62
253
  6
CONTINUOUS
 10
-4.1413136371
 20
5.5766556342
 11
-3.6498459657
 21
5.2928883603
  0
LINE
  5
3A1
100
AcDbEntity
  8
RACCORDO
100
AcDbLine
 62
253
  6
CONTINUOUS
 10
-3.0311559906
 20
4.9356645227
 11
-2.5396883192
 21
4.6518972487
  0
LINE
  5
3A2
100
AcDbEntity
  8
RACCORDO
100
AcDbLine
 62
253
  6
CONTINUOUS
 10
-1.9209983441
 20
4.2946734111
 11
-1.4295306727
 21
4.0109061372
  0
LINE
  5
3A3
100
AcDbEntity
  8
RACCORDO
100
AcDbLine
 62
253
  6
CONTINUOUS
 10
-0.8108406977
 20
3.6536822996
 11
-0.4168399726
 21
3.426191213
  0
LINE
  5
3A4
100
AcDbEntity
  8
RACCORDO
100
AcDbLine
 62
253
  6
CONTINUOUS
 10
-17.3657384486
 20
13.2122727735
 11
-16.9717377232
 21
12.9847816986
  0
LINE
  5
3A5
100
AcDbEntity
  8
RACCORDO
100
AcDbLine
 62
253
  6
CONTINUOUS
 10
-16.7901216188
 20
14.3258989706
 11
-16.3573751023
 21
14.0760365556
  0
LINE
  5
3A6
100
AcDbEntity
  8
RACCORDO
100
AcDbLine
 62
253
  6
CONTINUOUS
 10
-15.7998731596
 20
13.754141921
 11
-15.2472174558
 21
13.435045444
  0
LINE
  5
3A7
100
AcDbEntity
  8
RACCORDO
100
AcDbLine
 62
253
  6
CONTINUOUS
 10
-14.6897155131
 20
13.1131508095
 11
-14.1370598093
 21
12.7940543325
  0
LINE
  5
3A8
100
AcDbEntity
  8
RACCORDO
100
AcDbLine
 62
253
  6
CONTINUOUS
 10
-13.5795578666
 20
12.472159698
 11
-13.0269021629
 21
12.153063221
  0
LINE
  5
3A9
100
AcDbEntity
  8
RACCORDO
100
AcDbLine
 62
253
  6
CONTINUOUS
 10
-12.4694002202
 20
11.8311685864
 11
-11.9167445164
 21
11.5120721095
  0
LINE
  5
3AA
100
AcDbEntity
  8
RACCORDO
100
AcDbLine
 62
253
  6
CONTINUOUS
 10
-11.3592425737
 20
11.1901774749
 11
-10.8065868699
 21
10.8710809979
  0
LINE
  5
3AB
100
AcDbEntity
  8
RACCORDO
100
AcDbLine
 62
253
  6
CONTINUOUS
 10
-10.2490849273
 20
10.5491863634
 11
-9.6964292235
 21
10.2300898864
  0
LINE
  5
3AC
100
AcDbEntity
  8
RACCORDO
100
AcDbLine
 62
253
  6
CONTINUOUS
 10
-9.1389272808
 20
9.9081952519
 11
-8.586271577
 21
9.5890987749
  0
LINE
  5
3AD
100
AcDbEntity
  8
RACCORDO
100
AcDbLine
 62
253
  6
CONTINUOUS
 10
-8.0287696343
 20
9.2672041403
 11
-7.4761139305
 21
8.9481076634
  0
LINE
  5
3AE
100
AcDbEntity
  8
RACCORDO
100
AcDbLine
 62
253
  6
CONTINUOUS
 10
-6.9186119879
 20
8.6262130288
 11
-6.3659562841
 21
8.3071165519
  0
LINE
  5
3AF
100
AcDbEntity
  8
RACCORDO
100
AcDbLine
 62
253
  6
CONTINUOUS
 10
-5.8084543414
 20
7.9852219173
 11
-5.2557986376
 21
7.6661254403
  0
LINE
  5
3B0
100
AcDbEntity
  8
RACCORDO
100
AcDbLine
 62
253
  6
CONTINUOUS
 10
-4.6982966949
 20
7.3442308058
 11
-4.1456409912
 21
7.0251343288
  0
LINE
  5
3B1
100
AcDbEntity
  8
RACCORDO
100
AcDbLine
 62
253
  6
CONTINUOUS
 10
-3.5881390485
 20
6.7032396942
 11
-3.0354833447
 21
6.3841432173
  0
LINE
  5
3B2
100
AcDbEntity
  8
RACCORDO
100
AcDbLine
 62
253
  6
CONTINUOUS
 10
-2.477981402
 20
6.0622485827
 11
-1.9253256982
 21
5.7431521058
  0
LINE
  5
3B3
100
AcDbEntity
  8
RACCORDO
100
AcDbLine
 62
253
  6
CONTINUOUS
 10
-1.3678237555
 20
5.4212574712
 11
-0.8151680518
 21
5.1021609942
  0
LINE
  5
3B4
100
AcDbEntity
  8
RACCORDO
100
AcDbLine
 62
253
  6
CONTINUOUS
 10
-0.2576661091
 20
4.7802663597
 11
0.1750804075
 21
4.5304039446
  0
LWPOLYLINE
  5
3B5
100
AcDbEntity
  8
RACCORDO
100
AcDbPolyline
 62
253
  6
CONTINUOUS
 90
60
 70
0
 10
4.654847057
 20
13.0860034003
 10
4.6550859878
 20
13.0735903403
 10
4.6567232857
 20
13.0510248823
 10
4.6599101908
 20
13.0285214041
 10
4.6646415984
 20
13.0061155099
 10
4.6709099773
 20
12.9838432185
 10
4.6787053464
 20
12.9617398567
 10
4.6880152642
 20
12.9398405082
 10
4.6988248838
 20
12.9181804409
 10
4.711116974
 20
12.8967940676
 10
4.7248719243
 20
12.8757153338
 10
4.7400677689
 20
12.8549781677
 10
4.7566802523
 20
12.8346155731
 10
4.7746828815
 20
12.8146598665
 10
4.7940469422
 20
12.7951430671
 10
4.8147415401
 20
12.77609626
 10
4.8367336662
 20
12.7575497101
 10
4.8599882589
 20
12.7395331032
 10
4.8844682326
 20
12.7220751639
 10
4.9101345343
 20
12.7052036704
 10
4.9369462255
 20
12.6889455749
 10
4.9648605405
 20
12.6733268411
 10
4.9938329544
 20
12.6583723478
 10
5.0238172549
 20
12.6441059114
 10
5.0547656069
 20
12.6305503618
 10
5.0866286545
 20
12.617727322
 10
5.1193556024
 20
12.6056571212
 10
5.1528942571
 20
12.5943591207
 10
5.1871911192
 20
12.58385139
 10
5.2221914981
 20
12.5741504978
 10
5.2578395935
 20
12.5652720594
 10
5.2940785221
 20
12.55723033
 10
5.3308504178
 20
12.5500378877
 10
5.3680966051
 20
12.543706386
 10
5.4057576932
 20
12.5382460395
 10
5.4437736064
 20
12.5336652229
 10
5.4820836356
 20
12.5299714583
 10
5.5206267432
 20
12.5271707832
 10
5.55934166
 20
12.5252672569
 10
5.5981667103
 20
12.5242641671
 10
5.6370398909
 20
12.5241633214
 10
5.6758991801
 20
12.5249644355
 10
5.7146827469
 20
12.5266665171
 10
5.753328569
 20
12.5292670824
 10
5.791774523
 20
12.5327614358
 10
5.829959055
 20
12.5371442392
 10
5.8678215003
 20
12.542408748
 10
5.9053016983
 20
12.548546027
 10
5.942339749
 20
12.5555465614
 10
5.9788767
 20
12.5633994718
 10
6.0148548379
 20
12.5720917783
 10
6.0502174183
 20
12.5816101574
 10
6.0849073133
 20
12.5919395934
 10
6.1188677633
 20
12.6030625405
 10
6.1520435144
 20
12.6149610861
 10
6.1843829202
 20
12.6276168744
 10
6.21583644
 20
12.6410098907
 10
6.2463544433
 20
12.6551191599
 10
6.2758874724
 20
12.6699226219
 10
6.3043883063
 20
12.6853970615
  0
LINE
  5
3B6
100
AcDbEntity
  8
RACCORDO
100
AcDbLine
 62
7
  6
CONTINUOUS
 10
4.6548470354
 20
12.0208190839
 11
4.6548470354
 21
13.0861226238
  0
LINE
  5
3B7
100
AcDbEntity
  8
RACCORDO
100
AcDbLine
 62
7
  6
CONTINUOUS
 10
6.11524866
 20
18.6000880336
 11
6.11524866
 21
19.0505655135
  0
LINE
  5
3B8
100
AcDbEntity
  8
RACCORDO
100
AcDbLine
 62
253
  6
CONTINUOUS
 10
6.3043883063
 20
-24.7996960227
 11
6.3043883063
 21
-26.0678653297
  0
LINE
  5
3B9
100
AcDbEntity
  8
RACCORDO
100
AcDbLine
 62
253
  6
CONTINUOUS
 10
6.3043883063
 20
11.4172277545
 11
6.3043883063
 21
12.6853970615
  0
LINE
  5
3BA
100
AcDbEntity
  8
SMUSSO
100
AcDbLine
 62
7
  6
CONTINUOUS
 10
6.3958046644
 20
14.5199786617
 11
6.3958046644
 21
14.4409148729
  0
LINE
  5
3BB
100
AcDbEntity
  8
RACCORDO
100
AcDbLine
 62
7
  6
CONTINUOUS
 10
6.6786473769
 20
8.5596363648
 11
6.6786473769
 21
-6.2185253861
  0
LINE
  5
3BC
100
AcDbEntity
  8
RACCORDO
100
AcDbLine
 62
7
  6
CONTINUOUS
 10
6.6786473769
 20
-21.4865195621
 11
6.6786473769
 21
-6.7083578112
  0
LINE
  5
3BD
100
AcDbEntity
  8
DRAFT
100
AcDbLine
 62
7
  6
CONTINUOUS
 10
6.6954888238
 20
8.8764755647
 11
6.6954888238
 21
-21.8228068427
  0
LWPOLYLINE
  5
3BE
100
AcDbEntity
  8
RACCORDO
100
AcDbPolyline
 62
253
  6
CONTINUOUS
 90
7
 70
0
 10
0.3385696423
 20
-24.2977434797
 10
0.3321378545
 20
-24.3267719285
 10
0.321695609
 20
-24.3524075033
 10
0.3075589657
 20
-24.3738742743
 10
0.2901558053
 20
-24.3905224907
 10
0.2700128791
 20
-24.4018482481
 10
0.2669600656
 20
-24.4030047181
  0
LINE
  5
3BF
100
AcDbEntity
  8
RACCORDO
100
AcDbLine
 62
7
  6
CONTINUOUS
 10
-4.2311173084
 20
-8.3904670235
 11
-3.9263435988
 21
-8.1885473846
  0
LINE
  5
3C0
100
AcDbEntity
  8
RACCORDO
100
AcDbLine
 62
7
  6
CONTINUOUS
 10
-3.1209596619
 20
-9.031458135
 11
-2.8161859523
 21
-8.8295384961
  0
LINE
  5
3C1
100
AcDbEntity
  8
RACCORDO
100
AcDbLine
 62
7
  6
CONTINUOUS
 10
-4.3624982231
 20
-7.7594776244
 11
-4.8597406934
 21
-8.0275077595
  0
LINE
  5
3C2
100
AcDbEntity
  8
RACCORDO
100
AcDbLine
 62
7
  6
CONTINUOUS
 10
-3.2523405766
 20
-8.400468736
 11
-3.7495830469
 21
-8.668498871
  0
LINE
  5
3C3
100
AcDbEntity
  8
RACCORDO
100
AcDbLine
 62
7
  6
CONTINUOUS
 10
-4.8597406934
 20
-7.5847911074
 11
-4.3613722298
 21
-7.3352425925
  0
LINE
  5
3C4
100
AcDbEntity
  8
RACCORDO
100
AcDbLine
 62
7
  6
CONTINUOUS
 10
-3.7495830469
 20
-8.2257822189
 11
-3.2512145833
 21
-7.976233704
  0
LINE
  5
3C5
100
AcDbEntity
  8
0
100
AcDbLine
 62
7
  6
CONTINUOUS
 10
-15.7295665189
 20
14.5238784891
 11
-15.2345917721
 21
14.2380862738
  0
LINE
  5
3C6
100
AcDbEntity
  8
0
100
AcDbLine
 62
7
  6
CONTINUOUS
 10
-14.6194088724
 20
13.8828873776
 11
-14.1244341256
 21
13.5970951623
  0
LINE
  5
3C7
100
AcDbEntity
  8
0
100
AcDbLine
 62
7
  6
CONTINUOUS
 10
-13.509251226
 20
13.2418962661
 11
-13.0142764791
 21
12.9561040507
  0
LINE
  5
3C8
100
AcDbEntity
  8
0
100
AcDbLine
 62
7
  6
CONTINUOUS
 10
-12.3990935795
 20
12.6009051546
 11
-11.9041188327
 21
12.3151129392
  0
LINE
  5
3C9
100
AcDbEntity
  8
0
100
AcDbLine
 62
7
  6
CONTINUOUS
 10
-11.2889359331
 20
11.959914043
 11
-10.7939611862
 21
11.6741218277
  0
LINE
  5
3CA
100
AcDbEntity
  8
0
100
AcDbLine
 62
7
  6
CONTINUOUS
 10
-10.1787782866
 20
11.3189229315
 11
-9.6838035398
 21
11.0331307162
  0
LINE
  5
3CB
100
AcDbEntity
  8
0
100
AcDbLine
 62
7
  6
CONTINUOUS
 10
-9.0686206401
 20
10.67793182
 11
-8.5736458933
 21
10.3921396046
  0
LINE
  5
3CC
100
AcDbEntity
  8
0
100
AcDbLine
 62
7
  6
CONTINUOUS
 10
-7.9584629937
 20
10.0369407085
 11
-7.4634882468
 21
9.7511484931
  0
LINE
  5
3CD
100
AcDbEntity
  8
0
100
AcDbLine
 62
7
  6
CONTINUOUS
 10
-6.8483053472
 20
9.3959495969
 11
-6.3533306004
 21
9.1101573816
  0
LINE
  5
3CE
100
AcDbEntity
  8
0
100
AcDbLine
 62
7
  6
CONTINUOUS
 10
-5.7381477007
 20
8.7549584854
 11
-5.2431729539
 21
8.4691662701
  0
LINE
  5
3CF
100
AcDbEntity
  8
0
100
AcDbLine
 62
7
  6
CONTINUOUS
 10
-4.6279900543
 20
8.1139673739
 11
-4.1330153074
 21
7.8281751585
  0
LINE
  5
3D0
100
AcDbEntity
  8
0
100
AcDbLine
 62
7
  6
CONTINUOUS
 10
-3.5178324078
 20
7.4729762624
 11
-3.022857661
 21
7.187184047
  0
LINE
  5
3D1
100
AcDbEntity
  8
0
100
AcDbLine
 62
7
  6
CONTINUOUS
 10
-2.4076747613
 20
6.8319851508
 11
-1.9127000145
 21
6.5461929355
  0
LINE
  5
3D2
100
AcDbEntity
  8
0
100
AcDbLine
 62
7
  6
CONTINUOUS
 10
-1.2975171149
 20
6.1909940393
 11
-0.8025423681
 21
5.905201824
  0
LINE
  5
3D3
100
AcDbEntity
  8
0
100
AcDbLine
 62
7
  6
CONTINUOUS
 10
-0.1873594684
 20
5.5500029278
 11
0.3076152784
 21
5.2642107125
  0
LINE
  5
3D4
100
AcDbEntity
  8
RACCORDO
100
AcDbLine
 62
7
  6
CONTINUOUS
 10
7.7746628877
 20
13.5197489511
 11
7.7746628877
 21
-25.2626358278
  0
LINE
  5
3D5
100
AcDbEntity
  8
RACCORDO
100
AcDbLine
 62
7
  6
CONTINUOUS
 10
-2.0108020154
 20
-9.6724492466
 11
-1.7060283059
 21
-9.4705296076
  0
LINE
  5
3D6
100
AcDbEntity
  8
RACCORDO
100
AcDbLine
 62
7
  6
CONTINUOUS
 10
-0.900644369
 20
-10.3134403581
 11
-0.6033175115
 21
-10.1164544311
  0
LWPOLYLINE
  5
3D7
100
AcDbEntity
  8
RACCORDO
100
AcDbPolyline
 62
253
  6
CONTINUOUS
 90
16
 70
0
 10
-0.5156880878
 20
-10.5357092902
 10
-0.5273352826
 20
-10.5432251302
 10
-0.5392628299
 20
-10.5520894873
 10
-0.5513701289
 20
-10.562341467
 10
-0.5635248248
 20
-10.5739856612
 10
-0.5756113904
 20
-10.5870347149
 10
-0.5875252226
 20
-10.6015193029
 10
-0.5990951641
 20
-10.6173960653
 10
-0.6101341313
 20
-10.6345886245
 10
-0.620473899
 20
-10.6530479372
 10
-0.6298880201
 20
-10.6726258385
 10
-0.6381381456
 20
-10.6931268351
 10
-0.6449978287
 20
-10.7143718021
 10
-0.6502089279
 20
-10.7360852066
 10
-0.653505201
 20
-10.7578929645
 10
-0.6546412141
 20
-10.7793893562
  0
LINE
  5
3D8
100
AcDbEntity
  8
RACCORDO
100
AcDbLine
 62
253
  6
CONTINUOUS
 10
6.5372475598
 20
-6.4634461441
 11
-0.5156880878
 21
-10.5357092902
  0
LINE
  5
3D9
100
AcDbEntity
  8
RACCORDO
100
AcDbLine
 62
7
  6
CONTINUOUS
 10
-2.1421829301
 20
-9.0414598475
 11
-2.6394254004
 21
-9.3094899826
  0
LINE
  5
3DA
100
AcDbEntity
  8
RACCORDO
100
AcDbLine
 62
7
  6
CONTINUOUS
 10
-1.0320252837
 20
-9.682450959
 11
-1.529267754
 21
-9.9504810941
  0
LINE
  5
3DB
100
AcDbEntity
  8
RACCORDO
100
AcDbLine
 62
253
  6
CONTINUOUS
 10
-0.3742882707
 20
-10.0113659354
 11
6.6786473769
 21
-6.2185253861
  0
LINE
  5
3DC
100
AcDbEntity
  8
RACCORDO
100
AcDbLine
 62
7
  6
CONTINUOUS
 10
-0.418494748
 20
-10.1044435943
 11
6.6354800047
 21
-6.3110442478
  0
LINE
  5
3DD
100
AcDbEntity
  8
RACCORDO
100
AcDbLine
 62
7
  6
CONTINUOUS
 10
-2.6394254004
 20
-8.8667733304
 11
-2.1410569369
 21
-8.6172248155
  0
LINE
  5
3DE
100
AcDbEntity
  8
RACCORDO
100
AcDbLine
 62
7
  6
CONTINUOUS
 10
-1.529267754
 20
-9.5077644419
 11
-1.0308992904
 21
-9.258215927
  0
LINE
  5
3DF
100
AcDbEntity
  8
RACCORDO
100
AcDbLine
 62
7
  6
CONTINUOUS
 10
2.5806615642
 20
6.3530695885
 11
-14.4670788988
 21
16.1962212735
  0
LINE
  5
3E0
100
AcDbEntity
  8
RACCORDO
100
AcDbLine
 62
7
  6
CONTINUOUS
 10
-14.7985987091
 20
16.4303485711
 11
2.2050745934
 21
6.6126407123
  0
LINE
  5
3E1
100
AcDbEntity
  8
RACCORDO
100
AcDbLine
 62
7
  6
CONTINUOUS
 10
2.580275992
 20
6.5198498168
 11
2.4761208132
 21
6.5799877117
  0
LINE
  5
3E2
100
AcDbEntity
  8
DRAFT
100
AcDbLine
 62
7
  6
CONTINUOUS
 10
8.9767444158
 20
16.7860210195
 11
8.9767444158
 21
17.3983737271
  0
LINE
  5
3E3
100
AcDbEntity
  8
RACCORDO
100
AcDbLine
 62
7
  6
CONTINUOUS
 10
11.0094586818
 20
17.9596867578
 11
11.0094586818
 21
17.9609604808
  0
LINE
  5
3E4
100
AcDbEntity
  8
RACCORDO
100
AcDbLine
 62
253
  6
CONTINUOUS
 10
6.6786473769
 20
-6.7083578112
 11
-0.3742882707
 21
-10.7806209573
  0
LWPOLYLINE
  5
3E5
100
AcDbEntity
  8
RACCORDO
100
AcDbPolyline
 62
253
  6
CONTINUOUS
 90
10
 70
0
 10
-0.3742882707
 20
-10.7806209573
 10
-0.4007584428
 20
-10.7943474715
 10
-0.4308976807
 20
-10.8038822114
 10
-0.463707357
 20
-10.8095259137
 10
-0.4981301034
 20
-10.8125211925
 10
-0.5326980268
 20
-10.8128016785
 10
-0.566106702
 20
-10.809076069
 10
-0.5978339974
 20
-10.8014727588
 10
-0.6275045749
 20
-10.7913766931
 10
-0.6546412141
 20
-10.7793893547
  0
LINE
  5
3E6
100
AcDbEntity
  8
RACCORDO
100
AcDbLine
 62
7
  6
CONTINUOUS
 10
-0.4460656999
 20
-10.1166870919
 11
-0.41853705
 21
-10.1044663233
  0
LWPOLYLINE
  5
3E7
100
AcDbEntity
  8
RACCORDO
100
AcDbPolyline
 62
253
  6
CONTINUOUS
 90
6
 70
0
 10
-0.3742882707
 20
-10.0113659354
 10
-0.4007580752
 20
-10.022478409
 10
-0.4308969736
 20
-10.0324467494
 10
-0.4637063966
 20
-10.0400914649
 10
-0.4981290029
 20
-10.0436270645
 10
-0.5326969196
 20
-10.0429067682
  0
LINE
  5
3E8
100
AcDbEntity
  8
RACCORDO
100
AcDbLine
 62
253
  6
CONTINUOUS
 10
2.2050745934
 20
9.2915822298
 11
-14.7985987091
 21
19.1092900886
  0
LINE
  5
3E9
100
AcDbEntity
  8
RACCORDO
100
AcDbLine
 62
253
  6
CONTINUOUS
 10
2.3803086406
 20
9.5968699695
 11
-14.6233646619
 21
19.4145778283
  0
LWPOLYLINE
  5
3EA
100
AcDbEntity
  8
RACCORDO
100
AcDbPolyline
 62
253
  6
CONTINUOUS
 90
7
 70
0
 10
13.9069469615
 20
16.5868302065
 10
13.9047636675
 20
16.5659705344
 10
13.8976085222
 20
16.5439483234
 10
13.8855898272
 20
16.5226436415
 10
13.8689086878
 20
16.5024129734
 10
13.8478442242
 20
16.4835948325
 10
13.8227489016
 20
16.4665040971
  0
LWPOLYLINE
  5
3EB
100
AcDbEntity
  8
RACCORDO
100
AcDbPolyline
 62
7
  6
CONTINUOUS
 90
8
 70
0
 10
6.3043883063
 20
11.4172277545
 10
6.2862120283
 20
11.41753496
 10
6.2675469716
 20
11.4180503489
 10
6.2484016597
 20
11.4187827643
 10
6.2287876157
 20
11.4197643962
 10
6.2087119456
 20
11.4209804552
 10
6.1881768377
 20
11.422369542
 10
6.1671940285
 20
11.4239427791
  0
LWPOLYLINE
  5
3EC
100
AcDbEntity
  8
RACCORDO
100
AcDbPolyline
 62
7
  6
CONTINUOUS
 90
8
 70
0
 10
5.8561999964
 20
11.4525869683
 10
5.8295076868
 20
11.4545028036
 10
5.8024415581
 20
11.4562191514
 10
5.7750283681
 20
11.4577260945
 10
5.7472845287
 20
11.4588011303
 10
5.7192295072
 20
11.4593783016
 10
5.6908858819
 20
11.4595480053
 10
5.6622763681
 20
11.4593220651
  0
LWPOLYLINE
  5
3ED
100
AcDbEntity
  8
RACCORDO
100
AcDbPolyline
 62
7
  6
CONTINUOUS
 90
3
 70
0
 10
6.1671940285
 20
11.4239427791
 10
6.1239100668
 20
11.4275936223
 10
6.1016198092
 20
11.429616352
  0
LWPOLYLINE
  5
3EE
100
AcDbEntity
  8
RACCORDO
100
AcDbPolyline
 62
7
  6
CONTINUOUS
 90
3
 70
0
 10
5.9340010457
 20
11.4458993643
 10
5.908448945
 20
11.4482061804
 10
5.8561999964
 20
11.4525869683
  0
LINE
  5
3EF
100
AcDbEntity
  8
RACCORDO
100
AcDbLine
 62
7
  6
CONTINUOUS
 10
6.1016198092
 20
11.429616352
 11
5.9340010457
 21
11.4458993643
  0
LINE
  5
3F0
100
AcDbEntity
  8
DRAFT
100
AcDbLine
 62
7
  6
CONTINUOUS
 10
-5.2932367439
 20
18.1888316532
 11
0.1950445088
 21
15.0199668422
  0
LWPOLYLINE
  5
3F1
100
AcDbEntity
  8
RACCORDO
100
AcDbPolyline
 62
7
  6
CONTINUOUS
 90
12
 70
0
 10
13.9069047337
 20
16.5946603075
 10
13.9035432708
 20
16.6665581535
 10
13.8947553132
 20
16.7352690821
 10
13.8806619963
 20
16.8005668105
 10
13.8613980944
 20
16.8623340075
 10
13.837085837
 20
16.9203935634
 10
13.8078675479
 20
16.9744900504
 10
13.7739675388
 20
17.0243228769
 10
13.7357484552
 20
17.069486006
 10
13.6935880257
 20
17.1096641272
 10
13.6479484549
 20
17.144572619
 10
13.6146783834
 20
17.1654922366
  0
LINE
  5
3F2
100
AcDbEntity
  8
RACCORDO
100
AcDbLine
 62
253
  6
CONTINUOUS
 10
13.8227489016
 20
16.4665040971
 11
13.8227489016
 21
12.9915581764
  0
LINE
  5
3F3
100
AcDbEntity
  8
RACCORDO
100
AcDbLine
 62
253
  6
CONTINUOUS
 10
13.8227489016
 20
-20.9770628051
 11
13.8227489016
 21
-17.5021168844
  0
LINE
  5
3F4
100
AcDbEntity
  8
RACCORDO
100
AcDbLine
 62
7
  6
CONTINUOUS
 10
13.9069047337
 20
16.5946603075
 11
13.9069469615
 21
13.3371295006
  0
LINE
  5
3F5
100
AcDbEntity
  8
RACCORDO
100
AcDbLine
 62
7
  6
CONTINUOUS
 10
13.9069469615
 20
-20.8567366929
 11
13.9069469615
 21
-17.6070359864
  0
LWPOLYLINE
  5
3F6
100
AcDbEntity
  8
RACCORDO
100
AcDbPolyline
 62
7
  6
CONTINUOUS
 90
10
 70
0
 10
13.906946961
 20
13.3371329976
 10
13.9064558948
 20
13.3125209098
 10
13.9039637969
 20
13.2755834222
 10
13.8993057274
 20
13.2374949745
 10
13.8924199807
 20
13.1983009022
 10
13.8832786467
 20
13.1581910047
 10
13.8717773263
 20
13.117307967
 10
13.8578436545
 20
13.0758052273
 10
13.8414937347
 20
13.0338343742
 10
13.8227489016
 20
12.9915581764
  0
LINE
  5
3F7
100
AcDbEntity
  8
RACCORDO
100
AcDbLine
 62
7
  6
CONTINUOUS
 10
13.9053464006
 20
-20.9129607452
 11
13.9069334194
 21
-20.8566848721
  0
LWPOLYLINE
  5
3F8
100
AcDbEntity
  8
RACCORDO
100
AcDbPolyline
 62
253
  6
CONTINUOUS
 90
7
 70
0
 10
13.3406579901
 20
-21.8368134653
 10
13.3390495714
 20
-21.8676082325
 10
13.3337771648
 20
-21.8958181527
 10
13.3249308842
 20
-21.9209606085
 10
13.3126619816
 20
-21.9426054408
 10
13.2971802658
 20
-21.9603823039
 10
13.2807395387
 20
-21.9728081258
  0
LWPOLYLINE
  5
3F9
100
AcDbEntity
  8
RACCORDO
100
AcDbPolyline
 62
253
  6
CONTINUOUS
 90
15
 70
0
 10
-11.0031206429
 20
22.8844268875
 10
-11.0135734725
 20
22.8899110563
 10
-11.0239857219
 20
22.8946891776
 10
-11.034322166
 20
22.8987450866
 10
-11.0445478364
 20
22.9020650619
 10
-11.0546281395
 20
22.9046378719
 10
-11.0645289732
 20
22.9064548126
 10
-11.0742168428
 20
22.907509737
 10
-11.0836589738
 20
22.9077990762
 10
-11.0928234233
 20
22.9073218511
 10
-11.1016791876
 20
22.9060796763
 10
-11.1101963074
 20
22.9040767537
 10
-11.1183459688
 20
22.9013198592
 10
-11.1261006015
 20
22.8978183195
 10
-11.1314808997
 20
22.8948084405
  0
LINE
  5
3FA
100
AcDbEntity
  8
ASSI
100
AcDbLine
 62
7
  6
CONTINUOUS
 10
0.7688793802
 20
15.3512913511
 11
0.7556429417
 21
15.3583630997
  0
LWPOLYLINE
  5
3FB
100
AcDbEntity
  8
RACCORDO
100
AcDbPolyline
 62
253
  6
CONTINUOUS
 90
15
 70
0
 10
5.1107323816
 20
13.5856892149
 10
5.1003675509
 20
13.5912269936
 10
5.0900430067
 20
13.5960584749
 10
5.0797936805
 20
13.6001673121
 10
5.0696542496
 20
13.6035396032
 10
5.0596590192
 20
13.6061639387
 10
5.0498418067
 20
13.6080314391
 10
5.0402358273
 20
13.6091357861
 10
5.0308735813
 20
13.609473243
 10
5.0217867448
 20
13.609042668
 10
5.0130060617
 20
13.6078455178
 10
5.0045612402
 20
13.6058858426
 10
4.9964808524
 20
13.6031702726
 10
4.988792237
 20
13.5997079953
 10
4.9840111721
 20
13.5970589928
  0
LINE
  5
3FC
100
AcDbEntity
  8
ASSI
100
AcDbLine
 62
7
  6
CONTINUOUS
 10
0.5859597064
 20
15.4563360732
 11
0.7556429417
 21
15.3583630997
  0
LINE
  5
3FD
100
AcDbEntity
  8
RACCORDO
100
AcDbLine
 62
7
  6
CONTINUOUS
 10
1.9930798088
 20
15.6234890738
 11
0.5316783485
 21
16.4672839613
  0
LINE
  5
3FE
100
AcDbEntity
  8
RACCORDO
100
AcDbLine
 62
7
  6
CONTINUOUS
 10
-5.0308001052
 20
19.6789893063
 11
-6.4922015655
 21
20.5227841938
  0
LINE
  5
3FF
100
AcDbEntity
  8
0
100
AcDbLine
 62
253
  6
CONTINUOUS
 10
1.9930798088
 20
15.8684301569
 11
-6.4922015655
 21
20.7677252768
  0
LWPOLYLINE
  5
400
100
AcDbEntity
  8
RACCORDO
100
AcDbPolyline
 62
7
  6
CONTINUOUS
 90
25
 70
0
 10
-5.0308001052
 20
19.6789893063
 10
-5.0220089913
 20
19.6735916852
 10
-5.0133172244
 20
19.6676399419
 10
-5.0047248045
 20
19.6611340765
 10
-4.9961997513
 20
19.6540450791
 10
-4.9877740452
 20
19.6464019595
 10
-4.9795436263
 20
19.638291747
 10
-4.9715107268
 20
19.6297091027
 10
-4.9636731146
 20
19.6206593656
 10
-4.9561200336
 20
19.6112455815
 10
-4.948854736
 20
19.6014635895
 10
-4.9418739696
 20
19.5913175505
 10
-4.9352572218
 20
19.5809229937
 10
-4.9290086532
 20
19.5702770785
 10
-4.9231241033
 20
19.5593826455
 10
-4.917670577
 20
19.5483637455
 10
-4.9126530011
 20
19.5372189557
 10
-4.9080664489
 20
19.525949699
 10
-4.9039631457
 20
19.514684294
 10
-4.9003486151
 20
19.5034227848
 10
-4.8972173336
 20
19.4921651273
 10
-4.8946049558
 20
19.4810395083
 10
-4.8925233668
 20
19.4700886566
 10
-4.8909606814
 20
19.4592698433
 10
-4.8899168999
 20
19.4485830685
  0
LWPOLYLINE
  5
401
100
AcDbEntity
  8
RACCORDO
100
AcDbPolyline
 62
253
  6
CONTINUOUS
 90
28
 70
0
 10
-9.975745311
 20
22.2964323566
 10
-9.9655546255
 20
22.2901016374
 10
-9.9553931994
 20
22.2831047749
 10
-9.9452954125
 20
22.2754654419
 10
-9.935295429
 20
22.267209485
 10
-9.9254270826
 20
22.258364837
 10
-9.9157237612
 20
22.2489614226
 10
-9.9062182948
 20
22.2390310568
 10
-9.8969428437
 20
22.2286073375
 10
-9.88792879
 20
22.217725532
 10
-9.8792066314
 20
22.2064224572
 10
-9.8708058783
 20
22.1947363555
 10
-9.8627549532
 20
22.1827067651
 10
-9.8550810953
 20
22.1703743864
 10
-9.847810268
 20
22.1577809441
 10
-9.8409670711
 20
22.1449690465
 10
-9.8345746576
 20
22.1319820406
 10
-9.8286546553
 20
22.1188638662
 10
-9.8232270936
 20
22.1056589067
 10
-9.8183103359
 20
22.0924118391
 10
-9.8139210174
 20
22.0791674831
 10
-9.8100739887
 20
22.065970649
 10
-9.8067822656
 20
22.0528659863
 10
-9.8040569853
 20
22.0398978328
 10
-9.8019073682
 20
22.0271100643
 10
-9.8003406874
 20
22.0145459465
 10
-9.7993622434
 20
22.0022479881
 10
-9.7989753468
 20
21.9902577977
  0
LWPOLYLINE
  5
402
100
AcDbEntity
  8
RACCORDO
100
AcDbPolyline
 62
253
  6
CONTINUOUS
 90
28
 70
0
 10
6.1291810656
 20
12.9924505992
 10
6.1392804089
 20
12.9860682004
 10
6.1493508046
 20
12.9790198976
 10
6.1593581844
 20
12.9713295356
 10
6.169268693
 20
12.9630231308
 10
6.1790488029
 20
12.9541287843
 10
6.1886654276
 20
12.9446765857
 10
6.1980860339
 20
12.9346985121
 10
6.2072787517
 20
12.9242283197
 10
6.2162124816
 20
12.9133014293
 10
6.2248570007
 20
12.9019548069
 10
6.2331830643
 20
12.8902268386
 10
6.2411625051
 20
12.8781572002
 10
6.2487683284
 20
12.8657867238
 10
6.2559748035
 20
12.853157259
 10
6.2627575508
 20
12.8403115316
 10
6.2690936239
 20
12.827292999
 10
6.2749615879
 20
12.8141457034
 10
6.2803415911
 20
12.8009141224
 10
6.2852154329
 20
12.7876430188
 10
6.289566625
 20
12.7743772891
 10
6.2933804471
 20
12.7611618116
 10
6.2966439971
 20
12.7480412947
 10
6.2993462341
 20
12.7350601254
 10
6.3014780166
 20
12.7222622194
 10
6.3030321325
 20
12.7096908723
 10
6.3040033242
 20
12.6973886134
 10
6.3043883063
 20
12.6853970615
  0
LWPOLYLINE
  5
403
100
AcDbEntity
  8
RACCORDO
100
AcDbPolyline
 62
7
  6
CONTINUOUS
 90
3
 70
0
 10
13.8871113863
 20
-21.0602522998
 10
13.8986977493
 20
-20.9864991366
 10
13.9053464006
 20
-20.9129607452
  0
LINE
  5
404
100
AcDbEntity
  8
0
100
AcDbLine
 62
7
  6
CONTINUOUS
 10
2.9171750919
 20
16.6349440048
 11
6.3629616447
 21
17.3317323742
  0
LINE
  5
405
100
AcDbEntity
  8
0
100
AcDbLine
 62
7
  6
CONTINUOUS
 10
3.0045782968
 20
16.9960132708
 11
7.2312073928
 21
17.8506994072
  0
LINE
  5
406
100
AcDbEntity
  8
RACCORDO
100
AcDbLine
 62
7
  6
CONTINUOUS
 10
4.2192465521
 20
18.0685298017
 11
2.2690008674
 21
17.6741616394
  0
LWPOLYLINE
  5
407
100
AcDbEntity
  8
RACCORDO
100
AcDbPolyline
 62
7
  6
CONTINUOUS
 90
25
 70
0
 10
2.2690008674
 20
17.6741616394
 10
2.2598287627
 20
17.6725513369
 10
2.2501764421
 20
17.6713056529
 10
2.2400439055
 20
17.6704245873
 10
2.2293837866
 20
17.6699074918
 10
2.2182434518
 20
17.6697550147
 10
2.2067649999
 20
17.6699691008
 10
2.1949440997
 20
17.6705544459
 10
2.1827850823
 20
17.6715063543
 10
2.1704430404
 20
17.672812684
 10
2.1579156294
 20
17.6744779752
 10
2.1452051937
 20
17.6764976877
 10
2.1324738595
 20
17.6788460595
 10
2.1197213591
 20
17.6815273005
 10
2.10694796
 20
17.6845372008
 10
2.0943165916
 20
17.687837368
 10
2.0818290731
 20
17.6914315204
 10
2.0694835853
 20
17.6953159397
 10
2.057437599
 20
17.6994410788
 10
2.0456949509
 20
17.7038100212
 10
2.0342518044
 20
17.7084196834
 10
2.0232541208
 20
17.7132112675
 10
2.0127505539
 20
17.7181651743
 10
2.0026924499
 20
17.7233010031
 10
1.9930798088
 20
17.7286187537
  0
LINE
  5
408
100
AcDbEntity
  8
0
100
AcDbLine
 62
253
  6
CONTINUOUS
 10
2.4880545556
 20
16.725751566
 11
-5.9972268186
 21
21.6250466859
  0
LINE
  5
409
100
AcDbEntity
  8
RACCORDO
100
AcDbLine
 62
7
  6
CONTINUOUS
 10
7.5978861914
 20
13.8259118536
 11
6.3958046644
 21
14.5199786617
  0
LINE
  5
40A
100
AcDbEntity
  8
RACCORDO
100
AcDbLine
 62
7
  6
CONTINUOUS
 10
-8.3827270624
 20
23.0529176623
 11
-9.5848085894
 21
23.7469844703
  0
LINE
  5
40B
100
AcDbEntity
  8
0
100
AcDbLine
 62
253
  6
CONTINUOUS
 10
2.8516226882
 20
16.9356712491
 11
-5.633658686
 21
21.8349663691
  0
LINE
  5
40C
100
AcDbEntity
  8
0
100
AcDbLine
 62
253
  6
CONTINUOUS
 10
3.0045782968
 20
16.9960132708
 11
-5.4807030775
 21
21.8953083907
  0
LINE
  5
40D
100
AcDbEntity
  8
RACCORDO
100
AcDbLine
 62
7
  6
CONTINUOUS
 10
1.9930798088
 20
17.7286187537
 11
-0.0575298567
 21
18.9126150744
  0
LINE
  5
40E
100
AcDbEntity
  8
RACCORDO
100
AcDbLine
 62
7
  6
CONTINUOUS
 10
-2.037428844
 20
20.0557839357
 11
-4.0880385094
 21
21.2397802563
  0
LWPOLYLINE
  5
40F
100
AcDbEntity
  8
RACCORDO
100
AcDbPolyline
 62
7
  6
CONTINUOUS
 90
15
 70
0
 10
-4.0880385094
 20
21.2397802563
 10
-4.0970547749
 20
21.2452186029
 10
-4.1053899629
 20
21.2507028304
 10
-4.1130440733
 20
21.2562329389
 10
-4.1200439724
 20
21.2618329335
 10
-4.126362794
 20
21.267478809
 10
-4.1319199392
 20
21.2730985505
 10
-4.1367056512
 20
21.278691823
 10
-4.1407296869
 20
21.2842589615
 10
-4.1439407183
 20
21.289728955
 10
-4.1463283309
 20
21.2951005593
 10
-4.1479029393
 20
21.3003750186
 10
-4.1486444587
 20
21.3054850555
 10
-4.1485422174
 20
21.3104285637
 10
-4.1479183063
 20
21.3140310585
  0
LWPOLYLINE
  5
410
100
AcDbEntity
  8
RACCORDO
100
AcDbPolyline
 62
7
  6
CONTINUOUS
 90
15
 70
0
 10
-0.0575298567
 20
18.9126150744
 10
-0.0665461222
 20
18.9180534209
 10
-0.0748813101
 20
18.9235376484
 10
-0.0825354205
 20
18.9290677569
 10
-0.0895353196
 20
18.9346677515
 10
-0.0958541412
 20
18.940313627
 10
-0.1014112865
 20
18.9459333685
 10
-0.1061969985
 20
18.9515266411
 10
-0.1102210341
 20
18.9570937795
 10
-0.1134320655
 20
18.9625637731
 10
-0.1158196782
 20
18.9679353773
 10
-0.1173942865
 20
18.9732098366
 10
-0.1181358059
 20
18.9783198735
 10
-0.1180335646
 20
18.9832633817
 10
-0.1174096536
 20
18.9868658766
  0
LINE
  5
411
100
AcDbEntity
  8
RACCORDO
100
AcDbLine
 62
253
  6
CONTINUOUS
 10
17.507424151
 20
-15.2612527749
 11
17.507424151
 21
15.1568451265
  0
LINE
  5
412
100
AcDbEntity
  8
RACCORDO
100
AcDbLine
 62
7
  6
CONTINUOUS
 10
17.6477542508
 20
-15.0607092564
 11
17.6477542508
 21
15.357388645
  0
LWPOLYLINE
  5
413
100
AcDbEntity
  8
RACCORDO
100
AcDbPolyline
 62
253
  6
CONTINUOUS
 90
9
 70
0
 10
17.507424151
 20
-15.2612527749
 10
17.5057709936
 20
-15.3026311702
 10
17.5001961292
 20
-15.3413596467
 10
17.4907606004
 20
-15.3770139557
 10
17.4775677347
 20
-15.4092035303
 10
17.4607620275
 20
-15.4375757263
 10
17.4405275742
 20
-15.4618197007
 10
17.417086016
 20
-15.4816698702
 10
17.4076059552
 20
-15.4878826241
  0
LWPOLYLINE
  5
414
100
AcDbEntity
  8
RACCORDO
100
AcDbPolyline
 62
7
  6
CONTINUOUS
 90
5
 70
0
 10
17.6477542203
 20
-15.0606083757
 10
17.6451700489
 20
-15.1114785753
 10
17.6373923965
 20
-15.1619736414
 10
17.6244956044
 20
-15.2114330687
 10
17.6065553361
 20
-15.2594592604
  0
LWPOLYLINE
  5
415
100
AcDbEntity
  8
RACCORDO
100
AcDbPolyline
 62
253
  6
CONTINUOUS
 90
3
 70
0
 10
17.6454785128
 20
-15.0882219906
 10
17.647278979
 20
-15.0732937323
 10
17.6477542508
 20
-15.0607092564
  0
LINE
  5
416
100
AcDbEntity
  8
RACCORDO
100
AcDbLine
 62
7
  6
CONTINUOUS
 10
0.2415235796
 20
18.7399453683
 11
1.7983909693
 21
19.0547666937
  0
LINE
  5
417
100
AcDbEntity
  8
RACCORDO
100
AcDbLine
 62
7
  6
CONTINUOUS
 10
-0.0644515105
 20
19.0214677973
 11
1.8857941742
 21
19.4158359597
  0
LWPOLYLINE
  5
418
100
AcDbEntity
  8
RACCORDO
100
AcDbPolyline
 62
7
  6
CONTINUOUS
 90
25
 70
0
 10
1.8857941742
 20
19.4158359597
 10
1.8949662789
 20
19.4174462621
 10
1.9046185995
 20
19.4186919461
 10
1.9147511361
 20
19.4195730117
 10
1.925411255
 20
19.4200901072
 10
1.9365515898
 20
19.4202425843
 10
1.9480300417
 20
19.4200284982
 10
1.9598509419
 20
19.4194431531
 10
1.9720099593
 20
19.4184912448
 10
1.9843520012
 20
19.417184915
 10
1.9968794122
 20
19.4155196239
 10
2.0095898479
 20
19.4134999113
 10
2.0223211821
 20
19.4111515396
 10
2.0350736825
 20
19.4084702985
 10
2.0478470816
 20
19.4054603982
 10
2.06047845
 20
19.402160231
 10
2.0729659684
 20
19.3985660786
 10
2.0853114563
 20
19.3946816593
 10
2.0973574426
 20
19.3905565203
 10
2.1091000907
 20
19.3861875778
 10
2.1205432372
 20
19.3815779156
 10
2.1315409208
 20
19.3767863315
 10
2.1420444877
 20
19.3718324247
 10
2.1521025917
 20
19.366696596
 10
2.1617152328
 20
19.3613788453
  0
LINE
  5
419
100
AcDbEntity
  8
ASSI
100
AcDbLine
 62
7
  6
CONTINUOUS
 10
6.4092031025
 20
19.2144179731
 11
7.4767005587
 21
19.3753644029
  0
LWPOLYLINE
  5
41A
100
AcDbEntity
  8
RACCORDO
100
AcDbPolyline
 62
7
  6
CONTINUOUS
 90
25
 70
0
 10
2.0743120279
 20
19.0003095794
 10
2.0646993868
 20
19.00562733
 10
2.0546412828
 20
19.0107631588
 10
2.0441377159
 20
19.0157170656
 10
2.0331400323
 20
19.0205086497
 10
2.0216968858
 20
19.0251183119
 10
2.0099542377
 20
19.0294872543
 10
1.9979082514
 20
19.0336123934
 10
1.9855627636
 20
19.0374968127
 10
1.9730752451
 20
19.0410909651
 10
1.9604438767
 20
19.0443911323
 10
1.9476704776
 20
19.0474010326
 10
1.9349179772
 20
19.0500822736
 10
1.922186643
 20
19.0524306454
 10
1.9094762073
 20
19.0544503579
 10
1.8969487963
 20
19.0561156491
 10
1.8846067544
 20
19.0574219788
 10
1.872447737
 20
19.0583738872
 10
1.8606268368
 20
19.0589592323
 10
1.8491483849
 20
19.0591733184
 10
1.8380080501
 20
19.0590208413
 10
1.8273479313
 20
19.0585037458
 10
1.8172153946
 20
19.0576226801
 10
1.807563074
 20
19.0563769961
 10
1.7983909693
 20
19.0547666937
  0
LWPOLYLINE
  5
41B
100
AcDbEntity
  8
RACCORDO
100
AcDbPolyline
 62
7
  6
CONTINUOUS
 90
25
 70
0
 10
-1.9561966248
 20
21.3274747613
 10
-1.9658092659
 20
21.332792512
 10
-1.9758673699
 20
21.3379283407
 10
-1.9863709368
 20
21.3428822475
 10
-1.9973686204
 20
21.3476738317
 10
-2.008811767
 20
21.3522834939
 10
-2.0205544151
 20
21.3566524363
 10
-2.0326004013
 20
21.3607775754
 10
-2.0449458892
 20
21.3646619946
 10
-2.0574334077
 20
21.368256147
 10
-2.0700647761
 20
21.3715563142
 10
-2.0828381751
 20
21.3745662145
 10
-2.0955906756
 20
21.3772474556
 10
-2.1083220098
 20
21.3795958274
 10
-2.1210324454
 20
21.3816155399
 10
-2.1335598565
 20
21.3832808311
 10
-2.1459018984
 20
21.3845871608
 10
-2.1580609157
 20
21.3855390692
 10
-2.169881816
 20
21.3861244142
 10
-2.1813602679
 20
21.3863385004
 10
-2.1925006027
 20
21.3861860233
 10
-2.2031607215
 20
21.3856689277
 10
-2.2132932581
 20
21.3847878621
 10
-2.2229455788
 20
21.3835421781
 10
-2.2321176835
 20
21.3819318757
  0
LINE
  5
41C
100
AcDbEntity
  8
RACCORDO
100
AcDbLine
 62
7
  6
CONTINUOUS
 10
-1.9561966248
 20
21.3274747613
 11
-0.2046403957
 21
20.3161481468
  0
LINE
  5
41D
100
AcDbEntity
  8
RACCORDO
100
AcDbLine
 62
7
  6
CONTINUOUS
 10
2.0743120279
 20
19.0003095794
 11
3.8258682571
 21
17.9889829648
  0
LINE
  5
41E
100
AcDbEntity
  8
RACCORDO
100
AcDbLine
 62
7
  6
CONTINUOUS
 10
-1.8687934199
 20
21.6885440273
 11
0.1818162455
 21
20.5045477066
  0
LINE
  5
41F
100
AcDbEntity
  8
RACCORDO
100
AcDbLine
 62
7
  6
CONTINUOUS
 10
2.1617152328
 20
19.3613788453
 11
4.2123248983
 21
18.1773825246
  0
LINE
  5
420
100
AcDbEntity
  8
RACCORDO
100
AcDbLine
 62
253
  6
CONTINUOUS
 10
5.9738380267
 20
18.3565642151
 11
7.0438843711
 21
17.7387328667
  0
LINE
  5
421
100
AcDbEntity
  8
DRAFT
100
AcDbLine
 62
7
  6
CONTINUOUS
 10
-3.996378311
 20
24.2765394905
 11
-2.8580680795
 21
23.6192934292
  0
LINE
  5
422
100
AcDbEntity
  8
DRAFT
100
AcDbLine
 62
7
  6
CONTINUOUS
 10
8.9767444158
 20
16.7860210195
 11
9.7058687589
 21
16.3650337618
  0
LINE
  5
423
100
AcDbEntity
  8
RACCORDO
100
AcDbLine
 62
253
  6
CONTINUOUS
 10
6.11524866
 20
18.6000880336
 11
7.3206018756
 21
17.9041321935
  0
LINE
  5
424
100
AcDbEntity
  8
RACCORDO
100
AcDbLine
 62
7
  6
CONTINUOUS
 10
-0.835347316
 20
22.8346671748
 11
0.6142215855
 21
21.9977042584
  0
LINE
  5
425
100
AcDbEntity
  8
DRAFT
100
AcDbLine
 62
7
  6
CONTINUOUS
 10
-2.3369640832
 20
23.9307672203
 11
0.5245316725
 21
22.2785754339
  0
LINE
  5
426
100
AcDbEntity
  8
DRAFT
100
AcDbLine
 62
7
  6
CONTINUOUS
 10
6.11524866
 20
19.0505655135
 11
8.9767444158
 21
17.3983737271
  0
LWPOLYLINE
  5
427
100
AcDbEntity
  8
RACCORDO
100
AcDbPolyline
 62
7
  6
CONTINUOUS
 90
15
 70
0
 10
0.1818162455
 20
20.5045477066
 10
0.190832511
 20
20.4991093601
 10
0.199167699
 20
20.4936251326
 10
0.2068218094
 20
20.488095024
 10
0.2138217085
 20
20.4824950295
 10
0.22014053
 20
20.4768491539
 10
0.2256976753
 20
20.4712294125
 10
0.2304833873
 20
20.4656361399
 10
0.234507423
 20
20.4600690015
 10
0.2377184543
 20
20.4545990079
 10
0.240106067
 20
20.4492274037
 10
0.2416806754
 20
20.4439529443
 10
0.2424221947
 20
20.4388429075
 10
0.2423199534
 20
20.4338993993
 10
0.2416960424
 20
20.4302969044
  0
LWPOLYLINE
  5
428
100
AcDbEntity
  8
RACCORDO
100
AcDbPolyline
 62
7
  6
CONTINUOUS
 90
15
 70
0
 10
4.2123248983
 20
18.1773825246
 10
4.2213411638
 20
18.1719441781
 10
4.2296763517
 20
18.1664599506
 10
4.2373304621
 20
18.1609298421
 10
4.2443303612
 20
18.1553298475
 10
4.2506491828
 20
18.149683972
 10
4.2562063281
 20
18.1440642305
 10
4.26099204
 20
18.138470958
 10
4.2650160757
 20
18.1329038195
 10
4.2682271071
 20
18.1274338259
 10
4.2706147198
 20
18.1220622217
 10
4.2721893281
 20
18.1167877624
 10
4.2729308475
 20
18.1116777255
 10
4.2728286062
 20
18.1067342173
 10
4.2722046952
 20
18.1031317224
  0
LWPOLYLINE
  5
429
100
AcDbEntity
  8
RACCORDO
100
AcDbPolyline
 62
253
  6
CONTINUOUS
 90
10
 70
0
 10
-0.1365971325
 20
-23.9451981922
 10
-0.1633482061
 20
-23.9588021063
 10
-0.1934218174
 20
-23.9695347881
 10
-0.2259257781
 20
-23.9770778355
 10
-0.2598957955
 20
-23.9812074773
 10
-0.2943240872
 20
-23.9818011973
 10
-0.328189279
 20
-23.9788413648
 10
-0.3604866952
 20
-23.9724157804
 10
-0.3902581639
 20
-23.962715075
 10
-0.416620451
 20
-23.9500270374
  0
LINE
  5
42A
100
AcDbEntity
  8
RACCORDO
100
AcDbLine
 62
7
  6
CONTINUOUS
 10
0.1887378993
 20
20.3956949836
 11
-1.7615077854
 21
20.0013268213
  0
LINE
  5
42B
100
AcDbEntity
  8
RACCORDO
100
AcDbLine
 62
7
  6
CONTINUOUS
 10
2.2250923588
 20
22.2131934744
 11
0.8901426441
 21
21.9432471441
  0
LINE
  5
42C
100
AcDbEntity
  8
RACCORDO
100
AcDbLine
 62
7
  6
CONTINUOUS
 10
-3.7889850731
 20
21.0671105502
 11
-2.2321176835
 21
21.3819318757
  0
LINE
  5
42D
100
AcDbEntity
  8
RACCORDO
100
AcDbLine
 62
7
  6
CONTINUOUS
 10
-4.0949601633
 20
21.3486329793
 11
-2.1447144786
 21
21.7430011416
  0
LWPOLYLINE
  5
42E
100
AcDbEntity
  8
RACCORDO
100
AcDbPolyline
 62
7
  6
CONTINUOUS
 90
25
 70
0
 10
-1.7615077854
 20
20.0013268213
 10
-1.7706798901
 20
19.9997165189
 10
-1.7803322107
 20
19.9984708349
 10
-1.7904647473
 20
19.9975897693
 10
-1.8011248662
 20
19.9970726738
 10
-1.812265201
 20
19.9969201966
 10
-1.8237436529
 20
19.9971342828
 10
-1.8355645531
 20
19.9977196279
 10
-1.8477235704
 20
19.9986715362
 10
-1.8600656123
 20
19.9999778659
 10
-1.8725930234
 20
20.0016431571
 10
-1.885303459
 20
20.0036628697
 10
-1.8980347932
 20
20.0060112414
 10
-1.9107872937
 20
20.0086924825
 10
-1.9235606927
 20
20.0117023828
 10
-1.9361920612
 20
20.01500255
 10
-1.9486795796
 20
20.0185967024
 10
-1.9610250675
 20
20.0224811217
 10
-1.9730710537
 20
20.0266062607
 10
-1.9848137019
 20
20.0309752031
 10
-1.9962568484
 20
20.0355848654
 10
-2.007254532
 20
20.0403764495
 10
-2.0177580989
 20
20.0453303563
 10
-2.0278162029
 20
20.050466185
 10
-2.037428844
 20
20.0557839357
  0
LWPOLYLINE
  5
42F
100
AcDbEntity
  8
RACCORDO
100
AcDbPolyline
 62
7
  6
CONTINUOUS
 90
25
 70
0
 10
0.8901426441
 20
21.9432471441
 10
0.8809705394
 20
21.9416368417
 10
0.8713182187
 20
21.9403911576
 10
0.8611856821
 20
21.939510092
 10
0.8505255633
 20
21.9389929965
 10
0.8393852285
 20
21.9388405194
 10
0.8279067766
 20
21.9390546055
 10
0.8160858764
 20
21.9396399506
 10
0.803926859
 20
21.940591859
 10
0.7915848171
 20
21.9418981887
 10
0.7790574061
 20
21.9435634799
 10
0.7663469704
 20
21.9455831924
 10
0.7536156362
 20
21.9479315642
 10
0.7408631358
 20
21.9506128052
 10
0.7280897367
 20
21.9536227055
 10
0.7154583683
 20
21.9569228727
 10
0.7029708498
 20
21.9605170251
 10
0.690625362
 20
21.9644014444
 10
0.6785793757
 20
21.9685265835
 10
0.6668367276
 20
21.9728955259
 10
0.6553935811
 20
21.9775051881
 10
0.6443958975
 20
21.9822967722
 10
0.6338923305
 20
21.987250679
 10
0.6238342265
 20
21.9923865078
 10
0.6142215855
 20
21.9977042584
  0
LWPOLYLINE
  5
430
100
AcDbEntity
  8
RACCORDO
100
AcDbPolyline
 62
7
  6
CONTINUOUS
 90
25
 70
0
 10
-2.1447144786
 20
21.7430011416
 10
-2.1355423739
 20
21.744611444
 10
-2.1258900532
 20
21.745857128
 10
-2.1157575166
 20
21.7467381937
 10
-2.1050973978
 20
21.7472552892
 10
-2.093957063
 20
21.7474077663
 10
-2.0824786111
 20
21.7471936801
 10
-2.0706577108
 20
21.7466083351
 10
-2.0584986935
 20
21.7456564267
 10
-2.0461566516
 20
21.744350097
 10
-2.0336292405
 20
21.7426848058
 10
-2.0209188049
 20
21.7406650933
 10
-2.0081874707
 20
21.7383167215
 10
-1.9954349702
 20
21.7356354805
 10
-1.9826615712
 20
21.7326255802
 10
-1.9700302028
 20
21.7293254129
 10
-1.9575426843
 20
21.7257312606
 10
-1.9451971965
 20
21.7218468413
 10
-1.9331512102
 20
21.7177217022
 10
-1.9214085621
 20
21.7133527598
 10
-1.9099654155
 20
21.7087430976
 10
-1.8989677319
 20
21.7039515135
 10
-1.888464165
 20
21.6989976067
 10
-1.878406061
 20
21.6938617779
 10
-1.8687934199
 20
21.6885440273
  0
LWPOLYLINE
  5
431
100
AcDbEntity
  8
RACCORDO
100
AcDbPolyline
 62
7
  6
CONTINUOUS
 90
12
 70
0
 10
7.9223937045
 20
19.3748586506
 10
7.9585226071
 20
19.3697966223
 10
7.994360008
 20
19.3630295717
 10
8.0298864453
 20
19.3546277064
 10
8.0651019462
 20
19.344643716
 10
8.0999829556
 20
19.3331717384
 10
8.1344766559
 20
19.3203335587
 10
8.1685704119
 20
19.3061947969
 10
8.2022661757
 20
19.2908130755
 10
8.2355283769
 20
19.2742768982
 10
8.2683506567
 20
19.2566410599
 10
8.2848999987
 20
19.2472519487
  0
LWPOLYLINE
  5
432
100
AcDbEntity
  8
0
100
AcDbPolyline
 62
7
  6
CONTINUOUS
 90
7
 70
0
 10
2.4784495246
 20
22.1801851662
 10
2.470779248
 20
22.1844569939
 10
2.4416650191
 20
22.1981941041
 10
2.4111227288
 20
22.208867929
 10
2.3792691673
 20
22.2164275196
 10
2.3459875445
 20
22.2209238249
 10
2.3112778603
 20
22.2223568449
  0
LINE
  5
433
100
AcDbEntity
  8
DRAFT
100
AcDbLine
 62
7
  6
CONTINUOUS
 10
-0.7778471465
 20
23.364130712
 11
0.8133998987
 21
22.4453646111
  0
LINE
  5
434
100
AcDbEntity
  8
DRAFT
100
AcDbLine
 62
7
  6
CONTINUOUS
 10
6.4092031025
 20
19.2144179731
 11
8.0004501477
 21
18.2956518722
  0
LINE
  5
435
100
AcDbEntity
  8
0
100
AcDbLine
 62
253
  6
CONTINUOUS
 10
7.209747689
 20
19.3351159591
 11
2.2250923588
 21
22.2131934744
  0
LINE
  5
436
100
AcDbEntity
  8
0
100
AcDbLine
 62
7
  6
CONTINUOUS
 10
2.478456892
 20
22.1801979351
 11
7.3653376478
 21
19.3585742337
  0
LINE
  5
437
100
AcDbEntity
  8
RACCORDO
100
AcDbLine
 62
253
  6
CONTINUOUS
 10
0.6055029294
 20
23.599539682
 11
2.1160603109
 21
22.7273627817
  0
LINE
  5
438
100
AcDbEntity
  8
RACCORDO
100
AcDbLine
 62
253
  6
CONTINUOUS
 10
7.9223937045
 20
19.3748586506
 11
8.9196345958
 21
18.7990642583
  0
LINE
  5
439
100
AcDbEntity
  8
RACCORDO
100
AcDbLine
 62
7
  6
CONTINUOUS
 10
0.7970259383
 20
23.5706565862
 11
2.1434039214
 21
22.7932748128
  0
LINE
  5
43A
100
AcDbEntity
  8
RACCORDO
100
AcDbLine
 62
7
  6
CONTINUOUS
 10
8.2849009843
 20
19.2472513797
 11
8.9922528247
 21
18.8388352923
  0
LINE
  5
43B
100
AcDbEntity
  8
ASSI
100
AcDbLine
 62
7
  6
CONTINUOUS
 10
11.7743738238
 20
17.5180343414
 11
11.0094586818
 21
17.9596867578
  0
LINE
  5
43C
100
AcDbEntity
  8
ASSI
100
AcDbLine
 62
7
  6
CONTINUOUS
 10
-0.8080742228
 20
24.7829821484
 11
-1.2269103668
 21
25.0248128887
  0
LINE
  5
43D
100
AcDbEntity
  8
RACCORDO
100
AcDbLine
 62
253
  6
CONTINUOUS
 10
10.4848701772
 20
18.2691481221
 11
9.251911238
 21
18.9810431611
  0
LINE
  5
43E
100
AcDbEntity
  8
RACCORDO
100
AcDbLine
 62
253
  6
CONTINUOUS
 10
0.4306747804
 20
24.0743145356
 11
-0.8022841588
 21
24.7862095745
  0
LINE
  5
43F
100
AcDbEntity
  8
RACCORDO
100
AcDbLine
 62
7
  6
CONTINUOUS
 10
10.8544757258
 20
18.3057640103
 11
9.6312789674
 21
19.0120224884
  0
LINE
  5
440
100
AcDbEntity
  8
RACCORDO
100
AcDbLine
 62
7
  6
CONTINUOUS
 10
0.7970259383
 20
24.1128094682
 11
-0.4261708201
 21
24.8190679462
  0
LINE
  5
441
100
AcDbEntity
  8
RACCORDO
100
AcDbLine
 62
253
  6
CONTINUOUS
 10
13.1267072278
 20
17.1160950145
 11
12.1082499754
 21
17.7041394678
  0
LINE
  5
442
100
AcDbEntity
  8
RACCORDO
100
AcDbLine
 62
253
  6
CONTINUOUS
 10
-2.7691226895
 20
26.2941479872
 11
-3.7875799419
 21
26.8821924405
  0
LINE
  5
443
100
AcDbEntity
  8
RACCORDO
100
AcDbLine
 62
7
  6
CONTINUOUS
 10
13.6145267137
 20
17.1655884614
 11
12.6064133379
 21
17.7476604899
  0
LINE
  5
444
100
AcDbEntity
  8
RACCORDO
100
AcDbLine
 62
7
  6
CONTINUOUS
 10
-2.2795789166
 20
26.3426458524
 11
-3.2876924093
 21
26.9247179484
  0
LWPOLYLINE
  5
445
100
AcDbEntity
  8
RACCORDO
100
AcDbPolyline
 62
253
  6
CONTINUOUS
 90
13
 70
0
 10
13.1267072278
 20
17.1160950145
 10
13.1548572488
 20
17.0982811995
 10
13.1824938989
 20
17.0765636751
 10
13.209144385
 20
17.0513140262
 10
13.2343528157
 20
17.0229642309
 10
13.2576879333
 20
16.9919993399
 10
13.2787505088
 20
16.9589491985
 10
13.2971802567
 20
16.9243792646
 10
13.312661974
 20
16.8888809232
 10
13.3249308788
 20
16.853061455
 10
13.3337771617
 20
16.8175336077
 10
13.3390495704
 20
16.7829051129
 10
13.3406579901
 20
16.7497683002
  0
LWPOLYLINE
  5
446
100
AcDbEntity
  8
RACCORDO
100
AcDbPolyline
 62
7
  6
CONTINUOUS
 90
5
 70
0
 10
2.1434081488
 20
22.7932723719
 10
2.1450661733
 20
22.7921487778
 10
2.1474975896
 20
22.7894295738
 10
2.1488627599
 20
22.7859723408
 10
2.1491899554
 20
22.7829382636
  0
LWPOLYLINE
  5
447
100
AcDbEntity
  8
RACCORDO
100
AcDbPolyline
 62
7
  6
CONTINUOUS
 90
7
 70
0
 10
17.6065553361
 20
-15.2594592604
 10
17.5838078311
 20
-15.3053666892
 10
17.5564531963
 20
-15.3487459921
 10
17.5245064584
 20
-15.3894306796
 10
17.4881657365
 20
-15.4269329691
 10
17.4479261821
 20
-15.4605798263
 10
17.4076059552
 20
-15.4878826241
  0
LWPOLYLINE
  5
448
100
AcDbEntity
  8
RACCORDO
100
AcDbPolyline
 62
253
  6
CONTINUOUS
 90
14
 70
0
 10
17.507424151
 20
-15.2612527749
 10
17.524912488
 20
-15.25023986
 10
17.5413865315
 20
-15.2387222487
 10
17.5568029603
 20
-15.22673115
 10
17.571120442
 20
-15.2142998231
 10
17.5843025729
 20
-15.2014610712
 10
17.5963172236
 20
-15.1882468936
 10
17.6071320542
 20
-15.1746932549
 10
17.6167189188
 20
-15.1608358684
 10
17.6250549143
 20
-15.146707193
 10
17.6321167498
 20
-15.1323447994
 10
17.6378845158
 20
-15.1177869304
 10
17.6423429698
 20
-15.1030676185
 10
17.6454785128
 20
-15.0882219906
  0
LINE
  5
449
100
AcDbEntity
  8
RACCORDO
100
AcDbLine
 62
253
  6
CONTINUOUS
 10
17.4076059552
 20
-15.4878826241
 11
17.4075600603
 21
-15.4879105454
  0
LINE
  5
44A
100
AcDbEntity
  8
RACCORDO
100
AcDbLine
 62
253
  6
CONTINUOUS
 10
13.8227489016
 20
-17.5021168844
 11
17.507424151
 21
-15.2612527749
  0
LINE
  5
44B
100
AcDbEntity
  8
RACCORDO
100
AcDbLine
 62
7
  6
CONTINUOUS
 10
13.9112976697
 20
-17.6141898993
 11
17.4075600603
 21
-15.4879105454
  0
LINE
  5
44C
100
AcDbEntity
  8
RACCORDO
100
AcDbLine
 62
7
  6
CONTINUOUS
 10
6.6954888238
 20
-21.8228068427
 11
2.5555158813
 21
-24.1721600121
  0
LINE
  5
44D
100
AcDbEntity
  8
RACCORDO
100
AcDbLine
 62
253
  6
CONTINUOUS
 10
2.7216758091
 20
-23.6144508186
 11
6.6786473769
 21
-21.4865195621
  0
LINE
  5
44E
100
AcDbEntity
  8
RACCORDO
100
AcDbLine
 62
7
  6
CONTINUOUS
 10
2.7386224528
 20
-23.674642308
 11
6.6354800047
 21
-21.5790384238
  0
LINE
  5
44F
100
AcDbEntity
  8
RACCORDO
100
AcDbLine
 62
253
  6
CONTINUOUS
 10
0.3385696423
 20
-24.2977434797
 11
2.7216758091
 21
-23.4458517801
  0
LINE
  5
450
100
AcDbEntity
  8
RACCORDO
100
AcDbLine
 62
7
  6
CONTINUOUS
 10
0.2669600656
 20
-24.4030047181
 11
2.6686247715
 21
-23.5444788763
  0
LINE
  5
451
100
AcDbEntity
  8
RACCORDO
100
AcDbLine
 62
253
  6
CONTINUOUS
 10
0.2583460596
 20
-24.3206121348
 11
0.3385696423
 21
-24.2977434797
  0
LINE
  5
452
100
AcDbEntity
  8
0
100
AcDbLine
 62
7
  6
CONTINUOUS
 10
-5.4807030775
 20
21.8953083907
 11
-0.835347316
 21
22.8346671748
  0
LINE
  5
453
100
AcDbEntity
  8
RACCORDO
100
AcDbLine
 62
7
  6
CONTINUOUS
 10
-0.7778471465
 20
23.364130712
 11
0.6055029294
 21
23.599539682
  0
LINE
  5
454
100
AcDbEntity
  8
ASSI
100
AcDbLine
 62
7
  6
CONTINUOUS
 10
0.8133998987
 20
22.4453646111
 11
1.8624267272
 21
22.6169757498
  0
LWPOLYLINE
  5
455
100
AcDbEntity
  8
0
100
AcDbPolyline
 62
7
  6
CONTINUOUS
 90
7
 70
0
 10
2.3112778603
 20
22.2223568449
 10
2.2973293177
 20
22.2220544229
 10
2.283214492
 20
22.2212620783
 10
2.2689333833
 20
22.2199798112
 10
2.2544859915
 20
22.2182076215
 10
2.2398723167
 20
22.2159455092
 10
2.2250923588
 20
22.2131934744
  0
LWPOLYLINE
  5
456
100
AcDbEntity
  8
RACCORDO
100
AcDbPolyline
 62
253
  6
CONTINUOUS
 90
3
 70
0
 10
0.8879978928
 20
25.320017774
 10
0.9019603649
 20
25.31419228
 10
0.9143253046
 20
25.3077266347
  0
LWPOLYLINE
  5
457
100
AcDbEntity
  8
RACCORDO
100
AcDbPolyline
 62
7
  6
CONTINUOUS
 90
5
 70
0
 10
0.9144126014
 20
25.3076761954
 10
0.8690451728
 20
25.3308840684
 10
0.8214243472
 20
25.349395622
 10
0.7721408023
 20
25.3629556864
 10
0.7215766548
 20
25.3714309834
  0
LWPOLYLINE
  5
458
100
AcDbEntity
  8
RACCORDO
100
AcDbPolyline
 62
7
  6
CONTINUOUS
 90
13
 70
0
 10
-3.2879021229
 20
26.9248302675
 10
-3.3227817876
 20
26.9432940937
 10
-3.3721547567
 20
26.96424144
 10
-3.4237509101
 20
26.9803808241
 10
-3.477185443
 20
26.9915712541
 10
-3.5320883963
 20
26.9977284306
 10
-3.5885239226
 20
26.9987938399
 10
-3.6462195048
 20
26.9946374323
 10
-3.7048887137
 20
26.9851797331
 10
-3.7647304322
 20
26.9702276991
 10
-3.8257072162
 20
26.9495201665
 10
-3.8874378383
 20
26.9229141126
 10
-3.933484782
 20
26.8993308824
  0
LINE
  5
459
100
AcDbEntity
  8
RACCORDO
100
AcDbLine
 62
253
  6
CONTINUOUS
 10
0.6673985207
 20
25.2847219129
 11
17.150839547
 21
15.7673896504
  0
LINE
  5
45A
100
AcDbEntity
  8
RACCORDO
100
AcDbLine
 62
7
  6
CONTINUOUS
 10
0.9143253046
 20
25.3077266347
 11
17.3977663309
 21
15.7903943722
  0
LWPOLYLINE
  5
45B
100
AcDbEntity
  8
RACCORDO
100
AcDbPolyline
 62
253
  6
CONTINUOUS
 90
16
 70
0
 10
17.150839547
 20
15.7673896504
 10
17.1884144865
 20
15.7441772013
 10
17.2255441201
 20
15.7167278197
 10
17.2618217251
 20
15.685342158
 10
17.2968499304
 20
15.6503639662
 10
17.3302449981
 20
15.6121763959
 10
17.3616410395
 20
15.5711978246
 10
17.3906941275
 20
15.5278771482
 10
17.417086016
 20
15.4826888971
 10
17.4405275742
 20
15.4361281274
 10
17.4607620275
 20
15.3887048775
 10
17.4775677347
 20
15.3409386294
 10
17.4907606004
 20
15.2933526754
 10
17.5001961292
 20
15.2464682909
 10
17.5057709936
 20
15.2007990243
 10
17.507424151
 20
15.1568451265
  0
LWPOLYLINE
  5
45C
100
AcDbEntity
  8
RACCORDO
100
AcDbPolyline
 62
7
  6
CONTINUOUS
 90
14
 70
0
 10
13.385698439
 20
-21.8995311102
 10
13.4425445006
 20
-21.851498509
 10
13.4968966694
 20
-21.7995046498
 10
13.5486766206
 20
-21.743861344
 10
13.5977479058
 20
-21.6848754528
 10
13.6439501095
 20
-21.6228955679
 10
13.6871065619
 20
-21.5582449662
 10
13.7269959919
 20
-21.4912941866
 10
13.7634464089
 20
-21.4223833585
 10
13.7962613641
 20
-21.3518377809
 10
13.8252262055
 20
-21.2800325102
 10
13.8501661847
 20
-21.207285052
 10
13.8708633301
 20
-21.1339256643
 10
13.8871113863
 20
-21.0602522998
  0
LWPOLYLINE
  5
45D
100
AcDbEntity
  8
RACCORDO
100
AcDbPolyline
 62
253
  6
CONTINUOUS
 90
7
 70
0
 10
13.8227489016
 20
-20.9770628051
 10
13.8478442242
 20
-20.9599720696
 10
13.8689086877
 20
-20.9411539285
 10
13.8855898271
 20
-20.9209232601
 10
13.8976085221
 20
-20.8996185777
 10
13.9047636674
 20
-20.877596366
 10
13.9069469615
 20
-20.8567366929
  0
LWPOLYLINE
  5
45E
100
AcDbEntity
  8
RACCORDO
100
AcDbPolyline
 62
253
  6
CONTINUOUS
 90
22
 70
0
 10
13.3406579901
 20
-21.8368134653
 10
13.376906238
 20
-21.8131643646
 10
13.412605909
 20
-21.786767087
 10
13.447757003
 20
-21.7576216325
 10
13.4825680764
 20
-21.7255257071
 10
13.5168305728
 20
-21.6906816049
 10
13.5499188236
 20
-21.6536962077
 10
13.5817961441
 20
-21.6145416846
 10
13.6124992191
 20
-21.5732458666
 10
13.6415124344
 20
-21.5304991281
 10
13.6688052458
 20
-21.4862778733
 10
13.6944081976
 20
-21.4406056981
 10
13.7178973086
 20
-21.3942437652
 10
13.739235099
 20
-21.3471839372
 10
13.7584590485
 20
-21.2994343514
 10
13.7752576152
 20
-21.2517805827
 10
13.789591544
 20
-21.2042022107
 10
13.80150009
 20
-21.1567196557
 10
13.8107894764
 20
-21.110179754
 10
13.8173951111
 20
-21.0648647844
 10
13.8213815861
 20
-21.0204924681
 10
13.8227489016
 20
-20.9770628051
  0
LWPOLYLINE
  5
45F
100
AcDbEntity
  8
RACCORDO
100
AcDbPolyline
 62
7
  6
CONTINUOUS
 90
3
 70
0
 10
13.2806877705
 20
-21.9728275235
 10
13.3264802376
 20
-21.9432127771
 10
13.385698439
 20
-21.8995311102
  0
LINE
  5
460
100
AcDbEntity
  8
RACCORDO
100
AcDbLine
 62
253
  6
CONTINUOUS
 10
7.7746628877
 20
-25.2218169771
 11
13.3406579901
 21
-21.8368134653
  0
LINE
  5
461
100
AcDbEntity
  8
RACCORDO
100
AcDbLine
 62
7
  6
CONTINUOUS
 10
7.7631595779
 20
-25.3283675901
 11
13.2807395387
 21
-21.9728081258
  0
LWPOLYLINE
  5
462
100
AcDbEntity
  8
RACCORDO
100
AcDbPolyline
 62
253
  6
CONTINUOUS
 90
15
 70
0
 10
6.2508245358
 20
-26.1832928091
 10
6.2559747748
 20
-26.1802206626
 10
6.2627575246
 20
-26.1753282129
 10
6.2690936005
 20
-26.169720938
 10
6.2749615674
 20
-26.1634178076
 10
6.2803415737
 20
-26.1564401451
 10
6.2852154185
 20
-26.1488115562
 10
6.2895666135
 20
-26.1405578486
 10
6.2933804384
 20
-26.1317069448
 10
6.2966439907
 20
-26.1222887876
 10
6.2993462299
 20
-26.112335239
 10
6.3014780141
 20
-26.101879972
 10
6.3030321313
 20
-26.0909583573
 10
6.3040033239
 20
-26.0796073429
 10
6.3043883063
 20
-26.0678653296
  0
LWPOLYLINE
  5
463
100
AcDbEntity
  8
RACCORDO
100
AcDbPolyline
 62
7
  6
CONTINUOUS
 90
16
 70
0
 10
5.9815377148
 20
-25.0625996232
 10
6.0082791458
 20
-25.0474275577
 10
6.0322286478
 20
-25.0328646922
 10
6.0557764421
 20
-25.0177087774
 10
6.0789113369
 20
-25.0019742478
 10
6.1016198092
 20
-24.9856661597
 10
6.1239100668
 20
-24.9688678256
 10
6.1457725185
 20
-24.9515904121
 10
6.1671940285
 20
-24.9338409791
 10
6.1881768377
 20
-24.9156953144
 10
6.2087119456
 20
-24.8971631269
 10
6.2287876157
 20
-24.8782523193
 10
6.2484016597
 20
-24.8590351697
 10
6.2675469716
 20
-24.8395414477
 10
6.2862120283
 20
-24.8197587844
 10
6.3043883063
 20
-24.7996960227
  0
LINE
  5
464
100
AcDbEntity
  8
RACCORDO
100
AcDbLine
 62
253
  6
CONTINUOUS
 10
2.5555158813
 20
-26.8528517486
 11
6.3043883063
 21
-24.7996960227
  0
LINE
  5
465
100
AcDbEntity
  8
RACCORDO
100
AcDbLine
 62
7
  6
CONTINUOUS
 10
2.5019390235
 20
-26.9682863971
 11
5.981539544
 21
-25.0626035883
  0
LINE
  5
466
100
AcDbEntity
  8
RACCORDO
100
AcDbLine
 62
253
  6
CONTINUOUS
 10
7.7746628877
 20
-25.2626358278
 11
6.3043883063
 21
-26.0678653297
  0
LINE
  5
467
100
AcDbEntity
  8
RACCORDO
100
AcDbLine
 62
7
  6
CONTINUOUS
 10
7.7212616096
 20
-25.3779743161
 11
6.2508114483
 21
-26.1832999783
  0
LWPOLYLINE
  5
468
100
AcDbEntity
  8
RACCORDO
100
AcDbPolyline
 62
253
  6
CONTINUOUS
 90
55
 70
0
 10
6.3043883063
 20
-26.0678653297
 10
6.2758871061
 20
-26.0829274144
 10
6.2463537985
 20
-26.0973207154
 10
6.2158356172
 20
-26.1110220244
 10
6.184382082
 20
-26.1240086363
 10
6.1520427862
 20
-26.1362602392
 10
6.1188671203
 20
-26.1477587788
 10
6.084906663
 20
-26.1584859199
 10
6.0502167281
 20
-26.1684237223
 10
6.0148541068
 20
-26.1775565184
 10
5.9788759306
 20
-26.1858693302
 10
5.9423389406
 20
-26.1933487967
 10
5.9053008745
 20
-26.1999837084
 10
5.8678207065
 20
-26.2057632199
 10
5.8299583167
 20
-26.2106777866
 10
5.7917738285
 20
-26.2147201475
 10
5.7533278921
 20
-26.2178836016
 10
5.7146820748
 20
-26.2201627648
 10
5.6758985025
 20
-26.2215544781
 10
5.6370391923
 20
-26.2220563111
 10
5.5981659805
 20
-26.2216672164
 10
5.5593409074
 20
-26.2203882851
 10
5.5206259829
 20
-26.2182213855
 10
5.482082876
 20
-26.215169746
 10
5.4437728531
 20
-26.2112386219
 10
5.4057569535
 20
-26.2064341161
 10
5.3680958843
 20
-26.2007636861
 10
5.3308497145
 20
-26.1942367086
 10
5.2940778324
 20
-26.1868634671
 10
5.2578389158
 20
-26.1786555456
 10
5.2221908321
 20
-26.1696263157
 10
5.1871904641
 20
-26.159790106
 10
5.1528936124
 20
-26.1491624582
 10
5.1193549701
 20
-26.1377605137
 10
5.0866280373
 20
-26.1256024189
 10
5.0547650064
 20
-26.1127074582
 10
5.0238166724
 20
-26.0990963039
 10
4.9938323912
 20
-26.0847906573
 10
4.9648599979
 20
-26.0698132699
 10
4.9369457038
 20
-26.0541880673
 10
4.9101340337
 20
-26.0379400066
 10
4.8844677537
 20
-26.0210949729
 10
4.8599878026
 20
-26.0036797928
 10
4.8367332337
 20
-25.9857223224
 10
4.8147411322
 20
-25.9672512082
 10
4.79404656
 20
-25.9482957764
 10
4.7746825263
 20
-25.9288863687
 10
4.756679925
 20
-25.9090539936
 10
4.7400674691
 20
-25.8888300804
 10
4.7248716514
 20
-25.8682470191
 10
4.7111167279
 20
-25.8473377399
 10
4.6988246643
 20
-25.8261353618
 10
4.6880150706
 20
-25.8046738979
 10
4.6787051792
 20
-25.7829876931
 10
4.6766607671
 20
-25.7772502951
  0
LWPOLYLINE
  5
469
100
AcDbEntity
  8
RACCORDO
100
AcDbPolyline
 62
253
  6
CONTINUOUS
 90
28
 70
0
 10
2.5555158813
 20
-26.8528517486
 10
2.5448847301
 20
-26.8584472276
 10
2.5337137421
 20
-26.863680399
 10
2.5220399002
 20
-26.8685339323
 10
2.509901833
 20
-26.8729917607
 10
2.4973397447
 20
-26.8770391125
 10
2.4843952888
 20
-26.8806625666
 10
2.4711113455
 20
-26.883850124
 10
2.4575318832
 20
-26.886591238
 10
2.4437018753
 20
-26.888876834
 10
2.4296670946
 20
-26.89069935
 10
2.4154740318
 20
-26.8920527516
 10
2.4011697539
 20
-26.8929325582
 10
2.3868016985
 20
-26.8933358667
 10
2.372417363
 20
-26.8932613587
 10
2.35806422
 20
-26.8927092834
 10
2.3437895286
 20
-26.8916814412
 10
2.329640818
 20
-26.8901812369
 10
2.3156655562
 20
-26.888213732
 10
2.3019103844
 20
-26.8857855761
 10
2.2884203949
 20
-26.8829048136
 10
2.275239647
 20
-26.8795808846
 10
2.2624082523
 20
-26.8758236855
 10
2.2499724207
 20
-26.8716465224
 10
2.2379826584
 20
-26.8670670148
 10
2.2264805043
 20
-26.862102613
 10
2.2154995108
 20
-26.8567694467
 10
2.2050745934
 20
-26.8510859506
  0
LWPOLYLINE
  5
46A
100
AcDbEntity
  8
RACCORDO
100
AcDbPolyline
 62
7
  6
CONTINUOUS
 90
7
 70
0
 10
0.7215766548
 20
25.3714309834
 10
0.670443786
 20
25.3746833066
 10
0.6191968984
 20
25.3726812536
 10
0.5679876994
 20
25.3653545725
 10
0.5173377518
 20
25.3526309385
 10
0.4680776304
 20
25.3346026885
 10
0.4241825056
 20
25.3132835968
  0
ARC
  5
46B
100
AcDbEntity
  8
RACCORDO
100
AcDbCircle
 62
7
  6
CONTINUOUS
 10
17.1477542508
 20
15.357388645
 40
0.5
100
AcDbArc
 50
0.0007992625
 51
59.9992007504
  0
ELLIPSE
  5
46C
100
AcDbEntity
  8
RACCORDO
100
AcDbEllipse
 62
7
  6
CONTINUOUS
 10
6.5372044782
 20
-21.4048024604
 30
0.0
 11
-0.1000352924
 21
0.1732550566
 31
0.0
 40
0.5771558487
 41
-3.1590426538
 42
-2.3563950755
  0
ELLIPSE
  5
46D
100
AcDbEntity
  8
RACCORDO
100
AcDbEllipse
 62
7
  6
CONTINUOUS
 10
6.5372044782
 20
-6.6267401989
 30
0.0
 11
-0.1000048364
 21
0.1732022883
 31
0.0
 40
0.5775075436
 41
-2.3560905478
 42
-0.7855988075
  0
ELLIPSE
  5
46E
100
AcDbEntity
  8
RACCORDO
100
AcDbEllipse
 62
7
  6
CONTINUOUS
 10
268.196078729
 20
181.4075739774
 30
0.0
 11
196.5702964089
 21
377.1220183464
 31
0.0
 40
0.5463614449
 41
-3.9494102427
 42
-3.911061752
  0
ELLIPSE
  5
46F
100
AcDbEntity
  8
RACCORDO
100
AcDbEllipse
 62
7
  6
CONTINUOUS
 10
269.3062363755
 20
180.7665828659
 30
0.0
 11
196.5702964089
 21
377.1220183464
 31
0.0
 40
0.5463614449
 41
-3.9494102427
 42
-3.911061752
  0
ELLIPSE
  5
470
100
AcDbEntity
  8
RACCORDO
100
AcDbEllipse
 62
7
  6
CONTINUOUS
 10
270.4163940219
 20
180.1255917544
 30
0.0
 11
196.5702964089
 21
377.1220183464
 31
0.0
 40
0.5463614449
 41
2.3337750645
 42
2.3721235552
  0
ELLIPSE
  5
471
100
AcDbEntity
  8
RACCORDO
100
AcDbEllipse
 62
7
  6
CONTINUOUS
 10
271.5265516684
 20
179.4846006428
 30
0.0
 11
196.5702964089
 21
377.1220183464
 31
0.0
 40
0.5463614449
 41
-3.9494102427
 42
-3.911061752
  0
ELLIPSE
  5
472
100
AcDbEntity
  8
RACCORDO
100
AcDbEllipse
 62
7
  6
CONTINUOUS
 10
272.6367093149
 20
178.8436095313
 30
0.0
 11
196.5702964089
 21
377.1220183464
 31
0.0
 40
0.5463614449
 41
-3.9494102427
 42
-3.911061752
  0
ELLIPSE
  5
473
100
AcDbEntity
  8
RACCORDO
100
AcDbEllipse
 62
7
  6
CONTINUOUS
 10
273.7468669613
 20
178.2026184198
 30
0.0
 11
196.5702964089
 21
377.1220183464
 31
0.0
 40
0.5463614449
 41
2.3337750645
 42
2.3721235552
  0
ELLIPSE
  5
474
100
AcDbEntity
  8
RACCORDO
100
AcDbEllipse
 62
7
  6
CONTINUOUS
 10
274.8570246078
 20
177.5616273083
 30
0.0
 11
196.5702964089
 21
377.1220183464
 31
0.0
 40
0.5463614449
 41
2.3337750645
 42
2.3721235552
  0
ELLIPSE
  5
475
100
AcDbEntity
  8
RACCORDO
100
AcDbEllipse
 62
7
  6
CONTINUOUS
 10
275.9671822542
 20
176.9206361967
 30
0.0
 11
196.5702964089
 21
377.1220183464
 31
0.0
 40
0.5463614449
 41
-3.9494102427
 42
-3.911061752
  0
ELLIPSE
  5
476
100
AcDbEntity
  8
RACCORDO
100
AcDbEllipse
 62
7
  6
CONTINUOUS
 10
277.0773399007
 20
176.2796450852
 30
0.0
 11
196.5702964089
 21
377.1220183464
 31
0.0
 40
0.5463614449
 41
-3.9494102427
 42
-3.911061752
  0
ELLIPSE
  5
477
100
AcDbEntity
  8
RACCORDO
100
AcDbEllipse
 62
7
  6
CONTINUOUS
 10
278.1874975472
 20
175.6386539737
 30
0.0
 11
196.5702964089
 21
377.1220183464
 31
0.0
 40
0.5463614449
 41
-3.9494102427
 42
-3.911061752
  0
ELLIPSE
  5
478
100
AcDbEntity
  8
RACCORDO
100
AcDbEllipse
 62
7
  6
CONTINUOUS
 10
279.2976551936
 20
174.9976628622
 30
0.0
 11
196.5702964089
 21
377.1220183464
 31
0.0
 40
0.5463614449
 41
-3.9494102427
 42
-3.911061752
  0
ELLIPSE
  5
479
100
AcDbEntity
  8
RACCORDO
100
AcDbEllipse
 62
7
  6
CONTINUOUS
 10
280.4078128401
 20
174.3566717507
 30
0.0
 11
196.5702964089
 21
377.1220183464
 31
0.0
 40
0.5463614449
 41
-3.9494102427
 42
-3.911061752
  0
ELLIPSE
  5
47A
100
AcDbEntity
  8
RACCORDO
100
AcDbEllipse
 62
7
  6
CONTINUOUS
 10
281.5179704866
 20
173.7156806391
 30
0.0
 11
196.5702964089
 21
377.1220183464
 31
0.0
 40
0.5463614449
 41
-3.9494102427
 42
-3.911061752
  0
ELLIPSE
  5
47B
100
AcDbEntity
  8
RACCORDO
100
AcDbEllipse
 62
7
  6
CONTINUOUS
 10
282.628128133
 20
173.0746895276
 30
0.0
 11
196.5702964089
 21
377.1220183464
 31
0.0
 40
0.5463614449
 41
-3.9494102427
 42
-3.911061752
  0
ELLIPSE
  5
47C
100
AcDbEntity
  8
RACCORDO
100
AcDbEllipse
 62
7
  6
CONTINUOUS
 10
283.7382857795
 20
172.4336984161
 30
0.0
 11
196.5702964089
 21
377.1220183464
 31
0.0
 40
0.5463614449
 41
-3.9494102427
 42
-3.911061752
  0
ELLIPSE
  5
47D
100
AcDbEntity
  8
RACCORDO
100
AcDbEllipse
 62
7
  6
CONTINUOUS
 10
-0.1413133412
 20
-23.2611280801
 30
0.0
 11
0.4625183445
 21
0.8873459255
 31
0.0
 40
0.5463614449
 41
-3.911061752
 42
-3.1651656845
  0
ELLIPSE
  5
47E
100
AcDbEntity
  8
RACCORDO
100
AcDbEllipse
 62
7
  6
CONTINUOUS
 10
-1.2514709877
 20
-22.6201369686
 30
0.0
 11
0.4625183445
 21
0.8873459255
 31
0.0
 40
0.5463614449
 41
-3.911061752
 42
-3.1651656845
  0
ELLIPSE
  5
47F
100
AcDbEntity
  8
RACCORDO
100
AcDbEllipse
 62
7
  6
CONTINUOUS
 10
-2.3616286342
 20
-21.9791458571
 30
0.0
 11
0.4625183445
 21
0.8873459255
 31
0.0
 40
0.5463614449
 41
-3.911061752
 42
-3.1651656845
  0
ELLIPSE
  5
480
100
AcDbEntity
  8
RACCORDO
100
AcDbEllipse
 62
7
  6
CONTINUOUS
 10
-3.4717862806
 20
-21.3381547455
 30
0.0
 11
0.4625183445
 21
0.8873459255
 31
0.0
 40
0.5463614449
 41
-3.911061752
 42
-3.1651656845
  0
ELLIPSE
  5
481
100
AcDbEntity
  8
RACCORDO
100
AcDbEllipse
 62
7
  6
CONTINUOUS
 10
-4.5819439271
 20
-20.697163634
 30
0.0
 11
0.4625183445
 21
0.8873459255
 31
0.0
 40
0.5463614449
 41
-3.911061752
 42
-3.1651656845
  0
ELLIPSE
  5
482
100
AcDbEntity
  8
RACCORDO
100
AcDbEllipse
 62
7
  6
CONTINUOUS
 10
-5.6921015736
 20
-20.0561725225
 30
0.0
 11
0.4625183445
 21
0.8873459255
 31
0.0
 40
0.5463614449
 41
-3.911061752
 42
-3.1651656845
  0
ELLIPSE
  5
483
100
AcDbEntity
  8
RACCORDO
100
AcDbEllipse
 62
7
  6
CONTINUOUS
 10
-6.80225922
 20
-19.415181411
 30
0.0
 11
0.4625183445
 21
0.8873459255
 31
0.0
 40
0.5463614449
 41
-3.911061752
 42
-3.1651656845
  0
ELLIPSE
  5
484
100
AcDbEntity
  8
RACCORDO
100
AcDbEllipse
 62
7
  6
CONTINUOUS
 10
-7.9124168665
 20
-18.7741902994
 30
0.0
 11
0.4625183445
 21
0.8873459255
 31
0.0
 40
0.5463614449
 41
-3.911061752
 42
-3.1651656845
  0
ELLIPSE
  5
485
100
AcDbEntity
  8
RACCORDO
100
AcDbEllipse
 62
7
  6
CONTINUOUS
 10
-9.0225745129
 20
-18.1331991879
 30
0.0
 11
0.4625183445
 21
0.8873459255
 31
0.0
 40
0.5463614449
 41
-3.911061752
 42
-3.1651656845
  0
ELLIPSE
  5
486
100
AcDbEntity
  8
RACCORDO
100
AcDbEllipse
 62
7
  6
CONTINUOUS
 10
-10.1327321594
 20
-17.4922080764
 30
0.0
 11
0.4625183445
 21
0.8873459255
 31
0.0
 40
0.5463614449
 41
-3.911061752
 42
-3.1651656845
  0
ELLIPSE
  5
487
100
AcDbEntity
  8
RACCORDO
100
AcDbEllipse
 62
7
  6
CONTINUOUS
 10
-11.2428898059
 20
-16.8512169649
 30
0.0
 11
0.4625183445
 21
0.8873459255
 31
0.0
 40
0.5463614449
 41
-3.911061752
 42
-3.1651656845
  0
ELLIPSE
  5
488
100
AcDbEntity
  8
RACCORDO
100
AcDbEllipse
 62
7
  6
CONTINUOUS
 10
-12.3530474523
 20
-16.2102258533
 30
0.0
 11
0.4625183445
 21
0.8873459255
 31
0.0
 40
0.5463614449
 41
-3.911061752
 42
-3.1651656845
  0
ELLIPSE
  5
489
100
AcDbEntity
  8
RACCORDO
100
AcDbEllipse
 62
7
  6
CONTINUOUS
 10
-13.4632050988
 20
-15.5692347418
 30
0.0
 11
0.4625183445
 21
0.8873459255
 31
0.0
 40
0.5463614449
 41
-3.911061752
 42
-3.1651656845
  0
ELLIPSE
  5
48A
100
AcDbEntity
  8
RACCORDO
100
AcDbEllipse
 62
7
  6
CONTINUOUS
 10
-14.5733627453
 20
-14.9282436303
 30
0.0
 11
0.4625183445
 21
0.8873459255
 31
0.0
 40
0.5463614449
 41
-3.911061752
 42
-3.1651656845
  0
ELLIPSE
  5
48B
100
AcDbEntity
  8
RACCORDO
100
AcDbEllipse
 62
7
  6
CONTINUOUS
 10
-15.6835203917
 20
-14.2872525188
 30
0.0
 11
0.4625183445
 21
0.8873459255
 31
0.0
 40
0.5463614449
 41
-3.911061752
 42
-3.1651656845
  0
ELLIPSE
  5
48C
100
AcDbEntity
  8
RACCORDO
100
AcDbEllipse
 62
7
  6
CONTINUOUS
 10
-8.6694091011
 20
-5.9882720025
 30
0.0
 11
0.0925036689
 21
0.1774691851
 31
0.0
 40
0.5463614449
 41
0.7793230711
 42
2.3337750645
  0
ELLIPSE
  5
48D
100
AcDbEntity
  8
RACCORDO
100
AcDbEllipse
 62
7
  6
CONTINUOUS
 10
-7.5592514547
 20
-6.629263114
 30
0.0
 11
0.0925036689
 21
0.1774691851
 31
0.0
 40
0.5463614449
 41
0.7793230711
 42
2.3337750645
  0
ELLIPSE
  5
48E
100
AcDbEntity
  8
RACCORDO
100
AcDbEllipse
 62
7
  6
CONTINUOUS
 10
-6.4490938082
 20
-7.2702542255
 30
0.0
 11
0.0925036689
 21
0.1774691851
 31
0.0
 40
0.5463614449
 41
0.7793230711
 42
2.3337750645
  0
ELLIPSE
  5
48F
100
AcDbEntity
  8
RACCORDO
100
AcDbEllipse
 62
7
  6
CONTINUOUS
 10
-5.3389361617
 20
-7.911245337
 30
0.0
 11
0.0925036689
 21
0.1774691851
 31
0.0
 40
0.5463614449
 41
0.7793230711
 42
2.3337750645
  0
ELLIPSE
  5
490
100
AcDbEntity
  8
RACCORDO
100
AcDbEllipse
 62
7
  6
CONTINUOUS
 10
-4.2287785153
 20
-8.5522364486
 30
0.0
 11
0.0925036689
 21
0.1774691851
 31
0.0
 40
0.5463614449
 41
0.7793230711
 42
2.3337750645
  0
ELLIPSE
  5
491
100
AcDbEntity
  8
RACCORDO
100
AcDbEllipse
 62
7
  6
CONTINUOUS
 10
-3.1186208688
 20
-9.1932275601
 30
0.0
 11
0.0925036689
 21
0.1774691851
 31
0.0
 40
0.5463614449
 41
0.7793230711
 42
2.3337750645
  0
ELLIPSE
  5
492
100
AcDbEntity
  8
RACCORDO
100
AcDbEllipse
 62
7
  6
CONTINUOUS
 10
-2.0084632223
 20
-9.8342186716
 30
0.0
 11
0.0925036689
 21
0.1774691851
 31
0.0
 40
0.5463614449
 41
0.7793230711
 42
2.3337750645
  0
ELLIPSE
  5
493
100
AcDbEntity
  8
RACCORDO
100
AcDbEllipse
 62
7
  6
CONTINUOUS
 10
-0.8983055759
 20
-10.4752097831
 30
0.0
 11
0.0925036689
 21
0.1774691851
 31
0.0
 40
0.5463614449
 41
0.7793230711
 42
2.3337750645
  0
ELLIPSE
  5
494
100
AcDbEntity
  8
RACCORDO
100
AcDbEllipse
 62
7
  6
CONTINUOUS
 10
-9.7795667476
 20
-5.3472808909
 30
0.0
 11
0.0925036689
 21
0.1774691851
 31
0.0
 40
0.5463614449
 41
0.7793230711
 42
2.3337750645
  0
ELLIPSE
  5
495
100
AcDbEntity
  8
RACCORDO
100
AcDbEllipse
 62
7
  6
CONTINUOUS
 10
-10.889724394
 20
-4.7062897794
 30
0.0
 11
0.0925036689
 21
0.1774691851
 31
0.0
 40
0.5463614449
 41
0.7793230711
 42
2.3337750645
  0
ELLIPSE
  5
496
100
AcDbEntity
  8
RACCORDO
100
AcDbEllipse
 62
7
  6
CONTINUOUS
 10
-11.9998820405
 20
-4.0652986679
 30
0.0
 11
0.0925036689
 21
0.1774691851
 31
0.0
 40
0.5463614449
 41
0.7793230711
 42
2.3337750645
  0
ELLIPSE
  5
497
100
AcDbEntity
  8
RACCORDO
100
AcDbEllipse
 62
7
  6
CONTINUOUS
 10
-13.110039687
 20
-3.4243075564
 30
0.0
 11
0.0925036689
 21
0.1774691851
 31
0.0
 40
0.5463614449
 41
0.7793230711
 42
2.3337750645
  0
ELLIPSE
  5
498
100
AcDbEntity
  8
RACCORDO
100
AcDbEllipse
 62
7
  6
CONTINUOUS
 10
-14.2201973334
 20
-2.7833164448
 30
0.0
 11
0.0925036689
 21
0.1774691851
 31
0.0
 40
0.5463614449
 41
0.7793230711
 42
2.3337750645
  0
ELLIPSE
  5
499
100
AcDbEntity
  8
RACCORDO
100
AcDbEllipse
 62
7
  6
CONTINUOUS
 10
-15.3303549799
 20
-2.1423253333
 30
0.0
 11
0.0925036689
 21
0.1774691851
 31
0.0
 40
0.5463614449
 41
0.7793230711
 42
2.3337750645
  0
ELLIPSE
  5
49A
100
AcDbEntity
  8
RACCORDO
100
AcDbEllipse
 62
7
  6
CONTINUOUS
 10
-16.4405126264
 20
-1.5013342218
 30
0.0
 11
0.0925036689
 21
0.1774691851
 31
0.0
 40
0.5463614449
 41
0.7793230711
 42
2.3337750645
  0
ELLIPSE
  5
49B
100
AcDbEntity
  8
RACCORDO
100
AcDbEllipse
 62
7
  6
CONTINUOUS
 10
2.5802329104
 20
-23.3636819134
 30
0.0
 11
-0.0986562447
 21
0.1761322008
 31
0.0
 40
0.575454123
 41
-3.2384625676
 42
-2.342697354
  0
ELLIPSE
  5
49C
100
AcDbEntity
  8
RACCORDO
100
AcDbEllipse
 62
7
  6
CONTINUOUS
 10
299.052083226
 20
163.5917036974
 30
0.0
 11
230.0527266966
 21
357.7187352745
 31
0.0
 40
0.6067084637
 41
-3.8967641295
 42
-3.8584156388
  0
ELLIPSE
  5
49D
100
AcDbEntity
  8
RACCORDO
100
AcDbEllipse
 62
7
  6
CONTINUOUS
 10
-9.2977737863
 20
-5.6254621085
 30
0.0
 11
0.1082601067
 21
0.1683382284
 31
0.0
 40
0.6067084637
 41
0.8319691842
 42
2.3864211777
  0
ELLIPSE
  5
49E
100
AcDbEntity
  8
RACCORDO
100
AcDbEllipse
 62
7
  6
CONTINUOUS
 10
-8.4570487369
 20
-18.4597266833
 30
0.0
 11
0.5413005334
 21
0.8416911418
 31
0.0
 40
0.6067084637
 41
-3.8584156388
 42
-2.5016096871
  0
ELLIPSE
  5
49F
100
AcDbEntity
  8
RACCORDO
100
AcDbEllipse
 62
7
  6
CONTINUOUS
 10
-8.1876161399
 20
-6.26645322
 30
0.0
 11
0.1082601067
 21
0.1683382284
 31
0.0
 40
0.6067084637
 41
0.8319691842
 42
2.3864211777
  0
ELLIPSE
  5
4A0
100
AcDbEntity
  8
RACCORDO
100
AcDbEllipse
 62
7
  6
CONTINUOUS
 10
-7.3468910905
 20
-19.1007177948
 30
0.0
 11
0.5413005334
 21
0.8416911418
 31
0.0
 40
0.6067084637
 41
-3.8584156388
 42
-2.5016096871
  0
ELLIPSE
  5
4A1
100
AcDbEntity
  8
RACCORDO
100
AcDbEllipse
 62
7
  6
CONTINUOUS
 10
303.4927138119
 20
161.0277392513
 30
0.0
 11
230.0527266966
 21
357.7187352745
 31
0.0
 40
0.6067084637
 41
-3.8967641295
 42
-3.8584156388
  0
ELLIPSE
  5
4A2
100
AcDbEntity
  8
RACCORDO
100
AcDbEllipse
 62
7
  6
CONTINUOUS
 10
-7.0774584934
 20
-6.9074443315
 30
0.0
 11
0.1082601067
 21
0.1683382284
 31
0.0
 40
0.6067084637
 41
0.8319691842
 42
2.3864211777
  0
ELLIPSE
  5
4A3
100
AcDbEntity
  8
RACCORDO
100
AcDbEllipse
 62
7
  6
CONTINUOUS
 10
-6.236733444
 20
-19.7417089063
 30
0.0
 11
0.5413005334
 21
0.8416911418
 31
0.0
 40
0.6067084637
 41
-3.8584156388
 42
-2.5016096871
  0
ELLIPSE
  5
4A4
100
AcDbEntity
  8
RACCORDO
100
AcDbEllipse
 62
7
  6
CONTINUOUS
 10
-5.9673008469
 20
-7.5484354431
 30
0.0
 11
0.1082601067
 21
0.1683382284
 31
0.0
 40
0.6067084637
 41
0.8319691842
 42
2.3864211777
  0
ELLIPSE
  5
4A5
100
AcDbEntity
  8
RACCORDO
100
AcDbEllipse
 62
7
  6
CONTINUOUS
 10
304.6028714583
 20
160.3867481398
 30
0.0
 11
230.0527266966
 21
357.7187352745
 31
0.0
 40
0.6067084637
 41
-3.8967641295
 42
-3.8584156388
  0
ELLIPSE
  5
4A6
100
AcDbEntity
  8
RACCORDO
100
AcDbEllipse
 62
7
  6
CONTINUOUS
 10
-5.1265757975
 20
-20.3827000179
 30
0.0
 11
0.5413005334
 21
0.8416911418
 31
0.0
 40
0.6067084637
 41
-3.8584156388
 42
-2.5016096871
  0
ELLIPSE
  5
4A7
100
AcDbEntity
  8
RACCORDO
100
AcDbEllipse
 62
7
  6
CONTINUOUS
 10
-4.8571432005
 20
-8.1894265546
 30
0.0
 11
0.1082601067
 21
0.1683382284
 31
0.0
 40
0.6067084637
 41
0.8319691842
 42
2.3864211777
  0
ELLIPSE
  5
4A8
100
AcDbEntity
  8
RACCORDO
100
AcDbEllipse
 62
7
  6
CONTINUOUS
 10
-4.0164181511
 20
-21.0236911294
 30
0.0
 11
0.5413005334
 21
0.8416911418
 31
0.0
 40
0.6067084637
 41
-3.8584156388
 42
-2.5016096871
  0
ELLIPSE
  5
4A9
100
AcDbEntity
  8
RACCORDO
100
AcDbEllipse
 62
7
  6
CONTINUOUS
 10
305.7130291048
 20
159.7457570283
 30
0.0
 11
230.0527266966
 21
357.7187352745
 31
0.0
 40
0.6067084637
 41
2.3864211777
 42
2.4247696683
  0
ELLIPSE
  5
4AA
100
AcDbEntity
  8
RACCORDO
100
AcDbEllipse
 62
7
  6
CONTINUOUS
 10
-3.746985554
 20
-8.8304176661
 30
0.0
 11
0.1082601067
 21
0.1683382284
 31
0.0
 40
0.6067084637
 41
0.8319691842
 42
2.3864211777
  0
ELLIPSE
  5
4AB
100
AcDbEntity
  8
RACCORDO
100
AcDbEllipse
 62
7
  6
CONTINUOUS
 10
-2.9062605046
 20
-21.6646822409
 30
0.0
 11
0.5413005334
 21
0.8416911418
 31
0.0
 40
0.6067084637
 41
-3.8584156388
 42
-2.5016096871
  0
ELLIPSE
  5
4AC
100
AcDbEntity
  8
RACCORDO
100
AcDbEllipse
 62
7
  6
CONTINUOUS
 10
306.8231867513
 20
159.1047659167
 30
0.0
 11
230.0527266966
 21
357.7187352745
 31
0.0
 40
0.6067084637
 41
-3.8967641295
 42
-3.8584156388
  0
ELLIPSE
  5
4AD
100
AcDbEntity
  8
RACCORDO
100
AcDbEllipse
 62
7
  6
CONTINUOUS
 10
-2.6368279076
 20
-9.4714087776
 30
0.0
 11
0.1082601067
 21
0.1683382284
 31
0.0
 40
0.6067084637
 41
0.8319691842
 42
2.3864211777
  0
ELLIPSE
  5
4AE
100
AcDbEntity
  8
RACCORDO
100
AcDbEllipse
 62
7
  6
CONTINUOUS
 10
-1.7961028581
 20
-22.3056733524
 30
0.0
 11
0.5413005334
 21
0.8416911418
 31
0.0
 40
0.6067084637
 41
-3.8584156388
 42
-2.5016096871
  0
ELLIPSE
  5
4AF
100
AcDbEntity
  8
RACCORDO
100
AcDbEllipse
 62
7
  6
CONTINUOUS
 10
300.1622408725
 20
162.9507125859
 30
0.0
 11
230.0527266966
 21
357.7187352745
 31
0.0
 40
0.6067084637
 41
-3.8967641295
 42
-3.8584156388
  0
ELLIPSE
  5
4B0
100
AcDbEntity
  8
RACCORDO
100
AcDbEllipse
 62
7
  6
CONTINUOUS
 10
-1.5266702611
 20
-10.1123998891
 30
0.0
 11
0.1082601067
 21
0.1683382284
 31
0.0
 40
0.6067084637
 41
0.8319691842
 42
2.3864211777
  0
ELLIPSE
  5
4B1
100
AcDbEntity
  8
RACCORDO
100
AcDbEllipse
 62
7
  6
CONTINUOUS
 10
-0.6859452117
 20
-22.946664464
 30
0.0
 11
0.5413005334
 21
0.8416911418
 31
0.0
 40
0.6067084637
 41
-3.8584156388
 42
-2.5016096871
  0
ELLIPSE
  5
4B2
100
AcDbEntity
  8
RACCORDO
100
AcDbEllipse
 62
7
  6
CONTINUOUS
 10
307.9333443977
 20
158.4637748052
 30
0.0
 11
230.0527266966
 21
357.7187352745
 31
0.0
 40
0.6067084637
 41
-3.8967641295
 42
-3.8584156388
  0
ELLIPSE
  5
4B3
100
AcDbEntity
  8
RACCORDO
100
AcDbEllipse
 62
7
  6
CONTINUOUS
 10
-10.4079314328
 20
-4.984470997
 30
0.0
 11
0.1082601067
 21
0.1683382284
 31
0.0
 40
0.6067084637
 41
0.8319691842
 42
2.3864211777
  0
ELLIPSE
  5
4B4
100
AcDbEntity
  8
RACCORDO
100
AcDbEllipse
 62
7
  6
CONTINUOUS
 10
-9.5672063834
 20
-17.8187355718
 30
0.0
 11
0.5413005334
 21
0.8416911418
 31
0.0
 40
0.6067084637
 41
-3.8584156388
 42
-2.5016096871
  0
ELLIPSE
  5
4B5
100
AcDbEntity
  8
RACCORDO
100
AcDbEllipse
 62
7
  6
CONTINUOUS
 10
309.0435020442
 20
157.8227836937
 30
0.0
 11
230.0527266966
 21
357.7187352745
 31
0.0
 40
0.6067084637
 41
-3.8967641295
 42
-3.8584156388
  0
ELLIPSE
  5
4B6
100
AcDbEntity
  8
RACCORDO
100
AcDbEllipse
 62
7
  6
CONTINUOUS
 10
-11.5180890793
 20
-4.3434798854
 30
0.0
 11
0.1082601067
 21
0.1683382284
 31
0.0
 40
0.6067084637
 41
0.8319691842
 42
2.3864211777
  0
ELLIPSE
  5
4B7
100
AcDbEntity
  8
RACCORDO
100
AcDbEllipse
 62
7
  6
CONTINUOUS
 10
-10.6773640298
 20
-17.1777444602
 30
0.0
 11
0.5413005334
 21
0.8416911418
 31
0.0
 40
0.6067084637
 41
-3.8584156388
 42
-2.5016096871
  0
ELLIPSE
  5
4B8
100
AcDbEntity
  8
RACCORDO
100
AcDbEllipse
 62
7
  6
CONTINUOUS
 10
-12.6282467257
 20
-3.7024887739
 30
0.0
 11
0.1082601067
 21
0.1683382284
 31
0.0
 40
0.6067084637
 41
0.8319691842
 42
2.3864211777
  0
ELLIPSE
  5
4B9
100
AcDbEntity
  8
RACCORDO
100
AcDbEllipse
 62
7
  6
CONTINUOUS
 10
-11.7875216763
 20
-16.5367533487
 30
0.0
 11
0.5413005334
 21
0.8416911418
 31
0.0
 40
0.6067084637
 41
-3.8584156388
 42
-2.5016096871
  0
ELLIPSE
  5
4BA
100
AcDbEntity
  8
RACCORDO
100
AcDbEllipse
 62
7
  6
CONTINUOUS
 10
310.1536596907
 20
157.1817925822
 30
0.0
 11
230.0527266966
 21
357.7187352745
 31
0.0
 40
0.6067084637
 41
-3.8967641295
 42
-3.8584156388
  0
ELLIPSE
  5
4BB
100
AcDbEntity
  8
RACCORDO
100
AcDbEllipse
 62
7
  6
CONTINUOUS
 10
-13.7384043722
 20
-3.0614976624
 30
0.0
 11
0.1082601067
 21
0.1683382284
 31
0.0
 40
0.6067084637
 41
0.8319691842
 42
2.3864211777
  0
ELLIPSE
  5
4BC
100
AcDbEntity
  8
RACCORDO
100
AcDbEllipse
 62
7
  6
CONTINUOUS
 10
-12.8976793228
 20
-15.8957622372
 30
0.0
 11
0.5413005334
 21
0.8416911418
 31
0.0
 40
0.6067084637
 41
-3.8584156388
 42
-2.5016096871
  0
ELLIPSE
  5
4BD
100
AcDbEntity
  8
RACCORDO
100
AcDbEllipse
 62
7
  6
CONTINUOUS
 10
-14.8485620186
 20
-2.4205065509
 30
0.0
 11
0.1082601067
 21
0.1683382284
 31
0.0
 40
0.6067084637
 41
0.8319691842
 42
2.3864211777
  0
ELLIPSE
  5
4BE
100
AcDbEntity
  8
RACCORDO
100
AcDbEllipse
 62
7
  6
CONTINUOUS
 10
311.2638173371
 20
156.5408014706
 30
0.0
 11
230.0527266966
 21
357.7187352745
 31
0.0
 40
0.6067084637
 41
-3.8967641295
 42
-3.8584156388
  0
ELLIPSE
  5
4BF
100
AcDbEntity
  8
RACCORDO
100
AcDbEllipse
 62
7
  6
CONTINUOUS
 10
-14.0078369692
 20
-15.2547711257
 30
0.0
 11
0.5413005334
 21
0.8416911418
 31
0.0
 40
0.6067084637
 41
-3.8584156388
 42
-2.5016096871
  0
ELLIPSE
  5
4C0
100
AcDbEntity
  8
RACCORDO
100
AcDbEllipse
 62
7
  6
CONTINUOUS
 10
301.272398519
 20
162.3097214744
 30
0.0
 11
230.0527266966
 21
357.7187352745
 31
0.0
 40
0.6067084637
 41
2.3864211777
 42
2.4247696683
  0
ELLIPSE
  5
4C1
100
AcDbEntity
  8
RACCORDO
100
AcDbEllipse
 62
7
  6
CONTINUOUS
 10
2.5802329104
 20
-23.5327337169
 30
0.0
 11
-0.1000352924
 21
0.1732550566
 31
0.0
 40
0.5771558487
 41
2.3562984914
 42
3.9267902317
  0
ELLIPSE
  5
4C2
100
AcDbEntity
  8
RACCORDO
100
AcDbEllipse
 62
7
  6
CONTINUOUS
 10
-15.9587196651
 20
-1.7795154393
 30
0.0
 11
0.1082601067
 21
0.1683382284
 31
0.0
 40
0.6067084637
 41
0.8319691842
 42
2.3864211777
  0
ELLIPSE
  5
4C3
100
AcDbEntity
  8
RACCORDO
100
AcDbEllipse
 62
7
  6
CONTINUOUS
 10
-15.1179946157
 20
-14.6137800141
 30
0.0
 11
0.5413005334
 21
0.8416911418
 31
0.0
 40
0.6067084637
 41
-3.8584156388
 42
-2.5016096871
  0
ELLIPSE
  5
4C4
100
AcDbEntity
  8
RACCORDO
100
AcDbEllipse
 62
7
  6
CONTINUOUS
 10
312.3739749836
 20
155.8998103591
 30
0.0
 11
230.0527266966
 21
357.7187352745
 31
0.0
 40
0.6067084637
 41
-3.8967641295
 42
-3.8584156388
  0
ELLIPSE
  5
4C5
100
AcDbEntity
  8
RACCORDO
100
AcDbEllipse
 62
7
  6
CONTINUOUS
 10
-17.0688773116
 20
-1.1385243278
 30
0.0
 11
0.1082601067
 21
0.1683382284
 31
0.0
 40
0.6067084637
 41
0.8319691842
 42
2.3864211777
  0
ELLIPSE
  5
4C6
100
AcDbEntity
  8
RACCORDO
100
AcDbEllipse
 62
7
  6
CONTINUOUS
 10
-16.2281522622
 20
-13.9727889026
 30
0.0
 11
0.5413005334
 21
0.8416911418
 31
0.0
 40
0.6067084637
 41
-3.8584156388
 42
-2.5016096871
  0
ELLIPSE
  5
4C7
100
AcDbEntity
  8
RACCORDO
100
AcDbEllipse
 62
7
  6
CONTINUOUS
 10
313.48413263
 20
155.2588192476
 30
0.0
 11
230.0527266966
 21
357.7187352745
 31
0.0
 40
0.6067084637
 41
-3.8967641295
 42
-3.8584156388
  0
ELLIPSE
  5
4C8
100
AcDbEntity
  8
RACCORDO
100
AcDbEllipse
 62
7
  6
CONTINUOUS
 10
314.5942902765
 20
154.6178281361
 30
0.0
 11
230.0527266966
 21
357.7187352745
 31
0.0
 40
0.6067084637
 41
-3.8967641295
 42
-3.8584156388
  0
ELLIPSE
  5
4C9
100
AcDbEntity
  8
RACCORDO
100
AcDbEllipse
 62
7
  6
CONTINUOUS
 10
302.3825561654
 20
161.6687303628
 30
0.0
 11
230.0527266966
 21
357.7187352745
 31
0.0
 40
0.6067084637
 41
2.3864211777
 42
2.4247696683
  0
ELLIPSE
  5
4CA
100
AcDbEntity
  8
RACCORDO
100
AcDbEllipse
 62
7
  6
CONTINUOUS
 10
6.5372044782
 20
-6.1368082843
 30
0.0
 11
-0.1000352924
 21
0.1732550566
 31
0.0
 40
0.5771558487
 41
-3.1590426538
 42
-2.3563950755
  0
ELLIPSE
  5
4CB
100
AcDbEntity
  8
RACCORDO
100
AcDbEllipse
 62
7
  6
CONTINUOUS
 10
6.5372044782
 20
8.6412539771
 30
0.0
 11
-0.1000048364
 21
0.1732022883
 31
0.0
 40
0.5775075436
 41
-2.3560905478
 42
-0.8698143919
  0
ELLIPSE
  5
4CC
100
AcDbEntity
  8
RACCORDO
100
AcDbEllipse
 62
7
  6
CONTINUOUS
 10
282.628128133
 20
173.0746895276
 30
0.0
 11
196.5702964089
 21
377.1220183464
 31
0.0
 40
0.5463614449
 41
-3.9899766517
 42
-3.951628161
  0
ELLIPSE
  5
4CD
100
AcDbEntity
  8
RACCORDO
100
AcDbEllipse
 62
7
  6
CONTINUOUS
 10
281.5179704866
 20
173.7156806391
 30
0.0
 11
196.5702964089
 21
377.1220183464
 31
0.0
 40
0.5463614449
 41
-3.9899766517
 42
-3.951628161
  0
ELLIPSE
  5
4CE
100
AcDbEntity
  8
RACCORDO
100
AcDbEllipse
 62
7
  6
CONTINUOUS
 10
280.4078128401
 20
174.3566717507
 30
0.0
 11
196.5702964089
 21
377.1220183464
 31
0.0
 40
0.5463614449
 41
-3.9899766517
 42
-3.951628161
  0
ELLIPSE
  5
4CF
100
AcDbEntity
  8
RACCORDO
100
AcDbEllipse
 62
7
  6
CONTINUOUS
 10
279.2976551936
 20
174.9976628622
 30
0.0
 11
196.5702964089
 21
377.1220183464
 31
0.0
 40
0.5463614449
 41
-3.9899766517
 42
-3.951628161
  0
ELLIPSE
  5
4D0
100
AcDbEntity
  8
RACCORDO
100
AcDbEllipse
 62
7
  6
CONTINUOUS
 10
278.1874975472
 20
175.6386539737
 30
0.0
 11
196.5702964089
 21
377.1220183464
 31
0.0
 40
0.5463614449
 41
-3.9899766517
 42
-3.951628161
  0
ELLIPSE
  5
4D1
100
AcDbEntity
  8
RACCORDO
100
AcDbEllipse
 62
7
  6
CONTINUOUS
 10
277.0773399007
 20
176.2796450852
 30
0.0
 11
196.5702964089
 21
377.1220183464
 31
0.0
 40
0.5463614449
 41
-3.9899766517
 42
-3.951628161
  0
ELLIPSE
  5
4D2
100
AcDbEntity
  8
RACCORDO
100
AcDbEllipse
 62
7
  6
CONTINUOUS
 10
275.9671822542
 20
176.9206361967
 30
0.0
 11
196.5702964089
 21
377.1220183464
 31
0.0
 40
0.5463614449
 41
-3.9899766517
 42
-3.951628161
  0
ELLIPSE
  5
4D3
100
AcDbEntity
  8
RACCORDO
100
AcDbEllipse
 62
7
  6
CONTINUOUS
 10
274.8570246078
 20
177.5616273083
 30
0.0
 11
196.5702964089
 21
377.1220183464
 31
0.0
 40
0.5463614449
 41
-3.9899766517
 42
-3.951628161
  0
ELLIPSE
  5
4D4
100
AcDbEntity
  8
RACCORDO
100
AcDbEllipse
 62
7
  6
CONTINUOUS
 10
273.7468669613
 20
178.2026184198
 30
0.0
 11
196.5702964089
 21
377.1220183464
 31
0.0
 40
0.5463614449
 41
-3.9899766517
 42
-3.951628161
  0
ELLIPSE
  5
4D5
100
AcDbEntity
  8
RACCORDO
100
AcDbEllipse
 62
7
  6
CONTINUOUS
 10
272.6367093149
 20
178.8436095313
 30
0.0
 11
196.5702964089
 21
377.1220183464
 31
0.0
 40
0.5463614449
 41
-3.9899766517
 42
-3.951628161
  0
ELLIPSE
  5
4D6
100
AcDbEntity
  8
RACCORDO
100
AcDbEllipse
 62
7
  6
CONTINUOUS
 10
271.5265516684
 20
179.4846006428
 30
0.0
 11
196.5702964089
 21
377.1220183464
 31
0.0
 40
0.5463614449
 41
-3.9899766517
 42
-3.951628161
  0
ELLIPSE
  5
4D7
100
AcDbEntity
  8
RACCORDO
100
AcDbEllipse
 62
7
  6
CONTINUOUS
 10
270.4163940219
 20
180.1255917544
 30
0.0
 11
196.5702964089
 21
377.1220183464
 31
0.0
 40
0.5463614449
 41
-3.9899766517
 42
-3.951628161
  0
ELLIPSE
  5
4D8
100
AcDbEntity
  8
RACCORDO
100
AcDbEllipse
 62
7
  6
CONTINUOUS
 10
269.3062363755
 20
180.7665828659
 30
0.0
 11
196.5702964089
 21
377.1220183464
 31
0.0
 40
0.5463614449
 41
-3.9899766517
 42
-3.951628161
  0
ELLIPSE
  5
4D9
100
AcDbEntity
  8
RACCORDO
100
AcDbEllipse
 62
7
  6
CONTINUOUS
 10
268.196078729
 20
181.4075739774
 30
0.0
 11
196.5702964089
 21
377.1220183464
 31
0.0
 40
0.5463614449
 41
-3.9899766517
 42
-3.951628161
  0
ELLIPSE
  5
4DA
100
AcDbEntity
  8
RACCORDO
100
AcDbEllipse
 62
7
  6
CONTINUOUS
 10
283.7382857795
 20
172.4336984161
 30
0.0
 11
196.5702964089
 21
377.1220183464
 31
0.0
 40
0.5463614449
 41
-3.9899766517
 42
-3.951628161
  0
ELLIPSE
  5
4DB
100
AcDbEntity
  8
RACCORDO
100
AcDbEllipse
 62
7
  6
CONTINUOUS
 10
-14.466650245
 20
16.1992124482
 30
0.0
 11
-0.1000352924
 21
0.1732550566
 31
0.0
 40
0.5771558487
 41
0.5400951171
 42
0.7851975781
  0
ELLIPSE
  5
4DC
100
AcDbEntity
  8
RACCORDO
100
AcDbEllipse
 62
7
  6
CONTINUOUS
 10
-16.4405126264
 20
-0.7320791999
 30
0.0
 11
0.0925036689
 21
0.1774691851
 31
0.0
 40
0.5463614449
 41
-3.951628161
 42
-3.1651677391
  0
ELLIPSE
  5
4DD
100
AcDbEntity
  8
RACCORDO
100
AcDbEllipse
 62
7
  6
CONTINUOUS
 10
-15.3303549799
 20
-1.3730703114
 30
0.0
 11
0.0925036689
 21
0.1774691851
 31
0.0
 40
0.5463614449
 41
-3.951628161
 42
-3.1651677391
  0
ELLIPSE
  5
4DE
100
AcDbEntity
  8
RACCORDO
100
AcDbEllipse
 62
7
  6
CONTINUOUS
 10
-14.2201973334
 20
-2.0140614229
 30
0.0
 11
0.0925036689
 21
0.1774691851
 31
0.0
 40
0.5463614449
 41
-3.951628161
 42
-3.1651677391
  0
ELLIPSE
  5
4DF
100
AcDbEntity
  8
RACCORDO
100
AcDbEllipse
 62
7
  6
CONTINUOUS
 10
-13.110039687
 20
-2.6550525345
 30
0.0
 11
0.0925036689
 21
0.1774691851
 31
0.0
 40
0.5463614449
 41
-3.951628161
 42
-3.1651677391
  0
ELLIPSE
  5
4E0
100
AcDbEntity
  8
RACCORDO
100
AcDbEllipse
 62
7
  6
CONTINUOUS
 10
-11.9998820405
 20
-3.296043646
 30
0.0
 11
0.0925036689
 21
0.1774691851
 31
0.0
 40
0.5463614449
 41
-3.951628161
 42
-3.1651677391
  0
ELLIPSE
  5
4E1
100
AcDbEntity
  8
RACCORDO
100
AcDbEllipse
 62
7
  6
CONTINUOUS
 10
-10.889724394
 20
-3.9370347575
 30
0.0
 11
0.0925036689
 21
0.1774691851
 31
0.0
 40
0.5463614449
 41
-3.951628161
 42
-3.1651677391
  0
ELLIPSE
  5
4E2
100
AcDbEntity
  8
RACCORDO
100
AcDbEllipse
 62
7
  6
CONTINUOUS
 10
-9.7795667476
 20
-4.578025869
 30
0.0
 11
0.0925036689
 21
0.1774691851
 31
0.0
 40
0.5463614449
 41
-3.951628161
 42
-3.1651677391
  0
ELLIPSE
  5
4E3
100
AcDbEntity
  8
RACCORDO
100
AcDbEllipse
 62
7
  6
CONTINUOUS
 10
-8.6694091011
 20
-5.2190169806
 30
0.0
 11
0.0925036689
 21
0.1774691851
 31
0.0
 40
0.5463614449
 41
-3.951628161
 42
-3.1651677391
  0
ELLIPSE
  5
4E4
100
AcDbEntity
  8
RACCORDO
100
AcDbEllipse
 62
7
  6
CONTINUOUS
 10
-7.9124168665
 20
8.53774953
 30
0.0
 11
0.4625183445
 21
0.8873459255
 31
0.0
 40
0.5463614449
 41
0.9364027037
 42
2.2932086555
  0
ELLIPSE
  5
4E5
100
AcDbEntity
  8
RACCORDO
100
AcDbEllipse
 62
7
  6
CONTINUOUS
 10
-7.5592514547
 20
-5.8600080921
 30
0.0
 11
0.0925036689
 21
0.1774691851
 31
0.0
 40
0.5463614449
 41
-3.951628161
 42
-3.1651677391
  0
ELLIPSE
  5
4E6
100
AcDbEntity
  8
RACCORDO
100
AcDbEllipse
 62
7
  6
CONTINUOUS
 10
-9.0225745129
 20
9.1787406415
 30
0.0
 11
0.4625183445
 21
0.8873459255
 31
0.0
 40
0.5463614449
 41
0.9364027037
 42
2.2932086555
  0
ELLIPSE
  5
4E7
100
AcDbEntity
  8
RACCORDO
100
AcDbEllipse
 62
7
  6
CONTINUOUS
 10
-6.4490938082
 20
-6.5009992036
 30
0.0
 11
0.0925036689
 21
0.1774691851
 31
0.0
 40
0.5463614449
 41
-3.951628161
 42
-3.1651677391
  0
ELLIPSE
  5
4E8
100
AcDbEntity
  8
RACCORDO
100
AcDbEllipse
 62
7
  6
CONTINUOUS
 10
-10.1327321594
 20
9.819731753
 30
0.0
 11
0.4625183445
 21
0.8873459255
 31
0.0
 40
0.5463614449
 41
0.9364027037
 42
2.2932086555
  0
ELLIPSE
  5
4E9
100
AcDbEntity
  8
RACCORDO
100
AcDbEllipse
 62
7
  6
CONTINUOUS
 10
-5.3389361617
 20
-7.1419903151
 30
0.0
 11
0.0925036689
 21
0.1774691851
 31
0.0
 40
0.5463614449
 41
-3.951628161
 42
-3.1651677391
  0
ELLIPSE
  5
4EA
100
AcDbEntity
  8
RACCORDO
100
AcDbEllipse
 62
7
  6
CONTINUOUS
 10
-11.2428898059
 20
10.4607228645
 30
0.0
 11
0.4625183445
 21
0.8873459255
 31
0.0
 40
0.5463614449
 41
0.9364027037
 42
2.2932086555
  0
ELLIPSE
  5
4EB
100
AcDbEntity
  8
RACCORDO
100
AcDbEllipse
 62
7
  6
CONTINUOUS
 10
-4.2287785153
 20
-7.7829814266
 30
0.0
 11
0.0925036689
 21
0.1774691851
 31
0.0
 40
0.5463614449
 41
-3.951628161
 42
-3.1651677391
  0
ELLIPSE
  5
4EC
100
AcDbEntity
  8
RACCORDO
100
AcDbEllipse
 62
7
  6
CONTINUOUS
 10
-12.3530474523
 20
11.1017139761
 30
0.0
 11
0.4625183445
 21
0.8873459255
 31
0.0
 40
0.5463614449
 41
0.9364027037
 42
2.2932086555
  0
ELLIPSE
  5
4ED
100
AcDbEntity
  8
RACCORDO
100
AcDbEllipse
 62
7
  6
CONTINUOUS
 10
-3.1186208688
 20
-8.4239725382
 30
0.0
 11
0.0925036689
 21
0.1774691851
 31
0.0
 40
0.5463614449
 41
-3.951628161
 42
-3.1651677391
  0
ELLIPSE
  5
4EE
100
AcDbEntity
  8
RACCORDO
100
AcDbEllipse
 62
7
  6
CONTINUOUS
 10
-13.4632050988
 20
11.7427050876
 30
0.0
 11
0.4625183445
 21
0.8873459255
 31
0.0
 40
0.5463614449
 41
0.9364027037
 42
2.2932086555
  0
ELLIPSE
  5
4EF
100
AcDbEntity
  8
RACCORDO
100
AcDbEllipse
 62
7
  6
CONTINUOUS
 10
-2.0084632223
 20
-9.0649636497
 30
0.0
 11
0.0925036689
 21
0.1774691851
 31
0.0
 40
0.5463614449
 41
-3.951628161
 42
-3.1651677391
  0
ELLIPSE
  5
4F0
100
AcDbEntity
  8
RACCORDO
100
AcDbEllipse
 62
7
  6
CONTINUOUS
 10
-0.8983055759
 20
-9.7059547612
 30
0.0
 11
0.0925036689
 21
0.1774691851
 31
0.0
 40
0.5463614449
 41
-3.951628161
 42
-3.1651677391
  0
ELLIPSE
  5
4F1
100
AcDbEntity
  8
RACCORDO
100
AcDbEllipse
 62
7
  6
CONTINUOUS
 10
-14.5733627453
 20
12.3836961991
 30
0.0
 11
0.4625183445
 21
0.8873459255
 31
0.0
 40
0.5463614449
 41
0.9364027037
 42
2.2932086555
  0
ELLIPSE
  5
4F2
100
AcDbEntity
  8
RACCORDO
100
AcDbEllipse
 62
7
  6
CONTINUOUS
 10
-15.6835203917
 20
13.0246873106
 30
0.0
 11
0.4625183445
 21
0.8873459255
 31
0.0
 40
0.5463614449
 41
0.9364027037
 42
2.2932086555
  0
ELLIPSE
  5
4F3
100
AcDbEntity
  8
RACCORDO
100
AcDbEllipse
 62
7
  6
CONTINUOUS
 10
-6.80225922
 20
7.8967584184
 30
0.0
 11
0.4625183445
 21
0.8873459255
 31
0.0
 40
0.5463614449
 41
0.9364027037
 42
2.2932086555
  0
ELLIPSE
  5
4F4
100
AcDbEntity
  8
RACCORDO
100
AcDbEllipse
 62
7
  6
CONTINUOUS
 10
-5.6921015736
 20
7.2557673069
 30
0.0
 11
0.4625183445
 21
0.8873459255
 31
0.0
 40
0.5463614449
 41
0.9364027037
 42
2.2932086555
  0
ELLIPSE
  5
4F5
100
AcDbEntity
  8
RACCORDO
100
AcDbEllipse
 62
7
  6
CONTINUOUS
 10
-4.5819439271
 20
6.6147761954
 30
0.0
 11
0.4625183445
 21
0.8873459255
 31
0.0
 40
0.5463614449
 41
0.9364027037
 42
2.2932086555
  0
ELLIPSE
  5
4F6
100
AcDbEntity
  8
RACCORDO
100
AcDbEllipse
 62
7
  6
CONTINUOUS
 10
-3.4717862806
 20
5.9737850839
 30
0.0
 11
0.4625183445
 21
0.8873459255
 31
0.0
 40
0.5463614449
 41
0.9364027037
 42
2.2932086555
  0
ELLIPSE
  5
4F7
100
AcDbEntity
  8
RACCORDO
100
AcDbEllipse
 62
7
  6
CONTINUOUS
 10
-2.3616286342
 20
5.3327939723
 30
0.0
 11
0.4625183445
 21
0.8873459255
 31
0.0
 40
0.5463614449
 41
0.9364027037
 42
2.2932086555
  0
ELLIPSE
  5
4F8
100
AcDbEntity
  8
RACCORDO
100
AcDbEllipse
 62
7
  6
CONTINUOUS
 10
-1.2514709877
 20
4.6918028608
 30
0.0
 11
0.4625183445
 21
0.8873459255
 31
0.0
 40
0.5463614449
 41
0.9364027037
 42
2.2932086555
  0
ELLIPSE
  5
4F9
100
AcDbEntity
  8
RACCORDO
100
AcDbEllipse
 62
7
  6
CONTINUOUS
 10
-0.1413133412
 20
4.0508117493
 30
0.0
 11
0.4625183445
 21
0.8873459255
 31
0.0
 40
0.5463614449
 41
0.9364027037
 42
2.2932086555
  0
ELLIPSE
  5
4FA
100
AcDbEntity
  8
RACCORDO
100
AcDbEllipse
 62
7
  6
CONTINUOUS
 10
312.3739749836
 20
155.8998103591
 30
0.0
 11
230.0527266966
 21
357.7187352745
 31
0.0
 40
0.6067084637
 41
-3.9373305385
 42
-3.8989820478
  0
ELLIPSE
  5
4FB
100
AcDbEntity
  8
RACCORDO
100
AcDbEllipse
 62
7
  6
CONTINUOUS
 10
311.2638173371
 20
156.5408014706
 30
0.0
 11
230.0527266966
 21
357.7187352745
 31
0.0
 40
0.6067084637
 41
-3.9373305385
 42
-3.8989820478
  0
ELLIPSE
  5
4FC
100
AcDbEntity
  8
RACCORDO
100
AcDbEllipse
 62
7
  6
CONTINUOUS
 10
-10.4079314328
 20
-4.215215975
 30
0.0
 11
0.1082601067
 21
0.1683382284
 31
0.0
 40
0.6067084637
 41
-3.8989820478
 42
-2.3445300544
  0
ELLIPSE
  5
4FD
100
AcDbEntity
  8
RACCORDO
100
AcDbEllipse
 62
7
  6
CONTINUOUS
 10
-9.5672063834
 20
9.4932042576
 30
0.0
 11
0.5413005334
 21
0.8416911418
 31
0.0
 40
0.6067084637
 41
0.9890488169
 42
2.3458547687
  0
ELLIPSE
  5
4FE
100
AcDbEntity
  8
RACCORDO
100
AcDbEllipse
 62
7
  6
CONTINUOUS
 10
-11.5180890793
 20
-3.5742248635
 30
0.0
 11
0.1082601067
 21
0.1683382284
 31
0.0
 40
0.6067084637
 41
-3.8989820478
 42
-2.3445300544
  0
ELLIPSE
  5
4FF
100
AcDbEntity
  8
RACCORDO
100
AcDbEllipse
 62
7
  6
CONTINUOUS
 10
-10.6773640298
 20
10.1341953692
 30
0.0
 11
0.5413005334
 21
0.8416911418
 31
0.0
 40
0.6067084637
 41
0.9890488169
 42
2.3458547687
  0
ELLIPSE
  5
500
100
AcDbEntity
  8
RACCORDO
100
AcDbEllipse
 62
7
  6
CONTINUOUS
 10
-12.6282467257
 20
-2.933233752
 30
0.0
 11
0.1082601067
 21
0.1683382284
 31
0.0
 40
0.6067084637
 41
-3.8989820478
 42
-2.3445300544
  0
ELLIPSE
  5
501
100
AcDbEntity
  8
RACCORDO
100
AcDbEllipse
 62
7
  6
CONTINUOUS
 10
-11.7875216763
 20
10.7751864807
 30
0.0
 11
0.5413005334
 21
0.8416911418
 31
0.0
 40
0.6067084637
 41
0.9890488169
 42
2.3458547687
  0
ELLIPSE
  5
502
100
AcDbEntity
  8
RACCORDO
100
AcDbEllipse
 62
7
  6
CONTINUOUS
 10
310.1536596907
 20
157.1817925822
 30
0.0
 11
230.0527266966
 21
357.7187352745
 31
0.0
 40
0.6067084637
 41
-3.9373305385
 42
-3.8989820478
  0
ELLIPSE
  5
503
100
AcDbEntity
  8
RACCORDO
100
AcDbEllipse
 62
7
  6
CONTINUOUS
 10
-13.7384043722
 20
-2.2922426405
 30
0.0
 11
0.1082601067
 21
0.1683382284
 31
0.0
 40
0.6067084637
 41
-3.8989820478
 42
-2.3445300544
  0
ELLIPSE
  5
504
100
AcDbEntity
  8
RACCORDO
100
AcDbEllipse
 62
7
  6
CONTINUOUS
 10
-12.8976793228
 20
11.4161775922
 30
0.0
 11
0.5413005334
 21
0.8416911418
 31
0.0
 40
0.6067084637
 41
0.9890488169
 42
2.3458547687
  0
ELLIPSE
  5
505
100
AcDbEntity
  8
RACCORDO
100
AcDbEllipse
 62
7
  6
CONTINUOUS
 10
-14.8485620186
 20
-1.6512515289
 30
0.0
 11
0.1082601067
 21
0.1683382284
 31
0.0
 40
0.6067084637
 41
-3.8989820478
 42
-2.3445300544
  0
ELLIPSE
  5
506
100
AcDbEntity
  8
RACCORDO
100
AcDbEllipse
 62
7
  6
CONTINUOUS
 10
-14.0078369692
 20
12.0571687037
 30
0.0
 11
0.5413005334
 21
0.8416911418
 31
0.0
 40
0.6067084637
 41
0.9890488169
 42
2.3458547687
  0
ELLIPSE
  5
507
100
AcDbEntity
  8
RACCORDO
100
AcDbEllipse
 62
7
  6
CONTINUOUS
 10
-15.9587196651
 20
-1.0102604174
 30
0.0
 11
0.1082601067
 21
0.1683382284
 31
0.0
 40
0.6067084637
 41
-3.8989820478
 42
-2.3445300544
  0
ELLIPSE
  5
508
100
AcDbEntity
  8
RACCORDO
100
AcDbEllipse
 62
7
  6
CONTINUOUS
 10
-15.1179946157
 20
12.6981598153
 30
0.0
 11
0.5413005334
 21
0.8416911418
 31
0.0
 40
0.6067084637
 41
0.9890488169
 42
2.3458547687
  0
ELLIPSE
  5
509
100
AcDbEntity
  8
RACCORDO
100
AcDbEllipse
 62
7
  6
CONTINUOUS
 10
-17.0688773116
 20
-0.3692693059
 30
0.0
 11
0.1082601067
 21
0.1683382284
 31
0.0
 40
0.6067084637
 41
-3.8989820478
 42
-2.3445300544
  0
ELLIPSE
  5
50A
100
AcDbEntity
  8
RACCORDO
100
AcDbEllipse
 62
7
  6
CONTINUOUS
 10
-16.2281522622
 20
13.3391509268
 30
0.0
 11
0.5413005334
 21
0.8416911418
 31
0.0
 40
0.6067084637
 41
0.9890488169
 42
2.3458547687
  0
ELLIPSE
  5
50B
100
AcDbEntity
  8
RACCORDO
100
AcDbEllipse
 62
7
  6
CONTINUOUS
 10
309.0435020442
 20
157.8227836937
 30
0.0
 11
230.0527266966
 21
357.7187352745
 31
0.0
 40
0.6067084637
 41
-3.9373305385
 42
-3.8989820478
  0
ELLIPSE
  5
50C
100
AcDbEntity
  8
RACCORDO
100
AcDbEllipse
 62
7
  6
CONTINUOUS
 10
-8.1876161399
 20
-5.4971981981
 30
0.0
 11
0.1082601067
 21
0.1683382284
 31
0.0
 40
0.6067084637
 41
-3.8989820478
 42
-2.3445300544
  0
ELLIPSE
  5
50D
100
AcDbEntity
  8
RACCORDO
100
AcDbEllipse
 62
7
  6
CONTINUOUS
 10
-7.3468910905
 20
8.2112220346
 30
0.0
 11
0.5413005334
 21
0.8416911418
 31
0.0
 40
0.6067084637
 41
0.9890488169
 42
2.3458547687
  0
ELLIPSE
  5
50E
100
AcDbEntity
  8
RACCORDO
100
AcDbEllipse
 62
7
  6
CONTINUOUS
 10
-7.0774584934
 20
-6.1381893096
 30
0.0
 11
0.1082601067
 21
0.1683382284
 31
0.0
 40
0.6067084637
 41
-3.8989820478
 42
-2.3445300544
  0
ELLIPSE
  5
50F
100
AcDbEntity
  8
RACCORDO
100
AcDbEllipse
 62
7
  6
CONTINUOUS
 10
-6.236733444
 20
7.5702309231
 30
0.0
 11
0.5413005334
 21
0.8416911418
 31
0.0
 40
0.6067084637
 41
0.9890488169
 42
2.3458547687
  0
ELLIPSE
  5
510
100
AcDbEntity
  8
RACCORDO
100
AcDbEllipse
 62
7
  6
CONTINUOUS
 10
2.5802329104
 20
6.3565557619
 30
0.0
 11
-0.1000048364
 21
0.1732022883
 31
0.0
 40
0.5775075436
 41
-2.3560905478
 42
-0.7855988075
  0
ELLIPSE
  5
511
100
AcDbEntity
  8
RACCORDO
100
AcDbEllipse
 62
7
  6
CONTINUOUS
 10
-5.9673008469
 20
-6.7791804211
 30
0.0
 11
0.1082601067
 21
0.1683382284
 31
0.0
 40
0.6067084637
 41
-3.8989820478
 42
-2.3445300544
  0
ELLIPSE
  5
512
100
AcDbEntity
  8
RACCORDO
100
AcDbEllipse
 62
7
  6
CONTINUOUS
 10
-5.1265757975
 20
6.9292398115
 30
0.0
 11
0.5413005334
 21
0.8416911418
 31
0.0
 40
0.6067084637
 41
0.9890488169
 42
2.3458547687
  0
ELLIPSE
  5
513
100
AcDbEntity
  8
RACCORDO
100
AcDbEllipse
 62
7
  6
CONTINUOUS
 10
-4.8571432005
 20
-7.4201715327
 30
0.0
 11
0.1082601067
 21
0.1683382284
 31
0.0
 40
0.6067084637
 41
-3.8989820478
 42
-2.3445300544
  0
ELLIPSE
  5
514
100
AcDbEntity
  8
RACCORDO
100
AcDbEllipse
 62
7
  6
CONTINUOUS
 10
-4.0164181511
 20
6.2882487
 30
0.0
 11
0.5413005334
 21
0.8416911418
 31
0.0
 40
0.6067084637
 41
0.9890488169
 42
2.3458547687
  0
ELLIPSE
  5
515
100
AcDbEntity
  8
RACCORDO
100
AcDbEllipse
 62
7
  6
CONTINUOUS
 10
2.5802329104
 20
6.1875039584
 30
0.0
 11
-0.0983300204
 21
0.1756150509
 31
0.0
 40
0.5789510426
 41
-2.3394837756
 42
-0.771718032
  0
ELLIPSE
  5
516
100
AcDbEntity
  8
RACCORDO
100
AcDbEllipse
 62
7
  6
CONTINUOUS
 10
-3.746985554
 20
-8.0611626442
 30
0.0
 11
0.1082601067
 21
0.1683382284
 31
0.0
 40
0.6067084637
 41
-3.8989820478
 42
-2.3445300544
  0
ELLIPSE
  5
517
100
AcDbEntity
  8
RACCORDO
100
AcDbEllipse
 62
7
  6
CONTINUOUS
 10
-2.9062605046
 20
5.6472575885
 30
0.0
 11
0.5413005334
 21
0.8416911418
 31
0.0
 40
0.6067084637
 41
0.9890488169
 42
2.3458547687
  0
ELLIPSE
  5
518
100
AcDbEntity
  8
RACCORDO
100
AcDbEllipse
 62
7
  6
CONTINUOUS
 10
-2.6368279076
 20
-8.7021537557
 30
0.0
 11
0.1082601067
 21
0.1683382284
 31
0.0
 40
0.6067084637
 41
-3.8989820478
 42
-2.3445300544
  0
ELLIPSE
  5
519
100
AcDbEntity
  8
RACCORDO
100
AcDbEllipse
 62
7
  6
CONTINUOUS
 10
-1.7961028581
 20
5.006266477
 30
0.0
 11
0.5413005334
 21
0.8416911418
 31
0.0
 40
0.6067084637
 41
0.9890488169
 42
2.3458547687
  0
ELLIPSE
  5
51A
100
AcDbEntity
  8
RACCORDO
100
AcDbEllipse
 62
7
  6
CONTINUOUS
 10
307.9333443977
 20
158.4637748052
 30
0.0
 11
230.0527266966
 21
357.7187352745
 31
0.0
 40
0.6067084637
 41
-3.9373305385
 42
-3.8989820478
  0
ELLIPSE
  5
51B
100
AcDbEntity
  8
RACCORDO
100
AcDbEllipse
 62
7
  6
CONTINUOUS
 10
-1.5266702611
 20
-9.3431448672
 30
0.0
 11
0.1082601067
 21
0.1683382284
 31
0.0
 40
0.6067084637
 41
-3.8989820478
 42
-2.3445300544
  0
ELLIPSE
  5
51C
100
AcDbEntity
  8
RACCORDO
100
AcDbEllipse
 62
7
  6
CONTINUOUS
 10
-0.6859452117
 20
4.3652753654
 30
0.0
 11
0.5413005334
 21
0.8416911418
 31
0.0
 40
0.6067084637
 41
0.9890488169
 42
2.3458547687
  0
ELLIPSE
  5
51D
100
AcDbEntity
  8
RACCORDO
100
AcDbEllipse
 62
7
  6
CONTINUOUS
 10
306.8231867513
 20
159.1047659167
 30
0.0
 11
230.0527266966
 21
357.7187352745
 31
0.0
 40
0.6067084637
 41
-3.9373305385
 42
-3.8989820478
  0
ELLIPSE
  5
51E
100
AcDbEntity
  8
RACCORDO
100
AcDbEllipse
 62
7
  6
CONTINUOUS
 10
314.5942902765
 20
154.6178281361
 30
0.0
 11
230.0527266966
 21
357.7187352745
 31
0.0
 40
0.6067084637
 41
-3.9373305385
 42
-3.8989820478
  0
ELLIPSE
  5
51F
100
AcDbEntity
  8
RACCORDO
100
AcDbEllipse
 62
7
  6
CONTINUOUS
 10
305.7130291048
 20
159.7457570283
 30
0.0
 11
230.0527266966
 21
357.7187352745
 31
0.0
 40
0.6067084637
 41
-3.9373305385
 42
-3.8989820478
  0
ELLIPSE
  5
520
100
AcDbEntity
  8
RACCORDO
100
AcDbEllipse
 62
7
  6
CONTINUOUS
 10
304.6028714583
 20
160.3867481398
 30
0.0
 11
230.0527266966
 21
357.7187352745
 31
0.0
 40
0.6067084637
 41
-3.9373305385
 42
-3.8989820478
  0
ELLIPSE
  5
521
100
AcDbEntity
  8
RACCORDO
100
AcDbEllipse
 62
7
  6
CONTINUOUS
 10
303.4927138119
 20
161.0277392513
 30
0.0
 11
230.0527266966
 21
357.7187352745
 31
0.0
 40
0.6067084637
 41
-3.9373305385
 42
-3.8989820478
  0
ELLIPSE
  5
522
100
AcDbEntity
  8
RACCORDO
100
AcDbEllipse
 62
7
  6
CONTINUOUS
 10
-14.466650245
 20
16.0301606448
 30
0.0
 11
-0.0986562447
 21
0.1761322008
 31
0.0
 40
0.575454123
 41
-0.768870444
 42
0.0968697498
  0
ELLIPSE
  5
523
100
AcDbEntity
  8
RACCORDO
100
AcDbEllipse
 62
7
  6
CONTINUOUS
 10
302.3825561654
 20
161.6687303628
 30
0.0
 11
230.0527266966
 21
357.7187352745
 31
0.0
 40
0.6067084637
 41
-3.9373305385
 42
-3.8989820478
  0
ELLIPSE
  5
524
100
AcDbEntity
  8
RACCORDO
100
AcDbEllipse
 62
7
  6
CONTINUOUS
 10
313.48413263
 20
155.2588192476
 30
0.0
 11
230.0527266966
 21
357.7187352745
 31
0.0
 40
0.6067084637
 41
-3.9373305385
 42
-3.8989820478
  0
ELLIPSE
  5
525
100
AcDbEntity
  8
RACCORDO
100
AcDbEllipse
 62
7
  6
CONTINUOUS
 10
301.272398519
 20
162.3097214744
 30
0.0
 11
230.0527266966
 21
357.7187352745
 31
0.0
 40
0.6067084637
 41
-3.9373305385
 42
-3.8989820478
  0
ELLIPSE
  5
526
100
AcDbEntity
  8
RACCORDO
100
AcDbEllipse
 62
7
  6
CONTINUOUS
 10
300.1622408725
 20
162.9507125859
 30
0.0
 11
230.0527266966
 21
357.7187352745
 31
0.0
 40
0.6067084637
 41
-3.9373305385
 42
-3.8989820478
  0
ELLIPSE
  5
527
100
AcDbEntity
  8
RACCORDO
100
AcDbEllipse
 62
7
  6
CONTINUOUS
 10
-9.2977737863
 20
-4.8562070866
 30
0.0
 11
0.1082601067
 21
0.1683382284
 31
0.0
 40
0.6067084637
 41
-3.8989820478
 42
-2.3445300544
  0
ELLIPSE
  5
528
100
AcDbEntity
  8
RACCORDO
100
AcDbEllipse
 62
7
  6
CONTINUOUS
 10
-8.4570487369
 20
8.8522131461
 30
0.0
 11
0.5413005334
 21
0.8416911418
 31
0.0
 40
0.6067084637
 41
0.9890488169
 42
2.3458547687
  0
ELLIPSE
  5
529
100
AcDbEntity
  8
RACCORDO
100
AcDbEllipse
 62
7
  6
CONTINUOUS
 10
299.052083226
 20
163.5917036974
 30
0.0
 11
230.0527266966
 21
357.7187352745
 31
0.0
 40
0.6067084637
 41
-3.9373305385
 42
-3.8989820478
  0
ELLIPSE
  5
52A
100
AcDbEntity
  8
RACCORDO
100
AcDbEllipse
 62
7
  6
CONTINUOUS
 10
12.1020255331
 20
16.8841685492
 30
0.0
 11
0.5066221626
 21
0.862190468
 31
0.0
 40
0.5823475934
 41
0.0044401419
 42
0.7811599806
  0
ELLIPSE
  5
52B
100
AcDbEntity
  8
RACCORDO
100
AcDbEllipse
 62
7
  6
CONTINUOUS
 10
7.5624985397
 20
-25.0992786358
 30
0.0
 11
-0.1500586486
 21
0.259833121
 31
0.0
 40
0.5772437351
 41
-2.4630192889
 42
-2.3564331449
  0
ELLIPSE
  5
52C
100
AcDbEntity
  8
RACCORDO
100
AcDbEllipse
 62
7
  6
CONTINUOUS
 10
7.5624985397
 20
13.6013938302
 30
0.0
 11
-0.1500358188
 21
0.2597935388
 31
0.0
 40
0.5774195892
 41
3.9269043623
 42
4.2410227724
  0
ELLIPSE
  5
52D
100
AcDbEntity
  8
RACCORDO
100
AcDbEllipse
 62
7
  6
CONTINUOUS
 10
7.5624985397
 20
13.6013938302
 30
0.0
 11
-0.1500358188
 21
0.2597935388
 31
0.0
 40
0.5774195892
 41
-0.8922382312
 42
-0.7856369171
  0
ELLIPSE
  5
52E
100
AcDbEntity
  8
RACCORDO
100
AcDbEllipse
 62
7
  6
CONTINUOUS
 10
-9.5494209377
 20
23.4816016737
 30
0.0
 11
-0.1500586486
 21
0.259833121
 31
0.0
 40
0.5772437351
 41
-0.7854845191
 42
-0.5745251585
  0
ELLIPSE
  5
52F
100
AcDbEntity
  8
RACCORDO
100
AcDbEllipse
 62
7
  6
CONTINUOUS
 10
-2.775239432
 20
25.4741148841
 30
0.0
 11
0.4935308613
 21
0.8697499888
 31
0.0
 40
0.5722717666
 41
5.4935476323
 42
7.0556173128
  0
ELLIPSE
  5
530
100
AcDbEntity
  8
ASSI
100
AcDbEllipse
 62
7
  6
CONTINUOUS
 10
-1.934017148
 20
24.6236635236
 30
0.0
 11
0.9999908055
 21
-0.0074926161
 31
0.0
 40
0.5723275643
 41
0.7896864073
 42
2.3517560878
  0
ELLIPSE
  5
531
100
AcDbEntity
  8
RACCORDO
100
AcDbEllipse
 62
7
  6
CONTINUOUS
 10
-9.5847816623
 20
23.5428435813
 30
0.0
 11
-0.1250488738
 21
0.2165276008
 31
0.0
 40
0.5772437351
 41
-0.7854845191
 42
0.0130880524
  0
ELLIPSE
  5
532
100
AcDbEntity
  8
RACCORDO
100
AcDbEllipse
 62
7
  6
CONTINUOUS
 10
6.537232752
 20
14.2341945148
 30
0.0
 11
-0.1250155585
 21
0.2165193523
 31
0.0
 40
0.5772877058
 41
-0.7854084013
 42
0.0087255601
  0
ELLIPSE
  5
533
100
AcDbEntity
  8
RACCORDO
100
AcDbEllipse
 62
7
  6
CONTINUOUS
 10
8.177609823
 20
18.9661358049
 30
0.0
 11
0.9964681619
 21
-0.2402284003
 31
0.0
 40
0.349548336
 41
1.9129379792
 42
2.4315382792
  0
ELLIPSE
  5
534
100
AcDbEntity
  8
RACCORDO
100
AcDbEllipse
 62
7
  6
CONTINUOUS
 10
5.9725931383
 20
18.5191457066
 30
0.0
 11
0.1013244325
 21
0.1724380936
 31
0.0
 40
0.5823475934
 41
-2.3429793804
 42
-0.7809096999
  0
ELLIPSE
  5
535
100
AcDbEntity
  8
RACCORDO
100
AcDbEllipse
 62
7
  6
CONTINUOUS
 10
-8.52415515
 20
22.9304511259
 30
0.0
 11
-0.1250060414
 21
0.2165028628
 31
0.0
 40
0.5773756362
 41
-2.3562047428
 42
-0.7854845684
  0
ELLIPSE
  5
536
100
AcDbEntity
  8
RACCORDO
100
AcDbEllipse
 62
7
  6
CONTINUOUS
 10
7.5978592644
 20
13.6218020593
 30
0.0
 11
-0.125029849
 21
0.2164946157
 31
0.0
 40
0.5774195892
 41
-2.3562809449
 42
-0.7856369171
  0
ELLIPSE
  5
537
100
AcDbEntity
  8
RACCORDO
100
AcDbEllipse
 62
7
  6
CONTINUOUS
 10
7.5978592644
 20
-25.1605205434
 30
0.0
 11
-0.1250488738
 21
0.2165276008
 31
0.0
 40
0.5772437351
 41
-3.154680706
 42
-2.3564331449
  0
ELLIPSE
  5
538
100
AcDbEntity
  8
RACCORDO
100
AcDbEllipse
 62
7
  6
CONTINUOUS
 10
9.2471711211
 20
18.3619885958
 30
0.0
 11
0.3875628189
 21
0.6480034385
 31
0.0
 40
0.5873179545
 41
0.0090366246
 42
0.7857564631
  0
ELLIPSE
  5
539
100
AcDbEntity
  8
RACCORDO
100
AcDbEllipse
 62
7
  6
CONTINUOUS
 10
-0.8069836128
 20
24.167131531
 30
0.0
 11
0.3824997328
 21
0.6509538033
 31
0.0
 40
0.5823475934
 41
0.004440142
 42
0.7811599806
  0
ELLIPSE
  5
53A
100
AcDbEntity
  8
RACCORDO
100
AcDbEllipse
 62
7
  6
CONTINUOUS
 10
-14.6218220138
 20
16.5306359123
 30
0.0
 11
0.2499977014
 21
-0.001873154
 31
0.0
 40
0.5723275643
 41
-3.1373044097
 42
-2.3519062463
  0
ELLIPSE
  5
53B
100
AcDbEntity
  8
RACCORDO
100
AcDbEllipse
 62
7
  6
CONTINUOUS
 10
2.3818512887
 20
6.7129280536
 30
0.0
 11
0.2499977014
 21
-0.001873154
 31
0.0
 40
0.5723275643
 41
-2.3519062463
 42
-0.798563212
  0
ELLIPSE
  5
53C
100
AcDbEntity
  8
RACCORDO
100
AcDbEllipse
 62
7
  6
CONTINUOUS
 10
-8.2632440246
 20
19.7079837639
 30
0.0
 11
0.818966458
 21
0.0062443076
 31
0.0
 40
0.5824033911
 41
8.6436658686
 42
11.7678052297
  0
ELLIPSE
  5
53D
100
AcDbEntity
  8
RACCORDO
100
AcDbEllipse
 62
7
  6
CONTINUOUS
 10
1.7776722683
 20
13.9104845387
 30
0.0
 11
0.818966458
 21
0.0062443076
 31
0.0
 40
0.5824033911
 41
8.6436658686
 42
11.7678052297
  0
ELLIPSE
  5
53E
100
AcDbEntity
  8
RACCORDO
100
AcDbEllipse
 62
7
  6
CONTINUOUS
 10
-10.481224217
 20
21.3271166965
 30
0.0
 11
0.9733672794
 21
0.0074215551
 31
0.0
 40
0.5824033911
 41
3.1371520786
 42
5.4846199225
  0
ELLIPSE
  5
53F
100
AcDbEntity
  8
RACCORDO
100
AcDbEllipse
 62
7
  6
CONTINUOUS
 10
5.6282239116
 20
12.0257232458
 30
0.0
 11
0.9733672794
 21
0.0074215551
 31
0.0
 40
0.5824033911
 41
3.1371520786
 42
4.7429393807
  0
ELLIPSE
  5
540
100
AcDbEntity
  8
RACCORDO
100
AcDbEllipse
 62
7
  6
CONTINUOUS
 10
0.4260973028
 20
22.9130131825
 30
0.0
 11
0.3677898778
 21
0.6594247255
 31
0.0
 40
0.5671693725
 41
-0.0084272971
 42
0.4279533387
  0
ELLIPSE
  5
541
100
AcDbEntity
  8
RACCORDO
100
AcDbEllipse
 62
7
  6
CONTINUOUS
 10
-8.2632440246
 20
19.0956310563
 30
0.0
 11
0.818966458
 21
0.0062443076
 31
0.0
 40
0.5824033911
 41
3.1371520774
 42
5.4846199225
  0
ELLIPSE
  5
542
100
AcDbEntity
  8
RACCORDO
100
AcDbEllipse
 62
7
  6
CONTINUOUS
 10
1.7776722683
 20
13.2981318311
 30
0.0
 11
0.818966458
 21
0.0062443076
 31
0.0
 40
0.5824033911
 41
3.1371520774
 42
5.4846199225
  0
ELLIPSE
  5
543
100
AcDbEntity
  8
RACCORDO
100
AcDbEllipse
 62
7
  6
CONTINUOUS
 10
2.3818512887
 20
-24.0682944777
 30
0.0
 11
0.2499975352
 21
0.0019061361
 31
0.0
 40
0.5824033911
 41
-2.3606350652
 42
-0.807292031
  0
ELLIPSE
  5
544
100
AcDbEntity
  8
RACCORDO
100
AcDbEllipse
 62
7
  6
CONTINUOUS
 10
10.4802520366
 20
17.6500231293
 30
0.0
 11
0.3726158003
 21
0.6566612415
 31
0.0
 40
0.5722717666
 41
5.4935476323
 42
7.0556173128
  0
ELLIPSE
  5
545
100
AcDbEntity
  8
RACCORDO
100
AcDbEllipse
 62
7
  6
CONTINUOUS
 10
0.4260973028
 20
23.4551660645
 30
0.0
 11
0.3677898778
 21
0.6594247255
 31
0.0
 40
0.5671693725
 41
5.4894081695
 42
7.05147785
  0
ELLIPSE
  5
546
100
AcDbEntity
  8
RACCORDO
100
AcDbEllipse
 62
7
  6
CONTINUOUS
 10
1.1491762781
 20
23.0242652467
 30
0.0
 11
0.9964681619
 21
-0.2402284003
 31
0.0
 40
0.349548336
 41
-0.6926009771
 42
-0.1740007818
  0
ENDSEC
  0
SECTION
  2
OBJECTS
  0
DICTIONARY
  5
C
100
AcDbDictionary
280
0
281
1
  3
ACAD_GROUP
350
D
  3
ACAD_MLINESTYLE
350
17
  3
ACAD_LAYOUT
350
1A
  3
ACAD_PLOTSETTINGS
350
19
  3
ACAD_PLOTSTYLENAME
350
E
  0
DICTIONARY
  5
D
102
{ACAD_REACTORS
330
C
102
}
100
AcDbDictionary
280
0
281
1
  0
ACDBDICTIONARYWDFLT
  5
E
102
{ACAD_REACTORS
330
C
102
}
100
AcDbDictionary
281
1
  3
Normal
350
F
100
AcDbDictionaryWithDefault
340
F
  0
DICTIONARY
  5
17
102
{ACAD_REACTORS
330
C
102
}
100
AcDbDictionary
280
0
281
1
  3
Standard
350
18
  0
DICTIONARY
  5
19
102
{ACAD_REACTORS
330
C
102
}
100
AcDbDictionary
281
1
  0
DICTIONARY
  5
1A
102
{ACAD_REACTORS
330
C
102
}
100
AcDbDictionary
281
1
  3
Model
350
547
  3
Layout1
350
548
  0
ACDBPLACEHOLDER
  5
F
102
{ACAD_REACTORS
330
E
102
}
  0
MLINESTYLE
  5
18
102
{ACAD_REACTORS
330
17
102
}
100
AcDbMlineStyle
  2
STANDARD
 70
0
  3

 62
256
 51
90.0
 52
90.0
 71
2
 49
0.5
 62
256
  6
BYLAYER
 49
-0.5
 62
256
  6
BYLAYER
  0
LAYOUT
  5
547
102
{ACAD_REACTORS
330
1A
102
}
100
AcDbPlotSettings
  1

  2
none_device
  4
ISO_A4_(297.00_x_210.00_MM)
  6

 40
0.0
 41
0.0
 42
0.0
 43
0.0
 44
297.0
 45
210.0
 46
0.0
 47
0.0
 48
0.0
 49
0.0
140
0.0
141
0.0
142
1.0
143
1.0
 70
1024
 72
1
 73
0
 74
0
  7

 75
0
147
1.0
148
0.0
149
0.0
100
AcDbLayout
  1
Model
 70
0
 71
0
 10
0.0
 20
0.0
 11
297.0
 21
210.0
 12
0.0
 22
0.0
 32
0.0
 14
0.0
 24
0.0
 34
0.0
 15
0.0
 25
0.0
 35
0.0
146
0.0
 13
0.0
 23
0.0
 33
0.0
 16
1.0
 26
0.0
 36
0.0
 17
0.0
 27
1.0
 37
0.0
 76
0
330
213
345
0
346
0
  0
LAYOUT
  5
548
102
{ACAD_REACTORS
330
1A
102
}
100
AcDbPlotSettings
  1

  2
none_device
  4
ISO_A4_(297.00_x_210.00_MM)
  6

 40
0.0
 41
0.0
 42
0.0
 43
0.0
 44
297.0
 45
210.0
 46
0.0
 47
0.0
 48
0.0
 49
0.0
140
0.0
141
0.0
142
1.0
143
1.0
 70
0
 72
1
 73
0
 74
0
  7

 75
0
147
1.0
148
0.0
149
0.0
100
AcDbLayout
  1
Layout1
 70
0
 71
1
 10
0.0
 20
0.0
 11
297.0
 21
210.0
 12
0.0
 22
0.0
 32
0.0
 14
0.0
 24
0.0
 34
0.0
 15
0.0
 25
0.0
 35
0.0
146
0.0
 13
0.0
 23
0.0
 33
0.0
 16
1.0
 26
0.0
 36
0.0
 17
0.0
 27
1.0
 37
0.0
 76
0
330
214
345
0
346
0
  0
ENDSEC
  0
EOF
