  0
SECTION
  2
HEADER
  9
$ACADVER
  1
AC1021
  9
$DWGCODEPAGE
  3
ANSI_1252
  9
$EXTMAX
 10
279.4
 20
215.9
 30
0.0
  9
$EXTMIN
 10
0.0
 20
0.0
 30
0.0
  9
$LIMMIN
 10
0.0
 20
0.0
  9
$LIMMAX
 10
279.4
 20
215.9
  9
$VIEWCTR
 10
139.7
 20
107.95
  9
$VIEWSIZE
 40
215.9
  9
$CLAYER
  8
0
  9
$LTSCALE
 40
15.367
  9
$CELTYPE
  6
BYLAYER
  9
$DIMSCALE
 40
1.0
  9
$DIMASZ
 40
3.0
  9
$DIMEXO
 40
0.5
  9
$DIMDLI
 40
10.6172
  9
$DIMEXE
 40
1.5
  9
$DIMCEN
 40
2.5146
  9
$DIMLFAC
 40
1.0
  9
$DIMBLK
  1
_FILLED
  9
$DIMALT
 70
0
  9
$DIMALTF
 40
25.4
  9
$DIMTXT
 40
3.0
  9
$DIMTOL
 70
1
  9
$DIMLIM
 70
0
  9
$DIMTFAC
 40
1.0
  9
$DIMTP
 40
0.01
  9
$DIMTM
 40
0.01
  9
$DIMGAP
 40
0.625
  9
$DIMDSEP
 70
44
  9
$AUNITS
 70
0
  9
$PDMODE
 70
3
  9
$PDSIZE
 40
3.0
  9
$HANDSEED
  5
6F0
  9
$TILEMODE
 70
1
  9
$MEASUREMENT
 70
1
  9
$INSUNITS
 70
4
  0
ENDSEC
  0
SECTION
  2
CLASSES
  0
CLASS
  1
ACDBDICTIONARYWDFLT
  2
AcDbDictionaryWithDefault
  3
AutoCAD 2000
 90
0
 91
1
280
0
281
0
  0
CLASS
  1
ACDBPLACEHOLDER
  2
AcDbPlaceHolder
  3
AutoCAD 2000
 90
0
 91
1
280
0
281
0
  0
CLASS
  1
LAYOUT
  2
AcDbLayout
  3
AutoCAD 2000
 90
0
 91
0
280
0
281
0
  0
ENDSEC
  0
SECTION
  2
TABLES
  0
TABLE
  2
VPORT
  5
8
100
AcDbSymbolTable
 70
2
  0
VPORT
  5
1F4
100
AcDbSymbolTableRecord
100
AcDbViewportTableRecord
  2
*ACTIVE
 70
0
 10
0.0
 20
0.0
 11
1.0
 21
1.0
 12
139.7
 22
107.95
 13
0.0
 23
0.0
 14
1.0
 24
1.0
 15
0.0
 25
0.0
 16
0.0
 26
0.0
 36
1.0
 17
0.0
 27
0.0
 37
0.0
 40
215.9
 41
1.2941176471
 42
50.0
 43
0.0
 44
0.0
 50
0.0
 51
0.0
 71
0
 72
100
 73
1
 74
1
 75
0
 76
0
 77
0
 78
0
  0
ENDTAB
  0
TABLE
  2
LTYPE
  5
5
100
AcDbSymbolTable
 70
6
  0
LTYPE
  5
14
100
AcDbSymbolTableRecord
100
AcDbLinetypeTableRecord
  2
BYBLOCK
 70
0
  3

 72
65
 73
0
 40
0.0
  0
LTYPE
  5
15
100
AcDbSymbolTableRecord
100
AcDbLinetypeTableRecord
  2
BYLAYER
 70
0
  3

 72
65
 73
0
 40
0.0
  0
LTYPE
  5
16
100
AcDbSymbolTableRecord
100
AcDbLinetypeTableRecord
  2
CONTINUOUS
 70
64
  3
Solid line
 72
65
 73
0
 40
0.0
  0
LTYPE
  5
1F5
100
AcDbSymbolTableRecord
100
AcDbLinetypeTableRecord
  2
CENTER
 70
64
  3
____ _ ____ _ ____ _ ____ _ ____ _ ____ _ ____
 72
65
 73
4
 40
0.6
 49
0.375
 74
0
 49
-0.075
 74
0
 49
0.075
 74
0
 49
-0.075
 74
0
  0
LTYPE
  5
1F6
100
AcDbSymbolTableRecord
100
AcDbLinetypeTableRecord
  2
HIDDEN
 70
64
  3
- - - - - - - - - - - - - - - - - - - -
 72
65
 73
2
 40
0.2
 49
0.1
 74
0
 49
-0.1
 74
0
  0
LTYPE
  5
1F7
100
AcDbSymbolTableRecord
100
AcDbLinetypeTableRecord
  2
PHANTOM
 70
64
  3
_____ _ _ _____ _ _ _____ _ _ _____
 72
65
 73
6
 40
0.8
 49
0.45
 74
0
 49
-0.05
 74
0
 49
0.1
 74
0
 49
-0.05
 74
0
 49
0.1
 74
0
 49
-0.05
 74
0
  0
LTYPE
  5
1F8
100
AcDbSymbolTableRecord
100
AcDbLinetypeTableRecord
  2
DOT
 70
64
  3
. . . . . . . . . . . . . . . . . . . .
 72
65
 73
2
 40
0.2
 49
0.1
 74
0
 49
-0.1
 74
0
  0
LTYPE
  5
1F9
100
AcDbSymbolTableRecord
100
AcDbLinetypeTableRecord
  2
DASHED
 70
64
  3
- - - - - - - - - - - - - - - - - - - -
 72
65
 73
2
 40
0.2
 49
0.1
 74
0
 49
-0.1
 74
0
  0
ENDTAB
  0
TABLE
  2
LAYER
  5
2
100
AcDbSymbolTable
 70
36
  0
LAYER
  5
10
100
AcDbSymbolTableRecord
100
AcDbLayerTableRecord
  2
0
 70
0
 62
7
  6
CONTINUOUS
370
-3
390
F
  0
LAYER
  5
1FA
100
AcDbSymbolTableRecord
100
AcDbLayerTableRecord
  2
DEFAULT_1
 70
0
 62
7
  6
CENTER
370
-3
390
F
  0
LAYER
  5
1FB
100
AcDbSymbolTableRecord
100
AcDbLayerTableRecord
  2
DEFAULT_2
 70
0
 62
7
  6
HIDDEN
370
-3
390
F
  0
LAYER
  5
1FC
100
AcDbSymbolTableRecord
100
AcDbLayerTableRecord
  2
DEFAULT_3
 70
0
 62
7
  6
PHANTOM
370
-3
390
F
  0
LAYER
  5
1FD
100
AcDbSymbolTableRecord
100
AcDbLayerTableRecord
  2
3_ALL_SYMBOLS
 70
0
 62
7
  6
CONTINUOUS
370
-3
390
F
  0
LAYER
  5
1FE
100
AcDbSymbolTableRecord
100
AcDbLayerTableRecord
  2
ASSI
 70
0
 62
7
  6
CONTINUOUS
370
-3
390
F
  0
LAYER
  5
1FF
100
AcDbSymbolTableRecord
100
AcDbLayerTableRecord
  2
COLOR5
 70
0
 62
7
  6
CONTINUOUS
370
-3
390
F
  0
LAYER
  5
200
100
AcDbSymbolTableRecord
100
AcDbLayerTableRecord
  2
COORDINATE
 70
0
 62
7
  6
CONTINUOUS
370
-3
390
F
  0
LAYER
  5
201
100
AcDbSymbolTableRecord
100
AcDbLayerTableRecord
  2
COORD_ORIGINE
 70
0
 62
7
  6
CONTINUOUS
370
-3
390
F
  0
LAYER
  5
202
100
AcDbSymbolTableRecord
100
AcDbLayerTableRecord
  2
COSMETICHE
 70
0
 62
7
  6
CONTINUOUS
370
-3
390
F
  0
LAYER
  5
203
100
AcDbSymbolTableRecord
100
AcDbLayerTableRecord
  2
COSMETICI
 70
0
 62
7
  6
CONTINUOUS
370
-3
390
F
  0
LAYER
  5
204
100
AcDbSymbolTableRecord
100
AcDbLayerTableRecord
  2
CURVE
 70
0
 62
7
  6
CONTINUOUS
370
-3
390
F
  0
LAYER
  5
205
100
AcDbSymbolTableRecord
100
AcDbLayerTableRecord
  2
CURVE1
 70
0
 62
7
  6
CONTINUOUS
370
-3
390
F
  0
LAYER
  5
206
100
AcDbSymbolTableRecord
100
AcDbLayerTableRecord
  2
DRAFT
 70
0
 62
7
  6
CONTINUOUS
370
-3
390
F
  0
LAYER
  5
207
100
AcDbSymbolTableRecord
100
AcDbLayerTableRecord
  2
IGES_SCRITTE
 70
0
 62
7
  6
CONTINUOUS
370
-3
390
F
  0
LAYER
  5
208
100
AcDbSymbolTableRecord
100
AcDbLayerTableRecord
  2
IMPORT
 70
0
 62
7
  6
CONTINUOUS
370
-3
390
F
  0
LAYER
  5
209
100
AcDbSymbolTableRecord
100
AcDbLayerTableRecord
  2
INTF_1
 70
0
 62
7
  6
CONTINUOUS
370
-3
390
F
  0
LAYER
  5
20A
100
AcDbSymbolTableRecord
100
AcDbLayerTableRecord
  2
INTF_2
 70
0
 62
7
  6
CONTINUOUS
370
-3
390
F
  0
LAYER
  5
20B
100
AcDbSymbolTableRecord
100
AcDbLayerTableRecord
  2
INTF_5
 70
0
 62
7
  6
CONTINUOUS
370
-3
390
F
  0
LAYER
  5
20C
100
AcDbSymbolTableRecord
100
AcDbLayerTableRecord
  2
INTF_CYAN
 70
0
 62
7
  6
CONTINUOUS
370
-3
390
F
  0
LAYER
  5
20D
100
AcDbSymbolTableRecord
100
AcDbLayerTableRecord
  2
INTF_YELLOW
 70
0
 62
7
  6
CONTINUOUS
370
-3
390
F
  0
LAYER
  5
20E
100
AcDbSymbolTableRecord
100
AcDbLayerTableRecord
  2
LAY0001
 70
0
 62
7
  6
CONTINUOUS
370
-3
390
F
  0
LAYER
  5
20F
100
AcDbSymbolTableRecord
100
AcDbLayerTableRecord
  2
NOTE
 70
0
 62
7
  6
CONTINUOUS
370
-3
390
F
  0
LAYER
  5
210
100
AcDbSymbolTableRecord
100
AcDbLayerTableRecord
  2
PIANI
 70
0
 62
7
  6
CONTINUOUS
370
-3
390
F
  0
LAYER
  5
211
100
AcDbSymbolTableRecord
100
AcDbLayerTableRecord
  2
PIANI_DI_RIFERIMENTO
 70
0
 62
7
  6
CONTINUOUS
370
-3
390
F
  0
LAYER
  5
212
100
AcDbSymbolTableRecord
100
AcDbLayerTableRecord
  2
PIANI_ORIGINE
 70
0
 62
7
  6
CONTINUOUS
370
-3
390
F
  0
LAYER
  5
213
100
AcDbSymbolTableRecord
100
AcDbLayerTableRecord
  2
PUNTI
 70
0
 62
7
  6
CONTINUOUS
370
-3
390
F
  0
LAYER
  5
214
100
AcDbSymbolTableRecord
100
AcDbLayerTableRecord
  2
RACCORDO
 70
0
 62
7
  6
CONTINUOUS
370
-3
390
F
  0
LAYER
  5
215
100
AcDbSymbolTableRecord
100
AcDbLayerTableRecord
  2
RGB__255__255__255__
 70
0
 62
7
  6
CONTINUOUS
370
-3
390
F
  0
LAYER
  5
216
100
AcDbSymbolTableRecord
100
AcDbLayerTableRecord
  2
RGB____0____0____0__
 70
0
 62
7
  6
CONTINUOUS
370
-3
390
F
  0
LAYER
  5
217
100
AcDbSymbolTableRecord
100
AcDbLayerTableRecord
  2
SMUSSO
 70
0
 62
7
  6
CONTINUOUS
370
-3
390
F
  0
LAYER
  5
218
100
AcDbSymbolTableRecord
100
AcDbLayerTableRecord
  2
SNAPLINE
 70
0
 62
7
  6
CONTINUOUS
370
-3
390
F
  0
LAYER
  5
219
100
AcDbSymbolTableRecord
100
AcDbLayerTableRecord
  2
SUPERFICI
 70
0
 62
7
  6
CONTINUOUS
370
-3
390
F
  0
LAYER
  5
21A
100
AcDbSymbolTableRecord
100
AcDbLayerTableRecord
  2
TRASH
 70
0
 62
7
  6
CONTINUOUS
370
-3
390
F
  0
LAYER
  5
21B
100
AcDbSymbolTableRecord
100
AcDbLayerTableRecord
  2
XSEC_DATUMS
 70
0
 62
7
  6
CONTINUOUS
370
-3
390
F
  0
ENDTAB
  0
TABLE
  2
STYLE
  5
3
100
AcDbSymbolTable
 70
1
  0
STYLE
  5
11
100
AcDbSymbolTableRecord
100
AcDbTextStyleTableRecord
  2
STANDARD
 70
0
 40
0.0
 41
0.8
 50
0.0
 71
0
 42
0.2
  3
txt
  4

  0
STYLE
  5
21C
100
AcDbSymbolTableRecord
100
AcDbTextStyleTableRecord
  2
TEXTSTYLE_1
 70
0
 40
0.0
 41
0.8
 50
0.0
 71
0
 42
0.2
  3
gdt
  4

  0
ENDTAB
  0
TABLE
  2
VIEW
  5
6
100
AcDbSymbolTable
 70
0
  0
ENDTAB
  0
TABLE
  2
UCS
  5
7
100
AcDbSymbolTable
 70
0
  0
ENDTAB
  0
TABLE
  2
APPID
  5
9
100
AcDbSymbolTable
 70
1
  0
APPID
  5
21D
100
AcDbSymbolTableRecord
100
AcDbRegAppTableRecord
  2
ACAD
 70
0
  0
ENDTAB
  0
TABLE
  2
BLOCK_RECORD
  5
1
100
AcDbSymbolTable
 70
0
  0
BLOCK_RECORD
  5
21E
100
AcDbSymbolTableRecord
100
AcDbBlockTableRecord
  2
*Model_Space
  0
BLOCK_RECORD
  5
21F
100
AcDbSymbolTableRecord
100
AcDbBlockTableRecord
  2
*Paper_Space
  0
ENDTAB
  0
TABLE
  2
DIMSTYLE
  5
A
100
AcDbSymbolTable
 70
1
100
AcDbDimStyleTable
 71
0
  0
DIMSTYLE
105
220
100
AcDbSymbolTableRecord
100
AcDbDimStyleTableRecord
  2
STANDARD
 70
0
  3

  4

 40
1.0
 41
3.0
 42
0.5
 43
0.38
 44
1.5
 45
0.0
 46
0.0
 47
0.01
 48
0.01
140
3.0
141
0.09
142
0.0
143
25.4
144
1.0
145
0.0
146
1.0
147
0.625
 71
1.0
 72
0.0
 73
0
 74
0
 75
0
 76
0
 77
1
 78
8
170
0
171
1
172
0
173
0
174
0
175
0
176
0
177
0
178
0
270
2
271
2
272
2
273
2
274
2
275
0
280
0
281
0
282
0
283
1
284
8
285
0
286
0
287
3
288
0
340
11
278
44
  0
ENDTAB
  0
ENDSEC
  0
SECTION
  2
BLOCKS
  0
BLOCK
  5
20
100
AcDbEntity
  8
0
100
AcDbBlockBegin
  2
*Model_Space
 70
0
 10
0.0
 20
0.0
 30
0.0
  3
*Model_Space
  1

  0
ENDBLK
  5
21
100
AcDbEntity
  8
0
100
AcDbBlockEnd
  0
BLOCK
  5
1C
100
AcDbEntity
  8
0
100
AcDbBlockBegin
  2
*Paper_Space
 70
0
 10
0.0
 20
0.0
 30
0.0
  3
*Paper_Space
  1

  0
ENDBLK
  5
1D
100
AcDbEntity
  8
0
100
AcDbBlockEnd
  0
ENDSEC
  0
SECTION
  2
ENTITIES
  0
LWPOLYLINE
  5
221
100
AcDbEntity
  8
RACCORDO
100
AcDbPolyline
 62
7
  6
CONTINUOUS
 90
3
 70
0
 10
-38.3165070632
 20
21.9529554988
 10
-38.330464788
 20
21.8589057593
 10
-38.334671228
 20
21.8030513205
  0
LINE
  5
222
100
AcDbEntity
  8
RACCORDO
100
AcDbLine
 62
253
  6
CONTINUOUS
 10
-38.3049611526
 20
21.9425376165
 11
-38.3208521542
 21
21.8561875448
  0
LWPOLYLINE
  5
223
100
AcDbEntity
  8
RACCORDO
100
AcDbPolyline
 62
253
  6
CONTINUOUS
 90
11
 70
0
 10
-37.7316610511
 20
22.7764251251
 10
-37.8184167267
 20
22.709176971
 10
-37.900252693
 20
22.635207027
 10
-37.9761962632
 20
22.556186436
 10
-38.0455242525
 20
22.4732564704
 10
-38.1078040069
 20
22.3871053061
 10
-38.1627472675
 20
22.2988629366
 10
-38.2100270595
 20
22.2095935122
 10
-38.2494855942
 20
22.120037905
 10
-38.281151736
 20
22.0307802732
 10
-38.3049611526
 20
21.9425376165
  0
LINE
  5
224
100
AcDbEntity
  8
RACCORDO
100
AcDbLine
 62
253
  6
CONTINUOUS
 10
-38.1338565789
 20
-15.6445322127
 11
-38.3289492553
 21
-15.2072457563
  0
LWPOLYLINE
  5
225
100
AcDbEntity
  8
RACCORDO
100
AcDbPolyline
 62
7
  6
CONTINUOUS
 90
13
 70
0
 10
-38.2820861924
 20
-15.4275191466
 10
-38.163318784
 20
-15.7059669828
 10
-37.8552614931
 20
-16.3179657225
 10
-37.4846350568
 20
-16.9229384556
 10
-37.0504180006
 20
-17.520485218
 10
-36.5532928554
 20
-18.107895223
 10
-35.9967718009
 20
-18.6802751307
 10
-35.382208686
 20
-19.2363447689
 10
-34.7106762184
 20
-19.7751010774
 10
-33.987541393
 20
-20.2925503195
 10
-33.216681153
 20
-20.7869311746
 10
-32.3991119631
 20
-21.2584011128
 10
-31.6529091526
 20
-21.6486892789
  0
LINE
  5
226
100
AcDbEntity
  8
RACCORDO
100
AcDbLine
 62
7
  6
CONTINUOUS
 10
-38.2827382597
 20
-15.4258965671
 11
-38.2820881284
 21
-15.4275143432
  0
LINE
  5
227
100
AcDbEntity
  8
RACCORDO
100
AcDbLine
 62
7
  6
CONTINUOUS
 10
-38.309636767
 20
-15.344465759
 11
-38.2827884614
 21
-15.4256766074
  0
LWPOLYLINE
  5
228
100
AcDbEntity
  8
RACCORDO
100
AcDbPolyline
 62
253
  6
CONTINUOUS
 90
3
 70
0
 10
-38.3288050684
 20
-15.2072264247
 10
-38.3334707409
 20
-15.1902868505
 10
-38.3346259889
 20
-15.1799221685
  0
LWPOLYLINE
  5
229
100
AcDbEntity
  8
RACCORDO
100
AcDbPolyline
 62
253
  6
CONTINUOUS
 90
4
 70
0
 10
-38.3288957779
 20
-15.2072394935
 10
-38.3208520059
 20
-15.2850692568
 10
-38.3049608207
 20
-15.3595148958
 10
-38.2827382597
 20
-15.4258965671
  0
LINE
  5
22A
100
AcDbEntity
  8
RACCORDO
100
AcDbLine
 62
7
  6
CONTINUOUS
 10
-38.3346259889
 20
-15.1799221685
 11
-38.3269825624
 21
-15.2591542742
  0
LINE
  5
22B
100
AcDbEntity
  8
RACCORDO
100
AcDbLine
 62
253
  6
CONTINUOUS
 10
-38.4543203978
 20
-12.4618822403
 11
-38.3289492553
 21
-15.2072457563
  0
LWPOLYLINE
  5
22C
100
AcDbEntity
  8
RACCORDO
100
AcDbPolyline
 62
7
  6
CONTINUOUS
 90
10
 70
0
 10
-38.3347837287
 20
21.8030982736
 10
-38.5076501297
 20
17.7182838387
 10
-38.6419704276
 20
13.5111620888
 10
-38.7313541373
 20
9.3252744348
 10
-38.7760156374
 20
5.1612850311
 10
-38.7760900872
 20
1.0198526656
 10
-38.7315728975
 20
-3.0983048456
 10
-38.6423192365
 20
-7.192382944
 10
-38.5081054625
 20
-11.2614914534
 10
-38.3347481006
 20
-15.1799269924
  0
LWPOLYLINE
  5
22D
100
AcDbEntity
  8
RACCORDO
100
AcDbPolyline
 62
253
  6
CONTINUOUS
 90
12
 70
0
 10
-38.3289492509
 20
21.7724826082
 10
-38.4543150666
 20
18.8930365567
 10
-38.5628121805
 20
15.9166130367
 10
-38.6518971889
 20
12.8438392352
 10
-38.7193336956
 20
9.639413477
 10
-38.7610928238
 20
6.3400027744
 10
-38.7748675073
 20
3.0539157379
 10
-38.7611689282
 20
-0.2181295493
 10
-38.7194233672
 20
-3.4763334542
 10
-38.6519558053
 20
-6.6145476999
 10
-38.562842129
 20
-9.5978028903
 10
-38.4543203978
 20
-12.4618822403
  0
LINE
  5
22E
100
AcDbEntity
  8
RACCORDO
100
AcDbLine
 62
7
  6
CONTINUOUS
 10
-38.3347856724
 20
21.8030570087
 11
-38.3347837287
 21
21.8030982736
  0
LINE
  5
22F
100
AcDbEntity
  8
RACCORDO
100
AcDbLine
 62
253
  6
CONTINUOUS
 10
-38.3208521542
 20
21.8561875448
 11
-38.3288958201
 21
21.7724840927
  0
LWPOLYLINE
  5
230
100
AcDbEntity
  8
RACCORDO
100
AcDbPolyline
 62
7
  6
CONTINUOUS
 90
13
 70
0
 10
-37.590241941
 20
22.9371264293
 10
-37.6652062849
 20
22.8931610415
 10
-37.757559906
 20
22.8288108488
 10
-37.8450963718
 20
22.7564679153
 10
-37.9271102018
 20
22.6772302517
 10
-38.0020455206
 20
22.5933722975
 10
-38.069016444
 20
22.5069355283
 10
-38.1285633142
 20
22.4181855817
 10
-38.1811213216
 20
22.3270834174
 10
-38.2263310701
 20
22.2346287586
 10
-38.2639325341
 20
22.1416053012
 10
-38.2941056018
 20
22.0475849887
 10
-38.3165070632
 20
21.9529554988
  0
LWPOLYLINE
  5
231
100
AcDbEntity
  8
RACCORDO
100
AcDbPolyline
 62
253
  6
CONTINUOUS
 90
3
 70
0
 10
-37.5473951748
 20
22.8876367415
 10
-37.6409999449
 20
22.8360159679
 10
-37.7316610511
 20
22.7764251251
  0
LINE
  5
232
100
AcDbEntity
  8
RACCORDO
100
AcDbLine
 62
7
  6
CONTINUOUS
 10
-33.8134211472
 20
24.9748124626
 11
-37.5906897318
 21
22.9368894043
  0
LINE
  5
233
100
AcDbEntity
  8
RACCORDO
100
AcDbLine
 62
253
  6
CONTINUOUS
 10
-33.6761650593
 20
24.9679018799
 11
-37.451944784
 21
22.9307820956
  0
LINE
  5
234
100
AcDbEntity
  8
RACCORDO
100
AcDbLine
 62
7
  6
CONTINUOUS
 10
-33.6607156868
 20
24.9601771936
 11
-32.6976580203
 21
25.4417060269
  0
LINE
  5
235
100
AcDbEntity
  8
RACCORDO
100
AcDbLine
 62
253
  6
CONTINUOUS
 10
-33.5347113943
 20
24.8971750474
 11
-32.4740512225
 21
25.4275051333
  0
LINE
  5
236
100
AcDbEntity
  8
RACCORDO
100
AcDbLine
 62
253
  6
CONTINUOUS
 10
-31.625501546
 20
26.388870941
 11
-23.9709701885
 21
30.1855749243
  0
LINE
  5
237
100
AcDbEntity
  8
ASSI
100
AcDbLine
 62
253
  6
CONTINUOUS
 10
-31.625501546
 20
26.388870941
 11
-23.9709701885
 21
30.1855749243
  0
LINE
  5
238
100
AcDbEntity
  8
RACCORDO
100
AcDbLine
 62
253
  6
CONTINUOUS
 10
-31.4841017289
 20
26.1449923317
 11
-23.8295703714
 21
29.941696315
  0
LINE
  5
239
100
AcDbEntity
  8
ASSI
100
AcDbLine
 62
253
  6
CONTINUOUS
 10
-31.4841017289
 20
26.1449923317
 11
-23.8295703714
 21
29.941696315
  0
LWPOLYLINE
  5
23A
100
AcDbEntity
  8
RACCORDO
100
AcDbPolyline
 62
253
  6
CONTINUOUS
 90
22
 70
0
 10
-23.8295703714
 20
29.941696315
 10
-23.807374266
 20
29.9524651262
 10
-23.7841928545
 20
29.9621434903
 10
-23.7600261371
 20
29.9707314074
 10
-23.7346940484
 20
29.9784600047
 10
-23.7083766538
 20
29.9850981549
 10
-23.6816141489
 20
29.9899524763
 10
-23.654379999
 20
29.9929564777
 10
-23.6267007389
 20
29.9941766502
 10
-23.5991961686
 20
29.9931190857
 10
-23.5718671566
 20
29.9896856359
 10
-23.5447128345
 20
29.983974449
 10
-23.518350397
 20
29.9757860619
 10
-23.4928151416
 20
29.965011482
 10
-23.4680717709
 20
29.9517597019
 10
-23.4446315868
 20
29.9361582361
 10
-23.4225493368
 20
29.9180997386
 10
-23.4017702736
 20
29.8976915554
 10
-23.3826414573
 20
29.8753832393
 10
-23.3652376562
 20
29.8510859435
 10
-23.349484102
 20
29.8248885148
 10
-23.33550355
 20
29.7975070464
  0
LWPOLYLINE
  5
23B
100
AcDbEntity
  8
ASSI
100
AcDbPolyline
 62
253
  6
CONTINUOUS
 90
22
 70
0
 10
-23.8295703714
 20
29.941696315
 10
-23.807374266
 20
29.9524651262
 10
-23.7841928545
 20
29.9621434903
 10
-23.7600261371
 20
29.9707314074
 10
-23.7346940484
 20
29.9784600047
 10
-23.7083766538
 20
29.9850981549
 10
-23.6816141489
 20
29.9899524763
 10
-23.654379999
 20
29.9929564777
 10
-23.6267007389
 20
29.9941766502
 10
-23.5991961686
 20
29.9931190857
 10
-23.5718671566
 20
29.9896856359
 10
-23.5447128345
 20
29.983974449
 10
-23.518350397
 20
29.9757860619
 10
-23.4928151416
 20
29.965011482
 10
-23.4680717709
 20
29.9517597019
 10
-23.4446315868
 20
29.9361582361
 10
-23.4225493368
 20
29.9180997386
 10
-23.4017702736
 20
29.8976915554
 10
-23.3826414573
 20
29.8753832393
 10
-23.3652376562
 20
29.8510859435
 10
-23.349484102
 20
29.8248885148
 10
-23.33550355
 20
29.7975070464
  0
LWPOLYLINE
  5
23C
100
AcDbEntity
  8
RACCORDO
100
AcDbPolyline
 62
253
  6
CONTINUOUS
 90
15
 70
0
 10
-23.9709701885
 20
30.1855749243
 10
-23.9432627786
 20
30.1985372714
 10
-23.914157415
 20
30.2106703802
 10
-23.8837206158
 20
30.2217181059
 10
-23.8519250037
 20
30.2314412224
 10
-23.8189862712
 20
30.2395080603
 10
-23.7853530424
 20
30.245568877
 10
-23.7511500172
 20
30.2493860852
 10
-23.7165287176
 20
30.2507168096
 10
-23.6819718501
 20
30.2493412673
 10
-23.6476320987
 20
30.2450977749
 10
-23.6136766767
 20
30.2378311746
 10
-23.5805736528
 20
30.2274998776
 10
-23.5484742614
 20
30.2140512485
 10
-23.5421690391
 20
30.2109741195
  0
LWPOLYLINE
  5
23D
100
AcDbEntity
  8
ASSI
100
AcDbPolyline
 62
253
  6
CONTINUOUS
 90
15
 70
0
 10
-23.9709701885
 20
30.1855749243
 10
-23.9432627786
 20
30.1985372714
 10
-23.914157415
 20
30.2106703802
 10
-23.8837206158
 20
30.2217181059
 10
-23.8519250037
 20
30.2314412224
 10
-23.8189862712
 20
30.2395080603
 10
-23.7853530424
 20
30.245568877
 10
-23.7511500172
 20
30.2493860852
 10
-23.7165287176
 20
30.2507168096
 10
-23.6819718501
 20
30.2493412673
 10
-23.6476320987
 20
30.2450977749
 10
-23.6136766767
 20
30.2378311746
 10
-23.5805736528
 20
30.2274998776
 10
-23.5484742614
 20
30.2140512485
 10
-23.5421690391
 20
30.2109741195
  0
LINE
  5
23E
100
AcDbEntity
  8
RACCORDO
100
AcDbLine
 62
7
  6
CONTINUOUS
 10
-32.7735429458
 20
26.9259128863
 11
-24.8460294225
 21
30.5871013401
  0
LINE
  5
23F
100
AcDbEntity
  8
ASSI
100
AcDbLine
 62
7
  6
CONTINUOUS
 10
-32.7735429458
 20
26.9259128863
 11
-24.8460294225
 21
30.5871013401
  0
LINE
  5
240
100
AcDbEntity
  8
RACCORDO
100
AcDbLine
 62
253
  6
CONTINUOUS
 10
-32.6862047961
 20
26.9192225661
 11
-24.7597055375
 21
30.5799425988
  0
LINE
  5
241
100
AcDbEntity
  8
ASSI
100
AcDbLine
 62
253
  6
CONTINUOUS
 10
-32.6862047961
 20
26.9192225661
 11
-24.7597055375
 21
30.5799425988
  0
LWPOLYLINE
  5
242
100
AcDbEntity
  8
RACCORDO
100
AcDbPolyline
 62
253
  6
CONTINUOUS
 90
12
 70
0
 10
-24.7597055375
 20
30.5799425988
 10
-24.7298143194
 20
30.5930905639
 10
-24.6986095937
 20
30.6052034313
 10
-24.6661648112
 20
30.6160301445
 10
-24.6324581126
 20
30.6253332988
 10
-24.5977129567
 20
30.6327967061
 10
-24.5623875002
 20
30.6380987326
 10
-24.5266017258
 20
30.6410149774
 10
-24.4905205205
 20
30.6413166999
 10
-24.4546597412
 20
30.6388194725
 10
-24.4191805396
 20
30.633386203
 10
-24.3842367491
 20
30.6248854851
  0
LWPOLYLINE
  5
243
100
AcDbEntity
  8
ASSI
100
AcDbPolyline
 62
253
  6
CONTINUOUS
 90
12
 70
0
 10
-24.7597055375
 20
30.5799425988
 10
-24.7298143194
 20
30.5930905639
 10
-24.6986095937
 20
30.6052034313
 10
-24.6661648112
 20
30.6160301445
 10
-24.6324581126
 20
30.6253332988
 10
-24.5977129567
 20
30.6327967061
 10
-24.5623875002
 20
30.6380987326
 10
-24.5266017258
 20
30.6410149774
 10
-24.4905205205
 20
30.6413166999
 10
-24.4546597412
 20
30.6388194725
 10
-24.4191805396
 20
30.633386203
 10
-24.3842367491
 20
30.6248854851
  0
LINE
  5
244
100
AcDbEntity
  8
ASSI
100
AcDbLine
 62
7
  6
CONTINUOUS
 10
-24.7905486165
 20
30.6102856516
 11
-24.8459474479
 21
30.5871389516
  0
LINE
  5
245
100
AcDbEntity
  8
RACCORDO
100
AcDbLine
 62
7
  6
CONTINUOUS
 10
-24.7873454952
 20
30.6114760184
 11
-24.8459451143
 21
30.5871400259
  0
LINE
  5
246
100
AcDbEntity
  8
RACCORDO
100
AcDbLine
 62
7
  6
CONTINUOUS
 10
-38.3269825624
 20
-15.2591542742
 11
-38.309636767
 21
-15.344465759
  0
LWPOLYLINE
  5
247
100
AcDbEntity
  8
RACCORDO
100
AcDbPolyline
 62
7
  6
CONTINUOUS
 90
13
 70
0
 10
-34.8375378289
 20
22.3746977725
 10
-34.7778623433
 20
22.4091878933
 10
-34.7205026267
 20
22.4504723334
 10
-34.6654586791
 20
22.4985510929
 10
-34.6120019702
 20
22.5542821349
 10
-34.5608610303
 20
22.6168074962
 10
-34.5142214508
 20
22.6835532876
 10
-34.4722710042
 20
22.7547881303
 10
-34.4348219181
 20
22.8302434032
 10
-34.4034964664
 20
22.9065393532
 10
-34.3788354073
 20
22.9825493963
 10
-34.3602979827
 20
23.0594001165
 10
-34.3478841927
 20
23.1370915141
  0
LINE
  5
248
100
AcDbEntity
  8
RACCORDO
100
AcDbLine
 62
7
  6
CONTINUOUS
 10
-35.7194042303
 20
22.4220111382
 11
-34.3478841927
 21
23.1370915141
  0
LINE
  5
249
100
AcDbEntity
  8
DRAFT
100
AcDbLine
 62
7
  6
CONTINUOUS
 10
-31.4841017289
 20
25.0191329268
 11
-30.0945733561
 21
25.7385823028
  0
LINE
  5
24A
100
AcDbEntity
  8
ASSI
100
AcDbLine
 62
7
  6
CONTINUOUS
 10
-31.4841017289
 20
25.0191329268
 11
-30.0945733561
 21
25.7385823028
  0
LINE
  5
24B
100
AcDbEntity
  8
RACCORDO
100
AcDbLine
 62
7
  6
CONTINUOUS
 10
-35.1467731855
 20
22.2200800941
 11
-34.8375378289
 21
22.3746977725
  0
LINE
  5
24C
100
AcDbEntity
  8
0
100
AcDbLine
 62
7
  6
CONTINUOUS
 10
-27.2061057027
 20
25.8301591116
 11
-26.5962196081
 21
26.1351021589
  0
LINE
  5
24D
100
AcDbEntity
  8
RACCORDO
100
AcDbLine
 62
7
  6
CONTINUOUS
 10
-20.7007233158
 20
28.0551373662
 11
-21.9028048438
 21
27.4540966022
  0
LINE
  5
24E
100
AcDbEntity
  8
ASSI
100
AcDbLine
 62
7
  6
CONTINUOUS
 10
-20.7007233158
 20
28.0551373662
 11
-21.9028048438
 21
27.4540966022
  0
LWPOLYLINE
  5
24F
100
AcDbEntity
  8
0
100
AcDbPolyline
 62
7
  6
CONTINUOUS
 90
13
 70
0
 10
-26.5962196081
 20
26.1351021589
 10
-26.5897886434
 20
26.1382458841
 10
-26.5833640478
 20
26.1412435489
 10
-26.5769458212
 20
26.1440951533
 10
-26.5705318469
 20
26.1468015431
 10
-26.5641242416
 20
26.1493618726
 10
-26.5577293553
 20
26.1517736042
 10
-26.5513472008
 20
26.1540365909
 10
-26.5449777653
 20
26.1561509797
 10
-26.5386273611
 20
26.1581146755
 10
-26.5322980923
 20
26.1599269797
 10
-26.5259878549
 20
26.1615885907
 10
-26.5196966487
 20
26.1630995086
  0
LINE
  5
250
100
AcDbEntity
  8
RACCORDO
100
AcDbLine
 62
7
  6
CONTINUOUS
 10
-21.783266421
 20
28.559826947
 11
-29.6987814226
 21
24.7378649551
  0
LINE
  5
251
100
AcDbEntity
  8
ASSI
100
AcDbLine
 62
7
  6
CONTINUOUS
 10
-21.783266421
 20
28.559826947
 11
-29.6987814226
 21
24.7378649551
  0
LINE
  5
252
100
AcDbEntity
  8
RACCORDO
100
AcDbLine
 62
253
  6
CONTINUOUS
 10
-21.6963040807
 20
28.5529277486
 11
-29.6102472163
 21
24.7317247234
  0
LINE
  5
253
100
AcDbEntity
  8
ASSI
100
AcDbLine
 62
253
  6
CONTINUOUS
 10
-21.6963040807
 20
28.5529277486
 11
-29.6102472163
 21
24.7317247234
  0
LINE
  5
254
100
AcDbEntity
  8
DRAFT
100
AcDbLine
 62
7
  6
CONTINUOUS
 10
-22.0442262
 20
27.383385924
 11
-22.8215705229
 21
27.0080495807
  0
LINE
  5
255
100
AcDbEntity
  8
ASSI
100
AcDbLine
 62
7
  6
CONTINUOUS
 10
-22.0442262
 20
27.383385924
 11
-22.8215705229
 21
27.0080495807
  0
LINE
  5
256
100
AcDbEntity
  8
DRAFT
100
AcDbLine
 62
7
  6
CONTINUOUS
 10
-27.5456091129
 20
24.7270740616
 11
-28.5912155213
 21
24.2222088759
  0
LINE
  5
257
100
AcDbEntity
  8
ASSI
100
AcDbLine
 62
7
  6
CONTINUOUS
 10
-27.5456091129
 20
24.7270740616
 11
-28.5912155213
 21
24.2222088759
  0
LINE
  5
258
100
AcDbEntity
  8
DRAFT
100
AcDbLine
 62
7
  6
CONTINUOUS
 10
-24.7006592846
 20
25.4512230658
 11
-24.7815893213
 21
25.4121464518
  0
LINE
  5
259
100
AcDbEntity
  8
ASSI
100
AcDbLine
 62
7
  6
CONTINUOUS
 10
-24.7006592846
 20
25.4512230658
 11
-24.7815893213
 21
25.4121464518
  0
LINE
  5
25A
100
AcDbEntity
  8
DRAFT
100
AcDbLine
 62
7
  6
CONTINUOUS
 10
-27.0013759696
 20
24.3403349275
 11
-28.5912155213
 21
23.572689823
  0
LINE
  5
25B
100
AcDbEntity
  8
ASSI
100
AcDbLine
 62
7
  6
CONTINUOUS
 10
-27.0013759696
 20
24.3403349275
 11
-28.5912155213
 21
23.572689823
  0
LWPOLYLINE
  5
25C
100
AcDbEntity
  8
RACCORDO
100
AcDbPolyline
 62
7
  6
CONTINUOUS
 90
22
 70
0
 10
-32.6976578664
 20
25.441705719
 10
-32.6893306157
 20
25.4456139268
 10
-32.6800003495
 20
25.4494268128
 10
-32.6704580853
 20
25.4527465764
 10
-32.6607013742
 20
25.455568427
 10
-32.6507326649
 20
25.4578971551
 10
-32.640602674
 20
25.4597248576
 10
-32.6303218492
 20
25.4610479614
 10
-32.6198797428
 20
25.4618700396
 10
-32.6092957278
 20
25.4621939083
 10
-32.5985711036
 20
25.4620211498
 10
-32.5877045709
 20
25.4613501818
 10
-32.5767116048
 20
25.460179074
 10
-32.5655801991
 20
25.4585050012
 10
-32.5543223601
 20
25.4563307886
 10
-32.5429895811
 20
25.4536629811
 10
-32.5315794316
 20
25.4504963013
 10
-32.5200943422
 20
25.4468360267
 10
-32.5085930981
 20
25.4427045348
 10
-32.4970952943
 20
25.4381092849
 10
-32.4855813358
 20
25.4330428177
 10
-32.4740512225
 20
25.4275051333
  0
LINE
  5
25D
100
AcDbEntity
  8
RACCORDO
100
AcDbLine
 62
7
  6
CONTINUOUS
 10
-23.2273272279
 20
28.6031298574
 11
-16.4960257623
 21
31.7118679418
  0
LINE
  5
25E
100
AcDbEntity
  8
ASSI
100
AcDbLine
 62
7
  6
CONTINUOUS
 10
-23.2273272279
 20
28.6031298574
 11
-16.4960257623
 21
31.7118679418
  0
LINE
  5
25F
100
AcDbEntity
  8
RACCORDO
100
AcDbLine
 62
253
  6
CONTINUOUS
 10
-23.2273272279
 20
28.4855649273
 11
-16.2802160498
 21
31.6939710887
  0
LINE
  5
260
100
AcDbEntity
  8
ASSI
100
AcDbLine
 62
253
  6
CONTINUOUS
 10
-23.2273272279
 20
28.4855649273
 11
-16.2802160498
 21
31.6939710887
  0
LINE
  5
261
100
AcDbEntity
  8
RACCORDO
100
AcDbLine
 62
253
  6
CONTINUOUS
 10
-37.4519447839
 20
22.9307820957
 11
-37.5473951748
 21
22.8876367415
  0
LINE
  5
262
100
AcDbEntity
  8
ASSI
100
AcDbLine
 62
7
  6
CONTINUOUS
 10
-21.7167439954
 20
28.5884305656
 11
-21.7831931127
 21
28.5598621031
  0
LINE
  5
263
100
AcDbEntity
  8
RACCORDO
100
AcDbLine
 62
7
  6
CONTINUOUS
 10
-21.713790773
 20
28.5895385305
 11
-21.7831911445
 21
28.5598630506
  0
LINE
  5
264
100
AcDbEntity
  8
RACCORDO
100
AcDbLine
 62
253
  6
CONTINUOUS
 10
-16.4960257623
 20
31.7118679418
 11
-16.4855158917
 21
31.7163361824
  0
LINE
  5
265
100
AcDbEntity
  8
ASSI
100
AcDbLine
 62
253
  6
CONTINUOUS
 10
-16.4960257623
 20
31.7118679418
 11
-16.4855158917
 21
31.7163361824
  0
LWPOLYLINE
  5
266
100
AcDbEntity
  8
RACCORDO
100
AcDbPolyline
 62
253
  6
CONTINUOUS
 90
8
 70
0
 10
-16.2802160498
 20
31.6939710887
 10
-16.2442692002
 20
31.7089270712
 10
-16.2086011602
 20
31.7192346497
 10
-16.1735941835
 20
31.7247215165
 10
-16.1395821793
 20
31.7252610328
 10
-16.107000944
 20
31.7207689735
 10
-16.0763575219
 20
31.7112807471
 10
-16.0627796095
 20
31.7051527535
  0
LWPOLYLINE
  5
267
100
AcDbEntity
  8
ASSI
100
AcDbPolyline
 62
253
  6
CONTINUOUS
 90
8
 70
0
 10
-16.2802160498
 20
31.6939710887
 10
-16.2442692002
 20
31.7089270712
 10
-16.2086011602
 20
31.7192346497
 10
-16.1735941835
 20
31.7247215165
 10
-16.1395821793
 20
31.7252610328
 10
-16.107000944
 20
31.7207689735
 10
-16.0763575219
 20
31.7112807471
 10
-16.0627796095
 20
31.7051527535
  0
LINE
  5
268
100
AcDbEntity
  8
RACCORDO
100
AcDbLine
 62
7
  6
CONTINUOUS
 10
-16.4960257623
 20
31.7118679418
 11
-16.4398681173
 21
31.73379812
  0
LINE
  5
269
100
AcDbEntity
  8
ASSI
100
AcDbLine
 62
7
  6
CONTINUOUS
 10
-16.4960257623
 20
31.7118679418
 11
-16.4398681173
 21
31.73379812
  0
LWPOLYLINE
  5
26A
100
AcDbEntity
  8
ASSI
100
AcDbPolyline
 62
253
  6
CONTINUOUS
 90
5
 70
0
 10
-24.8459475185
 20
30.5871391059
 10
-24.8294901039
 20
30.5925186759
 10
-24.8073632004
 20
30.59400839
 10
-24.7838637641
 20
30.5897734897
 10
-24.7597055375
 20
30.5799425988
  0
LWPOLYLINE
  5
26B
100
AcDbEntity
  8
RACCORDO
100
AcDbPolyline
 62
253
  6
CONTINUOUS
 90
5
 70
0
 10
-24.8459451849
 20
30.5871401802
 10
-24.8294901039
 20
30.5925186759
 10
-24.8073632004
 20
30.59400839
 10
-24.7838637641
 20
30.5897734897
 10
-24.7597055375
 20
30.5799425988
  0
LWPOLYLINE
  5
26C
100
AcDbEntity
  8
RACCORDO
100
AcDbPolyline
 62
253
  6
CONTINUOUS
 90
7
 70
0
 10
-16.4855158917
 20
31.7163361824
 10
-16.4546774076
 20
31.7254112932
 10
-16.4219958065
 20
31.7293666658
 10
-16.387829016
 20
31.728158981
 10
-16.3525512296
 20
31.7218014653
 10
-16.3165488085
 20
31.710363746
 10
-16.2802160498
 20
31.6939710887
  0
LWPOLYLINE
  5
26D
100
AcDbEntity
  8
ASSI
100
AcDbPolyline
 62
253
  6
CONTINUOUS
 90
7
 70
0
 10
-16.4855158917
 20
31.7163361824
 10
-16.4546774076
 20
31.7254112932
 10
-16.4219958065
 20
31.7293666658
 10
-16.387829016
 20
31.728158981
 10
-16.3525512296
 20
31.7218014653
 10
-16.3165488085
 20
31.710363746
 10
-16.2802160498
 20
31.6939710887
  0
LWPOLYLINE
  5
26E
100
AcDbEntity
  8
RACCORDO
100
AcDbPolyline
 62
7
  6
CONTINUOUS
 90
7
 70
0
 10
-3.1998426715
 20
-33.0936966298
 10
-3.1549510044
 20
-33.0968933506
 10
-3.0678210199
 20
-33.09537495
 10
-2.9788951352
 20
-33.0839320319
 10
-2.8886070735
 20
-33.0626361762
 10
-2.7973533548
 20
-33.0315449468
 10
-2.7374701155
 20
-33.0059494987
  0
LINE
  5
26F
100
AcDbEntity
  8
RACCORDO
100
AcDbLine
 62
7
  6
CONTINUOUS
 10
-3.1997267089
 20
-33.0937097502
 11
-3.1997959877
 21
-33.0937026314
  0
LWPOLYLINE
  5
270
100
AcDbEntity
  8
RACCORDO
100
AcDbPolyline
 62
7
  6
CONTINUOUS
 90
13
 70
0
 10
-15.2714942649
 20
-29.839396902
 10
-14.4970899773
 20
-30.2096696103
 10
-13.577624658
 20
-30.6090059964
 10
-12.6211975986
 20
-30.9835222066
 10
-11.6303761453
 20
-31.3325007949
 10
-10.6077135383
 20
-31.6552371889
 10
-9.5559919107
 20
-31.9511145172
 10
-8.4780595208
 20
-32.2195346196
 10
-7.376673607
 20
-32.4599550572
 10
-6.2546337608
 20
-32.6719526229
 10
-5.1147604052
 20
-32.8551112115
 10
-3.960066096
 20
-33.0090688969
 10
-3.1997460679
 20
-33.0937077608
  0
LINE
  5
271
100
AcDbEntity
  8
RACCORDO
100
AcDbLine
 62
7
  6
CONTINUOUS
 10
-15.2714678461
 20
-29.8394287976
 11
-31.6530118325
 21
-21.6486568044
  0
LWPOLYLINE
  5
272
100
AcDbEntity
  8
RACCORDO
100
AcDbPolyline
 62
253
  6
CONTINUOUS
 90
15
 70
0
 10
-31.9120342165
 20
-21.1503139918
 10
-32.551309823
 20
-20.818115902
 10
-33.1641948457
 20
-20.4739826374
 10
-33.7497055984
 20
-20.1184335234
 10
-34.3070099368
 20
-19.7519348656
 10
-34.8350836297
 20
-19.3751129767
 10
-35.3327730686
 20
-18.9887746051
 10
-35.7994040277
 20
-18.5934626571
 10
-36.2341789496
 20
-18.1898660831
 10
-36.6359987824
 20
-17.7790803235
 10
-37.0043835629
 20
-17.3617729216
 10
-37.3388880057
 20
-16.9386322362
 10
-37.6387841876
 20
-16.5108482833
 10
-37.9037754046
 20
-16.0793010201
 10
-38.1338565789
 20
-15.6445322127
  0
LWPOLYLINE
  5
273
100
AcDbEntity
  8
RACCORDO
100
AcDbPolyline
 62
253
  6
CONTINUOUS
 90
8
 70
0
 10
-31.6530118325
 20
-21.6486568044
 10
-31.6976882195
 20
-21.6223211852
 10
-31.7573195167
 20
-21.5719648072
 10
-31.8083019598
 20
-21.5087847904
 10
-31.8498360282
 20
-21.4337719139
 10
-31.8812703794
 20
-21.3481025168
 10
-31.9021120576
 20
-21.2531200435
 10
-31.9120342163
 20
-21.1503139919
  0
LWPOLYLINE
  5
274
100
AcDbEntity
  8
RACCORDO
100
AcDbPolyline
 62
253
  6
CONTINUOUS
 90
8
 70
0
 10
-15.2715017499
 20
-29.8394118436
 10
-15.3161447767
 20
-29.8130928056
 10
-15.3757759724
 20
-29.7627363465
 10
-15.4267582943
 20
-29.6995563043
 10
-15.4682922458
 20
-29.6245434581
 10
-15.4997264983
 20
-29.5388741471
 10
-15.5205681048
 20
-29.4438918235
 10
-15.5304902308
 20
-29.3410859847
  0
LWPOLYLINE
  5
275
100
AcDbEntity
  8
RACCORDO
100
AcDbPolyline
 62
253
  6
CONTINUOUS
 90
10
 70
0
 10
-31.9120342165
 20
-21.1503139918
 10
-32.0596005295
 20
-17.130294298
 10
-32.1702909791
 20
-13.0900922207
 10
-32.2440920968
 20
-9.0301992621
 10
-32.2809949023
 20
-4.9511092579
 10
-32.2809949023
 20
-0.8533185028
 10
-32.2440920968
 20
3.2626743069
 10
-32.1702909791
 20
7.3963683832
 10
-32.0596005295
 20
11.54726091
 10
-31.9120342165
 20
15.7148469168
  0
LWPOLYLINE
  5
276
100
AcDbEntity
  8
0
100
AcDbPolyline
 62
7
  6
CONTINUOUS
 90
10
 70
0
 10
-31.8598061017
 20
-2.0435567251
 10
-31.851458787
 20
-2.5128399342
 10
-31.8272571712
 20
-2.9876170971
 10
-31.7871370744
 20
-3.4678536355
 10
-31.7308480366
 20
-3.9544223504
 10
-31.6583685379
 20
-4.4463051037
 10
-31.5699219671
 20
-4.9405999904
 10
-31.4654198301
 20
-5.4362494734
 10
-31.3444478323
 20
-5.9340323379
 10
-31.2066926087
 20
-6.4337702977
  0
LINE
  5
277
100
AcDbEntity
  8
RACCORDO
100
AcDbLine
 62
7
  6
CONTINUOUS
 10
-32.8276046131
 20
26.8167437738
 11
-32.8276046131
 21
25.3767327305
  0
LINE
  5
278
100
AcDbEntity
  8
ASSI
100
AcDbLine
 62
7
  6
CONTINUOUS
 10
-32.8276046131
 20
26.8167437738
 11
-32.8276046131
 21
25.3767327305
  0
LINE
  5
279
100
AcDbEntity
  8
RACCORDO
100
AcDbLine
 62
7
  6
CONTINUOUS
 10
-31.4841017289
 20
25.0191329268
 11
-31.4841017289
 21
26.1449923317
  0
LINE
  5
27A
100
AcDbEntity
  8
ASSI
100
AcDbLine
 62
7
  6
CONTINUOUS
 10
-31.4841017289
 20
25.0191329268
 11
-31.4841017289
 21
26.1449923317
  0
LINE
  5
27B
100
AcDbEntity
  8
RACCORDO
100
AcDbLine
 62
7
  6
CONTINUOUS
 10
-29.751690115
 20
24.1529271199
 11
-29.751690115
 21
24.629241092
  0
LINE
  5
27C
100
AcDbEntity
  8
ASSI
100
AcDbLine
 62
7
  6
CONTINUOUS
 10
-29.751690115
 20
24.1529271199
 11
-29.751690115
 21
24.629241092
  0
LWPOLYLINE
  5
27D
100
AcDbEntity
  8
0
100
AcDbPolyline
 62
7
  6
CONTINUOUS
 90
7
 70
0
 10
-31.5668486619
 20
0.5743126429
 10
-31.6526076689
 20
0.1969575302
 10
-31.7234460639
 20
-0.2038984716
 10
-31.7795051062
 20
-0.6283329761
 10
-31.8208853387
 20
-1.0764017655
 10
-31.8476462412
 20
-1.5481388999
 10
-31.8598061017
 20
-2.0435567251
  0
LWPOLYLINE
  5
27E
100
AcDbEntity
  8
RACCORDO
100
AcDbPolyline
 62
7
  6
CONTINUOUS
 90
12
 70
0
 10
-25.2147214881
 20
25.663394802
 10
-25.2136676017
 20
25.6675457883
 10
-25.2117215772
 20
25.6719136211
 10
-25.2089352993
 20
25.6761029862
 10
-25.2053193953
 20
25.6801161407
 10
-25.2009199875
 20
25.6839018956
 10
-25.1957270392
 20
25.6874573378
 10
-25.189750587
 20
25.6907853804
 10
-25.1830668626
 20
25.6938435729
 10
-25.1757012766
 20
25.6966177652
 10
-25.1676284184
 20
25.6991221076
 10
-25.1588482881
 20
25.7013565999
  0
LWPOLYLINE
  5
27F
100
AcDbEntity
  8
0
100
AcDbPolyline
 62
7
  6
CONTINUOUS
 90
7
 70
0
 10
-31.2066926087
 20
1.7036448305
 10
-31.2753977688
 20
1.5336297738
 10
-31.3405955331
 20
1.3563529182
 10
-31.4023141692
 20
1.1717976274
 10
-31.4605800005
 20
0.9799484598
 10
-31.5154173793
 20
0.7807911586
 10
-31.5668486619
 20
0.5743126429
  0
LWPOLYLINE
  5
280
100
AcDbEntity
  8
RACCORDO
100
AcDbPolyline
 62
253
  6
CONTINUOUS
 90
13
 70
0
 10
-31.2181389513
 20
16.8847216653
 10
-31.3064039439
 20
16.8319107708
 10
-31.3930912542
 20
16.7664460096
 10
-31.4768414658
 20
16.6893539895
 10
-31.5563412217
 20
16.601843655
 10
-31.6303438194
 20
16.5052873289
 10
-31.6976887624
 20
16.4011991918
 10
-31.7573199583
 20
16.291211537
 10
-31.8083022802
 20
16.1770491729
 10
-31.8498362317
 20
16.0605023751
 10
-31.8812704841
 20
15.9433988117
 10
-31.9021120906
 20
15.8275748816
 10
-31.9120342165
 20
15.7148469168
  0
LINE
  5
281
100
AcDbEntity
  8
0
100
AcDbLine
 62
7
  6
CONTINUOUS
 10
-22.1973682238
 20
21.9383310546
 11
-22.2377095009
 21
21.9164350586
  0
LINE
  5
282
100
AcDbEntity
  8
RACCORDO
100
AcDbLine
 62
7
  6
CONTINUOUS
 10
-24.5523742337
 20
23.1158340595
 11
-25.5306198071
 21
22.6080773909
  0
LINE
  5
283
100
AcDbEntity
  8
ASSI
100
AcDbLine
 62
7
  6
CONTINUOUS
 10
-24.5523742337
 20
23.1158340595
 11
-25.5306198071
 21
22.6080773909
  0
LINE
  5
284
100
AcDbEntity
  8
0
100
AcDbLine
 62
7
  6
CONTINUOUS
 10
-20.4702822666
 20
26.5964139573
 11
-20.330123601
 21
26.6677559808
  0
LINE
  5
285
100
AcDbEntity
  8
ASSI
100
AcDbLine
 62
7
  6
CONTINUOUS
 10
-20.4702822666
 20
26.5964139573
 11
-20.330123601
 21
26.6677559808
  0
LINE
  5
286
100
AcDbEntity
  8
0
100
AcDbLine
 62
7
  6
CONTINUOUS
 10
-21.8877505213
 20
25.2253907928
 11
-23.1366628003
 21
24.5896831914
  0
LINE
  5
287
100
AcDbEntity
  8
ASSI
100
AcDbLine
 62
7
  6
CONTINUOUS
 10
-21.8877505213
 20
25.2253907928
 11
-23.1366628003
 21
24.5896831914
  0
LINE
  5
288
100
AcDbEntity
  8
0
100
AcDbLine
 62
7
  6
CONTINUOUS
 10
-25.2988881412
 20
23.4890910133
 11
-26.2868668872
 21
22.9862009309
  0
LINE
  5
289
100
AcDbEntity
  8
ASSI
100
AcDbLine
 62
7
  6
CONTINUOUS
 10
-25.2988881412
 20
23.4890910133
 11
-26.2868668872
 21
22.9862009309
  0
LINE
  5
28A
100
AcDbEntity
  8
ASSI
100
AcDbLine
 62
7
  6
CONTINUOUS
 10
-24.377678578
 20
22.0739978315
 11
-24.0948358655
 21
22.2154191878
  0
LINE
  5
28B
100
AcDbEntity
  8
ASSI
100
AcDbLine
 62
7
  6
CONTINUOUS
 10
-19.9433217953
 20
23.6020350273
 11
-20.5523441337
 21
23.2975238581
  0
LWPOLYLINE
  5
28C
100
AcDbEntity
  8
RACCORDO
100
AcDbPolyline
 62
253
  6
CONTINUOUS
 90
3
 70
0
 10
4.5801924412
 20
33.1790403659
 10
4.549296434
 20
33.1698466581
 10
4.5393640106
 20
33.1656044069
  0
LWPOLYLINE
  5
28D
100
AcDbEntity
  8
ASSI
100
AcDbPolyline
 62
253
  6
CONTINUOUS
 90
3
 70
0
 10
4.5801924412
 20
33.1790403659
 10
4.549296434
 20
33.1698466581
 10
4.5393640106
 20
33.1656044069
  0
LWPOLYLINE
  5
28E
100
AcDbEntity
  8
RACCORDO
100
AcDbPolyline
 62
253
  6
CONTINUOUS
 90
10
 70
0
 10
-3.5297867656
 20
-32.6068271096
 10
-3.4979630419
 20
-32.6081211014
 10
-3.4658303811
 20
-32.6075605569
 10
-3.433758598
 20
-32.6051519285
 10
-3.4021168083
 20
-32.6009229382
 10
-3.3712691754
 20
-32.5949222582
 10
-3.3415707198
 20
-32.5872189502
 10
-3.3133632395
 20
-32.577901671
 10
-3.2869713759
 20
-32.5670776536
 10
-3.2626988728
 20
-32.5548714717
  0
LWPOLYLINE
  5
28F
100
AcDbEntity
  8
RACCORDO
100
AcDbPolyline
 62
253
  6
CONTINUOUS
 90
16
 70
0
 10
-3.5297867615
 20
-32.6068271358
 10
-4.4185655807
 20
-32.5021501034
 10
-5.3014282841
 20
-32.380426585
 10
-6.1769670445
 20
-32.2416951505
 10
-7.0441238716
 20
-32.0859446393
 10
-7.9011129525
 20
-31.9133358236
 10
-8.7454768209
 20
-31.7242710888
 10
-9.575830454
 20
-31.5189765365
 10
-10.390845833
 20
-31.2976872068
 10
-11.1882775708
 20
-31.0609784928
 10
-11.966738977
 20
-30.8092528871
 10
-12.7251514094
 20
-30.5428426906
 10
-13.4618712843
 20
-30.2623382932
 10
-14.1756358693
 20
-29.968256422
 10
-14.8655218903
 20
-29.6610083997
 10
-15.5304902308
 20
-29.3410859847
  0
LWPOLYLINE
  5
290
100
AcDbEntity
  8
RACCORDO
100
AcDbPolyline
 62
253
  6
CONTINUOUS
 90
11
 70
0
 10
-3.1997959877
 20
-33.0937026314
 10
-3.263041485
 20
-33.0807820451
 10
-3.3154199895
 20
-33.0587053171
 10
-3.3627669922
 20
-33.0273675228
 10
-3.4044586084
 20
-32.9874425808
 10
-3.4402187696
 20
-32.9396931098
 10
-3.4701164768
 20
-32.8848155984
 10
-3.494064655
 20
-32.823365126
 10
-3.5120005139
 20
-32.7559951398
 10
-3.5239051862
 20
-32.6835429619
 10
-3.5297793346
 20
-32.6067984977
  0
LINE
  5
291
100
AcDbEntity
  8
RACCORDO
100
AcDbLine
 62
253
  6
CONTINUOUS
 10
-15.5304902308
 20
-29.3410859847
 11
-31.9120342165
 21
-21.1503139918
  0
LINE
  5
292
100
AcDbEntity
  8
0
100
AcDbLine
 62
7
  6
CONTINUOUS
 10
-20.1329078201
 20
-23.8000949592
 11
-20.3071739025
 21
-23.712961918
  0
LINE
  5
293
100
AcDbEntity
  8
0
100
AcDbLine
 62
7
  6
CONTINUOUS
 10
-25.3676280716
 20
-21.1827348334
 11
-27.5575290225
 21
-20.087784358
  0
LWPOLYLINE
  5
294
100
AcDbEntity
  8
RACCORDO
100
AcDbPolyline
 62
253
  6
CONTINUOUS
 90
3
 70
0
 10
-38.3289492644
 20
21.7724825725
 10
-38.3336012297
 20
21.7873624253
 10
-38.3347856724
 20
21.8030570087
  0
LWPOLYLINE
  5
295
100
AcDbEntity
  8
0
100
AcDbPolyline
 62
7
  6
CONTINUOUS
 90
25
 70
0
 10
-31.2066926087
 20
-6.4337702977
 10
-31.0273741009
 20
-7.0105709028
 10
-30.8290610568
 20
-7.5832031379
 10
-30.611795509
 20
-8.151687886
 10
-30.3749760872
 20
-8.7174594743
 10
-30.1192825825
 20
-9.2791227968
 10
-29.8466866765
 20
-9.832458889
 10
-29.557127815
 20
-10.3773894366
 10
-29.2507579525
 20
-10.9140394681
 10
-28.9298817927
 20
-11.4385026654
 10
-28.5944636851
 20
-11.9507243854
 10
-28.2446322699
 20
-12.4508075314
 10
-27.8829476971
 20
-12.9350870109
 10
-27.509348711
 20
-13.4034394124
 10
-27.1239834041
 20
-13.8560337497
 10
-26.7297298773
 20
-14.2896457752
 10
-26.3265717384
 20
-14.7041846857
 10
-25.9145978191
 20
-15.0997796628
 10
-25.4968435604
 20
-15.4735362533
 10
-25.0732761938
 20
-15.8253166629
 10
-24.6439806974
 20
-16.1552865187
 10
-24.2121653497
 20
-16.4610045201
 10
-23.7789089367
 20
-16.7416619106
 10
-23.3431599904
 20
-16.9980820634
 10
-22.9049253313
 20
-17.2302686318
  0
LWPOLYLINE
  5
296
100
AcDbEntity
  8
0
100
AcDbPolyline
 62
7
  6
CONTINUOUS
 90
4
 70
0
 10
-26.4959922749
 20
-19.5570159842
 10
-26.513900131
 20
-19.0175609078
 10
-26.531144089
 20
-18.4777443819
 10
-26.547724149
 20
-17.9375664064
  0
LWPOLYLINE
  5
297
100
AcDbEntity
  8
0
100
AcDbPolyline
 62
7
  6
CONTINUOUS
 90
5
 70
0
 10
-26.4252815968
 20
-19.5216606451
 10
-26.4431894529
 20
-18.9822055688
 10
-26.4604334109
 20
-18.4423890428
 10
-26.4770134708
 20
-17.9022110673
 10
-26.4909971763
 20
-17.4273010899
  0
LWPOLYLINE
  5
298
100
AcDbEntity
  8
0
100
AcDbPolyline
 62
7
  6
CONTINUOUS
 90
7
 70
0
 10
-27.5575290225
 20
-20.087784358
 10
-27.5753741805
 20
-19.5482974171
 10
-27.5925577648
 20
-19.008450395
 10
-27.6090797755
 20
-18.4682432917
 10
-27.6249402126
 20
-17.9276761074
 10
-27.640139076
 20
-17.3867488419
 10
-27.6546763657
 20
-16.8454614952
  0
LINE
  5
299
100
AcDbEntity
  8
0
100
AcDbLine
 62
7
  6
CONTINUOUS
 10
-27.5422449954
 20
24.6107694404
 11
-27.5594437181
 21
25.2053654766
  0
LINE
  5
29A
100
AcDbEntity
  8
0
100
AcDbLine
 62
7
  6
CONTINUOUS
 10
-26.547724149
 20
-17.9375664064
 11
-26.5638132751
 21
-17.3908930405
  0
LINE
  5
29B
100
AcDbEntity
  8
DRAFT
100
AcDbLine
 62
7
  6
CONTINUOUS
 10
-28.5912155213
 20
23.572689823
 11
-28.5912155213
 21
24.2222088759
  0
LINE
  5
29C
100
AcDbEntity
  8
ASSI
100
AcDbLine
 62
7
  6
CONTINUOUS
 10
-28.5912155213
 20
23.572689823
 11
-28.5912155213
 21
24.2222088759
  0
LWPOLYLINE
  5
29D
100
AcDbEntity
  8
0
100
AcDbPolyline
 62
7
  6
CONTINUOUS
 90
16
 70
0
 10
-27.5594437181
 20
25.2053654766
 10
-27.5585738729
 20
25.2529791396
 10
-27.5538507705
 20
25.3011304782
 10
-27.545274411
 20
25.3498194926
 10
-27.5326598065
 20
25.39961155
 10
-27.5161919449
 20
25.4499412832
 10
-27.4964257898
 20
25.4991125901
 10
-27.4732489265
 20
25.5470859886
 10
-27.4467737698
 20
25.593900961
 10
-27.417892527
 20
25.637979852
 10
-27.3865231924
 20
25.6792294087
 10
-27.3527477717
 20
25.717742884
 10
-27.31770449
 20
25.7522223816
 10
-27.2817727553
 20
25.7822352694
 10
-27.2445731596
 20
25.8082141793
 10
-27.2061057027
 20
25.8301591116
  0
LINE
  5
29E
100
AcDbEntity
  8
RACCORDO
100
AcDbLine
 62
253
  6
CONTINUOUS
 10
-25.1588482881
 20
25.7013565999
 11
-25.1741036998
 21
25.6094508736
  0
LINE
  5
29F
100
AcDbEntity
  8
RACCORDO
100
AcDbLine
 62
253
  6
CONTINUOUS
 10
-23.1568462596
 20
26.1587752224
 11
-23.218064627
 21
25.7899671811
  0
LINE
  5
2A0
100
AcDbEntity
  8
RACCORDO
100
AcDbLine
 62
253
  6
CONTINUOUS
 10
-22.8773557979
 20
26.1196106562
 11
-22.9385741654
 21
25.7508026149
  0
LWPOLYLINE
  5
2A1
100
AcDbEntity
  8
RACCORDO
100
AcDbPolyline
 62
7
  6
CONTINUOUS
 90
12
 70
0
 10
-21.1842128353
 20
23.6481404756
 10
-21.1831589489
 20
23.652291462
 10
-21.1812129244
 20
23.6566592948
 10
-21.1784266465
 20
23.6608486598
 10
-21.1748107426
 20
23.6648618144
 10
-21.1704113347
 20
23.6686475692
 10
-21.1652183864
 20
23.6722030115
 10
-21.1592419342
 20
23.675531054
 10
-21.1525582099
 20
23.6785892465
 10
-21.1451926239
 20
23.6813634389
 10
-21.1371197657
 20
23.6838677812
 10
-21.1283396353
 20
23.6861022735
  0
LWPOLYLINE
  5
2A2
100
AcDbEntity
  8
RACCORDO
100
AcDbPolyline
 62
7
  6
CONTINUOUS
 90
12
 70
0
 10
-20.7675206816
 20
25.0300108313
 10
-20.7685745681
 20
25.0258598449
 10
-20.7705205926
 20
25.0214920121
 10
-20.7733068705
 20
25.0173026471
 10
-20.7769227744
 20
25.0132894925
 10
-20.7813221822
 20
25.0095037377
 10
-20.7865151305
 20
25.0059482954
 10
-20.7924915827
 20
25.0026202529
 10
-20.7991753071
 20
24.9995620604
 10
-20.8065408931
 20
24.996787868
 10
-20.8146137513
 20
24.9942835257
 10
-20.8233938816
 20
24.9920490334
  0
LINE
  5
2A3
100
AcDbEntity
  8
0
100
AcDbLine
 62
253
  6
CONTINUOUS
 10
-18.7914919316
 20
21.116149536
 11
-19.0741623439
 21
20.9627247895
  0
LINE
  5
2A4
100
AcDbEntity
  8
0
100
AcDbLine
 62
7
  6
CONTINUOUS
 10
-18.7742932088
 20
20.5215534997
 11
-19.0569636212
 21
20.3681287533
  0
LINE
  5
2A5
100
AcDbEntity
  8
DRAFT
100
AcDbLine
 62
7
  6
CONTINUOUS
 10
-13.2761021133
 20
22.9993238807
 11
-19.5984562097
 21
19.7258292201
  0
LINE
  5
2A6
100
AcDbEntity
  8
ASSI
100
AcDbLine
 62
7
  6
CONTINUOUS
 10
-13.2761021133
 20
22.9993238807
 11
-19.5984562097
 21
19.7258292201
  0
LINE
  5
2A7
100
AcDbEntity
  8
ASSI
100
AcDbLine
 62
7
  6
CONTINUOUS
 10
-22.2563582344
 20
21.0133376598
 11
-21.9735155219
 21
21.154759016
  0
LINE
  5
2A8
100
AcDbEntity
  8
0
100
AcDbLine
 62
7
  6
CONTINUOUS
 10
-18.7208243285
 20
21.5875184245
 11
-18.1109382338
 21
21.8924614718
  0
LINE
  5
2A9
100
AcDbEntity
  8
0
100
AcDbLine
 62
7
  6
CONTINUOUS
 10
-18.7208243285
 20
21.241108263
 11
-18.1109382338
 21
21.5460513103
  0
LINE
  5
2AA
100
AcDbEntity
  8
RACCORDO
100
AcDbLine
 62
7
  6
CONTINUOUS
 10
-11.9325992291
 20
23.6710753228
 11
-13.1346807571
 21
23.0700345588
  0
LINE
  5
2AB
100
AcDbEntity
  8
ASSI
100
AcDbLine
 62
7
  6
CONTINUOUS
 10
-11.9325992291
 20
23.6710753228
 11
-13.1346807571
 21
23.0700345588
  0
LINE
  5
2AC
100
AcDbEntity
  8
0
100
AcDbLine
 62
7
  6
CONTINUOUS
 10
-20.3118145861
 20
19.3463868151
 11
-21.3724747579
 21
18.8160567292
  0
LINE
  5
2AD
100
AcDbEntity
  8
0
100
AcDbLine
 62
7
  6
CONTINUOUS
 10
-14.7073619999
 20
23.8563751802
 11
-14.8500460468
 21
23.7862958474
  0
LINE
  5
2AE
100
AcDbEntity
  8
ASSI
100
AcDbLine
 62
7
  6
CONTINUOUS
 10
-14.7073619999
 20
23.8563751802
 11
-14.8500460468
 21
23.7862958474
  0
LINE
  5
2AF
100
AcDbEntity
  8
0
100
AcDbLine
 62
7
  6
CONTINUOUS
 10
-18.0615765574
 20
21.5594321633
 11
-18.7446163375
 21
21.2239568731
  0
LINE
  5
2B0
100
AcDbEntity
  8
ASSI
100
AcDbLine
 62
7
  6
CONTINUOUS
 10
-18.0615765574
 20
21.5594321633
 11
-18.7446163375
 21
21.2239568731
  0
LINE
  5
2B1
100
AcDbEntity
  8
0
100
AcDbLine
 62
7
  6
CONTINUOUS
 10
-19.7656538291
 20
20.7224738573
 11
-20.7714339939
 21
20.2284844843
  0
LINE
  5
2B2
100
AcDbEntity
  8
ASSI
100
AcDbLine
 62
7
  6
CONTINUOUS
 10
-19.7656538291
 20
20.7224738573
 11
-20.7714339939
 21
20.2284844843
  0
LWPOLYLINE
  5
2B3
100
AcDbEntity
  8
0
100
AcDbPolyline
 62
7
  6
CONTINUOUS
 90
13
 70
0
 10
-18.1109382338
 20
21.8924614718
 10
-18.1045072692
 20
21.895605197
 10
-18.0980826736
 20
21.8986028618
 10
-18.0916644469
 20
21.9014544662
 10
-18.0852504726
 20
21.904160856
 10
-18.0788428673
 20
21.9067211854
 10
-18.0724479811
 20
21.9091329171
 10
-18.0660658265
 20
21.9113959037
 10
-18.0596963911
 20
21.9135102926
 10
-18.0533459869
 20
21.9154739884
 10
-18.0470167181
 20
21.9172862926
 10
-18.0407064806
 20
21.9189479036
 10
-18.0344152745
 20
21.9204588215
  0
LWPOLYLINE
  5
2B4
100
AcDbEntity
  8
0
100
AcDbPolyline
 62
7
  6
CONTINUOUS
 90
10
 70
0
 10
-18.1109382338
 20
21.5460513103
 10
-18.1092226514
 20
21.546883534
 10
-18.1075100866
 20
21.5476635171
 10
-18.1058005394
 20
21.5483912597
 10
-18.1040930094
 20
21.5490671279
 10
-18.1023884969
 20
21.5496907555
 10
-18.1006900038
 20
21.5502610444
 10
-18.0989985305
 20
21.5507776284
 10
-18.0973130766
 20
21.5512408737
 10
-18.095633642
 20
21.5516507802
  0
LINE
  5
2B5
100
AcDbEntity
  8
DRAFT
100
AcDbLine
 62
7
  6
CONTINUOUS
 10
-20.2764592471
 20
19.2368353259
 11
-21.2664087407
 21
18.7630237206
  0
LINE
  5
2B6
100
AcDbEntity
  8
RACCORDO
100
AcDbLine
 62
7
  6
CONTINUOUS
 10
4.5393640106
 20
33.1656044069
 11
-7.2002169443
 21
27.7438768856
  0
LINE
  5
2B7
100
AcDbEntity
  8
ASSI
100
AcDbLine
 62
7
  6
CONTINUOUS
 10
4.5393640106
 20
33.1656044069
 11
-7.2002169443
 21
27.7438768856
  0
LINE
  5
2B8
100
AcDbEntity
  8
RACCORDO
100
AcDbLine
 62
253
  6
CONTINUOUS
 10
4.7551737231
 20
33.1477075538
 11
-6.984407228
 21
27.7259800342
  0
LINE
  5
2B9
100
AcDbEntity
  8
ASSI
100
AcDbLine
 62
253
  6
CONTINUOUS
 10
4.7551737231
 20
33.1477075538
 11
-6.984407228
 21
27.7259800342
  0
LWPOLYLINE
  5
2BA
100
AcDbEntity
  8
RACCORDO
100
AcDbPolyline
 62
7
  6
CONTINUOUS
 90
9
 70
0
 10
-11.9325992291
 20
23.6710753228
 10
-11.8721792781
 20
23.698282956
 10
-11.8125768576
 20
23.7187021762
 10
-11.7537919675
 20
23.7323329832
 10
-11.695139561
 20
23.7392188767
 10
-11.637304685
 20
23.7393163572
 10
-11.5823424801
 20
23.7324949255
 10
-11.5306669431
 20
23.7185344344
 10
-11.4854009835
 20
23.6994464091
  0
LWPOLYLINE
  5
2BB
100
AcDbEntity
  8
ASSI
100
AcDbPolyline
 62
7
  6
CONTINUOUS
 90
9
 70
0
 10
-11.9325992291
 20
23.6710753228
 10
-11.8721792781
 20
23.698282956
 10
-11.8125768576
 20
23.7187021762
 10
-11.7537919675
 20
23.7323329832
 10
-11.695139561
 20
23.7392188767
 10
-11.637304685
 20
23.7393163572
 10
-11.5823424801
 20
23.7324949255
 10
-11.5306669431
 20
23.7185344344
 10
-11.4854009835
 20
23.6994464091
  0
LWPOLYLINE
  5
2BC
100
AcDbEntity
  8
ASSI
100
AcDbPolyline
 62
7
  6
CONTINUOUS
 90
18
 70
0
 10
-7.2002424811
 20
27.7438619592
 10
-7.2150385786
 20
27.7372989077
 10
-7.2524829747
 20
27.7226912817
 10
-7.2980218671
 20
27.7079334775
 10
-7.3502579569
 20
27.6941653463
 10
-7.4085595641
 20
27.6820355882
 10
-7.4723494345
 20
27.6720928129
 10
-7.53978751
 20
27.6649423495
 10
-7.609779527
 20
27.6608611878
 10
-7.6813455795
 20
27.6600251521
 10
-7.7526920714
 20
27.6625113966
 10
-7.8227621685
 20
27.6682248581
 10
-7.8904315763
 20
27.6769739708
 10
-7.9538865632
 20
27.6883390302
 10
-8.0123799603
 20
27.7018719311
 10
-8.0650580023
 20
27.7169973668
 10
-8.1103443994
 20
27.7327391814
 10
-8.14721991
 20
27.7479735275
  0
LWPOLYLINE
  5
2BD
100
AcDbEntity
  8
RACCORDO
100
AcDbPolyline
 62
7
  6
CONTINUOUS
 90
18
 70
0
 10
-7.2002516999
 20
27.7438577005
 10
-7.2177636345
 20
27.7361446045
 10
-7.2555002878
 20
27.7216205308
 10
-7.301179437
 20
27.7070126198
 10
-7.3534169146
 20
27.6934261084
 10
-7.4115856578
 20
27.6814888598
 10
-7.4751108991
 20
27.6717345458
 10
-7.5421884496
 20
27.6647474518
 10
-7.6117472303
 20
27.6607934941
 10
-7.6828241624
 20
27.6600430207
 10
-7.7536577192
 20
27.6625679027
 10
-7.8232132106
 20
27.6682723923
 10
-7.8903909353
 20
27.6769677084
 10
-7.9534118516
 20
27.6882417558
 10
-8.0115438058
 20
27.701655734
 10
-8.0639514354
 20
27.7166469686
 10
-8.1090884595
 20
27.7322625202
 10
-8.1464638743
 20
27.7476168481
  0
LWPOLYLINE
  5
2BE
100
AcDbEntity
  8
RACCORDO
100
AcDbPolyline
 62
253
  6
CONTINUOUS
 90
8
 70
0
 10
-8.3861723762
 20
27.7469492519
 10
-8.3496631238
 20
27.7621032335
 10
-8.3136112034
 20
27.7724228959
 10
-8.2784028974
 20
27.7777976812
 10
-8.2444154164
 20
27.7781700125
 10
-8.2120129529
 20
27.7735359073
 10
-8.1815427627
 20
27.7639450651
 10
-8.1687359375
 20
27.7581309175
  0
LWPOLYLINE
  5
2BF
100
AcDbEntity
  8
ASSI
100
AcDbPolyline
 62
253
  6
CONTINUOUS
 90
8
 70
0
 10
-8.3861723762
 20
27.7469492519
 10
-8.3496631238
 20
27.7621032335
 10
-8.3136112034
 20
27.7724228959
 10
-8.2784028974
 20
27.7777976812
 10
-8.2444154164
 20
27.7781700125
 10
-8.2120129529
 20
27.7735359073
 10
-8.1815427627
 20
27.7639450651
 10
-8.1687359375
 20
27.7581309175
  0
LINE
  5
2C0
100
AcDbEntity
  8
RACCORDO
100
AcDbLine
 62
7
  6
CONTINUOUS
 10
4.5771972123
 20
33.1812314163
 11
4.5393603417
 21
33.1656027125
  0
LINE
  5
2C1
100
AcDbEntity
  8
ASSI
100
AcDbLine
 62
7
  6
CONTINUOUS
 10
4.5771972712
 20
33.1812314406
 11
4.5393603417
 21
33.1656027125
  0
LINE
  5
2C2
100
AcDbEntity
  8
RACCORDO
100
AcDbLine
 62
253
  6
CONTINUOUS
 10
-29.6878232069
 20
17.2304244996
 11
-29.7256454199
 21
17.2148555735
  0
LWPOLYLINE
  5
2C3
100
AcDbEntity
  8
RACCORDO
100
AcDbPolyline
 62
253
  6
CONTINUOUS
 90
6
 70
0
 10
-7.697285064
 20
28.0115068664
 10
-7.6699366941
 20
28.0224221053
 10
-7.6431079681
 20
28.0287769988
 10
-7.6172478088
 20
28.0304652218
 10
-7.5927889052
 20
28.0274585319
 10
-7.5701405515
 20
28.0198072498
  0
LWPOLYLINE
  5
2C4
100
AcDbEntity
  8
ASSI
100
AcDbPolyline
 62
253
  6
CONTINUOUS
 90
6
 70
0
 10
-7.697285064
 20
28.0115068664
 10
-7.6699366941
 20
28.0224221053
 10
-7.6431079681
 20
28.0287769988
 10
-7.6172478088
 20
28.0304652218
 10
-7.5927889052
 20
28.0274585319
 10
-7.5701405515
 20
28.0198072498
  0
LINE
  5
2C5
100
AcDbEntity
  8
0
100
AcDbLine
 62
7
  6
CONTINUOUS
 10
-25.3676280716
 20
-20.1211980859
 11
-26.4959922749
 21
-19.5570159842
  0
LINE
  5
2C6
100
AcDbEntity
  8
0
100
AcDbLine
 62
7
  6
CONTINUOUS
 10
-25.3676280716
 20
-20.0504874077
 11
-26.4252815968
 21
-19.5216606451
  0
LINE
  5
2C7
100
AcDbEntity
  8
RACCORDO
100
AcDbLine
 62
7
  6
CONTINUOUS
 10
1.1134993447
 20
-31.5498488859
 11
2.1742025948
 21
-32.080200511
  0
LINE
  5
2C8
100
AcDbEntity
  8
ASSI
100
AcDbLine
 62
7
  6
CONTINUOUS
 10
1.1134993447
 20
-31.5498488859
 11
2.1742025948
 21
-32.080200511
  0
LINE
  5
2C9
100
AcDbEntity
  8
0
100
AcDbLine
 62
7
  6
CONTINUOUS
 10
-20.2300551633
 20
-20.5577720964
 11
-27.6546763657
 21
-16.8454614952
  0
LWPOLYLINE
  5
2CA
100
AcDbEntity
  8
RACCORDO
100
AcDbPolyline
 62
253
  6
CONTINUOUS
 90
16
 70
0
 10
-38.3289492509
 20
21.7724826082
 10
-38.1338565632
 20
21.3209157389
 10
-37.9037753778
 20
20.872759561
 10
-37.6387841517
 20
20.4287179719
 10
-37.3388879656
 20
19.9893064636
 10
-37.0043835239
 20
19.5554312712
 10
-36.6359987456
 20
19.1283612418
 10
-36.2341789141
 20
18.7087937334
 10
-35.7994039942
 20
18.2973872937
 10
-35.3327730379
 20
17.895289202
 10
-34.8350836025
 20
17.5031978354
 10
-34.3070099138
 20
17.1216466761
 10
-33.7497055802
 20
16.7514660359
 10
-33.164194833
 20
16.3932900822
 10
-32.5513098164
 20
16.0475772673
 10
-31.9120342165
 20
15.7148469168
  0
LWPOLYLINE
  5
2CB
100
AcDbEntity
  8
RACCORDO
100
AcDbPolyline
 62
253
  6
CONTINUOUS
 90
16
 70
0
 10
-37.451944784
 20
22.9307820956
 10
-37.2772834976
 20
22.479902836
 10
-37.0666328138
 20
22.0334337313
 10
-36.8199927326
 20
21.5913747812
 10
-36.5369067233
 20
21.1527181872
 10
-36.2178313166
 20
20.7184717479
 10
-35.8641361043
 20
20.2916588598
 10
-35.4754814238
 20
19.872404125
 10
-35.0522069376
 20
19.4605829412
 10
-34.5967012254
 20
19.0588448986
 10
-34.1087771252
 20
18.6673598647
 10
-33.5886217989
 20
18.2859579719
 10
-33.0391853119
 20
17.9167792068
 10
-32.4614510191
 20
17.5605368985
 10
-31.8544355656
 20
17.216517718
 10
-31.2181389513
 20
16.8847216653
  0
LINE
  5
2CC
100
AcDbEntity
  8
RACCORDO
100
AcDbLine
 62
7
  6
CONTINUOUS
 10
-23.2273275935
 20
29.6011008446
 11
-23.2293738898
 21
29.6662832911
  0
LINE
  5
2CD
100
AcDbEntity
  8
ASSI
100
AcDbLine
 62
7
  6
CONTINUOUS
 10
-23.2273275992
 20
29.6010981067
 11
-23.2291371495
 21
29.6624551597
  0
LINE
  5
2CE
100
AcDbEntity
  8
0
100
AcDbLine
 62
7
  6
CONTINUOUS
 10
-24.3590298444
 20
22.9770952304
 11
-24.3602644801
 21
23.0197791827
  0
LINE
  5
2CF
100
AcDbEntity
  8
RACCORDO
100
AcDbLine
 62
253
  6
CONTINUOUS
 10
-23.2837161222
 20
29.5603151122
 11
-23.2834592679
 21
29.5317388131
  0
LINE
  5
2D0
100
AcDbEntity
  8
ASSI
100
AcDbLine
 62
253
  6
CONTINUOUS
 10
-23.2837161222
 20
29.5603151122
 11
-23.2834592679
 21
29.5317388131
  0
LINE
  5
2D1
100
AcDbEntity
  8
DRAFT
100
AcDbLine
 62
7
  6
CONTINUOUS
 10
-25.3676280716
 20
-18.2834557968
 11
-25.3676280716
 21
-21.6652935264
  0
LINE
  5
2D2
100
AcDbEntity
  8
ASSI
100
AcDbLine
 62
7
  6
CONTINUOUS
 10
-25.1201406982
 20
-18.112729329
 11
-25.1201406982
 21
-18.1548648277
  0
LINE
  5
2D3
100
AcDbEntity
  8
DRAFT
100
AcDbLine
 62
7
  6
CONTINUOUS
 10
-24.6605212904
 20
-18.611842431
 11
-24.6605212904
 21
-22.018846917
  0
LINE
  5
2D4
100
AcDbEntity
  8
0
100
AcDbLine
 62
7
  6
CONTINUOUS
 10
-24.377678578
 20
22.0739978315
 11
-24.377678578
 21
22.0316067763
  0
LINE
  5
2D5
100
AcDbEntity
  8
DRAFT
100
AcDbLine
 62
7
  6
CONTINUOUS
 10
-23.9534145092
 20
-18.9653958216
 11
-23.9534145092
 21
-22.3724003076
  0
LINE
  5
2D6
100
AcDbEntity
  8
RACCORDO
100
AcDbLine
 62
253
  6
CONTINUOUS
 10
-23.2834592679
 20
29.5317388131
 11
-23.2834592679
 21
27.8354672509
  0
LINE
  5
2D7
100
AcDbEntity
  8
ASSI
100
AcDbLine
 62
253
  6
CONTINUOUS
 10
-23.2834592679
 20
29.5317388131
 11
-23.2834592679
 21
27.8354672509
  0
LINE
  5
2D8
100
AcDbEntity
  8
DRAFT
100
AcDbLine
 62
7
  6
CONTINUOUS
 10
-23.2463077281
 20
-19.3189492122
 11
-23.2463077281
 21
-22.7259536982
  0
LINE
  5
2D9
100
AcDbEntity
  8
RACCORDO
100
AcDbLine
 62
7
  6
CONTINUOUS
 10
-23.2273272279
 20
29.6012046501
 11
-23.2273272279
 21
27.8550547386
  0
LINE
  5
2DA
100
AcDbEntity
  8
ASSI
100
AcDbLine
 62
7
  6
CONTINUOUS
 10
-23.2273272279
 20
29.6012046501
 11
-23.2273272279
 21
27.8550547386
  0
LINE
  5
2DB
100
AcDbEntity
  8
DRAFT
100
AcDbLine
 62
7
  6
CONTINUOUS
 10
-22.5392009469
 20
-19.6725026028
 11
-22.5392009469
 21
-23.0795070888
  0
LINE
  5
2DC
100
AcDbEntity
  8
0
100
AcDbLine
 62
7
  6
CONTINUOUS
 10
-22.2563582344
 20
21.0133376598
 11
-22.2563582344
 21
20.9709466045
  0
LINE
  5
2DD
100
AcDbEntity
  8
DRAFT
100
AcDbLine
 62
7
  6
CONTINUOUS
 10
-22.0442262
 20
27.383385924
 11
-22.0442262
 21
27.1856576771
  0
LINE
  5
2DE
100
AcDbEntity
  8
ASSI
100
AcDbLine
 62
7
  6
CONTINUOUS
 10
-22.0442262
 20
27.383385924
 11
-22.0442262
 21
27.1856576771
  0
LINE
  5
2DF
100
AcDbEntity
  8
0
100
AcDbLine
 62
7
  6
CONTINUOUS
 10
-21.9735155219
 20
21.154759016
 11
-21.9735155219
 21
20.8295252483
  0
LWPOLYLINE
  5
2E0
100
AcDbEntity
  8
ASSI
100
AcDbPolyline
 62
253
  6
CONTINUOUS
 90
6
 70
0
 10
-23.2273273414
 20
29.6010981073
 10
-23.2279286397
 20
29.593455408
 10
-23.2335528541
 20
29.576448378
 10
-23.2449350162
 20
29.5601769731
 10
-23.2617369086
 20
29.5451246935
 10
-23.2834592679
 20
29.5317388131
  0
LWPOLYLINE
  5
2E1
100
AcDbEntity
  8
RACCORDO
100
AcDbPolyline
 62
253
  6
CONTINUOUS
 90
6
 70
0
 10
-23.2273273357
 20
29.6011008452
 10
-23.2279286397
 20
29.593455408
 10
-23.2335528541
 20
29.576448378
 10
-23.2449350162
 20
29.5601769731
 10
-23.2617369086
 20
29.5451246935
 10
-23.2834592679
 20
29.5317388131
  0
LINE
  5
2E2
100
AcDbEntity
  8
RACCORDO
100
AcDbLine
 62
253
  6
CONTINUOUS
 10
-21.1283396353
 20
23.6861022735
 11
-21.1435950471
 21
23.5941965472
  0
LINE
  5
2E3
100
AcDbEntity
  8
RACCORDO
100
AcDbLine
 62
253
  6
CONTINUOUS
 10
-20.8267461325
 20
25.0943058234
 11
-20.8445209693
 21
24.9872219038
  0
LINE
  5
2E4
100
AcDbEntity
  8
RACCORDO
100
AcDbLine
 62
253
  6
CONTINUOUS
 10
-19.1263376068
 20
24.143520896
 11
-19.1875559743
 21
23.7747128547
  0
LINE
  5
2E5
100
AcDbEntity
  8
RACCORDO
100
AcDbLine
 62
253
  6
CONTINUOUS
 10
-18.8468471451
 20
24.1043563298
 11
-18.9080655126
 21
23.7355482885
  0
LINE
  5
2E6
100
AcDbEntity
  8
0
100
AcDbLine
 62
7
  6
CONTINUOUS
 10
-19.9241329186
 20
16.5752168568
 11
-19.5693524659
 21
17.1871226231
  0
LWPOLYLINE
  5
2E7
100
AcDbEntity
  8
RACCORDO
100
AcDbPolyline
 62
253
  6
CONTINUOUS
 90
6
 70
0
 10
-10.237339155
 20
22.5255734499
 10
-10.2156168131
 20
22.5389593175
 10
-10.1988149254
 20
22.5540115856
 10
-10.187432758
 20
22.570282982
 10
-10.1818085324
 20
22.5872900088
 10
-10.1812072091
 20
22.5949423177
  0
LWPOLYLINE
  5
2E8
100
AcDbEntity
  8
ASSI
100
AcDbPolyline
 62
253
  6
CONTINUOUS
 90
6
 70
0
 10
-10.237339155
 20
22.5255734499
 10
-10.2156168131
 20
22.5389593175
 10
-10.1988149254
 20
22.5540115856
 10
-10.187432758
 20
22.570282982
 10
-10.1818085324
 20
22.5872900088
 10
-10.1812072127
 20
22.5949404854
  0
LINE
  5
2E9
100
AcDbEntity
  8
DRAFT
100
AcDbLine
 62
7
  6
CONTINUOUS
 10
-20.806789333
 20
17.016545064
 11
-19.3218650925
 21
17.7907518965
  0
LINE
  5
2EA
100
AcDbEntity
  8
RACCORDO
100
AcDbLine
 62
253
  6
CONTINUOUS
 10
-10.9370184642
 20
23.1732849404
 11
-18.5794245147
 21
19.2163133726
  0
LINE
  5
2EB
100
AcDbEntity
  8
ASSI
100
AcDbLine
 62
253
  6
CONTINUOUS
 10
-10.9370184642
 20
23.1732849404
 11
-18.5794245147
 21
19.2163133726
  0
LINE
  5
2EC
100
AcDbEntity
  8
RACCORDO
100
AcDbLine
 62
253
  6
CONTINUOUS
 10
-10.7931505041
 20
22.9306140226
 11
-18.437981616
 21
18.9723868425
  0
LINE
  5
2ED
100
AcDbEntity
  8
ASSI
100
AcDbLine
 62
253
  6
CONTINUOUS
 10
-10.7931505041
 20
22.9306140226
 11
-18.437981616
 21
18.9723868425
  0
LINE
  5
2EE
100
AcDbEntity
  8
DRAFT
100
AcDbLine
 62
7
  6
CONTINUOUS
 10
-18.437981616
 20
18.4960728704
 11
-17.0484532432
 21
19.2155222463
  0
LINE
  5
2EF
100
AcDbEntity
  8
ASSI
100
AcDbLine
 62
7
  6
CONTINUOUS
 10
-18.437981616
 20
18.4960728704
 11
-17.0484532432
 21
19.2155222463
  0
LINE
  5
2F0
100
AcDbEntity
  8
DRAFT
100
AcDbLine
 62
7
  6
CONTINUOUS
 10
2.1811484267
 20
25.9683035083
 11
1.7394306333
 21
25.7397896223
  0
LINE
  5
2F1
100
AcDbEntity
  8
ASSI
100
AcDbLine
 62
7
  6
CONTINUOUS
 10
2.1811484267
 20
25.9683035083
 11
1.7394306333
 21
25.7397896223
  0
LINE
  5
2F2
100
AcDbEntity
  8
0
100
AcDbLine
 62
7
  6
CONTINUOUS
 10
-19.5693524659
 20
17.1871226231
 11
-19.1450883972
 21
17.3992546575
  0
LINE
  5
2F3
100
AcDbEntity
  8
RACCORDO
100
AcDbLine
 62
7
  6
CONTINUOUS
 10
-15.7138535181
 20
18.5482223838
 11
-10.237339155
 21
21.2646138813
  0
LINE
  5
2F4
100
AcDbEntity
  8
ASSI
100
AcDbLine
 62
7
  6
CONTINUOUS
 10
-15.7138535181
 20
18.5482223838
 11
-10.237339155
 21
21.2646138813
  0
LINE
  5
2F5
100
AcDbEntity
  8
RACCORDO
100
AcDbLine
 62
7
  6
CONTINUOUS
 10
9.8990935493
 20
30.5757476407
 11
0.5831907979
 21
25.9549911982
  0
LINE
  5
2F6
100
AcDbEntity
  8
ASSI
100
AcDbLine
 62
7
  6
CONTINUOUS
 10
9.8990935493
 20
30.5757476407
 11
0.5831907979
 21
25.9549911982
  0
LINE
  5
2F7
100
AcDbEntity
  8
DRAFT
100
AcDbLine
 62
7
  6
CONTINUOUS
 10
2.1811484267
 20
25.9342307799
 11
10.240412989
 21
29.9316854165
  0
LINE
  5
2F8
100
AcDbEntity
  8
ASSI
100
AcDbLine
 62
7
  6
CONTINUOUS
 10
2.1811484267
 20
25.9342307799
 11
10.240412989
 21
29.9316854165
  0
LINE
  5
2F9
100
AcDbEntity
  8
DRAFT
100
AcDbLine
 62
7
  6
CONTINUOUS
 10
-19.3218650925
 20
17.7907518965
 11
-19.2511544144
 21
17.8245955826
  0
LINE
  5
2FA
100
AcDbEntity
  8
DRAFT
100
AcDbLine
 62
7
  6
CONTINUOUS
 10
1.3865991595
 20
25.9162053592
 11
1.0206994124
 21
25.7456018421
  0
LINE
  5
2FB
100
AcDbEntity
  8
DRAFT
100
AcDbLine
 62
7
  6
CONTINUOUS
 10
-20.4676818312
 20
-23.7901265722
 11
-21.1249873845
 21
-23.78661387
  0
LINE
  5
2FC
100
AcDbEntity
  8
DRAFT
100
AcDbLine
 62
7
  6
CONTINUOUS
 10
-21.1249873845
 20
-23.436839324
 11
-21.8320941657
 21
-23.4330604794
  0
LINE
  5
2FD
100
AcDbEntity
  8
DRAFT
100
AcDbLine
 62
7
  6
CONTINUOUS
 10
-21.8320941657
 20
-23.0832859334
 11
-22.5392009469
 21
-23.0795070888
  0
LINE
  5
2FE
100
AcDbEntity
  8
DRAFT
100
AcDbLine
 62
7
  6
CONTINUOUS
 10
-22.5392009469
 20
-22.7297325428
 11
-23.2463077281
 21
-22.7259536982
  0
LINE
  5
2FF
100
AcDbEntity
  8
DRAFT
100
AcDbLine
 62
7
  6
CONTINUOUS
 10
-23.2463077281
 20
-22.3761791522
 11
-23.9534145092
 21
-22.3724003076
  0
LINE
  5
300
100
AcDbEntity
  8
DRAFT
100
AcDbLine
 62
7
  6
CONTINUOUS
 10
-23.9534145092
 20
-22.0226257616
 11
-24.6605212904
 21
-22.018846917
  0
LWPOLYLINE
  5
301
100
AcDbEntity
  8
0
100
AcDbPolyline
 62
7
  6
CONTINUOUS
 90
25
 70
0
 10
-22.9049253313
 20
-17.2302686318
 10
-22.467329844
 20
-17.4359971366
 10
-22.0334613118
 20
-17.614385723
 10
-21.6033129141
 20
-17.7654307379
 10
-21.1758242387
 20
-17.8893647481
 10
-20.7520283799
 20
-17.9859405699
 10
-20.3350527006
 20
-18.0544316832
 10
-19.9249427714
 20
-18.0946071866
 10
-19.5216008122
 20
-18.1066701488
 10
-19.1279353766
 20
-18.0905430255
 10
-18.7439727067
 20
-18.0460390985
 10
-18.3696141208
 20
-17.9733067075
 10
-18.0075802918
 20
-17.8727707136
 10
-17.6579437645
 20
-17.7441517841
 10
-17.3205451573
 20
-17.5876836493
 10
-16.9977611818
 20
-17.4045629709
 10
-16.6896343442
 20
-17.1946012722
 10
-16.3960291485
 20
-16.9579387698
 10
-16.1190643135
 20
-16.6962700705
 10
-15.858806984
 20
-16.4093605961
 10
-15.6150986147
 20
-16.0973982105
 10
-15.3897336485
 20
-15.7627188162
 10
-15.1832876688
 20
-15.4060898319
 10
-14.9951066711
 20
-15.0267046177
 10
-14.825148623
 20
-14.6245422905
  0
LWPOLYLINE
  5
302
100
AcDbEntity
  8
RACCORDO
100
AcDbPolyline
 62
7
  6
CONTINUOUS
 90
10
 70
0
 10
-23.2293738898
 20
29.6662832911
 10
-23.2382209263
 20
29.7483546964
 10
-23.2540491601
 20
29.8265133602
 10
-23.2767853596
 20
29.9000850523
 10
-23.3061014383
 20
29.9680755696
 10
-23.3415802468
 20
30.0298529354
 10
-23.3830052183
 20
30.0852745657
 10
-23.4301010567
 20
30.1340192265
 10
-23.4823410319
 20
30.1755544412
 10
-23.5417469682
 20
30.2107598231
  0
LWPOLYLINE
  5
303
100
AcDbEntity
  8
ASSI
100
AcDbPolyline
 62
7
  6
CONTINUOUS
 90
10
 70
0
 10
-23.2291371495
 20
29.6624551597
 10
-23.2376940021
 20
29.7448838532
 10
-23.2532725447
 20
29.8234306183
 10
-23.2758061606
 20
29.8974066664
 10
-23.3049674705
 20
29.9657956201
 10
-23.3403417612
 20
30.0279578902
 10
-23.3817145391
 20
30.0837501684
 10
-23.4288078546
 20
30.1328399135
 10
-23.4810934099
 20
30.1746888462
 10
-23.5417314425
 20
30.2107520327
  0
LWPOLYLINE
  5
304
100
AcDbEntity
  8
RACCORDO
100
AcDbPolyline
 62
7
  6
CONTINUOUS
 90
11
 70
0
 10
-19.9937227869
 20
27.5576248282
 10
-19.9972380996
 20
27.6298319538
 10
-20.0059289725
 20
27.6983038876
 10
-20.0197954057
 20
27.7630406296
 10
-20.0390896083
 20
27.8247300816
 10
-20.0635593712
 20
27.8826843418
 10
-20.0924480666
 20
27.9348397044
 10
-20.1257478554
 20
27.9807049583
 10
-20.1634665767
 20
28.0207713147
 10
-20.2048711196
 20
28.0544487012
 10
-20.2535250702
 20
28.0835084524
  0
LWPOLYLINE
  5
305
100
AcDbEntity
  8
ASSI
100
AcDbPolyline
 62
7
  6
CONTINUOUS
 90
11
 70
0
 10
-19.9937227869
 20
27.5576248282
 10
-19.9972380996
 20
27.6298319538
 10
-20.0059289725
 20
27.6983038876
 10
-20.0197954057
 20
27.7630406296
 10
-20.0390896083
 20
27.8247300816
 10
-20.0635593712
 20
27.8826843418
 10
-20.0924480666
 20
27.9348397044
 10
-20.1257478554
 20
27.9807049583
 10
-20.1634665767
 20
28.0207713147
 10
-20.2048711196
 20
28.0544487012
 10
-20.2535250702
 20
28.0835084524
  0
LWPOLYLINE
  5
306
100
AcDbEntity
  8
0
100
AcDbPolyline
 62
7
  6
CONTINUOUS
 90
7
 70
0
 10
-20.1329078201
 20
-23.8000949592
 10
-20.150752978
 20
-23.2606080183
 10
-20.1679365624
 20
-22.7207609962
 10
-20.1844585731
 20
-22.180553893
 10
-20.2003190101
 20
-21.6399867086
 10
-20.2155178735
 20
-21.0990594431
 10
-20.2300551633
 20
-20.5577720964
  0
LINE
  5
307
100
AcDbEntity
  8
0
100
AcDbLine
 62
7
  6
CONTINUOUS
 10
-22.2389441365
 20
21.959119011
 11
-22.2377095009
 21
21.9164350586
  0
LINE
  5
308
100
AcDbEntity
  8
0
100
AcDbLine
 62
7
  6
CONTINUOUS
 10
-19.0569636212
 20
20.3681287533
 11
-19.0741623439
 21
20.9627247895
  0
LINE
  5
309
100
AcDbEntity
  8
DRAFT
100
AcDbLine
 62
7
  6
CONTINUOUS
 10
-21.8320941657
 20
-20.0260559934
 11
-21.8320941657
 21
-23.4330604794
  0
LINE
  5
30A
100
AcDbEntity
  8
RACCORDO
100
AcDbLine
 62
253
  6
CONTINUOUS
 10
-21.407830097
 20
20.5466825358
 11
-21.407830097
 21
20.5998959476
  0
LINE
  5
30B
100
AcDbEntity
  8
DRAFT
100
AcDbLine
 62
7
  6
CONTINUOUS
 10
-21.1249873845
 20
-20.379609384
 11
-21.1249873845
 21
-23.78661387
  0
LINE
  5
30C
100
AcDbEntity
  8
0
100
AcDbLine
 62
7
  6
CONTINUOUS
 10
-20.4702822666
 20
26.5964139573
 11
-20.4702822666
 21
26.4931852626
  0
LINE
  5
30D
100
AcDbEntity
  8
ASSI
100
AcDbLine
 62
7
  6
CONTINUOUS
 10
-20.4702822666
 20
26.5964139573
 11
-20.4702822666
 21
26.4931852626
  0
LINE
  5
30E
100
AcDbEntity
  8
DRAFT
100
AcDbLine
 62
7
  6
CONTINUOUS
 10
-20.4676818312
 20
-20.733428917
 11
-20.4676818312
 21
-23.7901265722
  0
LINE
  5
30F
100
AcDbEntity
  8
RACCORDO
100
AcDbLine
 62
7
  6
CONTINUOUS
 10
-20.3118145861
 20
19.3463868151
 11
-20.3118145861
 21
19.2199134829
  0
LINE
  5
310
100
AcDbEntity
  8
DRAFT
100
AcDbLine
 62
7
  6
CONTINUOUS
 10
-19.5984562097
 20
19.7258292201
 11
-19.5984562097
 21
19.0763101672
  0
LINE
  5
311
100
AcDbEntity
  8
ASSI
100
AcDbLine
 62
7
  6
CONTINUOUS
 10
-19.5984562097
 20
19.7258292201
 11
-19.5984562097
 21
19.0763101672
  0
LINE
  5
312
100
AcDbEntity
  8
DRAFT
100
AcDbLine
 62
7
  6
CONTINUOUS
 10
-19.2511544144
 20
17.3462216489
 11
-19.2511544144
 21
17.8245955826
  0
LINE
  5
313
100
AcDbEntity
  8
RACCORDO
100
AcDbLine
 62
253
  6
CONTINUOUS
 10
-19.1325181099
 20
26.7386810273
 11
-19.1325181099
 21
26.6919209496
  0
LINE
  5
314
100
AcDbEntity
  8
ASSI
100
AcDbLine
 62
253
  6
CONTINUOUS
 10
-19.1325181099
 20
26.7386810273
 11
-19.1325181099
 21
26.6919209496
  0
LINE
  5
315
100
AcDbEntity
  8
RACCORDO
100
AcDbLine
 62
7
  6
CONTINUOUS
 10
-18.8459099095
 20
26.8689926267
 11
-18.8459099095
 21
26.7574133466
  0
LINE
  5
316
100
AcDbEntity
  8
ASSI
100
AcDbLine
 62
7
  6
CONTINUOUS
 10
-18.8459099095
 20
26.8689926267
 11
-18.8459099095
 21
26.7574133466
  0
LINE
  5
317
100
AcDbEntity
  8
0
100
AcDbLine
 62
253
  6
CONTINUOUS
 10
-18.7208243285
 20
21.241108263
 11
-18.7208243285
 21
21.5875184245
  0
LINE
  5
318
100
AcDbEntity
  8
RACCORDO
100
AcDbLine
 62
7
  6
CONTINUOUS
 10
-18.437981616
 20
18.9723868425
 11
-18.437981616
 21
18.4960728704
  0
LINE
  5
319
100
AcDbEntity
  8
ASSI
100
AcDbLine
 62
7
  6
CONTINUOUS
 10
-18.437981616
 20
18.9723868425
 11
-18.437981616
 21
18.4960728704
  0
LWPOLYLINE
  5
31A
100
AcDbEntity
  8
0
100
AcDbPolyline
 62
7
  6
CONTINUOUS
 90
16
 70
0
 10
-19.0741623439
 20
20.9627247895
 10
-19.0732924987
 20
21.0103384524
 10
-19.0685693963
 20
21.0584897911
 10
-19.0599930368
 20
21.1071788055
 10
-19.0473784323
 20
21.1569708629
 10
-19.0309105707
 20
21.207300596
 10
-19.0111444155
 20
21.256471903
 10
-18.9879675523
 20
21.3044453015
 10
-18.9614923955
 20
21.3512602739
 10
-18.9326111528
 20
21.3953391648
 10
-18.9012418182
 20
21.4365887216
 10
-18.8674663975
 20
21.4751021969
 10
-18.8324231157
 20
21.5095816945
 10
-18.7964913811
 20
21.5395945822
 10
-18.7592917854
 20
21.5655734922
 10
-18.7208243285
 20
21.5875184245
  0
LWPOLYLINE
  5
31B
100
AcDbEntity
  8
0
100
AcDbPolyline
 62
7
  6
CONTINUOUS
 90
13
 70
0
 10
-18.7914919316
 20
21.116149536
 10
-18.7911069435
 20
21.128242945
 10
-18.7895557775
 20
21.1403711813
 10
-18.7868384335
 20
21.1525342449
 10
-18.7828657056
 20
21.164948234
 10
-18.7777267997
 20
21.1773970504
 10
-18.7716893335
 20
21.1892323996
 10
-18.7647056864
 20
21.2004217699
 10
-18.756823479
 20
21.210997673
 10
-18.7484531915
 20
21.2204093498
 10
-18.7397316506
 20
21.2284732138
 10
-18.7305220296
 20
21.2353728516
 10
-18.7208243285
 20
21.241108263
  0
LINE
  5
31C
100
AcDbEntity
  8
0
100
AcDbLine
 62
253
  6
CONTINUOUS
 10
-18.095633642
 20
21.5516507802
 11
-18.0344152745
 21
21.9204588215
  0
LINE
  5
31D
100
AcDbEntity
  8
RACCORDO
100
AcDbLine
 62
253
  6
CONTINUOUS
 10
-16.7962374797
 20
23.079051497
 11
-16.8140123165
 21
22.9719675774
  0
LINE
  5
31E
100
AcDbEntity
  8
RACCORDO
100
AcDbLine
 62
253
  6
CONTINUOUS
 10
-14.8704446218
 20
23.8023702669
 11
-14.8857000336
 21
23.7104645406
  0
LWPOLYLINE
  5
31F
100
AcDbEntity
  8
RACCORDO
100
AcDbPolyline
 62
7
  6
CONTINUOUS
 90
12
 70
0
 10
-16.7370120289
 20
23.0147565049
 10
-16.7380659153
 20
23.0106055186
 10
-16.7400119398
 20
23.0062376858
 10
-16.7427982177
 20
23.0020483207
 10
-16.7464141216
 20
22.9980351662
 10
-16.7508135295
 20
22.9942494113
 10
-16.7560064778
 20
22.9906939691
 10
-16.76198293
 20
22.9873659265
 10
-16.7686666543
 20
22.984307734
 10
-16.7760322403
 20
22.9815335417
 10
-16.7841050985
 20
22.9790291993
 10
-16.7928852289
 20
22.976794707
  0
LWPOLYLINE
  5
320
100
AcDbEntity
  8
RACCORDO
100
AcDbPolyline
 62
7
  6
CONTINUOUS
 90
12
 70
0
 10
-14.9263178218
 20
23.764408469
 10
-14.9252639354
 20
23.7685594554
 10
-14.9233179109
 20
23.7729272882
 10
-14.920531633
 20
23.7771166532
 10
-14.9169157291
 20
23.7811298078
 10
-14.9125163212
 20
23.7849155626
 10
-14.9073233729
 20
23.7884710049
 10
-14.9013469207
 20
23.7917990474
 10
-14.8946631964
 20
23.7948572399
 10
-14.8872976104
 20
23.7976314323
 10
-14.8792247522
 20
23.8001357746
 10
-14.8704446218
 20
23.8023702669
  0
LINE
  5
321
100
AcDbEntity
  8
0
100
AcDbLine
 62
253
  6
CONTINUOUS
 10
-13.4528788086
 20
24.1164744808
 11
-13.5098666779
 21
23.9154412034
  0
LINE
  5
322
100
AcDbEntity
  8
0
100
AcDbLine
 62
7
  6
CONTINUOUS
 10
-6.0407071497
 20
29.4173223115
 11
-6.7535231222
 21
27.9501748956
  0
LINE
  5
323
100
AcDbEntity
  8
DRAFT
100
AcDbLine
 62
7
  6
CONTINUOUS
 10
-13.3114574524
 20
14.7855480764
 11
-14.7963816929
 21
14.0113412439
  0
LINE
  5
324
100
AcDbEntity
  8
0
100
AcDbLine
 62
7
  6
CONTINUOUS
 10
-9.528436173
 20
16.9913243468
 11
-8.9185500784
 21
17.2962673941
  0
LINE
  5
325
100
AcDbEntity
  8
RACCORDO
100
AcDbLine
 62
7
  6
CONTINUOUS
 10
-3.0230537861
 20
19.2163026013
 11
-4.2251353141
 21
18.6152618373
  0
LINE
  5
326
100
AcDbEntity
  8
ASSI
100
AcDbLine
 62
7
  6
CONTINUOUS
 10
-3.0230537861
 20
19.2163026013
 11
-4.2251353141
 21
18.6152618373
  0
LWPOLYLINE
  5
327
100
AcDbEntity
  8
0
100
AcDbPolyline
 62
7
  6
CONTINUOUS
 90
13
 70
0
 10
-8.9185500784
 20
17.2962673941
 10
-8.9121191138
 20
17.2994111193
 10
-8.9056945181
 20
17.3024087841
 10
-8.8992762915
 20
17.3052603885
 10
-8.8928623172
 20
17.3079667783
 10
-8.8864547119
 20
17.3105271077
 10
-8.8800598257
 20
17.3129388394
 10
-8.8736776711
 20
17.315201826
 10
-8.8673082356
 20
17.3173162149
 10
-8.8609578315
 20
17.3192799107
 10
-8.8546285627
 20
17.3210922148
 10
-8.8483183252
 20
17.3227538259
 10
-8.842027119
 20
17.3242647438
  0
LINE
  5
328
100
AcDbEntity
  8
RACCORDO
100
AcDbLine
 62
7
  6
CONTINUOUS
 10
-12.0211118929
 20
15.8990301903
 11
-4.1055968913
 21
19.7209921822
  0
LINE
  5
329
100
AcDbEntity
  8
ASSI
100
AcDbLine
 62
7
  6
CONTINUOUS
 10
-12.0211118929
 20
15.8990301903
 11
-4.1055968913
 21
19.7209921822
  0
LINE
  5
32A
100
AcDbEntity
  8
RACCORDO
100
AcDbLine
 62
253
  6
CONTINUOUS
 10
-11.9325776866
 20
15.8928899585
 11
-4.018634551
 21
19.7140929838
  0
LINE
  5
32B
100
AcDbEntity
  8
ASSI
100
AcDbLine
 62
253
  6
CONTINUOUS
 10
-11.9325776866
 20
15.8928899585
 11
-4.018634551
 21
19.7140929838
  0
LINE
  5
32C
100
AcDbEntity
  8
DRAFT
100
AcDbLine
 62
7
  6
CONTINUOUS
 10
-4.3665566704
 20
18.5445511592
 11
-5.1439009933
 21
18.1692148158
  0
LINE
  5
32D
100
AcDbEntity
  8
ASSI
100
AcDbLine
 62
7
  6
CONTINUOUS
 10
-4.3665566704
 20
18.5445511592
 11
-5.1439009933
 21
18.1692148158
  0
LINE
  5
32E
100
AcDbEntity
  8
DRAFT
100
AcDbLine
 62
7
  6
CONTINUOUS
 10
-9.8679395833
 20
15.8882392968
 11
-10.9135459916
 21
15.383374111
  0
LINE
  5
32F
100
AcDbEntity
  8
ASSI
100
AcDbLine
 62
7
  6
CONTINUOUS
 10
-9.8679395833
 20
15.8882392968
 11
-10.9135459916
 21
15.383374111
  0
LINE
  5
330
100
AcDbEntity
  8
DRAFT
100
AcDbLine
 62
7
  6
CONTINUOUS
 10
-13.2407467743
 20
14.8193917625
 11
-13.3114574524
 21
14.7855480764
  0
LINE
  5
331
100
AcDbEntity
  8
RACCORDO
100
AcDbLine
 62
7
  6
CONTINUOUS
 10
-4.0848335704
 20
19.7306733097
 11
-4.1055983414
 21
19.7209913711
  0
LINE
  5
332
100
AcDbEntity
  8
RACCORDO
100
AcDbLine
 62
7
  6
CONTINUOUS
 10
15.8869447468
 20
27.5818220419
 11
6.2400450474
 21
23.1265640735
  0
LINE
  5
333
100
AcDbEntity
  8
ASSI
100
AcDbLine
 62
7
  6
CONTINUOUS
 10
15.8869447468
 20
27.5818220419
 11
6.2400450474
 21
23.1265640735
  0
LWPOLYLINE
  5
334
100
AcDbEntity
  8
RACCORDO
100
AcDbPolyline
 62
253
  6
CONTINUOUS
 90
12
 70
0
 10
-4.018634551
 20
19.7140929838
 10
-3.987825496
 20
19.7282713857
 10
-3.9559000919
 20
19.7412732609
 10
-3.9229313213
 20
19.7528768655
 10
-3.8889958419
 20
19.762853012
 10
-3.8542079938
 20
19.7709600972
 10
-3.8187198342
 20
19.7769513776
 10
-3.7825494499
 20
19.7805893416
 10
-3.7459734571
 20
19.7816010547
 10
-3.7095343809
 20
19.7797735235
 10
-3.6733887794
 20
19.7749477808
 10
-3.6377134778
 20
19.7669729299
  0
LWPOLYLINE
  5
335
100
AcDbEntity
  8
ASSI
100
AcDbPolyline
 62
253
  6
CONTINUOUS
 90
12
 70
0
 10
-4.018634551
 20
19.7140929838
 10
-3.987825496
 20
19.7282713857
 10
-3.9559000919
 20
19.7412732609
 10
-3.9229313213
 20
19.7528768655
 10
-3.8889958419
 20
19.762853012
 10
-3.8542079938
 20
19.7709600972
 10
-3.8187198342
 20
19.7769513776
 10
-3.7825494499
 20
19.7805893416
 10
-3.7459734571
 20
19.7816010547
 10
-3.7095343809
 20
19.7797735235
 10
-3.6733887794
 20
19.7749477808
 10
-3.6377134778
 20
19.7669729299
  0
LINE
  5
336
100
AcDbEntity
  8
ASSI
100
AcDbLine
 62
7
  6
CONTINUOUS
 10
-4.0469280296
 20
19.7465821562
 11
-4.1055280878
 21
19.7210252479
  0
LWPOLYLINE
  5
337
100
AcDbEntity
  8
RACCORDO
100
AcDbPolyline
 62
253
  6
CONTINUOUS
 90
5
 70
0
 10
-4.1055968913
 20
19.7209921822
 10
-4.0881004018
 20
19.7268548903
 10
-4.0661519935
 20
19.7282503102
 10
-4.0427597897
 20
19.723952816
 10
-4.018634551
 20
19.7140929838
  0
LWPOLYLINE
  5
338
100
AcDbEntity
  8
ASSI
100
AcDbPolyline
 62
253
  6
CONTINUOUS
 90
5
 70
0
 10
-4.1055281309
 20
19.7210253381
 10
-4.0881004018
 20
19.7268548903
 10
-4.0661519935
 20
19.7282503102
 10
-4.0427597897
 20
19.723952816
 10
-4.018634551
 20
19.7140929838
  0
LINE
  5
339
100
AcDbEntity
  8
DRAFT
100
AcDbLine
 62
7
  6
CONTINUOUS
 10
-20.4676818312
 20
-20.733428917
 11
-21.1249873845
 21
-20.7369416192
  0
LINE
  5
33A
100
AcDbEntity
  8
DRAFT
100
AcDbLine
 62
7
  6
CONTINUOUS
 10
-21.1249873845
 20
-20.379609384
 11
-21.8320941657
 21
-20.3833882286
  0
LINE
  5
33B
100
AcDbEntity
  8
DRAFT
100
AcDbLine
 62
7
  6
CONTINUOUS
 10
-21.8320941657
 20
-20.0260559934
 11
-22.5392009469
 21
-20.029834838
  0
LINE
  5
33C
100
AcDbEntity
  8
DRAFT
100
AcDbLine
 62
7
  6
CONTINUOUS
 10
-22.5392009469
 20
-19.6725026028
 11
-23.2463077281
 21
-19.6762814474
  0
LINE
  5
33D
100
AcDbEntity
  8
DRAFT
100
AcDbLine
 62
7
  6
CONTINUOUS
 10
-23.2463077281
 20
-19.3189492122
 11
-23.9534145092
 21
-19.3227280568
  0
LINE
  5
33E
100
AcDbEntity
  8
DRAFT
100
AcDbLine
 62
7
  6
CONTINUOUS
 10
-23.9534145092
 20
-18.9653958216
 11
-24.6605212904
 21
-18.9691746662
  0
LINE
  5
33F
100
AcDbEntity
  8
DRAFT
100
AcDbLine
 62
7
  6
CONTINUOUS
 10
-24.6605212904
 20
-18.611842431
 11
-25.3676280716
 21
-18.6156212756
  0
LINE
  5
340
100
AcDbEntity
  8
DRAFT
100
AcDbLine
 62
7
  6
CONTINUOUS
 10
-24.6605212904
 20
-21.669072371
 11
-25.3676280716
 21
-21.6652935264
  0
LINE
  5
341
100
AcDbEntity
  8
RACCORDO
100
AcDbLine
 62
7
  6
CONTINUOUS
 10
-35.4712253183
 20
21.9516093349
 11
-35.7194042303
 21
22.4220111382
  0
LWPOLYLINE
  5
342
100
AcDbEntity
  8
RACCORDO
100
AcDbPolyline
 62
253
  6
CONTINUOUS
 90
10
 70
0
 10
-15.5304902308
 20
-29.3410859847
 10
-15.6780565439
 20
-25.3210662892
 10
-15.7887469934
 20
-21.2808642111
 10
-15.8625481111
 20
-17.2209712525
 10
-15.8994509166
 20
-13.1418812497
 10
-15.8994509166
 20
-9.0440904969
 10
-15.8625481111
 20
-4.9280976886
 10
-15.7887469934
 20
-0.7944036123
 10
-15.6780565439
 20
3.3564889154
 10
-15.5304902308
 20
7.5240749239
  0
LINE
  5
343
100
AcDbEntity
  8
0
100
AcDbLine
 62
7
  6
CONTINUOUS
 10
-18.7742932088
 20
20.5215534997
 11
-18.7914919316
 21
21.116149536
  0
LINE
  5
344
100
AcDbEntity
  8
0
100
AcDbLine
 62
253
  6
CONTINUOUS
 10
-18.1109382338
 20
21.5460513103
 11
-18.1109382338
 21
21.8924614718
  0
LINE
  5
345
100
AcDbEntity
  8
0
100
AcDbLine
 62
7
  6
CONTINUOUS
 10
-14.8500460468
 20
23.7862958474
 11
-14.8500460468
 21
23.6915903148
  0
LINE
  5
346
100
AcDbEntity
  8
ASSI
100
AcDbLine
 62
7
  6
CONTINUOUS
 10
-14.8500460468
 20
23.7862958474
 11
-14.8500460468
 21
23.7001134769
  0
LINE
  5
347
100
AcDbEntity
  8
0
100
AcDbLine
 62
253
  6
CONTINUOUS
 10
-13.542574108
 20
24.1057629172
 11
-13.5746963539
 21
23.9122435031
  0
LINE
  5
348
100
AcDbEntity
  8
0
100
AcDbLine
 62
7
  6
CONTINUOUS
 10
-13.4175234696
 20
22.9753290262
 11
-13.4264631574
 21
22.9214721711
  0
LWPOLYLINE
  5
349
100
AcDbEntity
  8
RACCORDO
100
AcDbPolyline
 62
253
  6
CONTINUOUS
 90
13
 70
0
 10
-14.8365949656
 20
8.6939496725
 10
-14.9248595587
 20
8.6411390477
 10
-15.0115465715
 20
8.5756745991
 10
-15.0952965956
 20
8.4985828875
 10
-15.1747962788
 20
8.4110728085
 10
-15.2487989044
 20
8.3145166536
 10
-15.3161439465
 20
8.2104285968
 10
-15.3757752969
 20
8.1004409112
 10
-15.4267578039
 20
7.986278401
 10
-15.4682919341
 20
7.8697313786
 10
-15.4997263378
 20
7.7526275327
 10
-15.5205680543
 20
7.6368032644
 10
-15.5304902311
 20
7.5240749241
  0
LINE
  5
34A
100
AcDbEntity
  8
DRAFT
100
AcDbLine
 62
7
  6
CONTINUOUS
 10
6.1437434671
 20
23.5376332054
 11
5.8025364329
 21
23.3546833319
  0
LINE
  5
34B
100
AcDbEntity
  8
RACCORDO
100
AcDbLine
 62
7
  6
CONTINUOUS
 10
-6.874704704
 20
14.2769992947
 11
-7.8529502774
 21
13.769242626
  0
LINE
  5
34C
100
AcDbEntity
  8
ASSI
100
AcDbLine
 62
7
  6
CONTINUOUS
 10
-6.874704704
 20
14.2769992947
 11
-7.8529502774
 21
13.769242626
  0
LINE
  5
34D
100
AcDbEntity
  8
0
100
AcDbLine
 62
7
  6
CONTINUOUS
 10
-2.6524540713
 20
17.8289212159
 11
-2.7926127369
 21
17.7575791925
  0
LINE
  5
34E
100
AcDbEntity
  8
ASSI
100
AcDbLine
 62
7
  6
CONTINUOUS
 10
-2.6524540713
 20
17.8289212159
 11
-2.7926127369
 21
17.7575791925
  0
LINE
  5
34F
100
AcDbEntity
  8
0
100
AcDbLine
 62
7
  6
CONTINUOUS
 10
-4.2100809916
 20
16.386556028
 11
-5.4589932706
 21
15.7508484265
  0
LINE
  5
350
100
AcDbEntity
  8
ASSI
100
AcDbLine
 62
7
  6
CONTINUOUS
 10
-4.2100809916
 20
16.386556028
 11
-5.4589932706
 21
15.7508484265
  0
LINE
  5
351
100
AcDbEntity
  8
0
100
AcDbLine
 62
7
  6
CONTINUOUS
 10
-7.6212186116
 20
14.6502562485
 11
-8.6091973575
 21
14.1473661661
  0
LINE
  5
352
100
AcDbEntity
  8
ASSI
100
AcDbLine
 62
7
  6
CONTINUOUS
 10
-7.6212186116
 20
14.6502562485
 11
-8.6091973575
 21
14.1473661661
  0
LINE
  5
353
100
AcDbEntity
  8
0
100
AcDbLine
 62
7
  6
CONTINUOUS
 10
-10.2001876152
 20
14.2905733296
 11
-11.260847787
 21
13.7602432437
  0
LINE
  5
354
100
AcDbEntity
  8
ASSI
100
AcDbLine
 62
7
  6
CONTINUOUS
 10
-6.7000090483
 20
13.2351630667
 11
-6.4171663358
 21
13.3765844229
  0
LINE
  5
355
100
AcDbEntity
  8
DRAFT
100
AcDbLine
 62
7
  6
CONTINUOUS
 10
-7.022989755
 20
16.612388301
 11
-7.1039197916
 21
16.573311687
  0
LINE
  5
356
100
AcDbEntity
  8
ASSI
100
AcDbLine
 62
7
  6
CONTINUOUS
 10
-7.022989755
 20
16.612388301
 11
-7.1039197916
 21
16.573311687
  0
LINE
  5
357
100
AcDbEntity
  8
DRAFT
100
AcDbLine
 62
7
  6
CONTINUOUS
 10
-9.3237064399
 20
15.5015001626
 11
-10.9135459916
 21
14.7338550582
  0
LINE
  5
358
100
AcDbEntity
  8
ASSI
100
AcDbLine
 62
7
  6
CONTINUOUS
 10
-9.3237064399
 20
15.5015001626
 11
-10.9135459916
 21
14.7338550582
  0
LINE
  5
359
100
AcDbEntity
  8
DRAFT
100
AcDbLine
 62
7
  6
CONTINUOUS
 10
-10.3769643105
 20
14.2870878576
 11
-11.3669138041
 21
13.8132762523
  0
LWPOLYLINE
  5
35A
100
AcDbEntity
  8
0
100
AcDbPolyline
 62
7
  6
CONTINUOUS
 90
25
 70
0
 10
-14.825148623
 20
-6.4871271624
 10
-14.9951066711
 20
-5.9056463274
 10
-15.1832876688
 20
-5.3279480691
 10
-15.3897336485
 20
-4.754053537
 10
-15.6150986147
 20
-4.1825547209
 10
-15.858806984
 20
-3.6148988306
 10
-16.1190643135
 20
-3.0553934502
 10
-16.3960291485
 20
-2.5041658893
 10
-16.6896343442
 20
-1.9611335245
 10
-16.9977611818
 20
-1.430295666
 10
-17.3205451573
 20
-0.91175688
 10
-17.6579437645
 20
-0.40545733
 10
-18.0075802918
 20
0.0848461723
 10
-18.3696141208
 20
0.5589811522
 10
-18.7439727067
 20
1.0170788501
 10
-19.1279353766
 20
1.455836304
 10
-19.5216008122
 20
1.8751215662
 10
-19.9249427714
 20
2.2750325233
 10
-20.3350527006
 20
2.6526112786
 10
-20.7520283799
 20
3.0076875318
 10
-21.1758242387
 20
3.3404072065
 10
-21.6033129141
 20
3.648288544
 10
-22.0334613118
 20
3.9304999421
 10
-22.467329844
 20
4.187860302
 10
-22.9049253313
 20
4.4203664562
  0
LWPOLYLINE
  5
35B
100
AcDbEntity
  8
0
100
AcDbPolyline
 62
7
  6
CONTINUOUS
 90
10
 70
0
 10
-14.1821365951
 20
-10.8823914675
 10
-14.190691191
 20
-10.413211899
 10
-14.2154020236
 20
-9.9386893446
 10
-14.2562013434
 20
-9.4587924176
 10
-14.3131130929
 20
-8.9725350586
 10
-14.3858253492
 20
-8.480768684
 10
-14.4737045481
 20
-7.9861901114
 10
-14.5763596662
 20
-7.489617119
 10
-14.6936262498
 20
-6.9899815474
 10
-14.825148623
 20
-6.4871271624
  0
LINE
  5
35C
100
AcDbEntity
  8
RACCORDO
100
AcDbLine
 62
7
  6
CONTINUOUS
 10
-12.0740205853
 20
15.7904063271
 11
-12.0740205853
 21
15.314092355
  0
LINE
  5
35D
100
AcDbEntity
  8
ASSI
100
AcDbLine
 62
7
  6
CONTINUOUS
 10
-12.0740205853
 20
15.7904063271
 11
-12.0740205853
 21
15.314092355
  0
LINE
  5
35E
100
AcDbEntity
  8
DRAFT
100
AcDbLine
 62
7
  6
CONTINUOUS
 10
-10.9135459916
 20
15.383374111
 11
-10.9135459916
 21
14.7338550582
  0
LINE
  5
35F
100
AcDbEntity
  8
ASSI
100
AcDbLine
 62
7
  6
CONTINUOUS
 10
-10.9135459916
 20
15.383374111
 11
-10.9135459916
 21
14.7338550582
  0
LWPOLYLINE
  5
360
100
AcDbEntity
  8
0
100
AcDbPolyline
 62
7
  6
CONTINUOUS
 90
7
 70
0
 10
-14.4767453659
 20
-13.5010865011
 10
-14.3914494567
 20
-13.1239629372
 10
-14.3204669398
 20
-12.7230348745
 10
-14.2639535937
 20
-12.2983732181
 10
-14.2220217941
 20
-11.8500286451
 10
-14.1947407597
 20
-11.3780314448
 10
-14.1821365951
 20
-10.8823914675
  0
LWPOLYLINE
  5
361
100
AcDbEntity
  8
RACCORDO
100
AcDbPolyline
 62
7
  6
CONTINUOUS
 90
12
 70
0
 10
-7.5370519584
 20
16.8245600371
 10
-7.535998072
 20
16.8287110235
 10
-7.5340520475
 20
16.8330788563
 10
-7.5312657696
 20
16.8372682214
 10
-7.5276498657
 20
16.8412813759
 10
-7.5232504578
 20
16.8450671308
 10
-7.5180575095
 20
16.848622573
 10
-7.5120810573
 20
16.8519506155
 10
-7.505397333
 20
16.8550088081
 10
-7.498031747
 20
16.8577830004
 10
-7.4899588888
 20
16.8602873427
 10
-7.4811787584
 20
16.862521835
  0
LWPOLYLINE
  5
362
100
AcDbEntity
  8
RACCORDO
100
AcDbPolyline
 62
253
  6
CONTINUOUS
 90
19
 70
0
 10
9.6940830275
 20
19.3867349064
 10
9.6359483324
 20
19.3550207529
 10
9.584408625
 20
19.3215375542
 10
9.5394639055
 20
19.2862853103
 10
9.500922152
 20
19.24896798
 10
9.4689753864
 20
19.2098816046
 10
9.4441996741
 20
19.1699143074
 10
9.4267407245
 20
19.1290815559
 10
9.4164528282
 20
19.0873678827
 10
9.4134749231
 20
19.0456150095
 10
9.4179152743
 20
19.0038254356
 10
9.4296656168
 20
18.9619966618
 10
9.4485400936
 20
18.9209629124
 10
9.474651049
 20
18.8807214966
 10
9.5078861387
 20
18.8412751053
 10
9.5477224723
 20
18.8034660344
 10
9.5939857532
 20
18.7675750493
 10
9.646850278
 20
18.7333213846
 10
9.7063160467
 20
18.7007050404
  0
LWPOLYLINE
  5
363
100
AcDbEntity
  8
ASSI
100
AcDbPolyline
 62
253
  6
CONTINUOUS
 90
19
 70
0
 10
9.6940830275
 20
19.3867349064
 10
9.6359483324
 20
19.3550207529
 10
9.584408625
 20
19.3215375542
 10
9.5394639055
 20
19.2862853103
 10
9.500922152
 20
19.24896798
 10
9.4689753864
 20
19.2098816046
 10
9.4441996741
 20
19.1699143074
 10
9.4267407245
 20
19.1290815559
 10
9.4164528282
 20
19.0873678827
 10
9.4134749231
 20
19.0456150095
 10
9.4179152743
 20
19.0038254356
 10
9.4296656168
 20
18.9619966618
 10
9.4485400936
 20
18.9209629124
 10
9.474651049
 20
18.8807214966
 10
9.5078861387
 20
18.8412751053
 10
9.5477224723
 20
18.8034660344
 10
9.5939857532
 20
18.7675750493
 10
9.646850278
 20
18.7333213846
 10
9.7063160467
 20
18.7007050404
  0
LINE
  5
364
100
AcDbEntity
  8
0
100
AcDbLine
 62
7
  6
CONTINUOUS
 10
-4.5196986941
 20
13.0994962897
 11
-4.5600399712
 21
13.0776002938
  0
LINE
  5
365
100
AcDbEntity
  8
0
100
AcDbLine
 62
253
  6
CONTINUOUS
 10
-1.1138224019
 20
12.2773147711
 11
-1.3964928142
 21
12.1238900247
  0
LINE
  5
366
100
AcDbEntity
  8
0
100
AcDbLine
 62
7
  6
CONTINUOUS
 10
-1.0966236792
 20
11.6827187349
 11
-1.3792940915
 21
11.5292939884
  0
LINE
  5
367
100
AcDbEntity
  8
RACCORDO
100
AcDbLine
 62
253
  6
CONTINUOUS
 10
10.013588474
 20
18.7590962386
 11
10.0475825702
 21
18.7770383831
  0
LINE
  5
368
100
AcDbEntity
  8
ASSI
100
AcDbLine
 62
253
  6
CONTINUOUS
 10
10.013588474
 20
18.7590962386
 11
10.0475825702
 21
18.7770383831
  0
LINE
  5
369
100
AcDbEntity
  8
ASSI
100
AcDbLine
 62
7
  6
CONTINUOUS
 10
-2.2656522656
 20
14.7632002625
 11
-2.8746746041
 21
14.4586890933
  0
LINE
  5
36A
100
AcDbEntity
  8
ASSI
100
AcDbLine
 62
7
  6
CONTINUOUS
 10
-4.5786887047
 20
12.1745028949
 11
-4.2958459923
 21
12.3159242512
  0
LINE
  5
36B
100
AcDbEntity
  8
0
100
AcDbLine
 62
7
  6
CONTINUOUS
 10
-1.0431547988
 20
12.7486836596
 11
-0.4332687042
 21
13.053626707
  0
LINE
  5
36C
100
AcDbEntity
  8
0
100
AcDbLine
 62
7
  6
CONTINUOUS
 10
-1.0431547988
 20
12.4022734981
 11
-0.4332687042
 21
12.7072165454
  0
LINE
  5
36D
100
AcDbEntity
  8
RACCORDO
100
AcDbLine
 62
253
  6
CONTINUOUS
 10
9.6940830275
 20
19.3867349064
 11
21.030864573
 21
25.0098621288
  0
LINE
  5
36E
100
AcDbEntity
  8
ASSI
100
AcDbLine
 62
253
  6
CONTINUOUS
 10
9.6940830275
 20
19.3867349064
 11
21.030864573
 21
25.0098621288
  0
LINE
  5
36F
100
AcDbEntity
  8
RACCORDO
100
AcDbLine
 62
253
  6
CONTINUOUS
 10
10.0475825702
 20
18.7770383831
 11
21.3843641157
 21
24.4001656055
  0
LINE
  5
370
100
AcDbEntity
  8
ASSI
100
AcDbLine
 62
253
  6
CONTINUOUS
 10
10.0475825702
 20
18.7770383831
 11
21.3843641157
 21
24.4001656055
  0
LINE
  5
371
100
AcDbEntity
  8
0
100
AcDbLine
 62
7
  6
CONTINUOUS
 10
2.8276234829
 20
14.9474610826
 11
2.9703075298
 21
15.0175404154
  0
LINE
  5
372
100
AcDbEntity
  8
ASSI
100
AcDbLine
 62
7
  6
CONTINUOUS
 10
2.8276234829
 20
14.9474610826
 11
2.9703075298
 21
15.0175404154
  0
LINE
  5
373
100
AcDbEntity
  8
0
100
AcDbLine
 62
7
  6
CONTINUOUS
 10
-0.3839070277
 20
12.7205973985
 11
-1.0669468078
 21
12.3851221082
  0
LINE
  5
374
100
AcDbEntity
  8
ASSI
100
AcDbLine
 62
7
  6
CONTINUOUS
 10
-0.3839070277
 20
12.7205973985
 11
-1.0669468078
 21
12.3851221082
  0
LINE
  5
375
100
AcDbEntity
  8
0
100
AcDbLine
 62
7
  6
CONTINUOUS
 10
-2.0879842995
 20
11.8836390924
 11
-3.0937644642
 21
11.3896497195
  0
LINE
  5
376
100
AcDbEntity
  8
ASSI
100
AcDbLine
 62
7
  6
CONTINUOUS
 10
-2.0879842995
 20
11.8836390924
 11
-3.0937644642
 21
11.3896497195
  0
LWPOLYLINE
  5
377
100
AcDbEntity
  8
0
100
AcDbPolyline
 62
7
  6
CONTINUOUS
 90
13
 70
0
 10
-0.4332687042
 20
13.053626707
 10
-0.4268377395
 20
13.0567704322
 10
-0.4204131439
 20
13.059768097
 10
-0.4139949173
 20
13.0626197014
 10
-0.407580943
 20
13.0653260912
 10
-0.4011733377
 20
13.0678864206
 10
-0.3947784514
 20
13.0702981523
 10
-0.3883962969
 20
13.0725611389
 10
-0.3820268614
 20
13.0746755278
 10
-0.3756764572
 20
13.0766392236
 10
-0.3693471884
 20
13.0784515277
 10
-0.363036951
 20
13.0801131387
 10
-0.3567457448
 20
13.0816240566
  0
LWPOLYLINE
  5
378
100
AcDbEntity
  8
0
100
AcDbPolyline
 62
7
  6
CONTINUOUS
 90
10
 70
0
 10
-0.4332687042
 20
12.7072165454
 10
-0.4315531217
 20
12.7080487691
 10
-0.4298405569
 20
12.7088287523
 10
-0.4281310098
 20
12.7095564949
 10
-0.4264234797
 20
12.7102323631
 10
-0.4247189672
 20
12.7108559907
 10
-0.4230204741
 20
12.7114262795
 10
-0.4213290009
 20
12.7119428636
 10
-0.4196435469
 20
12.7124061089
 10
-0.4179641123
 20
12.7128160154
  0
LWPOLYLINE
  5
379
100
AcDbEntity
  8
RACCORDO
100
AcDbPolyline
 62
7
  6
CONTINUOUS
 90
9
 70
0
 10
5.7450703006
 20
14.832240558
 10
5.8054902516
 20
14.8594481912
 10
5.8650926721
 20
14.8798674113
 10
5.9238775622
 20
14.8934982183
 10
5.9825299686
 20
14.9003841119
 10
6.0403648446
 20
14.9004815924
 10
6.0953270495
 20
14.8936601606
 10
6.1470025866
 20
14.8796996695
 10
6.1922685462
 20
14.8606116443
  0
LWPOLYLINE
  5
37A
100
AcDbEntity
  8
ASSI
100
AcDbPolyline
 62
7
  6
CONTINUOUS
 90
9
 70
0
 10
5.7450703006
 20
14.832240558
 10
5.8054902516
 20
14.8594481912
 10
5.8650926721
 20
14.8798674113
 10
5.9238775622
 20
14.8934982183
 10
5.9825299686
 20
14.9003841119
 10
6.0403648446
 20
14.9004815924
 10
6.0953270495
 20
14.8936601606
 10
6.1470025866
 20
14.8796996695
 10
6.1922685462
 20
14.8606116443
  0
LWPOLYLINE
  5
37B
100
AcDbEntity
  8
RACCORDO
100
AcDbPolyline
 62
253
  6
CONTINUOUS
 90
7
 70
0
 10
9.7063160432
 20
18.7007050422
 10
9.742825295
 20
18.7158590246
 10
9.7788772154
 20
18.7261786873
 10
9.8140855221
 20
18.7315534724
 10
9.8480730046
 20
18.731925803
 10
9.8804754702
 20
18.7272916964
 10
9.910945662
 20
18.7177008531
  0
LWPOLYLINE
  5
37C
100
AcDbEntity
  8
ASSI
100
AcDbPolyline
 62
253
  6
CONTINUOUS
 90
7
 70
0
 10
9.7063160432
 20
18.7007050422
 10
9.742825295
 20
18.7158590246
 10
9.7788772154
 20
18.7261786873
 10
9.8140855221
 20
18.7315534724
 10
9.8480730046
 20
18.731925803
 10
9.8804754702
 20
18.7272916964
 10
9.910945662
 20
18.7177008531
  0
LINE
  5
37D
100
AcDbEntity
  8
RACCORDO
100
AcDbLine
 62
253
  6
CONTINUOUS
 10
-13.3062792212
 20
9.0396525068
 11
-13.3327344782
 21
9.0287626049
  0
LWPOLYLINE
  5
37E
100
AcDbEntity
  8
RACCORDO
100
AcDbPolyline
 62
253
  6
CONTINUOUS
 90
8
 70
0
 10
-23.3233741226
 20
29.7688529137
 10
-23.3130176973
 20
29.7390147414
 10
-23.3043226621
 20
29.7089744959
 10
-23.2973762259
 20
29.6788637445
 10
-23.2920911796
 20
29.64855092
 10
-23.2880942846
 20
29.6186232881
 10
-23.2852611278
 20
29.5892766039
 10
-23.2837161222
 20
29.5603151122
  0
LWPOLYLINE
  5
37F
100
AcDbEntity
  8
RACCORDO
100
AcDbPolyline
 62
7
  6
CONTINUOUS
 90
9
 70
0
 10
-10.1823784433
 20
22.6444424738
 10
-10.1895216715
 20
22.7242022495
 10
-10.2031429814
 20
22.800433055
 10
-10.2231860041
 20
22.872548872
 10
-10.2494131692
 20
22.9397133306
 10
-10.281525371
 20
23.0013878628
 10
-10.3193610966
 20
23.0573853774
 10
-10.3626846766
 20
23.1073611461
 10
-10.4110888395
 20
23.1508149793
  0
LWPOLYLINE
  5
380
100
AcDbEntity
  8
RACCORDO
100
AcDbPolyline
 62
253
  6
CONTINUOUS
 90
10
 70
0
 10
-10.7931505041
 20
22.9306140226
 10
-10.7953361817
 20
22.9617461113
 10
-10.8018268037
 20
22.9940429517
 10
-10.812425156
 20
23.0265232204
 10
-10.8268092128
 20
23.058200021
 10
-10.844541922
 20
23.0881108699
 10
-10.8650844841
 20
23.1153469411
 10
-10.8878127238
 20
23.1390806803
 10
-10.9120360551
 20
23.15859095
 10
-10.9370184642
 20
23.1732849404
  0
LWPOLYLINE
  5
381
100
AcDbEntity
  8
ASSI
100
AcDbPolyline
 62
253
  6
CONTINUOUS
 90
10
 70
0
 10
-10.7931505041
 20
22.9306140226
 10
-10.7953361817
 20
22.9617461113
 10
-10.8018268037
 20
22.9940429517
 10
-10.812425156
 20
23.0265232204
 10
-10.8268092128
 20
23.058200021
 10
-10.844541922
 20
23.0881108699
 10
-10.8650844841
 20
23.1153469411
 10
-10.8878127238
 20
23.1390806803
 10
-10.9120360551
 20
23.15859095
 10
-10.9370184642
 20
23.1732849404
  0
LINE
  5
382
100
AcDbEntity
  8
0
100
AcDbLine
 62
7
  6
CONTINUOUS
 10
-9.8645754658
 20
15.7719346756
 11
-9.8817741885
 21
16.3665307118
  0
LINE
  5
383
100
AcDbEntity
  8
RACCORDO
100
AcDbLine
 62
7
  6
CONTINUOUS
 10
-10.1812074374
 20
22.5949423172
 11
-10.1823784433
 21
22.6444424738
  0
LWPOLYLINE
  5
384
100
AcDbEntity
  8
ASSI
100
AcDbPolyline
 62
7
  6
CONTINUOUS
 90
3
 70
0
 10
-10.181207441
 20
22.5949404849
 10
-10.1821864819
 20
22.6402528236
 10
-10.1890233258
 20
22.7203933852
  0
LWPOLYLINE
  5
385
100
AcDbEntity
  8
RACCORDO
100
AcDbPolyline
 62
253
  6
CONTINUOUS
 90
6
 70
0
 10
-10.237339155
 20
22.5255734499
 10
-10.2375360437
 20
22.5526266684
 10
-10.2389361937
 20
22.5802389713
 10
-10.2415396051
 20
22.6084103585
 10
-10.2452152057
 20
22.6373402434
 10
-10.2500940676
 20
22.6668292127
  0
LWPOLYLINE
  5
386
100
AcDbEntity
  8
ASSI
100
AcDbPolyline
 62
253
  6
CONTINUOUS
 90
6
 70
0
 10
-10.237339155
 20
22.5255734499
 10
-10.2375360437
 20
22.5526266684
 10
-10.2389361937
 20
22.5802389713
 10
-10.2415396051
 20
22.6084103585
 10
-10.2452152057
 20
22.6373402434
 10
-10.2500940676
 20
22.6668292127
  0
LINE
  5
387
100
AcDbEntity
  8
DRAFT
100
AcDbLine
 62
7
  6
CONTINUOUS
 10
-10.3769643105
 20
14.2021849819
 11
-10.3769643105
 21
14.2870878576
  0
LINE
  5
388
100
AcDbEntity
  8
RACCORDO
100
AcDbLine
 62
253
  6
CONTINUOUS
 10
-10.237339155
 20
21.2646138813
 11
-10.237339155
 21
22.5255734499
  0
LINE
  5
389
100
AcDbEntity
  8
ASSI
100
AcDbLine
 62
253
  6
CONTINUOUS
 10
-10.237339155
 20
21.2646138813
 11
-10.237339155
 21
22.5255734499
  0
LINE
  5
38A
100
AcDbEntity
  8
RACCORDO
100
AcDbLine
 62
7
  6
CONTINUOUS
 10
-10.181207115
 20
21.3319946822
 11
-10.181207115
 21
22.5950392871
  0
LINE
  5
38B
100
AcDbEntity
  8
ASSI
100
AcDbLine
 62
7
  6
CONTINUOUS
 10
-10.181207115
 20
21.3319946822
 11
-10.181207115
 21
22.5950392871
  0
LWPOLYLINE
  5
38C
100
AcDbEntity
  8
0
100
AcDbPolyline
 62
7
  6
CONTINUOUS
 90
16
 70
0
 10
-9.8817741885
 20
16.3665307118
 10
-9.8809043432
 20
16.4141443747
 10
-9.8761812409
 20
16.4622957134
 10
-9.8676048814
 20
16.5109847278
 10
-9.8549902769
 20
16.5607767852
 10
-9.8385224153
 20
16.6111065183
 10
-9.8187562601
 20
16.6602778253
 10
-9.7955793969
 20
16.7082512238
 10
-9.7691042401
 20
16.7550661961
 10
-9.7402229973
 20
16.7991450871
 10
-9.7088536627
 20
16.8403946438
 10
-9.6750782421
 20
16.8789081192
 10
-9.6400349603
 20
16.9133876168
 10
-9.6041032257
 20
16.9434005045
 10
-9.5669036299
 20
16.9693794145
 10
-9.528436173
 20
16.9913243468
  0
LINE
  5
38D
100
AcDbEntity
  8
RACCORDO
100
AcDbLine
 62
253
  6
CONTINUOUS
 10
-7.4811787584
 20
16.862521835
 11
-7.4964341702
 21
16.7706161088
  0
LINE
  5
38E
100
AcDbEntity
  8
RACCORDO
100
AcDbLine
 62
253
  6
CONTINUOUS
 10
-5.4791767299
 20
17.3199404575
 11
-5.5403950974
 21
16.9511324163
  0
LINE
  5
38F
100
AcDbEntity
  8
RACCORDO
100
AcDbLine
 62
253
  6
CONTINUOUS
 10
-5.1996862682
 20
17.2807758913
 11
-5.2609046357
 21
16.9119678501
  0
LWPOLYLINE
  5
390
100
AcDbEntity
  8
RACCORDO
100
AcDbPolyline
 62
7
  6
CONTINUOUS
 90
12
 70
0
 10
-3.5065433057
 20
14.8093057108
 10
-3.5054894192
 20
14.8134566971
 10
-3.5035433947
 20
14.8178245299
 10
-3.5007571168
 20
14.822013895
 10
-3.4971412129
 20
14.8260270495
 10
-3.4927418051
 20
14.8298128044
 10
-3.4875488568
 20
14.8333682466
 10
-3.4815724046
 20
14.8366962892
 10
-3.4748886802
 20
14.8397544817
 10
-3.4675230942
 20
14.842528674
 10
-3.459450236
 20
14.8450330164
 10
-3.4506701057
 20
14.8472675087
  0
LWPOLYLINE
  5
391
100
AcDbEntity
  8
0
100
AcDbPolyline
 62
7
  6
CONTINUOUS
 90
7
 70
0
 10
-14.825148623
 20
-14.6245422905
 10
-14.7597083025
 20
-14.4561596537
 10
-14.6971753159
 20
-14.2802151869
 10
-14.6375828688
 20
-14.0967229906
 10
-14.5809617947
 20
-13.9056962016
 10
-14.5273405764
 20
-13.7071469807
 10
-14.4767453659
 20
-13.5010865011
  0
LINE
  5
392
100
AcDbEntity
  8
RACCORDO
100
AcDbLine
 62
253
  6
CONTINUOUS
 10
9.9838176264
 20
18.7394495916
 11
10.013588474
 21
18.7590962386
  0
LINE
  5
393
100
AcDbEntity
  8
ASSI
100
AcDbLine
 62
253
  6
CONTINUOUS
 10
9.9838176264
 20
18.7394495916
 11
10.013588474
 21
18.7590962386
  0
LWPOLYLINE
  5
394
100
AcDbEntity
  8
ASSI
100
AcDbPolyline
 62
7
  6
CONTINUOUS
 90
32
 70
0
 10
-18.7485498492
 20
-1.2522458158
 10
-18.8082137536
 20
-1.2844937077
 10
-18.9208284885
 20
-1.3608484881
 10
-19.0251166273
 20
-1.452877679
 10
-19.1190708495
 20
-1.5588099182
 10
-19.2024909653
 20
-1.6789145373
 10
-19.2755771644
 20
-1.8129222045
 10
-19.3369226962
 20
-1.9582535631
 10
-19.3863001189
 20
-2.1151279769
 10
-19.4239368742
 20
-2.2833260821
 10
-19.4491085362
 20
-2.4596104297
 10
-19.4615736295
 20
-2.6441376676
 10
-19.4615736295
 20
-2.836751148
 10
-19.4491085362
 20
-3.0337434793
 10
-19.4239368742
 20
-3.2351994889
 10
-19.3863001189
 20
-3.4410343493
 10
-19.3369226962
 20
-3.6472861858
 10
-19.2755771644
 20
-3.8539630761
 10
-19.2024909653
 20
-4.0610569426
 10
-19.1190708495
 20
-4.2645816774
 10
-19.0251166273
 20
-4.4644681388
 10
-18.9208284885
 20
-4.6607854686
 10
-18.8082137536
 20
-4.8497549838
 10
-18.6871111187
 20
-5.0312343418
 10
-18.5576818878
 20
-5.2053658852
 10
-18.4224172929
 20
-5.3687979595
 10
-18.2812042904
 20
-5.5213232934
 10
-18.1341559239
 20
-5.6631491581
 10
-17.9841025554
 20
-5.7915457135
 10
-17.831987639
 20
-5.9056030126
 10
-17.6768677207
 20
-6.0062310024
 10
-17.5187428005
 20
-6.0934296827
  0
LINE
  5
395
100
AcDbEntity
  8
RACCORDO
100
AcDbLine
 62
7
  6
CONTINUOUS
 10
-2.5280790393
 20
7.2271889374
 11
-3.8995990768
 21
6.5121085615
  0
LINE
  5
396
100
AcDbEntity
  8
DRAFT
100
AcDbLine
 62
7
  6
CONTINUOUS
 10
4.4015674163
 20
14.1604891159
 11
-1.92078668
 21
10.8869944552
  0
LINE
  5
397
100
AcDbEntity
  8
ASSI
100
AcDbLine
 62
7
  6
CONTINUOUS
 10
4.4015674163
 20
14.1604891159
 11
-1.92078668
 21
10.8869944552
  0
LINE
  5
398
100
AcDbEntity
  8
RACCORDO
100
AcDbLine
 62
253
  6
CONTINUOUS
 10
-0.901754985
 20
10.3774786077
 11
6.7406510655
 21
14.3344501755
  0
LINE
  5
399
100
AcDbEntity
  8
ASSI
100
AcDbLine
 62
253
  6
CONTINUOUS
 10
-0.901754985
 20
10.3774786077
 11
6.7406510655
 21
14.3344501755
  0
LINE
  5
39A
100
AcDbEntity
  8
RACCORDO
100
AcDbLine
 62
253
  6
CONTINUOUS
 10
-0.7603120863
 20
10.1335520776
 11
6.8845190256
 21
14.0917792577
  0
LINE
  5
39B
100
AcDbEntity
  8
ASSI
100
AcDbLine
 62
253
  6
CONTINUOUS
 10
-0.7603120863
 20
10.1335520776
 11
6.8845190256
 21
14.0917792577
  0
LINE
  5
39C
100
AcDbEntity
  8
DRAFT
100
AcDbLine
 62
7
  6
CONTINUOUS
 10
-0.7603120863
 20
9.6572381056
 11
0.6292162865
 21
10.3766874815
  0
LINE
  5
39D
100
AcDbEntity
  8
ASSI
100
AcDbLine
 62
7
  6
CONTINUOUS
 10
-0.7603120863
 20
9.6572381056
 11
0.6292162865
 21
10.3766874815
  0
LWPOLYLINE
  5
39E
100
AcDbEntity
  8
RACCORDO
100
AcDbPolyline
 62
253
  6
CONTINUOUS
 90
23
 70
0
 10
6.8845190256
 20
14.0917792577
 10
6.9072579204
 20
14.1032451288
 10
6.9308478481
 20
14.1135794447
 10
6.9552888088
 20
14.1227822053
 10
6.9806644163
 20
14.1310620972
 10
7.0068910568
 20
14.1382104339
 10
7.0337178885
 20
14.1436011558
 10
7.0613103998
 20
14.1472144081
 10
7.0895031024
 20
14.1490700456
 10
7.1175486893
 20
14.1486015732
 10
7.145411485
 20
14.145694784
 10
7.1731271651
 20
14.140463885
 10
7.2000554503
 20
14.1326850009
 10
7.2261618243
 20
14.1222437987
 10
7.2514808034
 20
14.1092546116
 10
7.275475657
 20
14.093836564
 10
7.2980900168
 20
14.0758755933
 10
7.3193802512
 20
14.0554857622
 10
7.3389787344
 20
14.0331283832
 10
7.3568067285
 20
14.0087085456
 10
7.3729429715
 20
13.9823211602
 10
7.3872560519
 20
13.9547122718
 10
7.3996630437
 20
13.9257894598
  0
LWPOLYLINE
  5
39F
100
AcDbEntity
  8
ASSI
100
AcDbPolyline
 62
253
  6
CONTINUOUS
 90
22
 70
0
 10
6.8845190256
 20
14.0917792577
 10
6.9072579204
 20
14.1032451288
 10
6.9308478481
 20
14.1135794447
 10
6.9552888088
 20
14.1227822053
 10
6.9806644163
 20
14.1310620972
 10
7.0068910568
 20
14.1382104339
 10
7.0337178885
 20
14.1436011558
 10
7.0613103998
 20
14.1472144081
 10
7.0895031024
 20
14.1490700456
 10
7.1175486893
 20
14.1486015732
 10
7.145411485
 20
14.145694784
 10
7.1731271651
 20
14.140463885
 10
7.2000554503
 20
14.1326850009
 10
7.2261618243
 20
14.1222437987
 10
7.2514808034
 20
14.1092546116
 10
7.275475657
 20
14.093836564
 10
7.2980900168
 20
14.0758755933
 10
7.3193802512
 20
14.0554857622
 10
7.3389787344
 20
14.0331283832
 10
7.3568067285
 20
14.0087085456
 10
7.3729429715
 20
13.9823211602
 10
7.3872560519
 20
13.9547122718
  0
LINE
  5
3A0
100
AcDbEntity
  8
RACCORDO
100
AcDbLine
 62
7
  6
CONTINUOUS
 10
5.7450703006
 20
14.832240558
 11
4.5429887726
 21
14.231199794
  0
LINE
  5
3A1
100
AcDbEntity
  8
ASSI
100
AcDbLine
 62
7
  6
CONTINUOUS
 10
5.7450703006
 20
14.832240558
 11
4.5429887726
 21
14.231199794
  0
LINE
  5
3A2
100
AcDbEntity
  8
RACCORDO
100
AcDbLine
 62
253
  6
CONTINUOUS
 10
21.3843641157
 20
19.5099685366
 11
14.8298065606
 21
16.2588596684
  0
LINE
  5
3A3
100
AcDbEntity
  8
ASSI
100
AcDbLine
 62
253
  6
CONTINUOUS
 10
21.3843641157
 20
19.5099685366
 11
14.8298065606
 21
16.2588596684
  0
LINE
  5
3A4
100
AcDbEntity
  8
RACCORDO
100
AcDbLine
 62
253
  6
CONTINUOUS
 10
2.1742025948
 20
9.4890188707
 11
9.8287339522
 21
13.2857228539
  0
LINE
  5
3A5
100
AcDbEntity
  8
ASSI
100
AcDbLine
 62
253
  6
CONTINUOUS
 10
2.1742025948
 20
9.4890188707
 11
9.8287339522
 21
13.2857228539
  0
LINE
  5
3A6
100
AcDbEntity
  8
RACCORDO
100
AcDbLine
 62
253
  6
CONTINUOUS
 10
21.7378636584
 20
18.9002720133
 11
15.6179883798
 21
15.8647687588
  0
LINE
  5
3A7
100
AcDbEntity
  8
ASSI
100
AcDbLine
 62
253
  6
CONTINUOUS
 10
21.7378636584
 20
18.9002720133
 11
15.6179883798
 21
15.8647687588
  0
LINE
  5
3A8
100
AcDbEntity
  8
RACCORDO
100
AcDbLine
 62
253
  6
CONTINUOUS
 10
2.3156024118
 20
9.2451402614
 11
9.9701337693
 21
13.0418442446
  0
LINE
  5
3A9
100
AcDbEntity
  8
ASSI
100
AcDbLine
 62
253
  6
CONTINUOUS
 10
2.3156024118
 20
9.2451402614
 11
9.9701337693
 21
13.0418442446
  0
LWPOLYLINE
  5
3AA
100
AcDbEntity
  8
RACCORDO
100
AcDbPolyline
 62
253
  6
CONTINUOUS
 90
15
 70
0
 10
6.7406510655
 20
14.3344501755
 10
6.7690463305
 20
14.3483332466
 10
6.7986637277
 20
14.3612765645
 10
6.8294385029
 20
14.3730507798
 10
6.8612806723
 20
14.3834133125
 10
6.8941047333
 20
14.392115658
 10
6.927827553
 20
14.3988989972
 10
6.9624840677
 20
14.4035060026
 10
6.99774567
 20
14.4056137092
 10
7.0329812917
 20
14.404960163
 10
7.0679916033
 20
14.4013791563
 10
7.1026464121
 20
14.3947060584
 10
7.1364616304
 20
14.3848855459
 10
7.1692799
 20
14.3718577441
 10
7.1816204187
 20
14.3659740839
  0
LWPOLYLINE
  5
3AB
100
AcDbEntity
  8
ASSI
100
AcDbPolyline
 62
253
  6
CONTINUOUS
 90
15
 70
0
 10
6.7406510655
 20
14.3344501755
 10
6.7690463305
 20
14.3483332466
 10
6.7986637277
 20
14.3612765645
 10
6.8294385029
 20
14.3730507798
 10
6.8612806723
 20
14.3834133125
 10
6.8941047333
 20
14.392115658
 10
6.927827553
 20
14.3988989972
 10
6.9624840677
 20
14.4035060026
 10
6.99774567
 20
14.4056137092
 10
7.0329812917
 20
14.404960163
 10
7.0679916033
 20
14.4013791563
 10
7.1026464121
 20
14.3947060584
 10
7.1364616304
 20
14.3848855459
 10
7.1692799
 20
14.3718577441
 10
7.1816204187
 20
14.3659740839
  0
LWPOLYLINE
  5
3AC
100
AcDbEntity
  8
RACCORDO
100
AcDbPolyline
 62
253
  6
CONTINUOUS
 90
22
 70
0
 10
9.9701337693
 20
13.0418442446
 10
9.9923298748
 20
13.0526130558
 10
10.0155112862
 20
13.0622914199
 10
10.0396780036
 20
13.070879337
 10
10.0650100923
 20
13.0786079343
 10
10.0913274869
 20
13.0852460845
 10
10.1180899918
 20
13.0901004059
 10
10.1453241417
 20
13.0931044073
 10
10.1730034019
 20
13.0943245799
 10
10.2005079721
 20
13.0932670154
 10
10.2278369841
 20
13.0898335655
 10
10.2549913062
 20
13.0841223787
 10
10.2813537437
 20
13.0759339916
 10
10.3068889991
 20
13.0651594116
 10
10.3316323698
 20
13.0519076315
 10
10.3550725539
 20
13.0363061657
 10
10.3771548039
 20
13.0182476682
 10
10.3979338671
 20
12.9978394851
 10
10.4170626835
 20
12.975531169
 10
10.4344664845
 20
12.9512338732
 10
10.4502200387
 20
12.9250364445
 10
10.4642005907
 20
12.897654976
  0
LWPOLYLINE
  5
3AD
100
AcDbEntity
  8
ASSI
100
AcDbPolyline
 62
253
  6
CONTINUOUS
 90
22
 70
0
 10
9.9701337693
 20
13.0418442446
 10
9.9923298748
 20
13.0526130558
 10
10.0155112862
 20
13.0622914199
 10
10.0396780036
 20
13.070879337
 10
10.0650100923
 20
13.0786079343
 10
10.0913274869
 20
13.0852460845
 10
10.1180899918
 20
13.0901004059
 10
10.1453241417
 20
13.0931044073
 10
10.1730034019
 20
13.0943245799
 10
10.2005079721
 20
13.0932670154
 10
10.2278369841
 20
13.0898335655
 10
10.2549913062
 20
13.0841223787
 10
10.2813537437
 20
13.0759339916
 10
10.3068889991
 20
13.0651594116
 10
10.3316323698
 20
13.0519076315
 10
10.3550725539
 20
13.0363061657
 10
10.3771548039
 20
13.0182476682
 10
10.3979338671
 20
12.9978394851
 10
10.4170626835
 20
12.975531169
 10
10.4344664845
 20
12.9512338732
 10
10.4502200387
 20
12.9250364445
 10
10.4642005907
 20
12.897654976
  0
LWPOLYLINE
  5
3AE
100
AcDbEntity
  8
RACCORDO
100
AcDbPolyline
 62
253
  6
CONTINUOUS
 90
15
 70
0
 10
9.8287339522
 20
13.2857228539
 10
9.8564413621
 20
13.2986852011
 10
9.8855467257
 20
13.3108183098
 10
9.9159835249
 20
13.3218660355
 10
9.947779137
 20
13.331589152
 10
9.9807178695
 20
13.3396559899
 10
10.0143510983
 20
13.3457168066
 10
10.0485541235
 20
13.3495340149
 10
10.0831754232
 20
13.3508647392
 10
10.1177322906
 20
13.3494891969
 10
10.152072042
 20
13.3452457046
 10
10.1860274641
 20
13.3379791043
 10
10.2191304879
 20
13.3276478073
 10
10.2512298794
 20
13.3141991782
 10
10.2575351016
 20
13.3111220491
  0
LWPOLYLINE
  5
3AF
100
AcDbEntity
  8
ASSI
100
AcDbPolyline
 62
253
  6
CONTINUOUS
 90
15
 70
0
 10
9.8287339522
 20
13.2857228539
 10
9.8564413621
 20
13.2986852011
 10
9.8855467257
 20
13.3108183098
 10
9.9159835249
 20
13.3218660355
 10
9.947779137
 20
13.331589152
 10
9.9807178695
 20
13.3396559899
 10
10.0143510983
 20
13.3457168066
 10
10.0485541235
 20
13.3495340149
 10
10.0831754232
 20
13.3508647392
 10
10.1177322906
 20
13.3494891969
 10
10.152072042
 20
13.3452457046
 10
10.1860274641
 20
13.3379791043
 10
10.2191304879
 20
13.3276478073
 10
10.2512298794
 20
13.3141991782
 10
10.2575351016
 20
13.3111220491
  0
LINE
  5
3B0
100
AcDbEntity
  8
RACCORDO
100
AcDbLine
 62
7
  6
CONTINUOUS
 10
1.0261611949
 20
10.0260608159
 11
8.9536747182
 21
13.6872492698
  0
LINE
  5
3B1
100
AcDbEntity
  8
ASSI
100
AcDbLine
 62
7
  6
CONTINUOUS
 10
1.0261611949
 20
10.0260608159
 11
8.9536747182
 21
13.6872492698
  0
LINE
  5
3B2
100
AcDbEntity
  8
RACCORDO
100
AcDbLine
 62
253
  6
CONTINUOUS
 10
1.1134993447
 20
10.0193704957
 11
9.0399986032
 21
13.6800905285
  0
LINE
  5
3B3
100
AcDbEntity
  8
ASSI
100
AcDbLine
 62
253
  6
CONTINUOUS
 10
1.1134993447
 20
10.0193704957
 11
9.0399986032
 21
13.6800905285
  0
LWPOLYLINE
  5
3B4
100
AcDbEntity
  8
RACCORDO
100
AcDbPolyline
 62
253
  6
CONTINUOUS
 90
12
 70
0
 10
9.0399986032
 20
13.6800905285
 10
9.0698898213
 20
13.6932384936
 10
9.101094547
 20
13.7053513609
 10
9.1335393295
 20
13.7161780741
 10
9.1672460282
 20
13.7254812284
 10
9.2019911841
 20
13.7329446358
 10
9.2373166405
 20
13.7382466622
 10
9.2731024149
 20
13.741162907
 10
9.3091836202
 20
13.7414646296
 10
9.3450443995
 20
13.7389674021
 10
9.3805236011
 20
13.7335341326
 10
9.4154673916
 20
13.7250334147
  0
LWPOLYLINE
  5
3B5
100
AcDbEntity
  8
ASSI
100
AcDbPolyline
 62
253
  6
CONTINUOUS
 90
12
 70
0
 10
9.0399986032
 20
13.6800905285
 10
9.0698898213
 20
13.6932384936
 10
9.101094547
 20
13.7053513609
 10
9.1335393295
 20
13.7161780741
 10
9.1672460282
 20
13.7254812284
 10
9.2019911841
 20
13.7329446358
 10
9.2373166405
 20
13.7382466622
 10
9.2731024149
 20
13.741162907
 10
9.3091836202
 20
13.7414646296
 10
9.3450443995
 20
13.7389674021
 10
9.3805236011
 20
13.7335341326
 10
9.4154673916
 20
13.7250334147
  0
LINE
  5
3B6
100
AcDbEntity
  8
ASSI
100
AcDbLine
 62
7
  6
CONTINUOUS
 10
9.0091555242
 20
13.7104335812
 11
8.9537566928
 21
13.6872868813
  0
LINE
  5
3B7
100
AcDbEntity
  8
RACCORDO
100
AcDbLine
 62
7
  6
CONTINUOUS
 10
9.0123586456
 20
13.7116239481
 11
8.9537590264
 21
13.6872879555
  0
LWPOLYLINE
  5
3B8
100
AcDbEntity
  8
RACCORDO
100
AcDbPolyline
 62
253
  6
CONTINUOUS
 90
5
 70
0
 10
8.9537589559
 20
13.6872881099
 10
8.9702140368
 20
13.6926666055
 10
8.9923409403
 20
13.6941563197
 10
9.0158403766
 20
13.6899214193
 10
9.0399986032
 20
13.6800905285
  0
LWPOLYLINE
  5
3B9
100
AcDbEntity
  8
ASSI
100
AcDbPolyline
 62
253
  6
CONTINUOUS
 90
5
 70
0
 10
8.9537566222
 20
13.6872870356
 10
8.9702140368
 20
13.6926666055
 10
8.9923409403
 20
13.6941563197
 10
9.0158403766
 20
13.6899214193
 10
9.0399986032
 20
13.6800905285
  0
LWPOLYLINE
  5
3BA
100
AcDbEntity
  8
ASSI
100
AcDbPolyline
 62
7
  6
CONTINUOUS
 90
10
 70
0
 10
-17.5187428005
 20
-1.3302899619
 10
-17.6768677207
 20
-1.259363722
 10
-17.831987639
 20
-1.2048717935
 10
-17.9841025554
 20
-1.1668141763
 10
-18.1341559239
 20
-1.1451573631
 10
-18.2812042904
 20
-1.1399348613
 10
-18.4224172929
 20
-1.1512471927
 10
-18.5576818878
 20
-1.1794146721
 10
-18.6871111187
 20
-1.2241169846
 10
-18.7485498492
 20
-1.2522458158
  0
LWPOLYLINE
  5
3BB
100
AcDbEntity
  8
ASSI
100
AcDbPolyline
 62
7
  6
CONTINUOUS
 90
32
 70
0
 10
-17.5187428005
 20
-1.3302899619
 10
-17.3606178802
 20
-1.4174886423
 10
-17.2054979619
 20
-1.518116632
 10
-17.0533830455
 20
-1.6321739312
 10
-16.9033296771
 20
-1.7605704865
 10
-16.7562813105
 20
-1.9023963513
 10
-16.6150683081
 20
-2.0549216851
 10
-16.4798037131
 20
-2.2183537595
 10
-16.3503744822
 20
-2.3924853029
 10
-16.2292718474
 20
-2.5739646609
 10
-16.1166571125
 20
-2.7629341761
 10
-16.0123689736
 20
-2.9592515058
 10
-15.9184147514
 20
-3.1591379673
 10
-15.8349946356
 20
-3.3626627021
 10
-15.7619084365
 20
-3.5697565685
 10
-15.7005629047
 20
-3.7764334589
 10
-15.651185482
 20
-3.9826852954
 10
-15.6135487267
 20
-4.1885201558
 10
-15.5883770648
 20
-4.3899761654
 10
-15.5759119714
 20
-4.5869684966
 10
-15.5759119714
 20
-4.7795819771
 10
-15.5883770648
 20
-4.964109215
 10
-15.6135487267
 20
-5.1403935626
 10
-15.651185482
 20
-5.3085916677
 10
-15.7005629047
 20
-5.4654660815
 10
-15.7619084365
 20
-5.6107974401
 10
-15.8349946356
 20
-5.7448051074
 10
-15.9184147514
 20
-5.8649097264
 10
-16.0123689736
 20
-5.9708419656
 10
-16.1166571125
 20
-6.0628711566
 10
-16.2292718474
 20
-6.1392259369
 10
-16.2889357517
 20
-6.1714738289
  0
LINE
  5
3BC
100
AcDbEntity
  8
RACCORDO
100
AcDbLine
 62
253
  6
CONTINUOUS
 10
-23.33550355
 20
29.7975070464
 11
-23.3233741226
 21
29.7688529137
  0
LWPOLYLINE
  5
3BD
100
AcDbEntity
  8
ASSI
100
AcDbPolyline
 62
253
  6
CONTINUOUS
 90
9
 70
0
 10
-23.33550355
 20
29.7975070464
 10
-23.3233741226
 20
29.7688529137
 10
-23.3130176973
 20
29.7390147414
 10
-23.3043226621
 20
29.7089744959
 10
-23.2973762259
 20
29.6788637445
 10
-23.2920911796
 20
29.64855092
 10
-23.2880942846
 20
29.6186232881
 10
-23.2852611278
 20
29.5892766039
 10
-23.2837161222
 20
29.5603151122
  0
LWPOLYLINE
  5
3BE
100
AcDbEntity
  8
RACCORDO
100
AcDbPolyline
 62
253
  6
CONTINUOUS
 90
13
 70
0
 10
-3.2626988716
 20
-32.5548714723
 10
-3.3973728308
 20
-29.8091907582
 10
-3.5090029817
 20
-26.9451518707
 10
-3.5975893242
 20
-23.9627548097
 10
-3.6648933232
 20
-20.8273641273
 10
-3.7091535139
 20
-17.5736152714
 10
-3.7250855021
 20
-14.3054145864
 10
-3.7091692138
 20
-11.0203430503
 10
-3.664924723
 20
-7.7208196851
 10
-3.5976278584
 20
-4.5180079018
 10
-3.5090372293
 20
-1.4489621708
 10
-3.3973942264
 20
1.5233719782
 10
-3.2626988495
 20
4.3989945454
  0
LWPOLYLINE
  5
3BF
100
AcDbEntity
  8
RACCORDO
100
AcDbPolyline
 62
253
  6
CONTINUOUS
 90
13
 70
0
 10
-3.5297867615
 20
-32.6068271358
 10
-3.6640838917
 20
-29.8570298325
 10
-3.7771928063
 20
-26.9912608745
 10
-3.8680284102
 20
-24.0083336396
 10
-3.9368322654
 20
-20.8719505255
 10
-3.9811896296
 20
-17.615556108
 10
-3.9967739233
 20
-14.3441394016
 10
-3.9812166691
 20
-11.0574918277
 10
-3.936873137
 20
-7.7563025518
 10
-3.8680672746
 20
-4.5500365595
 10
-3.7772220558
 20
-1.4769102148
 10
-3.6640990397
 20
1.4978569523
 10
-3.5297867383
 20
4.3729011277
  0
LINE
  5
3C0
100
AcDbEntity
  8
0
100
AcDbLine
 62
7
  6
CONTINUOUS
 10
-6.6813603148
 20
14.1382604655
 11
-6.6825949504
 21
14.1809444179
  0
LINE
  5
3C1
100
AcDbEntity
  8
0
100
AcDbLine
 62
7
  6
CONTINUOUS
 10
-4.5612746069
 20
13.1202842461
 11
-4.5600399712
 21
13.0776002938
  0
LINE
  5
3C2
100
AcDbEntity
  8
0
100
AcDbLine
 62
7
  6
CONTINUOUS
 10
-6.7000090483
 20
13.2351630667
 11
-6.7000090483
 21
13.1927720115
  0
LINE
  5
3C3
100
AcDbEntity
  8
0
100
AcDbLine
 62
7
  6
CONTINUOUS
 10
-4.5786887047
 20
12.1745028949
 11
-4.5786887047
 21
12.1321118397
  0
LINE
  5
3C4
100
AcDbEntity
  8
DRAFT
100
AcDbLine
 62
7
  6
CONTINUOUS
 10
-4.3665566704
 20
18.5445511592
 11
-4.3665566704
 21
18.3468229123
  0
LINE
  5
3C5
100
AcDbEntity
  8
ASSI
100
AcDbLine
 62
7
  6
CONTINUOUS
 10
-4.3665566704
 20
18.5445511592
 11
-4.3665566704
 21
18.3468229123
  0
LINE
  5
3C6
100
AcDbEntity
  8
0
100
AcDbLine
 62
7
  6
CONTINUOUS
 10
-4.2958459923
 20
12.3159242512
 11
-4.2958459923
 21
11.9906904835
  0
LINE
  5
3C7
100
AcDbEntity
  8
RACCORDO
100
AcDbLine
 62
253
  6
CONTINUOUS
 10
-3.7301605673
 20
11.707847771
 11
-3.7301605673
 21
11.7610611828
  0
LWPOLYLINE
  5
3C8
100
AcDbEntity
  8
RACCORDO
100
AcDbPolyline
 62
253
  6
CONTINUOUS
 90
16
 70
0
 10
-3.5297792959
 20
4.3729250939
 10
-3.5239051005
 20
4.457713992
 10
-3.5120003607
 20
4.5460577042
 10
-3.4940644297
 20
4.6372373638
 10
-3.4701161875
 20
4.730353807
 10
-3.440218446
 20
4.8246893674
 10
-3.4044582894
 20
4.9197182138
 10
-3.3627667029
 20
5.0145862471
 10
-3.3154197536
 20
5.1082037009
 10
-3.2630413416
 20
5.1996082644
 10
-3.2055117862
 20
5.2878354696
 10
-3.1433141135
 20
5.3716241266
 10
-3.0780056128
 20
5.4495956635
 10
-3.0102616415
 20
5.5206451491
 10
-2.939875275
 20
5.5838753535
 10
-2.8670929477
 20
5.6383550742
  0
LWPOLYLINE
  5
3C9
100
AcDbEntity
  8
RACCORDO
100
AcDbPolyline
 62
253
  6
CONTINUOUS
 90
16
 70
0
 10
-3.2626988495
 20
4.3989945454
 10
-3.257246757
 20
4.4587127964
 10
-3.24632678
 20
4.5198739544
 10
-3.2299389183
 20
4.5824780195
 10
-3.2080188308
 20
4.6471080905
 10
-3.1806308588
 20
4.7131810685
 10
-3.147968026
 20
4.7789476568
 10
-3.1098370536
 20
4.8445279936
 10
-3.0664312204
 20
4.9098019408
 10
-3.0185233867
 20
4.9726597865
 10
-2.9657447605
 20
5.0332246695
 10
-2.9084641338
 20
5.0913734511
 10
-2.848560743
 20
5.1446270037
 10
-2.7866610002
 20
5.1921589516
 10
-2.7221384932
 20
5.2347956704
 10
-2.654993222
 20
5.2725371603
  0
LINE
  5
3CA
100
AcDbEntity
  8
RACCORDO
100
AcDbLine
 62
253
  6
CONTINUOUS
 10
-3.4506701057
 20
14.8472675087
 11
-3.4659255174
 21
14.7553617824
  0
LINE
  5
3CB
100
AcDbEntity
  8
RACCORDO
100
AcDbLine
 62
253
  6
CONTINUOUS
 10
-3.1490766028
 20
16.2554710586
 11
-3.1668514396
 21
16.1483871389
  0
LINE
  5
3CC
100
AcDbEntity
  8
RACCORDO
100
AcDbLine
 62
253
  6
CONTINUOUS
 10
-1.4486680771
 20
15.3046861312
 11
-1.5098864446
 21
14.9358780899
  0
LINE
  5
3CD
100
AcDbEntity
  8
RACCORDO
100
AcDbLine
 62
253
  6
CONTINUOUS
 10
-1.1691776155
 20
15.2655215649
 11
-1.230395983
 21
14.8967135237
  0
LWPOLYLINE
  5
3CE
100
AcDbEntity
  8
RACCORDO
100
AcDbPolyline
 62
7
  6
CONTINUOUS
 90
12
 70
0
 10
-3.089851152
 20
16.1911760665
 10
-3.0909050384
 20
16.1870250801
 10
-3.0928510629
 20
16.1826572473
 10
-3.0956373408
 20
16.1784678823
 10
-3.0992532447
 20
16.1744547277
 10
-3.1036526526
 20
16.1706689728
 10
-3.1088456009
 20
16.1671135306
 10
-3.1148220531
 20
16.1637854881
 10
-3.1215057774
 20
16.1607272956
 10
-3.1288713634
 20
16.1579531032
 10
-3.1369442216
 20
16.1554487609
 10
-3.145724352
 20
16.1532142686
  0
LWPOLYLINE
  5
3CF
100
AcDbEntity
  8
RACCORDO
100
AcDbPolyline
 62
253
  6
CONTINUOUS
 90
3
 70
0
 10
9.9436256711
 20
18.7019501132
 10
9.9585888898
 20
18.7183257876
 10
9.9838176264
 20
18.7394495916
  0
LWPOLYLINE
  5
3D0
100
AcDbEntity
  8
ASSI
100
AcDbPolyline
 62
253
  6
CONTINUOUS
 90
3
 70
0
 10
9.9436256711
 20
18.7019501132
 10
9.9585888898
 20
18.7183257876
 10
9.9838176264
 20
18.7394495916
  0
LWPOLYLINE
  5
3D1
100
AcDbEntity
  8
RACCORDO
100
AcDbPolyline
 62
253
  6
CONTINUOUS
 90
9
 70
0
 10
17.9538592595
 20
14.1439866821
 10
17.9873423778
 20
14.1631919725
 10
18.0168651041
 20
14.1840986494
 10
18.0420605503
 20
14.206507903
 10
18.0626277252
 20
14.2302363197
 10
18.0782399758
 20
14.2550114297
 10
18.0886261689
 20
14.2804617553
 10
18.0936709774
 20
14.3062702242
 10
18.0941893594
 20
14.3176512747
  0
LWPOLYLINE
  5
3D2
100
AcDbEntity
  8
ASSI
100
AcDbPolyline
 62
253
  6
CONTINUOUS
 90
9
 70
0
 10
17.9538592595
 20
14.1439866821
 10
17.9873423778
 20
14.1631919725
 10
18.0168651041
 20
14.1840986494
 10
18.0420605503
 20
14.206507903
 10
18.0626277252
 20
14.2302363197
 10
18.0782399758
 20
14.2550114297
 10
18.0886261689
 20
14.2804617553
 10
18.0936709774
 20
14.3062702242
 10
18.0941893594
 20
14.3176512747
  0
LINE
  5
3D3
100
AcDbEntity
  8
RACCORDO
100
AcDbLine
 62
253
  6
CONTINUOUS
 10
-2.8670929478
 20
5.6383550742
 11
1.0428425144
 21
7.608398093
  0
LINE
  5
3D4
100
AcDbEntity
  8
RACCORDO
100
AcDbLine
 62
253
  6
CONTINUOUS
 10
-2.654993222
 20
5.2725371603
 11
1.2549422401
 21
7.242580179
  0
LINE
  5
3D5
100
AcDbEntity
  8
RACCORDO
100
AcDbLine
 62
253
  6
CONTINUOUS
 10
0.9013888495
 20
7.6791249255
 11
1.9620490212
 21
8.2094550114
  0
LINE
  5
3D6
100
AcDbEntity
  8
RACCORDO
100
AcDbLine
 62
253
  6
CONTINUOUS
 10
1.2549422401
 20
7.0693355283
 11
2.3156024118
 21
7.5996656142
  0
LINE
  5
3D7
100
AcDbEntity
  8
RACCORDO
100
AcDbLine
 62
253
  6
CONTINUOUS
 10
10.5723769128
 20
11.2677519236
 11
17.6003597168
 21
14.7536832054
  0
LINE
  5
3D8
100
AcDbEntity
  8
ASSI
100
AcDbLine
 62
253
  6
CONTINUOUS
 10
10.5723769128
 20
11.2677519236
 11
17.6003597168
 21
14.7536832054
  0
LINE
  5
3D9
100
AcDbEntity
  8
RACCORDO
100
AcDbLine
 62
253
  6
CONTINUOUS
 10
17.9538592595
 20
14.1439866821
 11
10.5162448729
 21
10.4548751154
  0
LINE
  5
3DA
100
AcDbEntity
  8
ASSI
100
AcDbLine
 62
253
  6
CONTINUOUS
 10
17.9538592595
 20
14.1439866821
 11
10.5162448729
 21
10.4548751154
  0
LWPOLYLINE
  5
3DB
100
AcDbEntity
  8
RACCORDO
100
AcDbPolyline
 62
253
  6
CONTINUOUS
 90
8
 70
0
 10
17.6003597168
 20
14.7536832054
 10
17.6363065665
 20
14.7686391879
 10
17.6719746065
 20
14.7789467663
 10
17.7069815831
 20
14.7844336331
 10
17.7409935874
 20
14.7849731495
 10
17.7735748226
 20
14.7804810902
 10
17.8042182448
 20
14.7709928638
 10
17.8176186045
 20
14.764953529
  0
LWPOLYLINE
  5
3DC
100
AcDbEntity
  8
ASSI
100
AcDbPolyline
 62
253
  6
CONTINUOUS
 90
8
 70
0
 10
17.6003597168
 20
14.7536832054
 10
17.6363065665
 20
14.7686391879
 10
17.6719746065
 20
14.7789467663
 10
17.7069815831
 20
14.7844336331
 10
17.7409935874
 20
14.7849731495
 10
17.7735748226
 20
14.7804810902
 10
17.8042182448
 20
14.7709928638
 10
17.8176186071
 20
14.7649535278
  0
LWPOLYLINE
  5
3DD
100
AcDbEntity
  8
0
100
AcDbPolyline
 62
7
  6
CONTINUOUS
 90
25
 70
0
 10
-22.9049253313
 20
4.4203664562
 10
-23.3431599904
 20
4.6257753752
 10
-23.7789089367
 20
4.8032237545
 10
-24.2121653497
 20
4.9527147618
 10
-24.6439806974
 20
5.0744854358
 10
-25.0732761938
 20
5.1683114388
 10
-25.4968435604
 20
5.2335067085
 10
-25.9145978191
 20
5.2698600471
 10
-26.3265717384
 20
5.2776070293
 10
-26.7297298773
 20
5.2567335543
 10
-27.1239834041
 20
5.2070841988
 10
-27.509348711
 20
5.1288484473
 10
-27.8829476971
 20
5.0225298749
 10
-28.2446322699
 20
4.8878869227
 10
-28.5944636851
 20
4.7252023839
 10
-28.9298817927
 20
4.5357646395
 10
-29.2507579525
 20
4.3194282796
 10
-29.557127815
 20
4.0763834439
 10
-29.8466866765
 20
3.8084177313
 10
-30.1192825825
 20
3.5153389686
 10
-30.3749760872
 20
3.1973840153
 10
-30.611795509
 20
2.8569773932
 10
-30.8290610568
 20
2.4949386249
 10
-31.0273741009
 20
2.1104873875
 10
-31.2066926087
 20
1.7036448305
  0
LWPOLYLINE
  5
3DE
100
AcDbEntity
  8
RACCORDO
100
AcDbPolyline
 62
7
  6
CONTINUOUS
 90
9
 70
0
 10
-35.6191008382
 20
22.2334145697
 10
-35.5774296464
 20
22.2008625398
 10
-35.5300510903
 20
22.1765760969
 10
-35.4765365933
 20
22.1608751561
 10
-35.417314732
 20
22.1534398023
 10
-35.3545173939
 20
22.1555164197
 10
-35.2888552083
 20
22.1675204697
 10
-35.219617546
 20
22.1890364909
 10
-35.1468044069
 20
22.2200644834
  0
LWPOLYLINE
  5
3DF
100
AcDbEntity
  8
RACCORDO
100
AcDbPolyline
 62
7
  6
CONTINUOUS
 90
7
 70
0
 10
10.5162448729
 20
-24.6954427119
 10
10.5334587185
 20
-24.7218153307
 10
10.547656647
 20
-24.745945213
 10
10.5586942286
 20
-24.7680584052
 10
10.5664732955
 20
-24.7885388001
 10
10.5710176401
 20
-24.8074520018
 10
10.5723769125
 20
-24.8232587901
  0
LWPOLYLINE
  5
3E0
100
AcDbEntity
  8
ASSI
100
AcDbPolyline
 62
7
  6
CONTINUOUS
 90
7
 70
0
 10
10.5162448729
 20
-24.6954427119
 10
10.5334587185
 20
-24.7218153307
 10
10.547656647
 20
-24.745945213
 10
10.5586942286
 20
-24.7680584052
 10
10.5664732955
 20
-24.7885388001
 10
10.5710176401
 20
-24.8074520018
 10
10.5723769125
 20
-24.8232587901
  0
LWPOLYLINE
  5
3E1
100
AcDbEntity
  8
RACCORDO
100
AcDbPolyline
 62
253
  6
CONTINUOUS
 90
5
 70
0
 10
-10.2500940676
 20
22.6668292127
 10
-10.2565694076
 20
22.6962790263
 10
-10.2647137691
 20
22.7258076082
 10
-10.2744546087
 20
22.7552970344
 10
-10.2859675122
 20
22.7837952934
  0
LWPOLYLINE
  5
3E2
100
AcDbEntity
  8
ASSI
100
AcDbPolyline
 62
253
  6
CONTINUOUS
 90
5
 70
0
 10
-10.2500940676
 20
22.6668292127
 10
-10.2565694076
 20
22.6962790263
 10
-10.2647137691
 20
22.7258076082
 10
-10.2744546087
 20
22.7552970344
 10
-10.2859675122
 20
22.7837952934
  0
LWPOLYLINE
  5
3E3
100
AcDbEntity
  8
ASSI
100
AcDbPolyline
 62
7
  6
CONTINUOUS
 90
9
 70
0
 10
-10.1890233258
 20
22.7203933852
 10
-10.2023802302
 20
22.7970369581
 10
-10.2222072822
 20
22.8695824486
 10
-10.2482671644
 20
22.937169945
 10
-10.280262438
 20
22.999253242
 10
-10.3180337321
 20
23.0556449949
 10
-10.3613433461
 20
23.1059897442
 10
-10.4097828628
 20
23.1497818948
 10
-10.4628401812
 20
23.1865643362
  0
LWPOLYLINE
  5
3E4
100
AcDbEntity
  8
RACCORDO
100
AcDbPolyline
 62
7
  6
CONTINUOUS
 90
11
 70
0
 10
-2.3160532572
 20
18.7187900634
 10
-2.3195685699
 20
18.790997189
 10
-2.3282594428
 20
18.8594691228
 10
-2.342125876
 20
18.9242058647
 10
-2.3614200787
 20
18.9858953168
 10
-2.3858898416
 20
19.0438495769
 10
-2.4147785369
 20
19.0960049396
 10
-2.4480783257
 20
19.1418701935
 10
-2.485797047
 20
19.1819365499
 10
-2.5272015899
 20
19.2156139364
 10
-2.5758555405
 20
19.2446736876
  0
LWPOLYLINE
  5
3E5
100
AcDbEntity
  8
ASSI
100
AcDbPolyline
 62
7
  6
CONTINUOUS
 90
11
 70
0
 10
-2.3160532572
 20
18.7187900634
 10
-2.3195685699
 20
18.790997189
 10
-2.3282594428
 20
18.8594691228
 10
-2.342125876
 20
18.9242058647
 10
-2.3614200787
 20
18.9858953168
 10
-2.3858898416
 20
19.0438495769
 10
-2.4147785369
 20
19.0960049396
 10
-2.4480783257
 20
19.1418701935
 10
-2.485797047
 20
19.1819365499
 10
-2.5272015899
 20
19.2156139364
 10
-2.5758555405
 20
19.2446736876
  0
LINE
  5
3E6
100
AcDbEntity
  8
0
100
AcDbLine
 62
7
  6
CONTINUOUS
 10
-1.3792940915
 20
11.5292939884
 11
-1.3964928142
 21
12.1238900247
  0
LINE
  5
3E7
100
AcDbEntity
  8
0
100
AcDbLine
 62
7
  6
CONTINUOUS
 10
-1.0966236792
 20
11.6827187349
 11
-1.1138224019
 21
12.2773147711
  0
LINE
  5
3E8
100
AcDbEntity
  8
ASSI
100
AcDbLine
 62
7
  6
CONTINUOUS
 10
-2.7926127369
 20
17.7575791925
 11
-2.7926127369
 21
17.6543504977
  0
LINE
  5
3E9
100
AcDbEntity
  8
0
100
AcDbLine
 62
7
  6
CONTINUOUS
 10
-2.7926127369
 20
17.7575791925
 11
-2.7926127369
 21
17.6543504977
  0
LINE
  5
3EA
100
AcDbEntity
  8
DRAFT
100
AcDbLine
 62
7
  6
CONTINUOUS
 10
-1.92078668
 20
10.2374754024
 11
-1.92078668
 21
10.8869944552
  0
LINE
  5
3EB
100
AcDbEntity
  8
ASSI
100
AcDbLine
 62
7
  6
CONTINUOUS
 10
-1.92078668
 20
10.2374754024
 11
-1.92078668
 21
10.8869944552
  0
LINE
  5
3EC
100
AcDbEntity
  8
RACCORDO
100
AcDbLine
 62
253
  6
CONTINUOUS
 10
-1.4548485802
 20
17.8998462625
 11
-1.4548485802
 21
17.8530861848
  0
LINE
  5
3ED
100
AcDbEntity
  8
ASSI
100
AcDbLine
 62
253
  6
CONTINUOUS
 10
-1.4548485802
 20
17.8998462625
 11
-1.4548485802
 21
17.8530861848
  0
LINE
  5
3EE
100
AcDbEntity
  8
RACCORDO
100
AcDbLine
 62
7
  6
CONTINUOUS
 10
-1.1682403798
 20
18.0301578618
 11
-1.1682403798
 21
17.9185785818
  0
LINE
  5
3EF
100
AcDbEntity
  8
ASSI
100
AcDbLine
 62
7
  6
CONTINUOUS
 10
-1.1682403798
 20
18.0301578618
 11
-1.1682403798
 21
17.9185785818
  0
LINE
  5
3F0
100
AcDbEntity
  8
0
100
AcDbLine
 62
253
  6
CONTINUOUS
 10
-1.0431547988
 20
12.4022734981
 11
-1.0431547988
 21
12.7486836596
  0
LINE
  5
3F1
100
AcDbEntity
  8
RACCORDO
100
AcDbLine
 62
7
  6
CONTINUOUS
 10
-0.7603120863
 20
9.6572381056
 11
-0.7603120863
 21
10.1335520776
  0
LINE
  5
3F2
100
AcDbEntity
  8
ASSI
100
AcDbLine
 62
7
  6
CONTINUOUS
 10
-0.7603120863
 20
9.6572381056
 11
-0.7603120863
 21
10.1335520776
  0
LINE
  5
3F3
100
AcDbEntity
  8
0
100
AcDbLine
 62
253
  6
CONTINUOUS
 10
-0.4332687042
 20
12.7072165454
 11
-0.4332687042
 21
13.053626707
  0
LWPOLYLINE
  5
3F4
100
AcDbEntity
  8
0
100
AcDbPolyline
 62
7
  6
CONTINUOUS
 90
16
 70
0
 10
-1.3964928142
 20
12.1238900247
 10
-1.395622969
 20
12.1715036876
 10
-1.3908998666
 20
12.2196550263
 10
-1.3823235071
 20
12.2683440407
 10
-1.3697089026
 20
12.3181360981
 10
-1.353241041
 20
12.3684658312
 10
-1.3334748859
 20
12.4176371382
 10
-1.3102980226
 20
12.4656105367
 10
-1.2838228659
 20
12.512425509
 10
-1.2549416231
 20
12.5565044
 10
-1.2235722885
 20
12.5977539567
 10
-1.1897968678
 20
12.6362674321
 10
-1.1547535861
 20
12.6707469297
 10
-1.1188218514
 20
12.7007598174
 10
-1.0816222557
 20
12.7267387274
 10
-1.0431547988
 20
12.7486836596
  0
LWPOLYLINE
  5
3F5
100
AcDbEntity
  8
0
100
AcDbPolyline
 62
7
  6
CONTINUOUS
 90
13
 70
0
 10
-1.1138224019
 20
12.2773147711
 10
-1.1134374139
 20
12.2894081801
 10
-1.1118862478
 20
12.3015364164
 10
-1.1091689038
 20
12.31369948
 10
-1.1051961759
 20
12.3261134691
 10
-1.10005727
 20
12.3385622855
 10
-1.0940198039
 20
12.3503976348
 10
-1.0870361567
 20
12.3615870051
 10
-1.0791539494
 20
12.3721629082
 10
-1.0707836619
 20
12.381574585
 10
-1.062062121
 20
12.389638449
 10
-1.0528524999
 20
12.3965380867
 10
-1.0431547988
 20
12.4022734981
  0
LINE
  5
3F6
100
AcDbEntity
  8
0
100
AcDbLine
 62
253
  6
CONTINUOUS
 10
-0.4179641123
 20
12.7128160154
 11
-0.3567457448
 21
13.0816240566
  0
LINE
  5
3F7
100
AcDbEntity
  8
RACCORDO
100
AcDbLine
 62
253
  6
CONTINUOUS
 10
0.88143205
 20
14.2402167322
 11
0.8636572132
 21
14.1331328126
  0
LINE
  5
3F8
100
AcDbEntity
  8
RACCORDO
100
AcDbLine
 62
253
  6
CONTINUOUS
 10
2.8072249078
 20
14.9635355021
 11
2.7919694961
 21
14.8716297758
  0
LWPOLYLINE
  5
3F9
100
AcDbEntity
  8
RACCORDO
100
AcDbPolyline
 62
7
  6
CONTINUOUS
 90
12
 70
0
 10
0.9406575008
 20
14.1759217401
 10
0.9396036144
 20
14.1717707537
 10
0.9376575899
 20
14.1674029209
 10
0.934871312
 20
14.1632135559
 10
0.931255408
 20
14.1592004013
 10
0.9268560002
 20
14.1554146465
 10
0.9216630519
 20
14.1518592042
 10
0.9156865997
 20
14.1485311617
 10
0.9090028753
 20
14.1454729692
 10
0.9016372893
 20
14.1426987768
 10
0.8935644311
 20
14.1401944345
 10
0.8847843008
 20
14.1379599422
  0
LWPOLYLINE
  5
3FA
100
AcDbEntity
  8
RACCORDO
100
AcDbPolyline
 62
7
  6
CONTINUOUS
 90
12
 70
0
 10
2.7513517078
 20
14.9255737042
 10
2.7524055943
 20
14.9297246905
 10
2.7543516188
 20
14.9340925233
 10
2.7571378967
 20
14.9382818884
 10
2.7607538006
 20
14.9422950429
 10
2.7651532084
 20
14.9460807978
 10
2.7703461567
 20
14.94963624
 10
2.7763226089
 20
14.9529642826
 10
2.7830063333
 20
14.9560224751
 10
2.7903719193
 20
14.9587966674
 10
2.7984447775
 20
14.9613010098
 10
2.8072249078
 20
14.9635355021
  0
LINE
  5
3FB
100
AcDbEntity
  8
0
100
AcDbLine
 62
253
  6
CONTINUOUS
 10
4.224790721
 20
15.2776397159
 11
4.1678028517
 21
15.0766064386
  0
LINE
  5
3FC
100
AcDbEntity
  8
RACCORDO
100
AcDbLine
 62
7
  6
CONTINUOUS
 10
26.2756348567
 20
15.2806478117
 11
24.1792169905
 21
14.1951956863
  0
LINE
  5
3FD
100
AcDbEntity
  8
ASSI
100
AcDbLine
 62
7
  6
CONTINUOUS
 10
26.2756348567
 20
15.2806478117
 11
24.1792169905
 21
14.1951956863
  0
LINE
  5
3FE
100
AcDbEntity
  8
0
100
AcDbLine
 62
7
  6
CONTINUOUS
 10
22.9926082392
 20
12.9421076088
 11
22.8145803296
 21
12.853093654
  0
LINE
  5
3FF
100
AcDbEntity
  8
0
100
AcDbLine
 62
7
  6
CONTINUOUS
 10
22.6404354182
 20
12.5495148473
 11
23.5426815086
 21
13.0006378925
  0
LINE
  5
400
100
AcDbEntity
  8
RACCORDO
100
AcDbLine
 62
253
  6
CONTINUOUS
 10
25.922135314
 20
16.4681795073
 11
18.0941893594
 21
12.5854606054
  0
LINE
  5
401
100
AcDbEntity
  8
ASSI
100
AcDbLine
 62
253
  6
CONTINUOUS
 10
25.922135314
 20
16.4681795073
 11
18.0941893594
 21
12.5854606054
  0
LINE
  5
402
100
AcDbEntity
  8
RACCORDO
100
AcDbLine
 62
253
  6
CONTINUOUS
 10
26.2756348567
 20
15.858482984
 11
18.0941893594
 21
11.8004257029
  0
LINE
  5
403
100
AcDbEntity
  8
ASSI
100
AcDbLine
 62
253
  6
CONTINUOUS
 10
26.2756348567
 20
15.858482984
 11
18.0941893594
 21
11.8004257029
  0
LINE
  5
404
100
AcDbEntity
  8
DRAFT
100
AcDbLine
 62
7
  6
CONTINUOUS
 10
23.7422508556
 20
11.9248012401
 11
23.8655177911
 21
11.9843199881
  0
LINE
  5
405
100
AcDbEntity
  8
ASSI
100
AcDbLine
 62
7
  6
CONTINUOUS
 10
23.7422508556
 20
11.9248012401
 11
23.8655177911
 21
11.9843199881
  0
LWPOLYLINE
  5
406
100
AcDbEntity
  8
ASSI
100
AcDbPolyline
 62
7
  6
CONTINUOUS
 90
10
 70
0
 10
-16.2889357517
 20
-6.1714738289
 10
-16.3503744822
 20
-6.1996026601
 10
-16.4798037131
 20
-6.2443049726
 10
-16.6150683081
 20
-6.2724724519
 10
-16.7562813105
 20
-6.2837847833
 10
-16.9033296771
 20
-6.2785622815
 10
-17.0533830455
 20
-6.2569054684
 10
-17.2054979619
 20
-6.2188478512
 10
-17.3606178802
 20
-6.1643559226
 10
-17.5187428005
 20
-6.0934296827
  0
LWPOLYLINE
  5
407
100
AcDbEntity
  8
0
100
AcDbPolyline
 62
7
  6
CONTINUOUS
 90
10
 70
0
 10
22.3066400083
 20
10.617726989
 10
22.3641179691
 20
10.6423156259
 10
22.4209997555
 20
10.6676437615
 10
22.4772853675
 20
10.6937113957
 10
22.5330068282
 20
10.7205345402
 10
22.5881321144
 20
10.7480971833
 10
22.6425651572
 20
10.7763512905
 10
22.6962739334
 20
10.8052808503
 10
22.749290466
 20
10.8349018743
 10
22.8016147552
 20
10.8652143624
  0
LWPOLYLINE
  5
408
100
AcDbEntity
  8
0
100
AcDbPolyline
 62
7
  6
CONTINUOUS
 90
6
 70
0
 10
22.3998798869
 20
11.6165609136
 10
22.3613453983
 20
11.600397084
 10
22.3225463691
 20
11.5843986901
 10
22.2834827995
 20
11.568565732
 10
22.2441528045
 20
11.5528974609
 10
22.2428258074
 20
11.5523778888
  0
LWPOLYLINE
  5
409
100
AcDbEntity
  8
RACCORDO
100
AcDbPolyline
 62
253
  6
CONTINUOUS
 90
15
 70
0
 10
-15.5304902308
 20
7.5240749239
 10
-14.865521883
 20
7.2046848555
 10
-14.1756358542
 20
6.8990165628
 10
-13.4618712609
 20
6.607561804
 10
-12.7251513773
 20
6.3307398003
 10
-11.9667389358
 20
6.0690593789
 10
-11.18827752
 20
5.8230872322
 10
-10.3908457725
 20
5.5931650765
 10
-9.5758303834
 20
5.3796859864
 10
-8.74547674
 20
5.1831734078
 10
-7.901112857
 20
5.0038713784
 10
-7.0441237612
 20
4.8419969987
 10
-6.1769669322
 20
4.697873709
 10
-5.3014281876
 20
4.5716359641
 10
-4.4185655138
 20
4.4632989147
  0
LINE
  5
40A
100
AcDbEntity
  8
RACCORDO
100
AcDbLine
 62
253
  6
CONTINUOUS
 10
-31.9120342165
 20
15.7148469168
 11
-15.5304902308
 21
7.5240749239
  0
LWPOLYLINE
  5
40B
100
AcDbEntity
  8
0
100
AcDbPolyline
 62
7
  6
CONTINUOUS
 90
9
 70
0
 10
-13.1451482572
 20
23.9007728265
 10
-13.158483142
 20
23.9298221582
 10
-13.1762245765
 20
23.9612591151
 10
-13.1959973869
 20
23.9900029747
 10
-13.2178278196
 20
24.0160189584
 10
-13.2416896281
 20
24.0393418448
 10
-13.267274793
 20
24.059669964
 10
-13.2946095827
 20
24.0769646389
 10
-13.3072539403
 20
24.0836606367
  0
LINE
  5
40C
100
AcDbEntity
  8
RACCORDO
100
AcDbLine
 62
7
  6
CONTINUOUS
 10
0.9720995276
 20
9.9168917035
 11
0.9720995276
 21
8.7910322986
  0
LINE
  5
40D
100
AcDbEntity
  8
ASSI
100
AcDbLine
 62
7
  6
CONTINUOUS
 10
0.9720995276
 20
9.9168917035
 11
0.9720995276
 21
8.7910322986
  0
LINE
  5
40E
100
AcDbEntity
  8
RACCORDO
100
AcDbLine
 62
7
  6
CONTINUOUS
 10
0.9720995276
 20
-31.2927504103
 11
0.9720995276
 21
-31.3059702766
  0
LINE
  5
40F
100
AcDbEntity
  8
ASSI
100
AcDbLine
 62
7
  6
CONTINUOUS
 10
0.9720995276
 20
-31.2927504103
 11
0.9720995276
 21
-31.3059702766
  0
LINE
  5
410
100
AcDbEntity
  8
DRAFT
100
AcDbLine
 62
7
  6
CONTINUOUS
 10
1.0206994124
 20
25.7456018421
 11
1.0206994124
 21
25.736236891
  0
LINE
  5
411
100
AcDbEntity
  8
RACCORDO
100
AcDbLine
 62
7
  6
CONTINUOUS
 10
1.2549422401
 20
7.242580179
 11
1.2549422401
 21
-31.0358218082
  0
LINE
  5
412
100
AcDbEntity
  8
DRAFT
100
AcDbLine
 62
7
  6
CONTINUOUS
 10
2.1811484267
 20
25.9683035083
 11
2.1811484267
 21
25.9342307799
  0
LINE
  5
413
100
AcDbEntity
  8
ASSI
100
AcDbLine
 62
7
  6
CONTINUOUS
 10
2.1811484267
 20
25.9683035083
 11
2.1811484267
 21
25.9342307799
  0
LINE
  5
414
100
AcDbEntity
  8
RACCORDO
100
AcDbLine
 62
7
  6
CONTINUOUS
 10
2.3156024118
 20
-31.9777217187
 11
2.3156024118
 21
9.2451402614
  0
LINE
  5
415
100
AcDbEntity
  8
ASSI
100
AcDbLine
 62
7
  6
CONTINUOUS
 10
2.3156024118
 20
-31.9777217187
 11
2.3156024118
 21
9.2451402614
  0
LINE
  5
416
100
AcDbEntity
  8
ASSI
100
AcDbLine
 62
7
  6
CONTINUOUS
 10
2.8276234829
 20
14.9474610826
 11
2.8276234829
 21
14.8612787121
  0
LINE
  5
417
100
AcDbEntity
  8
0
100
AcDbLine
 62
7
  6
CONTINUOUS
 10
2.8276234829
 20
14.9474610826
 11
2.8276234829
 21
14.85275555
  0
LWPOLYLINE
  5
418
100
AcDbEntity
  8
RACCORDO
100
AcDbPolyline
 62
7
  6
CONTINUOUS
 90
28
 70
0
 10
2.3156024118
 20
-30.3322470716
 10
2.3154167656
 20
-30.3462751335
 10
2.3148530168
 20
-30.3600942719
 10
2.3139111656
 20
-30.373704487
 10
2.312589284
 20
-30.3871288557
 10
2.3108892999
 20
-30.400344301
 10
2.3088169968
 20
-30.4132815913
 10
2.3063691203
 20
-30.4259358886
 10
2.3035489247
 20
-30.4383120309
 10
2.3003719561
 20
-30.4503553007
 10
2.296840807
 20
-30.4620524567
 10
2.2929528847
 20
-30.4734167402
 10
2.2887159575
 20
-30.4844331569
 10
2.2841306891
 20
-30.495103839
 10
2.2791964157
 20
-30.5054266542
 10
2.2739189133
 20
-30.5153802119
 10
2.2682910007
 20
-30.5249735969
 10
2.262319859
 20
-30.5341977244
 10
2.2560328084
 20
-30.5430039488
 10
2.2494270534
 20
-30.5513876814
 10
2.2425053894
 20
-30.5593535109
 10
2.2353035236
 20
-30.5668665584
 10
2.2278287729
 20
-30.5739173649
 10
2.2200738203
 20
-30.5805153893
 10
2.2120524223
 20
-30.5866541292
 10
2.203765472
 20
-30.5923352711
 10
2.1952120762
 20
-30.5975571284
 10
2.1856556651
 20
-30.6026836638
  0
LINE
  5
419
100
AcDbEntity
  8
0
100
AcDbLine
 62
253
  6
CONTINUOUS
 10
4.1350954217
 20
15.2669281523
 11
4.1029731757
 21
15.0734087383
  0
LINE
  5
41A
100
AcDbEntity
  8
0
100
AcDbLine
 62
7
  6
CONTINUOUS
 10
4.2601460601
 20
14.1364942613
 11
4.2512063723
 21
14.0826374063
  0
LINE
  5
41B
100
AcDbEntity
  8
RACCORDO
100
AcDbLine
 62
7
  6
CONTINUOUS
 10
24.2268099622
 20
10.5918137335
 11
24.2106433533
 21
10.5814449555
  0
LINE
  5
41C
100
AcDbEntity
  8
ASSI
100
AcDbLine
 62
7
  6
CONTINUOUS
 10
24.2268099622
 20
10.5918137335
 11
24.2106433533
 21
10.5814449555
  0
LINE
  5
41D
100
AcDbEntity
  8
RACCORDO
100
AcDbLine
 62
7
  6
CONTINUOUS
 10
24.2106433533
 20
10.5814449555
 11
24.1931373178
 21
10.5703520145
  0
LINE
  5
41E
100
AcDbEntity
  8
ASSI
100
AcDbLine
 62
7
  6
CONTINUOUS
 10
24.2106433533
 20
10.5814449555
 11
24.1931373178
 21
10.5703520145
  0
LINE
  5
41F
100
AcDbEntity
  8
RACCORDO
100
AcDbLine
 62
7
  6
CONTINUOUS
 10
24.1931373178
 20
10.5703520145
 11
24.1743508678
 21
10.5585776003
  0
LINE
  5
420
100
AcDbEntity
  8
ASSI
100
AcDbLine
 62
7
  6
CONTINUOUS
 10
24.1931373178
 20
10.5703520145
 11
24.1743508678
 21
10.5585776003
  0
LINE
  5
421
100
AcDbEntity
  8
RACCORDO
100
AcDbLine
 62
7
  6
CONTINUOUS
 10
24.1743508678
 20
10.5585776003
 11
24.1474162901
 21
10.5418896614
  0
LINE
  5
422
100
AcDbEntity
  8
ASSI
100
AcDbLine
 62
7
  6
CONTINUOUS
 10
24.1743508678
 20
10.5585776003
 11
24.1474162901
 21
10.5418896614
  0
LINE
  5
423
100
AcDbEntity
  8
RACCORDO
100
AcDbLine
 62
7
  6
CONTINUOUS
 10
24.1474162901
 20
10.5418896614
 11
24.1184611338
 21
10.5241578427
  0
LINE
  5
424
100
AcDbEntity
  8
ASSI
100
AcDbLine
 62
7
  6
CONTINUOUS
 10
24.1474162901
 20
10.5418896614
 11
24.1184611338
 21
10.5241578427
  0
LINE
  5
425
100
AcDbEntity
  8
RACCORDO
100
AcDbLine
 62
7
  6
CONTINUOUS
 10
24.1184611338
 20
10.5241578427
 11
24.0796561339
 21
10.5006652261
  0
LINE
  5
426
100
AcDbEntity
  8
ASSI
100
AcDbLine
 62
7
  6
CONTINUOUS
 10
24.1184611338
 20
10.5241578427
 11
24.0796561339
 21
10.5006652261
  0
LINE
  5
427
100
AcDbEntity
  8
RACCORDO
100
AcDbLine
 62
7
  6
CONTINUOUS
 10
24.0796561339
 20
10.5006652261
 11
24.0382364902
 21
10.4758650536
  0
LINE
  5
428
100
AcDbEntity
  8
ASSI
100
AcDbLine
 62
7
  6
CONTINUOUS
 10
24.0796561339
 20
10.5006652261
 11
24.0382364902
 21
10.4758650536
  0
LWPOLYLINE
  5
429
100
AcDbEntity
  8
0
100
AcDbPolyline
 62
7
  6
CONTINUOUS
 90
34
 70
0
 10
23.1011036288
 20
13.0064032691
 10
23.133431288
 20
13.0256705134
 10
23.1654280758
 20
13.045070028
 10
23.1970939919
 20
13.0646018128
 10
23.2284305341
 20
13.0842668103
 10
23.2594362048
 20
13.104064078
 10
23.290106511
 20
13.1239907887
 10
23.3204398548
 20
13.1440457531
 10
23.350437834
 20
13.1642301604
 10
23.38010075
 20
13.184544751
 10
23.4094288461
 20
13.2049894206
 10
23.4384218789
 20
13.2255642735
 10
23.4670794189
 20
13.2462703628
 10
23.4954046678
 20
13.2671099875
 10
23.523394424
 20
13.2880808488
 10
23.5510386521
 20
13.3091771023
 10
23.578347192
 20
13.3304074813
 10
23.6053102039
 20
13.3517632526
 10
23.631888134
 20
13.3732123734
 10
23.6580834585
 20
13.3947594723
 10
23.6838937013
 20
13.4163999207
 10
23.7092718803
 20
13.43808779
 10
23.7341959909
 20
13.4598051505
 10
23.7586880377
 20
13.4815699318
 10
23.7827670522
 20
13.5033899948
 10
23.8064251544
 20
13.5252559905
 10
23.8296702243
 20
13.5471772678
 10
23.852544933
 20
13.5691897336
 10
23.8750522783
 20
13.5912930213
 10
23.8971892624
 20
13.6134874976
 10
23.9189895629
 20
13.6358101691
 10
23.9404644057
 20
13.6582733714
 10
23.9616025649
 20
13.6808647689
 10
23.9824040405
 20
13.7035843618
  0
LINE
  5
42A
100
AcDbEntity
  8
RACCORDO
100
AcDbLine
 62
7
  6
CONTINUOUS
 10
24.0382364902
 20
10.4758650536
 11
23.9855215385
 21
10.4446287179
  0
LINE
  5
42B
100
AcDbEntity
  8
ASSI
100
AcDbLine
 62
7
  6
CONTINUOUS
 10
24.0382364902
 20
10.4758650536
 11
23.9855215385
 21
10.4446287179
  0
LINE
  5
42C
100
AcDbEntity
  8
RACCORDO
100
AcDbLine
 62
7
  6
CONTINUOUS
 10
23.9855215385
 20
10.4446287179
 11
23.9205628928
 21
10.406536354
  0
LINE
  5
42D
100
AcDbEntity
  8
ASSI
100
AcDbLine
 62
7
  6
CONTINUOUS
 10
23.9855215385
 20
10.4446287179
 11
23.9205628928
 21
10.406536354
  0
LINE
  5
42E
100
AcDbEntity
  8
RACCORDO
100
AcDbLine
 62
7
  6
CONTINUOUS
 10
23.9205628928
 20
10.406536354
 11
23.8423567847
 21
10.3611335115
  0
LINE
  5
42F
100
AcDbEntity
  8
ASSI
100
AcDbLine
 62
7
  6
CONTINUOUS
 10
23.9205628928
 20
10.406536354
 11
23.8423567847
 21
10.3611335115
  0
LINE
  5
430
100
AcDbEntity
  8
RACCORDO
100
AcDbLine
 62
7
  6
CONTINUOUS
 10
23.8423567847
 20
10.3611335115
 11
23.7537954806
 21
10.3101924593
  0
LINE
  5
431
100
AcDbEntity
  8
ASSI
100
AcDbLine
 62
7
  6
CONTINUOUS
 10
23.8423567847
 20
10.3611335115
 11
23.7537954806
 21
10.3101924593
  0
LINE
  5
432
100
AcDbEntity
  8
RACCORDO
100
AcDbLine
 62
7
  6
CONTINUOUS
 10
23.7537954806
 20
10.3101924593
 11
23.643835564
 21
10.2474895923
  0
LINE
  5
433
100
AcDbEntity
  8
ASSI
100
AcDbLine
 62
7
  6
CONTINUOUS
 10
23.7537954806
 20
10.3101924593
 11
23.643835564
 21
10.2474895923
  0
LINE
  5
434
100
AcDbEntity
  8
RACCORDO
100
AcDbLine
 62
7
  6
CONTINUOUS
 10
23.643835564
 20
10.2474895923
 11
23.5210842646
 21
10.1780557454
  0
LINE
  5
435
100
AcDbEntity
  8
ASSI
100
AcDbLine
 62
7
  6
CONTINUOUS
 10
23.643835564
 20
10.2474895923
 11
23.5210842646
 21
10.1780557454
  0
LINE
  5
436
100
AcDbEntity
  8
RACCORDO
100
AcDbLine
 62
7
  6
CONTINUOUS
 10
22.7152780627
 20
9.7310127275
 11
22.5715651688
 21
9.6502123391
  0
LINE
  5
437
100
AcDbEntity
  8
ASSI
100
AcDbLine
 62
7
  6
CONTINUOUS
 10
22.7152780627
 20
9.7310127275
 11
22.5715651688
 21
9.6502123391
  0
LWPOLYLINE
  5
438
100
AcDbEntity
  8
RACCORDO
100
AcDbPolyline
 62
7
  6
CONTINUOUS
 90
10
 70
0
 10
26.2756348567
 20
10.084495389
 10
26.3325177317
 20
10.1164521823
 10
26.3832891577
 20
10.1505416466
 10
26.4279491346
 20
10.1867637819
 10
26.4669167173
 20
10.2255827417
 10
26.4997728509
 20
10.2665343725
 10
26.525260371
 20
10.3082262136
 10
26.5429694094
 20
10.3504557756
 10
26.5533098345
 20
10.3934255479
 10
26.5562932651
 20
10.4318245745
  0
LWPOLYLINE
  5
439
100
AcDbEntity
  8
ASSI
100
AcDbPolyline
 62
7
  6
CONTINUOUS
 90
10
 70
0
 10
26.2756348567
 20
10.084495389
 10
26.3325177317
 20
10.1164521823
 10
26.3832891577
 20
10.1505416466
 10
26.4279491346
 20
10.1867637819
 10
26.4669167173
 20
10.2255827417
 10
26.4997728509
 20
10.2665343725
 10
26.525260371
 20
10.3082262136
 10
26.5429694094
 20
10.3504557756
 10
26.5533098345
 20
10.3934255479
 10
26.5562932651
 20
10.4318245745
  0
LINE
  5
43A
100
AcDbEntity
  8
RACCORDO
100
AcDbLine
 62
7
  6
CONTINUOUS
 10
23.5210842646
 20
10.1780557454
 11
23.390018692
 21
10.1044387262
  0
LINE
  5
43B
100
AcDbEntity
  8
ASSI
100
AcDbLine
 62
7
  6
CONTINUOUS
 10
23.5210842646
 20
10.1780557454
 11
23.390018692
 21
10.1044387262
  0
LINE
  5
43C
100
AcDbEntity
  8
RACCORDO
100
AcDbLine
 62
7
  6
CONTINUOUS
 10
23.390018692
 20
10.1044387262
 11
23.2588132705
 21
10.0311788781
  0
LINE
  5
43D
100
AcDbEntity
  8
ASSI
100
AcDbLine
 62
7
  6
CONTINUOUS
 10
23.390018692
 20
10.1044387262
 11
23.2588132705
 21
10.0311788781
  0
LINE
  5
43E
100
AcDbEntity
  8
RACCORDO
100
AcDbLine
 62
7
  6
CONTINUOUS
 10
23.2588132705
 20
10.0311788781
 11
23.1045539726
 21
9.9455055792
  0
LINE
  5
43F
100
AcDbEntity
  8
ASSI
100
AcDbLine
 62
7
  6
CONTINUOUS
 10
23.2588132705
 20
10.0311788781
 11
23.1045539726
 21
9.9455055792
  0
LWPOLYLINE
  5
440
100
AcDbEntity
  8
RACCORDO
100
AcDbPolyline
 62
7
  6
CONTINUOUS
 90
3
 70
0
 10
22.5715651688
 20
9.6502123391
 10
22.5058472274
 20
9.6138321027
 10
22.4937188971
 20
9.6072540538
  0
LWPOLYLINE
  5
441
100
AcDbEntity
  8
ASSI
100
AcDbPolyline
 62
7
  6
CONTINUOUS
 90
3
 70
0
 10
22.5715651688
 20
9.6502123391
 10
22.5058472274
 20
9.6138321027
 10
22.4937188971
 20
9.6072540538
  0
LINE
  5
442
100
AcDbEntity
  8
RACCORDO
100
AcDbLine
 62
7
  6
CONTINUOUS
 10
23.1045539726
 20
9.9455055792
 11
22.9243339446
 21
9.8459354735
  0
LINE
  5
443
100
AcDbEntity
  8
ASSI
100
AcDbLine
 62
7
  6
CONTINUOUS
 10
23.1045539726
 20
9.9455055792
 11
22.9243339446
 21
9.8459354735
  0
LINE
  5
444
100
AcDbEntity
  8
RACCORDO
100
AcDbLine
 62
7
  6
CONTINUOUS
 10
22.9243339446
 20
9.8459354735
 11
22.7152780627
 21
9.7310127275
  0
LINE
  5
445
100
AcDbEntity
  8
ASSI
100
AcDbLine
 62
7
  6
CONTINUOUS
 10
22.9243339446
 20
9.8459354735
 11
22.7152780627
 21
9.7310127275
  0
LINE
  5
446
100
AcDbEntity
  8
RACCORDO
100
AcDbLine
 62
253
  6
CONTINUOUS
 10
22.2712670843
 20
9.5681994102
 11
24.3420109545
 21
10.6854132346
  0
LINE
  5
447
100
AcDbEntity
  8
ASSI
100
AcDbLine
 62
253
  6
CONTINUOUS
 10
22.2712670843
 20
9.5681994102
 11
24.3420109545
 21
10.6854132346
  0
LINE
  5
448
100
AcDbEntity
  8
RACCORDO
100
AcDbLine
 62
253
  6
CONTINUOUS
 10
18.0941893594
 20
5.0925826748
 11
26.2756348567
 21
9.5066602168
  0
LINE
  5
449
100
AcDbEntity
  8
ASSI
100
AcDbLine
 62
253
  6
CONTINUOUS
 10
18.0941893594
 20
5.0925826748
 11
26.2756348567
 21
9.5066602168
  0
LWPOLYLINE
  5
44A
100
AcDbEntity
  8
RACCORDO
100
AcDbPolyline
 62
7
  6
CONTINUOUS
 90
5
 70
0
 10
22.4937188971
 20
9.6072540538
 10
22.4440478662
 20
9.5811179368
 10
22.3853300527
 20
9.5527049602
 10
22.3284956197
 20
9.5283596748
 10
22.2932197837
 20
9.5153502102
  0
LWPOLYLINE
  5
44B
100
AcDbEntity
  8
ASSI
100
AcDbPolyline
 62
7
  6
CONTINUOUS
 90
5
 70
0
 10
22.4937188971
 20
9.6072540538
 10
22.4440478662
 20
9.5811179368
 10
22.3853300527
 20
9.5527049602
 10
22.3284956197
 20
9.5283596748
 10
22.2932197837
 20
9.5153502102
  0
LINE
  5
44C
100
AcDbEntity
  8
RACCORDO
100
AcDbLine
 62
7
  6
CONTINUOUS
 10
26.2756348567
 20
10.084495389
 11
24.1792169905
 21
8.9990432636
  0
LINE
  5
44D
100
AcDbEntity
  8
ASSI
100
AcDbLine
 62
7
  6
CONTINUOUS
 10
26.2756348567
 20
10.084495389
 11
24.1792169905
 21
8.9990432636
  0
LWPOLYLINE
  5
44E
100
AcDbEntity
  8
0
100
AcDbPolyline
 62
7
  6
CONTINUOUS
 90
29
 70
0
 10
22.0999489253
 20
10.3637894868
 10
22.1841724004
 20
10.3866987405
 10
22.2709111902
 20
10.415848436
 10
22.3579883684
 20
10.4506556086
 10
22.4453832636
 20
10.4911553193
 10
22.5327403218
 20
10.5372309384
 10
22.6194323135
 20
10.588546968
 10
22.7051395007
 20
10.644859393
 10
22.7898117004
 20
10.7060855172
 10
22.8732225692
 20
10.7720258418
 10
22.9552301302
 20
10.8425371241
 10
23.0356068505
 20
10.9173970867
 10
23.1139997556
 20
10.9962308164
 10
23.1901475329
 20
11.0787025567
 10
23.263985179
 20
11.1646718736
 10
23.3354540554
 20
11.254027647
 10
23.4044344603
 20
11.3465999995
 10
23.4707186397
 20
11.4420933587
 10
23.5341130665
 20
11.5402027279
 10
23.5944513433
 20
11.6406370544
 10
23.6516192425
 20
11.7431754
 10
23.7055093357
 20
11.8476068642
 10
23.7559933767
 20
11.9536744424
 10
23.8029464793
 20
12.0611116503
 10
23.8462678416
 20
12.1696935603
 10
23.8858555701
 20
12.2791871597
 10
23.9215899519
 20
12.3892924208
 10
23.9533572451
 20
12.4996858533
 10
23.9810586438
 20
12.6100415425
  0
LWPOLYLINE
  5
44F
100
AcDbEntity
  8
RACCORDO
100
AcDbPolyline
 62
253
  6
CONTINUOUS
 90
10
 70
0
 10
-4.4185655138
 20
4.4632989147
 10
-3.4979443519
 20
4.3696024098
 10
-3.4658178517
 20
4.3678185423
 10
-3.4337513315
 20
4.3676353807
 10
-3.4021137921
 20
4.3690550323
 10
-3.3712692944
 20
4.3720611603
 10
-3.3415727705
 20
4.3766191729
 10
-3.313365946
 20
4.3826766205
 10
-3.2869734066
 20
4.3901637986
 10
-3.2626988595
 20
4.3989945505
  0
LWPOLYLINE
  5
450
100
AcDbEntity
  8
RACCORDO
100
AcDbPolyline
 62
253
  6
CONTINUOUS
 90
4
 70
0
 10
-12.3564397286
 20
8.5945977852
 10
-12.3721728289
 20
8.6013084679
 10
-12.8456719559
 20
8.8165770446
 10
-13.3062792212
 20
9.0396525068
  0
LINE
  5
451
100
AcDbEntity
  8
RACCORDO
100
AcDbLine
 62
7
  6
CONTINUOUS
 10
-13.0885840158
 20
8.9123095046
 11
-13.7827435291
 21
9.2434046281
  0
LWPOLYLINE
  5
452
100
AcDbEntity
  8
RACCORDO
100
AcDbPolyline
 62
253
  6
CONTINUOUS
 90
16
 70
0
 10
-14.8365949656
 20
8.6939496725
 10
-14.1735392206
 20
8.3760715151
 10
-13.4871631569
 20
8.0733987109
 10
-12.7774667744
 20
7.78593126
 10
-12.04302987
 20
7.5131817936
 10
-11.2852726469
 20
7.2556376804
 10
-10.5084557141
 20
7.0147610262
 10
-9.7122520687
 20
6.7906518314
 10
-8.8969887136
 20
6.5832100955
 10
-8.0679072668
 20
6.3935979235
 10
-7.2247782286
 20
6.2219921231
 10
-6.3678310986
 20
6.0682158866
 10
-5.5029959938
 20
5.9329008953
 10
-4.63224962
 20
5.8162577097
 10
-3.7536152713
 20
5.7180757693
 10
-2.8670929478
 20
5.6383550742
  0
LINE
  5
453
100
AcDbEntity
  8
RACCORDO
100
AcDbLine
 62
253
  6
CONTINUOUS
 10
-31.2181389513
 20
16.8847216653
 11
-14.8365949656
 21
8.6939496725
  0
LINE
  5
454
100
AcDbEntity
  8
RACCORDO
100
AcDbLine
 62
7
  6
CONTINUOUS
 10
-13.7827435291
 20
9.2434046281
 11
-30.1642875148
 21
17.4341766209
  0
LINE
  5
455
100
AcDbEntity
  8
RACCORDO
100
AcDbLine
 62
253
  6
CONTINUOUS
 10
-13.3062792212
 20
9.0396525068
 11
-29.6878232069
 21
17.2304244996
  0
LINE
  5
456
100
AcDbEntity
  8
RACCORDO
100
AcDbLine
 62
253
  6
CONTINUOUS
 10
-29.6878232069
 20
17.2304244996
 11
-30.1338038715
 21
17.4606326904
  0
LWPOLYLINE
  5
457
100
AcDbEntity
  8
RACCORDO
100
AcDbPolyline
 62
7
  6
CONTINUOUS
 90
12
 70
0
 10
-30.1642875148
 20
17.4341766209
 10
-30.8271549952
 20
17.7815961421
 10
-31.4554026711
 20
18.1428668894
 10
-32.0490305423
 20
18.5179888629
 10
-32.6091697742
 20
18.9078294091
 10
-33.1346892014
 20
19.3115211814
 10
-33.6221953281
 20
19.7264621399
 10
-34.0714000093
 20
20.1527155151
 10
-34.4825913898
 20
20.5902180765
 10
-34.8532404084
 20
21.0361780926
 10
-35.1825040444
 20
21.4896649863
 10
-35.4712253183
 20
21.9516093349
  0
LWPOLYLINE
  5
458
100
AcDbEntity
  8
RACCORDO
100
AcDbPolyline
 62
253
  6
CONTINUOUS
 90
18
 70
0
 10
-30.1338038715
 20
17.4606326904
 10
-30.5642047207
 20
17.6972997963
 10
-30.9790257546
 20
17.9404258174
 10
-31.3786527247
 20
18.190268539
 10
-31.7626998795
 20
18.4465701757
 10
-32.1300099639
 20
18.7085573712
 10
-32.4805162751
 20
18.9762296229
 10
-32.8142855159
 20
19.2495874333
 10
-33.1303605401
 20
19.5278589538
 10
-33.4286985377
 20
19.811062502
 10
-33.7093423186
 20
20.0991797602
 10
-33.9714631668
 20
20.3913839267
 10
-34.2150358081
 20
20.6877216342
 10
-34.4400855166
 20
20.98814625
 10
-34.6458593981
 20
21.291691074
 10
-34.8321064877
 20
21.5980338726
 10
-34.9990777501
 20
21.9074968793
 10
-35.1467731855
 20
22.2200800941
  0
LWPOLYLINE
  5
459
100
AcDbEntity
  8
RACCORDO
100
AcDbPolyline
 62
253
  6
CONTINUOUS
 90
10
 70
0
 10
-2.8670929477
 20
5.6383550742
 10
-2.8308556246
 20
5.6156914016
 10
-2.795606482
 20
5.5858824422
 10
-2.762416133
 20
5.5498335757
 10
-2.7322926594
 20
5.5086397052
 10
-2.7061509937
 20
5.4635520013
 10
-2.6847851299
 20
5.4159399013
 10
-2.668844008
 20
5.3672495153
 10
-2.6588118036
 20
5.3189597036
 10
-2.654993222
 20
5.2725371603
  0
LWPOLYLINE
  5
45A
100
AcDbEntity
  8
RACCORDO
100
AcDbPolyline
 62
253
  6
CONTINUOUS
 90
22
 70
0
 10
-10.2859675122
 20
22.7837952934
 10
-10.2993235713
 20
22.8112374577
 10
-10.3144516944
 20
22.8376884547
 10
-10.3313141923
 20
22.8623910545
 10
-10.3499876877
 20
22.8852757047
 10
-10.3703955579
 20
22.9064119577
 10
-10.3922702465
 20
22.92525124
 10
-10.4156807524
 20
22.9416959604
 10
-10.4405580767
 20
22.9558437101
 10
-10.4664276655
 20
22.9674386892
 10
-10.4933573572
 20
22.976362026
 10
-10.5212793134
 20
22.9827325924
 10
-10.549515466
 20
22.9866512033
 10
-10.5780784637
 20
22.9879891657
 10
-10.6069556576
 20
22.9868751727
 10
-10.6354310328
 20
22.9837961192
 10
-10.6633867527
 20
22.9787074626
 10
-10.6909406539
 20
22.9716537456
 10
-10.7177302302
 20
22.9632554908
 10
-10.7436346463
 20
22.9537195392
 10
-10.7687747376
 20
22.9428390498
 10
-10.7931505041
 20
22.9306140226
  0
LWPOLYLINE
  5
45B
100
AcDbEntity
  8
ASSI
100
AcDbPolyline
 62
253
  6
CONTINUOUS
 90
22
 70
0
 10
-10.2859675122
 20
22.7837952934
 10
-10.2993235713
 20
22.8112374577
 10
-10.3144516944
 20
22.8376884547
 10
-10.3313141923
 20
22.8623910545
 10
-10.3499876877
 20
22.8852757047
 10
-10.3703955579
 20
22.9064119577
 10
-10.3922702465
 20
22.92525124
 10
-10.4156807524
 20
22.9416959604
 10
-10.4405580767
 20
22.9558437101
 10
-10.4664276655
 20
22.9674386892
 10
-10.4933573572
 20
22.976362026
 10
-10.5212793134
 20
22.9827325924
 10
-10.549515466
 20
22.9866512033
 10
-10.5780784637
 20
22.9879891657
 10
-10.6069556576
 20
22.9868751727
 10
-10.6354310328
 20
22.9837961192
 10
-10.6633867527
 20
22.9787074626
 10
-10.6909406539
 20
22.9716537456
 10
-10.7177302302
 20
22.9632554908
 10
-10.7436346463
 20
22.9537195392
 10
-10.7687747376
 20
22.9428390498
 10
-10.7931505041
 20
22.9306140226
  0
LINE
  5
45C
100
AcDbEntity
  8
RACCORDO
100
AcDbLine
 62
7
  6
CONTINUOUS
 10
7.4964620307
 20
13.7561014092
 11
7.4944209
 21
13.8212024234
  0
LINE
  5
45D
100
AcDbEntity
  8
ASSI
100
AcDbLine
 62
7
  6
CONTINUOUS
 10
7.4964620251
 20
13.7560987324
 11
7.4946573025
 21
13.8173746361
  0
LINE
  5
45E
100
AcDbEntity
  8
RACCORDO
100
AcDbLine
 62
253
  6
CONTINUOUS
 10
7.4400816649
 20
13.7154374425
 11
7.4403303747
 21
13.6867386851
  0
LINE
  5
45F
100
AcDbEntity
  8
ASSI
100
AcDbLine
 62
253
  6
CONTINUOUS
 10
7.4400816649
 20
13.7154374425
 11
7.4403303747
 21
13.6867386851
  0
LINE
  5
460
100
AcDbEntity
  8
DRAFT
100
AcDbLine
 62
7
  6
CONTINUOUS
 10
5.8025364329
 20
23.3546833319
 11
5.8025364329
 21
23.3453183807
  0
LINE
  5
461
100
AcDbEntity
  8
RACCORDO
100
AcDbLine
 62
253
  6
CONTINUOUS
 10
7.4403303747
 20
13.6867386851
 11
7.4403303747
 21
12.9883367014
  0
LINE
  5
462
100
AcDbEntity
  8
ASSI
100
AcDbLine
 62
253
  6
CONTINUOUS
 10
7.4403303747
 20
13.6867386851
 11
7.4403303747
 21
12.9883367014
  0
LINE
  5
463
100
AcDbEntity
  8
RACCORDO
100
AcDbLine
 62
7
  6
CONTINUOUS
 10
7.4964624146
 20
13.7562045221
 11
7.4964624146
 21
13.0142603376
  0
LINE
  5
464
100
AcDbEntity
  8
ASSI
100
AcDbLine
 62
7
  6
CONTINUOUS
 10
7.4964624146
 20
13.7562045221
 11
7.4964624146
 21
13.0142603376
  0
LWPOLYLINE
  5
465
100
AcDbEntity
  8
ASSI
100
AcDbPolyline
 62
253
  6
CONTINUOUS
 90
6
 70
0
 10
7.4964623027
 20
13.7560987331
 10
7.4958610029
 20
13.7484552801
 10
7.4902367885
 20
13.73144825
 10
7.4788546263
 20
13.7151768452
 10
7.462052734
 20
13.7001245655
 10
7.4403303747
 20
13.6867386851
  0
LWPOLYLINE
  5
466
100
AcDbEntity
  8
RACCORDO
100
AcDbPolyline
 62
253
  6
CONTINUOUS
 90
6
 70
0
 10
7.4964623083
 20
13.7561014098
 10
7.4958610029
 20
13.7484552801
 10
7.4902367885
 20
13.73144825
 10
7.4788546263
 20
13.7151768452
 10
7.462052734
 20
13.7001245655
 10
7.4403303747
 20
13.6867386851
  0
LINE
  5
467
100
AcDbEntity
  8
RACCORDO
100
AcDbLine
 62
7
  6
CONTINUOUS
 10
24.3007050469
 20
10.6418615833
 11
24.2948234689
 21
10.6376117653
  0
LINE
  5
468
100
AcDbEntity
  8
ASSI
100
AcDbLine
 62
7
  6
CONTINUOUS
 10
24.3007050469
 20
10.6418615833
 11
24.2948234689
 21
10.6376117653
  0
LINE
  5
469
100
AcDbEntity
  8
RACCORDO
100
AcDbLine
 62
7
  6
CONTINUOUS
 10
24.2948234689
 20
10.6376117653
 11
24.2885742926
 21
10.6331732461
  0
LINE
  5
46A
100
AcDbEntity
  8
ASSI
100
AcDbLine
 62
7
  6
CONTINUOUS
 10
24.2948234689
 20
10.6376117653
 11
24.2885742926
 21
10.6331732461
  0
LINE
  5
46B
100
AcDbEntity
  8
RACCORDO
100
AcDbLine
 62
7
  6
CONTINUOUS
 10
24.2885742926
 20
10.6331732461
 11
24.2819229693
 21
10.6285224986
  0
LINE
  5
46C
100
AcDbEntity
  8
ASSI
100
AcDbLine
 62
7
  6
CONTINUOUS
 10
24.2885742926
 20
10.6331732461
 11
24.2819229693
 21
10.6285224986
  0
LINE
  5
46D
100
AcDbEntity
  8
RACCORDO
100
AcDbLine
 62
7
  6
CONTINUOUS
 10
24.2819229693
 20
10.6285224986
 11
24.2748462488
 21
10.6236440366
  0
LINE
  5
46E
100
AcDbEntity
  8
ASSI
100
AcDbLine
 62
7
  6
CONTINUOUS
 10
24.2819229693
 20
10.6285224986
 11
24.2748462488
 21
10.6236440366
  0
LINE
  5
46F
100
AcDbEntity
  8
RACCORDO
100
AcDbLine
 62
7
  6
CONTINUOUS
 10
24.2748462488
 20
10.6236440366
 11
24.2673085
 21
10.6185149209
  0
LINE
  5
470
100
AcDbEntity
  8
ASSI
100
AcDbLine
 62
7
  6
CONTINUOUS
 10
24.2748462488
 20
10.6236440366
 11
24.2673085
 21
10.6185149209
  0
LINE
  5
471
100
AcDbEntity
  8
RACCORDO
100
AcDbLine
 62
7
  6
CONTINUOUS
 10
24.2673085
 20
10.6185149209
 11
24.2592734127
 21
10.6131132921
  0
LINE
  5
472
100
AcDbEntity
  8
ASSI
100
AcDbLine
 62
7
  6
CONTINUOUS
 10
24.2673085
 20
10.6185149209
 11
24.2592734127
 21
10.6131132921
  0
LINE
  5
473
100
AcDbEntity
  8
RACCORDO
100
AcDbLine
 62
7
  6
CONTINUOUS
 10
24.2592734127
 20
10.6131132921
 11
24.2507168862
 21
10.6074248341
  0
LINE
  5
474
100
AcDbEntity
  8
ASSI
100
AcDbLine
 62
7
  6
CONTINUOUS
 10
24.2592734127
 20
10.6131132921
 11
24.2507168862
 21
10.6074248341
  0
LINE
  5
475
100
AcDbEntity
  8
RACCORDO
100
AcDbLine
 62
7
  6
CONTINUOUS
 10
24.2507168862
 20
10.6074248341
 11
24.2416023966
 21
10.6014282457
  0
LINE
  5
476
100
AcDbEntity
  8
ASSI
100
AcDbLine
 62
7
  6
CONTINUOUS
 10
24.2507168862
 20
10.6074248341
 11
24.2416023966
 21
10.6014282457
  0
LINE
  5
477
100
AcDbEntity
  8
RACCORDO
100
AcDbLine
 62
7
  6
CONTINUOUS
 10
24.2416023966
 20
10.6014282457
 11
24.2268099622
 21
10.5918137335
  0
LINE
  5
478
100
AcDbEntity
  8
ASSI
100
AcDbLine
 62
7
  6
CONTINUOUS
 10
24.2416023966
 20
10.6014282457
 11
24.2268099622
 21
10.5918137335
  0
LWPOLYLINE
  5
479
100
AcDbEntity
  8
RACCORDO
100
AcDbPolyline
 62
253
  6
CONTINUOUS
 90
10
 70
0
 10
26.2756348567
 20
9.5066602168
 10
26.3328366609
 20
9.5396150509
 10
26.3842568168
 20
9.5748991071
 10
26.4295128877
 20
9.6122543984
 10
26.4682686685
 20
9.6514121533
 10
26.5002356205
 20
9.6920807105
 10
26.5251756226
 20
9.7339475338
 10
26.542903698
 20
9.7767036666
 10
26.5532895578
 20
9.820036325
 10
26.5562950564
 20
9.8592025426
  0
LWPOLYLINE
  5
47A
100
AcDbEntity
  8
ASSI
100
AcDbPolyline
 62
253
  6
CONTINUOUS
 90
10
 70
0
 10
26.2756348567
 20
9.5066602168
 10
26.3328366609
 20
9.5396150509
 10
26.3842568168
 20
9.5748991071
 10
26.4295128877
 20
9.6122543984
 10
26.4682686685
 20
9.6514121533
 10
26.5002356205
 20
9.6920807105
 10
26.5251756226
 20
9.7339475338
 10
26.542903698
 20
9.7767036666
 10
26.5532895578
 20
9.820036325
 10
26.5562950563
 20
9.8591951186
  0
LWPOLYLINE
  5
47B
100
AcDbEntity
  8
RACCORDO
100
AcDbPolyline
 62
7
  6
CONTINUOUS
 90
7
 70
0
 10
26.1536959325
 20
9.240481751
 10
26.1984887714
 20
9.26624883
 10
26.2656179277
 20
9.3115866595
 10
26.3259091576
 20
9.3610747415
 10
26.3794617397
 20
9.4145048523
 10
26.4262509012
 20
9.4716041714
 10
26.465987323
 20
9.5317716328
  0
LWPOLYLINE
  5
47C
100
AcDbEntity
  8
ASSI
100
AcDbPolyline
 62
7
  6
CONTINUOUS
 90
10
 70
0
 10
26.1536833543
 20
9.2404749313
 10
26.1959415968
 20
9.264695443
 10
26.2639111284
 20
9.3103186324
 10
26.3249675912
 20
9.360224107
 10
26.3791901563
 20
9.4142056878
 10
26.4265224589
 20
9.4719727731
 10
26.4666557097
 20
9.5329114369
 10
26.4994746763
 20
9.5965460966
 10
26.5249335763
 20
9.6624518623
 10
26.542869271
 20
9.7297654015
  0
LINE
  5
47D
100
AcDbEntity
  8
RACCORDO
100
AcDbLine
 62
7
  6
CONTINUOUS
 10
18.0941893594
 20
4.8921678223
 11
26.1537063367
 21
9.2404625533
  0
LINE
  5
47E
100
AcDbEntity
  8
ASSI
100
AcDbLine
 62
7
  6
CONTINUOUS
 10
18.0941893594
 20
4.8921678223
 11
26.1536937573
 21
9.2404557347
  0
LINE
  5
47F
100
AcDbEntity
  8
DRAFT
100
AcDbLine
 62
7
  6
CONTINUOUS
 10
-25.3676280716
 20
-18.2834557968
 11
-25.0788146113
 21
-18.1333923724
  0
LINE
  5
480
100
AcDbEntity
  8
ASSI
100
AcDbLine
 62
7
  6
CONTINUOUS
 10
-25.3676280716
 20
-18.9928338825
 11
-26.4252815968
 21
-19.5216606451
  0
LINE
  5
481
100
AcDbEntity
  8
0
100
AcDbLine
 62
7
  6
CONTINUOUS
 10
-26.4959922749
 20
-19.5570159842
 11
-27.5575290225
 21
-20.087784358
  0
LINE
  5
482
100
AcDbEntity
  8
DRAFT
100
AcDbLine
 62
7
  6
CONTINUOUS
 10
20.6348826725
 20
4.2962510455
 11
18.0941893594
 21
3.036048432
  0
LINE
  5
483
100
AcDbEntity
  8
ASSI
100
AcDbLine
 62
7
  6
CONTINUOUS
 10
20.6348826725
 20
4.2962510455
 11
18.0941893594
 21
3.036048432
  0
LINE
  5
484
100
AcDbEntity
  8
RACCORDO
100
AcDbLine
 62
7
  6
CONTINUOUS
 10
21.3843641157
 20
3.5815536457
 11
18.0941893594
 21
1.9496027111
  0
LINE
  5
485
100
AcDbEntity
  8
ASSI
100
AcDbLine
 62
7
  6
CONTINUOUS
 10
21.3843641157
 20
3.5815536457
 11
18.0941893594
 21
1.9496027111
  0
LWPOLYLINE
  5
486
100
AcDbEntity
  8
0
100
AcDbPolyline
 62
253
  6
CONTINUOUS
 90
32
 70
0
 10
22.0968760981
 20
10.4096759045
 10
22.1438300932
 20
10.4182511937
 10
22.2206989576
 20
10.4373227809
 10
22.2982703516
 20
10.4615426195
 10
22.3763449073
 20
10.4908484622
 10
22.4547219418
 20
10.5251649932
 10
22.5331998995
 20
10.5644039751
 10
22.6115769395
 20
10.6084644881
 10
22.6896515106
 20
10.6572332178
 10
22.7672229252
 20
10.7105847956
 10
22.8440918007
 20
10.7683820907
 10
22.9200605282
 20
10.8304765281
 10
22.9949337666
 20
10.8967084488
 10
23.0685190002
 20
10.9669075586
 10
23.1406270427
 20
11.0408933785
 10
23.2110724992
 20
11.1184756873
 10
23.2796742308
 20
11.1994549937
 10
23.3462558451
 20
11.2836230733
 10
23.4106461797
 20
11.3707635473
 10
23.4726797159
 20
11.4606524168
 10
23.5321969783
 20
11.5530586025
 10
23.5890449284
 20
11.6477445047
 10
23.6430773901
 20
11.7444666541
 10
23.694155442
 20
11.8429763685
 10
23.7421477665
 20
11.9430203839
 10
23.7869309708
 20
12.0443414748
 10
23.8283899148
 20
12.1466791326
 10
23.8664180129
 20
12.2497702544
 10
23.9009175023
 20
12.3533498095
 10
23.931799686
 20
12.4571514994
 10
23.9589851635
 20
12.5609084422
 10
23.9824040405
 20
12.6643538772
  0
LWPOLYLINE
  5
487
100
AcDbEntity
  8
RACCORDO
100
AcDbPolyline
 62
7
  6
CONTINUOUS
 90
12
 70
0
 10
-3.8995990768
 20
6.5121085615
 10
-4.8258646625
 20
6.6289416535
 10
-5.7364348497
 20
6.7666505148
 10
-6.6313096386
 20
6.9252351454
 10
-7.5123369915
 20
7.105107874
 10
-8.377668946
 20
7.3058563719
 10
-9.221761615
 20
7.5262436531
 10
-10.0444878263
 20
7.7664167665
 10
-10.8459747522
 20
8.0262286631
 10
-11.6210600224
 20
8.3040012108
 10
-12.3680228469
 20
8.5991750322
 10
-13.0885840158
 20
8.9123095046
  0
LINE
  5
488
100
AcDbEntity
  8
RACCORDO
100
AcDbLine
 62
253
  6
CONTINUOUS
 10
-34.8375378289
 20
22.3746977725
 11
-3.5142179208
 21
6.7130378184
  0
LINE
  5
489
100
AcDbEntity
  8
RACCORDO
100
AcDbLine
 62
7
  6
CONTINUOUS
 10
-34.3478841927
 20
23.1370915141
 11
-2.5280790393
 21
7.2271889374
  0
LINE
  5
48A
100
AcDbEntity
  8
DRAFT
100
AcDbLine
 62
7
  6
CONTINUOUS
 10
-14.7963816929
 20
14.0113412439
 11
-20.806789333
 21
17.016545064
  0
LINE
  5
48B
100
AcDbEntity
  8
0
100
AcDbLine
 62
7
  6
CONTINUOUS
 10
-14.0236060978
 20
14.4142494391
 11
-19.5693524659
 21
17.1871226231
  0
LINE
  5
48C
100
AcDbEntity
  8
0
100
AcDbLine
 62
7
  6
CONTINUOUS
 10
-13.6082221085
 20
14.6308215132
 11
-19.1450883972
 21
17.3992546575
  0
LINE
  5
48D
100
AcDbEntity
  8
RACCORDO
100
AcDbLine
 62
7
  6
CONTINUOUS
 10
-33.6761650593
 20
24.9679018799
 11
-21.2664087407
 21
18.7630237206
  0
LINE
  5
48E
100
AcDbEntity
  8
DRAFT
100
AcDbLine
 62
7
  6
CONTINUOUS
 10
-21.2664087407
 20
18.7630237206
 11
-19.3218650925
 21
17.7907518965
  0
LINE
  5
48F
100
AcDbEntity
  8
DRAFT
100
AcDbLine
 62
7
  6
CONTINUOUS
 10
-13.3114574524
 20
14.7855480764
 11
-11.3669138041
 21
13.8132762523
  0
LINE
  5
490
100
AcDbEntity
  8
RACCORDO
100
AcDbLine
 62
7
  6
CONTINUOUS
 10
-11.3669138041
 20
13.8132762523
 11
1.0428425144
 21
7.608398093
  0
LINE
  5
491
100
AcDbEntity
  8
DRAFT
100
AcDbLine
 62
7
  6
CONTINUOUS
 10
-19.2511544144
 20
17.8245955826
 11
-13.2407467743
 21
14.8193917625
  0
LINE
  5
492
100
AcDbEntity
  8
0
100
AcDbLine
 62
7
  6
CONTINUOUS
 10
-6.0407071497
 20
29.4173223115
 11
-5.5756041802
 21
28.4941768979
  0
LWPOLYLINE
  5
493
100
AcDbEntity
  8
RACCORDO
100
AcDbPolyline
 62
7
  6
CONTINUOUS
 90
10
 70
0
 10
7.4944209
 20
13.8212024234
 10
7.4855889207
 20
13.9032229842
 10
7.4697913667
 20
13.9813129298
 10
7.4471023717
 20
14.0548177042
 10
7.4178317571
 20
14.1227882578
 10
7.3823725406
 20
14.1846035219
 10
7.3409404078
 20
14.2400911875
 10
7.2938153389
 20
14.2889032323
 10
7.2415231064
 20
14.3305032299
 10
7.1820594956
 20
14.3657507741
  0
LWPOLYLINE
  5
494
100
AcDbEntity
  8
ASSI
100
AcDbPolyline
 62
7
  6
CONTINUOUS
 90
10
 70
0
 10
7.4946573025
 20
13.8173746361
 10
7.4861154023
 20
13.8997515233
 10
7.4705677514
 20
13.9782276703
 10
7.4480820969
 20
14.0521344939
 10
7.4189674327
 20
14.1205019754
 10
7.3836140337
 20
14.182701729
 10
7.3422354008
 20
14.2385603048
 10
7.2951139686
 20
14.2877181731
 10
7.2427769094
 20
14.3296329771
 10
7.1820748827
 20
14.3657430531
  0
LINE
  5
495
100
AcDbEntity
  8
RACCORDO
100
AcDbLine
 62
7
  6
CONTINUOUS
 10
10.5723765473
 20
12.7012487743
 11
10.570330251
 21
12.7664312208
  0
LINE
  5
496
100
AcDbEntity
  8
ASSI
100
AcDbLine
 62
7
  6
CONTINUOUS
 10
10.5723765415
 20
12.7012460364
 11
10.5705669912
 21
12.7626030893
  0
LINE
  5
497
100
AcDbEntity
  8
RACCORDO
100
AcDbLine
 62
253
  6
CONTINUOUS
 10
10.5159880185
 20
12.6604630419
 11
10.5162448729
 21
12.6318867427
  0
LINE
  5
498
100
AcDbEntity
  8
ASSI
100
AcDbLine
 62
253
  6
CONTINUOUS
 10
10.5159880185
 20
12.6604630419
 11
10.5162448729
 21
12.6318867427
  0
LINE
  5
499
100
AcDbEntity
  8
RACCORDO
100
AcDbLine
 62
253
  6
CONTINUOUS
 10
10.0475825702
 20
18.7770383831
 11
10.0475825702
 21
18.6499716636
  0
LINE
  5
49A
100
AcDbEntity
  8
ASSI
100
AcDbLine
 62
253
  6
CONTINUOUS
 10
10.0475825702
 20
18.7770383831
 11
10.0475825702
 21
18.6499716636
  0
LINE
  5
49B
100
AcDbEntity
  8
RACCORDO
100
AcDbLine
 62
7
  6
CONTINUOUS
 10
10.240412989
 20
30.319524202
 11
10.240412989
 21
29.9316854165
  0
LINE
  5
49C
100
AcDbEntity
  8
ASSI
100
AcDbLine
 62
7
  6
CONTINUOUS
 10
10.240412989
 20
30.319524202
 11
10.240412989
 21
29.9316854165
  0
LINE
  5
49D
100
AcDbEntity
  8
RACCORDO
100
AcDbLine
 62
253
  6
CONTINUOUS
 10
10.5162448729
 20
12.6318867427
 11
10.5162448729
 21
10.4548751154
  0
LINE
  5
49E
100
AcDbEntity
  8
ASSI
100
AcDbLine
 62
253
  6
CONTINUOUS
 10
10.5162448729
 20
12.6318867427
 11
10.5162448729
 21
10.4548751154
  0
LINE
  5
49F
100
AcDbEntity
  8
RACCORDO
100
AcDbLine
 62
253
  6
CONTINUOUS
 10
10.5162448729
 20
-26.8724543391
 11
10.5162448729
 21
-24.6954427119
  0
LINE
  5
4A0
100
AcDbEntity
  8
ASSI
100
AcDbLine
 62
253
  6
CONTINUOUS
 10
10.5162448729
 20
-26.8724543391
 11
10.5162448729
 21
-24.6954427119
  0
LINE
  5
4A1
100
AcDbEntity
  8
RACCORDO
100
AcDbLine
 62
7
  6
CONTINUOUS
 10
10.5723769128
 20
12.7013525797
 11
10.5723769128
 21
10.7216101838
  0
LINE
  5
4A2
100
AcDbEntity
  8
ASSI
100
AcDbLine
 62
7
  6
CONTINUOUS
 10
10.5723769128
 20
12.7013525797
 11
10.5723769128
 21
10.7216101838
  0
LINE
  5
4A3
100
AcDbEntity
  8
RACCORDO
100
AcDbLine
 62
7
  6
CONTINUOUS
 10
10.5723769128
 20
-26.8029885021
 11
10.5723769128
 21
-24.8232461061
  0
LINE
  5
4A4
100
AcDbEntity
  8
ASSI
100
AcDbLine
 62
7
  6
CONTINUOUS
 10
10.5723769128
 20
-26.8029885021
 11
10.5723769128
 21
-24.8232461061
  0
LINE
  5
4A5
100
AcDbEntity
  8
ASSI
100
AcDbLine
 62
7
  6
CONTINUOUS
 10
10.5700520988
 20
-26.8742085541
 11
10.5723766021
 21
-26.802908816
  0
LINE
  5
4A6
100
AcDbEntity
  8
RACCORDO
100
AcDbLine
 62
7
  6
CONTINUOUS
 10
10.5700060359
 20
-26.8749460137
 11
10.5723766073
 21
-26.8029121355
  0
LWPOLYLINE
  5
4A7
100
AcDbEntity
  8
RACCORDO
100
AcDbPolyline
 62
7
  6
CONTINUOUS
 90
7
 70
0
 10
10.5723769124
 20
10.7216122696
 10
10.5710507763
 20
10.6830352307
 10
10.5665459482
 20
10.639201026
 10
10.5587990296
 20
10.5942278379
 10
10.5477632597
 20
10.5483820246
 10
10.5335329694
 20
10.5018539713
 10
10.5162448729
 20
10.4548751154
  0
LWPOLYLINE
  5
4A8
100
AcDbEntity
  8
ASSI
100
AcDbPolyline
 62
7
  6
CONTINUOUS
 90
7
 70
0
 10
10.5723769124
 20
10.7216122696
 10
10.5710507763
 20
10.6830352307
 10
10.5665459482
 20
10.639201026
 10
10.5587990296
 20
10.5942278379
 10
10.5477632597
 20
10.5483820246
 10
10.5335329694
 20
10.5018539713
 10
10.5162448729
 20
10.4548751154
  0
LWPOLYLINE
  5
4A9
100
AcDbEntity
  8
RACCORDO
100
AcDbPolyline
 62
253
  6
CONTINUOUS
 90
6
 70
0
 10
9.9701337693
 20
-27.8479264435
 10
9.9683698379
 20
-27.8767199623
 10
9.9622898212
 20
-27.9025290825
 10
9.9520783839
 20
-27.9245699092
 10
9.938045673
 20
-27.9421730008
 10
9.9212305734
 20
-27.9544767806
  0
LWPOLYLINE
  5
4AA
100
AcDbEntity
  8
ASSI
100
AcDbPolyline
 62
253
  6
CONTINUOUS
 90
6
 70
0
 10
9.9701337693
 20
-27.8479264435
 10
9.9683698379
 20
-27.8767199623
 10
9.9622898212
 20
-27.9025290825
 10
9.9520783839
 20
-27.9245699092
 10
9.938045673
 20
-27.9421730008
 10
9.9212305734
 20
-27.9544767806
  0
LWPOLYLINE
  5
4AB
100
AcDbEntity
  8
ASSI
100
AcDbPolyline
 62
253
  6
CONTINUOUS
 90
6
 70
0
 10
10.5723767993
 20
12.7012460369
 10
10.571775501
 20
12.6936033377
 10
10.5661512866
 20
12.6765963076
 10
10.5547691245
 20
12.6603249028
 10
10.5379672322
 20
12.6452726231
 10
10.5162448729
 20
12.6318867427
  0
LWPOLYLINE
  5
4AC
100
AcDbEntity
  8
RACCORDO
100
AcDbPolyline
 62
253
  6
CONTINUOUS
 90
6
 70
0
 10
10.572376805
 20
12.7012487748
 10
10.571775501
 20
12.6936033377
 10
10.5661512866
 20
12.6765963076
 10
10.5547691245
 20
12.6603249028
 10
10.5379672322
 20
12.6452726231
 10
10.5162448729
 20
12.6318867427
  0
LWPOLYLINE
  5
4AD
100
AcDbEntity
  8
0
100
AcDbPolyline
 62
7
  6
CONTINUOUS
 90
12
 70
0
 10
23.9824040405
 20
13.7035843618
 10
23.9867767417
 20
13.7087819321
 10
23.9905688649
 20
13.7140492534
 10
23.99378041
 20
13.7193863255
 10
23.9964179067
 20
13.7248095458
 10
23.9984748254
 20
13.730302517
 10
23.9999315773
 20
13.7358160473
 10
24.0007825307
 20
13.7413499328
 10
24.0010333173
 20
13.7469043775
 10
24.0006812437
 20
13.7524308015
 10
23.9997213972
 20
13.7579286081
 10
23.9994667916
 20
13.7589862307
  0
LWPOLYLINE
  5
4AE
100
AcDbEntity
  8
0
100
AcDbPolyline
 62
7
  6
CONTINUOUS
 90
34
 70
0
 10
23.9824040405
 20
12.6643538772
 10
23.9616025996
 20
12.6416343162
 10
23.9404644223
 20
12.6190428999
 10
23.9189895086
 20
12.5965796283
 10
23.8971890674
 20
12.5742568185
 10
23.8750518899
 20
12.5520621533
 10
23.8525443495
 20
12.5299586818
 10
23.8296694397
 20
12.5079460376
 10
23.806424167
 20
12.4860245871
 10
23.7827659247
 20
12.4641584783
 10
23.7586868415
 20
12.4423383736
 10
23.7341947887
 20
12.4205736106
 10
23.7092707735
 20
12.3988563504
 10
23.6838928149
 20
12.3771686831
 10
23.6580828939
 20
12.3555285187
 10
23.6318879608
 20
12.3339817477
 10
23.6053105056
 20
12.3125330064
 10
23.5783480382
 20
12.2911776586
 10
23.5510400389
 20
12.2699476859
 10
23.5233963597
 20
12.2488518258
 10
23.4954071486
 20
12.2278813408
 10
23.4670823291
 20
12.207042
 10
23.4384250762
 20
12.1863360796
 10
23.4094322148
 20
12.1657613033
 10
23.3801041438
 20
12.1453166114
 10
23.3504410721
 20
12.1250018773
 10
23.3204427906
 20
12.1048172276
 10
23.2901090713
 20
12.0847619822
 10
23.2594383002
 20
12.064834946
 10
23.2284320913
 20
12.0450373142
 10
23.1970950583
 20
12.0253719917
 10
23.1654287392
 20
12.0058399467
 10
23.133431596
 20
11.986440211
 10
23.1011036288
 20
11.9671727845
  0
LINE
  5
4AF
100
AcDbEntity
  8
DRAFT
100
AcDbLine
 62
7
  6
CONTINUOUS
 10
-20.2285610745
 20
-20.613403604
 11
-20.4676818312
 21
-20.733428917
  0
LWPOLYLINE
  5
4B0
100
AcDbEntity
  8
RACCORDO
100
AcDbPolyline
 62
253
  6
CONTINUOUS
 90
5
 70
0
 10
-37.4519447839
 20
22.9307820957
 10
-37.4893546928
 20
22.9449420553
 10
-37.5255159711
 20
22.950838342
 10
-37.5593302967
 20
22.948291833
 10
-37.5902433805
 20
22.9371289327
  0
LINE
  5
4B1
100
AcDbEntity
  8
DRAFT
100
AcDbLine
 62
7
  6
CONTINUOUS
 10
-20.2764592471
 20
19.2368353259
 11
-10.3769643105
 21
14.2870878576
  0
LINE
  5
4B2
100
AcDbEntity
  8
RACCORDO
100
AcDbLine
 62
7
  6
CONTINUOUS
 10
1.9620490212
 20
8.2094550114
 11
-10.2001876152
 21
14.2905733296
  0
LINE
  5
4B3
100
AcDbEntity
  8
RACCORDO
100
AcDbLine
 62
7
  6
CONTINUOUS
 10
-20.3118145861
 20
19.3463868151
 11
-32.4740512225
 21
25.4275051333
  0
LINE
  5
4B4
100
AcDbEntity
  8
DRAFT
100
AcDbLine
 62
7
  6
CONTINUOUS
 10
0.9720995276
 20
8.7910322986
 11
-0.7603120863
 21
9.6572381056
  0
LINE
  5
4B5
100
AcDbEntity
  8
ASSI
100
AcDbLine
 62
7
  6
CONTINUOUS
 10
0.9720995276
 20
8.7910322986
 11
-0.7603120863
 21
9.6572381056
  0
LINE
  5
4B6
100
AcDbEntity
  8
DRAFT
100
AcDbLine
 62
7
  6
CONTINUOUS
 10
-1.92078668
 20
10.2374754024
 11
-10.9135459916
 21
14.7338550582
  0
LINE
  5
4B7
100
AcDbEntity
  8
ASSI
100
AcDbLine
 62
7
  6
CONTINUOUS
 10
-1.92078668
 20
10.2374754024
 11
-10.9135459916
 21
14.7338550582
  0
LINE
  5
4B8
100
AcDbEntity
  8
DRAFT
100
AcDbLine
 62
7
  6
CONTINUOUS
 10
-12.0740205853
 20
15.314092355
 11
-18.437981616
 21
18.4960728704
  0
LINE
  5
4B9
100
AcDbEntity
  8
ASSI
100
AcDbLine
 62
7
  6
CONTINUOUS
 10
-12.0740205853
 20
15.314092355
 11
-18.437981616
 21
18.4960728704
  0
LINE
  5
4BA
100
AcDbEntity
  8
DRAFT
100
AcDbLine
 62
7
  6
CONTINUOUS
 10
-19.5984562097
 20
19.0763101672
 11
-28.5912155213
 21
23.572689823
  0
LINE
  5
4BB
100
AcDbEntity
  8
ASSI
100
AcDbLine
 62
7
  6
CONTINUOUS
 10
-19.5984562097
 20
19.0763101672
 11
-28.5912155213
 21
23.572689823
  0
LINE
  5
4BC
100
AcDbEntity
  8
DRAFT
100
AcDbLine
 62
7
  6
CONTINUOUS
 10
-29.751690115
 20
24.1529271199
 11
-31.4841017289
 21
25.0191329268
  0
LINE
  5
4BD
100
AcDbEntity
  8
ASSI
100
AcDbLine
 62
7
  6
CONTINUOUS
 10
-29.751690115
 20
24.1529271199
 11
-31.4841017289
 21
25.0191329268
  0
LINE
  5
4BE
100
AcDbEntity
  8
0
100
AcDbLine
 62
7
  6
CONTINUOUS
 10
-8.6091973575
 20
14.1473661661
 11
-3.0937644642
 21
11.3896497195
  0
LINE
  5
4BF
100
AcDbEntity
  8
ASSI
100
AcDbLine
 62
7
  6
CONTINUOUS
 10
-8.6091973575
 20
14.1473661661
 11
-3.0937644642
 21
11.3896497195
  0
LINE
  5
4C0
100
AcDbEntity
  8
0
100
AcDbLine
 62
7
  6
CONTINUOUS
 10
-20.7714339939
 20
20.2284844843
 11
-26.2868668872
 21
22.9862009309
  0
LINE
  5
4C1
100
AcDbEntity
  8
ASSI
100
AcDbLine
 62
7
  6
CONTINUOUS
 10
-20.7714339939
 20
20.2284844843
 11
-26.2868668872
 21
22.9862009309
  0
LINE
  5
4C2
100
AcDbEntity
  8
ASSI
100
AcDbLine
 62
7
  6
CONTINUOUS
 10
-4.5786887047
 20
12.1745028949
 11
-6.7000090483
 21
13.2351630667
  0
LINE
  5
4C3
100
AcDbEntity
  8
ASSI
100
AcDbLine
 62
7
  6
CONTINUOUS
 10
-22.2563582344
 20
21.0133376598
 11
-24.377678578
 21
22.0739978315
  0
LINE
  5
4C4
100
AcDbEntity
  8
RACCORDO
100
AcDbLine
 62
7
  6
CONTINUOUS
 10
-3.0400759327
 20
11.4160188655
 11
-3.7301605673
 21
11.7610611828
  0
LINE
  5
4C5
100
AcDbEntity
  8
RACCORDO
100
AcDbLine
 62
7
  6
CONTINUOUS
 10
-6.6891866918
 20
13.240574245
 11
-7.800731542
 21
13.7963466701
  0
LINE
  5
4C6
100
AcDbEntity
  8
RACCORDO
100
AcDbLine
 62
7
  6
CONTINUOUS
 10
-20.7177454624
 20
20.2548536303
 11
-21.407830097
 21
20.5998959476
  0
LINE
  5
4C7
100
AcDbEntity
  8
RACCORDO
100
AcDbLine
 62
7
  6
CONTINUOUS
 10
-24.3668562214
 20
22.0794090098
 11
-25.4784010717
 21
22.6351814349
  0
LINE
  5
4C8
100
AcDbEntity
  8
RACCORDO
100
AcDbLine
 62
7
  6
CONTINUOUS
 10
-29.6102472163
 20
24.7317247234
 11
-28.5912155213
 21
24.2222088759
  0
LINE
  5
4C9
100
AcDbEntity
  8
ASSI
100
AcDbLine
 62
7
  6
CONTINUOUS
 10
-29.6102472163
 20
24.7317247234
 11
-28.5912155213
 21
24.2222088759
  0
LINE
  5
4CA
100
AcDbEntity
  8
RACCORDO
100
AcDbLine
 62
7
  6
CONTINUOUS
 10
-19.5984562097
 20
19.7258292201
 11
-18.5794245147
 21
19.2163133726
  0
LINE
  5
4CB
100
AcDbEntity
  8
ASSI
100
AcDbLine
 62
7
  6
CONTINUOUS
 10
-19.5984562097
 20
19.7258292201
 11
-18.5794245147
 21
19.2163133726
  0
LINE
  5
4CC
100
AcDbEntity
  8
RACCORDO
100
AcDbLine
 62
7
  6
CONTINUOUS
 10
-0.901754985
 20
10.3774786077
 11
-1.92078668
 21
10.8869944552
  0
LINE
  5
4CD
100
AcDbEntity
  8
ASSI
100
AcDbLine
 62
7
  6
CONTINUOUS
 10
-0.901754985
 20
10.3774786077
 11
-1.92078668
 21
10.8869944552
  0
LINE
  5
4CE
100
AcDbEntity
  8
RACCORDO
100
AcDbLine
 62
7
  6
CONTINUOUS
 10
-10.9135459916
 20
15.383374111
 11
-11.9325776866
 21
15.8928899585
  0
LINE
  5
4CF
100
AcDbEntity
  8
ASSI
100
AcDbLine
 62
7
  6
CONTINUOUS
 10
-10.9135459916
 20
15.383374111
 11
-11.9325776866
 21
15.8928899585
  0
LINE
  5
4D0
100
AcDbEntity
  8
ASSI
100
AcDbLine
 62
7
  6
CONTINUOUS
 10
-4.2958459923
 20
12.3159242512
 11
-6.4171663358
 21
13.3765844229
  0
LINE
  5
4D1
100
AcDbEntity
  8
ASSI
100
AcDbLine
 62
7
  6
CONTINUOUS
 10
-21.9735155219
 20
21.154759016
 11
-24.0948358655
 21
22.2154191878
  0
LINE
  5
4D2
100
AcDbEntity
  8
RACCORDO
100
AcDbLine
 62
7
  6
CONTINUOUS
 10
2.1742025948
 20
9.4890188707
 11
1.1134993447
 21
10.0193704957
  0
LINE
  5
4D3
100
AcDbEntity
  8
ASSI
100
AcDbLine
 62
7
  6
CONTINUOUS
 10
2.1742025948
 20
9.4890188707
 11
1.1134993447
 21
10.0193704957
  0
LINE
  5
4D4
100
AcDbEntity
  8
RACCORDO
100
AcDbLine
 62
7
  6
CONTINUOUS
 10
-31.625501546
 20
26.388870941
 11
-32.6862047961
 21
26.9192225661
  0
LINE
  5
4D5
100
AcDbEntity
  8
ASSI
100
AcDbLine
 62
7
  6
CONTINUOUS
 10
-31.625501546
 20
26.388870941
 11
-32.6862047961
 21
26.9192225661
  0
LINE
  5
4D6
100
AcDbEntity
  8
DRAFT
100
AcDbLine
 62
7
  6
CONTINUOUS
 10
1.1843530945
 20
10.0991190775
 11
0.6292162865
 21
10.3766874815
  0
LINE
  5
4D7
100
AcDbEntity
  8
ASSI
100
AcDbLine
 62
7
  6
CONTINUOUS
 10
1.1843530945
 20
10.0991190775
 11
0.6292162865
 21
10.3766874815
  0
LINE
  5
4D8
100
AcDbEntity
  8
DRAFT
100
AcDbLine
 62
7
  6
CONTINUOUS
 10
-11.2042772126
 20
16.2934342311
 11
-17.0484532432
 21
19.2155222463
  0
LINE
  5
4D9
100
AcDbEntity
  8
ASSI
100
AcDbLine
 62
7
  6
CONTINUOUS
 10
-11.2042772126
 20
16.2934342311
 11
-17.0484532432
 21
19.2155222463
  0
LINE
  5
4DA
100
AcDbEntity
  8
DRAFT
100
AcDbLine
 62
7
  6
CONTINUOUS
 10
-28.8819467423
 20
25.1322689959
 11
-30.0945733561
 21
25.7385823028
  0
LINE
  5
4DB
100
AcDbEntity
  8
ASSI
100
AcDbLine
 62
7
  6
CONTINUOUS
 10
-28.8819467423
 20
25.1322689959
 11
-30.0945733561
 21
25.7385823028
  0
LINE
  5
4DC
100
AcDbEntity
  8
0
100
AcDbLine
 62
7
  6
CONTINUOUS
 10
-4.5600399712
 20
13.0776002938
 11
-6.6813603148
 21
14.1382604655
  0
LINE
  5
4DD
100
AcDbEntity
  8
0
100
AcDbLine
 62
7
  6
CONTINUOUS
 10
-22.2377095009
 20
21.9164350586
 11
-24.3590298444
 21
22.9770952304
  0
LINE
  5
4DE
100
AcDbEntity
  8
0
100
AcDbLine
 62
7
  6
CONTINUOUS
 10
-27.5422449954
 20
24.6107694404
 11
-24.3602644801
 21
23.0197791827
  0
LINE
  5
4DF
100
AcDbEntity
  8
0
100
AcDbLine
 62
7
  6
CONTINUOUS
 10
-9.8645754658
 20
15.7719346756
 11
-6.6825949504
 21
14.1809444179
  0
LINE
  5
4E0
100
AcDbEntity
  8
0
100
AcDbLine
 62
7
  6
CONTINUOUS
 10
-1.3792940915
 20
11.5292939884
 11
-4.5612746069
 21
13.1202842461
  0
LINE
  5
4E1
100
AcDbEntity
  8
0
100
AcDbLine
 62
7
  6
CONTINUOUS
 10
-19.0569636212
 20
20.3681287533
 11
-22.2389441365
 21
21.959119011
  0
LINE
  5
4E2
100
AcDbEntity
  8
0
100
AcDbLine
 62
253
  6
CONTINUOUS
 10
-1.3964928142
 20
12.1238900247
 11
-9.8817741885
 21
16.3665307118
  0
LINE
  5
4E3
100
AcDbEntity
  8
0
100
AcDbLine
 62
253
  6
CONTINUOUS
 10
-19.0741623439
 20
20.9627247895
 11
-27.5594437181
 21
25.2053654766
  0
LINE
  5
4E4
100
AcDbEntity
  8
0
100
AcDbLine
 62
253
  6
CONTINUOUS
 10
-1.0431547988
 20
12.7486836596
 11
-9.528436173
 21
16.9913243468
  0
LINE
  5
4E5
100
AcDbEntity
  8
0
100
AcDbLine
 62
253
  6
CONTINUOUS
 10
-18.7208243285
 20
21.5875184245
 11
-27.2061057027
 21
25.8301591116
  0
LINE
  5
4E6
100
AcDbEntity
  8
0
100
AcDbLine
 62
253
  6
CONTINUOUS
 10
-0.4332687042
 20
13.053626707
 11
-8.9185500784
 21
17.2962673941
  0
LINE
  5
4E7
100
AcDbEntity
  8
0
100
AcDbLine
 62
253
  6
CONTINUOUS
 10
-18.1109382338
 20
21.8924614718
 11
-26.5962196081
 21
26.1351021589
  0
LINE
  5
4E8
100
AcDbEntity
  8
0
100
AcDbLine
 62
253
  6
CONTINUOUS
 10
-0.3567457448
 20
13.0816240566
 11
-8.842027119
 21
17.3242647438
  0
LINE
  5
4E9
100
AcDbEntity
  8
0
100
AcDbLine
 62
253
  6
CONTINUOUS
 10
-18.0344152745
 20
21.9204588215
 11
-26.5196966487
 21
26.1630995086
  0
LINE
  5
4EA
100
AcDbEntity
  8
RACCORDO
100
AcDbLine
 62
7
  6
CONTINUOUS
 10
-1.3967081894
 20
13.7197058859
 11
-3.4473178548
 21
14.7450107186
  0
LINE
  5
4EB
100
AcDbEntity
  8
RACCORDO
100
AcDbLine
 62
7
  6
CONTINUOUS
 10
-5.4272168422
 20
15.7349602123
 11
-7.4778265076
 21
16.760265045
  0
LINE
  5
4EC
100
AcDbEntity
  8
RACCORDO
100
AcDbLine
 62
7
  6
CONTINUOUS
 10
-19.0743777191
 20
22.5585406508
 11
-21.1249873845
 21
23.5838454835
  0
LINE
  5
4ED
100
AcDbEntity
  8
RACCORDO
100
AcDbLine
 62
7
  6
CONTINUOUS
 10
-23.1048863718
 20
24.5737949771
 11
-25.1554960373
 21
25.5990998099
  0
LWPOLYLINE
  5
4EE
100
AcDbEntity
  8
RACCORDO
100
AcDbPolyline
 62
7
  6
CONTINUOUS
 90
49
 70
0
 10
1.9620490212
 20
8.2094550114
 10
1.9735786756
 20
8.2034628149
 10
1.9850921044
 20
8.1970156522
 10
1.9965893076
 20
8.1901135231
 10
2.0080899146
 20
8.1827442519
 10
2.0195742961
 20
8.1749200143
 10
2.0309835637
 20
8.1666773379
 10
2.0423150955
 20
8.1580135478
 10
2.0535715134
 20
8.1489313188
 10
2.064701794
 20
8.1394752024
 10
2.0756940675
 20
8.1296543089
 10
2.0865602037
 20
8.119459528
 10
2.0972847886
 20
8.1089080806
 10
2.107869292
 20
8.098000045
 10
2.1183122441
 20
8.0867353429
 10
2.1285938212
 20
8.0751309604
 10
2.138724373
 20
8.0631729273
 10
2.1486935499
 20
8.0508752137
 10
2.1584504796
 20
8.0382967159
 10
2.1679925568
 20
8.0254353127
 10
2.1773223869
 20
8.0122931252
 10
2.1863969139
 20
7.9989354135
 10
2.1952054275
 20
7.9853764941
 10
2.203758638
 20
7.9716020504
 10
2.2120456202
 20
7.9576343933
 10
2.2200673864
 20
7.9434741103
 10
2.2278229242
 20
7.9291206138
 10
2.2352982706
 20
7.9145944516
 10
2.2425007356
 20
7.8998787849
 10
2.2494230092
 20
7.8849904526
 10
2.2560291979
 20
7.870000519
 10
2.2623163899
 20
7.8549074411
 10
2.2682874969
 20
7.839712762
 10
2.2739153612
 20
7.8244921755
 10
2.2791928001
 20
7.8092620686
 10
2.2841269962
 20
7.7940060543
 10
2.2887123399
 20
7.7787506644
 10
2.2929495927
 20
7.7634971095
 10
2.296837993
 20
7.7482441791
 10
2.3003696472
 20
7.7330147732
 10
2.3035471498
 20
7.7177928899
 10
2.3063679062
 20
7.702594531
 10
2.3088162381
 20
7.6874906021
 10
2.3108888289
 20
7.6724797847
 10
2.3125889953
 20
7.6575633971
 10
2.3139110096
 20
7.6428163002
 10
2.3148529625
 20
7.6282634476
 10
2.3154167632
 20
7.6138798856
 10
2.3156024118
 20
7.5996656142
  0
LWPOLYLINE
  5
4EF
100
AcDbEntity
  8
RACCORDO
100
AcDbPolyline
 62
7
  6
CONTINUOUS
 90
14
 70
0
 10
-25.1554960373
 20
25.5990998099
 10
-25.1645043894
 20
25.6038269747
 10
-25.1728167156
 20
25.6086273476
 10
-25.180433016
 20
25.6135009285
 10
-25.1873798678
 20
25.6184691526
 10
-25.1936306938
 20
25.6235105847
 10
-25.1991057624
 20
25.6285609196
 10
-25.2037951365
 20
25.6336202715
 10
-25.2077087533
 20
25.6386885261
 10
-25.2107966932
 20
25.6437010362
 10
-25.2130483796
 20
25.6486570878
 10
-25.2144743891
 20
25.6535573948
 10
-25.2150565326
 20
25.6583394521
 10
-25.2147214881
 20
25.663394802
  0
LWPOLYLINE
  5
4F0
100
AcDbEntity
  8
RACCORDO
100
AcDbPolyline
 62
7
  6
CONTINUOUS
 90
14
 70
0
 10
-21.1249873845
 20
23.5838454835
 10
-21.1339957366
 20
23.5885726483
 10
-21.1423080628
 20
23.5933730212
 10
-21.1499243633
 20
23.5982466021
 10
-21.1568712151
 20
23.6032148262
 10
-21.163122041
 20
23.6082562583
 10
-21.1685971097
 20
23.6133065933
 10
-21.1732864837
 20
23.6183659451
 10
-21.1772001005
 20
23.6234341997
 10
-21.1802880405
 20
23.6284467099
 10
-21.1825397268
 20
23.6334027614
 10
-21.1839657364
 20
23.6383030684
 10
-21.1845478798
 20
23.6430851257
 10
-21.1842128353
 20
23.6481404756
  0
LWPOLYLINE
  5
4F1
100
AcDbEntity
  8
RACCORDO
100
AcDbPolyline
 62
7
  6
CONTINUOUS
 90
14
 70
0
 10
-7.4778265076
 20
16.760265045
 10
-7.4868348597
 20
16.7649922099
 10
-7.4951471859
 20
16.7697925827
 10
-7.5027634864
 20
16.7746661637
 10
-7.5097103382
 20
16.7796343877
 10
-7.5159611641
 20
16.7846758199
 10
-7.5214362328
 20
16.7897261548
 10
-7.5261256068
 20
16.7947855066
 10
-7.5300392236
 20
16.7998537613
 10
-7.5331271636
 20
16.8048662714
 10
-7.5353788499
 20
16.8098223229
 10
-7.5368048595
 20
16.8147226299
 10
-7.5373870029
 20
16.8195046873
 10
-7.5370519584
 20
16.8245600371
  0
LWPOLYLINE
  5
4F2
100
AcDbEntity
  8
RACCORDO
100
AcDbPolyline
 62
7
  6
CONTINUOUS
 90
14
 70
0
 10
-3.4473178548
 20
14.7450107186
 10
-3.4563262069
 20
14.7497378835
 10
-3.4646385332
 20
14.7545382564
 10
-3.4722548336
 20
14.7594118373
 10
-3.4792016854
 20
14.7643800614
 10
-3.4854525113
 20
14.7694214935
 10
-3.49092758
 20
14.7744718284
 10
-3.4956169541
 20
14.7795311803
 10
-3.4995305709
 20
14.7845994349
 10
-3.5026185108
 20
14.789611945
 10
-3.5048701972
 20
14.7945679965
 10
-3.5062962067
 20
14.7994683035
 10
-3.5068783501
 20
14.8042503609
 10
-3.5065433057
 20
14.8093057108
  0
LWPOLYLINE
  5
4F3
100
AcDbEntity
  8
0
100
AcDbPolyline
 62
7
  6
CONTINUOUS
 90
9
 70
0
 10
4.5325212725
 20
15.0619380616
 10
4.5191863877
 20
15.0909873934
 10
4.5014449531
 20
15.1224243502
 10
4.4816721428
 20
15.1511682099
 10
4.4598417101
 20
15.1771841935
 10
4.4359799015
 20
15.20050708
 10
4.4103947366
 20
15.2208351992
 10
4.3830599469
 20
15.238129874
 10
4.3704155894
 20
15.2448258718
  0
LWPOLYLINE
  5
4F4
100
AcDbEntity
  8
RACCORDO
100
AcDbPolyline
 62
253
  6
CONTINUOUS
 90
8
 70
0
 10
7.3996630437
 20
13.9257894598
 10
7.4102468729
 20
13.8956451449
 10
7.4191249068
 20
13.8653026346
 10
7.4262057406
 20
13.8348953793
 10
7.431580779
 20
13.8042899287
 10
7.4356416035
 20
13.7741092383
 10
7.4385187412
 20
13.7445609602
 10
7.4400816649
 20
13.7154374425
  0
LWPOLYLINE
  5
4F5
100
AcDbEntity
  8
ASSI
100
AcDbPolyline
 62
253
  6
CONTINUOUS
 90
8
 70
0
 10
7.3996630437
 20
13.9257894598
 10
7.4102468729
 20
13.8956451449
 10
7.4191249068
 20
13.8653026346
 10
7.4262057406
 20
13.8348953793
 10
7.431580779
 20
13.8042899287
 10
7.4356416035
 20
13.7741092383
 10
7.4385187412
 20
13.7445609602
 10
7.4400816649
 20
13.7154374425
  0
LWPOLYLINE
  5
4F6
100
AcDbEntity
  8
RACCORDO
100
AcDbPolyline
 62
7
  6
CONTINUOUS
 90
10
 70
0
 10
10.570330251
 20
12.7664312208
 10
10.5614832144
 20
12.8485026261
 10
10.5456549806
 20
12.9266612898
 10
10.5229187811
 20
13.0002329819
 10
10.4936027024
 20
13.0682234992
 10
10.4581238939
 20
13.130000865
 10
10.4166989224
 20
13.1854224954
 10
10.369603084
 20
13.2341671562
 10
10.3173631088
 20
13.2757023708
 10
10.2579571725
 20
13.3109077527
  0
LWPOLYLINE
  5
4F7
100
AcDbEntity
  8
ASSI
100
AcDbPolyline
 62
7
  6
CONTINUOUS
 90
10
 70
0
 10
10.5705669912
 20
12.7626030893
 10
10.5620101386
 20
12.8450317828
 10
10.546431596
 20
12.9235785479
 10
10.5238979801
 20
12.997554596
 10
10.4947366702
 20
13.0659435497
 10
10.4593623795
 20
13.1281058198
 10
10.4179896016
 20
13.1838980981
 10
10.3708962861
 20
13.2329878432
 10
10.3186107308
 20
13.2748367758
 10
10.2579726982
 20
13.3108999623
  0
LINE
  5
4F8
100
AcDbEntity
  8
ASSI
100
AcDbLine
 62
7
  6
CONTINUOUS
 10
10.5591952981
 20
-26.9752964862
 11
10.5700520988
 21
-26.8742085541
  0
LINE
  5
4F9
100
AcDbEntity
  8
RACCORDO
100
AcDbLine
 62
7
  6
CONTINUOUS
 10
10.5591560632
 20
-26.9755589717
 11
10.5700060359
 21
-26.8749460137
  0
LWPOLYLINE
  5
4FA
100
AcDbEntity
  8
RACCORDO
100
AcDbPolyline
 62
253
  6
CONTINUOUS
 90
5
 70
0
 10
10.5082446728
 20
-26.9933171078
 10
10.5119835311
 20
-26.9602840377
 10
10.5146279397
 20
-26.9291702675
 10
10.5160483869
 20
-26.8998937013
 10
10.5162448729
 20
-26.8724543391
  0
LWPOLYLINE
  5
4FB
100
AcDbEntity
  8
ASSI
100
AcDbPolyline
 62
253
  6
CONTINUOUS
 90
5
 70
0
 10
10.5082446728
 20
-26.9933171078
 10
10.5119835311
 20
-26.9602840377
 10
10.5146279397
 20
-26.9291702675
 10
10.5160483869
 20
-26.8998937013
 10
10.5162448729
 20
-26.8724543391
  0
LINE
  5
4FC
100
AcDbEntity
  8
DRAFT
100
AcDbLine
 62
7
  6
CONTINUOUS
 10
-20.1384727534
 20
-23.6318583493
 11
-20.4676818312
 21
-23.7901265722
  0
LINE
  5
4FD
100
AcDbEntity
  8
0
100
AcDbLine
 62
7
  6
CONTINUOUS
 10
-0.4179641123
 20
12.7128160154
 11
3.2037722324
 21
13.5403125045
  0
LINE
  5
4FE
100
AcDbEntity
  8
0
100
AcDbLine
 62
7
  6
CONTINUOUS
 10
-0.3567457448
 20
13.0816240566
 11
4.2601460601
 21
14.1364942613
  0
LINE
  5
4FF
100
AcDbEntity
  8
RACCORDO
100
AcDbLine
 62
7
  6
CONTINUOUS
 10
0.8847843008
 20
14.1379599422
 11
-1.1172177277
 21
13.6805413197
  0
LINE
  5
500
100
AcDbEntity
  8
RACCORDO
100
AcDbLine
 62
7
  6
CONTINUOUS
 10
4.1350954217
 20
15.2669281523
 11
3.0637663133
 21
15.022150236
  0
LINE
  5
501
100
AcDbEntity
  8
RACCORDO
100
AcDbLine
 62
7
  6
CONTINUOUS
 10
2.9065632569
 20
14.9862323876
 11
2.8072249078
 21
14.9635355021
  0
LINE
  5
502
100
AcDbEntity
  8
RACCORDO
100
AcDbLine
 62
7
  6
CONTINUOUS
 10
-3.1016695039
 20
14.5721865432
 11
-1.5098864446
 21
14.9358780899
  0
LINE
  5
503
100
AcDbEntity
  8
RACCORDO
100
AcDbLine
 62
7
  6
CONTINUOUS
 10
-3.4506701057
 20
14.8472675087
 11
-1.4486680771
 21
15.3046861312
  0
LWPOLYLINE
  5
504
100
AcDbEntity
  8
RACCORDO
100
AcDbPolyline
 62
7
  6
CONTINUOUS
 90
25
 70
0
 10
-1.1172177277
 20
13.6805413197
 10
-1.1266249245
 20
13.6786203606
 10
-1.1365093638
 20
13.6770218088
 10
-1.1468710457
 20
13.6757456644
 10
-1.1577582894
 20
13.6747892316
 10
-1.1691227758
 20
13.6741552061
 10
-1.1808195467
 20
13.6738516752
 10
-1.1928528586
 20
13.6738828724
 10
-1.2052184552
 20
13.6742445642
 10
-1.2177586088
 20
13.674932137
 10
-1.2304755556
 20
13.6759497653
 10
-1.2433670594
 20
13.6772932747
 10
-1.2562686847
 20
13.6789455282
 10
-1.2691805611
 20
13.6809104807
 10
-1.282102559
 20
13.6831841774
 10
-1.2948698537
 20
13.6857376165
 10
-1.3074804636
 20
13.6885743813
 10
-1.3199363703
 20
13.6916908884
 10
-1.3320786945
 20
13.6950473857
 10
-1.3439034192
 20
13.6986469474
 10
-1.3554145614
 20
13.7024864994
 10
-1.3664652923
 20
13.7065170666
 10
-1.3770066692
 20
13.7107223244
 10
-1.3870876349
 20
13.7151185975
 10
-1.3967081894
 20
13.7197058859
  0
LWPOLYLINE
  5
505
100
AcDbEntity
  8
RACCORDO
100
AcDbPolyline
 62
7
  6
CONTINUOUS
 90
25
 70
0
 10
-1.4486680771
 20
15.3046861312
 10
-1.4392608804
 20
15.3066070903
 10
-1.4293764411
 20
15.308205642
 10
-1.4190147592
 20
15.3094817864
 10
-1.4081275154
 20
15.3104382193
 10
-1.3967630291
 20
15.3110722447
 10
-1.3850662582
 20
15.3113757757
 10
-1.3730329462
 20
15.3113445785
 10
-1.3606673497
 20
15.3109828867
 10
-1.3481271961
 20
15.3102953139
 10
-1.3354102493
 20
15.3092776856
 10
-1.3225187455
 20
15.3079341762
 10
-1.3096171202
 20
15.3062819227
 10
-1.2967052438
 20
15.3043169701
 10
-1.2837832459
 20
15.3020432734
 10
-1.2710159512
 20
15.2994898344
 10
-1.2584053413
 20
15.2966530696
 10
-1.2459494345
 20
15.2935365625
 10
-1.2338071103
 20
15.2901800652
 10
-1.2219823856
 20
15.2865805034
 10
-1.2104712435
 20
15.2827409515
 10
-1.1994205126
 20
15.2787103842
 10
-1.1888791357
 20
15.2745051265
 10
-1.17879817
 20
15.2701088534
 10
-1.1691776155
 20
15.2655215649
  0
LWPOLYLINE
  5
506
100
AcDbEntity
  8
ASSI
100
AcDbPolyline
 62
7
  6
CONTINUOUS
 90
3
 70
0
 10
9.1704997871
 20
13.7503194984
 10
9.090158007
 20
13.7355963435
 10
9.0091555242
 20
13.7104335812
  0
LWPOLYLINE
  5
507
100
AcDbEntity
  8
RACCORDO
100
AcDbPolyline
 62
7
  6
CONTINUOUS
 90
3
 70
0
 10
9.1727762806
 20
13.7505858233
 10
9.0929092436
 20
13.7362700167
 10
9.0123586456
 20
13.7116239481
  0
LWPOLYLINE
  5
508
100
AcDbEntity
  8
RACCORDO
100
AcDbPolyline
 62
7
  6
CONTINUOUS
 90
12
 70
0
 10
-3.8937702482
 20
11.7896526114
 10
-3.8888706418
 20
11.7899726823
 10
-3.8715128632
 20
11.7903504987
 10
-3.8541620136
 20
11.7899676287
 10
-3.8368166085
 20
11.7888283082
 10
-3.819798839
 20
11.7869405043
 10
-3.8030330051
 20
11.7842642904
 10
-3.7865948068
 20
11.7808395931
 10
-3.7710335348
 20
11.776794159
 10
-3.756532286
 20
11.7721705704
 10
-3.7429079635
 20
11.7669262449
 10
-3.7301605673
 20
11.7610611828
  0
LINE
  5
509
100
AcDbEntity
  8
RACCORDO
100
AcDbLine
 62
7
  6
CONTINUOUS
 10
4.1894914982
 20
15.0776762232
 11
2.9703075298
 21
15.0175404154
  0
LINE
  5
50A
100
AcDbEntity
  8
ASSI
100
AcDbLine
 62
7
  6
CONTINUOUS
 10
4.1894914982
 20
15.0776762232
 11
2.9703075298
 21
15.0175404154
  0
LWPOLYLINE
  5
50B
100
AcDbEntity
  8
0
100
AcDbPolyline
 62
7
  6
CONTINUOUS
 90
7
 70
0
 10
4.224790721
 20
15.2776397159
 10
4.2102361071
 20
15.2772929494
 10
4.1955236521
 20
15.2763707853
 10
4.180653356
 20
15.2748732235
 10
4.165625219
 20
15.2728002641
 10
4.1504392408
 20
15.270151907
 10
4.1350954217
 20
15.2669281523
  0
LWPOLYLINE
  5
50C
100
AcDbEntity
  8
RACCORDO
100
AcDbPolyline
 62
7
  6
CONTINUOUS
 90
25
 70
0
 10
-1.230395983
 20
14.8967135237
 10
-1.2400165375
 20
14.9013008121
 10
-1.2500975032
 20
14.9056970852
 10
-1.26063888
 20
14.9099023429
 10
-1.271689611
 20
14.9139329102
 10
-1.2832007531
 20
14.9177724622
 10
-1.2950254778
 20
14.9213720239
 10
-1.307167802
 20
14.9247285212
 10
-1.3196237088
 20
14.9278450283
 10
-1.3322343187
 20
14.9306817931
 10
-1.3450016134
 20
14.9332352322
 10
-1.3579236113
 20
14.9355089288
 10
-1.3708354877
 20
14.9374738814
 10
-1.383737113
 20
14.9391261349
 10
-1.3966286168
 20
14.9404696443
 10
-1.4093455636
 20
14.9414872726
 10
-1.4218857172
 20
14.9421748454
 10
-1.4342513137
 20
14.9425365372
 10
-1.4462846257
 20
14.9425677344
 10
-1.4579813966
 20
14.9422642035
 10
-1.4693458829
 20
14.941630178
 10
-1.4802331267
 20
14.9406737452
 10
-1.4905948086
 20
14.9393976008
 10
-1.5004792479
 20
14.937799049
 10
-1.5098864446
 20
14.9358780899
  0
LWPOLYLINE
  5
50D
100
AcDbEntity
  8
RACCORDO
100
AcDbPolyline
 62
7
  6
CONTINUOUS
 90
25
 70
0
 10
-5.2609046357
 20
16.9119678501
 10
-5.2705251902
 20
16.9165551385
 10
-5.2806061559
 20
16.9209514116
 10
-5.2911475328
 20
16.9251566693
 10
-5.3021982638
 20
16.9291872366
 10
-5.3137094059
 20
16.9330267885
 10
-5.3255341306
 20
16.9366263503
 10
-5.3376764548
 20
16.9399828476
 10
-5.3501323616
 20
16.9430993547
 10
-5.3627429714
 20
16.9459361195
 10
-5.3755102662
 20
16.9484895585
 10
-5.388432264
 20
16.9507632552
 10
-5.4013441404
 20
16.9527282078
 10
-5.4142457657
 20
16.9543804613
 10
-5.4271372696
 20
16.9557239707
 10
-5.4398542163
 20
16.956741599
 10
-5.45239437
 20
16.9574291718
 10
-5.4647599665
 20
16.9577908636
 10
-5.4767932785
 20
16.9578220608
 10
-5.4884900494
 20
16.9575185299
 10
-5.4998545357
 20
16.9568845044
 10
-5.5107417794
 20
16.9559280716
 10
-5.5211034613
 20
16.9546519271
 10
-5.5309879006
 20
16.9530533754
 10
-5.5403950974
 20
16.9511324163
  0
LWPOLYLINE
  5
50E
100
AcDbEntity
  8
RACCORDO
100
AcDbPolyline
 62
7
  6
CONTINUOUS
 90
25
 70
0
 10
-18.9080655126
 20
23.7355482885
 10
-18.9176860671
 20
23.740135577
 10
-18.9277670328
 20
23.7445318501
 10
-18.9383084097
 20
23.7487371078
 10
-18.9493591407
 20
23.7527676751
 10
-18.9608702828
 20
23.756607227
 10
-18.9726950075
 20
23.7602067887
 10
-18.9848373317
 20
23.763563286
 10
-18.9972932385
 20
23.7666797932
 10
-19.0099038483
 20
23.769516558
 10
-19.0226711431
 20
23.772069997
 10
-19.0355931409
 20
23.7743436937
 10
-19.0485050173
 20
23.7763086463
 10
-19.0614066426
 20
23.7779608998
 10
-19.0742981465
 20
23.7793044091
 10
-19.0870150932
 20
23.7803220375
 10
-19.0995552469
 20
23.7810096103
 10
-19.1119208434
 20
23.781371302
 10
-19.1239541554
 20
23.7814024992
 10
-19.1356509263
 20
23.7810989683
 10
-19.1470154126
 20
23.7804649428
 10
-19.1579026563
 20
23.77950851
 10
-19.1682643382
 20
23.7782323656
 10
-19.1781487775
 20
23.7766338138
 10
-19.1875559743
 20
23.7747128547
  0
LWPOLYLINE
  5
50F
100
AcDbEntity
  8
RACCORDO
100
AcDbPolyline
 62
7
  6
CONTINUOUS
 90
25
 70
0
 10
-22.9385741654
 20
25.7508026149
 10
-22.9481947199
 20
25.7553899034
 10
-22.9582756856
 20
25.7597861764
 10
-22.9688170625
 20
25.7639914342
 10
-22.9798677934
 20
25.7680220015
 10
-22.9913789356
 20
25.7718615534
 10
-23.0032036603
 20
25.7754611151
 10
-23.0153459845
 20
25.7788176124
 10
-23.0278018912
 20
25.7819341195
 10
-23.0404125011
 20
25.7847708843
 10
-23.0531797958
 20
25.7873243234
 10
-23.0661017937
 20
25.7895980201
 10
-23.0790136701
 20
25.7915629726
 10
-23.0919152954
 20
25.7932152261
 10
-23.1048067992
 20
25.7945587355
 10
-23.117523746
 20
25.7955763639
 10
-23.1300638996
 20
25.7962639367
 10
-23.1424294962
 20
25.7966256284
 10
-23.1544628081
 20
25.7966568256
 10
-23.166159579
 20
25.7963532947
 10
-23.1775240653
 20
25.7957192692
 10
-23.1884113091
 20
25.7947628364
 10
-23.198772991
 20
25.793486692
 10
-23.2086574303
 20
25.7918881402
 10
-23.218064627
 20
25.7899671811
  0
LINE
  5
510
100
AcDbEntity
  8
RACCORDO
100
AcDbLine
 62
7
  6
CONTINUOUS
 10
-22.9385741654
 20
25.7508026149
 11
-21.2336128509
 21
24.8983219576
  0
LINE
  5
511
100
AcDbEntity
  8
RACCORDO
100
AcDbLine
 62
7
  6
CONTINUOUS
 10
-18.9080655126
 20
23.7355482885
 11
-17.2031041981
 21
22.8830676313
  0
LINE
  5
512
100
AcDbEntity
  8
RACCORDO
100
AcDbLine
 62
7
  6
CONTINUOUS
 10
-5.2609046357
 20
16.9119678501
 11
-3.5559433212
 21
16.0594871928
  0
LINE
  5
513
100
AcDbEntity
  8
RACCORDO
100
AcDbLine
 62
7
  6
CONTINUOUS
 10
-1.230395983
 20
14.8967135237
 11
0.4745653315
 21
14.0442328664
  0
LINE
  5
514
100
AcDbEntity
  8
RACCORDO
100
AcDbLine
 62
7
  6
CONTINUOUS
 10
20.6348826725
 20
4.2962510455
 11
21.3782476061
 21
3.9245685787
  0
LINE
  5
515
100
AcDbEntity
  8
ASSI
100
AcDbLine
 62
7
  6
CONTINUOUS
 10
20.6348826725
 20
4.2962510455
 11
21.3782476061
 21
3.9245685787
  0
LINE
  5
516
100
AcDbEntity
  8
RACCORDO
100
AcDbLine
 62
7
  6
CONTINUOUS
 10
-22.8773557979
 20
26.1196106562
 11
-20.8267461325
 21
25.0943058234
  0
LINE
  5
517
100
AcDbEntity
  8
RACCORDO
100
AcDbLine
 62
7
  6
CONTINUOUS
 10
-18.8468471451
 20
24.1043563298
 11
-16.7962374797
 21
23.079051497
  0
LINE
  5
518
100
AcDbEntity
  8
RACCORDO
100
AcDbLine
 62
7
  6
CONTINUOUS
 10
-5.1996862682
 20
17.2807758913
 11
-3.1490766028
 21
16.2554710586
  0
LINE
  5
519
100
AcDbEntity
  8
RACCORDO
100
AcDbLine
 62
7
  6
CONTINUOUS
 10
-1.1691776155
 20
15.2655215649
 11
0.88143205
 21
14.2402167322
  0
LINE
  5
51A
100
AcDbEntity
  8
RACCORDO
100
AcDbLine
 62
7
  6
CONTINUOUS
 10
-21.9028048438
 20
27.2179697133
 11
-20.4532359424
 21
26.4931852626
  0
LINE
  5
51B
100
AcDbEntity
  8
RACCORDO
100
AcDbLine
 62
7
  6
CONTINUOUS
 10
-4.2251353141
 20
18.3791349485
 11
-2.7755664127
 21
17.6543504977
  0
LINE
  5
51C
100
AcDbEntity
  8
RACCORDO
100
AcDbLine
 62
7
  6
CONTINUOUS
 10
4.2601460601
 20
14.1364942613
 11
2.8105771587
 21
14.8612787121
  0
LINE
  5
51D
100
AcDbEntity
  8
RACCORDO
100
AcDbLine
 62
7
  6
CONTINUOUS
 10
-13.4175234696
 20
22.9753290262
 11
-14.867092371
 21
23.7001134769
  0
LINE
  5
51E
100
AcDbEntity
  8
DRAFT
100
AcDbLine
 62
7
  6
CONTINUOUS
 10
-4.3665566704
 20
18.5445511592
 11
-2.7926127369
 21
17.7575791925
  0
LINE
  5
51F
100
AcDbEntity
  8
ASSI
100
AcDbLine
 62
7
  6
CONTINUOUS
 10
-4.3665566704
 20
18.5445511592
 11
-2.7926127369
 21
17.7575791925
  0
LINE
  5
520
100
AcDbEntity
  8
DRAFT
100
AcDbLine
 62
7
  6
CONTINUOUS
 10
2.8276234829
 20
14.9474610826
 11
4.4015674163
 21
14.1604891159
  0
LINE
  5
521
100
AcDbEntity
  8
ASSI
100
AcDbLine
 62
7
  6
CONTINUOUS
 10
2.8276234829
 20
14.9474610826
 11
4.4015674163
 21
14.1604891159
  0
LINE
  5
522
100
AcDbEntity
  8
DRAFT
100
AcDbLine
 62
7
  6
CONTINUOUS
 10
-13.2761021133
 20
22.9993238807
 11
-14.8500460468
 21
23.7862958474
  0
LINE
  5
523
100
AcDbEntity
  8
ASSI
100
AcDbLine
 62
7
  6
CONTINUOUS
 10
-13.2761021133
 20
22.9993238807
 11
-14.8500460468
 21
23.7862958474
  0
LINE
  5
524
100
AcDbEntity
  8
DRAFT
100
AcDbLine
 62
7
  6
CONTINUOUS
 10
-20.4702822666
 20
26.5964139573
 11
-22.0442262
 21
27.383385924
  0
LINE
  5
525
100
AcDbEntity
  8
ASSI
100
AcDbLine
 62
7
  6
CONTINUOUS
 10
-20.4702822666
 20
26.5964139573
 11
-22.0442262
 21
27.383385924
  0
LINE
  5
526
100
AcDbEntity
  8
0
100
AcDbLine
 62
7
  6
CONTINUOUS
 10
-21.9028048438
 20
27.4540966022
 11
-20.330123601
 21
26.6677559808
  0
LINE
  5
527
100
AcDbEntity
  8
ASSI
100
AcDbLine
 62
7
  6
CONTINUOUS
 10
-21.9028048438
 20
27.4540966022
 11
-20.330123601
 21
26.6677559808
  0
LINE
  5
528
100
AcDbEntity
  8
0
100
AcDbLine
 62
7
  6
CONTINUOUS
 10
-14.7073619999
 20
23.8563751802
 11
-13.1346807571
 21
23.0700345588
  0
LINE
  5
529
100
AcDbEntity
  8
ASSI
100
AcDbLine
 62
7
  6
CONTINUOUS
 10
-14.7073619999
 20
23.8563751802
 11
-13.1346807571
 21
23.0700345588
  0
LINE
  5
52A
100
AcDbEntity
  8
0
100
AcDbLine
 62
7
  6
CONTINUOUS
 10
4.5429887726
 20
14.231199794
 11
2.9703075298
 21
15.0175404154
  0
LINE
  5
52B
100
AcDbEntity
  8
ASSI
100
AcDbLine
 62
7
  6
CONTINUOUS
 10
4.5429887726
 20
14.231199794
 11
2.9703075298
 21
15.0175404154
  0
LINE
  5
52C
100
AcDbEntity
  8
0
100
AcDbLine
 62
7
  6
CONTINUOUS
 10
-2.6524540713
 20
17.8289212159
 11
-4.2251353141
 21
18.6152618373
  0
LINE
  5
52D
100
AcDbEntity
  8
ASSI
100
AcDbLine
 62
7
  6
CONTINUOUS
 10
-2.6524540713
 20
17.8289212159
 11
-4.2251353141
 21
18.6152618373
  0
LWPOLYLINE
  5
52E
100
AcDbEntity
  8
RACCORDO
100
AcDbPolyline
 62
7
  6
CONTINUOUS
 90
14
 70
0
 10
-20.8267461325
 20
25.0943058234
 10
-20.8177377804
 20
25.0895786586
 10
-20.8094254541
 20
25.0847782857
 10
-20.8018091537
 20
25.0799047048
 10
-20.7948623019
 20
25.0749364807
 10
-20.788611476
 20
25.0698950486
 10
-20.7831364073
 20
25.0648447136
 10
-20.7784470332
 20
25.0597853618
 10
-20.7745334164
 20
25.0547171072
 10
-20.7714454765
 20
25.049704597
 10
-20.7691937901
 20
25.0447485455
 10
-20.7677677806
 20
25.0398482385
 10
-20.7671856372
 20
25.0350661812
 10
-20.7675206816
 20
25.0300108313
  0
LWPOLYLINE
  5
52F
100
AcDbEntity
  8
RACCORDO
100
AcDbPolyline
 62
7
  6
CONTINUOUS
 90
14
 70
0
 10
-16.7962374797
 20
23.079051497
 10
-16.7872291276
 20
23.0743243322
 10
-16.7789168014
 20
23.0695239593
 10
-16.7713005009
 20
23.0646503784
 10
-16.7643536491
 20
23.0596821543
 10
-16.7581028232
 20
23.0546407222
 10
-16.7526277545
 20
23.0495903873
 10
-16.7479383805
 20
23.0445310354
 10
-16.7440247637
 20
23.0394627808
 10
-16.7409368237
 20
23.0344502707
 10
-16.7386851374
 20
23.0294942191
 10
-16.7372591278
 20
23.0245939121
 10
-16.7366769844
 20
23.0198118548
 10
-16.7370120289
 20
23.0147565049
  0
LWPOLYLINE
  5
530
100
AcDbEntity
  8
RACCORDO
100
AcDbPolyline
 62
7
  6
CONTINUOUS
 90
14
 70
0
 10
-3.1490766028
 20
16.2554710586
 10
-3.1400682507
 20
16.2507438938
 10
-3.1317559245
 20
16.2459435209
 10
-3.124139624
 20
16.2410699399
 10
-3.1171927722
 20
16.2361017159
 10
-3.1109419463
 20
16.2310602838
 10
-3.1054668776
 20
16.2260099488
 10
-3.1007775036
 20
16.220950597
 10
-3.0968638868
 20
16.2158823423
 10
-3.0937759468
 20
16.2108698322
 10
-3.0915242605
 20
16.2059137807
 10
-3.0900982509
 20
16.2010134737
 10
-3.0895161075
 20
16.1962314163
 10
-3.089851152
 20
16.1911760665
  0
LWPOLYLINE
  5
531
100
AcDbEntity
  8
RACCORDO
100
AcDbPolyline
 62
7
  6
CONTINUOUS
 90
14
 70
0
 10
0.88143205
 20
14.2402167322
 10
0.890440402
 20
14.2354895674
 10
0.8987527283
 20
14.2306891945
 10
0.9063690287
 20
14.2258156136
 10
0.9133158805
 20
14.2208473895
 10
0.9195667065
 20
14.2158059574
 10
0.9250417751
 20
14.2107556224
 10
0.9297311492
 20
14.2056962706
 10
0.933644766
 20
14.200628016
 10
0.9367327059
 20
14.1956155058
 10
0.9389843923
 20
14.1906594543
 10
0.9404104018
 20
14.1857591473
 10
0.9409925453
 20
14.18097709
 10
0.9406575008
 20
14.1759217401
  0
LWPOLYLINE
  5
532
100
AcDbEntity
  8
RACCORDO
100
AcDbPolyline
 62
7
  6
CONTINUOUS
 90
14
 70
0
 10
-14.867092371
 20
23.7001134769
 10
-14.8761007231
 20
23.7048406417
 10
-14.8844130493
 20
23.7096410146
 10
-14.8920293498
 20
23.7145145955
 10
-14.8989762016
 20
23.7194828196
 10
-14.9052270275
 20
23.7245242517
 10
-14.9107020962
 20
23.7295745867
 10
-14.9153914702
 20
23.7346339385
 10
-14.919305087
 20
23.7397021931
 10
-14.922393027
 20
23.7447147033
 10
-14.9246447133
 20
23.7496707548
 10
-14.9260707229
 20
23.7545710618
 10
-14.9266528663
 20
23.7593531191
 10
-14.9263178218
 20
23.764408469
  0
LWPOLYLINE
  5
533
100
AcDbEntity
  8
RACCORDO
100
AcDbPolyline
 62
7
  6
CONTINUOUS
 90
14
 70
0
 10
2.8105771587
 20
14.8612787121
 10
2.8015688066
 20
14.8660058769
 10
2.7932564803
 20
14.8708062498
 10
2.7856401799
 20
14.8756798307
 10
2.7786933281
 20
14.8806480548
 10
2.7724425022
 20
14.8856894869
 10
2.7669674335
 20
14.8907398218
 10
2.7622780594
 20
14.8957991737
 10
2.7583644426
 20
14.9008674283
 10
2.7552765027
 20
14.9058799384
 10
2.7530248163
 20
14.91083599
 10
2.7515988068
 20
14.915736297
 10
2.7510166634
 20
14.9205183543
 10
2.7513517078
 20
14.9255737042
  0
LINE
  5
534
100
AcDbEntity
  8
ASSI
100
AcDbLine
 62
7
  6
CONTINUOUS
 10
-10.4628401812
 20
23.1865643362
 11
-10.4956038946
 21
23.2045857087
  0
LWPOLYLINE
  5
535
100
AcDbEntity
  8
RACCORDO
100
AcDbPolyline
 62
253
  6
CONTINUOUS
 90
10
 70
0
 10
-23.9709701885
 20
30.1855749243
 10
-23.9460301795
 20
30.1708566984
 10
-23.921922633
 20
30.1512881101
 10
-23.8993797613
 20
30.1274635121
 10
-23.879086253
 20
30.1001065232
 10
-23.8616584775
 20
30.0700480512
 10
-23.8476257638
 20
30.0382010557
 10
-23.8374143233
 20
30.0055328177
 10
-23.8313343039
 20
29.9730355608
 10
-23.8295703714
 20
29.941696315
  0
LWPOLYLINE
  5
536
100
AcDbEntity
  8
ASSI
100
AcDbPolyline
 62
253
  6
CONTINUOUS
 90
10
 70
0
 10
-23.9709701885
 20
30.1855749243
 10
-23.9460301795
 20
30.1708566984
 10
-23.921922633
 20
30.1512881101
 10
-23.8993797613
 20
30.1274635121
 10
-23.879086253
 20
30.1001065232
 10
-23.8616584775
 20
30.0700480512
 10
-23.8476257638
 20
30.0382010557
 10
-23.8374143233
 20
30.0055328177
 10
-23.8313343039
 20
29.9730355608
 10
-23.8295703714
 20
29.941696315
  0
LWPOLYLINE
  5
537
100
AcDbEntity
  8
RACCORDO
100
AcDbPolyline
 62
7
  6
CONTINUOUS
 90
3
 70
0
 10
-10.4110888395
 20
23.1508149793
 10
-10.4640620365
 20
23.187295967
 10
-10.4955978996
 20
23.2045827004
  0
LINE
  5
538
100
AcDbEntity
  8
ASSI
100
AcDbLine
 62
253
  6
CONTINUOUS
 10
7.3872560519
 20
13.9547122718
 11
7.3996630437
 21
13.9257894598
  0
LINE
  5
539
100
AcDbEntity
  8
RACCORDO
100
AcDbLine
 62
253
  6
CONTINUOUS
 10
10.4642005907
 20
12.897654976
 11
10.4763300181
 21
12.8690008434
  0
LWPOLYLINE
  5
53A
100
AcDbEntity
  8
ASSI
100
AcDbPolyline
 62
253
  6
CONTINUOUS
 90
9
 70
0
 10
10.4642005907
 20
12.897654976
 10
10.4763300181
 20
12.8690008434
 10
10.4866864434
 20
12.839162671
 10
10.4953814786
 20
12.8091224256
 10
10.5023279149
 20
12.7790116742
 10
10.5076129611
 20
12.7486988497
 10
10.5116098561
 20
12.7187712177
 10
10.5144430129
 20
12.6894245335
 10
10.5159880185
 20
12.6604630419
  0
LWPOLYLINE
  5
53B
100
AcDbEntity
  8
RACCORDO
100
AcDbPolyline
 62
253
  6
CONTINUOUS
 90
8
 70
0
 10
10.4763300181
 20
12.8690008434
 10
10.4866864434
 20
12.839162671
 10
10.4953814786
 20
12.8091224256
 10
10.5023279149
 20
12.7790116742
 10
10.5076129611
 20
12.7486988497
 10
10.5116098561
 20
12.7187712177
 10
10.5144430129
 20
12.6894245335
 10
10.5159880185
 20
12.6604630419
  0
LINE
  5
53C
100
AcDbEntity
  8
ASSI
100
AcDbLine
 62
7
  6
CONTINUOUS
 10
18.0933360591
 20
14.3468500842
 11
18.0941893218
 21
14.3177481747
  0
LINE
  5
53D
100
AcDbEntity
  8
RACCORDO
100
AcDbLine
 62
253
  6
CONTINUOUS
 10
17.9538592595
 20
-20.6826791188
 11
17.9538592595
 21
14.1439866821
  0
LINE
  5
53E
100
AcDbEntity
  8
ASSI
100
AcDbLine
 62
253
  6
CONTINUOUS
 10
17.9538592595
 20
-20.6826791188
 11
17.9538592595
 21
14.1439866821
  0
LINE
  5
53F
100
AcDbEntity
  8
RACCORDO
100
AcDbLine
 62
7
  6
CONTINUOUS
 10
18.0941893594
 20
-20.5090145262
 11
18.0941893594
 21
14.3176512747
  0
LINE
  5
540
100
AcDbEntity
  8
ASSI
100
AcDbLine
 62
7
  6
CONTINUOUS
 10
18.0941893594
 20
-20.5090145262
 11
18.0941893594
 21
14.3176512747
  0
LINE
  5
541
100
AcDbEntity
  8
RACCORDO
100
AcDbLine
 62
7
  6
CONTINUOUS
 10
18.0933380058
 20
-20.5381800671
 11
18.0941893304
 21
-20.5090996138
  0
LWPOLYLINE
  5
542
100
AcDbEntity
  8
RACCORDO
100
AcDbPolyline
 62
253
  6
CONTINUOUS
 90
8
 70
0
 10
17.9538592595
 20
-20.6826791188
 10
17.9525126896
 20
-20.7267816757
 10
17.9472167998
 20
-20.7684855321
 10
17.9380295778
 20
-20.8073307835
 10
17.9250499059
 20
-20.8428935377
 10
17.9084215206
 20
-20.874775868
 10
17.8883362751
 20
-20.9026153815
 10
17.8650260254
 20
-20.9261042076
  0
LWPOLYLINE
  5
543
100
AcDbEntity
  8
ASSI
100
AcDbPolyline
 62
253
  6
CONTINUOUS
 90
8
 70
0
 10
17.9538592595
 20
-20.6826791188
 10
17.9525126896
 20
-20.7267816757
 10
17.9472167998
 20
-20.7684855321
 10
17.9380295778
 20
-20.8073307835
 10
17.9250499059
 20
-20.8428935377
 10
17.9084215206
 20
-20.874775868
 10
17.8883362751
 20
-20.9026153815
 10
17.8650260254
 20
-20.9261042076
  0
LINE
  5
544
100
AcDbEntity
  8
0
100
AcDbLine
 62
7
  6
CONTINUOUS
 10
23.1011036288
 20
11.9671727845
 11
23.0941303048
 21
11.9423784694
  0
LINE
  5
545
100
AcDbEntity
  8
0
100
AcDbLine
 62
7
  6
CONTINUOUS
 10
23.0941303048
 20
11.9423784694
 11
23.0793432574
 21
11.8911124722
  0
LINE
  5
546
100
AcDbEntity
  8
0
100
AcDbLine
 62
7
  6
CONTINUOUS
 10
23.0793432574
 20
11.8911124722
 11
23.0635347686
 21
11.8378636384
  0
LWPOLYLINE
  5
547
100
AcDbEntity
  8
0
100
AcDbPolyline
 62
7
  6
CONTINUOUS
 90
10
 70
0
 10
23.0635347686
 20
11.8378636384
 10
23.0461472419
 20
11.7811711493
 10
23.036804026
 20
11.7513826383
 10
23.0269211883
 20
11.7204712365
 10
23.0164695049
 20
11.6883353879
 10
23.0054781996
 20
11.6550766485
 10
22.9939240915
 20
11.6208163971
 10
22.9817994535
 20
11.5855950931
 10
22.9691120127
 20
11.549372277
 10
22.9558617691
 20
11.5121479489
  0
LWPOLYLINE
  5
548
100
AcDbEntity
  8
RACCORDO
100
AcDbPolyline
 62
7
  6
CONTINUOUS
 90
5
 70
0
 10
26.465987323
 20
9.5317716328
 10
26.4985706834
 20
9.5945439606
 10
26.523977488
 20
9.6595357257
 10
26.5420514884
 20
9.7259128106
 10
26.5527985957
 20
9.7929913012
  0
LINE
  5
549
100
AcDbEntity
  8
RACCORDO
100
AcDbLine
 62
253
  6
CONTINUOUS
 10
21.3843641157
 20
-9.9034682693
 11
18.0941893594
 21
-11.6785930325
  0
LINE
  5
54A
100
AcDbEntity
  8
ASSI
100
AcDbLine
 62
253
  6
CONTINUOUS
 10
21.3843641157
 20
-9.9034682693
 11
18.0941893594
 21
-11.6785930325
  0
LINE
  5
54B
100
AcDbEntity
  8
RACCORDO
100
AcDbLine
 62
7
  6
CONTINUOUS
 10
21.2621061257
 20
-10.1698441122
 11
18.0941893594
 21
-11.8790078851
  0
LINE
  5
54C
100
AcDbEntity
  8
ASSI
100
AcDbLine
 62
7
  6
CONTINUOUS
 10
21.2621061257
 20
-10.1698441122
 11
18.0941893594
 21
-11.8790078851
  0
LINE
  5
54D
100
AcDbEntity
  8
RACCORDO
100
AcDbLine
 62
7
  6
CONTINUOUS
 10
-3.145724352
 20
16.1532142686
 11
-5.1477263805
 21
15.6957956461
  0
LINE
  5
54E
100
AcDbEntity
  8
RACCORDO
100
AcDbLine
 62
7
  6
CONTINUOUS
 10
-1.1682054372
 20
17.9185785818
 11
-2.4960759511
 21
17.6151859315
  0
LINE
  5
54F
100
AcDbEntity
  8
RACCORDO
100
AcDbLine
 62
7
  6
CONTINUOUS
 10
-7.1321781567
 20
16.5874408696
 11
-5.5403950974
 21
16.9511324163
  0
LINE
  5
550
100
AcDbEntity
  8
RACCORDO
100
AcDbLine
 62
7
  6
CONTINUOUS
 10
-7.4811787584
 20
16.862521835
 11
-5.4791767299
 21
17.3199404575
  0
LINE
  5
551
100
AcDbEntity
  8
0
100
AcDbLine
 62
7
  6
CONTINUOUS
 10
-8.842027119
 20
17.3242647438
 11
-4.2251353141
 21
18.3791349485
  0
LWPOLYLINE
  5
552
100
AcDbEntity
  8
RACCORDO
100
AcDbPolyline
 62
7
  6
CONTINUOUS
 90
25
 70
0
 10
-5.1477263805
 20
15.6957956461
 10
-5.1571335773
 20
15.693874687
 10
-5.1670180166
 20
15.6922761352
 10
-5.1773796985
 20
15.6909999908
 10
-5.1882669422
 20
15.690043558
 10
-5.1996314285
 20
15.6894095325
 10
-5.2113281994
 20
15.6891060016
 10
-5.2233615114
 20
15.6891371988
 10
-5.2357271079
 20
15.6894988905
 10
-5.2482672616
 20
15.6901864633
 10
-5.2609842083
 20
15.6912040917
 10
-5.2738757122
 20
15.6925476011
 10
-5.2867773375
 20
15.6941998546
 10
-5.2996892139
 20
15.6961648071
 10
-5.3126112117
 20
15.6984385038
 10
-5.3253785065
 20
15.7009919428
 10
-5.3379891163
 20
15.7038287076
 10
-5.3504450231
 20
15.7069452148
 10
-5.3625873473
 20
15.7103017121
 10
-5.374412072
 20
15.7139012738
 10
-5.3859232141
 20
15.7177408257
 10
-5.3969739451
 20
15.721771393
 10
-5.407515322
 20
15.7259766508
 10
-5.4175962877
 20
15.7303729238
 10
-5.4272168422
 20
15.7349602123
  0
LWPOLYLINE
  5
553
100
AcDbEntity
  8
RACCORDO
100
AcDbPolyline
 62
7
  6
CONTINUOUS
 90
25
 70
0
 10
-2.4960759511
 20
17.6151859315
 10
-2.5054831478
 20
17.6132649724
 10
-2.5153675871
 20
17.6116664207
 10
-2.525729269
 20
17.6103902762
 10
-2.5366165128
 20
17.6094338434
 10
-2.5479809991
 20
17.6087998179
 10
-2.55967777
 20
17.608496287
 10
-2.5717110819
 20
17.6085274842
 10
-2.5840766785
 20
17.608889176
 10
-2.5966168321
 20
17.6095767488
 10
-2.6093337789
 20
17.6105943771
 10
-2.6222252827
 20
17.6119378865
 10
-2.635126908
 20
17.61359014
 10
-2.6480387844
 20
17.6155550926
 10
-2.6609607823
 20
17.6178287893
 10
-2.673728077
 20
17.6203822283
 10
-2.6863386869
 20
17.6232189931
 10
-2.6987945937
 20
17.6263355002
 10
-2.7109369178
 20
17.6296919975
 10
-2.7227616425
 20
17.6332915592
 10
-2.7342727847
 20
17.6371311112
 10
-2.7453235156
 20
17.6411616785
 10
-2.7558648925
 20
17.6453669362
 10
-2.7659458582
 20
17.6497632093
 10
-2.7755664127
 20
17.6543504977
  0
LWPOLYLINE
  5
554
100
AcDbEntity
  8
RACCORDO
100
AcDbPolyline
 62
7
  6
CONTINUOUS
 90
25
 70
0
 10
-5.4791767299
 20
17.3199404575
 10
-5.4697695331
 20
17.3218614166
 10
-5.4598850938
 20
17.3234599684
 10
-5.449523412
 20
17.3247361128
 10
-5.4386361682
 20
17.3256925456
 10
-5.4272716819
 20
17.3263265711
 10
-5.415574911
 20
17.326630102
 10
-5.403541599
 20
17.3265989048
 10
-5.3911760025
 20
17.3262372131
 10
-5.3786358488
 20
17.3255496403
 10
-5.3659189021
 20
17.3245320119
 10
-5.3530273982
 20
17.3231885026
 10
-5.3401257729
 20
17.3215362491
 10
-5.3272138965
 20
17.3195712965
 10
-5.3142918987
 20
17.3172975998
 10
-5.3015246039
 20
17.3147441608
 10
-5.2889139941
 20
17.311907396
 10
-5.2764580873
 20
17.3087908889
 10
-5.2643157631
 20
17.3054343915
 10
-5.2524910384
 20
17.3018348298
 10
-5.2409798963
 20
17.2979952779
 10
-5.2299291653
 20
17.2939647106
 10
-5.2193877884
 20
17.2897594529
 10
-5.2093068227
 20
17.2853631798
 10
-5.1996862682
 20
17.2807758913
  0
LINE
  5
555
100
AcDbEntity
  8
RACCORDO
100
AcDbLine
 62
7
  6
CONTINUOUS
 10
-1.4548485802
 20
17.8998462625
 11
-2.6524540713
 21
17.8289212159
  0
LINE
  5
556
100
AcDbEntity
  8
ASSI
100
AcDbLine
 62
7
  6
CONTINUOUS
 10
-1.4548485802
 20
17.8998462625
 11
-2.6524540713
 21
17.8289212159
  0
LINE
  5
557
100
AcDbEntity
  8
RACCORDO
100
AcDbLine
 62
7
  6
CONTINUOUS
 10
-2.3160532572
 20
18.7187900634
 11
-4.2251353141
 21
18.6152618373
  0
LINE
  5
558
100
AcDbEntity
  8
ASSI
100
AcDbLine
 62
7
  6
CONTINUOUS
 10
-2.3160532572
 20
18.7187900634
 11
-4.2251353141
 21
18.6152618373
  0
LWPOLYLINE
  5
559
100
AcDbEntity
  8
0
100
AcDbPolyline
 62
7
  6
CONTINUOUS
 90
7
 70
0
 10
-1.0785101379
 20
17.9292901454
 10
-1.0930647518
 20
17.9289433789
 10
-1.1077772068
 20
17.9280212147
 10
-1.1226475029
 20
17.926523653
 10
-1.1376756399
 20
17.9244506935
 10
-1.1528616181
 20
17.9218023365
 10
-1.1682054372
 20
17.9185785818
  0
LINE
  5
55A
100
AcDbEntity
  8
0
100
AcDbLine
 62
7
  6
CONTINUOUS
 10
22.9926082392
 20
12.9421076088
 11
22.8843667698
 21
12.9602161533
  0
LINE
  5
55B
100
AcDbEntity
  8
RACCORDO
100
AcDbLine
 62
253
  6
CONTINUOUS
 10
-3.6377134778
 20
19.7669729299
 11
-3.6030380033
 21
19.7558378467
  0
LINE
  5
55C
100
AcDbEntity
  8
ASSI
100
AcDbLine
 62
253
  6
CONTINUOUS
 10
-3.6377134778
 20
19.7669729299
 11
-3.6030380033
 21
19.7558378467
  0
LINE
  5
55D
100
AcDbEntity
  8
RACCORDO
100
AcDbLine
 62
253
  6
CONTINUOUS
 10
9.4154673916
 20
13.7250334147
 11
9.4494110989
 21
13.7134596366
  0
LINE
  5
55E
100
AcDbEntity
  8
ASSI
100
AcDbLine
 62
253
  6
CONTINUOUS
 10
9.4154673916
 20
13.7250334147
 11
9.4494110989
 21
13.7134596366
  0
LWPOLYLINE
  5
55F
100
AcDbEntity
  8
RACCORDO
100
AcDbPolyline
 62
7
  6
CONTINUOUS
 90
5
 70
0
 10
9.4659658397
 20
13.7065949542
 10
9.3986333294
 20
13.7320189137
 10
9.3267800206
 20
13.7481855269
 10
9.2511507926
 20
13.7545145425
 10
9.1727762806
 20
13.7505858233
  0
LWPOLYLINE
  5
560
100
AcDbEntity
  8
RACCORDO
100
AcDbPolyline
 62
7
  6
CONTINUOUS
 90
5
 70
0
 10
-21.2545356904
 20
28.5838565052
 10
-21.3225980751
 20
28.6100358513
 10
-21.3953059903
 20
28.6267090655
 10
-21.4718979422
 20
28.6332920555
 10
-21.5513024465
 20
28.6293418289
  0
LWPOLYLINE
  5
561
100
AcDbEntity
  8
RACCORDO
100
AcDbPolyline
 62
253
  6
CONTINUOUS
 90
5
 70
0
 10
-21.6963040807
 20
28.5529277486
 10
-21.7204293127
 20
28.5627875788
 10
-21.7438215118
 20
28.5670850743
 10
-21.7657699178
 20
28.5656896579
 10
-21.7831912182
 20
28.5598632048
  0
LWPOLYLINE
  5
562
100
AcDbEntity
  8
ASSI
100
AcDbPolyline
 62
253
  6
CONTINUOUS
 90
5
 70
0
 10
-21.6963040807
 20
28.5529277486
 10
-21.7204293127
 20
28.5627875788
 10
-21.7438215118
 20
28.5670850743
 10
-21.7657699178
 20
28.5656896579
 10
-21.7831931864
 20
28.5598622572
  0
LINE
  5
563
100
AcDbEntity
  8
RACCORDO
100
AcDbLine
 62
253
  6
CONTINUOUS
 10
-21.2516289542
 20
28.5824414178
 11
-21.2850501329
 21
28.5962631306
  0
LINE
  5
564
100
AcDbEntity
  8
ASSI
100
AcDbLine
 62
253
  6
CONTINUOUS
 10
-21.2516289542
 20
28.5824414178
 11
-21.2850501329
 21
28.5962631306
  0
LWPOLYLINE
  5
565
100
AcDbEntity
  8
RACCORDO
100
AcDbPolyline
 62
7
  6
CONTINUOUS
 90
9
 70
0
 10
-2.5758555405
 20
19.2446736876
 10
-2.6211215002
 20
19.2637617129
 10
-2.6727970372
 20
19.277722204
 10
-2.7277592421
 20
19.2845436357
 10
-2.7855941181
 20
19.2844461553
 10
-2.8442465246
 20
19.2775602617
 10
-2.9030314146
 20
19.2639294547
 10
-2.9626338351
 20
19.2435102346
 10
-3.0230537861
 20
19.2163026013
  0
LWPOLYLINE
  5
566
100
AcDbEntity
  8
ASSI
100
AcDbPolyline
 62
7
  6
CONTINUOUS
 90
9
 70
0
 10
-2.5758555405
 20
19.2446736876
 10
-2.6211215002
 20
19.2637617129
 10
-2.6727970372
 20
19.277722204
 10
-2.7277592421
 20
19.2845436357
 10
-2.7855941181
 20
19.2844461553
 10
-2.8442465246
 20
19.2775602617
 10
-2.9030314146
 20
19.2639294547
 10
-2.9626338351
 20
19.2435102346
 10
-3.0230537861
 20
19.2163026013
  0
LWPOLYLINE
  5
567
100
AcDbEntity
  8
RACCORDO
100
AcDbPolyline
 62
7
  6
CONTINUOUS
 90
9
 70
0
 10
-20.2535250702
 20
28.0835084524
 10
-20.2987910298
 20
28.1025964777
 10
-20.3504665669
 20
28.1165569688
 10
-20.4054287717
 20
28.1233784006
 10
-20.4632636477
 20
28.1232809201
 10
-20.5219160542
 20
28.1163950265
 10
-20.5807009443
 20
28.1027642195
 10
-20.6403033648
 20
28.0823449994
 10
-20.7007233158
 20
28.0551373662
  0
LWPOLYLINE
  5
568
100
AcDbEntity
  8
ASSI
100
AcDbPolyline
 62
7
  6
CONTINUOUS
 90
9
 70
0
 10
-20.2535250702
 20
28.0835084524
 10
-20.2987910298
 20
28.1025964777
 10
-20.3504665669
 20
28.1165569688
 10
-20.4054287717
 20
28.1233784006
 10
-20.4632636477
 20
28.1232809201
 10
-20.5219160542
 20
28.1163950265
 10
-20.5807009443
 20
28.1027642195
 10
-20.6403033648
 20
28.0823449994
 10
-20.7007233158
 20
28.0551373662
  0
LWPOLYLINE
  5
569
100
AcDbEntity
  8
RACCORDO
100
AcDbPolyline
 62
253
  6
CONTINUOUS
 90
3
 70
0
 10
-3.6030380033
 20
19.7558378467
 10
-3.5695259417
 20
19.7415132035
 10
-3.5651769844
 20
19.7393727854
  0
LWPOLYLINE
  5
56A
100
AcDbEntity
  8
ASSI
100
AcDbPolyline
 62
253
  6
CONTINUOUS
 90
3
 70
0
 10
-3.6030380033
 20
19.7558378467
 10
-3.5695259417
 20
19.7415132035
 10
-3.5651769844
 20
19.7393727854
  0
LWPOLYLINE
  5
56B
100
AcDbEntity
  8
RACCORDO
100
AcDbPolyline
 62
7
  6
CONTINUOUS
 90
6
 70
0
 10
-3.5641545117
 20
19.7388590788
 10
-3.6146647632
 20
19.7609293549
 10
-3.6676431787
 20
19.777579836
 10
-3.7232439431
 20
19.7887247884
 10
-3.7809940068
 20
19.7940723301
 10
-3.8402385793
 20
19.7934534153
  0
LWPOLYLINE
  5
56C
100
AcDbEntity
  8
RACCORDO
100
AcDbPolyline
 62
253
  6
CONTINUOUS
 90
14
 70
0
 10
-10.4960487125
 20
23.2048086495
 10
-10.5271928179
 20
23.2186032051
 10
-10.5610025764
 20
23.2298858581
 10
-10.5959297985
 20
23.2379550774
 10
-10.6314244477
 20
23.2427947023
 10
-10.6673097473
 20
23.2445410265
 10
-10.7034258892
 20
23.2433396993
 10
-10.7391923745
 20
23.2394094767
 10
-10.7743270556
 20
23.2330291655
 10
-10.8088028962
 20
23.2244395231
 10
-10.8424191419
 20
23.2139161287
 10
-10.8750405776
 20
23.2017249446
 10
-10.9065993406
 20
23.1881027758
 10
-10.9370184642
 20
23.1732849404
  0
LWPOLYLINE
  5
56D
100
AcDbEntity
  8
ASSI
100
AcDbPolyline
 62
253
  6
CONTINUOUS
 90
14
 70
0
 10
-10.4960487125
 20
23.2048086495
 10
-10.5271928179
 20
23.2186032051
 10
-10.5610025764
 20
23.2298858581
 10
-10.5959297985
 20
23.2379550774
 10
-10.6314244477
 20
23.2427947023
 10
-10.6673097473
 20
23.2445410265
 10
-10.7034258892
 20
23.2433396993
 10
-10.7391923745
 20
23.2394094767
 10
-10.7743270556
 20
23.2330291655
 10
-10.8088028962
 20
23.2244395231
 10
-10.8424191419
 20
23.2139161287
 10
-10.8750405776
 20
23.2017249446
 10
-10.9065993406
 20
23.1881027758
 10
-10.9370184642
 20
23.1732849404
  0
LINE
  5
56E
100
AcDbEntity
  8
RACCORDO
100
AcDbLine
 62
253
  6
CONTINUOUS
 10
9.4494110989
 20
13.7134596366
 11
9.480943058
 21
13.699418071
  0
LINE
  5
56F
100
AcDbEntity
  8
ASSI
100
AcDbLine
 62
253
  6
CONTINUOUS
 10
9.4494110989
 20
13.7134596366
 11
9.480943058
 21
13.699418071
  0
LINE
  5
570
100
AcDbEntity
  8
RACCORDO
100
AcDbLine
 62
253
  6
CONTINUOUS
 10
-24.3502930418
 20
30.6133117069
 11
-24.3187610827
 21
30.5992701413
  0
LINE
  5
571
100
AcDbEntity
  8
ASSI
100
AcDbLine
 62
253
  6
CONTINUOUS
 10
-24.3502930418
 20
30.6133117069
 11
-24.3187610827
 21
30.5992701413
  0
LWPOLYLINE
  5
572
100
AcDbEntity
  8
0
100
AcDbPolyline
 62
7
  6
CONTINUOUS
 90
6
 70
0
 10
4.3704155894
 20
15.2448258718
 10
4.3540018009
 20
15.2524297817
 10
4.3236071228
 20
15.2635492835
 10
4.2920048542
 20
15.2714265001
 10
4.2590660536
 20
15.2761233109
 10
4.224790721
 20
15.2776397159
  0
LWPOLYLINE
  5
573
100
AcDbEntity
  8
0
100
AcDbPolyline
 62
7
  6
CONTINUOUS
 90
6
 70
0
 10
-0.9328852705
 20
17.8964762992
 10
-0.9492991733
 20
17.9040802576
 10
-0.9796938413
 20
17.9151997452
 10
-1.0112960857
 20
17.9230769493
 10
-1.0442348513
 20
17.9277737494
 10
-1.0785101379
 20
17.9292901454
  0
LWPOLYLINE
  5
574
100
AcDbEntity
  8
0
100
AcDbPolyline
 62
7
  6
CONTINUOUS
 90
6
 70
0
 10
-13.3072539403
 20
24.0836606367
 10
-13.3236677288
 20
24.0912645465
 10
-13.3540624069
 20
24.1023840484
 10
-13.3856646755
 20
24.1102612649
 10
-13.4186034761
 20
24.1149580757
 10
-13.4528788086
 20
24.1164744808
  0
LWPOLYLINE
  5
575
100
AcDbEntity
  8
0
100
AcDbPolyline
 62
7
  6
CONTINUOUS
 90
6
 70
0
 10
-18.6105548002
 20
26.7353110641
 10
-18.626968703
 20
26.7429150224
 10
-18.657363371
 20
26.75403451
 10
-18.6889656154
 20
26.7619117141
 10
-18.7219043809
 20
26.7666085142
 10
-18.7561796675
 20
26.7681249102
  0
LWPOLYLINE
  5
576
100
AcDbEntity
  8
ASSI
100
AcDbPolyline
 62
7
  6
CONTINUOUS
 90
6
 70
0
 10
-3.5630819658
 20
19.7383165546
 10
-3.5815244645
 20
19.7471843728
 10
-3.6507715774
 20
19.7729462132
 10
-3.7245869368
 20
19.7889191557
 10
-3.8022484914
 20
19.7945409836
 10
-3.8826557536
 20
19.7893985422
  0
LINE
  5
577
100
AcDbEntity
  8
RACCORDO
100
AcDbLine
 62
7
  6
CONTINUOUS
 10
9.4829669251
 20
13.6983984403
 11
9.4659658397
 21
13.7065949542
  0
LWPOLYLINE
  5
578
100
AcDbEntity
  8
ASSI
100
AcDbPolyline
 62
7
  6
CONTINUOUS
 90
6
 70
0
 10
9.4829903744
 20
13.6983865394
 10
9.4656590965
 20
13.7067428511
 10
9.3978027287
 20
13.732267116
 10
9.3254790582
 20
13.7483834612
 10
9.2493625793
 20
13.7545407995
 10
9.1704997871
 20
13.7503194984
  0
LWPOLYLINE
  5
579
100
AcDbEntity
  8
ASSI
100
AcDbPolyline
 62
7
  6
CONTINUOUS
 90
6
 70
0
 10
-24.3167137663
 20
30.5982386098
 10
-24.3340450442
 20
30.6065949214
 10
-24.401901412
 20
30.6321191864
 10
-24.4742250825
 20
30.6482355316
 10
-24.5503415614
 20
30.6543928698
 10
-24.6292043536
 20
30.6501715688
  0
LINE
  5
57A
100
AcDbEntity
  8
RACCORDO
100
AcDbLine
 62
7
  6
CONTINUOUS
 10
-24.3167372157
 20
30.5982505107
 11
-24.333738301
 21
30.6064470246
  0
LWPOLYLINE
  5
57B
100
AcDbEntity
  8
ASSI
100
AcDbPolyline
 62
7
  6
CONTINUOUS
 90
6
 70
0
 10
-21.2406254322
 20
28.5770845694
 10
-21.25483631
 20
28.5840028559
 10
-21.3233763447
 20
28.6102727561
 10
-21.3965217575
 20
28.6268981956
 10
-21.4735638915
 20
28.6333186948
 10
-21.5534159181
 20
28.629094025
  0
LINE
  5
57C
100
AcDbEntity
  8
RACCORDO
100
AcDbLine
 62
7
  6
CONTINUOUS
 10
-21.240648638
 20
28.5770963608
 11
-21.2545356904
 21
28.5838565052
  0
LINE
  5
57D
100
AcDbEntity
  8
RACCORDO
100
AcDbLine
 62
7
  6
CONTINUOUS
 10
-1.4611335986
 20
18.2913891222
 11
-2.3159470049
 21
18.7113132068
  0
LINE
  5
57E
100
AcDbEntity
  8
ASSI
100
AcDbLine
 62
7
  6
CONTINUOUS
 10
-1.4611335986
 20
18.2913891222
 11
-2.3159470049
 21
18.7113132068
  0
LINE
  5
57F
100
AcDbEntity
  8
RACCORDO
100
AcDbLine
 62
7
  6
CONTINUOUS
 10
-19.1388031283
 20
27.130223887
 11
-19.9936165346
 21
27.5501479716
  0
LINE
  5
580
100
AcDbEntity
  8
ASSI
100
AcDbLine
 62
7
  6
CONTINUOUS
 10
-19.1388031283
 20
27.130223887
 11
-19.9936165346
 21
27.5501479716
  0
LINE
  5
581
100
AcDbEntity
  8
0
100
AcDbLine
 62
253
  6
CONTINUOUS
 10
4.1350954217
 20
15.2669281523
 11
-1.1682054372
 21
17.9185785818
  0
LINE
  5
582
100
AcDbEntity
  8
0
100
AcDbLine
 62
253
  6
CONTINUOUS
 10
-13.542574108
 20
24.1057629172
 11
-18.8458749669
 21
26.7574133466
  0
LINE
  5
583
100
AcDbEntity
  8
0
100
AcDbLine
 62
7
  6
CONTINUOUS
 10
-18.6105408255
 20
26.7353390169
 11
-13.3072399666
 21
24.0836885875
  0
LINE
  5
584
100
AcDbEntity
  8
0
100
AcDbLine
 62
7
  6
CONTINUOUS
 10
-0.9328712958
 20
17.8965042521
 11
4.3704295631
 21
15.2448538226
  0
LINE
  5
585
100
AcDbEntity
  8
RACCORDO
100
AcDbLine
 62
253
  6
CONTINUOUS
 10
-21.6963040807
 20
28.5529277486
 11
-20.7007233158
 21
28.0551373662
  0
LINE
  5
586
100
AcDbEntity
  8
ASSI
100
AcDbLine
 62
253
  6
CONTINUOUS
 10
-21.6963040807
 20
28.5529277486
 11
-20.7007233158
 21
28.0551373662
  0
LINE
  5
587
100
AcDbEntity
  8
RACCORDO
100
AcDbLine
 62
253
  6
CONTINUOUS
 10
-11.9325992291
 20
23.6710753228
 11
-10.9370184642
 21
23.1732849404
  0
LINE
  5
588
100
AcDbEntity
  8
ASSI
100
AcDbLine
 62
253
  6
CONTINUOUS
 10
-11.9325992291
 20
23.6710753228
 11
-10.9370184642
 21
23.1732849404
  0
LINE
  5
589
100
AcDbEntity
  8
RACCORDO
100
AcDbLine
 62
253
  6
CONTINUOUS
 10
-4.018634551
 20
19.7140929838
 11
-3.0230537861
 21
19.2163026013
  0
LINE
  5
58A
100
AcDbEntity
  8
ASSI
100
AcDbLine
 62
253
  6
CONTINUOUS
 10
-4.018634551
 20
19.7140929838
 11
-3.0230537861
 21
19.2163026013
  0
LINE
  5
58B
100
AcDbEntity
  8
RACCORDO
100
AcDbLine
 62
253
  6
CONTINUOUS
 10
5.7450703006
 20
14.832240558
 11
6.7406510655
 21
14.3344501755
  0
LINE
  5
58C
100
AcDbEntity
  8
ASSI
100
AcDbLine
 62
253
  6
CONTINUOUS
 10
5.7450703006
 20
14.832240558
 11
6.7406510655
 21
14.3344501755
  0
LINE
  5
58D
100
AcDbEntity
  8
RACCORDO
100
AcDbLine
 62
7
  6
CONTINUOUS
 10
-21.2428456491
 20
28.5782071178
 11
-20.2535097203
 21
28.0835391534
  0
LINE
  5
58E
100
AcDbEntity
  8
ASSI
100
AcDbLine
 62
7
  6
CONTINUOUS
 10
-21.2428456491
 20
28.5782071178
 11
-20.2535097203
 21
28.0835391534
  0
LINE
  5
58F
100
AcDbEntity
  8
RACCORDO
100
AcDbLine
 62
7
  6
CONTINUOUS
 10
-3.5651761139
 20
19.7393723502
 11
-2.5758401906
 21
19.2447043886
  0
LINE
  5
590
100
AcDbEntity
  8
ASSI
100
AcDbLine
 62
7
  6
CONTINUOUS
 10
-3.5651761139
 20
19.7393723502
 11
-2.5758401906
 21
19.2447043886
  0
LINE
  5
591
100
AcDbEntity
  8
RACCORDO
100
AcDbLine
 62
253
  6
CONTINUOUS
 10
-24.7597055375
 20
30.5799425988
 11
-23.9709701885
 21
30.1855749243
  0
LINE
  5
592
100
AcDbEntity
  8
ASSI
100
AcDbLine
 62
253
  6
CONTINUOUS
 10
-24.7597055375
 20
30.5799425988
 11
-23.9709701885
 21
30.1855749243
  0
LINE
  5
593
100
AcDbEntity
  8
RACCORDO
100
AcDbLine
 62
253
  6
CONTINUOUS
 10
9.0399986032
 20
13.6800905285
 11
9.8287339522
 21
13.2857228539
  0
LINE
  5
594
100
AcDbEntity
  8
ASSI
100
AcDbLine
 62
253
  6
CONTINUOUS
 10
9.0399986032
 20
13.6800905285
 11
9.8287339522
 21
13.2857228539
  0
LINE
  5
595
100
AcDbEntity
  8
RACCORDO
100
AcDbLine
 62
253
  6
CONTINUOUS
 10
24.1792169905
 20
8.9990432636
 11
22.7152780627
 21
9.7310127275
  0
LINE
  5
596
100
AcDbEntity
  8
ASSI
100
AcDbLine
 62
253
  6
CONTINUOUS
 10
24.1792169905
 20
8.9990432636
 11
22.7152780627
 21
9.7310127275
  0
LINE
  5
597
100
AcDbEntity
  8
RACCORDO
100
AcDbLine
 62
7
  6
CONTINUOUS
 10
-10.495584477
 20
23.2045761184
 11
-11.4853856336
 21
23.69947711
  0
LINE
  5
598
100
AcDbEntity
  8
ASSI
100
AcDbLine
 62
7
  6
CONTINUOUS
 10
-10.4955904679
 20
23.2045791244
 11
-11.4853856336
 21
23.69947711
  0
LINE
  5
599
100
AcDbEntity
  8
RACCORDO
100
AcDbLine
 62
7
  6
CONTINUOUS
 10
6.1922838961
 20
14.8606423452
 11
7.1820699726
 21
14.3657489193
  0
LINE
  5
59A
100
AcDbEntity
  8
ASSI
100
AcDbLine
 62
7
  6
CONTINUOUS
 10
6.1922838961
 20
14.8606423452
 11
7.1820853432
 21
14.365741207
  0
LINE
  5
59B
100
AcDbEntity
  8
ASSI
100
AcDbLine
 62
7
  6
CONTINUOUS
 10
-24.3187601032
 20
30.5992696516
 11
-23.5417140407
 21
30.2107462232
  0
LINE
  5
59C
100
AcDbEntity
  8
RACCORDO
100
AcDbLine
 62
7
  6
CONTINUOUS
 10
-24.3187601032
 20
30.5992696516
 11
-23.5417295579
 21
30.2107540085
  0
LINE
  5
59D
100
AcDbEntity
  8
RACCORDO
100
AcDbLine
 62
7
  6
CONTINUOUS
 10
9.4809440375
 20
13.6994175812
 11
10.2579745828
 21
13.3109019381
  0
LINE
  5
59E
100
AcDbEntity
  8
ASSI
100
AcDbLine
 62
7
  6
CONTINUOUS
 10
9.4809440375
 20
13.6994175812
 11
10.2579901
 21
13.3108941529
  0
LWPOLYLINE
  5
59F
100
AcDbEntity
  8
RACCORDO
100
AcDbPolyline
 62
253
  6
CONTINUOUS
 90
10
 70
0
 10
6.7406510655
 20
14.3344501755
 10
6.7656334849
 20
14.319756178
 10
6.7898568233
 20
14.3002458995
 10
6.8125850667
 20
14.2765121514
 10
6.8331276294
 20
14.2492760728
 10
6.8508603362
 20
14.2193652193
 10
6.8652443878
 20
14.1876884197
 10
6.8758427336
 20
14.1552081581
 10
6.8823333503
 20
14.1229113302
 10
6.8845190256
 20
14.0917792577
  0
LWPOLYLINE
  5
5A0
100
AcDbEntity
  8
ASSI
100
AcDbPolyline
 62
253
  6
CONTINUOUS
 90
10
 70
0
 10
6.7406510655
 20
14.3344501755
 10
6.7656334849
 20
14.319756178
 10
6.7898568233
 20
14.3002458995
 10
6.8125850667
 20
14.2765121514
 10
6.8331276294
 20
14.2492760728
 10
6.8508603362
 20
14.2193652193
 10
6.8652443878
 20
14.1876884197
 10
6.8758427336
 20
14.1552081581
 10
6.8823333503
 20
14.1229113302
 10
6.8845190256
 20
14.0917792577
  0
LWPOLYLINE
  5
5A1
100
AcDbEntity
  8
RACCORDO
100
AcDbPolyline
 62
253
  6
CONTINUOUS
 90
10
 70
0
 10
9.8287339522
 20
13.2857228539
 10
9.8536739612
 20
13.2710046281
 10
9.8777815077
 20
13.2514360398
 10
9.9003243794
 20
13.2276114417
 10
9.9206178877
 20
13.2002544529
 10
9.9380456632
 20
13.1701959809
 10
9.9520783769
 20
13.1383489853
 10
9.9622898175
 20
13.1056807473
 10
9.9683698368
 20
13.0731834904
 10
9.9701337693
 20
13.0418442446
  0
LWPOLYLINE
  5
5A2
100
AcDbEntity
  8
ASSI
100
AcDbPolyline
 62
253
  6
CONTINUOUS
 90
10
 70
0
 10
9.8287339522
 20
13.2857228539
 10
9.8536739612
 20
13.2710046281
 10
9.8777815077
 20
13.2514360398
 10
9.9003243794
 20
13.2276114417
 10
9.9206178877
 20
13.2002544529
 10
9.9380456632
 20
13.1701959809
 10
9.9520783769
 20
13.1383489853
 10
9.9622898175
 20
13.1056807473
 10
9.9683698368
 20
13.0731834904
 10
9.9701337693
 20
13.0418442446
  0
LWPOLYLINE
  5
5A3
100
AcDbEntity
  8
RACCORDO
100
AcDbPolyline
 62
253
  6
CONTINUOUS
 90
6
 70
0
 10
-7.697285064
 20
28.0115068664
 10
-7.7374311854
 20
28.0388631336
 10
-7.7765180163
 20
28.0593553043
 10
-7.8143351705
 20
28.072812533
 10
-7.8508401321
 20
28.0791226772
 10
-7.8853888591
 20
28.0783644184
  0
LWPOLYLINE
  5
5A4
100
AcDbEntity
  8
ASSI
100
AcDbPolyline
 62
253
  6
CONTINUOUS
 90
6
 70
0
 10
-7.697285064
 20
28.0115068664
 10
-7.7374311854
 20
28.0388631336
 10
-7.7765180163
 20
28.0593553043
 10
-7.8143351705
 20
28.072812533
 10
-7.8508401321
 20
28.0791226772
 10
-7.8854025461
 20
28.0783626993
  0
LWPOLYLINE
  5
5A5
100
AcDbEntity
  8
RACCORDO
100
AcDbPolyline
 62
253
  6
CONTINUOUS
 90
16
 70
0
 10
21.3843641157
 20
19.5099685366
 10
21.3869135511
 20
19.4640856333
 10
21.3932168735
 20
19.4167179972
 10
21.4032194901
 20
19.3683886545
 10
21.4168321366
 20
19.3196285329
 10
21.4339094962
 20
19.270977855
 10
21.4542477522
 20
19.2229797327
 10
21.4776172678
 20
19.1761661879
 10
21.5037724282
 20
19.1310456942
 10
21.5324307934
 20
19.0881054503
 10
21.5632724058
 20
19.0478107341
 10
21.5959606649
 20
19.0106061219
 10
21.6301508014
 20
18.9769045625
 10
21.6654670937
 20
18.947075165
 10
21.7015068279
 20
18.9214387612
 10
21.7378636583
 20
18.9002720133
  0
LWPOLYLINE
  5
5A6
100
AcDbEntity
  8
ASSI
100
AcDbPolyline
 62
253
  6
CONTINUOUS
 90
16
 70
0
 10
21.3843641157
 20
19.5099685366
 10
21.3869135511
 20
19.4640856333
 10
21.3932168735
 20
19.4167179972
 10
21.4032194901
 20
19.3683886545
 10
21.4168321366
 20
19.3196285329
 10
21.4339094962
 20
19.270977855
 10
21.4542477522
 20
19.2229797327
 10
21.4776172678
 20
19.1761661879
 10
21.5037724282
 20
19.1310456942
 10
21.5324307934
 20
19.0881054503
 10
21.5632724058
 20
19.0478107341
 10
21.5959606649
 20
19.0106061219
 10
21.6301508014
 20
18.9769045625
 10
21.6654670937
 20
18.947075165
 10
21.7015068279
 20
18.9214387612
 10
21.7378636583
 20
18.9002720133
  0
LINE
  5
5A7
100
AcDbEntity
  8
DRAFT
100
AcDbLine
 62
7
  6
CONTINUOUS
 10
20.6348826725
 20
6.2629301525
 11
20.6348826725
 21
4.2962510455
  0
LINE
  5
5A8
100
AcDbEntity
  8
ASSI
100
AcDbLine
 62
7
  6
CONTINUOUS
 10
20.6348826725
 20
6.2629301525
 11
20.6348826725
 21
4.2962510455
  0
LINE
  5
5A9
100
AcDbEntity
  8
RACCORDO
100
AcDbLine
 62
253
  6
CONTINUOUS
 10
21.3843641157
 20
24.4001656055
 11
21.3843641157
 21
19.5099685366
  0
LINE
  5
5AA
100
AcDbEntity
  8
ASSI
100
AcDbLine
 62
253
  6
CONTINUOUS
 10
21.3843641157
 20
24.4001656055
 11
21.3843641157
 21
19.5099685366
  0
LINE
  5
5AB
100
AcDbEntity
  8
RACCORDO
100
AcDbLine
 62
253
  6
CONTINUOUS
 10
21.3843641157
 20
3.5815536457
 11
21.3843641157
 21
-9.9034682693
  0
LINE
  5
5AC
100
AcDbEntity
  8
ASSI
100
AcDbLine
 62
253
  6
CONTINUOUS
 10
21.3843641157
 20
3.5815536457
 11
21.3843641157
 21
-9.9034682693
  0
LINE
  5
5AD
100
AcDbEntity
  8
RACCORDO
100
AcDbLine
 62
7
  6
CONTINUOUS
 10
21.5246942155
 20
24.5738301981
 11
21.5246942155
 21
19.6836331274
  0
LINE
  5
5AE
100
AcDbEntity
  8
ASSI
100
AcDbLine
 62
7
  6
CONTINUOUS
 10
21.5246942155
 20
24.5738301981
 11
21.5246942155
 21
19.6836331274
  0
LINE
  5
5AF
100
AcDbEntity
  8
RACCORDO
100
AcDbLine
 62
7
  6
CONTINUOUS
 10
21.5246942155
 20
3.7500056479
 11
21.5246942155
 21
-9.7298036767
  0
LINE
  5
5B0
100
AcDbEntity
  8
ASSI
100
AcDbLine
 62
7
  6
CONTINUOUS
 10
21.5246942155
 20
3.7500056479
 11
21.5246942155
 21
-9.7298036767
  0
LINE
  5
5B1
100
AcDbEntity
  8
RACCORDO
100
AcDbLine
 62
253
  6
CONTINUOUS
 10
21.5246942155
 20
24.5738301981
 11
21.5246941448
 21
24.5736972676
  0
LINE
  5
5B2
100
AcDbEntity
  8
ASSI
100
AcDbLine
 62
253
  6
CONTINUOUS
 10
21.5246942155
 20
24.5738301981
 11
21.5246941448
 21
24.5736972676
  0
LWPOLYLINE
  5
5B3
100
AcDbEntity
  8
RACCORDO
100
AcDbPolyline
 62
253
  6
CONTINUOUS
 90
9
 70
0
 10
21.5246941448
 20
24.5736972676
 10
21.5242780415
 20
24.5636321487
 10
21.519475386
 20
24.5378038421
 10
21.5093378992
 20
24.5123474772
 10
21.4939696739
 20
24.4875449964
 10
21.4735400477
 20
24.4636741509
 10
21.4482736063
 20
24.4409952445
 10
21.418440916
 20
24.4197494272
 10
21.3843641157
 20
24.4001656055
  0
LWPOLYLINE
  5
5B4
100
AcDbEntity
  8
ASSI
100
AcDbPolyline
 62
253
  6
CONTINUOUS
 90
9
 70
0
 10
21.5246941448
 20
24.5736972676
 10
21.5242780415
 20
24.5636321487
 10
21.519475386
 20
24.5378038421
 10
21.5093378992
 20
24.5123474772
 10
21.4939696739
 20
24.4875449964
 10
21.4735400477
 20
24.4636741509
 10
21.4482736063
 20
24.4409952445
 10
21.418440916
 20
24.4197494272
 10
21.3843641157
 20
24.4001656055
  0
LWPOLYLINE
  5
5B5
100
AcDbEntity
  8
RACCORDO
100
AcDbPolyline
 62
253
  6
CONTINUOUS
 90
9
 70
0
 10
21.5246941984
 20
19.6835678223
 10
21.5242307438
 20
19.6728714256
 10
21.5193297624
 20
19.6471102726
 10
21.5091291841
 20
19.6217405568
 10
21.4937383608
 20
19.5970340656
 10
21.4733222158
 20
19.57325546
 10
21.4480995091
 20
19.5506594853
 10
21.4183405199
 20
19.5294882381
 10
21.3843641157
 20
19.5099685346
  0
LWPOLYLINE
  5
5B6
100
AcDbEntity
  8
ASSI
100
AcDbPolyline
 62
253
  6
CONTINUOUS
 90
9
 70
0
 10
21.5246942013
 20
19.6835735583
 10
21.5242307438
 20
19.6728714256
 10
21.5193297624
 20
19.6471102726
 10
21.5091291841
 20
19.6217405568
 10
21.4937383608
 20
19.5970340656
 10
21.4733222158
 20
19.57325546
 10
21.4480995091
 20
19.5506594853
 10
21.4183405199
 20
19.5294882381
 10
21.3843641157
 20
19.5099685346
  0
LINE
  5
5B7
100
AcDbEntity
  8
RACCORDO
100
AcDbLine
 62
7
  6
CONTINUOUS
 10
21.5211824246
 20
-9.7889598956
 11
21.5246941366
 21
-9.7296631881
  0
LINE
  5
5B8
100
AcDbEntity
  8
ASSI
100
AcDbLine
 62
7
  6
CONTINUOUS
 10
21.5211824246
 20
-9.7889598956
 11
21.5246941366
 21
-9.7296631881
  0
LWPOLYLINE
  5
5B9
100
AcDbEntity
  8
0
100
AcDbPolyline
 62
7
  6
CONTINUOUS
 90
6
 70
0
 10
23.5891453657
 20
13.3389600617
 10
23.5857255666
 20
13.2969251484
 10
23.5778672994
 20
13.2236207756
 10
23.5680787677
 20
13.1498531571
 10
23.5563501707
 20
13.0755255294
 10
23.5426815086
 20
13.0006378925
  0
LWPOLYLINE
  5
5BA
100
AcDbEntity
  8
ASSI
100
AcDbPolyline
 62
7
  6
CONTINUOUS
 90
3
 70
0
 10
18.0874999353
 20
-20.5905293427
 10
18.0933380008
 20
-20.5381801523
 10
18.0941893304
 20
-20.5090996141
  0
LWPOLYLINE
  5
5BB
100
AcDbEntity
  8
0
100
AcDbPolyline
 62
7
  6
CONTINUOUS
 90
22
 70
0
 10
22.4608870222
 20
11.2646605755
 10
22.4554056153
 20
11.2318497789
 10
22.44974641
 20
11.1992995059
 10
22.4439094062
 20
11.1670097563
 10
22.4378988366
 20
11.1350094736
 10
22.4317104685
 20
11.1032697145
 10
22.425331604
 20
11.0717036487
 10
22.4187614217
 20
11.0402977057
 10
22.412000743
 20
11.0090654561
 10
22.4050393335
 20
10.9779607815
 10
22.3978703339
 20
10.9469530799
 10
22.3905006034
 20
10.9160729533
 10
22.3829404859
 20
10.8853660902
 10
22.3751897656
 20
10.8548361847
 10
22.3672486584
 20
10.8244795426
 10
22.3591281551
 20
10.7943307695
 10
22.3508326528
 20
10.7644067932
 10
22.3423577544
 20
10.7346906859
 10
22.3337012608
 20
10.7051662697
 10
22.3248624386
 20
10.6758281518
 10
22.3158420212
 20
10.6466817249
 10
22.3066400083
 20
10.617726989
  0
LWPOLYLINE
  5
5BC
100
AcDbEntity
  8
0
100
AcDbPolyline
 62
7
  6
CONTINUOUS
 90
22
 70
0
 10
22.9558617691
 20
11.5121479489
 10
22.9503803622
 20
11.4793371523
 10
22.9447211568
 20
11.4467868793
 10
22.938884153
 20
11.4144971297
 10
22.9328735834
 20
11.3824968471
 10
22.9266852153
 20
11.3507570879
 10
22.9203063508
 20
11.3191910221
 10
22.9137361686
 20
11.2877850791
 10
22.9069754899
 20
11.2565528295
 10
22.9000140804
 20
11.225448155
 10
22.8928450807
 20
11.1944404533
 10
22.8854753502
 20
11.1635603267
 10
22.8779152327
 20
11.1328534636
 10
22.8701645124
 20
11.1023235581
 10
22.8622234052
 20
11.071966916
 10
22.854102902
 20
11.0418181429
 10
22.8458073996
 20
11.0118941666
 10
22.8373325013
 20
10.9821780594
 10
22.8286760076
 20
10.9526536431
 10
22.8198371855
 20
10.9233155252
 10
22.810816768
 20
10.8941690983
 10
22.8016147552
 20
10.8652143624
  0
LINE
  5
5BD
100
AcDbEntity
  8
0
100
AcDbLine
 62
7
  6
CONTINUOUS
 10
23.9810586438
 20
12.6100415425
 11
23.9999875179
 21
12.6968568653
  0
LWPOLYLINE
  5
5BE
100
AcDbEntity
  8
0
100
AcDbPolyline
 62
7
  6
CONTINUOUS
 90
7
 70
0
 10
23.9999873525
 20
12.6968568737
 10
23.9984284839
 20
12.6909224213
 10
23.9963714891
 20
12.6854678697
 10
23.9937388358
 20
12.6800795284
 10
23.9905362292
 20
12.6747714343
 10
23.9867579641
 20
12.6695295506
 10
23.9824040405
 20
12.6643538772
  0
LWPOLYLINE
  5
5BF
100
AcDbEntity
  8
RACCORDO
100
AcDbPolyline
 62
7
  6
CONTINUOUS
 90
7
 70
0
 10
21.3863779153
 20
-10.0750353399
 10
21.4208711577
 20
-10.0348345265
 10
21.4510008116
 20
-9.9910748929
 10
21.4764802506
 20
-9.9440217397
 10
21.4969273382
 20
-9.8941078115
 10
21.5119057457
 20
-9.8421642809
 10
21.5211824246
 20
-9.7889598956
  0
LWPOLYLINE
  5
5C0
100
AcDbEntity
  8
ASSI
100
AcDbPolyline
 62
7
  6
CONTINUOUS
 90
7
 70
0
 10
21.3863779153
 20
-10.0750353399
 10
21.4208711577
 20
-10.0348345265
 10
21.4510008116
 20
-9.9910748929
 10
21.4764802506
 20
-9.9440217397
 10
21.4969273382
 20
-9.8941078115
 10
21.5119057457
 20
-9.8421642809
 10
21.5211824246
 20
-9.7889598956
  0
LWPOLYLINE
  5
5C1
100
AcDbEntity
  8
RACCORDO
100
AcDbPolyline
 62
253
  6
CONTINUOUS
 90
9
 70
0
 10
21.2699071691
 20
-10.1653923202
 10
21.2960700777
 20
-10.1464308864
 10
21.3192608875
 20
-10.1229065661
 10
21.3392256135
 20
-10.0950769968
 10
21.3557456028
 20
-10.0632469671
 10
21.368639929
 20
-10.0277650783
 10
21.3777673739
 20
-9.9890199267
 10
21.3830279741
 20
-9.9474358479
 10
21.3843641157
 20
-9.9034682693
  0
LWPOLYLINE
  5
5C2
100
AcDbEntity
  8
ASSI
100
AcDbPolyline
 62
253
  6
CONTINUOUS
 90
9
 70
0
 10
21.2699071691
 20
-10.1653923202
 10
21.2960700777
 20
-10.1464308864
 10
21.3192608875
 20
-10.1229065661
 10
21.3392256135
 20
-10.0950769968
 10
21.3557456028
 20
-10.0632469671
 10
21.368639929
 20
-10.0277650783
 10
21.3777673739
 20
-9.9890199267
 10
21.3830279741
 20
-9.9474358479
 10
21.3843641157
 20
-9.9034682693
  0
LWPOLYLINE
  5
5C3
100
AcDbEntity
  8
RACCORDO
100
AcDbPolyline
 62
7
  6
CONTINUOUS
 90
4
 70
0
 10
21.2621061257
 20
-10.1698441122
 10
21.3063269836
 20
-10.1429410921
 10
21.3479705463
 20
-10.1112379604
 10
21.3863779153
 20
-10.0750353399
  0
LWPOLYLINE
  5
5C4
100
AcDbEntity
  8
ASSI
100
AcDbPolyline
 62
7
  6
CONTINUOUS
 90
4
 70
0
 10
21.2621061257
 20
-10.1698441122
 10
21.3063269836
 20
-10.1429410921
 10
21.3479705463
 20
-10.1112379604
 10
21.3863779153
 20
-10.0750353399
  0
LWPOLYLINE
  5
5C5
100
AcDbEntity
  8
RACCORDO
100
AcDbPolyline
 62
253
  6
CONTINUOUS
 90
7
 70
0
 10
21.3843641157
 20
-9.9034682693
 10
21.417847234
 20
-9.8842629789
 10
21.4473699602
 20
-9.863356302
 10
21.4725654065
 20
-9.8409470484
 10
21.4931325814
 20
-9.8172186317
 10
21.508744832
 20
-9.7924435217
 10
21.519131025
 20
-9.7669931961
  0
LWPOLYLINE
  5
5C6
100
AcDbEntity
  8
ASSI
100
AcDbPolyline
 62
253
  6
CONTINUOUS
 90
7
 70
0
 10
21.3843641157
 20
-9.9034682693
 10
21.417847234
 20
-9.8842629789
 10
21.4473699602
 20
-9.863356302
 10
21.4725654065
 20
-9.8409470484
 10
21.4931325814
 20
-9.8172186317
 10
21.508744832
 20
-9.7924435217
 10
21.519131025
 20
-9.7669931961
  0
LINE
  5
5C7
100
AcDbEntity
  8
RACCORDO
100
AcDbLine
 62
253
  6
CONTINUOUS
 10
21.2621061257
 20
-10.1698441122
 11
21.2699071691
 21
-10.1653923202
  0
LINE
  5
5C8
100
AcDbEntity
  8
ASSI
100
AcDbLine
 62
253
  6
CONTINUOUS
 10
21.2621061257
 20
-10.1698441122
 11
21.2699071691
 21
-10.1653923202
  0
LWPOLYLINE
  5
5C9
100
AcDbEntity
  8
ASSI
100
AcDbPolyline
 62
7
  6
CONTINUOUS
 90
3
 70
0
 10
-3.8826557536
 20
19.7893985422
 10
-3.9644971514
 20
19.7733851508
 10
-4.0469280296
 20
19.7465821562
  0
LWPOLYLINE
  5
5CA
100
AcDbEntity
  8
RACCORDO
100
AcDbPolyline
 62
7
  6
CONTINUOUS
 90
5
 70
0
 10
-3.8402385793
 20
19.7934534153
 10
-3.9005808294
 20
19.7868045957
 10
-3.961722073
 20
19.7741018942
 10
-4.0232435004
 20
19.7553740975
 10
-4.0848335704
 20
19.7306733097
  0
LWPOLYLINE
  5
5CB
100
AcDbEntity
  8
RACCORDO
100
AcDbPolyline
 62
7
  6
CONTINUOUS
 90
12
 70
0
 10
-21.5714397779
 20
20.6284873763
 10
-21.5665401715
 20
20.6288074471
 10
-21.5491823928
 20
20.6291852635
 10
-21.5318315432
 20
20.6288023936
 10
-21.5144861382
 20
20.6276630731
 10
-21.4974683686
 20
20.6257752691
 10
-21.4807025348
 20
20.6230990553
 10
-21.4642643365
 20
20.6196743579
 10
-21.4487030645
 20
20.6156289238
 10
-21.4342018157
 20
20.6110053352
 10
-21.4205774932
 20
20.6057610098
 10
-21.407830097
 20
20.5998959476
  0
LWPOLYLINE
  5
5CC
100
AcDbEntity
  8
RACCORDO
100
AcDbPolyline
 62
253
  6
CONTINUOUS
 90
13
 70
0
 10
-21.2850501329
 20
28.5962631306
 10
-21.3199513712
 20
28.6070180637
 10
-21.3558283006
 20
28.6146004173
 10
-21.3921361374
 20
28.6190287926
 10
-21.4287442636
 20
28.6204614316
 10
-21.4654487912
 20
28.6190568619
 10
-21.5015428102
 20
28.6150625134
 10
-21.5366848116
 20
28.6088044165
 10
-21.570911082
 20
28.6005502218
 10
-21.6040803446
 20
28.5905754104
 10
-21.6360845819
 20
28.5791466886
 10
-21.666848191
 20
28.5665170549
 10
-21.6963040807
 20
28.5529277486
  0
LWPOLYLINE
  5
5CD
100
AcDbEntity
  8
ASSI
100
AcDbPolyline
 62
253
  6
CONTINUOUS
 90
13
 70
0
 10
-21.2850501329
 20
28.5962631306
 10
-21.3199513712
 20
28.6070180637
 10
-21.3558283006
 20
28.6146004173
 10
-21.3921361374
 20
28.6190287926
 10
-21.4287442636
 20
28.6204614316
 10
-21.4654487912
 20
28.6190568619
 10
-21.5015428102
 20
28.6150625134
 10
-21.5366848116
 20
28.6088044165
 10
-21.570911082
 20
28.6005502218
 10
-21.6040803446
 20
28.5905754104
 10
-21.6360845819
 20
28.5791466886
 10
-21.666848191
 20
28.5665170549
 10
-21.6963040807
 20
28.5529277486
  0
LINE
  5
5CE
100
AcDbEntity
  8
RACCORDO
100
AcDbLine
 62
253
  6
CONTINUOUS
 10
-24.3842367491
 20
30.6248854851
 11
-24.3502930418
 21
30.6133117069
  0
LINE
  5
5CF
100
AcDbEntity
  8
ASSI
100
AcDbLine
 62
253
  6
CONTINUOUS
 10
-24.3842367491
 20
30.6248854851
 11
-24.3502930418
 21
30.6133117069
  0
LWPOLYLINE
  5
5D0
100
AcDbEntity
  8
RACCORDO
100
AcDbPolyline
 62
7
  6
CONTINUOUS
 90
5
 70
0
 10
-24.333738301
 20
30.6064470246
 10
-24.4010708113
 20
30.6318709841
 10
-24.4729241202
 20
30.6480375973
 10
-24.5485533481
 20
30.6543666128
 10
-24.6269278601
 20
30.6504378937
  0
LWPOLYLINE
  5
5D1
100
AcDbEntity
  8
RACCORDO
100
AcDbPolyline
 62
253
  6
CONTINUOUS
 90
8
 70
0
 10
-6.9844072336
 20
27.7259800316
 10
-7.020740997
 20
27.7423730745
 10
-7.0567443411
 20
27.7538108882
 10
-7.09202294
 20
27.7601682214
 10
-7.1261904583
 20
27.7613754657
 10
-7.1588726288
 20
27.757419408
 10
-7.1897113759
 20
27.7483434506
 10
-7.2002169443
 20
27.7438768856
  0
LWPOLYLINE
  5
5D2
100
AcDbEntity
  8
ASSI
100
AcDbPolyline
 62
253
  6
CONTINUOUS
 90
8
 70
0
 10
-6.9844072336
 20
27.7259800316
 10
-7.020740997
 20
27.7423730745
 10
-7.0567443411
 20
27.7538108882
 10
-7.09202294
 20
27.7601682214
 10
-7.1261904583
 20
27.7613754657
 10
-7.1588726288
 20
27.757419408
 10
-7.1897113759
 20
27.7483434506
 10
-7.2002169443
 20
27.7438768856
  0
LINE
  5
5D3
100
AcDbEntity
  8
RACCORDO
100
AcDbLine
 62
253
  6
CONTINUOUS
 10
9.910945662
 20
18.7177008531
 11
9.9237047536
 21
18.7119105634
  0
LINE
  5
5D4
100
AcDbEntity
  8
ASSI
100
AcDbLine
 62
253
  6
CONTINUOUS
 10
9.910945662
 20
18.7177008531
 11
9.923715147
 21
18.7119053701
  0
LWPOLYLINE
  5
5D5
100
AcDbEntity
  8
RACCORDO
100
AcDbPolyline
 62
253
  6
CONTINUOUS
 90
6
 70
0
 10
-8.3861723797
 20
27.7469492536
 10
-8.3208137087
 20
27.7171533838
 10
-8.25196466
 20
27.6905502648
 10
-8.1796252334
 20
27.6671398966
 10
-8.1032254402
 20
27.6468309002
 10
-8.0233352691
 20
27.6297146546
  0
LWPOLYLINE
  5
5D6
100
AcDbEntity
  8
ASSI
100
AcDbPolyline
 62
253
  6
CONTINUOUS
 90
6
 70
0
 10
-8.3861723797
 20
27.7469492536
 10
-8.3208137087
 20
27.7171533838
 10
-8.25196466
 20
27.6905502648
 10
-8.1796252334
 20
27.6671398966
 10
-8.1032254402
 20
27.6468309002
 10
-8.0233352691
 20
27.6297146546
  0
LINE
  5
5D7
100
AcDbEntity
  8
RACCORDO
100
AcDbLine
 62
7
  6
CONTINUOUS
 10
-8.1464638743
 20
27.7476168481
 11
-8.1685694587
 21
27.7580457287
  0
LINE
  5
5D8
100
AcDbEntity
  8
ASSI
100
AcDbLine
 62
7
  6
CONTINUOUS
 10
-8.14721991
 20
27.7479735275
 11
-8.1685659618
 21
27.7580439761
  0
LINE
  5
5D9
100
AcDbEntity
  8
RACCORDO
100
AcDbLine
 62
7
  6
CONTINUOUS
 10
-7.56696227
 20
28.018271747
 11
-7.584187211
 21
28.0265763087
  0
LINE
  5
5DA
100
AcDbEntity
  8
ASSI
100
AcDbLine
 62
7
  6
CONTINUOUS
 10
-7.5669646196
 20
28.0182729178
 11
-7.5827029217
 21
28.0258606969
  0
LINE
  5
5DB
100
AcDbEntity
  8
0
100
AcDbLine
 62
7
  6
CONTINUOUS
 10
22.3998798869
 20
11.6165609136
 11
22.2790196039
 21
11.6769910551
  0
LINE
  5
5DC
100
AcDbEntity
  8
RACCORDO
100
AcDbLine
 62
7
  6
CONTINUOUS
 10
24.3420109545
 20
10.6854132346
 11
23.2981250926
 21
11.2073561656
  0
LINE
  5
5DD
100
AcDbEntity
  8
ASSI
100
AcDbLine
 62
7
  6
CONTINUOUS
 10
24.3420109545
 20
10.6854132346
 11
23.2981250926
 21
11.2073561656
  0
LINE
  5
5DE
100
AcDbEntity
  8
0
100
AcDbLine
 62
7
  6
CONTINUOUS
 10
22.3273993783
 20
11.8263791443
 11
22.9558617691
 21
11.5121479489
  0
LINE
  5
5DF
100
AcDbEntity
  8
0
100
AcDbLine
 62
7
  6
CONTINUOUS
 10
23.1011036288
 20
11.9671727845
 11
22.5016791063
 21
12.2668850458
  0
LINE
  5
5E0
100
AcDbEntity
  8
RACCORDO
100
AcDbLine
 62
253
  6
CONTINUOUS
 10
17.6003597168
 20
14.7536832054
 11
9.7063160467
 21
18.7007050404
  0
LINE
  5
5E1
100
AcDbEntity
  8
ASSI
100
AcDbLine
 62
253
  6
CONTINUOUS
 10
17.6003597168
 20
14.7536832054
 11
9.7063160467
 21
18.7007050404
  0
LINE
  5
5E2
100
AcDbEntity
  8
RACCORDO
100
AcDbLine
 62
253
  6
CONTINUOUS
 10
-8.3861723797
 20
27.7469492536
 11
-16.2802160498
 21
31.6939710887
  0
LINE
  5
5E3
100
AcDbEntity
  8
ASSI
100
AcDbLine
 62
253
  6
CONTINUOUS
 10
-8.3861723797
 20
27.7469492536
 11
-16.2802160498
 21
31.6939710887
  0
LINE
  5
5E4
100
AcDbEntity
  8
RACCORDO
100
AcDbLine
 62
7
  6
CONTINUOUS
 10
17.8177961571
 20
14.7648648702
 11
9.9237524847
 21
18.7118867064
  0
LINE
  5
5E5
100
AcDbEntity
  8
ASSI
100
AcDbLine
 62
7
  6
CONTINUOUS
 10
17.8177961571
 20
14.7648648702
 11
9.9237524847
 21
18.7118867064
  0
LINE
  5
5E6
100
AcDbEntity
  8
RACCORDO
100
AcDbLine
 62
7
  6
CONTINUOUS
 10
-8.1687359375
 20
27.7581309175
 11
-16.0627796095
 21
31.7051527535
  0
LINE
  5
5E7
100
AcDbEntity
  8
ASSI
100
AcDbLine
 62
7
  6
CONTINUOUS
 10
-8.1687359375
 20
27.7581309175
 11
-16.0627796095
 21
31.7051527535
  0
LINE
  5
5E8
100
AcDbEntity
  8
RACCORDO
100
AcDbLine
 62
7
  6
CONTINUOUS
 10
26.2634018376
 20
10.7853779649
 11
23.8655177911
 21
11.9843199881
  0
LINE
  5
5E9
100
AcDbEntity
  8
ASSI
100
AcDbLine
 62
7
  6
CONTINUOUS
 10
26.2634018376
 20
10.7853779649
 11
23.8655177911
 21
11.9843199881
  0
LINE
  5
5EA
100
AcDbEntity
  8
RACCORDO
100
AcDbLine
 62
253
  6
CONTINUOUS
 10
-7.180363271
 20
27.7530459699
 11
-7.697285064
 21
28.0115068664
  0
LINE
  5
5EB
100
AcDbEntity
  8
ASSI
100
AcDbLine
 62
253
  6
CONTINUOUS
 10
-7.180363271
 20
27.7530459699
 11
-7.697285064
 21
28.0115068664
  0
LINE
  5
5EC
100
AcDbEntity
  8
RACCORDO
100
AcDbLine
 62
7
  6
CONTINUOUS
 10
-7.1055686646
 20
27.7875885977
 11
-7.566822335
 21
28.0182154329
  0
LINE
  5
5ED
100
AcDbEntity
  8
ASSI
100
AcDbLine
 62
7
  6
CONTINUOUS
 10
-7.1055686646
 20
27.7875885977
 11
-7.566822335
 21
28.0182154329
  0
LINE
  5
5EE
100
AcDbEntity
  8
0
100
AcDbLine
 62
7
  6
CONTINUOUS
 10
23.1011036288
 20
13.0064032691
 11
22.9630937118
 21
13.0754082276
  0
LINE
  5
5EF
100
AcDbEntity
  8
ASSI
100
AcDbLine
 62
7
  6
CONTINUOUS
 10
9.9237144026
 20
18.7119038797
 11
9.9145331045
 21
18.716631769
  0
LINE
  5
5F0
100
AcDbEntity
  8
RACCORDO
100
AcDbLine
 62
7
  6
CONTINUOUS
 10
9.923704009
 20
18.7119090725
 11
9.9135153485
 21
18.7171558779
  0
LWPOLYLINE
  5
5F1
100
AcDbEntity
  8
RACCORDO
100
AcDbPolyline
 62
253
  6
CONTINUOUS
 90
16
 70
0
 10
17.6003597168
 20
14.7536832054
 10
17.637914212
 20
14.7331322358
 10
17.6749898341
 20
14.7080309334
 10
17.7111805322
 20
14.6786542069
 10
17.7460899472
 20
14.645323789
 10
17.7793357523
 20
14.6084047133
 10
17.8105538407
 20
14.5683013162
 10
17.8394023129
 20
14.5254528088
 10
17.8655652215
 20
14.4803284663
 10
17.8887560313
 20
14.433422489
 10
17.9087207574
 20
14.3852485894
 10
17.9252407467
 20
14.3363343664
 10
17.9381350729
 20
14.2872155269
 10
17.9472625178
 20
14.2384300186
 10
17.952523118
 20
14.1905121386
 10
17.9538592595
 20
14.1439866821
  0
LWPOLYLINE
  5
5F2
100
AcDbEntity
  8
ASSI
100
AcDbPolyline
 62
253
  6
CONTINUOUS
 90
16
 70
0
 10
17.6003597168
 20
14.7536832054
 10
17.637914212
 20
14.7331322358
 10
17.6749898341
 20
14.7080309334
 10
17.7111805322
 20
14.6786542069
 10
17.7460899472
 20
14.645323789
 10
17.7793357523
 20
14.6084047133
 10
17.8105538407
 20
14.5683013162
 10
17.8394023129
 20
14.5254528088
 10
17.8655652215
 20
14.4803284663
 10
17.8887560313
 20
14.433422489
 10
17.9087207574
 20
14.3852485894
 10
17.9252407467
 20
14.3363343664
 10
17.9381350729
 20
14.2872155269
 10
17.9472625178
 20
14.2384300186
 10
17.952523118
 20
14.1905121386
 10
17.9538592595
 20
14.1439866821
  0
LWPOLYLINE
  5
5F3
100
AcDbEntity
  8
RACCORDO
100
AcDbPolyline
 62
253
  6
CONTINUOUS
 90
16
 70
0
 10
9.6940830222
 20
19.3867349038
 10
9.7316385512
 20
19.3661833006
 10
9.7687151166
 20
19.3410811597
 10
9.8049066387
 20
19.3117034325
 10
9.8398167853
 20
19.2783718444
 10
9.8730631546
 20
19.2414515167
 10
9.9042814894
 20
19.2013470181
 10
9.9331298905
 20
19.1584976777
 10
9.9592924777
 20
19.1133728009
 10
9.9824827265
 20
19.0664667226
 10
10.0024467014
 20
19.0182932693
 10
10.0189658816
 20
18.9693799689
 10
10.031859474
 20
18.9202623553
 10
10.0409863344
 20
18.871478285
 10
10.0462465493
 20
18.8235620516
 10
10.047582567
 20
18.7770383815
  0
LWPOLYLINE
  5
5F4
100
AcDbEntity
  8
ASSI
100
AcDbPolyline
 62
253
  6
CONTINUOUS
 90
16
 70
0
 10
9.6940830222
 20
19.3867349038
 10
9.7316385512
 20
19.3661833006
 10
9.7687151166
 20
19.3410811597
 10
9.8049066387
 20
19.3117034325
 10
9.8398167853
 20
19.2783718444
 10
9.8730631546
 20
19.2414515167
 10
9.9042814894
 20
19.2013470181
 10
9.9331298905
 20
19.1584976777
 10
9.9592924777
 20
19.1133728009
 10
9.9824827265
 20
19.0664667226
 10
10.0024467014
 20
19.0182932693
 10
10.0189658816
 20
18.9693799689
 10
10.031859474
 20
18.9202623553
 10
10.0409863344
 20
18.871478285
 10
10.0462465493
 20
18.8235620516
 10
10.047582567
 20
18.7770383815
  0
LINE
  5
5F5
100
AcDbEntity
  8
0
100
AcDbLine
 62
7
  6
CONTINUOUS
 10
23.5426815086
 20
13.0006378925
 11
23.9511306754
 21
12.7729910338
  0
LINE
  5
5F6
100
AcDbEntity
  8
ASSI
100
AcDbLine
 62
7
  6
CONTINUOUS
 10
9.9145331045
 20
18.716631769
 11
9.8945892741
 21
18.7278317429
  0
LWPOLYLINE
  5
5F7
100
AcDbEntity
  8
ASSI
100
AcDbPolyline
 62
7
  6
CONTINUOUS
 90
11
 70
0
 10
17.8176186071
 20
14.7649535278
 10
17.8625049227
 20
14.7395597464
 10
17.904690644
 20
14.7095555249
 10
17.9436250918
 20
14.675274916
 10
17.9789311342
 20
14.6369845907
 10
18.0101917482
 20
14.5950355053
 10
18.0369910583
 20
14.5498724063
 10
18.0589848711
 20
14.5019475911
 10
18.0758729689
 20
14.4517441537
 10
18.0873894327
 20
14.3998320133
 10
18.0933360575
 20
14.3468501396
  0
LINE
  5
5F8
100
AcDbEntity
  8
RACCORDO
100
AcDbLine
 62
7
  6
CONTINUOUS
 10
17.8176186045
 20
14.764953529
 11
17.8625050606
 21
14.7395596483
  0
LINE
  5
5F9
100
AcDbEntity
  8
RACCORDO
100
AcDbLine
 62
7
  6
CONTINUOUS
 10
9.9135153485
 20
18.7171558779
 11
9.8937190213
 21
18.728357813
  0
LINE
  5
5FA
100
AcDbEntity
  8
RACCORDO
100
AcDbLine
 62
7
  6
CONTINUOUS
 10
9.8937190213
 20
18.728357813
 11
9.879362451
 21
18.7376476965
  0
LINE
  5
5FB
100
AcDbEntity
  8
ASSI
100
AcDbLine
 62
7
  6
CONTINUOUS
 10
9.8945892741
 20
18.7278317429
 11
9.879362451
 21
18.7376476965
  0
LWPOLYLINE
  5
5FC
100
AcDbEntity
  8
RACCORDO
100
AcDbPolyline
 62
7
  6
CONTINUOUS
 90
9
 70
0
 10
17.8625052085
 20
14.7395595646
 10
17.9046909117
 20
14.7095553128
 10
17.9436253043
 20
14.6752747083
 10
17.9789312959
 20
14.6369843958
 10
18.0101918736
 20
14.5950353172
 10
18.0369911509
 20
14.5498722298
 10
18.0589849345
 20
14.5019474312
 10
18.0758730074
 20
14.4517440153
 10
18.0873894516
 20
14.3998319003
  0
LINE
  5
5FD
100
AcDbEntity
  8
DRAFT
100
AcDbLine
 62
7
  6
CONTINUOUS
 10
6.5295077688
 20
23.2602475507
 11
6.1437434671
 21
23.5376332054
  0
LINE
  5
5FE
100
AcDbEntity
  8
RACCORDO
100
AcDbLine
 62
7
  6
CONTINUOUS
 10
9.879362451
 20
18.7376476965
 11
9.8698428708
 21
18.7446797134
  0
LINE
  5
5FF
100
AcDbEntity
  8
ASSI
100
AcDbLine
 62
7
  6
CONTINUOUS
 10
9.879362451
 20
18.7376476965
 11
9.8698428708
 21
18.7446797134
  0
LINE
  5
600
100
AcDbEntity
  8
RACCORDO
100
AcDbLine
 62
7
  6
CONTINUOUS
 10
9.8698428708
 20
18.7446797134
 11
9.865240671
 21
18.7485676771
  0
LINE
  5
601
100
AcDbEntity
  8
ASSI
100
AcDbLine
 62
7
  6
CONTINUOUS
 10
9.8698428708
 20
18.7446797134
 11
9.865240671
 21
18.7485676771
  0
LINE
  5
602
100
AcDbEntity
  8
ASSI
100
AcDbLine
 62
7
  6
CONTINUOUS
 10
9.865240671
 20
18.7485676771
 11
9.8646182272
 21
18.7491427759
  0
LINE
  5
603
100
AcDbEntity
  8
RACCORDO
100
AcDbLine
 62
7
  6
CONTINUOUS
 10
9.865240671
 20
18.7485676771
 11
9.8646171403
 21
18.7491437547
  0
LWPOLYLINE
  5
604
100
AcDbEntity
  8
RACCORDO
100
AcDbPolyline
 62
7
  6
CONTINUOUS
 90
3
 70
0
 10
18.0873894516
 20
14.3998319003
 10
18.0933360625
 20
14.3468500541
 10
18.0941893218
 20
14.3177481743
  0
LWPOLYLINE
  5
605
100
AcDbEntity
  8
RACCORDO
100
AcDbPolyline
 62
7
  6
CONTINUOUS
 90
11
 70
0
 10
26.5562932651
 20
10.4318245745
 10
26.5562540869
 20
10.4363505384
 10
26.5517649401
 20
10.4792272096
 10
26.5398796208
 20
10.5220590989
 10
26.5206822492
 20
10.5640718259
 10
26.4937827667
 20
10.6054524139
 10
26.4595712321
 20
10.6460138396
 10
26.4193019421
 20
10.6844206526
 10
26.3733929959
 20
10.7202277028
 10
26.3214262944
 20
10.7538801402
 10
26.2634018376
 20
10.7853779649
  0
LWPOLYLINE
  5
606
100
AcDbEntity
  8
ASSI
100
AcDbPolyline
 62
7
  6
CONTINUOUS
 90
11
 70
0
 10
26.5562932651
 20
10.4318245745
 10
26.5562540869
 20
10.4363505384
 10
26.5517649401
 20
10.4792272096
 10
26.5398796208
 20
10.5220590989
 10
26.5206822492
 20
10.5640718259
 10
26.4937827667
 20
10.6054524139
 10
26.4595712321
 20
10.6460138396
 10
26.4193019421
 20
10.6844206526
 10
26.3733929959
 20
10.7202277028
 10
26.3214262944
 20
10.7538801402
 10
26.2634018376
 20
10.7853779649
  0
LINE
  5
607
100
AcDbEntity
  8
0
100
AcDbLine
 62
7
  6
CONTINUOUS
 10
22.9926082392
 20
12.9421076088
 11
22.9926082392
 21
13.0606509639
  0
LINE
  5
608
100
AcDbEntity
  8
DRAFT
100
AcDbLine
 62
7
  6
CONTINUOUS
 10
23.8655177911
 20
11.9843199881
 11
23.8655177911
 21
12.222935975
  0
LINE
  5
609
100
AcDbEntity
  8
ASSI
100
AcDbLine
 62
7
  6
CONTINUOUS
 10
23.8655177911
 20
11.9843199881
 11
23.8655177911
 21
12.222935975
  0
LINE
  5
60A
100
AcDbEntity
  8
DRAFT
100
AcDbLine
 62
7
  6
CONTINUOUS
 10
23.8655177911
 20
12.8207088866
 11
23.8655177911
 21
13.5819296997
  0
LINE
  5
60B
100
AcDbEntity
  8
ASSI
100
AcDbLine
 62
7
  6
CONTINUOUS
 10
23.8655177911
 20
12.8207088866
 11
23.8655177911
 21
13.5819296997
  0
LINE
  5
60C
100
AcDbEntity
  8
RACCORDO
100
AcDbLine
 62
253
  6
CONTINUOUS
 10
26.2756348567
 20
15.858482984
 11
26.2756348567
 21
15.2806478117
  0
LINE
  5
60D
100
AcDbEntity
  8
ASSI
100
AcDbLine
 62
253
  6
CONTINUOUS
 10
26.2756348567
 20
15.858482984
 11
26.2756348567
 21
15.2806478117
  0
LINE
  5
60E
100
AcDbEntity
  8
RACCORDO
100
AcDbLine
 62
253
  6
CONTINUOUS
 10
26.2756348567
 20
10.084495389
 11
26.2756348567
 21
9.5066602168
  0
LINE
  5
60F
100
AcDbEntity
  8
ASSI
100
AcDbLine
 62
253
  6
CONTINUOUS
 10
26.2756348567
 20
10.084495389
 11
26.2756348567
 21
9.5066602168
  0
LINE
  5
610
100
AcDbEntity
  8
RACCORDO
100
AcDbLine
 62
7
  6
CONTINUOUS
 10
26.5562950564
 20
16.2005990351
 11
26.5562950564
 21
15.627976997
  0
LINE
  5
611
100
AcDbEntity
  8
ASSI
100
AcDbLine
 62
7
  6
CONTINUOUS
 10
26.556295047
 20
16.2006668444
 11
26.5562950564
 21
15.627976997
  0
LINE
  5
612
100
AcDbEntity
  8
RACCORDO
100
AcDbLine
 62
7
  6
CONTINUOUS
 10
26.5562950564
 20
10.4318245743
 11
26.5562950564
 21
9.8592025362
  0
LINE
  5
613
100
AcDbEntity
  8
ASSI
100
AcDbLine
 62
7
  6
CONTINUOUS
 10
26.5562950564
 20
10.4318245743
 11
26.5562950564
 21
9.8592025362
  0
LWPOLYLINE
  5
614
100
AcDbEntity
  8
RACCORDO
100
AcDbPolyline
 62
253
  6
CONTINUOUS
 90
8
 70
0
 10
26.2756348567
 20
9.5066602168
 10
26.2733497721
 20
9.452053107
 10
26.2649517519
 20
9.4013507876
 10
26.2505845331
 20
9.3554204365
 10
26.2304939322
 20
9.3150475619
 10
26.2050236773
 20
9.2809226582
 10
26.1746095627
 20
9.2536293525
 10
26.1537063367
 20
9.2404625533
  0
LWPOLYLINE
  5
615
100
AcDbEntity
  8
ASSI
100
AcDbPolyline
 62
253
  6
CONTINUOUS
 90
8
 70
0
 10
26.2756348567
 20
9.5066602168
 10
26.2733497721
 20
9.452053107
 10
26.2649517519
 20
9.4013507876
 10
26.2505845331
 20
9.3554204365
 10
26.2304939322
 20
9.3150475619
 10
26.2050236773
 20
9.2809226582
 10
26.1746095627
 20
9.2536293525
 10
26.1536937573
 20
9.2404557347
  0
LINE
  5
616
100
AcDbEntity
  8
RACCORDO
100
AcDbLine
 62
7
  6
CONTINUOUS
 10
26.5527985957
 20
9.7929913012
 11
26.5562942881
 21
9.8593278808
  0
LWPOLYLINE
  5
617
100
AcDbEntity
  8
RACCORDO
100
AcDbPolyline
 62
253
  6
CONTINUOUS
 90
10
 70
0
 10
26.0624459161
 20
16.6387890912
 10
26.0609143148
 20
16.617685435
 10
26.0556526728
 20
16.5966027039
 10
26.046787181
 20
16.5760200114
 10
26.0342128826
 20
16.5559416319
 10
26.0180347345
 20
16.5363632912
 10
25.9986937974
 20
16.5177512793
 10
25.9763370919
 20
16.5002610264
 10
25.9508175974
 20
16.4837371024
 10
25.922135314
 20
16.4681795073
  0
LWPOLYLINE
  5
618
100
AcDbEntity
  8
ASSI
100
AcDbPolyline
 62
253
  6
CONTINUOUS
 90
10
 70
0
 10
26.0624459161
 20
16.6387890912
 10
26.0609143148
 20
16.617685435
 10
26.0556526728
 20
16.5966027039
 10
26.046787181
 20
16.5760200114
 10
26.0342128826
 20
16.5559416319
 10
26.0180347345
 20
16.5363632912
 10
25.9986937974
 20
16.5177512793
 10
25.9763370919
 20
16.5002610264
 10
25.9508175974
 20
16.4837371024
 10
25.922135314
 20
16.4681795073
  0
LWPOLYLINE
  5
619
100
AcDbEntity
  8
RACCORDO
100
AcDbPolyline
 62
7
  6
CONTINUOUS
 90
10
 70
0
 10
26.5562932651
 20
15.6279769972
 10
26.5533098345
 20
15.5895779707
 10
26.5429694094
 20
15.5466081983
 10
26.525260371
 20
15.5043786363
 10
26.4997728509
 20
15.4626867952
 10
26.4669167173
 20
15.4217351644
 10
26.4279491346
 20
15.3829162046
 10
26.3832891577
 20
15.3466940693
 10
26.3325177317
 20
15.312604605
 10
26.2756348567
 20
15.2806478117
  0
LWPOLYLINE
  5
61A
100
AcDbEntity
  8
ASSI
100
AcDbPolyline
 62
7
  6
CONTINUOUS
 90
10
 70
0
 10
26.5562932651
 20
15.6279769972
 10
26.5533098345
 20
15.5895779707
 10
26.5429694094
 20
15.5466081983
 10
26.525260371
 20
15.5043786363
 10
26.4997728509
 20
15.4626867952
 10
26.4669167173
 20
15.4217351644
 10
26.4279491346
 20
15.3829162046
 10
26.3832891577
 20
15.3466940693
 10
26.3325177317
 20
15.312604605
 10
26.2756348567
 20
15.2806478117
  0
LWPOLYLINE
  5
61B
100
AcDbEntity
  8
RACCORDO
100
AcDbPolyline
 62
253
  6
CONTINUOUS
 90
10
 70
0
 10
26.5562950559
 20
16.2005828362
 10
26.5532895578
 20
16.1622929015
 10
26.542903698
 20
16.1199924535
 10
26.5251756226
 20
16.0783253554
 10
26.5002356205
 20
16.0376054091
 10
26.4682686685
 20
15.9981405533
 10
26.4295128877
 20
15.9602170804
 10
26.3842568168
 20
15.9241179036
 10
26.3328366609
 20
15.8901205425
 10
26.2756348567
 20
15.858482984
  0
LWPOLYLINE
  5
61C
100
AcDbEntity
  8
ASSI
100
AcDbPolyline
 62
253
  6
CONTINUOUS
 90
10
 70
0
 10
26.5562950564
 20
16.2005990286
 10
26.5532895578
 20
16.1622929015
 10
26.542903698
 20
16.1199924535
 10
26.5251756226
 20
16.0783253554
 10
26.5002356205
 20
16.0376054091
 10
26.4682686685
 20
15.9981405533
 10
26.4295128877
 20
15.9602170804
 10
26.3842568168
 20
15.9241179036
 10
26.3328366609
 20
15.8901205425
 10
26.2756348567
 20
15.858482984
  0
LWPOLYLINE
  5
61D
100
AcDbEntity
  8
ASSI
100
AcDbPolyline
 62
7
  6
CONTINUOUS
 90
3
 70
0
 10
26.542869271
 20
9.7297654015
 10
26.5532855036
 20
9.797771771
 10
26.5562942817
 20
9.8592488564
  0
LWPOLYLINE
  5
61E
100
AcDbEntity
  8
RACCORDO
100
AcDbPolyline
 62
253
  6
CONTINUOUS
 90
3
 70
0
 10
21.519131025
 20
-9.7669931961
 10
21.5241758335
 20
-9.7411847272
 10
21.5246942155
 20
-9.7298036767
  0
LWPOLYLINE
  5
61F
100
AcDbEntity
  8
ASSI
100
AcDbPolyline
 62
253
  6
CONTINUOUS
 90
3
 70
0
 10
21.519131025
 20
-9.7669931961
 10
21.5241758335
 20
-9.7411847272
 10
21.5246942155
 20
-9.7298036767
  0
LWPOLYLINE
  5
620
100
AcDbEntity
  8
RACCORDO
100
AcDbPolyline
 62
7
  6
CONTINUOUS
 90
10
 70
0
 10
10.1341967488
 20
-27.7981664709
 10
10.2055268719
 20
-27.7248616554
 10
10.2719270245
 20
-27.6447598961
 10
10.3326545165
 20
-27.559195015
 10
10.3875206535
 20
-27.4687938517
 10
10.4361281046
 20
-27.3743964548
 10
10.4780035529
 20
-27.2769888517
 10
10.5127163516
 20
-27.1775239264
 10
10.5399072252
 20
-27.0767637366
 10
10.5591560632
 20
-26.9755589717
  0
LWPOLYLINE
  5
621
100
AcDbEntity
  8
ASSI
100
AcDbPolyline
 62
7
  6
CONTINUOUS
 90
10
 70
0
 10
10.1315424247
 20
-27.8006673206
 10
10.2033418253
 20
-27.7272912188
 10
10.2701854482
 20
-27.6470269477
 10
10.3313139393
 20
-27.561233007
 10
10.3865431621
 20
-27.4705371426
 10
10.4354686142
 20
-27.3757927651
 10
10.4776100633
 20
-27.2779990323
 10
10.5125315107
 20
-27.1781208107
 10
10.5398683521
 20
-27.0769324765
 10
10.5591952981
 20
-26.9752964862
  0
LINE
  5
622
100
AcDbEntity
  8
0
100
AcDbLine
 62
7
  6
CONTINUOUS
 10
-18.095633642
 20
21.5516507802
 11
-14.4738972973
 21
22.3791472693
  0
LINE
  5
623
100
AcDbEntity
  8
0
100
AcDbLine
 62
7
  6
CONTINUOUS
 10
-18.0344152745
 20
21.9204588215
 11
-13.4175234696
 21
22.9753290262
  0
LINE
  5
624
100
AcDbEntity
  8
RACCORDO
100
AcDbLine
 62
7
  6
CONTINUOUS
 10
-16.7928852289
 20
22.976794707
 11
-18.7948872574
 21
22.5193760845
  0
LINE
  5
625
100
AcDbEntity
  8
RACCORDO
100
AcDbLine
 62
7
  6
CONTINUOUS
 10
-13.542574108
 20
24.1057629172
 11
-14.6139032163
 21
23.8609850009
  0
LINE
  5
626
100
AcDbEntity
  8
RACCORDO
100
AcDbLine
 62
7
  6
CONTINUOUS
 10
-14.7711062727
 20
23.8250671524
 11
-14.8704446218
 21
23.8023702669
  0
LWPOLYLINE
  5
627
100
AcDbEntity
  8
RACCORDO
100
AcDbPolyline
 62
7
  6
CONTINUOUS
 90
25
 70
0
 10
-18.7948872574
 20
22.5193760845
 10
-18.8042944542
 20
22.5174551254
 10
-18.8141788935
 20
22.5158565737
 10
-18.8245405754
 20
22.5145804293
 10
-18.8354278191
 20
22.5136239964
 10
-18.8467923054
 20
22.512989971
 10
-18.8584890763
 20
22.51268644
 10
-18.8705223883
 20
22.5127176372
 10
-18.8828879848
 20
22.513079329
 10
-18.8954281385
 20
22.5137669018
 10
-18.9081450852
 20
22.5147845301
 10
-18.9210365891
 20
22.5161280395
 10
-18.9339382144
 20
22.517780293
 10
-18.9468500908
 20
22.5197452456
 10
-18.9597720886
 20
22.5220189423
 10
-18.9725393834
 20
22.5245723813
 10
-18.9851499932
 20
22.5274091461
 10
-18.9976059
 20
22.5305256532
 10
-19.0097482242
 20
22.5338821505
 10
-19.0215729489
 20
22.5374817123
 10
-19.033084091
 20
22.5413212642
 10
-19.044134822
 20
22.5453518315
 10
-19.0546761989
 20
22.5495570892
 10
-19.0647571646
 20
22.5539533623
 10
-19.0743777191
 20
22.5585406508
  0
LINE
  5
628
100
AcDbEntity
  8
RACCORDO
100
AcDbLine
 62
7
  6
CONTINUOUS
 10
-13.4881780315
 20
23.9165109881
 11
-14.7073619999
 21
23.8563751802
  0
LINE
  5
629
100
AcDbEntity
  8
ASSI
100
AcDbLine
 62
7
  6
CONTINUOUS
 10
-13.4881780315
 20
23.9165109881
 11
-14.7073619999
 21
23.8563751802
  0
LWPOLYLINE
  5
62A
100
AcDbEntity
  8
0
100
AcDbPolyline
 62
7
  6
CONTINUOUS
 90
7
 70
0
 10
-13.4528788086
 20
24.1164744808
 10
-13.4674334226
 20
24.1161277143
 10
-13.4821458776
 20
24.1152055501
 10
-13.4970161736
 20
24.1137079883
 10
-13.5120443107
 20
24.1116350289
 10
-13.5272302888
 20
24.1089866719
 10
-13.542574108
 20
24.1057629172
  0
LWPOLYLINE
  5
62B
100
AcDbEntity
  8
RACCORDO
100
AcDbPolyline
 62
253
  6
CONTINUOUS
 90
9
 70
0
 10
-8.0233352691
 20
27.6297146546
 10
-7.9416646867
 20
27.6160652973
 10
-7.858216736
 20
27.6059378343
 10
-7.7729883739
 20
27.5992772596
 10
-7.6876804377
 20
27.5961926923
 10
-7.6022854553
 20
27.5967370262
 10
-7.5168108988
 20
27.6008573676
 10
-7.4329800216
 20
27.6085041541
 10
-7.3507580306
 20
27.619748312
  0
LWPOLYLINE
  5
62C
100
AcDbEntity
  8
ASSI
100
AcDbPolyline
 62
253
  6
CONTINUOUS
 90
9
 70
0
 10
-8.0233352691
 20
27.6297146546
 10
-7.9416646867
 20
27.6160652973
 10
-7.858216736
 20
27.6059378343
 10
-7.7729883739
 20
27.5992772596
 10
-7.6876804377
 20
27.5961926923
 10
-7.6022854553
 20
27.5967370262
 10
-7.5168108988
 20
27.6008573676
 10
-7.4329800216
 20
27.6085041541
 10
-7.3507580306
 20
27.619748312
  0
LINE
  5
62D
100
AcDbEntity
  8
ASSI
100
AcDbLine
 62
7
  6
CONTINUOUS
 10
-7.6996907337
 20
28.0671613608
 11
-7.7573097796
 21
28.0778379232
  0
LINE
  5
62E
100
AcDbEntity
  8
RACCORDO
100
AcDbLine
 62
7
  6
CONTINUOUS
 10
-7.6996701033
 20
28.0671575184
 11
-7.7563142847
 21
28.0777073934
  0
LINE
  5
62F
100
AcDbEntity
  8
ASSI
100
AcDbLine
 62
7
  6
CONTINUOUS
 10
-7.6413028974
 20
28.0498787901
 11
-7.6996907337
 21
28.0671613608
  0
LWPOLYLINE
  5
630
100
AcDbEntity
  8
RACCORDO
100
AcDbPolyline
 62
7
  6
CONTINUOUS
 90
3
 70
0
 10
-16.1339876012
 20
31.7341477298
 10
-16.0756764533
 20
31.7113717369
 10
-16.0624686353
 20
31.7049969057
  0
LWPOLYLINE
  5
631
100
AcDbEntity
  8
ASSI
100
AcDbPolyline
 62
7
  6
CONTINUOUS
 90
3
 70
0
 10
-16.1339876012
 20
31.7341477298
 10
-16.0756764533
 20
31.7113717369
 10
-16.0624686353
 20
31.7049969057
  0
LWPOLYLINE
  5
632
100
AcDbEntity
  8
RACCORDO
100
AcDbPolyline
 62
7
  6
CONTINUOUS
 90
3
 70
0
 10
-7.584187211
 20
28.0265763087
 10
-7.6422275259
 20
28.0502035059
 10
-7.6996701033
 20
28.0671575184
  0
LINE
  5
633
100
AcDbEntity
  8
ASSI
100
AcDbLine
 62
7
  6
CONTINUOUS
 10
-7.5827029217
 20
28.0258606969
 11
-7.6413028974
 21
28.0498787901
  0
LWPOLYLINE
  5
634
100
AcDbEntity
  8
RACCORDO
100
AcDbPolyline
 62
253
  6
CONTINUOUS
 90
8
 70
0
 10
21.9552193742
 20
18.9114940161
 10
21.9424863674
 20
18.9172706545
 10
21.9120163873
 20
18.9268601837
 10
21.8796146515
 20
18.9314931583
 10
21.8456282486
 20
18.931120039
 10
21.8104212871
 20
18.9257448799
 10
21.7743710098
 20
18.9154253309
 10
21.7378636554
 20
18.9002720148
  0
LWPOLYLINE
  5
635
100
AcDbEntity
  8
ASSI
100
AcDbPolyline
 62
253
  6
CONTINUOUS
 90
8
 70
0
 10
21.9552280827
 20
18.9114896668
 10
21.9424863674
 20
18.9172706545
 10
21.9120163873
 20
18.9268601837
 10
21.8796146515
 20
18.9314931583
 10
21.8456282486
 20
18.931120039
 10
21.8104212871
 20
18.9257448799
 10
21.7743710098
 20
18.9154253309
 10
21.7378636554
 20
18.9002720148
  0
LWPOLYLINE
  5
636
100
AcDbEntity
  8
RACCORDO
100
AcDbPolyline
 62
253
  6
CONTINUOUS
 90
7
 70
0
 10
26.133455205
 20
16.822376125
 10
26.1279151135
 20
16.8250336261
 10
26.0901682361
 20
16.8377833655
 10
26.0494047332
 20
16.8427924789
 10
26.0063067222
 20
16.8399774288
 10
25.9615953774
 20
16.8293855879
 10
25.9160188045
 20
16.8111944403
  0
LWPOLYLINE
  5
637
100
AcDbEntity
  8
ASSI
100
AcDbPolyline
 62
253
  6
CONTINUOUS
 90
7
 70
0
 10
26.133455205
 20
16.822376125
 10
26.1279151135
 20
16.8250336261
 10
26.0901682361
 20
16.8377833655
 10
26.0494047332
 20
16.8427924789
 10
26.0063067222
 20
16.8399774288
 10
25.9615953774
 20
16.8293855879
 10
25.9160188045
 20
16.8111944403
  0
LINE
  5
638
100
AcDbEntity
  8
DRAFT
100
AcDbLine
 62
7
  6
CONTINUOUS
 10
0.5831907979
 20
25.9549911982
 11
6.2400450474
 21
23.1265640735
  0
LINE
  5
639
100
AcDbEntity
  8
ASSI
100
AcDbLine
 62
7
  6
CONTINUOUS
 10
0.5831907979
 20
25.9549911982
 11
6.2400450474
 21
23.1265640735
  0
LINE
  5
63A
100
AcDbEntity
  8
DRAFT
100
AcDbLine
 62
7
  6
CONTINUOUS
 10
1.0206994124
 20
25.7456018421
 11
5.8025364329
 21
23.3546833319
  0
LINE
  5
63B
100
AcDbEntity
  8
DRAFT
100
AcDbLine
 62
7
  6
CONTINUOUS
 10
1.3865991595
 20
25.9162053592
 11
6.1437434671
 21
23.5376332054
  0
LINE
  5
63C
100
AcDbEntity
  8
DRAFT
100
AcDbLine
 62
7
  6
CONTINUOUS
 10
7.0491442192
 20
23.5002328837
 11
2.1811484267
 21
25.9342307799
  0
LINE
  5
63D
100
AcDbEntity
  8
ASSI
100
AcDbLine
 62
7
  6
CONTINUOUS
 10
7.0491442192
 20
23.5002328837
 11
2.1811484267
 21
25.9342307799
  0
LINE
  5
63E
100
AcDbEntity
  8
RACCORDO
100
AcDbLine
 62
253
  6
CONTINUOUS
 10
21.7378636584
 20
18.9002720133
 11
25.9160188045
 21
16.8111944403
  0
LINE
  5
63F
100
AcDbEntity
  8
ASSI
100
AcDbLine
 62
253
  6
CONTINUOUS
 10
21.7378636584
 20
18.9002720133
 11
25.9160188045
 21
16.8111944403
  0
LWPOLYLINE
  5
640
100
AcDbEntity
  8
0
100
AcDbPolyline
 62
7
  6
CONTINUOUS
 90
16
 70
0
 10
23.9511306754
 20
12.7729910338
 10
23.958282051
 20
12.7687638288
 10
23.9649075736
 20
12.7643669832
 10
23.9710072435
 20
12.7598004968
 10
23.9765974232
 20
12.7550469625
 10
23.98166175
 20
12.7501237874
 10
23.9861511358
 20
12.7450831936
 10
23.9900567699
 20
12.7399255057
 10
23.9933874629
 20
12.734650399
 10
23.9961205586
 20
12.7293091219
 10
23.9982496739
 20
12.7239029534
 10
23.9997811919
 20
12.7184306144
 10
24.0007116047
 20
12.7129395157
 10
24.0010369662
 20
12.7074311746
 10
24.0007612224
 20
12.7019040738
 10
23.9999873525
 20
12.6968568737
  0
LINE
  5
641
100
AcDbEntity
  8
0
100
AcDbLine
 62
7
  6
CONTINUOUS
 10
22.8016147552
 20
10.8652143624
 11
22.4579247077
 21
11.2469286501
  0
LWPOLYLINE
  5
642
100
AcDbEntity
  8
RACCORDO
100
AcDbPolyline
 62
7
  6
CONTINUOUS
 90
26
 70
0
 10
24.3420109545
 20
10.6854132346
 10
24.3430412148
 20
10.6840405186
 10
24.3435971122
 20
10.6826163718
 10
24.3436786466
 20
10.6811407944
 10
24.3431876977
 20
10.6796029658
 10
24.3422223858
 20
10.6780137064
 10
24.3410770725
 20
10.6764054777
 10
24.3398286044
 20
10.6747904147
 10
24.338400135
 20
10.6731563824
 10
24.3368554855
 20
10.6714994373
 10
24.3352072155
 20
10.6698183431
 10
24.3334427654
 20
10.6681143362
 10
24.3315882777
 20
10.6663871817
 10
24.3296462392
 20
10.6646354823
 10
24.3276141632
 20
10.6628606353
 10
24.3255107321
 20
10.6610665987
 10
24.3233402955
 20
10.6592555024
 10
24.3210985037
 20
10.6574252164
 10
24.3187909904
 20
10.6555733087
 10
24.3164218074
 20
10.6537018939
 10
24.3139869029
 20
10.6518088574
 10
24.3114797546
 20
10.6498854232
 10
24.3089012711
 20
10.6479315233
 10
24.3062505438
 20
10.6459472257
 10
24.3035183247
 20
10.6439239584
 10
24.3007050469
 20
10.6418615833
  0
LWPOLYLINE
  5
643
100
AcDbEntity
  8
ASSI
100
AcDbPolyline
 62
7
  6
CONTINUOUS
 90
26
 70
0
 10
24.3420109545
 20
10.6854132346
 10
24.3430412148
 20
10.6840405186
 10
24.3435971122
 20
10.6826163718
 10
24.3436786466
 20
10.6811407944
 10
24.3431876977
 20
10.6796029658
 10
24.3422223858
 20
10.6780137064
 10
24.3410770725
 20
10.6764054777
 10
24.3398286044
 20
10.6747904147
 10
24.338400135
 20
10.6731563824
 10
24.3368554855
 20
10.6714994373
 10
24.3352072155
 20
10.6698183431
 10
24.3334427654
 20
10.6681143362
 10
24.3315882777
 20
10.6663871817
 10
24.3296462392
 20
10.6646354823
 10
24.3276141632
 20
10.6628606353
 10
24.3255107321
 20
10.6610665987
 10
24.3233402955
 20
10.6592555024
 10
24.3210985037
 20
10.6574252164
 10
24.3187909904
 20
10.6555733087
 10
24.3164218074
 20
10.6537018939
 10
24.3139869029
 20
10.6518088574
 10
24.3114797546
 20
10.6498854232
 10
24.3089012711
 20
10.6479315233
 10
24.3062505438
 20
10.6459472257
 10
24.3035183247
 20
10.6439239584
 10
24.3007050469
 20
10.6418615833
  0
LINE
  5
644
100
AcDbEntity
  8
0
100
AcDbLine
 62
7
  6
CONTINUOUS
 10
23.03985695
 20
13.1811974721
 11
23.055481236
 21
13.1379987881
  0
LINE
  5
645
100
AcDbEntity
  8
0
100
AcDbLine
 62
7
  6
CONTINUOUS
 10
23.055481236
 20
13.1379987881
 11
23.0718780271
 21
13.0916803884
  0
LINE
  5
646
100
AcDbEntity
  8
0
100
AcDbLine
 62
7
  6
CONTINUOUS
 10
23.0718780271
 20
13.0916803884
 11
23.0870332177
 21
13.0479393554
  0
LINE
  5
647
100
AcDbEntity
  8
0
100
AcDbLine
 62
7
  6
CONTINUOUS
 10
23.0870332177
 20
13.0479393554
 11
23.1011036288
 21
13.0064032691
  0
LWPOLYLINE
  5
648
100
AcDbEntity
  8
0
100
AcDbPolyline
 62
7
  6
CONTINUOUS
 90
3
 70
0
 10
22.4079496237
 20
11.5780251644
 10
22.4039156621
 20
11.5975126556
 10
22.3998798869
 20
11.6165609136
  0
LWPOLYLINE
  5
649
100
AcDbEntity
  8
0
100
AcDbPolyline
 62
7
  6
CONTINUOUS
 90
13
 70
0
 10
22.4608870222
 20
11.2646605755
 10
22.4569498505
 20
11.2936421636
 10
22.4529566295
 20
11.3218220628
 10
22.4489073594
 20
11.3492002729
 10
22.4447786095
 20
11.3758120235
 10
22.4405938104
 20
11.401622085
 10
22.4364232542
 20
11.426524769
 10
22.4322851058
 20
11.4504321099
 10
22.4281612003
 20
11.4734320733
 10
22.4240673345
 20
11.4956828672
 10
22.4200193916
 20
11.5171339155
 10
22.4160014884
 20
11.5378357944
 10
22.4079496237
 20
11.5780251644
  0
LWPOLYLINE
  5
64A
100
AcDbEntity
  8
RACCORDO
100
AcDbPolyline
 62
7
  6
CONTINUOUS
 90
12
 70
0
 10
26.5562942796
 20
16.2006362583
 10
26.5518123734
 20
16.274979298
 10
26.5399786204
 20
16.3419591434
 10
26.5207085641
 20
16.4080481256
 10
26.49402787
 20
16.4725562372
 10
26.4601366496
 20
16.5346355783
 10
26.4190232846
 20
16.5939734602
 10
26.3707495161
 20
16.6501276204
 10
26.3156189413
 20
16.7024841951
 10
26.2536056992
 20
16.7508087482
 10
26.1844937528
 20
16.7949228227
 10
26.1338327564
 20
16.8221624803
  0
LINE
  5
64B
100
AcDbEntity
  8
ASSI
100
AcDbLine
 62
7
  6
CONTINUOUS
 10
26.5562942883
 20
16.2007197597
 11
26.5523539806
 21
16.2703543886
  0
LWPOLYLINE
  5
64C
100
AcDbEntity
  8
RACCORDO
100
AcDbPolyline
 62
253
  6
CONTINUOUS
 90
13
 70
0
 10
26.2756348567
 20
15.858482984
 10
26.2733499626
 20
15.9168776534
 10
26.2649524801
 20
15.9772438596
 10
26.2505860368
 20
16.03854912
 10
26.2304963517
 20
16.0997448908
 10
26.2050270316
 20
16.1597845008
 10
26.1746136943
 20
16.2176410532
 10
26.1397765189
 20
16.2723249897
 10
26.1011113485
 20
16.3229010153
 10
26.0592794987
 20
16.3685040952
 10
26.0149964466
 20
16.4083542504
 10
25.9690195944
 20
16.4417698976
 10
25.922135314
 20
16.4681795073
  0
LWPOLYLINE
  5
64D
100
AcDbEntity
  8
ASSI
100
AcDbPolyline
 62
253
  6
CONTINUOUS
 90
13
 70
0
 10
26.2756348567
 20
15.858482984
 10
26.2733499626
 20
15.9168776534
 10
26.2649524801
 20
15.9772438596
 10
26.2505860368
 20
16.03854912
 10
26.2304963517
 20
16.0997448908
 10
26.2050270316
 20
16.1597845008
 10
26.1746136943
 20
16.2176410532
 10
26.1397765189
 20
16.2723249897
 10
26.1011113485
 20
16.3229010153
 10
26.0592794987
 20
16.3685040952
 10
26.0149964466
 20
16.4083542504
 10
25.9690195944
 20
16.4417698976
 10
25.922135314
 20
16.4681795073
  0
LWPOLYLINE
  5
64E
100
AcDbEntity
  8
RACCORDO
100
AcDbPolyline
 62
7
  6
CONTINUOUS
 90
8
 70
0
 10
17.9467285739
 20
-20.863579192
 10
17.9813271462
 20
-20.8254388204
 10
18.0119414303
 20
-20.7837565987
 10
18.0381749882
 20
-20.7389639995
 10
18.0596978897
 20
-20.6915023565
 10
18.0762236811
 20
-20.6418411523
 10
18.087499954
 20
-20.5905292301
 10
18.0933380058
 20
-20.5381800671
  0
LWPOLYLINE
  5
64F
100
AcDbEntity
  8
ASSI
100
AcDbPolyline
 62
7
  6
CONTINUOUS
 90
7
 70
0
 10
17.9467283638
 20
-20.8635794008
 10
17.9813269864
 20
-20.8254390159
 10
18.0119413064
 20
-20.783756787
 10
18.0381748968
 20
-20.7389641759
 10
18.0596978271
 20
-20.6915025161
 10
18.0762236431
 20
-20.6418412902
 10
18.0874999353
 20
-20.5905293427
  0
LWPOLYLINE
  5
650
100
AcDbEntity
  8
ASSI
100
AcDbPolyline
 62
7
  6
CONTINUOUS
 90
3
 70
0
 10
17.867144755
 20
-20.9279361707
 10
17.908545185
 20
-20.8978337731
 10
17.9467283638
 20
-20.8635794008
  0
LWPOLYLINE
  5
651
100
AcDbEntity
  8
RACCORDO
100
AcDbPolyline
 62
253
  6
CONTINUOUS
 90
3
 70
0
 10
17.8650260254
 20
-20.9261042076
 10
17.8387457481
 20
-20.944997034
 10
17.8316012696
 20
-20.9490549617
  0
LWPOLYLINE
  5
652
100
AcDbEntity
  8
ASSI
100
AcDbPolyline
 62
253
  6
CONTINUOUS
 90
3
 70
0
 10
17.8650260254
 20
-20.9261042076
 10
17.8387457481
 20
-20.944997034
 10
17.8316012696
 20
-20.9490549617
  0
LWPOLYLINE
  5
653
100
AcDbEntity
  8
RACCORDO
100
AcDbPolyline
 62
7
  6
CONTINUOUS
 90
3
 70
0
 10
9.9812400907
 20
-27.9189660399
 10
10.0591785955
 20
-27.8631347061
 10
10.1341967488
 20
-27.7981664709
  0
LWPOLYLINE
  5
654
100
AcDbEntity
  8
ASSI
100
AcDbPolyline
 62
7
  6
CONTINUOUS
 90
3
 70
0
 10
9.9777158999
 20
-27.9212269757
 10
10.0560709391
 20
-27.8655807042
 10
10.1315424247
 20
-27.8006673206
  0
LWPOLYLINE
  5
655
100
AcDbEntity
  8
RACCORDO
100
AcDbPolyline
 62
253
  6
CONTINUOUS
 90
6
 70
0
 10
10.5162448729
 20
-26.8724543391
 10
10.5379672322
 20
-26.8590684587
 10
10.5547691245
 20
-26.844016179
 10
10.5661512866
 20
-26.8277447742
 10
10.571775501
 20
-26.8107377441
 10
10.5723769128
 20
-26.8029885021
  0
LWPOLYLINE
  5
656
100
AcDbEntity
  8
ASSI
100
AcDbPolyline
 62
253
  6
CONTINUOUS
 90
6
 70
0
 10
10.5162448729
 20
-26.8724543391
 10
10.5379672322
 20
-26.8590684587
 10
10.5547691245
 20
-26.844016179
 10
10.5661512866
 20
-26.8277447742
 10
10.571775501
 20
-26.8107377441
 10
10.5723769128
 20
-26.8029885021
  0
LWPOLYLINE
  5
657
100
AcDbEntity
  8
RACCORDO
100
AcDbPolyline
 62
7
  6
CONTINUOUS
 90
4
 70
0
 10
17.8314725435
 20
-20.9491243479
 10
17.8671449153
 20
-20.9279360755
 10
17.9085454496
 20
-20.8978335592
 10
17.9467285739
 20
-20.863579192
  0
LINE
  5
658
100
AcDbEntity
  8
ASSI
100
AcDbLine
 62
7
  6
CONTINUOUS
 10
17.8314725456
 20
-20.9491243468
 11
17.867144755
 21
-20.9279361707
  0
LINE
  5
659
100
AcDbEntity
  8
RACCORDO
100
AcDbLine
 62
7
  6
CONTINUOUS
 10
9.9209822181
 20
-27.9546099896
 11
9.9812400907
 21
-27.9189660399
  0
LINE
  5
65A
100
AcDbEntity
  8
ASSI
100
AcDbLine
 62
7
  6
CONTINUOUS
 10
9.9209818682
 20
-27.9546101766
 11
9.9777158999
 21
-27.9212269757
  0
LWPOLYLINE
  5
65B
100
AcDbEntity
  8
RACCORDO
100
AcDbPolyline
 62
253
  6
CONTINUOUS
 90
9
 70
0
 10
17.9538592595
 20
-20.6826791188
 10
17.9879360598
 20
-20.6630952971
 10
18.0177687502
 20
-20.6418494798
 10
18.0430351915
 20
-20.6191705734
 10
18.0634648178
 20
-20.5952997279
 10
18.078833043
 20
-20.5704972471
 10
18.0889705299
 20
-20.5450408822
 10
18.0937731853
 20
-20.5192125756
 10
18.0941893304
 20
-20.5090996138
  0
LWPOLYLINE
  5
65C
100
AcDbEntity
  8
ASSI
100
AcDbPolyline
 62
253
  6
CONTINUOUS
 90
9
 70
0
 10
17.9538592595
 20
-20.6826791188
 10
17.9879360598
 20
-20.6630952971
 10
18.0177687502
 20
-20.6418494798
 10
18.0430351915
 20
-20.6191705734
 10
18.0634648178
 20
-20.5952997279
 10
18.078833043
 20
-20.5704972471
 10
18.0889705299
 20
-20.5450408822
 10
18.0937731853
 20
-20.5192125756
 10
18.0941893304
 20
-20.5090996141
  0
LWPOLYLINE
  5
65D
100
AcDbEntity
  8
RACCORDO
100
AcDbPolyline
 62
253
  6
CONTINUOUS
 90
27
 70
0
 10
9.9701337693
 20
-27.8479264435
 10
9.9934266557
 20
-27.8350492193
 10
10.0176012318
 20
-27.8200265133
 10
10.0426574978
 20
-27.8028583252
 10
10.0687761151
 20
-27.7835776318
 10
10.0957764222
 20
-27.7621514564
 10
10.1231164347
 20
-27.7384808693
 10
10.1508254007
 20
-27.7124634065
 10
10.1788740722
 20
-27.6842015318
 10
10.2066327211
 20
-27.6539037077
 10
10.2340878583
 20
-27.6214835724
 10
10.261252973
 20
-27.5870274876
 10
10.2875388041
 20
-27.5510030005
 10
10.3129095917
 20
-27.5133401162
 10
10.3374010958
 20
-27.4741088297
 10
10.360531335
 20
-27.4339866722
 10
10.3822450254
 20
-27.3929242712
 10
10.402597451
 20
-27.3509709993
 10
10.4212724819
 20
-27.3089525063
 10
10.4381928376
 20
-27.2668652918
 10
10.4534357988
 20
-27.2247128562
 10
10.4669170781
 20
-27.1833313513
 10
10.4785588512
 20
-27.1427261657
 10
10.4884389424
 20
-27.1028919108
 10
10.4967065374
 20
-27.064648572
 10
10.5032818532
 20
-27.0281873818
 10
10.5082446728
 20
-26.9933171078
  0
LWPOLYLINE
  5
65E
100
AcDbEntity
  8
ASSI
100
AcDbPolyline
 62
253
  6
CONTINUOUS
 90
27
 70
0
 10
9.9701337693
 20
-27.8479264435
 10
9.9934266557
 20
-27.8350492193
 10
10.0176012318
 20
-27.8200265133
 10
10.0426574978
 20
-27.8028583252
 10
10.0687761151
 20
-27.7835776318
 10
10.0957764222
 20
-27.7621514564
 10
10.1231164347
 20
-27.7384808693
 10
10.1508254007
 20
-27.7124634065
 10
10.1788740722
 20
-27.6842015318
 10
10.2066327211
 20
-27.6539037077
 10
10.2340878583
 20
-27.6214835724
 10
10.261252973
 20
-27.5870274876
 10
10.2875388041
 20
-27.5510030005
 10
10.3129095917
 20
-27.5133401162
 10
10.3374010958
 20
-27.4741088297
 10
10.360531335
 20
-27.4339866722
 10
10.3822450254
 20
-27.3929242712
 10
10.402597451
 20
-27.3509709993
 10
10.4212724819
 20
-27.3089525063
 10
10.4381928376
 20
-27.2668652918
 10
10.4534357988
 20
-27.2247128562
 10
10.4669170781
 20
-27.1833313513
 10
10.4785588512
 20
-27.1427261657
 10
10.4884389424
 20
-27.1028919108
 10
10.4967065374
 20
-27.064648572
 10
10.5032818532
 20
-27.0281873818
 10
10.5082446728
 20
-26.9933171078
  0
LINE
  5
65F
100
AcDbEntity
  8
RACCORDO
100
AcDbLine
 62
253
  6
CONTINUOUS
 10
10.5162448729
 20
-24.6954427119
 11
17.9538592595
 21
-20.6826791188
  0
LINE
  5
660
100
AcDbEntity
  8
ASSI
100
AcDbLine
 62
253
  6
CONTINUOUS
 10
10.5162448729
 20
-24.6954427119
 11
17.9538592595
 21
-20.6826791188
  0
LINE
  5
661
100
AcDbEntity
  8
RACCORDO
100
AcDbLine
 62
7
  6
CONTINUOUS
 10
10.5723769128
 20
-24.8655730411
 11
17.8316012696
 21
-20.9490549617
  0
LINE
  5
662
100
AcDbEntity
  8
ASSI
100
AcDbLine
 62
7
  6
CONTINUOUS
 10
10.5723769128
 20
-24.8655730411
 11
17.8316012696
 21
-20.9490549617
  0
LINE
  5
663
100
AcDbEntity
  8
RACCORDO
100
AcDbLine
 62
253
  6
CONTINUOUS
 10
2.3156024118
 20
-31.9777217187
 11
9.9701337693
 21
-27.8479264435
  0
LINE
  5
664
100
AcDbEntity
  8
ASSI
100
AcDbLine
 62
253
  6
CONTINUOUS
 10
2.3156024118
 20
-31.9777217187
 11
9.9701337693
 21
-27.8479264435
  0
LINE
  5
665
100
AcDbEntity
  8
RACCORDO
100
AcDbLine
 62
7
  6
CONTINUOUS
 10
2.2657066534
 20
-32.0848075661
 11
9.9212305734
 21
-27.9544767806
  0
LINE
  5
666
100
AcDbEntity
  8
ASSI
100
AcDbLine
 62
7
  6
CONTINUOUS
 10
2.2657066534
 20
-32.0848075661
 11
9.9212305734
 21
-27.9544767806
  0
LINE
  5
667
100
AcDbEntity
  8
RACCORDO
100
AcDbLine
 62
253
  6
CONTINUOUS
 10
1.2549422401
 20
-30.8625771574
 11
2.3156024118
 21
-30.3322470716
  0
LINE
  5
668
100
AcDbEntity
  8
RACCORDO
100
AcDbLine
 62
7
  6
CONTINUOUS
 10
1.2529510226
 20
-31.06903637
 11
2.185655819
 21
-30.6026839718
  0
LWPOLYLINE
  5
669
100
AcDbEntity
  8
RACCORDO
100
AcDbPolyline
 62
253
  6
CONTINUOUS
 90
7
 70
0
 10
-2.7374689143
 20
-33.0059519332
 10
-2.7322927699
 20
-33.003388331
 10
-2.706150999
 20
-32.9844422052
 10
-2.6847851022
 20
-32.957879081
 10
-2.6688440118
 20
-32.9245058318
 10
-2.6588118486
 20
-32.8853361017
 10
-2.6549932851
 20
-32.8415596045
  0
LINE
  5
66A
100
AcDbEntity
  8
RACCORDO
100
AcDbLine
 62
253
  6
CONTINUOUS
 10
1.2549422401
 20
-31.0358218082
 11
-2.6549932851
 21
-32.8415596045
  0
LINE
  5
66B
100
AcDbEntity
  8
RACCORDO
100
AcDbLine
 62
7
  6
CONTINUOUS
 10
1.173849739
 20
-31.1995754768
 11
-2.7376071999
 21
-33.0060159125
  0
LWPOLYLINE
  5
66C
100
AcDbEntity
  8
RACCORDO
100
AcDbPolyline
 62
253
  6
CONTINUOUS
 90
16
 70
0
 10
-2.6549932851
 20
-32.8415596045
 10
-2.7221385481
 20
-32.8686595166
 10
-2.7866610495
 20
-32.8883314389
 10
-2.8485607893
 20
-32.9005753714
 10
-2.9084641799
 20
-32.9051698622
 10
-2.9657448088
 20
-32.9023363632
 10
-3.0185234394
 20
-32.89273923
 10
-3.0664312856
 20
-32.8761454642
 10
-3.1098371334
 20
-32.8527880641
 10
-3.1479681043
 20
-32.8240303805
 10
-3.1806309013
 20
-32.7898058842
 10
-3.2080188214
 20
-32.7501811044
 10
-3.2299388772
 20
-32.7067189795
 10
-3.2463267396
 20
-32.6599404889
 10
-3.2572467377
 20
-32.6093246532
 10
-3.2626988716
 20
-32.5548714723
  0
LINE
  5
66D
100
AcDbEntity
  8
RACCORDO
100
AcDbLine
 62
7
  6
CONTINUOUS
 10
-20.7793390336
 20
23.411021308
 11
-19.1875559743
 21
23.7747128547
  0
LINE
  5
66E
100
AcDbEntity
  8
RACCORDO
100
AcDbLine
 62
7
  6
CONTINUOUS
 10
-21.1283396353
 20
23.6861022735
 11
-19.1263376068
 21
24.143520896
  0
LINE
  5
66F
100
AcDbEntity
  8
RACCORDO
100
AcDbLine
 62
7
  6
CONTINUOUS
 10
-20.8233938816
 20
24.9920490334
 11
-22.8253959102
 21
24.5346304109
  0
LINE
  5
670
100
AcDbEntity
  8
RACCORDO
100
AcDbLine
 62
7
  6
CONTINUOUS
 10
-18.8458749669
 20
26.7574133466
 11
-20.1737454807
 21
26.4540206963
  0
LINE
  5
671
100
AcDbEntity
  8
RACCORDO
100
AcDbLine
 62
7
  6
CONTINUOUS
 10
-24.8098476863
 20
25.4262756344
 11
-23.218064627
 21
25.7899671811
  0
LWPOLYLINE
  5
672
100
AcDbEntity
  8
RACCORDO
100
AcDbPolyline
 62
7
  6
CONTINUOUS
 90
25
 70
0
 10
-19.1263376068
 20
24.143520896
 10
-19.11693041
 20
24.1454418551
 10
-19.1070459707
 20
24.1470404068
 10
-19.0966842889
 20
24.1483165513
 10
-19.0857970451
 20
24.1492729841
 10
-19.0744325588
 20
24.1499070096
 10
-19.0627357879
 20
24.1502105405
 10
-19.0507024759
 20
24.1501793433
 10
-19.0383368794
 20
24.1498176515
 10
-19.0257967257
 20
24.1491300787
 10
-19.013079779
 20
24.1481124504
 10
-19.0001882751
 20
24.146768941
 10
-18.9872866498
 20
24.1451166875
 10
-18.9743747734
 20
24.1431517349
 10
-18.9614527756
 20
24.1408780382
 10
-18.9486854808
 20
24.1383245992
 10
-18.936074871
 20
24.1354878344
 10
-18.9236189642
 20
24.1323713273
 10
-18.91147664
 20
24.12901483
 10
-18.8996519153
 20
24.1254152683
 10
-18.8881407732
 20
24.1215757163
 10
-18.8770900422
 20
24.117545149
 10
-18.8665486653
 20
24.1133398913
 10
-18.8564676996
 20
24.1089436182
 10
-18.8468471451
 20
24.1043563298
  0
LWPOLYLINE
  5
673
100
AcDbEntity
  8
RACCORDO
100
AcDbPolyline
 62
7
  6
CONTINUOUS
 90
25
 70
0
 10
-22.8253959102
 20
24.5346304109
 10
-22.8348031069
 20
24.5327094518
 10
-22.8446875462
 20
24.5311109001
 10
-22.8550492281
 20
24.5298347556
 10
-22.8659364719
 20
24.5288783228
 10
-22.8773009582
 20
24.5282442973
 10
-22.8889977291
 20
24.5279407664
 10
-22.9010310411
 20
24.5279719636
 10
-22.9133966376
 20
24.5283336554
 10
-22.9259367912
 20
24.5290212282
 10
-22.938653738
 20
24.5300388565
 10
-22.9515452418
 20
24.5313823659
 10
-22.9644468671
 20
24.5330346194
 10
-22.9773587435
 20
24.534999572
 10
-22.9902807414
 20
24.5372732687
 10
-23.0030480361
 20
24.5398267077
 10
-23.015658646
 20
24.5426634725
 10
-23.0281145528
 20
24.5457799796
 10
-23.040256877
 20
24.5491364769
 10
-23.0520816017
 20
24.5527360386
 10
-23.0635927438
 20
24.5565755906
 10
-23.0746434748
 20
24.5606061579
 10
-23.0851848516
 20
24.5648114156
 10
-23.0952658173
 20
24.5692076887
 10
-23.1048863718
 20
24.5737949771
  0
LWPOLYLINE
  5
674
100
AcDbEntity
  8
RACCORDO
100
AcDbPolyline
 62
7
  6
CONTINUOUS
 90
25
 70
0
 10
-20.1737454807
 20
26.4540206963
 10
-20.1831526775
 20
26.4520997373
 10
-20.1930371168
 20
26.4505011855
 10
-20.2033987987
 20
26.4492250411
 10
-20.2142860424
 20
26.4482686083
 10
-20.2256505287
 20
26.4476345828
 10
-20.2373472996
 20
26.4473310518
 10
-20.2493806116
 20
26.447362249
 10
-20.2617462082
 20
26.4477239408
 10
-20.2742863618
 20
26.4484115136
 10
-20.2870033085
 20
26.4494291419
 10
-20.2998948124
 20
26.4507726513
 10
-20.3127964377
 20
26.4524249048
 10
-20.3257083141
 20
26.4543898574
 10
-20.3386303119
 20
26.4566635541
 10
-20.3513976067
 20
26.4592169931
 10
-20.3640082166
 20
26.4620537579
 10
-20.3764641233
 20
26.465170265
 10
-20.3886064475
 20
26.4685267623
 10
-20.4004311722
 20
26.4721263241
 10
-20.4119423144
 20
26.475965876
 10
-20.4229930453
 20
26.4799964433
 10
-20.4335344222
 20
26.484201701
 10
-20.4436153879
 20
26.4885979741
 10
-20.4532359424
 20
26.4931852626
  0
LWPOLYLINE
  5
675
100
AcDbEntity
  8
RACCORDO
100
AcDbPolyline
 62
7
  6
CONTINUOUS
 90
25
 70
0
 10
-23.1568462596
 20
26.1587752224
 10
-23.1474390628
 20
26.1606961815
 10
-23.1375546235
 20
26.1622947332
 10
-23.1271929416
 20
26.1635708776
 10
-23.1163056979
 20
26.1645273105
 10
-23.1049412115
 20
26.1651613359
 10
-23.0932444406
 20
26.1654648669
 10
-23.0812111287
 20
26.1654336697
 10
-23.0688455321
 20
26.1650719779
 10
-23.0563053785
 20
26.1643844051
 10
-23.0435884317
 20
26.1633667768
 10
-23.0306969279
 20
26.1620232674
 10
-23.0177953026
 20
26.1603710139
 10
-23.0048834262
 20
26.1584060613
 10
-22.9919614283
 20
26.1561323646
 10
-22.9791941336
 20
26.1535789256
 10
-22.9665835237
 20
26.1507421608
 10
-22.954127617
 20
26.1476256537
 10
-22.9419852928
 20
26.1442691564
 10
-22.9301605681
 20
26.1406695946
 10
-22.9186494259
 20
26.1368300427
 10
-22.907598695
 20
26.1327994754
 10
-22.8970573181
 20
26.1285942177
 10
-22.8869763524
 20
26.1241979446
 10
-22.8773557979
 20
26.1196106562
  0
LWPOLYLINE
  5
676
100
AcDbEntity
  8
RACCORDO
100
AcDbPolyline
 62
253
  6
CONTINUOUS
 90
6
 70
0
 10
-7.3507580306
 20
27.619748312
 10
-7.2701797189
 20
27.6345189151
 10
-7.1930727196
 20
27.6525536229
 10
-7.1200462434
 20
27.6737649886
 10
-7.0504910796
 20
27.6982404591
 10
-6.984407228
 20
27.7259800342
  0
LWPOLYLINE
  5
677
100
AcDbEntity
  8
ASSI
100
AcDbPolyline
 62
253
  6
CONTINUOUS
 90
6
 70
0
 10
-7.3507580306
 20
27.619748312
 10
-7.2701797189
 20
27.6345189151
 10
-7.1930727196
 20
27.6525536229
 10
-7.1200462434
 20
27.6737649886
 10
-7.0504910796
 20
27.6982404591
 10
-6.984407228
 20
27.7259800342
  0
LINE
  5
678
100
AcDbEntity
  8
RACCORDO
100
AcDbLine
 62
253
  6
CONTINUOUS
 10
-7.697285064
 20
28.0115068664
 11
-8.4756353536
 21
27.9115806255
  0
LINE
  5
679
100
AcDbEntity
  8
ASSI
100
AcDbLine
 62
253
  6
CONTINUOUS
 10
-7.697285064
 20
28.0115068664
 11
-8.4756353536
 21
27.9115806255
  0
LINE
  5
67A
100
AcDbEntity
  8
RACCORDO
100
AcDbLine
 62
7
  6
CONTINUOUS
 10
-7.8853903645
 20
28.0783642612
 11
-8.6230198121
 21
27.9852728548
  0
LINE
  5
67B
100
AcDbEntity
  8
ASSI
100
AcDbLine
 62
7
  6
CONTINUOUS
 10
-7.8853903645
 20
28.0783642612
 11
-8.6230198121
 21
27.9852728548
  0
LINE
  5
67C
100
AcDbEntity
  8
ASSI
100
AcDbLine
 62
7
  6
CONTINUOUS
 10
-7.8695279655
 20
28.0801018988
 11
-7.885236981
 21
28.0783827177
  0
LINE
  5
67D
100
AcDbEntity
  8
RACCORDO
100
AcDbLine
 62
7
  6
CONTINUOUS
 10
-7.8666787297
 20
28.0803581933
 11
-7.8852232578
 21
28.0783844513
  0
LINE
  5
67E
100
AcDbEntity
  8
RACCORDO
100
AcDbLine
 62
7
  6
CONTINUOUS
 10
-19.1325181099
 20
26.7386810273
 11
-20.330123601
 21
26.6677559808
  0
LINE
  5
67F
100
AcDbEntity
  8
ASSI
100
AcDbLine
 62
7
  6
CONTINUOUS
 10
-19.1325181099
 20
26.7386810273
 11
-20.330123601
 21
26.6677559808
  0
LINE
  5
680
100
AcDbEntity
  8
RACCORDO
100
AcDbLine
 62
7
  6
CONTINUOUS
 10
-19.9937227869
 20
27.5576248282
 11
-21.9028048438
 21
27.4540966022
  0
LINE
  5
681
100
AcDbEntity
  8
ASSI
100
AcDbLine
 62
7
  6
CONTINUOUS
 10
-19.9937227869
 20
27.5576248282
 11
-21.9028048438
 21
27.4540966022
  0
LINE
  5
682
100
AcDbEntity
  8
ASSI
100
AcDbLine
 62
7
  6
CONTINUOUS
 10
-7.8140931139
 20
28.0821063322
 11
-7.8695279655
 21
28.0801018988
  0
LINE
  5
683
100
AcDbEntity
  8
RACCORDO
100
AcDbLine
 62
7
  6
CONTINUOUS
 10
-7.8121521231
 20
28.0820645449
 11
-7.8666787297
 21
28.0803581933
  0
LWPOLYLINE
  5
684
100
AcDbEntity
  8
0
100
AcDbPolyline
 62
7
  6
CONTINUOUS
 90
7
 70
0
 10
-18.7561796675
 20
26.7681249102
 10
-18.7707342815
 20
26.7677781437
 10
-18.7854467365
 20
26.7668559796
 10
-18.8003170325
 20
26.7653584178
 10
-18.8153451696
 20
26.7632854584
 10
-18.8305311477
 20
26.7606371013
 10
-18.8458749669
 20
26.7574133466
  0
LINE
  5
685
100
AcDbEntity
  8
ASSI
100
AcDbLine
 62
7
  6
CONTINUOUS
 10
-7.7573097796
 20
28.0778379232
 11
-7.8140931139
 21
28.0821063322
  0
LINE
  5
686
100
AcDbEntity
  8
RACCORDO
100
AcDbLine
 62
7
  6
CONTINUOUS
 10
-7.7563142847
 20
28.0777073934
 11
-7.8121521231
 21
28.0820645449
  0
LINE
  5
687
100
AcDbEntity
  8
RACCORDO
100
AcDbLine
 62
7
  6
CONTINUOUS
 10
21.9552193742
 20
18.9114940161
 11
26.133455205
 21
16.822376125
  0
LINE
  5
688
100
AcDbEntity
  8
ASSI
100
AcDbLine
 62
7
  6
CONTINUOUS
 10
21.9552280827
 20
18.9114896668
 11
26.133455205
 21
16.822376125
  0
LINE
  5
689
100
AcDbEntity
  8
ASSI
100
AcDbLine
 62
7
  6
CONTINUOUS
 10
26.1338266772
 20
16.822189874
 11
26.133455205
 21
16.822376125
  0
LINE
  5
68A
100
AcDbEntity
  8
RACCORDO
100
AcDbLine
 62
7
  6
CONTINUOUS
 10
26.1338425256
 20
16.8221819049
 11
26.133455205
 21
16.822376125
  0
LWPOLYLINE
  5
68B
100
AcDbEntity
  8
ASSI
100
AcDbPolyline
 62
7
  6
CONTINUOUS
 90
8
 70
0
 10
21.9552291323
 20
18.9114917861
 10
21.9486822195
 20
18.9148616431
 10
21.9246508645
 20
18.928765528
 10
21.8973221004
 20
18.9472448794
 10
21.8674875001
 20
18.9704305123
 10
21.8357660465
 20
18.9984394642
 10
21.8027786246
 20
19.0312822074
 10
21.7692165339
 20
19.0687967119
  0
LWPOLYLINE
  5
68C
100
AcDbEntity
  8
RACCORDO
100
AcDbPolyline
 62
7
  6
CONTINUOUS
 90
8
 70
0
 10
21.955220424
 20
18.911496136
 10
21.9469521441
 20
18.9157835182
 10
21.9228680608
 20
18.9298873783
 10
21.8955836705
 20
18.9485110236
 10
21.8658706193
 20
18.9717746594
 10
21.8343317257
 20
18.9997878447
 10
21.8015738079
 20
19.0325555614
 10
21.7682765425
 20
19.0699102982
  0
LWPOLYLINE
  5
68D
100
AcDbEntity
  8
RACCORDO
100
AcDbPolyline
 62
253
  6
CONTINUOUS
 90
10
 70
0
 10
25.9160188045
 20
16.8111944403
 10
25.9452652024
 20
16.7952615468
 10
25.9713807399
 20
16.7784052811
 10
25.9943654169
 20
16.7606256432
 10
26.0143703257
 20
16.7417658888
 10
26.0312443741
 20
16.7219827622
 10
26.044534285
 20
16.7017464959
 10
26.0541376006
 20
16.6810558124
 10
26.0601567787
 20
16.6599119893
 10
26.0624459161
 20
16.6387890912
  0
LWPOLYLINE
  5
68E
100
AcDbEntity
  8
ASSI
100
AcDbPolyline
 62
253
  6
CONTINUOUS
 90
10
 70
0
 10
25.9160188045
 20
16.8111944403
 10
25.9452652024
 20
16.7952615468
 10
25.9713807399
 20
16.7784052811
 10
25.9943654169
 20
16.7606256432
 10
26.0143703257
 20
16.7417658888
 10
26.0312443741
 20
16.7219827622
 10
26.044534285
 20
16.7017464959
 10
26.0541376006
 20
16.6810558124
 10
26.0601567787
 20
16.6599119893
 10
26.0624459161
 20
16.6387890912
  0
LINE
  5
68F
100
AcDbEntity
  8
RACCORDO
100
AcDbLine
 62
7
  6
CONTINUOUS
 10
21.609848415
 20
19.5159369653
 11
21.5345158392
 21
19.5715278469
  0
LINE
  5
690
100
AcDbEntity
  8
ASSI
100
AcDbLine
 62
7
  6
CONTINUOUS
 10
21.609848415
 20
19.5159369653
 11
21.5345158392
 21
19.5715278469
  0
LWPOLYLINE
  5
691
100
AcDbEntity
  8
RACCORDO
100
AcDbPolyline
 62
253
  6
CONTINUOUS
 90
4
 70
0
 10
21.5703701494
 20
19.4274769243
 10
21.6246887458
 20
19.3825077227
 10
21.7868041797
 20
19.2320363207
 10
21.9443386844
 20
19.0691605068
  0
LWPOLYLINE
  5
692
100
AcDbEntity
  8
ASSI
100
AcDbPolyline
 62
253
  6
CONTINUOUS
 90
4
 70
0
 10
21.5703701494
 20
19.4274769243
 10
21.6246887458
 20
19.3825077227
 10
21.7868041797
 20
19.2320363207
 10
21.9443386844
 20
19.0691605068
  0
LWPOLYLINE
  5
693
100
AcDbEntity
  8
RACCORDO
100
AcDbPolyline
 62
7
  6
CONTINUOUS
 90
4
 70
0
 10
22.1002695054
 20
19.0543255721
 10
21.9422781134
 20
19.2204829964
 10
21.7785291587
 20
19.3746636462
 10
21.609848415
 20
19.5159369653
  0
LWPOLYLINE
  5
694
100
AcDbEntity
  8
ASSI
100
AcDbPolyline
 62
7
  6
CONTINUOUS
 90
4
 70
0
 10
22.1002695054
 20
19.0543255721
 10
21.9422781134
 20
19.2204829964
 10
21.7785291587
 20
19.3746636462
 10
21.609848415
 20
19.5159369653
  0
LINE
  5
695
100
AcDbEntity
  8
RACCORDO
100
AcDbLine
 62
253
  6
CONTINUOUS
 10
21.9443386844
 20
19.0691605068
 11
22.0964669581
 21
18.894687569
  0
LINE
  5
696
100
AcDbEntity
  8
ASSI
100
AcDbLine
 62
253
  6
CONTINUOUS
 10
21.9443386844
 20
19.0691605068
 11
22.0964669581
 21
18.894687569
  0
LINE
  5
697
100
AcDbEntity
  8
RACCORDO
100
AcDbLine
 62
7
  6
CONTINUOUS
 10
22.2517196529
 20
18.8771562135
 11
22.1002695054
 21
19.0543255721
  0
LINE
  5
698
100
AcDbEntity
  8
ASSI
100
AcDbLine
 62
7
  6
CONTINUOUS
 10
22.2517196529
 20
18.8771562135
 11
22.1002695054
 21
19.0543255721
  0
LWPOLYLINE
  5
699
100
AcDbEntity
  8
ASSI
100
AcDbPolyline
 62
7
  6
CONTINUOUS
 90
14
 70
0
 10
21.7692165339
 20
19.0687967119
 10
21.7356045921
 20
19.1109070633
 10
21.7026914298
 20
19.1571442726
 10
21.6713821762
 20
19.2065712113
 10
21.6422005201
 20
19.2585826191
 10
21.6156036454
 20
19.3125071385
 10
21.5921806064
 20
19.3671089218
 10
21.5721882219
 20
19.4215540846
 10
21.5557391248
 20
19.4751412561
 10
21.5429519973
 20
19.526773837
 10
21.5337207722
 20
19.5757456955
 10
21.5278497333
 20
19.6214261024
 10
21.5250661008
 20
19.6628687187
 10
21.5246943726
 20
19.6835735534
  0
LWPOLYLINE
  5
69A
100
AcDbEntity
  8
RACCORDO
100
AcDbPolyline
 62
7
  6
CONTINUOUS
 90
14
 70
0
 10
21.7682765425
 20
19.0699102982
 10
21.7349531285
 20
19.111771824
 10
21.7023310916
 20
19.1576809042
 10
21.6712927985
 20
19.2067210255
 10
21.6423487839
 20
19.2583012147
 10
21.6159450538
 20
19.311766684
 10
21.5926574951
 20
19.3659119981
 10
21.5727384731
 20
19.4199247708
 10
21.5563013389
 20
19.4731199091
 10
21.5434671561
 20
19.5244243864
 10
21.5341367322
 20
19.5731460877
 10
21.5281243992
 20
19.6186668802
 10
21.5251715813
 20
19.6600578767
 10
21.52469437
 20
19.6835678173
  0
LINE
  5
69B
100
AcDbEntity
  8
RACCORDO
100
AcDbLine
 62
253
  6
CONTINUOUS
 10
22.0964669581
 20
18.894687569
 11
22.1664244023
 21
18.8058915263
  0
LINE
  5
69C
100
AcDbEntity
  8
ASSI
100
AcDbLine
 62
253
  6
CONTINUOUS
 10
22.0964669581
 20
18.894687569
 11
22.1664244023
 21
18.8058915263
  0
LINE
  5
69D
100
AcDbEntity
  8
RACCORDO
100
AcDbLine
 62
7
  6
CONTINUOUS
 10
22.394387051
 20
18.691910202
 11
22.2517196529
 21
18.8771562135
  0
LINE
  5
69E
100
AcDbEntity
  8
ASSI
100
AcDbLine
 62
7
  6
CONTINUOUS
 10
22.394387051
 20
18.691910202
 11
22.2517196529
 21
18.8771562135
  0
LWPOLYLINE
  5
69F
100
AcDbEntity
  8
0
100
AcDbPolyline
 62
253
  6
CONTINUOUS
 90
6
 70
0
 10
23.9824040405
 20
13.7035843618
 10
23.9589851503
 20
13.7836109605
 10
23.9317996561
 20
13.8601824619
 10
23.9009174525
 20
13.9331019994
 10
23.8664179379
 20
14.0021820958
 10
23.8661839172
 20
14.0025824863
  0
LWPOLYLINE
  5
6A0
100
AcDbEntity
  8
0
100
AcDbPolyline
 62
7
  6
CONTINUOUS
 90
5
 70
0
 10
23.9994695776
 20
13.7589864059
 10
23.9768471814
 20
13.8404787666
 10
23.9481124456
 20
13.9260101904
 10
23.9152100908
 20
14.007855444
 10
23.9052958639
 20
14.0287505502
  0
LWPOLYLINE
  5
6A1
100
AcDbEntity
  8
ASSI
100
AcDbPolyline
 62
7
  6
CONTINUOUS
 90
11
 70
0
 10
26.5523539806
 20
16.2703543886
 10
26.5408314754
 20
16.3382531459
 10
26.5216786612
 20
16.4052669027
 10
26.4949240792
 20
16.4706743392
 10
26.4607756967
 20
16.5335978417
 10
26.419249231
 20
16.5936810956
 10
26.3704219982
 20
16.6504712922
 10
26.3146180465
 20
16.7033438545
 10
26.251848446
 20
16.7520458062
 10
26.1819173785
 20
16.7964033467
 10
26.1338169097
 20
16.822170451
  0
LINE
  5
6A2
100
AcDbEntity
  8
RACCORDO
100
AcDbLine
 62
7
  6
CONTINUOUS
 10
-25.1588482881
 20
25.7013565999
 11
-23.1568462596
 21
26.1587752224
  0
LINE
  5
6A3
100
AcDbEntity
  8
0
100
AcDbLine
 62
7
  6
CONTINUOUS
 10
-26.5196966487
 20
26.1630995086
 11
-21.9028048438
 21
27.2179697133
  0
LWPOLYLINE
  5
6A4
100
AcDbEntity
  8
ASSI
100
AcDbPolyline
 62
7
  6
CONTINUOUS
 90
3
 70
0
 10
-21.5534159181
 20
28.629094025
 10
-21.634757864
 20
28.6141056796
 10
-21.7167439954
 20
28.5884305656
  0
LWPOLYLINE
  5
6A5
100
AcDbEntity
  8
RACCORDO
100
AcDbPolyline
 62
7
  6
CONTINUOUS
 90
3
 70
0
 10
-21.5513024465
 20
28.6293418289
 10
-21.6322124334
 20
28.6147339693
 10
-21.713790773
 20
28.5895385305
  0
LWPOLYLINE
  5
6A6
100
AcDbEntity
  8
RACCORDO
100
AcDbPolyline
 62
253
  6
CONTINUOUS
 90
7
 70
0
 10
4.9603675948
 20
33.164471183
 10
4.9298424865
 20
33.1741782637
 10
4.8973558931
 20
33.1789006006
 10
4.8632702345
 20
33.1785829269
 10
4.8279581074
 20
33.1732302655
 10
4.7917959449
 20
33.1629011727
 10
4.7551737231
 20
33.1477075538
  0
LWPOLYLINE
  5
6A7
100
AcDbEntity
  8
ASSI
100
AcDbPolyline
 62
253
  6
CONTINUOUS
 90
7
 70
0
 10
4.9603675948
 20
33.164471183
 10
4.9298424865
 20
33.1741782637
 10
4.8973558931
 20
33.1789006006
 10
4.8632702345
 20
33.1785829269
 10
4.8279581074
 20
33.1732302655
 10
4.7917959449
 20
33.1629011727
 10
4.7551737231
 20
33.1477075538
  0
LWPOLYLINE
  5
6A8
100
AcDbEntity
  8
ASSI
100
AcDbPolyline
 62
7
  6
CONTINUOUS
 90
8
 70
0
 10
4.9316706854
 20
33.1771137416
 10
4.8831811894
 20
33.1933355774
 10
4.8330960337
 20
33.204553319
 10
4.7819054644
 20
33.2105919005
 10
4.730170306
 20
33.211320813
 10
4.6784384331
 20
33.2066711688
 10
4.6272492679
 20
33.1966250428
 10
4.5771972712
 20
33.1812314406
  0
LWPOLYLINE
  5
6A9
100
AcDbEntity
  8
RACCORDO
100
AcDbPolyline
 62
7
  6
CONTINUOUS
 90
9
 70
0
 10
4.9726082094
 20
33.1588901956
 10
4.9316705207
 20
33.1771138149
 10
4.8831809061
 20
33.1933356563
 10
4.8330957864
 20
33.2045533612
 10
4.781905241
 20
33.2105919152
 10
4.7301701088
 20
33.2113208056
 10
4.6784382645
 20
33.2066711448
 10
4.62724913
 20
33.1966250082
 10
4.5771972123
 20
33.1812314163
  0
LINE
  5
6AA
100
AcDbEntity
  8
ASSI
100
AcDbLine
 62
7
  6
CONTINUOUS
 10
4.9726082093
 20
33.1588901956
 11
4.9316706854
 21
33.1771137416
  0
LWPOLYLINE
  5
6AB
100
AcDbEntity
  8
RACCORDO
100
AcDbPolyline
 62
253
  6
CONTINUOUS
 90
6
 70
0
 10
4.7551737231
 20
33.1477075538
 10
4.7187268299
 20
33.1641440995
 10
4.6826124493
 20
33.1755942768
 10
4.6472286759
 20
33.1819313931
 10
4.6129610666
 20
33.1830849001
 10
4.5801924412
 20
33.1790403659
  0
LWPOLYLINE
  5
6AC
100
AcDbEntity
  8
ASSI
100
AcDbPolyline
 62
253
  6
CONTINUOUS
 90
6
 70
0
 10
4.7551737231
 20
33.1477075538
 10
4.7187268299
 20
33.1641440995
 10
4.6826124493
 20
33.1755942768
 10
4.6472286759
 20
33.1819313931
 10
4.6129610666
 20
33.1830849001
 10
4.5801924412
 20
33.1790403659
  0
LWPOLYLINE
  5
6AD
100
AcDbEntity
  8
RACCORDO
100
AcDbPolyline
 62
253
  6
CONTINUOUS
 90
8
 70
0
 10
21.2483010133
 20
25.0210437936
 10
21.2354915416
 20
25.0268590252
 10
21.2050215025
 20
25.0364493482
 10
21.1726193814
 20
25.0410830275
 10
21.1386323447
 20
25.0407104166
 10
21.1034245399
 20
25.0353355077
 10
21.0673731943
 20
25.0250158893
 10
21.030864573
 20
25.0098621288
  0
LWPOLYLINE
  5
6AE
100
AcDbEntity
  8
ASSI
100
AcDbPolyline
 62
253
  6
CONTINUOUS
 90
8
 70
0
 10
21.2483010133
 20
25.0210437936
 10
21.2354915416
 20
25.0268590252
 10
21.2050215025
 20
25.0364493482
 10
21.1726193814
 20
25.0410830275
 10
21.1386323447
 20
25.0407104166
 10
21.1034245399
 20
25.0353355077
 10
21.0673731943
 20
25.0250158893
 10
21.030864573
 20
25.0098621288
  0
LINE
  5
6AF
100
AcDbEntity
  8
RACCORDO
100
AcDbLine
 62
253
  6
CONTINUOUS
 10
4.9726082094
 20
33.1588901956
 11
4.9603675948
 21
33.164471183
  0
LINE
  5
6B0
100
AcDbEntity
  8
ASSI
100
AcDbLine
 62
253
  6
CONTINUOUS
 10
4.9726082093
 20
33.1588901956
 11
4.9603675948
 21
33.164471183
  0
LINE
  5
6B1
100
AcDbEntity
  8
DRAFT
100
AcDbLine
 62
7
  6
CONTINUOUS
 10
10.240412989
 20
29.9316854165
 11
15.3947569804
 21
27.3545134209
  0
LINE
  5
6B2
100
AcDbEntity
  8
ASSI
100
AcDbLine
 62
7
  6
CONTINUOUS
 10
10.240412989
 20
29.9316854165
 11
15.3947569804
 21
27.3545134209
  0
LINE
  5
6B3
100
AcDbEntity
  8
RACCORDO
100
AcDbLine
 62
253
  6
CONTINUOUS
 10
4.7551737231
 20
33.1477075538
 11
9.8990935493
 21
30.5757476407
  0
LINE
  5
6B4
100
AcDbEntity
  8
ASSI
100
AcDbLine
 62
253
  6
CONTINUOUS
 10
4.7551737231
 20
33.1477075538
 11
9.8990935493
 21
30.5757476407
  0
LINE
  5
6B5
100
AcDbEntity
  8
RACCORDO
100
AcDbLine
 62
253
  6
CONTINUOUS
 10
15.8869447468
 20
27.5818220419
 11
21.030864573
 21
25.0098621288
  0
LINE
  5
6B6
100
AcDbEntity
  8
ASSI
100
AcDbLine
 62
253
  6
CONTINUOUS
 10
15.8869447468
 20
27.5818220419
 11
21.030864573
 21
25.0098621288
  0
LINE
  5
6B7
100
AcDbEntity
  8
RACCORDO
100
AcDbLine
 62
7
  6
CONTINUOUS
 10
4.9726101634
 20
33.1588892186
 11
10.1127346224
 21
30.5888269891
  0
LINE
  5
6B8
100
AcDbEntity
  8
ASSI
100
AcDbLine
 62
7
  6
CONTINUOUS
 10
4.9726101634
 20
33.1588892186
 11
10.1127346224
 21
30.5888269891
  0
LINE
  5
6B9
100
AcDbEntity
  8
RACCORDO
100
AcDbLine
 62
7
  6
CONTINUOUS
 10
16.1081765542
 20
27.5911060231
 11
21.2483010133
 21
25.0210437936
  0
LINE
  5
6BA
100
AcDbEntity
  8
ASSI
100
AcDbLine
 62
7
  6
CONTINUOUS
 10
16.1081765542
 20
27.5911060231
 11
21.2483010133
 21
25.0210437936
  0
LWPOLYLINE
  5
6BB
100
AcDbEntity
  8
RACCORDO
100
AcDbPolyline
 62
253
  6
CONTINUOUS
 90
16
 70
0
 10
21.030864573
 20
25.0098621288
 10
21.0678478854
 20
24.9896599939
 10
21.104534025
 20
24.9649224801
 10
21.1405211378
 20
24.9358572321
 10
21.175456656
 20
24.9026728878
 10
21.2088850944
 20
24.8657228474
 10
21.2402799745
 20
24.8255536419
 10
21.2692506043
 20
24.7826798321
 10
21.2955308816
 20
24.7375110946
 10
21.3188411312
 20
24.6905246397
 10
21.3389263767
 20
24.6422224756
 10
21.3555547621
 20
24.593148302
 10
21.3685344339
 20
24.5438627114
 10
21.3777216559
 20
24.494915713
 10
21.3830175458
 20
24.4468400891
 10
21.3843641157
 20
24.4001656055
  0
LWPOLYLINE
  5
6BC
100
AcDbEntity
  8
ASSI
100
AcDbPolyline
 62
253
  6
CONTINUOUS
 90
16
 70
0
 10
21.030864573
 20
25.0098621288
 10
21.0678478854
 20
24.9896599939
 10
21.104534025
 20
24.9649224801
 10
21.1405211378
 20
24.9358572321
 10
21.175456656
 20
24.9026728878
 10
21.2088850944
 20
24.8657228474
 10
21.2402799745
 20
24.8255536419
 10
21.2692506043
 20
24.7826798321
 10
21.2955308816
 20
24.7375110946
 10
21.3188411312
 20
24.6905246397
 10
21.3389263767
 20
24.6422224756
 10
21.3555547621
 20
24.593148302
 10
21.3685344339
 20
24.5438627114
 10
21.3777216559
 20
24.494915713
 10
21.3830175458
 20
24.4468400891
 10
21.3843641157
 20
24.4001656055
  0
LWPOLYLINE
  5
6BD
100
AcDbEntity
  8
RACCORDO
100
AcDbPolyline
 62
7
  6
CONTINUOUS
 90
12
 70
0
 10
21.2483010133
 20
25.0210437936
 10
21.2940472153
 20
24.9950765286
 10
21.3372530523
 20
24.9640950474
 10
21.3772244506
 20
24.9284037918
 10
21.4132280745
 20
24.8885386809
 10
21.4448160375
 20
24.8449346288
 10
21.4717295559
 20
24.7977931513
 10
21.4935469671
 20
24.7475456789
 10
21.5097740325
 20
24.695063633
 10
21.5201465095
 20
24.6411133639
 10
21.5245441203
 20
24.5860777202
 10
21.5246941448
 20
24.5736972676
  0
LWPOLYLINE
  5
6BE
100
AcDbEntity
  8
ASSI
100
AcDbPolyline
 62
7
  6
CONTINUOUS
 90
12
 70
0
 10
21.2483010133
 20
25.0210437936
 10
21.2940472153
 20
24.9950765286
 10
21.3372530523
 20
24.9640950474
 10
21.3772244506
 20
24.9284037918
 10
21.4132280745
 20
24.8885386809
 10
21.4448160375
 20
24.8449346288
 10
21.4717295559
 20
24.7977931513
 10
21.4935469671
 20
24.7475456789
 10
21.5097740325
 20
24.695063633
 10
21.5201465095
 20
24.6411133639
 10
21.5245441203
 20
24.5860777202
 10
21.5246941448
 20
24.5736972676
  0
LWPOLYLINE
  5
6BF
100
AcDbEntity
  8
RACCORDO
100
AcDbPolyline
 62
7
  6
CONTINUOUS
 90
6
 70
0
 10
-16.4398681173
 20
31.73379812
 10
-16.380652597
 20
31.7489715798
 10
-16.319356822
 20
31.7568509255
 10
-16.2568170146
 20
31.7570639289
 10
-16.1944693484
 20
31.7494177849
 10
-16.1339876012
 20
31.7341477298
  0
LWPOLYLINE
  5
6C0
100
AcDbEntity
  8
ASSI
100
AcDbPolyline
 62
7
  6
CONTINUOUS
 90
6
 70
0
 10
-16.4398681173
 20
31.73379812
 10
-16.380652597
 20
31.7489715798
 10
-16.319356822
 20
31.7568509255
 10
-16.2568170146
 20
31.7570639289
 10
-16.1944693484
 20
31.7494177849
 10
-16.1339876012
 20
31.7341477298
  0
LWPOLYLINE
  5
6C1
100
AcDbEntity
  8
ASSI
100
AcDbPolyline
 62
7
  6
CONTINUOUS
 90
3
 70
0
 10
-24.6292043536
 20
30.6501715688
 10
-24.7095461337
 20
30.6354484139
 10
-24.7905486165
 20
30.6102856516
  0
LWPOLYLINE
  5
6C2
100
AcDbEntity
  8
RACCORDO
100
AcDbPolyline
 62
7
  6
CONTINUOUS
 90
3
 70
0
 10
-24.6269278601
 20
30.6504378937
 10
-24.7067948971
 20
30.6361220871
 10
-24.7873454952
 20
30.6114760184
  0
ELLIPSE
  5
6C3
100
AcDbEntity
  8
RACCORDO
100
AcDbEllipse
 62
7
  6
CONTINUOUS
 10
-33.6761004369
 20
24.7080223716
 30
0.0
 11
-0.1342205464
 21
0.2684010681
 31
0.0
 40
0.6121897086
 41
-0.6846338794
 42
0.0190174426
  0
ELLIPSE
  5
6C4
100
AcDbEntity
  8
RACCORDO
100
AcDbEllipse
 62
7
  6
CONTINUOUS
 10
1.042777892
 20
-30.9296604882
 30
0.0
 11
-0.1342205464
 21
0.2684010681
 31
0.0
 40
0.6121897086
 41
-3.1606071964
 42
-2.2557347926
  0
ELLIPSE
  5
6C5
100
AcDbEntity
  8
RACCORDO
100
AcDbEllipse
 62
7
  6
CONTINUOUS
 10
1.042777892
 20
7.3485832071
 30
0.0
 11
-0.1341484654
 21
0.2683369961
 31
0.0
 40
0.6125552124
 41
-2.255296188
 42
-0.6848044477
  0
ELLIPSE
  5
6C6
100
AcDbEntity
  8
RACCORDO
100
AcDbEllipse
 62
7
  6
CONTINUOUS
 10
1.1135424263
 20
-31.376638962
 30
0.0
 11
-0.0894323102
 21
0.1788913307
 31
0.0
 40
0.6125552124
 41
0.8862964655
 42
2.4567882058
  0
ELLIPSE
  5
6C7
100
AcDbEntity
  8
RACCORDO
100
AcDbEllipse
 62
7
  6
CONTINUOUS
 10
4.8902568943
 20
14.7237945637
 30
0.0
 11
0.9980068092
 21
-0.2399287748
 31
0.0
 40
0.2630210944
 41
0.8485464535
 42
2.4104144461
  0
ELLIPSE
  5
6C8
100
AcDbEntity
  8
RACCORDO
100
AcDbEllipse
 62
7
  6
CONTINUOUS
 10
-12.7874126354
 20
23.5626293285
 30
0.0
 11
0.9980068092
 21
-0.2399287748
 31
0.0
 40
0.2630210944
 41
0.8485464535
 42
2.4104144461
  0
ELLIPSE
  5
6C9
100
AcDbEntity
  8
RACCORDO
100
AcDbEllipse
 62
7
  6
CONTINUOUS
 10
15.8806666853
 20
27.1458439632
 30
0.0
 11
0.2299769236
 21
0.4440064614
 31
0.0
 40
0.6229838795
 41
0.0088862329
 42
0.6761521296
  0
ELLIPSE
  5
6CA
100
AcDbEntity
  8
RACCORDO
100
AcDbEllipse
 62
7
  6
CONTINUOUS
 10
2.3343043141
 20
25.9586271835
 30
0.0
 11
-0.4471615512
 21
0.8944566536
 31
0.0
 40
0.6125552124
 41
1.5001093078
 42
1.5254512934
  0
ELLIPSE
  5
6CB
100
AcDbEntity
  8
RACCORDO
100
AcDbEllipse
 62
7
  6
CONTINUOUS
 10
-0.901754985
 20
10.204273527
 30
0.0
 11
-0.0894743295
 21
0.1788832574
 31
0.0
 40
0.6123910759
 41
-2.2556797026
 42
-0.6848833758
  0
ELLIPSE
  5
6CC
100
AcDbEntity
  8
RACCORDO
100
AcDbEllipse
 62
7
  6
CONTINUOUS
 10
-31.6255446276
 20
26.2156610171
 30
0.0
 11
-0.0894323102
 21
0.1788913307
 31
0.0
 40
0.6125552124
 41
-2.255296188
 42
-0.6848044477
  0
ELLIPSE
  5
6CD
100
AcDbEntity
  8
RACCORDO
100
AcDbEllipse
 62
7
  6
CONTINUOUS
 10
-2.1682403798
 20
18.2530432007
 30
0.0
 11
0.9980068092
 21
-0.2399287748
 31
0.0
 40
0.2630210944
 41
5.569863768
 42
7.1317317606
  0
ELLIPSE
  5
6CE
100
AcDbEntity
  8
RACCORDO
100
AcDbEllipse
 62
7
  6
CONTINUOUS
 10
1.1135424263
 20
9.8461174902
 30
0.0
 11
-0.0894803643
 21
0.1789340454
 31
0.0
 40
0.6121897086
 41
-0.6846338794
 42
0.8858578609
  0
ELLIPSE
  5
6CF
100
AcDbEntity
  8
RACCORDO
100
AcDbEllipse
 62
7
  6
CONTINUOUS
 10
-10.381207115
 20
21.3341324823
 30
0.0
 11
0.1999952731
 21
-0.00281057
 31
0.0
 40
0.4892375088
 41
-0.7610696355
 42
0.0068752361
  0
ELLIPSE
  5
6D0
100
AcDbEntity
  8
RACCORDO
100
AcDbEllipse
 62
7
  6
CONTINUOUS
 10
2.1741595132
 20
9.3158089467
 30
0.0
 11
-0.0894323102
 21
0.1788913307
 31
0.0
 40
0.6125552124
 41
-2.255296188
 42
-0.6848044477
  0
ELLIPSE
  5
6D1
100
AcDbEntity
  8
RACCORDO
100
AcDbEllipse
 62
7
  6
CONTINUOUS
 10
-29.6102472163
 20
24.5585196426
 30
0.0
 11
-0.0894743295
 21
0.1788832574
 31
0.0
 40
0.6123910759
 41
-0.6848833758
 42
0.885912951
  0
ELLIPSE
  5
6D2
100
AcDbEntity
  8
RACCORDO
100
AcDbEllipse
 62
7
  6
CONTINUOUS
 10
21.0246942155
 20
3.7553501482
 30
0.0
 11
0.4999881828
 21
-0.0070264249
 31
0.0
 40
0.4892375088
 41
-0.7610696355
 42
0.7922733988
  0
ELLIPSE
  5
6D3
100
AcDbEntity
  8
RACCORDO
100
AcDbEllipse
 62
7
  6
CONTINUOUS
 10
-18.5794245147
 20
19.0431082918
 30
0.0
 11
-0.0894743295
 21
0.1788832574
 31
0.0
 40
0.6123910759
 41
-2.2556797026
 42
-0.6848833758
  0
ELLIPSE
  5
6D4
100
AcDbEntity
  8
RACCORDO
100
AcDbEllipse
 62
7
  6
CONTINUOUS
 10
-19.8459099095
 20
27.0918779655
 30
0.0
 11
0.9980068092
 21
-0.2399287748
 31
0.0
 40
0.2630210944
 41
5.569863768
 42
7.1317317606
  0
ELLIPSE
  5
6D5
100
AcDbEntity
  8
RACCORDO
100
AcDbEllipse
 62
7
  6
CONTINUOUS
 10
-32.6861617145
 20
26.7459695605
 30
0.0
 11
-0.0894803643
 21
0.1789340454
 31
0.0
 40
0.6121897086
 41
-0.6846338794
 42
0.8858578609
  0
ELLIPSE
  5
6D6
100
AcDbEntity
  8
DRAFT
100
AcDbEllipse
 62
7
  6
CONTINUOUS
 10
24.1792169905
 20
11.597119475
 30
0.0
 11
1.3048917676
 21
2.7015425106
 31
0.0
 40
0.6016116119
 41
0.6764898932
 42
3.8180825468
  0
ELLIPSE
  5
6D7
100
AcDbEntity
  8
RACCORDO
100
AcDbEllipse
 62
7
  6
CONTINUOUS
 10
2.1741595132
 20
-31.9069475054
 30
0.0
 11
-0.0894803643
 21
0.1789340454
 31
0.0
 40
0.6121897086
 41
2.4569587742
 42
4.0274505145
  0
ELLIPSE
  5
6D8
100
AcDbEntity
  8
RACCORDO
100
AcDbEllipse
 62
7
  6
CONTINUOUS
 10
-11.9325776866
 20
15.7196848778
 30
0.0
 11
-0.0894743295
 21
0.1788832574
 31
0.0
 40
0.6123910759
 41
-0.6848833758
 42
0.885912951
  0
ELLIPSE
  5
6D9
100
AcDbEntity
  8
RACCORDO
100
AcDbEllipse
 62
7
  6
CONTINUOUS
 10
9.8930308958
 20
30.139661858
 30
0.0
 11
0.2174819613
 21
0.4502570851
 31
0.0
 40
0.6016116119
 41
5.3888788736
 42
6.9422219079
  0
ELLIPSE
  5
6DA
100
AcDbEntity
  8
ASSI
100
AcDbEllipse
 62
7
  6
CONTINUOUS
 10
1.1135424263
 20
-31.376638962
 30
0.0
 11
-0.0894323102
 21
0.1788913307
 31
0.0
 40
0.6125552124
 41
0.8862964655
 42
2.4567882058
  0
ELLIPSE
  5
6DB
100
AcDbEntity
  8
ASSI
100
AcDbEllipse
 62
7
  6
CONTINUOUS
 10
4.8902568943
 20
14.7237945637
 30
0.0
 11
0.9980068092
 21
-0.2399287748
 31
0.0
 40
0.2630210944
 41
0.8485464535
 42
2.4104144461
  0
ELLIPSE
  5
6DC
100
AcDbEntity
  8
ASSI
100
AcDbEllipse
 62
7
  6
CONTINUOUS
 10
-12.7874126354
 20
23.5626293285
 30
0.0
 11
0.9980068092
 21
-0.2399287748
 31
0.0
 40
0.2630210944
 41
0.8485464535
 42
2.4104144461
  0
ELLIPSE
  5
6DD
100
AcDbEntity
  8
ASSI
100
AcDbEllipse
 62
7
  6
CONTINUOUS
 10
15.8806666853
 20
27.1458439632
 30
0.0
 11
0.2299769236
 21
0.4440064614
 31
0.0
 40
0.6229838795
 41
0.0088862329
 42
0.6761521296
  0
ELLIPSE
  5
6DE
100
AcDbEntity
  8
ASSI
100
AcDbEllipse
 62
7
  6
CONTINUOUS
 10
2.3343043141
 20
25.9586271835
 30
0.0
 11
-0.4471615512
 21
0.8944566536
 31
0.0
 40
0.6125552124
 41
1.5001093078
 42
1.5254512934
  0
ELLIPSE
  5
6DF
100
AcDbEntity
  8
ASSI
100
AcDbEllipse
 62
7
  6
CONTINUOUS
 10
-0.901754985
 20
10.204273527
 30
0.0
 11
-0.0894743295
 21
0.1788832574
 31
0.0
 40
0.6123910759
 41
-2.2556797026
 42
-0.6848833758
  0
ELLIPSE
  5
6E0
100
AcDbEntity
  8
ASSI
100
AcDbEllipse
 62
7
  6
CONTINUOUS
 10
-31.6255446276
 20
26.2156610171
 30
0.0
 11
-0.0894323102
 21
0.1788913307
 31
0.0
 40
0.6125552124
 41
-2.255296188
 42
-0.6848044477
  0
ELLIPSE
  5
6E1
100
AcDbEntity
  8
ASSI
100
AcDbEllipse
 62
7
  6
CONTINUOUS
 10
1.1135424263
 20
9.8461174902
 30
0.0
 11
-0.0894803643
 21
0.1789340454
 31
0.0
 40
0.6121897086
 41
-0.6846338794
 42
0.8858578609
  0
ELLIPSE
  5
6E2
100
AcDbEntity
  8
ASSI
100
AcDbEllipse
 62
7
  6
CONTINUOUS
 10
-2.1682403798
 20
18.2530432007
 30
0.0
 11
0.9980068092
 21
-0.2399287748
 31
0.0
 40
0.2630210944
 41
5.569863768
 42
7.1317317606
  0
ELLIPSE
  5
6E3
100
AcDbEntity
  8
ASSI
100
AcDbEllipse
 62
7
  6
CONTINUOUS
 10
-10.381207115
 20
21.3341324823
 30
0.0
 11
0.1999952731
 21
-0.00281057
 31
0.0
 40
0.4892375088
 41
-0.7610696355
 42
0.0068752361
  0
ELLIPSE
  5
6E4
100
AcDbEntity
  8
ASSI
100
AcDbEllipse
 62
7
  6
CONTINUOUS
 10
2.1741595132
 20
9.3158089467
 30
0.0
 11
-0.0894323102
 21
0.1788913307
 31
0.0
 40
0.6125552124
 41
-2.255296188
 42
-0.6848044477
  0
ELLIPSE
  5
6E5
100
AcDbEntity
  8
ASSI
100
AcDbEllipse
 62
7
  6
CONTINUOUS
 10
-29.6102472163
 20
24.5585196426
 30
0.0
 11
-0.0894743295
 21
0.1788832574
 31
0.0
 40
0.6123910759
 41
-0.6848833758
 42
0.885912951
  0
ELLIPSE
  5
6E6
100
AcDbEntity
  8
ASSI
100
AcDbEllipse
 62
7
  6
CONTINUOUS
 10
21.0246942155
 20
3.7553501482
 30
0.0
 11
0.4999881828
 21
-0.0070264249
 31
0.0
 40
0.4892375088
 41
-0.7610696355
 42
0.7922733988
  0
ELLIPSE
  5
6E7
100
AcDbEntity
  8
ASSI
100
AcDbEllipse
 62
7
  6
CONTINUOUS
 10
-18.5794245147
 20
19.0431082918
 30
0.0
 11
-0.0894743295
 21
0.1788832574
 31
0.0
 40
0.6123910759
 41
-2.2556797026
 42
-0.6848833758
  0
ELLIPSE
  5
6E8
100
AcDbEntity
  8
ASSI
100
AcDbEllipse
 62
7
  6
CONTINUOUS
 10
-19.8459099095
 20
27.0918779655
 30
0.0
 11
0.9980068092
 21
-0.2399287748
 31
0.0
 40
0.2630210944
 41
5.569863768
 42
7.1317317606
  0
ELLIPSE
  5
6E9
100
AcDbEntity
  8
ASSI
100
AcDbEllipse
 62
7
  6
CONTINUOUS
 10
-32.6861617145
 20
26.7459695605
 30
0.0
 11
-0.0894803643
 21
0.1789340454
 31
0.0
 40
0.6121897086
 41
-0.6846338794
 42
0.8858578609
  0
ELLIPSE
  5
6EA
100
AcDbEntity
  8
ASSI
100
AcDbEllipse
 62
7
  6
CONTINUOUS
 10
2.1741595132
 20
-31.9069475054
 30
0.0
 11
-0.0894803643
 21
0.1789340454
 31
0.0
 40
0.6121897086
 41
2.4569587742
 42
4.0274505145
  0
ELLIPSE
  5
6EB
100
AcDbEntity
  8
ASSI
100
AcDbEllipse
 62
7
  6
CONTINUOUS
 10
24.1792169905
 20
11.597119475
 30
0.0
 11
1.3048917676
 21
2.7015425106
 31
0.0
 40
0.6016116119
 41
0.6764898932
 42
3.8180825468
  0
ELLIPSE
  5
6EC
100
AcDbEntity
  8
ASSI
100
AcDbEllipse
 62
7
  6
CONTINUOUS
 10
-11.9325776866
 20
15.7196848778
 30
0.0
 11
-0.0894743295
 21
0.1788832574
 31
0.0
 40
0.6123910759
 41
-0.6848833758
 42
0.885912951
  0
ELLIPSE
  5
6ED
100
AcDbEntity
  8
ASSI
100
AcDbEllipse
 62
7
  6
CONTINUOUS
 10
9.8930308958
 20
30.139661858
 30
0.0
 11
0.2174819613
 21
0.4502570851
 31
0.0
 40
0.6016116119
 41
5.3888788736
 42
6.9422219079
  0
ENDSEC
  0
SECTION
  2
OBJECTS
  0
DICTIONARY
  5
C
100
AcDbDictionary
280
0
281
1
  3
ACAD_GROUP
350
D
  3
ACAD_MLINESTYLE
350
17
  3
ACAD_LAYOUT
350
1A
  3
ACAD_PLOTSETTINGS
350
19
  3
ACAD_PLOTSTYLENAME
350
E
  0
DICTIONARY
  5
D
102
{ACAD_REACTORS
330
C
102
}
100
AcDbDictionary
280
0
281
1
  0
ACDBDICTIONARYWDFLT
  5
E
102
{ACAD_REACTORS
330
C
102
}
100
AcDbDictionary
281
1
  3
Normal
350
F
100
AcDbDictionaryWithDefault
340
F
  0
DICTIONARY
  5
17
102
{ACAD_REACTORS
330
C
102
}
100
AcDbDictionary
280
0
281
1
  3
Standard
350
18
  0
DICTIONARY
  5
19
102
{ACAD_REACTORS
330
C
102
}
100
AcDbDictionary
281
1
  0
DICTIONARY
  5
1A
102
{ACAD_REACTORS
330
C
102
}
100
AcDbDictionary
281
1
  3
Model
350
6EE
  3
Layout1
350
6EF
  0
ACDBPLACEHOLDER
  5
F
102
{ACAD_REACTORS
330
E
102
}
  0
MLINESTYLE
  5
18
102
{ACAD_REACTORS
330
17
102
}
100
AcDbMlineStyle
  2
STANDARD
 70
0
  3

 62
256
 51
90.0
 52
90.0
 71
2
 49
0.5
 62
256
  6
BYLAYER
 49
-0.5
 62
256
  6
BYLAYER
  0
LAYOUT
  5
6EE
102
{ACAD_REACTORS
330
1A
102
}
100
AcDbPlotSettings
  1

  2
none_device
  4
ANSI_A_(11.00_x_8.50_Inches)
  6

 40
0.0
 41
0.0
 42
0.0
 43
0.0
 44
279.4
 45
215.9
 46
0.0
 47
0.0
 48
0.0
 49
0.0
140
0.0
141
0.0
142
1.0
143
1.0
 70
1024
 72
1
 73
0
 74
0
  7

 75
0
147
1.0
148
0.0
149
0.0
100
AcDbLayout
  1
Model
 70
0
 71
0
 10
0.0
 20
0.0
 11
279.4
 21
215.9
 12
0.0
 22
0.0
 32
0.0
 14
0.0
 24
0.0
 34
0.0
 15
0.0
 25
0.0
 35
0.0
146
0.0
 13
0.0
 23
0.0
 33
0.0
 16
1.0
 26
0.0
 36
0.0
 17
0.0
 27
1.0
 37
0.0
 76
0
330
21E
345
0
346
0
  0
LAYOUT
  5
6EF
102
{ACAD_REACTORS
330
1A
102
}
100
AcDbPlotSettings
  1

  2
none_device
  4
ANSI_A_(11.00_x_8.50_Inches)
  6

 40
0.0
 41
0.0
 42
0.0
 43
0.0
 44
279.4
 45
215.9
 46
0.0
 47
0.0
 48
0.0
 49
0.0
140
0.0
141
0.0
142
1.0
143
1.0
 70
0
 72
1
 73
0
 74
0
  7

 75
0
147
1.0
148
0.0
149
0.0
100
AcDbLayout
  1
Layout1
 70
0
 71
1
 10
0.0
 20
0.0
 11
279.4
 21
215.9
 12
0.0
 22
0.0
 32
0.0
 14
0.0
 24
0.0
 34
0.0
 15
0.0
 25
0.0
 35
0.0
146
0.0
 13
0.0
 23
0.0
 33
0.0
 16
1.0
 26
0.0
 36
0.0
 17
0.0
 27
1.0
 37
0.0
 76
0
330
21F
345
0
346
0
  0
ENDSEC
  0
EOF
