  0
SECTION
  2
HEADER
  9
$ACADVER
  1
AC1024
  9
$DWGCODEPAGE
  3
ANSI_1252
  9
$EXTMAX
 10
297.0
 20
210.0
 30
0.0
  9
$EXTMIN
 10
0.0
 20
0.0
 30
0.0
  9
$LIMMIN
 10
0.0
 20
0.0
  9
$LIMMAX
 10
297.0
 20
210.0
  9
$VIEWCTR
 10
148.5
 20
105.0
  9
$VIEWSIZE
 40
210.0
  9
$CLAYER
  8
0
  9
$LTSCALE
 40
16.335
  9
$CELTYPE
  6
BYLAYER
  9
$DIMSCALE
 40
1.0
  9
$DIMASZ
 40
3.0
  9
$DIMEXO
 40
0.5
  9
$DIMDLI
 40
11.286
  9
$DIMEXE
 40
1.5
  9
$DIMCEN
 40
2.673
  9
$DIMLFAC
 40
1.0
  9
$DIMBLK
  1
_FILLED
  9
$DIMALT
 70
0
  9
$DIMALTF
 40
0.0393700787
  9
$DIMTXT
 40
3.0
  9
$DIMTOL
 70
1
  9
$DIMLIM
 70
0
  9
$DIMTFAC
 40
1.0
  9
$DIMTP
 40
0.01
  9
$DIMTM
 40
0.01
  9
$DIMGAP
 40
0.625
  9
$DIMDSEP
 70
44
  9
$AUNITS
 70
0
  9
$PDMODE
 70
3
  9
$PDSIZE
 40
3.0
  9
$HANDSEED
  5
2A5
  9
$TILEMODE
 70
1
  9
$MEASUREMENT
 70
1
  9
$INSUNITS
 70
4
  0
ENDSEC
  0
SECTION
  2
CLASSES
  0
CLASS
  1
ACDBDICTIONARYWDFLT
  2
AcDbDictionaryWithDefault
  3
AutoCAD 2000
 90
0
 91
1
280
0
281
0
  0
CLASS
  1
ACDBPLACEHOLDER
  2
AcDbPlaceHolder
  3
AutoCAD 2000
 90
0
 91
1
280
0
281
0
  0
CLASS
  1
LAYOUT
  2
AcDbLayout
  3
AutoCAD 2000
 90
0
 91
0
280
0
281
0
  0
ENDSEC
  0
SECTION
  2
TABLES
  0
TABLE
  2
VPORT
  5
8
100
AcDbSymbolTable
 70
2
  0
VPORT
  5
1F4
100
AcDbSymbolTableRecord
100
AcDbViewportTableRecord
  2
*ACTIVE
 70
0
 10
0.0
 20
0.0
 11
1.0
 21
1.0
 12
148.5
 22
105.0
 13
0.0
 23
0.0
 14
1.0
 24
1.0
 15
0.0
 25
0.0
 16
0.0
 26
0.0
 36
1.0
 17
0.0
 27
0.0
 37
0.0
 40
210.0
 41
1.4142857143
 42
50.0
 43
0.0
 44
0.0
 50
0.0
 51
0.0
 71
0
 72
100
 73
1
 74
1
 75
0
 76
0
 77
0
 78
0
  0
ENDTAB
  0
TABLE
  2
LTYPE
  5
5
100
AcDbSymbolTable
 70
6
  0
LTYPE
  5
14
100
AcDbSymbolTableRecord
100
AcDbLinetypeTableRecord
  2
BYBLOCK
 70
0
  3

 72
65
 73
0
 40
0.0
  0
LTYPE
  5
15
100
AcDbSymbolTableRecord
100
AcDbLinetypeTableRecord
  2
BYLAYER
 70
0
  3

 72
65
 73
0
 40
0.0
  0
LTYPE
  5
16
100
AcDbSymbolTableRecord
100
AcDbLinetypeTableRecord
  2
CONTINUOUS
 70
64
  3
Solid line
 72
65
 73
0
 40
0.0
  0
LTYPE
  5
1F5
100
AcDbSymbolTableRecord
100
AcDbLinetypeTableRecord
  2
CENTER
 70
64
  3
____ _ ____ _ ____ _ ____ _ ____ _ ____ _ ____
 72
65
 73
4
 40
0.6
 49
0.375
 74
0
 49
-0.075
 74
0
 49
0.075
 74
0
 49
-0.075
 74
0
  0
LTYPE
  5
1F6
100
AcDbSymbolTableRecord
100
AcDbLinetypeTableRecord
  2
HIDDEN
 70
64
  3
- - - - - - - - - - - - - - - - - - - -
 72
65
 73
2
 40
0.2
 49
0.1
 74
0
 49
-0.1
 74
0
  0
LTYPE
  5
1F7
100
AcDbSymbolTableRecord
100
AcDbLinetypeTableRecord
  2
PHANTOM
 70
64
  3
_____ _ _ _____ _ _ _____ _ _ _____
 72
65
 73
6
 40
0.8
 49
0.45
 74
0
 49
-0.05
 74
0
 49
0.1
 74
0
 49
-0.05
 74
0
 49
0.1
 74
0
 49
-0.05
 74
0
  0
LTYPE
  5
1F8
100
AcDbSymbolTableRecord
100
AcDbLinetypeTableRecord
  2
DOT
 70
64
  3
. . . . . . . . . . . . . . . . . . . .
 72
65
 73
2
 40
0.2
 49
0.1
 74
0
 49
-0.1
 74
0
  0
LTYPE
  5
1F9
100
AcDbSymbolTableRecord
100
AcDbLinetypeTableRecord
  2
DASHED
 70
64
  3
- - - - - - - - - - - - - - - - - - - -
 72
65
 73
2
 40
0.2
 49
0.1
 74
0
 49
-0.1
 74
0
  0
ENDTAB
  0
TABLE
  2
LAYER
  5
2
100
AcDbSymbolTable
 70
36
  0
LAYER
  5
10
100
AcDbSymbolTableRecord
100
AcDbLayerTableRecord
  2
0
 70
0
 62
7
  6
CONTINUOUS
370
-3
390
F
  0
LAYER
  5
1FA
100
AcDbSymbolTableRecord
100
AcDbLayerTableRecord
  2
DEFAULT_1
 70
0
 62
7
  6
CENTER
370
-3
390
F
  0
LAYER
  5
1FB
100
AcDbSymbolTableRecord
100
AcDbLayerTableRecord
  2
DEFAULT_2
 70
0
 62
7
  6
HIDDEN
370
-3
390
F
  0
LAYER
  5
1FC
100
AcDbSymbolTableRecord
100
AcDbLayerTableRecord
  2
DEFAULT_3
 70
0
 62
7
  6
PHANTOM
370
-3
390
F
  0
LAYER
  5
1FD
100
AcDbSymbolTableRecord
100
AcDbLayerTableRecord
  2
ASSI
 70
0
 62
7
  6
CONTINUOUS
370
-3
390
F
  0
LAYER
  5
1FE
100
AcDbSymbolTableRecord
100
AcDbLayerTableRecord
  2
COLOR9
 70
0
 62
7
  6
CONTINUOUS
370
-3
390
F
  0
LAYER
  5
1FF
100
AcDbSymbolTableRecord
100
AcDbLayerTableRecord
  2
COORDINATE
 70
0
 62
7
  6
CONTINUOUS
370
-3
390
F
  0
LAYER
  5
200
100
AcDbSymbolTableRecord
100
AcDbLayerTableRecord
  2
COORD_ORIGINE
 70
0
 62
7
  6
CONTINUOUS
370
-3
390
F
  0
LAYER
  5
201
100
AcDbSymbolTableRecord
100
AcDbLayerTableRecord
  2
COSMETICI
 70
0
 62
7
  6
CONTINUOUS
370
-3
390
F
  0
LAYER
  5
202
100
AcDbSymbolTableRecord
100
AcDbLayerTableRecord
  2
CURVE
 70
0
 62
7
  6
CONTINUOUS
370
-3
390
F
  0
LAYER
  5
203
100
AcDbSymbolTableRecord
100
AcDbLayerTableRecord
  2
DRAFT
 70
0
 62
7
  6
CONTINUOUS
370
-3
390
F
  0
LAYER
  5
204
100
AcDbSymbolTableRecord
100
AcDbLayerTableRecord
  2
IGS_SIMBOLO
 70
0
 62
7
  6
CONTINUOUS
370
-3
390
F
  0
LAYER
  5
205
100
AcDbSymbolTableRecord
100
AcDbLayerTableRecord
  2
NOTE
 70
0
 62
7
  6
CONTINUOUS
370
-3
390
F
  0
LAYER
  5
206
100
AcDbSymbolTableRecord
100
AcDbLayerTableRecord
  2
PIANI
 70
0
 62
7
  6
CONTINUOUS
370
-3
390
F
  0
LAYER
  5
207
100
AcDbSymbolTableRecord
100
AcDbLayerTableRecord
  2
PIANI_ORIGINE
 70
0
 62
7
  6
CONTINUOUS
370
-3
390
F
  0
LAYER
  5
208
100
AcDbSymbolTableRecord
100
AcDbLayerTableRecord
  2
PIANI_RIFERIMENTO
 70
0
 62
7
  6
CONTINUOUS
370
-3
390
F
  0
LAYER
  5
209
100
AcDbSymbolTableRecord
100
AcDbLayerTableRecord
  2
PUNTI
 70
0
 62
7
  6
CONTINUOUS
370
-3
390
F
  0
LAYER
  5
20A
100
AcDbSymbolTableRecord
100
AcDbLayerTableRecord
  2
RACCORDO
 70
0
 62
7
  6
CONTINUOUS
370
-3
390
F
  0
LAYER
  5
20B
100
AcDbSymbolTableRecord
100
AcDbLayerTableRecord
  2
SIMBOLI
 70
0
 62
7
  6
CONTINUOUS
370
-3
390
F
  0
LAYER
  5
20C
100
AcDbSymbolTableRecord
100
AcDbLayerTableRecord
  2
SMUSSO
 70
0
 62
7
  6
CONTINUOUS
370
-3
390
F
  0
LAYER
  5
20D
100
AcDbSymbolTableRecord
100
AcDbLayerTableRecord
  2
SNAPLINE
 70
0
 62
7
  6
CONTINUOUS
370
-3
390
F
  0
LAYER
  5
20E
100
AcDbSymbolTableRecord
100
AcDbLayerTableRecord
  2
SUPERFICI
 70
0
 62
7
  6
CONTINUOUS
370
-3
390
F
  0
LAYER
  5
20F
100
AcDbSymbolTableRecord
100
AcDbLayerTableRecord
  2
TRASH
 70
0
 62
7
  6
CONTINUOUS
370
-3
390
F
  0
LAYER
  5
210
100
AcDbSymbolTableRecord
100
AcDbLayerTableRecord
  2
XSEC_DATUMS
 70
0
 62
7
  6
CONTINUOUS
370
-3
390
F
  0
ENDTAB
  0
TABLE
  2
STYLE
  5
3
100
AcDbSymbolTable
 70
1
  0
STYLE
  5
11
100
AcDbSymbolTableRecord
100
AcDbTextStyleTableRecord
  2
STANDARD
 70
0
 40
0.0
 41
0.8
 50
0.0
 71
0
 42
0.2
  3
txt
  4

  0
STYLE
  5
211
100
AcDbSymbolTableRecord
100
AcDbTextStyleTableRecord
  2
TEXTSTYLE_1
 70
0
 40
0.0
 41
0.8
 50
0.0
 71
0
 42
0.2
  3
gdt
  4

  0
ENDTAB
  0
TABLE
  2
VIEW
  5
6
100
AcDbSymbolTable
 70
0
  0
ENDTAB
  0
TABLE
  2
UCS
  5
7
100
AcDbSymbolTable
 70
0
  0
ENDTAB
  0
TABLE
  2
APPID
  5
9
100
AcDbSymbolTable
 70
1
  0
APPID
  5
212
100
AcDbSymbolTableRecord
100
AcDbRegAppTableRecord
  2
ACAD
 70
0
  0
ENDTAB
  0
TABLE
  2
BLOCK_RECORD
  5
1
100
AcDbSymbolTable
 70
0
  0
BLOCK_RECORD
  5
213
100
AcDbSymbolTableRecord
100
AcDbBlockTableRecord
  2
*Model_Space
  0
BLOCK_RECORD
  5
214
100
AcDbSymbolTableRecord
100
AcDbBlockTableRecord
  2
*Paper_Space
  0
BLOCK_RECORD
  5
215
100
AcDbSymbolTableRecord
100
AcDbBlockTableRecord
  2
_FILLED
  0
ENDTAB
  0
TABLE
  2
DIMSTYLE
  5
A
100
AcDbSymbolTable
 70
1
100
AcDbDimStyleTable
 71
0
  0
DIMSTYLE
105
216
100
AcDbSymbolTableRecord
100
AcDbDimStyleTableRecord
  2
STANDARD
 70
0
  3

  4

 40
1.0
 41
3.0
 42
0.5
 43
0.38
 44
1.5
 45
0.0
 46
0.0
 47
0.01
 48
0.01
140
3.0
141
0.09
142
0.0
143
25.4
144
1.0
145
0.0
146
1.0
147
0.625
 71
1
 72
0
 73
0
 74
0
 75
0
 76
0
 77
1
 78
8
 79
2
170
0
171
1
172
0
173
0
174
0
175
0
176
0
177
0
178
0
270
2
179
2
271
2
272
2
273
2
274
2
275
0
280
0
281
0
282
0
283
1
284
8
285
0
286
0
287
3
288
0
340
11
278
44
341
215
342
215
343
215
344
215
  0
ENDTAB
  0
ENDSEC
  0
SECTION
  2
BLOCKS
  0
BLOCK
  5
20
100
AcDbEntity
  8
0
100
AcDbBlockBegin
  2
*Model_Space
 70
0
 10
0.0
 20
0.0
 30
0.0
  3
*Model_Space
  1

  0
ENDBLK
  5
21
100
AcDbEntity
  8
0
100
AcDbBlockEnd
  0
BLOCK
  5
1C
100
AcDbEntity
  8
0
100
AcDbBlockBegin
  2
*Paper_Space
 70
0
 10
0.0
 20
0.0
 30
0.0
  3
*Paper_Space
  1

  0
ENDBLK
  5
1D
100
AcDbEntity
  8
0
100
AcDbBlockEnd
  0
BLOCK
  5
217
100
AcDbEntity
  8
0
100
AcDbBlockBegin
  2
_FILLED
 70
64
 10
0.0
 20
0.0
  3
_FILLED
  1

  0
SOLID
  5
218
100
AcDbEntity
  8
0
  6
BYBLOCK
 62
0
100
AcDbTrace
 10
0.0
 20
0.0
 11
-1.0
 21
0.3166666667
 12
-1.0
 22
-0.3166666667
 13
-1.0
 23
-0.3166666667
  0
ENDBLK
  5
219
100
AcDbEntity
  8
0
  6
BYBLOCK
 62
0
100
AcDbBlockEnd
  0
ENDSEC
  0
SECTION
  2
ENTITIES
  0
LWPOLYLINE
  5
21A
100
AcDbEntity
  8
RACCORDO
100
AcDbPolyline
 62
7
  6
CONTINUOUS
 90
15
 70
0
 10
-16.2728912543
 20
25.7992935396
 10
-16.307945438
 20
25.7743802711
 10
-16.3692364487
 20
25.7253212554
 10
-16.4269615171
 20
25.6720721433
 10
-16.4813014213
 20
25.6148812546
 10
-16.5322430545
 20
25.5540346404
 10
-16.5795064948
 20
25.4901058408
 10
-16.6230560355
 20
25.4233555379
 10
-16.6627997041
 20
25.3539673753
 10
-16.698390764
 20
25.2826146798
 10
-16.7297192549
 20
25.2094978238
 10
-16.7566247051
 20
25.1347736581
 10
-16.7787956909
 20
25.0589967687
 10
-16.7960035489
 20
24.9823674019
 10
-16.8082651229
 20
24.9029219275
  0
LINE
  5
21B
100
AcDbEntity
  8
RACCORDO
100
AcDbLine
 62
7
  6
CONTINUOUS
 10
-16.2730341025
 20
25.7992122383
 11
-14.5128730852
 21
26.9957780583
  0
LINE
  5
21C
100
AcDbEntity
  8
RACCORDO
100
AcDbLine
 62
250
  6
CONTINUOUS
 10
-16.0131754339
 20
25.7809447993
 11
-14.2529498351
 21
26.9775545221
  0
LWPOLYLINE
  5
21D
100
AcDbEntity
  8
RACCORDO
100
AcDbPolyline
 62
250
  6
CONTINUOUS
 90
9
 70
0
 10
-16.2728985451
 20
25.799304286
 10
-16.2501951498
 20
25.8120693269
 10
-16.2221047879
 20
25.8219488035
 10
-16.1914976725
 20
25.8270583294
 10
-16.158708471
 20
25.8273420355
 10
-16.1240957106
 20
25.8227968196
 10
-16.0880378577
 20
25.8134723803
 10
-16.0509291796
 20
25.7994706739
 10
-16.0131754339
 20
25.7809447993
  0
LINE
  5
21E
100
AcDbEntity
  8
RACCORDO
100
AcDbLine
 62
7
  6
CONTINUOUS
 10
-16.8082382822
 20
24.9031513606
 11
-16.8082651229
 21
24.9029219275
  0
LWPOLYLINE
  5
21F
100
AcDbEntity
  8
RACCORDO
100
AcDbPolyline
 62
250
  6
CONTINUOUS
 90
19
 70
0
 10
-16.6612955749
 20
24.7035550207
 10
-16.651465006
 20
24.7700241856
 10
-16.637744736
 20
24.8377532107
 10
-16.6202142655
 20
24.9063556334
 10
-16.5989767315
 20
24.9754420123
 10
-16.5741534918
 20
25.0446166365
 10
-16.545883822
 20
25.1134797919
 10
-16.5143334316
 20
25.1816380329
 10
-16.4796838704
 20
25.2487047095
 10
-16.4421264954
 20
25.3142964833
 10
-16.4018793068
 20
25.3780405479
 10
-16.3591746384
 20
25.4395741687
 10
-16.3142479275
 20
25.4985445723
 10
-16.2673582094
 20
25.5546179059
 10
-16.2187773785
 20
25.6074736934
 10
-16.168777045
 20
25.6568039447
 10
-16.1176435178
 20
25.702326194
 10
-16.0656760088
 20
25.743784796
 10
-16.0131754339
 20
25.7809447993
  0
LWPOLYLINE
  5
220
100
AcDbEntity
  8
RACCORDO
100
AcDbPolyline
 62
250
  6
CONTINUOUS
 90
9
 70
0
 10
-17.4895618081
 20
-0.5817936277
 10
-17.4885393926
 20
-0.597998422
 10
-17.4825753463
 20
-0.6280227786
 10
-17.4713887959
 20
-0.6574716403
 10
-17.4550982567
 20
-0.6860330132
 10
-17.4338763176
 20
-0.7134043057
 10
-17.4079478129
 20
-0.7392955346
 10
-17.3775874404
 20
-0.7634323972
 10
-17.343116851
 20
-0.7855591769
  0
LWPOLYLINE
  5
221
100
AcDbEntity
  8
RACCORDO
100
AcDbPolyline
 62
7
  6
CONTINUOUS
 90
10
 70
0
 10
-17.4895617865
 20
-0.5817933875
 10
-17.467220729
 20
-1.5888931368
 10
-17.4305150667
 20
-2.647361662
 10
-17.3803988457
 20
-3.6970465666
 10
-17.3168793306
 20
-4.7376910692
 10
-17.2399675668
 20
-5.7690867386
 10
-17.1496743564
 20
-6.7910436564
 10
-17.0460130765
 20
-7.8033545947
 10
-16.9290073675
 20
-8.8057735191
 10
-16.8070109152
 20
-9.7378362701
  0
LWPOLYLINE
  5
222
100
AcDbEntity
  8
RACCORDO
100
AcDbPolyline
 62
7
  6
CONTINUOUS
 90
10
 70
0
 10
-17.4895643122
 20
14.9316551837
 10
-17.5135374727
 20
13.2398904917
 10
-17.5322439129
 20
11.4908388075
 10
-17.5447119146
 20
9.7454931721
 10
-17.5509410739
 20
8.0038893879
 10
-17.5509312643
 20
6.2660571458
 10
-17.5446824104
 20
4.5320238349
 10
-17.5321944915
 20
2.8018191459
 10
-17.5134677642
 20
1.0754785462
 10
-17.4895618081
 20
-0.5817936277
  0
LWPOLYLINE
  5
223
100
AcDbEntity
  8
RACCORDO
100
AcDbPolyline
 62
250
  6
CONTINUOUS
 90
10
 70
0
 10
-17.3431168513
 20
14.7273760819
 10
-17.3194865425
 20
15.8083035015
 10
-17.2827962788
 20
16.8966553397
 10
-17.2330539886
 20
17.9922022833
 10
-17.1702708558
 20
19.0947137282
 10
-17.0944600277
 20
20.2039572754
 10
-17.0056366042
 20
21.3196987835
 10
-16.9038193583
 20
22.4417031534
 10
-16.7890307397
 20
23.5697343737
 10
-16.6612955749
 20
24.7035550207
  0
LWPOLYLINE
  5
224
100
AcDbEntity
  8
RACCORDO
100
AcDbPolyline
 62
250
  6
CONTINUOUS
 90
10
 70
0
 10
-16.8082651229
 20
24.9029219275
 10
-16.8087779187
 20
24.8973230305
 10
-16.8078118436
 20
24.8722681859
 10
-16.8015877926
 20
24.8469194438
 10
-16.790171729
 20
24.8215454532
 10
-16.7736846416
 20
24.796415131
 10
-16.7523012626
 20
24.7717948115
 10
-16.7262482157
 20
24.747945424
 10
-16.6958016143
 20
24.7251197272
 10
-16.6612841351
 20
24.7035596307
  0
LWPOLYLINE
  5
225
100
AcDbEntity
  8
RACCORDO
100
AcDbPolyline
 62
7
  6
CONTINUOUS
 90
10
 70
0
 10
-16.8082471782
 20
24.9031524082
 10
-16.9305678324
 20
23.8194886098
 10
-17.047245457
 20
22.6772492231
 10
-17.150631568
 20
21.5410738357
 10
-17.2406966828
 20
20.4112394281
 10
-17.3174214662
 20
19.2879735598
 10
-17.3807889709
 20
18.1714853765
 10
-17.4307823063
 20
17.0620017257
 10
-17.4673884288
 20
15.9597920697
 10
-17.4895643008
 20
14.9316549774
  0
LINE
  5
226
100
AcDbEntity
  8
RACCORDO
100
AcDbLine
 62
7
  6
CONTINUOUS
 10
-1.4008296016
 20
-18.7571334047
 11
-1.3422411652
 21
-18.7422129085
  0
LWPOLYLINE
  5
227
100
AcDbEntity
  8
RACCORDO
100
AcDbPolyline
 62
7
  6
CONTINUOUS
 90
11
 70
0
 10
13.5472932956
 20
-27.5998850389
 10
13.6152842329
 20
-27.6342927845
 10
13.6818073743
 20
-27.6593120097
 10
13.750594776
 20
-27.6773209362
 10
13.8220356772
 20
-27.6883595911
 10
13.8955899611
 20
-27.6921097711
 10
13.9704867964
 20
-27.6883330391
 10
14.0470396231
 20
-27.6767471373
 10
14.1250642773
 20
-27.6569094068
 10
14.2036766681
 20
-27.6285516235
 10
14.2487947497
 20
-27.6083750664
  0
LWPOLYLINE
  5
228
100
AcDbEntity
  8
RACCORDO
100
AcDbPolyline
 62
7
  6
CONTINUOUS
 90
8
 70
0
 10
-1.9009211574
 20
-18.6802851372
 10
-1.8327629716
 20
-18.714767758
 10
-1.7661877793
 20
-18.7397918259
 10
-1.6973377404
 20
-18.757803797
 10
-1.6258498358
 20
-18.7688289686
 10
-1.5522679358
 20
-18.7725477212
 10
-1.4773613638
 20
-18.7687421649
 10
-1.4008296016
 20
-18.7571334047
  0
LWPOLYLINE
  5
229
100
AcDbEntity
  8
RACCORDO
100
AcDbPolyline
 62
250
  6
CONTINUOUS
 90
8
 70
0
 10
-16.8069340789
 20
-9.738388407
 10
-16.8015987276
 20
-9.7645804838
 10
-16.7901831684
 20
-9.7969552271
 10
-16.7736964123
 20
-9.8279797366
 10
-16.7523131922
 20
-9.8573252029
 10
-16.7262601355
 20
-9.8846806118
 10
-16.6958133624
 20
-9.9097560403
 10
-16.6612955593
 20
-9.9322857295
  0
LWPOLYLINE
  5
22A
100
AcDbEntity
  8
RACCORDO
100
AcDbPolyline
 62
7
  6
CONTINUOUS
 90
12
 70
0
 10
-16.8069192972
 20
-9.7383863405
 10
-16.794345537
 20
-9.807995424
 10
-16.7763576753
 20
-9.8747899536
 10
-16.7534676128
 20
-9.9375497683
 10
-16.7260023646
 20
-9.9963080473
 10
-16.6941045663
 20
-10.0512887615
 10
-16.6581701601
 20
-10.1021501127
 10
-16.6185642185
 20
-10.1487039382
 10
-16.5752827873
 20
-10.1911593595
 10
-16.5285588881
 20
-10.22934425
 10
-16.4789581314
 20
-10.262867869
 10
-16.4640946149
 20
-10.2716924022
  0
LINE
  5
22B
100
AcDbEntity
  8
RACCORDO
100
AcDbLine
 62
7
  6
CONTINUOUS
 10
-16.8070109152
 20
-9.7378362701
 11
-16.8069340789
 21
-9.738388407
  0
LWPOLYLINE
  5
22C
100
AcDbEntity
  8
RACCORDO
100
AcDbPolyline
 62
250
  6
CONTINUOUS
 90
10
 70
0
 10
-16.6612955749
 20
-9.9322857412
 10
-16.7890307397
 20
-8.9538603389
 10
-16.9038193582
 20
-7.9654717928
 10
-17.005636604
 20
-6.9673288577
 10
-17.0944600272
 20
-5.9596426059
 10
-17.1702708548
 20
-4.9426254726
 10
-17.2330539874
 20
-3.9164912061
 10
-17.2827962778
 20
-2.8814560378
 10
-17.319486542
 20
-1.8377386423
 10
-17.3431168513
 20
-0.7855591771
  0
LWPOLYLINE
  5
22D
100
AcDbEntity
  8
RACCORDO
100
AcDbPolyline
 62
250
  6
CONTINUOUS
 90
9
 70
0
 10
-17.4895643008
 20
14.9316549774
 10
-17.4885393769
 20
14.9108101355
 10
-17.4825753297
 20
14.8818092826
 10
-17.4713887789
 20
14.8532524506
 10
-17.4550982394
 20
14.8254421829
 10
-17.4338763003
 20
14.7986731133
 10
-17.407947796
 20
14.773228845
 10
-17.3775874241
 20
14.7493789454
 10
-17.3431168356
 20
14.7273760907
  0
LWPOLYLINE
  5
22E
100
AcDbEntity
  8
RACCORDO
100
AcDbPolyline
 62
250
  6
CONTINUOUS
 90
10
 70
0
 10
-17.3431168513
 20
-0.7855591771
 10
-17.3676713947
 20
0.9230882149
 10
-17.3860870841
 20
2.6355429331
 10
-17.3983639681
 20
4.3517742108
 10
-17.4045021649
 20
6.0717278621
 10
-17.4045021617
 20
7.7953962542
 10
-17.3983639593
 20
9.5228188014
 10
-17.3860870727
 20
11.2539884323
 10
-17.3676713855
 20
12.9888510963
 10
-17.3431168513
 20
14.7273760819
  0
LWPOLYLINE
  5
22F
100
AcDbEntity
  8
RACCORDO
100
AcDbPolyline
 62
250
  6
CONTINUOUS
 90
19
 70
0
 10
-1.4366501395
 20
17.3646417811
 10
-1.4905565819
 20
17.328293508
 10
-1.5439000736
 20
17.2876293812
 10
-1.5963796989
 20
17.2428843521
 10
-1.6477035077
 20
17.1943182588
 10
-1.6975779292
 20
17.1422093744
 10
-1.7457095677
 20
17.08685311
 10
-1.7918257375
 20
17.0285694851
 10
-1.8356681947
 20
16.9676928093
 10
-1.8769820899
 20
16.9045646477
 10
-1.9155339004
 20
16.8395470486
 10
-1.9511068153
 20
16.7730135047
 10
-1.9834936326
 20
16.7053382062
 10
-2.0125112152
 20
16.6369068863
 10
-2.0379954411
 20
16.5681139072
 10
-2.0597959527
 20
16.4993525845
 10
-2.077787698
 20
16.431016496
 10
-2.0918712341
 20
16.3634972163
 10
-2.1019670604
 20
16.2971812077
  0
LINE
  5
230
100
AcDbEntity
  8
RACCORDO
100
AcDbLine
 62
250
  6
CONTINUOUS
 10
0.4182406125
 20
18.5065930309
 11
-1.4366501395
 21
17.3646417811
  0
LINE
  5
231
100
AcDbEntity
  8
RACCORDO
100
AcDbLine
 62
250
  6
CONTINUOUS
 10
-0.3261355497
 20
17.2187109358
 11
-1.0712317204
 21
16.7599973957
  0
LWPOLYLINE
  5
232
100
AcDbEntity
  8
RACCORDO
100
AcDbPolyline
 62
250
  6
CONTINUOUS
 90
9
 70
0
 10
-0.82476053
 20
16.8797432008
 10
-0.8020572889
 20
16.892508137
 10
-0.773966927
 20
16.9023876136
 10
-0.7433598115
 20
16.9074971396
 10
-0.71057061
 20
16.9077808457
 10
-0.6759578496
 20
16.9032356297
 10
-0.6398999968
 20
16.8939111904
 10
-0.6027913188
 20
16.8799094839
 10
-0.5650375733
 20
16.8613836093
  0
LWPOLYLINE
  5
233
100
AcDbEntity
  8
RACCORDO
100
AcDbPolyline
 62
250
  6
CONTINUOUS
 90
16
 70
0
 10
-1.4081893759
 20
16.2287494103
 10
-1.446884619
 20
16.2159173866
 10
-1.488817476
 20
16.2054407789
 10
-1.5335435266
 20
16.1974306223
 10
-1.5805887472
 20
16.1919718113
 10
-1.6294545348
 20
16.1891222006
 10
-1.6796229913
 20
16.1889119914
 10
-1.7305624125
 20
16.1913434116
 10
-1.781732923
 20
16.1963906921
 10
-1.8325921986
 20
16.2040003398
 10
-1.8826012134
 20
16.2140917049
 10
-1.9312299529
 20
16.2265578353
 10
-1.9779630314
 20
16.2412666104
 10
-2.0223051541
 20
16.2580621411
 10
-2.0637863663
 20
16.2767664221
 10
-2.1019670346
 20
16.2971812182
  0
LINE
  5
234
100
AcDbEntity
  8
RACCORDO
100
AcDbLine
 62
7
  6
CONTINUOUS
 10
-1.0159610268
 20
-19.1912531773
 11
-1.0165904603
 21
-19.1908906886
  0
LINE
  5
235
100
AcDbEntity
  8
RACCORDO
100
AcDbLine
 62
7
  6
CONTINUOUS
 10
-16.4641558486
 20
-10.271659262
 11
-16.4647278131
 21
-10.2713297917
  0
LINE
  5
236
100
AcDbEntity
  8
ASSI
100
AcDbLine
 62
7
  6
CONTINUOUS
 10
-1.0165900861
 20
-19.1908909046
 11
13.5479564385
 21
-27.6002775313
  0
LINE
  5
237
100
AcDbEntity
  8
ASSI
100
AcDbLine
 62
7
  6
CONTINUOUS
 10
-1.900181749
 20
-18.6807161525
 11
-16.4647276198
 21
-10.2713299033
  0
LINE
  5
238
100
AcDbEntity
  8
RACCORDO
100
AcDbLine
 62
250
  6
CONTINUOUS
 10
-1.2131577143
 20
-18.8518469313
 11
13.3461708002
 21
-27.2582207442
  0
LINE
  5
239
100
AcDbEntity
  8
RACCORDO
100
AcDbLine
 62
250
  6
CONTINUOUS
 10
-2.1019670604
 20
-18.3386595542
 11
-16.6612955749
 21
-9.9322857412
  0
LINE
  5
23A
100
AcDbEntity
  8
RACCORDO
100
AcDbLine
 62
7
  6
CONTINUOUS
 10
-1.9009888096
 20
-18.680248697
 11
-1.9001815582
 21
-18.6807162626
  0
LINE
  5
23B
100
AcDbEntity
  8
RACCORDO
100
AcDbLine
 62
7
  6
CONTINUOUS
 10
13.5472076797
 20
-27.5998439426
 11
13.5479568078
 21
-27.6002777445
  0
LWPOLYLINE
  5
23C
100
AcDbEntity
  8
RACCORDO
100
AcDbPolyline
 62
250
  6
CONTINUOUS
 90
10
 70
0
 10
-16.4647278131
 20
-10.2713297917
 10
-16.4796860942
 20
-10.2621456088
 10
-16.5143354355
 20
-10.2361573546
 10
-16.5458854685
 20
-10.2053985465
 10
-16.574154533
 20
-10.1700445517
 10
-16.5989771379
 20
-10.1302992039
 10
-16.6202142985
 20
-10.0863881526
 10
-16.6377446668
 20
-10.0385624525
 10
-16.6514649485
 20
-9.9870967832
 10
-16.6612955749
 20
-9.9322857412
  0
LWPOLYLINE
  5
23D
100
AcDbEntity
  8
RACCORDO
100
AcDbPolyline
 62
250
  6
CONTINUOUS
 90
10
 70
0
 10
-1.0165904603
 20
-19.1908906886
 10
-1.0315460098
 20
-19.18170828
 10
-1.0661955711
 20
-19.1557203138
 10
-1.0977459614
 20
-19.1249615577
 10
-1.1260156312
 20
-19.0896071793
 10
-1.1508388709
 20
-19.0498611003
 10
-1.1720764049
 20
-19.0059494057
 10
-1.1896068754
 20
-18.9581233995
 10
-1.2033271454
 20
-18.9066576889
 10
-1.2131577143
 20
-18.8518469313
  0
LWPOLYLINE
  5
23E
100
AcDbEntity
  8
RACCORDO
100
AcDbPolyline
 62
7
  6
CONTINUOUS
 90
15
 70
0
 10
-0.8247551455
 20
16.8797352656
 10
-0.8596400622
 20
16.8549420753
 10
-0.9208005139
 20
16.8060116925
 10
-0.9784332896
 20
16.7528974524
 10
-1.0326927349
 20
16.6958467518
 10
-1.0835737511
 20
16.6351521926
 10
-1.1308064741
 20
16.5713529281
 10
-1.174359907
 20
16.5047026809
 10
-1.2141378289
 20
16.4353889346
 10
-1.2497845965
 20
16.3640590605
 10
-1.2811972774
 20
16.2909103226
 10
-1.3081937115
 20
16.2161090804
 10
-1.3304575334
 20
16.1402075106
 10
-1.3477574362
 20
16.0633960826
 10
-1.3601227031
 20
15.9833724884
  0
LINE
  5
23F
100
AcDbEntity
  8
RACCORDO
100
AcDbLine
 62
7
  6
CONTINUOUS
 10
-0.8248962418
 20
16.8796510483
 11
0.9352647754
 21
18.0762168683
  0
LINE
  5
240
100
AcDbEntity
  8
RACCORDO
100
AcDbLine
 62
250
  6
CONTINUOUS
 10
-0.5650375733
 20
16.8613836093
 11
1.1951880255
 21
18.057993332
  0
LWPOLYLINE
  5
241
100
AcDbEntity
  8
RACCORDO
100
AcDbPolyline
 62
250
  6
CONTINUOUS
 90
19
 70
0
 10
-1.0712317204
 20
16.7599973957
 10
-1.0986162399
 20
16.7419512005
 10
-1.1254680365
 20
16.7219571781
 10
-1.1517871101
 20
16.7000153286
 10
-1.1777335538
 20
16.6759692627
 10
-1.2031472746
 20
16.6499753697
 10
-1.2275479935
 20
16.6225028169
 10
-1.2509031016
 20
16.5935363215
 10
-1.2732452078
 20
16.5630911663
 10
-1.29419186
 20
16.531682367
 10
-1.313721047
 20
16.499287593
 10
-1.33185478
 20
16.4659291749
 10
-1.3482766406
 20
16.4321891206
 10
-1.3629565739
 20
16.3980447308
 10
-1.3759246348
 20
16.3635187047
 10
-1.3869545707
 20
16.329261149
 10
-1.3959709641
 20
16.2954887658
 10
-1.4030492325
 20
16.2619848529
 10
-1.4081893759
 20
16.2287494103
  0
LINE
  5
242
100
AcDbEntity
  8
RACCORDO
100
AcDbLine
 62
250
  6
CONTINUOUS
 10
-1.8949789907
 20
-9.7051203672
 11
12.6278902502
 21
-18.0904430526
  0
LINE
  5
243
100
AcDbEntity
  8
RACCORDO
100
AcDbLine
 62
250
  6
CONTINUOUS
 10
-2.8202476104
 20
-9.1708818625
 11
-17.3431168513
 21
-0.7855591771
  0
LWPOLYLINE
  5
244
100
AcDbEntity
  8
RACCORDO
100
AcDbPolyline
 62
250
  6
CONTINUOUS
 90
16
 70
0
 10
-2.1225807541
 20
6.3289863401
 10
-2.1616788503
 20
6.3104695375
 10
-2.2040090868
 20
6.2943675005
 10
-2.2491229988
 20
6.2808508211
 10
-2.2965426302
 20
6.2700627007
 10
-2.3457655969
 20
6.2621174334
 10
-2.3962704097
 20
6.2570991948
 10
-2.4475219988
 20
6.2550611503
 10
-2.4989773828
 20
6.2560248916
 10
-2.5500914212
 20
6.2599802087
 10
-2.6003225899
 20
6.2668851971
 10
-2.6491387183
 20
6.2766667024
 10
-2.6960226273
 20
6.2892210951
 10
-2.7404776086
 20
6.3044153687
 10
-2.7820326869
 20
6.3220885483
 10
-2.8202476099
 20
6.3420533968
  0
LWPOLYLINE
  5
245
100
AcDbEntity
  8
RACCORDO
100
AcDbPolyline
 62
250
  6
CONTINUOUS
 90
8
 70
0
 10
-1.3588051946
 20
-18.6578855463
 10
-1.3534608559
 20
-18.6841416697
 10
-1.3420452964
 20
-18.7165164122
 10
-1.3255585401
 20
-18.7475409209
 10
-1.3041753201
 20
-18.7768863865
 10
-1.2781222636
 20
-18.8042417949
 10
-1.2476754909
 20
-18.8293172229
 10
-1.2131576884
 20
-18.8518469118
  0
LWPOLYLINE
  5
246
100
AcDbEntity
  8
RACCORDO
100
AcDbPolyline
 62
250
  6
CONTINUOUS
 90
10
 70
0
 10
-2.1019670604
 20
-18.3386595542
 10
-2.0918711622
 20
-18.3936237609
 10
-2.077787609
 20
-18.4452991785
 10
-2.0597959696
 20
-18.4933912109
 10
-2.0379958063
 20
-18.5376273329
 10
-2.012512199
 20
-18.5777543351
 10
-1.9834953282
 20
-18.6135401039
 10
-1.9511092445
 20
-18.6447816372
 10
-1.9155370486
 20
-18.671302736
 10
-1.9009888096
 20
-18.680248697
  0
LWPOLYLINE
  5
247
100
AcDbEntity
  8
RACCORDO
100
AcDbPolyline
 62
7
  6
CONTINUOUS
 90
12
 70
0
 10
-1.3587943229
 20
-18.6578840278
 10
-1.3463596364
 20
-18.7268592873
 10
-1.328485567
 20
-18.7934936463
 10
-1.3056997843
 20
-18.8562224383
 10
-1.278300033
 20
-18.9150359503
 10
-1.246433672
 20
-18.970118205
 10
-1.2104856679
 20
-19.021127223
 10
-1.1708110519
 20
-19.0678590367
 10
-1.1274314929
 20
-19.1104673381
 10
-1.0805998689
 20
-19.1487694636
 10
-1.0308749831
 20
-19.182389556
 10
-1.0158781109
 20
-19.1912932304
  0
LWPOLYLINE
  5
248
100
AcDbEntity
  8
RACCORDO
100
AcDbPolyline
 62
250
  6
CONTINUOUS
 90
9
 70
0
 10
-2.0414239473
 20
-9.5013548174
 10
-2.0404015318
 20
-9.517559612
 10
-2.0344374855
 20
-9.5475839686
 10
-2.0232509351
 20
-9.5770328303
 10
-2.0069603959
 20
-9.6055942032
 10
-1.9857384567
 20
-9.6329654957
 10
-1.9598099521
 20
-9.6588567246
 10
-1.9294495796
 20
-9.6829935871
 10
-1.8949789902
 20
-9.7051203669
  0
LWPOLYLINE
  5
249
100
AcDbEntity
  8
RACCORDO
100
AcDbPolyline
 62
250
  6
CONTINUOUS
 90
10
 70
0
 10
-2.8202476104
 20
-9.1708818625
 10
-2.7953527518
 20
-10.2237914626
 10
-2.756700678
 20
-11.2686415824
 10
-2.7042993175
 20
-12.3052120644
 10
-2.638159001
 20
-13.3332847269
 10
-2.558293729
 20
-14.3526428456
 10
-2.4647211615
 20
-15.3630711937
 10
-2.357460925
 20
-16.3643568434
 10
-2.2365346159
 20
-17.3562892152
 10
-2.1019670604
 20
-18.3386595542
  0
LWPOLYLINE
  5
24A
100
AcDbEntity
  8
RACCORDO
100
AcDbPolyline
 62
250
  6
CONTINUOUS
 90
10
 70
0
 10
-2.1225807541
 20
-9.1684359837
 10
-2.0978041149
 20
-10.2158395259
 10
-2.0593646298
 20
-11.2548035384
 10
-2.0072622987
 20
-12.2853280215
 10
-1.9414800539
 20
-13.3076316692
 10
-1.8620349632
 20
-14.3214957874
 10
-1.7689782297
 20
-15.3262642931
 10
-1.6623269212
 20
-16.321718492
 10
-1.5420639699
 20
-17.3080770785
 10
-1.4081893759
 20
-18.2853400524
  0
LWPOLYLINE
  5
24B
100
AcDbEntity
  8
RACCORDO
100
AcDbPolyline
 62
7
  6
CONTINUOUS
 90
10
 70
0
 10
-2.0414239363
 20
-9.5013545685
 10
-2.0190830993
 20
-10.5084471382
 10
-1.9823776833
 20
-11.5669107457
 10
-1.9322617543
 20
-12.6165931203
 10
-1.8687425191
 20
-13.657236775
 10
-1.7918309561
 20
-14.6886325844
 10
-1.701537878
 20
-15.7105906373
 10
-1.5978765019
 20
-16.7229042462
 10
-1.4808703177
 20
-17.7253279283
 10
-1.3588730477
 20
-18.6573974298
  0
LWPOLYLINE
  5
24C
100
AcDbEntity
  8
RACCORDO
100
AcDbPolyline
 62
250
  6
CONTINUOUS
 90
10
 70
0
 10
-2.8202476104
 20
6.3420533965
 10
-2.8461213203
 20
4.6042900864
 10
-2.8655263893
 20
2.8699986791
 10
-2.8784628639
 20
1.139209886
 10
-2.8849308603
 20
-0.5880222423
 10
-2.8849308637
 20
-2.3116906342
 10
-2.878462873
 20
-4.0318347044
 10
-2.8655264011
 20
-5.7484468199
 10
-2.8461213297
 20
-7.4614727948
 10
-2.8202476104
 20
-9.1708818625
  0
LWPOLYLINE
  5
24D
100
AcDbEntity
  8
RACCORDO
100
AcDbPolyline
 62
250
  6
CONTINUOUS
 90
5
 70
0
 10
-2.1225807541
 20
6.3289863401
 10
-2.1484289767
 20
4.5929119677
 10
-2.1678151454
 20
2.8603663881
 10
-2.1807392601
 20
1.1313496014
 10
-2.187201323
 20
-0.5941461882
  0
LWPOLYLINE
  5
24E
100
AcDbEntity
  8
RACCORDO
100
AcDbPolyline
 62
250
  6
CONTINUOUS
 90
10
 70
0
 10
-1.3601227031
 20
15.9833724884
 10
-1.3606367168
 20
15.9777624601
 10
-1.3596703331
 20
15.9527077598
 10
-1.3534460295
 20
15.9273591661
 10
-1.3420297713
 20
15.9019853247
 10
-1.3255425487
 20
15.8768551485
 10
-1.3041590938
 20
15.8522349685
 10
-1.2781060295
 20
15.8283857103
 10
-1.2476594673
 20
15.8055601296
 10
-1.2131420812
 20
15.7840001326
  0
LWPOLYLINE
  5
24F
100
AcDbEntity
  8
RACCORDO
100
AcDbPolyline
 62
7
  6
CONTINUOUS
 90
10
 70
0
 10
-1.3601093295
 20
15.9835911985
 10
-1.4824291654
 20
14.8999351497
 10
-1.5991063166
 20
13.7577010776
 10
-1.7024923326
 20
12.6215284635
 10
-1.7925575789
 20
11.4916950289
 10
-1.869282562
 20
10.3684290604
 10
-1.9326503453
 20
9.2519396991
 10
-1.9826439711
 20
8.1424531736
 10
-2.0192503386
 20
7.0402383164
 10
-2.0414264298
 20
6.012093807
  0
LWPOLYLINE
  5
250
100
AcDbEntity
  8
RACCORDO
100
AcDbPolyline
 62
250
  6
CONTINUOUS
 90
10
 70
0
 10
-2.1019670604
 20
16.2971812077
 10
-2.2365346168
 20
15.167305498
 10
-2.3574609265
 20
14.0428181035
 10
-2.4647211631
 20
12.9239564483
 10
-2.5582937302
 20
11.8109570361
 10
-2.6381590014
 20
10.7040544736
 10
-2.7042993174
 20
9.6034814242
 10
-2.7567006777
 20
8.5094697944
 10
-2.7953527515
 20
7.4222506807
 10
-2.8202476104
 20
6.3420533965
  0
LWPOLYLINE
  5
251
100
AcDbEntity
  8
RACCORDO
100
AcDbPolyline
 62
250
  6
CONTINUOUS
 90
10
 70
0
 10
-1.4081893759
 20
16.2287494103
 10
-1.5420628763
 20
15.1047924693
 10
-1.6623250805
 20
13.9866532634
 10
-1.7689759884
 20
12.8743317927
 10
-1.8620327653
 20
11.7675906152
 10
-1.941478246
 20
10.6666671729
 10
-2.0072609348
 20
9.5722737916
 10
-2.0593636665
 20
8.4846479134
 10
-2.0978036062
 20
7.4035520962
 10
-2.1225807541
 20
6.3289863401
  0
LWPOLYLINE
  5
252
100
AcDbEntity
  8
RACCORDO
100
AcDbPolyline
 62
250
  6
CONTINUOUS
 90
19
 70
0
 10
-1.2131577143
 20
15.7839938307
 10
-1.2033270879
 20
15.850463363
 10
-1.1896068062
 20
15.9181923664
 10
-1.1720764379
 20
15.9867943608
 10
-1.1508392773
 20
16.0558796942
 10
-1.1260166724
 20
16.1250528729
 10
-1.0977476079
 20
16.1939148227
 10
-1.0661975749
 20
16.2620722685
 10
-1.0315482336
 20
16.3291384029
 10
-0.9939910411
 20
16.3947300163
 10
-0.9537440446
 20
16.4584743536
 10
-0.9110394569
 20
16.520008581
 10
-0.8661125656
 20
16.5789798131
 10
-0.8192221802
 20
16.6350542974
 10
-0.7706403786
 20
16.687911337
 10
-0.7206392919
 20
16.7372424364
 10
-0.6695054417
 20
16.7827650417
 10
-0.6175378925
 20
16.824223727
 10
-0.5650375733
 20
16.8613836093
  0
LWPOLYLINE
  5
253
100
AcDbEntity
  8
RACCORDO
100
AcDbPolyline
 62
250
  6
CONTINUOUS
 90
16
 70
0
 10
14.0399484847
 20
7.3091882203
 10
14.0012532418
 20
7.2963561957
 10
13.9593203848
 20
7.2858795872
 10
13.914594334
 20
7.2778694298
 10
13.867549113
 20
7.2724106182
 10
13.8186833249
 20
7.269561007
 10
13.7685148677
 20
7.2693507973
 10
13.7175754457
 20
7.2717822171
 10
13.6664049342
 20
7.2768294974
 10
13.6155456576
 20
7.284439145
 10
13.5655366418
 20
7.29453051
 10
13.5169079012
 20
7.3069966405
 10
13.4701748216
 20
7.3217054157
 10
13.4258326979
 20
7.3385009466
 10
13.3843514848
 20
7.3572052277
 10
13.3461708157
 20
7.3776200239
  0
LINE
  5
254
100
AcDbEntity
  8
RACCORDO
100
AcDbLine
 62
7
  6
CONTINUOUS
 10
-1.3588730477
 20
-18.6573974298
 11
-1.3588051946
 21
-18.6578855463
  0
LWPOLYLINE
  5
255
100
AcDbEntity
  8
RACCORDO
100
AcDbPolyline
 62
250
  6
CONTINUOUS
 90
10
 70
0
 10
-1.2131577143
 20
-18.8518469313
 10
-1.3408928792
 20
-17.8734215253
 10
-1.4556814977
 20
-16.8850329762
 10
-1.5574987436
 20
-15.886890039
 10
-1.6463221671
 20
-14.8792037859
 10
-1.7221329952
 20
-13.862186652
 10
-1.784916128
 20
-12.8360523862
 10
-1.8346584182
 20
-11.80101722
 10
-1.8713486819
 20
-10.7572998277
 10
-1.8949789907
 20
-9.7051203672
  0
LWPOLYLINE
  5
256
100
AcDbEntity
  8
RACCORDO
100
AcDbPolyline
 62
250
  6
CONTINUOUS
 90
9
 70
0
 10
-2.0414264298
 20
6.012093807
 10
-2.0404015057
 20
5.9912489474
 10
-2.034437458
 20
5.9622480951
 10
-2.0232509067
 20
5.9336912637
 10
-2.0069603671
 20
5.9058809965
 10
-1.9857384281
 20
5.8791119276
 10
-1.959809924
 20
5.8536676598
 10
-1.9294495525
 20
5.8298177607
 10
-1.8949789645
 20
5.8078149064
  0
LWPOLYLINE
  5
257
100
AcDbEntity
  8
RACCORDO
100
AcDbPolyline
 62
250
  6
CONTINUOUS
 90
6
 70
0
 10
-1.8949789907
 20
-9.7051203672
 10
-1.9195335249
 20
-7.9964736933
 10
-1.9379492121
 20
-6.2840195165
 10
-1.9502260987
 20
-4.5677886022
 10
-1.9563643011
 20
-2.8478351351
 10
-1.9563643043
 20
-1.124166747
  0
LWPOLYLINE
  5
258
100
AcDbEntity
  8
RACCORDO
100
AcDbPolyline
 62
7
  6
CONTINUOUS
 90
5
 70
0
 10
-2.1027934061
 20
-2.6535026894
 10
-2.0965445573
 20
-4.3875360899
 10
-2.0840566408
 20
-6.1177410087
 10
-2.0653299107
 20
-7.8440820319
 10
-2.0414239473
 20
-9.5013548174
  0
LWPOLYLINE
  5
259
100
AcDbEntity
  8
RACCORDO
100
AcDbPolyline
 62
250
  6
CONTINUOUS
 90
6
 70
0
 10
-2.187201323
 20
-0.5941461882
 10
-2.187201332
 20
-2.316113185
 10
-2.1807392803
 20
-4.0345280016
 10
-2.1678151656
 20
-5.7493828424
 10
-2.1484289902
 20
-7.4606855031
 10
-2.1225807541
 20
-9.1684359837
  0
LINE
  5
25A
100
AcDbEntity
  8
RACCORDO
100
AcDbLine
 62
7
  6
CONTINUOUS
 10
-2.1023545571
 20
-0.7902319377
 11
-2.1027934061
 21
-2.6535026894
  0
LINE
  5
25B
100
AcDbEntity
  8
RACCORDO
100
AcDbLine
 62
250
  6
CONTINUOUS
 10
-1.9563643043
 20
-1.124166747
 11
-1.9472255517
 21
1.0263659554
  0
LWPOLYLINE
  5
25C
100
AcDbEntity
  8
RACCORDO
100
AcDbPolyline
 62
250
  6
CONTINUOUS
 90
4
 70
0
 10
-1.9472255517
 20
1.0263659554
 10
-1.9379492235
 20
2.3344259691
 10
-1.9195335341
 20
4.0692891773
 10
-1.8949789907
 20
5.8078148919
  0
LWPOLYLINE
  5
25D
100
AcDbEntity
  8
RACCORDO
100
AcDbPolyline
 62
7
  6
CONTINUOUS
 90
5
 70
0
 10
-2.0414264518
 20
6.0120939938
 10
-2.0653996051
 20
4.3203299225
 10
-2.0841060424
 20
2.5712786651
 10
-2.0965740465
 20
0.8259332563
 10
-2.1023545571
 20
-0.7902319377
  0
LWPOLYLINE
  5
25E
100
AcDbEntity
  8
RACCORDO
100
AcDbPolyline
 62
250
  6
CONTINUOUS
 90
10
 70
0
 10
-1.8949789907
 20
5.8078148919
 10
-1.8713486814
 20
6.8887423157
 10
-1.8346584172
 20
7.9770941572
 10
-1.7849161268
 20
9.0726411031
 10
-1.7221329942
 20
10.1751525493
 10
-1.6463221666
 20
11.2843960968
 10
-1.5574987434
 20
12.400137604
 10
-1.4556814976
 20
13.5221419717
 10
-1.3408928791
 20
14.6501731885
 10
-1.2131577143
 20
15.7839938307
  0
LINE
  5
25F
100
AcDbEntity
  8
RACCORDO
100
AcDbLine
 62
250
  6
CONTINUOUS
 10
15.8663784731
 20
9.5870318408
 11
14.0114877211
 21
8.4450805911
  0
LWPOLYLINE
  5
260
100
AcDbEntity
  8
RACCORDO
100
AcDbPolyline
 62
7
  6
CONTINUOUS
 90
9
 70
0
 10
14.7167782516
 20
-9.0218192981
 10
14.7086627898
 20
-9.017599583
 10
14.6914930513
 20
-9.0114090722
 10
14.6729229144
 20
-9.008252728
 10
14.6529966288
 20
-9.0080346769
 10
14.6323573737
 20
-9.010761957
 10
14.611219542
 20
-9.0164369146
 10
14.5893687408
 20
-9.0250572034
 10
14.56680497
 20
-9.0366228234
  0
LINE
  5
261
100
AcDbEntity
  8
DRAFT
100
AcDbLine
 62
7
  6
CONTINUOUS
 10
13.9241449716
 20
-8.9282975783
 11
14.3392813411
 21
-9.1679921152
  0
LINE
  5
262
100
AcDbEntity
  8
RACCORDO
100
AcDbLine
 62
250
  6
CONTINUOUS
 10
13.9246690766
 20
-8.6658616064
 11
14.56680497
 21
-9.0366228234
  0
LINE
  5
263
100
AcDbEntity
  8
RACCORDO
100
AcDbLine
 62
7
  6
CONTINUOUS
 10
13.9250626297
 20
-8.5646141808
 11
14.716812218
 21
-9.0217604701
  0
LINE
  5
264
100
AcDbEntity
  8
DRAFT
100
AcDbLine
 62
7
  6
CONTINUOUS
 10
16.2108282363
 20
-11.6898756087
 11
17.2605531403
 21
-12.4021622999
  0
LWPOLYLINE
  5
265
100
AcDbEntity
  8
RACCORDO
100
AcDbPolyline
 62
250
  6
CONTINUOUS
 90
16
 70
0
 10
-1.0712317204
 20
16.7599973957
 10
-1.0753878553
 20
16.8024476076
 10
-1.0832617435
 20
16.8467235013
 10
-1.0947673344
 20
16.8923409882
 10
-1.1097788679
 20
16.9388013052
 10
-1.1281322454
 20
16.985596457
 10
-1.1496268199
 20
17.0322147701
 10
-1.1740276006
 20
17.0781465117
 10
-1.2010678098
 20
17.1228894367
 10
-1.230451789
 20
17.1659542709
 10
-1.2618582642
 20
17.206870113
 10
-1.2949438356
 20
17.2451895446
 10
-1.3293467106
 20
17.2804935064
 10
-1.364690705
 20
17.3123959357
 10
-1.4005893598
 20
17.3405479802
 10
-1.4366501376
 20
17.3646417823
  0
LWPOLYLINE
  5
266
100
AcDbEntity
  8
RACCORDO
100
AcDbPolyline
 62
250
  6
CONTINUOUS
 90
19
 70
0
 10
14.0114877211
 20
8.4450805911
 10
13.9575814326
 20
8.4087324978
 10
13.9042378027
 20
8.3680683443
 10
13.8517577605
 20
8.3233230133
 10
13.8004331252
 20
8.2747561144
 10
13.7505576635
 20
8.2226460179
 10
13.7024252427
 20
8.1672886692
 10
13.6563086322
 20
8.1090043661
 10
13.61246595
 20
8.0481272602
 10
13.5711521453
 20
7.9849988846
 10
13.532600812
 20
7.9199812756
 10
13.4970286161
 20
7.853447986
 10
13.4646425324
 20
7.7857732654
 10
13.4356256616
 20
7.7173430895
 10
13.4101420543
 20
7.6485515653
 10
13.388341891
 20
7.5797913026
 10
13.3703502516
 20
7.5114556404
 10
13.3562666984
 20
7.4439363853
 10
13.3461708002
 20
7.3776200177
  0
LWPOLYLINE
  5
267
100
AcDbEntity
  8
RACCORDO
100
AcDbPolyline
 62
250
  6
CONTINUOUS
 90
19
 70
0
 10
14.3769061401
 20
7.8404362056
 10
14.3495176598
 20
7.8223892115
 10
14.3226585681
 20
7.802389049
 10
14.2963288649
 20
7.7804357184
 10
14.2703665412
 20
7.7563715127
 10
14.244933606
 20
7.7303541388
 10
14.2205160864
 20
7.702856717
 10
14.1971460437
 20
7.6738596642
 10
14.1747914165
 20
7.6433825635
 10
14.1538420486
 20
7.6119572841
 10
14.1343264165
 20
7.5795716935
 10
14.1162160438
 20
7.5462379242
 10
14.0998153443
 20
7.5125242436
 10
14.0851507758
 20
7.4784057163
 10
14.0721958806
 20
7.4439072776
 10
14.0611756997
 20
7.4096720013
 10
14.052165247
 20
7.3759142453
 10
14.0450895087
 20
7.3424196516
 10
14.0399484847
 20
7.3091882203
  0
LINE
  5
268
100
AcDbEntity
  8
RACCORDO
100
AcDbLine
 62
250
  6
CONTINUOUS
 10
16.2194968405
 20
8.9748150098
 11
14.3769061401
 21
7.8404362056
  0
LWPOLYLINE
  5
269
100
AcDbEntity
  8
RACCORDO
100
AcDbPolyline
 62
7
  6
CONTINUOUS
 90
9
 70
0
 10
14.6753418645
 20
-6.1880672764
 10
14.6642543468
 20
-6.1821853164
 10
14.6361809399
 20
-6.1715297754
 10
14.6057935246
 20
-6.1658080311
 10
14.5731636657
 20
-6.164867497
 10
14.539321743
 20
-6.1687378732
 10
14.5046112163
 20
-6.1774290596
 10
14.4686886257
 20
-6.1909311564
 10
14.4315539712
 20
-6.2092441634
  0
LINE
  5
26A
100
AcDbEntity
  8
RACCORDO
100
AcDbLine
 62
250
  6
CONTINUOUS
 10
13.9927735453
 20
-5.9558978447
 11
14.4315539712
 21
-6.2092441634
  0
LINE
  5
26B
100
AcDbEntity
  8
RACCORDO
100
AcDbLine
 62
7
  6
CONTINUOUS
 10
14.129319957
 20
-5.872676799
 11
14.6753956938
 21
-6.1879740855
  0
LINE
  5
26C
100
AcDbEntity
  8
RACCORDO
100
AcDbLine
 62
250
  6
CONTINUOUS
 10
-1.8949789907
 20
5.8078148919
 11
12.6278902502
 21
-2.5775077935
  0
LINE
  5
26D
100
AcDbEntity
  8
RACCORDO
100
AcDbLine
 62
250
  6
CONTINUOUS
 10
-2.8202476104
 20
6.3420533965
 11
-17.3431168513
 21
14.7273760819
  0
LWPOLYLINE
  5
26E
100
AcDbEntity
  8
RACCORDO
100
AcDbPolyline
 62
250
  6
CONTINUOUS
 90
16
 70
0
 10
-2.1225807541
 20
-9.1684359837
 10
-2.1616788509
 20
-9.1885479491
 10
-2.2040090873
 20
-9.206228249
 10
-2.2491229988
 20
-9.2212895709
 10
-2.2965426291
 20
-9.2335723485
 10
-2.3457655944
 20
-9.2429464528
 10
-2.3962704053
 20
-9.2493125706
 10
-2.4475219922
 20
-9.2526032565
 10
-2.4989773739
 20
-9.2527836475
 10
-2.5500914098
 20
-9.2498518325
 10
-2.6003225759
 20
-9.2438388724
 10
-2.6491387017
 20
-9.2348084711
 10
-2.6960226081
 20
-9.2228563005
 10
-2.740477587
 20
-9.2081089871
 10
-2.7820326631
 20
-9.1907227702
 10
-2.8202475842
 20
-9.1708818468
  0
LWPOLYLINE
  5
26F
100
AcDbEntity
  8
RACCORDO
100
AcDbPolyline
 62
250
  6
CONTINUOUS
 90
16
 70
0
 10
13.3255571065
 20
-2.59057485
 10
13.2864590103
 20
-2.6090916526
 10
13.2441287738
 20
-2.6251936896
 10
13.1990148618
 20
-2.6387103691
 10
13.1515952304
 20
-2.6494984894
 10
13.1023722637
 20
-2.6574437567
 10
13.0518674509
 20
-2.6624619953
 10
13.0006158618
 20
-2.6645000399
 10
12.9491604778
 20
-2.6635362985
 10
12.8980464393
 20
-2.6595809815
 10
12.8478152706
 20
-2.6526759931
 10
12.7989991421
 20
-2.6428944878
 10
12.7521152331
 20
-2.6303400951
 10
12.7076602519
 20
-2.6151458215
 10
12.6661051735
 20
-2.5974726419
 10
12.6278902505
 20
-2.5775077934
  0
LWPOLYLINE
  5
270
100
AcDbEntity
  8
RACCORDO
100
AcDbPolyline
 62
250
  6
CONTINUOUS
 90
10
 70
0
 10
13.3461708002
 20
-27.2582207442
 10
13.3562666265
 20
-27.3131846582
 10
13.3703501626
 20
-27.3648601142
 10
13.3883419079
 20
-27.4129524547
 10
13.4101424195
 20
-27.4571892054
 10
13.4356266453
 20
-27.4973169296
 10
13.464644228
 20
-27.5331031434
 10
13.4970310453
 20
-27.564344842
 10
13.5326039601
 20
-27.590865941
 10
13.5472076797
 20
-27.5998439426
  0
LWPOLYLINE
  5
271
100
AcDbEntity
  8
RACCORDO
100
AcDbPolyline
 62
250
  6
CONTINUOUS
 90
19
 70
0
 10
14.0399484847
 20
-27.2049012425
 10
14.0450886281
 20
-27.2325039078
 10
14.0521668965
 20
-27.2582511676
 10
14.0611832899
 20
-27.2821430218
 10
14.0722132258
 20
-27.304313527
 10
14.0851812867
 20
-27.3246286267
 10
14.0998612199
 20
-27.3426861514
 10
14.1162830806
 20
-27.3584304657
 10
14.1344168136
 20
-27.3719172048
 10
14.1539460005
 20
-27.382911105
 10
14.1748926528
 20
-27.3913657145
 10
14.197234759
 20
-27.3973274849
 10
14.2205898671
 20
-27.4007005071
 10
14.244990586
 20
-27.4014337641
 10
14.2704043068
 20
-27.3995782728
 10
14.2963507505
 20
-27.395191175
 10
14.3226698241
 20
-27.3882915178
 10
14.3495216207
 20
-27.3788602542
 10
14.3769061401
 20
-27.3668973839
  0
LWPOLYLINE
  5
272
100
AcDbEntity
  8
RACCORDO
100
AcDbPolyline
 62
250
  6
CONTINUOUS
 90
7
 70
0
 10
12.7438385432
 20
-21.2247732452
 10
12.8099788592
 20
-22.2528459066
 10
12.8898441304
 20
-23.2722040251
 10
12.9834166975
 20
-24.2826323743
 10
13.0906769341
 20
-25.2839180261
 10
13.2116032438
 20
-26.2758504011
 10
13.3461708002
 20
-27.2582207442
  0
LWPOLYLINE
  5
273
100
AcDbEntity
  8
RACCORDO
100
AcDbPolyline
 62
250
  6
CONTINUOUS
 90
4
 70
0
 10
12.6278902502
 20
-18.0904430526
 10
12.6527851091
 20
-19.1433526485
 10
12.6914371829
 20
-20.1882027653
 10
12.7438385432
 20
-21.2247732452
  0
LWPOLYLINE
  5
274
100
AcDbEntity
  8
RACCORDO
100
AcDbPolyline
 62
250
  6
CONTINUOUS
 90
10
 70
0
 10
13.3255571065
 20
-18.0879971738
 10
13.3503342544
 20
-19.1354111279
 10
13.3887741941
 20
-20.1743829025
 10
13.4408769258
 20
-21.2049124975
 10
13.5066596146
 20
-22.2272185445
 10
13.5861050952
 20
-23.241082412
 10
13.6791618722
 20
-24.245848205
 10
13.7858127801
 20
-25.2412972919
 10
13.9060749843
 20
-26.2276483044
 10
14.0399484847
 20
-27.2049012425
  0
LWPOLYLINE
  5
275
100
AcDbEntity
  8
RACCORDO
100
AcDbPolyline
 62
250
  6
CONTINUOUS
 90
10
 70
0
 10
12.6278902502
 20
-2.5775077935
 10
12.6020165308
 20
-4.3152718325
 10
12.5826114595
 20
-6.0495637839
 10
12.5696749876
 20
-7.7803529373
 10
12.5632069969
 20
-9.5075852433
 10
12.5632070003
 20
-11.2312536316
 10
12.5696749967
 20
-12.9513975176
 10
12.5826114713
 20
-14.6680092697
 10
12.6020165403
 20
-16.3810347032
 10
12.6278902502
 20
-18.0904430526
  0
LWPOLYLINE
  5
276
100
AcDbEntity
  8
RACCORDO
100
AcDbPolyline
 62
250
  6
CONTINUOUS
 90
10
 70
0
 10
13.3461708002
 20
7.3776200177
 10
13.2116032447
 20
6.2477443122
 10
13.0906769356
 20
5.123256921
 10
12.9834166991
 20
4.004395268
 10
12.8898441316
 20
2.8913958572
 10
12.8099788596
 20
1.784493295
 10
12.7438385431
 20
0.6839202447
 10
12.6914371826
 20
-0.4100913874
 10
12.6527851088
 20
-1.4973105046
 10
12.6278902502
 20
-2.5775077935
  0
LINE
  5
277
100
AcDbEntity
  8
DRAFT
100
AcDbLine
 62
7
  6
CONTINUOUS
 10
17.2605531403
 20
-3.9642817224
 11
13.9402801494
 21
-5.9878910347
  0
LINE
  5
278
100
AcDbEntity
  8
RACCORDO
100
AcDbLine
 62
7
  6
CONTINUOUS
 10
13.9364225942
 20
-6.485147579
 11
14.4315539712
 21
-6.2092441634
  0
LWPOLYLINE
  5
279
100
AcDbEntity
  8
0
100
AcDbPolyline
 62
7
  6
CONTINUOUS
 90
8
 70
0
 10
13.9295662441
 20
-7.5299958474
 10
13.9323088324
 20
-7.528540879
 10
14.0039374207
 20
-7.4974839804
 10
14.0750821507
 20
-7.4734905462
 10
14.1443301909
 20
-7.4570381291
 10
14.2112105974
 20
-7.4482859135
 10
14.2761943142
 20
-7.4470747151
 10
14.3392813411
 20
-7.4534045339
  0
LWPOLYLINE
  5
27A
100
AcDbEntity
  8
RACCORDO
100
AcDbPolyline
 62
250
  6
CONTINUOUS
 90
16
 70
0
 10
14.3769061401
 20
7.8404362056
 10
14.3727499619
 20
7.882886689
 10
14.364875994
 20
7.9271628304
 10
14.3533702997
 20
7.9727805288
 10
14.3383586519
 20
8.0192410104
 10
14.3200051616
 20
8.0660362737
 10
14.2985104863
 20
8.1126546435
 10
14.274109628
 20
8.1585863847
 10
14.2470693726
 20
8.2033292558
 10
14.2176853815
 20
8.2463939935
 10
14.1862789343
 20
8.2873097021
 10
14.1531934325
 20
8.3256289735
 10
14.1187906618
 20
8.3609327665
 10
14.0834468023
 20
8.3928350305
 10
14.047548312
 20
8.4209869213
 10
14.0114877239
 20
8.4450805928
  0
LWPOLYLINE
  5
27B
100
AcDbEntity
  8
RACCORDO
100
AcDbPolyline
 62
7
  6
CONTINUOUS
 90
9
 70
0
 10
14.7789370044
 20
-9.1590815285
 10
14.7776704721
 20
-9.1337592494
 10
14.7742096452
 20
-9.1105271684
 10
14.7685545236
 20
-9.0893852855
 10
14.7605958686
 20
-9.0701491218
 10
14.750442919
 20
-9.0530031563
 10
14.7384233908
 20
-9.0385008249
 10
14.7244763796
 20
-9.0267283868
 10
14.7167782516
 20
-9.0218192981
  0
LWPOLYLINE
  5
27C
100
AcDbEntity
  8
RACCORDO
100
AcDbPolyline
 62
7
  6
CONTINUOUS
 90
9
 70
0
 10
14.7789370044
 20
-6.416842516
 10
14.7768764246
 20
-6.3751061829
 10
14.7712348194
 20
-6.3367650533
 10
14.7620121888
 20
-6.3018191273
 10
14.7490342341
 20
-6.2699688888
 10
14.7324752539
 20
-6.2415138538
 10
14.7128581447
 20
-6.2173525701
 10
14.6900853103
 20
-6.1976220676
 10
14.6753418645
 20
-6.1880672764
  0
LWPOLYLINE
  5
27D
100
AcDbEntity
  8
RACCORDO
100
AcDbPolyline
 62
250
  6
CONTINUOUS
 90
6
 70
0
 10
13.2609365286
 20
-9.5137114948
 10
13.2609365376
 20
-11.2356784817
 10
13.2673986005
 20
-12.9540928811
 10
13.2803227152
 20
-14.6689468996
 10
13.2997088839
 20
-16.3802483305
 10
13.3255571065
 20
-18.0879971738
  0
LINE
  5
27E
100
AcDbEntity
  8
RACCORDO
100
AcDbLine
 62
7
  6
CONTINUOUS
 10
14.7789370044
 20
-9.6968507936
 11
14.7789370044
 21
-9.1590815285
  0
LINE
  5
27F
100
AcDbEntity
  8
RACCORDO
100
AcDbLine
 62
7
  6
CONTINUOUS
 10
14.7789370044
 20
-6.9546117811
 11
14.7789370044
 21
-6.416842516
  0
LINE
  5
280
100
AcDbEntity
  8
RACCORDO
100
AcDbLine
 62
250
  6
CONTINUOUS
 10
13.2681240956
 20
-7.6911542138
 11
13.2609365286
 21
-9.5137114948
  0
LWPOLYLINE
  5
281
100
AcDbEntity
  8
RACCORDO
100
AcDbPolyline
 62
250
  6
CONTINUOUS
 90
4
 70
0
 10
13.3255571065
 20
-2.59057485
 10
13.2997088704
 20
-4.3266508744
 10
13.280322695
 20
-6.0591976911
 10
13.2681240956
 20
-7.6911542138
  0
LWPOLYLINE
  5
282
100
AcDbEntity
  8
RACCORDO
100
AcDbPolyline
 62
250
  6
CONTINUOUS
 90
10
 70
0
 10
14.0399484847
 20
7.3091882203
 10
13.9060738907
 20
6.1852200449
 10
13.7858109394
 20
5.0670724464
 10
13.6791596309
 20
3.9547454248
 10
13.5861028974
 20
2.8480015822
 10
13.5066578067
 20
1.7470783165
 10
13.4408755619
 20
0.652687821
 10
13.3887732308
 20
-0.4349325063
 10
13.3503337457
 20
-1.5160200633
 10
13.3255571065
 20
-2.59057485
  0
LWPOLYLINE
  5
283
100
AcDbEntity
  8
RACCORDO
100
AcDbPolyline
 62
250
  6
CONTINUOUS
 90
16
 70
0
 10
-1.408189376
 20
-18.2853400524
 10
-1.4468841305
 20
-18.3106922833
 10
-1.4888163051
 20
-18.3335564134
 10
-1.5335415008
 20
-18.3536901278
 10
-1.580585718
 20
-18.3708800484
 10
-1.6294503799
 20
-18.3849439957
 10
-1.6796176168
 20
-18.3957329194
 10
-1.7305557541
 20
-18.403132478
 10
-1.7817249471
 20
-18.4070642505
 10
-1.8325829025
 20
-18.407486568
 10
-1.8825906253
 20
-18.4043949546
 10
-1.9312181317
 20
-18.3978221754
 10
-1.977950065
 20
-18.3878378891
 10
-2.0222911582
 20
-18.3745479097
 10
-2.0637714824
 20
-18.3580930848
 10
-2.1019514273
 20
-18.3386478034
  0
LWPOLYLINE
  5
284
100
AcDbEntity
  8
RACCORDO
100
AcDbPolyline
 62
7
  6
CONTINUOUS
 90
16
 70
0
 10
14.56680497
 20
-7.3220352422
 10
14.5893687408
 20
-7.3075447854
 10
14.611219542
 20
-7.2909323166
 10
14.6323573737
 20
-7.272197836
 10
14.6529966288
 20
-7.2510914216
 10
14.6729229144
 20
-7.2278629953
 10
14.6914930513
 20
-7.2032623225
 10
14.7086627898
 20
-7.1772446281
 10
14.7244763796
 20
-7.1498546872
 10
14.7384233908
 20
-7.1219765901
 10
14.750442919
 20
-7.0935944089
 10
14.7605958686
 20
-7.0647240716
 10
14.7685545236
 20
-7.0362974527
 10
14.7742096452
 20
-7.0086251771
 10
14.7776704721
 20
-6.9813966199
 10
14.7789370044
 20
-6.9546117811
  0
LINE
  5
285
100
AcDbEntity
  8
RACCORDO
100
AcDbLine
 62
7
  6
CONTINUOUS
 10
14.3392813411
 20
-7.4534045339
 11
14.56680497
 21
-7.3220352422
  0
LINE
  5
286
100
AcDbEntity
  8
RACCORDO
100
AcDbLine
 62
7
  6
CONTINUOUS
 10
14.3392813411
 20
-9.1679921152
 11
14.56680497
 21
-9.0366228234
  0
LINE
  5
287
100
AcDbEntity
  8
RACCORDO
100
AcDbLine
 62
250
  6
CONTINUOUS
 10
-1.2131577143
 20
15.7839938307
 11
13.3461708002
 21
7.3776200177
  0
LINE
  5
288
100
AcDbEntity
  8
RACCORDO
100
AcDbLine
 62
250
  6
CONTINUOUS
 10
-2.1019670604
 20
16.2971812077
 11
-16.6612955749
 21
24.7035550207
  0
LINE
  5
289
100
AcDbEntity
  8
RACCORDO
100
AcDbLine
 62
250
  6
CONTINUOUS
 10
-0.5650375733
 20
16.8613836093
 11
14.0114877211
 21
8.4450805911
  0
LINE
  5
28A
100
AcDbEntity
  8
RACCORDO
100
AcDbLine
 62
250
  6
CONTINUOUS
 10
-1.4366501395
 20
17.3646417811
 11
-16.0131754339
 21
25.7809447993
  0
LINE
  5
28B
100
AcDbEntity
  8
DRAFT
100
AcDbLine
 62
7
  6
CONTINUOUS
 10
16.2194968405
 20
8.3105909484
 11
17.2605531403
 21
-3.2844003504
  0
LINE
  5
28C
100
AcDbEntity
  8
RACCORDO
100
AcDbLine
 62
7
  6
CONTINUOUS
 10
16.2194968405
 20
8.9748150098
 11
16.2194968405
 21
8.3105909484
  0
LINE
  5
28D
100
AcDbEntity
  8
RACCORDO
100
AcDbLine
 62
7
  6
CONTINUOUS
 10
16.2194968405
 20
-25.8178666215
 11
16.2194968405
 21
-26.4820906829
  0
LINE
  5
28E
100
AcDbEntity
  8
DRAFT
100
AcDbLine
 62
7
  6
CONTINUOUS
 10
17.2605531403
 20
-13.0820436719
 11
17.2605531403
 21
-12.4021622999
  0
LINE
  5
28F
100
AcDbEntity
  8
DRAFT
100
AcDbLine
 62
7
  6
CONTINUOUS
 10
17.2605531403
 20
-3.9642817224
 11
17.2605531403
 21
-3.2844003504
  0
LWPOLYLINE
  5
290
100
AcDbEntity
  8
RACCORDO
100
AcDbPolyline
 62
250
  6
CONTINUOUS
 90
9
 70
0
 10
14.3769061401
 20
-27.3668973839
 10
14.3727498573
 20
-27.4095514809
 10
14.3648756823
 20
-27.4494494218
 10
14.3533697138
 20
-27.4861549503
 10
14.3383577614
 20
-27.5192667173
 10
14.3200039704
 20
-27.5484226687
 10
14.2985090267
 20
-27.5733040044
 10
14.2741079624
 20
-27.5936386646
 10
14.2491665846
 20
-27.6082132149
  0
LWPOLYLINE
  5
291
100
AcDbEntity
  8
0
100
AcDbPolyline
 62
7
  6
CONTINUOUS
 90
8
 70
0
 10
14.3392813411
 20
-9.1679921152
 10
14.2761943142
 20
-9.2471732514
 10
14.2112105974
 20
-9.3210036203
 10
14.1443301909
 20
-9.3894832218
 10
14.0750821507
 20
-9.4529967058
 10
14.0039374207
 20
-9.5111594224
 10
13.9323088324
 20
-9.5628174222
 10
13.9229044425
 20
-9.5686882601
  0
LWPOLYLINE
  5
292
100
AcDbEntity
  8
RACCORDO
100
AcDbPolyline
 62
7
  6
CONTINUOUS
 90
16
 70
0
 10
14.4315539712
 20
-10.3055983654
 10
14.4686886257
 20
-10.2810292043
 10
14.5046112163
 20
-10.2530487939
 10
14.539321743
 20
-10.2216571341
 10
14.5731636657
 20
-10.1864477062
 10
14.6057935246
 20
-10.147827029
 10
14.6361809399
 20
-10.1070146592
 10
14.6642543468
 20
-10.0639406515
 10
14.6900853103
 20
-10.0186749512
 10
14.7128581447
 20
-9.9726469503
 10
14.7324752539
 20
-9.9258323207
 10
14.7490342341
 20
-9.8782553905
 10
14.7620121888
 20
-9.8314185351
 10
14.7712348194
 20
-9.7858225464
 10
14.7768764246
 20
-9.7409666326
 10
14.7789370044
 20
-9.6968507936
  0
LINE
  5
293
100
AcDbEntity
  8
RACCORDO
100
AcDbLine
 62
7
  6
CONTINUOUS
 10
13.9231994397
 20
-10.6093616457
 11
14.4315539712
 21
-10.3055983654
  0
LINE
  5
294
100
AcDbEntity
  8
DRAFT
100
AcDbLine
 62
7
  6
CONTINUOUS
 10
16.2108282363
 20
-11.6898756087
 11
13.9313942218
 21
-12.79852332
  0
LINE
  5
295
100
AcDbEntity
  8
RACCORDO
100
AcDbLine
 62
7
  6
CONTINUOUS
 10
1.1951880255
 20
18.057993332
 11
15.8663784731
 21
9.5870318408
  0
LINE
  5
296
100
AcDbEntity
  8
RACCORDO
100
AcDbLine
 62
7
  6
CONTINUOUS
 10
0.4182406125
 20
18.5065930309
 11
-14.2529498351
 21
26.9775545221
  0
LINE
  5
297
100
AcDbEntity
  8
DRAFT
100
AcDbLine
 62
7
  6
CONTINUOUS
 10
17.2605531403
 20
-13.0820436719
 11
16.2194968405
 21
-25.8178666215
  0
LINE
  5
298
100
AcDbEntity
  8
DRAFT
100
AcDbLine
 62
7
  6
CONTINUOUS
 10
13.9402801494
 20
-14.0170425854
 11
17.2605531403
 21
-12.4021622999
  0
LWPOLYLINE
  5
299
100
AcDbEntity
  8
RACCORDO
100
AcDbPolyline
 62
250
  6
CONTINUOUS
 90
16
 70
0
 10
13.3255571065
 20
-18.0879971738
 10
13.28645901
 20
-18.1081091402
 10
13.2441287735
 20
-18.1257894411
 10
13.1990148618
 20
-18.1408507639
 10
13.151595231
 20
-18.1531335423
 10
13.1023722652
 20
-18.1625076475
 10
13.0518674535
 20
-18.1688737659
 10
13.0006158657
 20
-18.1721644524
 10
12.9491604831
 20
-18.1723448439
 10
12.8980464462
 20
-18.1694130292
 10
12.847815279
 20
-18.1634000693
 10
12.7989991521
 20
-18.1543696681
 10
12.7521152447
 20
-18.1424174975
 10
12.7076602648
 20
-18.1276701839
 10
12.6661051878
 20
-18.1102839668
 10
12.6278902659
 20
-18.0904430432
  0
LWPOLYLINE
  5
29A
100
AcDbEntity
  8
RACCORDO
100
AcDbPolyline
 62
250
  6
CONTINUOUS
 90
16
 70
0
 10
14.0399484846
 20
-27.2049012424
 10
14.0012535653
 20
-27.2302538645
 10
13.9593211803
 20
-27.2531183792
 10
13.9145957341
 20
-27.2732524654
 10
13.8675512326
 20
-27.2904427397
 10
13.8186862591
 20
-27.3045070175
 10
13.7685186907
 20
-27.3152962437
 10
13.7175802095
 20
-27.3226960729
 10
13.6664106678
 20
-27.3266280807
 10
13.6155523666
 20
-27.3270505952
 10
13.5655443085
 20
-27.3239591386
 10
13.5169164851
 20
-27.3173864745
 10
13.4701842601
 20
-27.307402261
 10
13.4258429073
 20
-27.2941123121
 10
13.3843623619
 20
-27.2776574763
 10
13.3461822399
 20
-27.2582121439
  0
LINE
  5
29B
100
AcDbEntity
  8
RACCORDO
100
AcDbLine
 62
250
  6
CONTINUOUS
 10
14.3769061401
 20
-27.3668973839
 11
16.2194968405
 21
-26.4820906829
  0
LINE
  5
29C
100
AcDbEntity
  8
RACCORDO
100
AcDbLine
 62
7
  6
CONTINUOUS
 10
14.2491665846
 20
-27.6082132149
 11
16.1047366966
 21
-26.7171738381
  0
ELLIPSE
  5
29D
100
AcDbEntity
  8
RACCORDO
100
AcDbEllipse
 62
7
  6
CONTINUOUS
 10
-14.2523936165
 20
26.5682594702
 30
0.0
 11
-0.2499290726
 21
0.4341292917
 31
0.0
 40
0.5764232693
 41
-0.7831993866
 42
0.0431016407
  0
ELLIPSE
  5
29E
100
AcDbEntity
  8
RACCORDO
100
AcDbEllipse
 62
7
  6
CONTINUOUS
 10
0.4176843939
 20
18.0979402863
 30
0.0
 11
-0.2495329775
 21
0.4334490081
 31
0.0
 40
0.5782391819
 41
-2.1952689224
 42
-0.7847631591
  0
ELLIPSE
  5
29F
100
AcDbEntity
  8
DRAFT
100
AcDbEllipse
 62
7
  6
CONTINUOUS
 10
375.7183269468
 20
188.2230501319
 30
0.0
 11
259.3446736413
 21
425.9458276213
 31
0.0
 40
0.5922410672
 41
-3.9230106821
 42
-3.9032871795
  0
ELLIPSE
  5
2A0
100
AcDbEntity
  8
RACCORDO
100
AcDbEllipse
 62
7
  6
CONTINUOUS
 10
1.1957442441
 20
17.6486982801
 30
0.0
 11
-0.2499290726
 21
0.4341292917
 31
0.0
 40
0.5764232693
 41
-0.7831993866
 42
0.0431016407
  0
ELLIPSE
  5
2A1
100
AcDbEntity
  8
RACCORDO
100
AcDbEllipse
 62
7
  6
CONTINUOUS
 10
15.8658222545
 20
-26.2772402225
 30
0.0
 11
-0.2499290726
 21
0.4341292917
 31
0.0
 40
0.5764232693
 41
-3.1846942924
 42
-2.3555683987
  0
ELLIPSE
  5
2A2
100
AcDbEntity
  8
RACCORDO
100
AcDbEllipse
 62
7
  6
CONTINUOUS
 10
15.8658222545
 20
9.1783790962
 30
0.0
 11
-0.2495329775
 21
0.4334490081
 31
0.0
 40
0.5782391819
 41
-2.3539868006
 42
-0.7847631591
  0
ENDSEC
  0
SECTION
  2
OBJECTS
  0
DICTIONARY
  5
C
100
AcDbDictionary
280
0
281
1
  3
ACAD_GROUP
350
D
  3
ACAD_MLINESTYLE
350
17
  3
ACAD_LAYOUT
350
1A
  3
ACAD_PLOTSETTINGS
350
19
  3
ACAD_PLOTSTYLENAME
350
E
  0
DICTIONARY
  5
D
102
{ACAD_REACTORS
330
C
102
}
100
AcDbDictionary
280
0
281
1
  0
ACDBDICTIONARYWDFLT
  5
E
102
{ACAD_REACTORS
330
C
102
}
100
AcDbDictionary
281
1
  3
Normal
350
F
100
AcDbDictionaryWithDefault
340
F
  0
DICTIONARY
  5
17
102
{ACAD_REACTORS
330
C
102
}
100
AcDbDictionary
280
0
281
1
  3
Standard
350
18
  0
DICTIONARY
  5
19
102
{ACAD_REACTORS
330
C
102
}
100
AcDbDictionary
281
1
  0
DICTIONARY
  5
1A
102
{ACAD_REACTORS
330
C
102
}
100
AcDbDictionary
281
1
  3
Model
350
2A3
  3
Layout1
350
2A4
  0
ACDBPLACEHOLDER
  5
F
102
{ACAD_REACTORS
330
E
102
}
  0
MLINESTYLE
  5
18
102
{ACAD_REACTORS
330
17
102
}
100
AcDbMlineStyle
  2
STANDARD
 70
0
  3

 62
256
 51
90.0
 52
90.0
 71
2
 49
0.5
 62
256
  6
BYLAYER
 49
-0.5
 62
256
  6
BYLAYER
  0
LAYOUT
  5
2A3
102
{ACAD_REACTORS
330
1A
102
}
100
AcDbPlotSettings
  1

  2
none_device
  4
ISO_A4_(297.00_x_210.00_MM)
  6

 40
0.0
 41
0.0
 42
0.0
 43
0.0
 44
297.0
 45
210.0
 46
0.0
 47
0.0
 48
0.0
 49
0.0
140
0.0
141
0.0
142
1.0
143
1.0
 70
1024
 72
1
 73
0
 74
0
  7

 75
0
147
1.0
148
0.0
149
0.0
100
AcDbLayout
  1
Model
 70
0
 71
0
 10
0.0
 20
0.0
 11
297.0
 21
210.0
 12
0.0
 22
0.0
 32
0.0
 14
0.0
 24
0.0
 34
0.0
 15
0.0
 25
0.0
 35
0.0
146
0.0
 13
0.0
 23
0.0
 33
0.0
 16
1.0
 26
0.0
 36
0.0
 17
0.0
 27
1.0
 37
0.0
 76
0
330
213
345
0
346
0
  0
LAYOUT
  5
2A4
102
{ACAD_REACTORS
330
1A
102
}
100
AcDbPlotSettings
  1

  2
none_device
  4
ISO_A4_(297.00_x_210.00_MM)
  6

 40
0.0
 41
0.0
 42
0.0
 43
0.0
 44
297.0
 45
210.0
 46
0.0
 47
0.0
 48
0.0
 49
0.0
140
0.0
141
0.0
142
1.0
143
1.0
 70
0
 72
1
 73
0
 74
0
  7

 75
0
147
1.0
148
0.0
149
0.0
100
AcDbLayout
  1
Layout1
 70
0
 71
1
 10
0.0
 20
0.0
 11
297.0
 21
210.0
 12
0.0
 22
0.0
 32
0.0
 14
0.0
 24
0.0
 34
0.0
 15
0.0
 25
0.0
 35
0.0
146
0.0
 13
0.0
 23
0.0
 33
0.0
 16
1.0
 26
0.0
 36
0.0
 17
0.0
 27
1.0
 37
0.0
 76
0
330
214
345
0
346
0
  0
ENDSEC
  0
EOF
