  0
SECTION
  2
HEADER
  9
$ACADVER
  1
AC1024
  9
$DWGCODEPAGE
  3
ANSI_1252
  9
$EXTMAX
 10
297.0
 20
210.0
 30
0.0
  9
$EXTMIN
 10
0.0
 20
0.0
 30
0.0
  9
$LIMMIN
 10
0.0
 20
0.0
  9
$LIMMAX
 10
297.0
 20
210.0
  9
$VIEWCTR
 10
148.5
 20
105.0
  9
$VIEWSIZE
 40
210.0
  9
$CLAYER
  8
0
  9
$LTSCALE
 40
16.335
  9
$CELTYPE
  6
BYLAYER
  9
$DIMSCALE
 40
1.0
  9
$DIMASZ
 40
3.0
  9
$DIMEXO
 40
0.5
  9
$DIMDLI
 40
11.286
  9
$DIMEXE
 40
1.5
  9
$DIMCEN
 40
2.673
  9
$DIMLFAC
 40
1.0
  9
$DIMBLK
  1
_FILLED
  9
$DIMALT
 70
0
  9
$DIMALTF
 40
0.0393700787
  9
$DIMTXT
 40
3.0
  9
$DIMTOL
 70
1
  9
$DIMLIM
 70
0
  9
$DIMTFAC
 40
1.0
  9
$DIMTP
 40
0.01
  9
$DIMTM
 40
0.01
  9
$DIMGAP
 40
0.625
  9
$DIMDSEP
 70
44
  9
$AUNITS
 70
0
  9
$PDMODE
 70
3
  9
$PDSIZE
 40
3.0
  9
$HANDSEED
  5
25E
  9
$TILEMODE
 70
1
  9
$MEASUREMENT
 70
1
  9
$INSUNITS
 70
4
  0
ENDSEC
  0
SECTION
  2
CLASSES
  0
CLASS
  1
ACDBDICTIONARYWDFLT
  2
AcDbDictionaryWithDefault
  3
AutoCAD 2000
 90
0
 91
1
280
0
281
0
  0
CLASS
  1
ACDBPLACEHOLDER
  2
AcDbPlaceHolder
  3
AutoCAD 2000
 90
0
 91
1
280
0
281
0
  0
CLASS
  1
LAYOUT
  2
AcDbLayout
  3
AutoCAD 2000
 90
0
 91
0
280
0
281
0
  0
ENDSEC
  0
SECTION
  2
TABLES
  0
TABLE
  2
VPORT
  5
8
100
AcDbSymbolTable
 70
2
  0
VPORT
  5
1F4
100
AcDbSymbolTableRecord
100
AcDbViewportTableRecord
  2
*ACTIVE
 70
0
 10
0.0
 20
0.0
 11
1.0
 21
1.0
 12
148.5
 22
105.0
 13
0.0
 23
0.0
 14
1.0
 24
1.0
 15
0.0
 25
0.0
 16
0.0
 26
0.0
 36
1.0
 17
0.0
 27
0.0
 37
0.0
 40
210.0
 41
1.4142857143
 42
50.0
 43
0.0
 44
0.0
 50
0.0
 51
0.0
 71
0
 72
100
 73
1
 74
1
 75
0
 76
0
 77
0
 78
0
  0
ENDTAB
  0
TABLE
  2
LTYPE
  5
5
100
AcDbSymbolTable
 70
6
  0
LTYPE
  5
14
100
AcDbSymbolTableRecord
100
AcDbLinetypeTableRecord
  2
BYBLOCK
 70
0
  3

 72
65
 73
0
 40
0.0
  0
LTYPE
  5
15
100
AcDbSymbolTableRecord
100
AcDbLinetypeTableRecord
  2
BYLAYER
 70
0
  3

 72
65
 73
0
 40
0.0
  0
LTYPE
  5
16
100
AcDbSymbolTableRecord
100
AcDbLinetypeTableRecord
  2
CONTINUOUS
 70
64
  3
Solid line
 72
65
 73
0
 40
0.0
  0
LTYPE
  5
1F5
100
AcDbSymbolTableRecord
100
AcDbLinetypeTableRecord
  2
CENTER
 70
64
  3
____ _ ____ _ ____ _ ____ _ ____ _ ____ _ ____
 72
65
 73
4
 40
0.6
 49
0.375
 74
0
 49
-0.075
 74
0
 49
0.075
 74
0
 49
-0.075
 74
0
  0
LTYPE
  5
1F6
100
AcDbSymbolTableRecord
100
AcDbLinetypeTableRecord
  2
HIDDEN
 70
64
  3
- - - - - - - - - - - - - - - - - - - -
 72
65
 73
2
 40
0.2
 49
0.1
 74
0
 49
-0.1
 74
0
  0
LTYPE
  5
1F7
100
AcDbSymbolTableRecord
100
AcDbLinetypeTableRecord
  2
PHANTOM
 70
64
  3
_____ _ _ _____ _ _ _____ _ _ _____
 72
65
 73
6
 40
0.8
 49
0.45
 74
0
 49
-0.05
 74
0
 49
0.1
 74
0
 49
-0.05
 74
0
 49
0.1
 74
0
 49
-0.05
 74
0
  0
LTYPE
  5
1F8
100
AcDbSymbolTableRecord
100
AcDbLinetypeTableRecord
  2
DOT
 70
64
  3
. . . . . . . . . . . . . . . . . . . .
 72
65
 73
2
 40
0.2
 49
0.1
 74
0
 49
-0.1
 74
0
  0
LTYPE
  5
1F9
100
AcDbSymbolTableRecord
100
AcDbLinetypeTableRecord
  2
DASHED
 70
64
  3
- - - - - - - - - - - - - - - - - - - -
 72
65
 73
2
 40
0.2
 49
0.1
 74
0
 49
-0.1
 74
0
  0
ENDTAB
  0
TABLE
  2
LAYER
  5
2
100
AcDbSymbolTable
 70
36
  0
LAYER
  5
10
100
AcDbSymbolTableRecord
100
AcDbLayerTableRecord
  2
0
 70
0
 62
7
  6
CONTINUOUS
370
-3
390
F
  0
LAYER
  5
1FA
100
AcDbSymbolTableRecord
100
AcDbLayerTableRecord
  2
DEFAULT_1
 70
0
 62
7
  6
CENTER
370
-3
390
F
  0
LAYER
  5
1FB
100
AcDbSymbolTableRecord
100
AcDbLayerTableRecord
  2
DEFAULT_2
 70
0
 62
7
  6
HIDDEN
370
-3
390
F
  0
LAYER
  5
1FC
100
AcDbSymbolTableRecord
100
AcDbLayerTableRecord
  2
DEFAULT_3
 70
0
 62
7
  6
PHANTOM
370
-3
390
F
  0
LAYER
  5
1FD
100
AcDbSymbolTableRecord
100
AcDbLayerTableRecord
  2
ASSI
 70
0
 62
7
  6
CONTINUOUS
370
-3
390
F
  0
LAYER
  5
1FE
100
AcDbSymbolTableRecord
100
AcDbLayerTableRecord
  2
COORDINATE
 70
0
 62
7
  6
CONTINUOUS
370
-3
390
F
  0
LAYER
  5
1FF
100
AcDbSymbolTableRecord
100
AcDbLayerTableRecord
  2
COORD_ORIGINE
 70
0
 62
7
  6
CONTINUOUS
370
-3
390
F
  0
LAYER
  5
200
100
AcDbSymbolTableRecord
100
AcDbLayerTableRecord
  2
COSMETICI
 70
0
 62
7
  6
CONTINUOUS
370
-3
390
F
  0
LAYER
  5
201
100
AcDbSymbolTableRecord
100
AcDbLayerTableRecord
  2
CURVE
 70
0
 62
7
  6
CONTINUOUS
370
-3
390
F
  0
LAYER
  5
202
100
AcDbSymbolTableRecord
100
AcDbLayerTableRecord
  2
CURVE_LED_TASTO
 70
0
 62
7
  6
CONTINUOUS
370
-3
390
F
  0
LAYER
  5
203
100
AcDbSymbolTableRecord
100
AcDbLayerTableRecord
  2
DRAFT
 70
0
 62
7
  6
CONTINUOUS
370
-3
390
F
  0
LAYER
  5
204
100
AcDbSymbolTableRecord
100
AcDbLayerTableRecord
  2
IGES_SCRITTE
 70
0
 62
7
  6
CONTINUOUS
370
-3
390
F
  0
LAYER
  5
205
100
AcDbSymbolTableRecord
100
AcDbLayerTableRecord
  2
INTF_1
 70
0
 62
7
  6
CONTINUOUS
370
-3
390
F
  0
LAYER
  5
206
100
AcDbSymbolTableRecord
100
AcDbLayerTableRecord
  2
INTF_11
 70
0
 62
7
  6
CONTINUOUS
370
-3
390
F
  0
LAYER
  5
207
100
AcDbSymbolTableRecord
100
AcDbLayerTableRecord
  2
NOTE
 70
0
 62
7
  6
CONTINUOUS
370
-3
390
F
  0
LAYER
  5
208
100
AcDbSymbolTableRecord
100
AcDbLayerTableRecord
  2
PIANI
 70
0
 62
7
  6
CONTINUOUS
370
-3
390
F
  0
LAYER
  5
209
100
AcDbSymbolTableRecord
100
AcDbLayerTableRecord
  2
PIANI_ORIGINE
 70
0
 62
7
  6
CONTINUOUS
370
-3
390
F
  0
LAYER
  5
20A
100
AcDbSymbolTableRecord
100
AcDbLayerTableRecord
  2
PIANI_RIFERIMENTO
 70
0
 62
7
  6
CONTINUOUS
370
-3
390
F
  0
LAYER
  5
20B
100
AcDbSymbolTableRecord
100
AcDbLayerTableRecord
  2
PUNTI
 70
0
 62
7
  6
CONTINUOUS
370
-3
390
F
  0
LAYER
  5
20C
100
AcDbSymbolTableRecord
100
AcDbLayerTableRecord
  2
RACCORDO
 70
0
 62
7
  6
CONTINUOUS
370
-3
390
F
  0
LAYER
  5
20D
100
AcDbSymbolTableRecord
100
AcDbLayerTableRecord
  2
RGB____0____0____0__
 70
0
 62
7
  6
CONTINUOUS
370
-3
390
F
  0
LAYER
  5
20E
100
AcDbSymbolTableRecord
100
AcDbLayerTableRecord
  2
SIMBOLI
 70
0
 62
7
  6
CONTINUOUS
370
-3
390
F
  0
LAYER
  5
20F
100
AcDbSymbolTableRecord
100
AcDbLayerTableRecord
  2
SMUSSO
 70
0
 62
7
  6
CONTINUOUS
370
-3
390
F
  0
LAYER
  5
210
100
AcDbSymbolTableRecord
100
AcDbLayerTableRecord
  2
SNAPLINE
 70
0
 62
7
  6
CONTINUOUS
370
-3
390
F
  0
LAYER
  5
211
100
AcDbSymbolTableRecord
100
AcDbLayerTableRecord
  2
SUPERFICI
 70
0
 62
7
  6
CONTINUOUS
370
-3
390
F
  0
LAYER
  5
212
100
AcDbSymbolTableRecord
100
AcDbLayerTableRecord
  2
TRASH
 70
0
 62
7
  6
CONTINUOUS
370
-3
390
F
  0
ENDTAB
  0
TABLE
  2
STYLE
  5
3
100
AcDbSymbolTable
 70
1
  0
STYLE
  5
11
100
AcDbSymbolTableRecord
100
AcDbTextStyleTableRecord
  2
STANDARD
 70
0
 40
0.0
 41
0.8
 50
0.0
 71
0
 42
0.2
  3
txt
  4

  0
STYLE
  5
213
100
AcDbSymbolTableRecord
100
AcDbTextStyleTableRecord
  2
TEXTSTYLE_1
 70
0
 40
0.0
 41
0.8
 50
0.0
 71
0
 42
0.2
  3
gdt
  4

  0
ENDTAB
  0
TABLE
  2
VIEW
  5
6
100
AcDbSymbolTable
 70
0
  0
ENDTAB
  0
TABLE
  2
UCS
  5
7
100
AcDbSymbolTable
 70
0
  0
ENDTAB
  0
TABLE
  2
APPID
  5
9
100
AcDbSymbolTable
 70
1
  0
APPID
  5
214
100
AcDbSymbolTableRecord
100
AcDbRegAppTableRecord
  2
ACAD
 70
0
  0
ENDTAB
  0
TABLE
  2
BLOCK_RECORD
  5
1
100
AcDbSymbolTable
 70
0
  0
BLOCK_RECORD
  5
215
100
AcDbSymbolTableRecord
100
AcDbBlockTableRecord
  2
*Model_Space
  0
BLOCK_RECORD
  5
216
100
AcDbSymbolTableRecord
100
AcDbBlockTableRecord
  2
*Paper_Space
  0
BLOCK_RECORD
  5
217
100
AcDbSymbolTableRecord
100
AcDbBlockTableRecord
  2
_FILLED
  0
ENDTAB
  0
TABLE
  2
DIMSTYLE
  5
A
100
AcDbSymbolTable
 70
1
100
AcDbDimStyleTable
 71
0
  0
DIMSTYLE
105
218
100
AcDbSymbolTableRecord
100
AcDbDimStyleTableRecord
  2
STANDARD
 70
0
  3

  4

 40
1.0
 41
3.0
 42
0.5
 43
0.38
 44
1.5
 45
0.0
 46
0.0
 47
0.01
 48
0.01
140
3.0
141
0.09
142
0.0
143
25.4
144
1.0
145
0.0
146
1.0
147
0.625
 71
1
 72
0
 73
0
 74
0
 75
0
 76
0
 77
1
 78
8
 79
2
170
0
171
1
172
0
173
0
174
0
175
0
176
0
177
0
178
0
270
2
179
2
271
2
272
2
273
2
274
2
275
0
280
0
281
0
282
0
283
1
284
8
285
0
286
0
287
3
288
0
340
11
278
44
341
217
342
217
343
217
344
217
  0
ENDTAB
  0
ENDSEC
  0
SECTION
  2
BLOCKS
  0
BLOCK
  5
20
100
AcDbEntity
  8
0
100
AcDbBlockBegin
  2
*Model_Space
 70
0
 10
0.0
 20
0.0
 30
0.0
  3
*Model_Space
  1

  0
ENDBLK
  5
21
100
AcDbEntity
  8
0
100
AcDbBlockEnd
  0
BLOCK
  5
1C
100
AcDbEntity
  8
0
100
AcDbBlockBegin
  2
*Paper_Space
 70
0
 10
0.0
 20
0.0
 30
0.0
  3
*Paper_Space
  1

  0
ENDBLK
  5
1D
100
AcDbEntity
  8
0
100
AcDbBlockEnd
  0
BLOCK
  5
219
100
AcDbEntity
  8
0
100
AcDbBlockBegin
  2
_FILLED
 70
64
 10
0.0
 20
0.0
  3
_FILLED
  1

  0
SOLID
  5
21A
100
AcDbEntity
  8
0
  6
BYBLOCK
 62
0
100
AcDbTrace
 10
0.0
 20
0.0
 11
-1.0
 21
0.3166666667
 12
-1.0
 22
-0.3166666667
 13
-1.0
 23
-0.3166666667
  0
ENDBLK
  5
21B
100
AcDbEntity
  8
0
  6
BYBLOCK
 62
0
100
AcDbBlockEnd
  0
ENDSEC
  0
SECTION
  2
ENTITIES
  0
LWPOLYLINE
  5
21C
100
AcDbEntity
  8
RACCORDO
100
AcDbPolyline
 62
7
  6
CONTINUOUS
 90
15
 70
0
 10
-16.3919181705
 20
26.0677040576
 10
-16.4273395816
 20
26.0428530006
 10
-16.4891628354
 20
25.9939231754
 10
-16.5474023114
 20
25.9407201674
 10
-16.6022425511
 20
25.8834954686
 10
-16.6536687991
 20
25.822539882
 10
-16.7013913047
 20
25.7584388632
 10
-16.7453745661
 20
25.6914564674
 10
-16.7855245611
 20
25.6217789009
 10
-16.8214822247
 20
25.5500993568
 10
-16.8531366305
 20
25.4766227628
 10
-16.8803250981
 20
25.4015089994
 10
-16.9027279956
 20
25.3253337101
 10
-16.9201147198
 20
25.2483052931
 10
-16.9325531538
 20
25.1680414794
  0
LINE
  5
21D
100
AcDbEntity
  8
RACCORDO
100
AcDbLine
 62
7
  6
CONTINUOUS
 10
-16.3920640165
 20
26.0676223363
 11
-14.5997674889
 21
27.2695005172
  0
LINE
  5
21E
100
AcDbEntity
  8
RACCORDO
100
AcDbLine
 62
250
  6
CONTINUOUS
 10
-16.1320934197
 20
26.0493407012
 11
-14.3406213625
 21
27.2506660088
  0
LWPOLYLINE
  5
21F
100
AcDbEntity
  8
RACCORDO
100
AcDbPolyline
 62
250
  6
CONTINUOUS
 90
9
 70
0
 10
-16.391925549
 20
26.0677150836
 10
-16.3698446041
 20
26.0800551294
 10
-16.3415721766
 20
26.0900491915
 10
-16.3108062783
 20
26.0952560697
 10
-16.2778833996
 20
26.0956188159
 10
-16.2431636223
 20
26.0911334625
 10
-16.207026681
 20
26.0818490663
 10
-16.1698678097
 20
26.067867172
 10
-16.1320934197
 20
26.0493407012
  0
LWPOLYLINE
  5
220
100
AcDbEntity
  8
RACCORDO
100
AcDbPolyline
 62
7
  6
CONTINUOUS
 90
10
 70
0
 10
-16.932535099
 20
25.1682735393
 10
-17.055488775
 20
24.0814141307
 10
-17.1727470297
 20
22.9359948364
 10
-17.2766432187
 20
21.7966649485
 10
-17.3671474078
 20
20.6637044574
 10
-17.4442399105
 20
19.5373435108
 10
-17.5079036245
 20
18.417792955
 10
-17.5581214263
 20
17.3052808608
 10
-17.5948800934
 20
16.2000782405
 10
-17.6171365004
 20
15.1689859659
  0
LWPOLYLINE
  5
221
100
AcDbEntity
  8
RACCORDO
100
AcDbPolyline
 62
250
  6
CONTINUOUS
 90
19
 70
0
 10
-16.7855800112
 20
24.9687011173
 10
-16.7756672651
 20
25.0355398464
 10
-16.761823301
 20
25.1036485015
 10
-16.7441291429
 20
25.1726342621
 10
-16.7226900717
 20
25.2421009373
 10
-16.697629791
 20
25.3116466652
 10
-16.6690899332
 20
25.3808662347
 10
-16.6372390301
 20
25.4493605974
 10
-16.6022624741
 20
25.516736107
 10
-16.5643561216
 20
25.5826020986
 10
-16.5237423957
 20
25.6465801167
 10
-16.480658329
 20
25.7083020662
 10
-16.4353449878
 20
25.7674090096
 10
-16.3880671294
 20
25.8235622394
 10
-16.339101535
 20
25.876438142
 10
-16.2887244423
 20
25.9257259649
 10
-16.2372272765
 20
25.9711406672
 10
-16.184914865
 20
26.0124243728
 10
-16.1320934197
 20
26.0493407012
  0
LWPOLYLINE
  5
222
100
AcDbEntity
  8
RACCORDO
100
AcDbPolyline
 62
250
  6
CONTINUOUS
 90
9
 70
0
 10
-17.617134018
 20
-0.3444626576
 10
-17.6161116025
 20
-0.3606674522
 10
-17.6101475562
 20
-0.3906918089
 10
-17.5989610059
 20
-0.4201406706
 10
-17.5826704666
 20
-0.4487020434
 10
-17.5614485275
 20
-0.4760733359
 10
-17.5355200228
 20
-0.5019645648
 10
-17.5051596503
 20
-0.5261014273
 10
-17.4706890609
 20
-0.5482282071
  0
LWPOLYLINE
  5
223
100
AcDbEntity
  8
RACCORDO
100
AcDbPolyline
 62
7
  6
CONTINUOUS
 90
10
 70
0
 10
-17.617134007
 20
-0.3444624074
 10
-17.5947125997
 20
-1.3544073403
 10
-17.5578545084
 20
-2.415676951
 10
-17.5075138605
 20
-3.4681168817
 10
-17.4436979388
 20
-4.5114675784
 10
-17.3664178399
 20
-5.5455182495
 10
-17.2756844934
 20
-6.5700774743
 10
-17.1715112587
 20
-7.5849369229
 10
-17.0539218768
 20
-8.5898491753
 10
-16.9312899375
 20
-9.5243631837
  0
LWPOLYLINE
  5
224
100
AcDbEntity
  8
RACCORDO
100
AcDbPolyline
 62
250
  6
CONTINUOUS
 90
10
 70
0
 10
-17.4706890614
 20
-0.5482282074
 10
-17.4952434968
 20
1.1604107455
 10
-17.5136591775
 20
2.8728610466
 10
-17.5259361073
 20
4.5890919561
 10
-17.5320743643
 20
6.3090519182
 10
-17.5320743672
 20
8.032730733
 10
-17.5259361151
 20
9.7601599959
 10
-17.5136591876
 20
11.4913299913
 10
-17.495243505
 20
13.2261892547
 10
-17.4706890614
 20
14.9647070516
  0
LWPOLYLINE
  5
225
100
AcDbEntity
  8
RACCORDO
100
AcDbPolyline
 62
7
  6
CONTINUOUS
 90
10
 70
0
 10
-17.6171365225
 20
15.1689861535
 10
-17.6411096758
 20
13.4772220822
 10
-17.6598161132
 20
11.7281708248
 10
-17.6722841172
 20
9.9828254161
 10
-17.6785132816
 20
8.2412217154
 10
-17.6785034769
 20
6.5033894703
 10
-17.672254628
 20
4.7693560697
 10
-17.6597667115
 20
3.039151151
 10
-17.6410399814
 20
1.3128101278
 10
-17.617134018
 20
-0.3444626576
  0
LWPOLYLINE
  5
226
100
AcDbEntity
  8
RACCORDO
100
AcDbPolyline
 62
250
  6
CONTINUOUS
 90
10
 70
0
 10
-17.4706890614
 20
14.9647070516
 10
-17.4469767026
 20
16.0485836217
 10
-17.4101332916
 20
17.1399244106
 10
-17.3601668332
 20
18.2384982234
 10
-17.2970886233
 20
19.344072561
 10
-17.2209119426
 20
20.4564131092
 10
-17.1316520462
 20
21.5752837925
 10
-17.0293279021
 20
22.7004475681
 10
-16.9139621948
 20
23.8316664732
 10
-16.7855800112
 20
24.9687011173
  0
LWPOLYLINE
  5
227
100
AcDbEntity
  8
RACCORDO
100
AcDbPolyline
 62
250
  6
CONTINUOUS
 90
10
 70
0
 10
-16.9325531538
 20
25.1680414794
 10
-16.9330689293
 20
25.1624167803
 10
-16.9321014592
 20
25.1373733129
 10
-16.9258761485
 20
25.1120347474
 10
-16.9144589739
 20
25.0866696254
 10
-16.8979709361
 20
25.0615467701
 10
-16.8765867777
 20
25.0369324372
 10
-16.8505331309
 20
25.0130874929
 10
-16.8200861159
 20
24.9902646491
 10
-16.7855684144
 20
24.9687057856
  0
LWPOLYLINE
  5
228
100
AcDbEntity
  8
RACCORDO
100
AcDbPolyline
 62
7
  6
CONTINUOUS
 90
14
 70
0
 10
13.5163420675
 20
-27.4400219369
 10
13.5408109686
 20
-27.4534889467
 10
13.5927304456
 20
-27.4779261806
 10
13.6473717248
 20
-27.4981646894
 10
13.7043186357
 20
-27.5138750295
 10
13.7632404409
 20
-27.5248141915
 10
13.8237230926
 20
-27.5307665824
 10
13.8852454858
 20
-27.5315810533
 10
13.9474968099
 20
-27.5271973401
 10
14.0100880903
 20
-27.5175937037
 10
14.0725163269
 20
-27.5028231642
 10
14.1345058561
 20
-27.4829517194
 10
14.1958862819
 20
-27.4580582705
 10
14.2234706197
 20
-27.4451332734
  0
LWPOLYLINE
  5
229
100
AcDbEntity
  8
RACCORDO
100
AcDbPolyline
 62
250
  6
CONTINUOUS
 90
8
 70
0
 10
-16.9312377968
 20
-9.5247380228
 10
-16.9258872239
 20
-9.5510385069
 10
-16.9144705602
 20
-9.5834208755
 10
-16.8979828579
 20
-9.6144518024
 10
-16.8765988604
 20
-9.6438024097
 10
-16.8505452037
 20
-9.671161628
 10
-16.8200980148
 20
-9.6962394935
 10
-16.7855799851
 20
-9.7187702209
  0
LWPOLYLINE
  5
22A
100
AcDbEntity
  8
RACCORDO
100
AcDbPolyline
 62
7
  6
CONTINUOUS
 90
12
 70
0
 10
-16.9312227895
 20
-9.5247359248
 10
-16.9195052504
 20
-9.5904332174
 10
-16.9020469308
 20
-9.656642088
 10
-16.8793475464
 20
-9.7199877002
 10
-16.8515739018
 20
-9.780123818
 10
-16.8191060748
 20
-9.8364459987
 10
-16.7823335647
 20
-9.8885735381
 10
-16.7416174837
 20
-9.9362816657
 10
-16.6975664888
 20
-9.9791967896
 10
-16.6507867154
 20
-10.017114404
 10
-16.6017827196
 20
-10.0499993875
 10
-16.5883568464
 20
-10.0579454301
  0
LINE
  5
22B
100
AcDbEntity
  8
RACCORDO
100
AcDbLine
 62
7
  6
CONTINUOUS
 10
-16.9312899375
 20
-9.5243631837
 11
-16.9312377968
 21
-9.5247380228
  0
LWPOLYLINE
  5
22C
100
AcDbEntity
  8
RACCORDO
100
AcDbPolyline
 62
250
  6
CONTINUOUS
 90
10
 70
0
 10
-16.7855800112
 20
-9.7187702405
 10
-16.9139621948
 20
-8.7379179705
 10
-17.0293279022
 20
-7.7470437706
 10
-17.1316520464
 20
-6.7463580614
 10
-17.2209119432
 20
-5.736073606
 10
-17.2970886243
 20
-4.7164045476
 10
-17.3601668344
 20
-3.6875663589
 10
-17.4101332926
 20
-2.6497770222
 10
-17.4469767032
 20
-1.603256988
 10
-17.4706890614
 20
-0.5482282074
  0
LWPOLYLINE
  5
22D
100
AcDbEntity
  8
RACCORDO
100
AcDbPolyline
 62
250
  6
CONTINUOUS
 90
9
 70
0
 10
-17.6171365004
 20
15.1689859659
 10
-17.6161115762
 20
15.1481411072
 10
-17.6101475285
 20
15.1191402549
 10
-17.5989609773
 20
15.0905834235
 10
-17.5826704376
 20
15.0627731563
 10
-17.5614484986
 20
15.0360040874
 10
-17.5355199945
 20
15.0105598196
 10
-17.5051596231
 20
14.9867099206
 10
-17.4706890351
 20
14.9647070663
  0
LINE
  5
22E
100
AcDbEntity
  8
RACCORDO
100
AcDbLine
 62
7
  6
CONTINUOUS
 10
13.5163907858
 20
-27.4400531704
 11
-16.5890491598
 21
-10.0575494556
  0
LINE
  5
22F
100
AcDbEntity
  8
RACCORDO
100
AcDbLine
 62
250
  6
CONTINUOUS
 10
13.3146433857
 20
-27.0982619855
 11
-16.7855800112
 21
-9.7187702405
  0
LWPOLYLINE
  5
230
100
AcDbEntity
  8
RACCORDO
100
AcDbPolyline
 62
250
  6
CONTINUOUS
 90
10
 70
0
 10
-16.5890493076
 20
-10.0575493702
 10
-16.6022635153
 20
-10.04949401
 10
-16.6372400441
 20
-10.0235847119
 10
-16.6690908202
 20
-9.9928459888
 10
-16.6976303552
 20
-9.9574556492
 10
-16.7226902728
 20
-9.9176199372
 10
-16.7441291328
 20
-9.8735672066
 10
-16.7618232445
 20
-9.8255519743
 10
-16.7756672257
 20
-9.7738532457
 10
-16.7855800112
 20
-9.7187702405
  0
LINE
  5
231
100
AcDbEntity
  8
RACCORDO
100
AcDbLine
 62
250
  6
CONTINUOUS
 10
-17.4706890614
 20
-0.5482282074
 11
12.5928992536
 21
-17.9065673153
  0
LWPOLYLINE
  5
232
100
AcDbEntity
  8
RACCORDO
100
AcDbPolyline
 62
250
  6
CONTINUOUS
 90
16
 70
0
 10
14.0084023165
 20
7.5206233284
 10
13.9697090165
 20
7.5078071276
 10
13.927778076
 20
7.4973461795
 10
13.8830538958
 20
7.4893513532
 10
13.8360104805
 20
7.483907381
 10
13.7871464149
 20
7.4810719605
 10
13.7369795798
 20
7.4808751425
 10
13.6860416632
 20
7.4833190129
 10
13.6348725254
 20
7.4883776706
 10
13.5840144772
 20
7.4959975021
 10
13.5340065325
 20
7.5060977492
 10
13.4853786953
 20
7.5185713656
 10
13.4386463428
 20
7.5332861511
 10
13.3943047631
 20
7.5500861527
 10
13.3528239057
 20
7.5687933172
 10
13.3146434014
 20
7.5892093786
  0
LINE
  5
233
100
AcDbEntity
  8
RACCORDO
100
AcDbLine
 62
250
  6
CONTINUOUS
 10
15.8732867958
 20
9.8055341075
 11
13.9854691469
 21
8.659837537
  0
LINE
  5
234
100
AcDbEntity
  8
0
100
AcDbLine
 62
250
  6
CONTINUOUS
 10
16.7918660554
 20
-11.5728933243
 11
17.1213787345
 21
-11.7631498155
  0
LINE
  5
235
100
AcDbEntity
  8
0
100
AcDbLine
 62
7
  6
CONTINUOUS
 10
16.7901883294
 20
-11.4649422715
 11
17.2255621437
 21
-11.7163216554
  0
LWPOLYLINE
  5
236
100
AcDbEntity
  8
RACCORDO
100
AcDbPolyline
 62
250
  6
CONTINUOUS
 90
19
 70
0
 10
13.9854691469
 20
8.659837537
 10
13.9312330874
 20
8.6237379891
 10
13.8775355921
 20
8.5832540134
 10
13.8246828731
 20
8.5386219906
 10
13.772972362
 20
8.4901040668
 10
13.7227028798
 20
8.4379810126
 10
13.6741728509
 20
8.3825507704
 10
13.6276598438
 20
8.3241364991
 10
13.5834278286
 20
8.2630773607
 10
13.541737696
 20
8.1997208463
 10
13.5028276945
 20
8.1344343491
 10
13.4669190314
 20
8.0675970265
 10
13.43422374
 20
7.999590203
 10
13.4049288418
 20
7.9308065843
 10
13.3792012394
 20
7.8616461596
 10
13.3571938549
 20
7.7925076214
 10
13.3390341548
 20
7.7237906589
 10
13.3248236571
 20
7.6558936357
 10
13.3146433857
 20
7.5892093723
  0
LWPOLYLINE
  5
237
100
AcDbEntity
  8
RACCORDO
100
AcDbPolyline
 62
250
  6
CONTINUOUS
 90
19
 70
0
 10
14.3481499895
 20
8.0534345559
 10
14.3205969296
 20
8.035513352
 10
14.2935687326
 20
8.0156117926
 10
14.2670653985
 20
7.9937298778
 10
14.2409239027
 20
7.969709729
 10
14.2153072698
 20
7.9437092248
 10
14.1907045735
 20
7.9162020007
 10
14.1671486459
 20
7.887171708
 10
14.1446066549
 20
7.8566346955
 10
14.1234691774
 20
7.8251136442
 10
14.1037587384
 20
7.7925855909
 10
14.0854528129
 20
7.7590734988
 10
14.0688744032
 20
7.7251689397
 10
14.054054342
 20
7.690849089
 10
14.0409617965
 20
7.6561367711
 10
14.0298272709
 20
7.6216920316
 10
14.0207275996
 20
7.5877348856
 10
14.0135859482
 20
7.5540453178
 10
14.0084023165
 20
7.5206233284
  0
LINE
  5
238
100
AcDbEntity
  8
RACCORDO
100
AcDbLine
 62
250
  6
CONTINUOUS
 10
16.2264768492
 20
9.1933712668
 11
14.3481499895
 21
8.0534345559
  0
LINE
  5
239
100
AcDbEntity
  8
RACCORDO
100
AcDbLine
 62
250
  6
CONTINUOUS
 10
-17.4706890614
 20
14.9647070516
 11
12.5928992536
 21
-2.3936320562
  0
LWPOLYLINE
  5
23A
100
AcDbEntity
  8
RACCORDO
100
AcDbPolyline
 62
250
  6
CONTINUOUS
 90
16
 70
0
 10
13.2905661099
 20
-2.4066991127
 10
13.2514680137
 20
-2.4252159153
 10
13.2091377773
 20
-2.4413179523
 10
13.1640238652
 20
-2.4548346318
 10
13.1166042338
 20
-2.4656227521
 10
13.0673812671
 20
-2.4735680194
 10
13.0168764543
 20
-2.478586258
 10
12.9656248652
 20
-2.4806243026
 10
12.9141694812
 20
-2.4796605612
 10
12.8630554427
 20
-2.4757052442
 10
12.812824274
 20
-2.4688002558
 10
12.7640081456
 20
-2.4590187505
 10
12.7171242366
 20
-2.4464643578
 10
12.6726692553
 20
-2.4312700842
 10
12.631114177
 20
-2.4135969046
 10
12.592899254
 20
-2.3936320561
  0
LWPOLYLINE
  5
23B
100
AcDbEntity
  8
RACCORDO
100
AcDbPolyline
 62
250
  6
CONTINUOUS
 90
10
 70
0
 10
13.3146433857
 20
-27.0982619855
 10
13.3248237085
 20
-27.1534994633
 10
13.3390342282
 20
-27.2054098267
 10
13.3571938799
 20
-27.253693856
 10
13.3792010838
 20
-27.2980747411
 10
13.4049283466
 20
-27.3382957699
 10
13.4342228209
 20
-27.374122002
 10
13.4669176106
 20
-27.405348048
 10
13.502825747
 20
-27.4317952447
 10
13.5162700755
 20
-27.4399834409
  0
LWPOLYLINE
  5
23C
100
AcDbEntity
  8
RACCORDO
100
AcDbPolyline
 62
250
  6
CONTINUOUS
 90
19
 70
0
 10
14.0084023165
 20
-27.0448098936
 10
14.0135866107
 20
-27.0725458531
 10
14.0207255406
 20
-27.0984023534
 10
14.0298191062
 20
-27.1223793947
 10
14.0409437534
 20
-27.1446109581
 10
14.0540230363
 20
-27.1649630624
 10
14.0688276171
 20
-27.1830337636
 10
14.0853846884
 20
-27.1987681101
 10
14.1036670577
 20
-27.2122210534
 10
14.1233638092
 20
-27.223155504
 10
14.1445039894
 20
-27.2315268998
 10
14.1670585519
 20
-27.2373798028
 10
14.1906294415
 20
-27.2406108091
 10
14.2152488454
 20
-27.2411639078
 10
14.2408845765
 20
-27.2390951096
 10
14.2670420181
 20
-27.2344690432
 10
14.2935562981
 20
-27.2273072514
 10
14.3205922885
 20
-27.2175881913
 10
14.3481499895
 20
-27.205311863
  0
LWPOLYLINE
  5
23D
100
AcDbEntity
  8
RACCORDO
100
AcDbPolyline
 62
250
  6
CONTINUOUS
 90
10
 70
0
 10
12.5928992536
 20
-17.9065673153
 10
12.617880559
 20
-18.96232877
 10
12.6566939676
 20
-20.0099862564
 10
12.7093314747
 20
-21.0493178233
 10
12.7757826465
 20
-22.0801035177
 10
12.8560333402
 20
-23.1021248599
 10
12.9500657144
 20
-24.115164884
 10
13.0578599391
 20
-25.1190089491
 10
13.1793941918
 20
-26.1134447898
 10
13.3146433857
 20
-27.0982619855
  0
LWPOLYLINE
  5
23E
100
AcDbEntity
  8
RACCORDO
100
AcDbPolyline
 62
250
  6
CONTINUOUS
 90
10
 70
0
 10
13.2905661099
 20
-17.9041214365
 10
13.3154294084
 20
-18.9543742985
 10
13.3540297825
 20
-19.9961372448
 10
13.4063672322
 20
-21.0294102752
 10
13.4724590983
 20
-22.0544137724
 10
13.55228804
 20
-23.0709273539
 10
13.6458020349
 20
-24.0782898715
 10
13.7529837422
 20
-25.0762809427
 10
13.8738505027
 20
-26.06512095
 10
14.0084023165
 20
-27.0448098936
  0
LWPOLYLINE
  5
23F
100
AcDbEntity
  8
RACCORDO
100
AcDbPolyline
 62
250
  6
CONTINUOUS
 90
7
 70
0
 10
12.5346840575
 20
-7.5964653437
 10
12.5282160119
 20
-9.3237041879
 10
12.5282160149
 20
-11.0473830029
 10
12.5346840657
 20
-12.7675333838
 10
12.5476205826
 20
-14.4841451306
 10
12.567025644
 20
-16.1971666877
 10
12.5928992536
 20
-17.9065673153
  0
LWPOLYLINE
  5
240
100
AcDbEntity
  8
RACCORDO
100
AcDbPolyline
 62
250
  6
CONTINUOUS
 90
4
 70
0
 10
12.5928992536
 20
-2.3936320562
 10
12.5670256356
 20
-4.1313881784
 10
12.5476205721
 20
-5.8656761857
 10
12.5346840575
 20
-7.5964653437
  0
LWPOLYLINE
  5
241
100
AcDbEntity
  8
RACCORDO
100
AcDbPolyline
 62
250
  6
CONTINUOUS
 90
10
 70
0
 10
13.3146433857
 20
7.5892093723
 10
13.1793941928
 20
6.4561396534
 10
13.0578599406
 20
5.3284823888
 10
12.950065716
 20
4.206476969
 10
12.8560333414
 20
3.0903618549
 10
12.775782647
 20
1.9803735912
 10
12.7093314746
 20
0.8767467599
 10
12.6566939673
 20
-0.2202848228
 10
12.6178805587
 20
-1.3104881598
 10
12.5928992536
 20
-2.3936320562
  0
LWPOLYLINE
  5
242
100
AcDbEntity
  8
RACCORDO
100
AcDbPolyline
 62
250
  6
CONTINUOUS
 90
10
 70
0
 10
14.0084023165
 20
7.5206233284
 10
13.8738494006
 20
6.3934757612
 10
13.7529818872
 20
5.2721766234
 10
13.6457997762
 20
4.156725915
 10
13.5522858252
 20
3.0468842951
 10
13.4724572767
 20
1.9428911047
 10
13.4063658582
 20
0.8454643664
 10
13.3540288121
 20
-0.2451565788
 10
13.315428896
 20
-1.3292110718
 10
13.2905661099
 20
-2.4066991127
  0
LINE
  5
243
100
AcDbEntity
  8
0
100
AcDbLine
 62
7
  6
CONTINUOUS
 10
17.2255621437
 20
-4.2823708923
 11
17.1213787345
 21
-4.3497111308
  0
LWPOLYLINE
  5
244
100
AcDbEntity
  8
RACCORDO
100
AcDbPolyline
 62
250
  6
CONTINUOUS
 90
16
 70
0
 10
14.3481499895
 20
8.0534345559
 10
14.3442862643
 20
8.0960695761
 10
14.3367006315
 20
8.1405287303
 10
14.3254760107
 20
8.186325801
 10
14.3107351207
 20
8.2329599331
 10
14.2926391418
 20
8.2799210992
 10
14.2713859566
 20
8.3266956777
 10
14.2472079759
 20
8.3727720954
 10
14.2203696088
 20
8.4176463947
 10
14.1911643819
 20
8.4608277376
 10
14.1599116968
 20
8.5018438262
 10
14.1269533593
 20
8.5402460296
 10
14.092649864
 20
8.575614274
 10
14.0573764054
 20
8.6075616931
 10
14.0215187703
 20
8.6357388519
 10
13.9854691489
 20
8.6598375382
  0
LWPOLYLINE
  5
245
100
AcDbEntity
  8
RACCORDO
100
AcDbPolyline
 62
250
  6
CONTINUOUS
 90
7
 70
0
 10
13.2324076502
 20
-7.6043277184
 10
13.2259456055
 20
-9.3298304091
 10
13.2259456141
 20
-11.0518078122
 10
13.2324076694
 20
-12.7702287357
 10
13.2453317694
 20
-14.4850827822
 10
13.2647179163
 20
-16.1963803492
 10
13.2905661099
 20
-17.9041214365
  0
LWPOLYLINE
  5
246
100
AcDbEntity
  8
RACCORDO
100
AcDbPolyline
 62
250
  6
CONTINUOUS
 90
4
 70
0
 10
13.2905661099
 20
-2.4066991127
 10
13.2647179035
 20
-4.1427672689
 10
13.2453317502
 20
-5.8753101374
 10
13.2324076502
 20
-7.6043277184
  0
LINE
  5
247
100
AcDbEntity
  8
RACCORDO
100
AcDbLine
 62
250
  6
CONTINUOUS
 10
13.3146433857
 20
7.5892093723
 11
-16.7855800112
 21
24.9687011173
  0
LINE
  5
248
100
AcDbEntity
  8
RACCORDO
100
AcDbLine
 62
250
  6
CONTINUOUS
 10
13.9854691469
 20
8.659837537
 11
-16.1320934197
 21
26.0493407012
  0
LINE
  5
249
100
AcDbEntity
  8
DRAFT
100
AcDbLine
 62
7
  6
CONTINUOUS
 10
16.2264768492
 20
8.2725223663
 11
17.2255621437
 21
-1.8758191979
  0
LINE
  5
24A
100
AcDbEntity
  8
RACCORDO
100
AcDbLine
 62
7
  6
CONTINUOUS
 10
16.2264768492
 20
9.1933712668
 11
16.2264768492
 21
8.2725223663
  0
LINE
  5
24B
100
AcDbEntity
  8
RACCORDO
100
AcDbLine
 62
7
  6
CONTINUOUS
 10
16.2264768492
 20
-25.3660530376
 11
16.2264768492
 21
-26.2869019381
  0
LINE
  5
24C
100
AcDbEntity
  8
0
100
AcDbLine
 62
7
  6
CONTINUOUS
 10
16.7901883294
 20
-11.5379340638
 11
16.7901883294
 21
-4.93785874
  0
LINE
  5
24D
100
AcDbEntity
  8
0
100
AcDbLine
 62
7
  6
CONTINUOUS
 10
17.2255621437
 20
-14.1228733498
 11
17.2255621437
 21
-11.7163216554
  0
LINE
  5
24E
100
AcDbEntity
  8
0
100
AcDbLine
 62
7
  6
CONTINUOUS
 10
17.2255621437
 20
-4.2823708923
 11
17.2255621437
 21
-1.8758191979
  0
LWPOLYLINE
  5
24F
100
AcDbEntity
  8
RACCORDO
100
AcDbPolyline
 62
250
  6
CONTINUOUS
 90
9
 70
0
 10
14.3481499895
 20
-27.205311863
 10
14.3442861209
 20
-27.2478292273
 10
14.3367002023
 20
-27.2875912195
 10
14.3254752019
 20
-27.3241629578
 10
14.3107338889
 20
-27.3571444525
 10
14.2926374909
 20
-27.386174981
 10
14.2713839303
 20
-27.4109370328
 10
14.2472056601
 20
-27.4311597823
 10
14.2236003101
 20
-27.4450819866
  0
LINE
  5
250
100
AcDbEntity
  8
RACCORDO
100
AcDbLine
 62
7
  6
CONTINUOUS
 10
-14.3406213625
 20
27.2506660088
 11
15.8732867958
 21
9.8055341075
  0
LINE
  5
251
100
AcDbEntity
  8
DRAFT
100
AcDbLine
 62
7
  6
CONTINUOUS
 10
17.2255621437
 20
-14.1228733498
 11
16.2264768492
 21
-25.3660530376
  0
LINE
  5
252
100
AcDbEntity
  8
0
100
AcDbLine
 62
7
  6
CONTINUOUS
 10
17.2255621437
 20
-11.7163216554
 11
17.1213787345
 21
-11.7631498155
  0
LWPOLYLINE
  5
253
100
AcDbEntity
  8
RACCORDO
100
AcDbPolyline
 62
250
  6
CONTINUOUS
 90
16
 70
0
 10
13.2905661099
 20
-17.9041214365
 10
13.2514680134
 20
-17.9242334029
 10
13.2091377769
 20
-17.9419137038
 10
13.1640238652
 20
-17.9569750265
 10
13.1166042345
 20
-17.969257805
 10
13.0673812686
 20
-17.9786319101
 10
13.016876457
 20
-17.9849980286
 10
12.9656248691
 20
-17.988288715
 10
12.9141694866
 20
-17.9884691065
 10
12.8630554496
 20
-17.9855372918
 10
12.8128242825
 20
-17.979524332
 10
12.7640081556
 20
-17.9704939307
 10
12.7171242482
 20
-17.9585417601
 10
12.6726692683
 20
-17.9437944466
 10
12.6311141913
 20
-17.9264082294
 10
12.5928992695
 20
-17.9065673058
  0
LWPOLYLINE
  5
254
100
AcDbEntity
  8
RACCORDO
100
AcDbPolyline
 62
250
  6
CONTINUOUS
 90
16
 70
0
 10
14.0084023164
 20
-27.0448098935
 10
13.9697095122
 20
-27.0701757868
 10
13.9277792648
 20
-27.0930534303
 10
13.8830559533
 20
-27.1132003652
 10
13.8360135579
 20
-27.1304030733
 10
13.7871506367
 20
-27.1444792393
 10
13.7369850417
 20
-27.1552796832
 10
13.6860484307
 20
-27.1626899412
 10
13.634880633
 20
-27.166631479
 10
13.5840239277
 20
-27.167062524
 10
13.5340172972
 20
-27.1639785078
 10
13.4853907146
 20
-27.1574121151
 10
13.4386595272
 20
-27.147432937
 10
13.3943189949
 20
-27.1341467334
 10
13.3528390412
 20
-27.1176943121
 10
13.314659273
 20
-27.098250037
  0
LINE
  5
255
100
AcDbEntity
  8
RACCORDO
100
AcDbLine
 62
250
  6
CONTINUOUS
 10
14.3481499895
 20
-27.205311863
 11
16.2264768492
 21
-26.2869019381
  0
LINE
  5
256
100
AcDbEntity
  8
RACCORDO
100
AcDbLine
 62
7
  6
CONTINUOUS
 10
14.2236003101
 20
-27.4450819866
 11
16.1128119573
 21
-26.5213499333
  0
ELLIPSE
  5
257
100
AcDbEntity
  8
RACCORDO
100
AcDbEllipse
 62
7
  6
CONTINUOUS
 10
-14.3401368298
 20
26.8415908675
 30
0.0
 11
-0.2500125069
 21
0.433896272
 31
0.0
 40
0.5765407173
 41
-0.7837355456
 42
0.0392270629
  0
ELLIPSE
  5
258
100
AcDbEntity
  8
0
100
AcDbEllipse
 62
7
  6
CONTINUOUS
 10
17.1529998413
 20
-4.7390669666
 30
0.0
 11
0.2600728777
 21
0.4271418247
 31
0.0
 40
0.5922410672
 41
0.8865065122
 42
2.3700363764
  0
ELLIPSE
  5
259
100
AcDbEntity
  8
RACCORDO
100
AcDbEllipse
 62
7
  6
CONTINUOUS
 10
15.8728022632
 20
9.3970184923
 30
0.0
 11
-0.2496682101
 21
0.4333034053
 31
0.0
 40
0.578122598
 41
-2.3545265006
 42
-0.7851001699
  0
ELLIPSE
  5
25A
100
AcDbEntity
  8
RACCORDO
100
AcDbEllipse
 62
7
  6
CONTINUOUS
 10
15.8728022632
 20
-26.0821346168
 30
0.0
 11
-0.2500125069
 21
0.433896272
 31
0.0
 40
0.5765407173
 41
-3.1808197092
 42
-2.3559018685
  0
ELLIPSE
  5
25B
100
AcDbEntity
  8
0
100
AcDbEllipse
 62
7
  6
CONTINUOUS
 10
17.1529998413
 20
-11.3391422904
 30
0.0
 11
0.2600728777
 21
0.4271418247
 31
0.0
 40
0.5922410672
 41
2.3700363764
 42
3.8535662406
  0
ENDSEC
  0
SECTION
  2
OBJECTS
  0
DICTIONARY
  5
C
100
AcDbDictionary
280
0
281
1
  3
ACAD_GROUP
350
D
  3
ACAD_MLINESTYLE
350
17
  3
ACAD_LAYOUT
350
1A
  3
ACAD_PLOTSETTINGS
350
19
  3
ACAD_PLOTSTYLENAME
350
E
  0
DICTIONARY
  5
D
102
{ACAD_REACTORS
330
C
102
}
100
AcDbDictionary
280
0
281
1
  0
ACDBDICTIONARYWDFLT
  5
E
102
{ACAD_REACTORS
330
C
102
}
100
AcDbDictionary
281
1
  3
Normal
350
F
100
AcDbDictionaryWithDefault
340
F
  0
DICTIONARY
  5
17
102
{ACAD_REACTORS
330
C
102
}
100
AcDbDictionary
280
0
281
1
  3
Standard
350
18
  0
DICTIONARY
  5
19
102
{ACAD_REACTORS
330
C
102
}
100
AcDbDictionary
281
1
  0
DICTIONARY
  5
1A
102
{ACAD_REACTORS
330
C
102
}
100
AcDbDictionary
281
1
  3
Model
350
25C
  3
Layout1
350
25D
  0
ACDBPLACEHOLDER
  5
F
102
{ACAD_REACTORS
330
E
102
}
  0
MLINESTYLE
  5
18
102
{ACAD_REACTORS
330
17
102
}
100
AcDbMlineStyle
  2
STANDARD
 70
0
  3

 62
256
 51
90.0
 52
90.0
 71
2
 49
0.5
 62
256
  6
BYLAYER
 49
-0.5
 62
256
  6
BYLAYER
  0
LAYOUT
  5
25C
102
{ACAD_REACTORS
330
1A
102
}
100
AcDbPlotSettings
  1

  2
none_device
  4
ISO_A4_(297.00_x_210.00_MM)
  6

 40
0.0
 41
0.0
 42
0.0
 43
0.0
 44
297.0
 45
210.0
 46
0.0
 47
0.0
 48
0.0
 49
0.0
140
0.0
141
0.0
142
1.0
143
1.0
 70
1024
 72
1
 73
0
 74
0
  7

 75
0
147
1.0
148
0.0
149
0.0
100
AcDbLayout
  1
Model
 70
0
 71
0
 10
0.0
 20
0.0
 11
297.0
 21
210.0
 12
0.0
 22
0.0
 32
0.0
 14
0.0
 24
0.0
 34
0.0
 15
0.0
 25
0.0
 35
0.0
146
0.0
 13
0.0
 23
0.0
 33
0.0
 16
1.0
 26
0.0
 36
0.0
 17
0.0
 27
1.0
 37
0.0
 76
0
330
215
345
0
346
0
  0
LAYOUT
  5
25D
102
{ACAD_REACTORS
330
1A
102
}
100
AcDbPlotSettings
  1

  2
none_device
  4
ISO_A4_(297.00_x_210.00_MM)
  6

 40
0.0
 41
0.0
 42
0.0
 43
0.0
 44
297.0
 45
210.0
 46
0.0
 47
0.0
 48
0.0
 49
0.0
140
0.0
141
0.0
142
1.0
143
1.0
 70
0
 72
1
 73
0
 74
0
  7

 75
0
147
1.0
148
0.0
149
0.0
100
AcDbLayout
  1
Layout1
 70
0
 71
1
 10
0.0
 20
0.0
 11
297.0
 21
210.0
 12
0.0
 22
0.0
 32
0.0
 14
0.0
 24
0.0
 34
0.0
 15
0.0
 25
0.0
 35
0.0
146
0.0
 13
0.0
 23
0.0
 33
0.0
 16
1.0
 26
0.0
 36
0.0
 17
0.0
 27
1.0
 37
0.0
 76
0
330
216
345
0
346
0
  0
ENDSEC
  0
EOF
