0
SECTION
2
HEADER
9
$ACADVER
1
AC1015
9
$DWGCODEPAGE
3
ANSI_1252
9
$EXTMAX
10
297.0000000000
20
210.0000000000
30
0.0000000000
9
$EXTMIN
10
0.0000000000
20
0.0000000000
30
0.0000000000
9
$LIMMIN
10
0.0000000000
20
0.0000000000
9
$LIMMAX
10
297.0000000000
20
210.0000000000
9
$VIEWCTR
10
148.5000000000
20
105.0000000000
9
$VIEWSIZE
40
210.0000000000
9
$CLAYER
8
0
9
$LTSCALE
40
16.3350000000
9
$CELTYPE
6
BYLAYER
9
$DIMSCALE
40
1
9
$DIMASZ
40
3.0000000000
9
$DIMEXO
40
1.8562500000
9
$DIMDLI
40
11.2860000000
9
$DIMEXE
40
5.3460000000
9
$DIMCEN
40
2.6730000000
9
$DIMLFAC
40
1.0000000000
9
$DIMBLK
1
_FILLED
9
$DIMTXT
40
3.0000000000
9
$DIMTOL
70
1
9
$DIMLIM
70
0
9
$DIMTFAC
40
1.0000000000
9
$DIMTP
40
0.0100000000
9
$DIMTM
40
0.0100000000
9
$PDMODE
70
3
9
$PDSIZE
40
3.0000000000
9
$HANDSEED
5
38D
9
$MEASUREMENT
70
1
9
$INSUNITS
70
4
0
ENDSEC
0
SECTION
2
CLASSES
0
CLASS
1
ACDBDICTIONARYWDFLT
2
AcDbDictionaryWithDefault
3
AutoCAD 2000
90
0
280
0
281
0
0
CLASS
1
ACDBPLACEHOLDER
2
AcDbPlaceHolder
3
AutoCAD 2000
90
0
280
0
281
0
0
CLASS
1
LAYOUT
2
AcDbLayout
3
AutoCAD 2000
90
0
280
0
281
0
0
ENDSEC
0
SECTION
2
TABLES
0
TABLE
2
VPORT
5
8
100
AcDbSymbolTable
70
2
0
VPORT
5
1F4
100
AcDbSymbolTableRecord
100
AcDbViewportTableRecord
2
*ACTIVE
70
0
10
0.0
20
0.0
11
1.0
21
1.0
12
148.5000000000
22
105.0000000000
13
0.0
23
0.0
14
1.0
24
1.0
15
0.0
25
0.0
16
0.0
26
0.0
36
1.0
17
0.0
27
0.0
37
0.0
40
210.0000000000
41
1.4142857143
42
50.0
43
0.0
44
0.0
50
0.0
51
0.0
71
0
72
100
73
1
74
1
75
0
76
0
77
0
78
0
0
ENDTAB
0
TABLE
2
LTYPE
5
5
100
AcDbSymbolTable
70
6
0
LTYPE
5
14
100
AcDbSymbolTableRecord
100
AcDbLinetypeTableRecord
2
BYBLOCK
70
0
3

72
65
73
0
40
0.0
0
LTYPE
5
15
100
AcDbSymbolTableRecord
100
AcDbLinetypeTableRecord
2
BYLAYER
70
0
3

72
65
73
0
40
0.0
0
LTYPE
5
16
100
AcDbSymbolTableRecord
100
AcDbLinetypeTableRecord
2
CONTINUOUS
70
64
3
Solid line
72
65
73
0
40
0
0
LTYPE
5
1F5
100
AcDbSymbolTableRecord
100
AcDbLinetypeTableRecord
2
CENTER
70
64
3
____ _ ____ _ ____ _ ____ _ ____ _ ____ _ ____
72
65
73
4
40
0.6
49
0.375
74
0
49
-0.075
74
0
49
0.075
74
0
49
-0.075
74
0
0
LTYPE
5
1F6
100
AcDbSymbolTableRecord
100
AcDbLinetypeTableRecord
2
HIDDEN
70
64
3
- - - - - - - - - - - - - - - - - - - -
72
65
73
2
40
0.2
49
0.1
74
0
49
-0.1
74
0
0
LTYPE
5
1F7
100
AcDbSymbolTableRecord
100
AcDbLinetypeTableRecord
2
PHANTOM
70
64
3
_____ _ _ _____ _ _ _____ _ _ _____
72
65
73
6
40
0.8
49
0.45
74
0
49
-0.05
74
0
49
0.1
74
0
49
-0.05
74
0
49
0.1
74
0
49
-0.05
74
0
0
LTYPE
5
1F8
100
AcDbSymbolTableRecord
100
AcDbLinetypeTableRecord
2
DOT
70
64
3
. . . . . . . . . . . . . . . . . . . .
72
65
73
2
40
0.2
49
0.1
74
0
49
-0.1
74
0
0
LTYPE
5
1F9
100
AcDbSymbolTableRecord
100
AcDbLinetypeTableRecord
2
DASHED
70
64
3
- - - - - - - - - - - - - - - - - - - -
72
65
73
2
40
0.2
49
0.1
74
0
49
-0.1
74
0
0
ENDTAB
0
TABLE
2
LAYER
5
2
100
AcDbSymbolTable
70
36
0
LAYER
5
10
100
AcDbSymbolTableRecord
100
AcDbLayerTableRecord
2
0
70
0
62
7
6
CONTINUOUS
370
-3
390
F
0
LAYER
5
1FA
100
AcDbSymbolTableRecord
100
AcDbLayerTableRecord
2
DEFAULT_1
70
0
62
7
6
CENTER
370
-3
390
F
0
LAYER
5
1FB
100
AcDbSymbolTableRecord
100
AcDbLayerTableRecord
2
DEFAULT_2
70
0
62
8
6
HIDDEN
370
-3
390
F
0
LAYER
5
1FC
100
AcDbSymbolTableRecord
100
AcDbLayerTableRecord
2
DEFAULT_3
70
0
62
7
6
PHANTOM
370
-3
390
F
0
LAYER
5
1FD
100
AcDbSymbolTableRecord
100
AcDbLayerTableRecord
2
ASSI
70
0
62
7
6
CONTINUOUS
370
-3
390
F
0
LAYER
5
1FE
100
AcDbSymbolTableRecord
100
AcDbLayerTableRecord
2
COORDINATE
70
0
62
7
6
CONTINUOUS
370
-3
390
F
0
LAYER
5
1FF
100
AcDbSymbolTableRecord
100
AcDbLayerTableRecord
2
COORD_ORIGINE
70
0
62
7
6
CONTINUOUS
370
-3
390
F
0
LAYER
5
200
100
AcDbSymbolTableRecord
100
AcDbLayerTableRecord
2
COSMETICI
70
0
62
7
6
CONTINUOUS
370
-3
390
F
0
LAYER
5
201
100
AcDbSymbolTableRecord
100
AcDbLayerTableRecord
2
CURVE
70
0
62
7
6
CONTINUOUS
370
-3
390
F
0
LAYER
5
202
100
AcDbSymbolTableRecord
100
AcDbLayerTableRecord
2
DRAFT
70
0
62
7
6
CONTINUOUS
370
-3
390
F
0
LAYER
5
203
100
AcDbSymbolTableRecord
100
AcDbLayerTableRecord
2
IGES
70
0
62
7
6
CONTINUOUS
370
-3
390
F
0
LAYER
5
204
100
AcDbSymbolTableRecord
100
AcDbLayerTableRecord
2
NOTE
70
0
62
7
6
CONTINUOUS
370
-3
390
F
0
LAYER
5
205
100
AcDbSymbolTableRecord
100
AcDbLayerTableRecord
2
PIANI
70
0
62
7
6
CONTINUOUS
370
-3
390
F
0
LAYER
5
206
100
AcDbSymbolTableRecord
100
AcDbLayerTableRecord
2
PIANI_ORIGINE
70
0
62
7
6
CONTINUOUS
370
-3
390
F
0
LAYER
5
207
100
AcDbSymbolTableRecord
100
AcDbLayerTableRecord
2
PIANO_SFORMI
70
0
62
7
6
CONTINUOUS
370
-3
390
F
0
LAYER
5
208
100
AcDbSymbolTableRecord
100
AcDbLayerTableRecord
2
PUNTI
70
0
62
7
6
CONTINUOUS
370
-3
390
F
0
LAYER
5
209
100
AcDbSymbolTableRecord
100
AcDbLayerTableRecord
2
RACCORDO
70
0
62
7
6
CONTINUOUS
370
-3
390
F
0
LAYER
5
20A
100
AcDbSymbolTableRecord
100
AcDbLayerTableRecord
2
TRASH
70
0
62
7
6
CONTINUOUS
370
-3
390
F
0
LAYER
5
20B
100
AcDbSymbolTableRecord
100
AcDbLayerTableRecord
2
XSEC_DATUMS
70
0
62
7
6
CONTINUOUS
370
-3
390
F
0
ENDTAB
0
TABLE
2
STYLE
5
3
100
AcDbSymbolTable
70
1
0
STYLE
5
11
100
AcDbSymbolTableRecord
100
AcDbTextStyleTableRecord
2
STANDARD
70
0
40
0.0
41
0.8000000000
50
0.0
71
0
42
0.2
3
txt
4

0
ENDTAB
0
TABLE
2
VIEW
5
6
100
AcDbSymbolTable
70
0
0
ENDTAB
0
TABLE
2
UCS
5
7
100
AcDbSymbolTable
70
0
0
ENDTAB
0
TABLE
2
APPID
5
9
100
AcDbSymbolTable
70
1
0
APPID
5
20C
100
AcDbSymbolTableRecord
100
AcDbRegAppTableRecord
2
ACAD
70
0
0
ENDTAB
0
TABLE
2
BLOCK_RECORD
5
1
100
AcDbSymbolTable
70
0
0
BLOCK_RECORD
5
1F
100
AcDbSymbolTableRecord
100
AcDbBlockTableRecord
2
*MODEL_SPACE
0
BLOCK_RECORD
5
1B
100
AcDbSymbolTableRecord
100
AcDbBlockTableRecord
2
*PAPER_SPACE
0
ENDTAB
0
TABLE
2
DIMSTYLE
5
A
100
AcDbSymbolTable
70
1
100
AcDbDimStyleTable
71
0
0
DIMSTYLE
105
20D
100
AcDbSymbolTableRecord
100
AcDbDimStyleTableRecord
2
STANDARD
70
0
3

4

40
1.0
41
3.0000000000
42
0.0625
43
0.38
44
0.18
45
0.0
46
0.0
47
0.0100000000
48
0.0100000000
140
3.0000000000
141
0.09
142
0.0
143
25.4
144
1.0000000000
145
0.0
146
1.0000000000
147
0.09
71
1
72
0
73
0
74
0
75
0
76
0
77
1
78
8
170
0
171
2
172
0
173
0
174
0
175
0
176
0
177
0
178
0
270
2
271
2
272
2
273
2
274
2
275
0
280
0
281
0
282
0
283
1
284
8
285
0
286
0
287
3
288
0
340
11
0
ENDTAB
0
ENDSEC
0
SECTION
2
BLOCKS
0
BLOCK
5
20
100
AcDbEntity
8
0
100
AcDbBlockBegin
2
*MODEL_SPACE
70
0
10
0.0
20
0.0
30
0.0
3
*MODEL_SPACE
1

0
ENDBLK
5
21
100
AcDbEntity
8
0
100
AcDbBlockEnd
0
BLOCK
5
1C
100
AcDbEntity
8
0
100
AcDbBlockBegin
2
*PAPER_SPACE
70
0
10
0.0
20
0.0
30
0.0
3
*PAPER_SPACE
1

0
ENDBLK
5
1D
100
AcDbEntity
8
0
100
AcDbBlockEnd
0
ENDSEC
0
SECTION
2
ENTITIES
0
LWPOLYLINE
5
20E
100
AcDbEntity
8
0
100
AcDbPolyline
62
7
6
CONTINUOUS
90
60
70
0
10
1.5326557817
20
-24.6214124384
10
1.5052881880
20
-24.6287771425
10
1.4799953378
20
-24.6350412157
10
1.4545319236
20
-24.6408435691
10
1.4289182522
20
-24.6461893009
10
1.4031900736
20
-24.6510804917
10
1.3773514616
20
-24.6555253192
10
1.3513762869
20
-24.6595350606
10
1.3252667012
20
-24.6631140979
10
1.2990569141
20
-24.6662620521
10
1.2727695128
20
-24.6689806585
10
1.2464345885
20
-24.6712712868
10
1.2200585157
20
-24.6731375152
10
1.1936289846
20
-24.6745829993
10
1.1671547586
20
-24.6756087986
10
1.1406623950
20
-24.6762151312
10
1.1141664657
20
-24.6764027645
10
1.0876901614
20
-24.6761724134
10
1.0612454023
20
-24.6755247822
10
1.0348298576
20
-24.6744595331
10
1.0084570137
20
-24.6729760807
10
0.9821484175
20
-24.6710742184
10
0.9559135039
20
-24.6687528147
10
0.9297764897
20
-24.6660118590
10
0.9037481032
20
-24.6628500023
10
0.8778170949
20
-24.6592621715
10
0.8519851524
20
-24.6552433660
10
0.8262868879
20
-24.6507933233
10
0.8007589933
20
-24.6459132453
10
0.7754457616
20
-24.6406072479
10
0.7503373481
20
-24.6348684534
10
0.7253884631
20
-24.6286785840
10
0.7005704237
20
-24.6220186221
10
0.6759526537
20
-24.6148945154
10
0.6516331347
20
-24.6073251997
10
0.6276714848
20
-24.5993231354
10
0.6040395571
20
-24.5908721052
10
0.5806992185
20
-24.5819472787
10
0.5576173310
20
-24.5725196201
10
0.5348678004
20
-24.5626016543
10
0.5125660076
20
-24.5522310048
10
0.4907237042
20
-24.5414034463
10
0.4693563185
20
-24.5301157442
10
0.4485677971
20
-24.5184154588
10
0.4283700509
20
-24.5063059369
10
0.4087646404
20
-24.4937837224
10
0.3898245779
20
-24.4808938416
10
0.3715149735
20
-24.4676117925
10
0.3538768298
20
-24.4539656180
10
0.3370736706
20
-24.4400946049
10
0.3211546860
20
-24.4260704149
10
0.3060375600
20
-24.4118520431
10
0.2916768412
20
-24.3974199181
10
0.2780406958
20
-24.3827598802
10
0.2651463002
20
-24.3679085705
10
0.2530230932
20
-24.3529260613
10
0.2416688130
20
-24.3378432312
10
0.2310590017
20
-24.3226627530
10
0.2211856423
20
-24.3074092040
10
0.2136968734
20
-24.2948824775
0
LWPOLYLINE
5
20F
100
AcDbEntity
8
0
100
AcDbPolyline
62
7
6
CONTINUOUS
90
30
70
0
10
-19.2512449860
20
22.0256172728
10
-19.2594046900
20
22.0211070574
10
-19.2674032924
20
22.0162877271
10
-19.2752262086
20
22.0111663036
10
-19.2828488314
20
22.0057583703
10
-19.2902685059
20
22.0000656968
10
-19.2975016052
20
21.9940723681
10
-19.3045538114
20
21.9877656963
10
-19.3113870864
20
21.9811719130
10
-19.3179540597
20
21.9743352370
10
-19.3242120302
20
21.9673071214
10
-19.3301873329
20
21.9600657577
10
-19.3359322142
20
21.9525429380
10
-19.3414640874
20
21.9446959390
10
-19.3467271678
20
21.9365834887
10
-19.3516640067
20
21.9282886175
10
-19.3562397892
20
21.9198808818
10
-19.3604807839
20
21.9113244118
10
-19.3644208424
20
21.9025442531
10
-19.3680718348
20
21.8934829484
10
-19.3713869417
20
21.8842236827
10
-19.3743174995
20
21.8749019685
10
-19.3768421998
20
21.8656293407
10
-19.3789954851
20
21.8563288338
10
-19.3808094003
20
21.8468522219
10
-19.3822842903
20
21.8370997906
10
-19.3833819560
20
21.8272020863
10
-19.3840802868
20
21.8173526185
10
-19.3843871317
20
21.8076513331
10
-19.3844057524
20
21.8046022016
0
LINE
5
210
100
AcDbEntity
8
0
100
AcDbLine
62
7
6
CONTINUOUS
10
-15.9708254293
20
23.7597888327
11
-19.2512449860
21
22.0256172728
0
LINE
5
211
100
AcDbEntity
8
0
100
AcDbLine
62
9
6
CONTINUOUS
10
-15.9708254293
20
23.6935476782
11
-19.1359484006
21
22.0203268765
0
LINE
5
212
100
AcDbEntity
8
0
100
AcDbLine
62
9
6
CONTINUOUS
10
-14.2306906219
20
24.1394767684
11
-14.3366321583
21
24.0883234921
0
LINE
5
213
100
AcDbEntity
8
0
100
AcDbLine
62
7
6
CONTINUOUS
10
-13.4022468134
20
22.6823819276
11
-10.9504179434
21
23.9785246382
0
LINE
5
214
100
AcDbEntity
8
0
100
AcDbLine
62
7
6
CONTINUOUS
10
-9.7823567793
20
24.5960122541
11
-6.6812066625
21
26.2354142399
0
LINE
5
215
100
AcDbEntity
8
0
100
AcDbLine
62
7
6
CONTINUOUS
10
-13.0857909697
20
23.8732738504
11
-16.3653530211
21
22.1416498465
0
LINE
5
216
100
AcDbEntity
8
0
100
AcDbLine
62
7
6
CONTINUOUS
10
-10.5972137622
20
24.3369740163
11
-10.2336456296
21
24.5187580826
0
LINE
5
217
100
AcDbEntity
8
0
100
AcDbLine
62
7
6
CONTINUOUS
10
-13.1668473925
20
23.9138020618
11
-14.3366321583
21
23.3366896698
0
LINE
5
218
100
AcDbEntity
8
0
100
AcDbLine
62
7
6
CONTINUOUS
10
-6.2046325398
20
26.6462013066
11
-15.8543640434
21
21.8855138773
0
LINE
5
219
100
AcDbEntity
8
0
100
AcDbLine
62
7
6
CONTINUOUS
10
-4.2599099868
20
-22.3368758798
11
-1.8574098043
21
-21.6867745331
0
LINE
5
21A
100
AcDbEntity
8
0
100
AcDbLine
62
9
6
CONTINUOUS
10
-4.1515453785
20
-22.1854721745
11
-1.7740664827
21
-21.5421414298
0
LWPOLYLINE
5
21B
100
AcDbEntity
8
0
100
AcDbPolyline
62
7
6
CONTINUOUS
90
27
70
0
10
-13.4023921019
20
22.6822614542
10
-13.4201888881
20
22.6670342112
10
-13.4371300633
20
22.6516002981
10
-13.4532321566
20
22.6359706787
10
-13.4685046256
20
22.6201634970
10
-13.4829703349
20
22.6041831611
10
-13.4966608272
20
22.5880211166
10
-13.5095862111
20
22.5716908375
10
-13.5217568006
20
22.5552060910
10
-13.5331958926
20
22.5385615799
10
-13.5439089623
20
22.5217754373
10
-13.5539032060
20
22.5048647992
10
-13.5631972964
20
22.4878263891
10
-13.5717946747
20
22.4706826781
10
-13.5797010437
20
22.4534546496
10
-13.5869326887
20
22.4361396543
10
-13.5934922247
20
22.4187657737
10
-13.5993865482
20
22.4013545961
10
-13.6046329247
20
22.3838947123
10
-13.6092344088
20
22.3664170049
10
-13.6131985668
20
22.3489424603
10
-13.6165423576
20
22.3314432642
10
-13.6192694830
20
22.3139446566
10
-13.6213853028
20
22.2964715537
10
-13.6229006187
20
22.2789927951
10
-13.6238181611
20
22.2615325559
10
-13.6241428608
20
22.2432609249
0
LWPOLYLINE
5
21C
100
AcDbEntity
8
0
100
AcDbPolyline
62
7
6
CONTINUOUS
90
46
70
0
10
-21.4019793675
20
16.8187572565
10
-21.4173337877
20
16.8072083509
10
-21.4375875615
20
16.7912782868
10
-21.4575543853
20
16.7747778513
10
-21.4772274377
20
16.7577225772
10
-21.4965997988
20
16.7401282501
10
-21.5156617935
20
16.7220126444
10
-21.5344068042
20
16.7033910427
10
-21.5528273679
20
16.6842791031
10
-21.5709111635
20
16.6646974018
10
-21.5886510859
20
16.6446618534
10
-21.6060400306
20
16.6241877148
10
-21.6230654332
20
16.6032970645
10
-21.6397196754
20
16.5820067299
10
-21.6559961173
20
16.5603316581
10
-21.6718837162
20
16.5382933912
10
-21.6873734349
20
16.5159111174
10
-21.7024603916
20
16.4931978495
10
-21.7171395006
20
16.4701669732
10
-21.7314030377
20
16.4468351383
10
-21.7452444112
20
16.4232174651
10
-21.7586592851
20
16.3993250415
10
-21.7716401067
20
16.3751735569
10
-21.7841797065
20
16.3507787462
10
-21.7962731353
20
16.3261513361
10
-21.8079127125
20
16.3013068664
10
-21.8190910471
20
16.2762610198
10
-21.8298025821
20
16.2510242221
10
-21.8400397364
20
16.2256114839
10
-21.8497945816
20
16.2000388723
10
-21.8590605286
20
16.1743178840
10
-21.8678304059
20
16.1484619217
10
-21.8760953539
20
16.1224885683
10
-21.8838467280
20
16.0964150053
10
-21.8910769139
20
16.0702561266
10
-21.8977775439
20
16.0440280616
10
-21.9039400453
20
16.0177488928
10
-21.9095566195
20
15.9914338157
10
-21.9146190286
20
15.9650984146
10
-21.9191190879
20
15.9387601098
10
-21.9230486267
20
15.9124347799
10
-21.9263994585
20
15.8861372014
10
-21.9291635462
20
15.8598811436
10
-21.9313322341
20
15.8336805572
10
-21.9328968107
20
15.8075527526
10
-21.9336509849
20
15.7885809923
0
LINE
5
21D
100
AcDbEntity
8
0
100
AcDbLine
62
7
6
CONTINUOUS
10
-21.4019810523
20
16.8187560629
11
-19.0856298644
21
18.5271975748
0
LINE
5
21E
100
AcDbEntity
8
0
100
AcDbLine
62
9
6
CONTINUOUS
10
-21.2842850121
20
16.8154294913
11
-18.9612505231
21
18.5288003201
0
LINE
5
21F
100
AcDbEntity
8
0
100
AcDbLine
62
7
6
CONTINUOUS
10
-3.7570664729
20
24.7733441451
11
-4.0028116823
21
24.6456073861
0
LINE
5
220
100
AcDbEntity
8
0
100
AcDbLine
62
7
6
CONTINUOUS
10
-12.2843091593
20
22.1234131005
11
-10.5768447108
21
22.9657893399
0
LINE
5
221
100
AcDbEntity
8
0
100
AcDbLine
62
7
6
CONTINUOUS
10
-6.6178148647
20
24.9189735931
11
-5.5767556158
21
25.4325793528
0
LINE
5
222
100
AcDbEntity
8
0
100
AcDbLine
62
7
6
CONTINUOUS
10
-7.5207068216
20
23.8240135052
11
-7.9472415281
21
23.6135829441
0
LINE
5
223
100
AcDbEntity
8
0
100
AcDbLine
62
7
6
CONTINUOUS
10
-9.9229769216
20
22.6388554454
11
-12.2843091593
21
21.4738940476
0
LINE
5
224
100
AcDbEntity
8
0
100
AcDbLine
62
7
6
CONTINUOUS
10
-2.2425358489
20
-25.3493708420
11
-19.2462091514
21
-16.8475341908
0
LINE
5
225
100
AcDbEntity
8
0
100
AcDbLine
62
9
6
CONTINUOUS
10
-2.3075091453
20
-25.2141523919
11
-19.3111824478
21
-16.7123157407
0
LWPOLYLINE
5
226
100
AcDbEntity
8
0
100
AcDbPolyline
62
7
6
CONTINUOUS
90
32
70
0
10
-19.2462082126
20
-16.8475346601
10
-19.2483877673
20
-16.8464315510
10
-19.2565037893
20
-16.8420834596
10
-19.2644551588
20
-16.8374388726
10
-19.2722404629
20
-16.8324977471
10
-19.2798519169
20
-16.8272631087
10
-19.2872743930
20
-16.8217434155
10
-19.2944952573
20
-16.8159465338
10
-19.3015025768
20
-16.8098807509
10
-19.3082872543
20
-16.8035526232
10
-19.3148412036
20
-16.7969679894
10
-19.3211545837
20
-16.7901347155
10
-19.3272172783
20
-16.7830616618
10
-19.3330208387
20
-16.7757564006
10
-19.3385564039
20
-16.7682274676
10
-19.3438143673
20
-16.7604851905
10
-19.3487855763
20
-16.7525403439
10
-19.3534612452
20
-16.7444043250
10
-19.3578340746
20
-16.7360870331
10
-19.3618975499
20
-16.7275974568
10
-19.3656448843
20
-16.7189456224
10
-19.3690685015
20
-16.7101445273
10
-19.3721612923
20
-16.7012080715
10
-19.3749173519
20
-16.6921488746
10
-19.3773313844
20
-16.6829793814
10
-19.3793982379
20
-16.6737137575
10
-19.3811135516
20
-16.6643657643
10
-19.3824737005
20
-16.6549482434
10
-19.3834754807
20
-16.6454743293
10
-19.3841162506
20
-16.6359551584
10
-19.3843934522
20
-16.6264073060
10
-19.3844057525
20
-16.6239258047
0
LINE
5
227
100
AcDbEntity
8
0
100
AcDbLine
62
7
6
CONTINUOUS
10
-9.8193963029
20
20.9726655393
11
-9.4153117210
21
21.1827060726
0
LINE
5
228
100
AcDbEntity
8
0
100
AcDbLine
62
7
6
CONTINUOUS
10
-6.0464026641
20
22.9338430538
11
-5.4104189689
21
23.2644232355
0
LWPOLYLINE
5
229
100
AcDbEntity
8
0
100
AcDbPolyline
62
7
6
CONTINUOUS
90
24
70
0
10
-4.6846139292
20
-22.3021443394
10
-4.6743922229
20
-22.3071226220
10
-4.6577706955
20
-22.3146626340
10
-4.6408555497
20
-22.3216584705
10
-4.6236559360
20
-22.3281021336
10
-4.6061721984
20
-22.3339884737
10
-4.5884171006
20
-22.3393074827
10
-4.5704048264
20
-22.3440495428
10
-4.5521369300
20
-22.3482087979
10
-4.5336273828
20
-22.3517760772
10
-4.5148895638
20
-22.3547428528
10
-4.4959229022
20
-22.3571029439
10
-4.4767407814
20
-22.3588480355
10
-4.4573566757
20
-22.3599702143
10
-4.4377686205
20
-22.3604622147
10
-4.4179892332
20
-22.3603160843
10
-4.3980318729
20
-22.3595243220
10
-4.3778940975
20
-22.3580783543
10
-4.3575884845
20
-22.3559700870
10
-4.3371265820
20
-22.3531919012
10
-4.3165025937
20
-22.3497330649
10
-4.2957222333
20
-22.3455834569
10
-4.2748045635
20
-22.3407361942
10
-4.2599136311
20
-22.3368768354
0
LINE
5
22A
100
AcDbEntity
8
0
100
AcDbLine
62
7
6
CONTINUOUS
10
-4.6845753930
20
-22.3021637253
11
-21.6044681243
21
-13.8422173597
0
LINE
5
22B
100
AcDbEntity
8
0
100
AcDbLine
62
7
6
CONTINUOUS
10
-4.6846151001
20
-22.3021438695
11
-4.6845798825
21
-22.3021614806
0
LINE
5
22C
100
AcDbEntity
8
0
100
AcDbLine
62
9
6
CONTINUOUS
10
-4.9473178159
20
-21.7934772258
11
-21.8604113276
21
-13.3369304700
0
LINE
5
22D
100
AcDbEntity
8
0
100
AcDbLine
62
7
6
CONTINUOUS
10
-2.9207995086
20
-21.9745210581
11
-2.3075091453
21
-22.2811662398
0
LINE
5
22E
100
AcDbEntity
8
0
100
AcDbLine
62
7
6
CONTINUOUS
10
-2.4619930022
20
-21.8503709208
11
-1.7740664827
21
-22.1943341805
0
LINE
5
22F
100
AcDbEntity
8
0
100
AcDbLine
62
9
6
CONTINUOUS
10
5.4718612024
20
-14.8998918670
11
3.2620791491
21
-15.2926700056
0
LINE
5
230
100
AcDbEntity
8
0
100
AcDbLine
62
9
6
CONTINUOUS
10
5.3127898782
20
-14.5163486810
11
3.2620791491
21
-14.8808526563
0
LINE
5
231
100
AcDbEntity
8
0
100
AcDbLine
62
9
6
CONTINUOUS
10
3.2620791491
20
-14.8178816460
11
5.2543490859
21
-14.4871282848
0
LINE
5
232
100
AcDbEntity
8
0
100
AcDbLine
62
7
6
CONTINUOUS
10
3.2620791491
20
-14.7830671904
11
5.1503122731
21
-14.4695858490
0
LINE
5
233
100
AcDbEntity
8
0
100
AcDbLine
62
9
6
CONTINUOUS
10
-0.1950107081
20
-22.7402768634
11
-0.6722334414
21
-22.5016654968
0
LWPOLYLINE
5
234
100
AcDbEntity
8
0
100
AcDbPolyline
62
7
6
CONTINUOUS
90
36
70
0
10
-21.9336427270
20
-13.2481147717
10
-21.9328899311
20
-13.2663697179
10
-21.9313574920
20
-13.2907896764
10
-21.9292319745
20
-13.3149365253
10
-21.9265112867
20
-13.3388122677
10
-21.9231963250
20
-13.3623923907
10
-21.9192938568
20
-13.3856257728
10
-21.9148062275
20
-13.4085042328
10
-21.9097361312
20
-13.4310177371
10
-21.9040968840
20
-13.4531155050
10
-21.8978940307
20
-13.4747903521
10
-21.8911334931
20
-13.4960341595
10
-21.8838358826
20
-13.5167981081
10
-21.8760106225
20
-13.5370760522
10
-21.8676672656
20
-13.5568621460
10
-21.8588339088
20
-13.5761112582
10
-21.8495293921
20
-13.5948087991
10
-21.8397626982
20
-13.6129618644
10
-21.8295520281
20
-13.6305592700
10
-21.8189181387
20
-13.6475884970
10
-21.8078714333
20
-13.6640556263
10
-21.7964146931
20
-13.6799750011
10
-21.7845626180
20
-13.6953418108
10
-21.7723306050
20
-13.7101517367
10
-21.7597207491
20
-13.7244158293
10
-21.7467482829
20
-13.7381282630
10
-21.7334284343
20
-13.7512842045
10
-21.7197620927
20
-13.7638928160
10
-21.7057650686
20
-13.7759478966
10
-21.6914527482
20
-13.7874443474
10
-21.6768242170
20
-13.7983898610
10
-21.6618950566
20
-13.8087786645
10
-21.6466814937
20
-13.8186052690
10
-21.6311823833
20
-13.8278749404
10
-21.6154076793
20
-13.8365850726
10
-21.6044221256
20
-13.8422402406
0
LWPOLYLINE
5
235
100
AcDbEntity
8
0
100
AcDbPolyline
62
7
6
CONTINUOUS
90
28
70
0
10
-21.9336509455
20
15.7885830038
10
-21.9662673541
20
14.7024082927
10
-21.9965540596
20
13.6112300530
10
-22.0243178042
20
12.5212497447
10
-22.0495582939
20
11.4324778403
10
-22.0722753201
20
10.3449234049
10
-22.0924686978
20
9.2585949074
10
-22.1101382431
20
8.1735010626
10
-22.1252837954
20
7.0896514722
10
-22.1379052036
20
6.0070559349
10
-22.1480023354
20
4.9257238513
10
-22.1555751056
20
3.8456643796
10
-22.1606234384
20
2.7668869525
10
-22.1631472711
20
1.6894007748
10
-22.1631465838
20
0.6132150557
10
-22.1606213679
20
-0.4616607669
10
-22.1555716261
20
-1.5352174928
10
-22.1479974040
20
-2.6074459758
10
-22.1378987599
20
-3.6783368610
10
-22.1252757618
20
-4.7478810694
10
-22.1101285249
20
-5.8160693290
10
-22.0924571825
20
-6.8828919977
10
-22.0722618783
20
-7.9483396319
10
-22.0495427785
20
-9.0124036971
10
-22.0243000508
20
-10.0750759155
10
-21.9965338860
20
-11.1363474337
10
-21.9662445609
20
-12.1962080733
10
-21.9336427294
20
-13.2481159185
0
LINE
5
236
100
AcDbEntity
8
0
100
AcDbLine
62
7
6
CONTINUOUS
10
1.6174245375
20
21.8354892762
11
1.8675975885
21
21.9610121144
0
LINE
5
237
100
AcDbEntity
8
0
100
AcDbLine
62
7
6
CONTINUOUS
10
-0.6328140822
20
20.0569263999
11
-2.3240644223
21
19.2083516160
0
LINE
5
238
100
AcDbEntity
8
0
100
AcDbLine
62
7
6
CONTINUOUS
10
-2.6923744939
20
19.0235542315
11
-4.3039634096
21
18.2149490927
0
LINE
5
239
100
AcDbEntity
8
0
100
AcDbLine
62
9
6
CONTINUOUS
10
-4.2091918003
20
19.6238536214
11
-4.0510825370
21
19.7029082531
0
LINE
5
23A
100
AcDbEntity
8
0
100
AcDbLine
62
7
6
CONTINUOUS
10
-2.1119323879
20
20.0943333291
11
-1.7483642553
21
20.2761173954
0
LINE
5
23B
100
AcDbEntity
8
0
100
AcDbLine
62
3
6
CONTINUOUS
10
-2.1119323879
20
19.7479231676
11
-1.7483642553
21
19.9297072339
0
LINE
5
23C
100
AcDbEntity
8
0
100
AcDbLine
62
9
6
CONTINUOUS
10
-2.3240644223
20
19.3820495293
11
-2.6069071348
21
19.2406281731
0
LINE
5
23D
100
AcDbEntity
8
0
100
AcDbLine
62
7
6
CONTINUOUS
10
-2.3240644223
20
19.1222419082
11
-2.6069071348
21
18.9808205519
0
LINE
5
23E
100
AcDbEntity
8
0
100
AcDbLine
62
7
6
CONTINUOUS
10
1.8562801164
20
-20.8784133597
11
2.1759430072
21
-21.0382448051
0
LINE
5
23F
100
AcDbEntity
8
0
100
AcDbLine
62
9
6
CONTINUOUS
10
3.1964046260
20
-21.4599112828
11
2.2761459171
21
-20.9997819283
0
LINE
5
240
100
AcDbEntity
8
0
100
AcDbLine
62
7
6
CONTINUOUS
10
3.2356344162
20
-21.4601586123
11
2.3126068841
21
-20.9986448462
0
LINE
5
241
100
AcDbEntity
8
0
100
AcDbLine
62
7
6
CONTINUOUS
10
-19.3844057525
20
-16.6239273930
11
-19.3844057525
21
-14.9522485456
0
LINE
5
242
100
AcDbEntity
8
0
100
AcDbLine
62
7
6
CONTINUOUS
10
-19.3844057525
20
18.8716139414
11
-19.3844057525
21
21.8046000935
0
LINE
5
243
100
AcDbEntity
8
0
100
AcDbLine
62
9
6
CONTINUOUS
10
-19.3111824478
20
-16.7123157407
11
-19.3111824478
21
-14.9888601980
0
LINE
5
244
100
AcDbEntity
8
0
100
AcDbLine
62
9
6
CONTINUOUS
10
-19.3111824478
20
18.7832255937
11
-19.3111824478
21
21.7162117459
0
LINE
5
245
100
AcDbEntity
8
0
100
AcDbLine
62
7
6
CONTINUOUS
10
-3.2860406924
20
17.6242788671
11
3.1913684710
21
21.0485173095
0
LINE
5
246
100
AcDbEntity
8
0
100
AcDbLine
62
7
6
CONTINUOUS
10
-2.1681030383
20
17.0653100400
11
4.7917377782
21
20.4989420195
0
LINE
5
247
100
AcDbEntity
8
0
100
AcDbLine
62
7
6
CONTINUOUS
10
6.0990254528
20
20.4943723103
11
-2.1681030383
21
16.4157909871
0
LINE
5
248
100
AcDbEntity
8
0
100
AcDbLine
62
7
6
CONTINUOUS
10
-19.1375183292
20
18.4889268636
11
-19.1375183292
21
18.6963935345
0
LWPOLYLINE
5
249
100
AcDbEntity
8
0
100
AcDbPolyline
62
7
6
CONTINUOUS
90
27
70
0
10
-3.2861859809
20
17.6241583937
10
-3.3039827671
20
17.6089311507
10
-3.3209239423
20
17.5934972376
10
-3.3370260356
20
17.5778676182
10
-3.3522985046
20
17.5620604365
10
-3.3667642139
20
17.5460801006
10
-3.3804547062
20
17.5299180561
10
-3.3933800901
20
17.5135877770
10
-3.4055506796
20
17.4971030305
10
-3.4169897716
20
17.4804585194
10
-3.4277028413
20
17.4636723769
10
-3.4376970850
20
17.4467617388
10
-3.4469911754
20
17.4297233286
10
-3.4555885537
20
17.4125796176
10
-3.4634949227
20
17.3953515891
10
-3.4707265678
20
17.3780365938
10
-3.4772861037
20
17.3606627132
10
-3.4831804272
20
17.3432515356
10
-3.4884268038
20
17.3257916518
10
-3.4930282878
20
17.3083139444
10
-3.4969924458
20
17.2908393998
10
-3.5003362366
20
17.2733402037
10
-3.5030633621
20
17.2558415961
10
-3.5051791818
20
17.2383684932
10
-3.5066944977
20
17.2208897347
10
-3.5076120401
20
17.2034294954
10
-3.5079367399
20
17.1851578644
0
LINE
5
24A
100
AcDbEntity
8
0
100
AcDbLine
62
7
6
CONTINUOUS
10
-2.4337530300
20
15.1752083706
11
0.1953383638
21
16.5650597127
0
LINE
5
24B
100
AcDbEntity
8
0
100
AcDbLine
62
7
6
CONTINUOUS
10
0.5558647639
20
16.7556495500
11
6.8848843630
21
20.1014428552
0
LINE
5
24C
100
AcDbEntity
8
0
100
AcDbLine
62
7
6
CONTINUOUS
10
1.4704470716
20
16.5951548297
11
1.4357231023
21
16.5780030833
0
LINE
5
24D
100
AcDbEntity
8
0
100
AcDbLine
62
7
6
CONTINUOUS
10
0.1512091818
20
15.9435232845
11
-1.9214946592
21
14.9197206655
0
LINE
5
24E
100
AcDbEntity
8
0
100
AcDbLine
62
9
6
CONTINUOUS
10
1.8913439892
20
16.0784594629
11
1.7854024528
21
16.0273061866
0
LINE
5
24F
100
AcDbEntity
8
0
100
AcDbLine
62
7
6
CONTINUOUS
10
-15.9708254293
20
24.4351604363
11
-15.9708254293
21
23.6785044852
0
LWPOLYLINE
5
250
100
AcDbEntity
8
0
100
AcDbPolyline
62
7
6
CONTINUOUS
90
29
70
0
10
-15.9708254293
20
24.4351604363
10
-15.9705525221
20
24.4504533452
10
-15.9697310100
20
24.4657752852
10
-15.9683572802
20
24.4811105793
10
-15.9664299837
20
24.4964331490
10
-15.9639463354
20
24.5117375548
10
-15.9608983445
20
24.5270389572
10
-15.9572825623
20
24.5423196853
10
-15.9530955154
20
24.5575656566
10
-15.9483227896
20
24.5727971703
10
-15.9429579910
20
24.5879997150
10
-15.9369964833
20
24.6031556089
10
-15.9304195805
20
24.6182801661
10
-15.9232190182
20
24.6333585154
10
-15.9153882992
20
24.6483732452
10
-15.9069046747
20
24.6633359673
10
-15.8977556558
20
24.6782350045
10
-15.8879343842
20
24.6930499119
10
-15.8774207130
20
24.7077800599
10
-15.8661995775
20
24.7224149310
10
-15.8542633406
20
24.7369342891
10
-15.8415991282
20
24.7513251503
10
-15.8281800186
20
24.7655886909
10
-15.8140073315
20
24.7796949825
10
-15.7991130719
20
24.7935899773
10
-15.7834760178
20
24.8072745239
10
-15.7670995106
20
24.8207269240
10
-15.7500645574
20
24.8338696248
10
-15.7477241754
20
24.8356126507
0
LINE
5
251
100
AcDbEntity
8
0
100
AcDbLine
62
7
6
CONTINUOUS
10
7.0523170435
20
18.8043143607
11
2.2773378171
21
16.2800539633
0
LINE
5
252
100
AcDbEntity
8
0
100
AcDbLine
62
7
6
CONTINUOUS
10
6.9846358560
20
18.6876150088
11
2.2885848567
21
16.2744304434
0
LINE
5
253
100
AcDbEntity
8
0
100
AcDbLine
62
9
6
CONTINUOUS
10
-2.1322750981
20
13.5184902253
11
1.1457977208
21
15.1357248660
0
LINE
5
254
100
AcDbEntity
8
0
100
AcDbLine
62
9
6
CONTINUOUS
10
-1.9570678574
20
13.2128459672
11
1.7854024528
21
15.0591907441
0
LWPOLYLINE
5
255
100
AcDbEntity
8
0
100
AcDbPolyline
62
7
6
CONTINUOUS
90
21
70
0
10
5.5201900310
20
-14.5215438418
10
5.5042915257
20
-14.5139002176
10
5.4873608415
20
-14.5064146526
10
5.4701513975
20
-14.4994674680
10
5.4526725478
20
-14.4930661239
10
5.4349242126
20
-14.4872151808
10
5.4169202562
20
-14.4819243429
10
5.3986748269
20
-14.4772023085
10
5.3801871957
20
-14.4730539675
10
5.3614710580
20
-14.4694881782
10
5.3425409219
20
-14.4665133116
10
5.3233961195
20
-14.4641350172
10
5.3040501122
20
-14.4623613041
10
5.2845174770
20
-14.4611998436
10
5.2647976776
20
-14.4606574597
10
5.2449041942
20
-14.4607416156
10
5.2248500736
20
-14.4614593266
10
5.2046322833
20
-14.4628186231
10
5.1842583117
20
-14.4648276244
10
5.1637474809
20
-14.4674926987
10
5.1503192134
20
-14.4695847494
0
LINE
5
256
100
AcDbEntity
8
0
100
AcDbLine
62
9
6
CONTINUOUS
10
4.4972123774
20
-14.5780124139
11
3.9110303530
21
-14.2849214017
0
LINE
5
257
100
AcDbEntity
8
0
100
AcDbLine
62
7
6
CONTINUOUS
10
4.5525871961
20
-14.5688191780
11
4.1168604209
21
-14.3509557904
0
LINE
5
258
100
AcDbEntity
8
0
100
AcDbLine
62
9
6
CONTINUOUS
10
5.2543490859
20
-14.4871282848
11
5.3127898782
21
-14.5163486810
0
LINE
5
259
100
AcDbEntity
8
0
100
AcDbLine
62
7
6
CONTINUOUS
10
5.5201626168
20
-14.5215300672
11
5.5753781345
21
-14.5491378260
0
LINE
5
25A
100
AcDbEntity
8
0
100
AcDbLine
62
7
6
CONTINUOUS
10
5.5201638957
20
-14.5215307066
11
5.5201925121
21
-14.5215450163
0
LINE
5
25B
100
AcDbEntity
8
0
100
AcDbLine
62
9
6
CONTINUOUS
10
-14.3366321583
20
24.0883234921
11
-14.3366321583
21
23.3366896698
0
LINE
5
25C
100
AcDbEntity
8
0
100
AcDbLine
62
7
6
CONTINUOUS
10
-13.6241428609
20
22.2432670437
11
-13.6241428609
21
21.7541397515
0
LINE
5
25D
100
AcDbEntity
8
0
100
AcDbLine
62
7
6
CONTINUOUS
10
-12.8275144690
20
23.3788077285
11
-12.8016080976
21
23.8195269206
0
LINE
5
25E
100
AcDbEntity
8
0
100
AcDbLine
62
9
6
CONTINUOUS
10
-8.6949471068
20
24.0684121224
11
-8.7116321403
21
23.9971774221
0
LINE
5
25F
100
AcDbEntity
8
0
100
AcDbLine
62
7
6
CONTINUOUS
10
-0.1950107081
20
12.4390401209
11
3.1964046260
21
14.4337262591
0
LINE
5
260
100
AcDbEntity
8
0
100
AcDbLine
62
7
6
CONTINUOUS
10
-1.9570678574
20
10.2798598151
11
-1.7740664827
21
10.3682210018
0
LINE
5
261
100
AcDbEntity
8
0
100
AcDbLine
62
7
6
CONTINUOUS
10
1.9862547958
20
13.0477843347
11
-0.6572726830
21
11.7991417200
0
LINE
5
262
100
AcDbEntity
8
0
100
AcDbLine
62
7
6
CONTINUOUS
10
2.9054936114
20
12.5881649269
11
-0.1520621701
21
11.1439603645
0
LINE
5
263
100
AcDbEntity
8
0
100
AcDbLine
62
9
6
CONTINUOUS
10
-12.2843091593
20
22.1234131005
11
-12.2843091593
21
21.4738940476
0
LINE
5
264
100
AcDbEntity
8
0
100
AcDbLine
62
9
6
CONTINUOUS
10
-6.7447014221
20
24.2674469195
11
-6.8321046270
21
23.8942896756
0
LINE
5
265
100
AcDbEntity
8
0
100
AcDbLine
62
9
6
CONTINUOUS
10
-6.4687803635
20
24.2104627791
11
-6.5561835684
21
23.8373055352
0
LWPOLYLINE
5
266
100
AcDbEntity
8
0
100
AcDbPolyline
62
7
6
CONTINUOUS
90
42
70
0
10
5.4508234799
20
17.1763825622
10
5.4661789615
20
17.1895206411
10
5.4862297462
20
17.2074185710
10
5.5059242943
20
17.2258469570
10
5.5252566741
20
17.2447888412
10
5.5442214536
20
17.2642276120
10
5.5628107042
20
17.2841448876
10
5.5810189612
20
17.3045246814
10
5.5988398066
20
17.3253505809
10
5.6162624256
20
17.3466013501
10
5.6332806464
20
17.3682604889
10
5.6498883608
20
17.3903124764
10
5.6660747362
20
17.4127352324
10
5.6818324312
20
17.4355108303
10
5.6971561879
20
17.4586251657
10
5.7120383253
20
17.4820600721
10
5.7264707969
20
17.5057970467
10
5.7404486914
20
17.5298229915
10
5.7539684261
20
17.5541273394
10
5.7670227438
20
17.5786944771
10
5.7796048352
20
17.6035092724
10
5.7917104619
20
17.6285623253
10
5.8033319303
20
17.6538386329
10
5.8144618116
20
17.6793230418
10
5.8250947926
20
17.7050067148
10
5.8352228354
20
17.7308752216
10
5.8448376672
20
17.7569132575
10
5.8539325712
20
17.7831115768
10
5.8625001207
20
17.8094594758
10
5.8705299079
20
17.8359382249
10
5.8780111179
20
17.8625275216
10
5.8849356910
20
17.8892153051
10
5.8912935431
20
17.9159841733
10
5.8970728587
20
17.9428071992
10
5.9022650872
20
17.9696701474
10
5.9068609530
20
17.9965580889
10
5.9108498746
20
18.0234448843
10
5.9142230360
20
18.0503155093
10
5.9169713782
20
18.0771560841
10
5.9190852166
20
18.1039448688
10
5.9205551317
20
18.1306660721
10
5.9208711544
20
18.1409726151
0
LINE
5
267
100
AcDbEntity
8
0
100
AcDbLine
62
9
6
CONTINUOUS
10
5.4718612024
20
17.3009745769
11
3.2620791491
21
15.4450621612
0
LINE
5
268
100
AcDbEntity
8
0
100
AcDbLine
62
7
6
CONTINUOUS
10
5.4508251326
20
17.1763839172
11
3.2620791491
21
15.3381389014
0
LINE
5
269
100
AcDbEntity
8
0
100
AcDbLine
62
7
6
CONTINUOUS
10
-0.1776081338
20
12.4492755744
11
-0.4187098411
21
12.2467833642
0
LINE
5
26A
100
AcDbEntity
8
0
100
AcDbLine
62
9
6
CONTINUOUS
10
-1.9503342887
20
10.0233422029
11
-4.3559069221
21
8.3512404463
0
LINE
5
26B
100
AcDbEntity
8
0
100
AcDbLine
62
9
6
CONTINUOUS
10
-1.7740664827
20
9.7160282510
11
-4.1515453785
21
8.0634543138
0
LINE
5
26C
100
AcDbEntity
8
0
100
AcDbLine
62
7
6
CONTINUOUS
10
-11.0921885090
20
23.2234612391
11
-11.0921885090
21
23.4832688602
0
LINE
5
26D
100
AcDbEntity
8
0
100
AcDbLine
62
9
6
CONTINUOUS
10
-4.4181706981
20
23.1851579464
11
-4.4386019576
21
23.0979291943
0
LINE
5
26E
100
AcDbEntity
8
0
100
AcDbLine
62
9
6
CONTINUOUS
10
-4.6644384541
20
22.0531577960
11
-4.6811234875
21
21.9819230957
0
LINE
5
26F
100
AcDbEntity
8
0
100
AcDbLine
62
7
6
CONTINUOUS
10
-9.4899038435
20
22.2642096430
11
-9.3858749163
21
20.7559048461
0
LINE
5
270
100
AcDbEntity
8
0
100
AcDbLine
62
9
6
CONTINUOUS
10
-2.7141927694
20
22.2521925931
11
-2.8015959743
21
21.8790353492
0
LINE
5
271
100
AcDbEntity
8
0
100
AcDbLine
62
9
6
CONTINUOUS
10
-2.4382717107
20
22.1952084527
11
-2.5256749156
21
21.8220512089
0
LINE
5
272
100
AcDbEntity
8
0
100
AcDbLine
62
7
6
CONTINUOUS
10
-5.5767556158
20
25.0252202153
11
-5.5767556158
21
25.4325793528
0
LINE
5
273
100
AcDbEntity
8
0
100
AcDbLine
62
7
6
CONTINUOUS
10
-4.3132207275
20
18.2195777516
11
-4.2091918003
21
19.6238536214
0
LINE
5
274
100
AcDbEntity
8
0
100
AcDbLine
62
3
6
CONTINUOUS
10
-4.0310535608
20
18.3518799837
11
-3.9352593213
21
19.6449966452
0
LINE
5
275
100
AcDbEntity
8
0
100
AcDbLine
62
9
6
CONTINUOUS
10
-1.6828118517
20
19.9497675457
11
-1.5954086468
21
20.3229247896
0
LINE
5
276
100
AcDbEntity
8
0
100
AcDbLine
62
9
6
CONTINUOUS
10
-0.3876620453
20
21.1699036200
11
-0.4080933048
21
21.0826748679
0
LINE
5
277
100
AcDbEntity
8
0
100
AcDbLine
62
7
6
CONTINUOUS
10
-4.0028116823
20
24.3233918626
11
-4.0028116823
21
24.6456073861
0
LINE
5
278
100
AcDbEntity
8
0
100
AcDbLine
62
7
6
CONTINUOUS
10
-3.5079367399
20
17.1851639832
11
-3.5079367399
21
16.6960366910
0
LINE
5
279
100
AcDbEntity
8
0
100
AcDbLine
62
9
6
CONTINUOUS
10
-3.4200799331
20
21.3500021466
11
-3.4200799331
21
21.6365838054
0
LINE
5
27A
100
AcDbEntity
8
0
100
AcDbLine
62
9
6
CONTINUOUS
10
1.5934565594
20
21.6062341306
11
1.5767715260
21
21.5349994304
0
LINE
5
27B
100
AcDbEntity
8
0
100
AcDbLine
62
9
6
CONTINUOUS
10
-2.6650475256
20
24.3645126201
11
-2.6650475256
21
24.7839607988
0
LINE
5
27C
100
AcDbEntity
8
0
100
AcDbLine
62
7
6
CONTINUOUS
10
-2.6069071348
20
18.9808205519
11
-2.6069071348
21
19.2406281731
0
LINE
5
27D
100
AcDbEntity
8
0
100
AcDbLine
62
7
6
CONTINUOUS
10
-2.3784393252
20
24.3941245465
11
-2.3784393252
21
24.7951550554
0
LINE
5
27E
100
AcDbEntity
8
0
100
AcDbLine
62
3
6
CONTINUOUS
10
-2.3240644223
20
19.1222419082
11
-2.3240644223
21
19.3820495293
0
LINE
5
27F
100
AcDbEntity
8
0
100
AcDbLine
62
9
6
CONTINUOUS
10
-2.3075091453
20
13.2143750946
11
-2.3075091453
21
10.2813889425
0
LINE
5
280
100
AcDbEntity
8
0
100
AcDbLine
62
9
6
CONTINUOUS
10
-2.3075091453
20
-22.2811662398
11
-2.3075091453
21
-25.2141523919
0
LINE
5
281
100
AcDbEntity
8
0
100
AcDbLine
62
9
6
CONTINUOUS
10
-2.1681030383
20
17.0653100400
11
-2.1681030383
21
16.4157909871
0
LINE
5
282
100
AcDbEntity
8
0
100
AcDbLine
62
9
6
CONTINUOUS
10
-2.1119323879
20
19.7479231676
11
-2.1119323879
21
20.0943333291
0
LINE
5
283
100
AcDbEntity
8
0
100
AcDbLine
62
9
6
CONTINUOUS
10
-1.9570678574
20
13.2128459672
11
-1.9570678574
21
10.2798598151
0
LINE
5
284
100
AcDbEntity
8
0
100
AcDbLine
62
9
6
CONTINUOUS
10
-1.9570678574
20
-22.2826953672
11
-1.9570678574
21
-25.2156815193
0
LINE
5
285
100
AcDbEntity
8
0
100
AcDbLine
62
7
6
CONTINUOUS
10
-1.7740664827
20
10.3682210018
11
-1.7740664827
21
9.7160282510
0
LINE
5
286
100
AcDbEntity
8
0
100
AcDbLine
62
7
6
CONTINUOUS
10
-1.7740664827
20
-21.5421414298
11
-1.7740664827
21
-22.1943341805
0
LINE
5
287
100
AcDbEntity
8
0
100
AcDbLine
62
9
6
CONTINUOUS
10
-1.7483642553
20
19.9297072339
11
-1.7483642553
21
20.2761173954
0
LINE
5
288
100
AcDbEntity
8
0
100
AcDbLine
62
7
6
CONTINUOUS
10
0.1512091818
20
16.3741431308
11
0.1512091818
21
15.6174872227
0
LWPOLYLINE
5
289
100
AcDbEntity
8
0
100
AcDbPolyline
62
7
6
CONTINUOUS
90
29
70
0
10
0.1512091818
20
16.3741431308
10
0.1514820889
20
16.3894360397
10
0.1523036011
20
16.4047579797
10
0.1536773308
20
16.4200932738
10
0.1556046274
20
16.4354158434
10
0.1580882756
20
16.4507202492
10
0.1611362665
20
16.4660216517
10
0.1647520488
20
16.4813023798
10
0.1689390956
20
16.4965483510
10
0.1737118215
20
16.5117798648
10
0.1790766200
20
16.5269824094
10
0.1850381277
20
16.5421383033
10
0.1916150306
20
16.5572628606
10
0.1988155928
20
16.5723412099
10
0.2066463118
20
16.5873559396
10
0.2151299363
20
16.6023186618
10
0.2242789552
20
16.6172176990
10
0.2341002268
20
16.6320326064
10
0.2446138981
20
16.6467627544
10
0.2558350336
20
16.6613976255
10
0.2677712705
20
16.6759169836
10
0.2804354828
20
16.6903078448
10
0.2938545924
20
16.7045713854
10
0.3080272795
20
16.7186776769
10
0.3229215391
20
16.7325726718
10
0.3385585932
20
16.7462572184
10
0.3549351005
20
16.7597096185
10
0.3719700537
20
16.7728523193
10
0.3743104356
20
16.7745953452
0
LINE
5
28A
100
AcDbEntity
8
0
100
AcDbLine
62
9
6
CONTINUOUS
10
-4.9473178159
20
7.2444710487
11
-21.8604113276
21
15.7010178046
0
LINE
5
28B
100
AcDbEntity
8
0
100
AcDbLine
62
7
6
CONTINUOUS
10
1.6174245375
20
21.5132737527
11
1.6174245375
21
21.8354892762
0
LINE
5
28C
100
AcDbEntity
8
0
100
AcDbLine
62
9
6
CONTINUOUS
10
1.7854024528
20
16.0273061866
11
1.7854024528
21
15.0591907441
0
LINE
5
28D
100
AcDbEntity
8
0
100
AcDbLine
62
9
6
CONTINUOUS
10
1.7854024528
20
-23.4479647277
11
1.7854024528
21
-24.4160801701
0
LINE
5
28E
100
AcDbEntity
8
0
100
AcDbLine
62
9
6
CONTINUOUS
10
-4.3559069221
20
8.3512404463
11
-21.2842850121
21
16.8154294913
0
LINE
5
28F
100
AcDbEntity
8
0
100
AcDbLine
62
7
6
CONTINUOUS
10
3.2620791491
20
15.7876832973
11
3.2620791491
21
14.5517098256
0
LINE
5
290
100
AcDbEntity
8
0
100
AcDbLine
62
7
6
CONTINUOUS
10
3.2620791491
20
12.3273440383
11
3.2620791491
21
-19.2901079122
0
LINE
5
291
100
AcDbEntity
8
0
100
AcDbLine
62
7
6
CONTINUOUS
10
3.2620791491
20
-21.5144736994
11
3.2620791491
21
-22.7504471711
0
LINE
5
292
100
AcDbEntity
8
0
100
AcDbLine
62
7
6
CONTINUOUS
10
-18.9612505231
20
18.5288003201
11
-1.9503342887
21
10.0233422029
0
LINE
5
293
100
AcDbEntity
8
0
100
AcDbLine
62
7
6
CONTINUOUS
10
-19.3111824478
20
18.7832255937
11
-2.3075091453
21
10.2813889425
0
LWPOLYLINE
5
294
100
AcDbEntity
8
0
100
AcDbPolyline
62
7
6
CONTINUOUS
90
36
70
0
10
5.9215503090
20
-15.1952848532
10
5.9213720190
20
-15.1760151397
10
5.9205491357
20
-15.1498310053
10
5.9190553774
20
-15.1238896120
10
5.9168858134
20
-15.0981789509
10
5.9140393132
20
-15.0727370546
10
5.9105245871
20
-15.0476515242
10
5.9063455637
20
-15.0229363469
10
5.9015048057
20
-14.9985975448
10
5.8960197815
20
-14.9747064737
10
5.8899001389
20
-14.9512770635
10
5.8831526126
20
-14.9283116175
10
5.8757993672
20
-14.9058605157
10
5.8678531604
20
-14.8839325004
10
5.8593254766
20
-14.8625324717
10
5.8502443755
20
-14.8417026882
10
5.8406315270
20
-14.8214597900
10
5.8304983899
20
-14.8017972378
10
5.8198624827
20
-14.7827221297
10
5.8087440385
20
-14.7642440852
10
5.7971586815
20
-14.7463634540
10
5.7851179349
20
-14.7290756480
10
5.7726444154
20
-14.7123920051
10
5.7597530063
20
-14.6963113998
10
5.7464419992
20
-14.6808147615
10
5.7327299101
20
-14.6659097949
10
5.7186343690
20
-14.6516016234
10
5.7041493555
20
-14.6378726829
10
5.6892900951
20
-14.6247289153
10
5.6740765557
20
-14.6121795704
10
5.6585077147
20
-14.6002163221
10
5.6426002447
20
-14.5888460760
10
5.6263735199
20
-14.5780768254
10
5.6098292756
20
-14.5679048754
10
5.5929801082
20
-14.5583341061
10
5.5753335264
20
-14.5491155904
0
LINE
5
295
100
AcDbEntity
8
0
100
AcDbLine
62
9
6
CONTINUOUS
10
5.8355254681
20
18.0971155759
11
5.8355254681
21
18.0715697122
0
LINE
5
296
100
AcDbEntity
8
0
100
AcDbLine
62
9
6
CONTINUOUS
10
5.8355254681
20
-16.6255999296
11
5.8355254681
21
-15.3004195570
0
LINE
5
297
100
AcDbEntity
8
0
100
AcDbLine
62
7
6
CONTINUOUS
10
5.9215503333
20
-16.5837680129
11
5.9215503333
21
-15.1952831673
0
LINE
5
298
100
AcDbEntity
8
0
100
AcDbLine
62
9
6
CONTINUOUS
10
-0.1520621701
20
11.1439603645
11
-0.6827931141
21
11.4093258365
0
LINE
5
299
100
AcDbEntity
8
0
100
AcDbLine
62
9
6
CONTINUOUS
10
-2.3075091453
20
13.2143750946
11
-19.3111824478
21
21.7162117459
0
LINE
5
29A
100
AcDbEntity
8
0
100
AcDbLine
62
9
6
CONTINUOUS
10
-2.1322750981
20
13.5184902253
11
-19.1359484006
21
22.0203268765
0
LINE
5
29B
100
AcDbEntity
8
0
100
AcDbLine
62
9
6
CONTINUOUS
10
7.0523170435
20
-18.8236012465
11
7.0523170435
21
-17.5241601338
0
LINE
5
29C
100
AcDbEntity
8
0
100
AcDbLine
62
9
6
CONTINUOUS
10
7.0523170435
20
18.8043143607
11
7.0523170435
21
20.1037554733
0
LINE
5
29D
100
AcDbEntity
8
0
100
AcDbLine
62
7
6
CONTINUOUS
10
7.1926471433
20
-18.4101341199
11
7.1926471433
21
-17.3531006777
0
LINE
5
29E
100
AcDbEntity
8
0
100
AcDbLine
62
7
6
CONTINUOUS
10
7.1926471433
20
18.9805840898
11
7.1926471433
21
20.0376175320
0
LINE
5
29F
100
AcDbEntity
8
0
100
AcDbLine
62
9
6
CONTINUOUS
10
1.9862547958
20
13.0477843347
11
2.9054936114
21
12.5881649269
0
LINE
5
2A0
100
AcDbEntity
8
0
100
AcDbLine
62
7
6
CONTINUOUS
10
2.2106242085
20
13.0585351124
11
3.1298630241
21
12.5989157046
0
LINE
5
2A1
100
AcDbEntity
8
0
100
AcDbLine
62
7
6
CONTINUOUS
10
1.5515034943
20
16.5546266184
11
0.5241620295
21
16.7620504427
0
LINE
5
2A2
100
AcDbEntity
8
0
100
AcDbLine
62
7
6
CONTINUOUS
10
3.2620791491
20
15.7876832973
11
1.8913439892
21
16.0784594629
0
LINE
5
2A3
100
AcDbEntity
8
0
100
AcDbLine
62
7
6
CONTINUOUS
10
1.4704470716
20
16.5951548297
11
1.7895182223
21
16.5239637607
0
LINE
5
2A4
100
AcDbEntity
8
0
100
AcDbLine
62
7
6
CONTINUOUS
10
-4.3039634096
20
18.2149490927
11
-9.8193963029
21
20.9726655393
0
LINE
5
2A5
100
AcDbEntity
8
0
100
AcDbLine
62
7
6
CONTINUOUS
10
1.3591109744
20
16.2548961033
11
0.4440226086
21
16.7124402862
0
LINE
5
2A6
100
AcDbEntity
8
0
100
AcDbLine
62
7
6
CONTINUOUS
10
-14.7629236366
20
24.3159134088
11
-15.6780120025
21
24.7734575918
0
LINE
5
2A7
100
AcDbEntity
8
0
100
AcDbLine
62
3
6
CONTINUOUS
10
-1.6828118517
20
19.9497675457
11
1.7817868953
21
20.3033515654
0
LINE
5
2A8
100
AcDbEntity
8
0
100
AcDbLine
62
7
6
CONTINUOUS
10
-1.5954086468
20
20.3229247896
11
2.6356273537
21
20.7547285353
0
LINE
5
2A9
100
AcDbEntity
8
0
100
AcDbLine
62
7
6
CONTINUOUS
10
-0.3807403914
20
21.0854664042
11
-2.3309860761
21
20.8864316071
0
LINE
5
2AA
100
AcDbEntity
8
0
100
AcDbLine
62
7
6
CONTINUOUS
10
1.6174245375
20
21.6086802130
11
1.5934565594
21
21.6062341306
0
LINE
5
2AB
100
AcDbEntity
8
0
100
AcDbLine
62
7
6
CONTINUOUS
10
6.8848843630
20
20.1014428552
11
7.0460357302
21
20.1037224047
0
LINE
5
2AC
100
AcDbEntity
8
0
100
AcDbLine
62
7
6
CONTINUOUS
10
6.0990254528
20
20.4943723103
11
4.7917377782
21
20.4989420195
0
LINE
5
2AD
100
AcDbEntity
8
0
100
AcDbLine
62
7
6
CONTINUOUS
10
-13.1668473925
20
23.9138020618
11
-13.0857909697
21
23.8732738504
0
LINE
5
2AE
100
AcDbEntity
8
0
100
AcDbLine
62
7
6
CONTINUOUS
10
1.4704470716
20
16.5951548297
11
1.5515034943
21
16.5546266184
0
LINE
5
2AF
100
AcDbEntity
8
0
100
AcDbLine
62
7
6
CONTINUOUS
10
-14.2741690244
20
24.5558073840
11
-12.8016080976
21
23.8195269206
0
LINE
5
2B0
100
AcDbEntity
8
0
100
AcDbLine
62
7
6
CONTINUOUS
10
1.7895182223
20
16.5239637607
11
3.2620791491
21
15.7876832973
0
LINE
5
2B1
100
AcDbEntity
8
0
100
AcDbLine
62
7
6
CONTINUOUS
10
-2.6069071348
20
18.9808205519
11
-4.0683085951
21
19.7115212821
0
LINE
5
2B2
100
AcDbEntity
8
0
100
AcDbLine
62
7
6
CONTINUOUS
10
-9.6307870487
20
22.4927605089
11
-11.0921885090
21
23.2234612391
0
LINE
5
2B3
100
AcDbEntity
8
0
100
AcDbLine
62
9
6
CONTINUOUS
10
-2.6069071348
20
19.2406281731
11
-11.0921885090
21
23.4832688602
0
LINE
5
2B4
100
AcDbEntity
8
0
100
AcDbLine
62
9
6
CONTINUOUS
10
-2.1119323879
20
20.0943333291
11
-10.5972137622
21
24.3369740163
0
LINE
5
2B5
100
AcDbEntity
8
0
100
AcDbLine
62
9
6
CONTINUOUS
10
-1.7483642553
20
20.2761173954
11
-10.2336456296
21
24.5187580826
0
LINE
5
2B6
100
AcDbEntity
8
0
100
AcDbLine
62
7
6
CONTINUOUS
10
6.4032714650
20
-16.3495180874
11
3.2620791491
21
-17.8770077852
0
LINE
5
2B7
100
AcDbEntity
8
0
100
AcDbLine
62
3
6
CONTINUOUS
10
-4.1939495233
20
21.7369369417
11
-2.8015959743
21
21.8790353492
0
LINE
5
2B8
100
AcDbEntity
8
0
100
AcDbLine
62
7
6
CONTINUOUS
10
-4.6644384541
20
22.0531577960
11
-2.7141927694
21
22.2521925931
0
LINE
5
2B9
100
AcDbEntity
8
0
100
AcDbLine
62
7
6
CONTINUOUS
10
-4.4112490442
20
23.1007207305
11
-6.3614947289
21
22.9016859334
0
LINE
5
2BA
100
AcDbEntity
8
0
100
AcDbLine
62
7
6
CONTINUOUS
10
1.8675975885
20
21.9610121144
11
2.9792925528
21
21.9617907595
0
LINE
5
2BB
100
AcDbEntity
8
0
100
AcDbLine
62
7
6
CONTINUOUS
10
-13.0857909697
20
23.8732738504
11
-12.8016080976
21
23.8195269206
0
LINE
5
2BC
100
AcDbEntity
8
0
100
AcDbLine
62
7
6
CONTINUOUS
10
-14.2741690244
20
24.5558073840
11
-15.5978725815
21
24.8230677482
0
LINE
5
2BD
100
AcDbEntity
8
0
100
AcDbLine
62
7
6
CONTINUOUS
10
-13.1668473925
20
23.9138020618
11
-14.2306906219
21
24.1394767684
0
LINE
5
2BE
100
AcDbEntity
8
0
100
AcDbLine
62
9
6
CONTINUOUS
10
-1.5954086468
20
20.3229247896
11
-10.0806900210
21
24.5655654767
0
LINE
5
2BF
100
AcDbEntity
8
0
100
AcDbLine
62
7
6
CONTINUOUS
10
-0.7929205311
20
19.9765939429
11
-0.8992105801
21
20.0297389674
0
LINE
5
2C0
100
AcDbEntity
8
0
100
AcDbLine
62
7
6
CONTINUOUS
10
-2.6069071348
20
20.9434157474
11
-4.6575168002
21
21.9687205802
0
LINE
5
2C1
100
AcDbEntity
8
0
100
AcDbLine
62
7
6
CONTINUOUS
10
-6.6374157875
20
22.9586700738
11
-8.6880254530
21
23.9839749066
0
LINE
5
2C2
100
AcDbEntity
8
0
100
AcDbLine
62
3
6
CONTINUOUS
10
-1.9894810032
20
20.9212843405
11
-3.4200799331
21
21.6365838054
0
LINE
5
2C3
100
AcDbEntity
8
0
100
AcDbLine
62
3
6
CONTINUOUS
10
-6.5561835684
20
23.8373055352
11
-4.9691411799
21
23.0437843410
0
LINE
5
2C4
100
AcDbEntity
8
0
100
AcDbLine
62
3
6
CONTINUOUS
10
-2.5256749156
20
21.8220512089
11
-0.9386325271
21
21.0285300146
0
LINE
5
2C5
100
AcDbEntity
8
0
100
AcDbLine
62
7
6
CONTINUOUS
10
-6.4687803635
20
24.2104627791
11
-4.4181706981
21
23.1851579464
0
LINE
5
2C6
100
AcDbEntity
8
0
100
AcDbLine
62
7
6
CONTINUOUS
10
-2.4382717107
20
22.1952084527
11
-0.3876620453
21
21.1699036200
0
LINE
5
2C7
100
AcDbEntity
8
0
100
AcDbLine
62
7
6
CONTINUOUS
10
1.8913439892
20
-24.3649268939
11
3.2620791491
21
-22.7504471711
0
LINE
5
2C8
100
AcDbEntity
8
0
100
AcDbLine
62
7
6
CONTINUOUS
10
6.8848843630
20
-18.9946702446
11
7.0460357302
21
-18.8300726682
0
LINE
5
2C9
100
AcDbEntity
8
0
100
AcDbLine
62
7
6
CONTINUOUS
10
3.2379260709
20
-19.4576256855
11
7.0523170435
21
-17.5241601338
0
LINE
5
2CA
100
AcDbEntity
8
0
100
AcDbLine
62
7
6
CONTINUOUS
10
6.8848843630
20
-18.9946702446
11
2.6241153345
21
-21.1543990714
0
LINE
5
2CB
100
AcDbEntity
8
0
100
AcDbLine
62
7
6
CONTINUOUS
10
2.9054936114
20
-19.8952794518
11
-0.1520621701
21
-21.4037221860
0
LINE
5
2CC
100
AcDbEntity
8
0
100
AcDbLine
62
7
6
CONTINUOUS
10
-1.7740664827
20
-22.1943341805
11
-1.9570678574
21
-22.2826953672
0
LINE
5
2CD
100
AcDbEntity
8
0
100
AcDbLine
62
7
6
CONTINUOUS
10
1.8562801164
20
-20.8784133597
11
-0.6573756362
21
-22.0671794445
0
LINE
5
2CE
100
AcDbEntity
8
0
100
AcDbLine
62
7
6
CONTINUOUS
10
2.0581655283
20
-21.0829713453
11
-0.6690975504
21
-22.1125986340
0
LINE
5
2CF
100
AcDbEntity
8
0
100
AcDbLine
62
3
6
CONTINUOUS
10
-8.2244581760
20
23.7521912681
11
-6.8321046270
21
23.8942896756
0
LINE
5
2D0
100
AcDbEntity
8
0
100
AcDbLine
62
7
6
CONTINUOUS
10
-2.3748945847
20
24.3941245465
11
-3.7098442995
21
24.2578845601
0
LINE
5
2D1
100
AcDbEntity
8
0
100
AcDbLine
62
7
6
CONTINUOUS
10
-8.6949471068
20
24.0684121224
11
-6.7447014221
21
24.2674469195
0
LINE
5
2D2
100
AcDbEntity
8
0
100
AcDbLine
62
7
6
CONTINUOUS
10
-10.0806900210
20
24.5655654767
11
-5.4353342595
21
25.0396531512
0
LINE
5
2D3
100
AcDbEntity
8
0
100
AcDbLine
62
7
6
CONTINUOUS
10
-3.7570664729
20
24.7733441451
11
-2.6650475256
21
24.7839607988
0
LINE
5
2D4
100
AcDbEntity
8
0
100
AcDbLine
62
9
6
CONTINUOUS
10
4.0422184513
20
21.6056310441
11
3.3757301948
21
21.8901002926
0
LINE
5
2D5
100
AcDbEntity
8
0
100
AcDbLine
62
7
6
CONTINUOUS
10
4.1443541661
20
21.5930867926
11
3.4934667529
21
21.8708973189
0
LWPOLYLINE
5
2D6
100
AcDbEntity
8
0
100
AcDbPolyline
62
7
6
CONTINUOUS
90
6
70
0
10
4.1443541661
20
21.5930867926
10
4.1518521701
20
21.5898411460
10
4.1593729473
20
21.5864936841
10
4.1669179205
20
21.5830416299
10
4.1744857608
20
21.5794833587
10
4.1820798372
20
21.5758149204
0
LINE
5
2D7
100
AcDbEntity
8
0
100
AcDbLine
62
7
6
CONTINUOUS
10
-5.4353342595
20
25.0396531512
11
-3.9857653581
21
24.3148687005
0
LINE
5
2D8
100
AcDbEntity
8
0
100
AcDbLine
62
7
6
CONTINUOUS
10
2.8781252424
20
20.8829234002
11
1.6003782133
21
21.5217969148
0
LINE
5
2D9
100
AcDbEntity
8
0
100
AcDbLine
62
7
6
CONTINUOUS
10
-5.5767556158
20
25.4325793528
11
-4.0028116823
21
24.6456073861
0
LINE
5
2DA
100
AcDbEntity
8
0
100
AcDbLine
62
7
6
CONTINUOUS
10
1.6174245375
20
21.8354892762
11
3.1913684710
21
21.0485173095
0
LINE
5
2DB
100
AcDbEntity
8
0
100
AcDbLine
62
7
6
CONTINUOUS
10
-6.6812066625
20
26.2354142399
11
-3.7570664729
21
24.7733441451
0
LINE
5
2DC
100
AcDbEntity
8
0
100
AcDbLine
62
7
6
CONTINUOUS
10
1.8675975885
20
21.9610121144
11
4.7917377782
21
20.4989420195
0
LINE
5
2DD
100
AcDbEntity
8
0
100
AcDbLine
62
9
6
CONTINUOUS
10
2.4904577613
20
21.9614483735
11
-2.3748945847
21
24.3941245465
0
LINE
5
2DE
100
AcDbEntity
8
0
100
AcDbLine
62
7
6
CONTINUOUS
10
-2.1690595598
20
24.3595052197
11
2.6268630527
21
21.9615439135
0
LINE
5
2DF
100
AcDbEntity
8
0
100
AcDbLine
62
7
6
CONTINUOUS
10
-6.2046325398
20
26.6462013066
11
-5.4187736297
21
26.2532718516
0
LINE
5
2E0
100
AcDbEntity
8
0
100
AcDbLine
62
7
6
CONTINUOUS
10
6.0990254528
20
20.4943723103
11
6.8848843630
21
20.1014428552
0
LINE
5
2E1
100
AcDbEntity
8
0
100
AcDbLine
62
9
6
CONTINUOUS
10
3.3757301948
20
21.8901002926
11
3.2780020472
21
21.9389643664
0
LINE
5
2E2
100
AcDbEntity
8
0
100
AcDbLine
62
9
6
CONTINUOUS
10
-2.4628242030
20
24.8093774915
11
-2.5605523506
21
24.8582415653
0
LINE
5
2E3
100
AcDbEntity
8
0
100
AcDbLine
62
9
6
CONTINUOUS
10
-6.0377554140
20
26.6456179768
11
-3.0339381351
21
25.1437093373
0
LINE
5
2E4
100
AcDbEntity
8
0
100
AcDbLine
62
9
6
CONTINUOUS
10
4.0422184513
20
21.6056310441
11
7.0460357302
21
20.1037224047
0
LINE
5
2E5
100
AcDbEntity
8
0
100
AcDbLine
62
7
6
CONTINUOUS
10
4.1820798372
20
21.5758149204
11
7.1601178552
21
20.0868272255
0
LINE
5
2E6
100
AcDbEntity
8
0
100
AcDbLine
62
7
6
CONTINUOUS
10
-2.3945378720
20
24.8153802003
11
-2.3926871711
21
24.8143662297
0
LWPOLYLINE
5
2E7
100
AcDbEntity
8
0
100
AcDbPolyline
62
7
6
CONTINUOUS
90
14
70
0
10
-2.8364187697
20
25.0826731154
10
-2.8404192749
20
25.0850405542
10
-2.8443896270
20
25.0873592742
10
-2.8483311097
20
25.0896310156
10
-2.8522656607
20
25.0918691258
10
-2.8561993001
20
25.0940774024
10
-2.8601123560
20
25.0962453163
10
-2.8640288495
20
25.0983866314
10
-2.8679616083
20
25.1005084077
10
-2.8718764416
20
25.1025924706
10
-2.8757946164
20
25.1046505456
10
-2.8797359397
20
25.1066929980
10
-2.8836627115
20
25.1087004377
10
-5.8601152022
20
26.5969437542
0
LINE
5
2E8
100
AcDbEntity
8
0
100
AcDbLine
62
9
6
CONTINUOUS
10
-2.5605523506
20
24.8582415653
11
-3.0339381351
21
25.1437093373
0
LINE
5
2E9
100
AcDbEntity
8
0
100
AcDbLine
62
7
6
CONTINUOUS
10
-2.3923620753
20
24.8149053299
11
-2.8364187697
21
25.0826731154
0
LINE
5
2EA
100
AcDbEntity
8
0
100
AcDbLine
62
9
6
CONTINUOUS
10
1.7854024528
20
-23.4479647277
11
-1.9570678574
21
-25.2156815193
0
LINE
5
2EB
100
AcDbEntity
8
0
100
AcDbLine
62
7
6
CONTINUOUS
10
1.4203178424
20
-23.7249476561
11
-2.0239591854
21
-25.3518159630
0
LWPOLYLINE
5
2EC
100
AcDbEntity
8
0
100
AcDbPolyline
62
7
6
CONTINUOUS
90
25
70
0
10
-2.0239591854
20
-25.3518159630
10
-2.0324466340
20
-25.3556333510
10
-2.0410744173
20
-25.3591337874
10
-2.0498280578
20
-25.3623110361
10
-2.0586455867
20
-25.3651455058
10
-2.0675582393
20
-25.3676504206
10
-2.0766944221
20
-25.3698539694
10
-2.0861555747
20
-25.3717577477
10
-2.0958124491
20
-25.3733132182
10
-2.1054478280
20
-25.3744821335
10
-2.1149078037
20
-25.3752627027
10
-2.1243136183
20
-25.3756816276
10
-2.1338599951
20
-25.3757444804
10
-2.1436694442
20
-25.3754290880
10
-2.1535800782
20
-25.3747178269
10
-2.1633634756
20
-25.3736253284
10
-2.1728936613
20
-25.3721832648
10
-2.1822748322
20
-25.3703931160
10
-2.1916279424
20
-25.3682341228
10
-2.2010046273
20
-25.3656844916
10
-2.2103202327
20
-25.3627572612
10
-2.2194920237
20
-25.3594769837
10
-2.2285041420
20
-25.3558524973
10
-2.2373545492
20
-25.3518873026
10
-2.2425352373
20
-25.3493711478
0
LINE
5
2ED
100
AcDbEntity
8
0
100
AcDbLine
62
7
6
CONTINUOUS
10
3.1964046260
20
-21.4599112828
11
-0.1950107081
21
-22.7402768634
0
LINE
5
2EE
100
AcDbEntity
8
0
100
AcDbLine
62
7
6
CONTINUOUS
10
-5.4187736297
20
26.2532718516
11
-6.6812066625
21
26.2354142399
0
LINE
5
2EF
100
AcDbEntity
8
0
100
AcDbLine
62
7
6
CONTINUOUS
10
-6.2046325398
20
26.6462013066
11
-6.0377554140
21
26.6456179768
0
LINE
5
2F0
100
AcDbEntity
8
0
100
AcDbLine
62
9
6
CONTINUOUS
10
1.7854024528
20
-24.4160801701
11
1.8913439892
21
-24.3649268939
0
SPLINE
5
2F1
100
AcDbEntity
8
0
100
AcDbSpline
62
7
6
CONTINUOUS
70
0
71
3
72
11
73
7
74
5
42
0.0000001000
43
0.0000001000
44
0.0000000001
12
0.0832820003
22
0.0415822957
32
0.0000000000
13
0.0829422948
23
-0.0414711474
33
0.0000000000
40
0.0000000000
40
0.0000000000
40
0.0000000000
40
0.0000000000
40
0.1698017477
40
0.4239833087
40
0.6985785075
40
1.0000000000
40
1.0000000000
40
1.0000000000
40
1.0000000000
10
-4.1577587440
20
19.7171925816
30
0.0000000000
10
-4.1530449342
20
19.7195461637
30
0.0000000000
10
-4.1406548084
20
19.7241946168
30
0.0000000000
10
-4.1188843177
20
19.7264387122
30
0.0000000000
10
-4.0933149764
20
19.7223096469
30
0.0000000000
10
-4.0766421251
20
19.7156880471
30
0.0000000000
10
-4.0683085951
20
19.7115212821
30
0.0000000000
11
-4.1577587440
21
19.7171925816
31
0.0000000000
11
-4.1429886667
21
19.7227423696
31
0.0000000000
11
-4.1195650740
21
19.7253729390
31
0.0000000000
11
-4.0943838958
21
19.7215893299
31
0.0000000000
11
-4.0683085951
21
19.7115212821
31
0.0000000000
0
SPLINE
5
2F2
100
AcDbEntity
8
0
100
AcDbSpline
62
7
6
CONTINUOUS
70
0
71
3
72
11
73
7
74
5
42
0.0000001000
43
0.0000001000
44
0.0000000001
12
-0.0145939321
22
-0.0613302985
32
0.0000000000
13
-0.0614548224
23
-0.0062718499
33
0.0000000000
40
0.0000000000
40
0.0000000000
40
0.0000000000
40
0.0000000000
40
0.0966540175
40
0.3156819854
40
0.6136554429
40
1.0000000000
40
1.0000000000
40
1.0000000000
40
1.0000000000
10
-0.3275387222
20
21.1105928029
30
0.0000000000
10
-0.3280089096
20
21.1086168630
30
0.0000000000
10
-0.3305709177
20
21.1023924020
30
0.0000000000
10
-0.3411998217
20
21.0945238597
30
0.0000000000
10
-0.3588148943
20
21.0884482204
30
0.0000000000
10
-0.3728261461
20
21.0862741025
30
0.0000000000
10
-0.3807403914
20
21.0854664042
30
0.0000000000
11
-0.3275387222
21
21.1105928029
31
0.0000000000
11
-0.3298501564
21
21.1050093579
31
0.0000000000
11
-0.3400346434
21
21.0961018526
31
0.0000000000
11
-0.3572181729
21
21.0895030047
31
0.0000000000
11
-0.3807403914
21
21.0854664042
31
0.0000000000
0
SPLINE
5
2F3
100
AcDbEntity
8
0
100
AcDbSpline
62
7
6
CONTINUOUS
70
0
71
3
72
11
73
7
74
5
42
0.0000001000
43
0.0000001000
44
0.0000000001
12
-0.0145939321
22
-0.0613302985
32
0.0000000000
13
-0.0614548224
23
-0.0062718499
33
0.0000000000
40
0.0000000000
40
0.0000000000
40
0.0000000000
40
0.0000000000
40
0.0966540175
40
0.3156819854
40
0.6136554429
40
1.0000000000
40
1.0000000000
40
1.0000000000
40
1.0000000000
10
-4.3580473750
20
23.1258471293
30
0.0000000000
10
-4.3585175624
20
23.1238711894
30
0.0000000000
10
-4.3610795705
20
23.1176467284
30
0.0000000000
10
-4.3717084745
20
23.1097781861
30
0.0000000000
10
-4.3893235470
20
23.1037025467
30
0.0000000000
10
-4.4033347988
20
23.1015284289
30
0.0000000000
10
-4.4112490442
20
23.1007207305
30
0.0000000000
11
-4.3580473750
21
23.1258471293
31
0.0000000000
11
-4.3603588092
21
23.1202636843
31
0.0000000000
11
-4.3705432962
21
23.1113561790
31
0.0000000000
11
-4.3877268257
21
23.1047573311
31
0.0000000000
11
-4.4112490442
21
23.1007207305
31
0.0000000000
0
SPLINE
5
2F4
100
AcDbEntity
8
0
100
AcDbSpline
62
7
6
CONTINUOUS
70
0
71
3
72
9
73
5
74
3
42
0.0000001000
43
0.0000001000
44
0.0000000001
12
-0.1119495102
22
0.0560459254
32
0.0000000000
13
-0.1239910689
23
0.0133468475
33
0.0000000000
40
0.0000000000
40
0.0000000000
40
0.0000000000
40
0.0000000000
40
0.1736013343
40
1.0000000000
40
1.0000000000
40
1.0000000000
40
1.0000000000
10
-2.1691262241
20
24.3595267930
30
0.0000000000
10
-2.1756044189
20
24.3627700088
30
0.0000000000
10
-2.2135249905
20
24.3802508091
30
0.0000000000
10
-2.2545537319
20
24.3904775006
30
0.0000000000
10
-2.2887090832
20
24.3941541062
30
0.0000000000
11
-2.1691262241
21
24.3595267930
31
0.0000000000
11
-2.1888642148
21
24.3686207692
31
0.0000000000
11
-2.2887090832
21
24.3941541062
31
0.0000000000
0
SPLINE
5
2F5
100
AcDbEntity
8
0
100
AcDbSpline
62
7
6
CONTINUOUS
70
0
71
3
72
9
73
5
74
3
42
0.0000001000
43
0.0000001000
44
0.0000000001
12
-0.0858076653
22
0.0092366477
32
0.0000000000
13
-0.0858574017
23
-0.0087622860
33
0.0000000000
40
0.0000000000
40
0.0000000000
40
0.0000000000
40
0.0000000000
40
0.4913326222
40
1.0000000000
40
1.0000000000
40
1.0000000000
40
1.0000000000
10
-2.2887090832
20
24.3941541062
30
0.0000000000
10
-2.3027624516
20
24.3956668617
30
0.0000000000
10
-2.3315554542
20
24.3971482363
30
0.0000000000
10
-2.3603369649
20
24.3956102429
30
0.0000000000
10
-2.3748945847
20
24.3941245465
30
0.0000000000
11
-2.2887090832
21
24.3941541062
31
0.0000000000
11
-2.3310535603
21
24.3963936582
31
0.0000000000
11
-2.3748945847
21
24.3941245465
31
0.0000000000
0
SPLINE
5
2F6
100
AcDbEntity
8
0
100
AcDbSpline
62
7
6
CONTINUOUS
70
0
71
3
72
15
73
11
74
9
42
0.0000001000
43
0.0000001000
44
0.0000000001
12
-0.2830840723
22
-0.0288905041
32
0.0000000000
13
-0.2545132660
23
0.1272566330
33
0.0000000000
40
0.0000000000
40
0.0000000000
40
0.0000000000
40
0.0000000000
40
0.1018680046
40
0.2189296968
40
0.3474096568
40
0.4829133080
40
0.6206942281
40
0.7558954912
40
0.8837854688
40
1.0000000000
40
1.0000000000
40
1.0000000000
40
1.0000000000
10
-3.7098442995
20
24.2578845601
30
0.0000000000
10
-3.7194567026
20
24.2569035541
30
0.0000000000
10
-3.7402526853
20
24.2561290032
30
0.0000000000
10
-3.7731928939
20
24.2577039601
30
0.0000000000
10
-3.8091169076
20
24.2619028470
30
0.0000000000
10
-3.8466562894
20
24.2685785135
30
0.0000000000
10
-3.8843847068
20
24.2774842829
30
0.0000000000
10
-3.9208657846
20
24.2882806446
30
0.0000000000
10
-3.9547096003
20
24.3005500208
30
0.0000000000
10
-3.9759059781
20
24.3099390105
30
0.0000000000
10
-3.9857653581
20
24.3148687005
30
0.0000000000
11
-3.7098442995
21
24.2578845601
31
0.0000000000
11
-3.7388012614
21
24.2565653313
31
0.0000000000
11
-3.7720801670
21
24.2580141714
31
0.0000000000
11
-3.8084021265
21
24.2621754023
31
0.0000000000
11
-3.8463713073
21
24.2688891103
31
0.0000000000
11
-3.8845285753
21
24.2778972913
31
0.0000000000
11
-3.9214075679
21
24.2888537659
31
0.0000000000
11
-3.9555910461
21
24.3013374831
31
0.0000000000
11
-3.9857653581
21
24.3148687005
31
0.0000000000
0
SPLINE
5
2F7
100
AcDbEntity
8
0
100
AcDbSpline
62
7
6
CONTINUOUS
70
0
71
3
72
10
73
6
74
4
42
0.0000001000
43
0.0000001000
44
0.0000000001
12
0.1437626329
22
0.0718813165
32
0.0000000000
13
0.1599009443
23
0.0163188937
33
0.0000000000
40
0.0000000000
40
0.0000000000
40
0.0000000000
40
0.0000000000
40
0.3511381091
40
0.6840818606
40
1.0000000000
40
1.0000000000
40
1.0000000000
40
1.0000000000
10
-10.2336456296
20
24.5187580826
30
0.0000000000
10
-10.2168187832
20
24.5271715057
30
0.0000000000
10
-10.1831837930
20
24.5419440410
30
0.0000000000
10
-10.1318933538
20
24.5578223663
30
0.0000000000
10
-10.0975285573
20
24.5638469985
30
0.0000000000
10
-10.0806900210
20
24.5655654767
30
0.0000000000
11
-10.2336456296
21
24.5187580826
31
0.0000000000
11
-10.1819066799
21
24.5413066329
31
0.0000000000
11
-10.1307345931
21
24.5569662878
31
0.0000000000
11
-10.0806900210
21
24.5655654767
31
0.0000000000
0
SPLINE
5
2F8
100
AcDbEntity
8
0
100
AcDbSpline
62
7
6
CONTINUOUS
70
0
71
3
72
12
73
8
74
6
42
0.0000001000
43
0.0000001000
44
0.0000000001
12
-0.0794482303
22
0.0397241152
32
0.0000000000
13
0.0209848366
23
0.0881877676
33
0.0000000000
40
0.0000000000
40
0.0000000000
40
0.0000000000
40
0.0000000000
40
0.3229543341
40
0.5878371421
40
0.7912834233
40
0.9408237800
40
1.0000000000
40
1.0000000000
40
1.0000000000
40
1.0000000000
10
1.6003782133
20
21.5217969148
30
0.0000000000
10
1.5918254965
20
21.5260732732
30
0.0000000000
10
1.5765597768
20
21.5344784219
30
0.0000000000
10
1.5574420422
20
21.5482314685
30
0.0000000000
10
1.5447373095
20
21.5614545242
30
0.0000000000
10
1.5392399825
20
21.5730409778
30
0.0000000000
10
1.5398409558
20
21.5793681923
30
0.0000000000
10
1.5402548902
20
21.5811077319
30
0.0000000000
11
1.6003782133
21
21.5217969148
31
0.0000000000
11
1.5753726494
21
21.5358556353
31
0.0000000000
11
1.5564967835
21
21.5499015903
31
0.0000000000
11
1.5444760044
21
21.5633950014
31
0.0000000000
11
1.5397722640
21
21.5758173246
31
0.0000000000
11
1.5402548902
21
21.5811077319
31
0.0000000000
0
SPLINE
5
2F9
100
AcDbEntity
8
0
100
AcDbSpline
62
7
6
CONTINUOUS
70
0
71
3
72
13
73
9
74
7
42
0.0000001000
43
0.0000001000
44
0.0000000001
12
0.0000000000
22
1.0295482093
32
0.0000000000
13
0.9208559129
23
0.4604279564
33
0.0000000000
40
0.0000000000
40
0.0000000000
40
0.0000000000
40
0.0000000000
40
0.1614219316
40
0.3342559043
40
0.5116973510
40
0.6862432064
40
0.8508246292
40
1.0000000000
40
1.0000000000
40
1.0000000000
40
1.0000000000
10
-11.0921885090
20
23.4832688602
30
0.0000000000
10
-11.0921885090
20
23.5386660804
30
0.0000000000
10
-11.0795009312
20
23.6535387803
30
0.0000000000
10
-11.0298086128
20
23.8227341070
30
0.0000000000
10
-10.9518771562
20
23.9859556179
30
0.0000000000
10
-10.8507235070
20
24.1325242863
30
0.0000000000
10
-10.7329764714
20
24.2529240346
30
0.0000000000
10
-10.6430034363
20
24.3140791792
30
0.0000000000
10
-10.5972137622
20
24.3369740163
30
0.0000000000
11
-11.0921885090
21
23.4832688602
31
0.0000000000
11
-11.0753226535
21
23.6486024956
31
0.0000000000
11
-11.0258744672
21
23.8195347724
31
0.0000000000
11
-10.9472137622
21
23.9844169386
31
0.0000000000
11
-10.8447011356
21
24.1320125469
31
0.0000000000
11
-10.7253226535
21
24.2522632006
31
0.0000000000
11
-10.5972137622
21
24.3369740163
31
0.0000000000
0
SPLINE
5
2FA
100
AcDbEntity
8
0
100
AcDbSpline
62
7
6
CONTINUOUS
70
0
71
3
72
15
73
11
74
9
42
0.0000001000
43
0.0000001000
44
0.0000000001
12
0.2495447045
22
-0.1247723523
32
0.0000000000
13
0.0191971987
23
-0.2783382241
33
0.0000000000
40
0.0000000000
40
0.0000000000
40
0.0000000000
40
0.0000000000
40
0.1096655338
40
0.2281053033
40
0.3536807021
40
0.4841159681
40
0.6167482564
40
0.7487500837
40
0.8773406044
40
1.0000000000
40
1.0000000000
40
1.0000000000
40
1.0000000000
10
-9.6307870487
20
22.4927605089
30
0.0000000000
10
-9.6216648977
20
22.4881994334
30
0.0000000000
10
-9.6035636793
20
22.4769135617
30
0.0000000000
10
-9.5785281840
20
22.4554271226
30
0.0000000000
10
-9.5552615764
20
22.4293900160
30
0.0000000000
10
-9.5345419285
20
22.3996755293
30
0.0000000000
10
-9.5170539301
20
22.3672745875
30
0.0000000000
10
-9.5033831890
20
22.3332690572
30
0.0000000000
10
-9.4939882473
20
22.2988050607
30
0.0000000000
10
-9.4906887490
20
22.2755899091
30
0.0000000000
10
-9.4899038435
20
22.2642096430
30
0.0000000000
11
-9.6307870487
21
22.4927605089
31
0.0000000000
11
-9.6047117480
21
22.4767532560
31
0.0000000000
11
-9.5795305698
21
22.4553556870
31
0.0000000000
11
-9.5561069771
21
22.4293015248
31
0.0000000000
11
-9.5352441653
21
22.3994841671
31
0.0000000000
11
-9.5176575206
21
22.3669260517
31
0.0000000000
11
-9.5039500893
21
22.3327435967
31
0.0000000000
11
-9.4945918994
21
22.2981089193
31
0.0000000000
11
-9.4899038435
21
22.2642096430
31
0.0000000000
0
SPLINE
5
2FB
100
AcDbEntity
8
0
100
AcDbSpline
62
7
6
CONTINUOUS
70
0
71
3
72
15
73
11
74
9
42
0.0000001000
43
0.0000001000
44
0.0000000001
12
-0.2830840723
22
-0.0288905041
32
0.0000000000
13
-0.2545132660
23
0.1272566330
33
0.0000000000
40
0.0000000000
40
0.0000000000
40
0.0000000000
40
0.0000000000
40
0.1018680046
40
0.2189296968
40
0.3474096568
40
0.4829133080
40
0.6206942281
40
0.7558954912
40
0.8837854688
40
1.0000000000
40
1.0000000000
40
1.0000000000
40
1.0000000000
10
-2.3309860761
20
20.8864316071
30
0.0000000000
10
-2.3405984793
20
20.8854506011
30
0.0000000000
10
-2.3613944620
20
20.8846760502
30
0.0000000000
10
-2.3943346706
20
20.8862510071
30
0.0000000000
10
-2.4302586843
20
20.8904498940
30
0.0000000000
10
-2.4677980661
20
20.8971255605
30
0.0000000000
10
-2.5055264835
20
20.9060313299
30
0.0000000000
10
-2.5420075613
20
20.9168276916
30
0.0000000000
10
-2.5758513770
20
20.9290970678
30
0.0000000000
10
-2.5970477548
20
20.9384860575
30
0.0000000000
10
-2.6069071348
20
20.9434157474
30
0.0000000000
11
-2.3309860761
21
20.8864316071
31
0.0000000000
11
-2.3599430381
21
20.8851123782
31
0.0000000000
11
-2.3932219437
21
20.8865612184
31
0.0000000000
11
-2.4295439031
21
20.8907224493
31
0.0000000000
11
-2.4675130840
21
20.8974361573
31
0.0000000000
11
-2.5056703519
21
20.9064443383
31
0.0000000000
11
-2.5425493445
21
20.9174008129
31
0.0000000000
11
-2.5767328228
21
20.9298845301
31
0.0000000000
11
-2.6069071348
21
20.9434157474
31
0.0000000000
0
SPLINE
5
2FC
100
AcDbEntity
8
0
100
AcDbSpline
62
7
6
CONTINUOUS
70
0
71
3
72
15
73
11
74
9
42
0.0000001000
43
0.0000001000
44
0.0000000001
12
-0.2830840723
22
-0.0288905041
32
0.0000000000
13
-0.2545132660
23
0.1272566330
33
0.0000000000
40
0.0000000000
40
0.0000000000
40
0.0000000000
40
0.0000000000
40
0.1018680046
40
0.2189296968
40
0.3474096568
40
0.4829133080
40
0.6206942281
40
0.7558954912
40
0.8837854688
40
1.0000000000
40
1.0000000000
40
1.0000000000
40
1.0000000000
10
-6.3614947289
20
22.9016859334
30
0.0000000000
10
-6.3711071321
20
22.9007049274
30
0.0000000000
10
-6.3919031148
20
22.8999303766
30
0.0000000000
10
-6.4248433234
20
22.9015053335
30
0.0000000000
10
-6.4607673371
20
22.9057042203
30
0.0000000000
10
-6.4983067189
20
22.9123798869
30
0.0000000000
10
-6.5360351363
20
22.9212856563
30
0.0000000000
10
-6.5725162141
20
22.9320820179
30
0.0000000000
10
-6.6063600298
20
22.9443513941
30
0.0000000000
10
-6.6275564076
20
22.9537403839
30
0.0000000000
10
-6.6374157875
20
22.9586700738
30
0.0000000000
11
-6.3614947289
21
22.9016859334
31
0.0000000000
11
-6.3904516909
21
22.9003667046
31
0.0000000000
11
-6.4237305964
21
22.9018155447
31
0.0000000000
11
-6.4600525559
21
22.9059767757
31
0.0000000000
11
-6.4980217368
21
22.9126904836
31
0.0000000000
11
-6.5361790047
21
22.9216986646
31
0.0000000000
11
-6.5730579973
21
22.9326551393
31
0.0000000000
11
-6.6072414755
21
22.9451388564
31
0.0000000000
11
-6.6374157875
21
22.9586700738
31
0.0000000000
0
SPLINE
5
2FD
100
AcDbEntity
8
0
100
AcDbSpline
62
7
6
CONTINUOUS
70
0
71
3
72
12
73
8
74
6
42
0.0000001000
43
0.0000001000
44
0.0000000001
12
-0.0794482303
22
0.0397241152
32
0.0000000000
13
0.0209848366
23
0.0881877676
33
0.0000000000
40
0.0000000000
40
0.0000000000
40
0.0000000000
40
0.0000000000
40
0.3229543341
40
0.5878371421
40
0.7912834233
40
0.9408237800
40
1.0000000000
40
1.0000000000
40
1.0000000000
40
1.0000000000
10
-4.6575168002
20
21.9687205802
30
0.0000000000
10
-4.6660695170
20
21.9729969386
30
0.0000000000
10
-4.6813352367
20
21.9814020873
30
0.0000000000
10
-4.7004529713
20
21.9951551338
30
0.0000000000
10
-4.7131577040
20
22.0083781896
30
0.0000000000
10
-4.7186550310
20
22.0199646432
30
0.0000000000
10
-4.7180540577
20
22.0262918577
30
0.0000000000
10
-4.7176401233
20
22.0280313973
30
0.0000000000
11
-4.6575168002
21
21.9687205802
31
0.0000000000
11
-4.6825223641
21
21.9827793007
31
0.0000000000
11
-4.7013982300
21
21.9968252556
31
0.0000000000
11
-4.7134190091
21
22.0103186668
31
0.0000000000
11
-4.7181227495
21
22.0227409900
31
0.0000000000
11
-4.7176401233
21
22.0280313973
31
0.0000000000
0
SPLINE
5
2FE
100
AcDbEntity
8
0
100
AcDbSpline
62
7
6
CONTINUOUS
70
0
71
3
72
12
73
8
74
6
42
0.0000001000
43
0.0000001000
44
0.0000000001
12
-0.0794482303
22
0.0397241152
32
0.0000000000
13
0.0209848366
23
0.0881877676
33
0.0000000000
40
0.0000000000
40
0.0000000000
40
0.0000000000
40
0.0000000000
40
0.3229543341
40
0.5878371421
40
0.7912834233
40
0.9408237800
40
1.0000000000
40
1.0000000000
40
1.0000000000
40
1.0000000000
10
-8.6880254530
20
23.9839749066
30
0.0000000000
10
-8.6965781698
20
23.9882512649
30
0.0000000000
10
-8.7118438895
20
23.9966564137
30
0.0000000000
10
-8.7309616240
20
24.0104094602
30
0.0000000000
10
-8.7436663568
20
24.0236325160
30
0.0000000000
10
-8.7491636837
20
24.0352189696
30
0.0000000000
10
-8.7485627105
20
24.0415461841
30
0.0000000000
10
-8.7481487761
20
24.0432857236
30
0.0000000000
11
-8.6880254530
21
23.9839749066
31
0.0000000000
11
-8.7130310168
21
23.9980336271
31
0.0000000000
11
-8.7319068828
21
24.0120795820
31
0.0000000000
11
-8.7439276618
21
24.0255729932
31
0.0000000000
11
-8.7486314022
21
24.0379953164
31
0.0000000000
11
-8.7481487761
21
24.0432857236
31
0.0000000000
0
SPLINE
5
2FF
100
AcDbEntity
8
0
100
AcDbSpline
62
7
6
CONTINUOUS
70
0
71
3
72
11
73
7
74
5
42
0.0000001000
43
0.0000001000
44
0.0000000001
12
0.0145939321
22
0.0613302985
32
0.0000000000
13
0.0614548224
23
0.0062718499
33
0.0000000000
40
0.0000000000
40
0.0000000000
40
0.0000000000
40
0.0000000000
40
0.0966540175
40
0.3156819854
40
0.6136554429
40
1.0000000000
40
1.0000000000
40
1.0000000000
40
1.0000000000
10
1.5402548902
20
21.5811077319
30
0.0000000000
10
1.5407250776
20
21.5830836718
30
0.0000000000
10
1.5432870857
20
21.5893081328
30
0.0000000000
10
1.5539159897
20
21.5971766751
30
0.0000000000
10
1.5715310623
20
21.6032523144
30
0.0000000000
10
1.5855423141
20
21.6054264323
30
0.0000000000
10
1.5934565594
20
21.6062341306
30
0.0000000000
11
1.5402548902
21
21.5811077319
31
0.0000000000
11
1.5425663244
21
21.5866911769
31
0.0000000000
11
1.5527508114
21
21.5955986822
31
0.0000000000
11
1.5699343409
21
21.6021975301
31
0.0000000000
11
1.5934565594
21
21.6062341306
31
0.0000000000
0
SPLINE
5
300
100
AcDbEntity
8
0
100
AcDbSpline
62
7
6
CONTINUOUS
70
0
71
3
72
11
73
7
74
5
42
0.0000001000
43
0.0000001000
44
0.0000000001
12
0.0145939321
22
0.0613302985
32
0.0000000000
13
0.0614548224
23
0.0062718499
33
0.0000000000
40
0.0000000000
40
0.0000000000
40
0.0000000000
40
0.0000000000
40
0.0966540175
40
0.3156819854
40
0.6136554429
40
1.0000000000
40
1.0000000000
40
1.0000000000
40
1.0000000000
10
-8.7481487761
20
24.0432857236
30
0.0000000000
10
-8.7476785887
20
24.0452616635
30
0.0000000000
10
-8.7451165805
20
24.0514861246
30
0.0000000000
10
-8.7344876766
20
24.0593546669
30
0.0000000000
10
-8.7168726040
20
24.0654303062
30
0.0000000000
10
-8.7028613522
20
24.0676044240
30
0.0000000000
10
-8.6949471068
20
24.0684121224
30
0.0000000000
11
-8.7481487761
21
24.0432857236
31
0.0000000000
11
-8.7458373418
21
24.0488691686
31
0.0000000000
11
-8.7356528548
21
24.0577766740
31
0.0000000000
11
-8.7184693254
21
24.0643755219
31
0.0000000000
11
-8.6949471068
21
24.0684121224
31
0.0000000000
0
SPLINE
5
301
100
AcDbEntity
8
0
100
AcDbSpline
62
7
6
CONTINUOUS
70
0
71
3
72
12
73
8
74
6
42
0.0000001000
43
0.0000001000
44
0.0000000001
12
0.0794482303
22
-0.0397241152
32
0.0000000000
13
-0.0209848366
23
-0.0881877676
33
0.0000000000
40
0.0000000000
40
0.0000000000
40
0.0000000000
40
0.0000000000
40
0.3229543341
40
0.5878371421
40
0.7912834233
40
0.9408237800
40
1.0000000000
40
1.0000000000
40
1.0000000000
40
1.0000000000
10
-0.3876620453
20
21.1699036200
30
0.0000000000
10
-0.3791093285
20
21.1656272616
30
0.0000000000
10
-0.3638436088
20
21.1572221129
30
0.0000000000
10
-0.3447258743
20
21.1434690663
30
0.0000000000
10
-0.3320211415
20
21.1302460105
30
0.0000000000
10
-0.3265238145
20
21.1186595570
30
0.0000000000
10
-0.3271247878
20
21.1123323425
30
0.0000000000
10
-0.3275387222
20
21.1105928029
30
0.0000000000
11
-0.3876620453
21
21.1699036200
31
0.0000000000
11
-0.3626564814
21
21.1558448995
31
0.0000000000
11
-0.3437806155
21
21.1417989445
31
0.0000000000
11
-0.3317598364
21
21.1283055334
31
0.0000000000
11
-0.3270560961
21
21.1158832102
31
0.0000000000
11
-0.3275387222
21
21.1105928029
31
0.0000000000
0
SPLINE
5
302
100
AcDbEntity
8
0
100
AcDbSpline
62
7
6
CONTINUOUS
70
0
71
3
72
12
73
8
74
6
42
0.0000001000
43
0.0000001000
44
0.0000000001
12
0.0794482303
22
-0.0397241152
32
0.0000000000
13
-0.0209848366
23
-0.0881877676
33
0.0000000000
40
0.0000000000
40
0.0000000000
40
0.0000000000
40
0.0000000000
40
0.3229543341
40
0.5878371421
40
0.7912834233
40
0.9408237800
40
1.0000000000
40
1.0000000000
40
1.0000000000
40
1.0000000000
10
-4.4181706981
20
23.1851579464
30
0.0000000000
10
-4.4096179813
20
23.1808815880
30
0.0000000000
10
-4.3943522615
20
23.1724764393
30
0.0000000000
10
-4.3752345270
20
23.1587233927
30
0.0000000000
10
-4.3625297943
20
23.1455003369
30
0.0000000000
10
-4.3570324673
20
23.1339138834
30
0.0000000000
10
-4.3576334405
20
23.1275866689
30
0.0000000000
10
-4.3580473750
20
23.1258471293
30
0.0000000000
11
-4.4181706981
21
23.1851579464
31
0.0000000000
11
-4.3931651342
21
23.1710992258
31
0.0000000000
11
-4.3742892683
21
23.1570532709
31
0.0000000000
11
-4.3622684892
21
23.1435598597
31
0.0000000000
11
-4.3575647488
21
23.1311375366
31
0.0000000000
11
-4.3580473750
21
23.1258471293
31
0.0000000000
0
SPLINE
5
303
100
AcDbEntity
8
0
100
AcDbSpline
62
7
6
CONTINUOUS
70
0
71
3
72
15
73
11
74
9
42
0.0000001000
43
0.0000001000
44
0.0000000001
12
0.2830840723
22
0.0288905041
32
0.0000000000
13
0.2545132660
23
-0.1272566330
33
0.0000000000
40
0.0000000000
40
0.0000000000
40
0.0000000000
40
0.0000000000
40
0.1018680046
40
0.2189296968
40
0.3474096568
40
0.4829133080
40
0.6206942281
40
0.7558954912
40
0.8837854688
40
1.0000000000
40
1.0000000000
40
1.0000000000
40
1.0000000000
10
-2.7141927694
20
22.2521925931
30
0.0000000000
10
-2.7045803662
20
22.2531735991
30
0.0000000000
10
-2.6837843835
20
22.2539481500
30
0.0000000000
10
-2.6508441749
20
22.2523731931
30
0.0000000000
10
-2.6149201612
20
22.2481743062
30
0.0000000000
10
-2.5773807794
20
22.2414986397
30
0.0000000000
10
-2.5396523620
20
22.2325928703
30
0.0000000000
10
-2.5031712842
20
22.2217965086
30
0.0000000000
10
-2.4693274685
20
22.2095271324
30
0.0000000000
10
-2.4481310907
20
22.2001381427
30
0.0000000000
10
-2.4382717107
20
22.1952084527
30
0.0000000000
11
-2.7141927694
21
22.2521925931
31
0.0000000000
11
-2.6852358074
21
22.2535118219
31
0.0000000000
11
-2.6519569019
21
22.2520629818
31
0.0000000000
11
-2.6156349424
21
22.2479017509
31
0.0000000000
11
-2.5776657615
21
22.2411880429
31
0.0000000000
11
-2.5395084936
21
22.2321798619
31
0.0000000000
11
-2.5026295010
21
22.2212233873
31
0.0000000000
11
-2.4684460227
21
22.2087396701
31
0.0000000000
11
-2.4382717107
21
22.1952084527
31
0.0000000000
0
SPLINE
5
304
100
AcDbEntity
8
0
100
AcDbSpline
62
7
6
CONTINUOUS
70
0
71
3
72
15
73
11
74
9
42
0.0000001000
43
0.0000001000
44
0.0000000001
12
0.2830840723
22
0.0288905041
32
0.0000000000
13
0.2545132660
23
-0.1272566330
33
0.0000000000
40
0.0000000000
40
0.0000000000
40
0.0000000000
40
0.0000000000
40
0.1018680046
40
0.2189296968
40
0.3474096568
40
0.4829133080
40
0.6206942281
40
0.7558954912
40
0.8837854688
40
1.0000000000
40
1.0000000000
40
1.0000000000
40
1.0000000000
10
-6.7447014221
20
24.2674469195
30
0.0000000000
10
-6.7350890189
20
24.2684279255
30
0.0000000000
10
-6.7142930363
20
24.2692024763
30
0.0000000000
10
-6.6813528277
20
24.2676275195
30
0.0000000000
10
-6.6454288140
20
24.2634286326
30
0.0000000000
10
-6.6078894322
20
24.2567529660
30
0.0000000000
10
-6.5701610148
20
24.2478471967
30
0.0000000000
10
-6.5336799370
20
24.2370508350
30
0.0000000000
10
-6.4998361213
20
24.2247814588
30
0.0000000000
10
-6.4786397435
20
24.2153924691
30
0.0000000000
10
-6.4687803635
20
24.2104627791
30
0.0000000000
11
-6.7447014221
21
24.2674469195
31
0.0000000000
11
-6.7157444602
21
24.2687661483
31
0.0000000000
11
-6.6824655546
21
24.2673173082
31
0.0000000000
11
-6.6461435951
21
24.2631560773
31
0.0000000000
11
-6.6081744143
21
24.2564423693
31
0.0000000000
11
-6.5700171463
21
24.2474341883
31
0.0000000000
11
-6.5331381537
21
24.2364777136
31
0.0000000000
11
-6.4989546755
21
24.2239939965
31
0.0000000000
11
-6.4687803635
21
24.2104627791
31
0.0000000000
0
SPLINE
5
305
100
AcDbEntity
8
0
100
AcDbSpline
62
7
6
CONTINUOUS
70
0
71
3
72
10
73
6
74
4
42
0.0000001000
43
0.0000001000
44
0.0000000001
12
0.1437626329
22
0.0718813165
32
0.0000000000
13
0.1599009443
23
0.0163188937
33
0.0000000000
40
0.0000000000
40
0.0000000000
40
0.0000000000
40
0.0000000000
40
0.3511381091
40
0.6840818606
40
1.0000000000
40
1.0000000000
40
1.0000000000
40
1.0000000000
10
-1.7483642553
20
20.2761173954
30
0.0000000000
10
-1.7315374090
20
20.2845308186
30
0.0000000000
10
-1.6979024188
20
20.2993033539
30
0.0000000000
10
-1.6466119796
20
20.3151816792
30
0.0000000000
10
-1.6122471831
20
20.3212063114
30
0.0000000000
10
-1.5954086468
20
20.3229247896
30
0.0000000000
11
-1.7483642553
21
20.2761173954
31
0.0000000000
11
-1.6966253057
21
20.2986659458
31
0.0000000000
11
-1.6454532188
21
20.3143256007
31
0.0000000000
11
-1.5954086468
21
20.3229247896
31
0.0000000000
0
SPLINE
5
306
100
AcDbEntity
8
0
100
AcDbSpline
62
7
6
CONTINUOUS
70
0
71
3
72
11
73
7
74
5
42
0.0000001000
43
0.0000001000
44
0.0000000001
12
0.0145939321
22
0.0613302985
32
0.0000000000
13
0.0614548224
23
0.0062718499
33
0.0000000000
40
0.0000000000
40
0.0000000000
40
0.0000000000
40
0.0000000000
40
0.0966540175
40
0.3156819854
40
0.6136554429
40
1.0000000000
40
1.0000000000
40
1.0000000000
40
1.0000000000
10
-4.7176401233
20
22.0280313973
30
0.0000000000
10
-4.7171699359
20
22.0300073372
30
0.0000000000
10
-4.7146079278
20
22.0362317982
30
0.0000000000
10
-4.7039790238
20
22.0441003405
30
0.0000000000
10
-4.6863639512
20
22.0501759798
30
0.0000000000
10
-4.6723526994
20
22.0523500977
30
0.0000000000
10
-4.6644384541
20
22.0531577960
30
0.0000000000
11
-4.7176401233
21
22.0280313973
31
0.0000000000
11
-4.7153286891
21
22.0336148423
31
0.0000000000
11
-4.7051442021
21
22.0425223476
31
0.0000000000
11
-4.6879606726
21
22.0491211955
31
0.0000000000
11
-4.6644384541
21
22.0531577960
31
0.0000000000
0
SPLINE
5
307
100
AcDbEntity
8
0
100
AcDbSpline
62
7
6
CONTINUOUS
70
0
71
3
72
13
73
9
74
7
42
0.0000001000
43
0.0000001000
44
0.0000000001
12
0.0000000000
22
1.0295482093
32
0.0000000000
13
0.9208559129
23
0.4604279564
33
0.0000000000
40
0.0000000000
40
0.0000000000
40
0.0000000000
40
0.0000000000
40
0.1614219316
40
0.3342559043
40
0.5116973510
40
0.6862432064
40
0.8508246292
40
1.0000000000
40
1.0000000000
40
1.0000000000
40
1.0000000000
10
-2.6069071348
20
19.2406281731
30
0.0000000000
10
-2.6069071348
20
19.2960253933
30
0.0000000000
10
-2.5942195570
20
19.4108980932
30
0.0000000000
10
-2.5445272386
20
19.5800934199
30
0.0000000000
10
-2.4665957819
20
19.7433149308
30
0.0000000000
10
-2.3654421328
20
19.8898835991
30
0.0000000000
10
-2.2476950972
20
20.0102833475
30
0.0000000000
10
-2.1577220620
20
20.0714384921
30
0.0000000000
10
-2.1119323879
20
20.0943333291
30
0.0000000000
11
-2.6069071348
21
19.2406281731
31
0.0000000000
11
-2.5900412793
21
19.4059618085
31
0.0000000000
11
-2.5405930929
21
19.5768940853
31
0.0000000000
11
-2.4619323879
21
19.7417762515
31
0.0000000000
11
-2.3594197614
21
19.8893718598
31
0.0000000000
11
-2.2400412793
21
20.0096225134
31
0.0000000000
11
-2.1119323879
21
20.0943333291
31
0.0000000000
0
SPLINE
5
308
100
AcDbEntity
8
0
100
AcDbSpline
62
7
6
CONTINUOUS
70
0
71
3
72
12
73
8
74
6
42
0.0000001000
43
0.0000001000
44
0.0000000001
12
0.0082175243
22
0.1109275219
32
0.0000000000
13
0.0998959363
23
0.0498775528
33
0.0000000000
40
0.0000000000
40
0.0000000000
40
0.0000000000
40
0.0000000000
40
0.2659770126
40
0.5082935587
40
0.7298118726
40
0.9374528333
40
1.0000000000
40
1.0000000000
40
1.0000000000
40
1.0000000000
10
-4.2091918003
20
19.6238536214
30
0.0000000000
10
-4.2084632428
20
19.6336883450
30
0.0000000000
10
-4.2056100805
20
19.6524317640
30
0.0000000000
10
-4.1964086222
20
19.6780883383
30
0.0000000000
10
-4.1826338938
20
19.6991577411
30
0.0000000000
10
-4.1686289603
20
19.7112457408
30
0.0000000000
10
-4.1598414799
20
19.7161526817
30
0.0000000000
10
-4.1577587440
20
19.7171925816
30
0.0000000000
11
-4.2091918003
21
19.6238536214
31
0.0000000000
11
-4.2045037444
21
19.6530648418
31
0.0000000000
11
-4.1951455545
21
19.6783413294
31
0.0000000000
11
-4.1814381232
21
19.6988163530
31
0.0000000000
11
-4.1638514785
21
19.7137878237
31
0.0000000000
11
-4.1577587440
21
19.7171925816
31
0.0000000000
0
SPLINE
5
309
100
AcDbEntity
8
0
100
AcDbSpline
62
7
6
CONTINUOUS
70
0
71
3
72
35
73
31
74
29
42
0.0000001000
43
0.0000001000
44
0.0000000001
12
-1.4338827244
22
0.7168557312
32
0.0000000000
13
1.4364146559
23
0.7086540380
33
0.0000000000
40
0.0000000000
40
0.0000000000
40
0.0000000000
40
0.0000000000
40
0.0087416854
40
0.0353595299
40
0.0623496383
40
0.0900770816
40
0.1187330761
40
0.1485858059
40
0.1797175234
40
0.2122751879
40
0.2462433152
40
0.2816509510
40
0.3184181406
40
0.3564648544
40
0.3956819287
40
0.4358942349
40
0.4769854028
40
0.5187085012
40
0.5609482991
40
0.6034127265
40
0.6459913096
40
0.6883745862
40
0.7304580645
40
0.7719430922
40
0.8127324908
40
0.8525663955
40
0.8913560687
40
0.9289088767
40
0.9651656872
40
1.0000000000
40
1.0000000000
40
1.0000000000
40
1.0000000000
10
-0.4936235765
20
-22.7383858147
30
0.0000000000
10
-0.4978017604
20
-22.7362969722
30
0.0000000000
10
-0.5145020492
20
-22.7274477095
30
0.0000000000
10
-0.5423792372
20
-22.7090454877
30
0.0000000000
10
-0.5749816066
20
-22.6801489188
30
0.0000000000
10
-0.6040722926
20
-22.6462857349
30
0.0000000000
10
-0.6294475902
20
-22.6077288550
30
0.0000000000
10
-0.6509012917
20
-22.5648323755
30
0.0000000000
10
-0.6682937285
20
-22.5179203614
30
0.0000000000
10
-0.6814911797
20
-22.4673971148
30
0.0000000000
10
-0.6904070450
20
-22.4136398280
30
0.0000000000
10
-0.6949755821
20
-22.3570928919
30
0.0000000000
10
-0.6951669681
20
-22.2981910683
30
0.0000000000
10
-0.6909833875
20
-22.2374041548
30
0.0000000000
10
-0.6824604285
20
-22.1752196398
30
0.0000000000
10
-0.6696653801
20
-22.1121157899
30
0.0000000000
10
-0.6527054479
20
-22.0486182475
30
0.0000000000
10
-0.6317076871
20
-21.9851999926
30
0.0000000000
10
-0.6068519477
20
-21.9224041513
30
0.0000000000
10
-0.5783195978
20
-21.8606884661
30
0.0000000000
10
-0.5463587046
20
-21.8005898898
30
0.0000000000
10
-0.5111996273
20
-21.7425419550
30
0.0000000000
10
-0.4731494067
20
-21.6870520111
30
0.0000000000
10
-0.4324822154
20
-21.6345208309
30
0.0000000000
10
-0.3895508459
20
-21.5854047370
30
0.0000000000
10
-0.3446688616
20
-21.5400640535
30
0.0000000000
10
-0.2982197407
20
-21.4988867981
30
0.0000000000
10
-0.2505451400
20
-21.4621788874
30
0.0000000000
10
-0.2020514694
20
-21.4302543697
30
0.0000000000
10
-0.1687410093
20
-21.4119506781
30
0.0000000000
10
-0.1520621701
20
-21.4037221860
30
0.0000000000
11
-0.4936235765
21
-22.7383858147
31
0.0000000000
11
-0.5060047112
21
-22.7318244986
31
0.0000000000
11
-0.5416012397
21
-22.7083606374
31
0.0000000000
11
-0.5739948490
21
-22.6797334271
31
0.0000000000
11
-0.6030029051
21
-22.6461045650
31
0.0000000000
11
-0.6283246069
21
-22.6078227878
31
0.0000000000
11
-0.6498148541
21
-22.5651087894
31
0.0000000000
11
-0.6672556882
21
-22.5183943726
31
0.0000000000
11
-0.6805409686
21
-22.4679670835
31
0.0000000000
11
-0.6895422541
21
-22.4143097326
31
0.0000000000
11
-0.6941995838
21
-22.3577884951
31
0.0000000000
11
-0.6944704473
21
-22.2988987120
31
0.0000000000
11
-0.6903544352
21
-22.2380980393
31
0.0000000000
11
-0.6818817648
21
-22.1758576639
31
0.0000000000
11
-0.6691283885
21
-22.1127244354
31
0.0000000000
11
-0.6521798058
21
-22.0491279446
31
0.0000000000
11
-0.6311995792
21
-21.9856783033
31
0.0000000000
11
-0.6063155054
21
-21.9227647962
31
0.0000000000
11
-0.5777800304
21
-21.8610244798
31
0.0000000000
11
-0.5457565105
21
-21.8008120207
31
0.0000000000
11
-0.5105773929
21
-21.7427525236
31
0.0000000000
11
-0.4724405866
21
-21.6871729054
31
0.0000000000
11
-0.4317408441
21
-21.6346492228
31
0.0000000000
11
-0.3887140454
21
-21.5854854942
31
0.0000000000
11
-0.3437928267
21
-21.5401773276
31
0.0000000000
11
-0.2972603839
21
-21.4990087863
31
0.0000000000
11
-0.2495578600
21
-21.4623708269
31
0.0000000000
11
-0.2010059193
21
-21.4305090342
31
0.0000000000
11
-0.1520621701
21
-21.4037221860
31
0.0000000000
0
SPLINE
5
30A
100
AcDbEntity
8
0
100
AcDbSpline
62
7
6
CONTINUOUS
70
0
71
3
72
34
73
30
74
28
42
0.0000001000
43
0.0000001000
44
0.0000000001
12
-1.3901646798
22
0.6950654248
32
0.0000000000
13
1.3385352649
23
0.7872694658
33
0.0000000000
40
0.0000000000
40
0.0000000000
40
0.0000000000
40
0.0000000000
40
0.0125363730
40
0.0399882390
40
0.0679315487
40
0.0966048773
40
0.1263319052
40
0.1572512133
40
0.1895635733
40
0.2233015535
40
0.2585366842
40
0.2952236482
40
0.3333125144
40
0.3727164899
40
0.4132791660
40
0.4548972141
40
0.4973323044
40
0.5404750990
40
0.5840330783
40
0.6278958391
40
0.6717453208
40
0.7154717582
40
0.7587606284
40
0.8015038500
40
0.8434192510
40
0.8844004394
40
0.9242267390
40
0.9628138500
40
1.0000000000
40
1.0000000000
40
1.0000000000
40
1.0000000000
10
-0.4936229920
20
11.1275971763
30
0.0000000000
10
-0.4994321996
20
11.1305017094
30
0.0000000000
10
-0.5176574855
20
11.1403758966
30
0.0000000000
10
-0.5467416955
20
11.1603515209
30
0.0000000000
10
-0.5788923522
20
11.1898834581
30
0.0000000000
10
-0.6075247081
20
11.2243675199
30
0.0000000000
10
-0.6323974827
20
11.2634773831
30
0.0000000000
10
-0.6533443393
20
11.3069089875
30
0.0000000000
10
-0.6702026258
20
11.3542816777
30
0.0000000000
10
-0.6828613518
20
11.4052385809
30
0.0000000000
10
-0.6912265253
20
11.4593567129
30
0.0000000000
10
-0.6952414647
20
11.5162202387
30
0.0000000000
10
-0.6948794644
20
11.5753757530
30
0.0000000000
10
-0.6901465437
20
11.6363500194
30
0.0000000000
10
-0.6810815643
20
11.6986745642
30
0.0000000000
10
-0.6677609756
20
11.7618313204
30
0.0000000000
10
-0.6502849790
20
11.8253503289
30
0.0000000000
10
-0.6288032415
20
11.8886883476
30
0.0000000000
10
-0.6034725863
20
11.9513840734
30
0.0000000000
10
-0.5745131129
20
12.0128924603
30
0.0000000000
10
-0.5421335249
20
12.0727700943
30
0.0000000000
10
-0.5066165143
20
12.1304938234
30
0.0000000000
10
-0.4682180265
20
12.1856469295
30
0.0000000000
10
-0.4272712684
20
12.2377503508
30
0.0000000000
10
-0.3840755662
20
12.2864219652
30
0.0000000000
10
-0.3390003751
20
12.3312452777
30
0.0000000000
10
-0.2923780512
20
12.3718875303
30
0.0000000000
10
-0.2446062743
20
12.4080016848
30
0.0000000000
10
-0.2116023659
20
12.4292816141
30
0.0000000000
10
-0.1950107081
20
12.4390401209
30
0.0000000000
11
-0.4936229920
21
11.1275971763
31
0.0000000000
11
-0.5107509330
21
11.1368780752
31
0.0000000000
11
-0.5459094980
21
11.1609855620
31
0.0000000000
11
-0.5779122177
21
11.1902903479
31
0.0000000000
11
-0.6064271868
21
11.2244884481
31
0.0000000000
11
-0.6312912363
21
11.2633829947
31
0.0000000000
11
-0.6522520470
21
11.3065804289
31
0.0000000000
11
-0.6691822613
21
11.3538155437
31
0.0000000000
11
-0.6819182415
21
11.4046353580
31
0.0000000000
11
-0.6903749331
21
11.4586942059
31
0.0000000000
11
-0.6944763254
21
11.5155172315
31
0.0000000000
11
-0.6941924423
21
11.5746644005
31
0.0000000000
11
-0.6895237820
21
11.6356761080
31
0.0000000000
11
-0.6805128476
21
11.6980176547
31
0.0000000000
11
-0.6672197842
21
11.7612640745
31
0.0000000000
11
-0.6497729276
21
11.8248095695
31
0.0000000000
11
-0.6282784937
21
11.8882639619
31
0.0000000000
11
-0.6029544279
21
11.9509853108
31
0.0000000000
11
-0.5739456310
21
12.0126133672
31
0.0000000000
11
-0.5415531201
21
12.0725086437
31
0.0000000000
11
-0.5059589689
21
12.1303341570
31
0.0000000000
11
-0.4675315046
21
12.1854907229
31
0.0000000000
11
-0.4264931990
21
12.2376594098
31
0.0000000000
11
-0.3832566061
21
12.2863144247
31
0.0000000000
11
-0.3380940810
21
12.3311508855
31
0.0000000000
11
-0.2914337179
21
12.3717430669
31
0.0000000000
11
-0.2435889427
21
12.4078189875
31
0.0000000000
11
-0.1950107081
21
12.4390401209
31
0.0000000000
0
SPLINE
5
30B
100
AcDbEntity
8
0
100
AcDbSpline
62
7
6
CONTINUOUS
70
0
71
3
72
13
73
9
74
7
42
0.0000001000
43
0.0000001000
44
0.0000000001
12
0.0000175327
22
0.1356900034
32
0.0000000000
13
-0.0994585597
23
0.0919975859
33
0.0000000000
40
0.0000000000
40
0.0000000000
40
0.0000000000
40
0.0000000000
40
0.0151678747
40
0.1932227612
40
0.3768766290
40
0.5704780007
40
0.7774099794
40
1.0000000000
40
1.0000000000
40
1.0000000000
40
1.0000000000
10
7.1926469654
20
-17.3530991850
30
0.0000000000
10
7.1926470541
20
-17.3524131420
30
0.0000000000
10
7.1925742412
20
-17.3436737499
30
0.0000000000
10
7.1905871939
20
-17.3266600324
30
0.0000000000
10
7.1829560547
20
-17.3026232127
30
0.0000000000
10
7.1706697643
20
-17.2791414874
30
0.0000000000
10
7.1539006502
20
-17.2564271209
30
0.0000000000
10
7.1403690485
20
-17.2424488186
30
0.0000000000
10
7.1329895542
20
-17.2356229038
30
0.0000000000
11
7.1926469654
21
-17.3530991850
31
0.0000000000
11
7.1926297935
21
-17.3510411695
31
0.0000000000
11
7.1898743490
21
-17.3270756978
31
0.0000000000
11
7.1824410496
21
-17.3033300443
31
0.0000000000
11
7.1703998854
21
-17.2800275947
31
0.0000000000
11
7.1538641868
21
-17.2573875576
31
0.0000000000
11
7.1329895542
21
-17.2356229038
31
0.0000000000
0
SPLINE
5
30C
100
AcDbEntity
8
0
100
AcDbSpline
62
7
6
CONTINUOUS
70
0
71
3
72
16
73
12
74
10
42
0.0000001000
43
0.0000001000
44
0.0000000001
12
-0.0000873086
22
-0.4470317685
32
0.0000000000
13
-0.3098935130
23
-0.3220386211
33
0.0000000000
40
0.0000000000
40
0.0000000000
40
0.0000000000
40
0.0000000000
40
0.0269450982
40
0.1812419066
40
0.3233683762
40
0.4549423419
40
0.5778128723
40
0.6925912158
40
0.8001157365
40
0.9021563254
40
1.0000000000
40
1.0000000000
40
1.0000000000
40
1.0000000000
10
7.1926472548
20
-18.4105152619
30
0.0000000000
10
7.1926464707
20
-18.4145303669
30
0.0000000000
10
7.1924672274
20
-18.4415374501
30
0.0000000000
10
7.1900185754
20
-18.4897008357
30
0.0000000000
10
7.1815550364
20
-18.5529735136
30
0.0000000000
10
7.1686865613
20
-18.6107131189
30
0.0000000000
10
7.1518708207
20
-18.6631687835
30
0.0000000000
10
7.1315410427
20
-18.7104902917
30
0.0000000000
10
7.1081179853
20
-18.7528474702
30
0.0000000000
10
7.0819305102
20
-18.7905126499
30
0.0000000000
10
7.0624240835
20
-18.8130980991
30
0.0000000000
10
7.0523170435
20
-18.8236012465
30
0.0000000000
11
7.1926472548
21
-18.4105152619
31
0.0000000000
11
7.1925668024
21
-18.4225603382
31
0.0000000000
11
7.1889463690
21
-18.4914244921
31
0.0000000000
11
7.1804109380
21
-18.5543684269
31
0.0000000000
11
7.1675132436
21
-18.6117403686
31
0.0000000000
11
7.1506539512
21
-18.6640023592
31
0.0000000000
11
7.1303244721
21
-18.7110994755
31
0.0000000000
11
7.1070063569
21
-18.7531184845
31
0.0000000000
11
7.0809270066
21
-18.7905303337
31
0.0000000000
11
7.0523170435
21
-18.8236012465
31
0.0000000000
0
SPLINE
5
30D
100
AcDbEntity
8
0
100
AcDbSpline
62
7
6
CONTINUOUS
70
0
71
3
72
12
73
8
74
6
42
0.0000001000
43
0.0000001000
44
0.0000000001
12
-0.1938683414
22
0.0968672947
32
0.0000000000
13
-0.2150608748
23
0.0264032708
33
0.0000000000
40
0.0000000000
40
0.0000000000
40
0.0000000000
40
0.0000000000
40
0.0700771101
40
0.3418525828
40
0.5887185483
40
0.8087059178
40
1.0000000000
40
1.0000000000
40
1.0000000000
40
1.0000000000
10
4.1164433531
20
-14.3507470594
30
0.0000000000
10
4.1119147754
20
-14.3484843327
30
0.0000000000
10
4.0897245093
20
-14.3376438749
30
0.0000000000
10
4.0506821790
20
-14.3206975256
30
0.0000000000
10
4.0001819536
20
-14.3033231134
30
0.0000000000
10
3.9540757050
20
-14.2915473355
30
0.0000000000
10
3.9247436439
20
-14.2866049982
30
0.0000000000
10
3.9110303530
20
-14.2849214017
30
0.0000000000
11
4.1164433531
21
-14.3507470594
31
0.0000000000
11
4.1027969199
21
-14.3440819437
31
0.0000000000
11
4.0487379017
21
-14.3207299742
31
0.0000000000
11
3.9981243826
21
-14.3034258261
31
0.0000000000
11
3.9519168633
21
-14.2917252883
31
0.0000000000
11
3.9110303530
21
-14.2849214017
31
0.0000000000
0
SPLINE
5
30E
100
AcDbEntity
8
0
100
AcDbSpline
62
7
6
CONTINUOUS
70
0
71
3
72
10
73
6
74
4
42
0.0000001000
43
0.0000001000
44
0.0000000001
12
0.0171422452
22
-0.0103482780
32
0.0000000000
13
-0.0000364508
23
-0.0197422206
33
0.0000000000
40
0.0000000000
40
0.0000000000
40
0.0000000000
40
0.0000000000
40
0.3164688107
40
0.8349523170
40
1.0000000000
40
1.0000000000
40
1.0000000000
40
1.0000000000
10
-2.3874275060
20
24.8119294216
30
0.0000000000
10
-2.3856191773
20
24.8108377859
30
0.0000000000
10
-2.3812604271
20
24.8073311236
30
0.0000000000
10
-2.3786920611
20
24.8008557989
30
0.0000000000
10
-2.3784092406
20
24.7963568268
30
0.0000000000
10
-2.3784112460
20
24.7952706908
30
0.0000000000
11
-2.3874275060
21
24.8119294216
31
0.0000000000
11
-2.3826331226
21
24.8079066072
31
0.0000000000
11
-2.3786316894
21
24.7985252503
31
0.0000000000
11
-2.3784112460
21
24.7952706908
31
0.0000000000
0
SPLINE
5
30F
100
AcDbEntity
8
0
100
AcDbSpline
62
7
6
CONTINUOUS
70
0
71
3
72
12
73
8
74
6
42
0.0000001000
43
0.0000001000
44
0.0000000001
12
-0.2040144216
22
0.0994296244
32
0.0000000000
13
-0.2248315106
23
0.0306898779
33
0.0000000000
40
0.0000000000
40
0.0000000000
40
0.0000000000
40
0.0000000000
40
0.1415773499
40
0.3659830835
40
0.5836336119
40
0.7949742279
40
1.0000000000
40
1.0000000000
40
1.0000000000
40
1.0000000000
10
3.4936334830
20
21.8712453404
30
0.0000000000
10
3.4840055426
20
21.8759376680
30
0.0000000000
10
3.4588858057
20
21.8875982795
30
0.0000000000
10
3.4179247068
20
21.9041384864
30
0.0000000000
10
3.3709388818
20
21.9195889365
30
0.0000000000
10
3.3244153781
20
21.9313803481
30
0.0000000000
10
3.2933674653
20
21.9368669611
30
0.0000000000
10
3.2780020472
20
21.9389643664
30
0.0000000000
11
3.4936334830
21
21.8712453404
31
0.0000000000
11
3.4644861400
21
21.8847664400
31
0.0000000000
11
3.4172538503
21
21.9037952344
31
0.0000000000
11
3.3703229333
21
21.9191806682
31
0.0000000000
11
3.3238243716
21
21.9309163098
31
0.0000000000
11
3.2780020472
21
21.9389643664
31
0.0000000000
0
SPLINE
5
310
100
AcDbEntity
8
0
100
AcDbSpline
62
7
6
CONTINUOUS
70
0
71
3
72
12
73
8
74
6
42
0.0000001000
43
0.0000001000
44
0.0000000001
12
-0.1598491416
22
0.0798490718
32
0.0000000000
13
-0.1785987667
23
0.0036953726
33
0.0000000000
40
0.0000000000
40
0.0000000000
40
0.0000000000
40
0.0000000000
40
0.1478444653
40
0.3957200519
40
0.6181068761
40
0.8186040090
40
1.0000000000
40
1.0000000000
40
1.0000000000
40
1.0000000000
10
-5.8606636276
20
26.5972185573
30
0.0000000000
10
-5.8685412312
20
26.6011536384
30
0.0000000000
10
-5.8898464947
20
26.6112442367
30
0.0000000000
10
-5.9240576483
20
26.6249367141
30
0.0000000000
10
-5.9623666685
20
26.6364430959
30
0.0000000000
10
-5.9977328051
20
26.6433866582
30
0.0000000000
10
-6.0204518902
20
26.6453160149
30
0.0000000000
10
-6.0312509236
20
26.6455394569
30
0.0000000000
11
-5.8606636276
21
26.5972185573
31
0.0000000000
11
-5.8845442499
21
26.6085086318
31
0.0000000000
11
-5.9256989638
21
26.6248483297
31
0.0000000000
11
-5.9637821228
21
26.6361562421
31
0.0000000000
11
-5.9989522574
21
26.6429284031
31
0.0000000000
11
-6.0312509236
21
26.6455394569
31
0.0000000000
0
SPLINE
5
311
100
AcDbEntity
8
0
100
AcDbSpline
62
7
6
CONTINUOUS
70
0
71
3
72
12
73
8
74
6
42
0.0000001000
43
0.0000001000
44
0.0000000001
12
0.0554179030
22
-0.0276410964
32
0.0000000000
13
0.0001139505
23
-0.0619994770
33
0.0000000000
40
0.0000000000
40
0.0000000000
40
0.0000000000
40
0.0000000000
40
0.1323426656
40
0.4041703421
40
0.6655732375
40
0.9483338001
40
1.0000000000
40
1.0000000000
40
1.0000000000
40
1.0000000000
10
7.1603682588
20
20.0867057653
30
0.0000000000
10
7.1628129765
20
20.0854863998
30
0.0000000000
10
7.1701070096
20
20.0814201126
30
0.0000000000
10
7.1809437580
20
20.0727055821
30
0.0000000000
10
7.1900925121
20
20.0581599562
30
0.0000000000
10
7.1924706896
20
20.0458587472
30
0.0000000000
10
7.1926497004
20
20.0389447073
30
0.0000000000
10
7.1926516629
20
20.0378769482
30
0.0000000000
11
7.1603682588
21
20.0867057653
31
0.0000000000
11
7.1675132436
21
20.0826920370
31
0.0000000000
11
7.1804109380
21
20.0719133081
31
0.0000000000
11
7.1889463690
21
20.0581865855
31
0.0000000000
11
7.1925668024
21
20.0410808028
31
0.0000000000
11
7.1926516629
21
20.0378769482
31
0.0000000000
0
SPLINE
5
312
100
AcDbEntity
8
0
100
AcDbSpline
62
7
6
CONTINUOUS
70
0
71
3
72
10
73
6
74
4
42
0.0000001000
43
0.0000001000
44
0.0000000001
12
0.0679680979
22
0.0349229446
32
0.0000000000
13
0.0543729610
23
0.0535972168
33
0.0000000000
40
0.0000000000
40
0.0000000000
40
0.0000000000
40
0.0000000000
40
0.0318150698
40
0.5121838833
40
1.0000000000
40
1.0000000000
40
1.0000000000
40
1.0000000000
10
6.9846381736
20
18.6876163096
30
0.0000000000
10
6.9853589768
20
18.6879866682
30
0.0000000000
10
6.9969331121
20
18.6940069932
30
0.0000000000
10
7.0185705069
20
18.7075779140
30
0.0000000000
10
7.0373591983
20
18.7236750066
30
0.0000000000
10
7.0462005339
20
18.7323902020
30
0.0000000000
11
6.9846381736
21
18.6876163096
31
0.0000000000
11
6.9867949687
21
18.6887381815
31
0.0000000000
11
7.0178775662
21
18.7082049977
31
0.0000000000
11
7.0462005339
21
18.7323902020
31
0.0000000000
0
SPLINE
5
313
100
AcDbEntity
8
0
100
AcDbSpline
62
7
6
CONTINUOUS
70
0
71
3
72
24
73
20
74
18
42
0.0000001000
43
0.0000001000
44
0.0000000001
12
-0.3728848230
22
0.7404496631
32
0.0000000000
13
-0.7462526921
23
-0.3628684576
33
0.0000000000
40
0.0000000000
40
0.0000000000
40
0.0000000000
40
0.0000000000
40
0.0719625034
40
0.1435405672
40
0.2143408962
40
0.2840220846
40
0.3522396354
40
0.4186876153
40
0.4831015978
40
0.5452461666
40
0.6049663607
40
0.6621445820
40
0.7167658658
40
0.7688875718
40
0.8186703561
40
0.8663949737
40
0.9124254234
40
0.9572684328
40
1.0000000000
40
1.0000000000
40
1.0000000000
40
1.0000000000
10
7.0462005339
20
-16.7513533994
30
0.0000000000
10
7.0372559588
20
-16.7335918622
30
0.0000000000
10
7.0184156020
20
-16.6986565121
30
0.0000000000
10
6.9873856361
20
-16.6481666205
30
0.0000000000
10
6.9538686001
20
-16.6000550834
30
0.0000000000
10
6.9181485895
20
-16.5547309365
30
0.0000000000
10
6.8805226323
20
-16.5125719004
30
0.0000000000
10
6.8413053828
20
-16.4739319135
30
0.0000000000
10
6.8008244147
20
-16.4391357218
30
0.0000000000
10
6.7594142520
20
-16.4084737447
30
0.0000000000
10
6.7174201357
20
-16.3822057876
30
0.0000000000
10
6.6751856603
20
-16.3605528917
30
0.0000000000
10
6.6330596992
20
-16.3437024682
30
0.0000000000
10
6.5913865621
20
-16.3318043324
30
0.0000000000
10
6.5505085257
20
-16.3249721845
30
0.0000000000
10
6.5107691693
20
-16.3232837384
30
0.0000000000
10
6.4725052220
20
-16.3267766110
30
0.0000000000
10
6.4364579245
20
-16.3353487500
30
0.0000000000
10
6.4138997775
20
-16.3443500428
30
0.0000000000
10
6.4032702618
20
-16.3495186887
30
0.0000000000
11
7.0462005339
21
-16.7513533994
31
0.0000000000
11
7.0178775662
21
-16.6988452273
31
0.0000000000
11
6.9867949687
21
-16.6482958137
31
0.0000000000
11
6.9532242503
21
-16.6001473928
31
0.0000000000
11
6.9174413151
21
-16.5547955744
31
0.0000000000
11
6.8797522336
21
-16.5126290371
31
0.0000000000
11
6.8404746462
21
-16.4740030220
31
0.0000000000
11
6.7999365493
21
-16.4392407199
31
0.0000000000
11
6.7584872417
21
-16.4086416131
31
0.0000000000
11
6.7164672913
21
-16.3824574257
31
0.0000000000
11
6.6742416218
21
-16.3609157186
31
0.0000000000
11
6.6321588210
21
-16.3441940823
31
0.0000000000
11
6.5905783699
21
-16.3324357320
31
0.0000000000
11
6.5498532042
21
-16.3257397728
31
0.0000000000
11
6.5103190237
21
-16.3241618076
31
0.0000000000
11
6.4723236688
21
-16.3277148994
31
0.0000000000
11
6.4361687771
21
-16.3363711089
31
0.0000000000
11
6.4032702618
21
-16.3495186887
31
0.0000000000
0
SPLINE
5
314
100
AcDbEntity
8
0
100
AcDbSpline
62
7
6
CONTINUOUS
70
0
71
3
72
16
73
12
74
10
42
0.0000001000
43
0.0000001000
44
0.0000000001
12
-0.6477237080
22
0.0795217842
32
0.0000000000
13
-0.6370939664
23
-0.1415967865
33
0.0000000000
40
0.0000000000
40
0.0000000000
40
0.0000000000
40
0.0000000000
40
0.1173406975
40
0.2357344672
40
0.3546460500
40
0.4735347232
40
0.5918599814
40
0.7090872226
40
0.8246935141
40
0.9381735194
40
1.0000000000
40
1.0000000000
40
1.0000000000
40
1.0000000000
10
3.9110303530
20
-14.2849214017
30
0.0000000000
10
3.8856955691
20
-14.2818110212
30
0.0000000000
10
3.8346677206
20
-14.2765839658
30
0.0000000000
10
3.7576570824
20
-14.2717206060
30
0.0000000000
10
3.6801786540
20
-14.2698164602
30
0.0000000000
10
3.6026994129
20
-14.2708832336
30
0.0000000000
10
3.5256842901
20
-14.2749144891
30
0.0000000000
10
3.4495959393
20
-14.2818859946
30
0.0000000000
10
3.3748911767
20
-14.2917558067
30
0.0000000000
10
3.3125317136
20
-14.3026310743
30
0.0000000000
10
3.2752001722
20
-14.3104440294
30
0.0000000000
10
3.2620704130
20
-14.3133621730
30
0.0000000000
11
3.9110303530
21
-14.2849214017
31
0.0000000000
11
3.8348556838
21
-14.2771014622
31
0.0000000000
11
3.7577476928
21
-14.2722219541
31
0.0000000000
11
3.6801710469
21
-14.2703123247
31
0.0000000000
11
3.6025932549
21
-14.2713841321
31
0.0000000000
11
3.5254818536
21
-14.2754309738
31
0.0000000000
11
3.4493015922
21
-14.2824285228
31
0.0000000000
11
3.3745116328
21
-14.2923346722
31
0.0000000000
11
3.3015627847
21
-14.3050897863
31
0.0000000000
11
3.2620704130
21
-14.3133621730
31
0.0000000000
0
SPLINE
5
315
100
AcDbEntity
8
0
100
AcDbSpline
62
7
6
CONTINUOUS
70
0
71
3
72
15
73
11
74
9
42
0.0000001000
43
0.0000001000
44
0.0000000001
12
0.2089313837
22
0.1104501596
32
0.0000000000
13
0.0000268931
23
0.2366758691
33
0.0000000000
40
0.0000000000
40
0.0000000000
40
0.0000000000
40
0.0000000000
40
0.1564757680
40
0.3031749467
40
0.4400731468
40
0.5675503602
40
0.6864710642
40
0.7982536718
40
0.9048928238
40
1.0000000000
40
1.0000000000
40
1.0000000000
40
1.0000000000
10
7.0523170435
20
18.8043143607
30
0.0000000000
10
7.0632146097
20
18.8100752852
30
0.0000000000
10
7.0839141056
20
18.8220541711
30
0.0000000000
10
7.1122918317
20
18.8420552926
30
0.0000000000
10
7.1367695984
20
18.8633558019
30
0.0000000000
10
7.1571144607
20
18.8857758550
30
0.0000000000
10
7.1731231952
20
18.9091321143
30
0.0000000000
10
7.1846125622
20
18.9332294306
30
0.0000000000
10
7.1912335359
20
18.9571672248
30
0.0000000000
10
7.1926461339
20
18.9730843636
30
0.0000000000
10
7.1926469864
20
18.9805875548
30
0.0000000000
11
7.0523170435
21
18.8043143607
31
0.0000000000
11
7.0842753939
21
18.8229200224
31
0.0000000000
11
7.1125490979
21
18.8429839079
31
0.0000000000
11
7.1368721373
21
18.8643172246
31
0.0000000000
11
7.1570156802
21
18.8867192360
31
0.0000000000
11
7.1727902337
21
18.9099791524
31
0.0000000000
11
7.1840474256
21
18.9338781170
31
0.0000000000
11
7.1906813968
21
18.9581912674
31
0.0000000000
11
7.1926469864
21
18.9805875548
31
0.0000000000
0
SPLINE
5
316
100
AcDbEntity
8
0
100
AcDbSpline
62
7
6
CONTINUOUS
70
0
71
3
72
12
73
8
74
6
42
0.0000001000
43
0.0000001000
44
0.0000000001
12
-0.2970407891
22
0.0405465654
32
0.0000000000
13
-0.2997952806
23
-0.0002099804
33
0.0000000000
40
0.0000000000
40
0.0000000000
40
0.0000000000
40
0.0000000000
40
0.2183315244
40
0.4286854847
40
0.6298350498
40
0.8206137550
40
1.0000000000
40
1.0000000000
40
1.0000000000
40
1.0000000000
10
3.2780020472
20
21.9389643664
30
0.0000000000
10
3.2563842578
20
21.9419152308
30
0.0000000000
10
3.2138763130
20
21.9472659798
30
0.0000000000
10
3.1512589085
20
21.9536920261
30
0.0000000000
10
3.0912435144
20
21.9583305233
30
0.0000000000
10
3.0342126794
20
21.9611417349
30
0.0000000000
10
2.9972189360
20
21.9618033154
30
0.0000000000
10
2.9792925528
20
21.9617907595
30
0.0000000000
11
3.2780020472
21
21.9389643664
31
0.0000000000
11
3.2130563647
21
21.9471121336
31
0.0000000000
11
3.1503193139
21
21.9535169821
31
0.0000000000
11
3.0901917939
21
21.9581233023
31
0.0000000000
11
3.0330641667
21
21.9608897062
31
0.0000000000
11
2.9792925528
21
21.9617907595
31
0.0000000000
0
SPLINE
5
317
100
AcDbEntity
8
0
100
AcDbSpline
62
7
6
CONTINUOUS
70
0
71
3
72
11
73
7
74
5
42
0.0000001000
43
0.0000001000
44
0.0000000001
12
0.0913495034
22
0.0900462114
32
0.0000000000
13
0.0393686174
23
0.1221429253
33
0.0000000000
40
0.0000000000
40
0.0000000000
40
0.0000000000
40
0.0000000000
40
0.2455064636
40
0.4992905854
40
0.7644436223
40
1.0000000000
40
1.0000000000
40
1.0000000000
40
1.0000000000
10
7.0462005339
20
18.7323902020
30
0.0000000000
10
7.0536761651
20
18.7397591777
30
0.0000000000
10
7.0678938508
20
18.7557859839
30
0.0000000000
10
7.0861118809
20
18.7830362614
30
0.0000000000
10
7.1004563237
20
18.8120237201
30
0.0000000000
10
7.1078754755
20
18.8321385473
30
0.0000000000
10
7.1109666518
20
18.8417290624
30
0.0000000000
11
7.0462005339
21
18.7323902020
31
0.0000000000
11
7.0670975204
21
18.7559485918
31
0.0000000000
11
7.0852427523
21
18.7829750989
31
0.0000000000
11
7.1004300203
21
18.8134069465
31
0.0000000000
11
7.1109666518
21
18.8417290624
31
0.0000000000
0
SPLINE
5
318
100
AcDbEntity
8
0
100
AcDbSpline
62
7
6
CONTINUOUS
70
0
71
3
72
17
73
13
74
11
42
0.0000001000
43
0.0000001000
44
0.0000000001
12
0.0368591756
22
0.4959250646
32
0.0000000000
13
-0.2236717062
23
0.4441522671
33
0.0000000000
40
0.0000000000
40
0.0000000000
40
0.0000000000
40
0.0000000000
40
0.0871735729
40
0.1784334930
40
0.2735778667
40
0.3726929407
40
0.4753792367
40
0.5810092945
40
0.6877555422
40
0.7942370707
40
0.8988221892
40
1.0000000000
40
1.0000000000
40
1.0000000000
40
1.0000000000
10
7.1329895542
20
-17.2356229038
30
0.0000000000
10
7.1340606029
20
-17.2212123838
30
0.0000000000
10
7.1354314179
20
-17.1916509628
30
0.0000000000
10
7.1353834476
20
-17.1462874343
30
0.0000000000
10
7.1332726021
20
-17.0989909612
30
0.0000000000
10
7.1289891022
20
-17.0499396424
30
0.0000000000
10
7.1223282052
20
-16.9993980150
30
0.0000000000
10
7.1130520205
20
-16.9479802204
30
0.0000000000
10
7.1009430871
20
-16.8965030562
30
0.0000000000
10
7.0858847938
20
-16.8459829726
30
0.0000000000
10
7.0678810009
20
-16.7974153605
30
0.0000000000
10
7.0537440718
20
-16.7663328507
30
0.0000000000
10
7.0462005339
20
-16.7513533994
30
0.0000000000
11
7.1329895542
21
-17.2356229038
31
0.0000000000
11
7.1350653701
21
-17.1923218292
31
0.0000000000
11
7.1350616504
21
-17.1469389154
31
0.0000000000
11
7.1329742588
21
-17.0996703575
31
0.0000000000
11
7.1286881176
21
-17.0505678437
31
0.0000000000
11
7.1219983795
21
-16.9999427611
31
0.0000000000
11
7.1126365497
21
-16.9482546521
31
0.0000000000
11
7.1004304347
21
-16.8965928838
31
0.0000000000
11
7.0852427995
21
-16.8458651369
31
0.0000000000
11
7.0670973679
21
-16.7971237245
31
0.0000000000
11
7.0462005339
21
-16.7513533994
31
0.0000000000
0
SPLINE
5
319
100
AcDbEntity
8
0
100
AcDbSpline
62
7
6
CONTINUOUS
70
0
71
3
72
12
73
8
74
6
42
0.0000001000
43
0.0000001000
44
0.0000000001
12
0.0349863334
22
0.0134981439
32
0.0000000000
13
0.0336616212
23
-0.0168304655
33
0.0000000000
40
0.0000000000
40
0.0000000000
40
0.0000000000
40
0.0000000000
40
0.2750472704
40
0.5256177068
40
0.7494888606
40
0.9495384626
40
1.0000000000
40
1.0000000000
40
1.0000000000
40
1.0000000000
10
2.2761459171
20
-20.9997819283
30
0.0000000000
10
2.2793535489
20
-20.9985443858
30
0.0000000000
10
2.2856508779
20
-20.9965759778
30
0.0000000000
10
2.2949661862
20
-20.9952230936
30
0.0000000000
10
2.3034464326
20
-20.9955665684
30
0.0000000000
10
2.3092339965
20
-20.9970879224
30
0.0000000000
10
2.3120966606
20
-20.9983899433
30
0.0000000000
10
2.3126628663
20
-20.9986730403
30
0.0000000000
11
2.2761459171
21
-20.9997819283
31
0.0000000000
11
2.2860086195
21
-20.9967635142
31
0.0000000000
11
2.2953170747
21
-20.9954811653
31
0.0000000000
11
2.3037018861
21
-20.9958976465
31
0.0000000000
11
2.3109355266
21
-20.9978856321
31
0.0000000000
11
2.3126628663
21
-20.9986730403
31
0.0000000000
0
SPLINE
5
31A
100
AcDbEntity
8
0
100
AcDbSpline
62
7
6
CONTINUOUS
70
0
71
3
72
14
73
10
74
8
42
0.0000001000
43
0.0000001000
44
0.0000000001
12
0.0000000000
22
0.0635459366
32
0.0000000000
13
-0.0569551129
23
0.0284687307
33
0.0000000000
40
0.0000000000
40
0.0000000000
40
0.0000000000
40
0.0000000000
40
0.1776816678
40
0.3461082169
40
0.5035158024
40
0.6501587503
40
0.7899755049
40
0.9251386695
40
1.0000000000
40
1.0000000000
40
1.0000000000
40
1.0000000000
10
3.2620791491
20
-21.5144736994
30
0.0000000000
10
3.2620791491
20
-21.5107100501
30
0.0000000000
10
3.2616833470
20
-21.5033698768
30
0.0000000000
10
3.2597816121
20
-21.4928442593
30
0.0000000000
10
3.2566088638
20
-21.4833114372
30
0.0000000000
10
3.2522142041
20
-21.4749471373
30
0.0000000000
10
3.2466446697
20
-21.4678927706
30
0.0000000000
10
3.2409157046
20
-21.4631034060
30
0.0000000000
10
3.2370498595
20
-21.4608669531
30
0.0000000000
10
3.2356286143
20
-21.4601565507
30
0.0000000000
11
3.2620791491
21
-21.5144736994
31
0.0000000000
11
3.2614325596
21
-21.5032012805
31
0.0000000000
11
3.2594841891
21
-21.4926772951
31
0.0000000000
11
3.2562769740
21
-21.4832028016
31
0.0000000000
11
3.2518982233
21
-21.4749771000
31
0.0000000000
11
3.2463581110
21
-21.4680311235
31
0.0000000000
11
3.2397515629
21
-21.4625424402
31
0.0000000000
11
3.2356286143
21
-21.4601565507
31
0.0000000000
0
SPLINE
5
31B
100
AcDbEntity
8
0
100
AcDbSpline
62
7
6
CONTINUOUS
70
0
71
3
72
18
73
14
74
12
42
0.0000001000
43
0.0000001000
44
0.0000000001
12
0.1210281817
22
0.0711836247
32
0.0000000000
13
-0.0000000000
23
0.1404098615
33
0.0000000000
40
0.0000000000
40
0.0000000000
40
0.0000000000
40
0.0000000000
40
0.0817394914
40
0.1684231335
40
0.2586186777
40
0.3511837374
40
0.4464940797
40
0.5432352169
40
0.6392858448
40
0.7333073566
40
0.8257105570
40
0.9151456955
40
1.0000000000
40
1.0000000000
40
1.0000000000
40
1.0000000000
10
3.1964046260
20
14.4337262591
30
0.0000000000
10
3.1997022200
20
14.4356657635
30
0.0000000000
10
3.2062536318
20
14.4400861686
30
0.0000000000
10
3.2155141470
20
14.4479117064
30
0.0000000000
10
3.2243123996
20
14.4569732172
30
0.0000000000
10
3.2325003379
20
14.4671111138
30
0.0000000000
10
3.2399492597
20
14.4781744920
30
0.0000000000
10
3.2465133306
20
14.4899714374
30
0.0000000000
10
3.2520379944
20
14.5022231817
30
0.0000000000
10
3.2564382139
20
14.5147072505
30
0.0000000000
10
3.2596507118
20
14.5272308944
30
0.0000000000
10
3.2616143483
20
14.5395760956
30
0.0000000000
10
3.2620791491
20
14.5477383652
30
0.0000000000
10
3.2620791491
20
14.5517098256
30
0.0000000000
11
3.1964046260
21
14.4337262591
31
0.0000000000
11
3.2059386947
21
14.4401156069
31
0.0000000000
11
3.2152543967
21
14.4479486609
31
0.0000000000
11
3.2240922366
21
14.4570193936
31
0.0000000000
11
3.2322701997
21
14.4671210844
31
0.0000000000
11
3.2397515629
21
14.4782170670
31
0.0000000000
11
3.2463581110
21
14.4900856196
31
0.0000000000
11
3.2518982233
21
14.5023816203
31
0.0000000000
11
3.2562769740
21
14.5148358324
31
0.0000000000
11
3.2594841891
21
14.5274074975
31
0.0000000000
11
3.2614325596
21
14.5398130024
31
0.0000000000
11
3.2620791491
21
14.5517098256
31
0.0000000000
0
SPLINE
5
31C
100
AcDbEntity
8
0
100
AcDbSpline
62
7
6
CONTINUOUS
70
0
71
3
72
9
73
5
74
3
42
0.0000001000
43
0.0000001000
44
0.0000000001
12
-0.2176765804
22
-0.0839822161
32
0.0000000000
13
-0.2182778849
23
-0.0824067427
33
0.0000000000
40
0.0000000000
40
0.0000000000
40
0.0000000000
40
0.0000000000
40
0.4828737311
40
1.0000000000
40
1.0000000000
40
1.0000000000
40
1.0000000000
10
2.2761459171
20
-20.9997819283
30
0.0000000000
10
2.2411091496
20
-21.0132995303
30
0.0000000000
10
2.1685002252
20
-21.0411639896
30
0.0000000000
10
2.0957912710
20
-21.0687664482
30
0.0000000000
10
2.0581655283
20
-21.0829713453
30
0.0000000000
11
2.2761459171
21
-20.9997819283
31
0.0000000000
11
2.1709639415
21
-21.0401484712
31
0.0000000000
11
2.0581655283
21
-21.0829713453
31
0.0000000000
0
SPLINE
5
31D
100
AcDbEntity
8
0
100
AcDbSpline
62
7
6
CONTINUOUS
70
0
71
3
72
23
73
19
74
17
42
0.0000001000
43
0.0000001000
44
0.0000000001
12
0.6584682159
22
0.3248547752
32
0.0000000000
13
0.0000000000
23
0.7342417969
33
0.0000000000
40
0.0000000000
40
0.0000000000
40
0.0000000000
40
0.0000000000
40
0.0543581998
40
0.1113751130
40
0.1706052843
40
0.2315612873
40
0.2942755445
40
0.3587356554
40
0.4242805524
40
0.4902209148
40
0.5565026967
40
0.6230740603
40
0.6892292136
40
0.7542542345
40
0.8180854527
40
0.8807061337
40
0.9415367480
40
1.0000000000
40
1.0000000000
40
1.0000000000
40
1.0000000000
10
2.9054936114
20
-19.8952794518
30
0.0000000000
10
2.9174246603
20
-19.8893932782
30
0.0000000000
10
2.9413013995
20
-19.8761515658
30
0.0000000000
10
2.9759733061
20
-19.8528042531
30
0.0000000000
10
3.0099382313
20
-19.8257651251
30
0.0000000000
10
3.0428294546
20
-19.7953445084
30
0.0000000000
10
3.0744036338
20
-19.7617825670
30
0.0000000000
10
3.1043979188
20
-19.7253372750
30
0.0000000000
10
3.1324654208
20
-19.6864125271
30
0.0000000000
10
3.1583057079
20
-19.6454484827
30
0.0000000000
10
3.1817288753
20
-19.6027696616
30
0.0000000000
10
3.2025428634
20
-19.5587007526
30
0.0000000000
10
3.2205051776
20
-19.5137250264
30
0.0000000000
10
3.2354237769
20
-19.4683547266
30
0.0000000000
10
3.2471928324
20
-19.4229590095
30
0.0000000000
10
3.2557130952
20
-19.3778835794
30
0.0000000000
10
3.2608787332
20
-19.3336239464
30
0.0000000000
10
3.2620791491
20
-19.3044166333
30
0.0000000000
10
3.2620791491
20
-19.2901079122
30
0.0000000000
11
2.9054936114
21
-19.8952794518
31
0.0000000000
11
2.9404355425
21
-19.8759912646
31
0.0000000000
11
2.9752003234
21
-19.8526670000
31
0.0000000000
11
3.0092618003
21
-19.8256275443
31
0.0000000000
11
3.0421527313
21
-19.7952741912
31
0.0000000000
11
3.0737334993
21
-19.7617626887
31
0.0000000000
11
3.1038329044
21
-19.7252375032
31
0.0000000000
11
3.1319976960
21
-19.6862139536
31
0.0000000000
11
3.1578390641
21
-19.6452707096
31
0.0000000000
11
3.1812569894
21
-19.6026085072
31
0.0000000000
11
3.2021270872
21
-19.5584084805
31
0.0000000000
11
3.2201296929
21
-19.5132938724
31
0.0000000000
11
3.2350216989
21
-19.4679317062
31
0.0000000000
11
3.2467526517
21
-19.4225560317
31
0.0000000000
11
3.2552514193
21
-19.3773695983
31
0.0000000000
11
3.2603772787
21
-19.3330003256
31
0.0000000000
11
3.2620791491
21
-19.2901079122
31
0.0000000000
0
SPLINE
5
31E
100
AcDbEntity
8
0
100
AcDbSpline
62
7
6
CONTINUOUS
70
0
71
3
72
17
73
13
74
11
42
0.0000001000
43
0.0000001000
44
0.0000000001
12
0.0000000000
22
0.3178622239
32
0.0000000000
13
-0.2845910114
23
0.1422893963
33
0.0000000000
40
0.0000000000
40
0.0000000000
40
0.0000000000
40
0.0000000000
40
0.1298802644
40
0.2549380931
40
0.3743084214
40
0.4876012459
40
0.5957438094
40
0.6997542822
40
0.7999227689
40
0.8969054761
40
0.9925055415
40
1.0000000000
40
1.0000000000
40
1.0000000000
40
1.0000000000
10
3.2620791491
20
12.3273440383
30
0.0000000000
10
3.2620791491
20
12.3411053815
30
0.0000000000
10
3.2610111231
20
12.3681331224
30
0.0000000000
10
3.2559717077
20
12.4075253268
30
0.0000000000
10
3.2475567261
20
12.4445478429
30
0.0000000000
10
3.2358607895
20
12.4787885332
30
0.0000000000
10
3.2209731794
20
12.5099856665
30
0.0000000000
10
3.2029779190
20
12.5378743373
30
0.0000000000
10
3.1820477634
20
12.5621073134
30
0.0000000000
10
3.1584269791
20
12.5823958432
30
0.0000000000
10
3.1403321936
20
12.5936059092
30
0.0000000000
10
3.1305824284
20
12.5985559307
30
0.0000000000
10
3.1298714766
20
12.5989113914
30
0.0000000000
11
3.2620791491
21
12.3273440383
31
0.0000000000
11
3.2603772787
21
12.3685929746
31
0.0000000000
11
3.2552514193
21
12.4080122624
31
0.0000000000
11
3.2467526517
21
12.4449915313
31
0.0000000000
11
3.2350216989
21
12.4790387565
31
0.0000000000
11
3.2201296929
21
12.5100198796
31
0.0000000000
11
3.2021270872
21
12.5377495734
31
0.0000000000
11
3.1812569894
21
12.5617955810
31
0.0000000000
11
3.1578390641
21
12.5818433558
31
0.0000000000
11
3.1319976960
21
12.5978318806
31
0.0000000000
11
3.1298714766
21
12.5989113914
31
0.0000000000
0
SPLINE
5
31F
100
AcDbEntity
8
0
100
AcDbSpline
62
7
6
CONTINUOUS
70
0
71
3
72
14
73
10
74
8
42
0.0000001000
43
0.0000001000
44
0.0000000001
12
0.2101719058
22
0.0992725062
32
0.0000000000
13
0.2081079805
23
-0.1040495227
33
0.0000000000
40
0.0000000000
40
0.0000000000
40
0.0000000000
40
0.0000000000
40
0.1626834909
40
0.3186121555
40
0.4673004327
40
0.6089345410
40
0.7454197291
40
0.8788307225
40
1.0000000000
40
1.0000000000
40
1.0000000000
40
1.0000000000
10
1.9862547958
20
13.0477843347
30
0.0000000000
10
1.9976519622
20
13.0531676673
30
0.0000000000
10
2.0204849218
20
13.0626769885
30
0.0000000000
10
2.0552545674
20
13.0730269533
30
0.0000000000
10
2.0893985104
20
13.0789945970
30
0.0000000000
10
2.1225297258
20
13.0805057594
30
0.0000000000
10
2.1543866058
20
13.0775425298
30
0.0000000000
10
2.1839232885
20
13.0702763055
30
0.0000000000
10
2.2022272299
20
13.0627333343
30
0.0000000000
10
2.2106326611
20
13.0585307992
30
0.0000000000
11
1.9862547958
21
13.0477843347
31
0.0000000000
11
2.0211967270
21
13.0622391782
31
0.0000000000
11
2.0559615078
21
13.0724868722
31
0.0000000000
11
2.0900229848
21
13.0783402024
31
0.0000000000
11
2.1229139158
21
13.0797492522
31
0.0000000000
11
2.1544946838
21
13.0767349428
31
0.0000000000
11
2.1845940889
21
13.0692764150
31
0.0000000000
11
2.2106326611
21
13.0585307992
31
0.0000000000
0
SPLINE
5
320
100
AcDbEntity
8
0
100
AcDbSpline
62
7
6
CONTINUOUS
70
0
71
3
72
10
73
6
74
4
42
0.0000001000
43
0.0000001000
44
0.0000000001
12
-0.0910895484
22
0.0183912975
32
0.0000000000
13
-0.0922474941
23
0.0112225432
33
0.0000000000
40
0.0000000000
40
0.0000000000
40
0.0000000000
40
0.0000000000
40
0.3724278250
40
0.7079134808
40
1.0000000000
40
1.0000000000
40
1.0000000000
40
1.0000000000
10
-15.5978725815
20
24.8230677482
30
0.0000000000
10
-15.6091806756
20
24.8253508918
30
0.0000000000
10
-15.6307169151
20
24.8294892048
30
0.0000000000
10
-15.6612644178
20
24.8346392089
30
0.0000000000
10
-15.6805185994
20
24.8373452477
30
0.0000000000
10
-15.6895000159
20
24.8384378989
30
0.0000000000
11
-15.5978725815
21
24.8230677482
31
0.0000000000
11
-15.6318653383
21
24.8295688348
31
0.0000000000
11
-15.6626139919
21
24.8347124095
31
0.0000000000
11
-15.6895000159
21
24.8384378989
31
0.0000000000
0
SPLINE
5
321
100
AcDbEntity
8
0
100
AcDbSpline
62
7
6
CONTINUOUS
70
0
71
3
72
12
73
8
74
6
42
0.0000001000
43
0.0000001000
44
0.0000000001
12
-0.0586490800
22
0.0071350646
32
0.0000000000
13
-0.0480102004
23
-0.0376847944
33
0.0000000000
40
0.0000000000
40
0.0000000000
40
0.0000000000
40
0.0000000000
40
0.3590273607
40
0.6417207626
40
0.8503254769
40
0.9924640115
40
1.0000000000
40
1.0000000000
40
1.0000000000
40
1.0000000000
10
-15.6895000159
20
24.8384378989
30
0.0000000000
10
-15.6965188907
20
24.8392917934
30
0.0000000000
10
-15.7091010468
20
24.8405127144
30
0.0000000000
10
-15.7258831991
20
24.8409131076
30
0.0000000000
10
-15.7383047200
20
24.8395869683
30
0.0000000000
10
-15.7451726771
20
24.8375290252
30
0.0000000000
10
-15.7475967430
20
24.8356963230
30
0.0000000000
10
-15.7477173445
20
24.8356016590
30
0.0000000000
11
-15.6895000159
21
24.8384378989
31
0.0000000000
11
-15.7106236812
21
24.8403703632
31
0.0000000000
11
-15.7273248605
21
24.8405308579
31
0.0000000000
11
-15.7395534590
21
24.8389949201
31
0.0000000000
11
-15.7473515153
21
24.8358784066
31
0.0000000000
11
-15.7477173445
21
24.8356016590
31
0.0000000000
0
SPLINE
5
322
100
AcDbEntity
8
0
100
AcDbSpline
62
7
6
CONTINUOUS
70
0
71
3
72
30
73
26
74
24
42
0.0000001000
43
0.0000001000
44
0.0000000001
12
-0.6285403886
22
-0.3100899052
32
0.0000000000
13
0.0293284224
23
0.7014716098
33
0.0000000000
40
0.0000000000
40
0.0000000000
40
0.0000000000
40
0.0000000000
40
0.0455317617
40
0.0938041823
40
0.1442095979
40
0.1961975854
40
0.2498507104
40
0.3046183140
40
0.3597253127
40
0.4147409471
40
0.4696643814
40
0.5237251214
40
0.5761945716
40
0.6270482382
40
0.6759997476
40
0.7224268865
40
0.7659549936
40
0.8068517524
40
0.8448928516
40
0.8799300713
40
0.9123006448
40
0.9426520108
40
0.9714470938
40
0.9993579642
40
1.0000000000
40
1.0000000000
40
1.0000000000
40
1.0000000000
10
-15.8543640434
20
21.8855138773
30
0.0000000000
10
-15.8639035605
20
21.8808075641
30
0.0000000000
10
-15.8839802128
20
21.8719539822
30
0.0000000000
10
-15.9157584374
20
21.8606853878
30
0.0000000000
10
-15.9496779296
20
21.8511869006
30
0.0000000000
10
-15.9853492717
20
21.8435583995
30
0.0000000000
10
-16.0224123247
20
21.8378781379
30
0.0000000000
10
-16.0604602772
20
21.8342196890
30
0.0000000000
10
-16.0989685774
20
21.8326313391
30
0.0000000000
10
-16.1375427325
20
21.8331196991
30
0.0000000000
10
-16.1757903523
20
21.8356842781
30
0.0000000000
10
-16.2132463195
20
21.8403025806
30
0.0000000000
10
-16.2494382745
20
21.8469094575
30
0.0000000000
10
-16.2840017572
20
21.8554322039
30
0.0000000000
10
-16.3165842957
20
21.8657943929
30
0.0000000000
10
-16.3467433953
20
21.8778612862
30
0.0000000000
10
-16.3741488478
20
21.8914904323
30
0.0000000000
10
-16.3985304030
20
21.9065493042
30
0.0000000000
10
-16.4196198154
20
21.9229001256
30
0.0000000000
10
-16.4371263780
20
21.9403367144
30
0.0000000000
10
-16.4508672539
20
21.9586954572
30
0.0000000000
10
-16.4606674874
20
21.9778298855
30
0.0000000000
10
-16.4663246608
20
21.9975118513
30
0.0000000000
10
-16.4672650616
20
22.0109786815
30
0.0000000000
10
-16.4670023236
20
22.0176557331
30
0.0000000000
10
-16.4669960470
20
22.0178058564
30
0.0000000000
11
-15.8543640434
21
21.8855138773
31
0.0000000000
11
-15.8835336255
21
21.8725716437
31
0.0000000000
11
-15.9154010314
21
21.8612085684
31
0.0000000000
11
-15.9494075880
21
21.8516379600
31
0.0000000000
11
-15.9850315576
21
21.8439845467
31
0.0000000000
11
-16.0221977228
21
21.8382638025
31
0.0000000000
11
-16.0604050404
21
21.8345750540
31
0.0000000000
11
-16.0989948372
21
21.8329776923
31
0.0000000000
11
-16.1375505148
21
21.8334690295
31
0.0000000000
11
-16.1759576310
21
21.8360566785
31
0.0000000000
11
-16.2135597306
21
21.8407150266
31
0.0000000000
11
-16.2497304768
21
21.8473500557
31
0.0000000000
11
-16.2843255200
21
21.8559245287
31
0.0000000000
11
-16.3170036573
21
21.8663754835
31
0.0000000000
11
-16.3471888231
21
21.8785273400
31
0.0000000000
11
-16.3744676721
21
21.8921865746
31
0.0000000000
11
-16.3988011726
21
21.9073347161
31
0.0000000000
11
-16.4197990791
21
21.9237646581
31
0.0000000000
11
-16.4371054071
21
21.9411863256
31
0.0000000000
11
-16.4505918760
21
21.9594302485
31
0.0000000000
11
-16.4601783703
21
21.9784200489
31
0.0000000000
11
-16.4656717213
21
21.9978396390
31
0.0000000000
11
-16.4670137698
21
22.0173554409
31
0.0000000000
11
-16.4669960470
21
22.0178058564
31
0.0000000000
0
SPLINE
5
323
100
AcDbEntity
8
0
100
AcDbSpline
62
7
6
CONTINUOUS
70
0
71
3
72
29
73
25
74
23
42
0.0000001000
43
0.0000001000
44
0.0000000001
12
-0.6243392611
22
-0.3083895336
32
0.0000000000
13
-0.0117022008
23
0.6975370864
33
0.0000000000
40
0.0000000000
40
0.0000000000
40
0.0000000000
40
0.0000000000
40
0.0458628578
40
0.0944505219
40
0.1451626306
40
0.1976306133
40
0.2517872159
40
0.3068921688
40
0.3623330292
40
0.4180879207
40
0.4734466765
40
0.5276885002
40
0.5807851316
40
0.6322149082
40
0.6813109160
40
0.7280190358
40
0.7721439137
40
0.8132528195
40
0.8513598498
40
0.8867360212
40
0.9194083406
40
0.9497668994
40
0.9786897298
40
1.0000000000
40
1.0000000000
40
1.0000000000
40
1.0000000000
10
-1.9214946592
20
14.9197206655
30
0.0000000000
10
-1.9310393201
20
14.9150061237
30
0.0000000000
10
-1.9511204109
20
14.9061408329
30
0.0000000000
10
-1.9828981584
20
14.8948591381
30
0.0000000000
10
-2.0168413466
20
14.8853387118
30
0.0000000000
10
-2.0525726387
20
14.8776822181
30
0.0000000000
10
-2.0896979875
20
14.8719794413
30
0.0000000000
10
-2.1277705713
20
14.8683034614
30
0.0000000000
10
-2.1663567916
20
14.8666906462
30
0.0000000000
10
-2.2050329019
20
14.8671599657
30
0.0000000000
10
-2.2433491159
20
14.8697114297
30
0.0000000000
10
-2.2808529894
20
14.8743099737
30
0.0000000000
10
-2.3171332930
20
14.8809026814
30
0.0000000000
10
-2.3517838345
20
14.8894215832
30
0.0000000000
10
-2.3843860546
20
14.8997608378
30
0.0000000000
10
-2.4145851632
20
14.9118023097
30
0.0000000000
10
-2.4420572688
20
14.9254239191
30
0.0000000000
10
-2.4664706062
20
14.9404662424
30
0.0000000000
10
-2.4875622311
20
14.9567660421
30
0.0000000000
10
-2.5051071124
20
14.9741716356
30
0.0000000000
10
-2.5188816179
20
14.9925099735
30
0.0000000000
10
-2.5287005281
20
15.0115917909
30
0.0000000000
10
-2.5339510925
20
15.0296804683
30
0.0000000000
10
-2.5350867509
20
15.0413463606
30
0.0000000000
10
-2.5351698766
20
15.0463012618
30
0.0000000000
11
-1.9214946592
21
14.9197206655
31
0.0000000000
11
-1.9506814293
21
14.9067561156
31
0.0000000000
11
-1.9825458021
21
14.8953805564
31
0.0000000000
11
-2.0165345976
21
14.8857994748
31
0.0000000000
11
-2.0522524392
21
14.8781104094
31
0.0000000000
11
-2.0895234498
21
14.8723602943
31
0.0000000000
11
-2.1277167373
21
14.8686576343
31
0.0000000000
11
-2.1662890730
21
14.8670396608
31
0.0000000000
11
-2.2051111066
21
14.8675139359
31
0.0000000000
11
-2.2435741836
21
14.8700875286
31
0.0000000000
11
-2.2810620903
21
14.8747057929
31
0.0000000000
11
-2.3174344985
21
14.8813475955
31
0.0000000000
11
-2.3522016929
21
14.8899396205
31
0.0000000000
11
-2.3847735579
21
14.9003268245
31
0.0000000000
11
-2.4149600440
21
14.9124373689
31
0.0000000000
11
-2.4424504155
21
14.9261628624
31
0.0000000000
11
-2.4667687639
21
14.9412650803
31
0.0000000000
11
-2.4876936859
21
14.9575837312
31
0.0000000000
11
-2.5050886935
21
14.9750267166
31
0.0000000000
11
-2.5186433219
21
14.9932995703
31
0.0000000000
11
-2.5282066067
21
15.0121529830
31
0.0000000000
11
-2.5337385945
21
15.0315187670
31
0.0000000000
11
-2.5351698766
21
15.0463012618
31
0.0000000000
0
SPLINE
5
324
100
AcDbEntity
8
0
100
AcDbSpline
62
7
6
CONTINUOUS
70
0
71
3
72
20
73
16
74
14
42
0.0000001000
43
0.0000001000
44
0.0000000001
12
-0.3247014228
22
-0.1567802596
32
0.0000000000
13
-0.3225040326
23
0.1612520163
33
0.0000000000
40
0.0000000000
40
0.0000000000
40
0.0000000000
40
0.0000000000
40
0.0684018357
40
0.1410316459
40
0.2171626099
40
0.2962985772
40
0.3773784088
40
0.4598854627
40
0.5425844847
40
0.6249624422
40
0.7057878796
40
0.7845498053
40
0.8601985326
40
0.9322509056
40
1.0000000000
40
1.0000000000
40
1.0000000000
40
1.0000000000
10
-1.9570678574
20
10.2798598151
30
0.0000000000
10
-1.9644712485
20
10.2762851293
30
0.0000000000
10
-1.9800959358
20
10.2696464814
30
0.0000000000
10
-2.0048934971
20
10.2614256675
30
0.0000000000
10
-2.0314769114
20
10.2547290785
30
0.0000000000
10
-2.0594475297
20
10.2496582330
30
0.0000000000
10
-2.0884427498
20
10.2462786796
30
0.0000000000
10
-2.1180165367
20
10.2446430508
30
0.0000000000
10
-2.1477909318
20
10.2447722793
30
0.0000000000
10
-2.1773033167
20
10.2466643362
30
0.0000000000
10
-2.2061765777
20
10.2502950042
30
0.0000000000
10
-2.2339666408
20
10.2556077634
30
0.0000000000
10
-2.2603134709
20
10.2625340048
30
0.0000000000
10
-2.2848220817
20
10.2709688008
30
0.0000000000
10
-2.3002260266
20
10.2777473831
30
0.0000000000
10
-2.3075091453
20
10.2813889425
30
0.0000000000
11
-1.9570678574
21
10.2798598151
31
0.0000000000
11
-1.9797403347
21
10.2701512630
31
0.0000000000
11
-2.0045808598
21
10.2618585982
31
0.0000000000
11
-2.0311898065
21
10.2551133659
31
0.0000000000
11
-2.0592609654
21
10.2499943334
31
0.0000000000
11
-2.0882972101
21
10.2465912008
31
0.0000000000
11
-2.1180009299
21
10.2449394870
31
0.0000000000
11
-2.1478194712
21
10.2450695982
31
0.0000000000
11
-2.1774610142
21
10.2469802612
31
0.0000000000
11
-2.2063740508
21
10.2506362516
31
0.0000000000
11
-2.2342622555
21
10.2559994591
31
0.0000000000
11
-2.2606317085
21
10.2629758592
31
0.0000000000
11
-2.2851789963
21
10.2714840244
31
0.0000000000
11
-2.3075091453
21
10.2813889425
31
0.0000000000
0
SPLINE
5
325
100
AcDbEntity
8
0
100
AcDbSpline
62
7
6
CONTINUOUS
70
0
71
3
72
14
73
10
74
8
42
0.0000001000
43
0.0000001000
44
0.0000000001
12
-0.1078375592
22
0.0539187796
32
0.0000000000
13
-0.0000180400
23
0.1208611180
33
0.0000000000
40
0.0000000000
40
0.0000000000
40
0.0000000000
40
0.0000000000
40
0.1886068153
40
0.3626267087
40
0.5218490799
40
0.6677644490
40
0.8021347176
40
0.9290815808
40
1.0000000000
40
1.0000000000
40
1.0000000000
40
1.0000000000
10
-19.3111824478
20
18.7832255937
30
0.0000000000
10
-19.3179620806
20
18.7866154102
30
0.0000000000
10
-19.3307118015
20
18.7937351452
30
0.0000000000
10
-19.3478234551
20
18.8059446733
30
0.0000000000
10
-19.3619530960
20
18.8191243629
30
0.0000000000
10
-19.3728817248
20
18.8331107259
30
0.0000000000
10
-19.3804293452
20
18.8477587864
30
0.0000000000
10
-19.3838599946
20
18.8607856238
30
0.0000000000
10
-19.3844032309
20
18.8687575189
30
0.0000000000
10
-19.3844036573
20
18.8716146120
30
0.0000000000
11
-19.3111824478
21
18.7832255937
31
0.0000000000
11
-19.3309922839
21
18.7943906682
31
0.0000000000
11
-19.3480086145
21
18.8066643121
31
0.0000000000
11
-19.3619614146
21
18.8198490386
31
0.0000000000
11
-19.3726878295
21
18.8337931410
31
0.0000000000
11
-19.3799998104
21
18.8482496593
31
0.0000000000
11
-19.3838211363
21
18.8630704308
31
0.0000000000
11
-19.3844036573
21
18.8716146120
31
0.0000000000
0
SPLINE
5
326
100
AcDbEntity
8
0
100
AcDbSpline
62
7
6
CONTINUOUS
70
0
71
3
72
12
73
8
74
6
42
0.0000001000
43
0.0000001000
44
0.0000000001
12
-0.0586490800
22
0.0071350646
32
0.0000000000
13
-0.0480102004
23
-0.0376847944
33
0.0000000000
40
0.0000000000
40
0.0000000000
40
0.0000000000
40
0.0000000000
40
0.3590273607
40
0.6417207626
40
0.8503254769
40
0.9924640115
40
1.0000000000
40
1.0000000000
40
1.0000000000
40
1.0000000000
10
0.4325345951
20
16.7774205934
30
0.0000000000
10
0.4255157203
20
16.7782744878
30
0.0000000000
10
0.4129335643
20
16.7794954089
30
0.0000000000
10
0.3961514120
20
16.7798958021
30
0.0000000000
10
0.3837298911
20
16.7785696628
30
0.0000000000
10
0.3768619339
20
16.7765117196
30
0.0000000000
10
0.3744378680
20
16.7746790175
30
0.0000000000
10
0.3743172666
20
16.7745843535
30
0.0000000000
11
0.4325345951
21
16.7774205934
31
0.0000000000
11
0.4114109299
21
16.7793530577
31
0.0000000000
11
0.3947097506
21
16.7795135523
31
0.0000000000
11
0.3824811521
21
16.7779776146
31
0.0000000000
11
0.3746830958
21
16.7748611011
31
0.0000000000
11
0.3743172666
21
16.7745843535
31
0.0000000000
0
SPLINE
5
327
100
AcDbEntity
8
0
100
AcDbSpline
62
7
6
CONTINUOUS
70
0
71
3
72
10
73
6
74
4
42
0.0000001000
43
0.0000001000
44
0.0000000001
12
-0.0910895484
22
0.0183912975
32
0.0000000000
13
-0.0922474941
23
0.0112225432
33
0.0000000000
40
0.0000000000
40
0.0000000000
40
0.0000000000
40
0.0000000000
40
0.3724278250
40
0.7079134808
40
1.0000000000
40
1.0000000000
40
1.0000000000
40
1.0000000000
10
0.5241620295
20
16.7620504427
30
0.0000000000
10
0.5128539354
20
16.7643335863
30
0.0000000000
10
0.4913176959
20
16.7684718993
30
0.0000000000
10
0.4607701932
20
16.7736219034
30
0.0000000000
10
0.4415160116
20
16.7763279422
30
0.0000000000
10
0.4325345951
20
16.7774205934
30
0.0000000000
11
0.5241620295
21
16.7620504427
31
0.0000000000
11
0.4901692728
21
16.7685515292
31
0.0000000000
11
0.4594206192
21
16.7736951040
31
0.0000000000
11
0.4325345951
21
16.7774205934
31
0.0000000000
0
SPLINE
5
328
100
AcDbEntity
8
0
100
AcDbSpline
62
7
6
CONTINUOUS
70
0
71
3
72
14
73
10
74
8
42
0.0000001000
43
0.0000001000
44
0.0000000001
12
-0.2095059281
22
-0.1870022605
32
0.0000000000
13
-0.2704579689
23
-0.0759019834
33
0.0000000000
40
0.0000000000
40
0.0000000000
40
0.0000000000
40
0.0000000000
40
0.1749789697
40
0.3468458539
40
0.5140656886
40
0.6750073945
40
0.8279709895
40
0.9712715897
40
1.0000000000
40
1.0000000000
40
1.0000000000
40
1.0000000000
10
1.7750897482
20
-24.4842378822
30
0.0000000000
10
1.7628700378
20
-24.4951450365
30
0.0000000000
10
1.7378694456
20
-24.5159111462
30
0.0000000000
10
1.6987382835
20
-24.5439832255
30
0.0000000000
10
1.6588363301
20
-24.5685282739
30
0.0000000000
10
1.6188521855
20
-24.5893404912
30
0.0000000000
10
1.5795116968
20
-24.6062929137
30
0.0000000000
10
1.5507166863
20
-24.6162015485
30
0.0000000000
10
1.5352448836
20
-24.6206860707
30
0.0000000000
10
1.5326549411
20
-24.6214129184
30
0.0000000000
11
1.7750897482
21
-24.4842378822
31
0.0000000000
11
1.7372884008
21
-24.5156328529
31
0.0000000000
11
1.6980641133
21
-24.5437560809
31
0.0000000000
11
1.6580536259
21
-24.5683396862
31
0.0000000000
11
1.6179465672
21
-24.5891757301
31
0.0000000000
11
1.5784783295
21
-24.6061307858
31
0.0000000000
11
1.5404059822
21
-24.6191670558
31
0.0000000000
11
1.5326549411
21
-24.6214129184
31
0.0000000000
0
SPLINE
5
329
100
AcDbEntity
8
0
100
AcDbSpline
62
7
6
CONTINUOUS
70
0
71
3
72
10
73
6
74
4
42
0.0000001000
43
0.0000001000
44
0.0000000001
12
-0.1078913008
22
-0.1270765663
32
0.0000000000
13
-0.1243647157
23
-0.1110063241
33
0.0000000000
40
0.0000000000
40
0.0000000000
40
0.0000000000
40
0.0000000000
40
0.3399513497
40
0.6758612055
40
1.0000000000
40
1.0000000000
40
1.0000000000
40
1.0000000000
10
1.8913439892
20
-24.3649268939
30
0.0000000000
10
1.8791180581
20
-24.3793268440
30
0.0000000000
10
1.8541372553
20
-24.4073907638
30
0.0000000000
10
1.8153192095
20
-24.4471745176
30
0.0000000000
10
1.7885268913
20
-24.4722440635
30
0.0000000000
10
1.7750897482
20
-24.4842378822
30
0.0000000000
11
1.8913439892
21
-24.3649268939
31
0.0000000000
11
1.8536704108
21
-24.4072611480
31
0.0000000000
11
1.8145591196
21
-24.4473346952
31
0.0000000000
11
1.7750897482
21
-24.4842378822
31
0.0000000000
0
SPLINE
5
32A
100
AcDbEntity
8
0
100
AcDbSpline
62
7
6
CONTINUOUS
70
0
71
3
72
9
73
5
74
3
42
0.0000001000
43
0.0000001000
44
0.0000000001
12
0.0065049846
22
-0.0000227386
32
0.0000000000
13
0.0065036324
23
-0.0001345661
33
0.0000000000
40
0.0000000000
40
0.0000000000
40
0.0000000000
40
0.0000000000
40
0.5006678449
40
1.0000000000
40
1.0000000000
40
1.0000000000
40
1.0000000000
10
-6.0377554140
20
26.6456179768
30
0.0000000000
10
-6.0366698018
20
26.6456141819
30
0.0000000000
10
-6.0345014959
20
26.6455973376
30
0.0000000000
10
-6.0323334146
20
26.6455618546
30
0.0000000000
10
-6.0312509236
20
26.6455394569
30
0.0000000000
11
-6.0377554140
21
26.6456179768
31
0.0000000000
11
-6.0344986560
21
26.6455926430
31
0.0000000000
11
-6.0312509236
21
26.6455394569
31
0.0000000000
0
SPLINE
5
32B
100
AcDbEntity
8
0
100
AcDbSpline
62
7
6
CONTINUOUS
70
0
71
3
72
9
73
5
74
3
42
0.0000001000
43
0.0000001000
44
0.0000000001
12
0.0063092724
22
0.0064441957
32
0.0000000000
13
0.0062533747
23
0.0064984522
33
0.0000000000
40
0.0000000000
40
0.0000000000
40
0.0000000000
40
0.0000000000
40
0.4995814196
40
1.0000000000
40
1.0000000000
40
1.0000000000
40
1.0000000000
10
7.0460357302
20
-18.8300726682
30
0.0000000000
10
7.0470863952
20
-18.8289995347
30
0.0000000000
10
7.0491848267
20
-18.8268469029
30
0.0000000000
10
7.0512739418
20
-18.8246852285
30
0.0000000000
10
7.0523170435
20
-18.8236012465
30
0.0000000000
11
7.0460357302
21
-18.8300726682
31
0.0000000000
11
7.0491807448
21
-18.8268464481
31
0.0000000000
11
7.0523170435
21
-18.8236012465
31
0.0000000000
0
SPLINE
5
32C
100
AcDbEntity
8
0
100
AcDbSpline
62
9
6
CONTINUOUS
70
0
71
3
72
97
73
93
74
91
42
0.0000001000
43
0.0000001000
44
0.0000000001
12
0.0000050698
22
-1.6258518258
32
0.0000000000
13
1.1581213738
23
1.1409736587
33
0.0000000000
40
0.0000000000
40
0.0000000000
40
0.0000000000
40
0.0000000000
40
0.0070704291
40
0.0156069155
40
0.0240765256
40
0.0324886012
40
0.0408526515
40
0.0491783907
40
0.0574757094
40
0.0657543710
40
0.0740240724
40
0.0822943732
40
0.0905746636
40
0.0988741335
40
0.1072018272
40
0.1155665498
40
0.1239767125
40
0.1324403116
40
0.1409648750
40
0.1495574966
40
0.1582248457
40
0.1669732273
40
0.1758085229
40
0.1847361766
40
0.1937610531
40
0.2028874717
40
0.2121192853
40
0.2214599244
40
0.2309124254
40
0.2404794546
40
0.2501633898
40
0.2599659978
40
0.2698886006
40
0.2799321477
40
0.2900972550
40
0.3003842108
40
0.3107930935
40
0.3213238772
40
0.3319759132
40
0.3427482427
40
0.3536396736
40
0.3646488513
40
0.3757742078
40
0.3870139616
40
0.3983661290
40
0.4098285388
40
0.4213988441
40
0.4330744734
40
0.4448526416
40
0.4567304225
40
0.4687050099
40
0.4807735616
40
0.4929328709
40
0.5051796283
40
0.5175104151
40
0.5299217322
40
0.5424100348
40
0.5549719408
40
0.5676040145
40
0.5803026614
40
0.5930642250
40
0.6058849797
40
0.6187611926
40
0.6316891844
40
0.6446654374
40
0.6576864422
40
0.6707486756
40
0.6838485932
40
0.6969826777
40
0.7101474729
40
0.7233395116
40
0.7365553996
40
0.7497929825
40
0.7630496349
40
0.7763202925
40
0.7895997875
40
0.8028826265
40
0.8161620718
40
0.8294314267
40
0.8426863118
40
0.8559243832
40
0.8691435755
40
0.8823420319
40
0.8955181093
40
0.9086703862
40
0.9217976699
40
0.9348990029
40
0.9479736685
40
0.9610211954
40
0.9740413616
40
0.9870341985
40
1.0000000000
40
1.0000000000
40
1.0000000000
40
1.0000000000
10
-3.5079367380
20
17.1851540558
30
0.0000000000
10
-3.5079367261
20
17.1813222324
30
0.0000000000
10
-3.5078040636
20
17.1728640434
30
0.0000000000
10
-3.5071382512
20
17.1598302290
30
0.0000000000
10
-3.5058936639
20
17.1461084048
30
0.0000000000
10
-3.5041148142
20
17.1325397494
30
0.0000000000
10
-3.5018038908
20
17.1191305827
30
0.0000000000
10
-3.4989633781
20
17.1058870953
30
0.0000000000
10
-3.4955960490
20
17.0928154200
30
0.0000000000
10
-3.4917049755
20
17.0799216856
30
0.0000000000
10
-3.4872935612
20
17.0672120876
30
0.0000000000
10
-3.4823655324
20
17.0546928155
30
0.0000000000
10
-3.4769249358
20
17.0423700323
30
0.0000000000
10
-3.4709761033
20
17.0302497966
30
0.0000000000
10
-3.4645236162
20
17.0183380289
30
0.0000000000
10
-3.4575723003
20
17.0066405471
30
0.0000000000
10
-3.4501272587
20
16.9951631386
30
0.0000000000
10
-3.4421939131
20
16.9839116117
30
0.0000000000
10
-3.4337779992
20
16.9728917625
30
0.0000000000
10
-3.4248855489
20
16.9621093399
30
0.0000000000
10
-3.4155228311
20
16.9515699754
30
0.0000000000
10
-3.4056963179
20
16.9412791687
30
0.0000000000
10
-3.3954126637
20
16.9312422914
30
0.0000000000
10
-3.3846787730
20
16.9214646707
30
0.0000000000
10
-3.3735018503
20
16.9119516264
30
0.0000000000
10
-3.3618894244
20
16.9027084705
30
0.0000000000
10
-3.3498492925
20
16.8937404476
30
0.0000000000
10
-3.3373894610
20
16.8850526921
30
0.0000000000
10
-3.3245181074
20
16.8766502133
30
0.0000000000
10
-3.3112435245
20
16.8685378760
30
0.0000000000
10
-3.2975742292
20
16.8607204851
30
0.0000000000
10
-3.2835190181
20
16.8532028106
30
0.0000000000
10
-3.2690870353
20
16.8459896044
30
0.0000000000
10
-3.2542876620
20
16.8390855304
30
0.0000000000
10
-3.2391304791
20
16.8324951459
30
0.0000000000
10
-3.2236252036
20
16.8262228793
30
0.0000000000
10
-3.2077815887
20
16.8202730033
30
0.0000000000
10
-3.1916095875
20
16.8146497166
30
0.0000000000
10
-3.1751194280
20
16.8093571614
30
0.0000000000
10
-3.1583217053
20
16.8043994340
30
0.0000000000
10
-3.1412271653
20
16.7997805068
30
0.0000000000
10
-3.1238466701
20
16.7955042253
30
0.0000000000
10
-3.1061912038
20
16.7915743169
30
0.0000000000
10
-3.0882719108
20
16.7879944023
30
0.0000000000
10
-3.0701000989
20
16.7847679957
30
0.0000000000
10
-3.0516872356
20
16.7818985031
30
0.0000000000
10
-3.0330449767
20
16.7793892243
30
0.0000000000
10
-3.0141851957
20
16.7772433517
30
0.0000000000
10
-2.9951199811
20
16.7754639606
30
0.0000000000
10
-2.9758614642
20
16.7740539890
30
0.0000000000
10
-2.9564217354
20
16.7730162435
30
0.0000000000
10
-2.9368129770
20
16.7723534210
30
0.0000000000
10
-2.9170475982
20
16.7720681091
30
0.0000000000
10
-2.8971382870
20
16.7721627709
30
0.0000000000
10
-2.8770978677
20
16.7726397351
30
0.0000000000
10
-2.8569392815
20
16.7735011918
30
0.0000000000
10
-2.8366754497
20
16.7747491991
30
0.0000000000
10
-2.8163192705
20
16.7763856944
30
0.0000000000
10
-2.7958836917
20
16.7784124967
30
0.0000000000
10
-2.7753818422
20
16.7808312899
30
0.0000000000
10
-2.7548270504
20
16.7836436089
30
0.0000000000
10
-2.7342327707
20
16.7868508381
30
0.0000000000
10
-2.7136125305
20
16.7904542132
30
0.0000000000
10
-2.6929798169
20
16.7944548413
30
0.0000000000
10
-2.6723480795
20
16.7988537083
30
0.0000000000
10
-2.6517307769
20
16.8036516748
30
0.0000000000
10
-2.6311414831
20
16.8088494491
30
0.0000000000
10
-2.6105938857
20
16.8144475774
30
0.0000000000
10
-2.5901017535
20
16.8204464432
30
0.0000000000
10
-2.5696789392
20
16.8268462591
30
0.0000000000
10
-2.5493393626
20
16.8336470624
30
0.0000000000
10
-2.5290964150
20
16.8408489179
30
0.0000000000
10
-2.5089632219
20
16.8484518812
30
0.0000000000
10
-2.4889539296
20
16.8564555166
30
0.0000000000
10
-2.4690843373
20
16.8648584827
30
0.0000000000
10
-2.4493717544
20
16.8736583839
30
0.0000000000
10
-2.4298343480
20
16.8828519008
30
0.0000000000
10
-2.4104910094
20
16.8924347077
30
0.0000000000
10
-2.3913600163
20
16.9024020265
30
0.0000000000
10
-2.3724574783
20
16.9127495293
30
0.0000000000
10
-2.3537973242
20
16.9234736075
30
0.0000000000
10
-2.3353923826
20
16.9345709645
30
0.0000000000
10
-2.3172552632
20
16.9460381609
30
0.0000000000
10
-2.2993983871
20
16.9578715959
30
0.0000000000
10
-2.2818339793
20
16.9700675098
30
0.0000000000
10
-2.2645740614
20
16.9826219867
30
0.0000000000
10
-2.2476304446
20
16.9955309575
30
0.0000000000
10
-2.2310147192
20
17.0087902045
30
0.0000000000
10
-2.2147382630
20
17.0223953538
30
0.0000000000
10
-2.1988121823
20
17.0363419203
30
0.0000000000
10
-2.1832474947
20
17.0506251468
30
0.0000000000
10
-2.1731083622
20
17.0603788273
30
0.0000000000
10
-2.1681030383
20
17.0653100399
30
0.0000000000
11
-3.5079367380
21
17.1851540558
31
0.0000000000
11
-3.5077551734
21
17.1736605031
31
0.0000000000
11
-3.5070450859
21
17.1598004805
31
0.0000000000
11
-3.5057995012
21
17.1460874576
31
0.0000000000
11
-3.5040203180
21
17.1325277442
31
0.0000000000
11
-3.5017097522
21
17.1191276267
31
0.0000000000
11
-3.4988703023
21
17.1058932247
31
0.0000000000
11
-3.4955047076
21
17.0928304545
31
0.0000000000
11
-3.4916160352
21
17.0799454234
31
0.0000000000
11
-3.4872076554
21
17.0672442390
31
0.0000000000
11
-3.4822832569
21
17.0547330282
31
0.0000000000
11
-3.4768468393
21
17.0424178971
31
0.0000000000
11
-3.4709027004
21
17.0303048971
31
0.0000000000
11
-3.4644553476
21
17.0183998752
31
0.0000000000
11
-3.4575095076
21
17.0067085582
31
0.0000000000
11
-3.4500702135
21
16.9952367157
31
0.0000000000
11
-3.4421428059
21
16.9839901313
31
0.0000000000
11
-3.4337329665
21
16.9729746239
31
0.0000000000
11
-3.4248466693
21
16.9621959598
31
0.0000000000
11
-3.4154901468
21
16.9516598134
31
0.0000000000
11
-3.4056697973
21
16.9413716831
31
0.0000000000
11
-3.3953922207
21
16.9313369624
31
0.0000000000
11
-3.3846642196
21
16.9215609567
31
0.0000000000
11
-3.3734929698
21
16.9120490346
31
0.0000000000
11
-3.3618859957
21
16.9028065712
31
0.0000000000
11
-3.3498510832
21
16.8938388605
31
0.0000000000
11
-3.3373962260
21
16.8851510799
31
0.0000000000
11
-3.3245295915
21
16.8767482785
31
0.0000000000
11
-3.3112594943
21
16.8686353756
31
0.0000000000
11
-3.2975942878
21
16.8608171173
31
0.0000000000
11
-3.2835428343
21
16.8532983516
31
0.0000000000
11
-3.2691143043
21
16.8460838776
31
0.0000000000
11
-3.2543180931
21
16.8391783941
31
0.0000000000
11
-3.2391637816
21
16.8325864832
31
0.0000000000
11
-3.2236611453
21
16.8263126192
31
0.0000000000
11
-3.2078199923
21
16.8203611125
31
0.0000000000
11
-3.1916500141
21
16.8147360823
31
0.0000000000
11
-3.1751615996
21
16.8094417479
31
0.0000000000
11
-3.1583653874
21
16.8044822331
31
0.0000000000
11
-3.1412721649
21
16.7998615332
31
0.0000000000
11
-3.1238927726
21
16.7955834974
31
0.0000000000
11
-3.1062382000
21
16.7916518632
31
0.0000000000
11
-3.0883196028
21
16.7880702621
31
0.0000000000
11
-3.0701483026
21
16.7848422180
31
0.0000000000
11
-3.0517357790
21
16.7819711452
31
0.0000000000
11
-3.0330936674
21
16.7794603465
31
0.0000000000
11
-3.0142338529
21
16.7773130219
31
0.0000000000
11
-2.9951684692
21
16.7755322567
31
0.0000000000
11
-2.9759097943
21
16.7741210032
31
0.0000000000
11
-2.9564698407
21
16.7730820618
31
0.0000000000
11
-2.9368606184
21
16.7724181245
31
0.0000000000
11
-2.9170946842
21
16.7721317887
31
0.0000000000
11
-2.8971847280
21
16.7722255197
31
0.0000000000
11
-2.8771435951
21
16.7727016477
31
0.0000000000
11
-2.8569842512
21
16.7735623631
31
0.0000000000
11
-2.8367197351
21
16.7748097174
31
0.0000000000
11
-2.8163628335
21
16.7764456529
31
0.0000000000
11
-2.7959264421
21
16.7784719945
31
0.0000000000
11
-2.7754237473
21
16.7808904218
31
0.0000000000
11
-2.7548680784
21
16.7837024703
31
0.0000000000
11
-2.7342729280
21
16.7869095190
31
0.0000000000
11
-2.7136518603
21
16.7905127965
31
0.0000000000
11
-2.6930184242
21
16.7945133959
31
0.0000000000
11
-2.6723859919
21
16.7989123153
31
0.0000000000
11
-2.6517680144
21
16.8037104157
31
0.0000000000
11
-2.6311780661
21
16.8089084045
31
0.0000000000
11
-2.6106298642
21
16.8145068190
31
0.0000000000
11
-2.5901371988
21
16.8205060346
31
0.0000000000
11
-2.5697138890
21
16.8269062713
31
0.0000000000
11
-2.5493739015
21
16.8337075492
31
0.0000000000
11
-2.5291312265
21
16.8409097168
31
0.0000000000
11
-2.5089981172
21
16.8485131290
31
0.0000000000
11
-2.4889877362
21
16.8565177522
31
0.0000000000
11
-2.4691170708
21
16.8649217956
31
0.0000000000
11
-2.4494033240
21
16.8737229106
31
0.0000000000
11
-2.4298642171
21
16.8829179915
31
0.0000000000
11
-2.4105192790
21
16.8925024230
31
0.0000000000
11
-2.3913878821
21
16.9024708511
31
0.0000000000
11
-2.3724859794
21
16.9128189702
31
0.0000000000
11
-2.3538266529
21
16.9235436003
31
0.0000000000
11
-2.3354226958
21
16.9346414534
31
0.0000000000
11
-2.3172867178
21
16.9461090782
31
0.0000000000
11
-2.2994311397
21
16.9579428612
31
0.0000000000
11
-2.2818681861
21
16.9701390297
31
0.0000000000
11
-2.2646098760
21
16.9826936547
31
0.0000000000
11
-2.2476680167
21
16.9956026544
31
0.0000000000
11
-2.2310541960
21
17.0088617965
31
0.0000000000
11
-2.2147797767
21
17.0224667015
31
0.0000000000
11
-2.1988558901
21
17.0364128436
31
0.0000000000
11
-2.1832934302
21
17.0506955564
31
0.0000000000
11
-2.1681030383
21
17.0653100399
31
0.0000000000
0
SPLINE
5
32D
100
AcDbEntity
8
0
100
AcDbSpline
62
9
6
CONTINUOUS
70
0
71
3
72
14
73
10
74
8
42
0.0000001000
43
0.0000001000
44
0.0000000001
12
0.0038765591
22
-0.1208421217
32
0.0000000000
13
0.1078644919
23
-0.0540202054
33
0.0000000000
40
0.0000000000
40
0.0000000000
40
0.0000000000
40
0.0000000000
40
0.0564235971
40
0.1882593120
40
0.3266829653
40
0.4752469722
40
0.6363237052
40
0.8111500091
40
1.0000000000
40
1.0000000000
40
1.0000000000
40
1.0000000000
10
-21.9336408780
20
-13.2481158591
30
0.0000000000
10
-21.9335679682
20
-13.2503886415
30
0.0000000000
10
-21.9329509767
20
-13.2579595743
30
0.0000000000
10
-21.9297130673
20
-13.2708037043
30
0.0000000000
10
-21.9221751621
20
-13.2859912214
30
0.0000000000
10
-21.9112403898
20
-13.3004242382
30
0.0000000000
10
-21.8971028121
20
-13.3139294299
30
0.0000000000
10
-21.8799768101
20
-13.3263465471
30
0.0000000000
10
-21.8672013970
20
-13.3335298982
30
0.0000000000
10
-21.8604113276
20
-13.3369304700
30
0.0000000000
11
-21.9336408780
21
-13.2481158591
31
0.0000000000
11
-21.9330859400
21
-13.2549116453
31
0.0000000000
11
-21.9292583226
21
-13.2703482522
31
0.0000000000
11
-21.9219299178
21
-13.2853530769
31
0.0000000000
11
-21.9112052330
21
-13.2997121412
31
0.0000000000
11
-21.8972372092
21
-13.3132206756
31
0.0000000000
11
-21.8802250393
21
-13.3256860398
31
0.0000000000
11
-21.8604113276
21
-13.3369304700
31
0.0000000000
0
SPLINE
5
32E
100
AcDbEntity
8
0
100
AcDbSpline
62
9
6
CONTINUOUS
70
0
71
3
72
97
73
93
74
91
42
0.0000001000
43
0.0000001000
44
0.0000000001
12
0.0000050698
22
-1.6258518258
32
0.0000000000
13
1.1581213738
23
1.1409736587
33
0.0000000000
40
0.0000000000
40
0.0000000000
40
0.0000000000
40
0.0000000000
40
0.0070704291
40
0.0156069155
40
0.0240765256
40
0.0324886012
40
0.0408526515
40
0.0491783907
40
0.0574757094
40
0.0657543710
40
0.0740240724
40
0.0822943732
40
0.0905746636
40
0.0988741335
40
0.1072018272
40
0.1155665498
40
0.1239767125
40
0.1324403116
40
0.1409648750
40
0.1495574966
40
0.1582248457
40
0.1669732273
40
0.1758085229
40
0.1847361766
40
0.1937610531
40
0.2028874717
40
0.2121192853
40
0.2214599244
40
0.2309124254
40
0.2404794546
40
0.2501633898
40
0.2599659978
40
0.2698886006
40
0.2799321477
40
0.2900972550
40
0.3003842108
40
0.3107930935
40
0.3213238772
40
0.3319759132
40
0.3427482427
40
0.3536396736
40
0.3646488513
40
0.3757742078
40
0.3870139616
40
0.3983661290
40
0.4098285388
40
0.4213988441
40
0.4330744734
40
0.4448526416
40
0.4567304225
40
0.4687050099
40
0.4807735616
40
0.4929328709
40
0.5051796283
40
0.5175104151
40
0.5299217322
40
0.5424100348
40
0.5549719408
40
0.5676040145
40
0.5803026614
40
0.5930642250
40
0.6058849797
40
0.6187611926
40
0.6316891844
40
0.6446654374
40
0.6576864422
40
0.6707486756
40
0.6838485932
40
0.6969826777
40
0.7101474729
40
0.7233395116
40
0.7365553996
40
0.7497929825
40
0.7630496349
40
0.7763202925
40
0.7895997875
40
0.8028826265
40
0.8161620718
40
0.8294314267
40
0.8426863118
40
0.8559243832
40
0.8691435755
40
0.8823420319
40
0.8955181093
40
0.9086703862
40
0.9217976699
40
0.9348990029
40
0.9479736685
40
0.9610211954
40
0.9740413616
40
0.9870341985
40
1.0000000000
40
1.0000000000
40
1.0000000000
40
1.0000000000
10
-13.6241428590
20
22.2432571163
30
0.0000000000
10
-13.6241428470
20
22.2394252929
30
0.0000000000
10
-13.6240101846
20
22.2309671039
30
0.0000000000
10
-13.6233443722
20
22.2179332895
30
0.0000000000
10
-13.6220997849
20
22.2042114653
30
0.0000000000
10
-13.6203209352
20
22.1906428099
30
0.0000000000
10
-13.6180100118
20
22.1772336432
30
0.0000000000
10
-13.6151694991
20
22.1639901558
30
0.0000000000
10
-13.6118021700
20
22.1509184805
30
0.0000000000
10
-13.6079110964
20
22.1380247461
30
0.0000000000
10
-13.6034996821
20
22.1253151481
30
0.0000000000
10
-13.5985716533
20
22.1127958760
30
0.0000000000
10
-13.5931310568
20
22.1004730928
30
0.0000000000
10
-13.5871822243
20
22.0883528571
30
0.0000000000
10
-13.5807297372
20
22.0764410894
30
0.0000000000
10
-13.5737784213
20
22.0647436076
30
0.0000000000
10
-13.5663333796
20
22.0532661991
30
0.0000000000
10
-13.5584000341
20
22.0420146722
30
0.0000000000
10
-13.5499841202
20
22.0309948229
30
0.0000000000
10
-13.5410916699
20
22.0202124004
30
0.0000000000
10
-13.5317289521
20
22.0096730359
30
0.0000000000
10
-13.5219024389
20
21.9993822292
30
0.0000000000
10
-13.5116187847
20
21.9893453519
30
0.0000000000
10
-13.5008848939
20
21.9795677311
30
0.0000000000
10
-13.4897079712
20
21.9700546869
30
0.0000000000
10
-13.4780955453
20
21.9608115310
30
0.0000000000
10
-13.4660554134
20
21.9518435081
30
0.0000000000
10
-13.4535955820
20
21.9431557526
30
0.0000000000
10
-13.4407242283
20
21.9347532738
30
0.0000000000
10
-13.4274496455
20
21.9266409365
30
0.0000000000
10
-13.4137803501
20
21.9188235455
30
0.0000000000
10
-13.3997251391
20
21.9113058711
30
0.0000000000
10
-13.3852931562
20
21.9040926649
30
0.0000000000
10
-13.3704937830
20
21.8971885909
30
0.0000000000
10
-13.3553366001
20
21.8905982064
30
0.0000000000
10
-13.3398313246
20
21.8843259397
30
0.0000000000
10
-13.3239877097
20
21.8783760638
30
0.0000000000
10
-13.3078157085
20
21.8727527771
30
0.0000000000
10
-13.2913255489
20
21.8674602219
30
0.0000000000
10
-13.2745278263
20
21.8625024945
30
0.0000000000
10
-13.2574332863
20
21.8578835672
30
0.0000000000
10
-13.2400527910
20
21.8536072858
30
0.0000000000
10
-13.2223973248
20
21.8496773774
30
0.0000000000
10
-13.2044780318
20
21.8460974628
30
0.0000000000
10
-13.1863062199
20
21.8428710562
30
0.0000000000
10
-13.1678933566
20
21.8400015636
30
0.0000000000
10
-13.1492510977
20
21.8374922848
30
0.0000000000
10
-13.1303913167
20
21.8353464122
30
0.0000000000
10
-13.1113261021
20
21.8335670211
30
0.0000000000
10
-13.0920675852
20
21.8321570495
30
0.0000000000
10
-13.0726278563
20
21.8311193040
30
0.0000000000
10
-13.0530190980
20
21.8304564815
30
0.0000000000
10
-13.0332537192
20
21.8301711695
30
0.0000000000
10
-13.0133444079
20
21.8302658314
30
0.0000000000
10
-12.9933039887
20
21.8307427956
30
0.0000000000
10
-12.9731454025
20
21.8316042523
30
0.0000000000
10
-12.9528815707
20
21.8328522596
30
0.0000000000
10
-12.9325253915
20
21.8344887549
30
0.0000000000
10
-12.9120898127
20
21.8365155572
30
0.0000000000
10
-12.8915879632
20
21.8389343503
30
0.0000000000
10
-12.8710331714
20
21.8417466694
30
0.0000000000
10
-12.8504388917
20
21.8449538986
30
0.0000000000
10
-12.8298186515
20
21.8485572737
30
0.0000000000
10
-12.8091859379
20
21.8525579018
30
0.0000000000
10
-12.7885542005
20
21.8569567688
30
0.0000000000
10
-12.7679368979
20
21.8617547353
30
0.0000000000
10
-12.7473476041
20
21.8669525096
30
0.0000000000
10
-12.7268000066
20
21.8725506378
30
0.0000000000
10
-12.7063078744
20
21.8785495037
30
0.0000000000
10
-12.6858850602
20
21.8849493196
30
0.0000000000
10
-12.6655454836
20
21.8917501229
30
0.0000000000
10
-12.6453025360
20
21.8989519784
30
0.0000000000
10
-12.6251693429
20
21.9065549417
30
0.0000000000
10
-12.6051600506
20
21.9145585771
30
0.0000000000
10
-12.5852904582
20
21.9229615432
30
0.0000000000
10
-12.5655778754
20
21.9317614444
30
0.0000000000
10
-12.5460404690
20
21.9409549613
30
0.0000000000
10
-12.5266971304
20
21.9505377682
30
0.0000000000
10
-12.5075661373
20
21.9605050870
30
0.0000000000
10
-12.4886635993
20
21.9708525898
30
0.0000000000
10
-12.4700034452
20
21.9815766680
30
0.0000000000
10
-12.4515985036
20
21.9926740250
30
0.0000000000
10
-12.4334613842
20
22.0041412214
30
0.0000000000
10
-12.4156045080
20
22.0159746564
30
0.0000000000
10
-12.3980401003
20
22.0281705702
30
0.0000000000
10
-12.3807801824
20
22.0407250472
30
0.0000000000
10
-12.3638365656
20
22.0536340180
30
0.0000000000
10
-12.3472208402
20
22.0668932650
30
0.0000000000
10
-12.3309443840
20
22.0804984143
30
0.0000000000
10
-12.3150183033
20
22.0944449808
30
0.0000000000
10
-12.2994536157
20
22.1087282073
30
0.0000000000
10
-12.2893144832
20
22.1184818878
30
0.0000000000
10
-12.2843091593
20
22.1234131004
30
0.0000000000
11
-13.6241428590
21
22.2432571163
31
0.0000000000
11
-13.6239612944
21
22.2317635636
31
0.0000000000
11
-13.6232512069
21
22.2179035410
31
0.0000000000
11
-13.6220056222
21
22.2041905181
31
0.0000000000
11
-13.6202264390
21
22.1906308047
31
0.0000000000
11
-13.6179158732
21
22.1772306872
31
0.0000000000
11
-13.6150764232
21
22.1639962852
31
0.0000000000
11
-13.6117108286
21
22.1509335150
31
0.0000000000
11
-13.6078221561
21
22.1380484839
31
0.0000000000
11
-13.6034137764
21
22.1253472995
31
0.0000000000
11
-13.5984893779
21
22.1128360886
31
0.0000000000
11
-13.5930529603
21
22.1005209575
31
0.0000000000
11
-13.5871088214
21
22.0884079576
31
0.0000000000
11
-13.5806614686
21
22.0765029357
31
0.0000000000
11
-13.5737156286
21
22.0648116187
31
0.0000000000
11
-13.5662763344
21
22.0533397761
31
0.0000000000
11
-13.5583489268
21
22.0420931918
31
0.0000000000
11
-13.5499390875
21
22.0310776844
31
0.0000000000
11
-13.5410527903
21
22.0202990203
31
0.0000000000
11
-13.5316962678
21
22.0097628739
31
0.0000000000
11
-13.5218759183
21
21.9994747436
31
0.0000000000
11
-13.5115983417
21
21.9894400229
31
0.0000000000
11
-13.5008703406
21
21.9796640172
31
0.0000000000
11
-13.4896990908
21
21.9701520951
31
0.0000000000
11
-13.4780921167
21
21.9609096316
31
0.0000000000
11
-13.4660572042
21
21.9519419210
31
0.0000000000
11
-13.4536023470
21
21.9432541404
31
0.0000000000
11
-13.4407357125
21
21.9348513390
31
0.0000000000
11
-13.4274656153
21
21.9267384361
31
0.0000000000
11
-13.4138004087
21
21.9189201778
31
0.0000000000
11
-13.3997489552
21
21.9114014121
31
0.0000000000
11
-13.3853204252
21
21.9041869381
31
0.0000000000
11
-13.3705242140
21
21.8972814546
31
0.0000000000
11
-13.3553699026
21
21.8906895437
31
0.0000000000
11
-13.3398672663
21
21.8844156797
31
0.0000000000
11
-13.3240261133
21
21.8784641730
31
0.0000000000
11
-13.3078561350
21
21.8728391428
31
0.0000000000
11
-13.2913677206
21
21.8675448084
31
0.0000000000
11
-13.2745715084
21
21.8625852936
31
0.0000000000
11
-13.2574782859
21
21.8579645937
31
0.0000000000
11
-13.2400988936
21
21.8536865579
31
0.0000000000
11
-13.2224443210
21
21.8497549237
31
0.0000000000
11
-13.2045257238
21
21.8461733226
31
0.0000000000
11
-13.1863544236
21
21.8429452785
31
0.0000000000
11
-13.1679419000
21
21.8400742057
31
0.0000000000
11
-13.1492997883
21
21.8375634070
31
0.0000000000
11
-13.1304399739
21
21.8354160824
31
0.0000000000
11
-13.1113745901
21
21.8336353172
31
0.0000000000
11
-13.0921159153
21
21.8322240637
31
0.0000000000
11
-13.0726759617
21
21.8311851223
31
0.0000000000
11
-13.0530667394
21
21.8305211850
31
0.0000000000
11
-13.0333008052
21
21.8302348492
31
0.0000000000
11
-13.0133908490
21
21.8303285802
31
0.0000000000
11
-12.9933497161
21
21.8308047082
31
0.0000000000
11
-12.9731903722
21
21.8316654235
31
0.0000000000
11
-12.9529258561
21
21.8329127778
31
0.0000000000
11
-12.9325689545
21
21.8345487134
31
0.0000000000
11
-12.9121325631
21
21.8365750550
31
0.0000000000
11
-12.8916298683
21
21.8389934823
31
0.0000000000
11
-12.8710741994
21
21.8418055308
31
0.0000000000
11
-12.8504790490
21
21.8450125795
31
0.0000000000
11
-12.8298579813
21
21.8486158570
31
0.0000000000
11
-12.8092245452
21
21.8526164564
31
0.0000000000
11
-12.7885921129
21
21.8570153757
31
0.0000000000
11
-12.7679741354
21
21.8618134762
31
0.0000000000
11
-12.7473841871
21
21.8670114650
31
0.0000000000
11
-12.7268359851
21
21.8726098795
31
0.0000000000
11
-12.7063433198
21
21.8786090951
31
0.0000000000
11
-12.6859200100
21
21.8850093317
31
0.0000000000
11
-12.6655800225
21
21.8918106097
31
0.0000000000
11
-12.6453373474
21
21.8990127773
31
0.0000000000
11
-12.6252042381
21
21.9066161895
31
0.0000000000
11
-12.6051938572
21
21.9146208127
31
0.0000000000
11
-12.5853231918
21
21.9230248561
31
0.0000000000
11
-12.5656094449
21
21.9318259711
31
0.0000000000
11
-12.5460703381
21
21.9410210520
31
0.0000000000
11
-12.5267254000
21
21.9506054835
31
0.0000000000
11
-12.5075940031
21
21.9605739116
31
0.0000000000
11
-12.4886921004
21
21.9709220307
31
0.0000000000
11
-12.4700327739
21
21.9816466608
31
0.0000000000
11
-12.4516288168
21
21.9927445139
31
0.0000000000
11
-12.4334928388
21
22.0042121387
31
0.0000000000
11
-12.4156372607
21
22.0160459217
31
0.0000000000
11
-12.3980743070
21
22.0282420902
31
0.0000000000
11
-12.3808159970
21
22.0407967152
31
0.0000000000
11
-12.3638741377
21
22.0537057149
31
0.0000000000
11
-12.3472603170
21
22.0669648570
31
0.0000000000
11
-12.3309858977
21
22.0805697620
31
0.0000000000
11
-12.3150620111
21
22.0945159041
31
0.0000000000
11
-12.2994995512
21
22.1087986169
31
0.0000000000
11
-12.2843091593
21
22.1234131004
31
0.0000000000
0
SPLINE
5
32F
100
AcDbEntity
8
0
100
AcDbSpline
62
9
6
CONTINUOUS
70
0
71
3
72
14
73
10
74
8
42
0.0000001000
43
0.0000001000
44
0.0000000001
12
-0.0036927041
22
-0.1204151972
32
0.0000000000
13
0.1075077000
23
-0.0536603413
33
0.0000000000
40
0.0000000000
40
0.0000000000
40
0.0000000000
40
0.0000000000
40
0.0827867952
40
0.2048824848
40
0.3358769453
40
0.4793579519
40
0.6374538310
40
0.8110382570
40
1.0000000000
40
1.0000000000
40
1.0000000000
40
1.0000000000
10
-21.9336491770
20
15.7885809368
30
0.0000000000
10
-21.9337510794
20
15.7852580074
30
0.0000000000
10
-21.9332802908
20
15.7770099993
30
0.0000000000
10
-21.9296499026
20
15.7639246850
30
0.0000000000
10
-21.9220792956
20
15.7498361690
30
0.0000000000
10
-21.9111383483
20
15.7362970650
30
0.0000000000
10
-21.8970125357
20
15.7234530731
30
0.0000000000
10
-21.8799054703
20
15.7114517732
30
0.0000000000
10
-21.8671829169
20
15.7043977330
30
0.0000000000
10
-21.8604113028
20
15.7010178158
30
0.0000000000
11
-21.9336491770
21
15.7885809368
31
0.0000000000
11
-21.9330859152
21
15.7786359083
31
0.0000000000
11
-21.9292582964
21
15.7644735678
31
0.0000000000
11
-21.9219298906
21
15.7505440068
31
0.0000000000
11
-21.9112052056
21
15.7370458697
31
0.0000000000
11
-21.8972371822
21
15.7241716484
31
0.0000000000
11
-21.8802250131
21
15.7121049374
31
0.0000000000
11
-21.8604113028
21
15.7010178158
31
0.0000000000
0
SPLINE
5
330
100
AcDbEntity
8
0
100
AcDbSpline
62
9
6
CONTINUOUS
70
0
71
3
72
14
73
10
74
8
42
0.0000001000
43
0.0000001000
44
0.0000000001
12
0.0995947778
22
0.0734580165
32
0.0000000000
13
0.1113270569
23
-0.0534100557
33
0.0000000000
40
0.0000000000
40
0.0000000000
40
0.0000000000
40
0.0000000000
40
0.0617157614
40
0.1925497078
40
0.3301245139
40
0.4779158006
40
0.6382125514
40
0.8121726854
40
1.0000000000
40
1.0000000000
40
1.0000000000
40
1.0000000000
10
-21.4019782254
20
16.8187557080
30
0.0000000000
10
-21.3999293696
20
16.8202668805
30
0.0000000000
10
-21.3932795689
20
16.8246323724
30
0.0000000000
10
-21.3807119189
20
16.8300884713
30
0.0000000000
10
-21.3637968099
20
16.8334468544
30
0.0000000000
10
-21.3453637622
20
16.8336117438
30
0.0000000000
10
-21.3256768001
20
16.8306311876
30
0.0000000000
10
-21.3050033662
20
16.8245781353
30
0.0000000000
10
-21.2912550995
20
16.8187734471
30
0.0000000000
10
-21.2842850121
20
16.8154294913
30
0.0000000000
11
-21.4019782254
21
16.8187557080
31
0.0000000000
11
-21.3955966954
21
16.8229437759
31
0.0000000000
11
-21.3808044901
21
16.8294376459
31
0.0000000000
11
-21.3641643255
21
16.8328537707
31
0.0000000000
11
-21.3459179183
21
16.8331425275
31
0.0000000000
11
-21.3263303177
21
16.8302997216
31
0.0000000000
11
-21.3056860554
21
16.8243666481
31
0.0000000000
11
-21.2842850121
21
16.8154294913
31
0.0000000000
0
SPLINE
5
331
100
AcDbEntity
8
0
100
AcDbSpline
62
7
6
CONTINUOUS
70
0
71
3
72
15
73
11
74
9
42
0.0000001000
43
0.0000001000
44
0.0000000001
12
0.1055773757
22
0.0778655192
32
0.0000000000
13
0.1171839816
23
-0.0585919908
33
0.0000000000
40
0.0000000000
40
0.0000000000
40
0.0000000000
40
0.0000000000
40
0.0025684028
40
0.1340544990
40
0.2653519826
40
0.3990850354
40
0.5377861365
40
0.6833203880
40
0.8371407381
40
1.0000000000
40
1.0000000000
40
1.0000000000
40
1.0000000000
10
-19.0856262940
20
18.5272002184
30
0.0000000000
10
-19.0855359056
20
18.5272668817
30
0.0000000000
10
-19.0808120704
20
18.5307380339
30
0.0000000000
10
-19.0708298749
20
18.5367524128
30
0.0000000000
10
-19.0545139697
20
18.5428395446
30
0.0000000000
10
-19.0370659488
20
18.5459474629
30
0.0000000000
10
-19.0187327115
20
18.5460681388
30
0.0000000000
10
-18.9997433317
20
18.5432347409
30
0.0000000000
10
-18.9803283557
20
18.5375105846
30
0.0000000000
10
-18.9676120221
20
18.5319810696
30
0.0000000000
10
-18.9612505231
20
18.5288003201
30
0.0000000000
11
-19.0856262940
21
18.5272002184
31
0.0000000000
11
-19.0853547768
21
18.5273997332
31
0.0000000000
11
-19.0705905793
21
18.5362754884
31
0.0000000000
11
-19.0544796240
21
18.5423043272
31
0.0000000000
11
-19.0372382537
21
18.5454228221
31
0.0000000000
11
-19.0190671875
21
18.5456088403
31
0.0000000000
11
-19.0001976849
21
18.5428697554
31
0.0000000000
11
-18.9808461853
21
18.5372432193
31
0.0000000000
11
-18.9612505231
21
18.5288003201
31
0.0000000000
0
SPLINE
5
332
100
AcDbEntity
8
0
100
AcDbSpline
62
7
6
CONTINUOUS
70
0
71
3
72
16
73
12
74
10
42
0.0000001000
43
0.0000001000
44
0.0000000001
12
-0.0823594143
22
-0.0646466287
32
0.0000000000
13
0.0906517605
23
-0.0453258803
33
0.0000000000
40
0.0000000000
40
0.0000000000
40
0.0000000000
40
0.0000000000
40
0.0522391571
40
0.1091970187
40
0.1869003749
40
0.2887579676
40
0.4111761375
40
0.5486641580
40
0.6956721269
40
0.8479659935
40
1.0000000000
40
1.0000000000
40
1.0000000000
40
1.0000000000
10
-15.7477173445
20
24.8356016590
30
0.0000000000
10
-15.7491514733
20
24.8344759638
30
0.0000000000
10
-15.7517211826
20
24.8314167261
30
0.0000000000
10
-15.7505641145
20
24.8246288589
30
0.0000000000
10
-15.7459350063
20
24.8180791474
30
0.0000000000
10
-15.7386788142
20
24.8108450660
30
0.0000000000
10
-15.7290637887
20
24.8032793986
30
0.0000000000
10
-15.7176887851
20
24.7955452001
30
0.0000000000
10
-15.7050725690
20
24.7878820966
30
0.0000000000
10
-15.6917433630
20
24.7804714351
30
0.0000000000
10
-15.6826060526
20
24.7757546168
30
0.0000000000
10
-15.6780120025
20
24.7734575918
30
0.0000000000
11
-15.7477173445
21
24.8356016590
31
0.0000000000
11
-15.7508673193
21
24.8313414414
31
0.0000000000
11
-15.7503701769
21
24.8255901089
31
0.0000000000
11
-15.7462578824
21
24.8188736735
31
0.0000000000
11
-15.7390549250
21
24.8114783422
31
0.0000000000
11
-15.7293849708
21
24.8037044775
31
0.0000000000
11
-15.7178931399
21
24.7958233398
31
0.0000000000
11
-15.7051783966
21
24.7880560465
31
0.0000000000
11
-15.6916982098
21
24.7805373033
31
0.0000000000
11
-15.6780120025
21
24.7734575918
31
0.0000000000
0
SPLINE
5
333
100
AcDbEntity
8
0
100
AcDbSpline
62
9
6
CONTINUOUS
70
0
71
3
72
18
73
14
74
12
42
0.0000001000
43
0.0000001000
44
0.0000000001
12
-0.5319411279
22
0.2659909875
32
0.0000000000
13
-0.0192114157
23
0.5939922169
33
0.0000000000
40
0.0000000000
40
0.0000000000
40
0.0000000000
40
0.0000000000
40
0.0493498147
40
0.1311159246
40
0.2143510180
40
0.2998340459
40
0.3882285396
40
0.4800655258
40
0.5757349294
40
0.6754929499
40
0.7794665702
40
0.8876639787
40
1.0000000000
40
1.0000000000
40
1.0000000000
40
1.0000000000
10
-21.6044633706
20
-13.8422188268
30
0.0000000000
10
-21.6132137693
20
-13.8378432915
30
0.0000000000
10
-21.6359964234
20
-13.8252856225
30
0.0000000000
10
-21.6708998743
20
-13.8008901991
30
0.0000000000
10
-21.7076884389
20
-13.7673955749
30
0.0000000000
10
-21.7409469025
20
-13.7286596036
30
0.0000000000
10
-21.7704712584
20
-13.6849496480
30
0.0000000000
10
-21.7960865477
20
-13.6365581874
30
0.0000000000
10
-21.8176444057
20
-13.5838000316
30
0.0000000000
10
-21.8350209600
20
-13.5270125195
30
0.0000000000
10
-21.8481163010
20
-13.4665542272
30
0.0000000000
10
-21.8568552258
20
-13.4028088534
30
0.0000000000
10
-21.8596919496
20
-13.3591727108
30
0.0000000000
10
-21.8604113276
20
-13.3369304700
30
0.0000000000
11
-21.6044633706
21
-13.8422188268
31
0.0000000000
11
-21.6301608269
21
-13.8280553077
31
0.0000000000
11
-21.6700138543
21
-13.8002506961
31
0.0000000000
11
-21.7066390208
21
-13.7670006369
31
0.0000000000
11
-21.7398037169
21
-13.7285165128
31
0.0000000000
11
-21.7692966611
21
-13.6850436197
31
0.0000000000
11
-21.7949302280
21
-13.6368587132
31
0.0000000000
11
-21.8165410399
21
-13.5842693106
31
0.0000000000
11
-21.8339920136
21
-13.5276093662
31
0.0000000000
11
-21.8471720537
21
-13.4672395482
31
0.0000000000
11
-21.8559970572
21
-13.4035459879
31
0.0000000000
11
-21.8604113276
21
-13.3369304700
31
0.0000000000
0
SPLINE
5
334
100
AcDbEntity
8
0
100
AcDbSpline
62
9
6
CONTINUOUS
70
0
71
3
72
9
73
5
74
3
42
0.0000001000
43
0.0000001000
44
0.0000000001
12
-0.0521621488
22
0.0260767349
32
0.0000000000
13
-0.0555853027
23
0.0176343287
33
0.0000000000
40
0.0000000000
40
0.0000000000
40
0.0000000000
40
0.0000000000
40
0.1438199565
40
1.0000000000
40
1.0000000000
40
1.0000000000
40
1.0000000000
10
5.5753359096
20
-14.5491170508
30
0.0000000000
10
5.5728352569
20
-14.5478669325
30
0.0000000000
10
5.5553494698
20
-14.5393717064
30
0.0000000000
10
5.5372082527
20
-14.5322661485
30
0.0000000000
10
5.5213445771
20
-14.5272334284
30
0.0000000000
11
5.5753359096
21
-14.5491170508
31
0.0000000000
11
5.5677920896
21
-14.5454521106
31
0.0000000000
11
5.5213445771
21
-14.5272334284
31
0.0000000000
0
SPLINE
5
335
100
AcDbEntity
8
0
100
AcDbSpline
62
9
6
CONTINUOUS
70
0
71
3
72
8
73
4
74
2
42
0.0000001000
43
0.0000001000
44
0.0000000001
12
-0.0025814195
22
0.0008189503
32
0.0000000000
13
-0.0025872009
23
0.0008004093
33
0.0000000000
40
0.0000000000
40
0.0000000000
40
0.0000000000
40
0.0000000000
40
1.0000000000
40
1.0000000000
40
1.0000000000
40
1.0000000000
10
5.5213445771
20
-14.5272334284
30
0.0000000000
10
5.5204841039
20
-14.5269604450
30
0.0000000000
10
5.5196226553
20
-14.5266905535
30
0.0000000000
10
5.5187602550
20
-14.5264237504
30
0.0000000000
11
5.5213445771
21
-14.5272334284
31
0.0000000000
11
5.5187602550
21
-14.5264237504
31
0.0000000000
0
SPLINE
5
336
100
AcDbEntity
8
0
100
AcDbSpline
62
9
6
CONTINUOUS
70
0
71
3
72
11
73
7
74
5
42
0.0000001000
43
0.0000001000
44
0.0000000001
12
-0.1988968692
22
0.0615332584
32
0.0000000000
13
-0.2049030067
23
-0.0360535639
33
0.0000000000
40
0.0000000000
40
0.0000000000
40
0.0000000000
40
0.0000000000
40
0.2298406073
40
0.4782270261
40
0.7343415359
40
1.0000000000
40
1.0000000000
40
1.0000000000
40
1.0000000000
10
5.5187602550
20
-14.5264237504
30
0.0000000000
10
5.5035220626
20
-14.5217094699
30
0.0000000000
10
5.4711978713
20
-14.5139067693
30
0.0000000000
10
5.4204567124
20
-14.5082033714
30
0.0000000000
10
5.3669302798
20
-14.5087113329
30
0.0000000000
10
5.3309346176
20
-14.5131560362
30
0.0000000000
10
5.3127898782
20
-14.5163486810
30
0.0000000000
11
5.5187602550
21
-14.5264237504
31
0.0000000000
11
5.4722850826
21
-14.5151537376
31
0.0000000000
11
5.4209414249
21
-14.5092938441
31
0.0000000000
11
5.3676581122
21
-14.5096930201
31
0.0000000000
11
5.3127898782
21
-14.5163486810
31
0.0000000000
0
SPLINE
5
337
100
AcDbEntity
8
0
100
AcDbSpline
62
7
6
CONTINUOUS
70
0
71
3
72
11
73
7
74
5
42
0.0000001000
43
0.0000001000
44
0.0000000001
12
-0.1495958812
22
0.0747893501
32
0.0000000000
13
-0.1670668412
23
0.0066493199
33
0.0000000000
40
0.0000000000
40
0.0000000000
40
0.0000000000
40
0.0000000000
40
0.2109289914
40
0.4697051236
40
0.7322102190
40
1.0000000000
40
1.0000000000
40
1.0000000000
40
1.0000000000
10
-2.3995081654
20
24.8178651133
30
0.0000000000
10
-2.4100262015
20
24.8231235273
30
0.0000000000
10
-2.4340198738
20
24.8337254229
30
0.0000000000
10
-2.4729479415
20
24.8462489446
30
0.0000000000
10
-2.5161419347
20
24.8549625255
30
0.0000000000
10
-2.5456394196
20
24.8576480253
30
0.0000000000
10
-2.5605523506
20
24.8582415653
30
0.0000000000
11
-2.3995081654
21
24.8178651133
31
0.0000000000
11
-2.4317730056
21
24.8321275431
31
0.0000000000
11
-2.4729520395
21
24.8454065685
31
0.0000000000
11
-2.5159675686
21
24.8541272718
31
0.0000000000
11
-2.5605523506
21
24.8582415653
31
0.0000000000
0
SPLINE
5
338
100
AcDbEntity
8
0
100
AcDbSpline
62
7
6
CONTINUOUS
70
0
71
3
72
14
73
10
74
8
42
0.0000001000
43
0.0000001000
44
0.0000000001
12
-0.2081079805
22
0.1040495227
32
0.0000000000
13
-0.2101719058
23
-0.0992725062
33
0.0000000000
40
0.0000000000
40
0.0000000000
40
0.0000000000
40
0.0000000000
40
0.1211692775
40
0.2545802709
40
0.3910654590
40
0.5326995673
40
0.6813878445
40
0.8373165091
40
1.0000000000
40
1.0000000000
40
1.0000000000
40
1.0000000000
10
3.1298714766
20
12.5989113914
30
0.0000000000
10
3.1214660454
20
12.6031139265
30
0.0000000000
10
3.1031621041
20
12.6106568978
30
0.0000000000
10
3.0736254214
20
12.6179231220
30
0.0000000000
10
3.0417685414
20
12.6208863517
30
0.0000000000
10
3.0086373259
20
12.6193751892
30
0.0000000000
10
2.9744933829
20
12.6134075455
30
0.0000000000
10
2.9397237373
20
12.6030575808
30
0.0000000000
10
2.9168907778
20
12.5935482595
30
0.0000000000
10
2.9054936114
20
12.5881649269
30
0.0000000000
11
3.1298714766
21
12.5989113914
31
0.0000000000
11
3.1038329044
21
12.6096570072
31
0.0000000000
11
3.0737334993
21
12.6171155350
31
0.0000000000
11
3.0421527313
21
12.6201298444
31
0.0000000000
11
3.0092618003
21
12.6187207946
31
0.0000000000
11
2.9752003234
21
12.6128674644
31
0.0000000000
11
2.9404355425
21
12.6026197704
31
0.0000000000
11
2.9054936114
21
12.5881649269
31
0.0000000000
0
SPLINE
5
339
100
AcDbEntity
8
0
100
AcDbSpline
62
9
6
CONTINUOUS
70
0
71
3
72
12
73
8
74
6
42
0.0000001000
43
0.0000001000
44
0.0000000001
12
0.1058674794
22
0.0175783443
32
0.0000000000
13
0.0956770728
23
-0.0483662087
33
0.0000000000
40
0.0000000000
40
0.0000000000
40
0.0000000000
40
0.0000000000
40
0.0700432276
40
0.2952014623
40
0.5237809685
40
0.7580902310
40
1.0000000000
40
1.0000000000
40
1.0000000000
40
1.0000000000
10
5.1503192834
20
-14.4695851711
30
0.0000000000
10
5.1527910500
20
-14.4691747564
30
0.0000000000
10
5.1632505787
20
-14.4676994348
30
0.0000000000
10
5.1820313826
20
-14.4670064760
30
0.0000000000
10
5.2065445911
20
-14.4698926843
30
0.0000000000
10
5.2309327335
20
-14.4765097225
30
0.0000000000
10
5.2466340130
20
-14.4832281987
30
0.0000000000
10
5.2543490859
20
-14.4871282848
30
0.0000000000
11
5.1503192834
21
-14.4695851711
31
0.0000000000
11
5.1577616228
21
-14.4685357204
31
0.0000000000
11
5.1818831239
21
-14.4676275049
31
0.0000000000
11
5.2062248456
21
-14.4704548961
31
0.0000000000
11
5.2304815551
21
-14.4769824401
31
0.0000000000
11
5.2543490859
21
-14.4871282848
31
0.0000000000
0
SPLINE
5
33A
100
AcDbEntity
8
0
100
AcDbSpline
62
9
6
CONTINUOUS
70
0
71
3
72
9
73
5
74
3
42
0.0000001000
43
0.0000001000
44
0.0000000001
12
-0.0385206488
22
0.0192637114
32
0.0000000000
13
-0.0408678701
23
0.0135909893
33
0.0000000000
40
0.0000000000
40
0.0000000000
40
0.0000000000
40
0.0000000000
40
0.3056333535
40
1.0000000000
40
1.0000000000
40
1.0000000000
40
1.0000000000
10
4.1880792954
20
21.5728456241
30
0.0000000000
10
4.1841548970
20
21.5748081684
30
0.0000000000
10
4.1711740761
20
21.5809480258
30
0.0000000000
10
4.1577719757
20
21.5861432771
30
0.0000000000
10
4.1483128804
20
21.5892889870
30
0.0000000000
11
4.1880792954
21
21.5728456241
31
0.0000000000
11
4.1761808009
21
21.5784730215
31
0.0000000000
11
4.1483128804
21
21.5892889870
31
0.0000000000
0
SPLINE
5
33B
100
AcDbEntity
8
0
100
AcDbSpline
62
9
6
CONTINUOUS
70
0
71
3
72
8
73
4
74
2
42
0.0000001000
43
0.0000001000
44
0.0000000001
12
-0.0142718604
22
0.0047462396
32
0.0000000000
13
-0.0144851685
23
0.0040431532
33
0.0000000000
40
0.0000000000
40
0.0000000000
40
0.0000000000
40
0.0000000000
40
1.0000000000
40
1.0000000000
40
1.0000000000
40
1.0000000000
10
4.1483128804
20
21.5892889870
30
0.0000000000
10
4.1435555936
20
21.5908710669
30
0.0000000000
10
4.1387595755
20
21.5923363640
30
0.0000000000
10
4.1339311860
20
21.5936840817
30
0.0000000000
11
4.1483128804
21
21.5892889870
31
0.0000000000
11
4.1339311860
21
21.5936840817
31
0.0000000000
0
SPLINE
5
33C
100
AcDbEntity
8
0
100
AcDbSpline
62
9
6
CONTINUOUS
70
0
71
3
72
9
73
5
74
3
42
0.0000001000
43
0.0000001000
44
0.0000000001
12
-0.0893710255
22
0.0249455674
32
0.0000000000
13
-0.0927100152
23
-0.0004793990
33
0.0000000000
40
0.0000000000
40
0.0000000000
40
0.0000000000
40
0.0000000000
40
0.4928133312
40
1.0000000000
40
1.0000000000
40
1.0000000000
40
1.0000000000
10
4.1339311860
20
21.5936840817
30
0.0000000000
10
4.1192501084
20
21.5977819178
30
0.0000000000
10
4.0888524841
20
21.6038913383
30
0.0000000000
10
4.0578922125
20
21.6057120924
30
0.0000000000
10
4.0422184513
20
21.6056310441
30
0.0000000000
11
4.1339311860
21
21.5936840817
31
0.0000000000
11
4.0891527521
21
21.6027619586
31
0.0000000000
11
4.0422184513
21
21.6056310441
31
0.0000000000
0
SPLINE
5
33D
100
AcDbEntity
8
0
100
AcDbSpline
62
7
6
CONTINUOUS
70
0
71
3
72
9
73
5
74
3
42
0.0000001000
43
0.0000001000
44
0.0000000001
12
-3.8703009835
22
-1.9318756862
32
0.0000000000
13
-3.8714520966
23
-1.9295679296
33
0.0000000000
40
0.0000000000
40
0.0000000000
40
0.0000000000
40
0.0000000000
40
0.8511808311
40
1.0000000000
40
1.0000000000
40
1.0000000000
40
1.0000000000
10
7.1329895542
20
-17.2356229038
30
0.0000000000
10
6.0348808849
20
-17.7837480878
30
0.0000000000
10
4.7445975964
20
-18.4273401511
30
0.0000000000
10
3.4541389259
20
-19.0705803503
30
0.0000000000
10
3.2620901648
20
-19.1662992488
30
0.0000000000
11
7.1329895542
21
-17.2356229038
31
0.0000000000
11
3.8382250153
21
-18.8791196138
31
0.0000000000
11
3.2620901648
21
-19.1662992488
31
0.0000000000
0
SPLINE
5
33E
100
AcDbEntity
8
0
100
AcDbSpline
62
7
6
CONTINUOUS
70
0
71
3
72
15
73
11
74
9
42
0.0000001000
43
0.0000001000
44
0.0000000001
12
0.2073094772
22
0.1050824983
32
0.0000000000
13
0.0000300774
23
0.2327767001
33
0.0000000000
40
0.0000000000
40
0.0000000000
40
0.0000000000
40
0.0000000000
40
0.1575470100
40
0.3049337339
40
0.4421432437
40
0.5695819636
40
0.6881672425
40
0.7994045891
40
0.9054133343
40
1.0000000000
40
1.0000000000
40
1.0000000000
40
1.0000000000
10
7.0523170435
20
-17.5241601338
30
0.0000000000
10
7.0632040396
20
-17.5186416560
30
0.0000000000
10
7.0838816145
20
-17.5071494861
30
0.0000000000
10
7.1122599445
20
-17.4878755907
30
0.0000000000
10
7.1367405787
20
-17.4672878429
30
0.0000000000
10
7.1570913464
20
-17.4455581614
30
0.0000000000
10
7.1731089839
20
-17.4228613173
30
0.0000000000
10
7.1846082319
20
-17.3993837989
30
0.0000000000
10
7.1912352271
20
-17.3760044237
30
0.0000000000
10
7.1926460171
20
-17.3604383756
30
0.0000000000
10
7.1926469654
20
-17.3530991850
30
0.0000000000
11
7.0523170435
21
-17.5241601338
31
0.0000000000
11
7.0842753939
21
-17.5062859522
31
0.0000000000
11
7.1125490979
21
-17.4869454231
31
0.0000000000
11
7.1368721373
21
-17.4663205327
31
0.0000000000
11
7.1570156802
21
-17.4446053521
31
0.0000000000
11
7.1727902337
21
-17.4220042086
31
0.0000000000
11
7.1840474256
21
-17.3987297612
31
0.0000000000
11
7.1906813968
21
-17.3750009969
31
0.0000000000
11
7.1926469654
21
-17.3530991850
31
0.0000000000
0
SPLINE
5
33F
100
AcDbEntity
8
0
100
AcDbSpline
62
7
6
CONTINUOUS
70
0
71
3
72
11
73
7
74
5
42
0.0000001000
43
0.0000001000
44
0.0000000001
12
-0.1107599857
22
0.0472794208
32
0.0000000000
13
-0.1200787062
23
-0.0071907329
33
0.0000000000
40
0.0000000000
40
0.0000000000
40
0.0000000000
40
0.0000000000
40
0.1154768523
40
0.4026796164
40
0.6963253533
40
1.0000000000
40
1.0000000000
40
1.0000000000
40
1.0000000000
10
3.4934778917
20
21.8708913114
30
0.0000000000
10
3.4892144869
20
21.8727112043
30
0.0000000000
10
3.4741596384
20
21.8786230408
30
0.0000000000
10
3.4471770364
20
21.8861497161
30
0.0000000000
10
3.4119115517
20
21.8908311979
30
0.0000000000
10
3.3878851477
20
21.8908281737
30
0.0000000000
10
3.3757301948
20
21.8901002926
30
0.0000000000
11
3.4934778917
21
21.8708913114
31
0.0000000000
11
3.4805347506
21
21.8759736650
31
0.0000000000
11
3.4472677237
21
21.8852966869
31
0.0000000000
11
3.4122602736
21
21.8900133507
31
0.0000000000
11
3.3757301948
21
21.8901002926
31
0.0000000000
0
SPLINE
5
340
100
AcDbEntity
8
0
100
AcDbSpline
62
7
6
CONTINUOUS
70
0
71
3
72
12
73
8
74
6
42
0.0000001000
43
0.0000001000
44
0.0000000001
12
0.2045036033
22
0.0019881926
32
0.0000000000
13
0.1943381249
23
0.0637053363
33
0.0000000000
40
0.0000000000
40
0.0000000000
40
0.0000000000
40
0.0000000000
40
0.2402012314
40
0.4608527651
40
0.6612404500
40
0.8409458180
40
1.0000000000
40
1.0000000000
40
1.0000000000
40
1.0000000000
10
-2.6650475256
20
24.7839607988
30
0.0000000000
10
-2.6486735198
20
24.7841199875
30
0.0000000000
10
-2.6172587808
20
24.7849871369
30
0.0000000000
10
-2.5722790971
20
24.7881849762
30
0.0000000000
10
-2.5316102024
20
24.7931961829
30
0.0000000000
10
-2.4954602433
20
24.7999753553
30
0.0000000000
10
-2.4731276335
20
24.8059999581
30
0.0000000000
10
-2.4628242030
20
24.8093774915
30
0.0000000000
11
-2.6650475256
21
24.7839607988
31
0.0000000000
11
-2.6159440926
21
24.7853938120
31
0.0000000000
11
-2.5709383490
21
24.7886883394
31
0.0000000000
11
-2.5302784384
21
24.7938158239
31
0.0000000000
11
-2.4941828787
21
24.8007317317
31
0.0000000000
11
-2.4628242030
21
24.8093774915
31
0.0000000000
0
SPLINE
5
341
100
AcDbEntity
8
0
100
AcDbSpline
62
9
6
CONTINUOUS
70
0
71
3
72
12
73
8
74
6
42
0.0000001000
43
0.0000001000
44
0.0000000001
12
-0.0494884253
22
-0.0861182801
32
0.0000000000
13
-0.0884003749
23
-0.0449784375
33
0.0000000000
40
0.0000000000
40
0.0000000000
40
0.0000000000
40
0.0000000000
40
0.0861575415
40
0.2875219078
40
0.5063688105
40
0.7438379064
40
1.0000000000
40
1.0000000000
40
1.0000000000
40
1.0000000000
10
5.9098866574
20
18.1352871480
30
0.0000000000
10
5.9084653904
20
18.1328139015
30
0.0000000000
10
5.9033763214
20
18.1247577334
30
0.0000000000
10
5.8926875625
20
18.1117851520
30
0.0000000000
10
5.8765592325
20
18.0971081441
30
0.0000000000
10
5.8573116018
20
18.0834470883
30
0.0000000000
10
5.8430737431
20
18.0754103025
30
0.0000000000
10
5.8355254681
20
18.0715697122
30
0.0000000000
11
5.9098866574
21
18.1352871480
31
0.0000000000
11
5.9053274455
21
18.1280477248
31
0.0000000000
11
5.8927271273
21
18.1125517053
31
0.0000000000
11
5.8767543508
21
18.0978535345
31
0.0000000000
11
5.8576077595
21
18.0841360047
31
0.0000000000
11
5.8355254681
21
18.0715697122
31
0.0000000000
0
SPLINE
5
342
100
AcDbEntity
8
0
100
AcDbSpline
62
9
6
CONTINUOUS
70
0
71
3
72
30
73
26
74
24
42
0.0000001000
43
0.0000001000
44
0.0000000001
12
1.1263015639
22
-1.1652647840
32
0.0000000000
13
1.4587095518
23
0.7043297200
33
0.0000000000
40
0.0000000000
40
0.0000000000
40
0.0000000000
40
0.0000000000
40
0.0156434009
40
0.0489394378
40
0.0843236258
40
0.1217957371
40
0.1613008882
40
0.2027397736
40
0.2459748660
40
0.2908381448
40
0.3371350563
40
0.3846506642
40
0.4331523708
40
0.4823952158
40
0.5321240437
40
0.5820782054
40
0.6319935763
40
0.6816072111
40
0.7306595666
40
0.7788982976
40
0.8260809240
40
0.8719802907
40
0.9163871116
40
0.9591128440
40
1.0000000000
40
1.0000000000
40
1.0000000000
40
1.0000000000
10
0.2472848838
20
-24.2790444792
30
0.0000000000
10
0.2531579461
20
-24.2851207139
30
0.0000000000
10
0.2720419963
20
-24.3036377793
30
0.0000000000
10
0.3069302447
20
-24.3329968240
30
0.0000000000
10
0.3539308518
20
-24.3659174456
30
0.0000000000
10
0.4062517334
20
-24.3967409138
30
0.0000000000
10
0.4635310901
20
-24.4252598942
30
0.0000000000
10
0.5253718707
20
-24.4512796018
30
0.0000000000
10
0.5913445760
20
-24.4746206221
30
0.0000000000
10
0.6609894309
20
-24.4951207175
30
0.0000000000
10
0.7338203645
20
-24.5126368034
30
0.0000000000
10
0.8093278015
20
-24.5270461155
30
0.0000000000
10
0.8869831466
20
-24.5382475100
30
0.0000000000
10
0.9662419008
20
-24.5461621877
30
0.0000000000
10
1.0465483358
20
-24.5507344511
30
0.0000000000
10
1.1273387612
20
-24.5519320830
30
0.0000000000
10
1.2080463354
20
-24.5497466530
30
0.0000000000
10
1.2881046344
20
-24.5441935628
30
0.0000000000
10
1.3669521712
20
-24.5353118906
30
0.0000000000
10
1.4440356761
20
-24.5231641773
30
0.0000000000
10
1.5188150468
20
-24.5078358017
30
0.0000000000
10
1.5907666017
20
-24.4894344722
30
0.0000000000
10
1.6593881284
20
-24.4680885702
30
0.0000000000
10
1.7241976775
20
-24.4439485288
30
0.0000000000
10
1.7655216244
20
-24.4256795165
30
0.0000000000
10
1.7854024528
20
-24.4160801701
30
0.0000000000
11
0.2472848838
21
-24.2790444792
31
0.0000000000
11
0.2653698432
21
-24.2968076143
31
0.0000000000
11
0.3065347792
21
-24.3316556762
31
0.0000000000
11
0.3533996256
21
-24.3646546663
31
0.0000000000
11
0.4056345694
21
-24.3955723524
31
0.0000000000
11
0.4628711280
21
-24.4241906311
31
0.0000000000
11
0.5247065013
21
-24.4503081023
31
0.0000000000
11
0.5907044828
21
-24.4737405248
31
0.0000000000
11
0.6604006071
21
-24.4943229920
31
0.0000000000
11
0.7333032388
21
-24.5119103144
31
0.0000000000
11
0.8088992868
21
-24.5263787123
31
0.0000000000
11
0.8866555179
21
-24.5376261298
31
0.0000000000
11
0.9660246485
21
-24.5455734045
31
0.0000000000
11
1.0464469492
21
-24.5501644867
31
0.0000000000
11
1.1273562598
21
-24.5513670537
31
0.0000000000
11
1.2081818877
21
-24.5491726287
31
0.0000000000
11
1.2883548649
21
-24.5435966710
31
0.0000000000
11
1.3673102496
21
-24.5346784532
31
0.0000000000
11
1.4444918480
21
-24.5224807745
31
0.0000000000
11
1.5193548868
21
-24.5070897644
31
0.0000000000
11
1.5913727447
21
-24.4886137348
31
0.0000000000
11
1.6600384477
21
-24.4671826924
31
0.0000000000
11
1.7248660824
21
-24.4429483844
31
0.0000000000
11
1.7854024528
21
-24.4160801701
31
0.0000000000
0
SPLINE
5
343
100
AcDbEntity
8
0
100
AcDbSpline
62
7
6
CONTINUOUS
70
0
71
3
72
16
73
12
74
10
42
0.0000001000
43
0.0000001000
44
0.0000000001
12
-0.0823594143
22
-0.0646466287
32
0.0000000000
13
0.0906517605
23
-0.0453258803
33
0.0000000000
40
0.0000000000
40
0.0000000000
40
0.0000000000
40
0.0000000000
40
0.0522391571
40
0.1091970187
40
0.1869003749
40
0.2887579676
40
0.4111761375
40
0.5486641580
40
0.6956721269
40
0.8479659935
40
1.0000000000
40
1.0000000000
40
1.0000000000
40
1.0000000000
10
0.3743172666
20
16.7745843535
30
0.0000000000
10
0.3728831378
20
16.7734586583
30
0.0000000000
10
0.3703134285
20
16.7703994206
30
0.0000000000
10
0.3714704966
20
16.7636115534
30
0.0000000000
10
0.3760996047
20
16.7570618418
30
0.0000000000
10
0.3833557969
20
16.7498277605
30
0.0000000000
10
0.3929708223
20
16.7422620930
30
0.0000000000
10
0.4043458259
20
16.7345278946
30
0.0000000000
10
0.4169620420
20
16.7268647910
30
0.0000000000
10
0.4302912481
20
16.7194541296
30
0.0000000000
10
0.4394285585
20
16.7147373113
30
0.0000000000
10
0.4440226086
20
16.7124402862
30
0.0000000000
11
0.3743172666
21
16.7745843535
31
0.0000000000
11
0.3711672918
21
16.7703241359
31
0.0000000000
11
0.3716644341
21
16.7645728033
31
0.0000000000
11
0.3757767286
21
16.7578563680
31
0.0000000000
11
0.3829796860
21
16.7504610366
31
0.0000000000
11
0.3926496402
21
16.7426871720
31
0.0000000000
11
0.4041414712
21
16.7348060343
31
0.0000000000
11
0.4168562144
21
16.7270387409
31
0.0000000000
11
0.4303364013
21
16.7195199978
31
0.0000000000
11
0.4440226086
21
16.7124402862
31
0.0000000000
0
SPLINE
5
344
100
AcDbEntity
8
0
100
AcDbSpline
62
9
6
CONTINUOUS
70
0
71
3
72
14
73
10
74
8
42
0.0000001000
43
0.0000001000
44
0.0000000001
12
0.1018326204
22
0.0856010889
32
0.0000000000
13
-0.0314301201
23
0.1289451350
33
0.0000000000
40
0.0000000000
40
0.0000000000
40
0.0000000000
40
0.0000000000
40
0.0894204341
40
0.2117714968
40
0.3425944269
40
0.4852660055
40
0.6418845683
40
0.8134319701
40
1.0000000000
40
1.0000000000
40
1.0000000000
40
1.0000000000
10
5.4508242845
20
17.1763849262
30
0.0000000000
10
5.4538595902
20
17.1789364217
30
0.0000000000
10
5.4605022830
20
17.1856320917
30
0.0000000000
10
5.4687788627
20
17.1984838155
30
0.0000000000
10
5.4749807120
20
17.2149810065
30
0.0000000000
10
5.4783954944
20
17.2337863183
30
0.0000000000
10
5.4790334446
20
17.2546701466
30
0.0000000000
10
5.4769153950
20
17.2773900736
30
0.0000000000
10
5.4738158209
20
17.2929555637
30
0.0000000000
10
5.4718612024
20
17.3009745769
30
0.0000000000
11
5.4508242845
21
17.1763849262
31
0.0000000000
11
5.4591971539
21
17.1848135111
31
0.0000000000
11
5.4680721240
21
17.1984121559
31
0.0000000000
11
5.4743114703
21
17.2146152357
31
0.0000000000
11
5.4778369546
21
17.2332195724
31
0.0000000000
11
5.4786043691
21
17.2539918772
31
0.0000000000
11
5.4766040909
21
17.2766716764
31
0.0000000000
11
5.4718612024
21
17.3009745769
31
0.0000000000
0
SPLINE
5
345
100
AcDbEntity
8
0
100
AcDbSpline
62
9
6
CONTINUOUS
70
0
71
3
72
16
73
12
74
10
42
0.0000001000
43
0.0000001000
44
0.0000000001
12
0.1446503797
22
0.0683189500
32
0.0000000000
13
0.0011537659
23
0.1597493665
33
0.0000000000
40
0.0000000000
40
0.0000000000
40
0.0000000000
40
0.0000000000
40
0.0020063119
40
0.1086409456
40
0.2175690950
40
0.3307949951
40
0.4499057284
40
0.5759953063
40
0.7096663885
40
0.8510762989
40
1.0000000000
40
1.0000000000
40
1.0000000000
40
1.0000000000
10
-2.0239591875
20
-25.3518159586
30
0.0000000000
10
-2.0238624496
20
-25.3517702689
30
0.0000000000
10
-2.0186284920
20
-25.3492869629
30
0.0000000000
10
-2.0086234282
20
-25.3433138300
30
0.0000000000
10
-1.9954000813
20
-25.3316984444
30
0.0000000000
10
-1.9839383946
20
-25.3174915586
30
0.0000000000
10
-1.9743693874
20
-25.3008970765
30
0.0000000000
10
-1.9667940121
20
-25.2821355848
30
0.0000000000
10
-1.9612900861
20
-25.2614435301
30
0.0000000000
10
-1.9579143130
20
-25.2390788155
30
0.0000000000
10
-1.9571251318
20
-25.2236116750
30
0.0000000000
10
-1.9570678574
20
-25.2156815193
30
0.0000000000
11
-2.0239591875
21
-25.3518159586
31
0.0000000000
11
-2.0236692160
21
-25.3516783784
31
0.0000000000
11
-2.0090331228
21
-25.3429614499
31
0.0000000000
11
-1.9959271729
21
-25.3315136670
31
0.0000000000
11
-1.9845161492
21
-25.3174789644
31
0.0000000000
11
-1.9749435241
21
-25.3010338025
31
0.0000000000
11
-1.9673296557
21
-25.2823849486
31
0.0000000000
11
-1.9617702742
21
-25.2617668775
31
0.0000000000
11
-1.9583352786
21
-25.2394388231
31
0.0000000000
11
-1.9570678574
21
-25.2156815193
31
0.0000000000
0
SPLINE
5
346
100
AcDbEntity
8
0
100
AcDbSpline
62
9
6
CONTINUOUS
70
0
71
3
72
15
73
11
74
9
42
0.0000001000
43
0.0000001000
44
0.0000000001
12
-0.1413293944
22
0.0706781616
32
0.0000000000
13
0.0000000000
23
0.1578066215
33
0.0000000000
40
0.0000000000
40
0.0000000000
40
0.0000000000
40
0.0000000000
40
0.1020372700
40
0.2125168538
40
0.3270491119
40
0.4472294006
40
0.5741820907
40
0.7085535114
40
0.8505508235
40
1.0000000000
40
1.0000000000
40
1.0000000000
40
1.0000000000
10
-19.2462091318
20
-16.8475341535
30
0.0000000000
10
-19.2510160870
20
-16.8451302180
30
0.0000000000
10
-19.2605952228
20
-16.8392575285
30
0.0000000000
10
-19.2735374399
20
-16.8277892897
30
0.0000000000
10
-19.2849438369
20
-16.8135579023
30
0.0000000000
10
-19.2944316716
20
-16.7969885714
30
0.0000000000
10
-19.3019010671
20
-16.7782998420
30
0.0000000000
10
-19.3072760567
20
-16.7577254900
30
0.0000000000
10
-19.3105022771
20
-16.7355198268
30
0.0000000000
10
-19.3111824478
20
-16.7201770972
30
0.0000000000
10
-19.3111824478
20
-16.7123157407
30
0.0000000000
11
-19.2462091318
21
-16.8475341535
31
0.0000000000
11
-19.2599451340
21
-16.8391267250
31
0.0000000000
11
-19.2730228953
21
-16.8275971627
31
0.0000000000
11
-19.2843766148
21
-16.8135344220
31
0.0000000000
11
-19.2938650676
21
-16.7971134052
31
0.0000000000
11
-19.3013702308
21
-16.7785383497
31
0.0000000000
11
-19.3067987509
21
-16.7580402896
31
0.0000000000
11
-19.3100831070
21
-16.7358741742
31
0.0000000000
11
-19.3111824478
21
-16.7123157407
31
0.0000000000
0
SPLINE
5
347
100
AcDbEntity
8
0
100
AcDbSpline
62
9
6
CONTINUOUS
70
0
71
3
72
15
73
11
74
9
42
0.0000001000
43
0.0000001000
44
0.0000000001
12
-0.1413293944
22
0.0706781616
32
0.0000000000
13
0.0000000000
23
0.1578066215
33
0.0000000000
40
0.0000000000
40
0.0000000000
40
0.0000000000
40
0.0000000000
40
0.1020372700
40
0.2125168538
40
0.3270491119
40
0.4472294006
40
0.5741820907
40
0.7085535114
40
0.8505508235
40
1.0000000000
40
1.0000000000
40
1.0000000000
40
1.0000000000
10
-2.2425358293
20
-25.3493708048
30
0.0000000000
10
-2.2473427845
20
-25.3469668692
30
0.0000000000
10
-2.2569219203
20
-25.3410941797
30
0.0000000000
10
-2.2698641374
20
-25.3296259409
30
0.0000000000
10
-2.2812705344
20
-25.3153945536
30
0.0000000000
10
-2.2907583692
20
-25.2988252226
30
0.0000000000
10
-2.2982277646
20
-25.2801364932
30
0.0000000000
10
-2.3036027542
20
-25.2595621413
30
0.0000000000
10
-2.3068289747
20
-25.2373564780
30
0.0000000000
10
-2.3075091453
20
-25.2220137485
30
0.0000000000
10
-2.3075091453
20
-25.2141523919
30
0.0000000000
11
-2.2425358293
21
-25.3493708048
31
0.0000000000
11
-2.2562718316
21
-25.3409633763
31
0.0000000000
11
-2.2693495928
21
-25.3294338139
31
0.0000000000
11
-2.2807033123
21
-25.3153710732
31
0.0000000000
11
-2.2901917652
21
-25.2989500564
31
0.0000000000
11
-2.2976969283
21
-25.2803750010
31
0.0000000000
11
-2.3031254484
21
-25.2598769409
31
0.0000000000
11
-2.3064098045
21
-25.2377108255
31
0.0000000000
11
-2.3075091453
21
-25.2141523919
31
0.0000000000
0
SPLINE
5
348
100
AcDbEntity
8
0
100
AcDbSpline
62
7
6
CONTINUOUS
70
0
71
3
72
12
73
8
74
6
42
0.0000001000
43
0.0000001000
44
0.0000000001
12
-0.0361382493
22
0.0180635247
32
0.0000000000
13
-0.0377214508
23
-0.0142410299
33
0.0000000000
40
0.0000000000
40
0.0000000000
40
0.0000000000
40
0.0000000000
40
0.0909350710
40
0.3009996488
40
0.5205942131
40
0.7534311077
40
1.0000000000
40
1.0000000000
40
1.0000000000
40
1.0000000000
10
3.2356286143
20
-21.4601565507
30
0.0000000000
10
3.2345332029
20
-21.4596090147
30
0.0000000000
10
3.2308221957
20
-21.4579672420
30
0.0000000000
10
3.2240108641
20
-21.4561529670
30
0.0000000000
10
3.2150635101
20
-21.4556543586
30
0.0000000000
10
3.2057021210
20
-21.4568750454
30
0.0000000000
10
3.1995049381
20
-21.4587408178
30
0.0000000000
10
3.1964046260
20
-21.4599112828
30
0.0000000000
11
3.2356286143
21
-21.4601565507
31
0.0000000000
11
3.2322701997
21
-21.4586711261
31
0.0000000000
11
3.2240922366
21
-21.4564668025
31
0.0000000000
11
3.2152543967
21
-21.4559306725
31
0.0000000000
11
3.2059386947
21
-21.4570936873
31
0.0000000000
11
3.1964046260
21
-21.4599112828
31
0.0000000000
0
SPLINE
5
349
100
AcDbEntity
8
0
100
AcDbSpline
62
9
6
CONTINUOUS
70
0
71
3
72
126
73
122
74
120
42
0.0000001000
43
0.0000001000
44
0.0000000001
12
-0.9604634261
22
-1.2163411171
32
0.0000000000
13
1.5174005299
23
0.3153907702
33
0.0000000000
40
0.0000000000
40
0.0000000000
40
0.0000000000
40
0.0000000000
40
0.0086266163
40
0.0170099165
40
0.0251609591
40
0.0330910332
40
0.0408116268
40
0.0483343896
40
0.0556710932
40
0.0628336104
40
0.0698338554
40
0.0766836733
40
0.0833948372
40
0.0899790340
40
0.0964479518
40
0.1028130471
40
0.1090835319
40
0.1152679112
40
0.1213757297
40
0.1274161461
40
0.1333980270
40
0.1393299422
40
0.1452199792
40
0.1510763766
40
0.1569067537
40
0.1627180176
40
0.1685165334
40
0.1743081465
40
0.1800982009
40
0.1858915956
40
0.1916929076
40
0.1975061753
40
0.2033350320
40
0.2091827553
40
0.2150522990
40
0.2209463295
40
0.2268673201
40
0.2328176027
40
0.2387992185
40
0.2448140268
40
0.2508637175
40
0.2569498519
40
0.2630738989
40
0.2692373326
40
0.2754416153
40
0.2816881286
40
0.2879781987
40
0.2943130922
40
0.3006940716
40
0.3071224289
40
0.3135995488
40
0.3201268808
40
0.3267059389
40
0.3333382032
40
0.3400251499
40
0.3467683092
40
0.3535692952
40
0.3604298208
40
0.3673517074
40
0.3743369339
40
0.3813873941
40
0.3885050059
40
0.3956917520
40
0.4029496936
40
0.4102809610
40
0.4176878230
40
0.4251727465
40
0.4327380136
40
0.4403859293
40
0.4481188603
40
0.4559392704
40
0.4638496684
40
0.4718525928
40
0.4799506043
40
0.4881462809
40
0.4964422108
40
0.5048409414
40
0.5133449711
40
0.5219567846
40
0.5306790278
40
0.5395143817
40
0.5484653060
40
0.5575342125
40
0.5667234443
40
0.5760352797
40
0.5854719429
40
0.5950357462
40
0.6047289145
40
0.6145534865
40
0.6245113704
40
0.6346043204
40
0.6448339671
40
0.6552018493
40
0.6657094864
40
0.6763582421
40
0.6871492873
40
0.6980835757
40
0.7091618643
40
0.7203847239
40
0.7317524592
40
0.7432651606
40
0.7549237190
40
0.7667283335
40
0.7786766840
40
0.7907659244
40
0.8029924459
40
0.8153509753
40
0.8278357029
40
0.8404424385
40
0.8531684365
40
0.8660107641
40
0.8789662275
40
0.8920313686
40
0.9052024665
40
0.9184755384
40
0.9318463414
40
0.9453103756
40
0.9588628861
40
0.9724988675
40
0.9862130690
40
1.0000000000
40
1.0000000000
40
1.0000000000
40
1.0000000000
10
-3.2860406924
20
17.6242788671
30
0.0000000000
10
-3.2888025423
20
17.6207812310
30
0.0000000000
10
-3.2941378002
20
17.6137962285
30
0.0000000000
10
-3.3016619618
20
17.6031936892
30
0.0000000000
10
-3.3086049301
20
17.5926296382
30
0.0000000000
10
-3.3149768552
20
17.5821098766
30
0.0000000000
10
-3.3207894574
20
17.5716407063
30
0.0000000000
10
-3.3260542462
20
17.5612279300
30
0.0000000000
10
-3.3307829534
20
17.5508771035
30
0.0000000000
10
-3.3349873941
20
17.5405934676
30
0.0000000000
10
-3.3386794634
20
17.5303819933
30
0.0000000000
10
-3.3418711071
20
17.5202473941
30
0.0000000000
10
-3.3445743138
20
17.5101941184
30
0.0000000000
10
-3.3468011214
20
17.5002262352
30
0.0000000000
10
-3.3485635738
20
17.4903474290
30
0.0000000000
10
-3.3498735389
20
17.4805620229
30
0.0000000000
10
-3.3507428880
20
17.4708752943
30
0.0000000000
10
-3.3511838016
20
17.4612927422
30
0.0000000000
10
-3.3512087938
20
17.4518190123
30
0.0000000000
10
-3.3508305217
20
17.4424575855
30
0.0000000000
10
-3.3500616489
20
17.4332113999
30
0.0000000000
10
-3.3489147621
20
17.4240828553
30
0.0000000000
10
-3.3474022503
20
17.4150735627
30
0.0000000000
10
-3.3455362048
20
17.4061845126
30
0.0000000000
10
-3.3433283521
20
17.3974162153
30
0.0000000000
10
-3.3407901136
20
17.3887690751
30
0.0000000000
10
-3.3379326065
20
17.3802433670
30
0.0000000000
10
-3.3347666156
20
17.3718391688
30
0.0000000000
10
-3.3313025787
20
17.3635563582
30
0.0000000000
10
-3.3275505485
20
17.3553945694
30
0.0000000000
10
-3.3235202023
20
17.3473532681
30
0.0000000000
10
-3.3192208478
20
17.3394317881
30
0.0000000000
10
-3.3146614586
20
17.3316293976
30
0.0000000000
10
-3.3098506469
20
17.3239452543
30
0.0000000000
10
-3.3047966570
20
17.3163784057
30
0.0000000000
10
-3.2995073432
20
17.3089277709
30
0.0000000000
10
-3.2939901374
20
17.3015921170
30
0.0000000000
10
-3.2882520697
20
17.2943701137
30
0.0000000000
10
-3.2822997929
20
17.2872603740
30
0.0000000000
10
-3.2761396234
20
17.2802615045
30
0.0000000000
10
-3.2697775192
20
17.2733720769
30
0.0000000000
10
-3.2632190770
20
17.2665906290
30
0.0000000000
10
-3.2564694951
20
17.2599156330
30
0.0000000000
10
-3.2495335527
20
17.2533454884
30
0.0000000000
10
-3.2424156240
20
17.2468785520
30
0.0000000000
10
-3.2351197244
20
17.2405131865
30
0.0000000000
10
-3.2276495542
20
17.2342477992
30
0.0000000000
10
-3.2200084934
20
17.2280808336
30
0.0000000000
10
-3.2121995902
20
17.2220107598
30
0.0000000000
10
-3.2042255180
20
17.2160360441
30
0.0000000000
10
-3.1960885622
20
17.2101551491
30
0.0000000000
10
-3.1877906200
20
17.2043665422
30
0.0000000000
10
-3.1793332685
20
17.1986687506
30
0.0000000000
10
-3.1707178117
20
17.1930603918
30
0.0000000000
10
-3.1619453027
20
17.1875401835
30
0.0000000000
10
-3.1530165086
20
17.1821069186
30
0.0000000000
10
-3.1439318777
20
17.1767594472
30
0.0000000000
10
-3.1346915268
20
17.1714966736
30
0.0000000000
10
-3.1252952177
20
17.1663175494
30
0.0000000000
10
-3.1157424494
20
17.1612211313
30
0.0000000000
10
-3.1060325084
20
17.1562066057
30
0.0000000000
10
-3.0961645245
20
17.1512733126
30
0.0000000000
10
-3.0861374068
20
17.1464207085
30
0.0000000000
10
-3.0759498323
20
17.1416483614
30
0.0000000000
10
-3.0656002193
20
17.1369559398
30
0.0000000000
10
-3.0550866783
20
17.1323431952
30
0.0000000000
10
-3.0444071379
20
17.1278100234
30
0.0000000000
10
-3.0335594088
20
17.1233564893
30
0.0000000000
10
-3.0225412591
20
17.1189828501
30
0.0000000000
10
-3.0113502880
20
17.1146894999
30
0.0000000000
10
-2.9999839212
20
17.1104769694
30
0.0000000000
10
-2.9884394330
20
17.1063459357
30
0.0000000000
10
-2.9767139888
20
17.1022972370
30
0.0000000000
10
-2.9648046652
20
17.0983318790
30
0.0000000000
10
-2.9527084661
20
17.0944510381
30
0.0000000000
10
-2.9404223605
20
17.0906560714
30
0.0000000000
10
-2.9279433213
20
17.0869485251
30
0.0000000000
10
-2.9152683447
20
17.0833301350
30
0.0000000000
10
-2.9023943557
20
17.0798027964
30
0.0000000000
10
-2.8893181707
20
17.0763685559
30
0.0000000000
10
-2.8760366059
20
17.0730296439
30
0.0000000000
10
-2.8625465877
20
17.0697884985
30
0.0000000000
10
-2.8488452121
20
17.0666477717
30
0.0000000000
10
-2.8349296724
20
17.0636103058
30
0.0000000000
10
-2.8207972679
20
17.0606791311
30
0.0000000000
10
-2.8064453300
20
17.0578574483
30
0.0000000000
10
-2.7918712379
20
17.0551486328
30
0.0000000000
10
-2.7770724910
20
17.0525562491
30
0.0000000000
10
-2.7620468254
20
17.0500840668
30
0.0000000000
10
-2.7467922546
20
17.0477360595
30
0.0000000000
10
-2.7313070430
20
17.0455163927
30
0.0000000000
10
-2.7155896926
20
17.0434294158
30
0.0000000000
10
-2.6996388789
20
17.0414796505
30
0.0000000000
10
-2.6834534731
20
17.0396717925
30
0.0000000000
10
-2.6670325986
20
17.0380107175
30
0.0000000000
10
-2.6503757393
20
17.0365014870
30
0.0000000000
10
-2.6334827663
20
17.0351493429
30
0.0000000000
10
-2.6163539414
20
17.0339596994
30
0.0000000000
10
-2.5989899483
20
17.0329381380
30
0.0000000000
10
-2.5813919079
20
17.0320903996
30
0.0000000000
10
-2.5635608758
20
17.0314223575
30
0.0000000000
10
-2.5454980671
20
17.0309400459
30
0.0000000000
10
-2.5272060544
20
17.0306496900
30
0.0000000000
10
-2.5086894617
20
17.0305576405
30
0.0000000000
10
-2.4899550071
20
17.0306702747
30
0.0000000000
10
-2.4710110651
20
17.0309939178
30
0.0000000000
10
-2.4518676736
20
17.0315347632
30
0.0000000000
10
-2.4325353035
20
17.0322988429
30
0.0000000000
10
-2.4130232550
20
17.0332921129
30
0.0000000000
10
-2.3933394850
20
17.0345205598
30
0.0000000000
10
-2.3734915865
20
17.0359902195
30
0.0000000000
10
-2.3534876773
20
17.0377071338
30
0.0000000000
10
-2.3333364469
20
17.0396773369
30
0.0000000000
10
-2.3130471637
20
17.0419068439
30
0.0000000000
10
-2.2926296811
20
17.0444016407
30
0.0000000000
10
-2.2720944420
20
17.0471676650
30
0.0000000000
10
-2.2514524869
20
17.0502108201
30
0.0000000000
10
-2.2307154450
20
17.0535368673
30
0.0000000000
10
-2.2098955898
20
17.0571517711
30
0.0000000000
10
-2.1890056449
20
17.0610603391
30
0.0000000000
10
-2.1750764704
20
17.0638606164
30
0.0000000000
10
-2.1681030383
20
17.0653100400
30
0.0000000000
11
-3.2860406924
21
17.6242788671
31
0.0000000000
11
-3.2941501787
21
17.6136493005
31
0.0000000000
11
-3.3016666277
21
17.6030515093
31
0.0000000000
11
-3.3086011648
21
17.5924922361
31
0.0000000000
11
-3.3149651163
21
17.5819779152
31
0.0000000000
11
-3.3207699847
21
17.5715146735
31
0.0000000000
11
-3.3260274213
21
17.5611083353
31
0.0000000000
11
-3.3307492020
21
17.5507644259
31
0.0000000000
11
-3.3349472159
21
17.5404881425
31
0.0000000000
11
-3.3386334291
21
17.5302843745
31
0.0000000000
11
-3.3418198329
21
17.5201577983
31
0.0000000000
11
-3.3445184561
21
17.5101128122
31
0.0000000000
11
-3.3467413580
21
17.5001534792
31
0.0000000000
11
-3.3485006293
21
17.4902833122
31
0.0000000000
11
-3.3498082820
21
17.4805055446
31
0.0000000000
11
-3.3506760235
21
17.4708261719
31
0.0000000000
11
-3.3511159566
21
17.4612515315
31
0.0000000000
11
-3.3511406281
21
17.4517854780
31
0.0000000000
11
-3.3507626543
21
17.4424314878
31
0.0000000000
11
-3.3499946523
21
17.4331924495
31
0.0000000000
11
-3.3488491439
21
17.4240706287
31
0.0000000000
11
-3.3473385078
21
17.4150679287
31
0.0000000000
11
-3.3454747129
21
17.4061849243
31
0.0000000000
11
-3.3432694018
21
17.3974220666
31
0.0000000000
11
-3.3407339462
21
17.3887798402
31
0.0000000000
11
-3.3378794016
21
17.3802585322
31
0.0000000000
11
-3.3347164958
21
17.3718582360
31
0.0000000000
11
-3.3312556218
21
17.3635788678
31
0.0000000000
11
-3.3275068100
21
17.3554201342
31
0.0000000000
11
-3.3234796471
21
17.3473814165
31
0.0000000000
11
-3.3191834314
21
17.3394621304
31
0.0000000000
11
-3.3146271157
21
17.3316615867
31
0.0000000000
11
-3.3098192931
21
17.3239789773
31
0.0000000000
11
-3.3047681951
21
17.3164133855
31
0.0000000000
11
-3.2994816857
21
17.3089637895
31
0.0000000000
11
-3.2939671993
21
17.3016289946
31
0.0000000000
11
-3.2882317086
21
17.2944076257
31
0.0000000000
11
-3.2822818917
21
17.2872983559
31
0.0000000000
11
-3.2761240632
21
17.2802998112
31
0.0000000000
11
-3.2697641905
21
17.2734105915
31
0.0000000000
11
-3.2632078807
21
17.2666292597
31
0.0000000000
11
-3.2564603675
21
17.2599543331
31
0.0000000000
11
-3.2495264246
21
17.2533842125
31
0.0000000000
11
-3.2424104018
21
17.2469172374
31
0.0000000000
11
-3.2351163255
21
17.2405517862
31
0.0000000000
11
-3.2276478959
21
17.2342862705
31
0.0000000000
11
-3.2200085176
21
17.2281191573
31
0.0000000000
11
-3.2122012548
21
17.2220489307
31
0.0000000000
11
-3.2042288106
21
17.2160740801
31
0.0000000000
11
-3.1960934623
21
17.2101930604
31
0.0000000000
11
-3.1877971105
21
17.2044043407
31
0.0000000000
11
-3.1793412937
21
17.1987064207
31
0.0000000000
11
-3.1707273311
21
17.1930979285
31
0.0000000000
11
-3.1619563036
21
17.1875775992
31
0.0000000000
11
-3.1530289942
21
17.1821442340
31
0.0000000000
11
-3.1439458611
21
17.1767966868
31
0.0000000000
11
-3.1347070283
21
17.1715338637
31
0.0000000000
11
-3.1253122826
21
17.1663547279
31
0.0000000000
11
-3.1157610154
21
17.1612582751
31
0.0000000000
11
-3.1060525649
21
17.1562437194
31
0.0000000000
11
-3.0961860811
21
17.1513104096
31
0.0000000000
11
-3.0861604820
21
17.1464578048
31
0.0000000000
11
-3.0759744418
21
17.1416854700
31
0.0000000000
11
-3.0656264133
21
17.1369930876
31
0.0000000000
11
-3.0551145374
21
17.1323804196
31
0.0000000000
11
-3.0444365627
21
17.1278472821
31
0.0000000000
11
-3.0335903994
21
17.1233937826
31
0.0000000000
11
-3.0225738356
21
17.1190201852
31
0.0000000000
11
-3.0113844884
21
17.1147268896
31
0.0000000000
11
-3.0000197602
21
17.1105144157
31
0.0000000000
11
-2.9884769184
21
17.1063834370
31
0.0000000000
11
-2.9767531257
21
17.1023347900
31
0.0000000000
11
-2.9648454573
21
17.0983694790
31
0.0000000000
11
-2.9527509143
21
17.0944886787
31
0.0000000000
11
-2.9404664410
21
17.0906937381
31
0.0000000000
11
-2.9279890068
21
17.0869862023
31
0.0000000000
11
-2.9153156258
21
17.0833678125
31
0.0000000000
11
-2.9024433105
21
17.0798404876
31
0.0000000000
11
-2.8893688154
21
17.0764062559
31
0.0000000000
11
-2.8760888285
21
17.0730673149
31
0.0000000000
11
-2.8626003633
21
17.0698261260
31
0.0000000000
11
-2.8489005054
21
17.0666853389
31
0.0000000000
11
-2.8349864503
21
17.0636477974
31
0.0000000000
11
-2.8208555029
21
17.0607165334
31
0.0000000000
11
-2.8065050669
21
17.0578947626
31
0.0000000000
11
-2.7919324327
21
17.0551858429
31
0.0000000000
11
-2.7771350497
21
17.0525933312
31
0.0000000000
11
-2.7621106824
21
17.0501210041
31
0.0000000000
11
-2.7468573320
21
17.0477728348
31
0.0000000000
11
-2.7313732789
21
17.0455529933
31
0.0000000000
11
-2.7156570414
21
17.0434658329
31
0.0000000000
11
-2.6997073324
21
17.0415158813
31
0.0000000000
11
-2.6835229532
21
17.0397078273
31
0.0000000000
11
-2.6671030087
21
17.0380465471
31
0.0000000000
11
-2.6504469701
21
17.0365371037
31
0.0000000000
11
-2.6335547197
21
17.0351847433
31
0.0000000000
11
-2.6164265249
21
17.0339948835
31
0.0000000000
11
-2.5990630285
21
17.0329731064
31
0.0000000000
11
-2.5814653789
21
17.0321251584
31
0.0000000000
11
-2.5636351561
21
17.0314569358
31
0.0000000000
11
-2.5455728056
21
17.0309744449
31
0.0000000000
11
-2.5272799569
21
17.0306839050
31
0.0000000000
11
-2.5087622640
21
17.0305917019
31
0.0000000000
11
-2.4900263239
21
17.0307042215
31
0.0000000000
11
-2.4710800467
21
17.0310278074
31
0.0000000000
11
-2.4519340541
21
17.0315686580
31
0.0000000000
11
-2.4325999314
21
17.0323327696
31
0.0000000000
11
-2.4130868897
21
17.0333260860
31
0.0000000000
11
-2.3934020452
21
17.0345546314
31
0.0000000000
11
-2.3735529547
21
17.0360244488
31
0.0000000000
11
-2.3535477373
21
17.0377415857
31
0.0000000000
11
-2.3333950852
21
17.0397120819
31
0.0000000000
11
-2.3131042705
21
17.0419419583
31
0.0000000000
11
-2.2926851506
21
17.0444372054
31
0.0000000000
11
-2.2721481735
21
17.0472037710
31
0.0000000000
11
-2.2515043829
21
17.0502475487
31
0.0000000000
11
-2.2307654227
21
17.0535743649
31
0.0000000000
11
-2.2099435409
21
17.0571899665
31
0.0000000000
11
-2.1890515918
21
17.0611000083
31
0.0000000000
11
-2.1681030383
21
17.0653100400
31
0.0000000000
0
SPLINE
5
34A
100
AcDbEntity
8
0
100
AcDbSpline
62
9
6
CONTINUOUS
70
0
71
3
72
126
73
122
74
120
42
0.0000001000
43
0.0000001000
44
0.0000000001
12
-0.9604634261
22
-1.2163411171
32
0.0000000000
13
1.5174005299
23
0.3153907702
33
0.0000000000
40
0.0000000000
40
0.0000000000
40
0.0000000000
40
0.0000000000
40
0.0086266163
40
0.0170099165
40
0.0251609591
40
0.0330910332
40
0.0408116268
40
0.0483343896
40
0.0556710932
40
0.0628336104
40
0.0698338554
40
0.0766836733
40
0.0833948372
40
0.0899790340
40
0.0964479518
40
0.1028130471
40
0.1090835319
40
0.1152679112
40
0.1213757297
40
0.1274161461
40
0.1333980270
40
0.1393299422
40
0.1452199792
40
0.1510763766
40
0.1569067537
40
0.1627180176
40
0.1685165334
40
0.1743081465
40
0.1800982009
40
0.1858915956
40
0.1916929076
40
0.1975061753
40
0.2033350320
40
0.2091827553
40
0.2150522990
40
0.2209463295
40
0.2268673201
40
0.2328176027
40
0.2387992185
40
0.2448140268
40
0.2508637175
40
0.2569498519
40
0.2630738989
40
0.2692373326
40
0.2754416153
40
0.2816881286
40
0.2879781987
40
0.2943130922
40
0.3006940716
40
0.3071224289
40
0.3135995488
40
0.3201268808
40
0.3267059389
40
0.3333382032
40
0.3400251499
40
0.3467683092
40
0.3535692952
40
0.3604298208
40
0.3673517074
40
0.3743369339
40
0.3813873941
40
0.3885050059
40
0.3956917520
40
0.4029496936
40
0.4102809610
40
0.4176878230
40
0.4251727465
40
0.4327380136
40
0.4403859293
40
0.4481188603
40
0.4559392704
40
0.4638496684
40
0.4718525928
40
0.4799506043
40
0.4881462809
40
0.4964422108
40
0.5048409414
40
0.5133449711
40
0.5219567846
40
0.5306790278
40
0.5395143817
40
0.5484653060
40
0.5575342125
40
0.5667234443
40
0.5760352797
40
0.5854719429
40
0.5950357462
40
0.6047289145
40
0.6145534865
40
0.6245113704
40
0.6346043204
40
0.6448339671
40
0.6552018493
40
0.6657094864
40
0.6763582421
40
0.6871492873
40
0.6980835757
40
0.7091618643
40
0.7203847239
40
0.7317524592
40
0.7432651606
40
0.7549237190
40
0.7667283335
40
0.7786766840
40
0.7907659244
40
0.8029924459
40
0.8153509753
40
0.8278357029
40
0.8404424385
40
0.8531684365
40
0.8660107641
40
0.8789662275
40
0.8920313686
40
0.9052024665
40
0.9184755384
40
0.9318463414
40
0.9453103756
40
0.9588628861
40
0.9724988675
40
0.9862130690
40
1.0000000000
40
1.0000000000
40
1.0000000000
40
1.0000000000
10
-13.4022468134
20
22.6823819276
30
0.0000000000
10
-13.4050086632
20
22.6788842915
30
0.0000000000
10
-13.4103439212
20
22.6718992890
30
0.0000000000
10
-13.4178680828
20
22.6612967497
30
0.0000000000
10
-13.4248110511
20
22.6507326987
30
0.0000000000
10
-13.4311829762
20
22.6402129371
30
0.0000000000
10
-13.4369955784
20
22.6297437668
30
0.0000000000
10
-13.4422603672
20
22.6193309905
30
0.0000000000
10
-13.4469890743
20
22.6089801640
30
0.0000000000
10
-13.4511935150
20
22.5986965281
30
0.0000000000
10
-13.4548855844
20
22.5884850538
30
0.0000000000
10
-13.4580772281
20
22.5783504546
30
0.0000000000
10
-13.4607804347
20
22.5682971789
30
0.0000000000
10
-13.4630072424
20
22.5583292957
30
0.0000000000
10
-13.4647696948
20
22.5484504895
30
0.0000000000
10
-13.4660796599
20
22.5386650834
30
0.0000000000
10
-13.4669490090
20
22.5289783548
30
0.0000000000
10
-13.4673899226
20
22.5193958027
30
0.0000000000
10
-13.4674149148
20
22.5099220728
30
0.0000000000
10
-13.4670366427
20
22.5005606460
30
0.0000000000
10
-13.4662677699
20
22.4913144604
30
0.0000000000
10
-13.4651208831
20
22.4821859158
30
0.0000000000
10
-13.4636083713
20
22.4731766232
30
0.0000000000
10
-13.4617423258
20
22.4642875731
30
0.0000000000
10
-13.4595344731
20
22.4555192758
30
0.0000000000
10
-13.4569962346
20
22.4468721356
30
0.0000000000
10
-13.4541387274
20
22.4383464275
30
0.0000000000
10
-13.4509727366
20
22.4299422293
30
0.0000000000
10
-13.4475086997
20
22.4216594187
30
0.0000000000
10
-13.4437566695
20
22.4134976299
30
0.0000000000
10
-13.4397263233
20
22.4054563286
30
0.0000000000
10
-13.4354269688
20
22.3975348485
30
0.0000000000
10
-13.4308675796
20
22.3897324581
30
0.0000000000
10
-13.4260567679
20
22.3820483148
30
0.0000000000
10
-13.4210027780
20
22.3744814662
30
0.0000000000
10
-13.4157134642
20
22.3670308314
30
0.0000000000
10
-13.4101962584
20
22.3596951775
30
0.0000000000
10
-13.4044581907
20
22.3524731742
30
0.0000000000
10
-13.3985059139
20
22.3453634345
30
0.0000000000
10
-13.3923457444
20
22.3383645649
30
0.0000000000
10
-13.3859836402
20
22.3314751374
30
0.0000000000
10
-13.3794251979
20
22.3246936895
30
0.0000000000
10
-13.3726756161
20
22.3180186935
30
0.0000000000
10
-13.3657396737
20
22.3114485489
30
0.0000000000
10
-13.3586217450
20
22.3049816125
30
0.0000000000
10
-13.3513258453
20
22.2986162470
30
0.0000000000
10
-13.3438556752
20
22.2923508597
30
0.0000000000
10
-13.3362146144
20
22.2861838941
30
0.0000000000
10
-13.3284057112
20
22.2801138203
30
0.0000000000
10
-13.3204316390
20
22.2741391046
30
0.0000000000
10
-13.3122946832
20
22.2682582096
30
0.0000000000
10
-13.3039967409
20
22.2624696027
30
0.0000000000
10
-13.2955393895
20
22.2567718111
30
0.0000000000
10
-13.2869239327
20
22.2511634523
30
0.0000000000
10
-13.2781514237
20
22.2456432440
30
0.0000000000
10
-13.2692226296
20
22.2402099791
30
0.0000000000
10
-13.2601379987
20
22.2348625077
30
0.0000000000
10
-13.2508976478
20
22.2295997341
30
0.0000000000
10
-13.2415013387
20
22.2244206099
30
0.0000000000
10
-13.2319485704
20
22.2193241918
30
0.0000000000
10
-13.2222386293
20
22.2143096662
30
0.0000000000
10
-13.2123706455
20
22.2093763731
30
0.0000000000
10
-13.2023435278
20
22.2045237690
30
0.0000000000
10
-13.1921559533
20
22.1997514219
30
0.0000000000
10
-13.1818063403
20
22.1950590003
30
0.0000000000
10
-13.1712927993
20
22.1904462556
30
0.0000000000
10
-13.1606132589
20
22.1859130839
30
0.0000000000
10
-13.1497655298
20
22.1814595498
30
0.0000000000
10
-13.1387473801
20
22.1770859106
30
0.0000000000
10
-13.1275564089
20
22.1727925604
30
0.0000000000
10
-13.1161900422
20
22.1685800299
30
0.0000000000
10
-13.1046455540
20
22.1644489962
30
0.0000000000
10
-13.0929201098
20
22.1604002975
30
0.0000000000
10
-13.0810107862
20
22.1564349395
30
0.0000000000
10
-13.0689145871
20
22.1525540986
30
0.0000000000
10
-13.0566284814
20
22.1487591319
30
0.0000000000
10
-13.0441494423
20
22.1450515855
30
0.0000000000
10
-13.0314744656
20
22.1414331955
30
0.0000000000
10
-13.0186004766
20
22.1379058569
30
0.0000000000
10
-13.0055242917
20
22.1344716164
30
0.0000000000
10
-12.9922427269
20
22.1311327044
30
0.0000000000
10
-12.9787527087
20
22.1278915590
30
0.0000000000
10
-12.9650513331
20
22.1247508322
30
0.0000000000
10
-12.9511357934
20
22.1217133663
30
0.0000000000
10
-12.9370033889
20
22.1187821916
30
0.0000000000
10
-12.9226514510
20
22.1159605088
30
0.0000000000
10
-12.9080773589
20
22.1132516933
30
0.0000000000
10
-12.8932786120
20
22.1106593096
30
0.0000000000
10
-12.8782529464
20
22.1081871273
30
0.0000000000
10
-12.8629983756
20
22.1058391200
30
0.0000000000
10
-12.8475131640
20
22.1036194532
30
0.0000000000
10
-12.8317958136
20
22.1015324763
30
0.0000000000
10
-12.8158449999
20
22.0995827110
30
0.0000000000
10
-12.7996595941
20
22.0977748530
30
0.0000000000
10
-12.7832387196
20
22.0961137780
30
0.0000000000
10
-12.7665818602
20
22.0946045475
30
0.0000000000
10
-12.7496888873
20
22.0932524034
30
0.0000000000
10
-12.7325600624
20
22.0920627599
30
0.0000000000
10
-12.7151960693
20
22.0910411985
30
0.0000000000
10
-12.6975980289
20
22.0901934601
30
0.0000000000
10
-12.6797669968
20
22.0895254179
30
0.0000000000
10
-12.6617041881
20
22.0890431064
30
0.0000000000
10
-12.6434121754
20
22.0887527505
30
0.0000000000
10
-12.6248955827
20
22.0886607010
30
0.0000000000
10
-12.6061611281
20
22.0887733352
30
0.0000000000
10
-12.5872171861
20
22.0890969783
30
0.0000000000
10
-12.5680737946
20
22.0896378237
30
0.0000000000
10
-12.5487414245
20
22.0904019034
30
0.0000000000
10
-12.5292293760
20
22.0913951734
30
0.0000000000
10
-12.5095456060
20
22.0926236203
30
0.0000000000
10
-12.4896977075
20
22.0940932800
30
0.0000000000
10
-12.4696937983
20
22.0958101943
30
0.0000000000
10
-12.4495425679
20
22.0977803974
30
0.0000000000
10
-12.4292532847
20
22.1000099044
30
0.0000000000
10
-12.4088358021
20
22.1025047011
30
0.0000000000
10
-12.3883005629
20
22.1052707255
30
0.0000000000
10
-12.3676586079
20
22.1083138806
30
0.0000000000
10
-12.3469215660
20
22.1116399278
30
0.0000000000
10
-12.3261017107
20
22.1152548316
30
0.0000000000
10
-12.3052117659
20
22.1191633996
30
0.0000000000
10
-12.2912825914
20
22.1219636769
30
0.0000000000
10
-12.2843091593
20
22.1234131005
30
0.0000000000
11
-13.4022468134
21
22.6823819276
31
0.0000000000
11
-13.4103562997
21
22.6717523610
31
0.0000000000
11
-13.4178727487
21
22.6611545698
31
0.0000000000
11
-13.4248072858
21
22.6505952966
31
0.0000000000
11
-13.4311712373
21
22.6400809757
31
0.0000000000
11
-13.4369761057
21
22.6296177340
31
0.0000000000
11
-13.4422335423
21
22.6192113958
31
0.0000000000
11
-13.4469553230
21
22.6088674864
31
0.0000000000
11
-13.4511533368
21
22.5985912030
31
0.0000000000
11
-13.4548395501
21
22.5883874350
31
0.0000000000
11
-13.4580259539
21
22.5782608588
31
0.0000000000
11
-13.4607245771
21
22.5682158727
31
0.0000000000
11
-13.4629474789
21
22.5582565397
31
0.0000000000
11
-13.4647067503
21
22.5483863727
31
0.0000000000
11
-13.4660144030
21
22.5386086051
31
0.0000000000
11
-13.4668821445
21
22.5289292324
31
0.0000000000
11
-13.4673220776
21
22.5193545920
31
0.0000000000
11
-13.4673467491
21
22.5098885385
31
0.0000000000
11
-13.4669687753
21
22.5005345483
31
0.0000000000
11
-13.4662007733
21
22.4912955100
31
0.0000000000
11
-13.4650552649
21
22.4821736892
31
0.0000000000
11
-13.4635446288
21
22.4731709892
31
0.0000000000
11
-13.4616808339
21
22.4642879848
31
0.0000000000
11
-13.4594755227
21
22.4555251271
31
0.0000000000
11
-13.4569400671
21
22.4468829007
31
0.0000000000
11
-13.4540855226
21
22.4383615927
31
0.0000000000
11
-13.4509226168
21
22.4299612965
31
0.0000000000
11
-13.4474617428
21
22.4216819283
31
0.0000000000
11
-13.4437129310
21
22.4135231946
31
0.0000000000
11
-13.4396857681
21
22.4054844770
31
0.0000000000
11
-13.4353895524
21
22.3975651909
31
0.0000000000
11
-13.4308332367
21
22.3897646472
31
0.0000000000
11
-13.4260254141
21
22.3820820378
31
0.0000000000
11
-13.4209743161
21
22.3745164460
31
0.0000000000
11
-13.4156878067
21
22.3670668500
31
0.0000000000
11
-13.4101733203
21
22.3597320551
31
0.0000000000
11
-13.4044378296
21
22.3525106862
31
0.0000000000
11
-13.3984880126
21
22.3454014164
31
0.0000000000
11
-13.3923301842
21
22.3384028717
31
0.0000000000
11
-13.3859703115
21
22.3315136520
31
0.0000000000
11
-13.3794140017
21
22.3247323201
31
0.0000000000
11
-13.3726664885
21
22.3180573936
31
0.0000000000
11
-13.3657325456
21
22.3114872730
31
0.0000000000
11
-13.3586165228
21
22.3050202979
31
0.0000000000
11
-13.3513224465
21
22.2986548467
31
0.0000000000
11
-13.3438540169
21
22.2923893310
31
0.0000000000
11
-13.3362146386
21
22.2862222178
31
0.0000000000
11
-13.3284073758
21
22.2801519912
31
0.0000000000
11
-13.3204349316
21
22.2741771406
31
0.0000000000
11
-13.3122995833
21
22.2682961209
31
0.0000000000
11
-13.3040032315
21
22.2625074012
31
0.0000000000
11
-13.2955474147
21
22.2568094812
31
0.0000000000
11
-13.2869334520
21
22.2512009890
31
0.0000000000
11
-13.2781624245
21
22.2456806596
31
0.0000000000
11
-13.2692351152
21
22.2402472945
31
0.0000000000
11
-13.2601519821
21
22.2348997473
31
0.0000000000
11
-13.2509131493
21
22.2296369242
31
0.0000000000
11
-13.2415184036
21
22.2244577884
31
0.0000000000
11
-13.2319671364
21
22.2193613356
31
0.0000000000
11
-13.2222586858
21
22.2143467798
31
0.0000000000
11
-13.2123922021
21
22.2094134700
31
0.0000000000
11
-13.2023666030
21
22.2045608653
31
0.0000000000
11
-13.1921805628
21
22.1997885305
31
0.0000000000
11
-13.1818325343
21
22.1950961481
31
0.0000000000
11
-13.1713206584
21
22.1904834801
31
0.0000000000
11
-13.1606426837
21
22.1859503426
31
0.0000000000
11
-13.1497965204
21
22.1814968431
31
0.0000000000
11
-13.1387799566
21
22.1771232457
31
0.0000000000
11
-13.1275906094
21
22.1728299501
31
0.0000000000
11
-13.1162258811
21
22.1686174762
31
0.0000000000
11
-13.1046830394
21
22.1644864975
31
0.0000000000
11
-13.0929592467
21
22.1604378505
31
0.0000000000
11
-13.0810515783
21
22.1564725395
31
0.0000000000
11
-13.0689570353
21
22.1525917392
31
0.0000000000
11
-13.0566725620
21
22.1487967986
31
0.0000000000
11
-13.0441951278
21
22.1450892628
31
0.0000000000
11
-13.0315217468
21
22.1414708730
31
0.0000000000
11
-13.0186494315
21
22.1379435481
31
0.0000000000
11
-13.0055749364
21
22.1345093164
31
0.0000000000
11
-12.9922949495
21
22.1311703754
31
0.0000000000
11
-12.9788064843
21
22.1279291864
31
0.0000000000
11
-12.9651066264
21
22.1247883994
31
0.0000000000
11
-12.9511925713
21
22.1217508578
31
0.0000000000
11
-12.9370616239
21
22.1188195939
31
0.0000000000
11
-12.9227111878
21
22.1159978231
31
0.0000000000
11
-12.9081385537
21
22.1132889034
31
0.0000000000
11
-12.8933411707
21
22.1106963917
31
0.0000000000
11
-12.8783168034
21
22.1082240646
31
0.0000000000
11
-12.8630634529
21
22.1058758953
31
0.0000000000
11
-12.8475793999
21
22.1036560538
31
0.0000000000
11
-12.8318631624
21
22.1015688934
31
0.0000000000
11
-12.8159134534
21
22.0996189418
31
0.0000000000
11
-12.7997290741
21
22.0978108878
31
0.0000000000
11
-12.7833091297
21
22.0961496076
31
0.0000000000
11
-12.7666530911
21
22.0946401642
31
0.0000000000
11
-12.7497608407
21
22.0932878038
31
0.0000000000
11
-12.7326326459
21
22.0920979440
31
0.0000000000
11
-12.7152691495
21
22.0910761669
31
0.0000000000
11
-12.6976714999
21
22.0902282189
31
0.0000000000
11
-12.6798412771
21
22.0895599963
31
0.0000000000
11
-12.6617789266
21
22.0890775054
31
0.0000000000
11
-12.6434860779
21
22.0887869655
31
0.0000000000
11
-12.6249683850
21
22.0886947624
31
0.0000000000
11
-12.6062324449
21
22.0888072820
31
0.0000000000
11
-12.5872861677
21
22.0891308679
31
0.0000000000
11
-12.5681401751
21
22.0896717185
31
0.0000000000
11
-12.5488060524
21
22.0904358301
31
0.0000000000
11
-12.5292930107
21
22.0914291465
31
0.0000000000
11
-12.5096081662
21
22.0926576918
31
0.0000000000
11
-12.4897590757
21
22.0941275093
31
0.0000000000
11
-12.4697538583
21
22.0958446462
31
0.0000000000
11
-12.4496012062
21
22.0978151424
31
0.0000000000
11
-12.4293103915
21
22.1000450188
31
0.0000000000
11
-12.4088912715
21
22.1025402659
31
0.0000000000
11
-12.3883542945
21
22.1053068315
31
0.0000000000
11
-12.3677105039
21
22.1083506092
31
0.0000000000
11
-12.3469715437
21
22.1116774254
31
0.0000000000
11
-12.3261496619
21
22.1152930270
31
0.0000000000
11
-12.3052577128
21
22.1192030688
31
0.0000000000
11
-12.2843091593
21
22.1234131005
31
0.0000000000
0
SPLINE
5
34B
100
AcDbEntity
8
0
100
AcDbSpline
62
7
6
CONTINUOUS
70
0
71
3
72
14
73
10
74
8
42
0.0000001000
43
0.0000001000
44
0.0000000001
12
-0.2874071388
22
-0.1085052027
32
0.0000000000
13
-0.2750178351
23
0.1374924936
33
0.0000000000
40
0.0000000000
40
0.0000000000
40
0.0000000000
40
0.0000000000
40
0.1661959756
40
0.3254148260
40
0.4780195931
40
0.6251059131
40
0.7676527612
40
0.9073566318
40
1.0000000000
40
1.0000000000
40
1.0000000000
40
1.0000000000
10
-0.1950107081
20
-22.7402768634
30
0.0000000000
10
-0.2109326781
20
-22.7462879061
30
0.0000000000
10
-0.2426811102
20
-22.7566193164
30
0.0000000000
10
-0.2906369443
20
-22.7668862021
30
0.0000000000
10
-0.3375150419
20
-22.7714848473
30
0.0000000000
10
-0.3829093716
20
-22.7703523193
30
0.0000000000
10
-0.4264694159
20
-22.7634743535
30
0.0000000000
10
-0.4633180076
20
-22.7522555946
30
0.0000000000
10
-0.4851307170
20
-22.7426317372
30
0.0000000000
10
-0.4936235765
20
-22.7383858147
30
0.0000000000
11
-0.1950107081
21
-22.7402768634
31
0.0000000000
11
-0.2435959975
21
-22.7559690750
31
0.0000000000
11
-0.2914491819
21
-22.7660968148
31
0.0000000000
11
-0.3381172896
21
-22.7705624551
31
0.0000000000
11
-0.3832865960
21
-22.7693353582
31
0.0000000000
11
-0.4265297795
21
-22.7624277572
31
0.0000000000
11
-0.4675731017
21
-22.7498817216
31
0.0000000000
11
-0.4936235765
21
-22.7383858147
31
0.0000000000
0
SPLINE
5
34C
100
AcDbEntity
8
0
100
AcDbSpline
62
7
6
CONTINUOUS
70
0
71
3
72
15
73
11
74
9
42
0.0000001000
43
0.0000001000
44
0.0000000001
12
-0.3199715142
22
-0.1511352053
32
0.0000000000
13
-0.3167878073
23
0.1583900491
33
0.0000000000
40
0.0000000000
40
0.0000000000
40
0.0000000000
40
0.0000000000
40
0.1497845685
40
0.2935624206
40
0.4315019051
40
0.5635915889
40
0.6906069060
40
0.8140449646
40
0.9349439970
40
1.0000000000
40
1.0000000000
40
1.0000000000
40
1.0000000000
10
-0.1520621701
20
11.1439603645
30
0.0000000000
10
-0.1680377685
20
11.1364144574
30
0.0000000000
10
-0.2000070829
20
11.1229619623
30
0.0000000000
10
-0.2486750809
20
11.1077812254
30
0.0000000000
10
-0.2966366480
20
11.0981945526
30
0.0000000000
10
-0.3434216054
20
11.0943212911
30
0.0000000000
10
-0.3886301797
20
11.0961945296
30
0.0000000000
10
-0.4319054612
20
11.1038062753
30
0.0000000000
10
-0.4667353014
20
11.1151082487
30
0.0000000000
10
-0.4867533424
20
11.1241624351
30
0.0000000000
10
-0.4936229920
20
11.1275971763
30
0.0000000000
11
-0.1520621701
21
11.1439603645
31
0.0000000000
11
-0.2009582232
21
11.1235001561
31
0.0000000000
11
-0.2495622073
21
11.1084574080
31
0.0000000000
11
-0.2974506409
21
11.0990040762
31
0.0000000000
11
-0.3440428332
21
11.0952584324
31
0.0000000000
11
-0.3889469887
21
11.0972169528
31
0.0000000000
11
-0.4319544256
21
11.1048580884
31
0.0000000000
11
-0.4726347105
21
11.1181040305
31
0.0000000000
11
-0.4936229920
21
11.1275971763
31
0.0000000000
0
SPLINE
5
34D
100
AcDbEntity
8
0
100
AcDbSpline
62
7
6
CONTINUOUS
70
0
71
3
72
36
73
32
74
30
42
0.0000001000
43
0.0000001000
44
0.0000000001
12
-1.6670933223
22
-0.8224591762
32
0.0000000000
13
-0.0002865289
23
1.8609981334
33
0.0000000000
40
0.0000000000
40
0.0000000000
40
0.0000000000
40
0.0000000000
40
0.0347944033
40
0.0710946829
40
0.1087661633
40
0.1476648332
40
0.1876296427
40
0.2284652427
40
0.2700063629
40
0.3120180722
40
0.3543352814
40
0.3967047480
40
0.4389601088
40
0.4808504779
40
0.5222097999
40
0.5628054171
40
0.6024784042
40
0.6410272518
40
0.6783101348
40
0.7141706209
40
0.7484965660
40
0.7811931594
40
0.8121962826
40
0.8414925625
40
0.8690935822
40
0.8950928578
40
0.9196131644
40
0.9428835042
40
0.9651646342
40
0.9868252108
40
1.0000000000
40
1.0000000000
40
1.0000000000
40
1.0000000000
10
-14.3366321583
20
23.3366896698
30
0.0000000000
10
-14.3559673307
20
23.3271506778
30
0.0000000000
10
-14.3961212583
20
23.3089496970
30
0.0000000000
10
-14.4590583675
20
23.2847495126
30
0.0000000000
10
-14.5256292321
20
23.2631998741
30
0.0000000000
10
-14.5953907398
20
23.2444438753
30
0.0000000000
10
-14.6678782257
20
23.2286059986
30
0.0000000000
10
-14.7426204081
20
23.2157890326
30
0.0000000000
10
-14.8191070715
20
23.2060806095
30
0.0000000000
10
-14.8968502200
20
23.1995426921
30
0.0000000000
10
-14.9753103630
20
23.1962208316
30
0.0000000000
10
-15.0539915795
20
23.1961361328
30
0.0000000000
10
-15.1323451800
20
23.1992892660
30
0.0000000000
10
-15.2098754596
20
23.2056603886
30
0.0000000000
10
-15.2860438663
20
23.2152052062
30
0.0000000000
10
-15.3603651308
20
23.2278629725
30
0.0000000000
10
-15.4323277211
20
23.2435464650
30
0.0000000000
10
-15.5014688323
20
23.2621549212
30
0.0000000000
10
-15.5673188009
20
23.2835619661
30
0.0000000000
10
-15.6294498154
20
23.3076290180
30
0.0000000000
10
-15.6874471570
20
23.3341962732
30
0.0000000000
10
-15.7409301104
20
23.3630913690
30
0.0000000000
10
-15.7895487772
20
23.3941290248
30
0.0000000000
10
-15.8329797747
20
23.4271098159
30
0.0000000000
10
-15.8709415876
20
23.4618326441
30
0.0000000000
10
-15.9031719042
20
23.4980791159
30
0.0000000000
10
-15.9294501738
20
23.5356382011
30
0.0000000000
10
-15.9495682055
20
23.5742690239
30
0.0000000000
10
-15.9633555818
20
23.6137359838
30
0.0000000000
10
-15.9697473647
20
23.6486911582
30
0.0000000000
10
-15.9708223899
20
23.6703132829
30
0.0000000000
10
-15.9708236482
20
23.6784860356
30
0.0000000000
11
-14.3366321583
21
23.3366896698
31
0.0000000000
11
-14.3955066105
21
23.3099059014
31
0.0000000000
11
-14.4584636028
21
23.2856170450
31
0.0000000000
11
-14.5250691393
21
23.2639897499
31
0.0000000000
11
-14.5948858488
21
23.2451648376
31
0.0000000000
11
-14.6674566374
21
23.2292658044
31
0.0000000000
11
-14.7422697723
21
23.2164037268
31
0.0000000000
11
-14.8188743877
21
23.2066565506
31
0.0000000000
11
-14.8966954549
21
23.2000969398
31
0.0000000000
11
-14.9752896934
21
23.1967625006
31
0.0000000000
11
-15.0540517324
21
23.1966789089
31
0.0000000000
11
-15.1325377990
21
23.1998466894
31
0.0000000000
11
-15.2101462264
21
23.2062418582
31
0.0000000000
11
-15.2864306131
21
23.2158276002
31
0.0000000000
11
-15.3608180903
21
23.2285323621
31
0.0000000000
11
-15.4328665689
21
23.2442805673
31
0.0000000000
11
-15.5020496149
21
23.2629576455
31
0.0000000000
11
-15.5679400241
21
23.2844480785
31
0.0000000000
11
-15.6300730120
21
23.3086008346
31
0.0000000000
11
-15.6880471100
21
23.3352594499
31
0.0000000000
11
-15.7414714587
21
23.3642447841
31
0.0000000000
11
-15.7899834626
21
23.3953594744
31
0.0000000000
11
-15.8332720641
21
23.4284045262
31
0.0000000000
11
-15.8710302450
21
23.4631447339
31
0.0000000000
11
-15.9030267914
21
23.4993676960
31
0.0000000000
11
-15.9290270291
21
23.5368066459
31
0.0000000000
11
-15.9488777250
21
23.5752411178
31
0.0000000000
11
-15.9624296348
21
23.6143805293
31
0.0000000000
11
-15.9696053993
21
23.6540015744
31
0.0000000000
11
-15.9708236482
21
23.6784860356
31
0.0000000000
0
SPLINE
5
34E
100
AcDbEntity
8
0
100
AcDbSpline
62
7
6
CONTINUOUS
70
0
71
3
72
27
73
23
74
21
42
0.0000001000
43
0.0000001000
44
0.0000000001
12
-1.1990547362
22
-0.0254365032
32
0.0000000000
13
-0.0000651735
23
1.2006479610
33
0.0000000000
40
0.0000000000
40
0.0000000000
40
0.0000000000
40
0.0000000000
40
0.0656709209
40
0.1311623437
40
0.1960827156
40
0.2601777762
40
0.3230838110
40
0.3845581063
40
0.4442850330
40
0.5020487180
40
0.5576034005
40
0.6107793789
40
0.6614266852
40
0.7094500018
40
0.7548262040
40
0.7975770975
40
0.8378460773
40
0.8758270447
40
0.9118741783
40
0.9463948222
40
0.9799598430
40
1.0000000000
40
1.0000000000
40
1.0000000000
40
1.0000000000
10
1.1457977208
20
15.1357248660
30
0.0000000000
10
1.1195500446
20
15.1351680531
30
0.0000000000
10
1.0670970552
20
15.1351375126
30
0.0000000000
10
0.9887517006
20
15.1383295056
30
0.0000000000
10
0.9112339581
20
15.1447391235
30
0.0000000000
10
0.8350852278
20
15.1543217407
30
0.0000000000
10
0.7607889223
20
15.1670165207
30
0.0000000000
10
0.6888578472
20
15.1827357578
30
0.0000000000
10
0.6197532015
20
15.2013787630
30
0.0000000000
10
0.5539457795
20
15.2228185516
30
0.0000000000
10
0.4918617366
20
15.2469167895
30
0.0000000000
10
0.4339167905
20
15.2735129519
30
0.0000000000
10
0.3804900450
20
15.3024350972
30
0.0000000000
10
0.3319321788
20
15.3334971549
30
0.0000000000
10
0.2885651416
20
15.3665002727
30
0.0000000000
10
0.2506709646
20
15.4012425317
30
0.0000000000
10
0.2185108384
20
15.4375062643
30
0.0000000000
10
0.1923055887
20
15.4750793196
30
0.0000000000
10
0.1722626882
20
15.5137224210
30
0.0000000000
10
0.1585523468
20
15.5531951870
30
0.0000000000
10
0.1522568705
20
15.5880104012
30
0.0000000000
10
0.1512110676
20
15.6094644070
30
0.0000000000
10
0.1512106322
20
15.6174847982
30
0.0000000000
11
1.1457977208
21
15.1357248660
31
0.0000000000
11
1.0670369885
21
15.1356803805
31
0.0000000000
11
0.9885570109
21
15.1388872064
31
0.0000000000
11
0.9109626852
21
15.1453209126
31
0.0000000000
11
0.8346967184
21
15.1549447721
31
0.0000000000
11
0.7603357076
21
15.1676864465
31
0.0000000000
11
0.6883175419
21
15.1834708405
31
0.0000000000
11
0.6191725941
21
15.2021821971
31
0.0000000000
11
0.5533236201
21
15.2237059331
31
0.0000000000
11
0.4912393028
21
15.2478894034
31
0.0000000000
11
0.4333167125
21
15.2745775387
31
0.0000000000
11
0.3799502348
21
15.3035892112
31
0.0000000000
11
0.3314984948
21
15.3347288190
31
0.0000000000
11
0.2882753568
21
15.3677951597
31
0.0000000000
11
0.2505846050
21
15.4025549804
31
0.0000000000
11
0.2186593499
21
15.4387936419
31
0.0000000000
11
0.1927318767
21
15.4762463553
31
0.0000000000
11
0.1729564147
21
15.5146905376
31
0.0000000000
11
0.1594806156
21
15.5538374821
31
0.0000000000
11
0.1523820516
21
15.5934620169
31
0.0000000000
11
0.1512106322
21
15.6174847982
31
0.0000000000
0
SPLINE
5
34F
100
AcDbEntity
8
0
100
AcDbSpline
62
9
6
CONTINUOUS
70
0
71
3
72
35
73
31
74
29
42
0.0000001000
43
0.0000001000
44
0.0000000001
12
-1.6716371554
22
-0.8071406183
32
0.0000000000
13
-0.0002275655
23
1.8584269167
33
0.0000000000
40
0.0000000000
40
0.0000000000
40
0.0000000000
40
0.0000000000
40
0.0356790855
40
0.0729625556
40
0.1117129828
40
0.1517658402
40
0.1929385000
40
0.2350327412
40
0.2778369701
40
0.3211309845
40
0.3646883008
40
0.4082794668
40
0.4516740014
40
0.4946444558
40
0.5369681758
40
0.5784314029
40
0.6188311672
40
0.6579799102
40
0.6957078597
40
0.7318683971
40
0.7663415129
40
0.7990405508
40
0.8299176182
40
0.8589725162
40
0.8862608151
40
0.9119047543
40
0.9361017550
40
0.9591310632
40
0.9813506476
40
1.0000000000
40
1.0000000000
40
1.0000000000
40
1.0000000000
10
-14.3366321583
20
24.0883234921
30
0.0000000000
10
-14.3565129866
20
24.0787241458
30
0.0000000000
10
-14.3978369336
20
24.0604551335
30
0.0000000000
10
-14.4626464826
20
24.0363150920
30
0.0000000000
10
-14.5312680093
20
24.0149691901
30
0.0000000000
10
-14.6032195642
20
23.9965678605
30
0.0000000000
10
-14.6779989350
20
23.9812394849
30
0.0000000000
10
-14.7550824398
20
23.9690917717
30
0.0000000000
10
-14.8339299767
20
23.9602100995
30
0.0000000000
10
-14.9139882757
20
23.9546570093
30
0.0000000000
10
-14.9946958498
20
23.9524715793
30
0.0000000000
10
-15.0754862752
20
23.9536692112
30
0.0000000000
10
-15.1557927102
20
23.9582414745
30
0.0000000000
10
-15.2350514644
20
23.9661561522
30
0.0000000000
10
-15.3127068095
20
23.9773575467
30
0.0000000000
10
-15.3882142466
20
23.9917668589
30
0.0000000000
10
-15.4610451801
20
24.0092829448
30
0.0000000000
10
-15.5306900351
20
24.0297830402
30
0.0000000000
10
-15.5966627404
20
24.0531240605
30
0.0000000000
10
-15.6585035210
20
24.0791437681
30
0.0000000000
10
-15.7157828776
20
24.1076627484
30
0.0000000000
10
-15.7681037593
20
24.1384862166
30
0.0000000000
10
-15.8151043664
20
24.1714068382
30
0.0000000000
10
-15.8564586479
20
24.2062071581
30
0.0000000000
10
-15.8918761895
20
24.2426625173
30
0.0000000000
10
-15.9210990105
20
24.2805417221
30
0.0000000000
10
-15.9438976440
20
24.3196046562
30
0.0000000000
10
-15.9600685924
20
24.3595928741
30
0.0000000000
10
-15.9689969281
20
24.3982889829
30
0.0000000000
10
-15.9708235667
20
24.4236076168
30
0.0000000000
10
-15.9708249814
20
24.4351604364
30
0.0000000000
11
-14.3366321583
21
24.0883234921
31
0.0000000000
11
-14.3971685287
21
24.0614552778
31
0.0000000000
11
-14.4619961634
21
24.0372209698
31
0.0000000000
11
-14.5306618663
21
24.0157899274
31
0.0000000000
11
-14.6026797242
21
23.9973138979
31
0.0000000000
11
-14.6775427630
21
23.9819228878
31
0.0000000000
11
-14.7547243615
21
23.9697252091
31
0.0000000000
11
-14.8336797462
21
23.9608069913
31
0.0000000000
11
-14.9138527233
21
23.9552310335
31
0.0000000000
11
-14.9946783512
21
23.9530366086
31
0.0000000000
11
-15.0755876618
21
23.9542391755
31
0.0000000000
11
-15.1560099626
21
23.9588302577
31
0.0000000000
11
-15.2353790931
21
23.9667775325
31
0.0000000000
11
-15.3131353243
21
23.9780249500
31
0.0000000000
11
-15.3887313722
21
23.9924933479
31
0.0000000000
11
-15.4616340039
21
24.0100806703
31
0.0000000000
11
-15.5313301282
21
24.0306631374
31
0.0000000000
11
-15.5973281097
21
24.0540955600
31
0.0000000000
11
-15.6591634831
21
24.0802130312
31
0.0000000000
11
-15.7164000417
21
24.1088313098
31
0.0000000000
11
-15.7686349854
21
24.1397489960
31
0.0000000000
11
-15.8154998318
21
24.1727479861
31
0.0000000000
11
-15.8566647679
21
24.2075960480
31
0.0000000000
11
-15.8918394141
21
24.2440473633
31
0.0000000000
11
-15.9207762117
21
24.2818453871
31
0.0000000000
11
-15.9432710483
21
24.3207235021
31
0.0000000000
11
-15.9591655996
21
24.3604080676
31
0.0000000000
11
-15.9683477657
21
24.4006192177
31
0.0000000000
11
-15.9708249814
21
24.4351604364
31
0.0000000000
0
SPLINE
5
350
100
AcDbEntity
8
0
100
AcDbSpline
62
9
6
CONTINUOUS
70
0
71
3
72
34
73
30
74
28
42
0.0000001000
43
0.0000001000
44
0.0000000001
12
-1.2208935101
22
-0.2214327724
32
0.0000000000
13
0.7286306561
23
1.0043459577
33
0.0000000000
40
0.0000000000
40
0.0000000000
40
0.0000000000
40
0.0000000000
40
0.0466438193
40
0.0940738655
40
0.1420461956
40
0.1903099138
40
0.2386108398
40
0.2866936567
40
0.3343064100
40
0.3812024575
40
0.4271450134
40
0.4719092425
40
0.5152873823
40
0.5570913720
40
0.5971587973
40
0.6353567178
40
0.6715891259
40
0.7058029483
40
0.7379979524
40
0.7682356731
40
0.7966514850
40
0.8234640303
40
0.8489825804
40
0.8736036089
40
0.8977943110
40
0.9220586022
40
0.9468942300
40
0.9727505780
40
1.0000000000
40
1.0000000000
40
1.0000000000
40
1.0000000000
10
-14.7629236366
20
24.3159134088
30
0.0000000000
10
-14.7819060154
20
24.3124705854
30
0.0000000000
10
-14.8203568664
20
24.3064139548
30
0.0000000000
10
-14.8787563018
20
24.2998396226
30
0.0000000000
10
-14.9380530884
20
24.2957301324
30
0.0000000000
10
-14.9978298056
20
24.2941146820
30
0.0000000000
10
-15.0576674843
20
24.2950045783
30
0.0000000000
10
-15.1171462781
20
24.2983935815
30
0.0000000000
10
-15.1758488299
20
24.3042578149
30
0.0000000000
10
-15.2333636386
20
24.3125560248
30
0.0000000000
10
-15.2892875294
20
24.3232298520
30
0.0000000000
10
-15.3432291004
20
24.3362043948
30
0.0000000000
10
-15.3948110334
20
24.3513887442
30
0.0000000000
10
-15.4436734121
20
24.3686769469
30
0.0000000000
10
-15.4894757889
20
24.3879488692
30
0.0000000000
10
-15.5319001278
20
24.4090716578
30
0.0000000000
10
-15.5706524126
20
24.4319010754
30
0.0000000000
10
-15.6054647293
20
24.4562835906
30
0.0000000000
10
-15.6360956381
20
24.4820581787
30
0.0000000000
10
-15.6623300910
20
24.5090584833
30
0.0000000000
10
-15.6839770560
20
24.5371133101
30
0.0000000000
10
-15.7008666186
20
24.5660448587
30
0.0000000000
10
-15.7128480883
20
24.5956617766
30
0.0000000000
10
-15.7197953902
20
24.6257491644
30
0.0000000000
10
-15.7216229599
20
24.6560625156
30
0.0000000000
10
-15.7183064956
20
24.6863368389
30
0.0000000000
10
-15.7098889639
20
24.7163125754
30
0.0000000000
10
-15.6964733662
20
24.7457484191
30
0.0000000000
10
-15.6846302572
20
24.7643349762
30
0.0000000000
10
-15.6780120025
20
24.7734575918
30
0.0000000000
11
-14.7629236366
21
24.3159134088
31
0.0000000000
11
-14.8200910038
21
24.3068831395
31
0.0000000000
11
-14.8785713267
21
24.3002815865
31
0.0000000000
11
-14.9379527547
21
24.2961552260
31
0.0000000000
11
-14.9978169635
21
24.2945331153
31
0.0000000000
11
-15.0577426513
21
24.2954266811
31
0.0000000000
11
-15.1173072418
21
24.2988296285
31
0.0000000000
11
-15.1760915172
21
24.3047180082
31
0.0000000000
11
-15.2336810230
21
24.3130503040
31
0.0000000000
11
-15.2896705207
21
24.3237678883
31
0.0000000000
11
-15.3436651753
21
24.3367951838
31
0.0000000000
11
-15.3952850657
21
24.3520405299
31
0.0000000000
11
-15.4441661558
21
24.3693964149
31
0.0000000000
11
-15.4899645262
21
24.3887407288
31
0.0000000000
11
-15.5323571789
21
24.4099370471
31
0.0000000000
11
-15.5710458381
21
24.4328362340
31
0.0000000000
11
-15.6057576371
21
24.4572767823
31
0.0000000000
11
-15.6362483562
21
24.4830867325
31
0.0000000000
11
-15.6623029712
21
24.5100840660
31
0.0000000000
11
-15.6837381611
21
24.5380788224
31
0.0000000000
11
-15.7004027706
21
24.5668735835
31
0.0000000000
11
-15.7121795448
21
24.5962657306
31
0.0000000000
11
-15.7189854509
21
24.6260480354
31
0.0000000000
11
-15.7207725904
21
24.6560108894
31
0.0000000000
11
-15.7175283738
21
24.6859430033
31
0.0000000000
11
-15.7092756539
21
24.7156337278
31
0.0000000000
11
-15.6960725460
21
24.7448738994
31
0.0000000000
11
-15.6780120025
21
24.7734575918
31
0.0000000000
0
SPLINE
5
351
100
AcDbEntity
8
0
100
AcDbSpline
62
7
6
CONTINUOUS
70
0
71
3
72
20
73
16
74
14
42
0.0000001000
43
0.0000001000
44
0.0000000001
12
0.3956414180
22
-0.1978207090
32
0.0000000000
13
0.4279954143
23
-0.1117366988
33
0.0000000000
40
0.0000000000
40
0.0000000000
40
0.0000000000
40
0.0000000000
40
0.0384398630
40
0.0851897011
40
0.1403090865
40
0.2041945574
40
0.2766313136
40
0.3568476938
40
0.4434766260
40
0.5348228720
40
0.6290796334
40
0.7244202922
40
0.8190863535
40
0.9114439120
40
1.0000000000
40
1.0000000000
40
1.0000000000
40
1.0000000000
10
-14.7629236366
20
24.3159134088
30
0.0000000000
10
-14.7578541693
20
24.3133786752
30
0.0000000000
10
-14.7465406686
20
24.3079182428
30
0.0000000000
10
-14.7277251553
20
24.2993146523
30
0.0000000000
10
-14.7053205622
20
24.2895471032
30
0.0000000000
10
-14.6792706402
20
24.2786728458
30
0.0000000000
10
-14.6496325900
20
24.2667966166
30
0.0000000000
10
-14.6167073053
20
24.2541169057
30
0.0000000000
10
-14.5810039089
20
24.2409018003
30
0.0000000000
10
-14.5431807674
20
24.2274592873
30
0.0000000000
10
-14.5039668628
20
24.2141047634
30
0.0000000000
10
-14.4641069316
20
24.2011407417
30
0.0000000000
10
-14.4243282537
20
24.1888459342
30
0.0000000000
10
-14.3853182207
20
24.1774691629
30
0.0000000000
10
-14.3595787293
20
24.1704586440
30
0.0000000000
10
-14.3469448628
20
24.1671603223
30
0.0000000000
11
-14.7629236366
21
24.3159134088
31
0.0000000000
11
-14.7476217695
21
24.3084990832
31
0.0000000000
11
-14.7288246298
21
24.2998791631
31
0.0000000000
11
-14.7064823387
21
24.2901179392
31
0.0000000000
11
-14.6804102984
21
24.2792171413
31
0.0000000000
11
-14.6506723648
21
24.2672870620
31
0.0000000000
11
-14.6175633609
21
24.2545264128
31
0.0000000000
11
-14.5816286288
21
24.2412193348
31
0.0000000000
11
-14.5435562816
21
24.2276859226
31
0.0000000000
11
-14.5040880439
21
24.2142466709
31
0.0000000000
11
-14.4639809852
21
24.2012086832
31
0.0000000000
11
-14.4239704977
21
24.1888536765
31
0.0000000000
11
-14.3847462102
21
24.1774316277
31
0.0000000000
11
-14.3469448628
21
24.1671603223
31
0.0000000000
0
SPLINE
5
352
100
AcDbEntity
8
0
100
AcDbSpline
62
9
6
CONTINUOUS
70
0
71
3
72
10
73
6
74
4
42
0.0000001000
43
0.0000001000
44
0.0000000001
12
0.0000000000
22
0.0796858680
32
0.0000000000
13
-0.0194540827
23
0.0772746804
33
0.0000000000
40
0.0000000000
40
0.0000000000
40
0.0000000000
40
0.0000000000
40
0.3208235235
40
0.6548974398
40
1.0000000000
40
1.0000000000
40
1.0000000000
40
1.0000000000
10
-14.3366321583
20
24.0883234921
30
0.0000000000
10
-14.3366321583
20
24.0968451924
30
0.0000000000
10
-14.3374539174
20
24.1142484873
30
0.0000000000
10
-14.3409417726
20
24.1406066725
30
0.0000000000
10
-14.3447069782
20
24.1582710923
30
0.0000000000
10
-14.3469448628
20
24.1671603223
30
0.0000000000
11
-14.3366321583
21
24.0883234921
31
0.0000000000
11
-14.3377882532
21
24.1138624395
31
0.0000000000
11
-14.3412411454
21
24.1402585297
31
0.0000000000
11
-14.3469448628
21
24.1671603223
31
0.0000000000
0
SPLINE
5
353
100
AcDbEntity
8
0
100
AcDbSpline
62
7
6
CONTINUOUS
70
0
71
3
72
10
73
6
74
4
42
0.0000001000
43
0.0000001000
44
0.0000000001
12
0.1156383788
22
-0.0301896942
32
0.0000000000
13
0.1169126576
23
-0.0248008625
33
0.0000000000
40
0.0000000000
40
0.0000000000
40
0.0000000000
40
0.0000000000
40
0.3407183507
40
0.6771430942
40
1.0000000000
40
1.0000000000
40
1.0000000000
40
1.0000000000
10
-14.3469448628
20
24.1671603223
30
0.0000000000
10
-14.3338114902
20
24.1637315947
30
0.0000000000
10
-14.3076647245
20
24.1570899990
30
0.0000000000
10
-14.2689146317
20
24.1478374636
30
0.0000000000
10
-14.2432726415
20
24.1421458116
30
0.0000000000
10
-14.2306906219
20
24.1394767684
30
0.0000000000
11
-14.3469448628
21
24.1671603223
31
0.0000000000
11
-14.3074754914
21
24.1571431593
31
0.0000000000
11
-14.2683642003
21
24.1478182658
31
0.0000000000
11
-14.2306906219
21
24.1394767684
31
0.0000000000
0
SPLINE
5
354
100
AcDbEntity
8
0
100
AcDbSpline
62
7
6
CONTINUOUS
70
0
71
3
72
21
73
17
74
15
42
0.0000001000
43
0.0000001000
44
0.0000000001
12
0.3309764231
22
-0.1654882115
32
0.0000000000
13
-0.0000000000
23
-0.3700428904
33
0.0000000000
40
0.0000000000
40
0.0000000000
40
0.0000000000
40
0.0000000000
40
0.0609311874
40
0.1250442117
40
0.1921292810
40
0.2619310218
40
0.3340290784
40
0.4080239048
40
0.4833439581
40
0.5594986715
40
0.6358290875
40
0.7118004249
40
0.7867436839
40
0.8601252777
40
0.9313595064
40
1.0000000000
40
1.0000000000
40
1.0000000000
40
1.0000000000
10
-1.9503342887
20
10.0233422029
30
0.0000000000
10
-1.9436120266
20
10.0199810718
30
0.0000000000
10
-1.9301989740
20
10.0122981084
30
0.0000000000
10
-1.9108734722
20
9.9985250131
30
0.0000000000
10
-1.8920331826
20
9.9823607842
30
0.0000000000
10
-1.8739051816
20
9.9639957827
30
0.0000000000
10
-1.8567006032
20
9.9436364933
30
0.0000000000
10
-1.8406333235
20
9.9215231284
30
0.0000000000
10
-1.8258994980
20
9.8979090894
30
0.0000000000
10
-1.8126917854
20
9.8730824478
30
0.0000000000
10
-1.8011796643
20
9.8473374625
30
0.0000000000
10
-1.7915213070
20
9.8209996258
30
0.0000000000
10
-1.7838476943
20
9.7943939912
30
0.0000000000
10
-1.7782692371
20
9.7678658759
30
0.0000000000
10
-1.7748662338
20
9.7417556238
30
0.0000000000
10
-1.7740664827
20
9.7244948932
30
0.0000000000
10
-1.7740664827
20
9.7160282510
30
0.0000000000
11
-1.9503342887
21
10.0233422029
31
0.0000000000
11
-1.9307386266
21
10.0121894400
31
0.0000000000
11
-1.9113871269
21
9.9984644764
31
0.0000000000
11
-1.8925176244
21
9.9823340588
31
0.0000000000
11
-1.8743465582
21
9.9639769743
31
0.0000000000
11
-1.8571051879
21
9.9436171092
31
0.0000000000
11
-1.8409942326
21
9.9214773150
31
0.0000000000
11
-1.8262300351
21
9.8978373624
31
0.0000000000
11
-1.8129905411
21
9.8729605266
31
0.0000000000
11
-1.8014633621
21
9.8471742128
31
0.0000000000
11
-1.7917946578
21
9.8207765342
31
0.0000000000
11
-1.7841276561
21
9.7941252093
31
0.0000000000
11
-1.7785665620
21
9.7675464160
31
0.0000000000
11
-1.7751963167
21
9.7414030367
31
0.0000000000
11
-1.7740664827
21
9.7160282510
31
0.0000000000
0
SPLINE
5
355
100
AcDbEntity
8
0
100
AcDbSpline
62
9
6
CONTINUOUS
70
0
71
3
72
24
73
20
74
18
42
0.0000001000
43
0.0000001000
44
0.0000000001
12
-0.7981719353
22
-0.5548138649
32
0.0000000000
13
-0.0313725301
23
-0.9715516597
33
0.0000000000
40
0.0000000000
40
0.0000000000
40
0.0000000000
40
0.0000000000
40
0.0539547521
40
0.1095247093
40
0.1665491699
40
0.2248551985
40
0.2842508322
40
0.3445285294
40
0.4054659717
40
0.4668323369
40
0.5283903428
40
0.5899012354
40
0.6511256700
40
0.7118287969
40
0.7717823049
40
0.8307705581
40
0.8885911468
40
0.9450583363
40
1.0000000000
40
1.0000000000
40
1.0000000000
40
1.0000000000
10
-4.1515453785
20
8.0634543138
30
0.0000000000
10
-4.1659004348
20
8.0534760323
30
0.0000000000
10
-4.1943619266
20
8.0322288122
30
0.0000000000
10
-4.2355229194
20
7.9972802993
30
0.0000000000
10
-4.2755588536
20
7.9589788173
30
0.0000000000
10
-4.3142104264
20
7.9175719226
30
0.0000000000
10
-4.3512341873
20
7.8733216526
30
0.0000000000
10
-4.3863957996
20
7.8265084465
30
0.0000000000
10
-4.4194728429
20
7.7774288554
30
0.0000000000
10
-4.4502556577
20
7.7263942619
30
0.0000000000
10
-4.4785493659
20
7.6737280228
30
0.0000000000
10
-4.5041747064
20
7.6197639752
30
0.0000000000
10
-4.5269693533
20
7.5648440020
30
0.0000000000
10
-4.5467887278
20
7.5093164539
30
0.0000000000
10
-4.5635072903
20
7.4535328533
30
0.0000000000
10
-4.5770190988
20
7.3978464824
30
0.0000000000
10
-4.5872382694
20
7.3426088957
30
0.0000000000
10
-4.5940993852
20
7.2881760703
30
0.0000000000
10
-4.5964395681
20
7.2521254399
30
0.0000000000
10
-4.5970141211
20
7.2343325517
30
0.0000000000
11
-4.1515453785
21
8.0634543138
31
0.0000000000
11
-4.1936040095
21
8.0321210209
31
0.0000000000
11
-4.2348103282
21
7.9971939562
31
0.0000000000
11
-4.2748906120
21
7.9589032761
31
0.0000000000
11
-4.3135884367
21
7.9174938196
31
0.0000000000
11
-4.3506574173
21
7.8732294224
31
0.0000000000
11
-4.3858621438
21
7.8263912303
31
0.0000000000
11
-4.4189779803
21
7.7772781486
31
0.0000000000
11
-4.4497941757
21
7.7262028727
31
0.0000000000
11
-4.4781144140
21
7.6734909669
31
0.0000000000
11
-4.5037588092
21
7.6194773832
31
0.0000000000
11
-4.5265639379
21
7.5645064166
31
0.0000000000
11
-4.5463846915
21
7.5089280082
31
0.0000000000
11
-4.5630947444
21
7.4530967154
31
0.0000000000
11
-4.5765881128
21
7.3973669624
31
0.0000000000
11
-4.5867788744
21
7.3420935788
31
0.0000000000
11
-4.5936020559
21
7.2876299310
31
0.0000000000
11
-4.5970141211
21
7.2343325517
31
0.0000000000
0
SPLINE
5
356
100
AcDbEntity
8
0
100
AcDbSpline
62
9
6
CONTINUOUS
70
0
71
3
72
24
73
20
74
18
42
0.0000001000
43
0.0000001000
44
0.0000000001
12
-1.0613252820
22
-0.7431909878
32
0.0000000000
13
-0.0416303155
23
-1.2949946391
33
0.0000000000
40
0.0000000000
40
0.0000000000
40
0.0000000000
40
0.0000000000
40
0.0538949618
40
0.1094018123
40
0.1663765922
40
0.2246457371
40
0.2840165468
40
0.3442805973
40
0.4052145743
40
0.4665865509
40
0.5281580386
40
0.5896889820
40
0.6509387110
40
0.7116709521
40
0.7716558137
40
0.8306759894
40
0.8885273171
40
0.9450222001
40
1.0000000000
40
1.0000000000
40
1.0000000000
40
1.0000000000
10
-4.3559069221
20
8.3512404463
30
0.0000000000
10
-4.3749736173
20
8.3378890297
30
0.0000000000
10
-4.4127693878
20
8.3094692155
30
0.0000000000
10
-4.4674181391
20
8.2627488794
30
0.0000000000
10
-4.5205674708
20
8.2115663146
30
0.0000000000
10
-4.5718789889
20
8.1562477186
30
0.0000000000
10
-4.6210294473
20
8.0971430506
30
0.0000000000
10
-4.6677078149
20
8.0346268977
30
0.0000000000
10
-4.7116188320
20
7.9690952524
30
0.0000000000
10
-4.7524841945
20
7.9009638594
30
0.0000000000
10
-4.7900452164
20
7.8306643810
30
0.0000000000
10
-4.8240639588
20
7.7586423812
30
0.0000000000
10
-4.8543249711
20
7.6853540740
30
0.0000000000
10
-4.8806363466
20
7.6112642423
30
0.0000000000
10
-4.9028314511
20
7.5368418764
30
0.0000000000
10
-4.9207696110
20
7.4625582724
30
0.0000000000
10
-4.9343369119
20
7.3888824053
30
0.0000000000
10
-4.9434470101
20
7.3162832611
30
0.0000000000
10
-4.9465549015
20
7.2682030341
30
0.0000000000
10
-4.9473178159
20
7.2444710487
30
0.0000000000
11
-4.3559069221
21
8.3512404463
31
0.0000000000
11
-4.4117608296
21
8.3093294245
31
0.0000000000
11
-4.4664649649
21
8.2626423173
31
0.0000000000
11
-4.5196741002
21
8.2114739446
31
0.0000000000
11
-4.5710478565
21
8.1561515622
31
0.0000000000
11
-4.6202591597
21
8.0970276128
31
0.0000000000
11
-4.6669955170
21
8.0344776179
31
0.0000000000
11
-4.7109587364
21
7.9689007328
31
0.0000000000
11
-4.7518690603
21
7.9007144573
31
0.0000000000
11
-4.7894658947
21
7.8303534023
31
0.0000000000
11
-4.8235104575
21
7.7582646449
31
0.0000000000
11
-4.8537858530
21
7.6849075833
31
0.0000000000
11
-4.8800994778
21
7.6107490921
31
0.0000000000
11
-4.9022836248
21
7.5362622241
31
0.0000000000
11
-4.9201975813
21
7.4619197999
31
0.0000000000
11
-4.9337272899
21
7.3881951230
31
0.0000000000
11
-4.9427864248
21
7.3155595077
31
0.0000000000
11
-4.9473178159
21
7.2444710487
31
0.0000000000
0
SPLINE
5
357
100
AcDbEntity
8
0
100
AcDbSpline
62
9
6
CONTINUOUS
70
0
71
3
72
20
73
16
74
14
42
0.0000001000
43
0.0000001000
44
0.0000000001
12
-0.0566010296
22
0.3591872000
32
0.0000000000
13
-0.3224852626
23
0.1679951683
33
0.0000000000
40
0.0000000000
40
0.0000000000
40
0.0000000000
40
0.0000000000
40
0.0687513633
40
0.1416690428
40
0.2181477229
40
0.2974695495
40
0.3788343718
40
0.4613863526
40
0.5442384620
40
0.6264959103
40
0.7072793309
40
0.7857484655
40
0.8611272220
40
0.9327312850
40
1.0000000000
40
1.0000000000
40
1.0000000000
40
1.0000000000
10
-4.1515453785
20
8.0634543138
30
0.0000000000
10
-4.1528425111
20
8.0716858503
30
0.0000000000
10
-4.1563419847
20
8.0885241585
30
0.0000000000
10
-4.1638489001
20
8.1139029483
30
0.0000000000
10
-4.1736741813
20
8.1398511558
30
0.0000000000
10
-4.1856768706
20
8.1659943132
30
0.0000000000
10
-4.1996851955
20
8.1919579955
30
0.0000000000
10
-4.2154978645
20
8.2173682991
30
0.0000000000
10
-4.2328873092
20
8.2418592831
30
0.0000000000
10
-4.2516029864
20
8.2650781428
30
0.0000000000
10
-4.2713753513
20
8.2866907695
30
0.0000000000
10
-4.2919196330
20
8.3063865303
30
0.0000000000
10
-4.3129419649
20
8.3238837798
30
0.0000000000
10
-4.3341389872
20
8.3389309647
30
0.0000000000
10
-4.3486758657
20
8.3474735066
30
0.0000000000
10
-4.3559069221
20
8.3512404463
30
0.0000000000
11
-4.1515453785
21
8.0634543138
31
0.0000000000
11
-4.1565630517
21
8.0879449177
31
0.0000000000
11
-4.1640305074
21
8.1133859197
31
0.0000000000
11
-4.1738392730
21
8.1394077613
31
0.0000000000
11
-4.1858468653
21
8.1656324464
31
0.0000000000
11
-4.1998788611
21
8.1916790327
31
0.0000000000
11
-4.2157314302
21
8.2171691647
31
0.0000000000
11
-4.2331742967
21
8.2417325697
31
0.0000000000
11
-4.2519540836
21
8.2650124372
31
0.0000000000
11
-4.2717979938
21
8.2866706010
31
0.0000000000
11
-4.2924177725
21
8.3063924522
31
0.0000000000
11
-4.3135138946
21
8.3238915089
31
0.0000000000
11
-4.3347799153
21
8.3389135777
31
0.0000000000
11
-4.3559069221
21
8.3512404463
31
0.0000000000
0
SPLINE
5
358
100
AcDbEntity
8
0
100
AcDbSpline
62
9
6
CONTINUOUS
70
0
71
3
72
16
73
12
74
10
42
0.0000001000
43
0.0000001000
44
0.0000000001
12
-0.9366163083
22
-29.0108866620
32
0.0000000000
13
0.9667242289
23
-29.0098989879
33
0.0000000000
40
0.0000000000
40
0.0000000000
40
0.0000000000
40
0.0000000000
40
0.1126610939
40
0.2249411884
40
0.3368373587
40
0.4483467766
40
0.5594667048
40
0.6701944981
40
0.7805276038
40
0.8904635625
40
1.0000000000
40
1.0000000000
40
1.0000000000
40
1.0000000000
10
-4.5970141211
20
7.2343325517
30
0.0000000000
10
-4.6321875271
20
6.1448664759
30
0.0000000000
10
-4.6947472428
20
3.9693631276
30
0.0000000000
10
-4.7652620107
20
0.7110857956
30
0.0000000000
10
-4.8122886991
20
-2.5364731265
30
0.0000000000
10
-4.8358236049
20
-5.7730617905
30
0.0000000000
10
-4.8358649211
20
-8.9984320364
30
0.0000000000
10
-4.8124126281
20
-12.2123356387
30
0.0000000000
10
-4.7654684883
20
-15.4145262487
30
0.0000000000
10
-4.6950361757
20
-18.6047552240
30
0.0000000000
10
-4.6323112972
20
-20.7273209140
30
0.0000000000
10
-4.5970141211
20
-21.7865345768
30
0.0000000000
11
-4.5970141211
21
7.2343325517
31
0.0000000000
11
-4.6909726670
21
3.9655815239
31
0.0000000000
11
-4.7614479008
21
0.7073013579
31
0.0000000000
11
-4.8084343988
21
-2.5402572226
31
0.0000000000
11
-4.8319285502
21
-5.7768445449
31
0.0000000000
11
-4.8319285498
21
-9.0022118091
31
0.0000000000
11
-4.8084343977
21
-12.2161110927
31
0.0000000000
11
-4.7614478990
21
-15.4182953390
31
0.0000000000
11
-4.6909726645
21
-18.6085183624
31
0.0000000000
11
-4.5970141211
21
-21.7865345768
31
0.0000000000
0
SPLINE
5
359
100
AcDbEntity
8
0
100
AcDbSpline
62
9
6
CONTINUOUS
70
0
71
3
72
16
73
12
74
10
42
0.0000001000
43
0.0000001000
44
0.0000000001
12
-0.9371580316
22
-29.0279621384
32
0.0000000000
13
0.9672836893
23
-29.0269738924
33
0.0000000000
40
0.0000000000
40
0.0000000000
40
0.0000000000
40
0.0000000000
40
0.1126611159
40
0.2249412202
40
0.3368373966
40
0.4483468166
40
0.5594667430
40
0.6701945303
40
0.7805276257
40
0.8904635699
40
1.0000000000
40
1.0000000000
40
1.0000000000
40
1.0000000000
10
-4.9473178159
20
7.2444710487
30
0.0000000000
10
-4.9825115724
20
6.1543635129
30
0.0000000000
10
-5.0451074750
20
3.9775793853
30
0.0000000000
10
-5.1156630354
20
0.7173839217
30
0.0000000000
10
-5.1627169265
20
-2.5320866231
30
0.0000000000
10
-5.1862654467
20
-5.7705803346
30
0.0000000000
10
-5.1863067876
20
-8.9978489069
30
0.0000000000
10
-5.1628409295
20
-12.2136439684
30
0.0000000000
10
-5.1158696365
20
-15.4177190256
30
0.0000000000
10
-5.0453965797
20
-18.6098254025
30
0.0000000000
10
-4.9826354166
20
-20.7336401932
30
0.0000000000
10
-4.9473178159
20
-21.7934772258
30
0.0000000000
11
-4.9473178159
21
7.2444710487
31
0.0000000000
11
-5.0413307198
21
3.9737954403
31
0.0000000000
11
-5.1118467200
21
0.7135972213
31
0.0000000000
11
-5.1588603974
21
-2.5358729833
31
0.0000000000
11
-5.1823681391
21
-5.7743653539
31
0.0000000000
11
-5.1823681391
21
-9.0016309445
31
0.0000000000
11
-5.1588603974
21
-12.2174216865
31
0.0000000000
11
-5.1118467200
21
-15.4214903780
31
0.0000000000
11
-5.0413307198
21
-18.6135906883
31
0.0000000000
11
-4.9473178159
21
-21.7934772258
31
0.0000000000
0
SPLINE
5
35A
100
AcDbEntity
8
0
100
AcDbSpline
62
9
6
CONTINUOUS
70
0
71
3
72
20
73
16
74
14
42
0.0000001000
43
0.0000001000
44
0.0000000001
12
-0.3297578722
22
-0.1435465628
32
0.0000000000
13
-0.3215659771
23
0.1610626968
33
0.0000000000
40
0.0000000000
40
0.0000000000
40
0.0000000000
40
0.0000000000
40
0.0674707872
40
0.1393674456
40
0.2150795498
40
0.2938823126
40
0.3749664903
40
0.4574643383
40
0.5404732805
40
0.6230783926
40
0.7043744963
40
0.7834885599
40
0.8596031787
40
0.9319821894
40
1.0000000000
40
1.0000000000
40
1.0000000000
40
1.0000000000
10
-4.5970141211
20
7.2343325517
30
0.0000000000
10
-4.6044304622
20
7.2311041519
30
0.0000000000
10
-4.6200725407
20
7.2251628323
30
0.0000000000
10
-4.6448517085
20
7.2179537211
30
0.0000000000
10
-4.6714084247
20
7.2122414041
30
0.0000000000
10
-4.6993670233
20
7.2081077618
30
0.0000000000
10
-4.7283343721
20
7.2056113177
30
0.0000000000
10
-4.7579009790
20
7.2047879068
30
0.0000000000
10
-4.7876486377
20
7.2056494100
30
0.0000000000
10
-4.8171562866
20
7.2081836480
30
0.0000000000
10
-4.8460065246
20
7.2123545642
30
0.0000000000
10
-4.8737914697
20
7.2181026686
30
0.0000000000
10
-4.9001202830
20
7.2253467000
30
0.0000000000
10
-4.9246204668
20
7.2339830820
30
0.0000000000
10
-4.9400270780
20
7.2408193381
30
0.0000000000
10
-4.9473178159
20
7.2444710487
30
0.0000000000
11
-4.5970141211
21
7.2343325517
31
0.0000000000
11
-4.6196729102
21
7.2256491535
31
0.0000000000
11
-4.6444851378
21
7.2183718663
31
0.0000000000
11
-4.6710969660
21
7.2126044689
31
0.0000000000
11
-4.6991288931
21
7.2084292080
31
0.0000000000
11
-4.7281811660
21
7.2059056255
31
0.0000000000
11
-4.7578394809
21
7.2050697093
31
0.0000000000
11
-4.7876808915
21
7.2059333800
31
0.0000000000
11
-4.8172798401
21
7.2084843212
31
0.0000000000
11
-4.8462142272
21
7.2126861549
31
0.0000000000
11
-4.8740714299
21
7.2184789602
31
0.0000000000
11
-4.9004541868
21
7.2257801280
31
0.0000000000
11
-4.9249862631
21
7.2344855391
31
0.0000000000
11
-4.9473178159
21
7.2444710487
31
0.0000000000
0
SPLINE
5
35B
100
AcDbEntity
8
0
100
AcDbSpline
62
9
6
CONTINUOUS
70
0
71
3
72
24
73
20
74
18
42
0.0000001000
43
0.0000001000
44
0.0000000001
12
0.0234909010
22
-0.7047702258
32
0.0000000000
13
0.6806833530
23
0.1841821561
33
0.0000000000
40
0.0000000000
40
0.0000000000
40
0.0000000000
40
0.0000000000
40
0.0710684688
40
0.1396461964
40
0.2056753375
40
0.2691794439
40
0.3302553934
40
0.3890784745
40
0.4459033901
40
0.5010668587
40
0.5549802463
40
0.6081176799
40
0.6609930825
40
0.7141351061
40
0.7680571770
40
0.8232333327
40
0.8800747962
40
0.9389159896
40
1.0000000000
40
1.0000000000
40
1.0000000000
40
1.0000000000
10
-4.5970141211
20
-21.7865345768
30
0.0000000000
10
-4.5964576337
20
-21.8032302237
30
0.0000000000
10
-4.5942616092
20
-21.8360132203
30
0.0000000000
10
-4.5875016423
20
-21.8839281596
30
0.0000000000
10
-4.5773708383
20
-21.9294334370
30
0.0000000000
10
-4.5639278947
20
-21.9722339733
30
0.0000000000
10
-4.5472505259
20
-22.0120586872
30
0.0000000000
10
-4.5274353495
20
-22.0486519293
30
0.0000000000
10
-4.5045986291
20
-22.0817748466
30
0.0000000000
10
-4.4788777294
20
-22.1112056566
30
0.0000000000
10
-4.4504325508
20
-22.1367422298
30
0.0000000000
10
-4.4194471777
20
-22.1582053228
30
0.0000000000
10
-4.3861293283
20
-22.1754437461
30
0.0000000000
10
-4.3507075864
20
-22.1883391392
30
0.0000000000
10
-4.3134252524
20
-22.1968090655
30
0.0000000000
10
-4.2745352015
20
-22.2008067358
30
0.0000000000
10
-4.2342940138
20
-22.2003177861
30
0.0000000000
10
-4.1929694375
20
-22.1953598435
30
0.0000000000
10
-4.1654050015
20
-22.1892223694
30
0.0000000000
10
-4.1515453785
20
-22.1854721745
30
0.0000000000
11
-4.5970141211
21
-21.7865345768
31
0.0000000000
11
-4.5936024650
21
-21.8365330703
31
0.0000000000
11
-4.5867795644
21
-21.8844077087
31
0.0000000000
11
-4.5765891115
21
-21.9298400919
31
0.0000000000
11
-4.5630960643
21
-21.9725395649
31
0.0000000000
11
-4.5463863399
21
-22.0122343184
31
0.0000000000
11
-4.5265659233
21
-22.0486722534
31
0.0000000000
11
-4.5037611424
21
-22.0816208024
31
0.0000000000
11
-4.4781170744
21
-22.1108701861
31
0.0000000000
11
-4.4497970922
21
-22.1362339477
31
0.0000000000
11
-4.4189810621
21
-22.1575508195
31
0.0000000000
11
-4.3858653316
21
-22.1746847657
31
0.0000000000
11
-4.3506606869
21
-22.1875265839
31
0.0000000000
11
-4.3135917619
21
-22.1959942993
31
0.0000000000
11
-4.2748939478
21
-22.2000340945
31
0.0000000000
11
-4.2348136683
21
-22.1996200714
31
0.0000000000
11
-4.1936073248
21
-22.1947549906
31
0.0000000000
11
-4.1515453785
21
-22.1854721745
31
0.0000000000
0
SPLINE
5
35C
100
AcDbEntity
8
0
100
AcDbSpline
62
9
6
CONTINUOUS
70
0
71
3
72
18
73
14
74
12
42
0.0000001000
43
0.0000001000
44
0.0000000001
12
0.0199290521
22
-0.6005109240
32
0.0000000000
13
0.5377476173
23
-0.2689606904
33
0.0000000000
40
0.0000000000
40
0.0000000000
40
0.0000000000
40
0.0000000000
40
0.1112238021
40
0.2184908115
40
0.3217425853
40
0.4210119450
40
0.5164467857
40
0.6083184758
40
0.6970237980
40
0.7830894719
40
0.8671610250
40
0.9499844041
40
1.0000000000
40
1.0000000000
40
1.0000000000
40
1.0000000000
10
-4.9473178159
20
-21.7934772258
30
0.0000000000
10
-4.9465789542
20
-21.8157409286
30
0.0000000000
10
-4.9436631536
20
-21.8594456895
30
0.0000000000
10
-4.9346874764
20
-21.9233159656
30
0.0000000000
10
-4.9212380101
20
-21.9839565744
30
0.0000000000
10
-4.9033919921
20
-22.0409817444
30
0.0000000000
10
-4.8812523870
20
-22.0940304685
30
0.0000000000
10
-4.8549473565
20
-22.1427624281
30
0.0000000000
10
-4.8246309492
20
-22.1868596995
30
0.0000000000
10
-4.7904851575
20
-22.2260270613
30
0.0000000000
10
-4.7527218787
20
-22.2599953439
30
0.0000000000
10
-4.7169270032
20
-22.2848209549
30
0.0000000000
10
-4.6935800165
20
-22.2976591145
30
0.0000000000
10
-4.6846147606
20
-22.3021431909
30
0.0000000000
11
-4.9473178159
21
-21.7934772258
31
0.0000000000
11
-4.9427864359
21
-21.8601512986
31
0.0000000000
11
-4.9337273058
21
-21.9239619222
31
0.0000000000
11
-4.9201976007
21
-21.9845065727
31
0.0000000000
11
-4.9022836547
21
-22.0413980031
31
0.0000000000
11
-4.8800995100
21
-22.0942740722
31
0.0000000000
11
-4.8537858870
21
-22.1427990067
31
0.0000000000
11
-4.8235104976
21
-22.1866631224
31
0.0000000000
11
-4.7894659448
21
-22.2255871749
31
0.0000000000
11
-4.7518691156
21
-22.2593230654
31
0.0000000000
11
-4.7109587905
21
-22.2876563259
31
0.0000000000
11
-4.6846147606
21
-22.3021431909
31
0.0000000000
0
SPLINE
5
35D
100
AcDbEntity
8
0
100
AcDbSpline
62
9
6
CONTINUOUS
70
0
71
3
72
20
73
16
74
14
42
0.0000001000
43
0.0000001000
44
0.0000000001
12
-0.3193128739
22
-0.1693570314
32
0.0000000000
13
-0.3233916918
23
0.1614321195
33
0.0000000000
40
0.0000000000
40
0.0000000000
40
0.0000000000
40
0.0000000000
40
0.0693511623
40
0.1426472212
40
0.2193066999
40
0.2986414741
40
0.3798854505
40
0.4622200238
40
0.5447976310
40
0.6267643519
40
0.7072823110
40
0.7855525889
40
0.8608394638
40
0.9324970697
40
1.0000000000
40
1.0000000000
40
1.0000000000
40
1.0000000000
10
-4.5970141211
20
-21.7865345768
30
0.0000000000
10
-4.6043956941
20
-21.7904496124
30
0.0000000000
10
-4.6199750974
20
-21.7977695759
30
0.0000000000
10
-4.6447638236
20
-21.8069893586
30
0.0000000000
10
-4.6713305567
20
-21.8146524080
30
0.0000000000
10
-4.6992991725
20
-21.8206496341
30
0.0000000000
10
-4.7282764362
20
-21.8248967649
30
0.0000000000
10
-4.7578529499
20
-21.8273335081
30
0.0000000000
10
-4.7876107166
20
-21.8279253460
30
0.0000000000
10
-4.8171289653
20
-21.8266639411
30
0.0000000000
10
-4.8459906703
20
-21.8235672382
30
0.0000000000
10
-4.8737883288
20
-21.8186792767
30
0.0000000000
10
-4.9001317072
20
-21.8120685199
30
0.0000000000
10
-4.9246481699
20
-21.8038289571
30
0.0000000000
10
-4.9400411461
20
-21.7971095838
30
0.0000000000
10
-4.9473177750
20
-21.7934772034
30
0.0000000000
11
-4.5970141211
21
-21.7865345768
31
0.0000000000
11
-4.6196729104
21
-21.7972544360
31
0.0000000000
11
-4.6444851373
21
-21.8065391431
31
0.0000000000
11
-4.6710969637
21
-21.8142562922
31
0.0000000000
11
-4.6991288881
21
-21.8202958319
31
0.0000000000
11
-4.7281811577
21
-21.8245716346
31
0.0000000000
11
-4.7578394688
21
-21.8270227247
31
0.0000000000
11
-4.7876808750
21
-21.8276141480
31
0.0000000000
11
-4.8172798192
21
-21.8263374704
31
0.0000000000
11
-4.8462142017
21
-21.8232108983
31
0.0000000000
11
-4.8740714000
21
-21.8182790185
31
0.0000000000
11
-4.9004541528
21
-21.8116121627
31
0.0000000000
11
-4.9249862254
21
-21.8033054044
31
0.0000000000
11
-4.9473177750
21
-21.7934772034
31
0.0000000000
0
SPLINE
5
35E
100
AcDbEntity
8
0
100
AcDbSpline
62
7
6
CONTINUOUS
70
0
71
3
72
17
73
13
74
11
42
0.0000001000
43
0.0000001000
44
0.0000000001
12
0.0000000000
22
-0.1795327840
32
0.0000000000
13
-0.1735226082
23
-0.0469575404
33
0.0000000000
40
0.0000000000
40
0.0000000000
40
0.0000000000
40
0.0000000000
40
0.1351912585
40
0.2634194718
40
0.3845169225
40
0.4985577521
40
0.6061819443
40
0.7083121726
40
0.8064949233
40
0.9024480924
40
0.9982636196
40
1.0000000000
40
1.0000000000
40
1.0000000000
40
1.0000000000
10
-1.7740664827
20
-21.5421414298
30
0.0000000000
10
-1.7740664827
20
-21.5502318508
30
0.0000000000
10
-1.7747645708
20
-21.5660083267
30
0.0000000000
10
-1.7780740474
20
-21.5888214905
30
0.0000000000
10
-1.7835770362
20
-21.6099112538
30
0.0000000000
10
-1.7912068442
20
-21.6290159087
30
0.0000000000
10
-1.8008702192
20
-21.6458932969
30
0.0000000000
10
-1.8124536038
20
-21.6603316886
30
0.0000000000
10
-1.8258080923
20
-21.6721340355
30
0.0000000000
10
-1.8407549370
20
-21.6811396683
30
0.0000000000
10
-1.8516658888
20
-21.6852103221
30
0.0000000000
10
-1.8573059239
20
-21.6867464303
30
0.0000000000
10
-1.8574063577
20
-21.6867736090
30
0.0000000000
11
-1.7740664827
21
-21.5421414298
31
0.0000000000
11
-1.7751963167
21
-21.5663863815
31
0.0000000000
11
-1.7785665620
21
-21.5891595153
31
0.0000000000
11
-1.7841276561
21
-21.6101772146
31
0.0000000000
11
-1.7917946578
21
-21.6291615379
31
0.0000000000
11
-1.8014633621
21
-21.6458905121
31
0.0000000000
11
-1.8129905411
21
-21.6601496469
31
0.0000000000
11
-1.8262300351
21
-21.6717869887
31
0.0000000000
11
-1.8409942326
21
-21.6806627438
31
0.0000000000
11
-1.8571051879
21
-21.6866915827
31
0.0000000000
11
-1.8574063577
21
-21.6867736090
31
0.0000000000
0
SPLINE
5
35F
100
AcDbEntity
8
0
100
AcDbSpline
62
9
6
CONTINUOUS
70
0
71
3
72
16
73
12
74
10
42
0.0000001000
43
0.0000001000
44
0.0000000001
12
-0.0267036180
22
-0.1952471603
32
0.0000000000
13
-0.1904798021
23
-0.0515302338
33
0.0000000000
40
0.0000000000
40
0.0000000000
40
0.0000000000
40
0.0000000000
40
0.1384183407
40
0.2713841348
40
0.3985280733
40
0.5197895362
40
0.6354648679
40
0.7462417898
40
0.8532034335
40
0.9577820007
40
1.0000000000
40
1.0000000000
40
1.0000000000
40
1.0000000000
10
-4.1515453785
20
-22.1854721745
30
0.0000000000
10
-4.1527774686
20
-22.1944807705
30
0.0000000000
10
-4.1560300061
20
-22.2120435205
30
0.0000000000
10
-4.1634464691
20
-22.2372005332
30
0.0000000000
10
-4.1732126943
20
-22.2603337948
30
0.0000000000
10
-4.1851988431
20
-22.2811067727
30
0.0000000000
10
-4.1992465716
20
-22.2992154550
30
0.0000000000
10
-4.2151677226
20
-22.3143846334
30
0.0000000000
10
-4.2327409444
20
-22.3263717618
30
0.0000000000
10
-4.2479999265
20
-22.3332930069
30
0.0000000000
10
-4.2572296414
20
-22.3361499235
30
0.0000000000
10
-4.2599102001
20
-22.3368750913
30
0.0000000000
11
-4.1515453785
21
-22.1854721745
31
0.0000000000
11
-4.1565630526
21
-22.2122840856
31
0.0000000000
11
-4.1640305097
21
-22.2374003733
31
0.0000000000
11
-4.1738392769
21
-22.2604561956
31
0.0000000000
11
-4.1858468708
21
-22.2811166412
31
0.0000000000
11
-4.1998788680
21
-22.2990815943
31
0.0000000000
11
-4.2157314380
21
-22.3140900942
31
0.0000000000
11
-4.2331743049
21
-22.3259241256
31
0.0000000000
11
-4.2519540917
21
-22.3344117863
31
0.0000000000
11
-4.2599102001
21
-22.3368750913
31
0.0000000000
0
SPLINE
5
360
100
AcDbEntity
8
0
100
AcDbSpline
62
9
6
CONTINUOUS
70
0
71
3
72
15
73
11
74
9
42
0.0000001000
43
0.0000001000
44
0.0000000001
12
-0.0000246243
22
-0.1208168724
32
0.0000000000
13
0.1078548207
23
-0.0539274104
33
0.0000000000
40
0.0000000000
40
0.0000000000
40
0.0000000000
40
0.0000000000
40
0.0089912927
40
0.1246594035
40
0.2447416046
40
0.3727009894
40
0.5110660827
40
0.6613913876
40
0.8243719510
40
1.0000000000
40
1.0000000000
40
1.0000000000
40
1.0000000000
10
-19.3844056258
20
-16.6239273920
30
0.0000000000
10
-19.3844056996
20
-16.6242894919
30
0.0000000000
10
-19.3843627390
20
-16.6293097601
30
0.0000000000
10
-19.3830747876
20
-16.6391443096
30
0.0000000000
10
-19.3780871759
20
-16.6529954473
30
0.0000000000
10
-19.3700801533
20
-16.6664008343
30
0.0000000000
10
-19.3591959141
20
-16.6792137743
30
0.0000000000
10
-19.3455858896
20
-16.6913050223
30
0.0000000000
10
-19.3294207138
20
-16.7025481049
30
0.0000000000
10
-19.3174965584
20
-16.7091586854
30
0.0000000000
10
-19.3111824478
20
-16.7123157407
30
0.0000000000
11
-19.3844056258
21
-16.6239273920
31
0.0000000000
11
-19.3843963131
21
-16.6250136270
31
0.0000000000
11
-19.3826184310
21
-16.6388477334
31
0.0000000000
11
-19.3777877577
21
-16.6524983554
31
0.0000000000
11
-19.3699636951
21
-16.6657975962
31
0.0000000000
11
-19.3592424662
21
-16.6785818809
31
0.0000000000
11
-19.3457559322
21
-16.6906939669
31
0.0000000000
11
-19.3296699653
21
-16.7019848834
31
0.0000000000
11
-19.3111824478
21
-16.7123157407
31
0.0000000000
0
SPLINE
5
361
100
AcDbEntity
8
0
100
AcDbSpline
62
9
6
CONTINUOUS
70
0
71
3
72
24
73
20
74
18
42
0.0000001000
43
0.0000001000
44
0.0000000001
12
0.0404655168
22
1.2926968676
32
0.0000000000
13
1.0435663267
23
0.7639842742
33
0.0000000000
40
0.0000000000
40
0.0000000000
40
0.0000000000
40
0.0000000000
40
0.0551164978
40
0.1117810488
40
0.1698216428
40
0.2290397384
40
0.2892207052
40
0.3501372583
40
0.4115500192
40
0.4732137363
40
0.5348792786
40
0.5962986635
40
0.6572260281
40
0.7174226554
40
0.7766590689
40
0.8347213626
40
0.8914121151
40
0.9465539314
40
1.0000000000
40
1.0000000000
40
1.0000000000
40
1.0000000000
10
-21.8604113276
20
15.7010178046
30
0.0000000000
10
-21.8596678884
20
15.7247674459
30
0.0000000000
10
-21.8566388602
20
15.7728970790
30
0.0000000000
10
-21.8477643471
20
15.8456066498
30
0.0000000000
10
-21.8345485511
20
15.9194510296
30
0.0000000000
10
-21.8170754463
20
15.9939602921
30
0.0000000000
10
-21.7954559077
20
16.0686638857
30
0.0000000000
10
-21.7698269015
20
16.1430886582
30
0.0000000000
10
-21.7403507120
20
16.2167634124
30
0.0000000000
10
-21.7072142594
20
16.2892208452
30
0.0000000000
10
-21.6706274151
20
16.3600019289
30
0.0000000000
10
-21.6308219664
20
16.4286580113
30
0.0000000000
10
-21.5880499166
20
16.4947540930
30
0.0000000000
10
-21.5425823776
20
16.5578708589
30
0.0000000000
10
-21.4947069749
20
16.6176085573
30
0.0000000000
10
-21.4447266672
20
16.6735886536
30
0.0000000000
10
-21.3929563046
20
16.7254571540
30
0.0000000000
10
-21.3397253738
20
16.7728835943
30
0.0000000000
10
-21.3028765180
20
16.8018188394
30
0.0000000000
10
-21.2842850121
20
16.8154294913
30
0.0000000000
11
-21.8604113276
21
15.7010178046
31
0.0000000000
11
-21.8559970467
21
15.7721648187
31
0.0000000000
11
-21.8471720379
21
15.8449174971
31
0.0000000000
11
-21.8339919951
21
15.9188170068
31
0.0000000000
11
-21.8165410111
21
15.9933909172
31
0.0000000000
11
-21.7949301973
21
16.0681644519
31
0.0000000000
11
-21.7692966289
21
16.1426629713
31
0.0000000000
11
-21.7398036791
21
16.2164112557
31
0.0000000000
11
-21.7066389734
21
16.2889399417
31
0.0000000000
11
-21.6700138021
21
16.3597868282
31
0.0000000000
11
-21.6301607760
21
16.4285017526
31
0.0000000000
11
-21.5873337543
21
16.4946467365
31
0.0000000000
11
-21.5418052641
21
16.5578006650
31
0.0000000000
11
-21.4938657919
21
16.6175605299
31
0.0000000000
11
-21.4438197515
21
16.6735467703
31
0.0000000000
11
-21.3919857715
21
16.7254027206
31
0.0000000000
11
-21.3386954159
21
16.7727967177
31
0.0000000000
11
-21.2842850121
21
16.8154294913
31
0.0000000000
0
SPLINE
5
362
100
AcDbEntity
8
0
100
AcDbSpline
62
9
6
CONTINUOUS
70
0
71
3
72
8
73
4
74
2
42
0.0000001000
43
0.0000001000
44
0.0000000001
12
0.0075899346
22
0.2502840003
32
0.0000000000
13
0.0075899346
23
0.2502840003
33
0.0000000000
40
0.0000000000
40
0.0000000000
40
0.0000000000
40
0.0000000000
40
1.0000000000
40
1.0000000000
40
1.0000000000
40
1.0000000000
10
-16.3729429556
20
21.8913658462
30
0.0000000000
10
-16.3704129774
20
21.9747938463
30
0.0000000000
10
-16.3678829993
20
22.0582218464
30
0.0000000000
10
-16.3653530211
20
22.1416498465
30
0.0000000000
11
-16.3729429556
21
21.8913658462
31
0.0000000000
11
-16.3653530211
21
22.1416498465
31
0.0000000000
0
SPLINE
5
363
100
AcDbEntity
8
0
100
AcDbSpline
62
7
6
CONTINUOUS
70
0
71
3
72
14
73
10
74
8
42
0.0000001000
43
0.0000001000
44
0.0000000001
12
0.0070039342
22
0.1675187609
32
0.0000000000
13
0.1480101161
23
0.0781500292
33
0.0000000000
40
0.0000000000
40
0.0000000000
40
0.0000000000
40
0.0000000000
40
0.1153245949
40
0.2383051784
40
0.3687169659
40
0.5084741737
40
0.6603170109
40
0.8245280368
40
1.0000000000
40
1.0000000000
40
1.0000000000
40
1.0000000000
10
-16.4669960470
20
22.0178058564
30
0.0000000000
10
-16.4667268050
20
22.0242455341
30
0.0000000000
10
-16.4647683539
20
22.0374924961
30
0.0000000000
10
-16.4576870537
20
22.0569458272
30
0.0000000000
10
-16.4464890192
20
22.0759308989
30
0.0000000000
10
-16.4314191386
20
22.0941297280
30
0.0000000000
10
-16.4126508975
20
22.1113886392
30
0.0000000000
10
-16.3904102847
20
22.1275186212
30
0.0000000000
10
-16.3740102296
20
22.1370788001
30
0.0000000000
10
-16.3653530211
20
22.1416498465
30
0.0000000000
11
-16.4669960470
21
22.0178058564
31
0.0000000000
11
-16.4642180906
21
22.0369090440
31
0.0000000000
11
-16.4572760176
21
22.0562869697
31
0.0000000000
11
-16.4463002785
21
22.0751544280
31
0.0000000000
11
-16.4314845948
21
22.0932562334
31
0.0000000000
11
-16.4128630643
21
22.1105520719
31
0.0000000000
11
-16.3906791007
21
22.1267782220
31
0.0000000000
11
-16.3653530211
21
22.1416498465
31
0.0000000000
0
SPLINE
5
364
100
AcDbEntity
8
0
100
AcDbSpline
62
9
6
CONTINUOUS
70
0
71
3
72
16
73
12
74
10
42
0.0000001000
43
0.0000001000
44
0.0000000001
12
-0.9346714564
22
29.0276959060
32
0.0000000000
13
0.9045423386
23
29.0286503906
33
0.0000000000
40
0.0000000000
40
0.0000000000
40
0.0000000000
40
0.0000000000
40
0.1094790329
40
0.2193728598
40
0.3296787179
40
0.4403937481
40
0.5515149991
40
0.6630394282
40
0.7749639016
40
0.8872851956
40
1.0000000000
40
1.0000000000
40
1.0000000000
40
1.0000000000
10
-21.8604113276
20
-13.3369304700
30
0.0000000000
10
-21.8945203033
20
-12.2776224452
30
0.0000000000
10
-21.9551324156
20
-10.1547359092
30
0.0000000000
10
-22.0231871249
20
-6.9638443390
30
0.0000000000
10
-22.0685460815
20
-3.7605812205
30
0.0000000000
10
-22.0912057430
20
-0.5451950097
30
0.0000000000
10
-22.0911644024
20
2.6820677877
30
0.0000000000
10
-22.0684220765
20
5.9209588231
30
0.0000000000
10
-22.0229805107
20
9.1712297185
30
0.0000000000
10
-21.9548432729
20
12.4326286467
30
0.0000000000
10
-21.8943964319
20
14.6103649208
30
0.0000000000
10
-21.8604113276
20
15.7010178046
30
0.0000000000
11
-21.8604113276
21
-13.3369304700
31
0.0000000000
11
-21.9512003986
21
-10.1586558490
31
0.0000000000
11
-22.0192983072
21
-6.9677645844
31
0.0000000000
11
-22.0646998203
21
-3.7645019750
31
0.0000000000
11
-22.0874014490
21
-0.5491142896
31
0.0000000000
11
-22.0874014490
21
2.6781513010
31
0.0000000000
11
-22.0646998203
21
5.9170467282
31
0.0000000000
11
-22.0192983072
21
9.1673230150
31
0.0000000000
11
-21.9512003986
21
12.4287302796
31
0.0000000000
11
-21.8604113276
21
15.7010178046
31
0.0000000000
0
SPLINE
5
365
100
AcDbEntity
8
0
100
AcDbSpline
62
9
6
CONTINUOUS
70
0
71
3
72
8
73
4
74
2
42
0.0000001000
43
0.0000001000
44
0.0000000001
12
-0.0073161785
22
0.2573698000
32
0.0000000000
13
-0.0073161785
23
0.2573698000
33
0.0000000000
40
0.0000000000
40
0.0000000000
40
0.0000000000
40
0.0000000000
40
1.0000000000
40
1.0000000000
40
1.0000000000
40
1.0000000000
10
-2.4264368514
20
14.9178385706
30
0.0000000000
10
-2.4288755776
20
15.0036285039
30
0.0000000000
10
-2.4313143038
20
15.0894184373
30
0.0000000000
10
-2.4337530300
20
15.1752083706
30
0.0000000000
11
-2.4264368514
21
14.9178385706
31
0.0000000000
11
-2.4337530300
21
15.1752083706
31
0.0000000000
0
SPLINE
5
366
100
AcDbEntity
8
0
100
AcDbSpline
62
9
6
CONTINUOUS
70
0
71
3
72
15
73
11
74
9
42
0.0000001000
43
0.0000001000
44
0.0000000001
12
-0.0000246243
22
-0.1208168724
32
0.0000000000
13
0.1078548207
23
-0.0539274104
33
0.0000000000
40
0.0000000000
40
0.0000000000
40
0.0000000000
40
0.0000000000
40
0.0089912927
40
0.1246594035
40
0.2447416046
40
0.3727009894
40
0.5110660827
40
0.6613913876
40
0.8243719510
40
1.0000000000
40
1.0000000000
40
1.0000000000
40
1.0000000000
10
-19.3844056258
20
21.8046000946
30
0.0000000000
10
-19.3844056996
20
21.8042379946
30
0.0000000000
10
-19.3843627390
20
21.7992177265
30
0.0000000000
10
-19.3830747876
20
21.7893831770
30
0.0000000000
10
-19.3780871759
20
21.7755320392
30
0.0000000000
10
-19.3700801533
20
21.7621266523
30
0.0000000000
10
-19.3591959141
20
21.7493137122
30
0.0000000000
10
-19.3455858896
20
21.7372224642
30
0.0000000000
10
-19.3294207138
20
21.7259793817
30
0.0000000000
10
-19.3174965584
20
21.7193688012
30
0.0000000000
10
-19.3111824478
20
21.7162117459
30
0.0000000000
11
-19.3844056258
21
21.8046000946
31
0.0000000000
11
-19.3843963131
21
21.8035138595
31
0.0000000000
11
-19.3826184310
21
21.7896797532
31
0.0000000000
11
-19.3777877577
21
21.7760291312
31
0.0000000000
11
-19.3699636951
21
21.7627298903
31
0.0000000000
11
-19.3592424662
21
21.7499456057
31
0.0000000000
11
-19.3457559322
21
21.7378335197
31
0.0000000000
11
-19.3296699653
21
21.7265426031
31
0.0000000000
11
-19.3111824478
21
21.7162117459
31
0.0000000000
0
SPLINE
5
367
100
AcDbEntity
8
0
100
AcDbSpline
62
7
6
CONTINUOUS
70
0
71
3
72
15
73
11
74
9
42
0.0000001000
43
0.0000001000
44
0.0000000001
12
-0.0028953094
22
0.1725817000
32
0.0000000000
13
0.1523144739
23
0.0805200141
33
0.0000000000
40
0.0000000000
40
0.0000000000
40
0.0000000000
40
0.0000000000
40
0.0277537816
40
0.1418844218
40
0.2608185906
40
0.3873882472
40
0.5231039763
40
0.6702059426
40
0.8294913062
40
1.0000000000
40
1.0000000000
40
1.0000000000
40
1.0000000000
10
-2.5351698766
20
15.0463012618
30
0.0000000000
10
-2.5351966619
20
15.0478978601
30
0.0000000000
10
-2.5351219890
20
15.0560632139
30
0.0000000000
10
-2.5329735518
20
15.0709989628
30
0.0000000000
10
-2.5258996001
20
15.0905428835
30
0.0000000000
10
-2.5147508199
20
15.1095097344
30
0.0000000000
10
-2.4997201791
20
15.1276975505
30
0.0000000000
10
-2.4809955383
20
15.1449434053
30
0.0000000000
10
-2.4587947812
20
15.1610684118
30
0.0000000000
10
-2.4424100106
20
15.1706319164
30
0.0000000000
10
-2.4337530300
20
15.1752083706
30
0.0000000000
11
-2.5351698766
21
15.0463012618
31
0.0000000000
11
-2.5351255866
21
15.0510907392
31
0.0000000000
11
-2.5323741638
21
15.0705606344
31
0.0000000000
11
-2.5254980891
21
15.0898634334
31
0.0000000000
11
-2.5145620488
21
15.1087293765
31
0.0000000000
11
-2.4997710052
21
15.1268388275
31
0.0000000000
11
-2.4812149855
21
15.1441011547
31
0.0000000000
11
-2.4590765192
21
15.1603185715
31
0.0000000000
11
-2.4337530300
21
15.1752083706
31
0.0000000000
0
SPLINE
5
368
100
AcDbEntity
8
0
100
AcDbSpline
62
9
6
CONTINUOUS
70
0
71
3
72
21
73
17
74
15
42
0.0000001000
43
0.0000001000
44
0.0000000001
12
-0.3247106043
22
-0.1567846928
32
0.0000000000
13
-0.3225131519
23
0.1612565760
33
0.0000000000
40
0.0000000000
40
0.0000000000
40
0.0000000000
40
0.0000000000
40
0.0633444045
40
0.1303651442
40
0.2005618319
40
0.2733843821
40
0.3482146935
40
0.4243901322
40
0.5012174900
40
0.5779894634
40
0.6539998560
40
0.7285591168
40
0.8010102276
40
0.8707455847
40
0.9372256206
40
1.0000000000
40
1.0000000000
40
1.0000000000
40
1.0000000000
10
-1.9570678574
20
13.2128459672
30
0.0000000000
10
-1.9639240573
20
13.2095354896
30
0.0000000000
10
-1.9783429084
20
13.2033493177
30
0.0000000000
10
-2.0011765737
20
13.1955597199
30
0.0000000000
10
-2.0255941758
20
13.1890738285
30
0.0000000000
10
-2.0512933481
20
13.1839728596
30
0.0000000000
10
-2.0779621984
20
13.1803188438
30
0.0000000000
10
-2.1052752925
20
13.1781566935
30
0.0000000000
10
-2.1328993598
20
13.1775129467
30
0.0000000000
10
-2.1604970106
20
13.1783955355
30
0.0000000000
10
-2.1877311951
20
13.1807936086
30
0.0000000000
10
-2.2142695803
20
13.1846777453
30
0.0000000000
10
-2.2397885250
20
13.1900002547
30
0.0000000000
10
-2.2639784320
20
13.1966964899
30
0.0000000000
10
-2.2865437341
20
13.2046840861
30
0.0000000000
10
-2.3007606243
20
13.2110008341
30
0.0000000000
10
-2.3075091453
20
13.2143750946
30
0.0000000000
11
-1.9570678574
21
13.2128459672
31
0.0000000000
11
-1.9780361685
21
13.2037888930
31
0.0000000000
11
-2.0008936799
21
13.1959436246
31
0.0000000000
11
-2.0253480145
21
13.1894120850
31
0.0000000000
11
-2.0510989206
21
13.1842745177
31
0.0000000000
11
-2.0778291214
21
13.1805942585
31
0.0000000000
11
-2.1052100469
21
13.1784165415
31
0.0000000000
11
-2.1329049180
21
13.1777681620
31
0.0000000000
11
-2.1605731307
21
13.1786571030
31
0.0000000000
11
-2.1878743747
21
13.1810724397
31
0.0000000000
11
-2.2144728564
21
13.1849844710
31
0.0000000000
11
-2.2400414256
21
13.1903450854
31
0.0000000000
11
-2.2642655977
21
13.1970883524
31
0.0000000000
11
-2.2868474307
21
13.2051313359
31
0.0000000000
11
-2.3075091453
21
13.2143750946
31
0.0000000000
0
SPLINE
5
369
100
AcDbEntity
8
0
100
AcDbSpline
62
9
6
CONTINUOUS
70
0
71
3
72
21
73
17
74
15
42
0.0000001000
43
0.0000001000
44
0.0000000001
12
0.0000000000
22
0.3663929615
32
0.0000000000
13
0.3263049068
23
0.1666400611
33
0.0000000000
40
0.0000000000
40
0.0000000000
40
0.0000000000
40
0.0000000000
40
0.0673655644
40
0.1374038032
40
0.2096999450
40
0.2837696831
40
0.3590774442
40
0.4350534853
40
0.5111101175
40
0.5866574947
40
0.6611194726
40
0.7339494608
40
0.8046479623
40
0.8727776622
40
0.9379886967
40
1.0000000000
40
1.0000000000
40
1.0000000000
40
1.0000000000
10
-19.3111824478
20
21.7162117459
30
0.0000000000
10
-19.3111824478
20
21.7244391687
30
0.0000000000
10
-19.3104031450
20
21.7412277274
30
0.0000000000
10
-19.3070855658
20
21.7666487780
30
0.0000000000
10
-19.3016366499
20
21.7925367507
30
0.0000000000
10
-19.2941240089
20
21.8185708681
30
0.0000000000
10
-19.2846404149
20
21.8444316897
30
0.0000000000
10
-19.2733028583
20
21.8698004308
30
0.0000000000
10
-19.2602511588
20
21.8943644365
30
0.0000000000
10
-19.2456462006
20
21.9178208530
30
0.0000000000
10
-19.2296678880
20
21.9398805679
30
0.0000000000
10
-19.2125125790
20
21.9602719619
30
0.0000000000
10
-19.1943910506
20
21.9787438270
30
0.0000000000
10
-19.1755236672
20
21.9950695171
30
0.0000000000
10
-19.1561467276
20
22.0090437508
30
0.0000000000
10
-19.1426932648
20
22.0168823540
30
0.0000000000
10
-19.1359484006
20
22.0203268765
30
0.0000000000
11
-19.3111824478
21
21.7162117459
31
0.0000000000
11
-19.3100831070
21
21.7408695202
31
0.0000000000
11
-19.3067987509
21
21.7663199917
31
0.0000000000
11
-19.3013702308
21
21.7922465719
31
0.0000000000
11
-19.2938650676
21
21.8183267905
31
0.0000000000
11
-19.2843766148
21
21.8442362602
31
0.0000000000
11
-19.2730228953
21
21.8696527203
31
0.0000000000
11
-19.2599451340
21
21.8942600440
31
0.0000000000
11
-19.2453060042
21
21.9177521658
31
0.0000000000
11
-19.2292875815
21
21.9398369220
31
0.0000000000
11
-19.2120891234
21
21.9602396175
31
0.0000000000
11
-19.1939244070
21
21.9787066404
31
0.0000000000
11
-19.1750198374
21
21.9950078919
31
0.0000000000
11
-19.1556101487
21
22.0089410515
31
0.0000000000
11
-19.1359484006
21
22.0203268765
31
0.0000000000
0
SPLINE
5
36A
100
AcDbEntity
8
0
100
AcDbSpline
62
9
6
CONTINUOUS
70
0
71
3
72
21
73
17
74
15
42
0.0000001000
43
0.0000001000
44
0.0000000001
12
0.0000000000
22
0.3663929615
32
0.0000000000
13
0.3263049068
23
0.1666400611
33
0.0000000000
40
0.0000000000
40
0.0000000000
40
0.0000000000
40
0.0000000000
40
0.0673655644
40
0.1374038032
40
0.2096999450
40
0.2837696831
40
0.3590774442
40
0.4350534853
40
0.5111101175
40
0.5866574947
40
0.6611194726
40
0.7339494608
40
0.8046479623
40
0.8727776622
40
0.9379886967
40
1.0000000000
40
1.0000000000
40
1.0000000000
40
1.0000000000
10
-2.3075091453
20
13.2143750946
30
0.0000000000
10
-2.3075091453
20
13.2226025175
30
0.0000000000
10
-2.3067298426
20
13.2393910762
30
0.0000000000
10
-2.3034122634
20
13.2648121267
30
0.0000000000
10
-2.2979633474
20
13.2907000994
30
0.0000000000
10
-2.2904507064
20
13.3167342169
30
0.0000000000
10
-2.2809671124
20
13.3425950385
30
0.0000000000
10
-2.2696295558
20
13.3679637796
30
0.0000000000
10
-2.2565778564
20
13.3925277852
30
0.0000000000
10
-2.2419728981
20
13.4159842018
30
0.0000000000
10
-2.2259945856
20
13.4380439167
30
0.0000000000
10
-2.2088392766
20
13.4584353106
30
0.0000000000
10
-2.1907177482
20
13.4769071758
30
0.0000000000
10
-2.1718503647
20
13.4932328658
30
0.0000000000
10
-2.1524734252
20
13.5072070996
30
0.0000000000
10
-2.1390199623
20
13.5150457028
30
0.0000000000
10
-2.1322750981
20
13.5184902253
30
0.0000000000
11
-2.3075091453
21
13.2143750946
31
0.0000000000
11
-2.3064098045
21
13.2390328690
31
0.0000000000
11
-2.3031254484
21
13.2644833404
31
0.0000000000
11
-2.2976969283
21
13.2904099206
31
0.0000000000
11
-2.2901917652
21
13.3164901393
31
0.0000000000
11
-2.2807033123
21
13.3423996089
31
0.0000000000
11
-2.2693495928
21
13.3678160691
31
0.0000000000
11
-2.2562718316
21
13.3924233927
31
0.0000000000
11
-2.2416327018
21
13.4159155146
31
0.0000000000
11
-2.2256142790
21
13.4380002708
31
0.0000000000
11
-2.2084158209
21
13.4584029662
31
0.0000000000
11
-2.1902511045
21
13.4768699892
31
0.0000000000
11
-2.1713465350
21
13.4931712407
31
0.0000000000
11
-2.1519368462
21
13.5071044003
31
0.0000000000
11
-2.1322750981
21
13.5184902253
31
0.0000000000
0
SPLINE
5
36B
100
AcDbEntity
8
0
100
AcDbSpline
62
9
6
CONTINUOUS
70
0
71
3
72
14
73
10
74
8
42
0.0000001000
43
0.0000001000
44
0.0000000001
12
0.1271259941
22
0.0646821758
32
0.0000000000
13
0.0000199581
23
0.1429100066
33
0.0000000000
40
0.0000000000
40
0.0000000000
40
0.0000000000
40
0.0000000000
40
0.1781289906
40
0.3432593180
40
0.4954402180
40
0.6354641807
40
0.7650297581
40
0.8868510729
40
1.0000000000
40
1.0000000000
40
1.0000000000
40
1.0000000000
10
5.8355254681
20
-15.3004195570
30
0.0000000000
10
5.8430737431
20
-15.2965789668
30
0.0000000000
10
5.8573116017
20
-15.2885421810
30
0.0000000000
10
5.8765592323
20
-15.2748811252
30
0.0000000000
10
5.8926875623
20
-15.2602041174
30
0.0000000000
10
5.9054907092
20
-15.2446653755
30
0.0000000000
10
5.9147850239
20
-15.2284232371
30
0.0000000000
10
5.9203278971
20
-15.2118688866
30
0.0000000000
10
5.9215495386
20
-15.2006748911
30
0.0000000000
10
5.9215502913
20
-15.1952848532
30
0.0000000000
11
5.8355254681
21
-15.3004195570
31
0.0000000000
11
5.8576077594
21
-15.2878532645
31
0.0000000000
11
5.8767543506
21
-15.2741357348
31
0.0000000000
11
5.8927271271
21
-15.2594375641
31
0.0000000000
11
5.9053274453
21
-15.2439415446
31
0.0000000000
11
5.9143986027
21
-15.2278403906
31
0.0000000000
11
5.9198277866
21
-15.2113343423
31
0.0000000000
11
5.9215502913
21
-15.1952848532
31
0.0000000000
0
SPLINE
5
36C
100
AcDbEntity
8
0
100
AcDbSpline
62
9
6
CONTINUOUS
70
0
71
3
72
23
73
19
74
17
42
0.0000001000
43
0.0000001000
44
0.0000000001
12
-0.0000041532
22
0.6283406544
32
0.0000000000
13
-0.6186454159
23
-0.1099537511
33
0.0000000000
40
0.0000000000
40
0.0000000000
40
0.0000000000
40
0.0000000000
40
0.0775420831
40
0.1522923840
40
0.2241408692
40
0.2930643552
40
0.3591220869
40
0.4224626698
40
0.4833311913
40
0.5420738439
40
0.5991354793
40
0.6550476508
40
0.7104061607
40
0.7658392881
40
0.8219713547
40
0.8793859689
40
0.9385944342
40
1.0000000000
40
1.0000000000
40
1.0000000000
40
1.0000000000
10
5.8355254681
20
-15.3004195570
30
0.0000000000
10
5.8355253607
20
-15.2841786093
30
0.0000000000
10
5.8344894269
20
-15.2522690896
30
0.0000000000
10
5.8296416465
20
-15.2055335332
30
0.0000000000
10
5.8215558489
20
-15.1610742090
30
0.0000000000
10
5.8102807649
20
-15.1191914618
30
0.0000000000
10
5.7958843167
20
-15.0801625045
30
0.0000000000
10
5.7784529791
20
-15.0442484579
30
0.0000000000
10
5.7580921805
20
-15.0116934364
30
0.0000000000
10
5.7349273568
20
-14.9827244668
30
0.0000000000
10
5.7091060667
20
-14.9575501915
30
0.0000000000
10
5.6808005588
20
-14.9363578677
30
0.0000000000
10
5.6502090586
20
-14.9193079066
30
0.0000000000
10
5.6175533180
20
-14.9065272967
30
0.0000000000
10
5.5830731748
20
-14.8981046666
30
0.0000000000
10
5.5470172361
20
-14.8940902565
30
0.0000000000
10
5.5096489957
20
-14.8944966473
30
0.0000000000
10
5.4845239596
20
-14.8976412763
30
0.0000000000
10
5.4718612024
20
-14.8998918670
30
0.0000000000
11
5.8355254681
21
-15.3004195570
31
0.0000000000
11
5.8338850793
21
-15.2517243357
31
0.0000000000
11
5.8289732785
21
-15.2050132174
31
0.0000000000
11
5.8208228331
21
-15.1606097204
31
0.0000000000
11
5.8094883330
21
-15.1188118443
31
0.0000000000
11
5.7950455446
21
-15.0798989049
31
0.0000000000
11
5.7775909760
21
-15.0441311076
31
0.0000000000
11
5.7572414606
21
-15.0117479873
31
0.0000000000
11
5.7341332048
21
-14.9829662933
31
0.0000000000
11
5.7084207552
21
-14.9579785029
31
0.0000000000
11
5.6802760418
21
-14.9369517381
31
0.0000000000
11
5.6498873769
21
-14.9200267312
31
0.0000000000
11
5.6174582477
21
-14.9073168017
31
0.0000000000
11
5.5832055020
21
-14.8989068962
31
0.0000000000
11
5.5473580270
21
-14.8948532914
31
0.0000000000
11
5.5101564028
21
-14.8951830614
31
0.0000000000
11
5.4718612024
21
-14.8998918670
31
0.0000000000
0
SPLINE
5
36D
100
AcDbEntity
8
0
100
AcDbSpline
62
9
6
CONTINUOUS
70
0
71
3
72
14
73
10
74
8
42
0.0000001000
43
0.0000001000
44
0.0000000001
12
-0.1077950127
22
0.0520285912
32
0.0000000000
13
-0.1059532281
23
-0.0560315926
33
0.0000000000
40
0.0000000000
40
0.0000000000
40
0.0000000000
40
0.0000000000
40
0.1820587747
40
0.3542526413
40
0.5172574893
40
0.6723683443
40
0.8215092718
40
0.9671545927
40
1.0000000000
40
1.0000000000
40
1.0000000000
40
1.0000000000
10
-19.1359484006
20
22.0203268765
30
0.0000000000
10
-19.1424900766
20
22.0234842970
30
0.0000000000
10
-19.1555581779
20
22.0289629504
30
0.0000000000
10
-19.1754673933
20
22.0346002402
30
0.0000000000
10
-19.1949038026
20
22.0373479088
30
0.0000000000
10
-19.2136234068
20
22.0371499872
30
0.0000000000
10
-19.2313823589
20
22.0339855256
30
0.0000000000
10
-19.2437124338
20
22.0294343398
30
0.0000000000
10
-19.2500847620
20
22.0262303579
30
0.0000000000
10
-19.2512447876
20
22.0256168978
30
0.0000000000
11
-19.1359484006
21
22.0203268765
31
0.0000000000
11
-19.1560718585
21
22.0286882103
31
0.0000000000
11
-19.1759229053
21
22.0342320518
31
0.0000000000
11
-19.1952519510
21
22.0368886976
31
0.0000000000
11
-19.2138159686
21
22.0366247453
31
0.0000000000
11
-19.2313815501
21
22.0334435135
31
0.0000000000
11
-19.2477278409
21
22.0273850004
31
0.0000000000
11
-19.2512447876
21
22.0256168978
31
0.0000000000
0
SPLINE
5
36E
100
AcDbEntity
8
0
100
AcDbSpline
62
9
6
CONTINUOUS
70
0
71
3
72
21
73
17
74
15
42
0.0000001000
43
0.0000001000
44
0.0000000001
12
0.0848286426
22
0.4343400378
32
0.0000000000
13
-0.3966826054
23
0.1961888825
33
0.0000000000
40
0.0000000000
40
0.0000000000
40
0.0000000000
40
0.0000000000
40
0.0726804371
40
0.1467819505
40
0.2219156468
40
0.2976576962
40
0.3735642314
40
0.4491860353
40
0.5240831699
40
0.5978397057
40
0.6700787014
40
0.7404775393
40
0.8087836311
40
0.8748303105
40
0.9385523593
40
1.0000000000
40
1.0000000000
40
1.0000000000
40
1.0000000000
10
5.4718612024
20
-14.8998918670
30
0.0000000000
10
5.4739163300
20
-14.8893691924
30
0.0000000000
10
5.4770934510
20
-14.8679168160
30
0.0000000000
10
5.4790689790
20
-14.8352030711
30
0.0000000000
10
5.4782871220
20
-14.8019860755
30
0.0000000000
10
5.4747576199
20
-14.7686817775
30
0.0000000000
10
5.4685248156
20
-14.7357028252
30
0.0000000000
10
5.4596660326
20
-14.7034591497
30
0.0000000000
10
5.4482909035
20
-14.6723512407
30
0.0000000000
10
5.4345398088
20
-14.6427655593
30
0.0000000000
10
5.4185820437
20
-14.6150696990
30
0.0000000000
10
5.4006132874
20
-14.5896079259
30
0.0000000000
10
5.3808537134
20
-14.5666976084
30
0.0000000000
10
5.3595425024
20
-14.5466246382
30
0.0000000000
10
5.3369445412
20
-14.5296452104
30
0.0000000000
10
5.3209149483
20
-14.5203671290
30
0.0000000000
10
5.3127898782
20
-14.5163486810
30
0.0000000000
11
5.4718612024
21
-14.8998918670
31
0.0000000000
11
5.4766040909
21
-14.8680790225
31
0.0000000000
11
5.4786043691
21
-14.8353467388
31
0.0000000000
11
5.4778369546
21
-14.8021054617
31
0.0000000000
11
5.4743114703
21
-14.7687720197
31
0.0000000000
11
5.4680721240
21
-14.7357643968
31
0.0000000000
11
5.4591971539
21
-14.7034964913
31
0.0000000000
11
5.4477978474
21
-14.6723729261
31
0.0000000000
11
5.4340171459
21
-14.6427839744
31
0.0000000000
11
5.4180278524
21
-14.6151006663
31
0.0000000000
11
5.4000304641
21
-14.5896701362
31
0.0000000000
11
5.3802506590
21
-14.5668112696
31
0.0000000000
11
5.3589364655
21
-14.5468107048
31
0.0000000000
11
5.3363551526
21
-14.5299192385
31
0.0000000000
11
5.3127898782
21
-14.5163486810
31
0.0000000000
0
SPLINE
5
36F
100
AcDbEntity
8
0
100
AcDbSpline
62
7
6
CONTINUOUS
70
0
71
3
72
20
73
16
74
14
42
0.0000001000
43
0.0000001000
44
0.0000000001
12
0.6447695140
22
0.0136780093
32
0.0000000000
13
0.6403458865
23
-0.0766287137
33
0.0000000000
40
0.0000000000
40
0.0000000000
40
0.0000000000
40
0.0000000000
40
0.0913186441
40
0.1808837751
40
0.2684061095
40
0.3536915288
40
0.4365947671
40
0.5169950077
40
0.5947791618
40
0.6698349541
40
0.7420473158
40
0.8112965379
40
0.8774588488
40
0.9404048376
40
1.0000000000
40
1.0000000000
40
1.0000000000
40
1.0000000000
10
1.1457977208
20
15.1357248660
30
0.0000000000
10
1.1654242134
20
15.1361412184
30
0.0000000000
10
1.2043297830
20
15.1357854154
30
0.0000000000
10
1.2619565902
20
15.1326470495
30
0.0000000000
10
1.3181475625
20
15.1276669893
30
0.0000000000
10
1.3727656485
20
15.1214140181
30
0.0000000000
10
1.4257351525
20
15.1143241465
30
0.0000000000
10
1.4770055751
20
15.1067418025
30
0.0000000000
10
1.5265364788
20
15.0989475538
30
0.0000000000
10
1.5742883039
20
15.0911771926
30
0.0000000000
10
1.6202181923
20
15.0836347951
30
0.0000000000
10
1.6642778577
20
15.0765018172
30
0.0000000000
10
1.7064122080
20
15.0699434875
30
0.0000000000
10
1.7465578243
20
15.0641134226
30
0.0000000000
10
1.7726819471
20
15.0607129777
30
0.0000000000
10
1.7854024528
20
15.0591907441
30
0.0000000000
11
1.1457977208
21
15.1357248660
31
0.0000000000
11
1.2046891460
21
15.1353335982
31
0.0000000000
11
1.2623709209
21
15.1322930124
31
0.0000000000
11
1.3186012961
21
15.1273819510
31
0.0000000000
11
1.3732523104
21
15.1211798733
31
0.0000000000
11
1.4262509127
21
15.1141294406
31
0.0000000000
11
1.4775495403
21
15.1065791563
31
0.0000000000
11
1.5271087852
21
15.0988124525
31
0.0000000000
11
1.5748896849
21
15.0910672300
31
0.0000000000
11
1.6208496674
21
15.0835492600
31
0.0000000000
11
1.6649402646
21
15.0764415241
31
0.0000000000
11
1.7071065368
21
15.0699106455
31
0.0000000000
11
1.7472849877
21
15.0641116180
31
0.0000000000
11
1.7854024528
21
15.0591907441
31
0.0000000000
0
SPLINE
5
370
100
AcDbEntity
8
0
100
AcDbSpline
62
9
6
CONTINUOUS
70
0
71
3
72
21
73
17
74
15
42
0.0000001000
43
0.0000001000
44
0.0000000001
12
0.3261118677
22
-0.1689108298
32
0.0000000000
13
0.0026710387
23
-0.3672501657
33
0.0000000000
40
0.0000000000
40
0.0000000000
40
0.0000000000
40
0.0000000000
40
0.0614275815
40
0.1261802787
40
0.1940065099
40
0.2645428565
40
0.3373374172
40
0.4118705386
40
0.4875735714
40
0.5638462744
40
0.6400733949
40
0.7156408729
40
0.7899520743
40
0.8624444634
40
0.9326071706
40
1.0000000000
40
1.0000000000
40
1.0000000000
40
1.0000000000
10
-2.1322750981
20
13.5184902253
30
0.0000000000
10
-2.1255976770
20
13.5150316307
30
0.0000000000
10
-2.1122725465
20
13.5071531708
30
0.0000000000
10
-2.0930776319
20
13.4931128945
30
0.0000000000
10
-2.0743579993
20
13.4767005363
30
0.0000000000
10
-2.0563468972
20
13.4581219206
30
0.0000000000
10
-2.0392656426
20
13.4376073358
30
0.0000000000
10
-2.0233262852
20
13.4154120286
30
0.0000000000
10
-2.0087268947
20
13.3918122588
30
0.0000000000
10
-1.9956492844
20
13.3671020597
30
0.0000000000
10
-1.9842564229
20
13.3415894278
30
0.0000000000
10
-1.9746903240
20
13.3155922532
30
0.0000000000
10
-1.9670702336
20
13.2894345300
30
0.0000000000
10
-1.9614911739
20
13.2634407787
30
0.0000000000
10
-1.9580229946
20
13.2379364943
30
0.0000000000
10
-1.9571278603
20
13.2210959765
30
0.0000000000
10
-1.9570678574
20
13.2128459672
30
0.0000000000
11
-2.1322750981
21
13.5184902253
31
0.0000000000
11
-2.1128229858
21
13.5070637740
31
0.0000000000
11
-2.0935960518
21
13.4930686251
31
0.0000000000
11
-2.0748360391
21
13.4766807417
31
0.0000000000
11
-2.0567788200
21
13.4581061710
31
0.0000000000
11
-2.0396514306
21
13.4375784538
31
0.0000000000
11
-2.0236692160
21
13.4153556879
31
0.0000000000
11
-2.0090331228
21
13.3917172835
31
0.0000000000
11
-1.9959271729
21
13.3669604497
31
0.0000000000
11
-1.9845161492
21
13.3413964575
31
0.0000000000
11
-1.9749435241
21
13.3153467269
31
0.0000000000
11
-1.9673296557
21
13.2891387849
31
0.0000000000
11
-1.9617702742
21
13.2631021476
31
0.0000000000
11
-1.9583352786
21
13.2375641775
31
0.0000000000
11
-1.9570678574
21
13.2128459672
31
0.0000000000
0
SPLINE
5
371
100
AcDbEntity
8
0
100
AcDbSpline
62
9
6
CONTINUOUS
70
0
71
3
72
12
73
8
74
6
42
0.0000001000
43
0.0000001000
44
0.0000000001
12
0.2590075337
22
0.0434475339
32
0.0000000000
13
0.2380260319
23
-0.1114248995
33
0.0000000000
40
0.0000000000
40
0.0000000000
40
0.0000000000
40
0.0000000000
40
0.2128535360
40
0.4182341225
40
0.6175302164
40
0.8124180137
40
1.0000000000
40
1.0000000000
40
1.0000000000
40
1.0000000000
10
5.2543490859
20
-14.4871282848
30
0.0000000000
10
5.2727259757
20
-14.4840456311
30
0.0000000000
10
5.3091784625
20
-14.4798224447
30
0.0000000000
10
5.3633547016
20
-14.4796458141
30
0.0000000000
10
5.4156189047
20
-14.4857677305
30
0.0000000000
10
5.4651869111
20
-14.4980641827
30
0.0000000000
10
5.4964575389
20
-14.5102934745
30
0.0000000000
10
5.5113406709
20
-14.5172605758
30
0.0000000000
11
5.2543490859
21
-14.4871282848
31
0.0000000000
11
5.3098917997
21
-14.4808098638
31
0.0000000000
11
5.3638301023
21
-14.4807381828
31
0.0000000000
11
5.4158049161
21
-14.4869136544
31
0.0000000000
11
5.4654674841
21
-14.4992948819
31
0.0000000000
11
5.5113406709
21
-14.5172605758
31
0.0000000000
0
SPLINE
5
372
100
AcDbEntity
8
0
100
AcDbSpline
62
9
6
CONTINUOUS
70
0
71
3
72
9
73
5
74
3
42
0.0000001000
43
0.0000001000
44
0.0000000001
12
0.0088778547
22
-0.0041559071
32
0.0000000000
13
0.0087674062
23
-0.0043842967
33
0.0000000000
40
0.0000000000
40
0.0000000000
40
0.0000000000
40
0.0000000000
40
0.1291067817
40
1.0000000000
40
1.0000000000
40
1.0000000000
40
1.0000000000
10
5.5113406709
20
-14.5172605758
30
0.0000000000
10
5.5117227346
20
-14.5174394278
30
0.0000000000
10
5.5146797046
20
-14.5188296775
30
0.0000000000
10
5.5176186057
20
-14.5202582187
30
0.0000000000
10
5.5201637639
20
-14.5215309701
30
0.0000000000
11
5.5113406709
21
-14.5172605758
31
0.0000000000
11
5.5124859632
21
-14.5177990474
31
0.0000000000
11
5.5201637639
21
-14.5215309701
31
0.0000000000
0
SPLINE
5
373
100
AcDbEntity
8
0
100
AcDbSpline
62
9
6
CONTINUOUS
70
0
71
3
72
21
73
17
74
15
42
0.0000001000
43
0.0000001000
44
0.0000000001
12
-0.3247106043
22
-0.1567846928
32
0.0000000000
13
-0.3225131519
23
0.1612565760
33
0.0000000000
40
0.0000000000
40
0.0000000000
40
0.0000000000
40
0.0000000000
40
0.0633444045
40
0.1303651442
40
0.2005618319
40
0.2733843821
40
0.3482146935
40
0.4243901322
40
0.5012174900
40
0.5779894634
40
0.6539998560
40
0.7285591168
40
0.8010102276
40
0.8707455847
40
0.9372256206
40
1.0000000000
40
1.0000000000
40
1.0000000000
40
1.0000000000
10
-1.9570678574
20
-25.2156815193
30
0.0000000000
10
-1.9639240573
20
-25.2189919970
30
0.0000000000
10
-1.9783429084
20
-25.2251781689
30
0.0000000000
10
-2.0011765737
20
-25.2329677667
30
0.0000000000
10
-2.0255941758
20
-25.2394536581
30
0.0000000000
10
-2.0512933481
20
-25.2445546269
30
0.0000000000
10
-2.0779621984
20
-25.2482086427
30
0.0000000000
10
-2.1052752925
20
-25.2503707930
30
0.0000000000
10
-2.1328993598
20
-25.2510145399
30
0.0000000000
10
-2.1604970106
20
-25.2501319511
30
0.0000000000
10
-2.1877311951
20
-25.2477338780
30
0.0000000000
10
-2.2142695803
20
-25.2438497412
30
0.0000000000
10
-2.2397885250
20
-25.2385272319
30
0.0000000000
10
-2.2639784320
20
-25.2318309967
30
0.0000000000
10
-2.2865437341
20
-25.2238434005
30
0.0000000000
10
-2.3007606243
20
-25.2175266524
30
0.0000000000
10
-2.3075091453
20
-25.2141523919
30
0.0000000000
11
-1.9570678574
21
-25.2156815193
31
0.0000000000
11
-1.9780361685
21
-25.2247385935
31
0.0000000000
11
-2.0008936799
21
-25.2325838619
31
0.0000000000
11
-2.0253480145
21
-25.2391154015
31
0.0000000000
11
-2.0510989206
21
-25.2442529689
31
0.0000000000
11
-2.0778291214
21
-25.2479332280
31
0.0000000000
11
-2.1052100469
21
-25.2501109451
31
0.0000000000
11
-2.1329049180
21
-25.2507593246
31
0.0000000000
11
-2.1605731307
21
-25.2498703835
31
0.0000000000
11
-2.1878743747
21
-25.2474550469
31
0.0000000000
11
-2.2144728564
21
-25.2435430156
31
0.0000000000
11
-2.2400414256
21
-25.2381824011
31
0.0000000000
11
-2.2642655977
21
-25.2314391341
31
0.0000000000
11
-2.2868474307
21
-25.2233961507
31
0.0000000000
11
-2.3075091453
21
-25.2141523919
31
0.0000000000
0
SPLINE
5
374
100
AcDbEntity
8
0
100
AcDbSpline
62
7
6
CONTINUOUS
70
0
71
3
72
20
73
16
74
14
42
0.0000001000
43
0.0000001000
44
0.0000000001
12
0.3225040326
22
-0.1612520163
32
0.0000000000
13
0.3247014228
23
0.1567802596
33
0.0000000000
40
0.0000000000
40
0.0000000000
40
0.0000000000
40
0.0000000000
40
0.0677490944
40
0.1398014674
40
0.2154501947
40
0.2942121204
40
0.3750375578
40
0.4574155153
40
0.5401145373
40
0.6226215912
40
0.7037014228
40
0.7828373901
40
0.8589683541
40
0.9315981643
40
1.0000000000
40
1.0000000000
40
1.0000000000
40
1.0000000000
10
-2.3075091453
20
-22.2811662398
30
0.0000000000
10
-2.3002260266
20
-22.2848077992
30
0.0000000000
10
-2.2848220817
20
-22.2915863815
30
0.0000000000
10
-2.2603134709
20
-22.3000211775
30
0.0000000000
10
-2.2339666408
20
-22.3069474189
30
0.0000000000
10
-2.2061765777
20
-22.3122601781
30
0.0000000000
10
-2.1773033167
20
-22.3158908461
30
0.0000000000
10
-2.1477909318
20
-22.3177829030
30
0.0000000000
10
-2.1180165367
20
-22.3179121315
30
0.0000000000
10
-2.0884427498
20
-22.3162765027
30
0.0000000000
10
-2.0594475297
20
-22.3128969493
30
0.0000000000
10
-2.0314769114
20
-22.3078261038
30
0.0000000000
10
-2.0048934971
20
-22.3011295148
30
0.0000000000
10
-1.9800959358
20
-22.2929087009
30
0.0000000000
10
-1.9644712485
20
-22.2862700530
30
0.0000000000
10
-1.9570678574
20
-22.2826953672
30
0.0000000000
11
-2.3075091453
21
-22.2811662398
31
0.0000000000
11
-2.2851789963
21
-22.2910711579
31
0.0000000000
11
-2.2606317085
21
-22.2995793231
31
0.0000000000
11
-2.2342622555
21
-22.3065557232
31
0.0000000000
11
-2.2063740508
21
-22.3119189307
31
0.0000000000
11
-2.1774610142
21
-22.3155749211
31
0.0000000000
11
-2.1478194712
21
-22.3174855841
31
0.0000000000
11
-2.1180009299
21
-22.3176156953
31
0.0000000000
11
-2.0882972101
21
-22.3159639815
31
0.0000000000
11
-2.0592609654
21
-22.3125608489
31
0.0000000000
11
-2.0311898065
21
-22.3074418164
31
0.0000000000
11
-2.0045808598
21
-22.3006965841
31
0.0000000000
11
-1.9797403347
21
-22.2924039193
31
0.0000000000
11
-1.9570678574
21
-22.2826953672
31
0.0000000000
0
SPLINE
5
375
100
AcDbEntity
8
0
100
AcDbSpline
62
7
6
CONTINUOUS
70
0
71
3
72
16
73
12
74
10
42
0.0000001000
43
0.0000001000
44
0.0000000001
12
-0.3123583133
22
-0.3390201150
32
0.0000000000
13
-0.4168712857
23
-0.1969711852
33
0.0000000000
40
0.0000000000
40
0.0000000000
40
0.0000000000
40
0.0000000000
40
0.1195565495
40
0.2406982374
40
0.3630943951
40
0.4864676183
40
0.6105871933
40
0.7352637828
40
0.8603525407
40
0.9857572046
40
1.0000000000
40
1.0000000000
40
1.0000000000
40
1.0000000000
10
1.7854024528
20
-23.4479647277
30
0.0000000000
10
1.7729542920
20
-23.4614754194
30
0.0000000000
10
1.7473700951
20
-23.4881996987
30
0.0000000000
10
1.7072256691
20
-23.5269666816
30
0.0000000000
10
1.6650893653
20
-23.5644508356
30
0.0000000000
10
1.6210253994
20
-23.6003802037
30
0.0000000000
10
1.5750882896
20
-23.6344771717
30
0.0000000000
10
1.5273250969
20
-23.6664476148
30
0.0000000000
10
1.4777763476
20
-23.6959704378
30
0.0000000000
10
1.4416745453
20
-23.7147706469
30
0.0000000000
10
1.4223028444
20
-23.7240097718
30
0.0000000000
10
1.4203237069
20
-23.7249449119
30
0.0000000000
11
1.7854024528
21
-23.4479647277
31
0.0000000000
11
1.7472849877
21
-23.4877707363
31
0.0000000000
11
1.7071065368
21
-23.5265551365
31
0.0000000000
11
1.6649402646
21
-23.5640446668
31
0.0000000000
11
1.6208496674
21
-23.5999682999
31
0.0000000000
11
1.5748896849
21
-23.6340479261
31
0.0000000000
11
1.5271087852
21
-23.6659881165
31
0.0000000000
11
1.4775495403
21
-23.6954660323
31
0.0000000000
11
1.4262509127
21
-23.7221181033
31
0.0000000000
11
1.4203237069
21
-23.7249449119
31
0.0000000000
0
SPLINE
5
376
100
AcDbEntity
8
0
100
AcDbSpline
62
9
6
CONTINUOUS
70
0
71
3
72
35
73
31
74
29
42
0.0000001000
43
0.0000001000
44
0.0000000001
12
-1.6716371554
22
-0.8071406183
32
0.0000000000
13
-0.0002275655
23
1.8584269167
33
0.0000000000
40
0.0000000000
40
0.0000000000
40
0.0000000000
40
0.0000000000
40
0.0356790855
40
0.0729625556
40
0.1117129828
40
0.1517658402
40
0.1929385000
40
0.2350327412
40
0.2778369701
40
0.3211309845
40
0.3646883008
40
0.4082794668
40
0.4516740014
40
0.4946444558
40
0.5369681758
40
0.5784314029
40
0.6188311672
40
0.6579799102
40
0.6957078597
40
0.7318683971
40
0.7663415129
40
0.7990405508
40
0.8299176182
40
0.8589725162
40
0.8862608151
40
0.9119047543
40
0.9361017550
40
0.9591310632
40
0.9813506476
40
1.0000000000
40
1.0000000000
40
1.0000000000
40
1.0000000000
10
1.7854024528
20
16.0273061866
30
0.0000000000
10
1.7655216244
20
16.0177068402
30
0.0000000000
10
1.7241976775
20
15.9994378280
30
0.0000000000
10
1.6593881284
20
15.9752977865
30
0.0000000000
10
1.5907666017
20
15.9539518845
30
0.0000000000
10
1.5188150468
20
15.9355505550
30
0.0000000000
10
1.4440356761
20
15.9202221794
30
0.0000000000
10
1.3669521712
20
15.9080744662
30
0.0000000000
10
1.2881046344
20
15.8991927940
30
0.0000000000
10
1.2080463354
20
15.8936397037
30
0.0000000000
10
1.1273387612
20
15.8914542737
30
0.0000000000
10
1.0465483358
20
15.8926519057
30
0.0000000000
10
0.9662419008
20
15.8972241690
30
0.0000000000
10
0.8869831466
20
15.9051388467
30
0.0000000000
10
0.8093278015
20
15.9163402412
30
0.0000000000
10
0.7338203645
20
15.9307495533
30
0.0000000000
10
0.6609894309
20
15.9482656392
30
0.0000000000
10
0.5913445760
20
15.9687657347
30
0.0000000000
10
0.5253718707
20
15.9921067550
30
0.0000000000
10
0.4635310901
20
16.0181264626
30
0.0000000000
10
0.4062517334
20
16.0466454429
30
0.0000000000
10
0.3539308518
20
16.0774689111
30
0.0000000000
10
0.3069302447
20
16.1103895327
30
0.0000000000
10
0.2655759631
20
16.1451898526
30
0.0000000000
10
0.2301584216
20
16.1816452117
30
0.0000000000
10
0.2009356006
20
16.2195244166
30
0.0000000000
10
0.1781369671
20
16.2585873507
30
0.0000000000
10
0.1619660187
20
16.2985755686
30
0.0000000000
10
0.1530376830
20
16.3372716773
30
0.0000000000
10
0.1512110443
20
16.3625903113
30
0.0000000000
10
0.1512096297
20
16.3741431308
30
0.0000000000
11
1.7854024528
21
16.0273061866
31
0.0000000000
11
1.7248660824
21
16.0004379723
31
0.0000000000
11
1.6600384477
21
15.9762036643
31
0.0000000000
11
1.5913727447
21
15.9547726219
31
0.0000000000
11
1.5193548868
21
15.9362965924
31
0.0000000000
11
1.4444918480
21
15.9209055823
31
0.0000000000
11
1.3673102496
21
15.9087079036
31
0.0000000000
11
1.2883548649
21
15.8997896857
31
0.0000000000
11
1.2081818877
21
15.8942137280
31
0.0000000000
11
1.1273562598
21
15.8920193030
31
0.0000000000
11
1.0464469492
21
15.8932218700
31
0.0000000000
11
0.9660246485
21
15.8978129522
31
0.0000000000
11
0.8866555179
21
15.9057602269
31
0.0000000000
11
0.8088992868
21
15.9170076445
31
0.0000000000
11
0.7333032388
21
15.9314760423
31
0.0000000000
11
0.6604006071
21
15.9490633648
31
0.0000000000
11
0.5907044828
21
15.9696458319
31
0.0000000000
11
0.5247065013
21
15.9930782545
31
0.0000000000
11
0.4628711280
21
16.0191957256
31
0.0000000000
11
0.4056345694
21
16.0478140043
31
0.0000000000
11
0.3533996256
21
16.0787316904
31
0.0000000000
11
0.3065347792
21
16.1117306806
31
0.0000000000
11
0.2653698432
21
16.1465787425
31
0.0000000000
11
0.2301951970
21
16.1830300577
31
0.0000000000
11
0.2012583994
21
16.2208280816
31
0.0000000000
11
0.1787635628
21
16.2597061966
31
0.0000000000
11
0.1628690114
21
16.2993907621
31
0.0000000000
11
0.1536868453
21
16.3396019121
31
0.0000000000
11
0.1512096297
21
16.3741431308
31
0.0000000000
0
SPLINE
5
377
100
AcDbEntity
8
0
100
AcDbSpline
62
9
6
CONTINUOUS
70
0
71
3
72
34
73
30
74
28
42
0.0000001000
43
0.0000001000
44
0.0000000001
12
-1.2208935101
22
-0.2214327724
32
0.0000000000
13
0.7286306561
23
1.0043459577
33
0.0000000000
40
0.0000000000
40
0.0000000000
40
0.0000000000
40
0.0000000000
40
0.0466438193
40
0.0940738655
40
0.1420461956
40
0.1903099138
40
0.2386108398
40
0.2866936567
40
0.3343064100
40
0.3812024575
40
0.4271450134
40
0.4719092425
40
0.5152873823
40
0.5570913720
40
0.5971587973
40
0.6353567178
40
0.6715891259
40
0.7058029483
40
0.7379979524
40
0.7682356731
40
0.7966514850
40
0.8234640303
40
0.8489825804
40
0.8736036089
40
0.8977943110
40
0.9220586022
40
0.9468942300
40
0.9727505780
40
1.0000000000
40
1.0000000000
40
1.0000000000
40
1.0000000000
10
1.3591109744
20
16.2548961033
30
0.0000000000
10
1.3401285957
20
16.2514532799
30
0.0000000000
10
1.3016777447
20
16.2453966493
30
0.0000000000
10
1.2432783092
20
16.2388223170
30
0.0000000000
10
1.1839815227
20
16.2347128269
30
0.0000000000
10
1.1242048054
20
16.2330973765
30
0.0000000000
10
1.0643671267
20
16.2339872727
30
0.0000000000
10
1.0048883329
20
16.2373762760
30
0.0000000000
10
0.9461857812
20
16.2432405094
30
0.0000000000
10
0.8886709724
20
16.2515387193
30
0.0000000000
10
0.8327470817
20
16.2622125465
30
0.0000000000
10
0.7788055106
20
16.2751870893
30
0.0000000000
10
0.7272235776
20
16.2903714387
30
0.0000000000
10
0.6783611990
20
16.3076596414
30
0.0000000000
10
0.6325588221
20
16.3269315637
30
0.0000000000
10
0.5901344832
20
16.3480543523
30
0.0000000000
10
0.5513821984
20
16.3708837699
30
0.0000000000
10
0.5165698818
20
16.3952662851
30
0.0000000000
10
0.4859389729
20
16.4210408732
30
0.0000000000
10
0.4597045200
20
16.4480411778
30
0.0000000000
10
0.4380575551
20
16.4760960046
30
0.0000000000
10
0.4211679924
20
16.5050275532
30
0.0000000000
10
0.4091865228
20
16.5346444711
30
0.0000000000
10
0.4022392208
20
16.5647318589
30
0.0000000000
10
0.4004116512
20
16.5950452101
30
0.0000000000
10
0.4037281155
20
16.6253195334
30
0.0000000000
10
0.4121456472
20
16.6552952699
30
0.0000000000
10
0.4255612449
20
16.6847311135
30
0.0000000000
10
0.4374043538
20
16.7033176706
30
0.0000000000
10
0.4440226086
20
16.7124402862
30
0.0000000000
11
1.3591109744
21
16.2548961033
31
0.0000000000
11
1.3019436073
21
16.2458658339
31
0.0000000000
11
1.2434632844
21
16.2392642810
31
0.0000000000
11
1.1840818564
21
16.2351379205
31
0.0000000000
11
1.1242176475
21
16.2335158098
31
0.0000000000
11
1.0642919598
21
16.2344093755
31
0.0000000000
11
1.0047273693
21
16.2378123230
31
0.0000000000
11
0.9459430938
21
16.2437007026
31
0.0000000000
11
0.8883535880
21
16.2520329985
31
0.0000000000
11
0.8323640904
21
16.2627505828
31
0.0000000000
11
0.7783694357
21
16.2757778783
31
0.0000000000
11
0.7267495454
21
16.2910232244
31
0.0000000000
11
0.6778684553
21
16.3083791094
31
0.0000000000
11
0.6320700848
21
16.3277234233
31
0.0000000000
11
0.5896774322
21
16.3489197416
31
0.0000000000
11
0.5509887729
21
16.3718189285
31
0.0000000000
11
0.5162769739
21
16.3962594768
31
0.0000000000
11
0.4857862548
21
16.4220694270
31
0.0000000000
11
0.4597316398
21
16.4490667605
31
0.0000000000
11
0.4382964500
21
16.4770615169
31
0.0000000000
11
0.4216318405
21
16.5058562779
31
0.0000000000
11
0.4098550663
21
16.5352484251
31
0.0000000000
11
0.4030491601
21
16.5650307298
31
0.0000000000
11
0.4012620206
21
16.5949935838
31
0.0000000000
11
0.4045062372
21
16.6249256978
31
0.0000000000
11
0.4127589571
21
16.6546164223
31
0.0000000000
11
0.4259620650
21
16.6838565938
31
0.0000000000
11
0.4440226086
21
16.7124402862
31
0.0000000000
0
SPLINE
5
378
100
AcDbEntity
8
0
100
AcDbSpline
62
7
6
CONTINUOUS
70
0
71
3
72
20
73
16
74
14
42
0.0000001000
43
0.0000001000
44
0.0000000001
12
0.3956414180
22
-0.1978207090
32
0.0000000000
13
0.4279954143
23
-0.1117366988
33
0.0000000000
40
0.0000000000
40
0.0000000000
40
0.0000000000
40
0.0000000000
40
0.0384398630
40
0.0851897011
40
0.1403090865
40
0.2041945574
40
0.2766313136
40
0.3568476938
40
0.4434766260
40
0.5348228720
40
0.6290796334
40
0.7244202922
40
0.8190863535
40
0.9114439120
40
1.0000000000
40
1.0000000000
40
1.0000000000
40
1.0000000000
10
1.3591109744
20
16.2548961033
30
0.0000000000
10
1.3641804418
20
16.2523613697
30
0.0000000000
10
1.3754939425
20
16.2469009373
30
0.0000000000
10
1.3943094557
20
16.2382973468
30
0.0000000000
10
1.4167140489
20
16.2285297977
30
0.0000000000
10
1.4427639709
20
16.2176555402
30
0.0000000000
10
1.4724020211
20
16.2057793111
30
0.0000000000
10
1.5053273057
20
16.1930996002
30
0.0000000000
10
1.5410307022
20
16.1798844947
30
0.0000000000
10
1.5788538437
20
16.1664419818
30
0.0000000000
10
1.6180677482
20
16.1530874578
30
0.0000000000
10
1.6579276794
20
16.1401234361
30
0.0000000000
10
1.6977063574
20
16.1278286286
30
0.0000000000
10
1.7367163903
20
16.1164518574
30
0.0000000000
10
1.7624558817
20
16.1094413384
30
0.0000000000
10
1.7750897482
20
16.1061430168
30
0.0000000000
11
1.3591109744
21
16.2548961033
31
0.0000000000
11
1.3744128415
21
16.2474817777
31
0.0000000000
11
1.3932099812
21
16.2388618575
31
0.0000000000
11
1.4155522723
21
16.2291006337
31
0.0000000000
11
1.4416243127
21
16.2181998358
31
0.0000000000
11
1.4713622463
21
16.2062697565
31
0.0000000000
11
1.5044712501
21
16.1935091073
31
0.0000000000
11
1.5404059822
21
16.1802020293
31
0.0000000000
11
1.5784783295
21
16.1666686170
31
0.0000000000
11
1.6179465672
21
16.1532293653
31
0.0000000000
11
1.6580536259
21
16.1401913777
31
0.0000000000
11
1.6980641133
21
16.1278363710
31
0.0000000000
11
1.7372884008
21
16.1164143222
31
0.0000000000
11
1.7750897482
21
16.1061430168
31
0.0000000000
0
SPLINE
5
379
100
AcDbEntity
8
0
100
AcDbSpline
62
9
6
CONTINUOUS
70
0
71
3
72
10
73
6
74
4
42
0.0000001000
43
0.0000001000
44
0.0000000001
12
0.0000000000
22
0.0796858680
32
0.0000000000
13
-0.0194540827
23
0.0772746804
33
0.0000000000
40
0.0000000000
40
0.0000000000
40
0.0000000000
40
0.0000000000
40
0.3208235235
40
0.6548974398
40
1.0000000000
40
1.0000000000
40
1.0000000000
40
1.0000000000
10
1.7854024528
20
16.0273061866
30
0.0000000000
10
1.7854024528
20
16.0358278869
30
0.0000000000
10
1.7845806937
20
16.0532311818
30
0.0000000000
10
1.7810928385
20
16.0795893669
30
0.0000000000
10
1.7773276328
20
16.0972537868
30
0.0000000000
10
1.7750897482
20
16.1061430168
30
0.0000000000
11
1.7854024528
21
16.0273061866
31
0.0000000000
11
1.7842463579
21
16.0528451339
31
0.0000000000
11
1.7807934657
21
16.0792412242
31
0.0000000000
11
1.7750897482
21
16.1061430168
31
0.0000000000
0
SPLINE
5
37A
100
AcDbEntity
8
0
100
AcDbSpline
62
9
6
CONTINUOUS
70
0
71
3
72
23
73
19
74
17
42
0.0000001000
43
0.0000001000
44
0.0000000001
12
-0.0000056784
22
-0.8766232768
32
0.0000000000
13
-0.6712766492
23
-0.5637872202
33
0.0000000000
40
0.0000000000
40
0.0000000000
40
0.0000000000
40
0.0000000000
40
0.0574835355
40
0.1167357662
40
0.1775642917
40
0.2397606143
40
0.3030957497
40
0.3673230516
40
0.4321819958
40
0.4974031677
40
0.5627121960
40
0.6278335226
40
0.6924939898
40
0.7564267569
40
0.8193762280
40
0.8811017318
40
0.9413801361
40
1.0000000000
40
1.0000000000
40
1.0000000000
40
1.0000000000
10
5.8355254681
20
18.0715697122
30
0.0000000000
10
5.8355253593
20
18.0547725772
30
0.0000000000
10
5.8343794990
20
18.0206529193
30
0.0000000000
10
5.8294260894
20
17.9689746573
30
0.0000000000
10
5.8212441048
20
17.9163142241
30
0.0000000000
10
5.8098885334
20
17.8630279516
30
0.0000000000
10
5.7954352727
20
17.8094691430
30
0.0000000000
10
5.7779805598
20
17.7559940971
30
0.0000000000
10
5.7576406514
20
17.7029586130
30
0.0000000000
10
5.7345510267
20
17.6507158414
30
0.0000000000
10
5.7088654205
20
17.5996135794
30
0.0000000000
10
5.6807548195
20
17.5499920696
30
0.0000000000
10
5.6504064014
20
17.5021818081
30
0.0000000000
10
5.6180220919
20
17.4565010971
30
0.0000000000
10
5.5838173873
20
17.4132540019
30
0.0000000000
10
5.5480189413
20
17.3727279079
30
0.0000000000
10
5.5108695470
20
17.3351969464
30
0.0000000000
10
5.4849779177
20
17.3119909537
30
0.0000000000
10
5.4718612024
20
17.3009745769
30
0.0000000000
11
5.8355254681
21
18.0715697122
31
0.0000000000
11
5.8338850660
21
18.0212050143
31
0.0000000000
11
5.8289732872
21
17.9694958873
31
0.0000000000
11
5.8208229034
21
17.9167987492
31
0.0000000000
11
5.8094885054
21
17.8634671352
31
0.0000000000
11
5.7950458620
21
17.8098574580
31
0.0000000000
11
5.7775914838
21
17.7563281283
31
0.0000000000
11
5.7572422007
21
17.7032375527
31
0.0000000000
11
5.7341341746
21
17.6509409863
31
0.0000000000
11
5.7084219574
21
17.5997882119
31
0.0000000000
11
5.6802774827
21
17.5501213279
31
0.0000000000
11
5.6498890597
21
17.5022726962
31
0.0000000000
11
5.6174601689
21
17.4565627009
31
0.0000000000
11
5.5832076476
21
17.4132969506
31
0.0000000000
11
5.5473603908
21
17.3727646459
31
0.0000000000
11
5.5101589616
21
17.3352376856
31
0.0000000000
11
5.4718612024
21
17.3009745769
31
0.0000000000
0
SPLINE
5
37B
100
AcDbEntity
8
0
100
AcDbSpline
62
7
6
CONTINUOUS
70
0
71
3
72
10
73
6
74
4
42
0.0000001000
43
0.0000001000
44
0.0000000001
12
0.1156383788
22
-0.0301896942
32
0.0000000000
13
0.1169126576
23
-0.0248008625
33
0.0000000000
40
0.0000000000
40
0.0000000000
40
0.0000000000
40
0.0000000000
40
0.3407183507
40
0.6771430942
40
1.0000000000
40
1.0000000000
40
1.0000000000
40
1.0000000000
10
1.7750897482
20
16.1061430168
30
0.0000000000
10
1.7882231208
20
16.1027142892
30
0.0000000000
10
1.8143698866
20
16.0960726935
30
0.0000000000
10
1.8531199794
20
16.0868201581
30
0.0000000000
10
1.8787619695
20
16.0811285061
30
0.0000000000
10
1.8913439892
20
16.0784594629
30
0.0000000000
11
1.7750897482
21
16.1061430168
31
0.0000000000
11
1.8145591196
21
16.0961258538
31
0.0000000000
11
1.8536704108
21
16.0868009603
31
0.0000000000
11
1.8913439892
21
16.0784594629
31
0.0000000000
0
SPLINE
5
37C
100
AcDbEntity
8
0
100
AcDbSpline
62
9
6
CONTINUOUS
70
0
71
3
72
10
73
6
74
4
42
0.0000001000
43
0.0000001000
44
0.0000000001
12
0.0000000000
22
-0.0692058545
32
0.0000000000
13
-0.0223084816
23
-0.0655116932
33
0.0000000000
40
0.0000000000
40
0.0000000000
40
0.0000000000
40
0.0000000000
40
0.3521264888
40
0.6856280420
40
1.0000000000
40
1.0000000000
40
1.0000000000
40
1.0000000000
10
1.7854024528
20
-24.4160801701
30
0.0000000000
10
1.7854024528
20
-24.4242032416
30
0.0000000000
10
1.7846901600
20
-24.4400334519
30
0.0000000000
10
1.7813042284
20
-24.4628924366
30
0.0000000000
10
1.7774274686
20
-24.4773728692
30
0.0000000000
10
1.7750897482
20
-24.4842378822
30
0.0000000000
11
1.7854024528
21
-24.4160801701
31
0.0000000000
11
1.7842463579
21
-24.4404219462
31
0.0000000000
11
1.7807934657
21
-24.4632424619
31
0.0000000000
11
1.7750897482
21
-24.4842378822
31
0.0000000000
0
SPLINE
5
37D
100
AcDbEntity
8
0
100
AcDbSpline
62
7
6
CONTINUOUS
70
0
71
3
72
34
73
30
74
28
42
0.0000001000
43
0.0000001000
44
0.0000000001
12
-1.3667678762
22
-0.6742938541
32
0.0000000000
13
0.0001395348
23
1.5260248175
33
0.0000000000
40
0.0000000000
40
0.0000000000
40
0.0000000000
40
0.0000000000
40
0.0378597834
40
0.0774835049
40
0.1186963653
40
0.1613068465
40
0.2051050106
40
0.2498321591
40
0.2952745836
40
0.3411209846
40
0.3871659487
40
0.4330701960
40
0.4786412053
40
0.5235370212
40
0.5675848347
40
0.6104616577
40
0.6520267404
40
0.6919964880
40
0.7302786734
40
0.7666542071
40
0.8011001222
40
0.8334958784
40
0.8639185168
40
0.8923903300
40
0.9191339208
40
0.9443619855
40
0.9684827445
40
0.9919062233
40
1.0000000000
40
1.0000000000
40
1.0000000000
40
1.0000000000
10
-2.1681030383
20
16.4157909871
30
0.0000000000
10
-2.1853515502
20
16.4072814474
30
0.0000000000
10
-2.2212811229
20
16.3911191272
30
0.0000000000
10
-2.2777539444
20
16.3698827951
30
0.0000000000
10
-2.3376645259
20
16.3512328208
30
0.0000000000
10
-2.4005440285
20
16.3353149096
30
0.0000000000
10
-2.4658979839
20
16.3222538801
30
0.0000000000
10
-2.5332272133
20
16.3121494257
30
0.0000000000
10
-2.6019877853
20
16.3050834461
30
0.0000000000
10
-2.6716659457
20
16.3011088192
30
0.0000000000
10
-2.7416866260
20
16.3002586167
30
0.0000000000
10
-2.8115354520
20
16.3025392049
30
0.0000000000
10
-2.8806282395
20
16.3079316063
30
0.0000000000
10
-2.9484628617
20
16.3163967311
30
0.0000000000
10
-3.0144679660
20
16.3278631910
30
0.0000000000
10
-3.0781675506
20
16.3422484093
30
0.0000000000
10
-3.1390233301
20
16.3594306829
30
0.0000000000
10
-3.1965999105
20
16.3792875372
30
0.0000000000
10
-3.2504108577
20
16.4016515786
30
0.0000000000
10
-3.3000745901
20
16.4263662177
30
0.0000000000
10
-3.3451733691
20
16.4532265033
30
0.0000000000
10
-3.3853889689
20
16.4820503172
30
0.0000000000
10
-3.4203830856
20
16.5126074423
30
0.0000000000
10
-3.4499015615
20
16.5447005151
30
0.0000000000
10
-3.4736809246
20
16.5780839910
30
0.0000000000
10
-3.4915165302
20
16.6125414846
30
0.0000000000
10
-3.5032063178
20
16.6477899352
30
0.0000000000
10
-3.5074482694
20
16.6758799401
30
0.0000000000
10
-3.5079355981
20
16.6919116318
30
0.0000000000
10
-3.5079352216
20
16.6960287331
30
0.0000000000
11
-2.1681030383
21
16.4157909871
31
0.0000000000
11
-2.2206864453
21
16.3920360682
31
0.0000000000
11
-2.2771831307
21
16.3707077618
31
0.0000000000
11
-2.3371359649
21
16.3519778785
31
0.0000000000
11
-2.4000778997
21
16.3359910507
31
0.0000000000
11
-2.4655262217
21
16.3228702552
31
0.0000000000
11
-2.5329332943
21
16.3127241934
31
0.0000000000
11
-2.6018249689
21
16.3056248949
31
0.0000000000
11
-2.6715831642
21
16.3016354298
31
0.0000000000
11
-2.7417527801
21
16.3007823964
31
0.0000000000
11
-2.8116755930
21
16.3030735963
31
0.0000000000
11
-2.8809161285
21
16.3084952071
31
0.0000000000
11
-2.9488095539
21
16.3169952193
31
0.0000000000
11
-3.0149435164
21
16.3285224120
31
0.0000000000
11
-3.0786739944
21
16.3429646346
31
0.0000000000
11
-3.1396212269
21
16.3602362201
31
0.0000000000
11
-3.1971843215
21
16.3801669360
31
0.0000000000
11
-3.2510263071
21
16.4026403913
31
0.0000000000
11
-3.3006116609
21
16.4274330682
31
0.0000000000
11
-3.3456526384
21
16.4544010945
31
0.0000000000
11
-3.3857012680
21
16.4832762407
31
0.0000000000
11
-3.4205236662
21
16.5138894705
31
0.0000000000
11
-3.4497766136
21
16.5459389606
31
0.0000000000
11
-3.4732865723
21
16.5792337285
31
0.0000000000
11
-3.4908248025
21
16.6134495441
31
0.0000000000
11
-3.5022855849
21
16.6483785922
31
0.0000000000
11
-3.5075589698
21
16.6836854912
31
0.0000000000
11
-3.5079352216
21
16.6960287331
31
0.0000000000
0
SPLINE
5
37E
100
AcDbEntity
8
0
100
AcDbSpline
62
7
6
CONTINUOUS
70
0
71
3
72
12
73
8
74
6
42
0.0000001000
43
0.0000001000
44
0.0000000001
12
0.1101894740
22
-0.0004033945
32
0.0000000000
13
0.0987536896
23
-0.0492559282
33
0.0000000000
40
0.0000000000
40
0.0000000000
40
0.0000000000
40
0.0000000000
40
0.2597340503
40
0.4972679906
40
0.7118645790
40
0.9040477721
40
1.0000000000
40
1.0000000000
40
1.0000000000
40
1.0000000000
10
7.0523170435
20
20.1037554733
30
0.0000000000
10
7.0618570296
20
20.1037205482
30
0.0000000000
10
7.0801247464
20
20.1032940303
30
0.0000000000
10
7.1062061999
20
20.1011981458
30
0.0000000000
10
7.1296050153
20
20.0974341761
30
0.0000000000
10
7.1474424990
20
20.0924500016
30
0.0000000000
10
7.1572097133
20
20.0882811706
30
0.0000000000
10
7.1603682588
20
20.0867057653
30
0.0000000000
11
7.0523170435
21
20.1037554733
31
0.0000000000
11
7.0809270066
21
20.1029919247
31
0.0000000000
11
7.1070063569
21
20.1007690141
31
0.0000000000
11
7.1303244721
21
20.0968422086
31
0.0000000000
11
7.1506539512
21
20.0909121841
31
0.0000000000
11
7.1603682588
21
20.0867057653
31
0.0000000000
0
SPLINE
5
37F
100
AcDbEntity
8
0
100
AcDbSpline
62
7
6
CONTINUOUS
70
0
71
3
72
9
73
5
74
3
42
0.0000001000
43
0.0000001000
44
0.0000000001
12
-0.0062814205
22
0.0000229958
32
0.0000000000
13
-0.0062808343
23
-0.0000888449
33
0.0000000000
40
0.0000000000
40
0.0000000000
40
0.0000000000
40
0.0000000000
40
0.4992944965
40
1.0000000000
40
1.0000000000
40
1.0000000000
40
1.0000000000
10
7.0523170435
20
20.1037554733
30
0.0000000000
10
7.0512716172
20
20.1037593005
30
0.0000000000
10
7.0491777658
20
20.1037575873
30
0.0000000000
10
7.0470840129
20
20.1037372331
30
0.0000000000
10
7.0460357302
20
20.1037224047
30
0.0000000000
11
7.0523170435
21
20.1037554733
31
0.0000000000
11
7.0491807448
21
20.1037529426
31
0.0000000000
11
7.0460357302
21
20.1037224047
31
0.0000000000
0
SPLINE
5
380
100
AcDbEntity
8
0
100
AcDbSpline
62
7
6
CONTINUOUS
70
0
71
3
72
34
73
30
74
28
42
0.0000001000
43
0.0000001000
44
0.0000000001
12
-1.3667678762
22
-0.6742938541
32
0.0000000000
13
0.0001395348
23
1.5260248175
33
0.0000000000
40
0.0000000000
40
0.0000000000
40
0.0000000000
40
0.0000000000
40
0.0378597834
40
0.0774835049
40
0.1186963653
40
0.1613068465
40
0.2051050106
40
0.2498321591
40
0.2952745836
40
0.3411209846
40
0.3871659487
40
0.4330701960
40
0.4786412053
40
0.5235370212
40
0.5675848347
40
0.6104616577
40
0.6520267404
40
0.6919964880
40
0.7302786734
40
0.7666542071
40
0.8011001222
40
0.8334958784
40
0.8639185168
40
0.8923903300
40
0.9191339208
40
0.9443619855
40
0.9684827445
40
0.9919062233
40
1.0000000000
40
1.0000000000
40
1.0000000000
40
1.0000000000
10
-12.2843091593
20
21.4738940476
30
0.0000000000
10
-12.3015576712
20
21.4653845079
30
0.0000000000
10
-12.3374872438
20
21.4492221877
30
0.0000000000
10
-12.3939600654
20
21.4279858555
30
0.0000000000
10
-12.4538706469
20
21.4093358813
30
0.0000000000
10
-12.5167501495
20
21.3934179701
30
0.0000000000
10
-12.5821041049
20
21.3803569406
30
0.0000000000
10
-12.6494333343
20
21.3702524862
30
0.0000000000
10
-12.7181939063
20
21.3631865066
30
0.0000000000
10
-12.7878720667
20
21.3592118797
30
0.0000000000
10
-12.8578927470
20
21.3583616771
30
0.0000000000
10
-12.9277415730
20
21.3606422653
30
0.0000000000
10
-12.9968343605
20
21.3660346668
30
0.0000000000
10
-13.0646689827
20
21.3744997915
30
0.0000000000
10
-13.1306740870
20
21.3859662515
30
0.0000000000
10
-13.1943736716
20
21.4003514698
30
0.0000000000
10
-13.2552294511
20
21.4175337434
30
0.0000000000
10
-13.3128060315
20
21.4373905977
30
0.0000000000
10
-13.3666169786
20
21.4597546390
30
0.0000000000
10
-13.4162807111
20
21.4844692782
30
0.0000000000
10
-13.4613794900
20
21.5113295638
30
0.0000000000
10
-13.5015950899
20
21.5401533777
30
0.0000000000
10
-13.5365892066
20
21.5707105028
30
0.0000000000
10
-13.5661076825
20
21.6028035756
30
0.0000000000
10
-13.5898870456
20
21.6361870515
30
0.0000000000
10
-13.6077226512
20
21.6706445451
30
0.0000000000
10
-13.6194124388
20
21.7058929957
30
0.0000000000
10
-13.6236543904
20
21.7339830006
30
0.0000000000
10
-13.6241417191
20
21.7500146923
30
0.0000000000
10
-13.6241413426
20
21.7541317936
30
0.0000000000
11
-12.2843091593
21
21.4738940476
31
0.0000000000
11
-12.3368925663
21
21.4501391287
31
0.0000000000
11
-12.3933892517
21
21.4288108223
31
0.0000000000
11
-12.4533420859
21
21.4100809390
31
0.0000000000
11
-12.5162840207
21
21.3940941112
31
0.0000000000
11
-12.5817323427
21
21.3809733157
31
0.0000000000
11
-12.6491394153
21
21.3708272539
31
0.0000000000
11
-12.7180310898
21
21.3637279554
31
0.0000000000
11
-12.7877892852
21
21.3597384903
31
0.0000000000
11
-12.8579589011
21
21.3588854569
31
0.0000000000
11
-12.9278817140
21
21.3611766568
31
0.0000000000
11
-12.9971222495
21
21.3665982676
31
0.0000000000
11
-13.0650156749
21
21.3750982798
31
0.0000000000
11
-13.1311496373
21
21.3866254725
31
0.0000000000
11
-13.1948801154
21
21.4010676951
31
0.0000000000
11
-13.2558273479
21
21.4183392806
31
0.0000000000
11
-13.3133904425
21
21.4382699965
31
0.0000000000
11
-13.3672324281
21
21.4607434518
31
0.0000000000
11
-13.4168177819
21
21.4855361287
31
0.0000000000
11
-13.4618587594
21
21.5125041549
31
0.0000000000
11
-13.5019073890
21
21.5413793011
31
0.0000000000
11
-13.5367297872
21
21.5719925310
31
0.0000000000
11
-13.5659827346
21
21.6040420211
31
0.0000000000
11
-13.5894926933
21
21.6373367890
31
0.0000000000
11
-13.6070309235
21
21.6715526046
31
0.0000000000
11
-13.6184917058
21
21.7064816527
31
0.0000000000
11
-13.6237650908
21
21.7417885517
31
0.0000000000
11
-13.6241413426
21
21.7541317936
31
0.0000000000
0
SPLINE
5
381
100
AcDbEntity
8
0
100
AcDbSpline
62
9
6
CONTINUOUS
70
0
71
3
72
11
73
7
74
5
42
0.0000001000
43
0.0000001000
44
0.0000000001
12
0.1031562185
22
0.0133228146
32
0.0000000000
13
0.0957989877
23
-0.0408940276
33
0.0000000000
40
0.0000000000
40
0.0000000000
40
0.0000000000
40
0.0000000000
40
0.3444365965
40
0.6721482552
40
0.9908995823
40
1.0000000000
40
1.0000000000
40
1.0000000000
40
1.0000000000
10
4.0422184513
20
21.6056310441
30
0.0000000000
10
4.0540620435
20
21.6071606658
30
0.0000000000
10
4.0774484591
20
21.6084503970
30
0.0000000000
10
4.1117495170
20
21.6044520937
30
0.0000000000
10
4.1335820043
20
21.5976511521
30
0.0000000000
10
4.1440635547
20
21.5932108252
30
0.0000000000
10
4.1443541583
20
21.5930867743
30
0.0000000000
11
4.0422184513
21
21.6056310441
31
0.0000000000
11
4.0779990567
21
21.6074316146
31
0.0000000000
11
4.1118416165
21
21.6033628316
31
0.0000000000
11
4.1434813301
21
21.5934565312
31
0.0000000000
11
4.1443541583
21
21.5930867743
31
0.0000000000
0
SPLINE
5
382
100
AcDbEntity
8
0
100
AcDbSpline
62
9
6
CONTINUOUS
70
0
71
3
72
11
73
7
74
5
42
0.0000001000
43
0.0000001000
44
0.0000000001
12
0.1507645148
22
0.0007795961
32
0.0000000000
13
0.1349702352
23
-0.0674968627
33
0.0000000000
40
0.0000000000
40
0.0000000000
40
0.0000000000
40
0.0000000000
40
0.3118856174
40
0.6149326009
40
0.9127733281
40
1.0000000000
40
1.0000000000
40
1.0000000000
40
1.0000000000
10
-3.0339381351
20
25.1437093373
30
0.0000000000
10
-3.0182643738
20
25.1437903856
30
0.0000000000
10
-2.9873041023
20
25.1419696314
30
0.0000000000
10
-2.9421834814
20
25.1329011318
30
0.0000000000
10
-2.9095157356
20
25.1211705021
30
0.0000000000
10
-2.8920018207
20
25.1128865237
30
0.0000000000
10
-2.8880774859
20
25.1109240148
30
0.0000000000
11
-3.0339381351
21
25.1437093373
31
0.0000000000
11
-2.9870038343
21
25.1408402518
31
0.0000000000
11
-2.9422254003
21
25.1317623749
31
0.0000000000
11
-2.8999757854
21
25.1165513147
31
0.0000000000
11
-2.8880774859
21
25.1109240148
31
0.0000000000
0
SPLINE
5
383
100
AcDbEntity
8
0
100
AcDbSpline
62
7
6
CONTINUOUS
70
0
71
3
72
12
73
8
74
6
42
0.0000001000
43
0.0000001000
44
0.0000000001
12
0.0664417541
22
0.0217800511
32
0.0000000000
13
0.0626898516
23
-0.0312091785
33
0.0000000000
40
0.0000000000
40
0.0000000000
40
0.0000000000
40
0.0000000000
40
0.2694967334
40
0.5064470015
40
0.7098842286
40
0.8820965441
40
1.0000000000
40
1.0000000000
40
1.0000000000
40
1.0000000000
10
-2.4628242030
20
24.8093774915
30
0.0000000000
10
-2.4568555911
20
24.8113340424
30
0.0000000000
10
-2.4455348653
20
24.8147110114
30
0.0000000000
10
-2.4293361866
20
24.8181877447
30
0.0000000000
10
-2.4150804637
20
24.8195829359
30
0.0000000000
10
-2.4035333537
20
24.8187508826
30
0.0000000000
10
-2.3970023585
20
24.8166053446
30
0.0000000000
10
-2.3945385751
20
24.8153787879
30
0.0000000000
11
-2.4628242030
21
24.8093774915
31
0.0000000000
11
-2.4447405857
21
24.8146741471
31
0.0000000000
11
-2.4285138223
21
24.8180178375
31
0.0000000000
11
-2.4143400583
21
24.8192173950
31
0.0000000000
11
-2.4023531371
21
24.8180756615
31
0.0000000000
11
-2.3945385751
21
24.8153787879
31
0.0000000000
0
SPLINE
5
384
100
AcDbEntity
8
0
100
AcDbSpline
62
9
6
CONTINUOUS
70
0
71
3
72
14
73
10
74
8
42
0.0000001000
43
0.0000001000
44
0.0000000001
12
0.1401932051
22
-0.0109337250
32
0.0000000000
13
0.1306992269
23
-0.0518966059
33
0.0000000000
40
0.0000000000
40
0.0000000000
40
0.0000000000
40
0.0000000000
40
0.2081250265
40
0.3895955883
40
0.5471359534
40
0.6878682288
40
0.8150955233
40
0.9287004382
40
1.0000000000
40
1.0000000000
40
1.0000000000
40
1.0000000000
10
-3.0339381351
20
25.1437093373
30
0.0000000000
10
-3.0242122303
20
25.1429508100
30
0.0000000000
10
-3.0060421990
20
25.1410007481
30
0.0000000000
10
-2.9807259662
20
25.1368315011
30
0.0000000000
10
-2.9587413546
20
25.1320644674
30
0.0000000000
10
-2.9394547918
20
25.1269602343
30
0.0000000000
10
-2.9223640154
20
25.1216736833
30
0.0000000000
10
-2.9085562143
20
25.1168272914
30
0.0000000000
10
-2.9004644747
20
25.1137196103
30
0.0000000000
10
-2.8973582088
20
25.1124862085
30
0.0000000000
11
-3.0339381351
21
25.1437093373
31
0.0000000000
11
-3.0048399675
21
25.1405766166
31
0.0000000000
11
-2.9796619003
21
25.1364241241
31
0.0000000000
11
-2.9580126287
21
25.1317261065
31
0.0000000000
11
-2.9388822348
21
25.1266608208
31
0.0000000000
11
-2.9217911018
21
25.1213725803
31
0.0000000000
11
-2.9067179281
21
25.1160810702
31
0.0000000000
11
-2.8973582088
21
25.1124862085
31
0.0000000000
0
SPLINE
5
385
100
AcDbEntity
8
0
100
AcDbSpline
62
9
6
CONTINUOUS
70
0
71
3
72
9
73
5
74
3
42
0.0000001000
43
0.0000001000
44
0.0000000001
12
0.0190102581
22
-0.0075483834
32
0.0000000000
13
0.0186407611
23
-0.0084199919
33
0.0000000000
40
0.0000000000
40
0.0000000000
40
0.0000000000
40
0.0000000000
40
0.2447977831
40
1.0000000000
40
1.0000000000
40
1.0000000000
40
1.0000000000
10
-2.8973582088
20
25.1124862085
30
0.0000000000
10
-2.8958069858
20
25.1118702660
30
0.0000000000
10
-2.8894844203
20
25.1093184077
30
0.0000000000
10
-2.8832215909
20
25.1066208470
30
0.0000000000
10
-2.8785290762
20
25.1045012481
30
0.0000000000
11
-2.8973582088
21
25.1124862085
31
0.0000000000
11
-2.8927150655
21
25.1106121561
31
0.0000000000
11
-2.8785290762
21
25.1045012481
31
0.0000000000
0
SPLINE
5
386
100
AcDbEntity
8
0
100
AcDbSpline
62
9
6
CONTINUOUS
70
0
71
3
72
10
73
6
74
4
42
0.0000001000
43
0.0000001000
44
0.0000000001
12
0.0471448385
22
-0.0212952227
32
0.0000000000
13
0.0443028068
23
-0.0267118926
33
0.0000000000
40
0.0000000000
40
0.0000000000
40
0.0000000000
40
0.0000000000
40
0.3191790180
40
0.6571994608
40
1.0000000000
40
1.0000000000
40
1.0000000000
40
1.0000000000
10
-2.8785290762
20
25.1045012481
30
0.0000000000
10
-2.8735131951
20
25.1022355854
30
0.0000000000
10
-2.8632728290
20
25.0973766741
30
0.0000000000
10
-2.8479893283
20
25.0893836679
30
0.0000000000
10
-2.8378119570
20
25.0835263176
30
0.0000000000
10
-2.8327496150
20
25.0804740339
30
0.0000000000
11
-2.8785290762
21
25.1045012481
31
0.0000000000
11
-2.8636126570
21
25.0974230216
31
0.0000000000
11
-2.8481185766
21
25.0893194429
31
0.0000000000
11
-2.8327496150
21
25.0804740339
31
0.0000000000
0
SPLINE
5
387
100
AcDbEntity
8
0
100
AcDbSpline
62
7
6
CONTINUOUS
70
0
71
3
72
8
73
4
74
2
42
0.0000001000
43
0.0000001000
44
0.0000000001
12
0.0054043219
22
-0.0018894168
32
0.0000000000
13
0.0049891131
23
-0.0030117834
33
0.0000000000
40
0.0000000000
40
0.0000000000
40
0.0000000000
40
0.0000000000
40
1.0000000000
40
1.0000000000
40
1.0000000000
40
1.0000000000
10
-2.3926871711
20
24.8143662297
30
0.0000000000
10
-2.3908857305
20
24.8137364241
30
0.0000000000
10
-2.3890905437
20
24.8129333494
30
0.0000000000
10
-2.3874275060
20
24.8119294216
30
0.0000000000
11
-2.3926871711
21
24.8143662297
31
0.0000000000
11
-2.3874275060
21
24.8119294216
31
0.0000000000
0
SPLINE
5
388
100
AcDbEntity
8
0
100
AcDbSpline
62
3
6
CONTINUOUS
70
0
71
3
72
10
73
6
74
4
42
0.0000001000
43
0.0000001000
44
0.0000000001
12
0.0616125570
22
0.0308062785
32
0.0000000000
13
0.0685289761
23
0.0069938116
33
0.0000000000
40
0.0000000000
40
0.0000000000
40
0.0000000000
40
0.0000000000
40
0.3511381091
40
0.6840818606
40
1.0000000000
40
1.0000000000
40
1.0000000000
40
1.0000000000
10
-1.7483642553
20
19.9297072339
30
0.0000000000
10
-1.7411527498
20
19.9333129867
30
0.0000000000
10
-1.7267377540
20
19.9396440733
30
0.0000000000
10
-1.7047561372
20
19.9464490698
30
0.0000000000
10
-1.6900283672
20
19.9490310550
30
0.0000000000
10
-1.6828118517
20
19.9497675457
30
0.0000000000
11
-1.7483642553
21
19.9297072339
31
0.0000000000
11
-1.7261904198
21
19.9393708984
31
0.0000000000
11
-1.7042595254
21
19.9460821790
31
0.0000000000
11
-1.6828118517
21
19.9497675457
31
0.0000000000
0
SPLINE
5
389
100
AcDbEntity
8
0
100
AcDbSpline
62
3
6
CONTINUOUS
70
0
71
3
72
12
73
8
74
6
42
0.0000001000
43
0.0000001000
44
0.0000000001
12
0.0000000000
22
0.4409628938
32
0.0000000000
13
0.3944092024
23
0.1972046012
33
0.0000000000
40
0.0000000000
40
0.0000000000
40
0.0000000000
40
0.0000000000
40
0.1952646443
40
0.4051116665
40
0.6172925625
40
0.8190521716
40
1.0000000000
40
1.0000000000
40
1.0000000000
40
1.0000000000
10
-2.3240644223
20
19.3820495293
30
0.0000000000
10
-2.3240644223
20
19.4107510168
30
0.0000000000
10
-2.3161400036
20
19.4703958718
30
0.0000000000
10
-2.2860725252
20
19.5565372676
30
0.0000000000
10
-2.2399336947
20
19.6364460718
30
0.0000000000
10
-2.1820262853
20
19.7026937599
30
0.0000000000
10
-2.1357215508
20
19.7360285862
30
0.0000000000
10
-2.1119323879
20
19.7479231676
30
0.0000000000
11
-2.3240644223
21
19.3820495293
31
0.0000000000
11
-2.3136819415
21
19.4675257399
31
0.0000000000
11
-2.2835508088
21
19.5550174242
31
0.0000000000
11
-2.2366204693
21
19.6359602866
31
0.0000000000
11
-2.1774847916
21
19.7024310757
31
0.0000000000
11
-2.1119323879
21
19.7479231676
31
0.0000000000
0
SPLINE
5
38A
100
AcDbEntity
8
0
100
AcDbSpline
62
3
6
CONTINUOUS
70
0
71
3
72
15
73
11
74
9
42
0.0000001000
43
0.0000001000
44
0.0000000001
12
-0.2545132660
22
0.1272566330
32
0.0000000000
13
-0.2830840723
23
-0.0288905041
33
0.0000000000
40
0.0000000000
40
0.0000000000
40
0.0000000000
40
0.0000000000
40
0.1162145312
40
0.2441045088
40
0.3793057719
40
0.5170866920
40
0.6525903432
40
0.7810703032
40
0.8981319954
40
1.0000000000
40
1.0000000000
40
1.0000000000
40
1.0000000000
10
-2.5256749156
20
21.8220512089
30
0.0000000000
10
-2.5355342956
20
21.8269808988
30
0.0000000000
10
-2.5567306734
20
21.8363698885
30
0.0000000000
10
-2.5905744891
20
21.8486392647
30
0.0000000000
10
-2.6270555669
20
21.8594356264
30
0.0000000000
10
-2.6647839843
20
21.8683413958
30
0.0000000000
10
-2.7023233661
20
21.8750170623
30
0.0000000000
10
-2.7382473798
20
21.8792159492
30
0.0000000000
10
-2.7711875884
20
21.8807909061
30
0.0000000000
10
-2.7919835711
20
21.8800163552
30
0.0000000000
10
-2.8015959743
20
21.8790353492
30
0.0000000000
11
-2.5256749156
21
21.8220512089
31
0.0000000000
11
-2.5558492276
21
21.8355824262
31
0.0000000000
11
-2.5900327059
21
21.8480661434
31
0.0000000000
11
-2.6269116985
21
21.8590226181
31
0.0000000000
11
-2.6650689664
21
21.8680307990
31
0.0000000000
11
-2.7030381473
21
21.8747445070
31
0.0000000000
11
-2.7393601067
21
21.8789057379
31
0.0000000000
11
-2.7726390123
21
21.8803545781
31
0.0000000000
11
-2.8015959743
21
21.8790353492
31
0.0000000000
0
SPLINE
5
38B
100
AcDbEntity
8
0
100
AcDbSpline
62
3
6
CONTINUOUS
70
0
71
3
72
15
73
11
74
9
42
0.0000001000
43
0.0000001000
44
0.0000000001
12
-0.2545132660
22
0.1272566330
32
0.0000000000
13
-0.2830840723
23
-0.0288905041
33
0.0000000000
40
0.0000000000
40
0.0000000000
40
0.0000000000
40
0.0000000000
40
0.1162145312
40
0.2441045088
40
0.3793057719
40
0.5170866920
40
0.6525903432
40
0.7810703032
40
0.8981319954
40
1.0000000000
40
1.0000000000
40
1.0000000000
40
1.0000000000
10
-6.5561835684
20
23.8373055352
30
0.0000000000
10
-6.5660429483
20
23.8422352252
30
0.0000000000
10
-6.5872393262
20
23.8516242149
30
0.0000000000
10
-6.6210831419
20
23.8638935911
30
0.0000000000
10
-6.6575642196
20
23.8746899528
30
0.0000000000
10
-6.6952926371
20
23.8835957222
30
0.0000000000
10
-6.7328320189
20
23.8902713887
30
0.0000000000
10
-6.7687560326
20
23.8944702756
30
0.0000000000
10
-6.8016962411
20
23.8960452325
30
0.0000000000
10
-6.8224922238
20
23.8952706816
30
0.0000000000
10
-6.8321046270
20
23.8942896756
30
0.0000000000
11
-6.5561835684
21
23.8373055352
31
0.0000000000
11
-6.5863578804
21
23.8508367526
31
0.0000000000
11
-6.6205413586
21
23.8633204698
31
0.0000000000
11
-6.6574203512
21
23.8742769444
31
0.0000000000
11
-6.6955776192
21
23.8832851254
31
0.0000000000
11
-6.7335468000
21
23.8899988334
31
0.0000000000
11
-6.7698687595
21
23.8941600643
31
0.0000000000
11
-6.8031476651
21
23.8956089044
31
0.0000000000
11
-6.8321046270
21
23.8942896756
31
0.0000000000
0
SPLINE
5
38C
100
AcDbEntity
8
0
100
AcDbSpline
62
3
6
CONTINUOUS
70
0
71
3
72
14
73
10
74
8
42
0.0000001000
43
0.0000001000
44
0.0000000001
12
0.6150856016
22
0.2076721131
32
0.0000000000
13
0.5797085112
23
-0.2898542556
33
0.0000000000
40
0.0000000000
40
0.0000000000
40
0.0000000000
40
0.0000000000
40
0.0226478444
40
0.1827376881
40
0.3522486903
40
0.5249977011
40
0.6945087034
40
0.8545985471
40
1.0000000000
40
1.0000000000
40
1.0000000000
40
1.0000000000
10
-4.0536276733
20
21.6669353086
30
0.0000000000
10
-4.0489842190
20
21.6685030838
30
0.0000000000
10
-4.0113811709
20
21.6807419636
30
0.0000000000
10
-3.9371289705
20
21.6982337977
30
0.0000000000
10
-3.8290264205
20
21.7103356527
30
0.0000000000
10
-3.7182402270
20
21.7103356527
30
0.0000000000
10
-3.6101376770
20
21.6982337977
30
0.0000000000
10
-3.5100096514
20
21.6746463107
30
0.0000000000
10
-3.4481767531
20
21.6506322154
30
0.0000000000
10
-3.4200799331
20
21.6365838054
30
0.0000000000
11
-4.0536276733
21
21.6669353086
31
0.0000000000
11
-4.0396493620
21
21.6714881599
31
0.0000000000
11
-3.9387728547
21
21.6957779427
31
0.0000000000
11
-3.8296155618
21
21.7082351626
31
0.0000000000
11
-3.7176510857
21
21.7082351626
31
0.0000000000
11
-3.6084937928
21
21.6957779427
31
0.0000000000
11
-3.5076172855
21
21.6714881599
31
0.0000000000
11
-3.4200799331
21
21.6365838054
31
0.0000000000
0
ENDSEC
0
SECTION
2
OBJECTS
0
DICTIONARY
5
C
100
AcDbDictionary
280
0
281
1
3
ACAD_GROUP
350
D
3
ACAD_MLINESTYLE
350
17
3
ACAD_LAYOUT
350
1A
3
ACAD_PLOTSETTINGS
350
19
3
ACAD_PLOTSTYLENAME
350
E
0
DICTIONARY
5
D
102
{ACAD_REACTORS
330
C
102
}
100
AcDbDictionary
280
0
281
1
0
ACDBDICTIONARYWDFLT
5
E
102
{ACAD_REACTORS
330
C
102
}
100
AcDbDictionary
281
1
3
Normal
350
F
100
AcDbDictionaryWithDefault
340
F
0
DICTIONARY
5
17
102
{ACAD_REACTORS
330
C
102
}
100
AcDbDictionary
280
0
281
1
3
Standard
350
18
0
DICTIONARY
5
19
102
{ACAD_REACTORS
330
C
102
}
100
AcDbDictionary
281
1
0
DICTIONARY
5
1A
102
{ACAD_REACTORS
330
C
102
}
100
AcDbDictionary
281
1
3
Layout1
350
1E
3
Model
350
22
0
ACDBPLACEHOLDER
5
F
102
{ACAD_REACTORS
330
E
102
}
0
MLINESTYLE
5
18
102
{ACAD_REACTORS
330
17
102
}
100
AcDbMlineStyle
2
STANDARD
70
0
3

62
256
51
90.0
52
90.0
71
2
49
0.5
62
256
6
BYLAYER
49
-0.5
62
256
6
BYLAYER
0
LAYOUT
5
1E
102
{ACAD_REACTORS
330
1A
102
}
100
AcDbPlotSettings
1

2

4

6

40
0.0
41
0.0
42
0.0
43
0.0
44
0.0
45
0.0
46
0.0
47
0.0
48
0.0
49
0.0
140
0.0
141
0.0
142
1.0
143
1.0
70
0
72
0
73
0
74
0
7

75
0
147
1.0
148
0.0
149
0.0
100
AcDbLayout
1
Layout1
70
0
71
0
10
0.0
20
0.0
11
0.0
21
0.0
12
0.0
22
0.0
32
0.0
14
0.0
24
0.0
34
0.0
15
0.0
25
0.0
35
0.0
146
0.0
13
0.0
23
0.0
33
0.0
16
0.0
26
0.0
36
0.0
17
0.0
27
0.0
37
0.0
76
0
330
1B
331
0
345
0
346
0
0
LAYOUT
5
22
102
{ACAD_REACTORS
330
1A
102
}
100
AcDbPlotSettings
1

2

4

6

40
0.0
41
0.0
42
0.0
43
0.0
44
0.0
45
0.0
46
0.0
47
0.0
48
0.0
49
0.0
140
0.0
141
0.0
142
1.0
143
1.0
70
0
72
0
73
0
74
0
7

75
0
147
1.0
148
0.0
149
0.0
100
AcDbLayout
1
Model
70
0
71
0
10
0.0
20
0.0
11
0.0
21
0.0
12
0.0
22
0.0
32
0.0
14
0.0
24
0.0
34
0.0
15
0.0
25
0.0
35
0.0
146
0.0
13
0.0
23
0.0
33
0.0
16
0.0
26
0.0
36
0.0
17
0.0
27
0.0
37
0.0
76
0
330
1F
331
0
345
0
346
0
0
ENDSEC
0
EOF
