  0
SECTION
  2
HEADER
  9
$ACADVER
  1
AC1015
  9
$DWGCODEPAGE
  3
ANSI_1252
  9
$EXTMAX
 10
297.0
 20
210.0
 30
0.0
  9
$EXTMIN
 10
0.0
 20
0.0
 30
0.0
  9
$LIMMIN
 10
0.0
 20
0.0
  9
$LIMMAX
 10
297.0
 20
210.0
  9
$VIEWCTR
 10
148.5
 20
105.0
  9
$VIEWSIZE
 40
210.0
  9
$CLAYER
  8
0
  9
$LTSCALE
 40
16.335
  9
$CELTYPE
  6
BYLAYER
  9
$DIMSCALE
 40
1.0
  9
$DIMASZ
 40
3.0
  9
$DIMEXO
 40
1.85625
  9
$DIMDLI
 40
11.286
  9
$DIMEXE
 40
5.346
  9
$DIMCEN
 40
2.673
  9
$DIMLFAC
 40
1.0
  9
$DIMBLK
  1
_FILLED
  9
$DIMTXT
 40
3.0
  9
$DIMTOL
 70
1
  9
$DIMLIM
 70
0
  9
$DIMTFAC
 40
1.0
  9
$DIMTP
 40
0.01
  9
$DIMTM
 40
0.01
  9
$PDMODE
 70
3
  9
$PDSIZE
 40
3.0
  9
$HANDSEED
  5
6D0
  9
$TILEMODE
 70
1
  9
$MEASUREMENT
 70
1
  9
$INSUNITS
 70
4
  0
ENDSEC
  0
SECTION
  2
CLASSES
  0
CLASS
  1
ACDBDICTIONARYWDFLT
  2
AcDbDictionaryWithDefault
  3
AutoCAD 2000
 90
0
280
0
281
0
  0
CLASS
  1
ACDBPLACEHOLDER
  2
AcDbPlaceHolder
  3
AutoCAD 2000
 90
0
280
0
281
0
  0
CLASS
  1
LAYOUT
  2
AcDbLayout
  3
AutoCAD 2000
 90
0
280
0
281
0
  0
ENDSEC
  0
SECTION
  2
TABLES
  0
TABLE
  2
VPORT
  5
8
100
AcDbSymbolTable
 70
2
  0
VPORT
  5
1F4
100
AcDbSymbolTableRecord
100
AcDbViewportTableRecord
  2
*ACTIVE
 70
0
 10
0.0
 20
0.0
 11
1.0
 21
1.0
 12
148.5
 22
105.0
 13
0.0
 23
0.0
 14
1.0
 24
1.0
 15
0.0
 25
0.0
 16
0.0
 26
0.0
 36
1.0
 17
0.0
 27
0.0
 37
0.0
 40
210.0
 41
1.4142857143
 42
50.0
 43
0.0
 44
0.0
 50
0.0
 51
0.0
 71
0
 72
100
 73
1
 74
1
 75
0
 76
0
 77
0
 78
0
  0
ENDTAB
  0
TABLE
  2
LTYPE
  5
5
100
AcDbSymbolTable
 70
6
  0
LTYPE
  5
14
100
AcDbSymbolTableRecord
100
AcDbLinetypeTableRecord
  2
BYBLOCK
 70
0
  3

 72
65
 73
0
 40
0.0
  0
LTYPE
  5
15
100
AcDbSymbolTableRecord
100
AcDbLinetypeTableRecord
  2
BYLAYER
 70
0
  3

 72
65
 73
0
 40
0.0
  0
LTYPE
  5
16
100
AcDbSymbolTableRecord
100
AcDbLinetypeTableRecord
  2
CONTINUOUS
 70
64
  3
Solid line
 72
65
 73
0
 40
0.0
  0
LTYPE
  5
1F5
100
AcDbSymbolTableRecord
100
AcDbLinetypeTableRecord
  2
CENTER
 70
64
  3
____ _ ____ _ ____ _ ____ _ ____ _ ____ _ ____
 72
65
 73
4
 40
0.6
 49
0.375
 74
0
 49
-0.075
 74
0
 49
0.075
 74
0
 49
-0.075
 74
0
  0
LTYPE
  5
1F6
100
AcDbSymbolTableRecord
100
AcDbLinetypeTableRecord
  2
HIDDEN
 70
64
  3
- - - - - - - - - - - - - - - - - - - -
 72
65
 73
2
 40
0.2
 49
0.1
 74
0
 49
-0.1
 74
0
  0
LTYPE
  5
1F7
100
AcDbSymbolTableRecord
100
AcDbLinetypeTableRecord
  2
PHANTOM
 70
64
  3
_____ _ _ _____ _ _ _____ _ _ _____
 72
65
 73
6
 40
0.8
 49
0.45
 74
0
 49
-0.05
 74
0
 49
0.1
 74
0
 49
-0.05
 74
0
 49
0.1
 74
0
 49
-0.05
 74
0
  0
LTYPE
  5
1F8
100
AcDbSymbolTableRecord
100
AcDbLinetypeTableRecord
  2
DOT
 70
64
  3
. . . . . . . . . . . . . . . . . . . .
 72
65
 73
2
 40
0.2
 49
0.1
 74
0
 49
-0.1
 74
0
  0
LTYPE
  5
1F9
100
AcDbSymbolTableRecord
100
AcDbLinetypeTableRecord
  2
DASHED
 70
64
  3
- - - - - - - - - - - - - - - - - - - -
 72
65
 73
2
 40
0.2
 49
0.1
 74
0
 49
-0.1
 74
0
  0
ENDTAB
  0
TABLE
  2
LAYER
  5
2
100
AcDbSymbolTable
 70
36
  0
LAYER
  5
10
100
AcDbSymbolTableRecord
100
AcDbLayerTableRecord
  2
0
 70
0
 62
7
  6
CONTINUOUS
370
-3
390
F
  0
LAYER
  5
1FA
100
AcDbSymbolTableRecord
100
AcDbLayerTableRecord
  2
DEFAULT_1
 70
0
 62
7
  6
CENTER
370
-3
390
F
  0
LAYER
  5
1FB
100
AcDbSymbolTableRecord
100
AcDbLayerTableRecord
  2
DEFAULT_2
 70
0
 62
7
  6
HIDDEN
370
-3
390
F
  0
LAYER
  5
1FC
100
AcDbSymbolTableRecord
100
AcDbLayerTableRecord
  2
DEFAULT_3
 70
0
 62
7
  6
PHANTOM
370
-3
390
F
  0
LAYER
  5
1FD
100
AcDbSymbolTableRecord
100
AcDbLayerTableRecord
  2
ASSI
 70
0
 62
7
  6
CONTINUOUS
370
-3
390
F
  0
LAYER
  5
1FE
100
AcDbSymbolTableRecord
100
AcDbLayerTableRecord
  2
COORDINATE
 70
0
 62
7
  6
CONTINUOUS
370
-3
390
F
  0
LAYER
  5
1FF
100
AcDbSymbolTableRecord
100
AcDbLayerTableRecord
  2
COORD_ORIGINE
 70
0
 62
7
  6
CONTINUOUS
370
-3
390
F
  0
LAYER
  5
200
100
AcDbSymbolTableRecord
100
AcDbLayerTableRecord
  2
COPY
 70
0
 62
7
  6
CONTINUOUS
370
-3
390
F
  0
LAYER
  5
201
100
AcDbSymbolTableRecord
100
AcDbLayerTableRecord
  2
COPY_PUBLISH
 70
0
 62
7
  6
CONTINUOUS
370
-3
390
F
  0
LAYER
  5
202
100
AcDbSymbolTableRecord
100
AcDbLayerTableRecord
  2
COSMETICI
 70
0
 62
7
  6
CONTINUOUS
370
-3
390
F
  0
LAYER
  5
203
100
AcDbSymbolTableRecord
100
AcDbLayerTableRecord
  2
CURVE
 70
0
 62
7
  6
CONTINUOUS
370
-3
390
F
  0
LAYER
  5
204
100
AcDbSymbolTableRecord
100
AcDbLayerTableRecord
  2
DRAFT
 70
0
 62
7
  6
CONTINUOUS
370
-3
390
F
  0
LAYER
  5
205
100
AcDbSymbolTableRecord
100
AcDbLayerTableRecord
  2
IGES
 70
0
 62
7
  6
CONTINUOUS
370
-3
390
F
  0
LAYER
  5
206
100
AcDbSymbolTableRecord
100
AcDbLayerTableRecord
  2
IMPORT_IGES
 70
0
 62
7
  6
CONTINUOUS
370
-3
390
F
  0
LAYER
  5
207
100
AcDbSymbolTableRecord
100
AcDbLayerTableRecord
  2
INTFCLR_2
 70
0
 62
7
  6
CONTINUOUS
370
-3
390
F
  0
LAYER
  5
208
100
AcDbSymbolTableRecord
100
AcDbLayerTableRecord
  2
INTF_1
 70
0
 62
7
  6
CONTINUOUS
370
-3
390
F
  0
LAYER
  5
209
100
AcDbSymbolTableRecord
100
AcDbLayerTableRecord
  2
NOTE
 70
0
 62
7
  6
CONTINUOUS
370
-3
390
F
  0
LAYER
  5
20A
100
AcDbSymbolTableRecord
100
AcDbLayerTableRecord
  2
PIANI
 70
0
 62
7
  6
CONTINUOUS
370
-3
390
F
  0
LAYER
  5
20B
100
AcDbSymbolTableRecord
100
AcDbLayerTableRecord
  2
PIANI_DI_RIFERIMENTO
 70
0
 62
7
  6
CONTINUOUS
370
-3
390
F
  0
LAYER
  5
20C
100
AcDbSymbolTableRecord
100
AcDbLayerTableRecord
  2
PIANI_ORIGINE
 70
0
 62
7
  6
CONTINUOUS
370
-3
390
F
  0
LAYER
  5
20D
100
AcDbSymbolTableRecord
100
AcDbLayerTableRecord
  2
PIANI_RIFERIMENTO
 70
0
 62
7
  6
CONTINUOUS
370
-3
390
F
  0
LAYER
  5
20E
100
AcDbSymbolTableRecord
100
AcDbLayerTableRecord
  2
PIANI_SFORMO
 70
0
 62
7
  6
CONTINUOUS
370
-3
390
F
  0
LAYER
  5
20F
100
AcDbSymbolTableRecord
100
AcDbLayerTableRecord
  2
PUNTI
 70
0
 62
7
  6
CONTINUOUS
370
-3
390
F
  0
LAYER
  5
210
100
AcDbSymbolTableRecord
100
AcDbLayerTableRecord
  2
RACCORDO
 70
0
 62
7
  6
CONTINUOUS
370
-3
390
F
  0
LAYER
  5
211
100
AcDbSymbolTableRecord
100
AcDbLayerTableRecord
  2
SIMBOLI
 70
0
 62
7
  6
CONTINUOUS
370
-3
390
F
  0
LAYER
  5
212
100
AcDbSymbolTableRecord
100
AcDbLayerTableRecord
  2
SMUSSO
 70
0
 62
7
  6
CONTINUOUS
370
-3
390
F
  0
LAYER
  5
213
100
AcDbSymbolTableRecord
100
AcDbLayerTableRecord
  2
SNAPLINE
 70
0
 62
7
  6
CONTINUOUS
370
-3
390
F
  0
LAYER
  5
214
100
AcDbSymbolTableRecord
100
AcDbLayerTableRecord
  2
SUPERFICI
 70
0
 62
7
  6
CONTINUOUS
370
-3
390
F
  0
LAYER
  5
215
100
AcDbSymbolTableRecord
100
AcDbLayerTableRecord
  2
TRASH
 70
0
 62
7
  6
CONTINUOUS
370
-3
390
F
  0
LAYER
  5
216
100
AcDbSymbolTableRecord
100
AcDbLayerTableRecord
  2
XSEC_DATUMS
 70
0
 62
7
  6
CONTINUOUS
370
-3
390
F
  0
ENDTAB
  0
TABLE
  2
STYLE
  5
3
100
AcDbSymbolTable
 70
1
  0
STYLE
  5
11
100
AcDbSymbolTableRecord
100
AcDbTextStyleTableRecord
  2
STANDARD
 70
0
 40
0.0
 41
0.8
 50
0.0
 71
0
 42
0.2
  3
txt
  4

  0
STYLE
  5
217
100
AcDbSymbolTableRecord
100
AcDbTextStyleTableRecord
  2
TEXTSTYLE_1
 70
0
 40
0.0
 41
0.8
 50
0.0
 71
0
 42
0.2
  3
gdt
  4

  0
ENDTAB
  0
TABLE
  2
VIEW
  5
6
100
AcDbSymbolTable
 70
0
  0
ENDTAB
  0
TABLE
  2
UCS
  5
7
100
AcDbSymbolTable
 70
0
  0
ENDTAB
  0
TABLE
  2
APPID
  5
9
100
AcDbSymbolTable
 70
1
  0
APPID
  5
218
100
AcDbSymbolTableRecord
100
AcDbRegAppTableRecord
  2
ACAD
 70
0
  0
ENDTAB
  0
TABLE
  2
BLOCK_RECORD
  5
1
100
AcDbSymbolTable
 70
0
  0
BLOCK_RECORD
  5
219
100
AcDbSymbolTableRecord
100
AcDbBlockTableRecord
  2
*Model_Space
  0
BLOCK_RECORD
  5
21A
100
AcDbSymbolTableRecord
100
AcDbBlockTableRecord
  2
*Paper_Space
  0
ENDTAB
  0
TABLE
  2
DIMSTYLE
  5
A
100
AcDbSymbolTable
 70
1
100
AcDbDimStyleTable
 71
0
  0
DIMSTYLE
105
21B
100
AcDbSymbolTableRecord
100
AcDbDimStyleTableRecord
  2
STANDARD
 70
0
  3

  4

 40
1.0
 41
3.0
 42
0.0625
 43
0.38
 44
0.18
 45
0.0
 46
0.0
 47
0.01
 48
0.01
140
3.0
141
0.09
142
0.0
143
25.4
144
1.0
145
0.0
146
1.0
147
0.09
 71
1.0
 72
0.0
 73
0
 74
0
 75
0
 76
0
 77
1
 78
8
170
0
171
2
172
0
173
0
174
0
175
0
176
0
177
0
178
0
270
2
271
2
272
2
273
2
274
2
275
0
280
0
281
0
282
0
283
1
284
8
285
0
286
0
287
3
288
0
340
11
  0
ENDTAB
  0
ENDSEC
  0
SECTION
  2
BLOCKS
  0
BLOCK
  5
20
100
AcDbEntity
  8
0
100
AcDbBlockBegin
  2
*Model_Space
 70
0
 10
0.0
 20
0.0
 30
0.0
  3
*Model_Space
  1

  0
ENDBLK
  5
21
100
AcDbEntity
  8
0
100
AcDbBlockEnd
  0
BLOCK
  5
1C
100
AcDbEntity
  8
0
100
AcDbBlockBegin
  2
*Paper_Space
 70
0
 10
0.0
 20
0.0
 30
0.0
  3
*Paper_Space
  1

  0
ENDBLK
  5
1D
100
AcDbEntity
  8
0
100
AcDbBlockEnd
  0
ENDSEC
  0
SECTION
  2
ENTITIES
  0
LWPOLYLINE
  5
21C
100
AcDbEntity
  8
RACCORDO
100
AcDbPolyline
 62
7
  6
CONTINUOUS
 90
29
 70
0
 10
-6.2879766802
 20
-31.0483332156
 10
-6.2808841792
 20
-31.0522762528
 10
-6.2727902831
 20
-31.0564180664
 10
-6.2645380981
 20
-31.0602686248
 10
-6.2561409242
 20
-31.0638201982
 10
-6.2476105453
 20
-31.0670665622
 10
-6.2389589992
 20
-31.0700020443
 10
-6.2301964693
 20
-31.0726221111
 10
-6.2213322759
 20
-31.0749227222
 10
-6.2123777202
 20
-31.0768995648
 10
-6.2033448238
 20
-31.0785486157
 10
-6.1942441913
 20
-31.0798665168
 10
-6.1850871948
 20
-31.0808500898
 10
-6.1758868271
 20
-31.0814964123
 10
-6.1666563504
 20
-31.0818031163
 10
-6.1574090889
 20
-31.0817684131
 10
-6.1481569289
 20
-31.0813910001
 10
-6.1389111531
 20
-31.0806698629
 10
-6.129683613
 20
-31.0796043073
 10
-6.1204882275
 20
-31.078194314
 10
-6.1113394654
 20
-31.0764406074
 10
-6.1022506878
 20
-31.0743443533
 10
-6.0932344585
 20
-31.071907041
 10
-6.084304019
 20
-31.0691308212
 10
-6.0754713249
 20
-31.0660179225
 10
-6.0667501973
 20
-31.0625717075
 10
-6.0581564434
 20
-31.0587971545
 10
-6.0497022262
 20
-31.0546984975
 10
-6.0445641773
 20
-31.0520117604
  0
LINE
  5
21D
100
AcDbEntity
  8
RACCORDO
100
AcDbLine
 62
7
  6
CONTINUOUS
 10
-23.2916500987
 20
-21.2306252899
 11
-6.2879767963
 21
-31.0483331486
  0
LINE
  5
21E
100
AcDbEntity
  8
RACCORDO
100
AcDbLine
 62
253
  6
CONTINUOUS
 10
-23.343420754
 20
-21.1161910746
 11
-6.3397474515
 21
-30.9338989334
  0
LWPOLYLINE
  5
21F
100
AcDbEntity
  8
ASSI
100
AcDbPolyline
 62
253
  6
CONTINUOUS
 90
7
 70
0
 10
-25.876799365
 20
-18.3608783612
 10
-25.8981408458
 20
-18.3467648498
 10
-25.9161697474
 20
-18.3310462942
 10
-25.9305844101
 20
-18.3139856972
 10
-25.9411436478
 20
-18.2958685168
 10
-25.9476707833
 20
-18.2769978898
 10
-25.9500131853
 20
-18.2594316328
  0
LWPOLYLINE
  5
220
100
AcDbEntity
  8
RACCORDO
100
AcDbPolyline
 62
253
  6
CONTINUOUS
 90
7
 70
0
 10
-25.876798372
 20
-18.3608777425
 10
-25.8981398037
 20
-18.3467642743
 10
-25.9161686791
 20
-18.3310457721
 10
-25.9305833406
 20
-18.3139852367
 10
-25.9411426034
 20
-18.2958681233
 10
-25.9476697908
 20
-18.2769975659
 10
-25.9500123634
 20
-18.2594284767
  0
LINE
  5
221
100
AcDbEntity
  8
RACCORDO
100
AcDbLine
 62
7
  6
CONTINUOUS
 10
-25.7262186234
 20
-18.7496261005
 11
-25.6732396391
 21
-18.7850118993
  0
LWPOLYLINE
  5
222
100
AcDbEntity
  8
ASSI
100
AcDbPolyline
 62
7
  6
CONTINUOUS
 90
3
 70
0
 10
-25.7666621812
 20
-18.7150802352
 10
-25.7167754234
 20
-18.7566808457
 10
-25.6735112592
 20
-18.7848557434
  0
LWPOLYLINE
  5
223
100
AcDbEntity
  8
ASSI
100
AcDbPolyline
 62
253
  6
CONTINUOUS
 90
3
 70
0
 10
-25.7382241407
 20
-18.7357296055
 10
-25.7051269168
 20
-18.7639819586
 10
-25.6734400663
 20
-18.7849046928
  0
LWPOLYLINE
  5
224
100
AcDbEntity
  8
ASSI
100
AcDbPolyline
 62
7
  6
CONTINUOUS
 90
8
 70
0
 10
-25.9500131853
 20
-18.2594316328
 10
-25.9434903887
 20
-18.3406869387
 10
-25.9295706102
 20
-18.4183766861
 10
-25.908830942
 20
-18.4899743423
 10
-25.8820543982
 20
-18.5548784474
 10
-25.8496316825
 20
-18.6135537097
 10
-25.8111936932
 20
-18.6670156551
 10
-25.7666621812
 20
-18.7150802352
  0
LWPOLYLINE
  5
225
100
AcDbEntity
  8
RACCORDO
100
AcDbPolyline
 62
7
  6
CONTINUOUS
 90
9
 70
0
 10
-25.9500123634
 20
-18.2594284767
 10
-25.9437056464
 20
-18.3390006196
 10
-25.930338042
 20
-18.4150538754
 10
-25.9104518396
 20
-18.4852836846
 10
-25.8847815733
 20
-18.5491234159
 10
-25.8536933487
 20
-18.6070236576
 10
-25.8168366984
 20
-18.6599786872
 10
-25.7741181688
 20
-18.7078511965
 10
-25.7262186234
 20
-18.7496261005
  0
LWPOLYLINE
  5
226
100
AcDbEntity
  8
RACCORDO
100
AcDbPolyline
 62
253
  6
CONTINUOUS
 90
11
 70
0
 10
-25.8768093697
 20
-18.3608845746
 10
-25.8727626841
 20
-18.4197796489
 10
-25.8647814985
 20
-18.4758287304
 10
-25.852908882
 20
-18.5287114281
 10
-25.8372113799
 20
-18.5781250024
 10
-25.8177753831
 20
-18.6237852935
 10
-25.7947074846
 20
-18.6654292142
 10
-25.7681380109
 20
-18.7028183701
 10
-25.7382185324
 20
-18.7357350451
 10
-25.7051207354
 20
-18.7639865729
 10
-25.6731708
 20
-18.7850605797
  0
LWPOLYLINE
  5
227
100
AcDbEntity
  8
ASSI
100
AcDbPolyline
 62
253
  6
CONTINUOUS
 90
9
 70
0
 10
-25.876812529
 20
-18.3607891402
 10
-25.8727683125
 20
-18.4197256081
 10
-25.8647860482
 20
-18.4758037905
 10
-25.852910803
 20
-18.5287042941
 10
-25.8372120804
 20
-18.5781230687
 10
-25.8177776272
 20
-18.623780659
 10
-25.7947116841
 20
-18.6654225203
 10
-25.7681429469
 20
-18.7028122267
 10
-25.7382241407
 20
-18.7357296055
  0
LWPOLYLINE
  5
228
100
AcDbEntity
  8
RACCORDO
100
AcDbPolyline
 62
253
  6
CONTINUOUS
 90
13
 70
0
 10
-8.994030008
 20
-28.1087898054
 10
-8.9697335326
 20
-28.1210269226
 10
-8.9428879109
 20
-28.1312179598
 10
-8.9139423502
 20
-28.1391923907
 10
-8.883381196
 20
-28.1448167794
 10
-8.8517158276
 20
-28.147997013
 10
-8.8194761009
 20
-28.1486798764
 10
-8.7872014828
 20
-28.1468539434
 10
-8.7554320238
 20
-28.1425497673
 10
-8.7246993217
 20
-28.1358393698
 10
-8.6955176262
 20
-28.1268350358
 10
-8.668375234
 20
-28.1156874346
 10
-8.6437263184
 20
-28.102583099
  0
LWPOLYLINE
  5
229
100
AcDbEntity
  8
ASSI
100
AcDbPolyline
 62
253
  6
CONTINUOUS
 90
13
 70
0
 10
-8.9940300083
 20
-28.1087898056
 10
-8.9697335328
 20
-28.1210269227
 10
-8.9428879111
 20
-28.13121796
 10
-8.9139423504
 20
-28.1391923909
 10
-8.8833811962
 20
-28.1448167796
 10
-8.8517158277
 20
-28.1479970131
 10
-8.819476101
 20
-28.1486798766
 10
-8.7872014829
 20
-28.1468539436
 10
-8.7554320239
 20
-28.1425497674
 10
-8.7246993218
 20
-28.1358393699
 10
-8.6955176262
 20
-28.1268350358
 10
-8.6683752341
 20
-28.1156874347
 10
-8.6437263184
 20
-28.102583099
  0
LWPOLYLINE
  5
22A
100
AcDbEntity
  8
RACCORDO
100
AcDbPolyline
 62
7
  6
CONTINUOUS
 90
11
 70
0
 10
-8.7857101478
 20
-28.5356584002
 10
-8.7474882226
 20
-28.5557137746
 10
-8.7027933917
 20
-28.5742888995
 10
-8.6555230831
 20
-28.5888907519
 10
-8.6060129289
 20
-28.5991961649
 10
-8.5548035704
 20
-28.6049593448
 10
-8.5021835383
 20
-28.6060721023
 10
-8.4483694347
 20
-28.6024472693
 10
-8.3937344269
 20
-28.5940358592
 10
-8.3385261245
 20
-28.5808512375
 10
-8.2878104436
 20
-28.5646738884
  0
LWPOLYLINE
  5
22B
100
AcDbEntity
  8
ASSI
100
AcDbPolyline
 62
7
  6
CONTINUOUS
 90
11
 70
0
 10
-8.7857503107
 20
-28.5356360855
 10
-8.75009003
 20
-28.5544771959
 10
-8.7047741926
 20
-28.5735673434
 10
-8.6567926981
 20
-28.5885606839
 10
-8.6064975103
 20
-28.599118751
 10
-8.5544533467
 20
-28.6049825978
 10
-8.5009636953
 20
-28.6060420828
 10
-8.4462565848
 20
-28.6022097772
 10
-8.3907205868
 20
-28.5934376828
 10
-8.3346120136
 20
-28.5797408078
 10
-8.287809915
 20
-28.5646725946
  0
LINE
  5
22C
100
AcDbEntity
  8
RACCORDO
100
AcDbLine
 62
253
  6
CONTINUOUS
 10
-25.8768093697
 20
-18.3608845746
 11
-8.9940300111
 21
-28.1087897853
  0
LINE
  5
22D
100
AcDbEntity
  8
ASSI
100
AcDbLine
 62
253
  6
CONTINUOUS
 10
-8.9940333772
 20
-28.108694364
 11
-25.8768126628
 21
-18.3607890689
  0
LINE
  5
22E
100
AcDbEntity
  8
RACCORDO
100
AcDbLine
 62
7
  6
CONTINUOUS
 10
-6.3397474515
 20
-28.3287413373
 11
-6.8322630945
 21
-28.0443689778
  0
LINE
  5
22F
100
AcDbEntity
  8
ASSI
100
AcDbLine
 62
7
  6
CONTINUOUS
 10
-6.1789478305
 20
-27.8108276197
 11
-5.9982504868
 21
-27.9151600012
  0
LINE
  5
230
100
AcDbEntity
  8
RACCORDO
100
AcDbLine
 62
7
  6
CONTINUOUS
 10
-5.9982504868
 20
-27.9151600012
 11
-6.1789478305
 21
-27.8108276197
  0
LINE
  5
231
100
AcDbEntity
  8
RACCORDO
100
AcDbLine
 62
7
  6
CONTINUOUS
 10
-25.6731708
 20
-18.7850605797
 11
-8.7847600044
 21
-28.5362173978
  0
LINE
  5
232
100
AcDbEntity
  8
ASSI
100
AcDbLine
 62
7
  6
CONTINUOUS
 10
-25.6734400663
 20
-18.7849046928
 11
-8.7847599834
 21
-28.5362174099
  0
LINE
  5
233
100
AcDbEntity
  8
CURVE
100
AcDbLine
 62
253
  6
CONTINUOUS
 10
-22.813750019
 20
-17.61512975
 11
-22.8340661181
 21
-17.6022168533
  0
LWPOLYLINE
  5
234
100
AcDbEntity
  8
RACCORDO
100
AcDbPolyline
 62
253
  6
CONTINUOUS
 90
11
 70
0
 10
-8.7856438354
 20
-28.5357054599
 10
-8.8178246613
 20
-28.5144933724
 10
-8.8517911682
 20
-28.4857346418
 10
-8.8824976568
 20
-28.4523615911
 10
-8.9097644569
 20
-28.414569402
 10
-8.9334399496
 20
-28.3725717254
 10
-8.9533921112
 20
-28.3266087101
 10
-8.969503453
 20
-28.2769538478
 10
-8.9816850399
 20
-28.2238957521
 10
-8.9898746603
 20
-28.167734141
 10
-8.9940300112
 20
-28.1087897853
  0
LWPOLYLINE
  5
235
100
AcDbEntity
  8
ASSI
100
AcDbPolyline
 62
253
  6
CONTINUOUS
 90
11
 70
0
 10
-8.7856810129
 20
-28.5356838484
 10
-8.8178309706
 20
-28.5144886829
 10
-8.8517968508
 20
-28.4857291784
 10
-8.8825026279
 20
-28.4523554885
 10
-8.9097687133
 20
-28.4145627421
 10
-8.9334423509
 20
-28.3725669074
 10
-8.9533930607
 20
-28.3266062282
 10
-8.9695056384
 20
-28.2769459192
 10
-8.9816898312
 20
-28.2238700367
 10
-8.9898805366
 20
-28.1676795582
 10
-8.9940335008
 20
-28.1086942866
  0
LINE
  5
236
100
AcDbEntity
  8
CURVE
100
AcDbLine
 62
253
  6
CONTINUOUS
 10
-22.8340661181
 20
-17.6022168533
 11
-22.8527680656
 21
-17.5879956652
  0
LINE
  5
237
100
AcDbEntity
  8
CURVE
100
AcDbLine
 62
253
  6
CONTINUOUS
 10
-19.3625302639
 20
-18.9557561303
 11
-19.3708423823
 21
-18.9494137492
  0
LINE
  5
238
100
AcDbEntity
  8
CURVE
100
AcDbLine
 62
253
  6
CONTINUOUS
 10
-19.3708423823
 20
-18.9494137492
 11
-19.3790762515
 21
-18.94268222
  0
LINE
  5
239
100
AcDbEntity
  8
CURVE
100
AcDbLine
 62
253
  6
CONTINUOUS
 10
-19.3790762515
 20
-18.94268222
 11
-19.387219668
 21
-18.9355721444
  0
LINE
  5
23A
100
AcDbEntity
  8
CURVE
100
AcDbLine
 62
253
  6
CONTINUOUS
 10
-22.8527680656
 20
-17.5879956652
 11
-22.869805235
 21
-17.5726822114
  0
LINE
  5
23B
100
AcDbEntity
  8
CURVE
100
AcDbLine
 62
253
  6
CONTINUOUS
 10
-19.387219668
 20
-18.9355721444
 11
-19.3952595742
 21
-18.9280951972
  0
LINE
  5
23C
100
AcDbEntity
  8
CURVE
100
AcDbLine
 62
253
  6
CONTINUOUS
 10
-19.2978966264
 20
-18.6066052049
 11
-19.2898789338
 21
-18.6140779937
  0
LINE
  5
23D
100
AcDbEntity
  8
CURVE
100
AcDbLine
 62
253
  6
CONTINUOUS
 10
-19.3952595742
 20
-18.9280951972
 11
-19.4031820864
 21
-18.9202642572
  0
LINE
  5
23E
100
AcDbEntity
  8
CURVE
100
AcDbLine
 62
253
  6
CONTINUOUS
 10
-20.6929650282
 20
-17.224880986
 11
-20.6804314348
 21
-17.2372977729
  0
LINE
  5
23F
100
AcDbEntity
  8
CURVE
100
AcDbLine
 62
253
  6
CONTINUOUS
 10
-19.2898789338
 20
-18.6140779937
 11
-19.2819740821
 21
-18.621909594
  0
LINE
  5
240
100
AcDbEntity
  8
CURVE
100
AcDbLine
 62
253
  6
CONTINUOUS
 10
-19.4031820864
 20
-18.9202642572
 11
-19.4109725454
 21
-18.9120935183
  0
LINE
  5
241
100
AcDbEntity
  8
CURVE
100
AcDbLine
 62
253
  6
CONTINUOUS
 10
-19.2819740821
 20
-18.621909594
 11
-19.2741970612
 21
-18.6300857348
  0
LINE
  5
242
100
AcDbEntity
  8
CURVE
100
AcDbLine
 62
253
  6
CONTINUOUS
 10
-22.869805235
 20
-17.5726822114
 11
-22.8851258093
 21
-17.55649253
  0
LINE
  5
243
100
AcDbEntity
  8
CURVE
100
AcDbLine
 62
253
  6
CONTINUOUS
 10
-19.4109725454
 20
-18.9120935183
 11
-19.4186155932
 21
-18.9035985743
  0
LINE
  5
244
100
AcDbEntity
  8
CURVE
100
AcDbLine
 62
253
  6
CONTINUOUS
 10
-19.2741970612
 20
-18.6300857348
 11
-19.2665636056
 21
-18.6385906567
  0
LINE
  5
245
100
AcDbEntity
  8
CURVE
100
AcDbLine
 62
253
  6
CONTINUOUS
 10
-20.6804314348
 20
-17.2372977729
 11
-20.6745285255
 21
-17.2441055235
  0
LINE
  5
246
100
AcDbEntity
  8
CURVE
100
AcDbLine
 62
253
  6
CONTINUOUS
 10
-19.4186155932
 20
-18.9035985743
 11
-19.4260952752
 21
-18.8947964722
  0
LINE
  5
247
100
AcDbEntity
  8
CURVE
100
AcDbLine
 62
253
  6
CONTINUOUS
 10
-19.2665636056
 20
-18.6385906567
 11
-19.2590900872
 21
-18.6474070542
  0
LINE
  5
248
100
AcDbEntity
  8
CURVE
100
AcDbLine
 62
253
  6
CONTINUOUS
 10
-22.8851258093
 20
-17.55649253
 11
-22.8986764808
 21
-17.539643331
  0
LINE
  5
249
100
AcDbEntity
  8
CURVE
100
AcDbLine
 62
253
  6
CONTINUOUS
 10
-19.4260952752
 20
-18.8947964722
 11
-19.433395166
 21
-18.8857057288
  0
LINE
  5
24A
100
AcDbEntity
  8
CURVE
100
AcDbLine
 62
253
  6
CONTINUOUS
 10
-20.6745285255
 20
-17.2441055235
 11
-20.6688845823
 21
-17.2512926909
  0
LINE
  5
24B
100
AcDbEntity
  8
CURVE
100
AcDbLine
 62
253
  6
CONTINUOUS
 10
-19.433395166
 20
-18.8857057288
 11
-19.4404985171
 21
-18.8763463065
  0
LINE
  5
24C
100
AcDbEntity
  8
CURVE
100
AcDbLine
 62
253
  6
CONTINUOUS
 10
-19.4404985171
 20
-18.8763463065
 11
-19.4473884241
 21
-18.866739546
  0
LINE
  5
24D
100
AcDbEntity
  8
CURVE
100
AcDbLine
 62
253
  6
CONTINUOUS
 10
-20.6688845823
 20
-17.2512926909
 11
-20.6584251006
 21
-17.2667425982
  0
LWPOLYLINE
  5
24E
100
AcDbEntity
  8
RACCORDO
100
AcDbPolyline
 62
253
  6
CONTINUOUS
 90
22
 70
0
 10
-23.4166084688
 20
-21.0159349694
 10
-23.4163829172
 20
-21.0207183689
 10
-23.4157897304
 20
-21.0260456423
 10
-23.4148557903
 20
-21.0313566085
 10
-23.4135823743
 20
-21.0366440037
 10
-23.411971224
 20
-21.0419005964
 10
-23.410024543
 20
-21.0471191974
 10
-23.4077449937
 20
-21.052292669
 10
-23.4051356939
 20
-21.0574139357
 10
-23.4022002121
 20
-21.0624759932
 10
-23.3989425634
 20
-21.0674719182
 10
-23.395367203
 20
-21.0723948778
 10
-23.391479021
 20
-21.0772381389
 10
-23.3872833352
 20
-21.0819950774
 10
-23.3827858839
 20
-21.0866591875
 10
-23.3779928183
 20
-21.0912240899
 10
-23.3729106938
 20
-21.0956835415
 10
-23.3675464612
 20
-21.1000314429
 10
-23.3619074569
 20
-21.1042618478
 10
-23.3560013935
 20
-21.1083689701
 10
-23.3498363486
 20
-21.1123471927
 10
-23.343420754
 20
-21.1161910746
  0
LINE
  5
24F
100
AcDbEntity
  8
RACCORDO
100
AcDbLine
 62
7
  6
CONTINUOUS
 10
-26.0397099307
 20
-15.3144359905
 11
-25.9500234883
 21
-18.2594089494
  0
LINE
  5
250
100
AcDbEntity
  8
ASSI
100
AcDbLine
 62
7
  6
CONTINUOUS
 10
-26.039649278
 20
-15.3164276008
 11
-25.9500234885
 21
-18.2594089522
  0
LINE
  5
251
100
AcDbEntity
  8
RACCORDO
100
AcDbLine
 62
253
  6
CONTINUOUS
 10
-25.9676001864
 20
-15.3744105009
 11
-25.8768093697
 21
-18.3608845746
  0
LINE
  5
252
100
AcDbEntity
  8
ASSI
100
AcDbLine
 62
253
  6
CONTINUOUS
 10
-25.9676016047
 20
-15.3743571887
 11
-25.8768126628
 21
-18.3607890689
  0
LWPOLYLINE
  5
253
100
AcDbEntity
  8
ASSI
100
AcDbPolyline
 62
253
  6
CONTINUOUS
 90
9
 70
0
 10
-25.8768093697
 20
9.015752426
 10
-25.9676001864
 20
5.9207122769
 10
-26.035699514
 20
2.8384207198
 10
-26.081102025
 20
-0.230885319
 10
-26.1038041829
 20
-3.2869734768
 10
-26.1038041432
 20
-6.3296051921
 10
-26.081102025
 20
-9.3585358795
 10
-26.0356999168
 20
-12.3735292533
 10
-25.9676016047
 20
-15.3743571887
  0
LWPOLYLINE
  5
254
100
AcDbEntity
  8
RACCORDO
100
AcDbPolyline
 62
253
  6
CONTINUOUS
 90
9
 70
0
 10
-25.8768126584
 20
9.0156531622
 10
-25.9676016028
 20
5.9206573516
 10
-26.0356999163
 20
2.8383988405
 10
-26.081102025
 20
-0.2308853175
 10
-26.1038041432
 20
-3.2869626241
 10
-26.1038041829
 20
-6.3295943836
 10
-26.081102025
 20
-9.358535878
 10
-26.035699514
 20
-12.3735506773
 10
-25.9676001864
 20
-15.3744105009
  0
LWPOLYLINE
  5
255
100
AcDbEntity
  8
ASSI
100
AcDbPolyline
 62
7
  6
CONTINUOUS
 90
9
 70
0
 10
-25.9500348119
 20
9.1179182691
 10
-26.039467578
 20
6.0754889487
 10
-26.108215986
 20
2.9787763908
 10
-26.1540590739
 20
-0.1048592015
 10
-26.1769913143
 20
-3.1751462427
 10
-26.1770115336
 20
-6.2318604213
 10
-26.1541194027
 20
-9.2747953395
 10
-26.108315436
 20
-12.3037277181
 10
-26.039649278
 20
-15.3164276008
  0
LWPOLYLINE
  5
256
100
AcDbEntity
  8
RACCORDO
100
AcDbPolyline
 62
7
  6
CONTINUOUS
 90
9
 70
0
 10
-25.9500348122
 20
9.1179182682
 10
-26.0395854164
 20
6.070928493
 10
-26.1082773734
 20
2.9754648067
 10
-26.1540822352
 20
-0.1069321962
 10
-26.1769944788
 20
-3.1759912367
 10
-26.177012929
 20
-6.2314882335
 10
-26.1541372577
 20
-9.2732170065
 10
-26.1083679728
 20
-12.300954588
 10
-26.0397099307
 20
-15.3144359905
  0
LWPOLYLINE
  5
257
100
AcDbEntity
  8
RACCORDO
100
AcDbPolyline
 62
253
  6
CONTINUOUS
 90
17
 70
0
 10
-25.4024557114
 20
10.0383689855
 10
-25.4516120628
 20
9.9874052346
 10
-25.4992322999
 20
9.9330732974
 10
-25.5450434674
 20
9.8756806258
 10
-25.5887876681
 20
9.8155597486
 10
-25.6302144526
 20
9.7530464087
 10
-25.6690812923
 20
9.6884957852
 10
-25.7051640812
 20
9.6222922796
 10
-25.7382543907
 20
9.5548153716
 10
-25.7681636576
 20
9.4864433149
 10
-25.7947257043
 20
9.4175708797
 10
-25.8177893735
 20
9.3485895098
 10
-25.8372225865
 20
9.2798890472
 10
-25.8529187544
 20
9.2118627672
 10
-25.8647904962
 20
9.1448972894
 10
-25.8727698376
 20
9.0793704286
 10
-25.8768125247
 20
9.0156530906
  0
LWPOLYLINE
  5
258
100
AcDbEntity
  8
ASSI
100
AcDbPolyline
 62
253
  6
CONTINUOUS
 90
17
 70
0
 10
-25.4024505677
 20
10.0383740518
 10
-25.4516054205
 20
9.9874124465
 10
-25.4992249985
 20
9.9330820085
 10
-25.5450361441
 20
9.8756902111
 10
-25.5887804942
 20
9.8155700497
 10
-25.6302074576
 20
9.7530574423
 10
-25.6690746329
 20
9.6885073589
 10
-25.7051579002
 20
9.6223041808
 10
-25.7382488348
 20
9.5548273239
 10
-25.768158815
 20
9.4864550839
 10
-25.7947215718
 20
9.4175823832
 10
-25.8177870666
 20
9.3485970463
 10
-25.8372216955
 20
9.2798925918
 10
-25.852916629
 20
9.2118731847
 10
-25.8647858188
 20
9.144928472
 10
-25.8727641667
 20
9.0794316786
 10
-25.8768093697
 20
9.0157524259
  0
LINE
  5
259
100
AcDbEntity
  8
ASSI
100
AcDbLine
 62
253
  6
CONTINUOUS
 10
-25.3520462691
 20
10.08568577
 11
-25.4024505677
 21
10.0383740518
  0
LWPOLYLINE
  5
25A
100
AcDbEntity
  8
ASSI
100
AcDbPolyline
 62
7
  6
CONTINUOUS
 90
15
 70
0
 10
-25.434824983
 20
10.1339290803
 10
-25.4973601917
 20
10.0789236255
 10
-25.5574747488
 20
10.018466284
 10
-25.6143306535
 20
9.9535690547
 10
-25.667726037
 20
9.8847036192
 10
-25.7174228951
 20
9.8123046291
 10
-25.7631452374
 20
9.7368778685
 10
-25.8045927581
 20
9.658942734
 10
-25.8414620682
 20
9.5790117501
 10
-25.873485328
 20
9.4976027908
 10
-25.9003590083
 20
9.4152332854
 10
-25.9218191054
 20
9.3323306105
 10
-25.9375717919
 20
9.2492920366
 10
-25.9472656873
 20
9.1666348303
 10
-25.9500282001
 20
9.1178136698
  0
LWPOLYLINE
  5
25B
100
AcDbEntity
  8
RACCORDO
100
AcDbPolyline
 62
253
  6
CONTINUOUS
 90
3
 70
0
 10
-25.3006830645
 20
10.1290841302
 10
-25.3520491989
 20
10.0856831648
 10
-25.4024557114
 20
10.0383689855
  0
LINE
  5
25C
100
AcDbEntity
  8
ASSI
100
AcDbLine
 62
253
  6
CONTINUOUS
 10
-25.3006830645
 20
10.1290841302
 11
-25.3520462691
 21
10.08568577
  0
LINE
  5
25D
100
AcDbEntity
  8
RACCORDO
100
AcDbLine
 62
7
  6
CONTINUOUS
 10
-20.0030637355
 20
17.1885747834
 11
-23.2981354534
 21
15.150853006
  0
LINE
  5
25E
100
AcDbEntity
  8
RACCORDO
100
AcDbLine
 62
253
  6
CONTINUOUS
 10
-20.0030637355
 20
17.0988451271
 11
-23.1762628917
 21
15.1364879281
  0
LWPOLYLINE
  5
25F
100
AcDbEntity
  8
RACCORDO
100
AcDbPolyline
 62
7
  6
CONTINUOUS
 90
34
 70
0
 10
-19.680875303
 20
18.7286481442
 10
-19.700338107
 20
18.7166718801
 10
-19.7192412288
 20
18.7043545494
 10
-19.7375810444
 20
18.6917028244
 10
-19.7553622975
 20
18.6787168682
 10
-19.7725722334
 20
18.6654090726
 10
-19.7891830157
 20
18.6518059047
 10
-19.8051989559
 20
18.6379097758
 10
-19.820611689
 20
18.6237336821
 10
-19.835380267
 20
18.6093246526
 10
-19.8495005238
 20
18.5947001365
 10
-19.8629811508
 20
18.5798647354
 10
-19.8758061378
 20
18.5648512786
 10
-19.887974645
 20
18.549678988
 10
-19.8994964365
 20
18.5343545692
 10
-19.9103732193
 20
18.5188951184
 10
-19.9206061344
 20
18.5033202293
 10
-19.9302043171
 20
18.4876383045
 10
-19.9391799578
 20
18.4718510296
 10
-19.9475353959
 20
18.4559762631
 10
-19.9552773098
 20
18.4400248469
 10
-19.9624205398
 20
18.4239882458
 10
-19.9689673744
 20
18.4078824523
 10
-19.9749220154
 20
18.3917203464
 10
-19.9802971914
 20
18.3754886009
 10
-19.9850944177
 20
18.3592018715
 10
-19.9893159511
 20
18.342874526
 10
-19.9929704698
 20
18.3264926482
 10
-19.9960584823
 20
18.3100706008
 10
-19.9985810663
 20
18.2936233477
 10
-20.0005428751
 20
18.2771378142
 10
-20.0019441913
 20
18.2606195144
 10
-20.0027841183
 20
18.2440926073
 10
-20.0030637355
 20
18.2275720188
  0
LWPOLYLINE
  5
260
100
AcDbEntity
  8
RACCORDO
100
AcDbPolyline
 62
253
  6
CONTINUOUS
 90
112
 70
0
 10
-19.5525824901
 20
18.7181941539
 10
-19.5662801354
 20
18.7097705899
 10
-19.579545421
 20
18.7011423515
 10
-19.5923783469
 20
18.6923094386
 10
-19.6047886102
 20
18.6832644275
 10
-19.6167665138
 20
18.674014742
 10
-19.6282829668
 20
18.6645826534
 10
-19.6393366013
 20
18.6549678894
 10
-19.6499287851
 20
18.6451707223
 10
-19.6600345301
 20
18.6352142408
 10
-19.6696526409
 20
18.6250981086
 10
-19.6787843129
 20
18.614822662
 10
-19.6874081443
 20
18.6044119978
 10
-19.6955229445
 20
18.5938658066
 10
-19.7031299041
 20
18.5831843978
 10
-19.7102111924
 20
18.5723927964
 10
-19.7167655923
 20
18.5614907139
 10
-19.7227943209
 20
18.5504784389
 10
-19.7282831988
 20
18.539381861
 10
-19.7332309459
 20
18.5282007994
 10
-19.7376388423
 20
18.5169354349
 10
-19.7414965485
 20
18.5056122009
 10
-19.7448027736
 20
18.4942309586
 10
-19.7475588085
 20
18.4827918467
 10
-19.7497581874
 20
18.4713217144
 10
-19.7513996033
 20
18.4598204983
 10
-19.7524843632
 20
18.4482882619
 10
-19.7530099213
 20
18.4367520441
 10
-19.7529749644
 20
18.4252118175
 10
-19.7523808057
 20
18.4136676095
 10
-19.7512288398
 20
18.4021465426
 10
-19.7495177584
 20
18.3906486887
 10
-19.7472488697
 20
18.3791739757
 10
-19.7444274942
 20
18.3677493103
 10
-19.7410523295
 20
18.356374794
 10
-19.7371246779
 20
18.3450503252
 10
-19.7326537656
 20
18.3338025052
 10
-19.7276383245
 20
18.3226315313
 10
-19.7220796227
 20
18.3115372062
 10
-19.7159906913
 20
18.3005455394
 10
-19.7093702739
 20
18.2896567531
 10
-19.7022196269
 20
18.2788706251
 10
-19.6945555502
 20
18.2682124973
 10
-19.6863768517
 20
18.2576826887
 10
-19.6776847235
 20
18.2472808803
 10
-19.6684995423
 20
18.2370314571
 10
-19.6588201328
 20
18.2269347588
 10
-19.6486476704
 20
18.2169904459
 10
-19.6380060572
 20
18.2072218841
 10
-19.6268942116
 20
18.1976295044
 10
-19.6153132153
 20
18.1882128759
 10
-19.6032902158
 20
18.1789940723
 10
-19.5908241524
 20
18.1699735413
 10
-19.5779160857
 20
18.1611508352
 10
-19.5645963459
 20
18.1525466841
 10
-19.5508639911
 20
18.1441616174
 10
-19.5367199632
 20
18.1359951058
 10
-19.5221974173
 20
18.1280662922
 10
-19.5072954369
 20
18.1203757203
 10
-19.4920149386
 20
18.1129228465
 10
-19.4763918264
 20
18.1057251823
 10
-19.4604253249
 20
18.0987833401
 10
-19.4441162095
 20
18.0920967074
 10
-19.4275027112
 20
18.0856809584
 10
-19.4105840848
 20
18.0795367179
 10
-19.3933610755
 20
18.0736633611
 10
-19.3758741496
 20
18.0680746874
 10
-19.3581227182
 20
18.0627713753
 10
-19.3401073702
 20
18.0577527465
 10
-19.3218703389
 20
18.0530305657
 10
-19.303411072
 20
18.0486055214
 10
-19.2847301217
 20
18.0444769252
 10
-19.2658713782
 20
18.0406544768
 10
-19.2468344556
 20
18.0371389015
 10
-19.2276197397
 20
18.033929474
 10
-19.208272278
 20
18.0310337182
 10
-19.1887917295
 20
18.0284523664
 10
-19.1691784352
 20
18.0261846862
 10
-19.1494784659
 20
18.0242360046
 10
-19.129691645
 20
18.0226070731
 10
-19.1098181491
 20
18.0212971402
 10
-19.0899045791
 20
18.0203092774
 10
-19.0699508109
 20
18.0196442402
 10
-19.0499569688
 20
18.0193012732
 10
-19.0299700255
 20
18.0192811813
 10
-19.0099900282
 20
18.0195847229
 10
-18.9900169298
 20
18.0202111397
 10
-18.9700975622
 20
18.0211589615
 10
-18.9502320359
 20
18.0224289429
 10
-18.9304202404
 20
18.0240203294
 10
-18.9107086752
 20
18.0259293873
 10
-18.8910975803
 20
18.0281568623
 10
-18.8715867158
 20
18.0307020087
 10
-18.8522218612
 20
18.0335588569
 10
-18.8330033301
 20
18.0367281458
 10
-18.8139308089
 20
18.0402091363
 10
-18.795049137
 20
18.0439936417
 10
-18.7763588125
 20
18.0480823651
 10
-18.7578593373
 20
18.0524746033
 10
-18.7395940562
 20
18.0571600598
 10
-18.7215635073
 20
18.0621394208
 10
-18.7037671525
 20
18.067412
 10
-18.6862467225
 20
18.072965442
 10
-18.6690027986
 20
18.0788004381
 10
-18.6520347993
 20
18.0849162971
 10
-18.6353827112
 20
18.0912985892
 10
-18.6190468714
 20
18.0979481772
 10
-18.6030269427
 20
18.1048641983
 10
-18.5873618996
 20
18.1120296354
 10
-18.5720647333
 20
18.119438816
 10
-18.5571224525
 20
18.1270974125
 10
-18.5425350571
 20
18.1350054249
  0
LINE
  5
261
100
AcDbEntity
  8
RACCORDO
100
AcDbLine
 62
7
  6
CONTINUOUS
 10
-18.2557350179
 20
19.5807426915
 11
-19.680875303
 21
18.7286481442
  0
LINE
  5
262
100
AcDbEntity
  8
RACCORDO
100
AcDbLine
 62
253
  6
CONTINUOUS
 10
-18.1296037072
 20
19.5689963342
 11
-19.5525824901
 21
18.7181941539
  0
LINE
  5
263
100
AcDbEntity
  8
RACCORDO
100
AcDbLine
 62
253
  6
CONTINUOUS
 10
-18.5425350571
 20
18.1350054249
 11
-17.0689973915
 21
18.9566155401
  0
LINE
  5
264
100
AcDbEntity
  8
RACCORDO
100
AcDbLine
 62
253
  6
CONTINUOUS
 10
-18.3688704645
 20
17.8270534094
 11
-16.8921937682
 21
18.6504137746
  0
LINE
  5
265
100
AcDbEntity
  8
CURVE
100
AcDbLine
 62
253
  6
CONTINUOUS
 10
-20.6622938259
 20
-18.8526107345
 11
-20.6764326188
 21
-18.8480054364
  0
LINE
  5
266
100
AcDbEntity
  8
CURVE
100
AcDbLine
 62
253
  6
CONTINUOUS
 10
-19.295842244
 20
-18.9907365024
 11
-19.3039480811
 21
-18.9880357348
  0
LINE
  5
267
100
AcDbEntity
  8
CURVE
100
AcDbLine
 62
253
  6
CONTINUOUS
 10
-19.3039480811
 20
-18.9880357348
 11
-19.3121511202
 21
-18.9848436775
  0
LINE
  5
268
100
AcDbEntity
  8
CURVE
100
AcDbLine
 62
253
  6
CONTINUOUS
 10
-19.3810194162
 20
-18.5542121573
 11
-19.3727978197
 21
-18.5574140738
  0
LINE
  5
269
100
AcDbEntity
  8
CURVE
100
AcDbLine
 62
253
  6
CONTINUOUS
 10
-19.3121511202
 20
-18.9848436775
 11
-19.3204399567
 21
-18.9811639977
  0
LINE
  5
26A
100
AcDbEntity
  8
CURVE
100
AcDbLine
 62
253
  6
CONTINUOUS
 10
-19.3727978197
 20
-18.5574140738
 11
-19.3644875909
 21
-18.5611052756
  0
LINE
  5
26B
100
AcDbEntity
  8
CURVE
100
AcDbLine
 62
253
  6
CONTINUOUS
 10
-20.736117339
 20
-17.1981064108
 11
-20.7208457063
 21
-17.2051428352
  0
LINE
  5
26C
100
AcDbEntity
  8
CURVE
100
AcDbLine
 62
253
  6
CONTINUOUS
 10
-20.6764326188
 20
-18.8480054364
 11
-20.6907307128
 21
-18.8409344897
  0
LINE
  5
26D
100
AcDbEntity
  8
CURVE
100
AcDbLine
 62
253
  6
CONTINUOUS
 10
-19.3204399567
 20
-18.9811639977
 11
-19.3288040454
 21
-18.9770001765
  0
LINE
  5
26E
100
AcDbEntity
  8
CURVE
100
AcDbLine
 62
253
  6
CONTINUOUS
 10
-19.3644875909
 20
-18.5611052756
 11
-19.3560989915
 21
-18.565282611
  0
LINE
  5
26F
100
AcDbEntity
  8
CURVE
100
AcDbLine
 62
253
  6
CONTINUOUS
 10
-19.3288040454
 20
-18.9770001765
 11
-19.3372336745
 21
-18.97235538
  0
LINE
  5
270
100
AcDbEntity
  8
CURVE
100
AcDbLine
 62
253
  6
CONTINUOUS
 10
-19.3560989915
 20
-18.565282611
 11
-19.3476414666
 21
-18.5699432564
  0
LINE
  5
271
100
AcDbEntity
  8
CURVE
100
AcDbLine
 62
253
  6
CONTINUOUS
 10
-20.6907307128
 20
-18.8409344897
 11
-22.813750019
 21
-17.61512975
  0
LINE
  5
272
100
AcDbEntity
  8
0
100
AcDbLine
 62
7
  6
CONTINUOUS
 10
-4.007681349
 20
-27.2042238329
 11
-4.2728780534
 21
-27.0511025794
  0
LINE
  5
273
100
AcDbEntity
  8
CURVE
100
AcDbLine
 62
253
  6
CONTINUOUS
 10
-19.3372336745
 20
-18.97235538
 11
-19.345715815
 21
-18.9672355326
  0
LINE
  5
274
100
AcDbEntity
  8
CURVE
100
AcDbLine
 62
253
  6
CONTINUOUS
 10
-19.3476414666
 20
-18.5699432564
 11
-19.3392130266
 21
-18.5750323555
  0
LINE
  5
275
100
AcDbEntity
  8
CURVE
100
AcDbLine
 62
253
  6
CONTINUOUS
 10
-20.7208457063
 20
-17.2051428352
 11
-20.7064475777
 21
-17.2141224009
  0
LINE
  5
276
100
AcDbEntity
  8
CURVE
100
AcDbLine
 62
253
  6
CONTINUOUS
 10
-19.345715815
 20
-18.9672355326
 11
-19.3541512411
 21
-18.9616996905
  0
LINE
  5
277
100
AcDbEntity
  8
CURVE
100
AcDbLine
 62
253
  6
CONTINUOUS
 10
-19.3392130266
 20
-18.5750323555
 11
-19.3308257974
 21
-18.5805413391
  0
LINE
  5
278
100
AcDbEntity
  8
CURVE
100
AcDbLine
 62
253
  6
CONTINUOUS
 10
-19.3541512411
 20
-18.9616996905
 11
-19.3625302639
 21
-18.9557561303
  0
LINE
  5
279
100
AcDbEntity
  8
CURVE
100
AcDbLine
 62
253
  6
CONTINUOUS
 10
-19.3308257974
 20
-18.5805413391
 11
-19.32248951
 21
-18.5864622005
  0
LINE
  5
27A
100
AcDbEntity
  8
CURVE
100
AcDbLine
 62
253
  6
CONTINUOUS
 10
-19.32248951
 20
-18.5864622005
 11
-19.3142147504
 21
-18.5927862804
  0
LINE
  5
27B
100
AcDbEntity
  8
CURVE
100
AcDbLine
 62
253
  6
CONTINUOUS
 10
-20.7064475777
 20
-17.2141224009
 11
-20.6929650282
 21
-17.224880986
  0
LINE
  5
27C
100
AcDbEntity
  8
CURVE
100
AcDbLine
 62
253
  6
CONTINUOUS
 10
-19.3142147504
 20
-18.5927862804
 11
-19.3060129946
 21
-18.5995041017
  0
LINE
  5
27D
100
AcDbEntity
  8
CURVE
100
AcDbLine
 62
253
  6
CONTINUOUS
 10
-19.3060129946
 20
-18.5995041017
 11
-19.2978966264
 21
-18.6066052049
  0
LINE
  5
27E
100
AcDbEntity
  8
CURVE
100
AcDbLine
 62
253
  6
CONTINUOUS
 10
-19.2590900872
 20
-18.6474070542
 11
-19.251793383
 21
-18.6565160571
  0
LINE
  5
27F
100
AcDbEntity
  8
CURVE
100
AcDbLine
 62
253
  6
CONTINUOUS
 10
-19.251793383
 20
-18.6565160571
 11
-19.2446907176
 21
-18.6658972567
  0
LINE
  5
280
100
AcDbEntity
  8
CURVE
100
AcDbLine
 62
253
  6
CONTINUOUS
 10
-19.2446907176
 20
-18.6658972567
 11
-19.2377994879
 21
-18.6755287777
  0
LINE
  5
281
100
AcDbEntity
  8
CURVE
100
AcDbLine
 62
253
  6
CONTINUOUS
 10
-19.4473884241
 20
-18.866739546
 11
-19.4540480051
 21
-18.8569080559
  0
LINE
  5
282
100
AcDbEntity
  8
CURVE
100
AcDbLine
 62
253
  6
CONTINUOUS
 10
-19.2377994879
 20
-18.6755287777
 11
-19.2311370712
 21
-18.6853873969
  0
LINE
  5
283
100
AcDbEntity
  8
CURVE
100
AcDbLine
 62
253
  6
CONTINUOUS
 10
-19.4540480051
 20
-18.8569080559
 11
-19.4604605882
 21
-18.84687556
  0
LINE
  5
284
100
AcDbEntity
  8
CURVE
100
AcDbLine
 62
253
  6
CONTINUOUS
 10
-19.2311370712
 20
-18.6853873969
 11
-19.224720627
 21
-18.6954487075
  0
LINE
  5
285
100
AcDbEntity
  8
CURVE
100
AcDbLine
 62
253
  6
CONTINUOUS
 10
-19.4604605882
 20
-18.84687556
 11
-19.4669198191
 21
-18.8361521804
  0
LINE
  5
286
100
AcDbEntity
  8
CURVE
100
AcDbLine
 62
253
  6
CONTINUOUS
 10
-19.224720627
 20
-18.6954487075
 11
-19.2183047998
 21
-18.7061233984
  0
LINE
  5
287
100
AcDbEntity
  8
CURVE
100
AcDbLine
 62
253
  6
CONTINUOUS
 10
-19.4669198191
 20
-18.8361521804
 11
-19.4730520139
 21
-18.8252623179
  0
LINE
  5
288
100
AcDbEntity
  8
CURVE
100
AcDbLine
 62
253
  6
CONTINUOUS
 10
-19.2183047998
 20
-18.7061233984
 11
-19.2122090413
 21
-18.716960812
  0
LINE
  5
289
100
AcDbEntity
  8
CURVE
100
AcDbLine
 62
253
  6
CONTINUOUS
 10
-19.4730520139
 20
-18.8252623179
 11
-19.478591165
 21
-18.8147799276
  0
LINE
  5
28A
100
AcDbEntity
  8
CURVE
100
AcDbLine
 62
253
  6
CONTINUOUS
 10
-19.2122090413
 20
-18.716960812
 11
-19.206661346
 21
-18.7274698746
  0
LINE
  5
28B
100
AcDbEntity
  8
CURVE
100
AcDbLine
 62
253
  6
CONTINUOUS
 10
-19.478591165
 20
-18.8147799276
 11
-19.4838184586
 21
-18.8042081397
  0
LINE
  5
28C
100
AcDbEntity
  8
CURVE
100
AcDbLine
 62
253
  6
CONTINUOUS
 10
-19.206661346
 20
-18.7274698746
 11
-19.2014260658
 21
-18.7380668682
  0
LINE
  5
28D
100
AcDbEntity
  8
CURVE
100
AcDbLine
 62
253
  6
CONTINUOUS
 10
-19.4838184586
 20
-18.8042081397
 11
-19.488721782
 21
-18.7935725453
  0
LINE
  5
28E
100
AcDbEntity
  8
CURVE
100
AcDbLine
 62
253
  6
CONTINUOUS
 10
-19.2014260658
 20
-18.7380668682
 11
-19.1965155584
 21
-18.7487254549
  0
LINE
  5
28F
100
AcDbEntity
  8
CURVE
100
AcDbLine
 62
253
  6
CONTINUOUS
 10
-19.488721782
 20
-18.7935725453
 11
-19.4932901576
 21
-18.7828981855
  0
LINE
  5
290
100
AcDbEntity
  8
CURVE
100
AcDbLine
 62
253
  6
CONTINUOUS
 10
-19.1965155584
 20
-18.7487254549
 11
-19.1919409815
 21
-18.7594198928
  0
LINE
  5
291
100
AcDbEntity
  8
CURVE
100
AcDbLine
 62
253
  6
CONTINUOUS
 10
-19.4932901576
 20
-18.7828981855
 11
-19.4975137624
 21
-18.7722093381
  0
LINE
  5
292
100
AcDbEntity
  8
CURVE
100
AcDbLine
 62
253
  6
CONTINUOUS
 10
-19.1919409815
 20
-18.7594198928
 11
-19.1877122741
 21
-18.7701252633
  0
LINE
  5
293
100
AcDbEntity
  8
CURVE
100
AcDbLine
 62
253
  6
CONTINUOUS
 10
-19.4975137624
 20
-18.7722093381
 11
-19.5013839135
 21
-18.7615293343
  0
LINE
  5
294
100
AcDbEntity
  8
CURVE
100
AcDbLine
 62
253
  6
CONTINUOUS
 10
-19.1877122741
 20
-18.7701252633
 11
-19.183838172
 21
-18.7808176645
  0
LINE
  5
295
100
AcDbEntity
  8
CURVE
100
AcDbLine
 62
253
  6
CONTINUOUS
 10
-19.5013839135
 20
-18.7615293343
 11
-19.5048930237
 21
-18.750880412
  0
LINE
  5
296
100
AcDbEntity
  8
CURVE
100
AcDbLine
 62
253
  6
CONTINUOUS
 10
-19.183838172
 20
-18.7808176645
 11
-19.1803262562
 21
-18.7914743649
  0
LINE
  5
297
100
AcDbEntity
  8
CURVE
100
AcDbLine
 62
253
  6
CONTINUOUS
 10
-19.5048930237
 20
-18.750880412
 11
-19.5080345312
 21
-18.7402836076
  0
LWPOLYLINE
  5
298
100
AcDbEntity
  8
RACCORDO
100
AcDbPolyline
 62
7
  6
CONTINUOUS
 90
27
 70
0
 10
-23.4166440587
 20
-21.0141224263
 10
-23.4164513603
 20
-21.0239362847
 10
-23.4158729064
 20
-21.0337433671
 10
-23.4149089982
 20
-21.0435251442
 10
-23.4135656329
 20
-21.0532342685
 10
-23.4118430284
 20
-21.0628816842
 10
-23.4097243625
 20
-21.072534462
 10
-23.4071861759
 20
-21.0822362269
 10
-23.4042377352
 20
-21.0918993179
 10
-23.4009159326
 20
-21.1013960712
 10
-23.3972661945
 20
-21.1106285426
 10
-23.3932726407
 20
-21.1196661886
 10
-23.3888779286
 20
-21.1286305354
 10
-23.3840325491
 20
-21.1375819102
 10
-23.3787770596
 20
-21.1464084418
 10
-23.3731883051
 20
-21.154975095
 10
-23.3673240713
 20
-21.163211435
 10
-23.361160828
 20
-21.1711677268
 10
-23.3546592706
 20
-21.1788958468
 10
-23.3478035655
 20
-21.1864048487
 10
-23.3406257316
 20
-21.1936506344
 10
-23.3331526313
 20
-21.2006027074
 10
-23.3253840846
 20
-21.2072586583
 10
-23.3173429185
 20
-21.2135963686
 10
-23.309094693
 20
-21.219567837
 10
-23.3006901351
 20
-21.2251476603
 10
-23.2916537357
 20
-21.2306231898
  0
LWPOLYLINE
  5
299
100
AcDbEntity
  8
RACCORDO
100
AcDbPolyline
 62
253
  6
CONTINUOUS
 90
23
 70
0
 10
-23.343420754
 20
-21.1161910746
 10
-23.3433000267
 20
-21.1236637996
 10
-23.342937927
 20
-21.130988149
 10
-23.3423348255
 20
-21.1381540356
 10
-23.3414913675
 20
-21.1451519754
 10
-23.3404086106
 20
-21.1519718949
 10
-23.3390881603
 20
-21.1586032489
 10
-23.3375319214
 20
-21.165036593
 10
-23.3357419517
 20
-21.1712635249
 10
-23.3337206881
 20
-21.1772755589
 10
-23.3314708822
 20
-21.1830644912
 10
-23.3289956152
 20
-21.1886223759
 10
-23.326298288
 20
-21.1939415725
 10
-23.3233825997
 20
-21.1990147922
 10
-23.3202525317
 20
-21.2038351127
 10
-23.3169123589
 20
-21.2083959512
 10
-23.3133666469
 20
-21.2126910721
 10
-23.3096202473
 20
-21.2167145965
 10
-23.3056782849
 20
-21.22046102
 10
-23.3015461515
 20
-21.2239252173
 10
-23.2972294983
 20
-21.2271024502
 10
-23.2927342284
 20
-21.229988373
 10
-23.2916537357
 20
-21.2306231898
  0
LWPOLYLINE
  5
29A
100
AcDbEntity
  8
RACCORDO
100
AcDbPolyline
 62
253
  6
CONTINUOUS
 90
23
 70
0
 10
-23.4166440587
 20
14.9382265421
 10
-23.4166345395
 20
14.9369668941
 10
-23.4163829172
 20
14.9316305995
 10
-23.4157897304
 20
14.9263033261
 10
-23.4148557903
 20
14.9209923599
 10
-23.4135823743
 20
14.9157049647
 10
-23.411971224
 20
14.910448372
 10
-23.410024543
 20
14.9052297711
 10
-23.4077449937
 20
14.9000562994
 10
-23.4051356939
 20
14.8949350327
 10
-23.4022002121
 20
14.8898729752
 10
-23.3989425634
 20
14.8848770502
 10
-23.395367203
 20
14.8799540906
 10
-23.391479021
 20
14.8751108295
 10
-23.3872833352
 20
14.870353891
 10
-23.3827858839
 20
14.8656897809
 10
-23.3779928183
 20
14.8611248785
 10
-23.3729106938
 20
14.8566654269
 10
-23.3675464612
 20
14.8523175255
 10
-23.3619074569
 20
14.8480871206
 10
-23.3560013935
 20
14.8439799983
 10
-23.3498363486
 20
14.8400017757
 10
-23.343420754
 20
14.8361578938
  0
LINE
  5
29B
100
AcDbEntity
  8
RACCORDO
100
AcDbLine
 62
7
  6
CONTINUOUS
 10
-23.4166440587
 20
-21.0141224263
 11
-23.4166440587
 21
-20.0879509254
  0
LINE
  5
29C
100
AcDbEntity
  8
RACCORDO
100
AcDbLine
 62
7
  6
CONTINUOUS
 10
-23.4166440587
 20
12.3325450067
 11
-23.4166440587
 21
14.9382265421
  0
LINE
  5
29D
100
AcDbEntity
  8
RACCORDO
100
AcDbLine
 62
253
  6
CONTINUOUS
 10
-23.343420754
 20
-21.1161910746
 11
-23.343420754
 21
-20.1302291439
  0
LINE
  5
29E
100
AcDbEntity
  8
RACCORDO
100
AcDbLine
 62
253
  6
CONTINUOUS
 10
-23.343420754
 20
12.2310002978
 11
-23.343420754
 21
14.8361578938
  0
LINE
  5
29F
100
AcDbEntity
  8
RACCORDO
100
AcDbLine
 62
7
  6
CONTINUOUS
 10
-23.1545876338
 20
11.9698928784
 11
-23.1545876338
 21
12.1236679504
  0
LINE
  5
2A0
100
AcDbEntity
  8
ASSI
100
AcDbLine
 62
7
  6
CONTINUOUS
 10
-23.1545876338
 20
11.9698928784
 11
-23.1545876338
 21
12.1236679504
  0
LWPOLYLINE
  5
2A1
100
AcDbEntity
  8
RACCORDO
100
AcDbPolyline
 62
253
  6
CONTINUOUS
 90
42
 70
0
 10
-23.343420754
 20
14.8361578938
 10
-23.3433000267
 20
14.8437700317
 10
-23.342937927
 20
14.8515125247
 10
-23.3423348255
 20
14.8593748578
 10
-23.3414913675
 20
14.8673468019
 10
-23.3404086106
 20
14.8754170618
 10
-23.3390881603
 20
14.8835732387
 10
-23.3375319214
 20
14.8918036885
 10
-23.3357419517
 20
14.9000976325
 10
-23.3337206881
 20
14.9084437711
 10
-23.3314708822
 20
14.9168307229
 10
-23.3289956152
 20
14.9252469838
 10
-23.326298288
 20
14.9336809863
 10
-23.3233825997
 20
14.9421211697
 10
-23.3202525317
 20
14.9505560143
 10
-23.3169123589
 20
14.9589740006
 10
-23.3133666469
 20
14.9673636209
 10
-23.3096202473
 20
14.9757133936
 10
-23.3056782849
 20
14.9840118965
 10
-23.3015461515
 20
14.9922477779
 10
-23.2972294983
 20
15.0004097737
 10
-23.2927342284
 20
15.0084867215
 10
-23.2880664895
 20
15.0164675745
 10
-23.2832326662
 20
15.0243414153
 10
-23.2782393709
 20
15.0320974726
 10
-23.273093433
 20
15.0397251373
 10
-23.2678018909
 20
15.0472139762
 10
-23.2623719829
 20
15.0545537449
 10
-23.2568111359
 20
15.061734404
 10
-23.2511269558
 20
15.0687461314
 10
-23.2453272179
 20
15.0755793356
 10
-23.2394198552
 20
15.0822246698
 10
-23.2334129477
 20
15.0886730445
 10
-23.2273147123
 20
15.0949156384
 10
-23.2211334904
 20
15.1009439127
 10
-23.2148777366
 20
15.1067496219
 10
-23.2085560077
 20
15.1123248245
 10
-23.2021769496
 20
15.1176618956
 10
-23.1957492887
 20
15.122753534
 10
-23.1892818204
 20
15.1275927726
 10
-23.1827833923
 20
15.1321729918
 10
-23.1762628917
 20
15.1364879281
  0
LWPOLYLINE
  5
2A2
100
AcDbEntity
  8
RACCORDO
100
AcDbPolyline
 62
7
  6
CONTINUOUS
 90
27
 70
0
 10
-23.4166440587
 20
14.9382265421
 10
-23.4164537475
 20
14.9479794464
 10
-23.4158825386
 20
14.9577247463
 10
-23.4149308351
 20
14.967444288
 10
-23.4136051566
 20
14.9770880414
 10
-23.4119055257
 20
14.9866704558
 10
-23.4098131072
 20
14.9962680259
 10
-23.407301509
 20
15.0059317237
 10
-23.404380369
 20
15.0155663556
 10
-23.401089954
 20
15.0250316236
 10
-23.3974783432
 20
15.0342241104
 10
-23.3935280812
 20
15.0432200672
 10
-23.3891796631
 20
15.0521471494
 10
-23.3843814818
 20
15.0610695905
 10
-23.3791752437
 20
15.0698718816
 10
-23.3736404329
 20
15.0784139205
 10
-23.3678359794
 20
15.0866240186
 10
-23.3617372747
 20
15.0945551609
 10
-23.3553046816
 20
15.1022605916
 10
-23.3485220627
 20
15.1097502771
 10
-23.3414211445
 20
15.1169804799
 10
-23.3340283214
 20
15.1239212071
 10
-23.3263428296
 20
15.1305707714
 10
-23.3183869493
 20
15.1369074299
 10
-23.3102257478
 20
15.1428830802
 10
-23.3019073744
 20
15.148473624
 10
-23.2981372612
 20
15.150851888
  0
LWPOLYLINE
  5
2A3
100
AcDbEntity
  8
RACCORDO
100
AcDbPolyline
 62
253
  6
CONTINUOUS
 90
200
 70
0
 10
-17.4344851196
 20
15.9234086841
 10
-17.4376472303
 20
15.9196194345
 10
-17.4407479268
 20
15.9158282171
 10
-17.4437872094
 20
15.9120350317
 10
-17.4467648259
 20
15.9082396005
 10
-17.4496810284
 20
15.9044422013
 10
-17.4525365725
 20
15.9006436685
 10
-17.4553314495
 20
15.8968440111
 10
-17.4580656681
 20
15.89304322
 10
-17.4607400101
 20
15.8892421018
 10
-17.4633544676
 20
15.8854406658
 10
-17.4659090484
 20
15.8816389028
 10
-17.4684045586
 20
15.8778375916
 10
-17.4708409906
 20
15.8740367421
 10
-17.4732183518
 20
15.8702363446
 10
-17.4755374708
 20
15.8664371491
 10
-17.4777983407
 20
15.8626391655
 10
-17.4800009683
 20
15.8588423839
 10
-17.4821462029
 20
15.8550475247
 10
-17.4842340401
 20
15.851254594
 10
-17.4862644842
 20
15.8474635857
 10
-17.4882383972
 20
15.8436752015
 10
-17.4901557745
 20
15.8398894485
 10
-17.4920166207
 20
15.8361063197
 10
-17.4938218119
 20
15.8323264953
 10
-17.4955713392
 20
15.8285499942
 10
-17.4972652115
 20
15.8247767977
 10
-17.4989043319
 20
15.8210075291
 10
-17.5004886965
 20
15.8172422004
 10
-17.5020183093
 20
15.8134807997
 10
-17.503494085
 20
15.8097239146
 10
-17.5049160225
 20
15.8059715518
 10
-17.5062841229
 20
15.8022237047
 10
-17.5075993041
 20
15.7984809413
 10
-17.5088615733
 20
15.7947432378
 10
-17.5100709233
 20
15.791010618
 10
-17.5112282511
 20
15.7872837218
 10
-17.5123335561
 20
15.7835625329
 10
-17.5133868389
 20
15.7798470675
 10
-17.5143889983
 20
15.7761380138
 10
-17.5153400346
 20
15.7724353283
 10
-17.5162399475
 20
15.7687390544
 10
-17.5170896354
 20
15.7650500107
 10
-17.5178890819
 20
15.7613682036
 10
-17.5186383033
 20
15.7576936266
 10
-17.5193382475
 20
15.7540270789
 10
-17.5199888861
 20
15.7503686816
 10
-17.5205902473
 20
15.7467183136
 10
-17.5211433634
 20
15.7430764111
 10
-17.5216482355
 20
15.7394429947
 10
-17.5221048624
 20
15.7358180438
 10
-17.5225142732
 20
15.7322019331
 10
-17.522876472
 20
15.7285946692
 10
-17.5231914547
 20
15.7249962455
 10
-17.5234602374
 20
15.7214070164
 10
-17.5236828245
 20
15.7178269828
 10
-17.5238592116
 20
15.7142561437
 10
-17.5239904019
 20
15.7106948509
 10
-17.5240763989
 20
15.7071431103
 10
-17.5241171991
 20
15.7036009158
 10
-17.5241137945
 20
15.700068601
 10
-17.5240661896
 20
15.6965461794
 10
-17.5239743798
 20
15.6930336374
 10
-17.5238393441
 20
15.6895312678
 10
-17.5236610879
 20
15.6860390792
 10
-17.5234396056
 20
15.6825570632
 10
-17.5231758603
 20
15.6790854866
 10
-17.5228698568
 20
15.6756243519
 10
-17.5225215901
 20
15.6721736567
 10
-17.5221320079
 20
15.6687336609
 10
-17.5217011157
 20
15.6653043714
 10
-17.521228908
 20
15.6618857813
 10
-17.5207163162
 20
15.6584781302
 10
-17.5201633461
 20
15.6550814251
 10
-17.519569992
 20
15.651695659
 10
-17.5189371675
 20
15.6483210508
 10
-17.5182648792
 20
15.6449576072
 10
-17.5175531205
 20
15.6416053215
 10
-17.5168027865
 20
15.6382643918
 10
-17.5160138838
 20
15.6349348243
 10
-17.5151864056
 20
15.6316166127
 10
-17.5143212272
 20
15.6283099365
 10
-17.5134183568
 20
15.6250148056
 10
-17.512477786
 20
15.62173121
 10
-17.5115003652
 20
15.6184592995
 10
-17.5104861014
 20
15.6151990775
 10
-17.5094349874
 20
15.6119505407
 10
-17.5083478527
 20
15.6087138283
 10
-17.5072247037
 20
15.6054889426
 10
-17.5060655338
 20
15.6022758814
 10
-17.5048711531
 20
15.5990747772
 10
-17.503641569
 20
15.5958856351
 10
-17.5023767741
 20
15.5927084502
 10
-17.5010775557
 20
15.5895433404
 10
-17.4997439216
 20
15.5863903104
 10
-17.498375864
 20
15.5832493555
 10
-17.4969741474
 20
15.5801205797
 10
-17.4955387795
 20
15.5770039873
 10
-17.4940697525
 20
15.5738995741
 10
-17.492567807
 20
15.5708074307
 10
-17.4910329511
 20
15.5677275616
 10
-17.4894651767
 20
15.5646599624
 10
-17.4878651997
 20
15.5616047113
 10
-17.4862330316
 20
15.558561817
 10
-17.4845686609
 20
15.5555312708
 10
-17.4828727698
 20
15.5525131244
 10
-17.4811453653
 20
15.5495073777
 10
-17.4793864404
 20
15.5465140308
 10
-17.4775966561
 20
15.5435331349
 10
-17.4757760196
 20
15.5405646908
 10
-17.4739245238
 20
15.5376086976
 10
-17.4720428083
 20
15.5346652046
 10
-17.4701308817
 20
15.5317342143
 10
-17.4681887355
 20
15.5288157242
 10
-17.4662169841
 20
15.5259097746
 10
-17.464215636
 20
15.5230163682
 10
-17.4621846827
 20
15.5201355024
 10
-17.4601247133
 20
15.5172672102
 10
-17.4580357362
 20
15.514411494
 10
-17.4559177429
 20
15.5115683514
 10
-17.4537712968
 20
15.5087378089
 10
-17.4515964069
 20
15.5059198687
 10
-17.4493930642
 20
15.5031145286
 10
-17.4471618056
 20
15.5003218078
 10
-17.4449026439
 20
15.4975417131
 10
-17.4426155663
 20
15.4947742376
 10
-17.4403010704
 20
15.492019381
 10
-17.4379591621
 20
15.4892771409
 10
-17.4355898355
 20
15.4865475196
 10
-17.4331935707
 20
15.4838305238
 10
-17.4307703746
 20
15.481126153
 10
-17.4283202403
 20
15.4784344076
 10
-17.4258436264
 20
15.4757552966
 10
-17.4233405414
 20
15.4730888205
 10
-17.4208109769
 20
15.4704349787
 10
-17.4182553666
 20
15.4677937775
 10
-17.4156737186
 20
15.4651652175
 10
-17.4130660248
 20
15.462549298
 10
-17.4104326943
 20
15.4599460245
 10
-17.4077737351
 20
15.457355397
 10
-17.4050891392
 20
15.4547774154
 10
-17.402379291
 20
15.4522120843
 10
-17.3996441994
 20
15.449659404
 10
-17.3968838556
 20
15.4471193742
 10
-17.3940986178
 20
15.4445919978
 10
-17.3912884992
 20
15.4420772784
 10
-17.3884534866
 20
15.4395752123
 10
-17.3855938998
 20
15.4370857912
 10
-17.3827097433
 20
15.4346090113
 10
-17.3798010125
 20
15.4321448764
 10
-17.3768680131
 20
15.4296933895
 10
-17.3739107514
 20
15.4272545487
 10
-17.3709292212
 20
15.4248283558
 10
-17.367923709
 20
15.42241482
 10
-17.364894222
 20
15.42001394
 10
-17.3618407531
 20
15.4176257171
 10
-17.3587635672
 20
15.4152501643
 10
-17.3556626712
 20
15.4128872798
 10
-17.3525380582
 20
15.4105370653
 10
-17.3493899732
 20
15.4081995389
 10
-17.3462184232
 20
15.405874699
 10
-17.3430234012
 20
15.4035625472
 10
-17.3398051315
 20
15.4012631063
 10
-17.336563622
 20
15.3989763752
 10
-17.3332988647
 20
15.396702355
 10
-17.3300110604
 20
15.3944410716
 10
-17.3267002207
 20
15.3921925261
 10
-17.3233663341
 20
15.3899567174
 10
-17.3200095667
 20
15.387733668
 10
-17.3166299217
 20
15.3855233734
 10
-17.313227396
 20
15.3833258383
 10
-17.3098021462
 20
15.381141099
 10
-17.3063541773
 20
15.3789691524
 10
-17.3028834844
 20
15.3768100016
 10
-17.2993902099
 20
15.3746636933
 10
-17.2958743586
 20
15.3725302243
 10
-17.2923359256
 20
15.3704095976
 10
-17.2887750387
 20
15.3683018694
 10
-17.2851917023
 20
15.3662070362
 10
-17.2815859119
 20
15.3641251013
 10
-17.2779577819
 20
15.3620561309
 10
-17.2743073169
 20
15.3600001218
 10
-17.2706345123
 20
15.3579570771
 10
-17.2669394675
 20
15.3559270718
 10
-17.2632221889
 20
15.3539101038
 10
-17.2594826702
 20
15.3519061753
 10
-17.2557209921
 20
15.3499153684
 10
-17.2519371633
 20
15.3479376819
 10
-17.248131175
 20
15.3459731171
 10
-17.244303082
 20
15.3440217601
 10
-17.2404528856
 20
15.3420836059
 10
-17.2365805845
 20
15.3401586594
 10
-17.2326862281
 20
15.3382470221
 10
-17.2287698191
 20
15.3363486894
 10
-17.2248313549
 20
15.3344636658
 10
-17.2208708776
 20
15.3325920657
 10
-17.2168883888
 20
15.3307338845
 10
-17.2128838869
 20
15.3288891267
 10
-17.2088574093
 20
15.327057921
 10
-17.2048089579
 20
15.3252402629
  0
LWPOLYLINE
  5
2A4
100
AcDbEntity
  8
RACCORDO
100
AcDbPolyline
 62
253
  6
CONTINUOUS
 90
25
 70
0
 10
-17.2048089579
 20
15.3252402629
 10
-17.2007385307
 20
15.3234361568
 10
-17.1966461601
 20
15.3216457446
 10
-17.1925318482
 20
15.3198690221
 10
-17.1883955927
 20
15.3181059935
 10
-17.1842374191
 20
15.3163568129
 10
-17.1800573313
 20
15.314621477
 10
-17.1758553254
 20
15.3128999892
 10
-17.1716314143
 20
15.3111925138
 10
-17.1673856029
 20
15.3094990476
 10
-17.1631178863
 20
15.3078195937
 10
-17.1588282628
 20
15.3061543261
 10
-17.1545167326
 20
15.3045032398
 10
-17.1501832956
 20
15.3028663397
 10
-17.1458279499
 20
15.3012438153
 10
-17.1414506951
 20
15.2996356613
 10
-17.1370515316
 20
15.298041883
 10
-17.1326304588
 20
15.296462685
 10
-17.128187474
 20
15.2948980615
 10
-17.12372258
 20
15.2933480184
 10
-17.1192357837
 20
15.2918127774
 10
-17.1147270839
 20
15.2902923334
 10
-17.1101964819
 20
15.2887866915
 10
-17.1056439884
 20
15.2872960885
 10
-17.0964733256
 20
15.2843599895
  0
LWPOLYLINE
  5
2A5
100
AcDbEntity
  8
RACCORDO
100
AcDbPolyline
 62
7
  6
CONTINUOUS
 90
28
 70
0
 10
-17.4346362187
 20
15.9232817671
 10
-17.4516183046
 20
15.9085893004
 10
-17.4678831751
 20
15.8936601945
 10
-17.4834367402
 20
15.8785042136
 10
-17.4982839864
 20
15.8631318892
 10
-17.5124316381
 20
15.8475518079
 10
-17.5258869135
 20
15.8317715009
 10
-17.5386540723
 20
15.8158016106
 10
-17.5507374957
 20
15.7996527811
 10
-17.5621422712
 20
15.7833347599
 10
-17.5728712291
 20
15.7668607394
 10
-17.5829279082
 20
15.7502435805
 10
-17.5923164485
 20
15.7334957515
 10
-17.6010391001
 20
15.7166340659
 10
-17.6090996489
 20
15.6996740261
 10
-17.6165031271
 20
15.682629668
 10
-17.6232521726
 20
15.6655223359
 10
-17.6293522804
 20
15.6483691358
 10
-17.6348115944
 20
15.6311806565
 10
-17.6396327571
 20
15.6139873354
 10
-17.6438250748
 20
15.5968015524
 10
-17.6474031224
 20
15.5796075472
 10
-17.6503714017
 20
15.5624285881
 10
-17.6527364123
 20
15.5452841318
 10
-17.6545092595
 20
15.528151669
 10
-17.6556940275
 20
15.51105239
 10
-17.6562960831
 20
15.4940069251
 10
-17.6563811668
 20
15.484759325
  0
LINE
  5
2A6
100
AcDbEntity
  8
ASSI
100
AcDbLine
 62
7
  6
CONTINUOUS
 10
-25.4266540266
 20
10.1406012978
 11
-25.434824983
 21
10.1339290803
  0
LWPOLYLINE
  5
2A7
100
AcDbEntity
  8
RACCORDO
100
AcDbPolyline
 62
7
  6
CONTINUOUS
 90
16
 70
0
 10
-25.4266634347
 20
10.1405926916
 10
-25.4388493013
 20
10.1306433688
 10
-25.5013223904
 20
10.0751772485
 10
-25.5608434679
 20
10.014840146
 10
-25.6171155878
 20
9.9501782038
 10
-25.6699468903
 20
9.8816518663
 10
-25.7191131125
 20
9.8096791727
 10
-25.7643462149
 20
9.7347622457
 10
-25.8053534606
 20
9.6574064837
 10
-25.841852199
 20
9.5780974531
 10
-25.8735800721
 20
9.4973407321
 10
-25.9002397033
 20
9.4156400971
 10
-25.9215798332
 20
9.333394138
 10
-25.9373087912
 20
9.2509859015
 10
-25.9470802191
 20
9.1689296438
 10
-25.9500287851
 20
9.1178232637
  0
LINE
  5
2A8
100
AcDbEntity
  8
RACCORDO
100
AcDbLine
 62
7
  6
CONTINUOUS
 10
-23.1129750761
 20
12.003395876
 11
-25.4267667583
 21
10.1405217454
  0
LINE
  5
2A9
100
AcDbEntity
  8
ASSI
100
AcDbLine
 62
7
  6
CONTINUOUS
 10
-23.1129750761
 20
12.003395876
 11
-25.4267667596
 21
10.1405217444
  0
LINE
  5
2AA
100
AcDbEntity
  8
RACCORDO
100
AcDbLine
 62
253
  6
CONTINUOUS
 10
-22.9783198277
 20
11.9988593692
 11
-25.3006830645
 21
10.1290841302
  0
LINE
  5
2AB
100
AcDbEntity
  8
ASSI
100
AcDbLine
 62
253
  6
CONTINUOUS
 10
-22.9783198277
 20
11.9988593692
 11
-25.3006830645
 21
10.1290841302
  0
LINE
  5
2AC
100
AcDbEntity
  8
RACCORDO
100
AcDbLine
 62
7
  6
CONTINUOUS
 10
-17.4344851196
 20
15.9234086841
 11
-9.4980711648
 21
20.6686082457
  0
LINE
  5
2AD
100
AcDbEntity
  8
RACCORDO
100
AcDbLine
 62
7
  6
CONTINUOUS
 10
-18.3688704645
 20
16.690279734
 11
-16.8921937682
 21
17.5428915243
  0
LINE
  5
2AE
100
AcDbEntity
  8
DRAFT
100
AcDbLine
 62
7
  6
CONTINUOUS
 10
-16.8921937682
 20
17.5428915243
 11
-12.5035525748
 21
20.0768295448
  0
LINE
  5
2AF
100
AcDbEntity
  8
0
100
AcDbLine
 62
7
  6
CONTINUOUS
 10
-14.6294520684
 20
17.4663109257
 11
-14.2658839358
 21
17.6762306088
  0
LWPOLYLINE
  5
2B0
100
AcDbEntity
  8
0
100
AcDbPolyline
 62
7
  6
CONTINUOUS
 90
10
 70
0
 10
-14.2658839358
 20
17.6762306088
 10
-14.2485746345
 20
17.6858730936
 10
-14.231328318
 20
17.6947872684
 10
-14.2141449862
 20
17.7029731332
 10
-14.1970038742
 20
17.7104388798
 10
-14.179925747
 20
17.7171763165
 10
-14.1629728993
 20
17.7231608674
 10
-14.1461660958
 20
17.7283843408
 10
-14.1294845718
 20
17.7328549285
 10
-14.1129283272
 20
17.7365726305
  0
LINE
  5
2B1
100
AcDbEntity
  8
ASSI
100
AcDbLine
 62
7
  6
CONTINUOUS
 10
-11.1240426376
 20
20.8186853463
 11
-12.5035525748
 21
20.0768295448
  0
LINE
  5
2B2
100
AcDbEntity
  8
CURVE
100
AcDbLine
 62
253
  6
CONTINUOUS
 10
-20.6485255714
 20
-18.8546359841
 11
-20.6622938259
 21
-18.8526107345
  0
LINE
  5
2B3
100
AcDbEntity
  8
CURVE
100
AcDbLine
 62
253
  6
CONTINUOUS
 10
-19.2722348677
 20
-18.9958547797
 11
-19.2799721087
 21
-18.9946494619
  0
LINE
  5
2B4
100
AcDbEntity
  8
CURVE
100
AcDbLine
 62
253
  6
CONTINUOUS
 10
-19.4127846451
 20
-18.5463644297
 11
-19.4050370979
 21
-18.5475758264
  0
LINE
  5
2B5
100
AcDbEntity
  8
CURVE
100
AcDbLine
 62
253
  6
CONTINUOUS
 10
-19.2799721087
 20
-18.9946494619
 11
-19.2878458793
 21
-18.9929422731
  0
LINE
  5
2B6
100
AcDbEntity
  8
CURVE
100
AcDbLine
 62
253
  6
CONTINUOUS
 10
-19.4050370979
 20
-18.5475758264
 11
-19.3971514365
 21
-18.5492896633
  0
LINE
  5
2B7
100
AcDbEntity
  8
CURVE
100
AcDbLine
 62
253
  6
CONTINUOUS
 10
-19.2878458793
 20
-18.9929422731
 11
-19.295842244
 21
-18.9907365024
  0
LINE
  5
2B8
100
AcDbEntity
  8
CURVE
100
AcDbLine
 62
253
  6
CONTINUOUS
 10
-19.3971514365
 20
-18.5492896633
 11
-19.3891412749
 21
-18.5515028813
  0
LINE
  5
2B9
100
AcDbEntity
  8
CURVE
100
AcDbLine
 62
253
  6
CONTINUOUS
 10
-20.7522015756
 20
-17.1932158031
 11
-20.736117339
 21
-17.1981064108
  0
LINE
  5
2BA
100
AcDbEntity
  8
CURVE
100
AcDbLine
 62
253
  6
CONTINUOUS
 10
-19.3891412749
 20
-18.5515028813
 11
-19.3810194162
 21
-18.5542121573
  0
LINE
  5
2BB
100
AcDbEntity
  8
0
100
AcDbLine
 62
7
  6
CONTINUOUS
 10
-4.007681349
 20
-22.6832958329
 11
-4.0228503506
 21
-22.6745374415
  0
LINE
  5
2BC
100
AcDbEntity
  8
CURVE
100
AcDbLine
 62
253
  6
CONTINUOUS
 10
-19.1803262562
 20
-18.7914743649
 11
-19.1771830291
 21
-18.8020739167
  0
LINE
  5
2BD
100
AcDbEntity
  8
CURVE
100
AcDbLine
 62
253
  6
CONTINUOUS
 10
-19.1771830291
 20
-18.8020739167
 11
-19.1744140138
 21
-18.812596227
  0
LINE
  5
2BE
100
AcDbEntity
  8
CURVE
100
AcDbLine
 62
253
  6
CONTINUOUS
 10
-19.5080345312
 20
-18.7402836076
 11
-19.5108028058
 21
-18.7297586861
  0
LINE
  5
2BF
100
AcDbEntity
  8
CURVE
100
AcDbLine
 62
253
  6
CONTINUOUS
 10
-19.1744140138
 20
-18.812596227
 11
-19.1720238722
 21
-18.8230225884
  0
LINE
  5
2C0
100
AcDbEntity
  8
CURVE
100
AcDbLine
 62
253
  6
CONTINUOUS
 10
-19.5108028058
 20
-18.7297586861
 11
-19.5131930396
 21
-18.7193241092
  0
LINE
  5
2C1
100
AcDbEntity
  8
CURVE
100
AcDbLine
 62
253
  6
CONTINUOUS
 10
-19.1720238722
 20
-18.8230225884
 11
-19.170016534
 21
-18.8333356725
  0
LINE
  5
2C2
100
AcDbEntity
  8
CURVE
100
AcDbLine
 62
253
  6
CONTINUOUS
 10
-19.5131930396
 20
-18.7193241092
 11
-19.5152011248
 21
-18.7089970384
  0
LINE
  5
2C3
100
AcDbEntity
  8
CURVE
100
AcDbLine
 62
253
  6
CONTINUOUS
 10
-19.170016534
 20
-18.8333356725
 11
-19.1683953346
 21
-18.843519491
  0
LINE
  5
2C4
100
AcDbEntity
  8
CURVE
100
AcDbLine
 62
253
  6
CONTINUOUS
 10
-19.5152011248
 20
-18.7089970384
 11
-19.5168235242
 21
-18.6987933692
  0
LINE
  5
2C5
100
AcDbEntity
  8
CURVE
100
AcDbLine
 62
253
  6
CONTINUOUS
 10
-19.1683953346
 20
-18.843519491
 11
-19.1671631539
 21
-18.853559327
  0
LINE
  5
2C6
100
AcDbEntity
  8
CURVE
100
AcDbLine
 62
253
  6
CONTINUOUS
 10
-19.5168235242
 20
-18.6987933692
 11
-19.51805714
 21
-18.6887277925
  0
LINE
  5
2C7
100
AcDbEntity
  8
CURVE
100
AcDbLine
 62
253
  6
CONTINUOUS
 10
-19.1671631539
 20
-18.853559327
 11
-19.1663225538
 21
-18.863441645
  0
LINE
  5
2C8
100
AcDbEntity
  8
CURVE
100
AcDbLine
 62
253
  6
CONTINUOUS
 10
-19.51805714
 20
-18.6887277925
 11
-19.5188991842
 21
-18.6788138777
  0
LINE
  5
2C9
100
AcDbEntity
  8
CURVE
100
AcDbLine
 62
253
  6
CONTINUOUS
 10
-19.5188991842
 20
-18.6788138777
 11
-19.5193470531
 21
-18.6690641734
  0
LINE
  5
2CA
100
AcDbEntity
  8
CURVE
100
AcDbLine
 62
253
  6
CONTINUOUS
 10
-19.1663225538
 20
-18.863441645
 11
-19.1658759098
 21
-18.8731539815
  0
LINE
  5
2CB
100
AcDbEntity
  8
CURVE
100
AcDbLine
 62
253
  6
CONTINUOUS
 10
-19.3265721361
 20
-19.3335539316
 11
-19.3176513404
 21
-19.6549715737
  0
LINE
  5
2CC
100
AcDbEntity
  8
CURVE
100
AcDbLine
 62
253
  6
CONTINUOUS
 10
-20.6241139212
 20
-17.3873529402
 11
-20.5878857827
 21
-18.781846181
  0
LINE
  5
2CD
100
AcDbEntity
  8
CURVE
100
AcDbLine
 62
253
  6
CONTINUOUS
 10
-19.363492533
 20
-17.882078796
 11
-19.3557737129
 21
-18.2041904325
  0
LWPOLYLINE
  5
2CE
100
AcDbEntity
  8
RACCORDO
100
AcDbPolyline
 62
253
  6
CONTINUOUS
 90
85
 70
0
 10
-20.0030637355
 20
18.2275720188
 10
-20.0029445342
 20
18.2188177467
 10
-20.0021426105
 20
18.2032416598
 10
-20.0005860672
 20
18.1876846476
 10
-19.9982761301
 20
18.1721589194
 10
-19.9952146091
 20
18.1566766123
 10
-19.9914038962
 20
18.1412498217
 10
-19.9868469672
 20
18.1258906099
 10
-19.9815473943
 20
18.1106110296
 10
-19.9755093401
 20
18.0954230817
 10
-19.968737548
 20
18.0803386859
 10
-19.9612373159
 20
18.0653696334
 10
-19.9530144997
 20
18.0505276117
 10
-19.9440755215
 20
18.0358242217
 10
-19.9344273937
 20
18.0212710065
 10
-19.9240776988
 20
18.0068794037
 10
-19.9130345665
 20
17.9926607103
 10
-19.9013066317
 20
17.9786260373
 10
-19.8889030498
 20
17.964786341
 10
-19.8758335098
 20
17.9511524385
 10
-19.8621082678
 20
17.9377350346
 10
-19.8477381118
 20
17.9245446755
 10
-19.8327343286
 20
17.9115917156
 10
-19.8171086472
 20
17.8988862753
 10
-19.8008732634
 20
17.8864382712
 10
-19.7840408598
 20
17.8742574324
 10
-19.7666246482
 20
17.8623533245
 10
-19.7486383193
 20
17.8507353053
 10
-19.7300959993
 20
17.8394124948
 10
-19.7110121812
 20
17.8283937385
 10
-19.6914017595
 20
17.8176876366
 10
-19.6712800546
 20
17.807302557
 10
-19.6506628616
 20
17.7972466561
 10
-19.6295663873
 20
17.7875278385
 10
-19.6080071988
 20
17.7781537326
 10
-19.5860021464
 20
17.7691316612
 10
-19.5635684052
 20
17.7604686662
 10
-19.5407235038
 20
17.7521715198
 10
-19.517485375
 20
17.7442467387
 10
-19.4938722833
 20
17.7367005517
 10
-19.4699027687
 20
17.7295388803
 10
-19.4455955662
 20
17.722767319
 10
-19.4209696517
 20
17.7163911542
 10
-19.3960442698
 20
17.7104153718
 10
-19.3708389855
 20
17.7048446655
 10
-19.3453736071
 20
17.6996834132
 10
-19.3196681259
 20
17.6949356636
 10
-19.2937426347
 20
17.690605125
 10
-19.2676173766
 20
17.6866951786
 10
-19.2413127742
 20
17.6832088836
 10
-19.2148494707
 20
17.6801489784
 10
-19.18824825
 20
17.6775178665
 10
-19.1615299856
 20
17.6753176102
 10
-19.1347155694
 20
17.6735499279
 10
-19.1078259509
 20
17.6722162008
 10
-19.0808821516
 20
17.6713174739
 10
-19.0539053166
 20
17.6708544549
 10
-19.0269166443
 20
17.6708275074
 10
-18.9999373165
 20
17.6712366497
 10
-18.9729884238
 20
17.6720815591
 10
-18.9460910175
 20
17.673361575
 10
-18.9192661453
 20
17.6750756971
 10
-18.8925348397
 20
17.677222583
 10
-18.865918044
 20
17.6798005514
 10
-18.8394366135
 20
17.6828075828
 10
-18.8131112844
 20
17.6862413232
 10
-18.7869626631
 20
17.6900990857
 10
-18.7610111908
 20
17.694377857
 10
-18.7352772377
 20
17.6990742813
 10
-18.7097810688
 20
17.7041846586
 10
-18.6845427187
 20
17.7097049671
 10
-18.6595818863
 20
17.7156308919
 10
-18.6349180305
 20
17.7219578112
 10
-18.6105704595
 20
17.7286807731
 10
-18.5865582558
 20
17.7357945095
 10
-18.5629001739
 20
17.7432934665
 10
-18.5396146483
 20
17.7511718086
 10
-18.5167200243
 20
17.7594233361
 10
-18.4942344751
 20
17.7680414955
 10
-18.4721758166
 20
17.7770194383
 10
-18.4505610948
 20
17.7863502065
 10
-18.4294068379
 20
17.7960266676
 10
-18.4087295035
 20
17.8060413169
 10
-18.3885454367
 20
17.8163862617
 10
-18.3688704645
 20
17.8270534094
  0
LINE
  5
2CF
100
AcDbEntity
  8
CURVE
100
AcDbLine
 62
253
  6
CONTINUOUS
 10
-19.5193470531
 20
-18.6690641734
 11
-19.5193969922
 21
-18.6595663942
  0
LINE
  5
2D0
100
AcDbEntity
  8
CURVE
100
AcDbLine
 62
253
  6
CONTINUOUS
 10
-19.1658759098
 20
-18.8731539815
 11
-19.1658255078
 21
-18.8826596666
  0
LINE
  5
2D1
100
AcDbEntity
  8
RACCORDO
100
AcDbLine
 62
7
  6
CONTINUOUS
 10
-20.0030637355
 20
17.0813281159
 11
-20.0030637355
 21
18.2275720188
  0
LINE
  5
2D2
100
AcDbEntity
  8
CURVE
100
AcDbLine
 62
253
  6
CONTINUOUS
 10
-19.5193969922
 20
-18.6595663942
 11
-19.5190494397
 21
-18.6503572077
  0
LINE
  5
2D3
100
AcDbEntity
  8
DRAFT
100
AcDbLine
 62
7
  6
CONTINUOUS
 10
-13.8516346091
 20
13.9595491706
 11
-13.4435844624
 21
14.2076955403
  0
LINE
  5
2D4
100
AcDbEntity
  8
DRAFT
100
AcDbLine
 62
7
  6
CONTINUOUS
 10
-10.6675441987
 20
15.8958809733
 11
-9.5553333027
 21
16.5722466073
  0
LINE
  5
2D5
100
AcDbEntity
  8
RACCORDO
100
AcDbLine
 62
7
  6
CONTINUOUS
 10
-8.1499891305
 20
19.8902425746
 11
-9.3310882474
 21
19.1840607847
  0
LINE
  5
2D6
100
AcDbEntity
  8
RACCORDO
100
AcDbLine
 62
7
  6
CONTINUOUS
 10
4.0807186339
 20
26.8000630652
 11
10.8089914398
 21
30.7816151331
  0
LINE
  5
2D7
100
AcDbEntity
  8
ASSI
100
AcDbLine
 62
7
  6
CONTINUOUS
 10
4.0807186339
 20
26.8000630652
 11
10.8089914398
 21
30.7816151331
  0
LINE
  5
2D8
100
AcDbEntity
  8
RACCORDO
100
AcDbLine
 62
253
  6
CONTINUOUS
 10
10.8089914398
 20
30.7816151331
 11
10.8121026741
 21
30.7834336683
  0
LINE
  5
2D9
100
AcDbEntity
  8
ASSI
100
AcDbLine
 62
253
  6
CONTINUOUS
 10
10.8089914398
 20
30.7816151331
 11
10.8121026741
 21
30.7834336683
  0
LINE
  5
2DA
100
AcDbEntity
  8
RACCORDO
100
AcDbLine
 62
253
  6
CONTINUOUS
 10
4.0883452201
 20
26.7987147741
 11
11.2518552016
 21
31.0372921919
  0
LINE
  5
2DB
100
AcDbEntity
  8
ASSI
100
AcDbLine
 62
253
  6
CONTINUOUS
 10
4.0883452201
 20
26.7987147741
 11
11.2518552016
 21
31.0372921919
  0
LINE
  5
2DC
100
AcDbEntity
  8
RACCORDO
100
AcDbLine
 62
253
  6
CONTINUOUS
 10
4.4245084589
 20
26.6522322221
 11
11.7518361631
 21
30.9877389527
  0
LINE
  5
2DD
100
AcDbEntity
  8
ASSI
100
AcDbLine
 62
253
  6
CONTINUOUS
 10
4.4245084589
 20
26.6522322221
 11
11.7518361631
 21
30.9877389527
  0
LINE
  5
2DE
100
AcDbEntity
  8
0
100
AcDbLine
 62
7
  6
CONTINUOUS
 10
-8.0350499885
 20
18.1091248625
 11
-7.7547326574
 21
18.2738928234
  0
LINE
  5
2DF
100
AcDbEntity
  8
RACCORDO
100
AcDbLine
 62
7
  6
CONTINUOUS
 10
10.8089703276
 20
30.7816014428
 11
10.8121026741
 21
30.7834336683
  0
LINE
  5
2E0
100
AcDbEntity
  8
ASSI
100
AcDbLine
 62
7
  6
CONTINUOUS
 10
10.8089703276
 20
30.7816014428
 11
10.8121026741
 21
30.7834336683
  0
LINE
  5
2E1
100
AcDbEntity
  8
ASSI
100
AcDbLine
 62
7
  6
CONTINUOUS
 10
3.8911211403
 20
26.7721745756
 11
-7.8546473826
 21
19.9903150396
  0
LINE
  5
2E2
100
AcDbEntity
  8
ASSI
100
AcDbLine
 62
253
  6
CONTINUOUS
 10
4.2461211403
 20
26.7369904361
 11
-7.6717750234
 21
19.8557465575
  0
LINE
  5
2E3
100
AcDbEntity
  8
RACCORDO
100
AcDbLine
 62
7
  6
CONTINUOUS
 10
-12.0838700898
 20
16.9765899123
 11
-12.3116128068
 21
16.8450945578
  0
LINE
  5
2E4
100
AcDbEntity
  8
RACCORDO
100
AcDbLine
 62
7
  6
CONTINUOUS
 10
-14.1345941582
 20
15.7925314629
 11
-16.3165474655
 21
14.5327031468
  0
LINE
  5
2E5
100
AcDbEntity
  8
RACCORDO
100
AcDbLine
 62
7
  6
CONTINUOUS
 10
11.2518552016
 20
31.0372921919
 11
10.8121026741
 21
30.7834336683
  0
LINE
  5
2E6
100
AcDbEntity
  8
ASSI
100
AcDbLine
 62
7
  6
CONTINUOUS
 10
11.2518552016
 20
31.0372921919
 11
10.8121026741
 21
30.7834336683
  0
LINE
  5
2E7
100
AcDbEntity
  8
RACCORDO
100
AcDbLine
 62
7
  6
CONTINUOUS
 10
-16.3165474655
 20
15.2779254936
 11
-14.7531160575
 21
16.1496582556
  0
LINE
  5
2E8
100
AcDbEntity
  8
RACCORDO
100
AcDbLine
 62
7
  6
CONTINUOUS
 10
-10.6517796543
 20
18.4364674449
 11
-9.608993922
 21
19.0179003635
  0
LWPOLYLINE
  5
2E9
100
AcDbEntity
  8
RACCORDO
100
AcDbPolyline
 62
253
  6
CONTINUOUS
 90
7
 70
0
 10
6.9286060044
 20
23.491239919
 10
6.950799623
 20
23.501102115
 10
6.97393665
 20
23.5056203256
 10
6.9989314333
 20
23.5054869238
 10
7.0253563467
 20
23.5007041919
 10
7.0527592965
 20
23.491353956
 10
7.0806714559
 20
23.4775961855
  0
LWPOLYLINE
  5
2EA
100
AcDbEntity
  8
ASSI
100
AcDbPolyline
 62
253
  6
CONTINUOUS
 90
7
 70
0
 10
6.9286060044
 20
23.491239919
 10
6.950799623
 20
23.501102115
 10
6.97393665
 20
23.5056203256
 10
6.9989314333
 20
23.5054869238
 10
7.0253563467
 20
23.5007041919
 10
7.0527592965
 20
23.491353956
 10
7.0806714559
 20
23.4775961855
  0
LINE
  5
2EB
100
AcDbEntity
  8
CURVE
100
AcDbLine
 62
253
  6
CONTINUOUS
 10
-19.2572293838
 20
-18.9967492148
 11
-19.2646488429
 21
-18.9965554143
  0
LINE
  5
2EC
100
AcDbEntity
  8
CURVE
100
AcDbLine
 62
253
  6
CONTINUOUS
 10
-19.4278072503
 20
-18.5454588031
 11
-19.4203797095
 21
-18.5456580905
  0
LINE
  5
2ED
100
AcDbEntity
  8
CURVE
100
AcDbLine
 62
253
  6
CONTINUOUS
 10
-19.2646488429
 20
-18.9965554143
 11
-19.2722348677
 21
-18.9958547797
  0
LINE
  5
2EE
100
AcDbEntity
  8
CURVE
100
AcDbLine
 62
253
  6
CONTINUOUS
 10
-19.4203797095
 20
-18.5456580905
 11
-19.4127846451
 21
-18.5463644297
  0
LINE
  5
2EF
100
AcDbEntity
  8
CURVE
100
AcDbLine
 62
253
  6
CONTINUOUS
 10
-20.7690129905
 20
-17.1907022926
 11
-20.7522015756
 21
-17.1932158031
  0
LINE
  5
2F0
100
AcDbEntity
  8
0
100
AcDbLine
 62
7
  6
CONTINUOUS
 10
-2.4916991429
 20
-20.6508024097
 11
-2.3381366705
 21
-20.7394674567
  0
LINE
  5
2F1
100
AcDbEntity
  8
0
100
AcDbLine
 62
7
  6
CONTINUOUS
 10
-1.4176635955
 20
-21.1878570012
 11
-2.2661917329
 21
-20.6979274892
  0
LWPOLYLINE
  5
2F2
100
AcDbEntity
  8
RACCORDO
100
AcDbPolyline
 62
253
  6
CONTINUOUS
 90
200
 70
0
 10
-17.6563792687
 20
15.4835195609
 10
-17.6563343235
 20
15.4786341785
 10
-17.6562296381
 20
15.4737601285
 10
-17.6560652472
 20
15.4688977104
 10
-17.6558411903
 20
15.4640472236
 10
-17.6555575097
 20
15.4592089347
 10
-17.6552142532
 20
15.4543831422
 10
-17.6548114726
 20
15.4495701445
 10
-17.6543492227
 20
15.4447702074
 10
-17.6538275637
 20
15.439983628
 10
-17.6532465603
 20
15.4352107036
 10
-17.6526062789
 20
15.4304516988
 10
-17.6519067926
 20
15.42570691
 10
-17.6511481787
 20
15.4209766324
 10
-17.6503305152
 20
15.4162611289
 10
-17.6494538892
 20
15.4115607017
 10
-17.648518389
 20
15.4068756372
 10
-17.6475240992
 20
15.402206173
 10
-17.6464711157
 20
15.3975525971
 10
-17.6453595406
 20
15.3929152069
 10
-17.6441894721
 20
15.3882942541
 10
-17.642961018
 20
15.3836900262
 10
-17.6416742924
 20
15.3791028174
 10
-17.6403294074
 20
15.374532889
 10
-17.6389264842
 20
15.36998053
 10
-17.6374656482
 20
15.3654460292
 10
-17.6359470231
 20
15.3609296464
 10
-17.634370742
 20
15.3564316683
 10
-17.6327369427
 20
15.3519523817
 10
-17.6310457603
 20
15.3474920446
 10
-17.62929734
 20
15.3430509417
 10
-17.6274918316
 20
15.3386293573
 10
-17.6256293815
 20
15.3342275477
 10
-17.6237101474
 20
15.3298457959
 10
-17.6217342905
 20
15.3254843828
 10
-17.6197019676
 20
15.3211435611
 10
-17.6176133517
 20
15.3168236182
 10
-17.6154686124
 20
15.3125248253
 10
-17.6132679052
 20
15.3082474096
 10
-17.6110114069
 20
15.3039916426
 10
-17.6086993042
 20
15.2997578063
 10
-17.6063317711
 20
15.2955461432
 10
-17.6039089971
 20
15.291356925
 10
-17.6014311789
 20
15.287190428
 10
-17.5988985052
 20
15.2830469001
 10
-17.5963111785
 20
15.2789266127
 10
-17.5936694056
 20
15.2748298365
 10
-17.5909733859
 20
15.2707568171
 10
-17.5882233333
 20
15.2667078225
 10
-17.5854194658
 20
15.2626831203
 10
-17.5825619938
 20
15.2586829542
 10
-17.5796511424
 20
15.2547075889
 10
-17.5766871407
 20
15.2507572885
 10
-17.5736702099
 20
15.246832294
 10
-17.5706005866
 20
15.2429328677
 10
-17.5674785104
 20
15.2390592693
 10
-17.5643042104
 20
15.2352117341
 10
-17.5610779389
 20
15.2313905263
 10
-17.5577999417
 20
15.2275958964
 10
-17.5544704409
 20
15.2238280585
 10
-17.5510896895
 20
15.2200872622
 10
-17.5476579519
 20
15.2163737657
 10
-17.5441754718
 20
15.2126877945
 10
-17.5406425147
 20
15.2090295974
 10
-17.5370593532
 20
15.205399426
 10
-17.5334262452
 20
15.2017975077
 10
-17.529743468
 20
15.198224089
 10
-17.5260113031
 20
15.1946794159
 10
-17.5222300191
 20
15.1911637136
 10
-17.5183999031
 20
15.1876772243
 10
-17.5145212471
 20
15.1842201899
 10
-17.5105943312
 20
15.180792834
 10
-17.5066194531
 20
15.177395395
 10
-17.5025969146
 20
15.1740281101
 10
-17.4985270051
 20
15.1706911992
 10
-17.4944100341
 20
15.1673848976
 10
-17.4902463117
 20
15.164109437
 10
-17.4860361324
 20
15.1608650302
 10
-17.4817798202
 20
15.1576519114
 10
-17.47747769
 20
15.1544703043
 10
-17.4731300263
 20
15.1513204049
 10
-17.4687371514
 20
15.1482024351
 10
-17.4642993993
 20
15.1451166221
 10
-17.4598170757
 20
15.1420631684
 10
-17.4552905147
 20
15.1390422933
 10
-17.4507200568
 20
15.1360542175
 10
-17.446106021
 20
15.1330991428
 10
-17.4414487509
 20
15.1301772846
 10
-17.4367485955
 20
15.127288858
 10
-17.4320058854
 20
15.1244340629
 10
-17.4272209731
 20
15.1216131096
 10
-17.4223942166
 20
15.1188262085
 10
-17.4175259581
 20
15.116073557
 10
-17.4126165601
 20
15.1133553609
 10
-17.4076663883
 20
15.1106718249
 10
-17.4026757934
 20
15.108023142
 10
-17.397645149
 20
15.105409514
 10
-17.3925748271
 20
15.102831139
 10
-17.3874651796
 20
15.1002882022
 10
-17.3823165919
 20
15.0977809017
 10
-17.3771294408
 20
15.0953094288
 10
-17.3719040682
 20
15.0928739562
 10
-17.3666408579
 20
15.0904746726
 10
-17.3613402036
 20
15.0881117687
 10
-17.3560024644
 20
15.0857854182
 10
-17.350628034
 20
15.0834958057
 10
-17.3452173119
 20
15.0812431153
 10
-17.3397706688
 20
15.0790275187
 10
-17.3342885055
 20
15.0768491946
 10
-17.3287712297
 20
15.0747083218
 10
-17.3232192261
 20
15.0726050703
 10
-17.3176329039
 20
15.0705396134
 10
-17.3120126775
 20
15.0685121238
 10
-17.3063589423
 20
15.0665227678
 10
-17.3006721164
 20
15.0645717135
 10
-17.2949526203
 20
15.0626591272
 10
-17.2892008562
 20
15.0607851699
 10
-17.2834172526
 20
15.0589500048
 10
-17.2776022339
 20
15.0571537912
 10
-17.2717561999
 20
15.0553966821
 10
-17.2658795872
 20
15.053678835
 10
-17.2599728257
 20
15.0520004031
 10
-17.2540363075
 20
15.0503615309
 10
-17.2480704695
 20
15.0487623682
 10
-17.2420757539
 20
15.0472030643
 10
-17.2360525636
 20
15.0456837606
 10
-17.2300013418
 20
15.0442046011
 10
-17.2239225368
 20
15.0427657289
 10
-17.2178165618
 20
15.0413672819
 10
-17.2116838638
 20
15.0400093978
 10
-17.2055248996
 20
15.0386922139
 10
-17.1993400991
 20
15.0374158654
 10
-17.1931299181
 20
15.0361804844
 10
-17.1868948168
 20
15.034986201
 10
-17.180635234
 20
15.0338331457
 10
-17.1743516327
 20
15.0327214442
 10
-17.1680444774
 20
15.0316512199
 10
-17.1617142119
 20
15.0306225974
 10
-17.1553613079
 20
15.0296356963
 10
-17.1489862323
 20
15.028690633
 10
-17.1425894234
 20
15.0277875248
 10
-17.1361713578
 20
15.0269264846
 10
-17.1297325078
 20
15.0261076226
 10
-17.1232733074
 20
15.0253310497
 10
-17.1167942357
 20
15.0245968719
 10
-17.1102957722
 20
15.0239051934
 10
-17.1037783528
 20
15.0232561199
 10
-17.0972424586
 20
15.0226497508
 10
-17.0906885763
 20
15.022086184
 10
-17.0841171516
 20
15.0215655207
 10
-17.0775286668
 20
15.0210878535
 10
-17.0709236161
 20
15.020653274
 10
-17.0643024647
 20
15.0202618788
 10
-17.0576657037
 20
15.019913754
 10
-17.0510138271
 20
15.0196089839
 10
-17.0443473063
 20
15.019347659
 10
-17.0376666376
 20
15.0191298586
 10
-17.0309723178
 20
15.0189556599
 10
-17.0242648206
 20
15.0188251471
 10
-17.017544649
 20
15.0187383924
 10
-17.0108123007
 20
15.018695466
 10
-17.0040682431
 20
15.0186964459
 10
-16.9973129811
 20
15.0187413974
 10
-16.9905470172
 20
15.0188303836
 10
-16.9837708166
 20
15.018963477
 10
-16.976984889
 20
15.0191407357
 10
-16.9701897385
 20
15.0193622161
 10
-16.9633858228
 20
15.0196279856
 10
-16.9565736483
 20
15.0199380957
 10
-16.949753728
 20
15.0202925957
 10
-16.9429265309
 20
15.0206915472
 10
-16.9360925631
 20
15.0211349951
 10
-16.9292523432
 20
15.0216229815
 10
-16.9224063596
 20
15.0221555608
 10
-16.9155551264
 20
15.0227327703
 10
-16.9086991589
 20
15.023354645
 10
-16.9018389489
 20
15.0240212327
 10
-16.8949750136
 20
15.0247325634
 10
-16.8881078693
 20
15.0254886646
 10
-16.8812380076
 20
15.026289578
 10
-16.874365949
 20
15.0271353257
 10
-16.8674922101
 20
15.0280259283
 10
-16.8606172768
 20
15.0289614218
 10
-16.85374167
 20
15.0299418214
 10
-16.846865909
 20
15.03096714
 10
-16.839990478
 20
15.0320374081
 10
-16.8331159039
 20
15.0331526325
 10
-16.8262427025
 20
15.0343128198
 10
-16.819371341
 20
15.0355179977
 10
-16.8125023369
 20
15.0367681678
 10
-16.8056362174
 20
15.0380633279
 10
-16.798773465
 20
15.0394034974
 10
-16.7919145976
 20
15.0407886709
 10
-16.7850601435
 20
15.0422188388
 10
-16.7782106015
 20
15.0436940108
 10
-16.771366495
 20
15.0452141731
 10
-16.7645283474
 20
15.0467793093
 10
-16.757696658
 20
15.0483894225
 10
-16.7508719514
 20
15.0500444911
 10
-16.7440547498
 20
15.0517444911
  0
LWPOLYLINE
  5
2F3
100
AcDbEntity
  8
RACCORDO
100
AcDbPolyline
 62
253
  6
CONTINUOUS
 90
71
 70
0
 10
-16.7440547498
 20
15.0517444911
 10
-16.7372455498
 20
15.0534894199
 10
-16.730444876
 20
15.0552792478
 10
-16.72365325
 20
15.0571139438
 10
-16.7168711639
 20
15.0589934995
 10
-16.7100991409
 20
15.0609178781
 10
-16.7033377031
 20
15.0628870408
 10
-16.69658734
 20
15.0649009734
 10
-16.6898485786
 20
15.06695963
 10
-16.6831219357
 20
15.0690629658
 10
-16.6764078849
 20
15.071210965
 10
-16.6697069465
 20
15.0734035764
 10
-16.663019642
 20
15.0756407461
 10
-16.6563464477
 20
15.0779224514
 10
-16.6496878821
 20
15.0802486341
 10
-16.6430444658
 20
15.0826192325
 10
-16.6364166775
 20
15.085034217
 10
-16.6298050342
 20
15.0874935218
 10
-16.6232100549
 20
15.0899970779
 10
-16.6166322206
 20
15.0925448481
 10
-16.610072033
 20
15.0951367647
 10
-16.6035300225
 20
15.0977727458
 10
-16.5970067126
 20
15.1004527295
 10
-16.5905026077
 20
15.1031766382
 10
-16.5840182301
 20
15.1059443837
 10
-16.5775541288
 20
15.1087558829
 10
-16.5711107602
 20
15.1116110705
 10
-16.5646886881
 20
15.1145098294
 10
-16.5582886178
 20
15.1174519916
 10
-16.5519107834
 20
15.1204375876
 10
-16.5455559614
 20
15.1234663849
 10
-16.5392256553
 20
15.1265377992
 10
-16.5329206318
 20
15.1296515723
 10
-16.5266410978
 20
15.1328077089
 10
-16.520387701
 20
15.1360059975
 10
-16.5141609838
 20
15.1392462723
 10
-16.5079613633
 20
15.142528428
 10
-16.501789294
 20
15.1458523378
 10
-16.4956452493
 20
15.1492178615
 10
-16.4895297038
 20
15.1526248551
 10
-16.4834431106
 20
15.1560731829
 10
-16.4773859323
 20
15.1595627008
 10
-16.4713586416
 20
15.1630932551
 10
-16.4653617038
 20
15.1666646929
 10
-16.4593955791
 20
15.1702768603
 10
-16.4534607284
 20
15.1739295992
 10
-16.4475576146
 20
15.1776227467
 10
-16.4416866921
 20
15.1813561408
 10
-16.4358484129
 20
15.1851296174
 10
-16.4300432317
 20
15.1889430066
 10
-16.4242715966
 20
15.1927961387
 10
-16.4185339507
 20
15.1966888436
 10
-16.4128307372
 20
15.2006209467
 10
-16.4071623958
 20
15.2045922721
 10
-16.401529362
 20
15.2086026423
 10
-16.3959320684
 20
15.2126518782
 10
-16.3903709459
 20
15.2167397975
 10
-16.3848464226
 20
15.220866216
 10
-16.3793589226
 20
15.2250309479
 10
-16.3739088685
 20
15.2292338045
 10
-16.3684966797
 20
15.2334745951
 10
-16.3631227718
 20
15.2377531276
 10
-16.3577875587
 20
15.242069207
 10
-16.3524914509
 20
15.2464226362
 10
-16.3472348552
 20
15.2508132171
 10
-16.3420181767
 20
15.2552407482
 10
-16.3368418167
 20
15.2597050265
 10
-16.3317061718
 20
15.2642058483
 10
-16.3266116371
 20
15.2687430068
 10
-16.3215586053
 20
15.2733162923
 10
-16.3165474655
 20
15.2779254936
  0
LINE
  5
2F4
100
AcDbEntity
  8
RACCORDO
100
AcDbLine
 62
253
  6
CONTINUOUS
 10
-18.3688704645
 20
16.690279734
 11
-18.3688704645
 21
17.8270534094
  0
LINE
  5
2F5
100
AcDbEntity
  8
RACCORDO
100
AcDbLine
 62
7
  6
CONTINUOUS
 10
-17.6563811671
 20
14.8533145487
 11
-17.6563811671
 21
15.4847611773
  0
LINE
  5
2F6
100
AcDbEntity
  8
RACCORDO
100
AcDbLine
 62
7
  6
CONTINUOUS
 10
-16.8921937682
 20
18.6504137746
 11
-16.8921937682
 21
17.5428915243
  0
LINE
  5
2F7
100
AcDbEntity
  8
RACCORDO
100
AcDbLine
 62
253
  6
CONTINUOUS
 10
-16.3165474655
 20
14.5327031468
 11
-16.3165474655
 21
15.2779254936
  0
LINE
  5
2F8
100
AcDbEntity
  8
CURVE
100
AcDbLine
 62
253
  6
CONTINUOUS
 10
-19.1658255078
 20
-18.8826596666
 11
-19.1661720899
 21
-18.8918743739
  0
LINE
  5
2F9
100
AcDbEntity
  8
CURVE
100
AcDbLine
 62
253
  6
CONTINUOUS
 10
-19.1661720899
 20
-18.8918743739
 11
-19.1669137134
 21
-18.9007883012
  0
LINE
  5
2FA
100
AcDbEntity
  8
CURVE
100
AcDbLine
 62
253
  6
CONTINUOUS
 10
-19.5190494397
 20
-18.6503572077
 11
-19.5183062685
 21
-18.6414467487
  0
LINE
  5
2FB
100
AcDbEntity
  8
CURVE
100
AcDbLine
 62
253
  6
CONTINUOUS
 10
-19.1669137134
 20
-18.9007883012
 11
-19.1680483117
 21
-18.9093907817
  0
LINE
  5
2FC
100
AcDbEntity
  8
CURVE
100
AcDbLine
 62
253
  6
CONTINUOUS
 10
-19.5183062685
 20
-18.6414467487
 11
-19.5171695006
 21
-18.6328460091
  0
LINE
  5
2FD
100
AcDbEntity
  8
RACCORDO
100
AcDbLine
 62
253
  6
CONTINUOUS
 10
-12.727185413
 20
17.1898972191
 11
-12.7488575864
 21
17.1003678279
  0
LWPOLYLINE
  5
2FE
100
AcDbEntity
  8
RACCORDO
100
AcDbPolyline
 62
7
  6
CONTINUOUS
 90
12
 70
0
 10
-12.7801426612
 20
17.1552990041
 10
-12.7798321368
 20
17.1564718892
 10
-12.778075648
 20
17.1610255935
 10
-12.7754874819
 20
17.1653510294
 10
-12.7720781571
 20
17.1694510839
 10
-12.7678911611
 20
17.1732734594
 10
-12.7629165318
 20
17.1768145989
 10
-12.7571642311
 20
17.1800780594
 10
-12.7507076316
 20
17.1830222143
 10
-12.7435711909
 20
17.1856331881
 10
-12.7357304513
 20
17.1879248564
 10
-12.727185413
 20
17.1898972191
  0
LINE
  5
2FF
100
AcDbEntity
  8
RACCORDO
100
AcDbLine
 62
7
  6
CONTINUOUS
 10
6.9285249844
 20
23.4911914399
 11
8.3258040178
 21
24.3263718032
  0
LINE
  5
300
100
AcDbEntity
  8
ASSI
100
AcDbLine
 62
7
  6
CONTINUOUS
 10
6.9285240109
 20
23.4911908568
 11
8.3258040178
 21
24.3263718032
  0
LINE
  5
301
100
AcDbEntity
  8
RACCORDO
100
AcDbLine
 62
253
  6
CONTINUOUS
 10
7.0806714559
 20
23.4775961855
 11
8.4771412847
 21
24.3122928199
  0
LINE
  5
302
100
AcDbEntity
  8
ASSI
100
AcDbLine
 62
253
  6
CONTINUOUS
 10
7.0806714559
 20
23.4775961855
 11
8.4771412847
 21
24.3122928199
  0
LINE
  5
303
100
AcDbEntity
  8
ASSI
100
AcDbLine
 62
253
  6
CONTINUOUS
 10
6.93023369
 20
25.1872174897
 11
-5.8170936735
 21
17.8270704316
  0
LINE
  5
304
100
AcDbEntity
  8
ASSI
100
AcDbLine
 62
253
  6
CONTINUOUS
 10
7.4322795046
 20
24.3176486319
 11
-4.813050561
 21
17.2473485221
  0
LINE
  5
305
100
AcDbEntity
  8
0
100
AcDbLine
 62
7
  6
CONTINUOUS
 10
6.7251727234
 20
22.3171338995
 11
-3.4342189877
 21
16.4512284525
  0
LINE
  5
306
100
AcDbEntity
  8
CURVE
100
AcDbLine
 62
253
  6
CONTINUOUS
 10
-19.2429541671
 20
-18.9956120852
 11
-19.2499923888
 21
-18.9964348714
  0
LINE
  5
307
100
AcDbEntity
  8
CURVE
100
AcDbLine
 62
253
  6
CONTINUOUS
 10
-19.442096904
 20
-18.5465851812
 11
-19.4350516618
 21
-18.5457677597
  0
LINE
  5
308
100
AcDbEntity
  8
CURVE
100
AcDbLine
 62
253
  6
CONTINUOUS
 10
-20.6354066892
 20
-18.8539755517
 11
-20.6485255714
 21
-18.8546359841
  0
LINE
  5
309
100
AcDbEntity
  8
CURVE
100
AcDbLine
 62
253
  6
CONTINUOUS
 10
-19.2499923888
 20
-18.9964348714
 11
-19.2572293838
 21
-18.9967492148
  0
LINE
  5
30A
100
AcDbEntity
  8
CURVE
100
AcDbLine
 62
253
  6
CONTINUOUS
 10
-19.4350516618
 20
-18.5457677597
 11
-19.4278072503
 21
-18.5454588031
  0
LINE
  5
30B
100
AcDbEntity
  8
CURVE
100
AcDbLine
 62
253
  6
CONTINUOUS
 10
-20.7859443627
 20
-17.190772296
 11
-20.7690129905
 21
-17.1907022926
  0
LINE
  5
30C
100
AcDbEntity
  8
0
100
AcDbLine
 62
7
  6
CONTINUOUS
 10
-4.007681349
 20
-19.1515095702
 11
-4.0228503506
 21
-19.1427511788
  0
LINE
  5
30D
100
AcDbEntity
  8
ASSI
100
AcDbLine
 62
7
  6
CONTINUOUS
 10
2.467659573
 20
-21.7581483641
 11
3.3736330596
 21
-22.2812461007
  0
LINE
  5
30E
100
AcDbEntity
  8
0
100
AcDbLine
 62
7
  6
CONTINUOUS
 10
-15.1244268152
 20
16.3640484335
 11
-15.1244268152
 21
16.6089895166
  0
LWPOLYLINE
  5
30F
100
AcDbEntity
  8
0
100
AcDbPolyline
 62
7
  6
CONTINUOUS
 90
19
 70
0
 10
-15.1244268152
 20
16.6089895166
 10
-15.1224251224
 20
16.6605728916
 10
-15.1168031705
 20
16.7131264829
 10
-15.1075609597
 20
16.7666502903
 10
-15.0945736821
 20
16.8215642914
 10
-15.0779661454
 20
16.8774485087
 10
-15.0581127734
 20
16.9330430101
 10
-15.0349398332
 20
16.9883412144
 10
-15.0085210575
 20
17.0433497029
 10
-14.9794520684
 20
17.096828287
 10
-14.9476726632
 20
17.1487422133
 10
-14.9132430445
 20
17.1991262353
 10
-14.8769394418
 20
17.246844425
 10
-14.8387192856
 20
17.2918362251
 10
-14.7986251454
 20
17.3341621928
 10
-14.7575609597
 20
17.3728680724
 10
-14.7158280414
 20
17.4076357783
 10
-14.6731250776
 20
17.4387833961
 10
-14.6294520684
 20
17.4663109257
  0
LINE
  5
310
100
AcDbEntity
  8
CURVE
100
AcDbLine
 62
253
  6
CONTINUOUS
 10
-19.1680483117
 20
-18.9093907817
 11
-19.1695735677
 21
-18.9176703252
  0
LINE
  5
311
100
AcDbEntity
  8
CURVE
100
AcDbLine
 62
253
  6
CONTINUOUS
 10
-19.5171695006
 20
-18.6328460091
 11
-19.5156414332
 21
-18.624566794
  0
LINE
  5
312
100
AcDbEntity
  8
CURVE
100
AcDbLine
 62
253
  6
CONTINUOUS
 10
-19.1695735677
 20
-18.9176703252
 11
-19.1714867813
 21
-18.9256146828
  0
LINE
  5
313
100
AcDbEntity
  8
CURVE
100
AcDbLine
 62
253
  6
CONTINUOUS
 10
-19.5156414332
 20
-18.624566794
 11
-19.5137247727
 21
-18.6166216518
  0
LINE
  5
314
100
AcDbEntity
  8
RACCORDO
100
AcDbLine
 62
253
  6
CONTINUOUS
 10
-10.7769397283
 20
17.5842653814
 11
-10.8643429332
 21
17.2231961155
  0
LINE
  5
315
100
AcDbEntity
  8
RACCORDO
100
AcDbLine
 62
253
  6
CONTINUOUS
 10
-10.5010186697
 20
17.529808267
 11
-10.5884218746
 21
17.1687390011
  0
LINE
  5
316
100
AcDbEntity
  8
CURVE
100
AcDbLine
 62
253
  6
CONTINUOUS
 10
-19.5137247727
 20
-18.6166216518
 11
-19.5114227697
 21
-18.6090237798
  0
LINE
  5
317
100
AcDbEntity
  8
RACCORDO
100
AcDbLine
 62
253
  6
CONTINUOUS
 10
-7.1884152699
 20
11.7818948288
 11
-7.8019152834
 21
11.164388674
  0
LWPOLYLINE
  5
318
100
AcDbEntity
  8
RACCORDO
100
AcDbPolyline
 62
7
  6
CONTINUOUS
 90
9
 70
0
 10
6.8893430992
 20
23.4650472916
 10
6.8508282781
 20
23.4329559713
 10
6.8173818161
 20
23.3979094314
 10
6.7893176546
 20
23.360737884
 10
6.7664403327
 20
23.32176774
 10
6.748418321
 20
23.2807685704
 10
6.7354072072
 20
23.2380494038
 10
6.7276663121
 20
23.1945095752
 10
6.7251861324
 20
23.1518421059
  0
LWPOLYLINE
  5
319
100
AcDbEntity
  8
ASSI
100
AcDbPolyline
 62
7
  6
CONTINUOUS
 90
9
 70
0
 10
6.8893620059
 20
23.4650599022
 10
6.8508529321
 20
23.4329790171
 10
6.8173978237
 20
23.3979282784
 10
6.7893261092
 20
23.3607505518
 10
6.7664429509
 20
23.32177286
 10
6.7484176944
 20
23.2807668811
 10
6.7354056345
 20
23.2380428532
 10
6.7276651907
 20
23.194499936
 10
6.7251861324
 20
23.1518416823
  0
LINE
  5
31A
100
AcDbEntity
  8
RACCORDO
100
AcDbLine
 62
7
  6
CONTINUOUS
 10
6.9285292898
 20
23.491184241
 11
6.8893620059
 21
23.4650599022
  0
LINE
  5
31B
100
AcDbEntity
  8
ASSI
100
AcDbLine
 62
7
  6
CONTINUOUS
 10
6.9285283164
 20
23.4911836578
 11
6.8893620059
 21
23.4650599022
  0
LINE
  5
31C
100
AcDbEntity
  8
DRAFT
100
AcDbLine
 62
7
  6
CONTINUOUS
 10
-8.3362017158
 20
10.7750073427
 11
-6.9024884962
 21
11.6168042932
  0
LINE
  5
31D
100
AcDbEntity
  8
DRAFT
100
AcDbLine
 62
7
  6
CONTINUOUS
 10
-6.3484978483
 20
11.9420769011
 11
-5.2936593257
 21
12.5614196256
  0
LINE
  5
31E
100
AcDbEntity
  8
0
100
AcDbLine
 62
7
  6
CONTINUOUS
 10
-3.2998816827
 20
16.3736637762
 11
6.7251727234
 21
22.1620045469
  0
LINE
  5
31F
100
AcDbEntity
  8
ASSI
100
AcDbLine
 62
7
  6
CONTINUOUS
 10
6.3009086547
 20
20.7330521503
 11
6.7571012961
 21
20.996452064
  0
LINE
  5
320
100
AcDbEntity
  8
RACCORDO
100
AcDbLine
 62
253
  6
CONTINUOUS
 10
-8.2414301066
 20
12.2408303575
 11
-8.1129625291
 21
12.3150059266
  0
LINE
  5
321
100
AcDbEntity
  8
ASSI
100
AcDbLine
 62
7
  6
CONTINUOUS
 10
6.7958355681
 20
20.4472875535
 11
7.2200928034
 21
20.692248364
  0
LINE
  5
322
100
AcDbEntity
  8
0
100
AcDbLine
 62
7
  6
CONTINUOUS
 10
-6.1441706942
 20
12.5670158057
 11
-5.7806025616
 21
12.7769354889
  0
LINE
  5
323
100
AcDbEntity
  8
0
100
AcDbLine
 62
7
  6
CONTINUOUS
 10
-6.1441706942
 20
12.240427695
 11
-5.7806025616
 21
12.4503473782
  0
LINE
  5
324
100
AcDbEntity
  8
0
100
AcDbLine
 62
253
  6
CONTINUOUS
 10
-6.3563027285
 20
11.873004234
 11
-6.639145441
 21
11.7096943966
  0
LINE
  5
325
100
AcDbEntity
  8
0
100
AcDbLine
 62
7
  6
CONTINUOUS
 10
-6.3563027285
 20
11.6280631509
 11
-6.639145441
 21
11.4647533136
  0
LINE
  5
326
100
AcDbEntity
  8
0
100
AcDbLine
 62
7
  6
CONTINUOUS
 10
-2.1294456749
 20
15.0259226211
 11
-2.4148137687
 21
14.8640709073
  0
LWPOLYLINE
  5
327
100
AcDbEntity
  8
0
100
AcDbPolyline
 62
7
  6
CONTINUOUS
 90
10
 70
0
 10
-5.7806025616
 20
12.7769354889
 10
-5.7632932603
 20
12.7865779737
 10
-5.7460469437
 20
12.7954921485
 10
-5.7288636119
 20
12.8036780133
 10
-5.7117225
 20
12.8111437599
 10
-5.6946443728
 20
12.8178811965
 10
-5.677691525
 20
12.8238657475
 10
-5.6608847216
 20
12.8290892209
 10
-5.6442031976
 20
12.8335598085
 10
-5.627646953
 20
12.8372775105
  0
LWPOLYLINE
  5
328
100
AcDbEntity
  8
0
100
AcDbPolyline
 62
7
  6
CONTINUOUS
 90
10
 70
0
 10
-5.7806025616
 20
12.4503473782
 10
-5.7731842896
 20
12.4544798717
 10
-5.7657930111
 20
12.4583002323
 10
-5.758428726
 20
12.4618084601
 10
-5.7510825352
 20
12.4650080658
 10
-5.7437633378
 20
12.4678955386
 10
-5.7364978316
 20
12.4704603462
 10
-5.7292949159
 20
12.4726989776
 10
-5.7221456913
 20
12.4746149437
 10
-5.7150501579
 20
12.4762082446
  0
LWPOLYLINE
  5
329
100
AcDbEntity
  8
RACCORDO
100
AcDbPolyline
 62
7
  6
CONTINUOUS
 90
14
 70
0
 10
-8.2005401583
 20
12.3184598101
 10
-8.1960897847
 20
12.3208124155
 10
-8.1894730369
 20
12.3235661177
 10
-8.1824922705
 20
12.3256509427
 10
-8.1752269729
 20
12.3270431512
 10
-8.1676738919
 20
12.3277348266
 10
-8.1598362797
 20
12.3277338856
 10
-8.1518033802
 20
12.3270403389
 10
-8.1435729613
 20
12.3256462699
 10
-8.1351472551
 20
12.3235595952
 10
-8.126622202
 20
12.320804075
 10
-8.118029782
 20
12.3173876293
 10
-8.1093380151
 20
12.313302338
 10
-8.1005469013
 20
12.3085482011
  0
LINE
  5
32A
100
AcDbEntity
  8
CURVE
100
AcDbLine
 62
253
  6
CONTINUOUS
 10
-19.2361312806
 20
-18.99428172
 11
-19.2429541671
 21
-18.9956120852
  0
LINE
  5
32B
100
AcDbEntity
  8
CURVE
100
AcDbLine
 62
253
  6
CONTINUOUS
 10
-19.4489266554
 20
-18.5479101625
 11
-19.442096904
 21
-18.5465851812
  0
LINE
  5
32C
100
AcDbEntity
  8
RACCORDO
100
AcDbLine
 62
7
  6
CONTINUOUS
 10
-13.5221421497
 20
15.2898473083
 11
-13.406930844
 21
13.7027827901
  0
LINE
  5
32D
100
AcDbEntity
  8
RACCORDO
100
AcDbLine
 62
253
  6
CONTINUOUS
 10
-8.4504090043
 20
16.3458119464
 11
-8.4784711771
 21
16.2298849827
  0
LINE
  5
32E
100
AcDbEntity
  8
RACCORDO
100
AcDbLine
 62
253
  6
CONTINUOUS
 10
-8.6966767603
 20
14.8627320371
 11
-8.7183489336
 21
14.7732026459
  0
LWPOLYLINE
  5
32F
100
AcDbEntity
  8
RACCORDO
100
AcDbPolyline
 62
7
  6
CONTINUOUS
 90
12
 70
0
 10
-8.3905301022
 20
16.2715574384
 10
-8.3908406266
 20
16.2703845533
 10
-8.3925971154
 20
16.265830849
 10
-8.3951852816
 20
16.2615054131
 10
-8.3985946063
 20
16.2574053586
 10
-8.4027816024
 20
16.2535829831
 10
-8.4077562317
 20
16.2500418436
 10
-8.4135085324
 20
16.2467783831
 10
-8.4199651319
 20
16.2438342282
 10
-8.4271015726
 20
16.2412232544
 10
-8.4349423121
 20
16.2389315861
 10
-8.4434873504
 20
16.2369592234
  0
LWPOLYLINE
  5
330
100
AcDbEntity
  8
RACCORDO
100
AcDbPolyline
 62
7
  6
CONTINUOUS
 90
12
 70
0
 10
-8.7496340085
 20
14.8281338221
 10
-8.7493234841
 20
14.8293067072
 10
-8.7475669953
 20
14.8338604115
 10
-8.7449788291
 20
14.8381858474
 10
-8.7415695044
 20
14.8422859019
 10
-8.7373825083
 20
14.8461082774
 10
-8.732407879
 20
14.8496494169
 10
-8.7266555783
 20
14.8529128774
 10
-8.7201989788
 20
14.8558570323
 10
-8.7130625381
 20
14.8584680062
 10
-8.7052217986
 20
14.8607596744
 10
-8.6966767603
 20
14.8627320371
  0
LINE
  5
331
100
AcDbEntity
  8
CURVE
100
AcDbLine
 62
253
  6
CONTINUOUS
 10
-19.1714867813
 20
-18.9256146828
 11
-19.1737847324
 21
-18.9332109365
  0
LINE
  5
332
100
AcDbEntity
  8
CURVE
100
AcDbLine
 62
253
  6
CONTINUOUS
 10
-19.1737847324
 20
-18.9332109365
 11
-19.1764635456
 21
-18.9404456152
  0
LINE
  5
333
100
AcDbEntity
  8
CURVE
100
AcDbLine
 62
253
  6
CONTINUOUS
 10
-19.5114227697
 20
-18.6090237798
 11
-19.5087393536
 21
-18.6017869043
  0
LWPOLYLINE
  5
334
100
AcDbEntity
  8
RACCORDO
100
AcDbPolyline
 62
253
  6
CONTINUOUS
 90
200
 70
0
 10
-7.3182789987
 20
10.0824380556
 10
-7.3214411093
 20
10.0786488061
 10
-7.3245418059
 20
10.0748575886
 10
-7.3275810884
 20
10.0710644033
 10
-7.3305587049
 20
10.0672689721
 10
-7.3334749074
 20
10.0634715729
 10
-7.3363304515
 20
10.0596730401
 10
-7.3391253285
 20
10.0558733827
 10
-7.3418595471
 20
10.0520725916
 10
-7.3445338891
 20
10.0482714734
 10
-7.3471483466
 20
10.0444700374
 10
-7.3497029275
 20
10.0406682743
 10
-7.3521984376
 20
10.0368669632
 10
-7.3546348696
 20
10.0330661137
 10
-7.3570122308
 20
10.0292657162
 10
-7.3593313498
 20
10.0254665207
 10
-7.3615922197
 20
10.0216685371
 10
-7.3637948474
 20
10.0178717555
 10
-7.3659400819
 20
10.0140768963
 10
-7.3680279191
 20
10.0102839656
 10
-7.3700583632
 20
10.0064929573
 10
-7.3720322762
 20
10.002704573
 10
-7.3739496535
 20
9.9989188201
 10
-7.3758104997
 20
9.9951356912
 10
-7.3776156909
 20
9.9913558668
 10
-7.3793652182
 20
9.9875793658
 10
-7.3810590905
 20
9.9838061693
 10
-7.3826982109
 20
9.9800369007
 10
-7.3842825756
 20
9.976271572
 10
-7.3858121883
 20
9.9725101713
 10
-7.387287964
 20
9.9687532862
 10
-7.3887099015
 20
9.9650009234
 10
-7.3900780019
 20
9.9612530762
 10
-7.3913931831
 20
9.9575103128
 10
-7.3926554523
 20
9.9537726093
 10
-7.3938648023
 20
9.9500399896
 10
-7.3950221301
 20
9.9463130934
 10
-7.3961274351
 20
9.9425919045
 10
-7.3971807179
 20
9.9388764391
 10
-7.3981828773
 20
9.9351673854
 10
-7.3991339136
 20
9.9314646999
 10
-7.4000338265
 20
9.927768426
 10
-7.4008835144
 20
9.9240793823
 10
-7.4016829609
 20
9.9203975752
 10
-7.4024321824
 20
9.9167229981
 10
-7.4031321265
 20
9.9130564505
 10
-7.4037827651
 20
9.9093980532
 10
-7.4043841263
 20
9.9057476852
 10
-7.4049372424
 20
9.9021057827
 10
-7.4054421145
 20
9.8984723663
 10
-7.4058987414
 20
9.8948474154
 10
-7.4063081522
 20
9.8912313046
 10
-7.406670351
 20
9.8876240408
 10
-7.4069853337
 20
9.8840256171
 10
-7.4072541164
 20
9.880436388
 10
-7.4074767035
 20
9.8768563544
 10
-7.4076530906
 20
9.8732855153
 10
-7.4077842809
 20
9.8697242225
 10
-7.4078702779
 20
9.8661724819
 10
-7.4079110781
 20
9.8626302874
 10
-7.4079076736
 20
9.8590979726
 10
-7.4078600686
 20
9.855575551
 10
-7.4077682588
 20
9.8520630089
 10
-7.4076332231
 20
9.8485606394
 10
-7.4074549669
 20
9.8450684508
 10
-7.4072334847
 20
9.8415864347
 10
-7.4069697393
 20
9.8381148582
 10
-7.4066637358
 20
9.8346537235
 10
-7.4063154691
 20
9.8312030283
 10
-7.4059258869
 20
9.8277630325
 10
-7.4054949947
 20
9.824333743
 10
-7.405022787
 20
9.8209151529
 10
-7.4045101952
 20
9.8175075018
 10
-7.4039572251
 20
9.8141107967
 10
-7.403363871
 20
9.8107250306
 10
-7.4027310465
 20
9.8073504224
 10
-7.4020587582
 20
9.8039869788
 10
-7.4013469995
 20
9.8006346931
 10
-7.4005966655
 20
9.7972937634
 10
-7.3998077628
 20
9.7939641959
 10
-7.3989802847
 20
9.7906459843
 10
-7.3981151062
 20
9.7873393081
 10
-7.3972122358
 20
9.7840441772
 10
-7.3962716651
 20
9.7807605816
 10
-7.3952942443
 20
9.777488671
 10
-7.3942799804
 20
9.7742284491
 10
-7.3932288664
 20
9.7709799123
 10
-7.3921417317
 20
9.7677431999
 10
-7.3910185827
 20
9.7645183142
 10
-7.3898594128
 20
9.7613052529
 10
-7.3886650321
 20
9.7581041488
 10
-7.387435448
 20
9.7549150067
 10
-7.3861706531
 20
9.7517378218
 10
-7.3848714347
 20
9.748572712
 10
-7.3835378006
 20
9.745419682
 10
-7.3821697431
 20
9.7422787271
 10
-7.3807680264
 20
9.7391499513
 10
-7.3793326585
 20
9.7360333589
 10
-7.3778636316
 20
9.7329289456
 10
-7.376361686
 20
9.7298368023
 10
-7.3748268301
 20
9.7267569332
 10
-7.3732590557
 20
9.723689334
 10
-7.3716590787
 20
9.7206340829
 10
-7.3700269106
 20
9.7175911886
 10
-7.3683625399
 20
9.7145606424
 10
-7.3666666488
 20
9.7115424959
 10
-7.3649392443
 20
9.7085367493
 10
-7.3631803194
 20
9.7055434024
 10
-7.3613905351
 20
9.7025625065
 10
-7.3595698986
 20
9.6995940624
 10
-7.3577184028
 20
9.6966380692
 10
-7.3558366873
 20
9.6936945761
 10
-7.3539247607
 20
9.6907635859
 10
-7.3519826145
 20
9.6878450958
 10
-7.3500108631
 20
9.6849391462
 10
-7.348009515
 20
9.6820457398
 10
-7.3459785617
 20
9.679164874
 10
-7.3439185923
 20
9.6762965818
 10
-7.3418296152
 20
9.6734408656
 10
-7.3397116219
 20
9.670597723
 10
-7.3375651758
 20
9.6677671805
 10
-7.3353902859
 20
9.6649492403
 10
-7.3331869433
 20
9.6621439002
 10
-7.3309556846
 20
9.6593511794
 10
-7.3286965229
 20
9.6565710846
 10
-7.3264094453
 20
9.6538036092
 10
-7.3240949494
 20
9.6510487526
 10
-7.3217530411
 20
9.6483065125
 10
-7.3193837145
 20
9.6455768912
 10
-7.3169874497
 20
9.6428598954
 10
-7.3145642536
 20
9.6401555245
 10
-7.3121141193
 20
9.6374637792
 10
-7.3096375054
 20
9.6347846682
 10
-7.3071344204
 20
9.6321181921
 10
-7.3046048559
 20
9.6294643503
 10
-7.3020492456
 20
9.6268231491
 10
-7.2994675976
 20
9.624194589
 10
-7.2968599039
 20
9.6215786696
 10
-7.2942265733
 20
9.6189753961
 10
-7.2915676141
 20
9.6163847686
 10
-7.2888830182
 20
9.613806787
 10
-7.28617317
 20
9.6112414558
 10
-7.2834380784
 20
9.6086887756
 10
-7.2806777346
 20
9.6061487458
 10
-7.2778924969
 20
9.6036213693
 10
-7.2750823782
 20
9.6011066499
 10
-7.2722473656
 20
9.5986045839
 10
-7.2693877788
 20
9.5961151628
 10
-7.2665036223
 20
9.5936383829
 10
-7.2635948915
 20
9.591174248
 10
-7.2606618921
 20
9.5887227611
 10
-7.2577046305
 20
9.5862839202
 10
-7.2547231002
 20
9.5838577274
 10
-7.251717588
 20
9.5814441916
 10
-7.2486881011
 20
9.5790433116
 10
-7.2456346321
 20
9.5766550887
 10
-7.2425574462
 20
9.5742795359
 10
-7.2394565502
 20
9.5719166514
 10
-7.2363319372
 20
9.5695664369
 10
-7.2331838523
 20
9.5672289105
 10
-7.2300123022
 20
9.5649040706
 10
-7.2268172802
 20
9.5625919188
 10
-7.2235990105
 20
9.5602924779
 10
-7.220357501
 20
9.5580057468
 10
-7.2170927437
 20
9.5557317266
 10
-7.2138049394
 20
9.5534704432
 10
-7.2104940998
 20
9.5512218977
 10
-7.2071602131
 20
9.548986089
 10
-7.2038034457
 20
9.5467630396
 10
-7.2004238007
 20
9.544552745
 10
-7.197021275
 20
9.5423552098
 10
-7.1935960253
 20
9.5401704706
 10
-7.1901480563
 20
9.5379985239
 10
-7.1866773634
 20
9.5358393732
 10
-7.1831840889
 20
9.5336930649
 10
-7.1796682376
 20
9.5315595958
 10
-7.1761298046
 20
9.5294389692
 10
-7.1725689177
 20
9.5273312409
 10
-7.1689855813
 20
9.5252364077
 10
-7.165379791
 20
9.5231544729
 10
-7.1617516609
 20
9.5210855025
 10
-7.1581011959
 20
9.5190294934
 10
-7.1544283913
 20
9.5169864486
 10
-7.1507333465
 20
9.5149564434
 10
-7.1470160679
 20
9.5129394754
 10
-7.1432765492
 20
9.5109355468
 10
-7.1395148711
 20
9.50894474
 10
-7.1357310423
 20
9.5069670535
 10
-7.1319250541
 20
9.5050024887
 10
-7.128096961
 20
9.5030511317
 10
-7.1242467646
 20
9.5011129775
 10
-7.1203744635
 20
9.499188031
 10
-7.1164801071
 20
9.4972763937
 10
-7.1125636981
 20
9.495378061
 10
-7.1086252339
 20
9.4934930374
 10
-7.1046647566
 20
9.4916214373
 10
-7.1006822678
 20
9.489763256
 10
-7.0966777659
 20
9.4879184983
 10
-7.0926512883
 20
9.4860872926
 10
-7.0886028369
 20
9.4842696345
  0
LWPOLYLINE
  5
335
100
AcDbEntity
  8
RACCORDO
100
AcDbPolyline
 62
253
  6
CONTINUOUS
 90
25
 70
0
 10
-7.0886028369
 20
9.4842696345
 10
-7.0845324098
 20
9.4824655284
 10
-7.0804400391
 20
9.4806751161
 10
-7.0763257272
 20
9.4788983937
 10
-7.0721894718
 20
9.477135365
 10
-7.0680312981
 20
9.4753861845
 10
-7.0638512104
 20
9.4736508486
 10
-7.0596492044
 20
9.4719293608
 10
-7.0554252933
 20
9.4702218854
 10
-7.0511794819
 20
9.4685284192
 10
-7.0469117653
 20
9.4668489653
 10
-7.0426221418
 20
9.4651836977
 10
-7.0383106116
 20
9.4635326114
 10
-7.0339771746
 20
9.4618957113
 10
-7.0296218289
 20
9.4602731869
 10
-7.0252445741
 20
9.4586650329
 10
-7.0208454106
 20
9.4570712546
 10
-7.0164243378
 20
9.4554920565
 10
-7.011981353
 20
9.4539274331
 10
-7.007516459
 20
9.45237739
 10
-7.0030296627
 20
9.450842149
 10
-6.9985209629
 20
9.449321705
 10
-6.9939903609
 20
9.4478160631
 10
-6.9894378674
 20
9.4463254601
 10
-6.9802672046
 20
9.443389361
  0
LINE
  5
336
100
AcDbEntity
  8
RACCORDO
100
AcDbLine
 62
253
  6
CONTINUOUS
 10
-5.4613971599
 20
12.5275005856
 11
-5.6153541683
 21
12.3725382414
  0
LWPOLYLINE
  5
337
100
AcDbEntity
  8
RACCORDO
100
AcDbPolyline
 62
7
  6
CONTINUOUS
 90
28
 70
0
 10
-7.3184300977
 20
10.0823111387
 10
-7.3354121835
 20
10.0676186721
 10
-7.3516770539
 20
10.0526895663
 10
-7.367230619
 20
10.0375335855
 10
-7.3820778651
 20
10.0221612611
 10
-7.3962255167
 20
10.0065811798
 10
-7.4096807922
 20
9.9908008729
 10
-7.4224479509
 20
9.9748309827
 10
-7.4345313743
 20
9.9586821532
 10
-7.4459361499
 20
9.942364132
 10
-7.4566651078
 20
9.9258901115
 10
-7.4667217869
 20
9.9092729526
 10
-7.4761103273
 20
9.8925251236
 10
-7.4848329789
 20
9.875663438
 10
-7.4928935277
 20
9.8587033981
 10
-7.5002970059
 20
9.84165904
 10
-7.5070460515
 20
9.8245517079
 10
-7.5131461592
 20
9.8073985077
 10
-7.5186054733
 20
9.7902100284
 10
-7.5234266361
 20
9.7730167073
 10
-7.5276189537
 20
9.7558309242
 10
-7.5311970014
 20
9.7386369191
 10
-7.5341652807
 20
9.7214579599
 10
-7.5365302913
 20
9.7043135036
 10
-7.5383031385
 20
9.6871810407
 10
-7.5394879065
 20
9.6700817617
 10
-7.5400899621
 20
9.6530362968
 10
-7.5401750458
 20
9.6437886966
  0
LINE
  5
338
100
AcDbEntity
  8
RACCORDO
100
AcDbLine
 62
7
  6
CONTINUOUS
 10
-7.3182789987
 20
10.0824380556
 11
-0.8408698353
 21
13.9552954063
  0
LINE
  5
339
100
AcDbEntity
  8
ASSI
100
AcDbLine
 62
7
  6
CONTINUOUS
 10
9.8364288939
 20
19.344910642
 11
9.2707571357
 21
19.0182988584
  0
LINE
  5
33A
100
AcDbEntity
  8
RACCORDO
100
AcDbLine
 62
253
  6
CONTINUOUS
 10
21.0179940218
 20
25.6375755373
 11
12.1788488707
 21
20.5339724414
  0
LINE
  5
33B
100
AcDbEntity
  8
ASSI
100
AcDbLine
 62
253
  6
CONTINUOUS
 10
21.0179940218
 20
25.6375755373
 11
12.1788488707
 21
20.5339724414
  0
LINE
  5
33C
100
AcDbEntity
  8
RACCORDO
100
AcDbLine
 62
253
  6
CONTINUOUS
 10
21.2301179788
 20
25.2701660667
 11
12.3909728277
 21
20.1665629707
  0
LINE
  5
33D
100
AcDbEntity
  8
ASSI
100
AcDbLine
 62
253
  6
CONTINUOUS
 10
21.2301179788
 20
25.2701660667
 11
12.3909728277
 21
20.1665629707
  0
LINE
  5
33E
100
AcDbEntity
  8
RACCORDO
100
AcDbLine
 62
253
  6
CONTINUOUS
 10
21.2301179788
 20
24.616971192
 11
13.8120308496
 21
20.3338678159
  0
LINE
  5
33F
100
AcDbEntity
  8
ASSI
100
AcDbLine
 62
253
  6
CONTINUOUS
 10
21.2301179788
 20
24.616971192
 11
13.8120308496
 21
20.3338678159
  0
LINE
  5
340
100
AcDbEntity
  8
RACCORDO
100
AcDbLine
 62
7
  6
CONTINUOUS
 10
0.507212199
 20
12.5645770275
 11
-6.2003413445
 21
8.6917325184
  0
LINE
  5
341
100
AcDbEntity
  8
RACCORDO
100
AcDbLine
 62
7
  6
CONTINUOUS
 10
12.3909728277
 20
19.4276934405
 11
13.8120308496
 21
20.2339976178
  0
LINE
  5
342
100
AcDbEntity
  8
ASSI
100
AcDbLine
 62
7
  6
CONTINUOUS
 10
12.3909728277
 20
19.4276934405
 11
13.8120308496
 21
20.2339976178
  0
LINE
  5
343
100
AcDbEntity
  8
RACCORDO
100
AcDbLine
 62
7
  6
CONTINUOUS
 10
0.6699738543
 20
14.7977064872
 11
-0.5530900849
 21
14.1157546598
  0
LINE
  5
344
100
AcDbEntity
  8
RACCORDO
100
AcDbLine
 62
7
  6
CONTINUOUS
 10
-6.2003413445
 20
9.4369548652
 11
2.0180558885
 21
14.0193408161
  0
LINE
  5
345
100
AcDbEntity
  8
DRAFT
100
AcDbLine
 62
7
  6
CONTINUOUS
 10
2.5936153893
 20
13.6865771446
 11
0.507212199
 21
12.5645770275
  0
LWPOLYLINE
  5
346
100
AcDbEntity
  8
RACCORDO
100
AcDbPolyline
 62
253
  6
CONTINUOUS
 90
10
 70
0
 10
12.1788488707
 20
20.5339724414
 10
12.1658983854
 20
20.52712813
 10
12.1521924468
 20
20.5210231271
 10
12.1377310549
 20
20.5156574326
 10
12.1223820306
 20
20.510998626
 10
12.1062775529
 20
20.5070791278
 10
12.0898141592
 20
20.5039961998
 10
12.0731240282
 20
20.5017822624
 10
12.0560749811
 20
20.5004048953
 10
12.0386670178
 20
20.4998640983
  0
LWPOLYLINE
  5
347
100
AcDbEntity
  8
ASSI
100
AcDbPolyline
 62
253
  6
CONTINUOUS
 90
10
 70
0
 10
12.1788488707
 20
20.5339724414
 10
12.1658983854
 20
20.52712813
 10
12.1521924468
 20
20.5210231271
 10
12.1377310549
 20
20.5156574326
 10
12.1223820306
 20
20.510998626
 10
12.1062775529
 20
20.5070791278
 10
12.0898141592
 20
20.5039961998
 10
12.0731240282
 20
20.5017822624
 10
12.0560749811
 20
20.5004048953
 10
12.0386670178
 20
20.4998640983
  0
LWPOLYLINE
  5
348
100
AcDbEntity
  8
RACCORDO
100
AcDbPolyline
 62
253
  6
CONTINUOUS
 90
10
 70
0
 10
12.3909728277
 20
20.1665629707
 10
12.3589312128
 20
20.14976464
 10
12.3245198023
 20
20.1346256895
 10
12.2879947057
 20
20.1212578864
 10
12.2496277576
 20
20.1097589933
 10
12.2097045114
 20
20.1002145657
 10
12.168522116
 20
20.0926973185
 10
12.1263870808
 20
20.0872632295
 10
12.0836129915
 20
20.0839511318
 10
12.0405181955
 20
20.0827849485
  0
LWPOLYLINE
  5
349
100
AcDbEntity
  8
ASSI
100
AcDbPolyline
 62
253
  6
CONTINUOUS
 90
10
 70
0
 10
12.3909728277
 20
20.1665629707
 10
12.3589312128
 20
20.14976464
 10
12.3245198023
 20
20.1346256895
 10
12.2879947057
 20
20.1212578864
 10
12.2496277576
 20
20.1097589933
 10
12.2097045114
 20
20.1002145657
 10
12.168522116
 20
20.0926973185
 10
12.1263870808
 20
20.0872632295
 10
12.0836129915
 20
20.0839511318
 10
12.0405181955
 20
20.0827849485
  0
LWPOLYLINE
  5
34A
100
AcDbEntity
  8
RACCORDO
100
AcDbPolyline
 62
7
  6
CONTINUOUS
 90
10
 70
0
 10
12.3909728277
 20
19.4276934405
 10
12.3586506949
 20
19.4109070746
 10
12.3244112554
 20
19.3959553276
 10
12.2882545092
 20
19.3828381992
 10
12.2498298042
 20
19.3714724222
 10
12.2094877925
 20
19.361941264
 10
12.1682804302
 20
19.3544945266
 10
12.1265583692
 20
19.3492154775
 10
12.0839709577
 20
19.3460208493
 10
12.0405181955
 20
19.344910642
  0
LWPOLYLINE
  5
34B
100
AcDbEntity
  8
ASSI
100
AcDbPolyline
 62
7
  6
CONTINUOUS
 90
10
 70
0
 10
12.3909728277
 20
19.4276934405
 10
12.3586506949
 20
19.4109070746
 10
12.3244112554
 20
19.3959553276
 10
12.2882545092
 20
19.3828381992
 10
12.2498298042
 20
19.3714724222
 10
12.2094877925
 20
19.361941264
 10
12.1682804302
 20
19.3544945266
 10
12.1265583692
 20
19.3492154775
 10
12.0839709577
 20
19.3460208493
 10
12.0405181955
 20
19.344910642
  0
LINE
  5
34C
100
AcDbEntity
  8
CURVE
100
AcDbLine
 62
253
  6
CONTINUOUS
 10
-19.2295403678
 20
-18.9924459293
 11
-19.2361312806
 21
-18.99428172
  0
LINE
  5
34D
100
AcDbEntity
  8
CURVE
100
AcDbLine
 62
253
  6
CONTINUOUS
 10
-19.455524483
 20
-18.5497405421
 11
-19.4489266554
 21
-18.5479101625
  0
LINE
  5
34E
100
AcDbEntity
  8
0
100
AcDbLine
 62
253
  6
CONTINUOUS
 10
8.3161629811
 20
-17.299796273
 11
7.8918989124
 21
-17.054831517
  0
LWPOLYLINE
  5
34F
100
AcDbEntity
  8
RACCORDO
100
AcDbPolyline
 62
253
  6
CONTINUOUS
 90
10
 70
0
 10
-8.9940300111
 20
-28.1087897853
 10
-9.0880449331
 20
-25.1204541536
 10
-9.1585623396
 20
-22.1181981616
 10
-9.2055769032
 20
-19.1022525833
 10
-9.2290850845
 20
-16.0728456962
 10
-9.2290850419
 20
-13.0302139334
 10
-9.2055769032
 20
-9.9746020229
 10
-9.1585627596
 20
-6.9062486635
 10
-9.0880463944
 20
-3.8253863507
 10
-8.9940333818
 20
-0.732252138
  0
LWPOLYLINE
  5
350
100
AcDbEntity
  8
ASSI
100
AcDbPolyline
 62
253
  6
CONTINUOUS
 90
10
 70
0
 10
-8.9940333772
 20
-28.108694364
 10
-9.0880463925
 20
-25.1204008887
 10
-9.158562759
 20
-22.1181767566
 10
-9.2055769032
 20
-19.1022525848
 10
-9.229085042
 20
-16.0728565015
 10
-9.2290850845
 20
-13.0302247894
 10
-9.2055769032
 20
-9.9746020243
 10
-9.1585623396
 20
-6.9062267645
 10
-9.0880449331
 20
-3.8253313758
 10
-8.9940300111
 20
-0.7321527847
  0
LWPOLYLINE
  5
351
100
AcDbEntity
  8
RACCORDO
100
AcDbPolyline
 62
253
  6
CONTINUOUS
 90
4
 70
0
 10
-8.6437263184
 20
-28.102583099
 10
-8.7376927901
 20
-25.1156201849
 10
-8.8081676443
 20
-22.1152075172
 10
-8.8551508811
 20
-19.1013450958
  0
LWPOLYLINE
  5
352
100
AcDbEntity
  8
ASSI
100
AcDbPolyline
 62
253
  6
CONTINUOUS
 90
4
 70
0
 10
-8.6437263184
 20
-28.102583099
 10
-8.7376927938
 20
-25.1156199341
 10
-8.8081676499
 20
-22.1152070778
 10
-8.8551508866
 20
-19.1013445299
  0
LWPOLYLINE
  5
353
100
AcDbEntity
  8
RACCORDO
100
AcDbPolyline
 62
253
  6
CONTINUOUS
 90
5
 70
0
 10
-8.8551508811
 20
-19.1013450958
 10
-8.878642501
 20
-16.0737986904
 10
-8.8786425035
 20
-13.0328025314
 10
-8.8551508866
 20
-9.9790593096
 10
-8.8081676499
 20
-6.9128032554
  0
LWPOLYLINE
  5
354
100
AcDbEntity
  8
ASSI
100
AcDbPolyline
 62
253
  6
CONTINUOUS
 90
5
 70
0
 10
-8.8551508866
 20
-19.1013445299
 10
-8.8786425035
 20
-16.0737980596
 10
-8.878642501
 20
-13.0328018979
 10
-8.8551508811
 20
-9.9790587376
 10
-8.8081676443
 20
-6.9128028098
  0
LINE
  5
355
100
AcDbEntity
  8
DRAFT
100
AcDbLine
 62
7
  6
CONTINUOUS
 10
-9.608993922
 20
18.6473339507
 11
-9.608993922
 21
19.0179003635
  0
LINE
  5
356
100
AcDbEntity
  8
DRAFT
100
AcDbLine
 62
7
  6
CONTINUOUS
 10
-8.0350499885
 20
18.1091248625
 11
-8.0350499885
 21
17.8488108321
  0
LINE
  5
357
100
AcDbEntity
  8
RACCORDO
100
AcDbLine
 62
253
  6
CONTINUOUS
 10
-8.8081676499
 20
-6.9128032554
 11
-8.7376927938
 21
-3.8338001383
  0
LINE
  5
358
100
AcDbEntity
  8
ASSI
100
AcDbLine
 62
253
  6
CONTINUOUS
 10
-8.8081676443
 20
-6.9128028098
 11
-8.7376927901
 21
-3.8337998834
  0
LINE
  5
359
100
AcDbEntity
  8
RACCORDO
100
AcDbLine
 62
253
  6
CONTINUOUS
 10
-8.7376927938
 20
-3.8338001383
 11
-8.6437263184
 21
-0.7420499586
  0
LINE
  5
35A
100
AcDbEntity
  8
ASSI
100
AcDbLine
 62
253
  6
CONTINUOUS
 10
-8.7376927901
 20
-3.8337998834
 11
-8.6437263184
 21
-0.7420499586
  0
LWPOLYLINE
  5
35B
100
AcDbEntity
  8
RACCORDO
100
AcDbPolyline
 62
253
  6
CONTINUOUS
 90
19
 70
0
 10
-8.9940335056
 20
-0.732252061
 10
-8.9898789361
 20
-0.6685817169
 10
-8.9816852374
 20
-0.6031637361
 10
-8.9694974763
 20
-0.5363695542
 10
-8.9533823033
 20
-0.4685818351
 10
-8.9334303182
 20
-0.4001830089
 10
-8.9097543212
 20
-0.3315529372
 10
-8.8824813385
 20
-0.2630756965
 10
-8.8517657646
 20
-0.1951487866
 10
-8.8177928195
 20
-0.1281709585
 10
-8.7807550989
 20
-0.0625283972
 10
-8.7408597614
 20
0.0014085374
 10
-8.6983421222
 20
0.0632768553
 10
-8.6534388338
 20
0.1227261758
 10
-8.6064048674
 20
0.179414917
 10
-8.5575243612
 20
0.2330159043
 10
-8.5070794702
 20
0.2832244032
 10
-8.4553475296
 20
0.3297579632
 10
-8.4026191279
 20
0.3723537957
  0
LWPOLYLINE
  5
35C
100
AcDbEntity
  8
ASSI
100
AcDbPolyline
 62
253
  6
CONTINUOUS
 90
19
 70
0
 10
-8.9940300112
 20
-0.7321527847
 10
-8.9898731052
 20
-0.6685210595
 10
-8.9816805787
 20
-0.6031334794
 10
-8.9694955008
 20
-0.5363601705
 10
-8.9533815481
 20
-0.4685790609
 10
-8.9334279802
 20
-0.4001757287
 10
-8.9097499962
 20
-0.3315413213
 10
-8.882476272
 20
-0.2630637778
 10
-8.8517600287
 20
-0.195136797
 10
-8.81778651
 20
-0.1281591321
 10
-8.7807483645
 20
-0.0625170113
 10
-8.7408527506
 20
0.0014192745
 10
-8.6983349051
 20
0.063286898
 10
-8.6534312114
 20
0.1227358276
 10
-8.6063968845
 20
0.1794241147
 10
-8.5575168251
 20
0.233023795
 10
-8.5070735159
 20
0.2832300516
 10
-8.4553440844
 20
0.3297609094
 10
-8.4026191279
 20
0.3723537957
  0
LWPOLYLINE
  5
35D
100
AcDbEntity
  8
RACCORDO
100
AcDbPolyline
 62
253
  6
CONTINUOUS
 90
19
 70
0
 10
-8.6437263184
 20
-0.7420499586
 10
-8.6405288533
 20
-0.6939435125
 10
-8.6343811348
 20
-0.6450675277
 10
-8.6252831626
 20
-0.595422004
 10
-8.6131524097
 20
-0.5447112504
 10
-8.5980714033
 20
-0.493230958
 10
-8.5802877251
 20
-0.4418682
 10
-8.5597507556
 20
-0.3906231374
 10
-8.5365111144
 20
-0.3394956092
 10
-8.510968241
 20
-0.2893722059
 10
-8.4830822702
 20
-0.2402756191
 10
-8.4528930673
 20
-0.1921831572
 10
-8.4209196683
 20
-0.1459133355
 10
-8.3871273684
 20
-0.1014957961
 10
-8.3515508724
 20
-0.0589008968
 10
-8.314813331
 20
-0.0188582267
 10
-8.2771224609
 20
0.0183890179
 10
-8.2382705453
 20
0.0530840333
 10
-8.1982575843
 20
0.0852268194
  0
LWPOLYLINE
  5
35E
100
AcDbEntity
  8
ASSI
100
AcDbPolyline
 62
253
  6
CONTINUOUS
 90
19
 70
0
 10
-8.6437263184
 20
-0.7420499586
 10
-8.640527921
 20
-0.6939402581
 10
-8.6343799295
 20
-0.6450631582
 10
-8.6252823438
 20
-0.5954186588
 10
-8.6131525806
 20
-0.5447116768
 10
-8.5980732233
 20
-0.4932372954
 10
-8.5802920218
 20
-0.4418807636
 10
-8.5597594665
 20
-0.3906431857
 10
-8.5365250669
 20
-0.3395234575
 10
-8.5109851015
 20
-0.2894035145
 10
-8.4830979793
 20
-0.2403028219
 10
-8.4529052912
 20
-0.1922019145
 10
-8.4209280887
 20
-0.1459243327
 10
-8.3871317071
 20
-0.1015009816
 10
-8.3515508111
 20
-0.0589009561
 10
-8.3148104463
 20
-0.0188550808
 10
-8.2771189612
 20
0.0183930361
 10
-8.2382680072
 20
0.0530870029
 10
-8.1982575843
 20
0.0852268194
  0
LINE
  5
35F
100
AcDbEntity
  8
RACCORDO
100
AcDbLine
 62
7
  6
CONTINUOUS
 10
-8.3566414123
 20
10.7868089672
 11
-8.2414301066
 21
12.2408303575
  0
LINE
  5
360
100
AcDbEntity
  8
RACCORDO
100
AcDbLine
 62
7
  6
CONTINUOUS
 10
-8.075547422
 20
10.9280490993
 11
-7.9720409087
 21
12.2343504515
  0
LWPOLYLINE
  5
361
100
AcDbEntity
  8
RACCORDO
100
AcDbPolyline
 62
7
  6
CONTINUOUS
 90
13
 70
0
 10
-8.2414301066
 20
12.2408303575
 10
-8.240386325
 20
12.2503117995
 10
-8.2388236397
 20
12.2593260629
 10
-8.2367420506
 20
12.2678731477
 10
-8.2341296729
 20
12.2759820584
 10
-8.2309983913
 20
12.2836237905
 10
-8.2273838608
 20
12.2907113304
 10
-8.2232805576
 20
12.2972383437
 10
-8.2186940054
 20
12.3032111649
 10
-8.2136764294
 20
12.3085617837
 10
-8.2082229032
 20
12.3132830883
 10
-8.2023383532
 20
12.3173821906
 10
-8.2005401583
 20
12.3184598101
  0
LINE
  5
362
100
AcDbEntity
  8
RACCORDO
100
AcDbLine
 62
253
  6
CONTINUOUS
 10
-6.7464310756
 20
15.2571001994
 11
-6.8338342805
 21
14.8960309335
  0
LINE
  5
363
100
AcDbEntity
  8
RACCORDO
100
AcDbLine
 62
253
  6
CONTINUOUS
 10
-6.470510017
 20
15.2026430851
 11
-6.5579132218
 21
14.8415738191
  0
LINE
  5
364
100
AcDbEntity
  8
0
100
AcDbLine
 62
253
  6
CONTINUOUS
 10
-5.7150501579
 20
12.4762082446
 11
-5.627646953
 21
12.8372775105
  0
LWPOLYLINE
  5
365
100
AcDbEntity
  8
RACCORDO
100
AcDbPolyline
 62
7
  6
CONTINUOUS
 90
12
 70
0
 10
-4.3600214495
 20
13.9443922564
 10
-4.3603319739
 20
13.9432193714
 10
-4.3620884627
 20
13.938665667
 10
-4.3646766289
 20
13.9343402311
 10
-4.3680859536
 20
13.9302401766
 10
-4.3722729497
 20
13.9264178011
 10
-4.377247579
 20
13.9228766616
 10
-4.3829998796
 20
13.9196132011
 10
-4.3894564791
 20
13.9166690462
 10
-4.3965929199
 20
13.9140580724
 10
-4.4044336594
 20
13.9117664041
 10
-4.4129786977
 20
13.9097940414
  0
LINE
  5
366
100
AcDbEntity
  8
CURVE
100
AcDbLine
 62
253
  6
CONTINUOUS
 10
-19.1764635456
 20
-18.9404456152
 11
-19.1795185583
 21
-18.9473048352
  0
LINE
  5
367
100
AcDbEntity
  8
CURVE
100
AcDbLine
 62
253
  6
CONTINUOUS
 10
-19.5087393536
 20
-18.6017869043
 11
-19.5056792609
 21
-18.594925135
  0
LINE
  5
368
100
AcDbEntity
  8
CURVE
100
AcDbLine
 62
253
  6
CONTINUOUS
 10
-19.1795185583
 20
-18.9473048352
 11
-19.1829442007
 21
-18.9537744646
  0
LINE
  5
369
100
AcDbEntity
  8
CURVE
100
AcDbLine
 62
253
  6
CONTINUOUS
 10
-19.5056792609
 20
-18.594925135
 11
-19.5022481515
 21
-18.588452798
  0
LINE
  5
36A
100
AcDbEntity
  8
DRAFT
100
AcDbLine
 62
7
  6
CONTINUOUS
 10
-1.087502747
 20
9.7291008275
 11
2.0536888176
 21
11.6716608099
  0
LWPOLYLINE
  5
36B
100
AcDbEntity
  8
RACCORDO
100
AcDbPolyline
 62
7
  6
CONTINUOUS
 90
34
 70
0
 10
-3.558840692
 20
9.4199874163
 10
-3.578303496
 20
9.4080111522
 10
-3.5972066177
 20
9.3956938216
 10
-3.6155464334
 20
9.3830420965
 10
-3.6333276864
 20
9.3700561404
 10
-3.6505376224
 20
9.3567483447
 10
-3.6671484046
 20
9.3431451768
 10
-3.6831643448
 20
9.3292490479
 10
-3.6985770779
 20
9.3150729542
 10
-3.713345656
 20
9.3006639247
 10
-3.7274659128
 20
9.2860394087
 10
-3.7409465397
 20
9.2712040076
 10
-3.7537715268
 20
9.2561905507
 10
-3.765940034
 20
9.2410182602
 10
-3.7774618254
 20
9.2256938414
 10
-3.7883386082
 20
9.2102343905
 10
-3.7985715234
 20
9.1946595014
 10
-3.8081697061
 20
9.1789775766
 10
-3.8171453468
 20
9.1631903018
 10
-3.8255007848
 20
9.1473155353
 10
-3.8332426988
 20
9.131364119
 10
-3.8403859287
 20
9.1153275179
 10
-3.8469327633
 20
9.0992217244
 10
-3.8528874044
 20
9.0830596186
 10
-3.8582625803
 20
9.066827873
 10
-3.8630598066
 20
9.0505411437
 10
-3.86728134
 20
9.0342137981
 10
-3.8709358588
 20
9.0178319203
 10
-3.8740238713
 20
9.0014098729
 10
-3.8765464553
 20
8.9849626199
 10
-3.878508264
 20
8.9684770863
 10
-3.8799095802
 20
8.9519587865
 10
-3.8807495072
 20
8.9354318794
 10
-3.8810291244
 20
8.9189112909
  0
LWPOLYLINE
  5
36C
100
AcDbEntity
  8
RACCORDO
100
AcDbPolyline
 62
253
  6
CONTINUOUS
 90
112
 70
0
 10
-3.4305478791
 20
9.409533426
 10
-3.4442455243
 20
9.401109862
 10
-3.4575108099
 20
9.3924816236
 10
-3.4703437358
 20
9.3836487107
 10
-3.4827539991
 20
9.3746036996
 10
-3.4947319028
 20
9.3653540141
 10
-3.5062483557
 20
9.3559219255
 10
-3.5173019902
 20
9.3463071615
 10
-3.527894174
 20
9.3365099944
 10
-3.537999919
 20
9.3265535129
 10
-3.5476180298
 20
9.3164373808
 10
-3.5567497019
 20
9.3061619341
 10
-3.5653735332
 20
9.2957512699
 10
-3.5734883335
 20
9.2852050787
 10
-3.581095293
 20
9.2745236699
 10
-3.5881765813
 20
9.2637320685
 10
-3.5947309812
 20
9.2528299861
 10
-3.6007597099
 20
9.241817711
 10
-3.6062485878
 20
9.2307211332
 10
-3.6111963349
 20
9.2195400715
 10
-3.6156042312
 20
9.2082747071
 10
-3.6194619375
 20
9.196951473
 10
-3.6227681625
 20
9.1855702307
 10
-3.6255241975
 20
9.1741311188
 10
-3.6277235763
 20
9.1626609865
 10
-3.6293649923
 20
9.1511597705
 10
-3.6304497521
 20
9.139627534
 10
-3.6309753103
 20
9.1280913163
 10
-3.6309403533
 20
9.1165510896
 10
-3.6303461946
 20
9.1050068816
 10
-3.6291942288
 20
9.0934858147
 10
-3.6274831473
 20
9.0819879608
 10
-3.6252142587
 20
9.0705132479
 10
-3.6223928831
 20
9.0590885824
 10
-3.6190177185
 20
9.0477140661
 10
-3.6150900669
 20
9.0363895974
 10
-3.6106191546
 20
9.0251417774
 10
-3.6056037134
 20
9.0139708035
 10
-3.6000450116
 20
9.0028764784
 10
-3.5939560802
 20
8.9918848115
 10
-3.5873356628
 20
8.9809960253
 10
-3.5801850158
 20
8.9702098973
 10
-3.5725209391
 20
8.9595517695
 10
-3.5643422406
 20
8.9490219608
 10
-3.5556501124
 20
8.9386201524
 10
-3.5464649312
 20
8.9283707292
 10
-3.5367855218
 20
8.918274031
 10
-3.5266130593
 20
8.908329718
 10
-3.5159714462
 20
8.8985611563
 10
-3.5048596006
 20
8.8889687765
 10
-3.4932786043
 20
8.8795521481
 10
-3.4812556048
 20
8.8703333445
 10
-3.4687895413
 20
8.8613128134
 10
-3.4558814747
 20
8.8524901073
 10
-3.4425617348
 20
8.8438859563
 10
-3.4288293801
 20
8.8355008895
 10
-3.4146853522
 20
8.8273343779
 10
-3.4001628062
 20
8.8194055643
 10
-3.3852608259
 20
8.8117149925
 10
-3.3699803275
 20
8.8042621187
 10
-3.3543572154
 20
8.7970644544
 10
-3.3383907138
 20
8.7901226122
 10
-3.3220815985
 20
8.7834359796
 10
-3.3054681002
 20
8.7770202306
 10
-3.2885494738
 20
8.77087599
 10
-3.2713264644
 20
8.7650026332
 10
-3.2538395386
 20
8.7594139596
 10
-3.2360881072
 20
8.7541106475
 10
-3.2180727592
 20
8.7490920186
 10
-3.1998357279
 20
8.7443698378
 10
-3.1813764609
 20
8.7399447935
 10
-3.1626955107
 20
8.7358161973
 10
-3.1438367671
 20
8.7319937489
 10
-3.1247998445
 20
8.7284781736
 10
-3.1055851286
 20
8.7252687461
 10
-3.086237667
 20
8.7223729903
 10
-3.0667571184
 20
8.7197916385
 10
-3.0471438241
 20
8.7175239584
 10
-3.0274438549
 20
8.7155752767
 10
-3.0076570339
 20
8.7139463453
 10
-2.987783538
 20
8.7126364123
 10
-2.967869968
 20
8.7116485495
 10
-2.9479161999
 20
8.7109835123
 10
-2.9279223577
 20
8.7106405453
 10
-2.9079354144
 20
8.7106204534
 10
-2.8879554171
 20
8.710923995
 10
-2.8679823188
 20
8.7115504118
 10
-2.8480629511
 20
8.7124982337
 10
-2.8281974249
 20
8.713768215
 10
-2.8083856293
 20
8.7153596015
 10
-2.7886740642
 20
8.7172686594
 10
-2.7690629693
 20
8.7194961344
 10
-2.7495521048
 20
8.7220412808
 10
-2.7301872502
 20
8.724898129
 10
-2.7109687191
 20
8.7280674179
 10
-2.6918961979
 20
8.7315484085
 10
-2.673014526
 20
8.7353329138
 10
-2.6543242015
 20
8.7394216373
 10
-2.6358247262
 20
8.7438138755
 10
-2.6175594451
 20
8.7484993319
 10
-2.5995288962
 20
8.7534786929
 10
-2.5817325415
 20
8.7587512721
 10
-2.5642121114
 20
8.7643047141
 10
-2.5469681875
 20
8.7701397103
 10
-2.5300001883
 20
8.7762555692
 10
-2.5133481001
 20
8.7826378614
 10
-2.4970122604
 20
8.7892874493
 10
-2.4809923317
 20
8.7962034704
 10
-2.4653272885
 20
8.8033689075
 10
-2.4500301222
 20
8.8107780881
 10
-2.4350878414
 20
8.8184366846
 10
-2.4205004461
 20
8.8263446971
  0
LINE
  5
36D
100
AcDbEntity
  8
ASSI
100
AcDbLine
 62
7
  6
CONTINUOUS
 10
3.3858660787
 20
11.2811698802
 11
-0.7701591571
 21
8.7681426584
  0
LINE
  5
36E
100
AcDbEntity
  8
RACCORDO
100
AcDbLine
 62
7
  6
CONTINUOUS
 10
-2.1337004068
 20
10.2720819637
 11
-3.558840692
 21
9.4199874163
  0
LINE
  5
36F
100
AcDbEntity
  8
RACCORDO
100
AcDbLine
 62
253
  6
CONTINUOUS
 10
-2.0075690962
 20
10.2603356064
 11
-3.4305478791
 21
9.409533426
  0
LINE
  5
370
100
AcDbEntity
  8
RACCORDO
100
AcDbLine
 62
253
  6
CONTINUOUS
 10
21.4422419359
 20
24.2495617213
 11
14.0241548066
 21
19.9664583452
  0
LINE
  5
371
100
AcDbEntity
  8
ASSI
100
AcDbLine
 62
253
  6
CONTINUOUS
 10
21.4422419359
 20
24.2495617213
 11
14.0241548066
 21
19.9664583452
  0
LINE
  5
372
100
AcDbEntity
  8
ASSI
100
AcDbLine
 62
7
  6
CONTINUOUS
 10
3.3858660787
 20
12.4408459054
 11
2.0536888176
 21
11.6716608099
  0
LINE
  5
373
100
AcDbEntity
  8
RACCORDO
100
AcDbLine
 62
253
  6
CONTINUOUS
 10
-2.4205004461
 20
8.8263446971
 11
-0.9469627805
 21
9.6479548122
  0
LINE
  5
374
100
AcDbEntity
  8
RACCORDO
100
AcDbLine
 62
253
  6
CONTINUOUS
 10
-2.2468358535
 20
8.5183926815
 11
-0.7701591571
 21
9.3417530467
  0
LWPOLYLINE
  5
375
100
AcDbEntity
  8
RACCORDO
100
AcDbPolyline
 62
253
  6
CONTINUOUS
 90
83
 70
0
 10
-3.8800814089
 20
-29.8880229729
 10
-3.878551459
 20
-29.9033142054
 10
-3.876241523
 20
-29.9188399333
 10
-3.8731800032
 20
-29.9343222403
 10
-3.8693692915
 20
-29.9497490305
 10
-3.8648123639
 20
-29.9651082415
 10
-3.8595127925
 20
-29.980387821
 10
-3.8534747399
 20
-29.9955757683
 10
-3.8467029491
 20
-30.010660164
 10
-3.8392027183
 20
-30.0256292166
 10
-3.8309799035
 20
-30.0404712383
 10
-3.8220409269
 20
-30.0551746279
 10
-3.812392801
 20
-30.0697278425
 10
-3.8020431079
 20
-30.0841194449
 10
-3.7909999771
 20
-30.0983381384
 10
-3.7792720437
 20
-30.1123728115
 10
-3.7668684634
 20
-30.1262125079
 10
-3.7537989253
 20
-30.1398464103
 10
-3.7400736854
 20
-30.1532638138
 10
-3.7257035314
 20
-30.1664541727
 10
-3.7106997499
 20
-30.1794071328
 10
-3.69507407
 20
-30.1921125735
 10
-3.6788386879
 20
-30.2045605778
 10
-3.6620062863
 20
-30.2167414167
 10
-3.6445900768
 20
-30.2286455247
 10
-3.62660375
 20
-30.240263544
 10
-3.6080614318
 20
-30.2515863549
 10
-3.5889776154
 20
-30.2626051116
 10
-3.5693671955
 20
-30.273311214
 10
-3.5492454925
 20
-30.283696294
 10
-3.5286283014
 20
-30.2937521953
 10
-3.5075318291
 20
-30.3034710133
 10
-3.4859726426
 20
-30.3128451197
 10
-3.463967592
 20
-30.3218671917
 10
-3.4415338527
 20
-30.3305301874
 10
-3.418688953
 20
-30.3388273345
 10
-3.3954508258
 20
-30.3467521164
 10
-3.3718377358
 20
-30.3542983042
 10
-3.3478682232
 20
-30.3614599763
 10
-3.3235610227
 20
-30.3682315383
 10
-3.2989351101
 20
-30.374607704
 10
-3.2740097296
 20
-30.3805834874
 10
-3.2488044465
 20
-30.3861541948
 10
-3.2233390696
 20
-30.3913154482
 10
-3.1976335904
 20
-30.3960631987
 10
-3.1717081014
 20
-30.4003937382
 10
-3.1455828451
 20
-30.4043036857
 10
-3.1192782436
 20
-30.407789982
 10
-3.0928149404
 20
-30.4108498885
 10
-3.0662137204
 20
-30.4134810017
 10
-3.0394954574
 20
-30.4156812592
 10
-3.012681043
 20
-30.4174489427
 10
-2.985791426
 20
-30.4187826711
 10
-2.9588476275
 20
-30.4196813994
 10
-2.931870793
 20
-30.4201444198
 10
-2.9048821219
 20
-30.4201713687
 10
-2.8779027967
 20
-30.4197622279
 10
-2.8509539071
 20
-30.4189173202
 10
-2.8240565025
 20
-30.4176373059
 10
-2.7972316295
 20
-30.4159231853
 10
-2.7705003218
 20
-30.4137763007
 10
-2.7438835241
 20
-30.4111983337
 10
-2.7174020918
 20
-30.4081913036
 10
-2.6910767612
 20
-30.4047575646
 10
-2.6649281393
 20
-30.4008998035
 10
-2.6389766681
 20
-30.3966210338
 10
-2.613242717
 20
-30.3919246115
 10
-2.5877465513
 20
-30.3868142365
 10
-2.5625082068
 20
-30.381293931
 10
-2.5375473809
 20
-30.3753680097
 10
-2.5128835279
 20
-30.3690410932
 10
-2.4885359528
 20
-30.3623181323
 10
-2.4645237417
 20
-30.3552043958
 10
-2.4408656549
 20
-30.3477054391
 10
-2.4175801292
 20
-30.3398270991
 10
-2.3946855075
 20
-30.3315755745
 10
-2.3721999606
 20
-30.3229574182
 10
-2.3501413088
 20
-30.3139794805
 10
-2.3285265936
 20
-30.3046487179
 10
-2.30737233
 20
-30.2949722565
 10
-2.2866949721
 20
-30.2849575984
 10
-2.2665108707
 20
-30.2746126375
 10
-2.2468358535
 20
-30.2639454661
  0
LWPOLYLINE
  5
376
100
AcDbEntity
  8
RACCORDO
100
AcDbPolyline
 62
7
  6
CONTINUOUS
 90
81
 70
0
 10
-3.8803252904
 20
-29.8881541245
 10
-3.8797469172
 20
-29.8987917697
 10
-3.8781345915
 20
-29.9165325208
 10
-3.8758672643
 20
-29.9342890163
 10
-3.8729408449
 20
-29.952040393
 10
-3.8693532299
 20
-29.9697624154
 10
-3.8651155586
 20
-29.9873866941
 10
-3.8602176352
 20
-30.0049454303
 10
-3.8546111862
 20
-30.0225632339
 10
-3.8482521623
 20
-30.0402948945
 10
-3.8411495481
 20
-30.0580405616
 10
-3.8333293554
 20
-30.0756933289
 10
-3.824793231
 20
-30.0932254062
 10
-3.815534805
 20
-30.1106280351
 10
-3.8055841363
 20
-30.1278305512
 10
-3.7950020442
 20
-30.1447320969
 10
-3.7837432407
 20
-30.1614090363
 10
-3.7716602933
 20
-30.1780509755
 10
-3.7586314838
 20
-30.1947619847
 10
-3.7447313931
 20
-30.2113854132
 10
-3.7301042571
 20
-30.2277220447
 10
-3.7147991395
 20
-30.2437140823
 10
-3.6987768335
 20
-30.2593992269
 10
-3.6820727822
 20
-30.2747377025
 10
-3.6647200241
 20
-30.2896988706
 10
-3.6466987316
 20
-30.3042989911
 10
-3.6279629743
 20
-30.3185681594
 10
-3.6084197112
 20
-30.3325599539
 10
-3.5881573576
 20
-30.3461937454
 10
-3.5674175195
 20
-30.3593099304
 10
-3.5463441772
 20
-30.3718405266
 10
-3.5248373204
 20
-30.3838664261
 10
-3.5027834398
 20
-30.3954579721
 10
-3.4800797723
 20
-30.4066635032
 10
-3.4568434369
 20
-30.4174190839
 10
-3.4332966818
 20
-30.4276295908
 10
-3.4095592479
 20
-30.4372630482
 10
-3.3855572241
 20
-30.4463681522
 10
-3.3612322919
 20
-30.454977767
 10
-3.3365574715
 20
-30.4631068676
 10
-3.3115922326
 20
-30.4707406704
 10
-3.2864087685
 20
-30.4778647566
 10
-3.261048052
 20
-30.4844771512
 10
-3.2355070675
 20
-30.4905876124
 10
-3.2097955107
 20
-30.4962012149
 10
-3.183936336
 20
-30.5013196864
 10
-3.1579427605
 20
-30.5059466554
 10
-3.1318105079
 20
-30.5100878747
 10
-3.1055433734
 20
-30.5137462824
 10
-3.0791721238
 20
-30.5169207461
 10
-3.0527338347
 20
-30.5196105191
 10
-3.0262631829
 20
-30.5218164442
 10
-2.9997605186
 20
-30.5235425033
 10
-2.9732119807
 20
-30.524791958
 10
-2.9466242767
 20
-30.5255654123
 10
-2.9200246517
 20
-30.5258626819
 10
-2.8934300986
 20
-30.525684154
 10
-2.8668534916
 20
-30.5250300762
 10
-2.840315816
 20
-30.5239008197
 10
-2.8138460642
 20
-30.5222976019
 10
-2.7874791625
 20
-30.5202230374
 10
-2.7612133479
 20
-30.5176771767
 10
-2.735022436
 20
-30.5146556761
 10
-2.7088981897
 20
-30.5111535436
 10
-2.6828832442
 20
-30.5071720813
 10
-2.6570269235
 20
-30.5027156919
 10
-2.6313637225
 20
-30.4977882668
 10
-2.6058916484
 20
-30.4923869869
 10
-2.5806039617
 20
-30.48650633
 10
-2.5555046215
 20
-30.4801415476
 10
-2.5306236895
 20
-30.4732940944
 10
-2.5059922085
 20
-30.4659667082
 10
-2.4816122239
 20
-30.4581536256
 10
-2.4575148804
 20
-30.4498578666
 10
-2.4337702802
 20
-30.4410984897
 10
-2.4104428084
 20
-30.4318975569
 10
-2.3874941492
 20
-30.422237735
 10
-2.3648407979
 20
-30.4120749892
 10
-2.3424694555
 20
-30.4013880489
 10
-2.3204330574
 20
-30.3901857694
 10
-2.2987526399
 20
-30.3784627353
  0
LWPOLYLINE
  5
377
100
AcDbEntity
  8
RACCORDO
100
AcDbPolyline
 62
253
  6
CONTINUOUS
 90
23
 70
0
 10
-6.3397474515
 20
-30.9338989334
 10
-6.3396267243
 20
-30.9413716584
 10
-6.3392646246
 20
-30.9486960078
 10
-6.338661523
 20
-30.9558618943
 10
-6.337818065
 20
-30.9628598342
 10
-6.3367353081
 20
-30.9696797536
 10
-6.3354148578
 20
-30.9763111077
 10
-6.3338586189
 20
-30.9827444518
 10
-6.3320686492
 20
-30.9889713837
 10
-6.3300473856
 20
-30.9949834177
 10
-6.3277975797
 20
-31.00077235
 10
-6.3253223128
 20
-31.0063302347
 10
-6.3226249855
 20
-31.0116494313
 10
-6.3197092972
 20
-31.016722651
 10
-6.3165792292
 20
-31.0215429715
 10
-6.3132390564
 20
-31.02610381
 10
-6.3096933444
 20
-31.0303989309
 10
-6.3059469449
 20
-31.0344224553
 10
-6.3020049824
 20
-31.0381688787
 10
-6.297872849
 20
-31.041633076
 10
-6.2935561958
 20
-31.044810309
 10
-6.2890609259
 20
-31.0476962318
 10
-6.2879767973
 20
-31.0483331481
  0
LWPOLYLINE
  5
378
100
AcDbEntity
  8
RACCORDO
100
AcDbPolyline
 62
253
  6
CONTINUOUS
 90
200
 70
0
 10
-7.5401731477
 20
9.6425489325
 10
-7.5401282025
 20
9.6376635501
 10
-7.5400235171
 20
9.6327895001
 10
-7.5398591263
 20
9.627927082
 10
-7.5396350693
 20
9.6230765952
 10
-7.5393513887
 20
9.6182383063
 10
-7.5390081322
 20
9.6134125138
 10
-7.5386053517
 20
9.6085995161
 10
-7.5381431017
 20
9.6037995789
 10
-7.5376214427
 20
9.5990129996
 10
-7.5370404393
 20
9.5942400752
 10
-7.5364001579
 20
9.5894810704
 10
-7.5357006717
 20
9.5847362816
 10
-7.5349420577
 20
9.580006004
 10
-7.5341243942
 20
9.5752905005
 10
-7.5332477682
 20
9.5705900733
 10
-7.532312268
 20
9.5659050087
 10
-7.5313179782
 20
9.5612355446
 10
-7.5302649947
 20
9.5565819687
 10
-7.5291534196
 20
9.5519445785
 10
-7.5279833511
 20
9.5473236257
 10
-7.526754897
 20
9.5427193978
 10
-7.5254681714
 20
9.538132189
 10
-7.5241232865
 20
9.5335622605
 10
-7.5227203633
 20
9.5290099016
 10
-7.5212595272
 20
9.5244754008
 10
-7.5197409021
 20
9.519959018
 10
-7.518164621
 20
9.5154610399
 10
-7.5165308217
 20
9.5109817532
 10
-7.5148396393
 20
9.5065214162
 10
-7.513091219
 20
9.5020803133
 10
-7.5112857106
 20
9.4976587289
 10
-7.5094232606
 20
9.4932569193
 10
-7.5075040264
 20
9.4888751675
 10
-7.5055281695
 20
9.4845137544
 10
-7.5034958466
 20
9.4801729327
 10
-7.5014072307
 20
9.4758529898
 10
-7.4992624914
 20
9.4715541969
 10
-7.4970617842
 20
9.4672767812
 10
-7.4948052859
 20
9.4630210142
 10
-7.4924931833
 20
9.4587871779
 10
-7.4901256501
 20
9.4545755148
 10
-7.4877028762
 20
9.4503862966
 10
-7.4852250579
 20
9.4462197995
 10
-7.4826923842
 20
9.4420762717
 10
-7.4801050575
 20
9.4379559843
 10
-7.4774632846
 20
9.4338592081
 10
-7.4747672649
 20
9.4297861886
 10
-7.4720172123
 20
9.4257371941
 10
-7.4692133448
 20
9.4217124919
 10
-7.4663558728
 20
9.4177123257
 10
-7.4634450214
 20
9.4137369605
 10
-7.4604810198
 20
9.4097866601
 10
-7.4574640889
 20
9.4058616656
 10
-7.4543944656
 20
9.4019622393
 10
-7.4512723894
 20
9.3980886408
 10
-7.4480980894
 20
9.3942411057
 10
-7.444871818
 20
9.3904198979
 10
-7.4415938207
 20
9.386625268
 10
-7.43826432
 20
9.3828574301
 10
-7.4348835685
 20
9.3791166338
 10
-7.4314518309
 20
9.3754031373
 10
-7.4279693508
 20
9.3717171661
 10
-7.4244363937
 20
9.368058969
 10
-7.4208532322
 20
9.3644287975
 10
-7.4172201242
 20
9.3608268793
 10
-7.413537347
 20
9.3572534606
 10
-7.4098051821
 20
9.3537087875
 10
-7.4060238981
 20
9.3501930852
 10
-7.4021937821
 20
9.3467065958
 10
-7.3983151261
 20
9.3432495615
 10
-7.3943882102
 20
9.3398222056
 10
-7.3904133321
 20
9.3364247666
 10
-7.3863907936
 20
9.3330574816
 10
-7.3823208841
 20
9.3297205708
 10
-7.3782039131
 20
9.3264142692
 10
-7.3740401907
 20
9.3231388085
 10
-7.3698300114
 20
9.3198944018
 10
-7.3655736992
 20
9.316681283
 10
-7.361271569
 20
9.3134996759
 10
-7.3569239053
 20
9.3103497765
 10
-7.3525310304
 20
9.3072318066
 10
-7.3480932783
 20
9.3041459937
 10
-7.3436109547
 20
9.3010925399
 10
-7.3390843937
 20
9.2980716649
 10
-7.3345139358
 20
9.2950835891
 10
-7.3298999
 20
9.2921285144
 10
-7.3252426299
 20
9.2892066562
 10
-7.3205424746
 20
9.2863182296
 10
-7.3157997644
 20
9.2834634345
 10
-7.3110148521
 20
9.2806424812
 10
-7.3061880956
 20
9.2778555801
 10
-7.3013198371
 20
9.2751029285
 10
-7.2964104391
 20
9.2723847325
 10
-7.2914602673
 20
9.2697011965
 10
-7.2864696724
 20
9.2670525136
 10
-7.281439028
 20
9.2644388856
 10
-7.2763687061
 20
9.2618605106
 10
-7.2712590586
 20
9.2593175738
 10
-7.2661104709
 20
9.2568102733
 10
-7.2609233198
 20
9.2543388004
 10
-7.2556979472
 20
9.2519033278
 10
-7.2504347369
 20
9.2495040442
 10
-7.2451340826
 20
9.2471411402
 10
-7.2397963435
 20
9.2448147898
 10
-7.234421913
 20
9.2425251773
 10
-7.2290111909
 20
9.2402724869
 10
-7.2235645478
 20
9.2380568902
 10
-7.2180823845
 20
9.2358785661
 10
-7.2125651088
 20
9.2337376934
 10
-7.2070131052
 20
9.2316344419
 10
-7.2014267829
 20
9.229568985
 10
-7.1958065565
 20
9.2275414954
 10
-7.1901528213
 20
9.2255521394
 10
-7.1844659954
 20
9.2236010851
 10
-7.1787464993
 20
9.2216884988
 10
-7.1729947352
 20
9.2198145415
 10
-7.1672111316
 20
9.2179793764
 10
-7.1613961129
 20
9.2161831627
 10
-7.1555500789
 20
9.2144260537
 10
-7.1496734662
 20
9.2127082066
 10
-7.1437667047
 20
9.2110297747
 10
-7.1378301865
 20
9.2093909025
 10
-7.1318643485
 20
9.2077917398
 10
-7.1258696329
 20
9.2062324359
 10
-7.1198464427
 20
9.2047131322
 10
-7.1137952208
 20
9.2032339726
 10
-7.1077164158
 20
9.2017951005
 10
-7.1016104408
 20
9.2003966535
 10
-7.0954777428
 20
9.1990387694
 10
-7.0893187786
 20
9.1977215854
 10
-7.0831339781
 20
9.196445237
 10
-7.0769237971
 20
9.1952098559
 10
-7.0706886958
 20
9.1940155726
 10
-7.064429113
 20
9.1928625173
 10
-7.0581455117
 20
9.1917508157
 10
-7.0518383564
 20
9.1906805915
 10
-7.0455080909
 20
9.189651969
 10
-7.039155187
 20
9.1886650679
 10
-7.0327801113
 20
9.1877200046
 10
-7.0263833024
 20
9.1868168964
 10
-7.0199652368
 20
9.1859558562
 10
-7.0135263868
 20
9.1851369942
 10
-7.0070671864
 20
9.1843604212
 10
-7.0005881148
 20
9.1836262435
 10
-6.9940896512
 20
9.182934565
 10
-6.9875722318
 20
9.1822854915
 10
-6.9810363377
 20
9.1816791224
 10
-6.9744824553
 20
9.1811155556
 10
-6.9679110306
 20
9.1805948923
 10
-6.9613225458
 20
9.1801172251
 10
-6.9547174951
 20
9.1796826456
 10
-6.9480963437
 20
9.1792912504
 10
-6.9414595827
 20
9.1789431256
 10
-6.9348077061
 20
9.1786383555
 10
-6.9281411853
 20
9.1783770306
 10
-6.9214605166
 20
9.1781592302
 10
-6.9147661968
 20
9.1779850315
 10
-6.9080586996
 20
9.1778545187
 10
-6.901338528
 20
9.177767764
 10
-6.8946061798
 20
9.1777248376
 10
-6.8878621221
 20
9.1777258175
 10
-6.8811068601
 20
9.1777707689
 10
-6.8743408962
 20
9.1778597551
 10
-6.8675646956
 20
9.1779928485
 10
-6.860778768
 20
9.1781701073
 10
-6.8539836175
 20
9.1783915877
 10
-6.8471797019
 20
9.1786573572
 10
-6.8403675273
 20
9.1789674673
 10
-6.833547607
 20
9.1793219673
 10
-6.8267204099
 20
9.1797209188
 10
-6.8198864422
 20
9.1801643667
 10
-6.8130462222
 20
9.1806523531
 10
-6.8062002386
 20
9.1811849324
 10
-6.7993490054
 20
9.1817621419
 10
-6.7924930379
 20
9.1823840166
 10
-6.7856328279
 20
9.1830506043
 10
-6.7787688926
 20
9.183761935
 10
-6.7719017483
 20
9.1845180362
 10
-6.7650318866
 20
9.1853189496
 10
-6.758159828
 20
9.1861646973
 10
-6.7512860891
 20
9.1870552999
 10
-6.7444111558
 20
9.1879907934
 10
-6.737535549
 20
9.1889711929
 10
-6.730659788
 20
9.1899965115
 10
-6.723784357
 20
9.1910667796
 10
-6.716909783
 20
9.192182004
 10
-6.7100365815
 20
9.1933421914
 10
-6.7031652201
 20
9.1945473693
 10
-6.6962962159
 20
9.1957975394
 10
-6.6894300964
 20
9.1970926995
 10
-6.682567344
 20
9.198432869
 10
-6.6757084766
 20
9.1998180425
 10
-6.6688540225
 20
9.2012482103
 10
-6.6620044805
 20
9.2027233824
 10
-6.655160374
 20
9.2042435447
 10
-6.6483222264
 20
9.2058086809
 10
-6.641490537
 20
9.2074187941
 10
-6.6346658304
 20
9.2090738626
 10
-6.6278486288
 20
9.2107738627
  0
LWPOLYLINE
  5
379
100
AcDbEntity
  8
RACCORDO
100
AcDbPolyline
 62
253
  6
CONTINUOUS
 90
71
 70
0
 10
-6.6278486288
 20
9.2107738627
 10
-6.6210394288
 20
9.2125187915
 10
-6.614238755
 20
9.2143086194
 10
-6.6074471291
 20
9.2161433154
 10
-6.6006650429
 20
9.2180228711
 10
-6.59389302
 20
9.2199472497
 10
-6.5871315822
 20
9.2219164124
 10
-6.580381219
 20
9.223930345
 10
-6.5736424577
 20
9.2259890016
 10
-6.5669158147
 20
9.2280923374
 10
-6.560201764
 20
9.2302403366
 10
-6.5535008255
 20
9.232432948
 10
-6.5468135211
 20
9.2346701177
 10
-6.5401403267
 20
9.236951823
 10
-6.5334817611
 20
9.2392780056
 10
-6.5268383448
 20
9.2416486041
 10
-6.5202105565
 20
9.2440635886
 10
-6.5135989132
 20
9.2465228933
 10
-6.5070039339
 20
9.2490264495
 10
-6.5004260996
 20
9.2515742197
 10
-6.493865912
 20
9.2541661362
 10
-6.4873239015
 20
9.2568021174
 10
-6.4808005916
 20
9.2594821011
 10
-6.4742964867
 20
9.2622060098
 10
-6.4678121092
 20
9.2649737553
 10
-6.4613480078
 20
9.2677852545
 10
-6.4549046392
 20
9.2706404421
 10
-6.4484825671
 20
9.273539201
 10
-6.4420824968
 20
9.2764813632
 10
-6.4357046624
 20
9.2794669592
 10
-6.4293498404
 20
9.2824957565
 10
-6.4230195343
 20
9.2855671708
 10
-6.4167145108
 20
9.2886809439
 10
-6.4104349768
 20
9.2918370805
 10
-6.40418158
 20
9.295035369
 10
-6.3979548628
 20
9.2982756438
 10
-6.3917552423
 20
9.3015577996
 10
-6.385583173
 20
9.3048817094
 10
-6.3794391283
 20
9.3082472331
 10
-6.3733235828
 20
9.3116542266
 10
-6.3672369896
 20
9.3151025545
 10
-6.3611798113
 20
9.3185920724
 10
-6.3551525206
 20
9.3221226267
 10
-6.3491555828
 20
9.3256940645
 10
-6.3431894581
 20
9.3293062319
 10
-6.3372546075
 20
9.3329589708
 10
-6.3313514936
 20
9.3366521183
 10
-6.3254805711
 20
9.3403855124
 10
-6.3196422919
 20
9.344158989
 10
-6.3138371107
 20
9.3479723782
 10
-6.3080654756
 20
9.3518255103
 10
-6.3023278297
 20
9.3557182152
 10
-6.2966246162
 20
9.3596503183
 10
-6.2909562748
 20
9.3636216436
 10
-6.285323241
 20
9.3676320139
 10
-6.2797259474
 20
9.3716812498
 10
-6.2741648249
 20
9.3757691691
 10
-6.2686403016
 20
9.3798955876
 10
-6.2631528016
 20
9.3840603194
 10
-6.2577027475
 20
9.3882631761
 10
-6.2522905587
 20
9.3925039667
 10
-6.2469166509
 20
9.3967824992
 10
-6.2415814377
 20
9.4010985786
 10
-6.2362853299
 20
9.4054520078
 10
-6.2310287343
 20
9.4098425887
 10
-6.2258120557
 20
9.4142701198
 10
-6.2206356957
 20
9.4187343981
 10
-6.2155000508
 20
9.4232352198
 10
-6.2104055161
 20
9.4277723784
 10
-6.2053524843
 20
9.4323456639
 10
-6.2003413445
 20
9.4369548652
  0
LINE
  5
37A
100
AcDbEntity
  8
RACCORDO
100
AcDbLine
 62
7
  6
CONTINUOUS
 10
-7.5941777814
 20
19.5693871954
 11
-7.5941777814
 21
19.3395190072
  0
LINE
  5
37B
100
AcDbEntity
  8
RACCORDO
100
AcDbLine
 62
7
  6
CONTINUOUS
 10
-7.5401750461
 20
9.0123439203
 11
-7.5401750461
 21
9.6437905489
  0
LINE
  5
37C
100
AcDbEntity
  8
ASSI
100
AcDbLine
 62
253
  6
CONTINUOUS
 10
-6.6972858318
 20
18.4470408638
 11
-6.6972858318
 21
17.9957845516
  0
LINE
  5
37D
100
AcDbEntity
  8
0
100
AcDbLine
 62
7
  6
CONTINUOUS
 10
-6.639145441
 20
11.4647533136
 11
-6.639145441
 21
11.7096943966
  0
LINE
  5
37E
100
AcDbEntity
  8
ASSI
100
AcDbLine
 62
7
  6
CONTINUOUS
 10
-6.4106776314
 20
18.6347983832
 11
-6.4106776314
 21
18.0544577142
  0
LINE
  5
37F
100
AcDbEntity
  8
0
100
AcDbLine
 62
7
  6
CONTINUOUS
 10
-6.3563027285
 20
11.6280631509
 11
-6.3563027285
 21
11.873004234
  0
LINE
  5
380
100
AcDbEntity
  8
RACCORDO
100
AcDbLine
 62
253
  6
CONTINUOUS
 10
-6.3397474515
 20
5.018450035
 11
-6.3397474515
 21
2.413292439
  0
LINE
  5
381
100
AcDbEntity
  8
RACCORDO
100
AcDbLine
 62
253
  6
CONTINUOUS
 10
-6.3397474515
 20
-28.3287413373
 11
-6.3397474515
 21
-30.9338989334
  0
LINE
  5
382
100
AcDbEntity
  8
RACCORDO
100
AcDbLine
 62
253
  6
CONTINUOUS
 10
-6.2003413445
 20
8.6917325184
 11
-6.2003413445
 21
9.4369548652
  0
LINE
  5
383
100
AcDbEntity
  8
0
100
AcDbLine
 62
253
  6
CONTINUOUS
 10
-6.1441706942
 20
12.240427695
 11
-6.1441706942
 21
12.5670158057
  0
LINE
  5
384
100
AcDbEntity
  8
RACCORDO
100
AcDbLine
 62
253
  6
CONTINUOUS
 10
-5.9893061636
 20
5.0166842371
 11
-5.9893061636
 21
2.4097764221
  0
LINE
  5
385
100
AcDbEntity
  8
RACCORDO
100
AcDbLine
 62
253
  6
CONTINUOUS
 10
-5.9893061636
 20
-28.3287569164
 11
-5.9893061636
 21
-30.9356647313
  0
LINE
  5
386
100
AcDbEntity
  8
RACCORDO
100
AcDbLine
 62
7
  6
CONTINUOUS
 10
-5.8214737905
 20
2.1157452522
 11
-5.8214737905
 21
1.8860732185
  0
LINE
  5
387
100
AcDbEntity
  8
ASSI
100
AcDbLine
 62
7
  6
CONTINUOUS
 10
-5.8214737905
 20
2.1157452522
 11
-5.8214737905
 21
1.8860732185
  0
LINE
  5
388
100
AcDbEntity
  8
RACCORDO
100
AcDbLine
 62
7
  6
CONTINUOUS
 10
-5.8214737905
 20
-27.5834623629
 11
-5.8214737905
 21
-27.8131343966
  0
LINE
  5
389
100
AcDbEntity
  8
ASSI
100
AcDbLine
 62
7
  6
CONTINUOUS
 10
-5.8214737905
 20
-27.5834623629
 11
-5.8214737905
 21
-27.8131343966
  0
LINE
  5
38A
100
AcDbEntity
  8
0
100
AcDbLine
 62
253
  6
CONTINUOUS
 10
-5.7806025616
 20
12.4503473782
 11
-5.7806025616
 21
12.7769354889
  0
LWPOLYLINE
  5
38B
100
AcDbEntity
  8
RACCORDO
100
AcDbPolyline
 62
253
  6
CONTINUOUS
 90
43
 70
0
 10
-6.3397474515
 20
5.018450035
 10
-6.3396267243
 20
5.0260621729
 10
-6.3392646246
 20
5.0338046659
 10
-6.338661523
 20
5.041666999
 10
-6.337818065
 20
5.0496389431
 10
-6.3367353081
 20
5.057709203
 10
-6.3354148578
 20
5.06586538
 10
-6.3338586189
 20
5.0740958298
 10
-6.3320686492
 20
5.0823897738
 10
-6.3300473856
 20
5.0907359123
 10
-6.3277975797
 20
5.0991228641
 10
-6.3253223128
 20
5.107539125
 10
-6.3226249855
 20
5.1159731275
 10
-6.3197092972
 20
5.1244133109
 10
-6.3165792292
 20
5.1328481555
 10
-6.3132390564
 20
5.1412661418
 10
-6.3096933444
 20
5.1496557621
 10
-6.3059469449
 20
5.1580055348
 10
-6.3020049824
 20
5.1663040377
 10
-6.297872849
 20
5.1745399191
 10
-6.2935561958
 20
5.1827019149
 10
-6.2890609259
 20
5.1907788627
 10
-6.284393187
 20
5.1987597157
 10
-6.2795593638
 20
5.2066335566
 10
-6.2745660684
 20
5.2143896138
 10
-6.2694201305
 20
5.2220172785
 10
-6.2641285885
 20
5.2295061174
 10
-6.2586986805
 20
5.2368458862
 10
-6.2531378334
 20
5.2440265452
 10
-6.2474536533
 20
5.2510382727
 10
-6.2416539155
 20
5.2578714768
 10
-6.2357465527
 20
5.2645168111
 10
-6.2297396452
 20
5.2709651857
 10
-6.2236414098
 20
5.2772077796
 10
-6.2174601879
 20
5.2832360539
 10
-6.2112044341
 20
5.2890417631
 10
-6.2048827052
 20
5.2946169657
 10
-6.1985036471
 20
5.2999540368
 10
-6.1920759862
 20
5.3050456752
 10
-6.1856085179
 20
5.3098849139
 10
-6.1791100898
 20
5.3144651331
 10
-6.1725895892
 20
5.3187800693
 10
-6.166055935
 20
5.3228238209
  0
LWPOLYLINE
  5
38C
100
AcDbEntity
  8
RACCORDO
100
AcDbPolyline
 62
7
  6
CONTINUOUS
 90
8
 70
0
 10
-6.4106776404
 20
18.6349310448
 10
-6.4107072187
 20
18.6331470655
 10
-6.4111225544
 20
18.6276744083
 10
-6.4120122238
 20
18.6219170086
 10
-6.4133517943
 20
18.6159162745
 10
-6.415115643
 20
18.609689017
 10
-6.4172813145
 20
18.6032275738
 10
-6.4198256138
 20
18.5965357195
  0
LWPOLYLINE
  5
38D
100
AcDbEntity
  8
0
100
AcDbPolyline
 62
7
  6
CONTINUOUS
 90
19
 70
0
 10
-6.639145441
 20
11.7096943966
 10
-6.6371437481
 20
11.7612777717
 10
-6.6315217963
 20
11.8138313629
 10
-6.6222795855
 20
11.8673551704
 10
-6.6092923078
 20
11.9222691715
 10
-6.5926847712
 20
11.9781533888
 10
-6.5728313991
 20
12.0337478902
 10
-6.5496584589
 20
12.0890460945
 10
-6.5232396833
 20
12.1440545829
 10
-6.4941706942
 20
12.197533167
 10
-6.462391289
 20
12.2494470934
 10
-6.4279616702
 20
12.2998311154
 10
-6.3916580676
 20
12.3475493051
 10
-6.3534379113
 20
12.3925411052
 10
-6.3133437711
 20
12.4348670729
 10
-6.2722795855
 20
12.4735729524
 10
-6.2305466672
 20
12.5083406584
 10
-6.1878437034
 20
12.5394882762
 10
-6.1441706942
 20
12.5670158057
  0
LWPOLYLINE
  5
38E
100
AcDbEntity
  8
0
100
AcDbPolyline
 62
7
  6
CONTINUOUS
 90
16
 70
0
 10
-6.3563027285
 20
11.873004234
 10
-6.3550361963
 20
11.8997890727
 10
-6.3515753693
 20
11.9270176299
 10
-6.3459202478
 20
11.9546899055
 10
-6.3379615928
 20
11.9831165244
 10
-6.3278086432
 20
12.0119868617
 10
-6.315789115
 20
12.0403690429
 10
-6.3018421038
 20
12.06824714
 10
-6.286028514
 20
12.0956370809
 10
-6.2688587755
 20
12.1216547753
 10
-6.2502886386
 20
12.1462554481
 10
-6.230362353
 20
12.1694838744
 10
-6.2097230978
 20
12.1905902888
 10
-6.1885852662
 20
12.2093247694
 10
-6.1667344649
 20
12.2259372382
 10
-6.1441706942
 20
12.240427695
  0
LINE
  5
38F
100
AcDbEntity
  8
RACCORDO
100
AcDbLine
 62
253
  6
CONTINUOUS
 10
-4.4199003515
 20
14.0186467644
 11
-4.4479625244
 21
13.9027198007
  0
LINE
  5
390
100
AcDbEntity
  8
RACCORDO
100
AcDbLine
 62
253
  6
CONTINUOUS
 10
-2.4387817468
 20
14.7224519339
 11
-2.4604539201
 21
14.6329225427
  0
LWPOLYLINE
  5
391
100
AcDbEntity
  8
RACCORDO
100
AcDbPolyline
 62
7
  6
CONTINUOUS
 90
12
 70
0
 10
-2.491738995
 20
14.6878537189
 10
-2.4914284706
 20
14.689026604
 10
-2.4896719818
 20
14.6935803083
 10
-2.4870838156
 20
14.6979057442
 10
-2.4836744909
 20
14.7020057987
 10
-2.4794874948
 20
14.7058281742
 10
-2.4745128655
 20
14.7093693137
 10
-2.4687605648
 20
14.7126327742
 10
-2.4623039653
 20
14.7155769291
 10
-2.4551675246
 20
14.7181879029
 10
-2.4473267851
 20
14.7204795712
 10
-2.4387817468
 20
14.7224519339
  0
LINE
  5
392
100
AcDbEntity
  8
CURVE
100
AcDbLine
 62
253
  6
CONTINUOUS
 10
-19.1829442007
 20
-18.9537744646
 11
-19.1867338901
 21
-18.9598403069
  0
LINE
  5
393
100
AcDbEntity
  8
CURVE
100
AcDbLine
 62
253
  6
CONTINUOUS
 10
-19.5022481515
 20
-18.588452798
 11
-19.4984527094
 21
-18.5823842493
  0
LINE
  5
394
100
AcDbEntity
  8
RACCORDO
100
AcDbLine
 62
253
  6
CONTINUOUS
 10
-8.4026191279
 20
0.3723537957
 11
-5.9977415966
 21
2.1944863152
  0
LINE
  5
395
100
AcDbEntity
  8
ASSI
100
AcDbLine
 62
253
  6
CONTINUOUS
 10
-8.4026191279
 20
0.3723537957
 11
-5.9977415966
 21
2.1944863152
  0
LINE
  5
396
100
AcDbEntity
  8
RACCORDO
100
AcDbLine
 62
253
  6
CONTINUOUS
 10
2.0880494144
 20
8.741167504
 11
-0.7701591571
 21
7.0565234941
  0
LINE
  5
397
100
AcDbEntity
  8
RACCORDO
100
AcDbLine
 62
253
  6
CONTINUOUS
 10
2.5021998901
 20
7.347554732
 11
-0.7701591571
 21
5.4188081311
  0
LINE
  5
398
100
AcDbEntity
  8
RACCORDO
100
AcDbLine
 62
253
  6
CONTINUOUS
 10
17.6525397184
 20
17.8714743715
 11
25.0330330629
 21
22.1762839278
  0
LINE
  5
399
100
AcDbEntity
  8
ASSI
100
AcDbLine
 62
253
  6
CONTINUOUS
 10
17.6525397184
 20
17.8714743715
 11
25.0330330629
 21
22.1762839278
  0
LINE
  5
39A
100
AcDbEntity
  8
RACCORDO
100
AcDbLine
 62
253
  6
CONTINUOUS
 10
18.15252068
 20
17.3436621288
 11
25.5330140244
 21
21.6484716851
  0
LINE
  5
39B
100
AcDbEntity
  8
ASSI
100
AcDbLine
 62
253
  6
CONTINUOUS
 10
18.15252068
 20
17.3436621288
 11
25.5330140244
 21
21.6484716851
  0
LINE
  5
39C
100
AcDbEntity
  8
RACCORDO
100
AcDbLine
 62
253
  6
CONTINUOUS
 10
-6.166055935
 20
5.3228238209
 11
-2.8863839348
 21
7.216459051
  0
LINE
  5
39D
100
AcDbEntity
  8
RACCORDO
100
AcDbLine
 62
253
  6
CONTINUOUS
 10
-5.9893061636
 20
5.0166842371
 11
-2.2468358535
 21
7.1775325251
  0
LINE
  5
39E
100
AcDbEntity
  8
ASSI
100
AcDbLine
 62
253
  6
CONTINUOUS
 10
17.6895056808
 20
17.8318903001
 11
2.0522651833
 21
8.8031436174
  0
LINE
  5
39F
100
AcDbEntity
  8
ASSI
100
AcDbLine
 62
253
  6
CONTINUOUS
 10
18.0445056808
 20
17.457129338
 11
2.2788685131
 21
8.3542480272
  0
LINE
  5
3A0
100
AcDbEntity
  8
RACCORDO
100
AcDbLine
 62
253
  6
CONTINUOUS
 10
18.5546794227
 20
16.6471027543
 11
25.972766552
 21
20.8867979654
  0
LINE
  5
3A1
100
AcDbEntity
  8
ASSI
100
AcDbLine
 62
253
  6
CONTINUOUS
 10
18.5546794227
 20
16.6471027543
 11
25.972766552
 21
20.8867979654
  0
LWPOLYLINE
  5
3A2
100
AcDbEntity
  8
RACCORDO
100
AcDbPolyline
 62
253
  6
CONTINUOUS
 90
43
 70
0
 10
-5.9893061636
 20
5.0166842371
 10
-5.996074487
 20
5.0130476023
 10
-6.0030710722
 20
5.0095579543
 10
-6.0102863501
 20
5.0062200659
 10
-6.0177104525
 20
5.0030385021
 10
-6.0253332254
 20
5.0000176145
 10
-6.0331442434
 20
4.9971615346
 10
-6.0411328234
 20
4.9944741686
 10
-6.0492880396
 20
4.9919591921
 10
-6.0575987381
 20
4.9896200447
 10
-6.0660535525
 20
4.9874599256
 10
-6.0746409193
 20
4.9854817892
 10
-6.0833490937
 20
4.983688341
 10
-6.0921661655
 20
4.9820820339
 10
-6.1010800759
 20
4.9806650648
 10
-6.1100786333
 20
4.9794393716
 10
-6.1191495306
 20
4.9784066307
 10
-6.1282803616
 20
4.9775682546
 10
-6.1374586382
 20
4.9769253899
 10
-6.1466718074
 20
4.9764789159
 10
-6.1559072684
 20
4.9762294431
 10
-6.1651523901
 20
4.9761773129
 10
-6.174394528
 20
4.9763225964
 10
-6.1836210417
 20
4.9766650951
 10
-6.1928193124
 20
4.9772043404
 10
-6.2019767595
 20
4.9779395948
 10
-6.2110808587
 20
4.9788698528
 10
-6.2201191583
 20
4.979993842
 10
-6.2290792967
 20
4.9813100252
 10
-6.2379490194
 20
4.9828166022
 10
-6.2467161954
 20
4.9845115126
 10
-6.2553688337
 20
4.9863924382
 10
-6.2638951005
 20
4.9884568064
 10
-6.2722833343
 20
4.990701794
 10
-6.2805220628
 20
4.9931243304
 10
-6.2886000179
 20
4.9957211024
 10
-6.2965061516
 20
4.9984885584
 10
-6.3042296506
 20
5.0014229134
 10
-6.3117599517
 20
5.0045201541
 10
-6.3190867557
 20
5.0077760445
 10
-6.326200042
 20
5.0111861314
 10
-6.3330900817
 20
5.0147457511
 10
-6.3397474515
 20
5.018450035
  0
LWPOLYLINE
  5
3A3
100
AcDbEntity
  8
ASSI
100
AcDbPolyline
 62
7
  6
CONTINUOUS
 90
4
 70
0
 10
20.07232547
 20
14.8745475802
 10
20.1091638332
 20
14.8871415793
 10
20.2219783193
 20
14.9364624881
 10
20.3369782613
 20
14.9972833552
  0
LINE
  5
3A4
100
AcDbEntity
  8
0
100
AcDbLine
 62
7
  6
CONTINUOUS
 10
-4.007681349
 20
-4.5576556881
 11
-4.0228503506
 21
-4.5488972967
  0
LINE
  5
3A5
100
AcDbEntity
  8
RACCORDO
100
AcDbLine
 62
253
  6
CONTINUOUS
 10
-25.8768126584
 20
9.0156531622
 11
-8.9940333818
 21
-0.732252138
  0
LINE
  5
3A6
100
AcDbEntity
  8
ASSI
100
AcDbLine
 62
253
  6
CONTINUOUS
 10
-8.9940300111
 20
-0.7321527847
 11
-25.8768093697
 21
9.015752426
  0
LWPOLYLINE
  5
3A7
100
AcDbEntity
  8
RACCORDO
100
AcDbPolyline
 62
253
  6
CONTINUOUS
 90
8
 70
0
 10
-25.8768093668
 20
9.0157524495
 10
-25.8981513832
 20
9.0296954343
 10
-25.9161805851
 20
9.0449769618
 10
-25.9305952904
 20
9.0613413266
 10
-25.9411542981
 20
9.078514704
 10
-25.9476809244
 20
9.0962097321
 10
-25.9500659596
 20
9.1141303203
 10
-25.9500378726
 20
9.1178235574
  0
LWPOLYLINE
  5
3A8
100
AcDbEntity
  8
ASSI
100
AcDbPolyline
 62
253
  6
CONTINUOUS
 90
8
 70
0
 10
-25.8768093666
 20
9.0157524496
 10
-25.8981513829
 20
9.0296954344
 10
-25.9161805849
 20
9.0449769619
 10
-25.9305952902
 20
9.0613413266
 10
-25.9411542979
 20
9.078514704
 10
-25.9476809242
 20
9.0962097322
 10
-25.9500659593
 20
9.1141303204
 10
-25.950038175
 20
9.1178139917
  0
LINE
  5
3A9
100
AcDbEntity
  8
0
100
AcDbLine
 62
253
  6
CONTINUOUS
 10
8.271069086
 20
-17.5138766971
 11
7.8918989124
 21
-17.0957039249
  0
LWPOLYLINE
  5
3AA
100
AcDbEntity
  8
RACCORDO
100
AcDbPolyline
 62
253
  6
CONTINUOUS
 90
85
 70
0
 10
-3.8810291244
 20
8.9189112909
 10
-3.8809099231
 20
8.9101570189
 10
-3.8801079995
 20
8.8945809319
 10
-3.8785514562
 20
8.8790239197
 10
-3.876241519
 20
8.8634981915
 10
-3.8731799981
 20
8.8480158844
 10
-3.8693692852
 20
8.8325890938
 10
-3.8648123562
 20
8.8172298821
 10
-3.8595127832
 20
8.8019503017
 10
-3.8534747291
 20
8.7867623538
 10
-3.8467029369
 20
8.771677958
 10
-3.8392027048
 20
8.7567089056
 10
-3.8309798887
 20
8.7418668838
 10
-3.8220409105
 20
8.7271634938
 10
-3.8123927826
 20
8.7126102786
 10
-3.8020430878
 20
8.6982186759
 10
-3.7909999554
 20
8.6839999824
 10
-3.7792720206
 20
8.6699653094
 10
-3.7668684387
 20
8.6561256131
 10
-3.7537988987
 20
8.6424917106
 10
-3.7400736567
 20
8.6290743068
 10
-3.7257035008
 20
8.6158839477
 10
-3.7106997175
 20
8.6029309877
 10
-3.6950740361
 20
8.5902255474
 10
-3.6788386524
 20
8.5777775433
 10
-3.6620062488
 20
8.5655967045
 10
-3.6445900371
 20
8.5536925966
 10
-3.6266037083
 20
8.5420745775
 10
-3.6080613882
 20
8.5307517669
 10
-3.5889775701
 20
8.5197330107
 10
-3.5693671484
 20
8.5090269087
 10
-3.5492454435
 20
8.4986418291
 10
-3.5286282505
 20
8.4885859282
 10
-3.5075317763
 20
8.4788671106
 10
-3.4859725878
 20
8.4694930048
 10
-3.4639675353
 20
8.4604709334
 10
-3.4415337941
 20
8.4518079383
 10
-3.4186888927
 20
8.4435107919
 10
-3.3954507639
 20
8.4355860108
 10
-3.3718376723
 20
8.4280398238
 10
-3.3478681577
 20
8.4208781524
 10
-3.3235609551
 20
8.4141065912
 10
-3.2989350407
 20
8.4077304264
 10
-3.2740096588
 20
8.4017546439
 10
-3.2488043745
 20
8.3961839376
 10
-3.2233389961
 20
8.3910226853
 10
-3.1976335148
 20
8.3862749357
 10
-3.1717080236
 20
8.3819443971
 10
-3.1455827655
 20
8.3780344507
 10
-3.1192781631
 20
8.3745481557
 10
-3.0928148597
 20
8.3714882505
 10
-3.066213639
 20
8.3688571386
 10
-3.0394953745
 20
8.3666568823
 10
-3.0126809583
 20
8.3648892001
 10
-2.9857913399
 20
8.3635554729
 10
-2.9588475406
 20
8.362656746
 10
-2.9318707055
 20
8.362193727
 10
-2.9048820333
 20
8.3621667796
 10
-2.8779027055
 20
8.3625759219
 10
-2.8509538128
 20
8.3634208312
 10
-2.8240564065
 20
8.3647008471
 10
-2.7972315343
 20
8.3664149693
 10
-2.7705002287
 20
8.3685618552
 10
-2.743883433
 20
8.3711398235
 10
-2.7174020025
 20
8.374146855
 10
-2.6910766734
 20
8.3775805953
 10
-2.664928052
 20
8.3814383578
 10
-2.6389765797
 20
8.3857171292
 10
-2.6132426266
 20
8.3904135534
 10
-2.5877464578
 20
8.3955239308
 10
-2.5625081077
 20
8.4010442393
 10
-2.5375472753
 20
8.406970164
 10
-2.5128834194
 20
8.4132970833
 10
-2.4885358484
 20
8.4200200452
 10
-2.4645236448
 20
8.4271337816
 10
-2.4408655629
 20
8.4346327387
 10
-2.4175800373
 20
8.4425110807
 10
-2.3946854133
 20
8.4507626082
 10
-2.372199864
 20
8.4593807676
 10
-2.3501412055
 20
8.4683587104
 10
-2.3285264837
 20
8.4776894786
 10
-2.3073722269
 20
8.4873659397
 10
-2.2866948924
 20
8.497380589
 10
-2.2665108257
 20
8.5077255338
 10
-2.2468358535
 20
8.5183926815
  0
LINE
  5
3AB
100
AcDbEntity
  8
RACCORDO
100
AcDbLine
 62
7
  6
CONTINUOUS
 10
-4.0228503506
 20
3.1364286571
 11
-4.0228503506
 21
-1.0684165841
  0
LINE
  5
3AC
100
AcDbEntity
  8
DRAFT
100
AcDbLine
 62
7
  6
CONTINUOUS
 10
-4.0228503506
 20
-1.0684165841
 11
-4.0228503506
 21
-22.6232318914
  0
LINE
  5
3AD
100
AcDbEntity
  8
RACCORDO
100
AcDbLine
 62
7
  6
CONTINUOUS
 10
-4.0228503506
 20
-22.6232318914
 11
-4.0228503506
 21
-26.8280771325
  0
LINE
  5
3AE
100
AcDbEntity
  8
ASSI
100
AcDbLine
 62
7
  6
CONTINUOUS
 10
-4.0228503506
 20
-26.8280771325
 11
-4.0228503506
 21
3.1364286571
  0
LINE
  5
3AF
100
AcDbEntity
  8
0
100
AcDbLine
 62
7
  6
CONTINUOUS
 10
-4.007681349
 20
-27.2042238329
 11
-4.007681349
 21
-22.6832958329
  0
LINE
  5
3B0
100
AcDbEntity
  8
0
100
AcDbLine
 62
7
  6
CONTINUOUS
 10
-4.007681349
 20
-19.1515095702
 11
-4.007681349
 21
-4.5576556881
  0
LINE
  5
3B1
100
AcDbEntity
  8
0
100
AcDbLine
 62
7
  6
CONTINUOUS
 10
-4.007681349
 20
-1.0258694254
 11
-4.007681349
 21
3.4950585746
  0
LINE
  5
3B2
100
AcDbEntity
  8
RACCORDO
100
AcDbLine
 62
7
  6
CONTINUOUS
 10
-3.8810291244
 20
7.7726674592
 11
-3.8810291244
 21
8.9189112909
  0
LINE
  5
3B3
100
AcDbEntity
  8
RACCORDO
100
AcDbLine
 62
253
  6
CONTINUOUS
 10
-2.6476969699
 20
-0.2945138372
 11
-2.6476969699
 21
-3.455127018
  0
LINE
  5
3B4
100
AcDbEntity
  8
ASSI
100
AcDbLine
 62
253
  6
CONTINUOUS
 10
-2.6476969699
 20
-0.2945138372
 11
-2.6476969699
 21
-3.455127018
  0
LINE
  5
3B5
100
AcDbEntity
  8
RACCORDO
100
AcDbLine
 62
253
  6
CONTINUOUS
 10
-2.6476969699
 20
-18.420153982
 11
-2.6476969699
 21
-21.5807671628
  0
LINE
  5
3B6
100
AcDbEntity
  8
ASSI
100
AcDbLine
 62
253
  6
CONTINUOUS
 10
-2.6476969699
 20
-18.420153982
 11
-2.6476969699
 21
-21.5807671628
  0
LINE
  5
3B7
100
AcDbEntity
  8
RACCORDO
100
AcDbLine
 62
7
  6
CONTINUOUS
 10
-2.4916991429
 20
-0.2106232541
 11
-2.4916991429
 21
-3.1888839159
  0
LINE
  5
3B8
100
AcDbEntity
  8
ASSI
100
AcDbLine
 62
7
  6
CONTINUOUS
 10
-2.4916991429
 20
-0.2106232541
 11
-2.4916991429
 21
-3.1888839159
  0
LINE
  5
3B9
100
AcDbEntity
  8
RACCORDO
100
AcDbLine
 62
7
  6
CONTINUOUS
 10
-2.4916991429
 20
-18.3362633989
 11
-2.4916991429
 21
-21.3145240607
  0
LINE
  5
3BA
100
AcDbEntity
  8
ASSI
100
AcDbLine
 62
7
  6
CONTINUOUS
 10
-2.4916991429
 20
-18.3362633989
 11
-2.4916991429
 21
-21.3145240607
  0
LINE
  5
3BB
100
AcDbEntity
  8
DRAFT
100
AcDbLine
 62
7
  6
CONTINUOUS
 10
-2.4148137687
 20
14.8640709073
 11
-2.4148137687
 21
14.603756877
  0
LINE
  5
3BC
100
AcDbEntity
  8
RACCORDO
100
AcDbLine
 62
7
  6
CONTINUOUS
 10
-2.3611494148
 20
-0.1404178351
 11
-2.3611494148
 21
-2.6138273119
  0
LINE
  5
3BD
100
AcDbEntity
  8
RACCORDO
100
AcDbLine
 62
7
  6
CONTINUOUS
 10
-2.3611494148
 20
-18.2660579799
 11
-2.3611494148
 21
-20.7394674567
  0
LINE
  5
3BE
100
AcDbEntity
  8
CURVE
100
AcDbLine
 62
253
  6
CONTINUOUS
 10
-19.1867338901
 20
-18.9598403069
 11
-19.1908799466
 21
-18.9654883009
  0
LINE
  5
3BF
100
AcDbEntity
  8
CURVE
100
AcDbLine
 62
253
  6
CONTINUOUS
 10
-19.4984527094
 20
-18.5823842493
 11
-19.4943007213
 21
-18.5767336732
  0
LINE
  5
3C0
100
AcDbEntity
  8
CURVE
100
AcDbLine
 62
253
  6
CONTINUOUS
 10
-19.4943007213
 20
-18.5767336732
 11
-19.4898011285
 21
-18.5715148737
  0
LINE
  5
3C1
100
AcDbEntity
  8
RACCORDO
100
AcDbLine
 62
253
  6
CONTINUOUS
 10
-8.1982575843
 20
0.0852268194
 11
-5.8214737905
 21
1.8860732185
  0
LINE
  5
3C2
100
AcDbEntity
  8
ASSI
100
AcDbLine
 62
253
  6
CONTINUOUS
 10
-8.1982575843
 20
0.0852268194
 11
-5.8214737905
 21
1.8860732185
  0
LINE
  5
3C3
100
AcDbEntity
  8
RACCORDO
100
AcDbLine
 62
253
  6
CONTINUOUS
 10
21.5961722119
 20
17.4686472667
 11
21.7200130608
 21
17.5440992182
  0
LINE
  5
3C4
100
AcDbEntity
  8
ASSI
100
AcDbLine
 62
253
  6
CONTINUOUS
 10
21.5961722119
 20
17.4686472667
 11
21.7200130608
 21
17.5440992182
  0
LINE
  5
3C5
100
AcDbEntity
  8
RACCORDO
100
AcDbLine
 62
7
  6
CONTINUOUS
 10
21.6038573911
 20
17.3750129233
 11
21.6577372891
 21
17.4066844922
  0
LINE
  5
3C6
100
AcDbEntity
  8
ASSI
100
AcDbLine
 62
7
  6
CONTINUOUS
 10
21.6041620764
 20
17.3751920228
 11
21.6577366126
 21
17.4066841089
  0
LINE
  5
3C7
100
AcDbEntity
  8
ASSI
100
AcDbLine
 62
253
  6
CONTINUOUS
 10
18.598942189
 20
16.4968171373
 11
2.5021998901
 21
7.2027598735
  0
LINE
  5
3C8
100
AcDbEntity
  8
ASSI
100
AcDbLine
 62
253
  6
CONTINUOUS
 10
18.7459880036
 20
16.0020092416
 11
2.5021998901
 21
6.6230495673
  0
LINE
  5
3C9
100
AcDbEntity
  8
RACCORDO
100
AcDbLine
 62
253
  6
CONTINUOUS
 10
18.7617783179
 20
15.9502167614
 11
26.1798654472
 21
20.1899119725
  0
LINE
  5
3CA
100
AcDbEntity
  8
ASSI
100
AcDbLine
 62
253
  6
CONTINUOUS
 10
18.7617783179
 20
15.9502167614
 11
26.1798654472
 21
20.1899119725
  0
LINE
  5
3CB
100
AcDbEntity
  8
RACCORDO
100
AcDbLine
 62
253
  6
CONTINUOUS
 10
-5.8214737905
 20
2.1157452522
 11
-4.0228503506
 21
3.1364286571
  0
LINE
  5
3CC
100
AcDbEntity
  8
ASSI
100
AcDbLine
 62
253
  6
CONTINUOUS
 10
-5.8214737905
 20
2.1157452522
 11
-4.0228503506
 21
3.1364286571
  0
LINE
  5
3CD
100
AcDbEntity
  8
RACCORDO
100
AcDbLine
 62
253
  6
CONTINUOUS
 10
21.7200130608
 20
17.5440992182
 11
26.1798654472
 21
20.0746064557
  0
LINE
  5
3CE
100
AcDbEntity
  8
ASSI
100
AcDbLine
 62
253
  6
CONTINUOUS
 10
21.7200130608
 20
17.5440992182
 11
26.1798654472
 21
20.0746064557
  0
LINE
  5
3CF
100
AcDbEntity
  8
RACCORDO
100
AcDbLine
 62
7
  6
CONTINUOUS
 10
21.6577882911
 20
17.4067209111
 11
26.1170719388
 21
19.9369054479
  0
LINE
  5
3D0
100
AcDbEntity
  8
ASSI
100
AcDbLine
 62
7
  6
CONTINUOUS
 10
21.6577882911
 20
17.4067209111
 11
26.1170719388
 21
19.9369054479
  0
LINE
  5
3D1
100
AcDbEntity
  8
RACCORDO
100
AcDbLine
 62
7
  6
CONTINUOUS
 10
-5.9893061636
 20
2.4097764221
 11
-4.007681349
 21
3.4950585746
  0
LWPOLYLINE
  5
3D2
100
AcDbEntity
  8
ASSI
100
AcDbPolyline
 62
7
  6
CONTINUOUS
 90
4
 70
0
 10
20.07232547
 20
10.7921961963
 10
20.1091638332
 20
10.8047901954
 10
20.2219783193
 20
10.8541111041
 10
20.3369782613
 20
10.9149319713
  0
LWPOLYLINE
  5
3D3
100
AcDbEntity
  8
ASSI
100
AcDbPolyline
 62
253
  6
CONTINUOUS
 90
13
 70
0
 10
-8.9940190134
 20
-0.732146917
 10
-8.9697234039
 20
-0.74455468
 10
-8.9428788278
 20
-0.755183107
 10
-8.9139344461
 20
-0.7638543642
 10
-8.8833745537
 20
-0.7704233647
 10
-8.8517104761
 20
-0.7747801967
 10
-8.8194720137
 20
-0.7768519623
 10
-8.7871985777
 20
-0.7766039969
 10
-8.7554301643
 20
-0.7740404493
 10
-8.7246983199
 20
-0.7692042128
 10
-8.6955172468
 20
-0.7621762066
 10
-8.6683752003
 20
-0.7530740229
 10
-8.6437263186
 20
-0.7420499584
  0
LWPOLYLINE
  5
3D4
100
AcDbEntity
  8
RACCORDO
100
AcDbPolyline
 62
253
  6
CONTINUOUS
 90
13
 70
0
 10
-8.9940200064
 20
-0.732147445
 10
-8.9697243224
 20
-0.7445552364
 10
-8.9428796555
 20
-0.7551836797
 10
-8.9139351708
 20
-0.7638549396
 10
-8.8833751676
 20
-0.7704239286
 10
-8.8517109758
 20
-0.7747807343
 10
-8.8194724008
 20
-0.776852459
 10
-8.7871988586
 20
-0.7766044384
 10
-8.7554303501
 20
-0.7740408224
 10
-8.7246984261
 20
-0.7692045055
 10
-8.6955172932
 20
-0.7621764089
 10
-8.6683752103
 20
-0.7530741268
 10
-8.6437263186
 20
-0.7420499585
  0
LINE
  5
3D5
100
AcDbEntity
  8
RACCORDO
100
AcDbLine
 62
253
  6
CONTINUOUS
 10
-25.3006830645
 20
10.1290841302
 11
-8.4026191279
 21
0.3723537957
  0
LINE
  5
3D6
100
AcDbEntity
  8
ASSI
100
AcDbLine
 62
253
  6
CONTINUOUS
 10
-8.4026191279
 20
0.3723537957
 11
-25.3006830645
 21
10.1290841302
  0
LINE
  5
3D7
100
AcDbEntity
  8
0
100
AcDbLine
 62
7
  6
CONTINUOUS
 10
-2.4916991429
 20
-2.5251622649
 11
-2.3381366705
 21
-2.6138273119
  0
LINE
  5
3D8
100
AcDbEntity
  8
0
100
AcDbLine
 62
253
  6
CONTINUOUS
 10
15.7407841836
 20
-13.0129130431
 11
15.3165201148
 21
-12.7679482871
  0
LINE
  5
3D9
100
AcDbEntity
  8
0
100
AcDbLine
 62
7
  6
CONTINUOUS
 10
-1.4176635955
 20
-3.0622168564
 11
-2.2661917329
 21
-2.5722873444
  0
LINE
  5
3DA
100
AcDbEntity
  8
0
100
AcDbLine
 62
7
  6
CONTINUOUS
 10
-4.007681349
 20
-1.0258694254
 11
-4.0228503506
 21
-1.017111034
  0
LWPOLYLINE
  5
3DB
100
AcDbEntity
  8
RACCORDO
100
AcDbPolyline
 62
253
  6
CONTINUOUS
 90
13
 70
0
 10
-8.4026191279
 20
0.3723537957
 10
-8.3797210033
 20
0.3571921961
 10
-8.3566899528
 20
0.3391649032
 10
-8.333918527
 20
0.3185791818
 10
-8.3117948518
 20
0.2957859032
 10
-8.2906960119
 20
0.2711735656
 10
-8.2709816243
 20
0.2451616722
 10
-8.2529877089
 20
0.2181935805
 10
-8.2370209616
 20
0.1907289457
 10
-8.223353526
 20
0.1632358864
 10
-8.2122183556
 20
0.1361830056
 10
-8.2038052429
 20
0.1100314037
 10
-8.1982575843
 20
0.0852268194
  0
LWPOLYLINE
  5
3DC
100
AcDbEntity
  8
ASSI
100
AcDbPolyline
 62
253
  6
CONTINUOUS
 90
13
 70
0
 10
-8.4026191279
 20
0.3723537957
 10
-8.3797210034
 20
0.357192196
 10
-8.3566899529
 20
0.3391649032
 10
-8.3339185272
 20
0.3185791818
 10
-8.311794852
 20
0.2957859032
 10
-8.2906960121
 20
0.2711735656
 10
-8.2709816244
 20
0.2451616722
 10
-8.252987709
 20
0.2181935806
 10
-8.2370209616
 20
0.1907289458
 10
-8.2233535261
 20
0.1632358865
 10
-8.2122183557
 20
0.1361830056
 10
-8.2038052429
 20
0.1100314037
 10
-8.1982575843
 20
0.0852268194
  0
LINE
  5
3DD
100
AcDbEntity
  8
0
100
AcDbLine
 62
7
  6
CONTINUOUS
 10
-2.2661917329
 20
-20.6979274892
 11
-2.2661917329
 21
-18.2149928115
  0
LINE
  5
3DE
100
AcDbEntity
  8
0
100
AcDbLine
 62
7
  6
CONTINUOUS
 10
-2.2661917329
 20
-2.5722873444
 11
-2.2661917329
 21
-0.0893526667
  0
LINE
  5
3DF
100
AcDbEntity
  8
RACCORDO
100
AcDbLine
 62
253
  6
CONTINUOUS
 10
-2.2468358535
 20
8.5183926815
 11
-2.2468358535
 21
7.1775325251
  0
LINE
  5
3E0
100
AcDbEntity
  8
RACCORDO
100
AcDbLine
 62
253
  6
CONTINUOUS
 10
-2.2468358535
 20
-28.9230853096
 11
-2.2468358535
 21
-30.2639454661
  0
LINE
  5
3E1
100
AcDbEntity
  8
0
100
AcDbLine
 62
7
  6
CONTINUOUS
 10
-1.4176635955
 20
-21.1878570012
 11
-1.4176635955
 21
-17.7586818386
  0
LINE
  5
3E2
100
AcDbEntity
  8
0
100
AcDbLine
 62
7
  6
CONTINUOUS
 10
-1.4176635955
 20
-3.0622168564
 11
-1.4176635955
 21
0.3669583062
  0
LINE
  5
3E3
100
AcDbEntity
  8
RACCORDO
100
AcDbLine
 62
7
  6
CONTINUOUS
 10
-0.7701591571
 20
9.3417530467
 11
-0.7701591571
 21
-29.4405851009
  0
LWPOLYLINE
  5
3E4
100
AcDbEntity
  8
RACCORDO
100
AcDbPolyline
 62
253
  6
CONTINUOUS
 90
21
 70
0
 10
-2.2468358535
 20
-30.2639454661
 10
-2.2469766958
 20
-30.272080242
 10
-2.2473989942
 20
-30.2800334034
 10
-2.2481020639
 20
-30.2877920503
 10
-2.2490847643
 20
-30.295343598
 10
-2.2503455016
 20
-30.3026757981
 10
-2.2518822309
 20
-30.3097767575
 10
-2.2536924595
 20
-30.3166349585
 10
-2.2557732513
 20
-30.3232392772
 10
-2.2581212312
 20
-30.3295790012
 10
-2.2607325908
 20
-30.3356438476
 10
-2.2636030944
 20
-30.341423979
 10
-2.2667280861
 20
-30.3469100202
 10
-2.2701024971
 20
-30.3520930727
 10
-2.2737208542
 20
-30.3569647296
 10
-2.2775772883
 20
-30.3615170891
 10
-2.2816655442
 20
-30.3657427672
 10
-2.2859789909
 20
-30.3696349098
 10
-2.2905106319
 20
-30.373187204
 10
-2.2952531169
 20
-30.3763938878
 10
-2.2987526399
 20
-30.3784627353
  0
LINE
  5
3E5
100
AcDbEntity
  8
CURVE
100
AcDbLine
 62
253
  6
CONTINUOUS
 10
-19.1908799466
 20
-18.9654883009
 11
-19.1953735339
 21
-18.9707047298
  0
LINE
  5
3E6
100
AcDbEntity
  8
CURVE
100
AcDbLine
 62
253
  6
CONTINUOUS
 10
-19.1953735339
 20
-18.9707047298
 11
-19.2002046305
 21
-18.9754764335
  0
LINE
  5
3E7
100
AcDbEntity
  8
CURVE
100
AcDbLine
 62
253
  6
CONTINUOUS
 10
-19.4898011285
 20
-18.5715148737
 11
-19.484964049
 21
-18.5667410639
  0
LINE
  5
3E8
100
AcDbEntity
  8
ASSI
100
AcDbLine
 62
7
  6
CONTINUOUS
 10
-3.7586978501
 20
-0.8919741571
 11
-4.0228503506
 21
-1.0684165841
  0
LINE
  5
3E9
100
AcDbEntity
  8
RACCORDO
100
AcDbLine
 62
7
  6
CONTINUOUS
 10
-4.0228503506
 20
-1.0684165841
 11
-3.7586978501
 21
-0.8919741571
  0
LWPOLYLINE
  5
3EA
100
AcDbEntity
  8
ASSI
100
AcDbPolyline
 62
7
  6
CONTINUOUS
 90
20
 70
0
 10
20.3369782613
 20
14.9972833552
 10
20.4519782033
 20
15.0692615385
 10
20.5647926893
 20
15.1502159705
 10
20.6754217194
 20
15.240146651
 10
20.7845514419
 20
15.3397502222
 10
20.8914957085
 20
15.4483300419
 10
20.9941960739
 20
15.5637961843
 10
21.0925703248
 20
15.6862820518
 10
21.1867006746
 20
15.815654242
 10
21.2747753181
 20
15.9494226206
 10
21.3566769435
 20
16.0876723511
 10
21.4325228626
 20
16.2303182702
 10
21.500853206
 20
16.3746147531
 10
21.5615223811
 20
16.5205937749
 10
21.6146759805
 20
16.6682233605
 10
21.6592909127
 20
16.8146619607
 10
21.6952017656
 20
16.9598865035
 10
21.7225739513
 20
17.1039200609
 10
21.7408806145
 20
17.2439902992
 10
21.7499461369
 20
17.3800204405
  0
LWPOLYLINE
  5
3EB
100
AcDbEntity
  8
ASSI
100
AcDbPolyline
 62
7
  6
CONTINUOUS
 90
3
 70
0
 10
20.3369782613
 20
14.1808130784
 10
20.2219783193
 20
14.1088348951
 10
20.1829360589
 20
14.0808185993
  0
LINE
  5
3EC
100
AcDbEntity
  8
RACCORDO
100
AcDbLine
 62
253
  6
CONTINUOUS
 10
21.5961722119
 20
13.3862958827
 11
21.7200130608
 21
13.4617478343
  0
LINE
  5
3ED
100
AcDbEntity
  8
ASSI
100
AcDbLine
 62
253
  6
CONTINUOUS
 10
21.5961722119
 20
13.3862958827
 11
21.7200130608
 21
13.4617478343
  0
LINE
  5
3EE
100
AcDbEntity
  8
RACCORDO
100
AcDbLine
 62
7
  6
CONTINUOUS
 10
21.6038573911
 20
13.2926615394
 11
21.6577372891
 21
13.3243331082
  0
LINE
  5
3EF
100
AcDbEntity
  8
ASSI
100
AcDbLine
 62
7
  6
CONTINUOUS
 10
21.6041620764
 20
13.2928406389
 11
21.6577366126
 21
13.3243327249
  0
LINE
  5
3F0
100
AcDbEntity
  8
DRAFT
100
AcDbLine
 62
7
  6
CONTINUOUS
 10
24.2614208969
 20
16.201705242
 11
20.9319751163
 21
14.2454768713
  0
LINE
  5
3F1
100
AcDbEntity
  8
ASSI
100
AcDbLine
 62
7
  6
CONTINUOUS
 10
24.2614208969
 20
16.201705242
 11
20.9319751163
 21
14.2454768713
  0
LINE
  5
3F2
100
AcDbEntity
  8
DRAFT
100
AcDbLine
 62
7
  6
CONTINUOUS
 10
24.2614208969
 20
16.201705242
 11
25.3220810686
 21
16.814117132
  0
LINE
  5
3F3
100
AcDbEntity
  8
ASSI
100
AcDbLine
 62
7
  6
CONTINUOUS
 10
24.2614208969
 20
16.201705242
 11
25.3220810686
 21
16.814117132
  0
LINE
  5
3F4
100
AcDbEntity
  8
RACCORDO
100
AcDbLine
 62
253
  6
CONTINUOUS
 10
25.9677253352
 20
16.4413302244
 11
21.5097402815
 21
13.911882506
  0
LINE
  5
3F5
100
AcDbEntity
  8
ASSI
100
AcDbLine
 62
253
  6
CONTINUOUS
 10
25.9677253352
 20
16.4413302244
 11
21.5097402815
 21
13.911882506
  0
LINE
  5
3F6
100
AcDbEntity
  8
RACCORDO
100
AcDbLine
 62
253
  6
CONTINUOUS
 10
26.1798654472
 20
16.0739020994
 11
21.7200130608
 21
13.5433948619
  0
LINE
  5
3F7
100
AcDbEntity
  8
ASSI
100
AcDbLine
 62
253
  6
CONTINUOUS
 10
26.1798654472
 20
16.0739020994
 11
21.7200130608
 21
13.5433948619
  0
LINE
  5
3F8
100
AcDbEntity
  8
RACCORDO
100
AcDbLine
 62
253
  6
CONTINUOUS
 10
21.7200130608
 20
13.4617478343
 11
26.1798654472
 21
15.9922550717
  0
LINE
  5
3F9
100
AcDbEntity
  8
ASSI
100
AcDbLine
 62
253
  6
CONTINUOUS
 10
21.7200130608
 20
13.4617478343
 11
26.1798654472
 21
15.9922550717
  0
LINE
  5
3FA
100
AcDbEntity
  8
RACCORDO
100
AcDbLine
 62
7
  6
CONTINUOUS
 10
21.6577882911
 20
13.3243695271
 11
26.1170719388
 21
15.8545540639
  0
LINE
  5
3FB
100
AcDbEntity
  8
ASSI
100
AcDbLine
 62
7
  6
CONTINUOUS
 10
21.6577882911
 20
13.3243695271
 11
26.1170719388
 21
15.8545540639
  0
LINE
  5
3FC
100
AcDbEntity
  8
0
100
AcDbLine
 62
7
  6
CONTINUOUS
 10
-4.007681349
 20
-1.0258694254
 11
-1.4176635955
 21
0.3669583062
  0
LWPOLYLINE
  5
3FD
100
AcDbEntity
  8
RACCORDO
100
AcDbPolyline
 62
253
  6
CONTINUOUS
 90
45
 70
0
 10
21.7200130608
 20
13.5433948619
 10
21.5963131091
 20
13.4783718322
 10
21.4744726065
 20
13.4239881111
 10
21.3544915529
 20
13.3802436988
 10
21.2357739306
 20
13.3470557471
 10
21.1189157574
 20
13.3245071042
 10
21.005705086
 20
13.3128463141
 10
20.8962600746
 20
13.312242886
 10
20.7904625651
 20
13.3225273108
 10
20.6897461352
 20
13.3434396057
 10
20.5941832643
 20
13.37510767
 10
20.5037014731
 20
13.4174036044
 10
20.4195169024
 20
13.4696837285
 10
20.3417068972
 20
13.5320644799
 10
20.2701941124
 20
13.6044294209
 10
20.2059626539
 20
13.6857855585
 10
20.1490947555
 20
13.776265651
 10
20.0995081834
 20
13.87573694
 10
20.0579403415
 20
13.9828081574
 10
20.0245032432
 20
14.0976010642
 10
19.9990848751
 20
14.2199938995
 10
19.9820866016
 20
14.3482301126
 10
19.9736422094
 20
14.4824339017
 10
19.9736179117
 20
14.6224810686
 10
19.9820137117
 20
14.7662424691
 10
19.9989630613
 20
14.9137448176
 10
20.0243325086
 20
15.0649613997
 10
20.0577217008
 20
15.2176829272
 10
20.0992421869
 20
15.3719148167
 10
20.1487824178
 20
15.5276516517
 10
20.2056073937
 20
15.6826678935
 10
20.2697987409
 20
15.8369241165
 10
20.3412748329
 20
15.9904597463
 10
20.419055791
 20
16.1411675218
 10
20.5032200065
 20
16.2890209282
 10
20.5936890881
 20
16.4340464802
 10
20.689247982
 20
16.5742164601
 10
20.7899698437
 20
16.7094858873
 10
20.8957815178
 20
16.8398997423
 10
21.0052484842
 20
16.9635652499
 10
21.1184825445
 20
17.0804425302
 10
21.2353718971
 20
17.1905714629
 10
21.3541466175
 20
17.2921789118
 10
21.4742167308
 20
17.3846738312
 10
21.5961722119
 20
17.4686472667
  0
LWPOLYLINE
  5
3FE
100
AcDbEntity
  8
ASSI
100
AcDbPolyline
 62
253
  6
CONTINUOUS
 90
45
 70
0
 10
21.7200130608
 20
13.5433948619
 10
21.5963131091
 20
13.4783718322
 10
21.4744726065
 20
13.4239881111
 10
21.3544915529
 20
13.3802436988
 10
21.2357739306
 20
13.3470557471
 10
21.1189157574
 20
13.3245071042
 10
21.005705086
 20
13.3128463141
 10
20.8962600746
 20
13.312242886
 10
20.7904625651
 20
13.3225273108
 10
20.6897461352
 20
13.3434396057
 10
20.5941832643
 20
13.37510767
 10
20.5037014731
 20
13.4174036044
 10
20.4195169024
 20
13.4696837285
 10
20.3417068972
 20
13.5320644799
 10
20.2701941124
 20
13.6044294209
 10
20.2059626539
 20
13.6857855585
 10
20.1490947555
 20
13.776265651
 10
20.0995081834
 20
13.87573694
 10
20.0579403415
 20
13.9828081574
 10
20.0245032432
 20
14.0976010642
 10
19.9990848751
 20
14.2199938995
 10
19.9820866016
 20
14.3482301126
 10
19.9736422094
 20
14.4824339017
 10
19.9736179117
 20
14.6224810686
 10
19.9820137117
 20
14.7662424691
 10
19.9989630613
 20
14.9137448176
 10
20.0243325086
 20
15.0649613997
 10
20.0577217008
 20
15.2176829272
 10
20.0992421869
 20
15.3719148167
 10
20.1487824178
 20
15.5276516517
 10
20.2056073937
 20
15.6826678935
 10
20.2697987409
 20
15.8369241165
 10
20.3412748329
 20
15.9904597463
 10
20.419055791
 20
16.1411675218
 10
20.5032200065
 20
16.2890209282
 10
20.5936890881
 20
16.4340464802
 10
20.689247982
 20
16.5742164601
 10
20.7899698437
 20
16.7094858873
 10
20.8957815178
 20
16.8398997423
 10
21.0052484842
 20
16.9635652499
 10
21.1184825445
 20
17.0804425302
 10
21.2353718971
 20
17.1905714629
 10
21.3541466175
 20
17.2921789118
 10
21.4742167308
 20
17.3846738312
 10
21.5961722119
 20
17.4686472667
  0
LWPOLYLINE
  5
3FF
100
AcDbEntity
  8
RACCORDO
100
AcDbPolyline
 62
253
  6
CONTINUOUS
 90
13
 70
0
 10
21.5097402815
 20
13.911882506
 10
21.4014784125
 20
13.8549826731
 10
21.2939420844
 20
13.8071683567
 10
21.1876555895
 20
13.7686347576
 10
21.0831331899
 20
13.7395333536
 10
20.980875278
 20
13.7199587411
 10
20.8813672026
 20
13.7099534861
 10
20.7850915575
 20
13.7095252042
 10
20.6924852084
 20
13.7186336864
 10
20.60394342
 20
13.7371992043
 10
20.519883314
 20
13.7651050798
 10
20.4406913309
 20
13.8021920534
 10
20.4273311304
 20
13.8096286103
  0
LWPOLYLINE
  5
400
100
AcDbEntity
  8
ASSI
100
AcDbPolyline
 62
253
  6
CONTINUOUS
 90
13
 70
0
 10
21.5097402815
 20
13.911882506
 10
21.4014784125
 20
13.8549826731
 10
21.2939420844
 20
13.8071683567
 10
21.1876555895
 20
13.7686347576
 10
21.0831331899
 20
13.7395333536
 10
20.980875278
 20
13.7199587411
 10
20.8813672026
 20
13.7099534861
 10
20.7850915575
 20
13.7095252042
 10
20.6924852084
 20
13.7186336864
 10
20.60394342
 20
13.7371992043
 10
20.519883314
 20
13.7651050798
 10
20.4406913309
 20
13.8021920534
 10
20.4272672107
 20
13.8096650741
  0
LWPOLYLINE
  5
401
100
AcDbEntity
  8
ASSI
100
AcDbPolyline
 62
7
  6
CONTINUOUS
 90
4
 70
0
 10
20.07232547
 20
6.7098448123
 10
20.1091638332
 20
6.7224388114
 10
20.2219783193
 20
6.7717597202
 10
20.3369782613
 20
6.8325805873
  0
LWPOLYLINE
  5
402
100
AcDbEntity
  8
ASSI
100
AcDbPolyline
 62
253
  6
CONTINUOUS
 90
8
 70
0
 10
-25.3006830645
 20
10.1290841302
 10
-25.3238382462
 20
10.1405130341
 10
-25.3460754086
 20
10.1486228078
 10
-25.3670155272
 20
10.1532752596
 10
-25.3863017098
 20
10.15439113
 10
-25.403605226
 20
10.1519514366
 10
-25.4186311286
 20
10.1459978279
 10
-25.4266593906
 20
10.1406079761
  0
LWPOLYLINE
  5
403
100
AcDbEntity
  8
RACCORDO
100
AcDbPolyline
 62
253
  6
CONTINUOUS
 90
8
 70
0
 10
-25.3006830645
 20
10.1290841302
 10
-25.3238383153
 20
10.1405130644
 10
-25.3460755306
 20
10.1486228448
 10
-25.3670156845
 20
10.1532752832
 10
-25.3863018861
 20
10.1543911246
 10
-25.403605404
 20
10.1519513912
 10
-25.4186312892
 20
10.1459977388
 10
-25.4266693204
 20
10.1406000189
  0
LINE
  5
404
100
AcDbEntity
  8
ASSI
100
AcDbLine
 62
7
  6
CONTINUOUS
 10
-22.9783198277
 20
11.9988593692
 11
-5.9977415966
 21
2.1944863152
  0
LINE
  5
405
100
AcDbEntity
  8
RACCORDO
100
AcDbLine
 62
7
  6
CONTINUOUS
 10
-5.9977415966
 20
2.1944863152
 11
-22.9783198277
 21
11.9988593692
  0
LINE
  5
406
100
AcDbEntity
  8
RACCORDO
100
AcDbLine
 62
7
  6
CONTINUOUS
 10
-6.3397474515
 20
2.413292439
 11
-23.343420754
 21
12.2310002978
  0
LWPOLYLINE
  5
407
100
AcDbEntity
  8
0
100
AcDbPolyline
 62
7
  6
CONTINUOUS
 90
9
 70
0
 10
7.5383456534
 20
-14.6414871888
 10
7.5811830766
 20
-14.7102750545
 10
7.6220771491
 20
-14.781105462
 10
7.6603774013
 20
-14.8528737935
 10
7.696014122
 20
-14.925507081
 10
7.7290570224
 20
-14.9990782926
 10
7.7592277895
 20
-15.0729634963
 10
7.7865272434
 20
-15.1472380853
 10
7.810954564
 20
-15.2218266665
  0
LINE
  5
408
100
AcDbEntity
  8
0
100
AcDbLine
 62
253
  6
CONTINUOUS
 10
7.9626095905
 20
-17.7440111887
 11
7.8828406379
 21
-17.60584731
  0
LINE
  5
409
100
AcDbEntity
  8
0
100
AcDbLine
 62
253
  6
CONTINUOUS
 10
8.1691171665
 20
-17.6247993478
 11
7.8918989124
 21
-17.1446432475
  0
LWPOLYLINE
  5
40A
100
AcDbEntity
  8
RACCORDO
100
AcDbPolyline
 62
253
  6
CONTINUOUS
 90
3
 70
0
 10
-4.928050525
 20
13.9005115249
 10
-4.9257314204
 20
13.8939631157
 10
-4.9218052493
 20
13.8797452456
  0
LWPOLYLINE
  5
40B
100
AcDbEntity
  8
RACCORDO
100
AcDbPolyline
 62
253
  6
CONTINUOUS
 90
7
 70
0
 10
-4.9218052493
 20
13.8797452456
 10
-4.9189612122
 20
13.865428091
 10
-4.9171914435
 20
13.8510127073
 10
-4.9165152808
 20
13.8365890414
 10
-4.9169408042
 20
13.8221572373
 10
-4.9184599337
 20
13.807717151
 10
-4.9184861031
 20
13.8075730607
  0
LINE
  5
40C
100
AcDbEntity
  8
DRAFT
100
AcDbLine
 62
7
  6
CONTINUOUS
 10
1.4925825427
 20
10.1363565562
 11
1.4925825427
 21
9.7725463791
  0
LINE
  5
40D
100
AcDbEntity
  8
RACCORDO
100
AcDbLine
 62
7
  6
CONTINUOUS
 10
2.5021998901
 20
7.347554732
 11
2.5021998901
 21
-21.4266347494
  0
LINE
  5
40E
100
AcDbEntity
  8
RACCORDO
100
AcDbLine
 62
7
  6
CONTINUOUS
 10
2.5936153893
 20
13.6870831017
 11
2.5936153893
 21
13.6865771446
  0
LINE
  5
40F
100
AcDbEntity
  8
CURVE
100
AcDbLine
 62
253
  6
CONTINUOUS
 10
-19.2002046305
 20
-18.9754764335
 11
-19.2053620342
 21
-18.9797910147
  0
LINE
  5
410
100
AcDbEntity
  8
CURVE
100
AcDbLine
 62
253
  6
CONTINUOUS
 10
-19.484964049
 20
-18.5667410639
 11
-19.4798007653
 21
-18.5624246624
  0
LINE
  5
411
100
AcDbEntity
  8
ASSI
100
AcDbLine
 62
7
  6
CONTINUOUS
 10
-2.6476969699
 20
-3.455127018
 11
-4.0228503506
 21
-4.4975917466
  0
LINE
  5
412
100
AcDbEntity
  8
RACCORDO
100
AcDbLine
 62
7
  6
CONTINUOUS
 10
-4.0228503506
 20
-4.4975917466
 11
-2.6476969699
 21
-3.455127018
  0
LWPOLYLINE
  5
413
100
AcDbEntity
  8
ASSI
100
AcDbPolyline
 62
7
  6
CONTINUOUS
 90
20
 70
0
 10
20.3369782613
 20
10.9149319713
 10
20.4519782033
 20
10.9869101546
 10
20.5647926893
 20
11.0678645865
 10
20.6754217194
 20
11.157795267
 10
20.7845514419
 20
11.2573988382
 10
20.8914957085
 20
11.365978658
 10
20.9941960739
 20
11.4814448003
 10
21.0925703248
 20
11.6039306679
 10
21.1867006746
 20
11.733302858
 10
21.2747753181
 20
11.8670712366
 10
21.3566769435
 20
12.0053209672
 10
21.4325228626
 20
12.1479668862
 10
21.500853206
 20
12.2922633692
 10
21.5615223811
 20
12.4382423909
 10
21.6146759805
 20
12.5858719766
 10
21.6592909127
 20
12.7323105768
 10
21.6952017656
 20
12.8775351196
 10
21.7225739513
 20
13.0215686769
 10
21.7408806145
 20
13.1616389152
 10
21.7499461369
 20
13.2976690565
  0
LWPOLYLINE
  5
414
100
AcDbEntity
  8
ASSI
100
AcDbPolyline
 62
7
  6
CONTINUOUS
 90
3
 70
0
 10
20.3369782613
 20
10.0984616945
 10
20.2219783193
 20
10.0264835112
 10
20.1829360589
 20
9.9984672154
  0
LINE
  5
415
100
AcDbEntity
  8
RACCORDO
100
AcDbLine
 62
7
  6
CONTINUOUS
 10
21.6038573911
 20
9.2103101554
 11
21.6577372891
 21
9.2419817243
  0
LINE
  5
416
100
AcDbEntity
  8
ASSI
100
AcDbLine
 62
7
  6
CONTINUOUS
 10
21.6041620764
 20
9.2104892549
 11
21.6577366126
 21
9.2419813409
  0
LINE
  5
417
100
AcDbEntity
  8
DRAFT
100
AcDbLine
 62
7
  6
CONTINUOUS
 10
24.2614208969
 20
12.1193538581
 11
20.9319751163
 21
10.1631254874
  0
LINE
  5
418
100
AcDbEntity
  8
ASSI
100
AcDbLine
 62
7
  6
CONTINUOUS
 10
24.2614208969
 20
12.1193538581
 11
20.9319751163
 21
10.1631254874
  0
LINE
  5
419
100
AcDbEntity
  8
0
100
AcDbLine
 62
7
  6
CONTINUOUS
 10
-2.3381366705
 20
-2.6138273119
 11
-2.2661917329
 21
-2.5722873444
  0
LINE
  5
41A
100
AcDbEntity
  8
DRAFT
100
AcDbLine
 62
7
  6
CONTINUOUS
 10
24.2614208969
 20
12.1193538581
 11
25.3220810686
 21
12.731765748
  0
LINE
  5
41B
100
AcDbEntity
  8
ASSI
100
AcDbLine
 62
7
  6
CONTINUOUS
 10
24.2614208969
 20
12.1193538581
 11
25.3220810686
 21
12.731765748
  0
LINE
  5
41C
100
AcDbEntity
  8
0
100
AcDbLine
 62
7
  6
CONTINUOUS
 10
-4.007681349
 20
-4.5576556881
 11
-1.4176635955
 21
-3.0622168564
  0
LINE
  5
41D
100
AcDbEntity
  8
RACCORDO
100
AcDbLine
 62
253
  6
CONTINUOUS
 10
25.9677253352
 20
12.3589788404
 11
21.5097402815
 21
9.8295311221
  0
LINE
  5
41E
100
AcDbEntity
  8
ASSI
100
AcDbLine
 62
253
  6
CONTINUOUS
 10
25.9677253352
 20
12.3589788404
 11
21.5097402815
 21
9.8295311221
  0
LINE
  5
41F
100
AcDbEntity
  8
RACCORDO
100
AcDbLine
 62
253
  6
CONTINUOUS
 10
26.1798654472
 20
11.9915507154
 11
21.7200130608
 21
9.461043478
  0
LINE
  5
420
100
AcDbEntity
  8
ASSI
100
AcDbLine
 62
253
  6
CONTINUOUS
 10
26.1798654472
 20
11.9915507154
 11
21.7200130608
 21
9.461043478
  0
LINE
  5
421
100
AcDbEntity
  8
RACCORDO
100
AcDbLine
 62
253
  6
CONTINUOUS
 10
21.7200130608
 20
9.3793964503
 11
26.1798654472
 21
11.9099036877
  0
LINE
  5
422
100
AcDbEntity
  8
ASSI
100
AcDbLine
 62
253
  6
CONTINUOUS
 10
21.7200130608
 20
9.3793964503
 11
26.1798654472
 21
11.9099036877
  0
LINE
  5
423
100
AcDbEntity
  8
RACCORDO
100
AcDbLine
 62
7
  6
CONTINUOUS
 10
21.6577882911
 20
9.2420181431
 11
26.1170719388
 21
11.7722026799
  0
LINE
  5
424
100
AcDbEntity
  8
ASSI
100
AcDbLine
 62
7
  6
CONTINUOUS
 10
21.6577882911
 20
9.2420181431
 11
26.1170719388
 21
11.7722026799
  0
LWPOLYLINE
  5
425
100
AcDbEntity
  8
RACCORDO
100
AcDbPolyline
 62
253
  6
CONTINUOUS
 90
45
 70
0
 10
21.7200130608
 20
9.461043478
 10
21.5963131091
 20
9.3960204482
 10
21.4744726065
 20
9.3416367271
 10
21.3544915529
 20
9.2978923148
 10
21.2357739306
 20
9.2647043631
 10
21.1189157574
 20
9.2421557202
 10
21.005705086
 20
9.2304949302
 10
20.8962600746
 20
9.229891502
 10
20.7904625651
 20
9.2401759268
 10
20.6897461352
 20
9.2610882217
 10
20.5941832643
 20
9.292756286
 10
20.5037014731
 20
9.3350522204
 10
20.4195169024
 20
9.3873323445
 10
20.3417068972
 20
9.4497130959
 10
20.2701941124
 20
9.522078037
 10
20.2059626539
 20
9.6034341746
 10
20.1490947555
 20
9.693914267
 10
20.0995081834
 20
9.793385556
 10
20.0579403415
 20
9.9004567735
 10
20.0245032432
 20
10.0152496802
 10
19.9990848751
 20
10.1376425155
 10
19.9820866016
 20
10.2658787287
 10
19.9736422094
 20
10.4000825177
 10
19.9736179117
 20
10.5401296846
 10
19.9820137117
 20
10.6838910851
 10
19.9989630613
 20
10.8313934337
 10
20.0243325086
 20
10.9826100158
 10
20.0577217008
 20
11.1353315432
 10
20.0992421869
 20
11.2895634328
 10
20.1487824178
 20
11.4453002677
 10
20.2056073937
 20
11.6003165095
 10
20.2697987409
 20
11.7545727325
 10
20.3412748329
 20
11.9081083624
 10
20.419055791
 20
12.0588161378
 10
20.5032200065
 20
12.2066695442
 10
20.5936890881
 20
12.3516950962
 10
20.689247982
 20
12.4918650762
 10
20.7899698437
 20
12.6271345033
 10
20.8957815178
 20
12.7575483584
 10
21.0052484842
 20
12.8812138659
 10
21.1184825445
 20
12.9980911462
 10
21.2353718971
 20
13.108220079
 10
21.3541466175
 20
13.2098275278
 10
21.4742167308
 20
13.3023224472
 10
21.5961722119
 20
13.3862958827
  0
LWPOLYLINE
  5
426
100
AcDbEntity
  8
ASSI
100
AcDbPolyline
 62
253
  6
CONTINUOUS
 90
45
 70
0
 10
21.7200130608
 20
9.461043478
 10
21.5963131091
 20
9.3960204482
 10
21.4744726065
 20
9.3416367271
 10
21.3544915529
 20
9.2978923148
 10
21.2357739306
 20
9.2647043631
 10
21.1189157574
 20
9.2421557202
 10
21.005705086
 20
9.2304949302
 10
20.8962600746
 20
9.229891502
 10
20.7904625651
 20
9.2401759268
 10
20.6897461352
 20
9.2610882217
 10
20.5941832643
 20
9.292756286
 10
20.5037014731
 20
9.3350522204
 10
20.4195169024
 20
9.3873323445
 10
20.3417068972
 20
9.4497130959
 10
20.2701941124
 20
9.522078037
 10
20.2059626539
 20
9.6034341746
 10
20.1490947555
 20
9.693914267
 10
20.0995081834
 20
9.793385556
 10
20.0579403415
 20
9.9004567735
 10
20.0245032432
 20
10.0152496802
 10
19.9990848751
 20
10.1376425155
 10
19.9820866016
 20
10.2658787287
 10
19.9736422094
 20
10.4000825177
 10
19.9736179117
 20
10.5401296846
 10
19.9820137117
 20
10.6838910851
 10
19.9989630613
 20
10.8313934337
 10
20.0243325086
 20
10.9826100158
 10
20.0577217008
 20
11.1353315432
 10
20.0992421869
 20
11.2895634328
 10
20.1487824178
 20
11.4453002677
 10
20.2056073937
 20
11.6003165095
 10
20.2697987409
 20
11.7545727325
 10
20.3412748329
 20
11.9081083624
 10
20.419055791
 20
12.0588161378
 10
20.5032200065
 20
12.2066695442
 10
20.5936890881
 20
12.3516950962
 10
20.689247982
 20
12.4918650762
 10
20.7899698437
 20
12.6271345033
 10
20.8957815178
 20
12.7575483584
 10
21.0052484842
 20
12.8812138659
 10
21.1184825445
 20
12.9980911462
 10
21.2353718971
 20
13.108220079
 10
21.3541466175
 20
13.2098275278
 10
21.4742167308
 20
13.3023224472
 10
21.5961722119
 20
13.3862958827
  0
LWPOLYLINE
  5
427
100
AcDbEntity
  8
RACCORDO
100
AcDbPolyline
 62
253
  6
CONTINUOUS
 90
13
 70
0
 10
21.5097402815
 20
9.8295311221
 10
21.4014784125
 20
9.7726312891
 10
21.2939420844
 20
9.7248169727
 10
21.1876555895
 20
9.6862833736
 10
21.0831331899
 20
9.6571819696
 10
20.980875278
 20
9.6376073571
 10
20.8813672026
 20
9.6276021021
 10
20.7850915575
 20
9.6271738202
 10
20.6924852084
 20
9.6362823025
 10
20.60394342
 20
9.6548478203
 10
20.519883314
 20
9.6827536959
 10
20.4406913309
 20
9.7198406694
 10
20.4273311304
 20
9.7272772264
  0
LWPOLYLINE
  5
428
100
AcDbEntity
  8
ASSI
100
AcDbPolyline
 62
253
  6
CONTINUOUS
 90
13
 70
0
 10
21.5097402815
 20
9.8295311221
 10
21.4014784125
 20
9.7726312891
 10
21.2939420844
 20
9.7248169727
 10
21.1876555895
 20
9.6862833736
 10
21.0831331899
 20
9.6571819696
 10
20.980875278
 20
9.6376073571
 10
20.8813672026
 20
9.6276021021
 10
20.7850915575
 20
9.6271738202
 10
20.6924852084
 20
9.6362823025
 10
20.60394342
 20
9.6548478203
 10
20.519883314
 20
9.6827536959
 10
20.4406913309
 20
9.7198406694
 10
20.4272672107
 20
9.7273136901
  0
LWPOLYLINE
  5
429
100
AcDbEntity
  8
RACCORDO
100
AcDbPolyline
 62
253
  6
CONTINUOUS
 90
23
 70
0
 10
-23.1697292374
 20
15.1405316797
 10
-23.1764503075
 20
15.1441366799
 10
-23.183157669
 20
15.1474537814
 10
-23.1898419439
 20
15.1504783459
 10
-23.1964937871
 20
15.1532061447
 10
-23.2031038973
 20
15.155633363
 10
-23.2096630292
 20
15.1577566059
 10
-23.2161620113
 20
15.1595729046
 10
-23.2225917576
 20
15.1610797199
 10
-23.2289432778
 20
15.1622749451
 10
-23.2352076914
 20
15.1631569091
 10
-23.2413762395
 20
15.1637243789
 10
-23.2474402966
 20
15.1639765611
 10
-23.2533913842
 20
15.1639131036
 10
-23.2592211817
 20
15.1635340951
 10
-23.2649215373
 20
15.1628400661
 10
-23.2704844812
 20
15.1618319871
 10
-23.2759022354
 20
15.1605112682
 10
-23.2811672244
 20
15.1588797565
 10
-23.2862720873
 20
15.1569397335
 10
-23.2912096867
 20
15.1546939123
 10
-23.2959731182
 20
15.1521454339
 10
-23.2981354553
 20
15.1508530048
  0
LINE
  5
42A
100
AcDbEntity
  8
RACCORDO
100
AcDbLine
 62
253
  6
CONTINUOUS
 10
-6.3397474515
 20
5.018450035
 11
-23.343420754
 21
14.8361578938
  0
LINE
  5
42B
100
AcDbEntity
  8
RACCORDO
100
AcDbLine
 62
253
  6
CONTINUOUS
 10
-6.166055935
 20
5.3228238209
 11
-23.1697292374
 21
15.1405316797
  0
LWPOLYLINE
  5
42C
100
AcDbEntity
  8
RACCORDO
100
AcDbPolyline
 62
253
  6
CONTINUOUS
 90
43
 70
0
 10
-6.166055935
 20
5.3228238209
 10
-6.1595611644
 20
5.3187981603
 10
-6.1530711587
 20
5.3144952674
 10
-6.1465949921
 20
5.309921158
 10
-6.1401417187
 20
5.3050822267
 10
-6.1337203622
 20
5.2999852395
 10
-6.1273399038
 20
5.2946373251
 10
-6.1210092652
 20
5.2890459616
 10
-6.114737297
 20
5.2832189662
 10
-6.1085327691
 20
5.2771644865
 10
-6.1024043562
 20
5.2708909878
 10
-6.0963606272
 20
5.2644072419
 10
-6.0904100331
 20
5.257722315
 10
-6.0845608936
 20
5.2508455543
 10
-6.078821387
 20
5.2437865746
 10
-6.0731995387
 20
5.2365552469
 10
-6.0677032088
 20
5.229161682
 10
-6.0623400822
 20
5.2216162176
 10
-6.0571176579
 20
5.2139294048
 10
-6.0520432374
 20
5.2061119912
 10
-6.0471239156
 20
5.1981749072
 10
-6.0423665713
 20
5.1901292521
 10
-6.0377778562
 20
5.1819862765
 10
-6.0333641851
 20
5.1737573646
 10
-6.0291317281
 20
5.1654540207
 10
-6.0250864017
 20
5.1570878526
 10
-6.0212338625
 20
5.1486705594
 10
-6.0175794979
 20
5.1402139132
 10
-6.01412842
 20
5.1317297455
 10
-6.0108854498
 20
5.1232299109
 10
-6.0078551142
 20
5.1147262737
 10
-6.0050416413
 20
5.1062306935
 10
-6.0024489769
 20
5.0977550786
 10
-6.0000807654
 20
5.0893113484
 10
-5.9979403235
 20
5.0809113499
 10
-5.9960306266
 20
5.072566784
 10
-5.9943543292
 20
5.0642892593
 10
-5.9929136888
 20
5.0560898163
 10
-5.9917108369
 20
5.0479804629
 10
-5.9907476149
 20
5.0399740414
 10
-5.9900252708
 20
5.0320821756
 10
-5.989544609
 20
5.0243153163
 10
-5.9893061636
 20
5.0166842371
  0
LINE
  5
42D
100
AcDbEntity
  8
0
100
AcDbLine
 62
253
  6
CONTINUOUS
 10
15.6956902885
 20
-13.2269934672
 11
15.3165201148
 21
-12.808820695
  0
LINE
  5
42E
100
AcDbEntity
  8
ASSI
100
AcDbLine
 62
253
  6
CONTINUOUS
 10
3.3858660787
 20
12.4408459054
 11
3.3858660787
 21
11.2811698802
  0
LINE
  5
42F
100
AcDbEntity
  8
ASSI
100
AcDbLine
 62
253
  6
CONTINUOUS
 10
3.3858660787
 20
-23.0859872192
 11
3.3858660787
 21
-24.2456632444
  0
LINE
  5
430
100
AcDbEntity
  8
ASSI
100
AcDbLine
 62
7
  6
CONTINUOUS
 10
3.6665262784
 20
12.8321123817
 11
3.6665262784
 21
11.6854974079
  0
LINE
  5
431
100
AcDbEntity
  8
ASSI
100
AcDbLine
 62
7
  6
CONTINUOUS
 10
3.6665262784
 20
-22.6881406729
 11
3.6665262784
 21
-23.8347556467
  0
LINE
  5
432
100
AcDbEntity
  8
0
100
AcDbLine
 62
7
  6
CONTINUOUS
 10
4.4270756846
 20
-19.5453065363
 11
4.4270756846
 21
-16.4378954754
  0
LWPOLYLINE
  5
433
100
AcDbEntity
  8
RACCORDO
100
AcDbPolyline
 62
253
  6
CONTINUOUS
 90
13
 70
0
 10
6.8716193328
 20
21.6194231307
 10
6.8734141613
 20
21.6522547081
 10
6.8787682208
 20
21.6866032119
 10
6.8875908777
 20
21.7218873998
 10
6.8997328111
 20
21.7575102185
 10
6.9149885287
 20
21.792868869
 10
6.9330998339
 20
21.8273650081
 10
6.953760223
 20
21.8604149319
 10
6.9766200755
 20
21.8914594357
 10
7.0012925479
 20
21.9199732405
 10
7.0273601396
 20
21.9454739122
 10
7.0543817615
 20
21.9675300191
 10
7.0819001895
 20
21.9857684183
  0
LWPOLYLINE
  5
434
100
AcDbEntity
  8
ASSI
100
AcDbPolyline
 62
253
  6
CONTINUOUS
 90
13
 70
0
 10
6.8716193328
 20
21.6194231307
 10
6.8734141613
 20
21.6522547081
 10
6.8787682208
 20
21.6866032119
 10
6.8875908777
 20
21.7218873998
 10
6.8997328111
 20
21.7575102185
 10
6.9149885287
 20
21.792868869
 10
6.9330998339
 20
21.8273650081
 10
6.953760223
 20
21.8604149319
 10
6.9766200755
 20
21.8914594357
 10
7.0012925479
 20
21.9199732405
 10
7.0273601396
 20
21.9454739122
 10
7.0543817615
 20
21.9675300191
 10
7.0819001895
 20
21.9857684183
  0
LWPOLYLINE
  5
435
100
AcDbEntity
  8
RACCORDO
100
AcDbPolyline
 62
253
  6
CONTINUOUS
 90
10
 70
0
 10
7.0233215457
 20
23.3956617168
 10
7.0240994827
 20
23.4058044826
 10
7.0263168794
 20
23.4157454588
 10
7.029973736
 20
23.4254846454
 10
7.0351245736
 20
23.4350993016
 10
7.0417148711
 20
23.4445121681
 10
7.0495810644
 20
23.4534914676
 10
7.0586686324
 20
23.4619599407
 10
7.0690320962
 20
23.4699948467
 10
7.0806714559
 20
23.4775961855
  0
LWPOLYLINE
  5
436
100
AcDbEntity
  8
ASSI
100
AcDbPolyline
 62
253
  6
CONTINUOUS
 90
10
 70
0
 10
7.0233215457
 20
23.3956617168
 10
7.0240994827
 20
23.4058044826
 10
7.0263168794
 20
23.4157454588
 10
7.029973736
 20
23.4254846454
 10
7.0351245736
 20
23.4350993016
 10
7.0417148711
 20
23.4445121681
 10
7.0495810644
 20
23.4534914676
 10
7.0586686324
 20
23.4619599407
 10
7.0690320962
 20
23.4699948467
 10
7.0806714559
 20
23.4775961855
  0
LWPOLYLINE
  5
437
100
AcDbEntity
  8
RACCORDO
100
AcDbPolyline
 62
253
  6
CONTINUOUS
 90
13
 70
0
 10
6.7251727234
 20
23.1517988072
 10
6.7277192676
 20
23.1835061789
 10
6.7353156365
 20
23.2146751633
 10
6.7478328219
 20
23.2447766163
 10
6.765058285
 20
23.273299534
 10
6.7866995495
 20
23.2997596991
 10
6.8123891547
 20
23.3237079074
 10
6.84169093
 20
23.3447376336
 10
6.8741074041
 20
23.3624919142
 10
6.909088222
 20
23.3766693869
 10
6.9460395144
 20
23.3870294238
 10
6.984333985
 20
23.3933962091
 10
7.0233215457
 20
23.3956617168
  0
LWPOLYLINE
  5
438
100
AcDbEntity
  8
ASSI
100
AcDbPolyline
 62
253
  6
CONTINUOUS
 90
13
 70
0
 10
6.7251727234
 20
23.1517988072
 10
6.7277192676
 20
23.1835061789
 10
6.7353156365
 20
23.2146751633
 10
6.7478328219
 20
23.2447766163
 10
6.765058285
 20
23.273299534
 10
6.7866995495
 20
23.2997596991
 10
6.8123891547
 20
23.3237079074
 10
6.84169093
 20
23.3447376336
 10
6.8741074041
 20
23.3624919142
 10
6.909088222
 20
23.3766693869
 10
6.9460395144
 20
23.3870294238
 10
6.984333985
 20
23.3933962091
 10
7.0233215457
 20
23.3956617168
  0
LWPOLYLINE
  5
439
100
AcDbEntity
  8
RACCORDO
100
AcDbPolyline
 62
253
  6
CONTINUOUS
 90
13
 70
0
 10
6.7251727234
 20
21.8239778135
 10
6.7277191686
 20
21.8556845837
 10
6.735315275
 20
21.8868530902
 10
6.7478320887
 20
21.916954207
 10
6.7650571206
 20
21.9454769287
 10
6.7866979533
 20
21.9719370449
 10
6.8123872056
 20
21.9958853605
 10
6.8416887689
 20
22.0169153218
 10
6.874105211
 20
22.0346699178
 10
6.9090862208
 20
22.0488477412
 10
6.94603795
 20
22.059208105
 10
6.9843330949
 20
22.0655751285
 10
7.0233215457
 20
22.0678407231
  0
LWPOLYLINE
  5
43A
100
AcDbEntity
  8
ASSI
100
AcDbPolyline
 62
253
  6
CONTINUOUS
 90
13
 70
0
 10
6.7251727234
 20
21.8239778135
 10
6.7277191686
 20
21.8556845837
 10
6.735315275
 20
21.8868530902
 10
6.7478320887
 20
21.916954207
 10
6.7650571206
 20
21.9454769287
 10
6.7866979533
 20
21.9719370449
 10
6.8123872056
 20
21.9958853605
 10
6.8416887689
 20
22.0169153218
 10
6.874105211
 20
22.0346699178
 10
6.9090862208
 20
22.0488477412
 10
6.94603795
 20
22.059208105
 10
6.9843330949
 20
22.0655751285
 10
7.0233215457
 20
22.0678407231
  0
LINE
  5
43B
100
AcDbEntity
  8
CURVE
100
AcDbLine
 62
253
  6
CONTINUOUS
 10
-19.2053620342
 20
-18.9797910147
 11
-19.2108334007
 21
-18.9836370328
  0
LINE
  5
43C
100
AcDbEntity
  8
CURVE
100
AcDbLine
 62
253
  6
CONTINUOUS
 10
-19.4798007653
 20
-18.5624246624
 11
-19.4740520645
 21
-18.5583863012
  0
LWPOLYLINE
  5
43D
100
AcDbEntity
  8
ASSI
100
AcDbPolyline
 62
7
  6
CONTINUOUS
 90
20
 70
0
 10
20.3369782613
 20
6.8325805873
 10
20.4519782033
 20
6.9045587706
 10
20.5647926893
 20
6.9855132025
 10
20.6754217194
 20
7.0754438831
 10
20.7845514419
 20
7.1750474542
 10
20.8914957085
 20
7.283627274
 10
20.9941960739
 20
7.3990934163
 10
21.0925703248
 20
7.5215792839
 10
21.1867006746
 20
7.650951474
 10
21.2747753181
 20
7.7847198526
 10
21.3566769435
 20
7.9229695832
 10
21.4325228626
 20
8.0656155023
 10
21.500853206
 20
8.2099119852
 10
21.5615223811
 20
8.355891007
 10
21.6146759805
 20
8.5035205926
 10
21.6592909127
 20
8.6499591928
 10
21.6952017656
 20
8.7951837356
 10
21.7225739513
 20
8.939217293
 10
21.7408806145
 20
9.0792875312
 10
21.7499461369
 20
9.2153176725
  0
LWPOLYLINE
  5
43E
100
AcDbEntity
  8
ASSI
100
AcDbPolyline
 62
7
  6
CONTINUOUS
 90
3
 70
0
 10
20.3369782613
 20
6.0161103105
 10
20.2219783193
 20
5.9441321272
 10
20.1829360589
 20
5.9161158314
  0
LINE
  5
43F
100
AcDbEntity
  8
RACCORDO
100
AcDbLine
 62
253
  6
CONTINUOUS
 10
21.5961722119
 20
9.3039444987
 11
21.7200130608
 21
9.3793964503
  0
LINE
  5
440
100
AcDbEntity
  8
ASSI
100
AcDbLine
 62
253
  6
CONTINUOUS
 10
21.5961722119
 20
9.3039444987
 11
21.7200130608
 21
9.3793964503
  0
LINE
  5
441
100
AcDbEntity
  8
DRAFT
100
AcDbLine
 62
7
  6
CONTINUOUS
 10
24.2614208969
 20
8.0370024741
 11
20.9319751163
 21
6.0807741034
  0
LINE
  5
442
100
AcDbEntity
  8
ASSI
100
AcDbLine
 62
7
  6
CONTINUOUS
 10
24.2614208969
 20
8.0370024741
 11
20.9319751163
 21
6.0807741034
  0
LINE
  5
443
100
AcDbEntity
  8
DRAFT
100
AcDbLine
 62
7
  6
CONTINUOUS
 10
24.2614208969
 20
8.0370024741
 11
25.3220810686
 21
8.6494143641
  0
LINE
  5
444
100
AcDbEntity
  8
ASSI
100
AcDbLine
 62
7
  6
CONTINUOUS
 10
24.2614208969
 20
8.0370024741
 11
25.3220810686
 21
8.6494143641
  0
LINE
  5
445
100
AcDbEntity
  8
RACCORDO
100
AcDbLine
 62
253
  6
CONTINUOUS
 10
25.9677253352
 20
8.2766274564
 11
21.5097402815
 21
5.7471797381
  0
LINE
  5
446
100
AcDbEntity
  8
ASSI
100
AcDbLine
 62
253
  6
CONTINUOUS
 10
25.9677253352
 20
8.2766274564
 11
21.5097402815
 21
5.7471797381
  0
LWPOLYLINE
  5
447
100
AcDbEntity
  8
RACCORDO
100
AcDbPolyline
 62
253
  6
CONTINUOUS
 90
45
 70
0
 10
21.7200130608
 20
5.378692094
 10
21.5963131091
 20
5.3136690642
 10
21.4744726065
 20
5.2592853432
 10
21.3544915529
 20
5.2155409308
 10
21.2357739306
 20
5.1823529792
 10
21.1189157574
 20
5.1598043362
 10
21.005705086
 20
5.1481435462
 10
20.8962600746
 20
5.1475401181
 10
20.7904625651
 20
5.1578245429
 10
20.6897461352
 20
5.1787368378
 10
20.5941832643
 20
5.210404902
 10
20.5037014731
 20
5.2527008365
 10
20.4195169024
 20
5.3049809606
 10
20.3417068972
 20
5.3673617119
 10
20.2701941124
 20
5.439726653
 10
20.2059626539
 20
5.5210827906
 10
20.1490947555
 20
5.6115628831
 10
20.0995081834
 20
5.711034172
 10
20.0579403415
 20
5.8181053895
 10
20.0245032432
 20
5.9328982963
 10
19.9990848751
 20
6.0552911315
 10
19.9820866016
 20
6.1835273447
 10
19.9736422094
 20
6.3177311337
 10
19.9736179117
 20
6.4577783007
 10
19.9820137117
 20
6.6015397011
 10
19.9989630613
 20
6.7490420497
 10
20.0243325086
 20
6.9002586318
 10
20.0577217008
 20
7.0529801592
 10
20.0992421869
 20
7.2072120488
 10
20.1487824178
 20
7.3629488837
 10
20.2056073937
 20
7.5179651255
 10
20.2697987409
 20
7.6722213485
 10
20.3412748329
 20
7.8257569784
 10
20.419055791
 20
7.9764647538
 10
20.5032200065
 20
8.1243181603
 10
20.5936890881
 20
8.2693437123
 10
20.689247982
 20
8.4095136922
 10
20.7899698437
 20
8.5447831194
 10
20.8957815178
 20
8.6751969744
 10
21.0052484842
 20
8.7988624819
 10
21.1184825445
 20
8.9157397622
 10
21.2353718971
 20
9.025868695
 10
21.3541466175
 20
9.1274761438
 10
21.4742167308
 20
9.2199710633
 10
21.5961722119
 20
9.3039444987
  0
LWPOLYLINE
  5
448
100
AcDbEntity
  8
ASSI
100
AcDbPolyline
 62
253
  6
CONTINUOUS
 90
45
 70
0
 10
21.7200130608
 20
5.378692094
 10
21.5963131091
 20
5.3136690642
 10
21.4744726065
 20
5.2592853432
 10
21.3544915529
 20
5.2155409308
 10
21.2357739306
 20
5.1823529792
 10
21.1189157574
 20
5.1598043362
 10
21.005705086
 20
5.1481435462
 10
20.8962600746
 20
5.1475401181
 10
20.7904625651
 20
5.1578245429
 10
20.6897461352
 20
5.1787368378
 10
20.5941832643
 20
5.210404902
 10
20.5037014731
 20
5.2527008365
 10
20.4195169024
 20
5.3049809606
 10
20.3417068972
 20
5.3673617119
 10
20.2701941124
 20
5.439726653
 10
20.2059626539
 20
5.5210827906
 10
20.1490947555
 20
5.6115628831
 10
20.0995081834
 20
5.711034172
 10
20.0579403415
 20
5.8181053895
 10
20.0245032432
 20
5.9328982963
 10
19.9990848751
 20
6.0552911315
 10
19.9820866016
 20
6.1835273447
 10
19.9736422094
 20
6.3177311337
 10
19.9736179117
 20
6.4577783007
 10
19.9820137117
 20
6.6015397011
 10
19.9989630613
 20
6.7490420497
 10
20.0243325086
 20
6.9002586318
 10
20.0577217008
 20
7.0529801592
 10
20.0992421869
 20
7.2072120488
 10
20.1487824178
 20
7.3629488837
 10
20.2056073937
 20
7.5179651255
 10
20.2697987409
 20
7.6722213485
 10
20.3412748329
 20
7.8257569784
 10
20.419055791
 20
7.9764647538
 10
20.5032200065
 20
8.1243181603
 10
20.5936890881
 20
8.2693437123
 10
20.689247982
 20
8.4095136922
 10
20.7899698437
 20
8.5447831194
 10
20.8957815178
 20
8.6751969744
 10
21.0052484842
 20
8.7988624819
 10
21.1184825445
 20
8.9157397622
 10
21.2353718971
 20
9.025868695
 10
21.3541466175
 20
9.1274761438
 10
21.4742167308
 20
9.2199710633
 10
21.5961722119
 20
9.3039444987
  0
LWPOLYLINE
  5
449
100
AcDbEntity
  8
RACCORDO
100
AcDbPolyline
 62
253
  6
CONTINUOUS
 90
13
 70
0
 10
21.5097402815
 20
5.7471797381
 10
21.4014784125
 20
5.6902799052
 10
21.2939420844
 20
5.6424655888
 10
21.1876555895
 20
5.6039319897
 10
21.0831331899
 20
5.5748305856
 10
20.980875278
 20
5.5552559732
 10
20.8813672026
 20
5.5452507182
 10
20.7850915575
 20
5.5448224363
 10
20.6924852084
 20
5.5539309185
 10
20.60394342
 20
5.5724964364
 10
20.519883314
 20
5.6004023119
 10
20.4406913309
 20
5.6374892854
 10
20.4273311304
 20
5.6449258424
  0
LWPOLYLINE
  5
44A
100
AcDbEntity
  8
ASSI
100
AcDbPolyline
 62
253
  6
CONTINUOUS
 90
13
 70
0
 10
21.5097402815
 20
5.7471797381
 10
21.4014784125
 20
5.6902799052
 10
21.2939420844
 20
5.6424655888
 10
21.1876555895
 20
5.6039319897
 10
21.0831331899
 20
5.5748305856
 10
20.980875278
 20
5.5552559732
 10
20.8813672026
 20
5.5452507182
 10
20.7850915575
 20
5.5448224363
 10
20.6924852084
 20
5.5539309185
 10
20.60394342
 20
5.5724964364
 10
20.519883314
 20
5.6004023119
 10
20.4406913309
 20
5.6374892854
 10
20.4272672107
 20
5.6449623061
  0
LWPOLYLINE
  5
44B
100
AcDbEntity
  8
ASSI
100
AcDbPolyline
 62
7
  6
CONTINUOUS
 90
4
 70
0
 10
20.07232547
 20
2.6274934283
 10
20.1091638332
 20
2.6400874274
 10
20.2219783193
 20
2.6894083362
 10
20.3369782613
 20
2.7502292033
  0
LWPOLYLINE
  5
44C
100
AcDbEntity
  8
ASSI
100
AcDbPolyline
 62
7
  6
CONTINUOUS
 90
6
 70
0
 10
20.8914957085
 20
6.2054064724
 10
20.7845514419
 20
6.1904897338
 10
20.6754217194
 20
6.1640730368
 10
20.5647926893
 20
6.1262520864
 10
20.4519782033
 20
6.0769311776
 10
20.3369782613
 20
6.0161103105
  0
LINE
  5
44D
100
AcDbEntity
  8
ASSI
100
AcDbLine
 62
7
  6
CONTINUOUS
 10
20.9941960739
 20
6.2085361378
 11
20.8914957085
 21
6.2054064724
  0
LINE
  5
44E
100
AcDbEntity
  8
0
100
AcDbLine
 62
253
  6
CONTINUOUS
 10
23.165405386
 20
-8.7260298131
 11
22.7411413173
 21
-8.4810650571
  0
LINE
  5
44F
100
AcDbEntity
  8
DRAFT
100
AcDbLine
 62
7
  6
CONTINUOUS
 10
-8.3362017158
 20
10.7750073427
 11
-13.8516346091
 21
13.9595491706
  0
LINE
  5
450
100
AcDbEntity
  8
ASSI
100
AcDbLine
 62
7
  6
CONTINUOUS
 10
-8.0462655434
 20
11.297600313
 11
-7.8765823081
 21
11.1996273395
  0
LWPOLYLINE
  5
451
100
AcDbEntity
  8
RACCORDO
100
AcDbPolyline
 62
253
  6
CONTINUOUS
 90
40
 70
0
 10
-18.5425350571
 20
18.1350054249
 10
-18.535542289
 20
18.1306588936
 10
-18.5285608632
 20
18.1259883329
 10
-18.5216021037
 20
18.1210013186
 10
-18.5146772974
 20
18.1157059395
 10
-18.5077976765
 20
18.1101107848
 10
-18.5009743998
 20
18.1042249298
 10
-18.4942185346
 20
18.0980579215
 10
-18.487541039
 20
18.0916197628
 10
-18.4809527439
 20
18.0849208962
 10
-18.4744643355
 20
18.0779721876
 10
-18.4680863381
 20
18.0707849076
 10
-18.4618290968
 20
18.0633707141
 10
-18.4557027608
 20
18.0557416329
 10
-18.4497172672
 20
18.0479100384
 10
-18.4438823243
 20
18.0398886335
 10
-18.4382073965
 20
18.0316904289
 10
-18.4327016886
 20
18.0233287222
 10
-18.4273741308
 20
18.0148170761
 10
-18.4222333645
 20
18.0061692965
 10
-18.4172877279
 20
17.9973994101
 10
-18.412545243
 20
17.9885216417
 10
-18.408013602
 20
17.9795503911
 10
-18.4037001553
 20
17.9705002097
 10
-18.3996118993
 20
17.9613857769
 10
-18.3957554652
 20
17.9522218764
 10
-18.3921371082
 20
17.943023372
 10
-18.3887626972
 20
17.9338051838
 10
-18.3856377055
 20
17.9245822636
 10
-18.3827672018
 20
17.9153695712
 10
-18.3801558423
 20
17.9061820494
 10
-18.3778078624
 20
17.8970346006
 10
-18.3757270706
 20
17.8879420619
 10
-18.3739168419
 20
17.8789191814
 10
-18.3723801127
 20
17.8699805943
 10
-18.3711193754
 20
17.8611407989
 10
-18.3701366749
 20
17.8524141336
 10
-18.3694336053
 20
17.8438147529
 10
-18.3690113068
 20
17.8353566052
 10
-18.3688704645
 20
17.8270534094
  0
LWPOLYLINE
  5
452
100
AcDbEntity
  8
0
100
AcDbPolyline
 62
7
  6
CONTINUOUS
 90
8
 70
0
 10
7.810954564
 20
-15.2218266665
 10
7.8322289786
 20
-15.2958791275
 10
7.8503014879
 20
-15.3693363103
 10
7.8652210912
 20
-15.442257373
 10
7.8768540128
 20
-15.5139696772
 10
7.885155661
 20
-15.5842490102
 10
7.8901706275
 20
-15.6533195846
 10
7.8918989124
 20
-15.7211814006
  0
LWPOLYLINE
  5
453
100
AcDbEntity
  8
RACCORDO
100
AcDbPolyline
 62
7
  6
CONTINUOUS
 90
10
 70
0
 10
6.7251727234
 20
21.0975898751
 10
6.7271936424
 20
21.0721141612
 10
6.7328750369
 20
21.0472025857
 10
6.7422169069
 20
21.0228551484
 10
6.7553495775
 20
20.9988927699
 10
6.7721427237
 20
20.9754945298
 10
6.7922053698
 20
20.9531976667
 10
6.8154071908
 20
20.9321812602
 10
6.8418785118
 20
20.9122662308
 10
6.8716193328
 20
20.8934525785
  0
LWPOLYLINE
  5
454
100
AcDbEntity
  8
ASSI
100
AcDbPolyline
 62
7
  6
CONTINUOUS
 90
10
 70
0
 10
6.7251727234
 20
21.0975898751
 10
6.7271936424
 20
21.0721141612
 10
6.7328750369
 20
21.0472025857
 10
6.7422169069
 20
21.0228551484
 10
6.7553495775
 20
20.9988927699
 10
6.7721427237
 20
20.9754945298
 10
6.7922053698
 20
20.9531976667
 10
6.8154071908
 20
20.9321812602
 10
6.8418785118
 20
20.9122662308
 10
6.8716193328
 20
20.8934525785
  0
LWPOLYLINE
  5
455
100
AcDbEntity
  8
ASSI
100
AcDbPolyline
 62
7
  6
CONTINUOUS
 90
55
 70
0
 10
7.4322795046
 20
24.3176486319
 10
7.4320656185
 20
24.3346560684
 10
7.4314288065
 20
24.3518649731
 10
7.4303690687
 20
24.3692753458
 10
7.4288847937
 20
24.38690225
 10
7.426977593
 20
24.4047306223
 10
7.4246523006
 20
24.4227152727
 10
7.421907856
 20
24.4408565976
 10
7.4187453199
 20
24.4591542007
 10
7.4151727083
 20
24.4775617025
 10
7.411188981
 20
24.4960793818
 10
7.4067951783
 20
24.5147069598
 10
7.4020024373
 20
24.5333972207
 10
7.3968097459
 20
24.5521503236
 10
7.3912181161
 20
24.5709661095
 10
7.3852417212
 20
24.5897968854
 10
7.3788795852
 20
24.6086426895
 10
7.372132684
 20
24.6275034837
 10
7.3650181193
 20
24.6463314611
 10
7.3575349583
 20
24.6651265384
 10
7.3496841338
 20
24.6838887989
 10
7.3414855454
 20
24.7025706854
 10
7.3329383108
 20
24.7211719941
 10
7.3240433124
 20
24.7396929288
 10
7.3148230965
 20
24.758086544
 10
7.305276838
 20
24.7763525168
 10
7.295405362
 20
24.7944911702
 10
7.28523369
 20
24.8124565276
 10
7.2747610604
 20
24.8302481495
 10
7.2639882347
 20
24.8478664755
 10
7.2529425191
 20
24.8652668479
 10
7.2416232214
 20
24.8824487139
 10
7.2300310338
 20
24.8994126263
 10
7.2181953392
 20
24.9161155863
 10
7.2061155201
 20
24.932556932
 10
7.193792194
 20
24.9487373253
 10
7.1812565973
 20
24.9646157534
 10
7.1685081914
 20
24.9801914502
 10
7.1555475149
 20
24.9954651818
 10
7.1424074195
 20
25.0103982335
 10
7.12908745
 20
25.024989741
 10
7.1155880616
 20
25.0392405685
 10
7.1019434715
 20
25.0531145943
 10
7.0881533113
 20
25.0666108623
 10
7.0742179495
 20
25.0797303284
 10
7.0601727083
 20
25.0924397385
 10
7.046017309
 20
25.1047380523
 10
7.0317520303
 20
25.11662631
 10
7.0174130308
 20
25.1280743781
 10
7.0030001234
 20
25.13908114
 10
6.9885134952
 20
25.1496477124
 10
6.9739898658
 20
25.1597473119
 10
6.9594414751
 20
25.1693710107
 10
6.9448560831
 20
25.1785277367
 10
6.93023369
 20
25.1872174897
  0
LINE
  5
456
100
AcDbEntity
  8
RACCORDO
100
AcDbLine
 62
7
  6
CONTINUOUS
 10
6.7251727234
 20
21.0975898751
 11
6.7251727234
 21
23.1517988072
  0
LINE
  5
457
100
AcDbEntity
  8
ASSI
100
AcDbLine
 62
7
  6
CONTINUOUS
 10
6.7251727234
 20
21.0975898751
 11
6.7251727234
 21
23.1517988072
  0
LINE
  5
458
100
AcDbEntity
  8
RACCORDO
100
AcDbLine
 62
253
  6
CONTINUOUS
 10
6.8716193328
 20
20.8934525785
 11
6.8716193328
 21
21.6194231307
  0
LINE
  5
459
100
AcDbEntity
  8
ASSI
100
AcDbLine
 62
253
  6
CONTINUOUS
 10
6.8716193328
 20
20.8934525785
 11
6.8716193328
 21
21.6194231307
  0
LINE
  5
45A
100
AcDbEntity
  8
RACCORDO
100
AcDbLine
 62
253
  6
CONTINUOUS
 10
7.0233215457
 20
22.0678407231
 11
7.0233215457
 21
23.3956617168
  0
LINE
  5
45B
100
AcDbEntity
  8
ASSI
100
AcDbLine
 62
253
  6
CONTINUOUS
 10
7.0233215457
 20
22.0678407231
 11
7.0233215457
 21
23.3956617168
  0
LINE
  5
45C
100
AcDbEntity
  8
0
100
AcDbLine
 62
7
  6
CONTINUOUS
 10
7.8211882343
 20
-15.2574482561
 11
7.8211882343
 21
-14.4781774275
  0
LINE
  5
45D
100
AcDbEntity
  8
ASSI
100
AcDbLine
 62
7
  6
CONTINUOUS
 10
7.8918989124
 20
-15.7211814006
 11
7.8918989124
 21
-17.4582426463
  0
LINE
  5
45E
100
AcDbEntity
  8
0
100
AcDbLine
 62
7
  6
CONTINUOUS
 10
8.3161629811
 20
-17.299796273
 11
8.3161629811
 21
-14.1923852121
  0
LWPOLYLINE
  5
45F
100
AcDbEntity
  8
0
100
AcDbPolyline
 62
7
  6
CONTINUOUS
 90
8
 70
0
 10
7.8918989124
 20
-17.4582426463
 10
7.8907536396
 20
-17.512190891
 10
7.88739409
 20
-17.5644822505
 10
7.8818202637
 20
-17.6151167249
 10
7.8740120817
 20
-17.6641927429
 10
7.8639896229
 20
-17.7116118759
 10
7.8518131242
 20
-17.7570788375
 10
7.8374602138
 20
-17.8006007967
  0
LWPOLYLINE
  5
460
100
AcDbEntity
  8
RACCORDO
100
AcDbPolyline
 62
253
  6
CONTINUOUS
 90
13
 70
0
 10
9.4071532388
 20
20.1554376311
 10
9.4089479776
 20
20.1882685069
 10
9.4143018251
 20
20.2226163721
 10
9.4231241891
 20
20.2579000279
 10
9.4352657868
 20
20.293522441
 10
9.4505211705
 20
20.3288808459
 10
9.4686322048
 20
20.3633769447
 10
9.4892924334
 20
20.39642703
 10
9.5121522655
 20
20.427471863
 10
9.5368248909
 20
20.4559861352
 10
9.562892825
 20
20.4814873577
 10
9.5899149734
 20
20.5035440256
 10
9.6174340954
 20
20.5217829187
  0
LWPOLYLINE
  5
461
100
AcDbEntity
  8
ASSI
100
AcDbPolyline
 62
253
  6
CONTINUOUS
 90
13
 70
0
 10
9.4071532388
 20
20.1554376311
 10
9.4089479776
 20
20.1882685069
 10
9.4143018251
 20
20.2226163721
 10
9.4231241891
 20
20.2579000279
 10
9.4352657868
 20
20.293522441
 10
9.4505211705
 20
20.3288808459
 10
9.4686322048
 20
20.3633769447
 10
9.4892924334
 20
20.39642703
 10
9.5121522655
 20
20.427471863
 10
9.5368248909
 20
20.4559861352
 10
9.562892825
 20
20.4814873577
 10
9.5899149734
 20
20.5035440256
 10
9.6174340954
 20
20.5217829187
  0
LWPOLYLINE
  5
462
100
AcDbEntity
  8
ASSI
100
AcDbPolyline
 62
7
  6
CONTINUOUS
 90
20
 70
0
 10
20.3369782613
 20
2.7502292033
 10
20.4519782033
 20
2.8222073866
 10
20.5647926893
 20
2.9031618186
 10
20.6754217194
 20
2.9930924991
 10
20.7845514419
 20
3.0926960703
 10
20.8914957085
 20
3.20127589
 10
20.9941960739
 20
3.3167420324
 10
21.0925703248
 20
3.4392278999
 10
21.1867006746
 20
3.5686000901
 10
21.2747753181
 20
3.7023684687
 10
21.3566769435
 20
3.8406181993
 10
21.4325228626
 20
3.9832641183
 10
21.500853206
 20
4.1275606012
 10
21.5615223811
 20
4.273539623
 10
21.6146759805
 20
4.4211692087
 10
21.6592909127
 20
4.5676078088
 10
21.6952017656
 20
4.7128323516
 10
21.7225739513
 20
4.856865909
 10
21.7408806145
 20
4.9969361473
 10
21.7499461369
 20
5.1329662886
  0
LINE
  5
463
100
AcDbEntity
  8
RACCORDO
100
AcDbLine
 62
253
  6
CONTINUOUS
 10
21.5961722119
 20
5.2215931148
 11
21.7200130608
 21
5.2970450663
  0
LINE
  5
464
100
AcDbEntity
  8
ASSI
100
AcDbLine
 62
253
  6
CONTINUOUS
 10
21.5961722119
 20
5.2215931148
 11
21.7200130608
 21
5.2970450663
  0
LINE
  5
465
100
AcDbEntity
  8
RACCORDO
100
AcDbLine
 62
7
  6
CONTINUOUS
 10
21.6038573911
 20
5.1279587715
 11
21.6577372891
 21
5.1596303403
  0
LINE
  5
466
100
AcDbEntity
  8
ASSI
100
AcDbLine
 62
7
  6
CONTINUOUS
 10
21.6041620764
 20
5.1281378709
 11
21.6577366126
 21
5.159629957
  0
LINE
  5
467
100
AcDbEntity
  8
CURVE
100
AcDbLine
 62
253
  6
CONTINUOUS
 10
-19.2108334007
 20
-18.9836370328
 11
-19.2168560441
 21
-18.9871504414
  0
LINE
  5
468
100
AcDbEntity
  8
0
100
AcDbLine
 62
7
  6
CONTINUOUS
 10
20.0784259918
 20
2.1927092249
 11
23.165405386
 21
3.9750924382
  0
LINE
  5
469
100
AcDbEntity
  8
CURVE
100
AcDbLine
 62
253
  6
CONTINUOUS
 10
-19.4740520645
 20
-18.5583863012
 11
-19.4679591768
 21
-18.5549019948
  0
LINE
  5
46A
100
AcDbEntity
  8
RACCORDO
100
AcDbLine
 62
253
  6
CONTINUOUS
 10
26.1798654472
 20
7.9091993315
 11
21.7200130608
 21
5.378692094
  0
LINE
  5
46B
100
AcDbEntity
  8
ASSI
100
AcDbLine
 62
253
  6
CONTINUOUS
 10
26.1798654472
 20
7.9091993315
 11
21.7200130608
 21
5.378692094
  0
LINE
  5
46C
100
AcDbEntity
  8
RACCORDO
100
AcDbLine
 62
253
  6
CONTINUOUS
 10
21.7200130608
 20
5.2970450663
 11
26.1798654472
 21
7.8275523038
  0
LINE
  5
46D
100
AcDbEntity
  8
ASSI
100
AcDbLine
 62
253
  6
CONTINUOUS
 10
21.7200130608
 20
5.2970450663
 11
26.1798654472
 21
7.8275523038
  0
LINE
  5
46E
100
AcDbEntity
  8
RACCORDO
100
AcDbLine
 62
7
  6
CONTINUOUS
 10
21.6577882911
 20
5.1596667592
 11
26.1170719388
 21
7.689851296
  0
LINE
  5
46F
100
AcDbEntity
  8
ASSI
100
AcDbLine
 62
7
  6
CONTINUOUS
 10
21.6577882911
 20
5.1596667592
 11
26.1170719388
 21
7.689851296
  0
LWPOLYLINE
  5
470
100
AcDbEntity
  8
ASSI
100
AcDbPolyline
 62
7
  6
CONTINUOUS
 90
6
 70
0
 10
20.8914957085
 20
10.2877578564
 10
20.7845514419
 20
10.2728411177
 10
20.6754217194
 20
10.2464244208
 10
20.5647926893
 20
10.2086034704
 10
20.4519782033
 20
10.1592825616
 10
20.3369782613
 20
10.0984616945
  0
LWPOLYLINE
  5
471
100
AcDbEntity
  8
RACCORDO
100
AcDbPolyline
 62
7
  6
CONTINUOUS
 90
12
 70
0
 10
-2.8863839348
 20
7.216459051
 10
-2.8666997195
 20
7.2168854045
 10
-2.8471073074
 20
7.2169816696
 10
-2.8276280958
 20
7.216796853
 10
-2.8082850942
 20
7.2163932384
 10
-2.7890889766
 20
7.2158028353
 10
-2.7700394725
 20
7.2150211959
 10
-2.7511479736
 20
7.2140814195
 10
-2.7324245791
 20
7.2130224116
 10
-2.7138665254
 20
7.2118372678
 10
-2.6954808259
 20
7.2105522083
 10
-2.6772742468
 20
7.2091980026
  0
LWPOLYLINE
  5
472
100
AcDbEntity
  8
RACCORDO
100
AcDbPolyline
 62
7
  6
CONTINUOUS
 90
10
 70
0
 10
-2.3674187364
 20
7.1822293671
 10
-2.3531334158
 20
7.1812974283
 10
-2.3390615844
 20
7.180461213
 10
-2.3252110664
 20
7.1797165323
 10
-2.311581105
 20
7.1790723747
 10
-2.2981715816
 20
7.1785379984
 10
-2.2849919929
 20
7.1781095704
 10
-2.2720452091
 20
7.177791568
 10
-2.2593268959
 20
7.1775965311
 10
-2.2468358535
 20
7.1775325251
  0
LINE
  5
473
100
AcDbEntity
  8
RACCORDO
100
AcDbLine
 62
7
  6
CONTINUOUS
 10
-2.3966299249
 20
7.1843404092
 11
-2.3674187364
 21
7.1822293671
  0
LINE
  5
474
100
AcDbEntity
  8
RACCORDO
100
AcDbLine
 62
7
  6
CONTINUOUS
 10
-2.4266769145
 20
7.1867579809
 11
-2.3966299249
 21
7.1843404092
  0
LINE
  5
475
100
AcDbEntity
  8
RACCORDO
100
AcDbLine
 62
7
  6
CONTINUOUS
 10
-2.6772742468
 20
7.2091980026
 11
-2.6413951679
 21
7.2062803925
  0
LINE
  5
476
100
AcDbEntity
  8
RACCORDO
100
AcDbLine
 62
7
  6
CONTINUOUS
 10
-2.4575473376
 20
7.1894267577
 11
-2.4266769145
 21
7.1867579809
  0
LINE
  5
477
100
AcDbEntity
  8
RACCORDO
100
AcDbLine
 62
7
  6
CONTINUOUS
 10
-2.6413951679
 20
7.2062803925
 11
-2.6062519175
 21
7.2032072347
  0
LWPOLYLINE
  5
478
100
AcDbEntity
  8
RACCORDO
100
AcDbPolyline
 62
7
  6
CONTINUOUS
 90
3
 70
0
 10
-2.6062519175
 20
7.2032072347
 10
-2.5382209507
 20
7.1968924274
 10
-2.4575473376
 20
7.1894267577
  0
LINE
  5
479
100
AcDbEntity
  8
RACCORDO
100
AcDbLine
 62
253
  6
CONTINUOUS
 10
-6.767591445
 20
9.3970248093
 11
-6.7565239639
 21
9.3956252462
  0
LINE
  5
47A
100
AcDbEntity
  8
RACCORDO
100
AcDbLine
 62
253
  6
CONTINUOUS
 10
-6.7785758807
 20
9.3985052346
 11
-6.767591445
 21
9.3970248093
  0
LINE
  5
47B
100
AcDbEntity
  8
RACCORDO
100
AcDbLine
 62
253
  6
CONTINUOUS
 10
-6.7894766496
 20
9.4000651534
 11
-6.7785758807
 21
9.3985052346
  0
LINE
  5
47C
100
AcDbEntity
  8
RACCORDO
100
AcDbLine
 62
253
  6
CONTINUOUS
 10
-6.8002932123
 20
9.4017032451
 11
-6.7894766496
 21
9.4000651534
  0
LINE
  5
47D
100
AcDbEntity
  8
RACCORDO
100
AcDbLine
 62
253
  6
CONTINUOUS
 10
-6.8110252278
 20
9.4034186401
 11
-6.8002932123
 21
9.4017032451
  0
LINE
  5
47E
100
AcDbEntity
  8
RACCORDO
100
AcDbLine
 62
253
  6
CONTINUOUS
 10
-6.8216722046
 20
9.4052100483
 11
-6.8110252278
 21
9.4034186401
  0
LINE
  5
47F
100
AcDbEntity
  8
RACCORDO
100
AcDbLine
 62
253
  6
CONTINUOUS
 10
-6.8322337825
 20
9.4070762404
 11
-6.8216722046
 21
9.4052100483
  0
LINE
  5
480
100
AcDbEntity
  8
RACCORDO
100
AcDbLine
 62
253
  6
CONTINUOUS
 10
-6.842709737
 20
9.4090164094
 11
-6.8322337825
 21
9.4070762404
  0
LINE
  5
481
100
AcDbEntity
  8
RACCORDO
100
AcDbLine
 62
253
  6
CONTINUOUS
 10
-6.8530997717
 20
9.4110293648
 11
-6.842709737
 21
9.4090164094
  0
LINE
  5
482
100
AcDbEntity
  8
RACCORDO
100
AcDbLine
 62
253
  6
CONTINUOUS
 10
-6.863403618
 20
9.4131139645
 11
-6.8530997717
 21
9.4110293648
  0
LINE
  5
483
100
AcDbEntity
  8
RACCORDO
100
AcDbLine
 62
253
  6
CONTINUOUS
 10
-6.873621107
 20
9.4152694583
 11
-6.863403618
 21
9.4131139645
  0
LINE
  5
484
100
AcDbEntity
  8
RACCORDO
100
AcDbLine
 62
253
  6
CONTINUOUS
 10
-6.8837520023
 20
9.4174947379
 11
-6.873621107
 21
9.4152694583
  0
LINE
  5
485
100
AcDbEntity
  8
RACCORDO
100
AcDbLine
 62
253
  6
CONTINUOUS
 10
-6.8937960905
 20
9.4197887423
 11
-6.8837520023
 21
9.4174947379
  0
LINE
  5
486
100
AcDbEntity
  8
RACCORDO
100
AcDbLine
 62
253
  6
CONTINUOUS
 10
-6.9037532411
 20
9.4221507761
 11
-6.8937960905
 21
9.4197887423
  0
LINE
  5
487
100
AcDbEntity
  8
RACCORDO
100
AcDbLine
 62
253
  6
CONTINUOUS
 10
-6.913623272
 20
9.4245798125
 11
-6.9037532411
 21
9.4221507761
  0
LINE
  5
488
100
AcDbEntity
  8
RACCORDO
100
AcDbLine
 62
253
  6
CONTINUOUS
 10
-6.9234060474
 20
9.4270748793
 11
-6.913623272
 21
9.4245798125
  0
LINE
  5
489
100
AcDbEntity
  8
RACCORDO
100
AcDbLine
 62
253
  6
CONTINUOUS
 10
-6.9331014968
 20
9.4296353437
 11
-6.9234060474
 21
9.4270748793
  0
LINE
  5
48A
100
AcDbEntity
  8
RACCORDO
100
AcDbLine
 62
253
  6
CONTINUOUS
 10
-6.9427095455
 20
9.4322602784
 11
-6.9331014968
 21
9.4296353437
  0
LINE
  5
48B
100
AcDbEntity
  8
RACCORDO
100
AcDbLine
 62
253
  6
CONTINUOUS
 10
-6.9522301622
 20
9.434948816
 11
-6.9427095455
 21
9.4322602784
  0
LINE
  5
48C
100
AcDbEntity
  8
RACCORDO
100
AcDbLine
 62
253
  6
CONTINUOUS
 10
-6.9616633264
 20
9.4377003894
 11
-6.9522301622
 21
9.434948816
  0
LINE
  5
48D
100
AcDbEntity
  8
RACCORDO
100
AcDbLine
 62
253
  6
CONTINUOUS
 10
-6.9710090167
 20
9.4405141661
 11
-6.9616633264
 21
9.4377003894
  0
LINE
  5
48E
100
AcDbEntity
  8
RACCORDO
100
AcDbLine
 62
253
  6
CONTINUOUS
 10
-6.9802672046
 20
9.443389361
 11
-6.9710090167
 21
9.4405141661
  0
LWPOLYLINE
  5
48F
100
AcDbEntity
  8
RACCORDO
100
AcDbPolyline
 62
253
  6
CONTINUOUS
 90
21
 70
0
 10
-3.4305478791
 20
9.409533426
 10
-3.4377891017
 20
9.4134054226
 10
-3.4450185791
 20
9.4169400594
 10
-3.452224585
 20
9.4201316033
 10
-3.4593954313
 20
9.4229748775
 10
-3.4665194868
 20
9.4254652703
 10
-3.4735851963
 20
9.4275987421
 10
-3.4805810991
 20
9.4293718326
 10
-3.4874958479
 20
9.4307816657
 10
-3.4943182269
 20
9.4318259547
 10
-3.5010371703
 20
9.4325030057
 10
-3.5076417798
 20
9.4328117206
 10
-3.5141213428
 20
9.4327515986
 10
-3.5204653493
 20
9.4323227372
 10
-3.5266635094
 20
9.431525832
 10
-3.5327057697
 20
9.4303621756
 10
-3.5385823295
 20
9.4288336555
 10
-3.5442836571
 20
9.4269427508
 10
-3.5498005048
 20
9.4246925288
 10
-3.5551239244
 20
9.4220866391
 10
-3.558840692
 20
9.4199874164
  0
LWPOLYLINE
  5
490
100
AcDbEntity
  8
RACCORDO
100
AcDbPolyline
 62
253
  6
CONTINUOUS
 90
21
 70
0
 10
-19.5525824901
 20
18.7181941539
 10
-19.5598237128
 20
18.7220661505
 10
-19.5670531902
 20
18.7256007873
 10
-19.5742591961
 20
18.7287923312
 10
-19.5814300424
 20
18.7316356054
 10
-19.5885540979
 20
18.7341259981
 10
-19.5956198073
 20
18.73625947
 10
-19.6026157101
 20
18.7380325605
 10
-19.6095304589
 20
18.7394423936
 10
-19.616352838
 20
18.7404866826
 10
-19.6230717813
 20
18.7411637336
 10
-19.6296763908
 20
18.7414724485
 10
-19.6361559538
 20
18.7414123265
 10
-19.6424999604
 20
18.740983465
 10
-19.6486981205
 20
18.7401865599
 10
-19.6547403807
 20
18.7390229035
 10
-19.6606169405
 20
18.7374943833
 10
-19.6663182681
 20
18.7356034787
 10
-19.6718351159
 20
18.7333532566
 10
-19.6771585354
 20
18.730747367
 10
-19.680875303
 20
18.7286481442
  0
LINE
  5
491
100
AcDbEntity
  8
RACCORDO
100
AcDbLine
 62
7
  6
CONTINUOUS
 10
-6.639145441
 20
11.4647533136
 11
-8.1005469013
 21
12.3085482011
  0
LINE
  5
492
100
AcDbEntity
  8
RACCORDO
100
AcDbLine
 62
7
  6
CONTINUOUS
 10
-13.663025355
 20
15.520253546
 11
-15.1244268152
 21
16.3640484335
  0
LINE
  5
493
100
AcDbEntity
  8
0
100
AcDbLine
 62
253
  6
CONTINUOUS
 10
-6.639145441
 20
11.7096943966
 11
-15.1244268152
 21
16.6089895166
  0
LINE
  5
494
100
AcDbEntity
  8
0
100
AcDbLine
 62
253
  6
CONTINUOUS
 10
-6.1441706942
 20
12.5670158057
 11
-14.6294520684
 21
17.4663109257
  0
LINE
  5
495
100
AcDbEntity
  8
RACCORDO
100
AcDbLine
 62
7
  6
CONTINUOUS
 10
-0.9469627805
 20
9.6479548122
 11
-2.0075690962
 21
10.2603356064
  0
LINE
  5
496
100
AcDbEntity
  8
RACCORDO
100
AcDbLine
 62
7
  6
CONTINUOUS
 10
-17.0689973915
 20
18.9566155401
 11
-18.1296037072
 21
19.5689963342
  0
LINE
  5
497
100
AcDbEntity
  8
RACCORDO
100
AcDbLine
 62
7
  6
CONTINUOUS
 10
18.7434837978
 20
-1.3979687953
 11
18.8662233078
 21
-1.4688370501
  0
LINE
  5
498
100
AcDbEntity
  8
ASSI
100
AcDbLine
 62
7
  6
CONTINUOUS
 10
18.7434837978
 20
-1.3979687953
 11
18.8662233078
 21
-1.4688370501
  0
LINE
  5
499
100
AcDbEntity
  8
ASSI
100
AcDbLine
 62
253
  6
CONTINUOUS
 10
19.0995413942
 20
-1.5977295049
 11
18.9027159507
 21
-1.4840849606
  0
LINE
  5
49A
100
AcDbEntity
  8
0
100
AcDbLine
 62
253
  6
CONTINUOUS
 10
-5.7806025616
 20
12.7769354889
 11
-14.2658839358
 21
17.6762306088
  0
LINE
  5
49B
100
AcDbEntity
  8
0
100
AcDbLine
 62
253
  6
CONTINUOUS
 10
-5.627646953
 20
12.8372775105
 11
-14.1129283272
 21
17.7365726305
  0
LINE
  5
49C
100
AcDbEntity
  8
RACCORDO
100
AcDbLine
 62
253
  6
CONTINUOUS
 10
18.7459880036
 20
-1.2303297168
 11
18.7617783179
 21
-1.2394468464
  0
LINE
  5
49D
100
AcDbEntity
  8
ASSI
100
AcDbLine
 62
253
  6
CONTINUOUS
 10
18.7459880036
 20
-1.2303297168
 11
18.7617783179
 21
-1.2394468464
  0
LINE
  5
49E
100
AcDbEntity
  8
RACCORDO
100
AcDbLine
 62
7
  6
CONTINUOUS
 10
-6.639145441
 20
13.5698829935
 11
-8.6897551064
 21
14.7538793141
  0
LINE
  5
49F
100
AcDbEntity
  8
RACCORDO
100
AcDbLine
 62
7
  6
CONTINUOUS
 10
-10.6696540938
 20
15.8970481755
 11
-12.7202637592
 21
17.0810444961
  0
LWPOLYLINE
  5
4A0
100
AcDbEntity
  8
RACCORDO
100
AcDbPolyline
 62
7
  6
CONTINUOUS
 90
15
 70
0
 10
-12.7202637592
 20
17.0810444961
 10
-12.7292800247
 20
17.0864828426
 10
-12.7376152127
 20
17.0919670701
 10
-12.7452693231
 20
17.0974971787
 10
-12.7522692222
 20
17.1030971732
 10
-12.7585880437
 20
17.1087430488
 10
-12.764145189
 20
17.1143627902
 10
-12.768930901
 20
17.1199560628
 10
-12.7729549367
 20
17.1255232013
 10
-12.776165968
 20
17.1309931948
 10
-12.7785535807
 20
17.136364799
 10
-12.7801281891
 20
17.1416392584
 10
-12.7808697084
 20
17.1467492953
 10
-12.7807674671
 20
17.1516928034
 10
-12.7801426612
 20
17.1552990041
  0
LWPOLYLINE
  5
4A1
100
AcDbEntity
  8
RACCORDO
100
AcDbPolyline
 62
7
  6
CONTINUOUS
 90
15
 70
0
 10
-8.6897551064
 20
14.7538793141
 10
-8.6987713719
 20
14.7593176607
 10
-8.7071065599
 20
14.7648018882
 10
-8.7147606703
 20
14.7703319967
 10
-8.7217605694
 20
14.7759319913
 10
-8.728079391
 20
14.7815778668
 10
-8.7336365362
 20
14.7871976083
 10
-8.7384222482
 20
14.7927908808
 10
-8.7424462839
 20
14.7983580193
 10
-8.7456573153
 20
14.8038280128
 10
-8.7480449279
 20
14.8091996171
 10
-8.7496195363
 20
14.8144740764
 10
-8.7503610557
 20
14.8195841133
 10
-8.7502588144
 20
14.8245276215
 10
-8.7496340085
 20
14.8281338221
  0
LWPOLYLINE
  5
4A2
100
AcDbEntity
  8
RACCORDO
100
AcDbPolyline
 62
7
  6
CONTINUOUS
 90
25
 70
0
 10
-13.663025355
 20
15.520253546
 10
-13.6542342411
 20
15.514855925
 10
-13.6455424742
 20
15.5089041817
 10
-13.6369500542
 20
15.5023983163
 10
-13.6284250011
 20
15.4953093188
 10
-13.6199992949
 20
15.4876661992
 10
-13.611768876
 20
15.4795559867
 10
-13.6037359765
 20
15.4709733425
 10
-13.5958983643
 20
15.4619236054
 10
-13.5883452833
 20
15.4525098213
 10
-13.5810799857
 20
15.4427278293
 10
-13.5740992194
 20
15.4325817903
 10
-13.5674824715
 20
15.4221872335
 10
-13.561233903
 20
15.4115413183
 10
-13.555349353
 20
15.4006468853
 10
-13.5498958268
 20
15.3896279852
 10
-13.5448782509
 20
15.3784831955
 10
-13.5402916986
 20
15.3672139388
 10
-13.5361883955
 20
15.3559485338
 10
-13.5325738649
 20
15.3446870246
 10
-13.5294425834
 20
15.3334293671
 10
-13.5268302056
 20
15.322303748
 10
-13.5247486165
 20
15.3113528964
 10
-13.5231859312
 20
15.3005340831
 10
-13.5221421497
 20
15.2898473083
  0
LWPOLYLINE
  5
4A3
100
AcDbEntity
  8
RACCORDO
100
AcDbPolyline
 62
253
  6
CONTINUOUS
 90
40
 70
0
 10
-2.4205004461
 20
8.8263446971
 10
-2.413507678
 20
8.8219981657
 10
-2.4065262522
 20
8.8173276051
 10
-2.3995674926
 20
8.8123405907
 10
-2.3926426863
 20
8.8070452116
 10
-2.3857630654
 20
8.8014500569
 10
-2.3789397887
 20
8.795564202
 10
-2.3721839235
 20
8.7893971937
 10
-2.3655064279
 20
8.7829590349
 10
-2.3589181328
 20
8.7762601684
 10
-2.3524297245
 20
8.7693114597
 10
-2.346051727
 20
8.7621241797
 10
-2.3397944857
 20
8.7547099862
 10
-2.3336681498
 20
8.747080905
 10
-2.3276826561
 20
8.7392493105
 10
-2.3218477133
 20
8.7312279056
 10
-2.3161727855
 20
8.7230297011
 10
-2.3106670776
 20
8.7146679944
 10
-2.3053395198
 20
8.7061563482
 10
-2.3001987534
 20
8.6975085686
 10
-2.2952531169
 20
8.6887386822
 10
-2.2905106319
 20
8.6798609138
 10
-2.2859789909
 20
8.6708896633
 10
-2.2816655442
 20
8.6618394818
 10
-2.2775772883
 20
8.6527250491
 10
-2.2737208542
 20
8.6435611485
 10
-2.2701024971
 20
8.6343626442
 10
-2.2667280861
 20
8.6251444559
 10
-2.2636030944
 20
8.6159215358
 10
-2.2607325908
 20
8.6067088433
 10
-2.2581212312
 20
8.5975213216
 10
-2.2557732513
 20
8.5883738727
 10
-2.2536924595
 20
8.579281334
 10
-2.2518822309
 20
8.5702584535
 10
-2.2503455016
 20
8.5613198664
 10
-2.2490847643
 20
8.5524800711
 10
-2.2481020639
 20
8.5437534057
 10
-2.2473989942
 20
8.5351540251
 10
-2.2469766958
 20
8.5266958773
 10
-2.2468358535
 20
8.5183926815
  0
LWPOLYLINE
  5
4A4
100
AcDbEntity
  8
0
100
AcDbPolyline
 62
7
  6
CONTINUOUS
 90
9
 70
0
 10
14.9629668559
 20
-10.3546039589
 10
15.0058042791
 20
-10.4233918245
 10
15.0466983516
 20
-10.494222232
 10
15.0849986037
 20
-10.5659905636
 10
15.1206353244
 20
-10.6386238511
 10
15.1536782248
 20
-10.7121950627
 10
15.183848992
 20
-10.7860802663
 10
15.2111484459
 20
-10.8603548554
 10
15.2355757665
 20
-10.9349434365
  0
LINE
  5
4A5
100
AcDbEntity
  8
RACCORDO
100
AcDbLine
 62
7
  6
CONTINUOUS
 10
1.336889981
 20
10.042213806
 11
2.0880494144
 21
8.741167504
  0
LINE
  5
4A6
100
AcDbEntity
  8
0
100
AcDbLine
 62
253
  6
CONTINUOUS
 10
15.387230793
 20
-13.4571279588
 11
15.3074618403
 21
-13.3189640801
  0
LINE
  5
4A7
100
AcDbEntity
  8
0
100
AcDbLine
 62
253
  6
CONTINUOUS
 10
15.5937383689
 20
-13.3379161179
 11
15.3165201148
 21
-12.8577600175
  0
LINE
  5
4A8
100
AcDbEntity
  8
RACCORDO
100
AcDbLine
 62
253
  6
CONTINUOUS
 10
9.7607066294
 20
20.0712985804
 11
9.7597843721
 21
20.2163613885
  0
LINE
  5
4A9
100
AcDbEntity
  8
ASSI
100
AcDbLine
 62
253
  6
CONTINUOUS
 10
9.7607066294
 20
20.0712985804
 11
9.7597843721
 21
20.2163613885
  0
LINE
  5
4AA
100
AcDbEntity
  8
RACCORDO
100
AcDbLine
 62
253
  6
CONTINUOUS
 10
9.7597843721
 20
20.2163613885
 11
9.7591073087
 21
20.3689082922
  0
LINE
  5
4AB
100
AcDbEntity
  8
ASSI
100
AcDbLine
 62
253
  6
CONTINUOUS
 10
9.7597843721
 20
20.2163613885
 11
9.7591073087
 21
20.3689082922
  0
LINE
  5
4AC
100
AcDbEntity
  8
RACCORDO
100
AcDbLine
 62
253
  6
CONTINUOUS
 10
9.7591073087
 20
20.3689082922
 11
9.7588554516
 21
20.4883777302
  0
LINE
  5
4AD
100
AcDbEntity
  8
ASSI
100
AcDbLine
 62
253
  6
CONTINUOUS
 10
9.7591073087
 20
20.3689082922
 11
9.7588554516
 21
20.4883777302
  0
LINE
  5
4AE
100
AcDbEntity
  8
RACCORDO
100
AcDbLine
 62
253
  6
CONTINUOUS
 10
9.4071532388
 20
20.1554376311
 11
9.4071532388
 21
19.4294670789
  0
LINE
  5
4AF
100
AcDbEntity
  8
ASSI
100
AcDbLine
 62
253
  6
CONTINUOUS
 10
9.4071532388
 20
20.1554376311
 11
9.4071532388
 21
19.4294670789
  0
LINE
  5
4B0
100
AcDbEntity
  8
RACCORDO
100
AcDbLine
 62
253
  6
CONTINUOUS
 10
9.7607066294
 20
20.0712985804
 11
9.7607066294
 21
19.344910642
  0
LINE
  5
4B1
100
AcDbEntity
  8
ASSI
100
AcDbLine
 62
253
  6
CONTINUOUS
 10
9.7607066294
 20
20.0712985804
 11
9.7607066294
 21
19.344910642
  0
LINE
  5
4B2
100
AcDbEntity
  8
DRAFT
100
AcDbLine
 62
7
  6
CONTINUOUS
 10
24.2614208969
 20
3.9546510901
 11
20.9319751163
 21
1.9984227194
  0
LINE
  5
4B3
100
AcDbEntity
  8
ASSI
100
AcDbLine
 62
7
  6
CONTINUOUS
 10
24.2614208969
 20
3.9546510901
 11
20.9319751163
 21
1.9984227194
  0
LINE
  5
4B4
100
AcDbEntity
  8
DRAFT
100
AcDbLine
 62
7
  6
CONTINUOUS
 10
24.2614208969
 20
3.9546510901
 11
25.3220810686
 21
4.5670629801
  0
LINE
  5
4B5
100
AcDbEntity
  8
ASSI
100
AcDbLine
 62
7
  6
CONTINUOUS
 10
24.2614208969
 20
3.9546510901
 11
25.3220810686
 21
4.5670629801
  0
LINE
  5
4B6
100
AcDbEntity
  8
ASSI
100
AcDbLine
 62
7
  6
CONTINUOUS
 10
25.1099490343
 20
1.8726045384
 11
19.0995413942
 21
-1.5977295049
  0
LINE
  5
4B7
100
AcDbEntity
  8
RACCORDO
100
AcDbLine
 62
253
  6
CONTINUOUS
 10
25.9677253352
 20
4.1942760725
 11
21.5097402815
 21
1.6648283541
  0
LINE
  5
4B8
100
AcDbEntity
  8
ASSI
100
AcDbLine
 62
253
  6
CONTINUOUS
 10
25.9677253352
 20
4.1942760725
 11
21.5097402815
 21
1.6648283541
  0
LINE
  5
4B9
100
AcDbEntity
  8
RACCORDO
100
AcDbLine
 62
253
  6
CONTINUOUS
 10
26.1798654472
 20
3.8268479475
 11
21.7200130608
 21
1.29634071
  0
LINE
  5
4BA
100
AcDbEntity
  8
ASSI
100
AcDbLine
 62
253
  6
CONTINUOUS
 10
26.1798654472
 20
3.8268479475
 11
21.7200130608
 21
1.29634071
  0
LINE
  5
4BB
100
AcDbEntity
  8
RACCORDO
100
AcDbLine
 62
7
  6
CONTINUOUS
 10
25.1099490343
 20
1.9542515661
 11
19.1184171222
 21
-1.4453261673
  0
LINE
  5
4BC
100
AcDbEntity
  8
ASSI
100
AcDbLine
 62
7
  6
CONTINUOUS
 10
25.1099490343
 20
1.9542515661
 11
19.1184171222
 21
-1.4453261673
  0
LWPOLYLINE
  5
4BD
100
AcDbEntity
  8
ASSI
100
AcDbPolyline
 62
7
  6
CONTINUOUS
 90
25
 70
0
 10
19.0995413942
 20
-1.5977295049
 10
19.0880102656
 20
-1.6041729997
 10
19.0764954786
 20
-1.6101703994
 10
19.0649970334
 20
-1.615721704
 10
19.0534954194
 20
-1.6208359823
 10
19.0420101471
 20
-1.6255041654
 10
19.030599748
 20
-1.6296990467
 10
19.0192664872
 20
-1.6334154509
 10
19.0080080995
 20
-1.6366585532
 10
18.996876321
 20
-1.6394166729
 10
18.985883224
 20
-1.6416858337
 10
18.9750167361
 20
-1.6434700119
 10
18.9642923768
 20
-1.6447694552
 10
18.9537088884
 20
-1.6455857876
 10
18.9432675286
 20
-1.6459173852
 10
18.9329875899
 20
-1.6457596242
 10
18.9228586382
 20
-1.6451102577
 10
18.9128911075
 20
-1.6439715326
 10
18.9031355928
 20
-1.6423455657
 10
18.8935945841
 20
-1.6402276278
 10
18.8842655915
 20
-1.637622448
 10
18.8751917398
 20
-1.6345463311
 10
18.8663837075
 20
-1.6310015048
 10
18.8578308162
 20
-1.6269857414
 10
18.8495293381
 20
-1.6225001075
  0
LWPOLYLINE
  5
4BE
100
AcDbEntity
  8
RACCORDO
100
AcDbPolyline
 62
253
  6
CONTINUOUS
 90
45
 70
0
 10
21.7200130608
 20
1.29634071
 10
21.5963131091
 20
1.2313176803
 10
21.4744726065
 20
1.1769339592
 10
21.3544915529
 20
1.1331895469
 10
21.2357739306
 20
1.1000015952
 10
21.1189157574
 20
1.0774529523
 10
21.005705086
 20
1.0657921623
 10
20.8962600746
 20
1.0651887341
 10
20.7904625651
 20
1.0754731589
 10
20.6897461352
 20
1.0963854538
 10
20.5941832643
 20
1.1280535181
 10
20.5037014731
 20
1.1703494525
 10
20.4195169024
 20
1.2226295766
 10
20.3417068972
 20
1.285010328
 10
20.2701941124
 20
1.357375269
 10
20.2059626539
 20
1.4387314066
 10
20.1490947555
 20
1.5292114991
 10
20.0995081834
 20
1.6286827881
 10
20.0579403415
 20
1.7357540055
 10
20.0245032432
 20
1.8505469123
 10
19.9990848751
 20
1.9729397476
 10
19.9820866016
 20
2.1011759608
 10
19.9736422094
 20
2.2353797498
 10
19.9736179117
 20
2.3754269167
 10
19.9820137117
 20
2.5191883172
 10
19.9989630613
 20
2.6666906657
 10
20.0243325086
 20
2.8179072478
 10
20.0577217008
 20
2.9706287753
 10
20.0992421869
 20
3.1248606648
 10
20.1487824178
 20
3.2805974998
 10
20.2056073937
 20
3.4356137416
 10
20.2697987409
 20
3.5898699646
 10
20.3412748329
 20
3.7434055944
 10
20.419055791
 20
3.8941133699
 10
20.5032200065
 20
4.0419667763
 10
20.5936890881
 20
4.1869923283
 10
20.689247982
 20
4.3271623083
 10
20.7899698437
 20
4.4624317354
 10
20.8957815178
 20
4.5928455905
 10
21.0052484842
 20
4.716511098
 10
21.1184825445
 20
4.8333883783
 10
21.2353718971
 20
4.943517311
 10
21.3541466175
 20
5.0451247599
 10
21.4742167308
 20
5.1376196793
 10
21.5961722119
 20
5.2215931148
  0
LWPOLYLINE
  5
4BF
100
AcDbEntity
  8
ASSI
100
AcDbPolyline
 62
253
  6
CONTINUOUS
 90
45
 70
0
 10
21.7200130608
 20
1.29634071
 10
21.5963131091
 20
1.2313176803
 10
21.4744726065
 20
1.1769339592
 10
21.3544915529
 20
1.1331895469
 10
21.2357739306
 20
1.1000015952
 10
21.1189157574
 20
1.0774529523
 10
21.005705086
 20
1.0657921623
 10
20.8962600746
 20
1.0651887341
 10
20.7904625651
 20
1.0754731589
 10
20.6897461352
 20
1.0963854538
 10
20.5941832643
 20
1.1280535181
 10
20.5037014731
 20
1.1703494525
 10
20.4195169024
 20
1.2226295766
 10
20.3417068972
 20
1.285010328
 10
20.2701941124
 20
1.357375269
 10
20.2059626539
 20
1.4387314066
 10
20.1490947555
 20
1.5292114991
 10
20.0995081834
 20
1.6286827881
 10
20.0579403415
 20
1.7357540055
 10
20.0245032432
 20
1.8505469123
 10
19.9990848751
 20
1.9729397476
 10
19.9820866016
 20
2.1011759608
 10
19.9736422094
 20
2.2353797498
 10
19.9736179117
 20
2.3754269167
 10
19.9820137117
 20
2.5191883172
 10
19.9989630613
 20
2.6666906657
 10
20.0243325086
 20
2.8179072478
 10
20.0577217008
 20
2.9706287753
 10
20.0992421869
 20
3.1248606648
 10
20.1487824178
 20
3.2805974998
 10
20.2056073937
 20
3.4356137416
 10
20.2697987409
 20
3.5898699646
 10
20.3412748329
 20
3.7434055944
 10
20.419055791
 20
3.8941133699
 10
20.5032200065
 20
4.0419667763
 10
20.5936890881
 20
4.1869923283
 10
20.689247982
 20
4.3271623083
 10
20.7899698437
 20
4.4624317354
 10
20.8957815178
 20
4.5928455905
 10
21.0052484842
 20
4.716511098
 10
21.1184825445
 20
4.8333883783
 10
21.2353718971
 20
4.943517311
 10
21.3541466175
 20
5.0451247599
 10
21.4742167308
 20
5.1376196793
 10
21.5961722119
 20
5.2215931148
  0
LWPOLYLINE
  5
4C0
100
AcDbEntity
  8
RACCORDO
100
AcDbPolyline
 62
253
  6
CONTINUOUS
 90
13
 70
0
 10
21.5097402815
 20
1.6648283541
 10
21.4014784125
 20
1.6079285212
 10
21.2939420844
 20
1.5601142048
 10
21.1876555895
 20
1.5215806057
 10
21.0831331899
 20
1.4924792017
 10
20.980875278
 20
1.4729045892
 10
20.8813672026
 20
1.4628993342
 10
20.7850915575
 20
1.4624710523
 10
20.6924852084
 20
1.4715795345
 10
20.60394342
 20
1.4901450524
 10
20.519883314
 20
1.5180509279
 10
20.4406913309
 20
1.5551379015
 10
20.4273311304
 20
1.5625744584
  0
LWPOLYLINE
  5
4C1
100
AcDbEntity
  8
ASSI
100
AcDbPolyline
 62
253
  6
CONTINUOUS
 90
13
 70
0
 10
21.5097402815
 20
1.6648283541
 10
21.4014784125
 20
1.6079285212
 10
21.2939420844
 20
1.5601142048
 10
21.1876555895
 20
1.5215806057
 10
21.0831331899
 20
1.4924792017
 10
20.980875278
 20
1.4729045892
 10
20.8813672026
 20
1.4628993342
 10
20.7850915575
 20
1.4624710523
 10
20.6924852084
 20
1.4715795345
 10
20.60394342
 20
1.4901450524
 10
20.519883314
 20
1.5180509279
 10
20.4406913309
 20
1.5551379015
 10
20.4272672107
 20
1.5626109222
  0
LINE
  5
4C2
100
AcDbEntity
  8
CURVE
100
AcDbLine
 62
253
  6
CONTINUOUS
 10
-19.2168560441
 20
-18.9871504414
 11
-19.2231979568
 21
-18.990108253
  0
LINE
  5
4C3
100
AcDbEntity
  8
CURVE
100
AcDbLine
 62
253
  6
CONTINUOUS
 10
-19.4679591768
 20
-18.5549019948
 11
-19.4618740244
 21
-18.5520728007
  0
LINE
  5
4C4
100
AcDbEntity
  8
CURVE
100
AcDbLine
 62
253
  6
CONTINUOUS
 10
-19.2231979568
 20
-18.990108253
 11
-19.2295403678
 21
-18.9924459293
  0
LINE
  5
4C5
100
AcDbEntity
  8
CURVE
100
AcDbLine
 62
253
  6
CONTINUOUS
 10
-19.4618740244
 20
-18.5520728007
 11
-19.455524483
 21
-18.5497405421
  0
LWPOLYLINE
  5
4C6
100
AcDbEntity
  8
RACCORDO
100
AcDbPolyline
 62
253
  6
CONTINUOUS
 90
41
 70
0
 10
-6.4618173268
 20
9.3902703128
 10
-6.4554040355
 20
9.3908194689
 10
-6.4489800952
 20
9.3913981146
 10
-6.4425452421
 20
9.3920062633
 10
-6.4361005663
 20
9.392644438
 10
-6.4296461159
 20
9.3933126347
 10
-6.4231818427
 20
9.3940108574
 10
-6.4167086929
 20
9.394739641
 10
-6.4102266495
 20
9.3954989868
 10
-6.4037357294
 20
9.3962888936
 10
-6.3972369295
 20
9.3971098925
 10
-6.3907302277
 20
9.397961986
 10
-6.384215646
 20
9.3988451716
 10
-6.3776942481
 20
9.3997599728
 10
-6.3711660164
 20
9.4007063921
 10
-6.3646309684
 20
9.401684427
 10
-6.3580902197
 20
9.4026945933
 10
-6.3515437548
 20
9.4037368939
 10
-6.3449915892
 20
9.4048113259
 10
-6.3384348859
 20
9.4059183971
 10
-6.3318736305
 20
9.4070581104
 10
-6.3253078374
 20
9.4082304629
 10
-6.318738713
 20
9.4094359539
 10
-6.3121662425
 20
9.4106745865
 10
-6.3055904407
 20
9.4119463575
 10
-6.299012559
 20
9.4132517564
 10
-6.2924325816
 20
9.4145907871
 10
-6.2858505244
 20
9.4159634458
 10
-6.2792676866
 20
9.4173702106
 10
-6.2726840523
 20
9.4188110858
 10
-6.2660996374
 20
9.4202860671
 10
-6.2595157892
 20
9.4217956203
 10
-6.2529324916
 20
9.4233397499
 10
-6.2463497607
 20
9.4249184514
 10
-6.2397689914
 20
9.4265321767
 10
-6.2331901679
 20
9.4281809308
 10
-6.226613306
 20
9.4298647087
 10
-6.2200398484
 20
9.4315839474
 10
-6.2134702761
 20
9.4333387925
 10
-6.2069041081
 20
9.4351290985
 10
-6.2003413445
 20
9.4369548652
  0
LWPOLYLINE
  5
4C7
100
AcDbEntity
  8
RACCORDO
100
AcDbPolyline
 62
253
  6
CONTINUOUS
 90
3
 70
0
 10
-6.4809857865
 20
9.3887984462
 10
-6.474609289
 20
9.3892600272
 10
-6.4618173268
 20
9.3902703128
  0
LINE
  5
4C8
100
AcDbEntity
  8
RACCORDO
100
AcDbLine
 62
253
  6
CONTINUOUS
 10
-6.4936993899
 20
9.3879617695
 11
-6.4809857865
 21
9.3887984462
  0
LINE
  5
4C9
100
AcDbEntity
  8
RACCORDO
100
AcDbLine
 62
253
  6
CONTINUOUS
 10
-6.5063576463
 20
9.3872388796
 11
-6.4936993899
 21
9.3879617695
  0
LINE
  5
4CA
100
AcDbEntity
  8
RACCORDO
100
AcDbLine
 62
253
  6
CONTINUOUS
 10
-6.5189582746
 20
9.3866279958
 11
-6.5063576463
 21
9.3872388796
  0
LINE
  5
4CB
100
AcDbEntity
  8
RACCORDO
100
AcDbLine
 62
253
  6
CONTINUOUS
 10
-6.5314997517
 20
9.3861279375
 11
-6.5189582746
 21
9.3866279958
  0
LINE
  5
4CC
100
AcDbEntity
  8
ASSI
100
AcDbLine
 62
7
  6
CONTINUOUS
 10
20.9941960739
 20
10.2908875217
 11
20.8914957085
 21
10.2877578564
  0
LINE
  5
4CD
100
AcDbEntity
  8
RACCORDO
100
AcDbLine
 62
253
  6
CONTINUOUS
 10
-6.5439798706
 20
9.3857369329
 11
-6.5314997517
 21
9.3861279375
  0
LINE
  5
4CE
100
AcDbEntity
  8
RACCORDO
100
AcDbLine
 62
253
  6
CONTINUOUS
 10
-6.5563967603
 20
9.3854532205
 11
-6.5439798706
 21
9.3857369329
  0
LINE
  5
4CF
100
AcDbEntity
  8
RACCORDO
100
AcDbLine
 62
253
  6
CONTINUOUS
 10
-6.568749191
 20
9.3852756328
 11
-6.5563967603
 21
9.3854532205
  0
LINE
  5
4D0
100
AcDbEntity
  8
RACCORDO
100
AcDbLine
 62
253
  6
CONTINUOUS
 10
-6.5810353727
 20
9.385202425
 11
-6.568749191
 21
9.3852756328
  0
LINE
  5
4D1
100
AcDbEntity
  8
RACCORDO
100
AcDbLine
 62
253
  6
CONTINUOUS
 10
-6.5932536788
 20
9.3852318799
 11
-6.5810353727
 21
9.385202425
  0
LINE
  5
4D2
100
AcDbEntity
  8
RACCORDO
100
AcDbLine
 62
253
  6
CONTINUOUS
 10
-6.6054030568
 20
9.3853628595
 11
-6.5932536788
 21
9.3852318799
  0
LINE
  5
4D3
100
AcDbEntity
  8
RACCORDO
100
AcDbLine
 62
253
  6
CONTINUOUS
 10
-6.6174819894
 20
9.3855936664
 11
-6.6054030568
 21
9.3853628595
  0
LINE
  5
4D4
100
AcDbEntity
  8
RACCORDO
100
AcDbLine
 62
253
  6
CONTINUOUS
 10
-6.6294890409
 20
9.3859226349
 11
-6.6174819894
 21
9.3855936664
  0
LINE
  5
4D5
100
AcDbEntity
  8
RACCORDO
100
AcDbLine
 62
253
  6
CONTINUOUS
 10
-6.6414232866
 20
9.3863486616
 11
-6.6294890409
 21
9.3859226349
  0
LINE
  5
4D6
100
AcDbEntity
  8
RACCORDO
100
AcDbLine
 62
253
  6
CONTINUOUS
 10
-6.653283383
 20
9.3868701017
 11
-6.6414232866
 21
9.3863486616
  0
LINE
  5
4D7
100
AcDbEntity
  8
RACCORDO
100
AcDbLine
 62
253
  6
CONTINUOUS
 10
-6.6650681035
 20
9.3874853454
 11
-6.653283383
 21
9.3868701017
  0
LINE
  5
4D8
100
AcDbEntity
  8
RACCORDO
100
AcDbLine
 62
253
  6
CONTINUOUS
 10
-6.676776655
 20
9.3881933273
 11
-6.6650681035
 21
9.3874853454
  0
LINE
  5
4D9
100
AcDbEntity
  8
RACCORDO
100
AcDbLine
 62
253
  6
CONTINUOUS
 10
-6.6884078846
 20
9.3889924604
 11
-6.676776655
 21
9.3881933273
  0
LINE
  5
4DA
100
AcDbEntity
  8
RACCORDO
100
AcDbLine
 62
253
  6
CONTINUOUS
 10
-6.6999607576
 20
9.3898811964
 11
-6.6884078846
 21
9.3889924604
  0
LINE
  5
4DB
100
AcDbEntity
  8
RACCORDO
100
AcDbLine
 62
253
  6
CONTINUOUS
 10
-6.711434624
 20
9.3908585137
 11
-6.6999607576
 21
9.3898811964
  0
LINE
  5
4DC
100
AcDbEntity
  8
RACCORDO
100
AcDbLine
 62
253
  6
CONTINUOUS
 10
-6.722828563
 20
9.3919228936
 11
-6.711434624
 21
9.3908585137
  0
LINE
  5
4DD
100
AcDbEntity
  8
RACCORDO
100
AcDbLine
 62
253
  6
CONTINUOUS
 10
-6.7341418135
 20
9.3930728682
 11
-6.722828563
 21
9.3919228936
  0
LINE
  5
4DE
100
AcDbEntity
  8
RACCORDO
100
AcDbLine
 62
253
  6
CONTINUOUS
 10
-6.7453738659
 20
9.3943074669
 11
-6.7341418135
 21
9.3930728682
  0
LINE
  5
4DF
100
AcDbEntity
  8
RACCORDO
100
AcDbLine
 62
253
  6
CONTINUOUS
 10
-6.7565239639
 20
9.3956252462
 11
-6.7453738659
 21
9.3943074669
  0
LWPOLYLINE
  5
4E0
100
AcDbEntity
  8
ASSI
100
AcDbPolyline
 62
7
  6
CONTINUOUS
 90
3
 70
0
 10
21.12294544
 20
6.1929794342
 10
21.0925703248
 20
6.1996503893
 10
20.9941960739
 20
6.2085361378
  0
LWPOLYLINE
  5
4E1
100
AcDbEntity
  8
ASSI
100
AcDbPolyline
 62
7
  6
CONTINUOUS
 90
7
 70
0
 10
-7.717924563
 20
11.1380254238
 10
-7.7229013852
 20
11.1391550541
 10
-7.7567142346
 20
11.148556891
 10
-7.7890449557
 20
11.1593206658
 10
-7.8197062015
 20
11.1713942858
 10
-7.848885319
 20
11.1848298437
 10
-7.8765823081
 20
11.1996273395
  0
LINE
  5
4E2
100
AcDbEntity
  8
RACCORDO
100
AcDbLine
 62
253
  6
CONTINUOUS
 10
-17.0100022115
 20
15.2607593707
 11
-16.9999581233
 21
15.2584653663
  0
LINE
  5
4E3
100
AcDbEntity
  8
RACCORDO
100
AcDbLine
 62
253
  6
CONTINUOUS
 10
-17.0199593621
 20
15.2631214045
 11
-17.0100022115
 21
15.2607593707
  0
LINE
  5
4E4
100
AcDbEntity
  8
RACCORDO
100
AcDbLine
 62
253
  6
CONTINUOUS
 10
-17.029829393
 20
15.2655504409
 11
-17.0199593621
 21
15.2631214045
  0
LINE
  5
4E5
100
AcDbEntity
  8
RACCORDO
100
AcDbLine
 62
253
  6
CONTINUOUS
 10
-17.0396121683
 20
15.2680455077
 11
-17.029829393
 21
15.2655504409
  0
LINE
  5
4E6
100
AcDbEntity
  8
RACCORDO
100
AcDbLine
 62
253
  6
CONTINUOUS
 10
-17.0493076178
 20
15.2706059722
 11
-17.0396121683
 21
15.2680455077
  0
LINE
  5
4E7
100
AcDbEntity
  8
RACCORDO
100
AcDbLine
 62
253
  6
CONTINUOUS
 10
-17.0589156665
 20
15.2732309068
 11
-17.0493076178
 21
15.2706059722
  0
LINE
  5
4E8
100
AcDbEntity
  8
RACCORDO
100
AcDbLine
 62
253
  6
CONTINUOUS
 10
-17.0684362832
 20
15.2759194444
 11
-17.0589156665
 21
15.2732309068
  0
LINE
  5
4E9
100
AcDbEntity
  8
RACCORDO
100
AcDbLine
 62
253
  6
CONTINUOUS
 10
-17.0778694474
 20
15.2786710179
 11
-17.0684362832
 21
15.2759194444
  0
LINE
  5
4EA
100
AcDbEntity
  8
RACCORDO
100
AcDbLine
 62
253
  6
CONTINUOUS
 10
-17.0872151377
 20
15.2814847945
 11
-17.0778694474
 21
15.2786710179
  0
LINE
  5
4EB
100
AcDbEntity
  8
RACCORDO
100
AcDbLine
 62
253
  6
CONTINUOUS
 10
-17.0964733256
 20
15.2843599895
 11
-17.0872151377
 21
15.2814847945
  0
LWPOLYLINE
  5
4EC
100
AcDbEntity
  8
RACCORDO
100
AcDbPolyline
 62
7
  6
CONTINUOUS
 90
25
 70
0
 10
-6.5579132218
 20
14.8415738191
 10
-6.5675258629
 20
14.8468915698
 10
-6.5775839669
 20
14.8520273985
 10
-6.5880875338
 20
14.8569813053
 10
-6.5990852174
 20
14.8617728895
 10
-6.610528364
 20
14.8663825517
 10
-6.6222710121
 20
14.8707514941
 10
-6.6343169983
 20
14.8748766332
 10
-6.6466624862
 20
14.8787610524
 10
-6.6591500047
 20
14.8823552048
 10
-6.6717813731
 20
14.885655372
 10
-6.6845547721
 20
14.8886652723
 10
-6.6973072726
 20
14.8913465134
 10
-6.7100386068
 20
14.8936948852
 10
-6.7227490424
 20
14.8957145977
 10
-6.7352764535
 20
14.8973798889
 10
-6.7476184954
 20
14.8986862186
 10
-6.7597775127
 20
14.899638127
 10
-6.771598413
 20
14.900223472
 10
-6.7830768649
 20
14.9004375582
 10
-6.7942171997
 20
14.9002850811
 10
-6.8048773185
 20
14.8997679855
 10
-6.8150098551
 20
14.8988869199
 10
-6.8246621758
 20
14.8976412359
 10
-6.8338342805
 20
14.8960309335
  0
LWPOLYLINE
  5
4ED
100
AcDbEntity
  8
RACCORDO
100
AcDbPolyline
 62
7
  6
CONTINUOUS
 90
25
 70
0
 10
-10.5884218746
 20
17.1687390011
 10
-10.5980345157
 20
17.1740567518
 10
-10.6080926197
 20
17.1791925805
 10
-10.6185961866
 20
17.1841464873
 10
-10.6295938702
 20
17.1889380714
 10
-10.6410370167
 20
17.1935477336
 10
-10.6527796648
 20
17.1979166761
 10
-10.6648256511
 20
17.2020418151
 10
-10.677171139
 20
17.2059262344
 10
-10.6896586574
 20
17.2095203868
 10
-10.7022900259
 20
17.212820554
 10
-10.7150634249
 20
17.2158304543
 10
-10.7278159254
 20
17.2185116954
 10
-10.7405472596
 20
17.2208600671
 10
-10.7532576952
 20
17.2228797797
 10
-10.7657851062
 20
17.2245450708
 10
-10.7781271482
 20
17.2258514006
 10
-10.7902861655
 20
17.2268033089
 10
-10.8021070657
 20
17.227388654
 10
-10.8135855176
 20
17.2276027402
 10
-10.8247258524
 20
17.227450263
 10
-10.8353859713
 20
17.2269331675
 10
-10.8455185079
 20
17.2260521019
 10
-10.8551708285
 20
17.2248064179
 10
-10.8643429332
 20
17.2231961155
  0
LINE
  5
4EE
100
AcDbEntity
  8
RACCORDO
100
AcDbLine
 62
7
  6
CONTINUOUS
 10
-7.919788987
 20
14.6764350306
 11
-6.0268114016
 21
13.5834534974
  0
LINE
  5
4EF
100
AcDbEntity
  8
RACCORDO
100
AcDbLine
 62
7
  6
CONTINUOUS
 10
-7.5295448391
 20
14.7553480971
 11
-5.6365672579
 21
13.6623665631
  0
LINE
  5
4F0
100
AcDbEntity
  8
RACCORDO
100
AcDbLine
 62
7
  6
CONTINUOUS
 10
-10.5884218746
 20
17.1687390011
 11
-8.8368656455
 21
16.1574123866
  0
LINE
  5
4F1
100
AcDbEntity
  8
RACCORDO
100
AcDbLine
 62
7
  6
CONTINUOUS
 10
-6.5579132218
 20
14.8415738191
 11
-4.8063569927
 21
13.8302472046
  0
LINE
  5
4F2
100
AcDbEntity
  8
RACCORDO
100
AcDbLine
 62
7
  6
CONTINUOUS
 10
-10.5010186697
 20
17.529808267
 11
-8.4504090043
 21
16.3458119464
  0
LINE
  5
4F3
100
AcDbEntity
  8
RACCORDO
100
AcDbLine
 62
7
  6
CONTINUOUS
 10
-6.470510017
 20
15.2026430851
 11
-4.4199003515
 21
14.0186467644
  0
LINE
  5
4F4
100
AcDbEntity
  8
DRAFT
100
AcDbLine
 62
7
  6
CONTINUOUS
 10
2.0536888176
 20
11.6716608099
 11
0.507212199
 21
12.5645770275
  0
LINE
  5
4F5
100
AcDbEntity
  8
DRAFT
100
AcDbLine
 62
7
  6
CONTINUOUS
 10
-11.4780987405
 20
19.4847453528
 11
-12.5035525748
 21
20.0768295448
  0
LWPOLYLINE
  5
4F6
100
AcDbEntity
  8
RACCORDO
100
AcDbPolyline
 62
7
  6
CONTINUOUS
 90
15
 70
0
 10
-8.4504090043
 20
16.3458119464
 10
-8.4413927388
 20
16.3403735999
 10
-8.4330575508
 20
16.3348893723
 10
-8.4254034404
 20
16.3293592638
 10
-8.4184035413
 20
16.3237592693
 10
-8.4120847197
 20
16.3181133937
 10
-8.4065275745
 20
16.3124936523
 10
-8.4017418625
 20
16.3069003797
 10
-8.3977178268
 20
16.3013332412
 10
-8.3945067954
 20
16.2958632477
 10
-8.3921191828
 20
16.2904916434
 10
-8.3905445744
 20
16.2852171841
 10
-8.389803055
 20
16.2801071472
 10
-8.3899052963
 20
16.275163639
 10
-8.3905301022
 20
16.2715574384
  0
LWPOLYLINE
  5
4F7
100
AcDbEntity
  8
RACCORDO
100
AcDbPolyline
 62
7
  6
CONTINUOUS
 90
15
 70
0
 10
-4.4199003515
 20
14.0186467644
 10
-4.410884086
 20
14.0132084179
 10
-4.4025488981
 20
14.0077241904
 10
-4.3948947877
 20
14.0021940819
 10
-4.3878948885
 20
13.9965940873
 10
-4.381576067
 20
13.9909482117
 10
-4.3760189217
 20
13.9853284703
 10
-4.3712332097
 20
13.9797351977
 10
-4.367209174
 20
13.9741680593
 10
-4.3639981427
 20
13.9686980657
 10
-4.36161053
 20
13.9633264615
 10
-4.3600359217
 20
13.9580520021
 10
-4.3592944023
 20
13.9529419653
 10
-4.3593966436
 20
13.9479984571
 10
-4.3600214495
 20
13.9443922564
  0
LWPOLYLINE
  5
4F8
100
AcDbEntity
  8
ASSI
100
AcDbPolyline
 62
7
  6
CONTINUOUS
 90
25
 70
0
 10
18.8495293381
 20
-1.6225001075
 10
18.8415227407
 20
-1.6175718595
 10
18.8337675566
 20
-1.612173741
 10
18.8262926421
 20
-1.6063191449
 10
18.8190907362
 20
-1.5999998902
 10
18.8121690998
 20
-1.593224158
 10
18.8055635555
 20
-1.5860213307
 10
18.7992770429
 20
-1.5783869778
 10
18.7933066224
 20
-1.5703255298
 10
18.7876792969
 20
-1.5618796608
 10
18.782402226
 20
-1.5530573604
 10
18.7774682503
 20
-1.5438506389
 10
18.7728828945
 20
-1.5342782014
 10
18.7686453088
 20
-1.5243418395
 10
18.7647563431
 20
-1.5140397616
 10
18.761224072
 20
-1.5033852986
 10
18.7580459042
 20
-1.4923659015
 10
18.7552244311
 20
-1.4809941194
 10
18.7527755008
 20
-1.4693209295
 10
18.7507025079
 20
-1.4573419362
 10
18.7490020578
 20
-1.4450615352
 10
18.7476798158
 20
-1.432543891
 10
18.7467376703
 20
-1.4198103916
 10
18.7461737329
 20
-1.406839649
 10
18.7459880036
 20
-1.3936316632
  0
LINE
  5
4F9
100
AcDbEntity
  8
0
100
AcDbLine
 62
253
  6
CONTINUOUS
 10
23.1203114909
 20
-8.9401102372
 11
22.7411413173
 21
-8.521937465
  0
LWPOLYLINE
  5
4FA
100
AcDbEntity
  8
RACCORDO
100
AcDbPolyline
 62
253
  6
CONTINUOUS
 90
13
 70
0
 10
12.3909728277
 20
20.1665629707
 10
12.3889303208
 20
20.1994507031
 10
12.3833251592
 20
20.2338894335
 10
12.3742532762
 20
20.2692899312
 10
12.3618699105
 20
20.3050465324
 10
12.3463869621
 20
20.3405474646
 10
12.3280693758
 20
20.375185315
 10
12.307230581
 20
20.4083674811
 10
12.2842271262
 20
20.4395262924
 10
12.2594526009
 20
20.4681286873
 10
12.2333308803
 20
20.4936853634
 10
12.2063088699
 20
20.5157591436
 10
12.1788488707
 20
20.5339724414
  0
LWPOLYLINE
  5
4FB
100
AcDbEntity
  8
ASSI
100
AcDbPolyline
 62
253
  6
CONTINUOUS
 90
13
 70
0
 10
12.3909728277
 20
20.1665629707
 10
12.3889303208
 20
20.1994507031
 10
12.3833251592
 20
20.2338894335
 10
12.3742532762
 20
20.2692899312
 10
12.3618699105
 20
20.3050465324
 10
12.3463869621
 20
20.3405474646
 10
12.3280693758
 20
20.375185315
 10
12.307230581
 20
20.4083674811
 10
12.2842271262
 20
20.4395262924
 10
12.2594526009
 20
20.4681286873
 10
12.2333308803
 20
20.4936853634
 10
12.2063088699
 20
20.5157591436
 10
12.1788488707
 20
20.5339724414
  0
LINE
  5
4FC
100
AcDbEntity
  8
RACCORDO
100
AcDbLine
 62
253
  6
CONTINUOUS
 10
12.0405181955
 20
20.0827849485
 11
12.0395958892
 21
20.2278453436
  0
LINE
  5
4FD
100
AcDbEntity
  8
ASSI
100
AcDbLine
 62
253
  6
CONTINUOUS
 10
12.0405181955
 20
20.0827849485
 11
12.0395958892
 21
20.2278453436
  0
LINE
  5
4FE
100
AcDbEntity
  8
RACCORDO
100
AcDbLine
 62
253
  6
CONTINUOUS
 10
12.0395958892
 20
20.2278453436
 11
12.0389188195
 21
20.3803922645
  0
LINE
  5
4FF
100
AcDbEntity
  8
ASSI
100
AcDbLine
 62
253
  6
CONTINUOUS
 10
12.0395958892
 20
20.2278453436
 11
12.0389188195
 21
20.3803922645
  0
LINE
  5
500
100
AcDbEntity
  8
RACCORDO
100
AcDbLine
 62
253
  6
CONTINUOUS
 10
12.0389188195
 20
20.3803922645
 11
12.0386670178
 21
20.4998640983
  0
LINE
  5
501
100
AcDbEntity
  8
ASSI
100
AcDbLine
 62
253
  6
CONTINUOUS
 10
12.0389188195
 20
20.3803922645
 11
12.0386670178
 21
20.4998640983
  0
LINE
  5
502
100
AcDbEntity
  8
0
100
AcDbLine
 62
7
  6
CONTINUOUS
 10
11.851696887
 20
-15.2584233064
 11
11.851696887
 21
-12.1510122455
  0
LINE
  5
503
100
AcDbEntity
  8
RACCORDO
100
AcDbLine
 62
253
  6
CONTINUOUS
 10
12.0405181955
 20
19.344910642
 11
12.0405181955
 21
20.0827849485
  0
LINE
  5
504
100
AcDbEntity
  8
ASSI
100
AcDbLine
 62
253
  6
CONTINUOUS
 10
12.0405181955
 20
19.344910642
 11
12.0405181955
 21
20.0827849485
  0
LINE
  5
505
100
AcDbEntity
  8
RACCORDO
100
AcDbLine
 62
253
  6
CONTINUOUS
 10
12.3909728277
 20
19.4276934405
 11
12.3909728277
 21
20.1665629707
  0
LINE
  5
506
100
AcDbEntity
  8
ASSI
100
AcDbLine
 62
253
  6
CONTINUOUS
 10
12.3909728277
 20
19.4276934405
 11
12.3909728277
 21
20.1665629707
  0
LINE
  5
507
100
AcDbEntity
  8
RACCORDO
100
AcDbLine
 62
7
  6
CONTINUOUS
 10
13.8120308496
 20
20.3338678159
 11
13.8120308496
 21
20.2339976178
  0
LINE
  5
508
100
AcDbEntity
  8
ASSI
100
AcDbLine
 62
7
  6
CONTINUOUS
 10
13.8120308496
 20
20.3338678159
 11
13.8120308496
 21
20.2339976178
  0
LINE
  5
509
100
AcDbEntity
  8
0
100
AcDbLine
 62
7
  6
CONTINUOUS
 10
4.2942181422
 20
-19.8613853933
 11
4.2854193575
 21
-19.8835435512
  0
LWPOLYLINE
  5
50A
100
AcDbEntity
  8
0
100
AcDbPolyline
 62
7
  6
CONTINUOUS
 90
11
 70
0
 10
7.8374602138
 20
-17.8006007967
 10
7.8209532634
 20
-17.8421705846
 10
7.8024196262
 20
-17.8814714079
 10
7.7818592597
 20
-17.9184637571
 10
7.7592722062
 20
-17.9531871416
 10
7.7347859456
 20
-17.9854432975
 10
7.7083674459
 20
-18.0152387681
 10
7.6800497391
 20
-18.0425670101
 10
7.6500593998
 20
-18.0672101289
 10
7.6184107631
 20
-18.0891308167
 10
7.6019815999
 20
-18.0990713109
  0
LWPOLYLINE
  5
50B
100
AcDbEntity
  8
0
100
AcDbPolyline
 62
7
  6
CONTINUOUS
 90
10
 70
0
 10
4.2854193575
 20
-19.8835435512
 10
4.2668857202
 20
-19.9228443746
 10
4.2463253537
 20
-19.9598367237
 10
4.2237383003
 20
-19.9945601083
 10
4.1992520396
 20
-20.0268162642
 10
4.17283354
 20
-20.0566117348
 10
4.1445158331
 20
-20.0839399767
 10
4.1145254938
 20
-20.1085830955
 10
4.0828768571
 20
-20.1305037833
 10
4.066447694
 20
-20.1404442776
  0
LWPOLYLINE
  5
50C
100
AcDbEntity
  8
0
100
AcDbPolyline
 62
7
  6
CONTINUOUS
 90
16
 70
0
 10
4.3819817895
 20
-19.7593869604
 10
4.3877227806
 20
-19.7475648548
 10
4.3930807313
 20
-19.7353637227
 10
4.3980556415
 20
-19.7227835642
 10
4.402650986
 20
-19.7098134493
 10
4.4068632899
 20
-19.6964643079
 10
4.4106821293
 20
-19.6827689299
 10
4.4141064842
 20
-19.6687265957
 10
4.4171373745
 20
-19.654338025
 10
4.419767435
 20
-19.639638167
 10
4.4219956907
 20
-19.6246262769
 10
4.4238231167
 20
-19.6093030994
 10
4.4252452731
 20
-19.5937058183
 10
4.4262606799
 20
-19.577846828
 10
4.426870817
 20
-19.561713734
 10
4.4270756846
 20
-19.5453065363
  0
LINE
  5
50D
100
AcDbEntity
  8
RACCORDO
100
AcDbLine
 62
7
  6
CONTINUOUS
 10
-4.0228503506
 20
-19.1940567289
 11
-3.7586978501
 21
-19.0176143019
  0
LINE
  5
50E
100
AcDbEntity
  8
ASSI
100
AcDbLine
 62
7
  6
CONTINUOUS
 10
-3.7586978501
 20
-19.0176143019
 11
-4.0228503506
 21
-19.1940567289
  0
LINE
  5
50F
100
AcDbEntity
  8
0
100
AcDbLine
 62
7
  6
CONTINUOUS
 10
-5.7150501579
 20
12.4762082446
 11
-2.0879563887
 21
13.2096595813
  0
LINE
  5
510
100
AcDbEntity
  8
0
100
AcDbLine
 62
7
  6
CONTINUOUS
 10
-5.627646953
 20
12.8372775105
 11
-1.2201125526
 21
13.7285453418
  0
LWPOLYLINE
  5
511
100
AcDbEntity
  8
ASSI
100
AcDbPolyline
 62
7
  6
CONTINUOUS
 90
6
 70
0
 10
20.8914957085
 20
14.3701092403
 10
20.7845514419
 20
14.3551925017
 10
20.6754217194
 20
14.3287758047
 10
20.5647926893
 20
14.2909548543
 10
20.4519782033
 20
14.2416339456
 10
20.3369782613
 20
14.1808130784
  0
LINE
  5
512
100
AcDbEntity
  8
ASSI
100
AcDbLine
 62
7
  6
CONTINUOUS
 10
20.9941960739
 20
14.3732389057
 11
20.8914957085
 21
14.3701092403
  0
LINE
  5
513
100
AcDbEntity
  8
RACCORDO
100
AcDbLine
 62
253
  6
CONTINUOUS
 10
-16.8219137993
 20
15.2313295996
 11
-16.8104002856
 21
15.2303963226
  0
LINE
  5
514
100
AcDbEntity
  8
RACCORDO
100
AcDbLine
 62
253
  6
CONTINUOUS
 10
-16.833347702
 20
15.2323504481
 11
-16.8219137993
 21
15.2313295996
  0
LINE
  5
515
100
AcDbEntity
  8
RACCORDO
100
AcDbLine
 62
253
  6
CONTINUOUS
 10
-16.8447014296
 20
15.2334578727
 11
-16.833347702
 21
15.2323504481
  0
LINE
  5
516
100
AcDbEntity
  8
RACCORDO
100
AcDbLine
 62
253
  6
CONTINUOUS
 10
-16.855974203
 20
15.2346503973
 11
-16.8447014296
 21
15.2334578727
  0
LINE
  5
517
100
AcDbEntity
  8
RACCORDO
100
AcDbLine
 62
253
  6
CONTINUOUS
 10
-16.8671652782
 20
15.2359265863
 11
-16.855974203
 21
15.2346503973
  0
LINE
  5
518
100
AcDbEntity
  8
RACCORDO
100
AcDbLine
 62
253
  6
CONTINUOUS
 10
-16.878274183
 20
15.2372854931
 11
-16.8671652782
 21
15.2359265863
  0
LINE
  5
519
100
AcDbEntity
  8
RACCORDO
100
AcDbLine
 62
253
  6
CONTINUOUS
 10
-16.8893002403
 20
15.2387257126
 11
-16.878274183
 21
15.2372854931
  0
LINE
  5
51A
100
AcDbEntity
  8
RACCORDO
100
AcDbLine
 62
253
  6
CONTINUOUS
 10
-16.9002428426
 20
15.2402458846
 11
-16.8893002403
 21
15.2387257126
  0
LINE
  5
51B
100
AcDbEntity
  8
RACCORDO
100
AcDbLine
 62
253
  6
CONTINUOUS
 10
-16.9111016034
 20
15.241845113
 11
-16.9002428426
 21
15.2402458846
  0
LINE
  5
51C
100
AcDbEntity
  8
RACCORDO
100
AcDbLine
 62
253
  6
CONTINUOUS
 10
-16.921875968
 20
15.2435220681
 11
-16.9111016034
 21
15.241845113
  0
LINE
  5
51D
100
AcDbEntity
  8
RACCORDO
100
AcDbLine
 62
253
  6
CONTINUOUS
 10
-16.9325654642
 20
15.2452754696
 11
-16.921875968
 21
15.2435220681
  0
LINE
  5
51E
100
AcDbEntity
  8
RACCORDO
100
AcDbLine
 62
253
  6
CONTINUOUS
 10
-16.9431698082
 20
15.2471044782
 11
-16.9325654642
 21
15.2452754696
  0
LINE
  5
51F
100
AcDbEntity
  8
RACCORDO
100
AcDbLine
 62
253
  6
CONTINUOUS
 10
-16.9536886199
 20
15.2490078539
 11
-16.9431698082
 21
15.2471044782
  0
LINE
  5
520
100
AcDbEntity
  8
RACCORDO
100
AcDbLine
 62
253
  6
CONTINUOUS
 10
-16.9641216145
 20
15.2509844161
 11
-16.9536886199
 21
15.2490078539
  0
LINE
  5
521
100
AcDbEntity
  8
RACCORDO
100
AcDbLine
 62
253
  6
CONTINUOUS
 10
-16.9744686021
 20
15.253033387
 11
-16.9641216145
 21
15.2509844161
  0
LINE
  5
522
100
AcDbEntity
  8
RACCORDO
100
AcDbLine
 62
253
  6
CONTINUOUS
 10
-16.9847293071
 20
15.2551536155
 11
-16.9744686021
 21
15.253033387
  0
LWPOLYLINE
  5
523
100
AcDbEntity
  8
RACCORDO
100
AcDbPolyline
 62
253
  6
CONTINUOUS
 90
3
 70
0
 10
-16.9999581233
 20
15.2584653663
 10
-16.9949034993
 20
15.2573440022
 10
-16.9847293071
 20
15.2551536155
  0
LWPOLYLINE
  5
524
100
AcDbEntity
  8
0
100
AcDbPolyline
 62
7
  6
CONTINUOUS
 90
7
 70
0
 10
-6.1537357715
 20
18.0214263815
 10
-6.1614460018
 20
18.0257212336
 10
-6.1905602307
 20
18.0394583439
 10
-6.221102521
 20
18.0501321688
 10
-6.2529560824
 20
18.0576917594
 10
-6.2862377053
 20
18.0621880647
 10
-6.3209473895
 20
18.0636210847
  0
LINE
  5
525
100
AcDbEntity
  8
RACCORDO
100
AcDbLine
 62
7
  6
CONTINUOUS
 10
20.4273311304
 20
1.5625744584
 11
20.4239638886
 21
1.5645069854
  0
LINE
  5
526
100
AcDbEntity
  8
ASSI
100
AcDbLine
 62
7
  6
CONTINUOUS
 10
20.4272672107
 20
1.5626109222
 11
20.4239638886
 21
1.5645069854
  0
LINE
  5
527
100
AcDbEntity
  8
RACCORDO
100
AcDbLine
 62
7
  6
CONTINUOUS
 10
-9.4675725657
 20
18.6759314145
 11
-8.0180036643
 21
17.8389684982
  0
LINE
  5
528
100
AcDbEntity
  8
RACCORDO
100
AcDbLine
 62
7
  6
CONTINUOUS
 10
-1.0623590835
 20
13.822866492
 11
-2.4318600929
 21
14.6135992109
  0
LINE
  5
529
100
AcDbEntity
  8
DRAFT
100
AcDbLine
 62
7
  6
CONTINUOUS
 10
-9.608993922
 20
19.0179003635
 11
-8.0350499885
 21
18.1091248625
  0
LINE
  5
52A
100
AcDbEntity
  8
DRAFT
100
AcDbLine
 62
7
  6
CONTINUOUS
 10
-2.4148137687
 20
14.8640709073
 11
-0.8408698353
 21
13.9552954063
  0
LINE
  5
52B
100
AcDbEntity
  8
DRAFT
100
AcDbLine
 62
7
  6
CONTINUOUS
 10
-0.5530900849
 20
14.1157546598
 11
-2.1294456749
 21
15.0259226211
  0
LINE
  5
52C
100
AcDbEntity
  8
DRAFT
100
AcDbLine
 62
7
  6
CONTINUOUS
 10
-7.7547326574
 20
18.2738928234
 11
-9.3310882474
 21
19.1840607847
  0
LINE
  5
52D
100
AcDbEntity
  8
RACCORDO
100
AcDbLine
 62
253
  6
CONTINUOUS
 10
21.5097402815
 20
1.6648283541
 11
20.9319751163
 21
1.9984227194
  0
LINE
  5
52E
100
AcDbEntity
  8
ASSI
100
AcDbLine
 62
253
  6
CONTINUOUS
 10
21.5097402815
 20
1.6648283541
 11
20.9319751163
 21
1.9984227194
  0
LINE
  5
52F
100
AcDbEntity
  8
0
100
AcDbLine
 62
253
  6
CONTINUOUS
 10
-1.3620787861
 20
15.1415067034
 11
-6.4071328909
 21
18.0544577142
  0
LINE
  5
530
100
AcDbEntity
  8
0
100
AcDbLine
 62
7
  6
CONTINUOUS
 10
-6.1537683578
 20
18.0214621748
 11
-1.2064577158
 21
15.1649470145
  0
LINE
  5
531
100
AcDbEntity
  8
RACCORDO
100
AcDbLine
 62
253
  6
CONTINUOUS
 10
-7.8684622853
 20
19.4329603779
 11
-6.4198256138
 21
18.5965357195
  0
LINE
  5
532
100
AcDbEntity
  8
RACCORDO
100
AcDbLine
 62
253
  6
CONTINUOUS
 10
-0.4871332348
 20
15.171073494
 11
0.4102897513
 21
14.6529127092
  0
LINE
  5
533
100
AcDbEntity
  8
RACCORDO
100
AcDbLine
 62
7
  6
CONTINUOUS
 10
-7.7162533101
 20
19.4100038875
 11
-6.4277374
 21
18.6660309499
  0
LINE
  5
534
100
AcDbEntity
  8
RACCORDO
100
AcDbLine
 62
7
  6
CONTINUOUS
 10
-0.169406164
 20
15.0525489296
 11
0.4674960245
 21
14.6848095882
  0
LINE
  5
535
100
AcDbEntity
  8
ASSI
100
AcDbLine
 62
7
  6
CONTINUOUS
 10
3.3736330596
 20
13.2362047177
 11
2.5936153893
 21
13.6865771446
  0
LINE
  5
536
100
AcDbEntity
  8
ASSI
100
AcDbLine
 62
7
  6
CONTINUOUS
 10
-9.4982629216
 20
20.6682761345
 11
-9.7222774859
 21
20.7976193364
  0
LINE
  5
537
100
AcDbEntity
  8
RACCORDO
100
AcDbLine
 62
253
  6
CONTINUOUS
 10
2.0180558885
 20
14.0193408161
 11
0.6699738543
 21
14.7977064872
  0
LINE
  5
538
100
AcDbEntity
  8
RACCORDO
100
AcDbLine
 62
253
  6
CONTINUOUS
 10
-8.1499891305
 20
19.8902425746
 11
-9.4980711648
 21
20.6686082457
  0
LINE
  5
539
100
AcDbEntity
  8
RACCORDO
100
AcDbLine
 62
7
  6
CONTINUOUS
 10
2.4250575797
 20
14.0549422293
 11
1.0769755454
 21
14.8333079005
  0
LINE
  5
53A
100
AcDbEntity
  8
RACCORDO
100
AcDbLine
 62
7
  6
CONTINUOUS
 10
-7.7569521654
 20
19.9339070456
 11
-9.1050341997
 21
20.7122727168
  0
LWPOLYLINE
  5
53B
100
AcDbEntity
  8
RACCORDO
100
AcDbPolyline
 62
7
  6
CONTINUOUS
 90
10
 70
0
 10
-6.4274329291
 20
18.6658542731
 10
-6.4268004323
 20
18.6654804842
 10
-6.422718575
 20
18.6626400849
 10
-6.4192681273
 20
18.6594383017
 10
-6.4164293554
 20
18.6558839609
 10
-6.4141821853
 20
18.6519874121
 10
-6.412505194
 20
18.6477575996
 10
-6.4113791183
 20
18.6431982857
 10
-6.4107861571
 20
18.6383213499
 10
-6.4106776404
 20
18.6349310448
  0
LWPOLYLINE
  5
53C
100
AcDbEntity
  8
RACCORDO
100
AcDbPolyline
 62
7
  6
CONTINUOUS
 90
15
 70
0
 10
-2.4318600929
 20
14.6135992109
 10
-2.4408763584
 20
14.6190375574
 10
-2.4492115464
 20
14.624521785
 10
-2.4568656568
 20
14.6300518935
 10
-2.4638655559
 20
14.635651888
 10
-2.4701843775
 20
14.6412977636
 10
-2.4757415227
 20
14.646917505
 10
-2.4805272347
 20
14.6525107776
 10
-2.4845512704
 20
14.6580779161
 10
-2.4877623018
 20
14.6635479096
 10
-2.4901499144
 20
14.6689195138
 10
-2.4917245228
 20
14.6741939732
 10
-2.4924660422
 20
14.6793040101
 10
-2.4923638009
 20
14.6842475182
 10
-2.491738995
 20
14.6878537189
  0
LINE
  5
53D
100
AcDbEntity
  8
ASSI
100
AcDbLine
 62
7
  6
CONTINUOUS
 10
20.4271971793
 20
1.562654091
 11
20.3728174445
 21
1.5981113098
  0
LWPOLYLINE
  5
53E
100
AcDbEntity
  8
RACCORDO
100
AcDbPolyline
 62
7
  6
CONTINUOUS
 90
34
 70
0
 10
20.4272610859
 20
1.5626176442
 10
20.3712610863
 20
1.5992710165
 10
20.3142807042
 20
1.6482654898
 10
20.2629140558
 20
1.7056134265
 10
20.216444219
 20
1.7722223701
 10
20.175116911
 20
1.8483106963
 10
20.1396644441
 20
1.9331392612
 10
20.1105174439
 20
2.026209884
 10
20.0880230069
 20
2.1267785855
 10
20.0724373145
 20
2.2340509965
 10
20.0639205309
 20
2.347471696
 10
20.0625613806
 20
2.4659747736
 10
20.0683603675
 20
2.5889640336
 10
20.0814499519
 20
2.7168939987
 10
20.1020091103
 20
2.8495554992
 10
20.1300343283
 20
2.9857246278
 10
20.1654844384
 20
3.1245150517
 10
20.2082605897
 20
3.2651596507
 10
20.2581986139
 20
3.4068461423
 10
20.3150534543
 20
3.548649425
 10
20.3785380913
 20
3.6897476854
 10
20.4483370774
 20
3.8293833929
 10
20.5240896597
 20
3.9667599931
 10
20.605393826
 20
4.1011209398
 10
20.6917988127
 20
4.231732363
 10
20.7828207105
 20
4.3578574033
 10
20.8779901868
 20
4.4788630265
 10
20.9767075343
 20
4.5940454977
 10
21.0782239577
 20
4.7026052666
 10
21.1819623211
 20
4.8040295126
 10
21.2872660411
 20
4.8978169985
 10
21.3931835092
 20
4.9832927128
 10
21.4989201637
 20
5.0600554592
 10
21.6038573911
 20
5.1279587715
  0
LWPOLYLINE
  5
53F
100
AcDbEntity
  8
0
100
AcDbPolyline
 62
7
  6
CONTINUOUS
 90
8
 70
0
 10
15.2355757665
 20
-10.9349434365
 10
15.256850181
 20
-11.0089958975
 10
15.2749226904
 20
-11.0824530804
 10
15.2898422936
 20
-11.1553741431
 10
15.3014752153
 20
-11.2270864473
 10
15.3097768634
 20
-11.2973657802
 10
15.3147918299
 20
-11.3664363547
 10
15.3165201148
 20
-11.4342981706
  0
LINE
  5
540
100
AcDbEntity
  8
0
100
AcDbLine
 62
7
  6
CONTINUOUS
 10
15.2458094367
 20
-10.9705650262
 11
15.2458094367
 21
-10.1912941975
  0
LINE
  5
541
100
AcDbEntity
  8
ASSI
100
AcDbLine
 62
7
  6
CONTINUOUS
 10
15.3165201148
 20
-11.4342981706
 11
15.3165201148
 21
-13.1713594164
  0
LINE
  5
542
100
AcDbEntity
  8
0
100
AcDbLine
 62
7
  6
CONTINUOUS
 10
15.7407841836
 20
-13.0129130431
 11
15.7407841836
 21
-9.9055019822
  0
LWPOLYLINE
  5
543
100
AcDbEntity
  8
0
100
AcDbPolyline
 62
7
  6
CONTINUOUS
 90
8
 70
0
 10
15.3165201148
 20
-13.1713594164
 10
15.315374842
 20
-13.225307661
 10
15.3120152925
 20
-13.2775990205
 10
15.3064414662
 20
-13.3282334949
 10
15.2986332841
 20
-13.377309513
 10
15.2886108253
 20
-13.424728646
 10
15.2764343267
 20
-13.4701956076
 10
15.2620814162
 20
-13.5137175668
  0
LWPOLYLINE
  5
544
100
AcDbEntity
  8
0
100
AcDbPolyline
 62
7
  6
CONTINUOUS
 90
16
 70
0
 10
8.271069086
 20
-17.5138766971
 10
8.2768100772
 20
-17.5020545915
 10
8.2821680278
 20
-17.4898534594
 10
8.287142938
 20
-17.4772733009
 10
8.2917382825
 20
-17.464303186
 10
8.2959505865
 20
-17.4509540446
 10
8.2997694258
 20
-17.4372586666
 10
8.3031937807
 20
-17.4232163324
 10
8.306224671
 20
-17.4088277617
 10
8.3088547315
 20
-17.3941279037
 10
8.3110829873
 20
-17.3791160136
 10
8.3129104132
 20
-17.3637928361
 10
8.3143325696
 20
-17.348195555
 10
8.3153479764
 20
-17.3323365647
 10
8.3159581136
 20
-17.3162034707
 10
8.3161629811
 20
-17.299796273
  0
LINE
  5
545
100
AcDbEntity
  8
RACCORDO
100
AcDbLine
 62
7
  6
CONTINUOUS
 10
-4.0228503506
 20
-22.6232318914
 11
-2.6476969699
 21
-21.5807671628
  0
LINE
  5
546
100
AcDbEntity
  8
ASSI
100
AcDbLine
 62
7
  6
CONTINUOUS
 10
-2.6476969699
 20
-21.5807671628
 11
-4.0228503506
 21
-22.6232318914
  0
LINE
  5
547
100
AcDbEntity
  8
0
100
AcDbLine
 62
7
  6
CONTINUOUS
 10
4.4270756846
 20
-16.4378954754
 11
8.3161629811
 21
-14.1923852121
  0
LINE
  5
548
100
AcDbEntity
  8
0
100
AcDbLine
 62
7
  6
CONTINUOUS
 10
11.851696887
 20
-12.1510122455
 11
15.7407841836
 21
-9.9055019822
  0
LINE
  5
549
100
AcDbEntity
  8
0
100
AcDbLine
 62
7
  6
CONTINUOUS
 10
-4.007681349
 20
-19.1515095702
 11
-1.4176635955
 21
-17.7586818386
  0
LINE
  5
54A
100
AcDbEntity
  8
RACCORDO
100
AcDbLine
 62
7
  6
CONTINUOUS
 10
-4.4129786977
 20
13.9097940414
 11
-6.3632243824
 21
13.5154258791
  0
LINE
  5
54B
100
AcDbEntity
  8
RACCORDO
100
AcDbLine
 62
7
  6
CONTINUOUS
 10
-2.4148137687
 20
14.7272986091
 11
-2.4387817468
 21
14.7224519339
  0
LINE
  5
54C
100
AcDbEntity
  8
RACCORDO
100
AcDbLine
 62
7
  6
CONTINUOUS
 10
-8.3907016701
 20
14.581209608
 11
-6.8338342805
 21
14.8960309335
  0
LINE
  5
54D
100
AcDbEntity
  8
RACCORDO
100
AcDbLine
 62
7
  6
CONTINUOUS
 10
-8.6966767603
 20
14.8627320371
 11
-6.7464310756
 21
15.2571001994
  0
LWPOLYLINE
  5
54E
100
AcDbEntity
  8
RACCORDO
100
AcDbPolyline
 62
7
  6
CONTINUOUS
 90
25
 70
0
 10
-6.3632243824
 20
13.5154258791
 10
-6.3723964871
 20
13.5138155767
 10
-6.3820488077
 20
13.5125698927
 10
-6.3921813443
 20
13.5116888271
 10
-6.4028414632
 20
13.5111717316
 10
-6.413981798
 20
13.5110192544
 10
-6.4254602499
 20
13.5112333406
 10
-6.4372811501
 20
13.5118186857
 10
-6.4494401674
 20
13.512770594
 10
-6.4617822094
 20
13.5140769238
 10
-6.4743096204
 20
13.5157422149
 10
-6.487020056
 20
13.5177619275
 10
-6.4997513902
 20
13.5201102992
 10
-6.5125038907
 20
13.5227915403
 10
-6.5252772897
 20
13.5258014406
 10
-6.5379086582
 20
13.5291016078
 10
-6.5503961766
 20
13.5326957602
 10
-6.5627416645
 20
13.5365801795
 10
-6.5747876508
 20
13.5407053185
 10
-6.5865302989
 20
13.5450742609
 10
-6.5979734454
 20
13.5496839232
 10
-6.608971129
 20
13.5544755073
 10
-6.6194746959
 20
13.5594294141
 10
-6.6295327999
 20
13.5645652428
 10
-6.639145441
 20
13.5698829935
  0
LWPOLYLINE
  5
54F
100
AcDbEntity
  8
RACCORDO
100
AcDbPolyline
 62
7
  6
CONTINUOUS
 90
25
 70
0
 10
-6.7464310756
 20
15.2571001994
 10
-6.7372589709
 20
15.2587105018
 10
-6.7276066502
 20
15.2599561858
 10
-6.7174741136
 20
15.2608372515
 10
-6.7068139948
 20
15.261354347
 10
-6.69567366
 20
15.2615068241
 10
-6.6841952081
 20
15.2612927379
 10
-6.6723743078
 20
15.2607073929
 10
-6.6602152905
 20
15.2597554845
 10
-6.6478732486
 20
15.2584491548
 10
-6.6353458376
 20
15.2567838636
 10
-6.6226354019
 20
15.2547641511
 10
-6.6099040677
 20
15.2524157793
 10
-6.5971515672
 20
15.2497345383
 10
-6.5843781682
 20
15.246724638
 10
-6.5717467998
 20
15.2434244707
 10
-6.5592592813
 20
15.2398303184
 10
-6.5469137935
 20
15.2359458991
 10
-6.5348678072
 20
15.23182076
 10
-6.5231251591
 20
15.2274518176
 10
-6.5116820126
 20
15.2228421554
 10
-6.5006843289
 20
15.2180505713
 10
-6.490180762
 20
15.2130966645
 10
-6.480122658
 20
15.2079608357
 10
-6.470510017
 20
15.2026430851
  0
LINE
  5
550
100
AcDbEntity
  8
ASSI
100
AcDbLine
 62
7
  6
CONTINUOUS
 10
-1.0529457534
 20
15.1880696427
 11
-2.1294456749
 21
15.0259226211
  0
LWPOLYLINE
  5
551
100
AcDbEntity
  8
RACCORDO
100
AcDbPolyline
 62
253
  6
CONTINUOUS
 90
41
 70
0
 10
-16.5780234478
 20
15.2312409412
 10
-16.5716101565
 20
15.2317900973
 10
-16.5651862162
 20
15.232368743
 10
-16.5587513631
 20
15.2329768917
 10
-16.5523066873
 20
15.2336150664
 10
-16.5458522369
 20
15.2342832631
 10
-16.5393879637
 20
15.2349814858
 10
-16.5329148139
 20
15.2357102694
 10
-16.5264327705
 20
15.2364696152
 10
-16.5199418504
 20
15.2372595221
 10
-16.5134430505
 20
15.2380805209
 10
-16.5069363486
 20
15.2389326144
 10
-16.500421767
 20
15.2398158
 10
-16.4939003691
 20
15.2407306012
 10
-16.4873721374
 20
15.2416770205
 10
-16.4808370894
 20
15.2426550554
 10
-16.4742963407
 20
15.2436652217
 10
-16.4677498758
 20
15.2447075223
 10
-16.4611977102
 20
15.2457819543
 10
-16.4546410069
 20
15.2468890256
 10
-16.4480797515
 20
15.2480287389
 10
-16.4415139584
 20
15.2492010914
 10
-16.434944834
 20
15.2504065823
 10
-16.4283723635
 20
15.2516452149
 10
-16.4217965617
 20
15.2529169859
 10
-16.41521868
 20
15.2542223849
 10
-16.4086387026
 20
15.2555614156
 10
-16.4020566454
 20
15.2569340742
 10
-16.3954738076
 20
15.258340839
 10
-16.3888901733
 20
15.2597817142
 10
-16.3823057584
 20
15.2612566955
 10
-16.3757219102
 20
15.2627662487
 10
-16.3691386126
 20
15.2643103783
 10
-16.3625558817
 20
15.2658890798
 10
-16.3559751124
 20
15.2675028051
 10
-16.3493962889
 20
15.2691515592
 10
-16.342819427
 20
15.2708353371
 10
-16.3362459694
 20
15.2725545758
 10
-16.3296763971
 20
15.274309421
 10
-16.3231102291
 20
15.2760997269
 10
-16.3165474655
 20
15.2779254936
  0
LWPOLYLINE
  5
552
100
AcDbEntity
  8
RACCORDO
100
AcDbPolyline
 62
253
  6
CONTINUOUS
 90
3
 70
0
 10
-16.5971919074
 20
15.2297690746
 10
-16.59081541
 20
15.2302306556
 10
-16.5780234478
 20
15.2312409412
  0
LINE
  5
553
100
AcDbEntity
  8
RACCORDO
100
AcDbLine
 62
253
  6
CONTINUOUS
 10
-16.6099055109
 20
15.2289323979
 11
-16.5971919074
 21
15.2297690746
  0
LINE
  5
554
100
AcDbEntity
  8
RACCORDO
100
AcDbLine
 62
253
  6
CONTINUOUS
 10
-16.6225637673
 20
15.228209508
 11
-16.6099055109
 21
15.2289323979
  0
LINE
  5
555
100
AcDbEntity
  8
RACCORDO
100
AcDbLine
 62
253
  6
CONTINUOUS
 10
-16.6351643956
 20
15.2275986242
 11
-16.6225637673
 21
15.228209508
  0
LINE
  5
556
100
AcDbEntity
  8
RACCORDO
100
AcDbLine
 62
253
  6
CONTINUOUS
 10
-16.6477058726
 20
15.2270985659
 11
-16.6351643956
 21
15.2275986242
  0
LINE
  5
557
100
AcDbEntity
  8
RACCORDO
100
AcDbLine
 62
253
  6
CONTINUOUS
 10
-16.6601859916
 20
15.2267075613
 11
-16.6477058726
 21
15.2270985659
  0
LINE
  5
558
100
AcDbEntity
  8
RACCORDO
100
AcDbLine
 62
253
  6
CONTINUOUS
 10
-16.6726028813
 20
15.2264238489
 11
-16.6601859916
 21
15.2267075613
  0
LINE
  5
559
100
AcDbEntity
  8
RACCORDO
100
AcDbLine
 62
253
  6
CONTINUOUS
 10
-16.684955312
 20
15.2262462612
 11
-16.6726028813
 21
15.2264238489
  0
LINE
  5
55A
100
AcDbEntity
  8
RACCORDO
100
AcDbLine
 62
253
  6
CONTINUOUS
 10
-16.6972414937
 20
15.2261730534
 11
-16.684955312
 21
15.2262462612
  0
LINE
  5
55B
100
AcDbEntity
  8
RACCORDO
100
AcDbLine
 62
253
  6
CONTINUOUS
 10
-16.7094597997
 20
15.2262025083
 11
-16.6972414937
 21
15.2261730534
  0
LINE
  5
55C
100
AcDbEntity
  8
RACCORDO
100
AcDbLine
 62
253
  6
CONTINUOUS
 10
-16.7216091777
 20
15.2263334879
 11
-16.7094597997
 21
15.2262025083
  0
LINE
  5
55D
100
AcDbEntity
  8
RACCORDO
100
AcDbLine
 62
253
  6
CONTINUOUS
 10
-16.7336881104
 20
15.2265642948
 11
-16.7216091777
 21
15.2263334879
  0
LINE
  5
55E
100
AcDbEntity
  8
RACCORDO
100
AcDbLine
 62
253
  6
CONTINUOUS
 10
-16.7456951619
 20
15.2268932633
 11
-16.7336881104
 21
15.2265642948
  0
LINE
  5
55F
100
AcDbEntity
  8
RACCORDO
100
AcDbLine
 62
253
  6
CONTINUOUS
 10
-16.7576294076
 20
15.22731929
 11
-16.7456951619
 21
15.2268932633
  0
LINE
  5
560
100
AcDbEntity
  8
RACCORDO
100
AcDbLine
 62
253
  6
CONTINUOUS
 10
-16.769489504
 20
15.2278407301
 11
-16.7576294076
 21
15.22731929
  0
LINE
  5
561
100
AcDbEntity
  8
RACCORDO
100
AcDbLine
 62
253
  6
CONTINUOUS
 10
-16.7812742245
 20
15.2284559738
 11
-16.769489504
 21
15.2278407301
  0
LINE
  5
562
100
AcDbEntity
  8
RACCORDO
100
AcDbLine
 62
253
  6
CONTINUOUS
 10
-16.792982776
 20
15.2291639557
 11
-16.7812742245
 21
15.2284559738
  0
LWPOLYLINE
  5
563
100
AcDbEntity
  8
RACCORDO
100
AcDbPolyline
 62
253
  6
CONTINUOUS
 90
3
 70
0
 10
-16.8104002856
 20
15.2303963226
 10
-16.8046140055
 20
15.2299630888
 10
-16.792982776
 20
15.2291639557
  0
LWPOLYLINE
  5
564
100
AcDbEntity
  8
RACCORDO
100
AcDbPolyline
 62
7
  6
CONTINUOUS
 90
16
 70
0
 10
-0.4871332348
 20
15.171073494
 10
-0.4669159991
 20
15.1675604105
 10
-0.4462922084
 20
15.1633638556
 10
-0.4252683939
 20
15.1584704141
 10
-0.4038320181
 20
15.1528675976
 10
-0.3820114553
 20
15.1465400815
 10
-0.3598762087
 20
15.1394722446
 10
-0.3374508247
 20
15.1316530546
 10
-0.3147325916
 20
15.1230706231
 10
-0.2917515941
 20
15.1137109896
 10
-0.2685339314
 20
15.1035670565
 10
-0.2450805966
 20
15.0926245257
 10
-0.2213854818
 20
15.0808585662
 10
-0.1974641316
 20
15.0682562156
 10
-0.1733342111
 20
15.0548074636
 10
-0.1698896349
 20
15.0528271975
  0
LWPOLYLINE
  5
565
100
AcDbEntity
  8
ASSI
100
AcDbPolyline
 62
7
  6
CONTINUOUS
 90
3
 70
0
 10
21.12294544
 20
10.2753308181
 10
21.0925703248
 20
10.2820017733
 10
20.9941960739
 20
10.2908875217
  0
LINE
  5
566
100
AcDbEntity
  8
RACCORDO
100
AcDbLine
 62
7
  6
CONTINUOUS
 10
20.4273311304
 20
5.6449258424
 11
20.4239638886
 21
5.6468583694
  0
LINE
  5
567
100
AcDbEntity
  8
ASSI
100
AcDbLine
 62
7
  6
CONTINUOUS
 10
20.4272672107
 20
5.6449623061
 11
20.4239638886
 21
5.6468583694
  0
LINE
  5
568
100
AcDbEntity
  8
ASSI
100
AcDbLine
 62
7
  6
CONTINUOUS
 10
25.1099490343
 20
1.8726045384
 11
25.0386281664
 21
1.9137843136
  0
LINE
  5
569
100
AcDbEntity
  8
DRAFT
100
AcDbLine
 62
7
  6
CONTINUOUS
 10
23.165405386
 20
4.0567710299
 11
23.8058565561
 21
3.686982551
  0
LINE
  5
56A
100
AcDbEntity
  8
ASSI
100
AcDbLine
 62
7
  6
CONTINUOUS
 10
23.165405386
 20
4.0567710299
 11
23.8058565561
 21
3.686982551
  0
LINE
  5
56B
100
AcDbEntity
  8
RACCORDO
100
AcDbLine
 62
253
  6
CONTINUOUS
 10
21.5097402815
 20
5.7471797381
 11
20.9319751163
 21
6.0807741034
  0
LINE
  5
56C
100
AcDbEntity
  8
ASSI
100
AcDbLine
 62
253
  6
CONTINUOUS
 10
21.5097402815
 20
5.7471797381
 11
20.9319751163
 21
6.0807741034
  0
LINE
  5
56D
100
AcDbEntity
  8
RACCORDO
100
AcDbLine
 62
7
  6
CONTINUOUS
 10
25.9677253352
 20
4.1942760725
 11
25.3220810686
 21
4.5670629801
  0
LINE
  5
56E
100
AcDbEntity
  8
ASSI
100
AcDbLine
 62
7
  6
CONTINUOUS
 10
25.9677253352
 20
4.1942760725
 11
25.3220810686
 21
4.5670629801
  0
LINE
  5
56F
100
AcDbEntity
  8
ASSI
100
AcDbLine
 62
7
  6
CONTINUOUS
 10
20.4271971793
 20
5.6450054749
 11
20.3728174445
 21
5.6804626938
  0
LWPOLYLINE
  5
570
100
AcDbEntity
  8
RACCORDO
100
AcDbPolyline
 62
7
  6
CONTINUOUS
 90
34
 70
0
 10
20.4272610859
 20
5.6449690282
 10
20.3712610863
 20
5.6816224005
 10
20.3142807042
 20
5.7306168738
 10
20.2629140558
 20
5.7879648104
 10
20.216444219
 20
5.854573754
 10
20.175116911
 20
5.9306620803
 10
20.1396644441
 20
6.0154906452
 10
20.1105174439
 20
6.108561268
 10
20.0880230069
 20
6.2091299694
 10
20.0724373145
 20
6.3164023805
 10
20.0639205309
 20
6.42982308
 10
20.0625613806
 20
6.5483261576
 10
20.0683603675
 20
6.6713154176
 10
20.0814499519
 20
6.7992453827
 10
20.1020091103
 20
6.9319068831
 10
20.1300343283
 20
7.0680760117
 10
20.1654844384
 20
7.2068664357
 10
20.2082605897
 20
7.3475110347
 10
20.2581986139
 20
7.4891975263
 10
20.3150534543
 20
7.6310008089
 10
20.3785380913
 20
7.7720990694
 10
20.4483370774
 20
7.9117347769
 10
20.5240896597
 20
8.049111377
 10
20.605393826
 20
8.1834723238
 10
20.6917988127
 20
8.3140837469
 10
20.7828207105
 20
8.4402087873
 10
20.8779901868
 20
8.5612144105
 10
20.9767075343
 20
8.6763968816
 10
21.0782239577
 20
8.7849566506
 10
21.1819623211
 20
8.8863808966
 10
21.2872660411
 20
8.9801683824
 10
21.3931835092
 20
9.0656440968
 10
21.4989201637
 20
9.1424068431
 10
21.6038573911
 20
9.2103101554
  0
LWPOLYLINE
  5
571
100
AcDbEntity
  8
ASSI
100
AcDbPolyline
 62
7
  6
CONTINUOUS
 90
33
 70
0
 10
20.3728174445
 20
1.5981113098
 10
20.315691219
 20
1.6468844896
 10
20.2641774626
 20
1.7040201647
 10
20.217548534
 20
1.7704360149
 10
20.1760495919
 20
1.8463642157
 10
20.1404186652
 20
1.9310710572
 10
20.1110935556
 20
2.0240587938
 10
20.0884260886
 20
2.1245898213
 10
20.0726777212
 20
2.2318657218
 10
20.0640138043
 20
2.3453091081
 10
20.062523265
 20
2.463838912
 10
20.0682038176
 20
2.5868642903
 10
20.0811873329
 20
2.7148491312
 10
20.1016543084
 20
2.8475861844
 10
20.1296015609
 20
2.9838459794
 10
20.1649893331
 20
3.1227439205
 10
20.2077204151
 20
3.2635127966
 10
20.257630305
 20
3.4053361483
 10
20.3144735113
 20
3.5472852338
 10
20.3779629386
 20
3.6885355964
 10
20.4477825158
 20
3.8283274655
 10
20.5235704655
 20
3.9658614341
 10
20.6049239294
 20
4.1003783427
 10
20.69139101
 20
4.2311421464
 10
20.7824864904
 20
4.3574137588
 10
20.8777397833
 20
4.478557983
 10
20.9765495163
 20
4.5938689387
 10
21.0781648861
 20
4.7025448452
 10
21.1820071679
 20
4.8040713814
 10
21.287417677
 20
4.8979456341
 10
21.3934417022
 20
4.9834904774
 10
21.4992820598
 20
5.0603037499
 10
21.6041620764
 20
5.1281378709
  0
LINE
  5
572
100
AcDbEntity
  8
0
100
AcDbLine
 62
253
  6
CONTINUOUS
 10
22.8118519954
 20
-9.1702447288
 11
22.7320830428
 21
-9.0320808501
  0
LINE
  5
573
100
AcDbEntity
  8
0
100
AcDbLine
 62
253
  6
CONTINUOUS
 10
23.0183595714
 20
-9.0510328879
 11
22.7411413173
 21
-8.5708767876
  0
LWPOLYLINE
  5
574
100
AcDbEntity
  8
ASSI
100
AcDbPolyline
 62
7
  6
CONTINUOUS
 90
28
 70
0
 10
18.7459880036
 20
16.0020092416
 10
18.7457741174
 20
16.0190166781
 10
18.7451373055
 20
16.0362255827
 10
18.7440775677
 20
16.0536359555
 10
18.7425932927
 20
16.0712628596
 10
18.7406860919
 20
16.0890912319
 10
18.7383607996
 20
16.1070758823
 10
18.735616355
 20
16.1252172073
 10
18.7324538189
 20
16.1435148104
 10
18.7288812073
 20
16.1619223121
 10
18.72489748
 20
16.1804399914
 10
18.7205036773
 20
16.1990675694
 10
18.7157109363
 20
16.2177578304
 10
18.7105182448
 20
16.2365109333
 10
18.7049266151
 20
16.2553267191
 10
18.6989502202
 20
16.2741574951
 10
18.6925880842
 20
16.2930032992
 10
18.685841183
 20
16.3118640934
 10
18.6787266183
 20
16.3306920707
 10
18.6712434573
 20
16.3494871481
 10
18.6633926328
 20
16.3682494086
 10
18.6551940444
 20
16.3869312951
 10
18.6466468098
 20
16.4055326038
 10
18.6377518114
 20
16.4240535384
 10
18.6285315955
 20
16.4424471537
 10
18.6189936775
 20
16.460697801
 10
18.609130542
 20
16.4788211289
 10
18.598942189
 20
16.4968171373
  0
LINE
  5
575
100
AcDbEntity
  8
ASSI
100
AcDbLine
 62
7
  6
CONTINUOUS
 10
18.7459880036
 20
16.0020092416
 11
18.7459880036
 21
-1.3936316632
  0
LINE
  5
576
100
AcDbEntity
  8
RACCORDO
100
AcDbLine
 62
7
  6
CONTINUOUS
 10
18.7617783179
 20
-1.2394468464
 11
18.7617783179
 21
15.9502167614
  0
LINE
  5
577
100
AcDbEntity
  8
ASSI
100
AcDbLine
 62
7
  6
CONTINUOUS
 10
18.7617783179
 20
-1.2394468464
 11
18.7617783179
 21
15.9502167614
  0
LINE
  5
578
100
AcDbEntity
  8
0
100
AcDbLine
 62
7
  6
CONTINUOUS
 10
19.2763180895
 20
-10.9715400764
 11
19.2763180895
 21
-8.517305237
  0
LINE
  5
579
100
AcDbEntity
  8
0
100
AcDbLine
 62
7
  6
CONTINUOUS
 10
11.7188393446
 20
-15.5745021633
 11
11.71004056
 21
-15.5966603213
  0
LWPOLYLINE
  5
57A
100
AcDbEntity
  8
0
100
AcDbPolyline
 62
7
  6
CONTINUOUS
 90
11
 70
0
 10
15.2620814162
 20
-13.5137175668
 10
15.2455744659
 20
-13.5552873547
 10
15.2270408286
 20
-13.594588178
 10
15.2064804621
 20
-13.6315805271
 10
15.1838934087
 20
-13.6663039117
 10
15.159407148
 20
-13.6985600676
 10
15.1329886484
 20
-13.7283555382
 10
15.1046709415
 20
-13.7556837801
 10
15.0746806022
 20
-13.780326899
 10
15.0430319655
 20
-13.8022475867
 10
15.0266028024
 20
-13.812188081
  0
LWPOLYLINE
  5
57B
100
AcDbEntity
  8
0
100
AcDbPolyline
 62
7
  6
CONTINUOUS
 90
10
 70
0
 10
11.71004056
 20
-15.5966603213
 10
11.6915069227
 20
-15.6359611446
 10
11.6709465562
 20
-15.6729534937
 10
11.6483595028
 20
-15.7076768783
 10
11.6238732421
 20
-15.7399330342
 10
11.5974547425
 20
-15.7697285048
 10
11.5691370356
 20
-15.7970567468
 10
11.5391466963
 20
-15.8216998656
 10
11.5074980596
 20
-15.8436205534
 10
11.4910688965
 20
-15.8535610476
  0
LWPOLYLINE
  5
57C
100
AcDbEntity
  8
0
100
AcDbPolyline
 62
7
  6
CONTINUOUS
 90
16
 70
0
 10
11.806602992
 20
-15.4725037305
 10
11.8123439831
 20
-15.4606816249
 10
11.8177019338
 20
-15.4484804928
 10
11.822676844
 20
-15.4359003343
 10
11.8272721884
 20
-15.4229302193
 10
11.8314844924
 20
-15.4095810779
 10
11.8353033317
 20
-15.3958857
 10
11.8387276866
 20
-15.3818433658
 10
11.8417585769
 20
-15.3674547951
 10
11.8443886374
 20
-15.3527549371
 10
11.8466168932
 20
-15.3377430469
 10
11.8484443192
 20
-15.3224198695
 10
11.8498664756
 20
-15.3068225884
 10
11.8508818823
 20
-15.2909635981
 10
11.8514920195
 20
-15.2748305041
 10
11.851696887
 20
-15.2584233064
  0
LWPOLYLINE
  5
57D
100
AcDbEntity
  8
RACCORDO
100
AcDbPolyline
 62
7
  6
CONTINUOUS
 90
23
 70
0
 10
-2.2468358535
 20
-28.9230853096
 10
-2.2593268959
 20
-28.9368324583
 10
-2.2720452091
 20
-28.9504691472
 10
-2.2849919929
 20
-28.9639855584
 10
-2.2981715816
 20
-28.9773720594
 10
-2.311581105
 20
-28.9906188674
 10
-2.3252110664
 20
-29.0037156028
 10
-2.3390615844
 20
-29.0166516362
 10
-2.3531334158
 20
-29.0294176245
 10
-2.3674187364
 20
-29.0420041951
 10
-2.3819174583
 20
-29.054400396
 10
-2.3966299249
 20
-29.0665963746
 10
-2.4115498474
 20
-29.0785831043
 10
-2.4266769145
 20
-29.0903490987
 10
-2.4420110472
 20
-29.101883813
 10
-2.4575473376
 20
-29.1131778763
 10
-2.4732850891
 20
-29.1242189727
 10
-2.4892238312
 20
-29.1349957122
 10
-2.5053601503
 20
-29.1454977985
 10
-2.521692854
 20
-29.1557118439
 10
-2.5382209507
 20
-29.1656253139
 10
-2.554942585
 20
-29.1752261684
 10
-2.5700938478
 20
-29.1835540338
  0
LWPOLYLINE
  5
57E
100
AcDbEntity
  8
0
100
AcDbPolyline
 62
7
  6
CONTINUOUS
 90
16
 70
0
 10
4.280047055
 20
-19.8702996846
 10
4.2884193575
 20
-19.8652309422
 10
4.2965910406
 20
-19.859811771
 10
4.3045449195
 20
-19.8540520975
 10
4.3122847676
 20
-19.8479485726
 10
4.3198068114
 20
-19.8415045454
 10
4.3270997298
 20
-19.8347300638
 10
4.334163663
 20
-19.8276242498
 10
4.3409984707
 20
-19.8201879815
 10
4.3475924108
 20
-19.8124339406
 10
4.3539449976
 20
-19.8043617204
 10
4.3600567168
 20
-19.7959717278
 10
4.3659172841
 20
-19.7872778652
 10
4.3715232712
 20
-19.7782847669
 10
4.3768781063
 20
-19.7689877986
 10
4.3819817895
 20
-19.7593869604
  0
LWPOLYLINE
  5
57F
100
AcDbEntity
  8
0
100
AcDbPolyline
 62
7
  6
CONTINUOUS
 90
16
 70
0
 10
8.1691343515
 20
-17.6247894213
 10
8.177506654
 20
-17.6197206789
 10
8.1856783372
 20
-17.6143015077
 10
8.193632216
 20
-17.6085418342
 10
8.2013720642
 20
-17.6024383093
 10
8.208894108
 20
-17.5959942821
 10
8.2161870263
 20
-17.5892198005
 10
8.2232509595
 20
-17.5821139865
 10
8.2300857672
 20
-17.5746777182
 10
8.2366797073
 20
-17.5669236773
 10
8.2430322941
 20
-17.5588514571
 10
8.2491440134
 20
-17.5504614645
 10
8.2550045806
 20
-17.5417676019
 10
8.2606105677
 20
-17.5327745036
 10
8.2659654029
 20
-17.5234775353
 10
8.271069086
 20
-17.5138766971
  0
LINE
  5
580
100
AcDbEntity
  8
0
100
AcDbLine
 62
7
  6
CONTINUOUS
 10
-2.3381366705
 20
-20.7394674567
 11
-2.2661917329
 21
-20.6979274892
  0
LINE
  5
581
100
AcDbEntity
  8
0
100
AcDbLine
 62
7
  6
CONTINUOUS
 10
19.2763180895
 20
-8.517305237
 11
23.165405386
 21
-6.2717949737
  0
LINE
  5
582
100
AcDbEntity
  8
0
100
AcDbLine
 62
7
  6
CONTINUOUS
 10
22.6704306392
 20
-6.7207352611
 11
22.4569496123
 21
-6.8439965305
  0
LINE
  5
583
100
AcDbEntity
  8
0
100
AcDbLine
 62
253
  6
CONTINUOUS
 10
4.4270756846
 20
-17.7217269079
 11
7.8918989124
 21
-15.7211814006
  0
LINE
  5
584
100
AcDbEntity
  8
0
100
AcDbLine
 62
253
  6
CONTINUOUS
 10
11.851696887
 20
-13.4348436779
 11
15.3165201148
 21
-11.4342981706
  0
LINE
  5
585
100
AcDbEntity
  8
0
100
AcDbLine
 62
7
  6
CONTINUOUS
 10
-4.007681349
 20
-22.6832958329
 11
-1.4176635955
 21
-21.1878570012
  0
LINE
  5
586
100
AcDbEntity
  8
0
100
AcDbLine
 62
253
  6
CONTINUOUS
 10
22.7411413173
 20
-7.7191135832
 11
19.2763180895
 21
-9.7196590905
  0
LINE
  5
587
100
AcDbEntity
  8
0
100
AcDbLine
 62
253
  6
CONTINUOUS
 10
4.4270756846
 20
-19.4587881536
 11
7.8918989124
 21
-17.4582426463
  0
LINE
  5
588
100
AcDbEntity
  8
0
100
AcDbLine
 62
253
  6
CONTINUOUS
 10
11.851696887
 20
-15.1719049237
 11
15.3165201148
 21
-13.1713594164
  0
LINE
  5
589
100
AcDbEntity
  8
0
100
AcDbLine
 62
253
  6
CONTINUOUS
 10
19.2763180895
 20
-10.8850216938
 11
22.7411413173
 21
-8.8844761865
  0
LINE
  5
58A
100
AcDbEntity
  8
0
100
AcDbLine
 62
253
  6
CONTINUOUS
 10
25.1099490343
 20
-7.6032746815
 11
23.165405386
 21
-8.7260298131
  0
LINE
  5
58B
100
AcDbEntity
  8
0
100
AcDbLine
 62
253
  6
CONTINUOUS
 10
19.2763180895
 20
-10.9715400764
 11
15.7407841836
 21
-13.0129130431
  0
LINE
  5
58C
100
AcDbEntity
  8
0
100
AcDbLine
 62
253
  6
CONTINUOUS
 10
11.851696887
 20
-15.2584233064
 11
8.3161629811
 21
-17.299796273
  0
LINE
  5
58D
100
AcDbEntity
  8
0
100
AcDbLine
 62
253
  6
CONTINUOUS
 10
4.4270756846
 20
-19.5453065363
 11
2.5021998901
 21
-20.6567056957
  0
LINE
  5
58E
100
AcDbEntity
  8
RACCORDO
100
AcDbLine
 62
7
  6
CONTINUOUS
 10
25.5330140244
 20
-7.6141630711
 11
25.5299100153
 21
-7.615931643
  0
LINE
  5
58F
100
AcDbEntity
  8
ASSI
100
AcDbLine
 62
7
  6
CONTINUOUS
 10
25.5330140244
 20
-7.6141630711
 11
25.5299100153
 21
-7.615931643
  0
LINE
  5
590
100
AcDbEntity
  8
RACCORDO
100
AcDbLine
 62
253
  6
CONTINUOUS
 10
26.1798654472
 20
-6.9025711677
 11
25.1099490343
 21
-7.5052115709
  0
LINE
  5
591
100
AcDbEntity
  8
ASSI
100
AcDbLine
 62
253
  6
CONTINUOUS
 10
26.1798654472
 20
-6.9025711677
 11
25.1099490343
 21
-7.5052115709
  0
LINE
  5
592
100
AcDbEntity
  8
RACCORDO
100
AcDbLine
 62
253
  6
CONTINUOUS
 10
25.972766552
 20
-7.3603045475
 11
24.9632804021
 21
-7.9289070412
  0
LINE
  5
593
100
AcDbEntity
  8
ASSI
100
AcDbLine
 62
253
  6
CONTINUOUS
 10
25.972766552
 20
-7.3603045475
 11
24.9632804021
 21
-7.9289070412
  0
LINE
  5
594
100
AcDbEntity
  8
RACCORDO
100
AcDbLine
 62
253
  6
CONTINUOUS
 10
25.5299321076
 20
-7.6159203863
 11
25.5330140244
 21
-7.6141630711
  0
LINE
  5
595
100
AcDbEntity
  8
ASSI
100
AcDbLine
 62
253
  6
CONTINUOUS
 10
25.5299321076
 20
-7.6159203863
 11
25.5330140244
 21
-7.6141630711
  0
LINE
  5
596
100
AcDbEntity
  8
RACCORDO
100
AcDbLine
 62
7
  6
CONTINUOUS
 10
24.9659076826
 20
-7.9335721379
 11
25.5299321076
 21
-7.6159203863
  0
LINE
  5
597
100
AcDbEntity
  8
ASSI
100
AcDbLine
 62
7
  6
CONTINUOUS
 10
24.9054756096
 20
-7.9676067524
 11
25.5299321076
 21
-7.6159203863
  0
LWPOLYLINE
  5
598
100
AcDbEntity
  8
0
100
AcDbPolyline
 62
7
  6
CONTINUOUS
 90
11
 70
0
 10
18.9156900989
 20
-11.5666778177
 10
18.898797993
 20
-11.5759728881
 10
18.8639876612
 20
-11.5924173593
 10
18.8276487878
 20
-11.6060644945
 10
18.7898208517
 20
-11.6169205363
 10
18.7508058595
 20
-11.6248982417
 10
18.7106259955
 20
-11.6299722793
 10
18.6692590753
 20
-11.6321679806
 10
18.6269405523
 20
-11.6314740972
 10
18.5836362302
 20
-11.6278708358
 10
18.5610617649
 20
-11.6245589058
  0
LINE
  5
599
100
AcDbEntity
  8
RACCORDO
100
AcDbLine
 62
7
  6
CONTINUOUS
 10
-8.4434873504
 20
16.2369592234
 11
-10.3937330351
 21
15.8425910611
  0
LINE
  5
59A
100
AcDbEntity
  8
RACCORDO
100
AcDbLine
 62
7
  6
CONTINUOUS
 10
-6.4071328909
 20
18.0544577142
 11
-7.7420826057
 21
17.7845113838
  0
LINE
  5
59B
100
AcDbEntity
  8
RACCORDO
100
AcDbLine
 62
7
  6
CONTINUOUS
 10
-12.4212103229
 20
16.90837479
 11
-10.8643429332
 21
17.2231961155
  0
LWPOLYLINE
  5
59C
100
AcDbEntity
  8
RACCORDO
100
AcDbPolyline
 62
7
  6
CONTINUOUS
 90
25
 70
0
 10
-10.3937330351
 20
15.8425910611
 10
-10.4029051398
 20
15.8409807587
 10
-10.4125574605
 20
15.8397350747
 10
-10.4226899971
 20
15.8388540091
 10
-10.4333501159
 20
15.8383369135
 10
-10.4444904507
 20
15.8381844364
 10
-10.4559689026
 20
15.8383985226
 10
-10.4677898029
 20
15.8389838676
 10
-10.4799488202
 20
15.839935776
 10
-10.4922908621
 20
15.8412421057
 10
-10.5048182732
 20
15.8429073969
 10
-10.5175287088
 20
15.8449271094
 10
-10.530260043
 20
15.8472754812
 10
-10.5430125435
 20
15.8499567223
 10
-10.5557859425
 20
15.8529666226
 10
-10.5684173109
 20
15.8562667898
 10
-10.5809048294
 20
15.8598609421
 10
-10.5932503172
 20
15.8637453614
 10
-10.6052963035
 20
15.8678705005
 10
-10.6170389516
 20
15.8722394429
 10
-10.6284820982
 20
15.8768491051
 10
-10.6394797818
 20
15.8816406893
 10
-10.6499833487
 20
15.8865945961
 10
-10.6600414527
 20
15.8917304248
 10
-10.6696540938
 20
15.8970481755
  0
LWPOLYLINE
  5
59D
100
AcDbEntity
  8
RACCORDO
100
AcDbPolyline
 62
7
  6
CONTINUOUS
 90
25
 70
0
 10
-7.7420826057
 20
17.7845113838
 10
-7.7512547104
 20
17.7829010814
 10
-7.760907031
 20
17.7816553974
 10
-7.7710395676
 20
17.7807743318
 10
-7.7816996865
 20
17.7802572363
 10
-7.7928400213
 20
17.7801047592
 10
-7.8043184732
 20
17.7803188453
 10
-7.8161393734
 20
17.7809041904
 10
-7.8282983907
 20
17.7818560987
 10
-7.8406404327
 20
17.7831624285
 10
-7.8531678437
 20
17.7848277196
 10
-7.8658782793
 20
17.7868474322
 10
-7.8786096135
 20
17.7891958039
 10
-7.891362114
 20
17.791877045
 10
-7.904135513
 20
17.7948869453
 10
-7.9167668815
 20
17.7981871125
 10
-7.9292543999
 20
17.8017812649
 10
-7.9415998878
 20
17.8056656842
 10
-7.9536458741
 20
17.8097908232
 10
-7.9653885222
 20
17.8141597657
 10
-7.9768316687
 20
17.8187694279
 10
-7.9878293523
 20
17.823561012
 10
-7.9983329192
 20
17.8285149188
 10
-8.0083910232
 20
17.8336507475
 10
-8.0180036643
 20
17.8389684982
  0
LWPOLYLINE
  5
59E
100
AcDbEntity
  8
RACCORDO
100
AcDbPolyline
 62
7
  6
CONTINUOUS
 90
25
 70
0
 10
-10.7769397283
 20
17.5842653814
 10
-10.7677676236
 20
17.5858756838
 10
-10.758115303
 20
17.5871213678
 10
-10.7479827664
 20
17.5880024334
 10
-10.7373226475
 20
17.588519529
 10
-10.7261823127
 20
17.5886720061
 10
-10.7147038608
 20
17.5884579199
 10
-10.7028829606
 20
17.5878725749
 10
-10.6907239433
 20
17.5869206665
 10
-10.6783819014
 20
17.5856143368
 10
-10.6658544903
 20
17.5839490456
 10
-10.6531440547
 20
17.5819293331
 10
-10.6404127205
 20
17.5795809613
 10
-10.62766022
 20
17.5768997202
 10
-10.614886821
 20
17.5738898199
 10
-10.6022554525
 20
17.5705896527
 10
-10.5897679341
 20
17.5669955003
 10
-10.5774224462
 20
17.5631110811
 10
-10.56537646
 20
17.558985942
 10
-10.5536338118
 20
17.5546169996
 10
-10.5421906653
 20
17.5500073374
 10
-10.5311929817
 20
17.5452157532
 10
-10.5206894148
 20
17.5402618464
 10
-10.5106313108
 20
17.5351260177
 10
-10.5010186697
 20
17.529808267
  0
LINE
  5
59F
100
AcDbEntity
  8
ASSI
100
AcDbLine
 62
7
  6
CONTINUOUS
 10
-6.6972858318
 20
18.4470408638
 11
-7.7547326574
 21
18.2738928234
  0
LWPOLYLINE
  5
5A0
100
AcDbEntity
  8
0
100
AcDbPolyline
 62
7
  6
CONTINUOUS
 90
7
 70
0
 10
-6.3209473895
 20
18.0636210847
 10
-6.3348959321
 20
18.0633186627
 10
-6.3490107578
 20
18.0625263181
 10
-6.3632918665
 20
18.061244051
 10
-6.3777392583
 20
18.0594718613
 10
-6.3923529331
 20
18.057209749
 10
-6.4071328909
 20
18.0544577142
  0
LWPOLYLINE
  5
5A1
100
AcDbEntity
  8
ASSI
100
AcDbPolyline
 62
7
  6
CONTINUOUS
 90
3
 70
0
 10
21.12294544
 20
14.3576822021
 10
21.0925703248
 20
14.3643531572
 10
20.9941960739
 20
14.3732389057
  0
LINE
  5
5A2
100
AcDbEntity
  8
RACCORDO
100
AcDbLine
 62
7
  6
CONTINUOUS
 10
20.4273311304
 20
9.7272772264
 11
20.4239638886
 21
9.7292097534
  0
LINE
  5
5A3
100
AcDbEntity
  8
ASSI
100
AcDbLine
 62
7
  6
CONTINUOUS
 10
20.4272672107
 20
9.7273136901
 11
20.4239638886
 21
9.7292097534
  0
LINE
  5
5A4
100
AcDbEntity
  8
RACCORDO
100
AcDbLine
 62
253
  6
CONTINUOUS
 10
21.5097402815
 20
9.8295311221
 11
20.9319751163
 21
10.1631254874
  0
LINE
  5
5A5
100
AcDbEntity
  8
ASSI
100
AcDbLine
 62
253
  6
CONTINUOUS
 10
21.5097402815
 20
9.8295311221
 11
20.9319751163
 21
10.1631254874
  0
LINE
  5
5A6
100
AcDbEntity
  8
ASSI
100
AcDbLine
 62
7
  6
CONTINUOUS
 10
20.4271971793
 20
9.7273568589
 11
20.3728174445
 21
9.7628140777
  0
LWPOLYLINE
  5
5A7
100
AcDbEntity
  8
RACCORDO
100
AcDbPolyline
 62
7
  6
CONTINUOUS
 90
34
 70
0
 10
20.4272610859
 20
9.7273204122
 10
20.3712610863
 20
9.7639737845
 10
20.3142807042
 20
9.8129682578
 10
20.2629140558
 20
9.8703161944
 10
20.216444219
 20
9.936925138
 10
20.175116911
 20
10.0130134642
 10
20.1396644441
 20
10.0978420292
 10
20.1105174439
 20
10.190912652
 10
20.0880230069
 20
10.2914813534
 10
20.0724373145
 20
10.3987537644
 10
20.0639205309
 20
10.512174464
 10
20.0625613806
 20
10.6306775415
 10
20.0683603675
 20
10.7536668015
 10
20.0814499519
 20
10.8815967666
 10
20.1020091103
 20
11.0142582671
 10
20.1300343283
 20
11.1504273957
 10
20.1654844384
 20
11.2892178197
 10
20.2082605897
 20
11.4298624186
 10
20.2581986139
 20
11.5715489102
 10
20.3150534543
 20
11.7133521929
 10
20.3785380913
 20
11.8544504533
 10
20.4483370774
 20
11.9940861608
 10
20.5240896597
 20
12.131462761
 10
20.605393826
 20
12.2658237078
 10
20.6917988127
 20
12.3964351309
 10
20.7828207105
 20
12.5225601712
 10
20.8779901868
 20
12.6435657945
 10
20.9767075343
 20
12.7587482656
 10
21.0782239577
 20
12.8673080345
 10
21.1819623211
 20
12.9687322806
 10
21.2872660411
 20
13.0625197664
 10
21.3931835092
 20
13.1479954807
 10
21.4989201637
 20
13.2247582271
 10
21.6038573911
 20
13.2926615394
  0
LWPOLYLINE
  5
5A8
100
AcDbEntity
  8
ASSI
100
AcDbPolyline
 62
7
  6
CONTINUOUS
 90
33
 70
0
 10
20.3728174445
 20
5.6804626938
 10
20.315691219
 20
5.7292358736
 10
20.2641774626
 20
5.7863715487
 10
20.217548534
 20
5.8527873989
 10
20.1760495919
 20
5.9287155996
 10
20.1404186652
 20
6.0134224411
 10
20.1110935556
 20
6.1064101778
 10
20.0884260886
 20
6.2069412052
 10
20.0726777212
 20
6.3142171058
 10
20.0640138043
 20
6.427660492
 10
20.062523265
 20
6.546190296
 10
20.0682038176
 20
6.6692156742
 10
20.0811873329
 20
6.7972005152
 10
20.1016543084
 20
6.9299375684
 10
20.1296015609
 20
7.0661973634
 10
20.1649893331
 20
7.2050953044
 10
20.2077204151
 20
7.3458641806
 10
20.257630305
 20
7.4876875323
 10
20.3144735113
 20
7.6296366178
 10
20.3779629386
 20
7.7708869803
 10
20.4477825158
 20
7.9106788494
 10
20.5235704655
 20
8.048212818
 10
20.6049239294
 20
8.1827297266
 10
20.69139101
 20
8.3134935304
 10
20.7824864904
 20
8.4397651427
 10
20.8777397833
 20
8.560909367
 10
20.9765495163
 20
8.6762203227
 10
21.0781648861
 20
8.7848962292
 10
21.1820071679
 20
8.8864227653
 10
21.287417677
 20
8.9802970181
 10
21.3934417022
 20
9.0658418614
 10
21.4992820598
 20
9.1426551338
 10
21.6041620764
 20
9.2104892549
  0
LWPOLYLINE
  5
5A9
100
AcDbEntity
  8
0
100
AcDbPolyline
 62
7
  6
CONTINUOUS
 90
11
 70
0
 10
22.6749320031
 20
-7.3106609219
 10
22.6549514092
 20
-7.2496503769
 10
22.6326215226
 20
-7.1888966651
 10
22.6079430139
 20
-7.1284614554
 10
22.5809152125
 20
-7.0682830789
 10
22.5517657674
 20
-7.0088718877
 10
22.5204376576
 20
-6.9501681967
 10
22.4869879041
 20
-6.8922316909
 10
22.4518152188
 20
-6.8357517775
 10
22.4149467695
 20
-6.7808117203
 10
22.3763830451
 20
-6.7273665846
  0
LWPOLYLINE
  5
5AA
100
AcDbEntity
  8
RACCORDO
100
AcDbPolyline
 62
253
  6
CONTINUOUS
 90
13
 70
0
 10
21.7200130608
 20
1.29634071
 10
21.7182140183
 20
1.3293701212
 10
21.7128477288
 20
1.3639481504
 10
21.7040060965
 20
1.3994830955
 10
21.6918404955
 20
1.4353668838
 10
21.6765591573
 20
1.4709855364
 10
21.658423588
 20
1.5057296718
 10
21.6377441464
 20
1.5390048202
 10
21.6148746955
 20
1.5702416843
 10
21.5902064979
 20
1.5989059173
 10
21.5641616128
 20
1.6245071311
 10
21.5371856906
 20
1.6466073058
 10
21.5097402835
 20
1.6648283553
  0
LWPOLYLINE
  5
5AB
100
AcDbEntity
  8
ASSI
100
AcDbPolyline
 62
253
  6
CONTINUOUS
 90
13
 70
0
 10
21.7200130608
 20
1.29634071
 10
21.7182140183
 20
1.3293701212
 10
21.7128477288
 20
1.3639481504
 10
21.7040060965
 20
1.3994830955
 10
21.6918404955
 20
1.4353668838
 10
21.6765591573
 20
1.4709855364
 10
21.658423588
 20
1.5057296718
 10
21.6377441464
 20
1.5390048202
 10
21.6148746955
 20
1.5702416843
 10
21.5902064979
 20
1.5989059173
 10
21.5641616128
 20
1.6245071311
 10
21.5371856906
 20
1.6466073058
 10
21.5097402835
 20
1.6648283553
  0
LWPOLYLINE
  5
5AC
100
AcDbEntity
  8
RACCORDO
100
AcDbPolyline
 62
253
  6
CONTINUOUS
 90
13
 70
0
 10
21.7200130608
 20
5.378692094
 10
21.7182140183
 20
5.4117215052
 10
21.7128477288
 20
5.4462995343
 10
21.7040060965
 20
5.4818344795
 10
21.6918404955
 20
5.5177182678
 10
21.6765591573
 20
5.5533369204
 10
21.658423588
 20
5.5880810558
 10
21.6377441464
 20
5.6213562041
 10
21.6148746955
 20
5.6525930682
 10
21.5902064979
 20
5.6812573012
 10
21.5641616128
 20
5.706858515
 10
21.5371856906
 20
5.7289586897
 10
21.5097402835
 20
5.7471797392
  0
LWPOLYLINE
  5
5AD
100
AcDbEntity
  8
ASSI
100
AcDbPolyline
 62
253
  6
CONTINUOUS
 90
13
 70
0
 10
21.7200130608
 20
5.378692094
 10
21.7182140183
 20
5.4117215052
 10
21.7128477288
 20
5.4462995343
 10
21.7040060965
 20
5.4818344795
 10
21.6918404955
 20
5.5177182678
 10
21.6765591573
 20
5.5533369204
 10
21.658423588
 20
5.5880810558
 10
21.6377441464
 20
5.6213562041
 10
21.6148746955
 20
5.6525930682
 10
21.5902064979
 20
5.6812573012
 10
21.5641616128
 20
5.706858515
 10
21.5371856906
 20
5.7289586897
 10
21.5097402835
 20
5.7471797392
  0
LINE
  5
5AE
100
AcDbEntity
  8
RACCORDO
100
AcDbLine
 62
7
  6
CONTINUOUS
 10
21.2301179788
 20
25.2701660667
 11
21.2301179788
 21
24.616971192
  0
LINE
  5
5AF
100
AcDbEntity
  8
ASSI
100
AcDbLine
 62
7
  6
CONTINUOUS
 10
21.2301179788
 20
25.2701660667
 11
21.2301179788
 21
24.616971192
  0
LINE
  5
5B0
100
AcDbEntity
  8
ASSI
100
AcDbLine
 62
7
  6
CONTINUOUS
 10
21.7499461369
 20
5.1329662886
 11
21.7499461369
 21
5.2119568521
  0
LINE
  5
5B1
100
AcDbEntity
  8
ASSI
100
AcDbLine
 62
7
  6
CONTINUOUS
 10
21.7499461369
 20
9.2153176725
 11
21.7499461369
 21
9.2943082361
  0
LINE
  5
5B2
100
AcDbEntity
  8
ASSI
100
AcDbLine
 62
7
  6
CONTINUOUS
 10
21.7499461369
 20
13.2976690565
 11
21.7499461369
 21
13.3766596201
  0
LINE
  5
5B3
100
AcDbEntity
  8
ASSI
100
AcDbLine
 62
7
  6
CONTINUOUS
 10
21.7499461369
 20
17.3800204405
 11
21.7499461369
 21
17.459011004
  0
LWPOLYLINE
  5
5B4
100
AcDbEntity
  8
RACCORDO
100
AcDbPolyline
 62
253
  6
CONTINUOUS
 90
7
 70
0
 10
21.7200130608
 20
17.5440992182
 10
21.718214148
 20
17.5131849493
 10
21.7128481896
 20
17.484913548
 10
21.7040069986
 20
17.4597687459
 10
21.6918418502
 20
17.4381807774
 10
21.6765608935
 20
17.4205190188
 10
21.6577882911
 20
17.4067209111
  0
LWPOLYLINE
  5
5B5
100
AcDbEntity
  8
ASSI
100
AcDbPolyline
 62
253
  6
CONTINUOUS
 90
7
 70
0
 10
21.7200130608
 20
17.5440992182
 10
21.718214148
 20
17.5131849493
 10
21.7128481896
 20
17.484913548
 10
21.7040069986
 20
17.4597687459
 10
21.6918418502
 20
17.4381807774
 10
21.6765608935
 20
17.4205190188
 10
21.6577882911
 20
17.4067209111
  0
LWPOLYLINE
  5
5B6
100
AcDbEntity
  8
RACCORDO
100
AcDbPolyline
 62
253
  6
CONTINUOUS
 90
7
 70
0
 10
21.7200130608
 20
13.4617478343
 10
21.718214148
 20
13.4308335653
 10
21.7128481896
 20
13.402562164
 10
21.7040069986
 20
13.3774173619
 10
21.6918418502
 20
13.3558293935
 10
21.6765608935
 20
13.3381676348
 10
21.6577882911
 20
13.3243695271
  0
LWPOLYLINE
  5
5B7
100
AcDbEntity
  8
ASSI
100
AcDbPolyline
 62
253
  6
CONTINUOUS
 90
7
 70
0
 10
21.7200130608
 20
13.4617478343
 10
21.718214148
 20
13.4308335653
 10
21.7128481896
 20
13.402562164
 10
21.7040069986
 20
13.3774173619
 10
21.6918418502
 20
13.3558293935
 10
21.6765608935
 20
13.3381676348
 10
21.6577882911
 20
13.3243695271
  0
LWPOLYLINE
  5
5B8
100
AcDbEntity
  8
RACCORDO
100
AcDbPolyline
 62
253
  6
CONTINUOUS
 90
7
 70
0
 10
21.7200130608
 20
9.3793964503
 10
21.718214148
 20
9.3484821814
 10
21.7128481896
 20
9.3202107801
 10
21.7040069986
 20
9.2950659779
 10
21.6918418502
 20
9.2734780095
 10
21.6765608935
 20
9.2558162508
 10
21.6577882911
 20
9.2420181431
  0
LWPOLYLINE
  5
5B9
100
AcDbEntity
  8
ASSI
100
AcDbPolyline
 62
253
  6
CONTINUOUS
 90
7
 70
0
 10
21.7200130608
 20
9.3793964503
 10
21.718214148
 20
9.3484821814
 10
21.7128481896
 20
9.3202107801
 10
21.7040069986
 20
9.2950659779
 10
21.6918418502
 20
9.2734780095
 10
21.6765608935
 20
9.2558162508
 10
21.6577882911
 20
9.2420181431
  0
LWPOLYLINE
  5
5BA
100
AcDbEntity
  8
RACCORDO
100
AcDbPolyline
 62
253
  6
CONTINUOUS
 90
7
 70
0
 10
21.7200130608
 20
5.2970450663
 10
21.718214148
 20
5.2661307974
 10
21.7128481896
 20
5.2378593961
 10
21.7040069986
 20
5.212714594
 10
21.6918418502
 20
5.1911266255
 10
21.6765608935
 20
5.1734648669
 10
21.6577882911
 20
5.1596667592
  0
LWPOLYLINE
  5
5BB
100
AcDbEntity
  8
ASSI
100
AcDbPolyline
 62
253
  6
CONTINUOUS
 90
7
 70
0
 10
21.7200130608
 20
5.2970450663
 10
21.718214148
 20
5.2661307974
 10
21.7128481896
 20
5.2378593961
 10
21.7040069986
 20
5.212714594
 10
21.6918418502
 20
5.1911266255
 10
21.6765608935
 20
5.1734648669
 10
21.6577882911
 20
5.1596667592
  0
LINE
  5
5BC
100
AcDbEntity
  8
0
100
AcDbLine
 62
7
  6
CONTINUOUS
 10
19.1434605471
 20
-11.2876189334
 11
19.1346617624
 21
-11.3097770914
  0
LWPOLYLINE
  5
5BD
100
AcDbEntity
  8
0
100
AcDbPolyline
 62
7
  6
CONTINUOUS
 90
16
 70
0
 10
15.6956902885
 20
-13.2269934672
 10
15.7014312796
 20
-13.2151713616
 10
15.7067892303
 20
-13.2029702295
 10
15.7117641405
 20
-13.190390071
 10
15.716359485
 20
-13.177419956
 10
15.7205717889
 20
-13.1640708146
 10
15.7243906282
 20
-13.1503754367
 10
15.7278149832
 20
-13.1363331025
 10
15.7308458734
 20
-13.1219445318
 10
15.733475934
 20
-13.1072446738
 10
15.7357041897
 20
-13.0922327836
 10
15.7375316157
 20
-13.0769096062
 10
15.7389537721
 20
-13.0613123251
 10
15.7399691789
 20
-13.0454533348
 10
15.740579316
 20
-13.0293202408
 10
15.7407841836
 20
-13.0129130431
  0
LINE
  5
5BE
100
AcDbEntity
  8
RACCORDO
100
AcDbLine
 62
253
  6
CONTINUOUS
 10
-0.7701591571
 20
-23.4109896587
 11
2.5021998901
 21
-21.4266347494
  0
LINE
  5
5BF
100
AcDbEntity
  8
RACCORDO
100
AcDbLine
 62
7
  6
CONTINUOUS
 10
-0.7701591571
 20
-24.0753927753
 11
2.1004624626
 21
-22.3346509979
  0
LWPOLYLINE
  5
5C0
100
AcDbEntity
  8
0
100
AcDbPolyline
 62
7
  6
CONTINUOUS
 90
16
 70
0
 10
11.7046682574
 20
-15.5834164546
 10
11.7130405599
 20
-15.5783477122
 10
11.7212122431
 20
-15.572928541
 10
11.7291661219
 20
-15.5671688676
 10
11.7369059701
 20
-15.5610653426
 10
11.7444280139
 20
-15.5546213154
 10
11.7517209322
 20
-15.5478468339
 10
11.7587848654
 20
-15.5407410199
 10
11.7656196731
 20
-15.5333047515
 10
11.7722136133
 20
-15.5255507107
 10
11.7785662001
 20
-15.5174784905
 10
11.7846779193
 20
-15.5090884978
 10
11.7905384865
 20
-15.5003946353
 10
11.7961444737
 20
-15.4914015369
 10
11.8014993088
 20
-15.4821045687
 10
11.806602992
 20
-15.4725037305
  0
LWPOLYLINE
  5
5C1
100
AcDbEntity
  8
0
100
AcDbPolyline
 62
7
  6
CONTINUOUS
 90
16
 70
0
 10
15.593755554
 20
-13.3379061913
 10
15.6021278565
 20
-13.3328374489
 10
15.6102995396
 20
-13.3274182777
 10
15.6182534185
 20
-13.3216586043
 10
15.6259932666
 20
-13.3155550793
 10
15.6335153104
 20
-13.3091110521
 10
15.6408082288
 20
-13.3023365706
 10
15.6478721619
 20
-13.2952307566
 10
15.6547069696
 20
-13.2877944882
 10
15.6613009098
 20
-13.2800404474
 10
15.6676534966
 20
-13.2719682272
 10
15.6737652158
 20
-13.2635782345
 10
15.6796257831
 20
-13.254884372
 10
15.6852317702
 20
-13.2458912736
 10
15.6905866053
 20
-13.2365943054
 10
15.6956902885
 20
-13.2269934672
  0
LWPOLYLINE
  5
5C2
100
AcDbEntity
  8
0
100
AcDbPolyline
 62
7
  6
CONTINUOUS
 90
16
 70
0
 10
19.1292894599
 20
-11.2965332247
 10
19.1376617624
 20
-11.2914644823
 10
19.1458334456
 20
-11.2860453111
 10
19.1537873244
 20
-11.2802856377
 10
19.1615271726
 20
-11.2741821127
 10
19.1690492164
 20
-11.2677380855
 10
19.1763421347
 20
-11.2609636039
 10
19.1834060679
 20
-11.2538577899
 10
19.1902408756
 20
-11.2464215216
 10
19.1968348157
 20
-11.2386674807
 10
19.2031874025
 20
-11.2305952606
 10
19.2092991218
 20
-11.2222052679
 10
19.215159689
 20
-11.2135114053
 10
19.2207656761
 20
-11.204518307
 10
19.2261205113
 20
-11.1952213387
 10
19.2312241944
 20
-11.1856205005
  0
LWPOLYLINE
  5
5C3
100
AcDbEntity
  8
0
100
AcDbPolyline
 62
7
  6
CONTINUOUS
 90
16
 70
0
 10
23.0183767564
 20
-9.0510229614
 10
23.0267490589
 20
-9.045954219
 10
23.0349207421
 20
-9.0405350478
 10
23.0428746209
 20
-9.0347753744
 10
23.0506144691
 20
-9.0286718494
 10
23.0581365129
 20
-9.0222278222
 10
23.0654294312
 20
-9.0154533406
 10
23.0724933644
 20
-9.0083475266
 10
23.0793281721
 20
-9.0009112583
 10
23.0859221123
 20
-8.9931572174
 10
23.092274699
 20
-8.9850849973
 10
23.0983864183
 20
-8.9766950046
 10
23.1042469855
 20
-8.968001142
 10
23.1098529727
 20
-8.9590080437
 10
23.1152078078
 20
-8.9497110754
 10
23.1203114909
 20
-8.9401102372
  0
LINE
  5
5C4
100
AcDbEntity
  8
ASSI
100
AcDbLine
 62
7
  6
CONTINUOUS
 10
3.3858660787
 20
-23.0859872192
 11
-0.7701591571
 21
-25.5427534683
  0
LINE
  5
5C5
100
AcDbEntity
  8
ASSI
100
AcDbLine
 62
7
  6
CONTINUOUS
 10
24.9629203733
 20
-7.9282678529
 11
23.0183767251
 21
-9.0510229845
  0
LINE
  5
5C6
100
AcDbEntity
  8
ASSI
100
AcDbLine
 62
7
  6
CONTINUOUS
 10
19.1292894286
 20
-11.2965332478
 11
15.5937555226
 21
-13.3379062145
  0
LINE
  5
5C7
100
AcDbEntity
  8
ASSI
100
AcDbLine
 62
7
  6
CONTINUOUS
 10
11.7046682261
 20
-15.5834164778
 11
8.1691343202
 21
-17.6247894444
  0
LINE
  5
5C8
100
AcDbEntity
  8
ASSI
100
AcDbLine
 62
7
  6
CONTINUOUS
 10
4.2800470236
 20
-19.8702997077
 11
2.5021998901
 21
-20.896806361
  0
LINE
  5
5C9
100
AcDbEntity
  8
0
100
AcDbLine
 62
7
  6
CONTINUOUS
 10
4.2800298699
 20
-19.8703096111
 11
2.5021998901
 21
-20.89680636
  0
LINE
  5
5CA
100
AcDbEntity
  8
0
100
AcDbLine
 62
7
  6
CONTINUOUS
 10
4.066449337
 20
-20.1404472186
 11
7.6019832429
 21
-18.0990742519
  0
LINE
  5
5CB
100
AcDbEntity
  8
0
100
AcDbLine
 62
7
  6
CONTINUOUS
 10
11.4910705395
 20
-15.8535639886
 11
15.0266044454
 21
-13.812191022
  0
LINE
  5
5CC
100
AcDbEntity
  8
0
100
AcDbLine
 62
7
  6
CONTINUOUS
 10
18.9156917419
 20
-11.5666807587
 11
22.4512256478
 21
-9.5253077921
  0
LINE
  5
5CD
100
AcDbEntity
  8
0
100
AcDbLine
 62
7
  6
CONTINUOUS
 10
24.9629032196
 20
-7.9282777563
 11
22.6786368025
 21
-9.2471466455
  0
LINE
  5
5CE
100
AcDbEntity
  8
0
100
AcDbLine
 62
7
  6
CONTINUOUS
 10
19.1292722749
 20
-11.2965431512
 11
15.2540156
 21
-13.5340298754
  0
LINE
  5
5CF
100
AcDbEntity
  8
0
100
AcDbLine
 62
7
  6
CONTINUOUS
 10
11.7046510724
 20
-15.5834263812
 11
7.8293943975
 21
-17.8209131054
  0
LINE
  5
5D0
100
AcDbEntity
  8
RACCORDO
100
AcDbLine
 62
7
  6
CONTINUOUS
 10
25.972766552
 20
-7.3603045475
 11
25.5330140244
 21
-7.6141630711
  0
LINE
  5
5D1
100
AcDbEntity
  8
ASSI
100
AcDbLine
 62
7
  6
CONTINUOUS
 10
25.972766552
 20
-7.3603045475
 11
25.5330140244
 21
-7.6141630711
  0
LINE
  5
5D2
100
AcDbEntity
  8
RACCORDO
100
AcDbLine
 62
7
  6
CONTINUOUS
 10
-5.9893061636
 20
-28.3287569164
 11
-4.007681349
 21
-27.2042238329
  0
LWPOLYLINE
  5
5D3
100
AcDbEntity
  8
0
100
AcDbPolyline
 62
7
  6
CONTINUOUS
 90
11
 70
0
 10
11.4910688965
 20
-15.8535610476
 10
11.4741767905
 20
-15.862856118
 10
11.4393664587
 20
-15.8793005892
 10
11.4030275853
 20
-15.8929477244
 10
11.3651996492
 20
-15.9038037662
 10
11.326184657
 20
-15.9117814717
 10
11.286004793
 20
-15.9168555093
 10
11.2446378728
 20
-15.9190512105
 10
11.2023193499
 20
-15.9183573271
 10
11.1590150277
 20
-15.9147540657
 10
11.1364405624
 20
-15.9114421357
  0
LWPOLYLINE
  5
5D4
100
AcDbEntity
  8
0
100
AcDbPolyline
 62
7
  6
CONTINUOUS
 90
11
 70
0
 10
4.066447694
 20
-20.1404442776
 10
4.0495555881
 20
-20.149739348
 10
4.0147452563
 20
-20.1661838191
 10
3.9784063829
 20
-20.1798309544
 10
3.9405784468
 20
-20.1906869962
 10
3.9015634545
 20
-20.1986647016
 10
3.8613835905
 20
-20.2037387392
 10
3.8200166704
 20
-20.2059344405
 10
3.7776981474
 20
-20.2052405571
 10
3.7343938252
 20
-20.2016372957
 10
3.71181936
 20
-20.1983253656
  0
LINE
  5
5D5
100
AcDbEntity
  8
RACCORDO
100
AcDbLine
 62
253
  6
CONTINUOUS
 10
-4.0228503506
 20
-26.8280771325
 11
-5.8214737905
 21
-27.8131343966
  0
LINE
  5
5D6
100
AcDbEntity
  8
ASSI
100
AcDbLine
 62
253
  6
CONTINUOUS
 10
-4.0228503506
 20
-26.8280771325
 11
-5.8214737905
 21
-27.8131343966
  0
LINE
  5
5D7
100
AcDbEntity
  8
RACCORDO
100
AcDbLine
 62
7
  6
CONTINUOUS
 10
-4.076292269
 20
-26.9434378784
 11
-5.8749157089
 21
-27.9284951424
  0
LINE
  5
5D8
100
AcDbEntity
  8
ASSI
100
AcDbLine
 62
7
  6
CONTINUOUS
 10
-4.076292269
 20
-26.9434378784
 11
-5.8749157089
 21
-27.9284951424
  0
LINE
  5
5D9
100
AcDbEntity
  8
RACCORDO
100
AcDbLine
 62
7
  6
CONTINUOUS
 10
-12.727185413
 20
17.1898972191
 11
-10.7769397283
 21
17.5842653814
  0
LINE
  5
5DA
100
AcDbEntity
  8
0
100
AcDbLine
 62
7
  6
CONTINUOUS
 10
-14.1129283272
 20
17.7365726305
 11
-9.4675725657
 21
18.6759314145
  0
LINE
  5
5DB
100
AcDbEntity
  8
RACCORDO
100
AcDbLine
 62
7
  6
CONTINUOUS
 10
-7.8684622853
 20
19.4329603779
 11
-9.3310882474
 21
19.1840607847
  0
LINE
  5
5DC
100
AcDbEntity
  8
RACCORDO
100
AcDbLine
 62
253
  6
CONTINUOUS
 10
12.0405181955
 20
20.0827849485
 11
9.7607066294
 21
20.0712985804
  0
LINE
  5
5DD
100
AcDbEntity
  8
ASSI
100
AcDbLine
 62
253
  6
CONTINUOUS
 10
12.0405181955
 20
20.0827849485
 11
9.7607066294
 21
20.0712985804
  0
LINE
  5
5DE
100
AcDbEntity
  8
RACCORDO
100
AcDbLine
 62
253
  6
CONTINUOUS
 10
12.0386670178
 20
20.4998640983
 11
9.7588554516
 21
20.4883777302
  0
LINE
  5
5DF
100
AcDbEntity
  8
ASSI
100
AcDbLine
 62
253
  6
CONTINUOUS
 10
12.0386670178
 20
20.4998640983
 11
9.7588554516
 21
20.4883777302
  0
LINE
  5
5E0
100
AcDbEntity
  8
RACCORDO
100
AcDbLine
 62
7
  6
CONTINUOUS
 10
12.0405181955
 20
19.344910642
 11
9.7607066294
 21
19.344910642
  0
LINE
  5
5E1
100
AcDbEntity
  8
ASSI
100
AcDbLine
 62
7
  6
CONTINUOUS
 10
12.0405181955
 20
19.344910642
 11
9.7607066294
 21
19.344910642
  0
LWPOLYLINE
  5
5E2
100
AcDbEntity
  8
RACCORDO
100
AcDbPolyline
 62
253
  6
CONTINUOUS
 90
10
 70
0
 10
9.7588554516
 20
20.4883777302
 10
9.7412343799
 20
20.4887550374
 10
9.7239903224
 20
20.4899898715
 10
9.7071232791
 20
20.4920822325
 10
9.690500073
 20
20.4950640292
 10
9.6742538811
 20
20.4989033528
 10
9.6587842344
 20
20.5035044763
 10
9.6442243096
 20
20.5088354906
 10
9.63044093
 20
20.5149283047
 10
9.6174340954
 20
20.5217829187
  0
LWPOLYLINE
  5
5E3
100
AcDbEntity
  8
ASSI
100
AcDbPolyline
 62
253
  6
CONTINUOUS
 90
10
 70
0
 10
9.7588554516
 20
20.4883777302
 10
9.7412343799
 20
20.4887550374
 10
9.7239903224
 20
20.4899898715
 10
9.7071232791
 20
20.4920822325
 10
9.690500073
 20
20.4950640292
 10
9.6742538811
 20
20.4989033528
 10
9.6587842344
 20
20.5035044763
 10
9.6442243096
 20
20.5088354906
 10
9.63044093
 20
20.5149283047
 10
9.6174340954
 20
20.5217829187
  0
LWPOLYLINE
  5
5E4
100
AcDbEntity
  8
RACCORDO
100
AcDbPolyline
 62
253
  6
CONTINUOUS
 90
10
 70
0
 10
9.7607066294
 20
20.0712985804
 10
9.717090388
 20
20.0723142227
 10
9.6738226866
 20
20.075530215
 10
9.6312326
 20
20.0809190512
 10
9.5896517366
 20
20.0884347168
 10
9.5493862986
 20
20.0980185291
 10
9.5107176564
 20
20.109603743
 10
9.4739337611
 20
20.1231066504
 10
9.4393239279
 20
20.1384231089
 10
9.4071532388
 20
20.1554376311
  0
LWPOLYLINE
  5
5E5
100
AcDbEntity
  8
ASSI
100
AcDbPolyline
 62
253
  6
CONTINUOUS
 90
10
 70
0
 10
9.7607066294
 20
20.0712985804
 10
9.717090388
 20
20.0723142227
 10
9.6738226866
 20
20.075530215
 10
9.6312326
 20
20.0809190512
 10
9.5896517366
 20
20.0884347168
 10
9.5493862986
 20
20.0980185291
 10
9.5107176564
 20
20.109603743
 10
9.4739337611
 20
20.1231066504
 10
9.4393239279
 20
20.1384231089
 10
9.4071532388
 20
20.1554376311
  0
LWPOLYLINE
  5
5E6
100
AcDbEntity
  8
RACCORDO
100
AcDbPolyline
 62
7
  6
CONTINUOUS
 90
10
 70
0
 10
9.4071532388
 20
19.4294670789
 10
9.4397373411
 20
19.4122951016
 10
9.4742289616
 20
19.3970108926
 10
9.5106281003
 20
19.3836144519
 10
9.549244912
 20
19.3720305315
 10
9.5897692418
 20
19.3623343794
 10
9.6312706249
 20
19.3547517399
 10
9.6734389064
 20
19.3493578613
 10
9.7165842412
 20
19.3460774953
 10
9.7607066294
 20
19.344910642
  0
LWPOLYLINE
  5
5E7
100
AcDbEntity
  8
ASSI
100
AcDbPolyline
 62
7
  6
CONTINUOUS
 90
10
 70
0
 10
9.4071532388
 20
19.4294670789
 10
9.4397373411
 20
19.4122951016
 10
9.4742289616
 20
19.3970108926
 10
9.5106281003
 20
19.3836144519
 10
9.549244912
 20
19.3720305315
 10
9.5897692418
 20
19.3623343794
 10
9.6312706249
 20
19.3547517399
 10
9.6734389064
 20
19.3493578613
 10
9.7165842412
 20
19.3460774953
 10
9.7607066294
 20
19.344910642
  0
LINE
  5
5E8
100
AcDbEntity
  8
RACCORDO
100
AcDbLine
 62
7
  6
CONTINUOUS
 10
9.2653451786
 20
19.5113762916
 11
9.2622660836
 21
19.5131231064
  0
LINE
  5
5E9
100
AcDbEntity
  8
ASSI
100
AcDbLine
 62
7
  6
CONTINUOUS
 10
9.2653451786
 20
19.5113762916
 11
9.2622660836
 21
19.5131231064
  0
LINE
  5
5EA
100
AcDbEntity
  8
RACCORDO
100
AcDbLine
 62
7
  6
CONTINUOUS
 10
25.9677253352
 20
8.2766274564
 11
25.3220810686
 21
8.6494143641
  0
LINE
  5
5EB
100
AcDbEntity
  8
ASSI
100
AcDbLine
 62
7
  6
CONTINUOUS
 10
25.9677253352
 20
8.2766274564
 11
25.3220810686
 21
8.6494143641
  0
LINE
  5
5EC
100
AcDbEntity
  8
ASSI
100
AcDbLine
 62
7
  6
CONTINUOUS
 10
9.2707571357
 20
19.0182988584
 11
6.3009086547
 21
20.7330521503
  0
LINE
  5
5ED
100
AcDbEntity
  8
RACCORDO
100
AcDbLine
 62
7
  6
CONTINUOUS
 10
6.8716193328
 20
20.8934525785
 11
9.2622660836
 21
19.5131231064
  0
LINE
  5
5EE
100
AcDbEntity
  8
ASSI
100
AcDbLine
 62
7
  6
CONTINUOUS
 10
6.8716193328
 20
20.8934525785
 11
9.2622660836
 21
19.5131231064
  0
LINE
  5
5EF
100
AcDbEntity
  8
RACCORDO
100
AcDbLine
 62
7
  6
CONTINUOUS
 10
9.2645752691
 20
19.5118247042
 11
9.4071532388
 21
19.4294670789
  0
LINE
  5
5F0
100
AcDbEntity
  8
ASSI
100
AcDbLine
 62
7
  6
CONTINUOUS
 10
9.2645752691
 20
19.5118247042
 11
9.4071532388
 21
19.4294670789
  0
LWPOLYLINE
  5
5F1
100
AcDbEntity
  8
RACCORDO
100
AcDbPolyline
 62
253
  6
CONTINUOUS
 90
10
 70
0
 10
6.8716193328
 20
21.6194231307
 10
6.8421411853
 20
21.6380038742
 10
6.8155859536
 20
21.6580033575
 10
6.7921536552
 20
21.6792685257
 10
6.7720240527
 20
21.7016326814
 10
6.755342729
 20
21.7249292155
 10
6.7422270994
 20
21.7489946195
 10
6.7327794045
 20
21.7736517462
 10
6.7270787328
 20
21.7987094787
 10
6.7251727234
 20
21.8239778135
  0
LWPOLYLINE
  5
5F2
100
AcDbEntity
  8
ASSI
100
AcDbPolyline
 62
253
  6
CONTINUOUS
 90
10
 70
0
 10
6.8716193328
 20
21.6194231307
 10
6.8421411853
 20
21.6380038742
 10
6.8155859536
 20
21.6580033575
 10
6.7921536552
 20
21.6792685257
 10
6.7720240527
 20
21.7016326814
 10
6.755342729
 20
21.7249292155
 10
6.7422270994
 20
21.7489946195
 10
6.7327794045
 20
21.7736517462
 10
6.7270787328
 20
21.7987094787
 10
6.7251727234
 20
21.8239778135
  0
LWPOLYLINE
  5
5F3
100
AcDbEntity
  8
ASSI
100
AcDbPolyline
 62
7
  6
CONTINUOUS
 90
33
 70
0
 10
20.3728174445
 20
9.7628140777
 10
20.315691219
 20
9.8115872576
 10
20.2641774626
 20
9.8687229326
 10
20.217548534
 20
9.9351387829
 10
20.1760495919
 20
10.0110669836
 10
20.1404186652
 20
10.0957738251
 10
20.1110935556
 20
10.1887615617
 10
20.0884260886
 20
10.2892925892
 10
20.0726777212
 20
10.3965684897
 10
20.0640138043
 20
10.510011876
 10
20.062523265
 20
10.62854168
 10
20.0682038176
 20
10.7515670582
 10
20.0811873329
 20
10.8795518992
 10
20.1016543084
 20
11.0122889524
 10
20.1296015609
 20
11.1485487473
 10
20.1649893331
 20
11.2874466884
 10
20.2077204151
 20
11.4282155645
 10
20.257630305
 20
11.5700389163
 10
20.3144735113
 20
11.7119880018
 10
20.3779629386
 20
11.8532383643
 10
20.4477825158
 20
11.9930302334
 10
20.5235704655
 20
12.130564202
 10
20.6049239294
 20
12.2650811106
 10
20.69139101
 20
12.3958449144
 10
20.7824864904
 20
12.5221165267
 10
20.8777397833
 20
12.6432607509
 10
20.9765495163
 20
12.7585717067
 10
21.0781648861
 20
12.8672476131
 10
21.1820071679
 20
12.9687741493
 10
21.287417677
 20
13.062648402
 10
21.3934417022
 20
13.1481932454
 10
21.4992820598
 20
13.2250065178
 10
21.6041620764
 20
13.2928406389
  0
LWPOLYLINE
  5
5F4
100
AcDbEntity
  8
RACCORDO
100
AcDbPolyline
 62
253
  6
CONTINUOUS
 90
13
 70
0
 10
21.7200130608
 20
9.461043478
 10
21.7182140183
 20
9.4940728891
 10
21.7128477288
 20
9.5286509183
 10
21.7040060965
 20
9.5641858635
 10
21.6918404955
 20
9.6000696517
 10
21.6765591573
 20
9.6356883043
 10
21.658423588
 20
9.6704324397
 10
21.6377441464
 20
9.7037075881
 10
21.6148746955
 20
9.7349444522
 10
21.5902064979
 20
9.7636086852
 10
21.5641616128
 20
9.789209899
 10
21.5371856906
 20
9.8113100737
 10
21.5097402835
 20
9.8295311232
  0
LWPOLYLINE
  5
5F5
100
AcDbEntity
  8
ASSI
100
AcDbPolyline
 62
253
  6
CONTINUOUS
 90
13
 70
0
 10
21.7200130608
 20
9.461043478
 10
21.7182140183
 20
9.4940728891
 10
21.7128477288
 20
9.5286509183
 10
21.7040060965
 20
9.5641858635
 10
21.6918404955
 20
9.6000696517
 10
21.6765591573
 20
9.6356883043
 10
21.658423588
 20
9.6704324397
 10
21.6377441464
 20
9.7037075881
 10
21.6148746955
 20
9.7349444522
 10
21.5902064979
 20
9.7636086852
 10
21.5641616128
 20
9.789209899
 10
21.5371856906
 20
9.8113100737
 10
21.5097402835
 20
9.8295311232
  0
LWPOLYLINE
  5
5F6
100
AcDbEntity
  8
RACCORDO
100
AcDbPolyline
 62
253
  6
CONTINUOUS
 90
13
 70
0
 10
21.7200130608
 20
13.5433948619
 10
21.7182140183
 20
13.5764242731
 10
21.7128477288
 20
13.6110023023
 10
21.7040060965
 20
13.6465372474
 10
21.6918404955
 20
13.6824210357
 10
21.6765591573
 20
13.7180396883
 10
21.658423588
 20
13.7527838237
 10
21.6377441464
 20
13.7860589721
 10
21.6148746955
 20
13.8172958362
 10
21.5902064979
 20
13.8459600692
 10
21.5641616128
 20
13.871561283
 10
21.5371856906
 20
13.8936614576
 10
21.5097402835
 20
13.9118825072
  0
LWPOLYLINE
  5
5F7
100
AcDbEntity
  8
ASSI
100
AcDbPolyline
 62
253
  6
CONTINUOUS
 90
13
 70
0
 10
21.7200130608
 20
13.5433948619
 10
21.7182140183
 20
13.5764242731
 10
21.7128477288
 20
13.6110023023
 10
21.7040060965
 20
13.6465372474
 10
21.6918404955
 20
13.6824210357
 10
21.6765591573
 20
13.7180396883
 10
21.658423588
 20
13.7527838237
 10
21.6377441464
 20
13.7860589721
 10
21.6148746955
 20
13.8172958362
 10
21.5902064979
 20
13.8459600692
 10
21.5641616128
 20
13.871561283
 10
21.5371856906
 20
13.8936614576
 10
21.5097402835
 20
13.9118825072
  0
LWPOLYLINE
  5
5F8
100
AcDbEntity
  8
0
100
AcDbPolyline
 62
7
  6
CONTINUOUS
 90
8
 70
0
 10
22.7411413173
 20
-7.7191135832
 10
22.7397276478
 20
-7.6636052693
 10
22.7356256011
 20
-7.6071082382
 10
22.7288351773
 20
-7.5496224898
 10
22.7193199019
 20
-7.490964627
 10
22.7071162494
 20
-7.4313180469
 10
22.6923336429
 20
-7.3712329415
 10
22.6749320031
 20
-7.3106609219
  0
LINE
  5
5F9
100
AcDbEntity
  8
0
100
AcDbLine
 62
7
  6
CONTINUOUS
 10
22.6704306392
 20
-7.2969160519
 11
22.6704306392
 21
-6.557587189
  0
LINE
  5
5FA
100
AcDbEntity
  8
ASSI
100
AcDbLine
 62
7
  6
CONTINUOUS
 10
22.7411413173
 20
-7.7191135832
 11
22.7411413173
 21
-8.8844761865
  0
LINE
  5
5FB
100
AcDbEntity
  8
0
100
AcDbLine
 62
7
  6
CONTINUOUS
 10
23.165405386
 20
-8.7260298131
 11
23.165405386
 21
-6.2717949737
  0
LINE
  5
5FC
100
AcDbEntity
  8
0
100
AcDbLine
 62
7
  6
CONTINUOUS
 10
23.165405386
 20
3.9750924382
 11
23.165405386
 21
6.0150843021
  0
LINE
  5
5FD
100
AcDbEntity
  8
0
100
AcDbLine
 62
7
  6
CONTINUOUS
 10
23.165405386
 20
7.3930344451
 11
23.165405386
 21
10.097435686
  0
LINE
  5
5FE
100
AcDbEntity
  8
0
100
AcDbLine
 62
7
  6
CONTINUOUS
 10
23.165405386
 20
11.475385829
 11
23.165405386
 21
14.17978707
  0
LINE
  5
5FF
100
AcDbEntity
  8
0
100
AcDbLine
 62
7
  6
CONTINUOUS
 10
23.165405386
 20
15.557737213
 11
23.165405386
 21
18.262138454
  0
LINE
  5
600
100
AcDbEntity
  8
DRAFT
100
AcDbLine
 62
7
  6
CONTINUOUS
 10
24.2614208969
 20
3.9546510901
 11
24.2614208969
 21
6.6369603065
  0
LINE
  5
601
100
AcDbEntity
  8
ASSI
100
AcDbLine
 62
7
  6
CONTINUOUS
 10
24.2614208969
 20
3.9546510901
 11
24.2614208969
 21
6.6369603065
  0
LINE
  5
602
100
AcDbEntity
  8
DRAFT
100
AcDbLine
 62
7
  6
CONTINUOUS
 10
24.2614208969
 20
8.0370024741
 11
24.2614208969
 21
10.7193116905
  0
LINE
  5
603
100
AcDbEntity
  8
ASSI
100
AcDbLine
 62
7
  6
CONTINUOUS
 10
24.2614208969
 20
8.0370024741
 11
24.2614208969
 21
10.7193116905
  0
LINE
  5
604
100
AcDbEntity
  8
DRAFT
100
AcDbLine
 62
7
  6
CONTINUOUS
 10
24.2614208969
 20
12.1193538581
 11
24.2614208969
 21
14.8016630745
  0
LINE
  5
605
100
AcDbEntity
  8
ASSI
100
AcDbLine
 62
7
  6
CONTINUOUS
 10
24.2614208969
 20
12.1193538581
 11
24.2614208969
 21
14.8016630745
  0
LINE
  5
606
100
AcDbEntity
  8
DRAFT
100
AcDbLine
 62
7
  6
CONTINUOUS
 10
24.2614208969
 20
16.201705242
 11
24.2614208969
 21
18.8840144584
  0
LINE
  5
607
100
AcDbEntity
  8
ASSI
100
AcDbLine
 62
7
  6
CONTINUOUS
 10
24.2614208969
 20
16.201705242
 11
24.2614208969
 21
18.8840144584
  0
LWPOLYLINE
  5
608
100
AcDbEntity
  8
0
100
AcDbPolyline
 62
7
  6
CONTINUOUS
 90
8
 70
0
 10
22.7411413173
 20
-8.8844761865
 10
22.7399960445
 20
-8.9384244311
 10
22.7366364949
 20
-8.9907157906
 10
22.7310626686
 20
-9.041350265
 10
22.7232544866
 20
-9.0904262831
 10
22.7132320278
 20
-9.137845416
 10
22.7010555292
 20
-9.1833123776
 10
22.6867026187
 20
-9.2268343368
  0
LWPOLYLINE
  5
609
100
AcDbEntity
  8
0
100
AcDbPolyline
 62
7
  6
CONTINUOUS
 90
11
 70
0
 10
22.6867026187
 20
-9.2268343368
 10
22.6701956684
 20
-9.2684041247
 10
22.6516620311
 20
-9.3077049481
 10
22.6311016646
 20
-9.3446972972
 10
22.6085146112
 20
-9.3794206817
 10
22.5840283505
 20
-9.4116768376
 10
22.5576098509
 20
-9.4414723083
 10
22.529292144
 20
-9.4688005502
 10
22.4993018047
 20
-9.493443669
 10
22.467653168
 20
-9.5153643568
 10
22.4512240049
 20
-9.525304851
  0
LWPOLYLINE
  5
60A
100
AcDbEntity
  8
0
100
AcDbPolyline
 62
7
  6
CONTINUOUS
 90
10
 70
0
 10
19.1346617624
 20
-11.3097770914
 10
19.1161281251
 20
-11.3490779147
 10
19.0955677587
 20
-11.3860702638
 10
19.0729807052
 20
-11.4207936484
 10
19.0484944446
 20
-11.4530498043
 10
19.0220759449
 20
-11.4828452749
 10
18.993758238
 20
-11.5101735168
 10
18.9637678987
 20
-11.5348166357
 10
18.9321192621
 20
-11.5567373234
 10
18.9156900989
 20
-11.5666778177
  0
LWPOLYLINE
  5
60B
100
AcDbEntity
  8
0
100
AcDbPolyline
 62
7
  6
CONTINUOUS
 90
16
 70
0
 10
19.2312241944
 20
-11.1856205005
 10
19.2369651856
 20
-11.1737983949
 10
19.2423231362
 20
-11.1615972629
 10
19.2472980464
 20
-11.1490171043
 10
19.2518933909
 20
-11.1360469894
 10
19.2561056949
 20
-11.122697848
 10
19.2599245342
 20
-11.1090024701
 10
19.2633488891
 20
-11.0949601359
 10
19.2663797794
 20
-11.0805715652
 10
19.2690098399
 20
-11.0658717071
 10
19.2712380956
 20
-11.050859817
 10
19.2730655216
 20
-11.0355366396
 10
19.274487678
 20
-11.0199393584
 10
19.2755030848
 20
-11.0040803681
 10
19.276113222
 20
-10.9879472741
 10
19.2763180895
 20
-10.9715400764
  0
LWPOLYLINE
  5
60C
100
AcDbEntity
  8
0
100
AcDbPolyline
 62
7
  6
CONTINUOUS
 90
16
 70
0
 10
23.1203114909
 20
-8.9401102372
 10
23.1260524821
 20
-8.9282881316
 10
23.1314104328
 20
-8.9160869996
 10
23.136385343
 20
-8.903506841
 10
23.1409806874
 20
-8.8905367261
 10
23.1451929914
 20
-8.8771875847
 10
23.1490118307
 20
-8.8634922068
 10
23.1524361856
 20
-8.8494498726
 10
23.1554670759
 20
-8.8350613018
 10
23.1580971364
 20
-8.8203614438
 10
23.1603253922
 20
-8.8053495537
 10
23.1621528182
 20
-8.7900263763
 10
23.1635749745
 20
-8.7744290951
 10
23.1645903813
 20
-8.7585701048
 10
23.1652005185
 20
-8.7424370108
 10
23.165405386
 20
-8.7260298131
  0
LINE
  5
60D
100
AcDbEntity
  8
ASSI
100
AcDbLine
 62
7
  6
CONTINUOUS
 10
2.0536888176
 20
-25.0695016458
 11
3.3858660787
 21
-24.2456632444
  0
LINE
  5
60E
100
AcDbEntity
  8
DRAFT
100
AcDbLine
 62
7
  6
CONTINUOUS
 10
-0.7701591571
 20
-26.6999616736
 11
2.0536888176
 21
-25.0695016458
  0
LWPOLYLINE
  5
60F
100
AcDbEntity
  8
RACCORDO
100
AcDbPolyline
 62
253
  6
CONTINUOUS
 90
23
 70
0
 10
-6.0445641773
 20
-31.0520117604
 10
-6.0423665713
 20
-31.05078681
 10
-6.0377778562
 20
-31.0479357099
 10
-6.0333641851
 20
-31.0447824601
 10
-6.0291317281
 20
-31.0413314693
 10
-6.0250864017
 20
-31.0375875624
 10
-6.0212338625
 20
-31.0335559751
 10
-6.0175794979
 20
-31.0292423463
 10
-6.01412842
 20
-31.0246527123
 10
-6.0108854498
 20
-31.0197934872
 10
-6.0078551142
 20
-31.0146714533
 10
-6.0050416413
 20
-31.0092937516
 10
-6.0024489769
 20
-31.0036679176
 10
-6.0000807654
 20
-30.9978018653
 10
-5.9979403235
 20
-30.9917038321
 10
-5.9960306266
 20
-30.9853823198
 10
-5.9943543292
 20
-30.9788461255
 10
-5.9929136888
 20
-30.9721039407
 10
-5.9917108369
 20
-30.9651656127
 10
-5.9907476149
 20
-30.9580422066
 10
-5.9900252708
 20
-30.9507442474
 10
-5.989544609
 20
-30.9432815846
 10
-5.9893061636
 20
-30.9356647313
  0
LINE
  5
610
100
AcDbEntity
  8
RACCORDO
100
AcDbLine
 62
7
  6
CONTINUOUS
 10
-2.5700996937
 20
-29.1835571991
 11
-6.0445642602
 21
-31.0520118049
  0
LWPOLYLINE
  5
611
100
AcDbEntity
  8
RACCORDO
100
AcDbPolyline
 62
253
  6
CONTINUOUS
 90
43
 70
0
 10
-2.2468358535
 20
-28.9230853096
 10
-5.996074487
 20
-30.9393013661
 10
-6.0030710722
 20
-30.9427910141
 10
-6.0102863501
 20
-30.9461289025
 10
-6.0177104525
 20
-30.9493104663
 10
-6.0253332254
 20
-30.9523313539
 10
-6.0331442434
 20
-30.9551874338
 10
-6.0411328234
 20
-30.9578747998
 10
-6.0492880396
 20
-30.9603897763
 10
-6.0575987381
 20
-30.9627289237
 10
-6.0660535525
 20
-30.9648890428
 10
-6.0746409193
 20
-30.9668671792
 10
-6.0833490937
 20
-30.9686606274
 10
-6.0921661655
 20
-30.9702669345
 10
-6.1010800759
 20
-30.9716839037
 10
-6.1100786333
 20
-30.9729095968
 10
-6.1191495306
 20
-30.9739423377
 10
-6.1282803616
 20
-30.9747807138
 10
-6.1374586382
 20
-30.9754235785
 10
-6.1466718074
 20
-30.9758700525
 10
-6.1559072684
 20
-30.9761195253
 10
-6.1651523901
 20
-30.9761716555
 10
-6.174394528
 20
-30.976026372
 10
-6.1836210417
 20
-30.9756838733
 10
-6.1928193124
 20
-30.975144628
 10
-6.2019767595
 20
-30.9744093736
 10
-6.2110808587
 20
-30.9734791156
 10
-6.2201191583
 20
-30.9723551264
 10
-6.2290792967
 20
-30.9710389432
 10
-6.2379490194
 20
-30.9695323662
 10
-6.2467161954
 20
-30.9678374558
 10
-6.2553688337
 20
-30.9659565302
 10
-6.2638951005
 20
-30.963892162
 10
-6.2722833343
 20
-30.9616471744
 10
-6.2805220628
 20
-30.959224638
 10
-6.2886000179
 20
-30.956627866
 10
-6.2965061516
 20
-30.95386041
 10
-6.3042296506
 20
-30.950926055
 10
-6.3117599517
 20
-30.9478288143
 10
-6.3190867557
 20
-30.944572924
 10
-6.326200042
 20
-30.941162837
 10
-6.3330900817
 20
-30.9376032173
 10
-6.3397474515
 20
-30.9338989334
  0
LWPOLYLINE
  5
612
100
AcDbEntity
  8
ASSI
100
AcDbPolyline
 62
253
  6
CONTINUOUS
 90
8
 70
0
 10
-8.287769417
 20
-28.5646704952
 10
-8.2709792868
 20
-28.5570083906
 10
-8.252985619
 20
-28.5444658968
 10
-8.237019262
 20
-28.5282554779
 10
-8.2233523075
 20
-28.5086535175
 10
-8.2122176368
 20
-28.485994191
 10
-8.2038049582
 20
-28.4606637596
 10
-8.1982575843
 20
-28.4330939966
  0
LWPOLYLINE
  5
613
100
AcDbEntity
  8
RACCORDO
100
AcDbPolyline
 62
253
  6
CONTINUOUS
 90
8
 70
0
 10
-8.2877694302
 20
-28.5646704999
 10
-8.2709795101
 20
-28.5570085159
 10
-8.2529858181
 20
-28.5444660647
 10
-8.2370194234
 20
-28.5282556718
 10
-8.2233524229
 20
-28.5086537128
 10
-8.2122177048
 20
-28.4859943566
 10
-8.2038049852
 20
-28.4606638607
 10
-8.1982575843
 20
-28.4330939966
  0
LINE
  5
614
100
AcDbEntity
  8
RACCORDO
100
AcDbLine
 62
253
  6
CONTINUOUS
 10
-5.8214737905
 20
-27.5834623629
 11
-8.1982575843
 21
-28.4330939966
  0
LINE
  5
615
100
AcDbEntity
  8
ASSI
100
AcDbLine
 62
253
  6
CONTINUOUS
 10
-5.8214737905
 20
-27.5834623629
 11
-8.1982575843
 21
-28.4330939966
  0
LINE
  5
616
100
AcDbEntity
  8
RACCORDO
100
AcDbLine
 62
7
  6
CONTINUOUS
 10
-5.8879494095
 20
-27.7068040798
 11
-8.2877695416
 21
-28.5646705397
  0
LINE
  5
617
100
AcDbEntity
  8
ASSI
100
AcDbLine
 62
7
  6
CONTINUOUS
 10
-5.8879494095
 20
-27.7068040798
 11
-8.2877695402
 21
-28.5646705392
  0
LWPOLYLINE
  5
618
100
AcDbEntity
  8
RACCORDO
100
AcDbPolyline
 62
253
  6
CONTINUOUS
 90
19
 70
0
 10
-8.1982575843
 20
-28.4330939966
 10
-8.2382778814
 20
-28.4455734066
 10
-8.2771360003
 20
-28.4542047631
 10
-8.314831941
 20
-28.4589880662
 10
-8.3515726637
 20
-28.4599121084
 10
-8.3871512081
 20
-28.4569880972
 10
-8.4209466941
 20
-28.4502496549
 10
-8.4529273726
 20
-28.4396260219
 10
-8.4831249926
 20
-28.4251879578
 10
-8.511013921
 20
-28.4071813642
 10
-8.536549517
 20
-28.3855426366
 10
-8.5597764215
 20
-28.3603353795
 10
-8.5803029234
 20
-28.3319963077
 10
-8.5980815543
 20
-28.3004667001
 10
-8.6131597827
 20
-28.265805278
 10
-8.6252883037
 20
-28.2286249189
 10
-8.6343840159
 20
-28.1891299158
 10
-8.6405300208
 20
-28.1471159758
 10
-8.6437263184
 20
-28.102583099
  0
LWPOLYLINE
  5
619
100
AcDbEntity
  8
ASSI
100
AcDbPolyline
 62
253
  6
CONTINUOUS
 90
19
 70
0
 10
-8.1982575843
 20
-28.4330939966
 10
-8.2382800956
 20
-28.4455732458
 10
-8.2771389863
 20
-28.4542046117
 10
-8.3148342564
 20
-28.4589880943
 10
-8.3515723051
 20
-28.4599121961
 10
-8.3871467333
 20
-28.4569884147
 10
-8.420938343
 20
-28.4502512426
 10
-8.4529152473
 20
-28.4396311349
 10
-8.4831093332
 20
-28.4251976366
 10
-8.5109970637
 20
-28.4071938753
 10
-8.5365355422
 20
-28.3855549729
 10
-8.5597676654
 20
-28.3603458075
 10
-8.580298586
 20
-28.3320041413
 10
-8.5980797568
 20
-28.3004708599
 10
-8.6131597251
 20
-28.2658050775
 10
-8.6252892859
 20
-28.2286218998
 10
-8.6343853709
 20
-28.1891263616
 10
-8.6405310484
 20
-28.147113428
 10
-8.6437263184
 20
-28.102583099
  0
LINE
  5
61A
100
AcDbEntity
  8
RACCORDO
100
AcDbLine
 62
7
  6
CONTINUOUS
 10
20.4273311304
 20
13.8096286103
 11
20.4239638886
 21
13.8115611373
  0
LINE
  5
61B
100
AcDbEntity
  8
ASSI
100
AcDbLine
 62
7
  6
CONTINUOUS
 10
20.4272672107
 20
13.8096650741
 11
20.4239638886
 21
13.8115611373
  0
LINE
  5
61C
100
AcDbEntity
  8
RACCORDO
100
AcDbLine
 62
253
  6
CONTINUOUS
 10
9.4071532388
 20
20.1554376311
 11
6.8716193328
 21
21.6194231307
  0
LINE
  5
61D
100
AcDbEntity
  8
ASSI
100
AcDbLine
 62
253
  6
CONTINUOUS
 10
9.4071532388
 20
20.1554376311
 11
6.8716193328
 21
21.6194231307
  0
LINE
  5
61E
100
AcDbEntity
  8
RACCORDO
100
AcDbLine
 62
253
  6
CONTINUOUS
 10
9.6174340954
 20
20.5217829187
 11
7.0819001895
 21
21.9857684183
  0
LINE
  5
61F
100
AcDbEntity
  8
ASSI
100
AcDbLine
 62
253
  6
CONTINUOUS
 10
9.6174340954
 20
20.5217829187
 11
7.0819001895
 21
21.9857684183
  0
LINE
  5
620
100
AcDbEntity
  8
RACCORDO
100
AcDbLine
 62
253
  6
CONTINUOUS
 10
21.5097402815
 20
13.911882506
 11
20.9319751163
 21
14.2454768713
  0
LINE
  5
621
100
AcDbEntity
  8
ASSI
100
AcDbLine
 62
253
  6
CONTINUOUS
 10
21.5097402815
 20
13.911882506
 11
20.9319751163
 21
14.2454768713
  0
LINE
  5
622
100
AcDbEntity
  8
RACCORDO
100
AcDbLine
 62
7
  6
CONTINUOUS
 10
25.9677253352
 20
12.3589788404
 11
25.3220810686
 21
12.731765748
  0
LINE
  5
623
100
AcDbEntity
  8
ASSI
100
AcDbLine
 62
7
  6
CONTINUOUS
 10
25.9677253352
 20
12.3589788404
 11
25.3220810686
 21
12.731765748
  0
LINE
  5
624
100
AcDbEntity
  8
ASSI
100
AcDbLine
 62
7
  6
CONTINUOUS
 10
13.6693822209
 20
20.1530592018
 11
17.6895056808
 21
17.8318903001
  0
LINE
  5
625
100
AcDbEntity
  8
RACCORDO
100
AcDbLine
 62
7
  6
CONTINUOUS
 10
17.6525397184
 20
17.8714743715
 11
14.0241548066
 21
19.9664583452
  0
LINE
  5
626
100
AcDbEntity
  8
ASSI
100
AcDbLine
 62
7
  6
CONTINUOUS
 10
17.6525397184
 20
17.8714743715
 11
14.0241548066
 21
19.9664583452
  0
LWPOLYLINE
  5
627
100
AcDbEntity
  8
RACCORDO
100
AcDbPolyline
 62
253
  6
CONTINUOUS
 90
10
 70
0
 10
7.0819001895
 20
21.9857684183
 10
7.0700185964
 20
21.993284071
 10
7.0594382631
 20
22.0012585597
 10
7.0501591895
 20
22.0096918843
 10
7.042125437
 20
22.0186613286
 10
7.0353929442
 20
22.0280896088
 10
7.0301295271
 20
22.0377448735
 10
7.0263911243
 20
22.0475498389
 10
7.0241217972
 20
22.0575817888
 10
7.0233215457
 20
22.0678407231
  0
LWPOLYLINE
  5
628
100
AcDbEntity
  8
ASSI
100
AcDbPolyline
 62
253
  6
CONTINUOUS
 90
10
 70
0
 10
7.0819001895
 20
21.9857684183
 10
7.0700185964
 20
21.993284071
 10
7.0594382631
 20
22.0012585597
 10
7.0501591895
 20
22.0096918843
 10
7.042125437
 20
22.0186613286
 10
7.0353929442
 20
22.0280896088
 10
7.0301295271
 20
22.0377448735
 10
7.0263911243
 20
22.0475498389
 10
7.0241217972
 20
22.0575817888
 10
7.0233215457
 20
22.0678407231
  0
LINE
  5
629
100
AcDbEntity
  8
ASSI
100
AcDbLine
 62
7
  6
CONTINUOUS
 10
20.4271971793
 20
13.8097082428
 11
20.3728174445
 21
13.8451654617
  0
LWPOLYLINE
  5
62A
100
AcDbEntity
  8
RACCORDO
100
AcDbPolyline
 62
7
  6
CONTINUOUS
 90
34
 70
0
 10
20.4272610859
 20
13.8096717961
 10
20.3712610863
 20
13.8463251684
 10
20.3142807042
 20
13.8953196417
 10
20.2629140558
 20
13.9526675783
 10
20.216444219
 20
14.0192765219
 10
20.175116911
 20
14.0953648482
 10
20.1396644441
 20
14.1801934131
 10
20.1105174439
 20
14.2732640359
 10
20.0880230069
 20
14.3738327374
 10
20.0724373145
 20
14.4811051484
 10
20.0639205309
 20
14.5945258479
 10
20.0625613806
 20
14.7130289255
 10
20.0683603675
 20
14.8360181855
 10
20.0814499519
 20
14.9639481506
 10
20.1020091103
 20
15.0966096511
 10
20.1300343283
 20
15.2327787796
 10
20.1654844384
 20
15.3715692036
 10
20.2082605897
 20
15.5122138026
 10
20.2581986139
 20
15.6539002942
 10
20.3150534543
 20
15.7957035769
 10
20.3785380913
 20
15.9368018373
 10
20.4483370774
 20
16.0764375448
 10
20.5240896597
 20
16.213814145
 10
20.605393826
 20
16.3481750917
 10
20.6917988127
 20
16.4787865149
 10
20.7828207105
 20
16.6049115552
 10
20.8779901868
 20
16.7259171784
 10
20.9767075343
 20
16.8410996495
 10
21.0782239577
 20
16.9496594185
 10
21.1819623211
 20
17.0510836645
 10
21.2872660411
 20
17.1448711504
 10
21.3931835092
 20
17.2303468647
 10
21.4989201637
 20
17.307109611
 10
21.6038573911
 20
17.3750129233
  0
LWPOLYLINE
  5
62B
100
AcDbEntity
  8
ASSI
100
AcDbPolyline
 62
7
  6
CONTINUOUS
 90
33
 70
0
 10
20.3728174445
 20
13.8451654617
 10
20.315691219
 20
13.8939386415
 10
20.2641774626
 20
13.9510743166
 10
20.217548534
 20
14.0174901668
 10
20.1760495919
 20
14.0934183675
 10
20.1404186652
 20
14.1781252091
 10
20.1110935556
 20
14.2711129457
 10
20.0884260886
 20
14.3716439731
 10
20.0726777212
 20
14.4789198737
 10
20.0640138043
 20
14.5923632599
 10
20.062523265
 20
14.7108930639
 10
20.0682038176
 20
14.8339184422
 10
20.0811873329
 20
14.9619032831
 10
20.1016543084
 20
15.0946403363
 10
20.1296015609
 20
15.2309001313
 10
20.1649893331
 20
15.3697980723
 10
20.2077204151
 20
15.5105669485
 10
20.257630305
 20
15.6523903002
 10
20.3144735113
 20
15.7943393857
 10
20.3779629386
 20
15.9355897482
 10
20.4477825158
 20
16.0753816174
 10
20.5235704655
 20
16.2129155859
 10
20.6049239294
 20
16.3474324946
 10
20.69139101
 20
16.4781962983
 10
20.7824864904
 20
16.6044679107
 10
20.8777397833
 20
16.7256121349
 10
20.9765495163
 20
16.8409230906
 10
21.0781648861
 20
16.9495989971
 10
21.1820071679
 20
17.0511255333
 10
21.287417677
 20
17.144999786
 10
21.3934417022
 20
17.2305446293
 10
21.4992820598
 20
17.3073579018
 10
21.6041620764
 20
17.3751920228
  0
LWPOLYLINE
  5
62C
100
AcDbEntity
  8
ASSI
100
AcDbPolyline
 62
7
  6
CONTINUOUS
 90
28
 70
0
 10
18.0445056808
 20
17.457129338
 10
18.0340148471
 20
17.4749507316
 10
18.0232511235
 20
17.4925541717
 10
18.01221451
 20
17.5099396582
 10
18.0008952122
 20
17.5271215242
 10
17.9893030246
 20
17.5440854366
 10
17.9774673301
 20
17.5607883967
 10
17.9653875109
 20
17.5772297423
 10
17.9530641849
 20
17.5934101356
 10
17.9405285881
 20
17.6092885637
 10
17.9277801823
 20
17.6248642605
 10
17.9148195058
 20
17.6401379921
 10
17.9016794103
 20
17.6550710438
 10
17.8883594408
 20
17.6696625513
 10
17.8748600524
 20
17.6839133789
 10
17.8612154623
 20
17.6977874046
 10
17.8474253022
 20
17.7112836726
 10
17.8334899404
 20
17.7244031388
 10
17.8194446992
 20
17.7371125488
 10
17.8052892999
 20
17.7494108626
 10
17.7910240212
 20
17.7612991203
 10
17.7766850216
 20
17.7727471884
 10
17.7622721143
 20
17.7837539503
 10
17.7477854861
 20
17.7943205227
 10
17.7332618567
 20
17.8044201222
 10
17.7187134659
 20
17.814043821
 10
17.704128074
 20
17.823200547
 10
17.6895056808
 20
17.8318903001
  0
LINE
  5
62D
100
AcDbEntity
  8
ASSI
100
AcDbLine
 62
7
  6
CONTINUOUS
 10
18.0445056808
 20
17.457129338
 11
18.598942189
 21
16.4968171373
  0
LINE
  5
62E
100
AcDbEntity
  8
RACCORDO
100
AcDbLine
 62
7
  6
CONTINUOUS
 10
18.5546794227
 20
16.6471027543
 11
18.15252068
 21
17.3436621288
  0
LINE
  5
62F
100
AcDbEntity
  8
ASSI
100
AcDbLine
 62
7
  6
CONTINUOUS
 10
18.5546794227
 20
16.6471027543
 11
18.15252068
 21
17.3436621288
  0
LINE
  5
630
100
AcDbEntity
  8
RACCORDO
100
AcDbLine
 62
7
  6
CONTINUOUS
 10
25.1099490343
 20
1.9542515661
 11
25.1099490343
 21
-7.5052115709
  0
LINE
  5
631
100
AcDbEntity
  8
ASSI
100
AcDbLine
 62
7
  6
CONTINUOUS
 10
25.1099490343
 20
1.9542515661
 11
25.1099490343
 21
1.8726045384
  0
LINE
  5
632
100
AcDbEntity
  8
ASSI
100
AcDbLine
 62
7
  6
CONTINUOUS
 10
25.1099490343
 20
1.8726045384
 11
25.1099490343
 21
-7.6032746815
  0
LINE
  5
633
100
AcDbEntity
  8
ASSI
100
AcDbLine
 62
7
  6
CONTINUOUS
 10
25.3220810686
 20
4.5670629801
 11
25.3220810686
 21
7.2387757947
  0
LINE
  5
634
100
AcDbEntity
  8
ASSI
100
AcDbLine
 62
7
  6
CONTINUOUS
 10
25.3220810686
 20
8.6494143641
 11
25.3220810686
 21
11.3211271787
  0
LINE
  5
635
100
AcDbEntity
  8
ASSI
100
AcDbLine
 62
7
  6
CONTINUOUS
 10
25.3220810686
 20
12.731765748
 11
25.3220810686
 21
15.4034785626
  0
LINE
  5
636
100
AcDbEntity
  8
ASSI
100
AcDbLine
 62
7
  6
CONTINUOUS
 10
25.3220810686
 20
16.814117132
 11
25.3220810686
 21
19.4858299466
  0
LINE
  5
637
100
AcDbEntity
  8
RACCORDO
100
AcDbLine
 62
7
  6
CONTINUOUS
 10
26.1798654472
 20
20.1899119725
 11
26.1798654472
 21
20.0746064557
  0
LINE
  5
638
100
AcDbEntity
  8
ASSI
100
AcDbLine
 62
7
  6
CONTINUOUS
 10
26.1798654472
 20
20.1899119725
 11
26.1798654472
 21
20.0746064557
  0
LINE
  5
639
100
AcDbEntity
  8
RACCORDO
100
AcDbLine
 62
7
  6
CONTINUOUS
 10
26.1798654472
 20
16.0739020994
 11
26.1798654472
 21
15.9922550717
  0
LINE
  5
63A
100
AcDbEntity
  8
ASSI
100
AcDbLine
 62
7
  6
CONTINUOUS
 10
26.1798654472
 20
16.0739020994
 11
26.1798654472
 21
15.9922550717
  0
LINE
  5
63B
100
AcDbEntity
  8
RACCORDO
100
AcDbLine
 62
7
  6
CONTINUOUS
 10
26.1798654472
 20
11.9915507154
 11
26.1798654472
 21
11.9099036877
  0
LINE
  5
63C
100
AcDbEntity
  8
ASSI
100
AcDbLine
 62
7
  6
CONTINUOUS
 10
26.1798654472
 20
11.9915507154
 11
26.1798654472
 21
11.9099036877
  0
LINE
  5
63D
100
AcDbEntity
  8
RACCORDO
100
AcDbLine
 62
7
  6
CONTINUOUS
 10
26.1798654472
 20
7.9091993315
 11
26.1798654472
 21
7.8275523038
  0
LINE
  5
63E
100
AcDbEntity
  8
ASSI
100
AcDbLine
 62
7
  6
CONTINUOUS
 10
26.1798654472
 20
7.9091993315
 11
26.1798654472
 21
7.8275523038
  0
LINE
  5
63F
100
AcDbEntity
  8
RACCORDO
100
AcDbLine
 62
7
  6
CONTINUOUS
 10
26.1798654472
 20
3.8268479475
 11
26.1798654472
 21
-6.9025711677
  0
LINE
  5
640
100
AcDbEntity
  8
ASSI
100
AcDbLine
 62
7
  6
CONTINUOUS
 10
26.1798654472
 20
3.8268479475
 11
26.1798654472
 21
-6.9025711677
  0
LWPOLYLINE
  5
641
100
AcDbEntity
  8
ASSI
100
AcDbPolyline
 62
7
  6
CONTINUOUS
 90
28
 70
0
 10
25.1099490343
 20
-7.6032746815
 10
25.1097375845
 20
-7.6200055603
 10
25.1091021264
 20
-7.6364619952
 10
25.1080426598
 20
-7.6526439861
 10
25.1065567903
 20
-7.6685720757
 10
25.1046469123
 20
-7.6842257212
 10
25.1023202095
 20
-7.6995432951
 10
25.0995767628
 20
-7.7145130641
 10
25.0964164913
 20
-7.7291467613
 10
25.0928463358
 20
-7.7434179587
 10
25.0888662498
 20
-7.757326917
 10
25.0844762798
 20
-7.7708733755
 10
25.0796835065
 20
-7.7840301226
 10
25.0744830483
 20
-7.7968041003
 10
25.0688797868
 20
-7.8091883667
 10
25.0628954479
 20
-7.8211348845
 10
25.0565325228
 20
-7.8326342617
 10
25.0497885203
 20
-7.8436958905
 10
25.0426776934
 20
-7.8542999103
 10
25.0352002165
 20
-7.8644461003
 10
25.0273559153
 20
-7.8741346814
 10
25.019158519
 20
-7.8833464559
 10
25.0106008778
 20
-7.8920856915
 10
25.0016901416
 20
-7.9003481205
 10
24.9924614898
 20
-7.9081017416
 10
24.9829266487
 20
-7.9153358877
 10
24.973073892
 20
-7.9220612259
 10
24.9629203975
 20
-7.9282678405
  0
LINE
  5
642
100
AcDbEntity
  8
RACCORDO
100
AcDbLine
 62
253
  6
CONTINUOUS
 10
-2.2468358535
 20
-30.2639454661
 11
-0.7701591571
 21
-29.4405851009
  0
LINE
  5
643
100
AcDbEntity
  8
RACCORDO
100
AcDbLine
 62
7
  6
CONTINUOUS
 10
-2.2987526399
 20
-30.3784627353
 11
-0.8230152973
 21
-29.5556261318
  0
LWPOLYLINE
  5
644
100
AcDbEntity
  8
ASSI
100
AcDbPolyline
 62
7
  6
CONTINUOUS
 90
28
 70
0
 10
4.2461211403
 20
26.7369904361
 10
4.2314987471
 20
26.7451862561
 10
4.2169133552
 20
26.7528723752
 10
4.2023649644
 20
26.7600487934
 10
4.187841335
 20
26.766720717
 10
4.1733547068
 20
26.7728829398
 10
4.1589417995
 20
26.778519842
 10
4.1446027999
 20
26.7836300911
 10
4.1303375213
 20
26.7882150197
 10
4.1161821219
 20
26.7922630062
 10
4.1021368807
 20
26.7957726886
 10
4.0882015189
 20
26.798745429
 10
4.0744113588
 20
26.8011736922
 10
4.0607667687
 20
26.8030560971
 10
4.0472673803
 20
26.8043940249
 10
4.0339474108
 20
26.8051840843
 10
4.0208073154
 20
26.8054248855
 10
4.0078466388
 20
26.8051178183
 10
3.995098233
 20
26.804263661
 10
3.9825626363
 20
26.8028610258
 10
3.9702393102
 20
26.8009113005
 10
3.958159491
 20
26.7984194272
 10
3.9463237965
 20
26.7953840305
 10
3.9347316089
 20
26.7918064858
 10
3.9234123111
 20
26.7876958612
 10
3.9123756976
 20
26.7830551793
 10
3.901611974
 20
26.7778814174
 10
3.8911211403
 20
26.7721745756
  0
LINE
  5
645
100
AcDbEntity
  8
ASSI
100
AcDbLine
 62
7
  6
CONTINUOUS
 10
4.2461211403
 20
26.7369904361
 11
6.93023369
 21
25.1872174897
  0
LINE
  5
646
100
AcDbEntity
  8
RACCORDO
100
AcDbLine
 62
7
  6
CONTINUOUS
 10
4.4245084589
 20
26.6522322221
 11
8.4771412847
 21
24.3122928199
  0
LINE
  5
647
100
AcDbEntity
  8
ASSI
100
AcDbLine
 62
7
  6
CONTINUOUS
 10
4.4245084589
 20
26.6522322221
 11
8.4771412847
 21
24.3122928199
  0
LINE
  5
648
100
AcDbEntity
  8
RACCORDO
100
AcDbLine
 62
7
  6
CONTINUOUS
 10
25.9677253352
 20
16.4413302244
 11
25.3220810686
 21
16.814117132
  0
LINE
  5
649
100
AcDbEntity
  8
ASSI
100
AcDbLine
 62
7
  6
CONTINUOUS
 10
25.9677253352
 20
16.4413302244
 11
25.3220810686
 21
16.814117132
  0
LINE
  5
64A
100
AcDbEntity
  8
RACCORDO
100
AcDbLine
 62
7
  6
CONTINUOUS
 10
25.0330330629
 20
22.1762839278
 11
21.4422419359
 21
24.2495617213
  0
LINE
  5
64B
100
AcDbEntity
  8
ASSI
100
AcDbLine
 62
7
  6
CONTINUOUS
 10
25.0330330629
 20
22.1762839278
 11
21.4422419359
 21
24.2495617213
  0
LINE
  5
64C
100
AcDbEntity
  8
RACCORDO
100
AcDbLine
 62
7
  6
CONTINUOUS
 10
11.7518361631
 20
30.9877389527
 11
21.0179940218
 21
25.6375755373
  0
LINE
  5
64D
100
AcDbEntity
  8
ASSI
100
AcDbLine
 62
7
  6
CONTINUOUS
 10
11.7518361631
 20
30.9877389527
 11
21.0179940218
 21
25.6375755373
  0
LINE
  5
64E
100
AcDbEntity
  8
RACCORDO
100
AcDbLine
 62
7
  6
CONTINUOUS
 10
25.972766552
 20
20.8867979654
 11
25.5330140244
 21
21.6484716851
  0
LINE
  5
64F
100
AcDbEntity
  8
ASSI
100
AcDbLine
 62
7
  6
CONTINUOUS
 10
25.972766552
 20
20.8867979654
 11
25.5330140244
 21
21.6484716851
  0
ELLIPSE
  5
650
100
AcDbEntity
  8
RACCORDO
100
AcDbEllipse
 62
7
  6
CONTINUOUS
 10
21.0179778668
 20
25.392634455
 30
0.0
 11
-0.1500072497
 21
0.2598034354
 31
0.0
 40
0.5773756362
 41
-2.3562047428
 42
-0.7854845684
  0
ELLIPSE
  5
651
100
AcDbEntity
  8
RACCORDO
100
AcDbEllipse
 62
7
  6
CONTINUOUS
 10
11.7518584685
 20
30.1712247072
 30
0.0
 11
-0.5000195414
 21
0.8660580892
 31
0.0
 40
0.5773134593
 41
-0.7853991688
 42
-0.0000325492
  0
ELLIPSE
  5
652
100
AcDbEntity
  8
RACCORDO
100
AcDbEllipse
 62
7
  6
CONTINUOUS
 10
25.4727317405
 20
-6.4942552727
 30
0.0
 11
-0.5000668544
 21
0.8660307748
 31
0.0
 40
0.5773134558
 41
-3.1416567412
 42
-2.3562901216
  0
ELLIPSE
  5
653
100
AcDbEntity
  8
RACCORDO
100
AcDbEllipse
 62
7
  6
CONTINUOUS
 10
25.9677253352
 20
3.9493349894
 30
0.0
 11
-0.1500186713
 21
0.2598034368
 31
0.0
 40
0.5773316664
 41
-2.3562808875
 42
-0.7854845607
  0
ELLIPSE
  5
654
100
AcDbEntity
  8
RACCORDO
100
AcDbEllipse
 62
7
  6
CONTINUOUS
 10
25.9677253352
 20
7.9500393457
 30
0.0
 11
-0.1500186713
 21
0.2598034368
 31
0.0
 40
0.5773316664
 41
-3.1459423927
 42
-2.3562808875
  0
ELLIPSE
  5
655
100
AcDbEntity
  8
RACCORDO
100
AcDbEllipse
 62
7
  6
CONTINUOUS
 10
25.9677253352
 20
8.0316863734
 30
0.0
 11
-0.1500186713
 21
0.2598034368
 31
0.0
 40
0.5773316664
 41
-2.3562808875
 42
-0.7854845607
  0
ELLIPSE
  5
656
100
AcDbEntity
  8
RACCORDO
100
AcDbEllipse
 62
7
  6
CONTINUOUS
 10
25.9677253352
 20
12.0323907297
 30
0.0
 11
-0.1500186713
 21
0.2598034368
 31
0.0
 40
0.5773316664
 41
-3.1459423927
 42
-2.3562808875
  0
ELLIPSE
  5
657
100
AcDbEntity
  8
RACCORDO
100
AcDbEllipse
 62
7
  6
CONTINUOUS
 10
25.9677253352
 20
12.1140377573
 30
0.0
 11
-0.1500186713
 21
0.2598034368
 31
0.0
 40
0.5773316664
 41
-2.3562808875
 42
-0.7854845607
  0
ELLIPSE
  5
658
100
AcDbEntity
  8
RACCORDO
100
AcDbEllipse
 62
7
  6
CONTINUOUS
 10
25.9677253352
 20
16.1147421136
 30
0.0
 11
-0.1500186713
 21
0.2598034368
 31
0.0
 40
0.5773316664
 41
-3.1459423927
 42
-2.3562808875
  0
ELLIPSE
  5
659
100
AcDbEntity
  8
RACCORDO
100
AcDbEllipse
 62
7
  6
CONTINUOUS
 10
25.9677253352
 20
16.1963891413
 30
0.0
 11
-0.1500186713
 21
0.2598034368
 31
0.0
 40
0.5773316664
 41
-2.3562808875
 42
-0.7854845607
  0
ELLIPSE
  5
65A
100
AcDbEntity
  8
RACCORDO
100
AcDbEllipse
 62
7
  6
CONTINUOUS
 10
25.9677253352
 20
20.1970934976
 30
0.0
 11
-0.1500186713
 21
0.2598034368
 31
0.0
 40
0.5773316664
 41
-3.1459423927
 42
-2.3562808875
  0
ELLIPSE
  5
65B
100
AcDbEntity
  8
RACCORDO
100
AcDbEllipse
 62
7
  6
CONTINUOUS
 10
25.4727317405
 20
20.5981763571
 30
0.0
 11
-0.500051088
 21
0.8660034525
 31
0.0
 40
0.5773498789
 41
-2.3562585873
 42
-1.5708919678
  0
ELLIPSE
  5
65C
100
AcDbEntity
  8
RACCORDO
100
AcDbEllipse
 62
7
  6
CONTINUOUS
 10
25.0330107575
 20
21.35979544
 30
0.0
 11
-0.5000037704
 21
0.8660307695
 31
0.0
 40
0.5773498824
 41
-1.5707973348
 42
-0.7854307152
  0
ELLIPSE
  5
65D
100
AcDbEntity
  8
DRAFT
100
AcDbEllipse
 62
7
  6
CONTINUOUS
 10
20.9319751163
 20
3.7538338145
 30
0.0
 11
1.0610913518
 21
1.8699624759
 31
0.0
 40
0.5722717666
 41
-2.8628032189
 42
-2.3604340017
  0
ELLIPSE
  5
65E
100
AcDbEntity
  8
DRAFT
100
AcDbEllipse
 62
7
  6
CONTINUOUS
 10
20.9319751163
 20
16.0008879664
 30
0.0
 11
1.0610913518
 21
1.8699624759
 31
0.0
 40
0.5722717666
 41
-2.8628032189
 42
-2.3604340017
  0
ELLIPSE
  5
65F
100
AcDbEntity
  8
DRAFT
100
AcDbEllipse
 62
7
  6
CONTINUOUS
 10
20.9319751163
 20
11.9185365825
 30
0.0
 11
1.0610913518
 21
1.8699624759
 31
0.0
 40
0.5722717666
 41
-2.8628032189
 42
-2.3604340017
  0
ELLIPSE
  5
660
100
AcDbEntity
  8
DRAFT
100
AcDbEllipse
 62
7
  6
CONTINUOUS
 10
20.9319751163
 20
7.8361851985
 30
0.0
 11
1.0610913518
 21
1.8699624759
 31
0.0
 40
0.5722717666
 41
-2.8628032189
 42
-2.3604340017
  0
ELLIPSE
  5
661
100
AcDbEntity
  8
RACCORDO
100
AcDbEllipse
 62
7
  6
CONTINUOUS
 10
21.4422580908
 20
24.4945028037
 30
0.0
 11
-0.1500072497
 21
0.2598034354
 31
0.0
 40
0.5773756362
 41
0.7853879108
 42
2.3561080852
  0
ELLIPSE
  5
662
100
AcDbEntity
  8
RACCORDO
100
AcDbEllipse
 62
7
  6
CONTINUOUS
 10
8.4771574397
 20
24.0673330822
 30
0.0
 11
-0.1500186702
 21
0.2598232227
 31
0.0
 40
0.5772877058
 41
-0.7854084013
 42
0.0088311374
  0
ELLIPSE
  5
663
100
AcDbEntity
  8
RACCORDO
100
AcDbEllipse
 62
7
  6
CONTINUOUS
 10
24.4028153276
 20
-7.0968956759
 30
0.0
 11
-0.5000668544
 21
0.8660307748
 31
0.0
 40
0.5773134558
 41
-2.4217560886
 42
-2.3562901216
  0
ELLIPSE
  5
664
100
AcDbEntity
  8
RACCORDO
100
AcDbEllipse
 62
7
  6
CONTINUOUS
 10
4.4245307643
 20
25.8357179766
 30
0.0
 11
-0.5000195414
 21
0.8660580892
 31
0.0
 40
0.5773134593
 41
5.4977861384
 42
5.707770874
  0
ELLIPSE
  5
665
100
AcDbEntity
  8
RACCORDO
100
AcDbEllipse
 62
7
  6
CONTINUOUS
 10
17.652517413
 20
17.0549858837
 30
0.0
 11
-0.5000037704
 21
0.8660307695
 31
0.0
 40
0.5773498824
 41
4.7123879724
 42
5.4977545919
  0
ELLIPSE
  5
666
100
AcDbEntity
  8
RACCORDO
100
AcDbEllipse
 62
7
  6
CONTINUOUS
 10
18.0546446113
 20
16.358481146
 30
0.0
 11
-0.500051088
 21
0.8660034525
 31
0.0
 40
0.5773498789
 41
3.9269267198
 42
4.7122933394
  0
ELLIPSE
  5
667
100
AcDbEntity
  8
RACCORDO
100
AcDbEllipse
 62
7
  6
CONTINUOUS
 10
14.0241709616
 20
20.2113994275
 30
0.0
 11
-0.1500072497
 21
0.2598034354
 31
0.0
 40
0.5773756362
 41
0.7853879108
 42
2.3561080852
  0
ELLIPSE
  5
668
100
AcDbEntity
  8
RACCORDO
100
AcDbEllipse
 62
7
  6
CONTINUOUS
 10
19.1184171222
 20
-1.0370910289
 30
0.0
 11
0.2533110813
 21
0.431095234
 31
0.0
 40
0.5823475934
 41
2.3606829537
 42
3.9314792805
  0
ELLIPSE
  5
669
100
AcDbEntity
  8
ASSI
100
AcDbEllipse
 62
7
  6
CONTINUOUS
 10
21.0179778668
 20
25.392634455
 30
0.0
 11
-0.1500072497
 21
0.2598034354
 31
0.0
 40
0.5773756362
 41
-2.3562047428
 42
-0.7854845684
  0
ELLIPSE
  5
66A
100
AcDbEntity
  8
ASSI
100
AcDbEllipse
 62
7
  6
CONTINUOUS
 10
11.7518584685
 20
30.1712247072
 30
0.0
 11
-0.5000195414
 21
0.8660580892
 31
0.0
 40
0.5773134593
 41
-0.7853991688
 42
-0.0000325492
  0
ELLIPSE
  5
66B
100
AcDbEntity
  8
ASSI
100
AcDbEllipse
 62
7
  6
CONTINUOUS
 10
25.4727317405
 20
-6.4942552727
 30
0.0
 11
-0.5000668544
 21
0.8660307748
 31
0.0
 40
0.5773134558
 41
-3.1416567412
 42
-2.3562901216
  0
ELLIPSE
  5
66C
100
AcDbEntity
  8
ASSI
100
AcDbEllipse
 62
7
  6
CONTINUOUS
 10
25.9677253352
 20
3.9493349894
 30
0.0
 11
-0.1500186713
 21
0.2598034368
 31
0.0
 40
0.5773316664
 41
-2.3562808875
 42
-0.7854845607
  0
ELLIPSE
  5
66D
100
AcDbEntity
  8
ASSI
100
AcDbEllipse
 62
7
  6
CONTINUOUS
 10
25.9677253352
 20
7.9500393457
 30
0.0
 11
-0.1500186713
 21
0.2598034368
 31
0.0
 40
0.5773316664
 41
-3.1459423927
 42
-2.3562808875
  0
ELLIPSE
  5
66E
100
AcDbEntity
  8
ASSI
100
AcDbEllipse
 62
7
  6
CONTINUOUS
 10
25.9677253352
 20
8.0316863734
 30
0.0
 11
-0.1500186713
 21
0.2598034368
 31
0.0
 40
0.5773316664
 41
-2.3562808875
 42
-0.7854845607
  0
ELLIPSE
  5
66F
100
AcDbEntity
  8
ASSI
100
AcDbEllipse
 62
7
  6
CONTINUOUS
 10
25.9677253352
 20
12.0323907297
 30
0.0
 11
-0.1500186713
 21
0.2598034368
 31
0.0
 40
0.5773316664
 41
-3.1459423927
 42
-2.3562808875
  0
ELLIPSE
  5
670
100
AcDbEntity
  8
ASSI
100
AcDbEllipse
 62
7
  6
CONTINUOUS
 10
25.9677253352
 20
12.1140377573
 30
0.0
 11
-0.1500186713
 21
0.2598034368
 31
0.0
 40
0.5773316664
 41
-2.3562808875
 42
-0.7854845607
  0
ELLIPSE
  5
671
100
AcDbEntity
  8
ASSI
100
AcDbEllipse
 62
7
  6
CONTINUOUS
 10
25.9677253352
 20
16.1147421136
 30
0.0
 11
-0.1500186713
 21
0.2598034368
 31
0.0
 40
0.5773316664
 41
-3.1459423927
 42
-2.3562808875
  0
ELLIPSE
  5
672
100
AcDbEntity
  8
ASSI
100
AcDbEllipse
 62
7
  6
CONTINUOUS
 10
25.9677253352
 20
16.1963891413
 30
0.0
 11
-0.1500186713
 21
0.2598034368
 31
0.0
 40
0.5773316664
 41
-2.3562808875
 42
-0.7854845607
  0
ELLIPSE
  5
673
100
AcDbEntity
  8
ASSI
100
AcDbEllipse
 62
7
  6
CONTINUOUS
 10
25.9677253352
 20
20.1970934976
 30
0.0
 11
-0.1500186713
 21
0.2598034368
 31
0.0
 40
0.5773316664
 41
-3.1459423927
 42
-2.3562808875
  0
ELLIPSE
  5
674
100
AcDbEntity
  8
ASSI
100
AcDbEllipse
 62
7
  6
CONTINUOUS
 10
25.4727317405
 20
20.5981763571
 30
0.0
 11
-0.500051088
 21
0.8660034525
 31
0.0
 40
0.5773498789
 41
-2.3562585873
 42
-1.5708919678
  0
ELLIPSE
  5
675
100
AcDbEntity
  8
ASSI
100
AcDbEllipse
 62
7
  6
CONTINUOUS
 10
25.0330107575
 20
21.35979544
 30
0.0
 11
-0.5000037704
 21
0.8660307695
 31
0.0
 40
0.5773498824
 41
-1.5707973348
 42
-0.7854307152
  0
ELLIPSE
  5
676
100
AcDbEntity
  8
ASSI
100
AcDbEllipse
 62
7
  6
CONTINUOUS
 10
21.4422580908
 20
24.4945028037
 30
0.0
 11
-0.1500072497
 21
0.2598034354
 31
0.0
 40
0.5773756362
 41
0.7853879108
 42
2.3561080852
  0
ELLIPSE
  5
677
100
AcDbEntity
  8
ASSI
100
AcDbEllipse
 62
7
  6
CONTINUOUS
 10
20.9319751163
 20
7.8361851985
 30
0.0
 11
1.0610913518
 21
1.8699624759
 31
0.0
 40
0.5722717666
 41
-2.8628032189
 42
-2.3604340017
  0
ELLIPSE
  5
678
100
AcDbEntity
  8
ASSI
100
AcDbEllipse
 62
7
  6
CONTINUOUS
 10
20.9319751163
 20
11.9185365825
 30
0.0
 11
1.0610913518
 21
1.8699624759
 31
0.0
 40
0.5722717666
 41
-2.8628032189
 42
-2.3604340017
  0
ELLIPSE
  5
679
100
AcDbEntity
  8
ASSI
100
AcDbEllipse
 62
7
  6
CONTINUOUS
 10
20.9319751163
 20
16.0008879664
 30
0.0
 11
1.0610913518
 21
1.8699624759
 31
0.0
 40
0.5722717666
 41
-2.8628032189
 42
-2.3604340017
  0
ELLIPSE
  5
67A
100
AcDbEntity
  8
ASSI
100
AcDbEllipse
 62
7
  6
CONTINUOUS
 10
20.9319751163
 20
3.7538338145
 30
0.0
 11
1.0610913518
 21
1.8699624759
 31
0.0
 40
0.5722717666
 41
-2.8628032189
 42
-2.3604340017
  0
ELLIPSE
  5
67B
100
AcDbEntity
  8
ASSI
100
AcDbEllipse
 62
7
  6
CONTINUOUS
 10
14.0241709616
 20
20.2113994275
 30
0.0
 11
-0.1500072497
 21
0.2598034354
 31
0.0
 40
0.5773756362
 41
0.7853879108
 42
2.3561080852
  0
ELLIPSE
  5
67C
100
AcDbEntity
  8
ASSI
100
AcDbEllipse
 62
7
  6
CONTINUOUS
 10
4.4245307643
 20
25.8357179766
 30
0.0
 11
-0.5000195414
 21
0.8660580892
 31
0.0
 40
0.5773134593
 41
5.4977861384
 42
5.707770874
  0
ELLIPSE
  5
67D
100
AcDbEntity
  8
ASSI
100
AcDbEllipse
 62
7
  6
CONTINUOUS
 10
17.652517413
 20
17.0549858837
 30
0.0
 11
-0.5000037704
 21
0.8660307695
 31
0.0
 40
0.5773498824
 41
4.7123879724
 42
5.4977545919
  0
ELLIPSE
  5
67E
100
AcDbEntity
  8
ASSI
100
AcDbEllipse
 62
7
  6
CONTINUOUS
 10
18.0546446113
 20
16.358481146
 30
0.0
 11
-0.500051088
 21
0.8660034525
 31
0.0
 40
0.5773498789
 41
3.9269267198
 42
4.7122933394
  0
ELLIPSE
  5
67F
100
AcDbEntity
  8
ASSI
100
AcDbEllipse
 62
7
  6
CONTINUOUS
 10
8.4771574397
 20
24.0673330822
 30
0.0
 11
-0.1500186702
 21
0.2598232227
 31
0.0
 40
0.5772877058
 41
-0.7854084013
 42
0.0088311374
  0
ELLIPSE
  5
680
100
AcDbEntity
  8
ASSI
100
AcDbEllipse
 62
7
  6
CONTINUOUS
 10
19.1184171222
 20
-1.0370910289
 30
0.0
 11
0.2533110813
 21
0.431095234
 31
0.0
 40
0.5823475934
 41
2.3606829537
 42
3.9314792805
  0
ELLIPSE
  5
681
100
AcDbEntity
  8
ASSI
100
AcDbEllipse
 62
7
  6
CONTINUOUS
 10
24.4028153276
 20
-7.0968956759
 30
0.0
 11
-0.5000668544
 21
0.8660307748
 31
0.0
 40
0.5773134558
 41
-2.4217560886
 42
-2.3562901216
  0
ELLIPSE
  5
682
100
AcDbEntity
  8
RACCORDO
100
AcDbEllipse
 62
7
  6
CONTINUOUS
 10
1.0877709033
 20
-20.60975513
 30
0.0
 11
-1.000389877
 21
1.7321775001
 31
0.0
 40
0.5772588101
 41
-3.1289935798
 42
-2.3564320312
  0
ELLIPSE
  5
683
100
AcDbEntity
  8
RACCORDO
100
AcDbEllipse
 62
7
  6
CONTINUOUS
 10
1.0877709033
 20
8.1640222526
 30
0.0
 11
-1.0002637881
 21
1.7319588718
 31
0.0
 40
0.5774045053
 41
-2.3563059395
 42
-1.5710339479
  0
ELLIPSE
  5
684
100
AcDbEntity
  8
RACCORDO
100
AcDbEllipse
 62
7
  6
CONTINUOUS
 10
-3.1916991429
 20
-3.2028600274
 30
0.0
 11
0.699877389
 21
0.0219387111
 31
0.0
 40
0.5971709375
 41
-0.6993954449
 42
-0.0190416153
  0
ELLIPSE
  5
685
100
AcDbEntity
  8
RACCORDO
100
AcDbEllipse
 62
7
  6
CONTINUOUS
 10
-3.1916991429
 20
-21.3285001722
 30
0.0
 11
0.699877389
 21
0.0219387111
 31
0.0
 40
0.5971709375
 41
-0.6993954449
 42
-0.0190416153
  0
ELLIPSE
  5
686
100
AcDbEntity
  8
RACCORDO
100
AcDbEllipse
 62
7
  6
CONTINUOUS
 10
-4.1996539739
 20
-26.7259618482
 30
0.0
 11
-0.1250488738
 21
0.2165276008
 31
0.0
 40
0.5772437351
 41
-3.1547861955
 42
-2.3564331449
  0
ELLIPSE
  5
687
100
AcDbEntity
  8
RACCORDO
100
AcDbEllipse
 62
7
  6
CONTINUOUS
 10
-4.1996539739
 20
3.2384817652
 30
0.0
 11
-0.125029849
 21
0.2164946157
 31
0.0
 40
0.5774195892
 41
-2.3562809449
 42
-1.0229746704
  0
ELLIPSE
  5
688
100
AcDbEntity
  8
RACCORDO
100
AcDbEllipse
 62
7
  6
CONTINUOUS
 10
-22.9777840105
 20
11.7912835833
 30
0.0
 11
-0.1233203059
 21
0.220165251
 31
0.0
 40
0.575454123
 41
-0.768870444
 42
0.0972229317
  0
ELLIPSE
  5
689
100
AcDbEntity
  8
RACCORDO
100
AcDbEllipse
 62
7
  6
CONTINUOUS
 10
-5.9982774139
 20
2.2177983603
 30
0.0
 11
-0.125029849
 21
0.2164946157
 31
0.0
 40
0.5774195892
 41
-2.3562809449
 42
-0.8528051078
  0
ELLIPSE
  5
68A
100
AcDbEntity
  8
RACCORDO
100
AcDbEllipse
 62
7
  6
CONTINUOUS
 10
-5.9982774139
 20
-27.4807500295
 30
0.0
 11
-0.1233203059
 21
0.220165251
 31
0.0
 40
0.575454123
 41
-3.2390095712
 42
-2.342697354
  0
ELLIPSE
  5
68B
100
AcDbEntity
  8
RACCORDO
100
AcDbEllipse
 62
7
  6
CONTINUOUS
 10
-5.9982774139
 20
1.9875292776
 30
0.0
 11
-0.1229125255
 21
0.2195188137
 31
0.0
 40
0.5789510426
 41
-2.3394837756
 42
-0.771718032
  0
ELLIPSE
  5
68C
100
AcDbEntity
  8
RACCORDO
100
AcDbEllipse
 62
7
  6
CONTINUOUS
 10
-5.9982774139
 20
-27.7110191122
 30
0.0
 11
-0.1250488738
 21
0.2165276008
 31
0.0
 40
0.5772437351
 41
2.3561081345
 42
3.9267521623
  0
ELLIPSE
  5
68D
100
AcDbEntity
  8
ASSI
100
AcDbEllipse
 62
7
  6
CONTINUOUS
 10
-4.1996539739
 20
3.2384817652
 30
0.0
 11
-0.125029849
 21
0.2164946157
 31
0.0
 40
0.5774195892
 41
-2.3562809449
 42
-1.0229746704
  0
ELLIPSE
  5
68E
100
AcDbEntity
  8
ASSI
100
AcDbEllipse
 62
7
  6
CONTINUOUS
 10
-4.1996539739
 20
-26.7259618482
 30
0.0
 11
-0.1250488738
 21
0.2165276008
 31
0.0
 40
0.5772437351
 41
-3.1547861955
 42
-2.3564331449
  0
ELLIPSE
  5
68F
100
AcDbEntity
  8
ASSI
100
AcDbEllipse
 62
7
  6
CONTINUOUS
 10
-3.1916991429
 20
-3.2028600274
 30
0.0
 11
0.699877389
 21
0.0219387111
 31
0.0
 40
0.5971709375
 41
-0.6993954449
 42
-0.0190416153
  0
ELLIPSE
  5
690
100
AcDbEntity
  8
ASSI
100
AcDbEllipse
 62
7
  6
CONTINUOUS
 10
-3.1916991429
 20
-21.3285001722
 30
0.0
 11
0.699877389
 21
0.0219387111
 31
0.0
 40
0.5971709375
 41
-0.6993954449
 42
-0.0190416153
  0
ELLIPSE
  5
691
100
AcDbEntity
  8
ASSI
100
AcDbEllipse
 62
7
  6
CONTINUOUS
 10
-5.9982774139
 20
1.9875292776
 30
0.0
 11
-0.1229125255
 21
0.2195188137
 31
0.0
 40
0.5789510426
 41
-2.3394837756
 42
-0.771718032
  0
ELLIPSE
  5
692
100
AcDbEntity
  8
ASSI
100
AcDbEllipse
 62
7
  6
CONTINUOUS
 10
-5.9982774139
 20
-27.4807500295
 30
0.0
 11
-0.1233203059
 21
0.220165251
 31
0.0
 40
0.575454123
 41
-3.2390095712
 42
-2.342697354
  0
ELLIPSE
  5
693
100
AcDbEntity
  8
ASSI
100
AcDbEllipse
 62
7
  6
CONTINUOUS
 10
-5.9982774139
 20
2.2177983603
 30
0.0
 11
-0.125029849
 21
0.2164946157
 31
0.0
 40
0.5774195892
 41
-2.3562809449
 42
-0.8528051078
  0
ELLIPSE
  5
694
100
AcDbEntity
  8
ASSI
100
AcDbEllipse
 62
7
  6
CONTINUOUS
 10
-22.9777840105
 20
11.7912835833
 30
0.0
 11
-0.1233203059
 21
0.220165251
 31
0.0
 40
0.575454123
 41
-0.768870444
 42
0.0972229317
  0
ELLIPSE
  5
695
100
AcDbEntity
  8
ASSI
100
AcDbEllipse
 62
7
  6
CONTINUOUS
 10
-5.9982774139
 20
-27.7110191122
 30
0.0
 11
-0.1250488738
 21
0.2165276008
 31
0.0
 40
0.5772437351
 41
2.3561081345
 42
3.9267521623
  0
ELLIPSE
  5
696
100
AcDbEntity
  8
CURVE
100
AcDbEllipse
 62
253
  6
CONTINUOUS
 10
279.3470310874
 20
165.8583011248
 30
0.0
 11
194.684496673
 21
378.1373741813
 31
0.0
 40
0.6068706215
 41
-3.9287495499
 42
-3.9286838162
  0
ELLIPSE
  5
697
100
AcDbEntity
  8
CURVE
100
AcDbEllipse
 62
253
  6
CONTINUOUS
 10
296.3753678212
 20
156.0263529099
 30
0.0
 11
601.0803691968
 21
132.0802026051
 31
0.0
 40
0.2022737761
 41
-2.1689077268
 42
-2.168437354
  0
ELLIPSE
  5
698
100
AcDbEntity
  8
CURVE
100
AcDbEllipse
 62
253
  6
CONTINUOUS
 10
265.7241524147
 20
173.7239805356
 30
0.0
 11
-542.7691691981
 21
632.7378340596
 31
0.0
 40
0.4103439492
 41
1.5221028803
 42
1.5225732237
  0
ELLIPSE
  5
699
100
AcDbEntity
  8
CURVE
100
AcDbEllipse
 62
253
  6
CONTINUOUS
 10
296.333519929
 20
156.0505153584
 30
0.0
 11
599.850213517
 21
132.9404757812
 31
0.0
 40
0.2016429416
 41
-2.1682021177
 42
-2.1677309633
  0
ELLIPSE
  5
69A
100
AcDbEntity
  8
CURVE
100
AcDbEllipse
 62
253
  6
CONTINUOUS
 10
265.7383836401
 20
173.7157636044
 30
0.0
 11
-542.2383246579
 21
632.4517538291
 31
0.0
 40
0.4106394125
 41
1.5242807718
 42
1.5247511446
  0
ELLIPSE
  5
69B
100
AcDbEntity
  8
CURVE
100
AcDbEllipse
 62
253
  6
CONTINUOUS
 10
280.4862655145
 20
165.2005214445
 30
0.0
 11
234.4249009539
 21
355.1518441599
 31
0.0
 40
0.5331560357
 41
-3.8634493837
 42
-3.8634018016
  0
ELLIPSE
  5
69C
100
AcDbEntity
  8
CURVE
100
AcDbEllipse
 62
253
  6
CONTINUOUS
 10
281.912759961
 20
164.3768814293
 30
0.0
 11
271.129804417
 21
332.9874201368
 31
0.0
 40
0.4387187856
 41
-3.8247459621
 42
-3.8246987132
  0
ELLIPSE
  5
69D
100
AcDbEntity
  8
CURVE
100
AcDbEllipse
 62
253
  6
CONTINUOUS
 10
283.4101250845
 20
163.5123215734
 30
0.0
 11
303.6312032384
 21
313.6888091243
 31
0.0
 40
0.3383723451
 41
-3.8106903524
 42
-3.8106441202
  0
ELLIPSE
  5
69E
100
AcDbEntity
  8
CURVE
100
AcDbEllipse
 62
253
  6
CONTINUOUS
 10
285.050296101
 20
162.5653073846
 30
0.0
 11
336.585234184
 21
294.8903605686
 31
0.0
 40
0.2324489678
 41
2.4668295256
 42
2.4668738286
  0
ELLIPSE
  5
69F
100
AcDbEntity
  8
CURVE
100
AcDbEllipse
 62
253
  6
CONTINUOUS
 10
286.9408183978
 20
161.4737435043
 30
0.0
 11
374.4948813564
 21
273.8360007125
 31
0.0
 40
0.1203095428
 41
2.4410862892
 42
2.4411275528
  0
ELLIPSE
  5
6A0
100
AcDbEntity
  8
CURVE
100
AcDbEllipse
 62
253
  6
CONTINUOUS
 10
289.2604443446
 20
160.1344205543
 30
0.0
 11
423.7863373187
 21
246.0662318635
 31
0.0
 40
0.0024410741
 41
2.389456669
 42
2.3894936813
  0
ELLIPSE
  5
6A1
100
AcDbEntity
  8
CURVE
100
AcDbEllipse
 62
253
  6
CONTINUOUS
 10
292.4224230195
 20
158.3087336963
 30
0.0
 11
498.2343788279
 21
201.0279853674
 31
0.0
 40
0.1173482574
 41
-2.2966156688
 42
-2.2965828158
  0
ELLIPSE
  5
6A2
100
AcDbEntity
  8
CURVE
100
AcDbEllipse
 62
253
  6
CONTINUOUS
 10
265.8463655924
 20
173.6534161785
 30
0.0
 11
-376.5181163097
 21
550.3413020564
 31
0.0
 40
0.5193018248
 41
1.5629017204
 42
1.5629330515
  0
ELLIPSE
  5
6A3
100
AcDbEntity
  8
CURVE
100
AcDbEllipse
 62
253
  6
CONTINUOUS
 10
268.8632525586
 20
171.9115034547
 30
0.0
 11
-261.0319232725
 21
507.8633134751
 31
0.0
 40
0.6072569338
 41
-4.6509117797
 42
-4.6508765567
  0
ELLIPSE
  5
6A4
100
AcDbEntity
  8
CURVE
100
AcDbEllipse
 62
253
  6
CONTINUOUS
 10
271.2293320168
 20
170.5453588295
 30
0.0
 11
-146.2334981156
 21
481.4344398268
 31
0.0
 40
0.6800873093
 41
-4.52360528
 42
-4.5235667312
  0
ELLIPSE
  5
6A5
100
AcDbEntity
  8
CURVE
100
AcDbEllipse
 62
253
  6
CONTINUOUS
 10
273.1984446764
 20
169.4084178586
 30
0.0
 11
-20.3250824821
 21
458.037076345
 31
0.0
 40
0.7166611362
 41
-4.3241446178
 42
-4.3241033171
  0
ELLIPSE
  5
6A6
100
AcDbEntity
  8
CURVE
100
AcDbEllipse
 62
253
  6
CONTINUOUS
 10
274.8848673807
 20
168.434698525
 30
0.0
 11
94.0242433083
 21
424.9684714799
 31
0.0
 40
0.697813517
 41
-4.1121701522
 42
-4.1121287313
  0
ELLIPSE
  5
6A7
100
AcDbEntity
  8
CURVE
100
AcDbEllipse
 62
253
  6
CONTINUOUS
 10
276.4318656589
 20
167.5414811076
 30
0.0
 11
174.647288452
 21
388.8955719596
 31
0.0
 40
0.6340851806
 41
-3.9598288169
 42
-3.9597838348
  0
ELLIPSE
  5
6A8
100
AcDbEntity
  8
CURVE
100
AcDbEllipse
 62
253
  6
CONTINUOUS
 10
277.942855934
 20
166.6690542599
 30
0.0
 11
228.7625396998
 21
358.5275538843
 31
0.0
 40
0.5454464384
 41
-3.8711815089
 42
-3.87113552
  0
ELLIPSE
  5
6A9
100
AcDbEntity
  8
CURVE
100
AcDbEllipse
 62
253
  6
CONTINUOUS
 10
279.440374058
 20
165.8044060634
 30
0.0
 11
268.3512596879
 21
334.6643939541
 31
0.0
 40
0.4467022303
 41
-3.8269773743
 42
-3.8269309633
  0
ELLIPSE
  5
6AA
100
AcDbEntity
  8
CURVE
100
AcDbEllipse
 62
253
  6
CONTINUOUS
 10
280.9800212311
 20
164.915433082
 30
0.0
 11
302.1962029038
 21
314.5252042014
 31
0.0
 40
0.3429857114
 41
-3.8110720597
 42
-3.811025805
  0
ELLIPSE
  5
6AB
100
AcDbEntity
  8
CURVE
100
AcDbEllipse
 62
253
  6
CONTINUOUS
 10
282.6196406551
 20
163.9687373758
 30
0.0
 11
335.4385701588
 21
295.5331755033
 31
0.0
 40
0.2360636363
 41
2.4670419654
 42
2.4670874926
  0
ELLIPSE
  5
6AC
100
AcDbEntity
  8
CURVE
100
AcDbEllipse
 62
253
  6
CONTINUOUS
 10
284.4267801119
 20
162.9253177023
 30
0.0
 11
371.9973309439
 21
275.2202942277
 31
0.0
 40
0.1271709861
 41
2.4428879534
 42
2.442932188
  0
ELLIPSE
  5
6AD
100
AcDbEntity
  8
CURVE
100
AcDbEllipse
 62
253
  6
CONTINUOUS
 10
286.488518092
 20
161.7348960322
 30
0.0
 11
416.0049477352
 21
250.5329995702
 31
0.0
 40
0.0188268693
 41
2.3980091933
 42
2.3980515746
  0
ELLIPSE
  5
6AE
100
AcDbEntity
  8
CURVE
100
AcDbEllipse
 62
253
  6
CONTINUOUS
 10
288.9268642807
 20
160.3270255025
 30
0.0
 11
472.8171188804
 21
216.9013918313
 31
0.0
 40
0.0833351647
 41
-2.3285421731
 42
-2.3285022032
  0
ELLIPSE
  5
6AF
100
AcDbEntity
  8
CURVE
100
AcDbEllipse
 62
253
  6
CONTINUOUS
 10
291.9260000574
 20
158.595362093
 30
0.0
 11
549.7925727516
 21
167.3040183644
 31
0.0
 40
0.168929566
 41
-2.2309197099
 42
-2.2308827083
  0
ELLIPSE
  5
6B0
100
AcDbEntity
  8
CURVE
100
AcDbEllipse
 62
253
  6
CONTINUOUS
 10
293.7793953602
 20
157.5252348736
 30
0.0
 11
600.4473316983
 21
132.5229796457
 31
0.0
 40
0.2019500773
 41
-2.1702142341
 42
-2.1661343022
  0
ELLIPSE
  5
6B1
100
AcDbEntity
  8
CURVE
100
AcDbEllipse
 62
253
  6
CONTINUOUS
 10
272.5304531996
 20
169.7941077654
 30
0.0
 11
-254.7188198872
 21
506.0290379822
 31
0.0
 40
0.611910355
 41
-4.650103257
 42
-4.6500692244
  0
ELLIPSE
  5
6B2
100
AcDbEntity
  8
CURVE
100
AcDbEllipse
 62
253
  6
CONTINUOUS
 10
274.5207159163
 20
168.6449550167
 30
0.0
 11
-140.3095483376
 21
480.3593477662
 31
0.0
 40
0.6829500924
 41
-4.5199442165
 42
-4.5199039836
  0
ELLIPSE
  5
6B3
100
AcDbEntity
  8
CURVE
100
AcDbEllipse
 62
253
  6
CONTINUOUS
 10
276.0626148248
 20
167.7546819114
 30
0.0
 11
-25.2131247196
 21
459.0928972797
 31
0.0
 40
0.7162457329
 41
-4.3371522607
 42
-4.3371057328
  0
ELLIPSE
  5
6B4
100
AcDbEntity
  8
CURVE
100
AcDbEllipse
 62
253
  6
CONTINUOUS
 10
277.3236284016
 20
167.0265884764
 30
0.0
 11
75.5255713491
 21
431.6170539741
 31
0.0
 40
0.7052175334
 41
-4.1518674951
 42
-4.1518145846
  0
ELLIPSE
  5
6B5
100
AcDbEntity
  8
CURVE
100
AcDbEllipse
 62
253
  6
CONTINUOUS
 10
278.3989990449
 20
166.4056829445
 30
0.0
 11
147.1024241355
 21
402.5499650506
 31
0.0
 40
0.6629168521
 41
-4.0150766714
 42
-4.0150173357
  0
ELLIPSE
  5
6B6
100
AcDbEntity
  8
RACCORDO
100
AcDbEllipse
 62
7
  6
CONTINUOUS
 10
-0.3521803573
 20
14.7788193642
 30
0.0
 11
0.9964681619
 21
-0.2402284003
 31
0.0
 40
0.349548336
 41
1.7902326669
 42
2.4313365913
  0
ELLIPSE
  5
6B7
100
AcDbEntity
  8
ASSI
100
AcDbEllipse
 62
7
  6
CONTINUOUS
 10
2.6665262784
 20
-23.8448249311
 30
0.0
 11
0.9999591619
 21
0.0153860996
 31
0.0
 40
0.5873737521
 41
-0.776982385
 42
-0.0090420293
  0
ELLIPSE
  5
6B8
100
AcDbEntity
  8
ASSI
100
AcDbEllipse
 62
7
  6
CONTINUOUS
 10
2.6665262784
 20
11.6821748458
 30
0.0
 11
0.9999957559
 21
0.0050170832
 31
0.0
 40
0.5807030077
 41
-0.7708583103
 42
-0.0029180676
  0
ELLIPSE
  5
6B9
100
AcDbEntity
  8
RACCORDO
100
AcDbEllipse
 62
7
  6
CONTINUOUS
 10
-18.1296037072
 20
19.364878765
 30
0.0
 11
-0.1250441211
 21
0.2165028652
 31
0.0
 40
0.5773316475
 41
-0.7855987939
 42
0.008713258
  0
ELLIPSE
  5
6BA
100
AcDbEntity
  8
RACCORDO
100
AcDbEllipse
 62
7
  6
CONTINUOUS
 10
-2.0075690962
 20
10.0562180372
 30
0.0
 11
-0.1250441211
 21
0.2165028652
 31
0.0
 40
0.5773316475
 41
-0.7855987939
 42
0.008713258
  0
ELLIPSE
  5
6BB
100
AcDbEntity
  8
RACCORDO
100
AcDbEllipse
 62
7
  6
CONTINUOUS
 10
-9.4980711648
 20
20.0154320243
 30
0.0
 11
0.3897111288
 21
0.6987281859
 31
0.0
 40
0.5671693725
 41
-0.0084272945
 42
0.7770191891
  0
ELLIPSE
  5
6BC
100
AcDbEntity
  8
RACCORDO
100
AcDbEllipse
 62
7
  6
CONTINUOUS
 10
0.6699738543
 20
14.1445302658
 30
0.0
 11
0.4106625896
 21
0.68662616
 31
0.0
 40
0.5873179545
 41
0.0090366258
 42
0.7944831094
  0
ELLIPSE
  5
6BD
100
AcDbEntity
  8
ASSI
100
AcDbEllipse
 62
7
  6
CONTINUOUS
 10
-10.4293842671
 20
20.4035962848
 30
0.0
 11
0.9999644838
 21
-0.0148582918
 31
0.0
 40
0.5672251703
 41
0.7938262603
 42
2.3471692945
  0
ELLIPSE
  5
6BE
100
AcDbEntity
  8
RACCORDO
100
AcDbEllipse
 62
7
  6
CONTINUOUS
 10
-23.1666440587
 20
12.3312876391
 30
0.0
 11
0.2499977014
 21
-0.001873154
 31
0.0
 40
0.5723275643
 41
-3.1373097039
 42
-2.3519062463
  0
ELLIPSE
  5
6BF
100
AcDbEntity
  8
RACCORDO
100
AcDbEllipse
 62
7
  6
CONTINUOUS
 10
-6.1629707562
 20
2.5135797803
 30
0.0
 11
0.2499977014
 21
-0.001873154
 31
0.0
 40
0.5723275643
 41
-2.3519062463
 42
-0.798563212
  0
ELLIPSE
  5
6C0
100
AcDbEntity
  8
RACCORDO
100
AcDbEllipse
 62
7
  6
CONTINUOUS
 10
-17.0689973915
 20
18.7524979709
 30
0.0
 11
-0.1250441211
 21
0.2165028652
 31
0.0
 40
0.5773316475
 41
-2.3563951207
 42
-0.7855987939
  0
ELLIPSE
  5
6C1
100
AcDbEntity
  8
RACCORDO
100
AcDbEllipse
 62
7
  6
CONTINUOUS
 10
-0.9469627805
 20
9.443837243
 30
0.0
 11
-0.1250441211
 21
0.2165028652
 31
0.0
 40
0.5773316475
 41
-2.3563951207
 42
-0.7855987939
  0
ELLIPSE
  5
6C2
100
AcDbEntity
  8
RACCORDO
100
AcDbEllipse
 62
7
  6
CONTINUOUS
 10
-0.9469627805
 20
-29.3385009047
 30
0.0
 11
-0.1250441211
 21
0.2165028652
 31
0.0
 40
0.5773316475
 41
-3.150306192
 42
-2.3563951207
  0
ELLIPSE
  5
6C3
100
AcDbEntity
  8
RACCORDO
100
AcDbEllipse
 62
7
  6
CONTINUOUS
 10
-7.4106776314
 20
18.8543072265
 30
0.0
 11
0.9964681619
 21
-0.2402284003
 31
0.0
 40
0.349548336
 41
-0.6923993939
 42
-0.0512954695
  0
ELLIPSE
  5
6C4
100
AcDbEntity
  8
RACCORDO
100
AcDbEllipse
 62
7
  6
CONTINUOUS
 10
-8.1499891305
 20
19.2370663531
 30
0.0
 11
0.3897111288
 21
0.6987281859
 31
0.0
 40
0.5671693725
 41
5.4894081695
 42
7.0602044963
  0
ELLIPSE
  5
6C5
100
AcDbEntity
  8
RACCORDO
100
AcDbEllipse
 62
7
  6
CONTINUOUS
 10
2.0180558885
 20
13.3661645947
 30
0.0
 11
0.4106625896
 21
0.68662616
 31
0.0
 40
0.5873179545
 41
5.5068720898
 42
7.0776684166
  0
ELLIPSE
  5
6C6
100
AcDbEntity
  8
ASSI
100
AcDbEllipse
 62
7
  6
CONTINUOUS
 10
2.6665262784
 20
-22.6848181108
 30
0.0
 11
0.9999959471
 21
-0.0049596173
 31
0.0
 40
0.5740527713
 41
-0.765097785
 42
0.7882452493
  0
ELLIPSE
  5
6C7
100
AcDbEntity
  8
ASSI
100
AcDbEllipse
 62
7
  6
CONTINUOUS
 10
2.6665262784
 20
12.8421816661
 30
0.0
 11
0.9999644838
 21
-0.0148582918
 31
0.0
 40
0.5672251703
 41
-0.759516774
 42
0.7938262603
  0
ELLIPSE
  5
6C8
100
AcDbEntity
  8
RACCORDO
100
AcDbEllipse
 62
7
  6
CONTINUOUS
 10
-8.0110362932
 20
18.8873764048
 30
0.0
 11
0.2922833466
 21
0.5240461394
 31
0.0
 40
0.5671693725
 41
-0.0084365782
 42
0.4279533387
  0
ELLIPSE
  5
6C9
100
AcDbEntity
  8
RACCORDO
100
AcDbEllipse
 62
7
  6
CONTINUOUS
 10
-16.8657594554
 20
14.8612748639
 30
0.0
 11
0.7905894243
 21
0.0121645844
 31
0.0
 40
0.5873737521
 41
3.1325658098
 42
5.4712963372
  0
ELLIPSE
  5
6CA
100
AcDbEntity
  8
RACCORDO
100
AcDbEllipse
 62
7
  6
CONTINUOUS
 10
-6.7495533344
 20
9.0203042355
 30
0.0
 11
0.7905894243
 21
0.0121645844
 31
0.0
 40
0.5873737521
 41
3.1325658098
 42
5.4712963372
  0
ELLIPSE
  5
6CB
100
AcDbEntity
  8
RACCORDO
100
AcDbEllipse
 62
7
  6
CONTINUOUS
 10
-6.1629707562
 20
-28.224891382
 30
0.0
 11
0.2499975352
 21
0.0019061361
 31
0.0
 40
0.5824033911
 41
-2.3606350652
 42
-0.807292031
  0
ELLIPSE
  5
6CC
100
AcDbEntity
  8
RACCORDO
100
AcDbEllipse
 62
7
  6
CONTINUOUS
 10
-19.0387435519
 20
17.0910381927
 30
0.0
 11
0.9642808027
 21
0.0148371264
 31
0.0
 40
0.5873737521
 41
3.132584737
 42
5.4712963372
  0
ELLIPSE
  5
6CD
100
AcDbEntity
  8
RACCORDO
100
AcDbEllipse
 62
7
  6
CONTINUOUS
 10
-2.9167089408
 20
7.7823774648
 30
0.0
 11
0.9642808027
 21
0.0148371264
 31
0.0
 40
0.5873737521
 41
3.132551716
 42
4.7348036819
  0
ENDSEC
  0
SECTION
  2
OBJECTS
  0
DICTIONARY
  5
C
100
AcDbDictionary
280
0
281
1
  3
ACAD_GROUP
350
D
  3
ACAD_MLINESTYLE
350
17
  3
ACAD_LAYOUT
350
1A
  3
ACAD_PLOTSETTINGS
350
19
  3
ACAD_PLOTSTYLENAME
350
E
  0
DICTIONARY
  5
D
102
{ACAD_REACTORS
330
C
102
}
100
AcDbDictionary
280
0
281
1
  0
ACDBDICTIONARYWDFLT
  5
E
102
{ACAD_REACTORS
330
C
102
}
100
AcDbDictionary
281
1
  3
Normal
350
F
100
AcDbDictionaryWithDefault
340
F
  0
DICTIONARY
  5
17
102
{ACAD_REACTORS
330
C
102
}
100
AcDbDictionary
280
0
281
1
  3
Standard
350
18
  0
DICTIONARY
  5
19
102
{ACAD_REACTORS
330
C
102
}
100
AcDbDictionary
281
1
  0
DICTIONARY
  5
1A
102
{ACAD_REACTORS
330
C
102
}
100
AcDbDictionary
281
1
  3
Model
350
6CE
  3
Layout1
350
6CF
  0
ACDBPLACEHOLDER
  5
F
102
{ACAD_REACTORS
330
E
102
}
  0
MLINESTYLE
  5
18
102
{ACAD_REACTORS
330
17
102
}
100
AcDbMlineStyle
  2
STANDARD
 70
0
  3

 62
256
 51
90.0
 52
90.0
 71
2
 49
0.5
 62
256
  6
BYLAYER
 49
-0.5
 62
256
  6
BYLAYER
  0
LAYOUT
  5
6CE
102
{ACAD_REACTORS
330
1A
102
}
100
AcDbPlotSettings
  1

  2
none_device
  4
ISO_A4_(297.00_x_210.00_MM)
  6

 40
0.0
 41
0.0
 42
0.0
 43
0.0
 44
297.0
 45
210.0
 46
0.0
 47
0.0
 48
0.0
 49
0.0
140
0.0
141
0.0
142
1.0
143
1.0
 70
1024
 72
1
 73
0
 74
0
  7

 75
0
147
1.0
148
0.0
149
0.0
100
AcDbLayout
  1
Model
 70
0
 71
0
 10
0.0
 20
0.0
 11
297.0
 21
210.0
 12
0.0
 22
0.0
 32
0.0
 14
0.0
 24
0.0
 34
0.0
 15
0.0
 25
0.0
 35
0.0
146
0.0
 13
0.0
 23
0.0
 33
0.0
 16
1.0
 26
0.0
 36
0.0
 17
0.0
 27
1.0
 37
0.0
 76
0
330
219
345
0
346
0
  0
LAYOUT
  5
6CF
102
{ACAD_REACTORS
330
1A
102
}
100
AcDbPlotSettings
  1

  2
none_device
  4
ISO_A4_(297.00_x_210.00_MM)
  6

 40
0.0
 41
0.0
 42
0.0
 43
0.0
 44
297.0
 45
210.0
 46
0.0
 47
0.0
 48
0.0
 49
0.0
140
0.0
141
0.0
142
1.0
143
1.0
 70
0
 72
1
 73
0
 74
0
  7

 75
0
147
1.0
148
0.0
149
0.0
100
AcDbLayout
  1
Layout1
 70
0
 71
1
 10
0.0
 20
0.0
 11
297.0
 21
210.0
 12
0.0
 22
0.0
 32
0.0
 14
0.0
 24
0.0
 34
0.0
 15
0.0
 25
0.0
 35
0.0
146
0.0
 13
0.0
 23
0.0
 33
0.0
 16
1.0
 26
0.0
 36
0.0
 17
0.0
 27
1.0
 37
0.0
 76
0
330
21A
345
0
346
0
  0
ENDSEC
  0
EOF
