  0
SECTION
  2
HEADER
  9
$ACADVER
  1
AC1024
  9
$DWGCODEPAGE
  3
ANSI_1252
  9
$EXTMAX
 10
297.0
 20
210.0
 30
0.0
  9
$EXTMIN
 10
0.0
 20
0.0
 30
0.0
  9
$LIMMIN
 10
0.0
 20
0.0
  9
$LIMMAX
 10
297.0
 20
210.0
  9
$VIEWCTR
 10
148.5
 20
105.0
  9
$VIEWSIZE
 40
210.0
  9
$CLAYER
  8
0
  9
$LTSCALE
 40
16.335
  9
$CELTYPE
  6
BYLAYER
  9
$DIMSCALE
 40
1.0
  9
$DIMASZ
 40
3.0
  9
$DIMEXO
 40
0.5
  9
$DIMDLI
 40
11.286
  9
$DIMEXE
 40
1.5
  9
$DIMCEN
 40
2.673
  9
$DIMLFAC
 40
1.0
  9
$DIMBLK
  1
_FILLED
  9
$DIMALT
 70
0
  9
$DIMALTF
 40
0.0393700787
  9
$DIMTXT
 40
3.0
  9
$DIMTOL
 70
1
  9
$DIMLIM
 70
0
  9
$DIMTFAC
 40
1.0
  9
$DIMTP
 40
0.01
  9
$DIMTM
 40
0.01
  9
$DIMGAP
 40
0.625
  9
$DIMDSEP
 70
44
  9
$AUNITS
 70
0
  9
$PDMODE
 70
3
  9
$PDSIZE
 40
3.0
  9
$HANDSEED
  5
6E3
  9
$TILEMODE
 70
1
  9
$MEASUREMENT
 70
1
  9
$INSUNITS
 70
4
  0
ENDSEC
  0
SECTION
  2
CLASSES
  0
CLASS
  1
ACDBDICTIONARYWDFLT
  2
AcDbDictionaryWithDefault
  3
AutoCAD 2000
 90
0
 91
1
280
0
281
0
  0
CLASS
  1
ACDBPLACEHOLDER
  2
AcDbPlaceHolder
  3
AutoCAD 2000
 90
0
 91
1
280
0
281
0
  0
CLASS
  1
LAYOUT
  2
AcDbLayout
  3
AutoCAD 2000
 90
0
 91
0
280
0
281
0
  0
ENDSEC
  0
SECTION
  2
TABLES
  0
TABLE
  2
VPORT
  5
8
100
AcDbSymbolTable
 70
2
  0
VPORT
  5
1F4
100
AcDbSymbolTableRecord
100
AcDbViewportTableRecord
  2
*ACTIVE
 70
0
 10
0.0
 20
0.0
 11
1.0
 21
1.0
 12
148.5
 22
105.0
 13
0.0
 23
0.0
 14
1.0
 24
1.0
 15
0.0
 25
0.0
 16
0.0
 26
0.0
 36
1.0
 17
0.0
 27
0.0
 37
0.0
 40
210.0
 41
1.4142857143
 42
50.0
 43
0.0
 44
0.0
 50
0.0
 51
0.0
 71
0
 72
100
 73
1
 74
1
 75
0
 76
0
 77
0
 78
0
  0
ENDTAB
  0
TABLE
  2
LTYPE
  5
5
100
AcDbSymbolTable
 70
6
  0
LTYPE
  5
14
100
AcDbSymbolTableRecord
100
AcDbLinetypeTableRecord
  2
BYBLOCK
 70
0
  3

 72
65
 73
0
 40
0.0
  0
LTYPE
  5
15
100
AcDbSymbolTableRecord
100
AcDbLinetypeTableRecord
  2
BYLAYER
 70
0
  3

 72
65
 73
0
 40
0.0
  0
LTYPE
  5
16
100
AcDbSymbolTableRecord
100
AcDbLinetypeTableRecord
  2
CONTINUOUS
 70
64
  3
Solid line
 72
65
 73
0
 40
0.0
  0
LTYPE
  5
1F5
100
AcDbSymbolTableRecord
100
AcDbLinetypeTableRecord
  2
CENTER
 70
64
  3
____ _ ____ _ ____ _ ____ _ ____ _ ____ _ ____
 72
65
 73
4
 40
0.6
 49
0.375
 74
0
 49
-0.075
 74
0
 49
0.075
 74
0
 49
-0.075
 74
0
  0
LTYPE
  5
1F6
100
AcDbSymbolTableRecord
100
AcDbLinetypeTableRecord
  2
HIDDEN
 70
64
  3
- - - - - - - - - - - - - - - - - - - -
 72
65
 73
2
 40
0.2
 49
0.1
 74
0
 49
-0.1
 74
0
  0
LTYPE
  5
1F7
100
AcDbSymbolTableRecord
100
AcDbLinetypeTableRecord
  2
PHANTOM
 70
64
  3
_____ _ _ _____ _ _ _____ _ _ _____
 72
65
 73
6
 40
0.8
 49
0.45
 74
0
 49
-0.05
 74
0
 49
0.1
 74
0
 49
-0.05
 74
0
 49
0.1
 74
0
 49
-0.05
 74
0
  0
LTYPE
  5
1F8
100
AcDbSymbolTableRecord
100
AcDbLinetypeTableRecord
  2
DOT
 70
64
  3
. . . . . . . . . . . . . . . . . . . .
 72
65
 73
2
 40
0.2
 49
0.1
 74
0
 49
-0.1
 74
0
  0
LTYPE
  5
1F9
100
AcDbSymbolTableRecord
100
AcDbLinetypeTableRecord
  2
DASHED
 70
64
  3
- - - - - - - - - - - - - - - - - - - -
 72
65
 73
2
 40
0.2
 49
0.1
 74
0
 49
-0.1
 74
0
  0
ENDTAB
  0
TABLE
  2
LAYER
  5
2
100
AcDbSymbolTable
 70
36
  0
LAYER
  5
10
100
AcDbSymbolTableRecord
100
AcDbLayerTableRecord
  2
0
 70
0
 62
7
  6
CONTINUOUS
370
-3
390
F
  0
LAYER
  5
1FA
100
AcDbSymbolTableRecord
100
AcDbLayerTableRecord
  2
DEFAULT_1
 70
0
 62
7
  6
CENTER
370
-3
390
F
  0
LAYER
  5
1FB
100
AcDbSymbolTableRecord
100
AcDbLayerTableRecord
  2
DEFAULT_2
 70
0
 62
7
  6
HIDDEN
370
-3
390
F
  0
LAYER
  5
1FC
100
AcDbSymbolTableRecord
100
AcDbLayerTableRecord
  2
DEFAULT_3
 70
0
 62
7
  6
PHANTOM
370
-3
390
F
  0
LAYER
  5
1FD
100
AcDbSymbolTableRecord
100
AcDbLayerTableRecord
  2
ASSI
 70
0
 62
7
  6
CONTINUOUS
370
-3
390
F
  0
LAYER
  5
1FE
100
AcDbSymbolTableRecord
100
AcDbLayerTableRecord
  2
COORDINATE
 70
0
 62
7
  6
CONTINUOUS
370
-3
390
F
  0
LAYER
  5
1FF
100
AcDbSymbolTableRecord
100
AcDbLayerTableRecord
  2
COORD_ORIGINE
 70
0
 62
7
  6
CONTINUOUS
370
-3
390
F
  0
LAYER
  5
200
100
AcDbSymbolTableRecord
100
AcDbLayerTableRecord
  2
COPY-PUBBLISH
 70
0
 62
7
  6
CONTINUOUS
370
-3
390
F
  0
LAYER
  5
201
100
AcDbSymbolTableRecord
100
AcDbLayerTableRecord
  2
CURVE
 70
0
 62
7
  6
CONTINUOUS
370
-3
390
F
  0
LAYER
  5
202
100
AcDbSymbolTableRecord
100
AcDbLayerTableRecord
  2
DRAFT
 70
0
 62
7
  6
CONTINUOUS
370
-3
390
F
  0
LAYER
  5
203
100
AcDbSymbolTableRecord
100
AcDbLayerTableRecord
  2
IGES-SCRITTE
 70
0
 62
7
  6
CONTINUOUS
370
-3
390
F
  0
LAYER
  5
204
100
AcDbSymbolTableRecord
100
AcDbLayerTableRecord
  2
NOTE_3D
 70
0
 62
7
  6
CONTINUOUS
370
-3
390
F
  0
LAYER
  5
205
100
AcDbSymbolTableRecord
100
AcDbLayerTableRecord
  2
PIANI
 70
0
 62
7
  6
CONTINUOUS
370
-3
390
F
  0
LAYER
  5
206
100
AcDbSymbolTableRecord
100
AcDbLayerTableRecord
  2
PIANI-RIFERIMENTO
 70
0
 62
7
  6
CONTINUOUS
370
-3
390
F
  0
LAYER
  5
207
100
AcDbSymbolTableRecord
100
AcDbLayerTableRecord
  2
PIANI_ORIGINE
 70
0
 62
7
  6
CONTINUOUS
370
-3
390
F
  0
LAYER
  5
208
100
AcDbSymbolTableRecord
100
AcDbLayerTableRecord
  2
PUNTI
 70
0
 62
7
  6
CONTINUOUS
370
-3
390
F
  0
LAYER
  5
209
100
AcDbSymbolTableRecord
100
AcDbLayerTableRecord
  2
RACCORDI
 70
0
 62
7
  6
CONTINUOUS
370
-3
390
F
  0
LAYER
  5
20A
100
AcDbSymbolTableRecord
100
AcDbLayerTableRecord
  2
RACCORDO
 70
0
 62
7
  6
CONTINUOUS
370
-3
390
F
  0
LAYER
  5
20B
100
AcDbSymbolTableRecord
100
AcDbLayerTableRecord
  2
SFORMI
 70
0
 62
7
  6
CONTINUOUS
370
-3
390
F
  0
LAYER
  5
20C
100
AcDbSymbolTableRecord
100
AcDbLayerTableRecord
  2
SMUSSI
 70
0
 62
7
  6
CONTINUOUS
370
-3
390
F
  0
LAYER
  5
20D
100
AcDbSymbolTableRecord
100
AcDbLayerTableRecord
  2
SMUSSO
 70
0
 62
7
  6
CONTINUOUS
370
-3
390
F
  0
LAYER
  5
20E
100
AcDbSymbolTableRecord
100
AcDbLayerTableRecord
  2
SNAPLINE
 70
0
 62
7
  6
CONTINUOUS
370
-3
390
F
  0
LAYER
  5
20F
100
AcDbSymbolTableRecord
100
AcDbLayerTableRecord
  2
SUPERFICI
 70
0
 62
7
  6
CONTINUOUS
370
-3
390
F
  0
LAYER
  5
210
100
AcDbSymbolTableRecord
100
AcDbLayerTableRecord
  2
TRASH
 70
0
 62
7
  6
CONTINUOUS
370
-3
390
F
  0
LAYER
  5
211
100
AcDbSymbolTableRecord
100
AcDbLayerTableRecord
  2
XSEC_DATUMS
 70
0
 62
7
  6
CONTINUOUS
370
-3
390
F
  0
ENDTAB
  0
TABLE
  2
STYLE
  5
3
100
AcDbSymbolTable
 70
1
  0
STYLE
  5
11
100
AcDbSymbolTableRecord
100
AcDbTextStyleTableRecord
  2
STANDARD
 70
0
 40
0.0
 41
0.8
 50
0.0
 71
0
 42
0.2
  3
txt
  4

  0
STYLE
  5
212
100
AcDbSymbolTableRecord
100
AcDbTextStyleTableRecord
  2
TEXTSTYLE_1
 70
0
 40
0.0
 41
0.8
 50
0.0
 71
0
 42
0.2
  3
gdt
  4

  0
ENDTAB
  0
TABLE
  2
VIEW
  5
6
100
AcDbSymbolTable
 70
0
  0
ENDTAB
  0
TABLE
  2
UCS
  5
7
100
AcDbSymbolTable
 70
0
  0
ENDTAB
  0
TABLE
  2
APPID
  5
9
100
AcDbSymbolTable
 70
1
  0
APPID
  5
213
100
AcDbSymbolTableRecord
100
AcDbRegAppTableRecord
  2
ACAD
 70
0
  0
ENDTAB
  0
TABLE
  2
BLOCK_RECORD
  5
1
100
AcDbSymbolTable
 70
0
  0
BLOCK_RECORD
  5
214
100
AcDbSymbolTableRecord
100
AcDbBlockTableRecord
  2
*Model_Space
  0
BLOCK_RECORD
  5
215
100
AcDbSymbolTableRecord
100
AcDbBlockTableRecord
  2
*Paper_Space
  0
BLOCK_RECORD
  5
216
100
AcDbSymbolTableRecord
100
AcDbBlockTableRecord
  2
_FILLED
  0
ENDTAB
  0
TABLE
  2
DIMSTYLE
  5
A
100
AcDbSymbolTable
 70
1
100
AcDbDimStyleTable
 71
0
  0
DIMSTYLE
105
217
100
AcDbSymbolTableRecord
100
AcDbDimStyleTableRecord
  2
STANDARD
 70
0
  3

  4

 40
1.0
 41
3.0
 42
0.5
 43
0.38
 44
1.5
 45
0.0
 46
0.0
 47
0.01
 48
0.01
140
3.0
141
0.09
142
0.0
143
25.4
144
1.0
145
0.0
146
1.0
147
0.625
 71
1
 72
0
 73
0
 74
0
 75
0
 76
0
 77
1
 78
8
 79
2
170
0
171
1
172
0
173
0
174
0
175
0
176
0
177
0
178
0
270
2
179
2
271
2
272
2
273
2
274
2
275
0
280
0
281
0
282
0
283
1
284
8
285
0
286
0
287
3
288
0
340
11
278
44
341
216
342
216
343
216
344
216
  0
ENDTAB
  0
ENDSEC
  0
SECTION
  2
BLOCKS
  0
BLOCK
  5
20
100
AcDbEntity
  8
0
100
AcDbBlockBegin
  2
*Model_Space
 70
0
 10
0.0
 20
0.0
 30
0.0
  3
*Model_Space
  1

  0
ENDBLK
  5
21
100
AcDbEntity
  8
0
100
AcDbBlockEnd
  0
BLOCK
  5
1C
100
AcDbEntity
  8
0
100
AcDbBlockBegin
  2
*Paper_Space
 70
0
 10
0.0
 20
0.0
 30
0.0
  3
*Paper_Space
  1

  0
ENDBLK
  5
1D
100
AcDbEntity
  8
0
100
AcDbBlockEnd
  0
BLOCK
  5
218
100
AcDbEntity
  8
0
100
AcDbBlockBegin
  2
_FILLED
 70
64
 10
0.0
 20
0.0
  3
_FILLED
  1

  0
SOLID
  5
219
100
AcDbEntity
  8
0
  6
BYBLOCK
 62
0
100
AcDbTrace
 10
0.0
 20
0.0
 11
-1.0
 21
0.3166666667
 12
-1.0
 22
-0.3166666667
 13
-1.0
 23
-0.3166666667
  0
ENDBLK
  5
21A
100
AcDbEntity
  8
0
  6
BYBLOCK
 62
0
100
AcDbBlockEnd
  0
ENDSEC
  0
SECTION
  2
ENTITIES
  0
LWPOLYLINE
  5
21B
100
AcDbEntity
  8
RACCORDO
100
AcDbPolyline
 62
250
  6
CONTINUOUS
 90
6
 70
0
 10
-10.110644747
 20
-41.8328873576
 10
-10.1222772494
 20
-41.8295882935
 10
-10.1340306191
 20
-41.825164819
 10
-10.1458491561
 20
-41.8195935429
 10
-10.1577885603
 20
-41.8128978565
 10
-10.1698488318
 20
-41.8050777597
  0
LINE
  5
21C
100
AcDbEntity
  8
RACCORDO
100
AcDbLine
 62
7
  6
CONTINUOUS
 10
-9.5383825789
 20
-41.9946244318
 11
-9.5384238464
 21
-41.9946330766
  0
LWPOLYLINE
  5
21D
100
AcDbEntity
  8
RACCORDO
100
AcDbPolyline
 62
250
  6
CONTINUOUS
 90
13
 70
0
 10
-9.5384238464
 20
-41.9946330766
 10
-9.5432629327
 20
-41.99519822
 10
-9.5537578425
 20
-41.9945354853
 10
-9.5671283621
 20
-41.991807413
 10
-9.5834854347
 20
-41.9872052399
 10
-9.6033912855
 20
-41.9810016482
 10
-9.6263133832
 20
-41.9730465918
 10
-9.6506840184
 20
-41.9631401009
 10
-9.6759395785
 20
-41.9513034721
 10
-9.7025158999
 20
-41.937756321
 10
-9.7303022986
 20
-41.9227515635
 10
-9.7592634987
 20
-41.9063475977
 10
-9.7891584526
 20
-41.8887446376
  0
LWPOLYLINE
  5
21E
100
AcDbEntity
  8
RACCORDO
100
AcDbPolyline
 62
250
  6
CONTINUOUS
 90
7
 70
0
 10
-9.7891584526
 20
-41.8887446376
 10
-9.8503284203
 20
-41.8518595832
 10
-9.8811782946
 20
-41.8328052972
 10
-9.9112775454
 20
-41.8135681756
 10
-9.9402513802
 20
-41.7942762184
 10
-9.9680944323
 20
-41.7748664141
 10
-9.9946017318
 20
-41.7552781979
  0
LWPOLYLINE
  5
21F
100
AcDbEntity
  8
RACCORDO
100
AcDbPolyline
 62
7
  6
CONTINUOUS
 90
21
 70
0
 10
-10.1375565557
 20
-41.8840972027
 10
-10.1073826304
 20
-41.9040193845
 10
-10.0776867999
 20
-41.9211161245
 10
-10.0480472237
 20
-41.9360433084
 10
-10.018110358
 20
-41.9492280474
 10
-9.9881172771
 20
-41.9607512617
 10
-9.9583693069
 20
-41.9706875956
 10
-9.9283548277
 20
-41.979348548
 10
-9.8980610918
 20
-41.9868199742
 10
-9.867807203
 20
-41.9931051926
 10
-9.837497913
 20
-41.9983000091
 10
-9.8072840208
 20
-42.0024394145
 10
-9.7772837387
 20
-42.005564885
 10
-9.7473482637
 20
-42.0077318187
 10
-9.7178074031
 20
-42.0089488002
 10
-9.6886086006
 20
-42.0092471041
 10
-9.6590953487
 20
-42.0086115054
 10
-9.6294375298
 20
-42.0069772815
 10
-9.5999638856
 20
-42.004287496
 10
-9.5704357767
 20
-42.0004053455
 10
-9.5389016475
 20
-41.9947264005
  0
LWPOLYLINE
  5
220
100
AcDbEntity
  8
RACCORDO
100
AcDbPolyline
 62
7
  6
CONTINUOUS
 90
16
 70
0
 10
-7.2941143435
 20
-46.1233723714
 10
-7.2792158187
 20
-46.1332825141
 10
-7.2367394362
 20
-46.1566997764
 10
-7.191132559
 20
-46.1748803611
 10
-7.1423254195
 20
-46.1877075613
 10
-7.0903877853
 20
-46.1952980839
 10
-7.0361144627
 20
-46.1976003262
 10
-6.9796448109
 20
-46.1945843112
 10
-6.9208394706
 20
-46.186280016
 10
-6.8600751705
 20
-46.1727257693
 10
-6.7971045493
 20
-46.1538032459
 10
-6.7321749683
 20
-46.129630771
 10
-6.6664052405
 20
-46.1006016498
 10
-6.6001683035
 20
-46.0668469839
 10
-6.5330912197
 20
-46.0282356717
 10
-6.465173989
 20
-45.9847677131
  0
LWPOLYLINE
  5
221
100
AcDbEntity
  8
RACCORDO
100
AcDbPolyline
 62
7
  6
CONTINUOUS
 90
16
 70
0
 10
-12.5041887658
 20
-40.2812126152
 10
-12.4815194625
 20
-40.2965219673
 10
-12.4392714108
 20
-40.3214622391
 10
-12.3946815845
 20
-40.3432886692
 10
-12.3478367311
 20
-40.3618179843
 10
-12.2988981402
 20
-40.3768318828
 10
-12.248185109
 20
-40.3880906975
 10
-12.1960023057
 20
-40.3954149035
 10
-12.1425869314
 20
-40.398683575
 10
-12.088223654
 20
-40.3978014278
 10
-12.0332010434
 20
-40.3927082705
 10
-11.9777058134
 20
-40.3833624335
 10
-11.9219049601
 20
-40.3697446965
 10
-11.8658950594
 20
-40.3518227108
 10
-11.8097121731
 20
-40.3295223785
 10
-11.7572938556
 20
-40.3047572004
  0
LINE
  5
222
100
AcDbEntity
  8
RACCORDO
100
AcDbLine
 62
7
  6
CONTINUOUS
 10
-32.3964736187
 20
-28.3733239157
 11
-7.2941828866
 21
-46.1233239157
  0
LINE
  5
223
100
AcDbEntity
  8
RACCORDO
100
AcDbLine
 62
250
  6
CONTINUOUS
 10
-32.5911083867
 20
-27.8985790443
 11
-7.4888176546
 21
-45.6485790443
  0
LINE
  5
224
100
AcDbEntity
  8
RACCORDO
100
AcDbLine
 62
7
  6
CONTINUOUS
 10
-36.7491131637
 20
-23.1374626683
 11
-33.5454907413
 21
-25.4027658076
  0
LINE
  5
225
100
AcDbEntity
  8
RACCORDO
100
AcDbLine
 62
7
  6
CONTINUOUS
 10
-15.7077012587
 20
-38.0159877121
 11
-12.5040788106
 21
-40.2812908695
  0
LINE
  5
226
100
AcDbEntity
  8
0
100
AcDbLine
 62
7
  6
CONTINUOUS
 10
-33.3731396637
 20
-25.4540596845
 11
-31.0041405583
 21
-27.1291950165
  0
LINE
  5
227
100
AcDbEntity
  8
0
100
AcDbLine
 62
7
  6
CONTINUOUS
 10
-12.2555395322
 20
-40.3864579398
 11
-10.1374097038
 21
-41.8842019049
  0
LINE
  5
228
100
AcDbEntity
  8
RACCORDO
100
AcDbLine
 62
250
  6
CONTINUOUS
 10
-33.3012550863
 20
-25.4487035387
 11
-31.0371459134
 21
-27.0496704883
  0
LINE
  5
229
100
AcDbEntity
  8
RACCORDO
100
AcDbLine
 62
250
  6
CONTINUOUS
 10
-12.1603256846
 20
-40.3975980793
 11
-10.1698488318
 21
-41.8050777597
  0
LINE
  5
22A
100
AcDbEntity
  8
DRAFT
100
AcDbLine
 62
7
  6
CONTINUOUS
 10
-22.1612833642
 20
-33.2603919456
 11
-17.9186426771
 21
-36.2603919456
  0
LINE
  5
22B
100
AcDbEntity
  8
RACCORDO
100
AcDbLine
 62
250
  6
CONTINUOUS
 10
-36.8771914748
 20
-22.849267805
 11
-33.6769521822
 21
-25.1121787101
  0
LINE
  5
22C
100
AcDbEntity
  8
RACCORDO
100
AcDbLine
 62
250
  6
CONTINUOUS
 10
-15.8346520966
 20
-37.7285900927
 11
-12.6344128041
 21
-39.9915009978
  0
LINE
  5
22D
100
AcDbEntity
  8
RACCORDO
100
AcDbLine
 62
7
  6
CONTINUOUS
 10
-10.1374097038
 20
-41.8842019049
 11
-10.1375568142
 21
-41.8840975634
  0
LWPOLYLINE
  5
22E
100
AcDbEntity
  8
RACCORDO
100
AcDbPolyline
 62
7
  6
CONTINUOUS
 90
11
 70
0
 10
-32.3964050756
 20
-28.3733723714
 10
-32.4202669353
 20
-28.3550302977
 10
-32.4551877446
 20
-28.3219995046
 10
-32.4863925558
 20
-28.2841337574
 10
-32.5136665969
 20
-28.2416656478
 10
-32.5370577862
 20
-28.1943798734
 10
-32.5565182054
 20
-28.1424917366
 10
-32.5716893278
 20
-28.0868797354
 10
-32.5824516443
 20
-28.0278367027
 10
-32.5889246639
 20
-27.9650698057
 10
-32.5911083867
 20
-27.8985790443
  0
LWPOLYLINE
  5
22F
100
AcDbEntity
  8
RACCORDO
100
AcDbPolyline
 62
250
  6
CONTINUOUS
 90
13
 70
0
 10
-10.1375568142
 20
-41.8840975634
 10
-10.1419426524
 20
-41.8806738554
 10
-10.1466768743
 20
-41.8761889087
 10
-10.1509993782
 20
-41.871178311
 10
-10.1548985782
 20
-41.8656554925
 10
-10.1583640231
 20
-41.8596352566
 10
-10.161386424
 20
-41.8531337396
 10
-10.16395768
 20
-41.846168368
 10
-10.1660708989
 20
-41.8387578117
 10
-10.1677204167
 20
-41.8309219337
 10
-10.1689018119
 20
-41.8226817371
 10
-10.1696119181
 20
-41.8140593087
 10
-10.1698488318
 20
-41.8050777597
  0
LWPOLYLINE
  5
230
100
AcDbEntity
  8
RACCORDO
100
AcDbPolyline
 62
250
  6
CONTINUOUS
 90
10
 70
0
 10
-36.7491131637
 20
-23.1374626683
 10
-36.7720246077
 20
-23.1191221089
 10
-36.7946867935
 20
-23.0958719772
 10
-36.8147684528
 20
-23.0693735489
 10
-36.8321839664
 20
-23.0397424437
 10
-36.8468630795
 20
-23.0071005874
 10
-36.8587476741
 20
-22.9715792029
 10
-36.8677881476
 20
-22.9333242348
 10
-36.8739448732
 20
-22.8924970452
 10
-36.8771914748
 20
-22.849267805
  0
LWPOLYLINE
  5
231
100
AcDbEntity
  8
RACCORDO
100
AcDbPolyline
 62
250
  6
CONTINUOUS
 90
10
 70
0
 10
-37.0235103624
 20
-22.6055838216
 10
-37.0214517794
 20
-22.6295112855
 10
-37.0154958963
 20
-22.6604536025
 10
-37.005881334
 20
-22.6908381826
 10
-36.9926796506
 20
-22.7204388839
 10
-36.9759891015
 20
-22.7490353987
 10
-36.9559339087
 20
-22.7764148931
 10
-36.932663336
 20
-22.8023735909
 10
-36.9063505783
 20
-22.8267182907
 10
-36.8771914723
 20
-22.8492678031
  0
LWPOLYLINE
  5
232
100
AcDbEntity
  8
RACCORDO
100
AcDbPolyline
 62
7
  6
CONTINUOUS
 90
14
 70
0
 10
-37.0235039453
 20
-22.605583564
 10
-37.0204398594
 20
-22.650726709
 10
-37.0134607291
 20
-22.7040384325
 10
-37.0029009461
 20
-22.7559439903
 10
-36.9887657157
 20
-22.8063563324
 10
-36.9711142278
 20
-22.8550537588
 10
-36.950127292
 20
-22.9016218006
 10
-36.9259848593
 20
-22.9458197931
 10
-36.89885056
 20
-22.9875023158
 10
-36.8690331133
 20
-23.026380279
 10
-36.8368164292
 20
-23.0622966507
 10
-36.8024738062
 20
-23.0951518186
 10
-36.7663857016
 20
-23.1247944606
 10
-36.7489350388
 20
-23.13758814
  0
LINE
  5
233
100
AcDbEntity
  8
RACCORDO
100
AcDbLine
 62
7
  6
CONTINUOUS
 10
-37.0235152856
 20
-22.6054612195
 11
-37.0235103624
 21
-22.6055838216
  0
LWPOLYLINE
  5
234
100
AcDbEntity
  8
RACCORDO
100
AcDbPolyline
 62
250
  6
CONTINUOUS
 90
10
 70
0
 10
-36.8771914748
 20
-22.849267805
 10
-36.9679813899
 20
-20.2823134452
 10
-37.0360800415
 20
-17.6980354174
 10
-37.081482102
 20
-15.0966324748
 10
-37.1041840197
 20
-12.4783046898
 10
-37.1041840196
 20
-9.843253366
 10
-37.0814821019
 20
-7.1916810217
 10
-37.0360800414
 20
-4.5237914707
 10
-36.9679813898
 20
-1.8397898081
 10
-36.8771914748
 20
0.8601176783
  0
LWPOLYLINE
  5
235
100
AcDbEntity
  8
RACCORDO
100
AcDbPolyline
 62
250
  6
CONTINUOUS
 90
11
 70
0
 10
-37.0235675057
 20
1.1145658545
 10
-37.0236969878
 20
1.1028071627
 10
-37.0214436058
 20
1.0731800675
 10
-37.0154873068
 20
1.0437226601
 10
-37.005872421
 20
1.0146541778
 10
-36.9926705072
 20
0.9861909636
 10
-36.9759798209
 20
0.9585448553
 10
-36.9559245831
 20
0.9319216098
 10
-36.932654055
 20
0.9065193711
 10
-36.9063414283
 20
0.8825271959
 10
-36.8771825351
 20
0.8601236465
  0
LWPOLYLINE
  5
236
100
AcDbEntity
  8
RACCORDO
100
AcDbPolyline
 62
7
  6
CONTINUOUS
 90
10
 70
0
 10
-37.0235579909
 20
1.1148218113
 10
-37.1131635155
 20
-1.5449970128
 10
-37.1818953424
 20
-4.2426181354
 10
-37.227714283
 20
-6.9240456585
 10
-37.2506140444
 20
-9.5890433342
 10
-37.250592684
 20
-12.2374176023
 10
-37.227649035
 20
-14.8689912686
 10
-37.1817827383
 20
-17.4835717797
 10
-37.1129977813
 20
-20.0809301779
 10
-37.0235152856
 20
-22.6054612195
  0
LWPOLYLINE
  5
237
100
AcDbEntity
  8
RACCORDO
100
AcDbPolyline
 62
250
  6
CONTINUOUS
 90
22
 70
0
 10
-36.8771914748
 20
0.8601176783
 10
-36.8739452591
 20
0.908016755
 10
-36.8677891545
 20
0.9577013072
 10
-36.8587492522
 20
1.0089640532
 10
-36.846864618
 20
1.0615903838
 10
-36.8321847409
 20
1.1153617176
 10
-36.8147686845
 20
1.1700566495
 10
-36.7946877945
 20
1.2254525676
 10
-36.7720273457
 20
1.2813139129
 10
-36.7468850008
 20
1.3373955527
 10
-36.7193727418
 20
1.3934548196
 10
-36.6896030678
 20
1.4492679293
 10
-36.657688652
 20
1.5046179628
 10
-36.623756527
 20
1.5592848155
 10
-36.587954034
 20
1.6130303028
 10
-36.5504363942
 20
1.6656149351
 10
-36.5113670927
 20
1.7168142236
 10
-36.4709062178
 20
1.7664224718
 10
-36.4292144001
 20
1.8142372658
 10
-36.3864635734
 20
1.8600608022
 10
-36.3428368289
 20
1.9037014715
 10
-36.2985177296
 20
1.9449778726
  0
LINE
  5
238
100
AcDbEntity
  8
RACCORDO
100
AcDbLine
 62
7
  6
CONTINUOUS
 10
-0.4240876971
 20
45.0576422541
 11
-19.2296850997
 21
30.8634539743
  0
LINE
  5
239
100
AcDbEntity
  8
RACCORDO
100
AcDbLine
 62
7
  6
CONTINUOUS
 10
-24.4963969092
 20
28.8090735531
 11
-1.5376821427
 21
45.845072438
  0
LWPOLYLINE
  5
23A
100
AcDbEntity
  8
RACCORDO
100
AcDbPolyline
 62
7
  6
CONTINUOUS
 90
25
 70
0
 10
-1.5376821427
 20
45.845072438
 10
-1.4892613096
 20
45.8801675127
 10
-1.4409520294
 20
45.913536803
 10
-1.3927543019
 20
45.9451803092
 10
-1.3446121309
 20
45.9751309368
 10
-1.2965815127
 20
46.0033557803
 10
-1.248830436
 20
46.0297561221
 10
-1.2013598797
 20
46.0543255736
 10
-1.1541688649
 20
46.0770705235
 10
-1.1074224439
 20
46.0979114205
 10
-1.0611221735
 20
46.1168415974
 10
-1.0152664968
 20
46.1338677214
 10
-0.9700157957
 20
46.1489302431
 10
-0.9253721885
 20
46.1620222867
 10
-0.881333557
 20
46.1731507279
 10
-0.8380539277
 20
46.1822766447
 10
-0.7955359583
 20
46.1893930249
 10
-0.7537769912
 20
46.1945068807
 10
-0.7129230798
 20
46.1976003262
 10
-0.6729773932
 20
46.1986662867
 10
-0.6339367623
 20
46.1977118368
 10
-0.595937733
 20
46.1947403147
 10
-0.5590258207
 20
46.1897528334
 10
-0.5231555101
 20
46.1827482799
 10
-0.4883268011
 20
46.1737266543
  0
LWPOLYLINE
  5
23B
100
AcDbEntity
  8
RACCORDO
100
AcDbPolyline
 62
7
  6
CONTINUOUS
 90
25
 70
0
 10
-9.9946017318
 20
-39.6278942609
 10
-9.9631967428
 20
-39.6495424078
 10
-9.9309764621
 20
-39.6714418299
 10
-9.8980998548
 20
-39.6932402417
 10
-9.8645336761
 20
-39.7144210823
 10
-9.8305271938
 20
-39.734860796
 10
-9.7966275283
 20
-39.7548539377
 10
-9.7629648837
 20
-39.7741911636
 10
-9.7294909836
 20
-39.7926298244
 10
-9.6964861685
 20
-39.8104843014
 10
-9.6639980044
 20
-39.8276406714
 10
-9.6320040606
 20
-39.8439057727
 10
-9.6006999093
 20
-39.8595195306
 10
-9.5700999439
 20
-39.874399798
 10
-9.540188252
 20
-39.8884082728
 10
-9.5111346496
 20
-39.9017212867
 10
-9.4829313266
 20
-39.9142755037
 10
-9.4555688834
 20
-39.9259680237
 10
-9.4292265309
 20
-39.9369253513
 10
-9.4038851375
 20
-39.9470972121
 10
-9.3795287355
 20
-39.956407939
 10
-9.3563422392
 20
-39.9649538622
 10
-9.3343679113
 20
-39.9727381598
 10
-9.313504902
 20
-39.9796711025
 10
-9.2937191559
 20
-39.985718829
  0
LWPOLYLINE
  5
23C
100
AcDbEntity
  8
RACCORDO
100
AcDbPolyline
 62
7
  6
CONTINUOUS
 90
25
 70
0
 10
-9.6348770438
 20
-39.3822580271
 10
-9.6034720549
 20
-39.403906174
 10
-9.5712517741
 20
-39.4258055961
 10
-9.5383751669
 20
-39.4476040079
 10
-9.5048089881
 20
-39.4687848485
 10
-9.4708025058
 20
-39.4892245622
 10
-9.4369028403
 20
-39.509217704
 10
-9.4032401958
 20
-39.5285549299
 10
-9.3697662956
 20
-39.5469935907
 10
-9.3367614806
 20
-39.5648480676
 10
-9.3042733164
 20
-39.5820044376
 10
-9.2722793726
 20
-39.5982695389
 10
-9.2409752213
 20
-39.6138832969
 10
-9.2103752559
 20
-39.6287635642
 10
-9.180463564
 20
-39.6427720391
 10
-9.1514099616
 20
-39.6560850529
 10
-9.1232066386
 20
-39.6686392699
 10
-9.0958441955
 20
-39.6803317899
 10
-9.0695018429
 20
-39.6912891175
 10
-9.0441604495
 20
-39.7014609783
 10
-9.0198040475
 20
-39.7107717053
 10
-8.9966175513
 20
-39.7193176284
 10
-8.9746432233
 20
-39.727101926
 10
-8.953780214
 20
-39.7340348688
 10
-8.933994468
 20
-39.7400825952
  0
LINE
  5
23D
100
AcDbEntity
  8
DRAFT
100
AcDbLine
 62
7
  6
CONTINUOUS
 10
-15.8772991048
 20
-36.5227200885
 11
-17.9186426771
 21
-35.0792722058
  0
LINE
  5
23E
100
AcDbEntity
  8
DRAFT
100
AcDbLine
 62
7
  6
CONTINUOUS
 10
-22.1612833642
 20
-32.0792722058
 11
-24.4834466299
 21
-30.4372548136
  0
LINE
  5
23F
100
AcDbEntity
  8
COPY-PUBBLISH
100
AcDbLine
 62
7
  6
CONTINUOUS
 10
-20.7470698018
 20
-32.1862761534
 11
-19.050013527
 21
-33.3862761534
  0
LINE
  5
240
100
AcDbEntity
  8
COPY-PUBBLISH
100
AcDbLine
 62
7
  6
CONTINUOUS
 10
-18.2014853896
 20
-33.9862761534
 11
-17.2910717447
 21
-34.6300358153
  0
LINE
  5
241
100
AcDbEntity
  8
DRAFT
100
AcDbLine
 62
7
  6
CONTINUOUS
 10
-24.4834466299
 20
-29.5293051103
 11
-25.7675279483
 21
-28.6213225025
  0
LINE
  5
242
100
AcDbEntity
  8
RACCORDO
100
AcDbLine
 62
7
  6
CONTINUOUS
 10
-10.0007730292
 20
-39.6234766468
 11
-10.1764478825
 21
-39.4992557667
  0
LINE
  5
243
100
AcDbEntity
  8
RACCORDO
100
AcDbLine
 62
7
  6
CONTINUOUS
 10
-31.0371459134
 20
-24.7485147288
 11
-31.3789816375
 21
-24.5068003702
  0
LINE
  5
244
100
AcDbEntity
  8
DRAFT
100
AcDbLine
 62
7
  6
CONTINUOUS
 10
-28.8787977855
 20
-25.8909924166
 11
-25.7675279483
 21
-28.0909924166
  0
LINE
  5
245
100
AcDbEntity
  8
RACCORDO
100
AcDbLine
 62
7
  6
CONTINUOUS
 10
-9.6410483412
 20
-39.377840413
 11
-9.7654833079
 21
-39.2898516043
  0
LINE
  5
246
100
AcDbEntity
  8
RACCORDO
100
AcDbLine
 62
7
  6
CONTINUOUS
 10
-30.6774212254
 20
-24.502878495
 11
-30.9680170629
 21
-24.2973962077
  0
LINE
  5
247
100
AcDbEntity
  8
RACCORDO
100
AcDbLine
 62
250
  6
CONTINUOUS
 10
-32.1356418683
 20
-22.9477860678
 11
-31.835693451
 21
-23.1598816277
  0
LINE
  5
248
100
AcDbEntity
  8
RACCORDO
100
AcDbLine
 62
250
  6
CONTINUOUS
 10
-29.4543572862
 20
-24.0869541158
 11
-29.0946325983
 21
-24.341317882
  0
LINE
  5
249
100
AcDbEntity
  8
COPY-PUBBLISH
100
AcDbLine
 62
7
  6
CONTINUOUS
 10
-16.8697070773
 20
-32.9575756263
 11
-17.6947860707
 21
-32.3741566751
  0
LINE
  5
24A
100
AcDbEntity
  8
COPY-PUBBLISH
100
AcDbLine
 62
7
  6
CONTINUOUS
 10
-19.4035669176
 20
-31.1541415787
 11
-17.6947860707
 21
-32.3624321031
  0
LINE
  5
24B
100
AcDbEntity
  8
COPY-PUBBLISH
100
AcDbLine
 62
7
  6
CONTINUOUS
 10
-16.8697070773
 20
-32.9458510543
 11
-15.9670056994
 21
-33.58415732
  0
LINE
  5
24C
100
AcDbEntity
  8
COPY-PUBBLISH
100
AcDbLine
 62
7
  6
CONTINUOUS
 10
-27.8273938548
 20
-25.1344472657
 11
-26.2978580341
 21
-26.2159924166
  0
LINE
  5
24D
100
AcDbEntity
  8
DRAFT
100
AcDbLine
 62
7
  6
CONTINUOUS
 10
-16.1508757241
 20
-32.4052059789
 11
-18.4136174239
 21
-30.8052059789
  0
LINE
  5
24E
100
AcDbEntity
  8
DRAFT
100
AcDbLine
 62
7
  6
CONTINUOUS
 10
-19.4035669176
 20
-30.1052059789
 11
-21.7016639564
 21
-28.4802059789
  0
LINE
  5
24F
100
AcDbEntity
  8
RACCORDO
100
AcDbLine
 62
250
  6
CONTINUOUS
 10
-29.7516164377
 20
-22.0979545702
 11
-32.0568734102
 21
-20.4678917325
  0
LINE
  5
250
100
AcDbEntity
  8
RACCORDO
100
AcDbLine
 62
250
  6
CONTINUOUS
 10
-27.8273938548
 20
-23.4373909909
 11
-29.4543572862
 21
-22.2869541158
  0
LWPOLYLINE
  5
251
100
AcDbEntity
  8
RACCORDO
100
AcDbPolyline
 62
250
  6
CONTINUOUS
 90
10
 70
0
 10
-34.474411606
 20
6.5430971411
 10
-34.472209983
 20
6.5099565817
 10
-34.466304393
 20
6.4796891885
 10
-34.4567251433
 20
6.449895375
 10
-34.4435448294
 20
6.4207996654
 10
-34.4268613338
 20
6.3926172172
 10
-34.4067996429
 20
6.3655589654
 10
-34.3835098985
 20
6.3398270407
 10
-34.3571660627
 20
6.3156133253
 10
-34.3279649966
 20
6.2930985181
  0
LINE
  5
252
100
AcDbEntity
  8
RACCORDO
100
AcDbLine
 62
7
  6
CONTINUOUS
 10
-34.474411606
 20
4.5236153017
 11
-34.474411606
 21
6.5430985181
  0
LINE
  5
253
100
AcDbEntity
  8
RACCORDO
100
AcDbLine
 62
250
  6
CONTINUOUS
 10
-34.3279649966
 20
4.1657145812
 11
-34.3279649966
 21
6.2930985181
  0
LINE
  5
254
100
AcDbEntity
  8
RACCORDO
100
AcDbLine
 62
7
  6
CONTINUOUS
 10
-32.5911083867
 20
-27.8985790443
 11
-32.5911083867
 21
-26.0070393035
  0
LINE
  5
255
100
AcDbEntity
  8
RACCORDO
100
AcDbLine
 62
7
  6
CONTINUOUS
 10
-32.5911083867
 20
8.2055686336
 11
-32.5911083867
 21
13.1863993645
  0
LWPOLYLINE
  5
256
100
AcDbEntity
  8
RACCORDO
100
AcDbPolyline
 62
7
  6
CONTINUOUS
 90
25
 70
0
 10
-32.5911083867
 20
13.1863993645
 10
-32.5889246639
 20
13.2559783763
 10
-32.5824516443
 20
13.3278995055
 10
-32.5716893278
 20
13.4021627522
 10
-32.5565182054
 20
13.4792299603
 10
-32.5370577862
 20
13.558639286
 10
-32.5136665969
 20
13.6390051975
 10
-32.4863925558
 20
13.720044626
 10
-32.4551877446
 20
13.8020406404
 10
-32.4202669353
 20
13.8844569155
 10
-32.3815065508
 20
13.9675245933
 10
-32.3390301683
 20
14.0510125318
 10
-32.2934232911
 20
14.1336909808
 10
-32.2446161516
 20
14.2155418996
 10
-32.1926785175
 20
14.2965833288
 10
-32.1384051948
 20
14.3756396401
 10
-32.081935543
 20
14.4524837726
 10
-32.0231302027
 20
14.5273427872
 10
-31.9623659026
 20
14.5997222378
 10
-31.8993952814
 20
14.6698536208
 10
-31.8344657005
 20
14.73750544
 10
-31.7686959727
 20
14.8014887598
 10
-31.7024590356
 20
14.8614072686
 10
-31.6353819518
 20
14.9176572781
 10
-31.5674647211
 20
14.9702387883
  0
LWPOLYLINE
  5
257
100
AcDbEntity
  8
RACCORDO
100
AcDbPolyline
 62
250
  6
CONTINUOUS
 90
22
 70
0
 10
-34.3279649966
 20
6.2930985181
 10
-34.3269478161
 20
6.3044605177
 10
-34.3249284495
 20
6.3150146951
 10
-34.3219068968
 20
6.3247610503
 10
-34.3178232929
 20
6.3337198583
 10
-34.3127375029
 20
6.3418708441
 10
-34.3068291229
 20
6.3491531831
 10
-34.3000981529
 20
6.3555668753
 10
-34.292544593
 20
6.3611119206
 10
-34.2843480392
 20
6.3657274943
 10
-34.2755084915
 20
6.3694135966
 10
-34.2660259498
 20
6.3721702273
 10
-34.2560800103
 20
6.3739365618
 10
-34.2456706729
 20
6.3747126
 10
-34.2347979376
 20
6.3744983421
 10
-34.2236414006
 20
6.3732329633
 10
-34.2122010617
 20
6.3709164636
 10
-34.200476921
 20
6.3675488429
 10
-34.1886485745
 20
6.3630692767
 10
-34.1767758876
 20
6.35745749
 10
-34.164798995
 20
6.3507337578
 10
-34.1527178966
 20
6.3428980799
  0
LINE
  5
258
100
AcDbEntity
  8
RACCORDO
100
AcDbLine
 62
7
  6
CONTINUOUS
 10
-2.0063496133
 20
38.8640734483
 11
-1.2734182489
 21
39.3920239278
  0
LINE
  5
259
100
AcDbEntity
  8
RACCORDO
100
AcDbLine
 62
7
  6
CONTINUOUS
 10
-17.7863236881
 20
28.3192172891
 11
-5.0827726907
 21
37.0126242017
  0
LINE
  5
25A
100
AcDbEntity
  8
RACCORDO
100
AcDbLine
 62
7
  6
CONTINUOUS
 10
-29.5203679964
 20
-22.0841056844
 11
-31.8315756309
 21
-20.4498350934
  0
LINE
  5
25B
100
AcDbEntity
  8
DRAFT
100
AcDbLine
 62
7
  6
CONTINUOUS
 10
-20.252095055
 20
-28.5859671634
 11
-18.4136174239
 21
-29.8859671634
  0
LINE
  5
25C
100
AcDbEntity
  8
DRAFT
100
AcDbLine
 62
7
  6
CONTINUOUS
 10
-16.0108570738
 20
-31.5849753005
 11
-16.1508757241
 21
-31.4859671634
  0
LINE
  5
25D
100
AcDbEntity
  8
RACCORDO
100
AcDbLine
 62
7
  6
CONTINUOUS
 10
-27.5412379499
 20
-23.3809147266
 11
-29.8689549603
 21
-21.7349702439
  0
LINE
  5
25E
100
AcDbEntity
  8
DRAFT
100
AcDbLine
 62
7
  6
CONTINUOUS
 10
-19.253506403
 20
-27.8920759709
 11
-17.4323070886
 21
-29.179858356
  0
LINE
  5
25F
100
AcDbEntity
  8
DRAFT
100
AcDbLine
 62
7
  6
CONTINUOUS
 10
-16.6187620823
 20
-27.0119383001
 11
-16.0612159001
 21
-27.4061829863
  0
LINE
  5
260
100
AcDbEntity
  8
0
100
AcDbLine
 62
7
  6
CONTINUOUS
 10
-4.0490224713
 20
-35.6988483986
 11
-4.1904438275
 21
-35.5988483986
  0
LINE
  5
261
100
AcDbEntity
  8
0
100
AcDbLine
 62
7
  6
CONTINUOUS
 10
-31.0371459134
 20
-27.0496704883
 11
-31.0371459134
 21
-24.7485147288
  0
LINE
  5
262
100
AcDbEntity
  8
0
100
AcDbLine
 62
7
  6
CONTINUOUS
 10
-31.0371459134
 20
1.8387002438
 11
-31.0371459134
 21
4.1398560033
  0
LINE
  5
263
100
AcDbEntity
  8
DRAFT
100
AcDbLine
 62
7
  6
CONTINUOUS
 10
-30.6774212254
 20
-24.502878495
 11
-30.6774212254
 21
-24.1493251044
  0
LINE
  5
264
100
AcDbEntity
  8
DRAFT
100
AcDbLine
 62
7
  6
CONTINUOUS
 10
-30.6774212254
 20
1.730783087
 11
-30.6774212254
 21
2.0843364776
  0
LINE
  5
265
100
AcDbEntity
  8
RACCORDO
100
AcDbLine
 62
7
  6
CONTINUOUS
 10
-29.4543572862
 20
-24.2334007252
 11
-29.4543572862
 21
-22.2431547409
  0
LINE
  5
266
100
AcDbEntity
  8
RACCORDO
100
AcDbLine
 62
7
  6
CONTINUOUS
 10
-29.4543572862
 20
1.4949391131
 11
-29.4543572862
 21
3.4851850973
  0
LINE
  5
267
100
AcDbEntity
  8
DRAFT
100
AcDbLine
 62
7
  6
CONTINUOUS
 10
-28.8787977855
 20
5.9288127368
 11
-28.8787977855
 21
4.231756462
  0
LINE
  5
268
100
AcDbEntity
  8
DRAFT
100
AcDbLine
 62
7
  6
CONTINUOUS
 10
-28.8787977855
 20
-4.3888783841
 11
-28.8787977855
 21
-5.1788316122
  0
LINE
  5
269
100
AcDbEntity
  8
DRAFT
100
AcDbLine
 62
7
  6
CONTINUOUS
 10
-28.8787977855
 20
-14.7833480675
 11
-28.8787977855
 21
-15.5733012957
  0
LINE
  5
26A
100
AcDbEntity
  8
DRAFT
100
AcDbLine
 62
7
  6
CONTINUOUS
 10
-28.8787977855
 20
-24.1939361417
 11
-28.8787977855
 21
-25.8909924166
  0
LINE
  5
26B
100
AcDbEntity
  8
RACCORDO
100
AcDbLine
 62
7
  6
CONTINUOUS
 10
-27.4769258779
 20
-23.5387626645
 11
-27.4769258779
 21
-25.3822655488
  0
LWPOLYLINE
  5
26C
100
AcDbEntity
  8
RACCORDO
100
AcDbPolyline
 62
250
  6
CONTINUOUS
 90
19
 70
0
 10
-33.9805819635
 20
6.8922349592
 10
-33.9931225861
 20
6.880767331
 10
-34.0042180235
 20
6.8685494709
 10
-34.0138682755
 20
6.8555813789
 10
-34.0220847746
 20
6.8417307695
 10
-34.0288560884
 20
6.8271299283
 10
-34.0341479199
 20
6.8121757115
 10
-34.0379602693
 20
6.796868119
 10
-34.0402931365
 20
6.7812071509
 10
-34.0411122246
 20
6.7655896635
 10
-34.0404175336
 20
6.7500156567
 10
-34.0382090636
 20
6.7344851305
 10
-34.0344525175
 20
6.7193949413
 10
-34.0291478955
 20
6.704745089
 10
-34.0222951976
 20
6.6905355737
 10
-34.0138601267
 20
6.6771632515
 10
-34.0038312507
 20
6.664760408
 10
-33.9922200018
 20
6.6531947576
 10
-33.97902638
 20
6.6424663005
  0
LINE
  5
26D
100
AcDbEntity
  8
RACCORDO
100
AcDbLine
 62
250
  6
CONTINUOUS
 10
0.2263128127
 20
36.3249334103
 11
0.2540015994
 21
36.3463271581
  0
LWPOLYLINE
  5
26E
100
AcDbEntity
  8
RACCORDO
100
AcDbPolyline
 62
7
  6
CONTINUOUS
 90
12
 70
0
 10
-0.4146522037
 20
36.0147290064
 10
-0.3845413631
 20
36.0376857865
 10
-0.3545477418
 20
36.057710542
 10
-0.3249204294
 20
36.0746510687
 10
-0.2959154735
 20
36.0883864879
 10
-0.2677638891
 20
36.0988070638
 10
-0.2406697422
 20
36.1058150284
 10
-0.2148567768
 20
36.1093595425
 10
-0.1905412849
 20
36.1094189511
 10
-0.1679002972
 20
36.1059798883
 10
-0.1471201188
 20
36.0990730106
 10
-0.1344509253
 20
36.0926083103
  0
LINE
  5
26F
100
AcDbEntity
  8
RACCORDO
100
AcDbLine
 62
7
  6
CONTINUOUS
 10
-1.9693804115
 20
36.9328327933
 11
-2.7666637769
 21
36.3412265705
  0
LINE
  5
270
100
AcDbEntity
  8
RACCORDO
100
AcDbLine
 62
7
  6
CONTINUOUS
 10
-31.5674647211
 20
14.9702387883
 11
-22.044574462
 21
22.0364857226
  0
LINE
  5
271
100
AcDbEntity
  8
RACCORDO
100
AcDbLine
 62
250
  6
CONTINUOUS
 10
-14.5439234099
 20
26.026494065
 11
-2.1760574575
 21
34.9572661493
  0
LINE
  5
272
100
AcDbEntity
  8
RACCORDO
100
AcDbLine
 62
250
  6
CONTINUOUS
 10
-13.9433578429
 20
25.6018300801
 11
-1.8227194421
 21
34.3540804272
  0
LINE
  5
273
100
AcDbEntity
  8
RACCORDO
100
AcDbLine
 62
7
  6
CONTINUOUS
 10
-1.8584433034
 20
33.6209622552
 11
-13.4484506514
 21
25.2518778489
  0
LINE
  5
274
100
AcDbEntity
  8
RACCORDO
100
AcDbLine
 62
7
  6
CONTINUOUS
 10
0.7171926217
 20
36.829144098
 11
0.0807965187
 21
36.379144098
  0
LINE
  5
275
100
AcDbEntity
  8
RACCORDO
100
AcDbLine
 62
250
  6
CONTINUOUS
 10
0.8903977025
 20
36.7963271581
 11
0.2540015994
 21
36.3463271581
  0
LWPOLYLINE
  5
276
100
AcDbEntity
  8
RACCORDO
100
AcDbPolyline
 62
250
  6
CONTINUOUS
 90
28
 70
0
 10
-1.8227194421
 20
34.3540804272
 10
-1.7644259762
 20
34.3944294824
 10
-1.706770141
 20
34.4309385366
 10
-1.6497519365
 20
34.4636075896
 10
-1.5931805095
 20
34.492525836
 10
-1.5372467132
 20
34.5176040812
 10
-1.482523107
 20
34.5385747421
 10
-1.4290298822
 20
34.5553905275
 10
-1.3767468475
 20
34.5680987285
 10
-1.3261859884
 20
34.5765736352
 10
-1.2773671751
 20
34.580773121
 10
-1.2302705374
 20
34.5807393125
 10
-1.1853484493
 20
34.5764728797
 10
-1.1426199516
 20
34.5679321622
 10
-1.1020660035
 20
34.5551588204
 10
-1.0640818574
 20
34.5382785059
 10
-1.0286946205
 20
34.5172523261
 10
-0.9958771855
 20
34.4921191735
 10
-0.9659434831
 20
34.4631213768
 10
-0.9389201849
 20
34.4302191536
 10
-0.9147806194
 20
34.3934522863
 10
-0.8937587024
 20
34.3531824511
 10
-0.8758858673
 20
34.3093656205
 10
-0.8611306808
 20
34.2620458219
 10
-0.8496327592
 20
34.2117168144
 10
-0.8414386415
 20
34.1585431843
 10
-0.8365017887
 20
34.1023603454
 10
-0.834822201
 20
34.0431682975
  0
LWPOLYLINE
  5
277
100
AcDbEntity
  8
RACCORDO
100
AcDbPolyline
 62
250
  6
CONTINUOUS
 90
18
 70
0
 10
-2.1760574575
 20
34.9572661493
 10
-2.0978619756
 20
35.0104537378
 10
-2.0200704374
 20
35.0587624379
 10
-1.942941247
 20
35.1020422813
 10
-1.8667413985
 20
35.1401620977
 10
-1.7917126285
 20
35.1730030664
 10
-1.7180713751
 20
35.2004559488
 10
-1.6460550497
 20
35.222437036
 10
-1.5759111956
 20
35.2388757759
 10
-1.5078633855
 20
35.2497082393
 10
-1.4421408716
 20
35.2549039197
 10
-1.3789577514
 20
35.2544523362
 10
-1.3185030178
 20
35.2483476057
 10
-1.2609743629
 20
35.2366118399
 10
-1.2065665135
 20
35.2192870471
 10
-1.1554493832
 20
35.1964240996
 10
-1.107793419
 20
35.1681017585
 10
-1.1000404947
 20
35.1627456663
  0
LINE
  5
278
100
AcDbEntity
  8
0
100
AcDbLine
 62
7
  6
CONTINUOUS
 10
-3.2461769675
 20
-35.4040297694
 11
-3.3875983237
 21
-35.3040297694
  0
LINE
  5
279
100
AcDbEntity
  8
DRAFT
100
AcDbLine
 62
7
  6
CONTINUOUS
 10
-17.0428834662
 20
-25.1689619445
 11
-16.0616359956
 21
-25.862808685
  0
LINE
  5
27A
100
AcDbEntity
  8
0
100
AcDbLine
 62
7
  6
CONTINUOUS
 10
-4.8905424734
 20
-33.2008911651
 11
-5.0319638296
 21
-33.1008911651
  0
LINE
  5
27B
100
AcDbEntity
  8
COPY-PUBBLISH
100
AcDbLine
 62
250
  6
CONTINUOUS
 10
-20.0923428395
 20
-21.9039542915
 11
-18.5550387801
 21
-22.9909924166
  0
LINE
  5
27C
100
AcDbEntity
  8
0
100
AcDbLine
 62
7
  6
CONTINUOUS
 10
-3.2461769675
 20
-33.6939012115
 11
-3.3875983237
 21
-33.5939012115
  0
LINE
  5
27D
100
AcDbEntity
  8
DRAFT
100
AcDbLine
 62
250
  6
CONTINUOUS
 10
-18.0247086943
 20
-23.1463225025
 11
-16.7600654822
 21
-24.0405602935
  0
LINE
  5
27E
100
AcDbEntity
  8
DRAFT
100
AcDbLine
 62
7
  6
CONTINUOUS
 10
-19.7237686631
 20
-21.7021614848
 11
-22.7952833503
 21
-19.5302726209
  0
LINE
  5
27F
100
AcDbEntity
  8
ASSI
100
AcDbLine
 62
7
  6
CONTINUOUS
 10
-16.159138082
 20
-23.9219601385
 11
-17.4184909116
 21
-23.0314632127
  0
LINE
  5
280
100
AcDbEntity
  8
ASSI
100
AcDbLine
 62
7
  6
CONTINUOUS
 10
-17.5158082956
 20
-22.794090777
 11
-19.0440431279
 21
-21.7134655639
  0
LINE
  5
281
100
AcDbEntity
  8
0
100
AcDbLine
 62
7
  6
CONTINUOUS
 10
-4.8905424734
 20
-31.6179732384
 11
-5.0319638296
 21
-31.5179732384
  0
LINE
  5
282
100
AcDbEntity
  8
0
100
AcDbLine
 62
7
  6
CONTINUOUS
 10
-3.2461769675
 20
-32.5588845191
 11
-3.3875983237
 21
-32.4588845191
  0
LINE
  5
283
100
AcDbEntity
  8
0
100
AcDbLine
 62
7
  6
CONTINUOUS
 10
-4.0619794959
 20
-31.8235497018
 11
-4.2034008522
 21
-31.7235497018
  0
LINE
  5
284
100
AcDbEntity
  8
0
100
AcDbLine
 62
7
  6
CONTINUOUS
 10
-3.2461769675
 20
-31.5227206475
 11
-3.3875983237
 21
-31.4227206475
  0
LINE
  5
285
100
AcDbEntity
  8
0
100
AcDbLine
 62
7
  6
CONTINUOUS
 10
-5.1626406983
 20
-29.7662064016
 11
-5.3040620546
 21
-29.6662064016
  0
LWPOLYLINE
  5
286
100
AcDbEntity
  8
ASSI
100
AcDbPolyline
 62
7
  6
CONTINUOUS
 90
7
 70
0
 10
-17.515887436
 20
-22.7940348291
 10
-17.4967510351
 20
-22.8083362745
 10
-17.4528587956
 20
-22.8479427122
 10
-17.4134854043
 20
-22.8937637205
 10
-17.3791329251
 20
-22.9452151648
 10
-17.3498655554
 20
-23.0023693739
 10
-17.3256190977
 20
-23.065154019
  0
LINE
  5
287
100
AcDbEntity
  8
0
100
AcDbLine
 62
7
  6
CONTINUOUS
 10
-25.7675279483
 20
4.2591428227
 11
-25.7675279483
 21
3.7288127368
  0
LINE
  5
288
100
AcDbEntity
  8
0
100
AcDbLine
 62
7
  6
CONTINUOUS
 10
-25.7675279483
 20
-28.6213225025
 11
-25.7675279483
 21
-28.0909924166
  0
LINE
  5
289
100
AcDbEntity
  8
RACCORDO
100
AcDbLine
 62
7
  6
CONTINUOUS
 10
-25.5200405748
 20
24.8311286858
 11
-25.5200405748
 21
27.0252341294
  0
LINE
  5
28A
100
AcDbEntity
  8
DRAFT
100
AcDbLine
 62
7
  6
CONTINUOUS
 10
-24.4834466299
 20
-29.5293051103
 11
-24.4834466299
 21
-30.4372548136
  0
LINE
  5
28B
100
AcDbEntity
  8
DRAFT
100
AcDbLine
 62
7
  6
CONTINUOUS
 10
-24.4834466299
 20
3.3511602149
 11
-24.4834466299
 21
4.2591099182
  0
LWPOLYLINE
  5
28C
100
AcDbEntity
  8
RACCORDO
100
AcDbPolyline
 62
7
  6
CONTINUOUS
 90
25
 70
0
 10
-25.5200405748
 20
27.0252341294
 10
-25.5178568521
 20
27.0948131411
 10
-25.5113838324
 20
27.1667342703
 10
-25.5006215159
 20
27.2409975171
 10
-25.4854503935
 20
27.3180647252
 10
-25.4659899743
 20
27.3974740508
 10
-25.442598785
 20
27.4778399623
 10
-25.4153247439
 20
27.5588793908
 10
-25.3841199327
 20
27.6408754052
 10
-25.3491991234
 20
27.7232916804
 10
-25.310438739
 20
27.8063593581
 10
-25.2679623565
 20
27.8898472967
 10
-25.2223554793
 20
27.9725257457
 10
-25.1735483398
 20
28.0543766644
 10
-25.1216107056
 20
28.1354180937
 10
-25.067337383
 20
28.2144744049
 10
-25.0108677311
 20
28.2913185374
 10
-24.9520623908
 20
28.366177552
 10
-24.8912980908
 20
28.4385570026
 10
-24.8283274696
 20
28.5086883857
 10
-24.7633978886
 20
28.5763402048
 10
-24.6976281608
 20
28.6403235247
 10
-24.6313912238
 20
28.7002420334
 10
-24.5643141399
 20
28.7564920429
 10
-24.4963969092
 20
28.8090735531
  0
LWPOLYLINE
  5
28D
100
AcDbEntity
  8
RACCORDO
100
AcDbPolyline
 62
250
  6
CONTINUOUS
 90
3
 70
0
 10
0.1728221844
 20
36.2727770536
 10
0.1990977888
 20
36.3002760775
 10
0.2263128127
 20
36.3249334103
  0
LWPOLYLINE
  5
28E
100
AcDbEntity
  8
RACCORDO
100
AcDbPolyline
 62
7
  6
CONTINUOUS
 90
15
 70
0
 10
-36.5819386269
 20
2.0023817847
 10
-36.6364230791
 20
1.9489375071
 10
-36.688166822
 20
1.892286996
 10
-36.7372975226
 20
1.8324211234
 10
-36.7835701916
 20
1.7696593741
 10
-36.8264061605
 20
1.7048417565
 10
-36.8657049218
 20
1.6381604744
 10
-36.9013224179
 20
1.5697797586
 10
-36.9327763127
 20
1.5005371524
 10
-36.9599673893
 20
1.4305263918
 10
-36.9827498161
 20
1.3598075157
 10
-37.0007794051
 20
1.2889325852
 10
-37.0138723333
 20
1.2179580818
 10
-37.0217834864
 20
1.1467057152
 10
-37.0235601683
 20
1.1145655828
  0
LINE
  5
28F
100
AcDbEntity
  8
RACCORDO
100
AcDbLine
 62
7
  6
CONTINUOUS
 10
-36.5819386269
 20
2.0023817847
 11
-34.2610716373
 21
4.1183599852
  0
LINE
  5
290
100
AcDbEntity
  8
RACCORDO
100
AcDbLine
 62
250
  6
CONTINUOUS
 10
-36.2985177296
 20
1.9449778726
 11
-34.065949576
 21
3.9803878526
  0
LINE
  5
291
100
AcDbEntity
  8
RACCORDO
100
AcDbLine
 62
7
  6
CONTINUOUS
 10
-36.5739856758
 20
2.0096994683
 11
-36.5738985518
 21
2.009778767
  0
LWPOLYLINE
  5
292
100
AcDbEntity
  8
RACCORDO
100
AcDbPolyline
 62
250
  6
CONTINUOUS
 90
9
 70
0
 10
2.4407653267
 20
32.9705296206
 10
2.4737049068
 20
32.9982222057
 10
2.5024689407
 20
33.0281504935
 10
2.5267561224
 20
33.0600009824
 10
2.5463120412
 20
33.0934400352
 10
2.5609318471
 20
33.1281173747
 10
2.5704623962
 20
33.1636697523
 10
2.5748038549
 20
33.1997247535
 10
2.5750884759
 20
33.2116524531
  0
LWPOLYLINE
  5
293
100
AcDbEntity
  8
RACCORDO
100
AcDbPolyline
 62
250
  6
CONTINUOUS
 90
13
 70
0
 10
-36.5738985518
 20
2.009778767
 10
-36.5665219001
 20
2.0156456412
 10
-36.5516586198
 20
2.0236708968
 10
-36.534410762
 20
2.0287890098
 10
-36.5149090875
 20
2.0309611782
 10
-36.493301444
 20
2.0301709343
 10
-36.4697516453
 20
2.0264242691
 10
-36.4444382289
 20
2.0197495872
 10
-36.4175531033
 20
2.0101974912
 10
-36.3893000922
 20
1.9978403981
 10
-36.3598933898
 20
1.9827719905
 10
-36.3295559366
 20
1.9651065063
 10
-36.2985177296
 20
1.9449778726
  0
LINE
  5
294
100
AcDbEntity
  8
RACCORDO
100
AcDbLine
 62
250
  6
CONTINUOUS
 10
0.1996220644
 20
32.7827544297
 11
2.0627496405
 21
34.2629413627
  0
LINE
  5
295
100
AcDbEntity
  8
RACCORDO
100
AcDbLine
 62
7
  6
CONTINUOUS
 10
-1.8584433034
 20
30.6158406523
 11
-10.8885469126
 21
23.441752556
  0
LINE
  5
296
100
AcDbEntity
  8
RACCORDO
100
AcDbLine
 62
250
  6
CONTINUOUS
 10
0.5776377506
 20
32.1970184559
 11
2.4407653267
 21
33.6772053888
  0
LINE
  5
297
100
AcDbEntity
  8
RACCORDO
100
AcDbLine
 62
250
  6
CONTINUOUS
 10
2.4407653267
 20
32.9705296206
 11
-10.1820361814
 21
22.942174027
  0
LINE
  5
298
100
AcDbEntity
  8
RACCORDO
100
AcDbLine
 62
7
  6
CONTINUOUS
 10
2.3861125852
 20
32.8201629852
 11
-10.1108127275
 21
22.8918114397
  0
LWPOLYLINE
  5
299
100
AcDbEntity
  8
RACCORDO
100
AcDbPolyline
 62
250
  6
CONTINUOUS
 90
31
 70
0
 10
-33.97902638
 20
6.6424663005
 10
-33.9881699241
 20
6.6356042875
 10
-33.9972806907
 20
6.6282927593
 10
-34.0063342595
 20
6.6205513136
 10
-34.0153063635
 20
6.6124007003
 10
-34.0241729543
 20
6.6038627661
 10
-34.0329102659
 20
6.5949603958
 10
-34.0414948792
 20
6.5857174512
 10
-34.0499037843
 20
6.5761587067
 10
-34.058114442
 20
6.5663097834
 10
-34.0661048448
 20
6.5561970801
 10
-34.0738535754
 20
6.5458477024
 10
-34.0813398644
 20
6.5352893908
 10
-34.0885436456
 20
6.5245504453
 10
-34.0954456103
 20
6.5136596503
 10
-34.1020272586
 20
6.5026461972
 10
-34.1082709493
 20
6.4915396063
 10
-34.1141599469
 20
6.4803696472
 10
-34.1196784668
 20
6.4691662597
 10
-34.1248117172
 20
6.457959473
 10
-34.1295459391
 20
6.4467793255
 10
-34.133868443
 20
6.4356557841
 10
-34.137767643
 20
6.4246186641
 10
-34.1412330879
 20
6.413697549
 10
-34.1442554888
 20
6.4029217116
 10
-34.1468267448
 20
6.3923200351
 10
-34.1489399637
 20
6.3819209359
 10
-34.1505894815
 20
6.3717522875
 10
-34.1517708767
 20
6.3618413457
 10
-34.1524809829
 20
6.3522146755
 10
-34.1527178966
 20
6.3428980799
  0
LINE
  5
29A
100
AcDbEntity
  8
RACCORDO
100
AcDbLine
 62
7
  6
CONTINUOUS
 10
-34.274410496
 20
6.9430993506
 11
-32.5290719615
 21
8.2520956835
  0
LINE
  5
29B
100
AcDbEntity
  8
RACCORDO
100
AcDbLine
 62
250
  6
CONTINUOUS
 10
-33.9805819635
 20
6.8922349592
 11
-32.237608844
 21
8.1994572411
  0
LWPOLYLINE
  5
29C
100
AcDbEntity
  8
RACCORDO
100
AcDbPolyline
 62
250
  6
CONTINUOUS
 90
13
 70
0
 10
-34.274410496
 20
6.9430993506
 10
-34.2725361221
 20
6.9444776475
 10
-34.2538612119
 20
6.9555958046
 10
-34.2330603456
 20
6.9635758248
 10
-34.2102917691
 20
6.9683569989
 10
-34.1857286977
 20
6.9699029535
 10
-34.159557999
 20
6.9682019274
 10
-34.1319787705
 20
6.9632668614
 10
-34.1032008254
 20
6.9551352998
 10
-34.0734430964
 20
6.9438691047
 10
-34.0429319701
 20
6.9295539855
 10
-34.0118995645
 20
6.9122988466
 10
-33.9805819635
 20
6.8922349592
  0
LINE
  5
29D
100
AcDbEntity
  8
RACCORDO
100
AcDbLine
 62
7
  6
CONTINUOUS
 10
-1.5829106101
 20
28.2089330189
 11
-0.6007497928
 21
28.9164102801
  0
LINE
  5
29E
100
AcDbEntity
  8
RACCORDO
100
AcDbLine
 62
7
  6
CONTINUOUS
 10
-0.0459984006
 20
29.3216327044
 11
-0.5311491121
 21
28.9785793464
  0
LWPOLYLINE
  5
29F
100
AcDbEntity
  8
RACCORDO
100
AcDbPolyline
 62
250
  6
CONTINUOUS
 90
13
 70
0
 10
2.0627496405
 20
34.2629413627
 10
2.0942766859
 20
34.2849286458
 10
2.1256511393
 20
34.3040005815
 10
2.156623499
 20
34.3200055023
 10
2.1869474608
 20
34.332816131
 10
2.2163818769
 20
34.3423305925
 10
2.2446926736
 20
34.3484732242
 10
2.2716547126
 20
34.3511951774
 10
2.2970535813
 20
34.3504748063
 10
2.3206872981
 20
34.3463178394
 10
2.3423679187
 20
34.3387573346
 10
2.3619230305
 20
34.3278534158
 10
2.3637636105
 20
34.3265765119
  0
LWPOLYLINE
  5
2A0
100
AcDbEntity
  8
0
100
AcDbPolyline
 62
7
  6
CONTINUOUS
 90
10
 70
0
 10
-4.7527726838
 20
-25.9702332451
 10
-4.7845446225
 20
-25.9790753839
 10
-4.8167795867
 20
-25.9898183536
 10
-4.8494775762
 20
-26.0024621541
 10
-4.8827149656
 20
-26.01704414
 10
-4.9164153804
 20
-26.0335269568
 10
-4.9503496976
 20
-26.0517985406
 10
-4.9844415426
 20
-26.0718215367
 10
-5.01876729
 20
-26.0936332997
 10
-5.0533269397
 20
-26.1172338297
  0
LWPOLYLINE
  5
2A1
100
AcDbEntity
  8
0
100
AcDbPolyline
 62
7
  6
CONTINUOUS
 90
10
 70
0
 10
-4.8984626058
 20
-26.6379382671
 10
-4.9163309475
 20
-26.6398411371
 10
-4.9346902551
 20
-26.6433119073
 10
-4.9535405288
 20
-26.6483505775
 10
-4.972962078
 20
-26.6549902615
 10
-4.9928745933
 20
-26.6631978457
 10
-5.0130371455
 20
-26.672873989
 10
-5.033369425
 20
-26.6839855777
 10
-5.0539517415
 20
-26.6965657257
 10
-5.074784095
 20
-26.7106144328
  0
LWPOLYLINE
  5
2A2
100
AcDbEntity
  8
ASSI
100
AcDbPolyline
 62
7
  6
CONTINUOUS
 90
8
 70
0
 10
-5.0399132527
 20
-26.537939622
 10
-5.0264132226
 20
-26.5380461816
 10
-5.01353221
 20
-26.5392462915
 10
-5.001270215
 20
-26.5415399516
 10
-4.9895902137
 20
-26.5449439846
 10
-4.9785292299
 20
-26.5494415679
 10
-4.968198335
 20
-26.5549822333
 10
-4.9620632467
 20
-26.5590154899
  0
LWPOLYLINE
  5
2A3
100
AcDbEntity
  8
0
100
AcDbPolyline
 62
7
  6
CONTINUOUS
 90
10
 70
0
 10
-4.5185381041
 20
-26.0025829325
 10
-4.5407335281
 20
-25.9920263445
 10
-4.5639209558
 20
-25.983205558
 10
-4.5881003872
 20
-25.9761205729
 10
-4.6133176138
 20
-25.970765065
 10
-4.6395268442
 20
-25.9671453585
 10
-4.6665907038
 20
-25.9652804261
 10
-4.6944634012
 20
-25.9651765918
 10
-4.7231907279
 20
-25.9668275314
 10
-4.7527726838
 20
-25.9702332451
  0
LWPOLYLINE
  5
2A4
100
AcDbEntity
  8
0
100
AcDbPolyline
 62
7
  6
CONTINUOUS
 90
8
 70
0
 10
-4.8206565704
 20
-26.6590051012
 10
-4.8267694413
 20
-26.6549868265
 10
-4.8371047854
 20
-26.6494398659
 10
-4.8481579505
 20
-26.6449456658
 10
-4.8598301898
 20
-26.6415443896
 10
-4.8720885876
 20
-26.6392494249
 10
-4.8849660596
 20
-26.6380473841
 10
-4.8984626058
 20
-26.6379382671
  0
LWPOLYLINE
  5
2A5
100
AcDbEntity
  8
0
100
AcDbPolyline
 62
7
  6
CONTINUOUS
 90
3
 70
0
 10
-4.4925755899
 20
-26.0200093986
 10
-4.4999453367
 20
-26.0148759566
 10
-4.5185381041
 20
-26.0025829325
  0
LINE
  5
2A6
100
AcDbEntity
  8
0
100
AcDbLine
 62
7
  6
CONTINUOUS
 10
-4.8984626058
 20
-26.6379382671
 11
-5.0399162386
 21
-26.5379393438
  0
LINE
  5
2A7
100
AcDbEntity
  8
0
100
AcDbLine
 62
7
  6
CONTINUOUS
 10
-3.2461769675
 20
-30.4552312384
 11
-3.3875983237
 21
-30.3552312384
  0
LINE
  5
2A8
100
AcDbEntity
  8
0
100
AcDbLine
 62
7
  6
CONTINUOUS
 10
-3.7512067727
 20
-29.2440491084
 11
-3.892628129
 21
-29.1440491084
  0
LINE
  5
2A9
100
AcDbEntity
  8
0
100
AcDbLine
 62
7
  6
CONTINUOUS
 10
-3.2461769675
 20
-29.5935791991
 11
-3.3875983237
 21
-29.4935791991
  0
LINE
  5
2AA
100
AcDbEntity
  8
0
100
AcDbLine
 62
7
  6
CONTINUOUS
 10
-4.2238440163
 20
-28.8174206469
 11
-4.3652653726
 21
-28.7174206469
  0
LINE
  5
2AB
100
AcDbEntity
  8
0
100
AcDbLine
 62
7
  6
CONTINUOUS
 10
-5.4213887472
 20
-27.9098100121
 11
-5.5628101035
 21
-27.8098100121
  0
LINE
  5
2AC
100
AcDbEntity
  8
0
100
AcDbLine
 62
250
  6
CONTINUOUS
 10
-5.4213887472
 20
-27.3211874574
 11
-5.5628101035
 21
-27.2211874574
  0
LINE
  5
2AD
100
AcDbEntity
  8
0
100
AcDbLine
 62
7
  6
CONTINUOUS
 10
-3.7512067727
 20
-28.2922954018
 11
-3.892628129
 21
-28.1922954018
  0
LINE
  5
2AE
100
AcDbEntity
  8
0
100
AcDbLine
 62
7
  6
CONTINUOUS
 10
-5.3709040235
 20
-27.0814756574
 11
-5.5123253944
 21
-26.9814756956
  0
LINE
  5
2AF
100
AcDbEntity
  8
0
100
AcDbLine
 62
7
  6
CONTINUOUS
 10
-5.272581702
 20
-26.9024617053
 11
-5.4139994361
 21
-26.8024568045
  0
LINE
  5
2B0
100
AcDbEntity
  8
0
100
AcDbLine
 62
250
  6
CONTINUOUS
 10
-5.0962886264
 20
-26.7258204328
 11
-5.2377099827
 21
-26.6258204328
  0
LINE
  5
2B1
100
AcDbEntity
  8
0
100
AcDbLine
 62
250
  6
CONTINUOUS
 10
-5.074784095
 20
-26.7106144328
 11
-5.2162054512
 21
-26.6106144328
  0
LINE
  5
2B2
100
AcDbEntity
  8
0
100
AcDbLine
 62
7
  6
CONTINUOUS
 10
-4.2962856919
 20
-27.1142420121
 11
-4.4377070481
 21
-27.0142420121
  0
LINE
  5
2B3
100
AcDbEntity
  8
ASSI
100
AcDbLine
 62
7
  6
CONTINUOUS
 10
-4.9621035173
 20
-26.5589870003
 11
-4.820682161
 21
-26.6589870003
  0
LINE
  5
2B4
100
AcDbEntity
  8
0
100
AcDbLine
 62
7
  6
CONTINUOUS
 10
-3.2461769675
 20
-27.7719773785
 11
-3.3875983237
 21
-27.6719773785
  0
LINE
  5
2B5
100
AcDbEntity
  8
0
100
AcDbLine
 62
7
  6
CONTINUOUS
 10
-4.2962856919
 20
-26.6676171057
 11
-4.4377070481
 21
-26.5676171057
  0
LINE
  5
2B6
100
AcDbEntity
  8
0
100
AcDbLine
 62
7
  6
CONTINUOUS
 10
-3.2461769675
 20
-26.9415179407
 11
-3.3875983237
 21
-26.8415179407
  0
LINE
  5
2B7
100
AcDbEntity
  8
0
100
AcDbLine
 62
7
  6
CONTINUOUS
 10
-4.3676808493
 20
-26.1355462342
 11
-4.5091022056
 21
-26.0355462342
  0
LINE
  5
2B8
100
AcDbEntity
  8
DRAFT
100
AcDbLine
 62
7
  6
CONTINUOUS
 10
-22.8042672799
 20
-7.1654776652
 11
-22.8042672799
 21
-0.7543818068
  0
LINE
  5
2B9
100
AcDbEntity
  8
RACCORDO
100
AcDbLine
 62
250
  6
CONTINUOUS
 10
-22.5289167591
 20
0.1243210921
 11
-22.5289167591
 21
-0.5538272855
  0
LINE
  5
2BA
100
AcDbEntity
  8
RACCORDO
100
AcDbLine
 62
250
  6
CONTINUOUS
 10
-22.5289167591
 20
-10.2701485914
 11
-22.5289167591
 21
-10.9482969689
  0
LINE
  5
2BB
100
AcDbEntity
  8
RACCORDO
100
AcDbLine
 62
250
  6
CONTINUOUS
 10
-22.453114146
 20
0.2171931205
 11
-22.453114146
 21
-0.4591363188
  0
LINE
  5
2BC
100
AcDbEntity
  8
RACCORDO
100
AcDbLine
 62
250
  6
CONTINUOUS
 10
-22.453114146
 20
-10.1772765629
 11
-22.453114146
 21
-10.8536060023
  0
LINE
  5
2BD
100
AcDbEntity
  8
DRAFT
100
AcDbLine
 62
7
  6
CONTINUOUS
 10
-22.1612833642
 20
-32.0792722058
 11
-22.1612833642
 21
-33.2603919456
  0
LINE
  5
2BE
100
AcDbEntity
  8
DRAFT
100
AcDbLine
 62
7
  6
CONTINUOUS
 10
-22.1612833642
 20
2.617092526
 11
-22.1612833642
 21
3.7982122658
  0
LINE
  5
2BF
100
AcDbEntity
  8
DRAFT
100
AcDbLine
 62
7
  6
CONTINUOUS
 10
-21.7016639564
 20
-27.5963225025
 11
-21.7016639564
 21
-28.4802059789
  0
LINE
  5
2C0
100
AcDbEntity
  8
RACCORDO
100
AcDbLine
 62
250
  6
CONTINUOUS
 10
-21.6299460303
 20
-8.6643027931
 11
-21.6299460303
 21
-8.0219668893
  0
LINE
  5
2C1
100
AcDbEntity
  8
RACCORDO
100
AcDbLine
 62
250
  6
CONTINUOUS
 10
-21.6299460303
 20
1.7301668904
 11
-21.6299460303
 21
2.3725027942
  0
LINE
  5
2C2
100
AcDbEntity
  8
RACCORDO
100
AcDbLine
 62
7
  6
CONTINUOUS
 10
-21.6197237782
 20
-8.6090155764
 11
-21.6197237782
 21
-7.9674464847
  0
LINE
  5
2C3
100
AcDbEntity
  8
RACCORDO
100
AcDbLine
 62
7
  6
CONTINUOUS
 10
-21.6197237782
 20
1.785454107
 11
-21.6197237782
 21
2.4270231987
  0
LINE
  5
2C4
100
AcDbEntity
  8
COPY-PUBBLISH
100
AcDbLine
 62
7
  6
CONTINUOUS
 10
-20.7470698018
 20
-32.1158661507
 11
-20.7470698018
 21
-32.1862761534
  0
LINE
  5
2C5
100
AcDbEntity
  8
DRAFT
100
AcDbLine
 62
7
  6
CONTINUOUS
 10
-20.252095055
 20
-28.5859671634
 11
-20.252095055
 21
-29.5052059789
  0
LINE
  5
2C6
100
AcDbEntity
  8
COPY-PUBBLISH
100
AcDbLine
 62
7
  6
CONTINUOUS
 10
-19.4035669176
 20
-30.1052059789
 11
-19.4035669176
 21
-31.1541415787
  0
LINE
  5
2C7
100
AcDbEntity
  8
RACCORDO
100
AcDbLine
 62
7
  6
CONTINUOUS
 10
-22.453114146
 20
-0.4591363188
 11
-21.6299460303
 21
1.7301668904
  0
LINE
  5
2C8
100
AcDbEntity
  8
RACCORDO
100
AcDbLine
 62
7
  6
CONTINUOUS
 10
-22.453114146
 20
0.2171931205
 11
-21.6299460303
 21
2.3725027942
  0
LWPOLYLINE
  5
2C9
100
AcDbEntity
  8
RACCORDO
100
AcDbPolyline
 62
250
  6
CONTINUOUS
 90
8
 70
0
 10
2.3861125852
 20
32.8201629852
 10
2.3977906704
 20
32.8307462441
 10
2.4115792658
 20
32.8476762753
 10
2.4228109304
 20
32.8673720935
 10
2.4314003169
 20
32.8896840341
 10
2.4372821561
 20
32.9144425526
 10
2.4404117532
 20
32.9414595137
 10
2.4407653267
 20
32.9705296206
  0
LINE
  5
2CA
100
AcDbEntity
  8
RACCORDO
100
AcDbLine
 62
7
  6
CONTINUOUS
 10
-33.0829938587
 20
-0.3287408615
 11
-30.6774212254
 21
1.730783087
  0
LINE
  5
2CB
100
AcDbEntity
  8
RACCORDO
100
AcDbLine
 62
7
  6
CONTINUOUS
 10
-31.835693451
 20
-0.8405013736
 11
-29.7516164377
 21
0.9437750436
  0
LINE
  5
2CC
100
AcDbEntity
  8
RACCORDO
100
AcDbLine
 62
7
  6
CONTINUOUS
 10
-0.1277907959
 20
26.3994932312
 11
-0.0459984006
 21
26.458341245
  0
LINE
  5
2CD
100
AcDbEntity
  8
RACCORDO
100
AcDbLine
 62
7
  6
CONTINUOUS
 10
-28.8787977855
 20
4.231756462
 11
-27.8273938548
 21
4.9883016128
  0
LINE
  5
2CE
100
AcDbEntity
  8
RACCORDO
100
AcDbLine
 62
7
  6
CONTINUOUS
 10
-0.0459984006
 20
27.8486153407
 11
-0.1295561077
 21
27.7885551584
  0
LINE
  5
2CF
100
AcDbEntity
  8
RACCORDO
100
AcDbLine
 62
7
  6
CONTINUOUS
 10
-0.0459984006
 20
25.3030309284
 11
-1.5829106101
 21
24.1983186203
  0
LINE
  5
2D0
100
AcDbEntity
  8
RACCORDO
100
AcDbLine
 62
7
  6
CONTINUOUS
 10
-0.4506641561
 20
26.4899063923
 11
-1.7922313975
 21
25.5412750985
  0
LINE
  5
2D1
100
AcDbEntity
  8
0
100
AcDbLine
 62
7
  6
CONTINUOUS
 10
-30.8604226001
 20
4.4372804199
 11
-28.8787977855
 21
5.8244191649
  0
LINE
  5
2D2
100
AcDbEntity
  8
RACCORDO
100
AcDbLine
 62
7
  6
CONTINUOUS
 10
-29.0946325983
 20
4.0843747217
 11
-28.8787977855
 21
4.231756462
  0
LINE
  5
2D3
100
AcDbEntity
  8
0
100
AcDbLine
 62
7
  6
CONTINUOUS
 10
-3.2461769675
 20
-25.3806136623
 11
-3.3875983237
 21
-25.2806136623
  0
LINE
  5
2D4
100
AcDbEntity
  8
RACCORDO
100
AcDbLine
 62
250
  6
CONTINUOUS
 10
-36.8771914748
 20
0.8601176783
 11
-33.6769521822
 21
-1.4027932268
  0
LINE
  5
2D5
100
AcDbEntity
  8
RACCORDO
100
AcDbLine
 62
250
  6
CONTINUOUS
 10
-15.8346520966
 20
-14.0192046094
 11
-12.6344128041
 21
-16.2821155145
  0
LINE
  5
2D6
100
AcDbEntity
  8
RACCORDO
100
AcDbLine
 62
250
  6
CONTINUOUS
 10
-36.2985177296
 20
1.9449778726
 11
-33.0829938587
 21
-0.3287408615
  0
LINE
  5
2D7
100
AcDbEntity
  8
RACCORDO
100
AcDbLine
 62
250
  6
CONTINUOUS
 10
-15.2610732108
 20
-12.9307418054
 11
-12.04554934
 21
-15.2044605396
  0
LWPOLYLINE
  5
2D8
100
AcDbEntity
  8
0
100
AcDbPolyline
 62
7
  6
CONTINUOUS
 90
23
 70
0
 10
1.6610155995
 20
-28.6354896357
 10
1.6784701468
 20
-28.6504916564
 10
1.8135352549
 20
-28.754538317
 10
1.9581167842
 20
-28.8454428058
 10
2.1115450906
 20
-28.9227782471
 10
2.2741080746
 20
-28.9865520512
 10
2.4455178356
 20
-29.0367568078
 10
2.624241028
 20
-29.0729434105
 10
2.8100666652
 20
-29.0949731487
 10
3.0032057338
 20
-29.1029847329
 10
3.2027578482
 20
-29.0969451877
 10
3.4090348706
 20
-29.0767481689
 10
3.6217249388
 20
-29.0425000206
 10
3.8389920801
 20
-28.9944868001
 10
4.0606211166
 20
-28.9326675252
 10
4.2868272263
 20
-28.857083178
 10
4.5164199704
 20
-28.7681427622
 10
4.7496137837
 20
-28.6656891319
 10
4.9861942315
 20
-28.549879433
 10
5.2243275701
 20
-28.4215941071
 10
5.4634025518
 20
-28.2811266347
 10
5.7040304244
 20
-28.1281835353
 10
5.946211188
 20
-27.9627648089
  0
LWPOLYLINE
  5
2D9
100
AcDbEntity
  8
0
100
AcDbPolyline
 62
7
  6
CONTINUOUS
 90
4
 70
0
 10
-4.8001690819
 20
-26.6779041076
 10
-4.8083180474
 20
-26.6692122535
 10
-4.8171848338
 20
-26.6615731598
 10
-4.8206565704
 20
-26.6590051012
  0
LWPOLYLINE
  5
2DA
100
AcDbEntity
  8
RACCORDO
100
AcDbPolyline
 62
7
  6
CONTINUOUS
 90
11
 70
0
 10
-34.3564606963
 20
4.1898049169
 10
-34.3815419328
 20
4.2166757175
 10
-34.4032758262
 20
4.2460448953
 10
-34.421736849
 20
4.2778089307
 10
-34.4371002838
 20
4.3115719148
 10
-34.4495906423
 20
4.3466608409
 10
-34.4593432145
 20
4.382817294
 10
-34.4665229739
 20
4.419959774
 10
-34.4713287493
 20
4.4577306763
 10
-34.4738876745
 20
4.4959868334
 10
-34.474411606
 20
4.5236144958
  0
LWPOLYLINE
  5
2DB
100
AcDbEntity
  8
ASSI
100
AcDbPolyline
 62
7
  6
CONTINUOUS
 90
4
 70
0
 10
-4.5091022056
 20
-26.0355462342
 10
-4.5240032249
 20
-26.0183183043
 10
-4.5393732933
 20
-26.0017005728
 10
-4.553902778
 20
-25.9870165977
  0
LWPOLYLINE
  5
2DC
100
AcDbEntity
  8
0
100
AcDbPolyline
 62
7
  6
CONTINUOUS
 90
9
 70
0
 10
-4.3676808493
 20
-26.1355462342
 10
-4.3825817111
 20
-26.1183184804
 10
-4.3979516124
 20
-26.1017009122
 10
-4.4137905532
 20
-26.0856935295
 10
-4.4301035676
 20
-26.0702918955
 10
-4.4468856216
 20
-26.055500447
 10
-4.4641216125
 20
-26.0413324954
 10
-4.4818065061
 20
-26.0277924776
 10
-4.4925755899
 20
-26.0200093986
  0
LINE
  5
2DD
100
AcDbEntity
  8
ASSI
100
AcDbLine
 62
7
  6
CONTINUOUS
 10
-17.3256190977
 20
-23.065154019
 11
-17.3144659726
 21
-23.1050199525
  0
LWPOLYLINE
  5
2DE
100
AcDbEntity
  8
RACCORDO
100
AcDbPolyline
 62
250
  6
CONTINUOUS
 90
10
 70
0
 10
-12.6344128041
 20
-39.9915009978
 10
-12.6311079216
 20
-40.034771449
 10
-12.6248429615
 20
-40.0756751718
 10
-12.6156443003
 20
-40.1140419955
 10
-12.6035505234
 20
-40.1497112942
 10
-12.5886122747
 20
-40.1825363871
 10
-12.5708907952
 20
-40.2123838429
 10
-12.5504556612
 20
-40.2391322154
 10
-12.5273931706
 20
-40.2626654055
 10
-12.5042126021
 20
-40.2811962
  0
LINE
  5
2DF
100
AcDbEntity
  8
RACCORDO
100
AcDbLine
 62
250
  6
CONTINUOUS
 10
-19.2296850997
 20
29.8027938025
 11
-19.2296850997
 21
30.8634539743
  0
LINE
  5
2E0
100
AcDbEntity
  8
DRAFT
100
AcDbLine
 62
7
  6
CONTINUOUS
 10
-18.4136174239
 20
-29.8859671634
 11
-18.4136174239
 21
-30.8052059789
  0
LINE
  5
2E1
100
AcDbEntity
  8
DRAFT
100
AcDbLine
 62
7
  6
CONTINUOUS
 10
-17.9186426771
 20
0.7982122658
 11
-17.9186426771
 21
-0.382907474
  0
LINE
  5
2E2
100
AcDbEntity
  8
DRAFT
100
AcDbLine
 62
7
  6
CONTINUOUS
 10
-17.9186426771
 20
-36.2603919456
 11
-17.9186426771
 21
-35.0792722058
  0
LINE
  5
2E3
100
AcDbEntity
  8
COPY-PUBBLISH
100
AcDbLine
 62
7
  6
CONTINUOUS
 10
-17.6947860707
 20
-32.3624321031
 11
-17.6947860707
 21
-32.3741566751
  0
LINE
  5
2E4
100
AcDbEntity
  8
COPY-PUBBLISH
100
AcDbLine
 62
7
  6
CONTINUOUS
 10
-16.8697070773
 20
-32.9458510543
 11
-16.8697070773
 21
-32.9575756263
  0
LINE
  5
2E5
100
AcDbEntity
  8
DRAFT
100
AcDbLine
 62
7
  6
CONTINUOUS
 10
-16.1508757241
 20
-31.4859671634
 11
-16.1508757241
 21
-32.4052059789
  0
LINE
  5
2E6
100
AcDbEntity
  8
DRAFT
100
AcDbLine
 62
7
  6
CONTINUOUS
 10
-15.5964794114
 20
-2.9328745695
 11
-15.5964794114
 21
-2.0249248662
  0
LINE
  5
2E7
100
AcDbEntity
  8
RACCORDO
100
AcDbLine
 62
7
  6
CONTINUOUS
 10
-22.453114146
 20
-10.8536060023
 11
-21.6299460303
 21
-8.6643027931
  0
LINE
  5
2E8
100
AcDbEntity
  8
RACCORDO
100
AcDbLine
 62
7
  6
CONTINUOUS
 10
-22.453114146
 20
-10.1772765629
 11
-21.6299460303
 21
-8.0219668893
  0
LWPOLYLINE
  5
2E9
100
AcDbEntity
  8
RACCORDO
100
AcDbPolyline
 62
250
  6
CONTINUOUS
 90
5
 70
0
 10
0.0857059414
 20
36.1443299231
 10
0.1040015994
 20
36.1781291066
 10
0.124863799
 20
36.2111765674
 10
0.1479355822
 20
36.2429068544
 10
0.1728221844
 20
36.2727770536
  0
LINE
  5
2EA
100
AcDbEntity
  8
DRAFT
100
AcDbLine
 62
7
  6
CONTINUOUS
 10
-32.2002128094
 20
-3.4492081349
 11
-22.915167641
 21
3.1501692104
  0
LINE
  5
2EB
100
AcDbEntity
  8
ASSI
100
AcDbLine
 62
7
  6
CONTINUOUS
 10
-25.3925279483
 20
3.9939777798
 11
-25.7675279483
 21
3.7288127368
  0
LINE
  5
2EC
100
AcDbEntity
  8
DRAFT
100
AcDbLine
 62
7
  6
CONTINUOUS
 10
-23.8358264368
 20
3.801173288
 11
-24.4834466299
 21
3.3511602149
  0
LINE
  5
2ED
100
AcDbEntity
  8
DRAFT
100
AcDbLine
 62
7
  6
CONTINUOUS
 10
-30.6774212254
 20
2.0843364776
 11
-31.0371459134
 21
1.8387002438
  0
LWPOLYLINE
  5
2EE
100
AcDbEntity
  8
RACCORDO
100
AcDbPolyline
 62
7
  6
CONTINUOUS
 90
13
 70
0
 10
-9.9631967428
 20
-13.0586740125
 10
-9.9309764621
 20
-13.0723540555
 10
-9.8980998548
 20
-13.0817312083
 10
-9.8645336761
 20
-13.0867974579
 10
-9.8305271938
 20
-13.0878845768
 10
-9.7966275283
 20
-13.0856165534
 10
-9.7629648837
 20
-13.0801965409
 10
-9.7294909836
 20
-13.0717533996
 10
-9.6964861685
 20
-13.0607285154
 10
-9.6639980044
 20
-13.0472812963
 10
-9.6320040606
 20
-13.0315226097
 10
-9.6006999093
 20
-13.0137470095
 10
-9.5691356047
 20
-12.9934165001
  0
LINE
  5
2EF
100
AcDbEntity
  8
RACCORDO
100
AcDbLine
 62
7
  6
CONTINUOUS
 10
-9.9946017318
 20
-13.0405715925
 11
-9.9631967428
 21
-13.0586740125
  0
LINE
  5
2F0
100
AcDbEntity
  8
RACCORDO
100
AcDbLine
 62
7
  6
CONTINUOUS
 10
-21.7268874953
 20
-7.8054790921
 11
-22.8042672799
 21
-7.1654776652
  0
LINE
  5
2F1
100
AcDbEntity
  8
DRAFT
100
AcDbLine
 62
250
  6
CONTINUOUS
 10
-19.1560795442
 20
-10.2127648089
 11
-17.8887316737
 21
-10.9980365108
  0
LWPOLYLINE
  5
2F2
100
AcDbEntity
  8
RACCORDO
100
AcDbPolyline
 62
7
  6
CONTINUOUS
 90
25
 70
0
 10
-9.6348770438
 20
-13.148579936
 10
-9.60567014
 20
-13.1686562876
 10
-9.5753767648
 20
-13.1886987697
 10
-9.5441654822
 20
-13.2084695831
 10
-9.5120847316
 20
-13.2276114523
 10
-9.4793618494
 20
-13.2460380044
 10
-9.4464068387
 20
-13.2639449863
 10
-9.4133464565
 20
-13.2811627618
 10
-9.3802263237
 20
-13.2975135636
 10
-9.3473215189
 20
-13.3132157232
 10
-9.3147053693
 20
-13.328155217
 10
-9.282409706
 20
-13.3421832622
 10
-9.2506468089
 20
-13.3554908338
 10
-9.2194583728
 20
-13.3679920451
 10
-9.18886474
 20
-13.3795707819
 10
-9.1590503811
 20
-13.3903863453
 10
-9.1300339192
 20
-13.4003714861
 10
-9.1018284364
 20
-13.4094356596
 10
-9.0746131072
 20
-13.4177109175
 10
-9.0483921866
 20
-13.4251444578
 10
-9.0231660987
 20
-13.431667495
 10
-8.9991067486
 20
-13.4373947913
 10
-8.9762644427
 20
-13.4423353599
 10
-8.9545663232
 20
-13.4463933626
 10
-8.933994468
 20
-13.4495341423
  0
LINE
  5
2F3
100
AcDbEntity
  8
RACCORDO
100
AcDbLine
 62
7
  6
CONTINUOUS
 10
-10.0007730292
 20
-13.0362616742
 11
-13.285420815
 21
-10.713664951
  0
LINE
  5
2F4
100
AcDbEntity
  8
RACCORDO
100
AcDbLine
 62
7
  6
CONTINUOUS
 10
-31.0371459134
 20
1.8387002438
 11
-34.3217936992
 21
4.161296967
  0
LINE
  5
2F5
100
AcDbEntity
  8
RACCORDO
100
AcDbLine
 62
7
  6
CONTINUOUS
 10
-9.6399767066
 20
-13.144936591
 11
-9.7397970965
 21
-13.0743529165
  0
LINE
  5
2F6
100
AcDbEntity
  8
RACCORDO
100
AcDbLine
 62
7
  6
CONTINUOUS
 10
-30.6774212254
 20
1.730783087
 11
-30.9317849916
 21
1.910645431
  0
LINE
  5
2F7
100
AcDbEntity
  8
DRAFT
100
AcDbLine
 62
250
  6
CONTINUOUS
 10
5.946211188
 20
-27.9627648089
 11
4.6788633176
 21
-26.9557359642
  0
LINE
  5
2F8
100
AcDbEntity
  8
RACCORDO
100
AcDbLine
 62
7
  6
CONTINUOUS
 10
-34.3279649966
 20
4.1657145812
 11
-34.3564606963
 21
4.1898049169
  0
LWPOLYLINE
  5
2F9
100
AcDbEntity
  8
RACCORDO
100
AcDbPolyline
 62
250
  6
CONTINUOUS
 90
22
 70
0
 10
-11.9338054145
 20
-39.982073912
 10
-11.9321294291
 20
-40.0037598543
 10
-11.9289921971
 20
-40.0241409937
 10
-11.9243937185
 20
-40.0432173302
 10
-11.918303374
 20
-40.0610672394
 10
-11.910751783
 20
-40.0776123458
 10
-11.9018308029
 20
-40.0926175222
 10
-11.8915208552
 20
-40.106056042
 10
-11.8798415184
 20
-40.1179546318
 10
-11.8669433865
 20
-40.1281583446
 10
-11.852813272
 20
-40.1366427607
 10
-11.8374643623
 20
-40.1434322997
 10
-11.8210868127
 20
-40.1484452727
 10
-11.8036662073
 20
-40.1516596758
 10
-11.785216962
 20
-40.153097513
 10
-11.7659724795
 20
-40.1527431071
 10
-11.7459159738
 20
-40.1505701079
 10
-11.725064231
 20
-40.1466048656
 10
-11.7037010114
 20
-40.1409107539
 10
-11.6819209019
 20
-40.1335088971
 10
-11.6596293157
 20
-40.1243781708
 10
-11.6368262528
 20
-40.113518575
  0
LINE
  5
2FA
100
AcDbEntity
  8
0
100
AcDbLine
 62
7
  6
CONTINUOUS
 10
-14.312398093
 20
-4.3711872632
 11
-14.312398093
 21
-3.8408571773
  0
LINE
  5
2FB
100
AcDbEntity
  8
0
100
AcDbLine
 62
7
  6
CONTINUOUS
 10
-13.285420815
 20
-10.713664951
 11
-13.285420815
 21
-8.4125091915
  0
LWPOLYLINE
  5
2FC
100
AcDbEntity
  8
RACCORDO
100
AcDbPolyline
 62
250
  6
CONTINUOUS
 90
10
 70
0
 10
-12.6344128041
 20
-16.2821155145
 10
-12.7284248611
 20
-18.9797446025
 10
-12.7989401192
 20
-21.6620374663
 10
-12.8459532506
 20
-24.3287878181
 10
-12.8694607038
 20
-26.9797905628
 10
-12.8694607037
 20
-29.6148418867
 10
-12.8459532505
 20
-32.2337392713
 10
-12.798940119
 20
-34.8362814131
 10
-12.728424861
 20
-37.4222682397
 10
-12.6344128041
 20
-39.9915009978
  0
LWPOLYLINE
  5
2FD
100
AcDbEntity
  8
RACCORDO
100
AcDbPolyline
 62
250
  6
CONTINUOUS
 90
10
 70
0
 10
-11.9338054145
 20
-16.3005818234
 10
-12.0277146012
 20
-18.9953704299
 10
-12.0981464994
 20
-21.6744341109
 10
-12.1451011092
 20
-24.3377728664
 10
-12.1685784416
 20
-26.9855906983
 10
-12.1685784855
 20
-29.6176836048
 10
-12.145101208
 20
-32.2334395799
 10
-12.0981465982
 20
-34.8326546219
 10
-12.0277146671
 20
-37.4155327326
 10
-11.9338054145
 20
-39.982073912
  0
LWPOLYLINE
  5
2FE
100
AcDbEntity
  8
RACCORDO
100
AcDbPolyline
 62
250
  6
CONTINUOUS
 90
3
 70
0
 10
0.0580171547
 20
36.0767926089
 10
0.0702898687
 20
36.1103573303
 10
0.0857059414
 20
36.1443299231
  0
LWPOLYLINE
  5
2FF
100
AcDbEntity
  8
RACCORDO
100
AcDbPolyline
 62
250
  6
CONTINUOUS
 90
3
 70
0
 10
-0.2251662799
 20
16.624509509
 10
-0.197951256
 20
16.6491668418
 10
-0.1702624693
 20
16.6705605896
  0
LINE
  5
300
100
AcDbEntity
  8
RACCORDO
100
AcDbLine
 62
7
  6
CONTINUOUS
 10
-22.5289167591
 20
-0.5538272855
 11
-28.8787977855
 21
-5.1788316122
  0
LINE
  5
301
100
AcDbEntity
  8
RACCORDO
100
AcDbLine
 62
7
  6
CONTINUOUS
 10
-0.0459984006
 20
16.9150522104
 11
-0.1550520428
 21
16.8365818891
  0
LINE
  5
302
100
AcDbEntity
  8
RACCORDO
100
AcDbLine
 62
7
  6
CONTINUOUS
 10
-28.8787977855
 20
-4.3888783841
 11
-22.5289167591
 21
0.1243210921
  0
LINE
  5
303
100
AcDbEntity
  8
ASSI
100
AcDbLine
 62
7
  6
CONTINUOUS
 10
6.1937148248
 20
21.4495606055
 11
6.3351361811
 21
21.5495606055
  0
LINE
  5
304
100
AcDbEntity
  8
RACCORDO
100
AcDbLine
 62
250
  6
CONTINUOUS
 10
-0.1702624693
 20
16.6705605896
 11
-0.0459984006
 21
16.7584285552
  0
LINE
  5
305
100
AcDbEntity
  8
ASSI
100
AcDbLine
 62
7
  6
CONTINUOUS
 10
5.9060857066
 20
20.8067023372
 11
6.0475070628
 21
20.9067023372
  0
LINE
  5
306
100
AcDbEntity
  8
ASSI
100
AcDbLine
 62
7
  6
CONTINUOUS
 10
7.7086536269
 20
19.5320943372
 11
7.8500749831
 21
19.6320943372
  0
LINE
  5
307
100
AcDbEntity
  8
DRAFT
100
AcDbLine
 62
7
  6
CONTINUOUS
 10
-22.1612833642
 20
2.617092526
 11
-21.3209198486
 21
3.2039855253
  0
LINE
  5
308
100
AcDbEntity
  8
DRAFT
100
AcDbLine
 62
7
  6
CONTINUOUS
 10
-28.8787977855
 20
-5.1788316122
 11
-32.2933870498
 21
-7.5397545503
  0
LINE
  5
309
100
AcDbEntity
  8
DRAFT
100
AcDbLine
 62
7
  6
CONTINUOUS
 10
-32.2783788485
 20
-6.681106864
 11
-28.8787977855
 21
-4.3888783841
  0
LINE
  5
30A
100
AcDbEntity
  8
RACCORDO
100
AcDbLine
 62
7
  6
CONTINUOUS
 10
1.3782447257
 20
14.7867945664
 11
13.6722875504
 21
22.4785044815
  0
LINE
  5
30B
100
AcDbEntity
  8
RACCORDO
100
AcDbLine
 62
250
  6
CONTINUOUS
 10
1.6030343726
 20
14.6919814202
 11
11.404955345
 21
20.8245070511
  0
LWPOLYLINE
  5
30C
100
AcDbEntity
  8
RACCORDO
100
AcDbPolyline
 62
250
  6
CONTINUOUS
 90
31
 70
0
 10
-9.9946017318
 20
-10.9131876555
 10
-9.967980448
 20
-10.9288732217
 10
-9.9401465339
 20
-10.9409215618
 10
-9.9112861408
 20
-10.9493939114
 10
-9.8812611357
 20
-10.9545069415
 10
-9.8504320079
 20
-10.9561357623
 10
-9.8197379357
 20
-10.9538966855
 10
-9.7893094495
 20
-10.9475692364
 10
-9.7590837043
 20
-10.9374746529
 10
-9.7297952508
 20
-10.9241444874
 10
-9.7015568161
 20
-10.90762408
 10
-9.6743280111
 20
-10.8879013226
 10
-9.6487412616
 20
-10.8655237452
 10
-9.6248078877
 20
-10.8405692968
 10
-9.6027229382
 20
-10.8130072882
 10
-9.5834894122
 20
-10.7833222624
 10
-9.5679608116
 20
-10.7514179603
 10
-9.5556493184
 20
-10.717576122
 10
-9.5455765359
 20
-10.6829498507
 10
-9.5374633625
 20
-10.6480062484
 10
-9.5319600613
 20
-10.6126661299
 10
-9.5294378131
 20
-10.5773148872
 10
-9.5300042061
 20
-10.5420569537
 10
-9.5337835851
 20
-10.5072745889
 10
-9.5410479618
 20
-10.4737499332
 10
-9.5519583588
 20
-10.4417206235
 10
-9.566194685
 20
-10.4113790763
 10
-9.5831360797
 20
-10.3833189032
 10
-9.602396236
 20
-10.357766947
 10
-9.6238597923
 20
-10.3346609751
 10
-9.6472186986
 20
-10.3140512145
  0
LWPOLYLINE
  5
30D
100
AcDbEntity
  8
0
100
AcDbPolyline
 62
7
  6
CONTINUOUS
 90
9
 70
0
 10
-4.9415451874
 20
-13.7260430259
 10
-4.9346335703
 20
-13.7303488675
 10
-4.9218818401
 20
-13.7367722858
 10
-4.9080244336
 20
-13.741391211
 10
-4.8931117933
 20
-13.7443069305
 10
-4.8774052001
 20
-13.7455834807
 10
-4.8609917479
 20
-13.7452422072
 10
-4.8437843429
 20
-13.7432617644
 10
-4.825782985
 20
-13.7396421524
  0
LWPOLYLINE
  5
30E
100
AcDbEntity
  8
0
100
AcDbPolyline
 62
7
  6
CONTINUOUS
 90
14
 70
0
 10
-4.9516654859
 20
-10.4225445171
 10
-4.9429351164
 20
-10.4281668913
 10
-4.9312187408
 20
-10.4341790836
 10
-4.918703556
 20
-10.4390039268
 10
-4.9055016263
 20
-10.4425999176
 10
-4.891607021
 20
-10.4449564038
 10
-4.8770256709
 20
-10.4460840377
 10
-4.8618874332
 20
-10.4459732729
 10
-4.8461875513
 20
-10.4446133967
 10
-4.8299307818
 20
-10.4420151219
 10
-4.8132612517
 20
-10.4382010401
 10
-4.7962270034
 20
-10.433178682
 10
-4.7787799946
 20
-10.426940517
 10
-4.7609202253
 20
-10.4194865451
  0
LWPOLYLINE
  5
30F
100
AcDbEntity
  8
0
100
AcDbPolyline
 62
7
  6
CONTINUOUS
 90
9
 70
0
 10
-4.7855075198
 20
-11.4661799677
 10
-4.7793782556
 20
-11.4701534638
 10
-4.7702940608
 20
-11.4749079372
 10
-4.7606014846
 20
-11.478708994
 10
-4.7503060383
 20
-11.4815652715
 10
-4.7395015622
 20
-11.4834507353
 10
-4.728219336
 20
-11.4843567074
 10
-4.7164280798
 20
-11.4842918657
 10
-4.7041277937
 20
-11.4832562104
  0
LWPOLYLINE
  5
310
100
AcDbEntity
  8
0
100
AcDbPolyline
 62
7
  6
CONTINUOUS
 90
7
 70
0
 10
-4.7962501932
 20
-13.1448322092
 10
-4.7903554188
 20
-13.1486735752
 10
-4.7813641281
 20
-13.1534460649
 10
-4.7718207386
 20
-13.1573038211
 10
-4.7617507827
 20
-13.1602332897
 10
-4.751128728
 20
-13.1622480249
 10
-4.7399545743
 20
-13.1633480265
  0
LINE
  5
311
100
AcDbEntity
  8
0
100
AcDbLine
 62
7
  6
CONTINUOUS
 10
-5.1011605921
 20
-14.7267536116
 11
-5.2425819484
 21
-14.6267536116
  0
LINE
  5
312
100
AcDbEntity
  8
RACCORDO
100
AcDbLine
 62
250
  6
CONTINUOUS
 10
-34.1527178966
 20
6.3428980799
 11
-31.0371459134
 21
4.1398560033
  0
LINE
  5
313
100
AcDbEntity
  8
RACCORDO
100
AcDbLine
 62
250
  6
CONTINUOUS
 10
-13.285420815
 20
-8.4125091915
 11
-10.1698488318
 21
-10.6155512681
  0
LINE
  5
314
100
AcDbEntity
  8
RACCORDO
100
AcDbLine
 62
250
  6
CONTINUOUS
 10
-33.97902638
 20
6.6424663005
 11
-30.8604226001
 21
4.4372804199
  0
LINE
  5
315
100
AcDbEntity
  8
RACCORDO
100
AcDbLine
 62
250
  6
CONTINUOUS
 10
-13.1147610952
 20
-8.1107971669
 11
-9.9961573152
 21
-10.3159830475
  0
LINE
  5
316
100
AcDbEntity
  8
0
100
AcDbLine
 62
7
  6
CONTINUOUS
 10
-4.825782985
 20
-13.7396421524
 11
-4.9672048693
 21
-13.6396423887
  0
LINE
  5
317
100
AcDbEntity
  8
ASSI
100
AcDbLine
 62
7
  6
CONTINUOUS
 10
-4.9376792198
 20
-13.044826786
 11
-4.7962578636
 21
-13.144826786
  0
LINE
  5
318
100
AcDbEntity
  8
0
100
AcDbLine
 62
7
  6
CONTINUOUS
 10
-5.0132997461
 20
-12.9908758692
 11
-5.1547211024
 21
-12.8908758692
  0
LINE
  5
319
100
AcDbEntity
  8
0
100
AcDbLine
 62
7
  6
CONTINUOUS
 10
-4.8279663517
 20
-12.9181440009
 11
-4.9693877079
 21
-12.8181440009
  0
LINE
  5
31A
100
AcDbEntity
  8
0
100
AcDbLine
 62
7
  6
CONTINUOUS
 10
-3.2461769675
 20
-13.9107222459
 11
-3.3875983237
 21
-13.8107222459
  0
LINE
  5
31B
100
AcDbEntity
  8
0
100
AcDbLine
 62
7
  6
CONTINUOUS
 10
-3.609934616
 20
-13.1955980395
 11
-3.7513559723
 21
-13.0955980395
  0
LINE
  5
31C
100
AcDbEntity
  8
0
100
AcDbLine
 62
7
  6
CONTINUOUS
 10
-4.852146885
 20
-12.0896698921
 11
-4.9878956672
 21
-11.993681448
  0
LINE
  5
31D
100
AcDbEntity
  8
0
100
AcDbLine
 62
7
  6
CONTINUOUS
 10
-3.2461769675
 20
-12.6910546604
 11
-3.3875983237
 21
-12.5910556794
  0
LINE
  5
31E
100
AcDbEntity
  8
ASSI
100
AcDbLine
 62
7
  6
CONTINUOUS
 10
-4.9269329022
 20
-11.3661771209
 11
-4.7855115459
 21
-11.4661771209
  0
LINE
  5
31F
100
AcDbEntity
  8
0
100
AcDbLine
 62
7
  6
CONTINUOUS
 10
-3.43259673
 20
-12.2937719272
 11
-3.5740185413
 21
-12.1937721309
  0
LINE
  5
320
100
AcDbEntity
  8
0
100
AcDbLine
 62
7
  6
CONTINUOUS
 10
-4.8229006387
 20
-11.2687306626
 11
-4.964321995
 21
-11.1687306626
  0
LINE
  5
321
100
AcDbEntity
  8
RACCORDO
100
AcDbLine
 62
7
  6
CONTINUOUS
 10
-7.8423171973
 20
-9.0506189113
 11
-11.2011282558
 21
-6.6755808351
  0
LINE
  5
322
100
AcDbEntity
  8
RACCORDO
100
AcDbLine
 62
7
  6
CONTINUOUS
 10
-28.8787977855
 20
5.8244191649
 11
-32.237608844
 21
8.1994572411
  0
LINE
  5
323
100
AcDbEntity
  8
DRAFT
100
AcDbLine
 62
7
  6
CONTINUOUS
 10
-11.2011282558
 20
-6.5711872632
 11
-14.312398093
 21
-4.3711872632
  0
LINE
  5
324
100
AcDbEntity
  8
DRAFT
100
AcDbLine
 62
7
  6
CONTINUOUS
 10
-25.7675279483
 20
3.7288127368
 11
-28.8787977855
 21
5.9288127368
  0
LINE
  5
325
100
AcDbEntity
  8
0
100
AcDbLine
 62
7
  6
CONTINUOUS
 10
-3.5395110232
 20
-11.5023172958
 11
-3.6809323795
 21
-11.4023172958
  0
LINE
  5
326
100
AcDbEntity
  8
DRAFT
100
AcDbLine
 62
7
  6
CONTINUOUS
 10
-14.312398093
 20
-3.8408571773
 11
-15.5964794114
 21
-2.9328745695
  0
LINE
  5
327
100
AcDbEntity
  8
DRAFT
100
AcDbLine
 62
7
  6
CONTINUOUS
 10
-24.4834466299
 20
3.3511602149
 11
-25.7675279483
 21
4.2591428227
  0
LINE
  5
328
100
AcDbEntity
  8
0
100
AcDbLine
 62
7
  6
CONTINUOUS
 10
-4.1471109098
 20
-10.9663415891
 11
-4.288532266
 21
-10.8663415891
  0
LWPOLYLINE
  5
329
100
AcDbEntity
  8
ASSI
100
AcDbPolyline
 62
7
  6
CONTINUOUS
 90
7
 70
0
 10
-4.9376362061
 20
-13.0448571833
 10
-4.9401399764
 20
-13.0430265549
 10
-4.9548671935
 20
-13.0291104104
 10
-4.9670956766
 20
-13.0117204503
 10
-4.9764149339
 20
-12.9914405277
 10
-4.9827262104
 20
-12.9681725003
 10
-4.9861282612
 20
-12.9420145105
  0
LWPOLYLINE
  5
32A
100
AcDbEntity
  8
0
100
AcDbPolyline
 62
7
  6
CONTINUOUS
 90
20
 70
0
 10
-4.9339181327
 20
-12.0769596768
 10
-4.9387778657
 20
-12.0732703578
 10
-4.9456678932
 20
-12.0670802367
 10
-4.9520127736
 20
-12.0601769919
 10
-4.9579248418
 20
-12.05282163
 10
-4.963402559
 20
-12.0450860584
 10
-4.9684474639
 20
-12.0368983697
 10
-4.9731765079
 20
-12.0283038485
 10
-4.9775987132
 20
-12.0193204784
 10
-4.9817050577
 20
-12.0099302757
 10
-4.985585426
 20
-12.0001245743
 10
-4.9892448163
 20
-11.9899187508
 10
-4.9926782306
 20
-11.9792974285
 10
-4.995960559
 20
-11.9682058111
 10
-4.9990920156
 20
-11.9566475248
 10
-5.0020723864
 20
-11.9446189433
 10
-5.00497592
 20
-11.9320543926
 10
-5.007827366
 20
-11.918931981
 10
-5.0106019747
 20
-11.9052736002
 10
-5.0132997461
 20
-11.89107925
  0
LWPOLYLINE
  5
32B
100
AcDbEntity
  8
ASSI
100
AcDbPolyline
 62
7
  6
CONTINUOUS
 90
6
 70
0
 10
-4.9270131635
 20
-11.3661203034
 10
-4.9291607708
 20
-11.3644489103
 10
-4.9442114618
 20
-11.3502365398
 10
-4.9563271037
 20
-11.3327809609
 10
-4.9654010859
 20
-11.3119643827
 10
-4.9715400191
 20
-11.2879045963
  0
LINE
  5
32C
100
AcDbEntity
  8
0
100
AcDbLine
 62
7
  6
CONTINUOUS
 10
-5.896662792
 20
-14.5327335517
 11
-5.6284734534
 21
-14.9608143434
  0
LINE
  5
32D
100
AcDbEntity
  8
ASSI
100
AcDbLine
 62
7
  6
CONTINUOUS
 10
-5.2425819484
 20
-14.6267536116
 11
-5.4317997821
 21
-14.3247256026
  0
LINE
  5
32E
100
AcDbEntity
  8
0
100
AcDbLine
 62
7
  6
CONTINUOUS
 10
-5.1011605921
 20
-14.7267536116
 11
-5.3702748265
 21
-14.2971956001
  0
LINE
  5
32F
100
AcDbEntity
  8
0
100
AcDbLine
 62
7
  6
CONTINUOUS
 10
-5.896662792
 20
-12.8444913629
 11
-5.6351867252
 21
-13.2618568506
  0
LINE
  5
330
100
AcDbEntity
  8
0
100
AcDbLine
 62
7
  6
CONTINUOUS
 10
-5.0132997461
 20
-14.137463657
 11
-4.7399563062
 21
-14.5737722715
  0
LWPOLYLINE
  5
331
100
AcDbEntity
  8
RACCORDO
100
AcDbPolyline
 62
250
  6
CONTINUOUS
 90
19
 70
0
 10
-11.6368262528
 20
-15.7635556407
 10
-11.6435748499
 20
-15.7360135221
 10
-11.6529054218
 20
-15.7067521006
 10
-11.6647472458
 20
-15.6759932009
 10
-11.6790105585
 20
-15.6439700066
 10
-11.6955872416
 20
-15.6109252794
 10
-11.7143516447
 20
-15.5771095171
 10
-11.7351615279
 20
-15.5427790745
 10
-11.7578591374
 20
-15.5081942198
 10
-11.7822724093
 20
-15.4736171475
 10
-11.8082162742
 20
-15.4393099919
 10
-11.8354940494
 20
-15.4055328541
 10
-11.8638989291
 20
-15.3725418274
 10
-11.8932155742
 20
-15.3405870302
 10
-11.9232217243
 20
-15.3099107349
 10
-11.9536898694
 20
-15.2807455408
 10
-11.9843890103
 20
-15.2533125739
 10
-12.0150864107
 20
-15.2278198136
 10
-12.0455493391
 20
-15.2044605388
  0
LWPOLYLINE
  5
332
100
AcDbEntity
  8
RACCORDO
100
AcDbPolyline
 62
250
  6
CONTINUOUS
 90
22
 70
0
 10
-9.9946017318
 20
-10.9131876555
 10
-9.9956189123
 20
-10.9003871454
 10
-9.9976382789
 20
-10.8869771524
 10
-10.0006598316
 20
-10.8729576764
 10
-10.0047434355
 20
-10.8582237803
 10
-10.0098292255
 20
-10.8428804013
 10
-10.0157376055
 20
-10.8272423512
 10
-10.0224685755
 20
-10.8113096301
 10
-10.0300221354
 20
-10.795082238
 10
-10.0382186892
 20
-10.7788749866
 10
-10.0470582369
 20
-10.7626878761
 10
-10.0565407786
 20
-10.7465209063
 10
-10.0664867181
 20
-10.7306888893
 10
-10.0768960555
 20
-10.7151918249
 10
-10.0877687908
 20
-10.7000297131
 10
-10.0989253278
 20
-10.6855173659
 10
-10.1103656667
 20
-10.6716547833
 10
-10.1220898074
 20
-10.6584419651
 10
-10.1339181539
 20
-10.6461937233
 10
-10.1457908408
 20
-10.6350149952
 10
-10.1577677334
 20
-10.6248008434
 10
-10.1698488318
 20
-10.6155512681
  0
LWPOLYLINE
  5
333
100
AcDbEntity
  8
RACCORDO
100
AcDbPolyline
 62
250
  6
CONTINUOUS
 90
19
 70
0
 10
-9.2937191559
 20
-10.9175126809
 10
-9.2955872328
 20
-10.8861151605
 10
-9.3000834585
 20
-10.8530216847
 10
-9.3071736272
 20
-10.8184840171
 10
-9.3168037993
 20
-10.7827649085
 10
-9.3289007119
 20
-10.7461360975
 10
-9.3433723358
 20
-10.7088762433
 10
-9.3601085759
 20
-10.6712688062
 10
-9.3789821087
 20
-10.6335998905
 10
-9.3998493508
 20
-10.5961560683
 10
-9.4225515515
 20
-10.5592221992
 10
-9.4469160003
 20
-10.5230792634
 10
-9.4727573408
 20
-10.4880022238
 10
-9.4998789812
 20
-10.4542579345
 10
-9.5280745893
 20
-10.4221031103
 10
-9.5571296626
 20
-10.391782374
 10
-9.5868231603
 20
-10.3635263954
 10
-9.6169291843
 20
-10.337550136
 10
-9.6472186986
 20
-10.3140512145
  0
LWPOLYLINE
  5
334
100
AcDbEntity
  8
RACCORDO
100
AcDbPolyline
 62
7
  6
CONTINUOUS
 90
11
 70
0
 10
-7.4888176546
 20
-45.6485790443
 10
-7.4866339318
 20
-45.7150698057
 10
-7.4801609122
 20
-45.7778367027
 10
-7.4693985956
 20
-45.8368797354
 10
-7.4542274733
 20
-45.8924917366
 10
-7.4347670541
 20
-45.9443798734
 10
-7.4113758648
 20
-45.9916656478
 10
-7.3841018237
 20
-46.0341337574
 10
-7.3528970124
 20
-46.0719995046
 10
-7.3179762032
 20
-46.1050302977
 10
-7.2941143435
 20
-46.1233723714
  0
LINE
  5
335
100
AcDbEntity
  8
DRAFT
100
AcDbLine
 62
7
  6
CONTINUOUS
 10
-11.2011282558
 20
-6.6755808351
 11
-11.2011282558
 21
-6.5711872632
  0
LINE
  5
336
100
AcDbEntity
  8
RACCORDO
100
AcDbLine
 62
250
  6
CONTINUOUS
 10
-9.9946017318
 20
-10.9131876555
 11
-9.9946017318
 21
-13.0405715925
  0
LINE
  5
337
100
AcDbEntity
  8
RACCORDO
100
AcDbLine
 62
250
  6
CONTINUOUS
 10
-9.9946017318
 20
-39.6278942609
 11
-9.9946017318
 21
-41.7552781979
  0
LINE
  5
338
100
AcDbEntity
  8
RACCORDO
100
AcDbLine
 62
250
  6
CONTINUOUS
 10
-9.6348770438
 20
-13.0329377038
 11
-9.6348770438
 21
-13.148579936
  0
LINE
  5
339
100
AcDbEntity
  8
RACCORDO
100
AcDbLine
 62
250
  6
CONTINUOUS
 10
-9.6348770438
 20
-39.2233020839
 11
-9.6348770438
 21
-39.3822580271
  0
LINE
  5
33A
100
AcDbEntity
  8
RACCORDO
100
AcDbLine
 62
250
  6
CONTINUOUS
 10
-9.2937191559
 20
-10.9175126809
 11
-9.2937191559
 21
-12.6913970752
  0
LINE
  5
33B
100
AcDbEntity
  8
RACCORDO
100
AcDbLine
 62
250
  6
CONTINUOUS
 10
-9.2937191559
 20
-39.985718829
 11
-9.2937191559
 21
-41.7596032233
  0
LINE
  5
33C
100
AcDbEntity
  8
RACCORDO
100
AcDbLine
 62
250
  6
CONTINUOUS
 10
-8.933994468
 20
-12.4457608414
 11
-8.933994468
 21
-13.4495341423
  0
LINE
  5
33D
100
AcDbEntity
  8
RACCORDO
100
AcDbLine
 62
250
  6
CONTINUOUS
 10
-8.933994468
 20
-38.7363092944
 11
-8.933994468
 21
-39.7400825952
  0
LINE
  5
33E
100
AcDbEntity
  8
RACCORDO
100
AcDbLine
 62
7
  6
CONTINUOUS
 10
-7.4888176546
 20
-4.5636006355
 11
-7.4888176546
 21
-45.6485790443
  0
LWPOLYLINE
  5
33F
100
AcDbEntity
  8
RACCORDO
100
AcDbPolyline
 62
250
  6
CONTINUOUS
 90
31
 70
0
 10
-10.1698488318
 20
-10.6155512681
 10
-10.1696119181
 20
-10.6062346725
 10
-10.1689018119
 20
-10.5966080023
 10
-10.1677204167
 20
-10.5866970605
 10
-10.1660708989
 20
-10.5765284121
 10
-10.16395768
 20
-10.5661293129
 10
-10.161386424
 20
-10.5555276364
 10
-10.1583640231
 20
-10.544751799
 10
-10.1548985782
 20
-10.5338306839
 10
-10.1509993782
 20
-10.5227935639
 10
-10.1466768743
 20
-10.5116700225
 10
-10.1419426524
 20
-10.500489875
 10
-10.136809402
 20
-10.4892830883
 10
-10.1312908821
 20
-10.4780797008
 10
-10.1254018845
 20
-10.4669097417
 10
-10.1191581938
 20
-10.4558031508
 10
-10.1125765455
 20
-10.4447896977
 10
-10.1056745808
 20
-10.4338989028
 10
-10.0984707996
 20
-10.4231599573
 10
-10.0909845106
 20
-10.4126016456
 10
-10.08323578
 20
-10.402252268
 10
-10.0752453772
 20
-10.3921395646
 10
-10.0670347195
 20
-10.3822906413
 10
-10.0586258144
 20
-10.3727318968
 10
-10.0500412011
 20
-10.3634889522
 10
-10.0413038895
 20
-10.3545865819
 10
-10.0324372987
 20
-10.3460486477
 10
-10.0234651947
 20
-10.3378980344
 10
-10.0144116259
 20
-10.3301565887
 10
-10.0053008593
 20
-10.3228450605
 10
-9.9961573152
 20
-10.3159830475
  0
LWPOLYLINE
  5
340
100
AcDbEntity
  8
RACCORDO
100
AcDbPolyline
 62
250
  6
CONTINUOUS
 90
5
 70
0
 10
-0.3202624693
 20
16.502362538
 10
-0.2994002697
 20
16.5354099989
 10
-0.2763284865
 20
16.5671402859
 10
-0.2514418843
 20
16.5970104851
 10
-0.2251662799
 20
16.624509509
  0
LWPOLYLINE
  5
341
100
AcDbEntity
  8
RACCORDO
100
AcDbPolyline
 62
7
  6
CONTINUOUS
 90
25
 70
0
 10
0.6058938229
 20
11.0590735531
 10
0.5379765922
 20
11.0064920429
 10
0.4708995083
 20
10.9502420334
 10
0.4046625713
 20
10.8903235247
 10
0.3388928435
 20
10.8263402048
 10
0.2739632626
 20
10.7586883857
 10
0.2109926413
 20
10.6885570026
 10
0.1502283413
 20
10.616177552
 10
0.091423001
 20
10.5413185374
 10
0.0349533491
 20
10.4644744049
 10
-0.0193199735
 20
10.3854180937
 10
-0.0712576076
 20
10.3043766644
 10
-0.1200647471
 20
10.2225257457
 10
-0.1656716243
 20
10.1398472967
 10
-0.2081480069
 20
10.0563593581
 10
-0.2469083913
 20
9.9732916804
 10
-0.2818292006
 20
9.8908754052
 10
-0.3130340118
 20
9.8088793908
 10
-0.3403080529
 20
9.7278399623
 10
-0.3636992422
 20
9.6474740508
 10
-0.3831596614
 20
9.5680647252
 10
-0.3983307838
 20
9.4909975171
 10
-0.4090931003
 20
9.4167342703
 10
-0.4155661199
 20
9.3448131411
 10
-0.4177498427
 20
9.2752341294
  0
LINE
  5
342
100
AcDbEntity
  8
RACCORDO
100
AcDbLine
 62
7
  6
CONTINUOUS
 10
0.6058938229
 20
11.0590735531
 11
23.5646085894
 21
28.095072438
  0
LINE
  5
343
100
AcDbEntity
  8
RACCORDO
100
AcDbLine
 62
7
  6
CONTINUOUS
 10
22.4510141438
 20
28.882502622
 11
3.3142991977
 21
14.9224498026
  0
LINE
  5
344
100
AcDbEntity
  8
ASSI
100
AcDbLine
 62
7
  6
CONTINUOUS
 10
9.4539062999
 20
20.0312645798
 11
9.5953276562
 21
20.1312645798
  0
LWPOLYLINE
  5
345
100
AcDbEntity
  8
0
100
AcDbPolyline
 62
7
  6
CONTINUOUS
 90
10
 70
0
 10
-4.852146885
 20
-12.0896698921
 10
-4.8637663688
 20
-12.0918755126
 10
-4.8749099044
 20
-12.0930409569
 10
-4.8855774919
 20
-12.0931662251
 10
-4.8957991402
 20
-12.0922070125
 10
-4.9055448404
 20
-12.0902076238
 10
-4.9147245657
 20
-12.0873009725
 10
-4.9233013646
 20
-12.0834666505
 10
-4.9313121887
 20
-12.078725066
 10
-4.9339181327
 20
-12.0769596768
  0
LWPOLYLINE
  5
346
100
AcDbEntity
  8
0
100
AcDbPolyline
 62
7
  6
CONTINUOUS
 90
16
 70
0
 10
-3.7490100351
 20
-11.0616810321
 10
-3.7409135192
 20
-11.0606719761
 10
-3.732580957
 20
-11.058944926
 10
-3.7240123484
 20
-11.056499882
 10
-3.7151617708
 20
-11.0533071942
 10
-3.7060751469
 20
-11.0493965124
 10
-3.6968902445
 20
-11.0448567861
 10
-3.6876127494
 20
-11.0396718185
 10
-3.6782369758
 20
-11.0338578065
 10
-3.6688836349
 20
-11.0275522904
 10
-3.6595920498
 20
-11.0207200877
 10
-3.6503228974
 20
-11.0133963809
 10
-3.6410789192
 20
-11.0058242575
 10
-3.6319022425
 20
-10.9980794487
 10
-3.6227507401
 20
-10.9900862233
 10
-3.6041274723
 20
-10.9734956698
  0
LWPOLYLINE
  5
347
100
AcDbEntity
  8
COPY-PUBBLISH
100
AcDbPolyline
 62
7
  6
CONTINUOUS
 90
6
 70
0
 10
-0.8103285379
 20
-9.1587116325
 10
-0.7937744328
 20
-9.1567077867
 10
-0.7741913353
 20
-9.1569068506
 10
-0.7570622989
 20
-9.1599104107
 10
-0.7422402838
 20
-9.1657627958
 10
-0.7342114944
 20
-9.1706215328
  0
LWPOLYLINE
  5
348
100
AcDbEntity
  8
COPY-PUBBLISH
100
AcDbPolyline
 62
7
  6
CONTINUOUS
 90
7
 70
0
 10
-1.6583232216
 20
-8.3614760871
 10
-1.6456511765
 20
-8.3608766243
 10
-1.6152215277
 20
-8.3553436392
 10
-1.581807109
 20
-8.3453118799
 10
-1.5456394677
 20
-8.3310563944
 10
-1.5072300809
 20
-8.3128527024
 10
-1.4667494413
 20
-8.2907926436
  0
LWPOLYLINE
  5
349
100
AcDbEntity
  8
COPY-PUBBLISH
100
AcDbPolyline
 62
7
  6
CONTINUOUS
 90
6
 70
0
 10
-1.6614227254
 20
-10.2670203425
 10
-1.6317676037
 20
-10.2659370741
 10
-1.5963450173
 20
-10.2607965781
 10
-1.5578974819
 20
-10.2516250655
 10
-1.5164071056
 20
-10.2384958529
 10
-1.4721300616
 20
-10.2213821577
  0
LWPOLYLINE
  5
34A
100
AcDbEntity
  8
COPY-PUBBLISH
100
AcDbPolyline
 62
7
  6
CONTINUOUS
 90
7
 70
0
 10
-1.3320415723
 20
-7.5878242124
 10
-1.3124676975
 20
-7.587233329
 10
-1.2931593933
 20
-7.5893886528
 10
-1.2744707932
 20
-7.594110875
 10
-1.2565448943
 20
-7.6016426061
 10
-1.2392386994
 20
-7.6117412356
 10
-1.231350695
 20
-7.616754638
  0
LWPOLYLINE
  5
34B
100
AcDbEntity
  8
0
100
AcDbPolyline
 62
7
  6
CONTINUOUS
 90
5
 70
0
 10
-1.0818424508
 20
-10.0286849185
 10
-1.1080983854
 20
-10.0276782084
 10
-1.1319199335
 20
-10.0231420265
 10
-1.1533070952
 20
-10.015076373
 10
-1.1702414567
 20
-10.0051215061
  0
LWPOLYLINE
  5
34C
100
AcDbEntity
  8
ASSI
100
AcDbPolyline
 62
7
  6
CONTINUOUS
 90
4
 70
0
 10
-5.0034357263
 20
-10.3459746611
 10
-5.0033820057
 20
-10.3459767509
 10
-4.9724253796
 20
-10.3422085268
 10
-4.9395041094
 20
-10.333577395
  0
LWPOLYLINE
  5
34D
100
AcDbEntity
  8
COPY-PUBBLISH
100
AcDbPolyline
 62
7
  6
CONTINUOUS
 90
12
 70
0
 10
-1.5688765394
 20
-8.7430516428
 10
-1.4947897204
 20
-8.7462836645
 10
-1.415440209
 20
-8.7443047394
 10
-1.3296146102
 20
-8.7371806388
 10
-1.238526319
 20
-8.7248455914
 10
-1.1458155214
 20
-8.7071022821
 10
-1.0516634242
 20
-8.6835490887
 10
-0.9558888204
 20
-8.6545876335
 10
-0.8615882748
 20
-8.6212254684
 10
-0.7697939755
 20
-8.5837984439
 10
-0.6794737343
 20
-8.5419707095
 10
-0.5990256527
 20
-8.5001119652
  0
LWPOLYLINE
  5
34E
100
AcDbEntity
  8
0
100
AcDbPolyline
 62
7
  6
CONTINUOUS
 90
13
 70
0
 10
-1.49627931
 20
-8.834608674
 10
-1.4257747261
 20
-8.842888302
 10
-1.3509471405
 20
-8.8460806022
 10
-1.2717965532
 20
-8.8441855746
 10
-1.1875738609
 20
-8.8372918493
 10
-1.0990281668
 20
-8.8253107963
 10
-1.008406781
 20
-8.8079765252
 10
-0.9155838946
 20
-8.7850255644
 10
-0.8206853165
 20
-8.7567213855
 10
-0.7263357838
 20
-8.7235885137
 10
-0.6334102088
 20
-8.6858017905
 10
-0.5410336792
 20
-8.6431863744
 10
-0.449206195
 20
-8.5957422652
  0
LINE
  5
34F
100
AcDbEntity
  8
COPY-PUBBLISH
100
AcDbLine
 62
7
  6
CONTINUOUS
 10
-1.6066081351
 20
-8.7384229363
 11
-1.5688765394
 21
-8.7430516428
  0
LWPOLYLINE
  5
350
100
AcDbEntity
  8
COPY-PUBBLISH
100
AcDbPolyline
 62
7
  6
CONTINUOUS
 90
9
 70
0
 10
-0.9673684883
 20
-7.834086294
 10
-0.9448099268
 20
-7.8393561114
 10
-0.9173397725
 20
-7.8417797784
 10
-0.8889703151
 20
-7.8401938617
 10
-0.8594253738
 20
-7.8348890168
 10
-0.8276923981
 20
-7.8263150756
 10
-0.7933854697
 20
-7.8146150629
 10
-0.7568905068
 20
-7.7996459539
 10
-0.7183527132
 20
-7.7814285064
  0
LWPOLYLINE
  5
351
100
AcDbEntity
  8
0
100
AcDbPolyline
 62
7
  6
CONTINUOUS
 90
13
 70
0
 10
-3.4395371207
 20
-10.6549141503
 10
-3.4419862311
 20
-10.6537195381
 10
-3.4489275374
 20
-10.6514177958
 10
-3.4568418969
 20
-10.6508652518
 10
-3.4658704651
 20
-10.6524354824
 10
-3.4758720865
 20
-10.6557549113
 10
-3.4861331049
 20
-10.6598406632
 10
-3.4965012517
 20
-10.6647376175
 10
-3.5071287956
 20
-10.6704008948
 10
-3.5177588868
 20
-10.675712981
 10
-3.5283059088
 20
-10.6803013712
 10
-3.5388554782
 20
-10.6845385704
 10
-3.5494075948
 20
-10.6884245784
  0
LWPOLYLINE
  5
352
100
AcDbEntity
  8
0
100
AcDbPolyline
 62
7
  6
CONTINUOUS
 90
15
 70
0
 10
-4.7853057871
 20
-9.8337005111
 10
-4.7790691747
 20
-9.8368570452
 10
-4.7645295241
 20
-9.8422787017
 10
-4.7480014484
 20
-9.8434677119
 10
-4.729818941
 20
-9.8413295536
 10
-4.7108240979
 20
-9.8373638
 10
-4.6911259589
 20
-9.8313233678
 10
-4.6706154841
 20
-9.8234553402
 10
-4.6498076506
 20
-9.8160005407
 10
-4.6284512763
 20
-9.808639809
 10
-4.6067975432
 20
-9.8016923053
 10
-4.5861149747
 20
-9.7983563336
 10
-4.5668264121
 20
-9.7996979951
 10
-4.5485090142
 20
-9.8046511885
 10
-4.5311627809
 20
-9.8132159138
  0
LWPOLYLINE
  5
353
100
AcDbEntity
  8
COPY-PUBBLISH
100
AcDbPolyline
 62
7
  6
CONTINUOUS
 90
3
 70
0
 10
-1.6423062834
 20
-11.0028632115
 10
-1.634189014
 20
-11.0070834171
 10
-1.6328669474
 20
-11.007819171
  0
LWPOLYLINE
  5
354
100
AcDbEntity
  8
0
100
AcDbPolyline
 62
7
  6
CONTINUOUS
 90
21
 70
0
 10
-1.499379989
 20
-10.1690627531
 10
-1.4885478036
 20
-10.1748248134
 10
-1.4739339842
 20
-10.1805834438
 10
-1.4577411905
 20
-10.1841276561
 10
-1.4400347879
 20
-10.1855428597
 10
-1.4213143143
 20
-10.1851041927
 10
-1.4015804287
 20
-10.1827325296
 10
-1.3808324721
 20
-10.1785069959
 10
-1.3595680047
 20
-10.1729401058
 10
-1.3379098369
 20
-10.1661205607
 10
-1.3157351583
 20
-10.1579596592
 10
-1.2931730977
 20
-10.148703812
 10
-1.2701785002
 20
-10.138316762
 10
-1.2467965207
 20
-10.1268347663
 10
-1.2232917524
 20
-10.1146130077
 10
-1.1996920713
 20
-10.1016873946
 10
-1.1759696014
 20
-10.0880220185
 10
-1.1523053079
 20
-10.0738643371
 10
-1.1287595124
 20
-10.0592968363
 10
-1.1052718934
 20
-10.0442370301
 10
-1.0818424508
 20
-10.0286849185
  0
LWPOLYLINE
  5
355
100
AcDbEntity
  8
0
100
AcDbPolyline
 62
7
  6
CONTINUOUS
 90
41
 70
0
 10
-0.592746326
 20
-9.2706524602
 10
-0.6060899706
 20
-9.2633921755
 10
-0.622810033
 20
-9.2584753235
 10
-0.6412358251
 20
-9.2564663626
 10
-0.6614132942
 20
-9.2574285535
 10
-0.6832964932
 20
-9.2612986356
 10
-0.7061679264
 20
-9.2676647135
 10
-0.7300387843
 20
-9.276546544
 10
-0.7548978765
 20
-9.2879243703
 10
-0.7799941367
 20
-9.3013270265
 10
-0.8054995487
 20
-9.3169598403
 10
-0.8312421287
 20
-9.3346174839
 10
-0.855954859
 20
-9.3532128075
 10
-0.8793083738
 20
-9.3726617755
 10
-0.9016320389
 20
-9.3930484235
 10
-0.9226469331
 20
-9.413537708
 10
-0.9421550816
 20
-9.4338749782
 10
-0.9603544592
 20
-9.4543148849
 10
-0.9775600693
 20
-9.4747863366
 10
-0.9939255374
 20
-9.4950902233
 10
-1.0092972381
 20
-9.515425655
 10
-1.0235292985
 20
-9.5363188708
 10
-1.0366889424
 20
-9.5580267871
 10
-1.0487089461
 20
-9.5802924875
 10
-1.0592417657
 20
-9.6028714616
 10
-1.0681569322
 20
-9.6258910114
 10
-1.0755849147
 20
-9.6492238349
 10
-1.0815695767
 20
-9.6722435167
 10
-1.0860248894
 20
-9.6948168502
 10
-1.0890368815
 20
-9.7170770419
 10
-1.0909075026
 20
-9.7387972956
 10
-1.0918213757
 20
-9.7602641348
 10
-1.0915938779
 20
-9.7811910361
 10
-1.0899730891
 20
-9.8004916319
 10
-1.0867508233
 20
-9.8178815482
 10
-1.0821352667
 20
-9.8336451592
 10
-1.0764990583
 20
-9.84754922
 10
-1.069829706
 20
-9.8593798892
 10
-1.0621397019
 20
-9.8693510082
 10
-1.0538391609
 20
-9.8778708574
 10
-1.0454757911
 20
-9.8845431458
  0
LWPOLYLINE
  5
356
100
AcDbEntity
  8
RACCORDO
100
AcDbPolyline
 62
250
  6
CONTINUOUS
 90
31
 70
0
 10
-33.9805819635
 20
6.8922349592
 10
-34.008355016
 20
6.9077809534
 10
-34.0370360398
 20
6.9201325541
 10
-34.0666176429
 20
6.9291169371
 10
-34.0971793969
 20
6.9346465627
 10
-34.1284675932
 20
6.936495714
 10
-34.1599219524
 20
6.9344228107
 10
-34.19141462
 20
6.9283035239
 10
-34.2226728419
 20
6.9182964842
 10
-34.2529314228
 20
6.9048350988
 10
-34.2818691666
 20
6.8881624322
 10
-34.3093931436
 20
6.8683932828
 10
-34.3351525056
 20
6.8459274203
 10
-34.3590989589
 20
6.8211113156
 10
-34.3809463524
 20
6.7940123771
 10
-34.4001341938
 20
6.7646955489
 10
-34.4165681989
 20
6.7330309629
 10
-34.4301967505
 20
6.699489378
 10
-34.4407501406
 20
6.6650738524
 10
-34.4482654875
 20
6.6299178636
 10
-34.4526962005
 20
6.5940744208
 10
-34.4539152032
 20
6.5584483898
 10
-34.4519409761
 20
6.5230121708
 10
-34.4467429624
 20
6.4878692072
 10
-34.4383905425
 20
6.4541195164
 10
-34.4268528234
 20
6.4220180537
 10
-34.4121713726
 20
6.3914660356
 10
-34.3948008969
 20
6.3630653999
 10
-34.3750099918
 20
6.3371360866
 10
-34.3527088939
 20
6.3137336198
 10
-34.3279649966
 20
6.2930985181
  0
LWPOLYLINE
  5
357
100
AcDbEntity
  8
0
100
AcDbPolyline
 62
7
  6
CONTINUOUS
 90
18
 70
0
 10
-1.4913984369
 20
-11.1078525242
 10
-1.4946627595
 20
-11.1059140768
 10
-1.5023433044
 20
-11.1019863582
 10
-1.5108635599
 20
-11.0994501662
 10
-1.520117683
 20
-11.0981204561
 10
-1.5297428369
 20
-11.0976987938
 10
-1.5396612245
 20
-11.0981938237
 10
-1.5499506428
 20
-11.0995969013
 10
-1.5604816461
 20
-11.1015836592
 10
-1.5712141355
 20
-11.1040902149
 10
-1.58218821
 20
-11.1071804507
 10
-1.5933947203
 20
-11.1107216465
 10
-1.6048091008
 20
-11.1146821868
 10
-1.6164559173
 20
-11.119093687
 10
-1.6283997175
 20
-11.1239182733
 10
-1.6406620174
 20
-11.1291433208
 10
-1.653221301
 20
-11.1347814544
 10
-1.6660775684
 20
-11.1408326739
  0
LINE
  5
358
100
AcDbEntity
  8
RACCORDO
100
AcDbLine
 62
7
  6
CONTINUOUS
 10
-21.7268874953
 20
2.5889905913
 11
-21.983364924
 21
2.7413471909
  0
LWPOLYLINE
  5
359
100
AcDbEntity
  8
0
100
AcDbPolyline
 62
7
  6
CONTINUOUS
 90
19
 70
0
 10
-1.6060589408
 20
-8.4401461379
 10
-1.5931204541
 20
-8.4480727709
 10
-1.5764064391
 20
-8.4548787302
 10
-1.5589832665
 20
-8.4594628306
 10
-1.5410038282
 20
-8.4619292922
 10
-1.5223152324
 20
-8.4621738948
 10
-1.5029822207
 20
-8.460635748
 10
-1.4829961612
 20
-8.4573736171
 10
-1.4623656858
 20
-8.4523287368
 10
-1.4411814314
 20
-8.4457639216
 10
-1.4193502487
 20
-8.4376132538
 10
-1.3969652871
 20
-8.4279426511
 10
-1.3743966315
 20
-8.4172126805
 10
-1.3517019296
 20
-8.4054538777
 10
-1.3288235336
 20
-8.3926357071
 10
-1.3059585855
 20
-8.3791271287
 10
-1.2831727991
 20
-8.365051129
 10
-1.2604004605
 20
-8.3502847215
 10
-1.2376415697
 20
-8.3348279061
  0
LWPOLYLINE
  5
35A
100
AcDbEntity
  8
0
100
AcDbPolyline
 62
7
  6
CONTINUOUS
 90
18
 70
0
 10
-1.0454757911
 20
-9.8845431458
 10
-1.0355886603
 20
-9.8906762855
 10
-1.0256844314
 20
-9.8951310658
 10
-1.0153724856
 20
-9.8984372512
 10
-1.0045868295
 20
-9.9005211379
 10
-0.9932663099
 20
-9.9013905859
 10
-0.9813685974
 20
-9.9010398281
 10
-0.9689360212
 20
-9.8994746316
 10
-0.9560344162
 20
-9.8967201581
 10
-0.9425851804
 20
-9.892671973
 10
-0.9286669157
 20
-9.8874345109
 10
-0.9145812631
 20
-9.8813462376
 10
-0.9003818388
 20
-9.8744580367
 10
-0.8860150264
 20
-9.8667190246
 10
-0.8716216184
 20
-9.8583150159
 10
-0.8572485453
 20
-9.8493079488
 10
-0.8428488765
 20
-9.8396358853
 10
-0.828422612
 20
-9.8292988251
  0
LWPOLYLINE
  5
35B
100
AcDbEntity
  8
0
100
AcDbPolyline
 62
7
  6
CONTINUOUS
 90
9
 70
0
 10
-3.294875915
 20
-10.1075829906
 10
-3.3064066842
 20
-10.1004300342
 10
-3.3238100401
 20
-10.0926190603
 10
-3.3428044045
 20
-10.0874279462
 10
-3.3633615205
 20
-10.0848101616
 10
-3.3850924548
 20
-10.0848197061
 10
-3.4078675629
 20
-10.0874745794
 10
-3.4318164892
 20
-10.0927567819
 10
-3.4569392338
 20
-10.1006663133
  0
LINE
  5
35C
100
AcDbEntity
  8
0
100
AcDbLine
 62
7
  6
CONTINUOUS
 10
-1.1702414567
 20
-10.0051215061
 11
-1.1723215732
 21
-10.0036573957
  0
LINE
  5
35D
100
AcDbEntity
  8
0
100
AcDbLine
 62
7
  6
CONTINUOUS
 10
-4.7608176031
 20
-10.4190187429
 11
-4.9022387267
 21
-10.3190186388
  0
LINE
  5
35E
100
AcDbEntity
  8
0
100
AcDbLine
 62
7
  6
CONTINUOUS
 10
-3.7490100351
 20
-11.0616810321
 11
-3.8904311482
 21
-10.9616814202
  0
LINE
  5
35F
100
AcDbEntity
  8
0
100
AcDbLine
 62
7
  6
CONTINUOUS
 10
-3.2461769675
 20
-11.0544098969
 11
-3.3875983237
 21
-10.9544103653
  0
LINE
  5
360
100
AcDbEntity
  8
0
100
AcDbLine
 62
7
  6
CONTINUOUS
 10
-4.2850144098
 20
-10.2061158858
 11
-4.426435766
 21
-10.1061158858
  0
LINE
  5
361
100
AcDbEntity
  8
ASSI
100
AcDbLine
 62
7
  6
CONTINUOUS
 10
-4.9266674706
 20
-9.7337427597
 11
-4.7852461144
 21
-9.8337427597
  0
LINE
  5
362
100
AcDbEntity
  8
ASSI
100
AcDbLine
 62
7
  6
CONTINUOUS
 10
-3.4394347993
 20
-10.6549860862
 11
-3.5808561555
 21
-10.5549860862
  0
LINE
  5
363
100
AcDbEntity
  8
DRAFT
100
AcDbLine
 62
7
  6
CONTINUOUS
 10
-15.5964794114
 20
-2.0249248662
 11
-17.9186426771
 21
-0.382907474
  0
LINE
  5
364
100
AcDbEntity
  8
DRAFT
100
AcDbLine
 62
7
  6
CONTINUOUS
 10
-22.1612833642
 20
2.617092526
 11
-24.4834466299
 21
4.2591099182
  0
LINE
  5
365
100
AcDbEntity
  8
0
100
AcDbLine
 62
7
  6
CONTINUOUS
 10
-4.8313775136
 20
-9.6350784226
 11
-4.972798791
 21
-9.5350783874
  0
LINE
  5
366
100
AcDbEntity
  8
0
100
AcDbLine
 62
7
  6
CONTINUOUS
 10
-4.3455208299
 20
-9.4176765656
 11
-4.4869421862
 21
-9.3176765656
  0
LINE
  5
367
100
AcDbEntity
  8
0
100
AcDbLine
 62
7
  6
CONTINUOUS
 10
-3.2461769675
 20
-10.1759553475
 11
-3.3750684539
 21
-10.0848153034
  0
LINE
  5
368
100
AcDbEntity
  8
0
100
AcDbLine
 62
250
  6
CONTINUOUS
 10
-3.6000542211
 20
-9.8996231444
 11
-3.7414755692
 21
-9.7996231408
  0
LINE
  5
369
100
AcDbEntity
  8
0
100
AcDbLine
 62
7
  6
CONTINUOUS
 10
-3.9809634436
 20
-9.5168529682
 11
-4.1223847998
 21
-9.4168529682
  0
LINE
  5
36A
100
AcDbEntity
  8
0
100
AcDbLine
 62
7
  6
CONTINUOUS
 10
-4.1093125168
 20
-9.3119829722
 11
-4.250733873
 21
-9.2119829722
  0
LINE
  5
36B
100
AcDbEntity
  8
COPY-PUBBLISH
100
AcDbLine
 62
7
  6
CONTINUOUS
 10
-1.4914276405
 20
-11.1078318579
 11
-1.6328489967
 21
-11.0078318579
  0
LINE
  5
36C
100
AcDbEntity
  8
0
100
AcDbLine
 62
7
  6
CONTINUOUS
 10
-1.3145196332
 20
-11.2225445651
 11
-1.4559409894
 21
-11.1225445651
  0
LINE
  5
36D
100
AcDbEntity
  8
DRAFT
100
AcDbLine
 62
7
  6
CONTINUOUS
 10
-22.1612833642
 20
3.7982122658
 11
-17.9186426771
 21
0.7982122658
  0
LINE
  5
36E
100
AcDbEntity
  8
0
100
AcDbLine
 62
7
  6
CONTINUOUS
 10
-1.3145196332
 20
-10.9347697828
 11
-1.4302636332
 21
-10.8529264156
  0
LINE
  5
36F
100
AcDbEntity
  8
0
100
AcDbLine
 62
250
  6
CONTINUOUS
 10
-3.2461769675
 20
-9.3756660347
 11
-3.3875983237
 21
-9.2756660347
  0
LINE
  5
370
100
AcDbEntity
  8
0
100
AcDbLine
 62
7
  6
CONTINUOUS
 10
-3.416150917
 20
-9.0018201563
 11
-3.5575726518
 21
-8.9018203257
  0
LINE
  5
371
100
AcDbEntity
  8
COPY-PUBBLISH
100
AcDbLine
 62
7
  6
CONTINUOUS
 10
-1.640854565
 20
-10.0690251561
 11
-1.4994332088
 21
-10.1690251561
  0
LINE
  5
372
100
AcDbEntity
  8
0
100
AcDbLine
 62
7
  6
CONTINUOUS
 10
-1.3512220107
 20
-9.7182175815
 11
-1.4476493807
 21
-9.6500331342
  0
LINE
  5
373
100
AcDbEntity
  8
0
100
AcDbLine
 62
7
  6
CONTINUOUS
 10
-0.449206195
 20
-10.3229007828
 11
-0.564950195
 21
-10.2410574156
  0
LINE
  5
374
100
AcDbEntity
  8
COPY-PUBBLISH
100
AcDbLine
 62
7
  6
CONTINUOUS
 10
-1.1869210873
 20
-9.7845262234
 11
-1.045499731
 21
-9.8845262234
  0
LINE
  5
375
100
AcDbEntity
  8
0
100
AcDbLine
 62
7
  6
CONTINUOUS
 10
-1.49627931
 20
-9.5103135502
 11
-1.6377006662
 21
-9.4103135502
  0
LINE
  5
376
100
AcDbEntity
  8
0
100
AcDbLine
 62
7
  6
CONTINUOUS
 10
-1.49627931
 20
-8.834608674
 11
-1.61945731
 21
-8.747508675
  0
LINE
  5
377
100
AcDbEntity
  8
RACCORDO
100
AcDbLine
 62
250
  6
CONTINUOUS
 10
-7.4888176546
 20
-4.5636006355
 11
-32.5911083867
 21
13.1863993645
  0
LINE
  5
378
100
AcDbEntity
  8
COPY-PUBBLISH
100
AcDbLine
 62
7
  6
CONTINUOUS
 10
-0.5927224642
 20
-9.2706693256
 11
-0.7341438205
 21
-9.1706693256
  0
LINE
  5
379
100
AcDbEntity
  8
COPY-PUBBLISH
100
AcDbLine
 62
7
  6
CONTINUOUS
 10
-1.6340445046
 20
-8.15705773
 11
-1.4926231483
 21
-8.25705773
  0
LINE
  5
37A
100
AcDbEntity
  8
0
100
AcDbLine
 62
7
  6
CONTINUOUS
 10
-1.2376415697
 20
-8.3348279061
 11
-1.3588736536
 21
-8.2491038775
  0
LINE
  5
37B
100
AcDbEntity
  8
0
100
AcDbLine
 62
7
  6
CONTINUOUS
 10
-1.0818424508
 20
-10.0286849185
 11
-1.2188944413
 21
-9.9317298097
  0
LWPOLYLINE
  5
37C
100
AcDbEntity
  8
0
100
AcDbPolyline
 62
7
  6
CONTINUOUS
 90
45
 70
0
 10
-0.4864887243
 20
-9.1016734782
 10
-0.4812200542
 20
-9.1056354947
 10
-0.464381976
 20
-9.1218431426
 10
-0.4501140252
 20
-9.1420032176
 10
-0.4383261339
 20
-9.1666314241
 10
-0.42910837
 20
-9.1952120577
 10
-0.4225873404
 20
-9.2265283625
 10
-0.4187083832
 20
-9.2606456704
 10
-0.4175261604
 20
-9.2974986496
 10
-0.419331264
 20
-9.335674549
 10
-0.4242325756
 20
-9.3749021795
 10
-0.4321212136
 20
-9.4154527303
 10
-0.4429611265
 20
-9.4567270176
 10
-0.4568493106
 20
-9.4986366111
 10
-0.4736887696
 20
-9.5412699411
 10
-0.4931524627
 20
-9.5842931144
 10
-0.5151185279
 20
-9.6279107568
 10
-0.5397088273
 20
-9.6719182426
 10
-0.566961906
 20
-9.7153678018
 10
-0.5969646575
 20
-9.7580173411
 10
-0.6296301884
 20
-9.8001089538
 10
-0.6647363632
 20
-9.8414211496
 10
-0.7022732438
 20
-9.8817935692
 10
-0.7422507683
 20
-9.921386572
 10
-0.7844766159
 20
-9.9604597461
 10
-0.8290360984
 20
-9.9991168617
 10
-0.8758439041
 20
-10.0372541487
 10
-0.9244517771
 20
-10.0748198849
 10
-0.9752915554
 20
-10.1122087655
 10
-1.027931401
 20
-10.1490260953
 10
-1.0806275446
 20
-10.1840360669
 10
-1.1335031159
 20
-10.2173826184
 10
-1.1864349851
 20
-10.2489218116
 10
-1.2373099928
 20
-10.2769860246
 10
-1.28561715
 20
-10.3011334357
 10
-1.3318674457
 20
-10.3218058666
 10
-1.375480688
 20
-10.3386611594
 10
-1.4164278824
 20
-10.3516008605
 10
-1.4547380233
 20
-10.3607234235
 10
-1.4899179017
 20
-10.3659820523
 10
-1.5217962151
 20
-10.3672760598
 10
-1.550544266
 20
-10.364706133
 10
-1.5761827525
 20
-10.3585275363
 10
-1.5986139886
 20
-10.3487990741
 10
-1.6099168261
 20
-10.3415698559
  0
LWPOLYLINE
  5
37D
100
AcDbEntity
  8
0
100
AcDbPolyline
 62
7
  6
CONTINUOUS
 90
9
 70
0
 10
-1.6099168261
 20
-10.3415698559
 10
-1.6179356605
 20
-10.3354619421
 10
-1.6344615248
 20
-10.3185949911
 10
-1.6482808162
 20
-10.2980359307
 10
-1.6593043
 20
-10.2739470513
 10
-1.6675780292
 20
-10.2468940753
 10
-1.672850665
 20
-10.2162912274
 10
-1.6753735463
 20
-10.1827242829
 10
-1.675946742
 20
-10.1485162903
  0
LWPOLYLINE
  5
37E
100
AcDbEntity
  8
0
100
AcDbPolyline
 62
7
  6
CONTINUOUS
 90
35
 70
0
 10
-1.4925848815
 20
-8.2570847695
 10
-1.4975417797
 20
-8.2532397416
 10
-1.5071269487
 20
-8.2431345817
 10
-1.5156811825
 20
-8.2306497614
 10
-1.5227089304
 20
-8.2155859927
 10
-1.5281071217
 20
-8.1975572972
 10
-1.5319788269
 20
-8.1769496532
 10
-1.5341377067
 20
-8.1547217085
 10
-1.53463956
 20
-8.1310336308
 10
-1.533428588
 20
-8.1057252523
 10
-1.5301510541
 20
-8.0792747167
 10
-1.5247894466
 20
-8.0515383214
 10
-1.5173612774
 20
-8.022659769
 10
-1.5075653458
 20
-7.9935483111
 10
-1.4951650926
 20
-7.9642106902
 10
-1.480397077
 20
-7.9346401639
 10
-1.4636697764
 20
-7.9057257568
 10
-1.4448094066
 20
-7.8774126058
 10
-1.4239897518
 20
-7.8497555741
 10
-1.4021406419
 20
-7.8238082757
 10
-1.379364818
 20
-7.7998429325
 10
-1.3555595389
 20
-7.7775873228
 10
-1.3313464104
 20
-7.7572783949
 10
-1.3065785118
 20
-7.7385947852
 10
-1.2814027638
 20
-7.7218578574
 10
-1.2568815339
 20
-7.708268651
 10
-1.2332072081
 20
-7.6982293126
 10
-1.2101874005
 20
-7.6913376955
 10
-1.1883073207
 20
-7.6875883992
 10
-1.1677970717
 20
-7.6872384951
 10
-1.1484265506
 20
-7.6900309116
 10
-1.1299906586
 20
-7.6951890341
 10
-1.1125675229
 20
-7.7028050477
 10
-1.0960790162
 20
-7.7127867672
 10
-1.0899235794
 20
-7.7167587113
  0
LWPOLYLINE
  5
37F
100
AcDbEntity
  8
ASSI
100
AcDbPolyline
 62
7
  6
CONTINUOUS
 90
14
 70
0
 10
-4.9266576224
 20
-9.733749722
 10
-4.932212812
 20
-9.7293837711
 10
-4.9406876666
 20
-9.7221280329
 10
-4.9485611266
 20
-9.7134499387
 10
-4.9557666057
 20
-9.7032527719
 10
-4.9624388542
 20
-9.6916280179
 10
-4.9684431218
 20
-9.6784841914
 10
-4.9733085709
 20
-9.6634501195
 10
-4.9770577213
 20
-9.6463179958
 10
-4.9796680534
 20
-9.6272956267
 10
-4.9806011703
 20
-9.6066352586
 10
-4.9796776066
 20
-9.5844209736
 10
-4.9770768278
 20
-9.5605686896
 10
-4.9727988339
 20
-9.5350784065
  0
LWPOLYLINE
  5
380
100
AcDbEntity
  8
COPY-PUBBLISH
100
AcDbPolyline
 62
7
  6
CONTINUOUS
 90
5
 70
0
 10
-1.6339919873
 20
-8.1570948292
 10
-1.6398351453
 20
-8.1524856036
 10
-1.6507782481
 20
-8.1404751985
 10
-1.6598577069
 20
-8.1255100727
 10
-1.665284884
 20
-8.1117440095
  0
LINE
  5
381
100
AcDbEntity
  8
DRAFT
100
AcDbLine
 62
250
  6
CONTINUOUS
 10
13.724385781
 20
-22.4627648089
 11
12.5249170119
 21
-21.5096723889
  0
LWPOLYLINE
  5
382
100
AcDbEntity
  8
COPY-PUBBLISH
100
AcDbPolyline
 62
7
  6
CONTINUOUS
 90
5
 70
0
 10
-1.1869161464
 20
-9.7845297169
 10
-1.1972010378
 20
-9.7759259672
 10
-1.2094209933
 20
-9.7619040373
 10
-1.218949089
 20
-9.7449175395
 10
-1.2216569061
 20
-9.7374768176
  0
LWPOLYLINE
  5
383
100
AcDbEntity
  8
COPY-PUBBLISH
100
AcDbPolyline
 62
7
  6
CONTINUOUS
 90
4
 70
0
 10
-1.6408787102
 20
-10.0690080757
 10
-1.651597832
 20
-10.0599761228
 10
-1.6622409019
 20
-10.0469252302
 10
-1.6659444951
 20
-10.0401025595
  0
LWPOLYLINE
  5
384
100
AcDbEntity
  8
0
100
AcDbPolyline
 62
7
  6
CONTINUOUS
 90
6
 70
0
 10
-1.1723215732
 20
-10.0036573957
 10
-1.1889016648
 20
-9.9887089468
 10
-1.2028622619
 20
-9.9697025822
 10
-1.2142646975
 20
-9.9462378159
 10
-1.2230476388
 20
-9.918715134
 10
-1.2288419782
 20
-9.8878075513
  0
LINE
  5
385
100
AcDbEntity
  8
0
100
AcDbLine
 62
7
  6
CONTINUOUS
 10
-4.1471109098
 20
-10.9663415891
 11
-4.0161328136
 21
-11.1754061262
  0
LINE
  5
386
100
AcDbEntity
  8
ASSI
100
AcDbLine
 62
7
  6
CONTINUOUS
 10
-4.426435766
 20
-10.1061158858
 11
-4.615421069
 21
-9.8044591251
  0
LINE
  5
387
100
AcDbEntity
  8
ASSI
100
AcDbLine
 62
7
  6
CONTINUOUS
 10
-3.8904313246
 20
-10.9616811386
 11
-4.2168291502
 21
-10.4406872775
  0
LINE
  5
388
100
AcDbEntity
  8
0
100
AcDbLine
 62
7
  6
CONTINUOUS
 10
-4.2850144098
 20
-10.2061158858
 11
-4.5311627809
 21
-9.8132159138
  0
LINE
  5
389
100
AcDbEntity
  8
0
100
AcDbLine
 62
7
  6
CONTINUOUS
 10
-3.7490100351
 20
-11.0616810321
 11
-4.155304156
 21
-10.4131572791
  0
LINE
  5
38A
100
AcDbEntity
  8
0
100
AcDbLine
 62
7
  6
CONTINUOUS
 10
-4.3455208299
 20
-9.4176765656
 11
-3.9464736032
 21
-10.0546318298
  0
LINE
  5
38B
100
AcDbEntity
  8
0
100
AcDbLine
 62
7
  6
CONTINUOUS
 10
-3.8167633495
 20
-10.2616739301
 11
-3.5494075948
 21
-10.6884245784
  0
LINE
  5
38C
100
AcDbEntity
  8
ASSI
100
AcDbLine
 62
7
  6
CONTINUOUS
 10
-4.1223847998
 20
-9.4168529682
 11
-4.250733873
 21
-9.2119829722
  0
LINE
  5
38D
100
AcDbEntity
  8
0
100
AcDbLine
 62
7
  6
CONTINUOUS
 10
-3.9809634436
 20
-9.5168529682
 11
-4.1093125168
 21
-9.3119829722
  0
LWPOLYLINE
  5
38E
100
AcDbEntity
  8
0
100
AcDbPolyline
 62
7
  6
CONTINUOUS
 90
18
 70
0
 10
-5.0132997461
 20
-13.4380610698
 10
-5.0126060098
 20
-13.4625880359
 10
-5.0117156987
 20
-13.4862714682
 10
-5.0106288129
 20
-13.5091113669
 10
-5.0094505755
 20
-13.5311158264
 10
-5.0080757633
 20
-13.5522767522
 10
-5.0061887071
 20
-13.5725698604
 10
-5.0037628385
 20
-13.5920142418
 10
-5.0008247258
 20
-13.6105908057
 10
-4.997138405
 20
-13.6282179955
 10
-4.9926983623
 20
-13.6449148826
 10
-4.9875101115
 20
-13.6606623957
 10
-4.9813542298
 20
-13.6753217648
 10
-4.9742234282
 20
-13.6889718123
 10
-4.9661249956
 20
-13.7015337158
 10
-4.9568613762
 20
-13.7126322386
 10
-4.9463300667
 20
-13.7222222434
 10
-4.9415451874
 20
-13.7260430259
  0
LWPOLYLINE
  5
38F
100
AcDbEntity
  8
0
100
AcDbPolyline
 62
7
  6
CONTINUOUS
 90
10
 70
0
 10
-4.7496839742
 20
-26.8462204574
 10
-4.7503352071
 20
-26.8229969015
 10
-4.7522391544
 20
-26.8008636584
 10
-4.755395816
 20
-26.7798207281
 10
-4.7598227365
 20
-26.7598146146
 10
-4.7655023714
 20
-26.7408988138
 10
-4.7723820867
 20
-26.7232338139
 10
-4.7804443379
 20
-26.7068731109
 10
-4.7897066696
 20
-26.6917632088
 10
-4.8001690819
 20
-26.6779041076
  0
LWPOLYLINE
  5
390
100
AcDbEntity
  8
0
100
AcDbPolyline
 62
7
  6
CONTINUOUS
 90
13
 70
0
 10
-5.0132997461
 20
-10.2713071263
 10
-5.0128995973
 20
-10.2896632812
 10
-5.0114665314
 20
-10.3071168851
 10
-5.0090005486
 20
-10.3236679382
 10
-5.0054769849
 20
-10.3393524762
 10
-5.0009205042
 20
-10.3541344632
 10
-4.9954050985
 20
-10.3679057921
 10
-4.9889327692
 20
-10.3806647544
 10
-4.9815015149
 20
-10.3924130585
 10
-4.9731793237
 20
-10.4030477225
 10
-4.963958149
 20
-10.4125589886
 10
-4.9538460373
 20
-10.4209566145
 10
-4.9516654859
 20
-10.4225445171
  0
LINE
  5
391
100
AcDbEntity
  8
ASSI
100
AcDbLine
 62
7
  6
CONTINUOUS
 10
-4.9861282612
 20
-12.9420145105
 11
-4.986506859
 21
-12.9138448376
  0
LINE
  5
392
100
AcDbEntity
  8
0
100
AcDbLine
 62
7
  6
CONTINUOUS
 10
-5.8617317171
 20
-29.9606975492
 11
-5.8617317171
 21
-30.560379961
  0
LINE
  5
393
100
AcDbEntity
  8
0
100
AcDbLine
 62
7
  6
CONTINUOUS
 10
-5.8617317171
 20
-31.7839723845
 11
-5.8617317171
 21
-32.5781798718
  0
LINE
  5
394
100
AcDbEntity
  8
0
100
AcDbLine
 62
7
  6
CONTINUOUS
 10
-5.8617317171
 20
-33.6141535317
 11
-5.8617317171
 21
-34.4083610191
  0
LINE
  5
395
100
AcDbEntity
  8
0
100
AcDbLine
 62
7
  6
CONTINUOUS
 10
-5.8617317171
 20
-34.9931948956
 11
-5.8617317171
 21
-35.5433777115
  0
LINE
  5
396
100
AcDbEntity
  8
0
100
AcDbLine
 62
7
  6
CONTINUOUS
 10
-5.8617317171
 20
-35.8670091716
 11
-5.8617317171
 21
-36.3979537332
  0
LINE
  5
397
100
AcDbEntity
  8
0
100
AcDbLine
 62
7
  6
CONTINUOUS
 10
-5.8617317171
 20
-37.5633017711
 11
-5.8617317171
 21
-38.0942456257
  0
LINE
  5
398
100
AcDbEntity
  8
0
100
AcDbLine
 62
7
  6
CONTINUOUS
 10
-5.8617317087
 20
-27.3071251976
 11
-5.8617317171
 21
-28.7909944407
  0
LINE
  5
399
100
AcDbEntity
  8
ASSI
100
AcDbLine
 62
7
  6
CONTINUOUS
 10
-5.5628101035
 20
-27.8098100121
 11
-5.5628101035
 21
-27.2211920995
  0
LINE
  5
39A
100
AcDbEntity
  8
0
100
AcDbLine
 62
7
  6
CONTINUOUS
 10
-5.4213887472
 20
-27.9098100121
 11
-5.4213887472
 21
-27.3211874574
  0
LINE
  5
39B
100
AcDbEntity
  8
0
100
AcDbLine
 62
7
  6
CONTINUOUS
 10
-5.0133005875
 20
-11.1964897693
 11
-5.0132997461
 21
-11.89107925
  0
LINE
  5
39C
100
AcDbEntity
  8
0
100
AcDbLine
 62
7
  6
CONTINUOUS
 10
-5.0132997461
 20
-9.4552444458
 11
-5.0132997461
 21
-10.2713071263
  0
LINE
  5
39D
100
AcDbEntity
  8
0
100
AcDbLine
 62
7
  6
CONTINUOUS
 10
-5.0132997461
 20
-12.9908758692
 11
-5.0132997461
 21
-13.4380610698
  0
LINE
  5
39E
100
AcDbEntity
  8
0
100
AcDbLine
 62
7
  6
CONTINUOUS
 10
-4.7496839742
 20
-26.8462204574
 11
-4.7496839742
 21
-27.4348430121
  0
LINE
  5
39F
100
AcDbEntity
  8
ASSI
100
AcDbLine
 62
7
  6
CONTINUOUS
 10
-4.4377070481
 20
-27.0142420121
 11
-4.4377070481
 21
-26.5676171057
  0
LINE
  5
3A0
100
AcDbEntity
  8
0
100
AcDbLine
 62
7
  6
CONTINUOUS
 10
-4.2962856919
 20
-27.1142420121
 11
-4.2962856919
 21
-26.6676171057
  0
LINE
  5
3A1
100
AcDbEntity
  8
0
100
AcDbLine
 62
7
  6
CONTINUOUS
 10
-4.2238440163
 20
-28.8174206469
 11
-4.2238440163
 21
-29.3873338633
  0
LINE
  5
3A2
100
AcDbEntity
  8
ASSI
100
AcDbLine
 62
7
  6
CONTINUOUS
 10
-3.892628129
 20
-29.1440491084
 11
-3.892628129
 21
-28.1922954018
  0
LINE
  5
3A3
100
AcDbEntity
  8
0
100
AcDbLine
 62
7
  6
CONTINUOUS
 10
-3.7512067727
 20
-29.2440491084
 11
-3.7512067727
 21
-28.2922954018
  0
LWPOLYLINE
  5
3A4
100
AcDbEntity
  8
ASSI
100
AcDbPolyline
 62
7
  6
CONTINUOUS
 90
10
 70
0
 10
-5.5628101035
 20
-27.2211920995
 10
-5.5621587271
 20
-27.1970458301
 10
-5.5602547216
 20
-27.1722188323
 10
-5.5570980869
 20
-27.1467111062
 10
-5.552675335
 20
-27.120453758
 10
-5.546999954
 20
-27.0935156814
 10
-5.5401124081
 20
-27.0661035576
 10
-5.5320261856
 20
-27.0382862803
 10
-5.5227277982
 20
-27.0099949557
 10
-5.512217246
 20
-26.981229584
  0
LWPOLYLINE
  5
3A5
100
AcDbEntity
  8
RACCORDO
100
AcDbPolyline
 62
250
  6
CONTINUOUS
 90
9
 70
0
 10
-9.2937191559
 20
-41.7596032233
 10
-9.2955574279
 20
-41.7895388468
 10
-9.2999898769
 20
-41.8174220597
 10
-9.3070033654
 20
-41.8430261242
 10
-9.3165741795
 20
-41.8661576281
 10
-9.3286440643
 20
-41.8865969862
 10
-9.3430992862
 20
-41.9041247302
 10
-9.3598127289
 20
-41.9185949235
 10
-9.3639798836
 20
-41.9214909677
  0
LWPOLYLINE
  5
3A6
100
AcDbEntity
  8
ASSI
100
AcDbPolyline
 62
7
  6
CONTINUOUS
 90
4
 70
0
 10
-4.986506859
 20
-12.9138448376
 10
-4.9838239283
 20
-12.8839562417
 10
-4.9781175446
 20
-12.8520559628
 10
-4.9693877079
 20
-12.8181440009
  0
LWPOLYLINE
  5
3A7
100
AcDbEntity
  8
RACCORDO
100
AcDbPolyline
 62
250
  6
CONTINUOUS
 90
17
 70
0
 10
-9.9946017318
 20
-41.7552781979
 10
-9.9958896619
 20
-41.7664376442
 10
-9.9981339589
 20
-41.7768235466
 10
-10.0013346227
 20
-41.7864359051
 10
-10.0055473534
 20
-41.7952981107
 10
-10.010716451
 20
-41.8033867725
 10
-10.0166748155
 20
-41.810631717
 10
-10.0234224469
 20
-41.8170329443
 10
-10.0309593453
 20
-41.8225904544
 10
-10.0391184107
 20
-41.827234074
 10
-10.0478996432
 20
-41.8309638031
 10
-10.0573030427
 20
-41.8337796417
 10
-10.0671615093
 20
-41.8356114165
 10
-10.077475043
 20
-41.8364591274
 10
-10.0882436438
 20
-41.8363227746
 10
-10.0993002118
 20
-41.8351321847
 10
-10.110644747
 20
-41.8328873576
  0
LWPOLYLINE
  5
3A8
100
AcDbEntity
  8
RACCORDO
100
AcDbPolyline
 62
250
  6
CONTINUOUS
 90
4
 70
0
 10
-0.3653328289
 20
16.4035259774
 10
-0.3539742
 20
16.4345907618
 10
-0.3385581273
 20
16.4685633545
 10
-0.3202624693
 20
16.502362538
  0
LINE
  5
3A9
100
AcDbEntity
  8
RACCORDO
100
AcDbLine
 62
7
  6
CONTINUOUS
 10
-28.8787977855
 20
-15.5733012957
 11
-22.5289167591
 21
-10.9482969689
  0
LINE
  5
3AA
100
AcDbEntity
  8
DRAFT
100
AcDbLine
 62
7
  6
CONTINUOUS
 10
-22.8042672799
 20
-7.1654776652
 11
-32.3277960196
 21
-13.9343580177
  0
LINE
  5
3AB
100
AcDbEntity
  8
RACCORDO
100
AcDbLine
 62
7
  6
CONTINUOUS
 10
-22.5289167591
 20
-10.2701485914
 11
-28.8787977855
 21
-14.7833480675
  0
LINE
  5
3AC
100
AcDbEntity
  8
RACCORDO
100
AcDbLine
 62
7
  6
CONTINUOUS
 10
21.8697713342
 20
21.9402460786
 11
22.7484272963
 21
22.5615496677
  0
LINE
  5
3AD
100
AcDbEntity
  8
RACCORDO
100
AcDbLine
 62
250
  6
CONTINUOUS
 10
22.9521292755
 20
21.1963271581
 11
22.3157331724
 21
20.7463271581
  0
LINE
  5
3AE
100
AcDbEntity
  8
RACCORDO
100
AcDbLine
 62
250
  6
CONTINUOUS
 10
23.1642613099
 20
20.8341951237
 11
22.5278652068
 21
20.3841951237
  0
LINE
  5
3AF
100
AcDbEntity
  8
RACCORDO
100
AcDbLine
 62
7
  6
CONTINUOUS
 10
17.0570435412
 20
16.8304726758
 11
1.8198122438
 21
6.1890964019
  0
LINE
  5
3B0
100
AcDbEntity
  8
DRAFT
100
AcDbLine
 62
7
  6
CONTINUOUS
 10
-32.2783788485
 20
-17.9238472296
 11
-28.8787977855
 21
-15.5733012957
  0
LINE
  5
3B1
100
AcDbEntity
  8
DRAFT
100
AcDbLine
 62
7
  6
CONTINUOUS
 10
-28.8787977855
 20
-14.7833480675
 11
-32.2933870498
 21
-17.0856960963
  0
LWPOLYLINE
  5
3B2
100
AcDbEntity
  8
RACCORDO
100
AcDbPolyline
 62
7
  6
CONTINUOUS
 90
16
 70
0
 10
17.0570435412
 20
16.8304726758
 10
17.1262211017
 20
16.876525608
 10
17.1946333072
 20
16.9176090346
 10
17.2622801575
 20
16.9537229555
 10
17.3295567882
 20
16.9850155328
 10
17.3960680638
 20
17.0113386045
 10
17.460628578
 20
17.0322476848
 10
17.5229765979
 20
17.0476113516
 10
17.5833738564
 20
17.0575610272
 10
17.6414201461
 20
17.0620464916
 10
17.6972641255
 20
17.0610396348
 10
17.7507571361
 20
17.054568567
 10
17.8010529951
 20
17.0426673993
 10
17.8480779898
 20
17.0252109368
 10
17.8919058328
 20
17.0023243745
 10
17.9137450791
 20
16.9881009163
  0
LWPOLYLINE
  5
3B3
100
AcDbEntity
  8
ASSI
100
AcDbPolyline
 62
7
  6
CONTINUOUS
 90
13
 70
0
 10
1.8198122438
 20
6.1890964019
 10
1.7428968224
 20
6.1382457305
 10
1.6672016639
 20
6.0935965666
 10
1.5927267683
 20
6.0551489099
 10
1.5191002124
 20
6.0227682884
 10
1.4466939194
 20
5.9965891743
 10
1.3766236595
 20
5.9770149837
 10
1.3089256163
 20
5.964148023
 10
1.2435636062
 20
5.9578859858
 10
1.1815448478
 20
5.9583253692
 10
1.1232050807
 20
5.9654983388
 10
1.0682085654
 20
5.979372729
 10
1.0165553018
 20
5.9999485397
  0
LWPOLYLINE
  5
3B4
100
AcDbEntity
  8
COPY-PUBBLISH
100
AcDbPolyline
 62
7
  6
CONTINUOUS
 90
6
 70
0
 10
-0.8103285379
 20
-6.2429426781
 10
-0.7937744328
 20
-6.2409388323
 10
-0.7741913353
 20
-6.2411378962
 10
-0.7570622989
 20
-6.2441414564
 10
-0.7422402838
 20
-6.2499938414
 10
-0.7342114944
 20
-6.2548525784
  0
LWPOLYLINE
  5
3B5
100
AcDbEntity
  8
COPY-PUBBLISH
100
AcDbPolyline
 62
7
  6
CONTINUOUS
 90
6
 70
0
 10
-1.6614227254
 20
-7.3512513881
 10
-1.6317676037
 20
-7.3501681197
 10
-1.5963450173
 20
-7.3450276238
 10
-1.5578974819
 20
-7.3358561112
 10
-1.5164071056
 20
-7.3227268985
 10
-1.4721300616
 20
-7.3056132033
  0
LWPOLYLINE
  5
3B6
100
AcDbEntity
  8
0
100
AcDbPolyline
 62
7
  6
CONTINUOUS
 90
5
 70
0
 10
-1.0818424508
 20
-7.1129159642
 10
-1.1080983854
 20
-7.111909254
 10
-1.1319199335
 20
-7.1073730721
 10
-1.1533070952
 20
-7.0993074186
 10
-1.1702414567
 20
-7.0893525518
  0
LINE
  5
3B7
100
AcDbEntity
  8
ASSI
100
AcDbLine
 62
7
  6
CONTINUOUS
 10
13.0127931144
 20
-9.0102669875
 11
13.3084196104
 21
-9.0909574143
  0
LINE
  5
3B8
100
AcDbEntity
  8
ASSI
100
AcDbLine
 62
7
  6
CONTINUOUS
 10
13.1542144706
 20
-8.9102669875
 11
13.4498409666
 21
-8.9909574143
  0
LINE
  5
3B9
100
AcDbEntity
  8
ASSI
100
AcDbLine
 62
7
  6
CONTINUOUS
 10
13.369750517
 20
-8.8981166012
 11
12.4506262528
 21
-8.6472448278
  0
LINE
  5
3BA
100
AcDbEntity
  8
ASSI
100
AcDbLine
 62
7
  6
CONTINUOUS
 10
12.1518651525
 20
-8.5656990816
 11
11.5360654371
 21
-8.3976186816
  0
LINE
  5
3BB
100
AcDbEntity
  8
ASSI
100
AcDbLine
 62
7
  6
CONTINUOUS
 10
12.5385266968
 20
-8.3708590213
 11
13.10547971
 21
-8.5256070318
  0
LINE
  5
3BC
100
AcDbEntity
  8
ASSI
100
AcDbLine
 62
7
  6
CONTINUOUS
 10
11.3039492224
 20
-8.033885292
 11
12.2397663035
 21
-8.289313775
  0
LINE
  5
3BD
100
AcDbEntity
  8
ASSI
100
AcDbLine
 62
7
  6
CONTINUOUS
 10
12.679948053
 20
-8.2708590213
 11
13.2106323622
 21
-8.4157076051
  0
LINE
  5
3BE
100
AcDbEntity
  8
ASSI
100
AcDbLine
 62
7
  6
CONTINUOUS
 10
11.4453703875
 20
-7.9338852398
 11
12.2803256006
 21
-8.1617837766
  0
LINE
  5
3BF
100
AcDbEntity
  8
ASSI
100
AcDbLine
 62
7
  6
CONTINUOUS
 10
11.6807884935
 20
-7.9022500213
 11
11.3791084564
 21
-7.8199081175
  0
LWPOLYLINE
  5
3C0
100
AcDbEntity
  8
ASSI
100
AcDbPolyline
 62
7
  6
CONTINUOUS
 90
8
 70
0
 10
11.8341182351
 20
-8.9116044636
 10
11.8684270091
 20
-8.9242228362
 10
11.9006126628
 20
-8.9321864586
 10
11.9306751962
 20
-8.9354953307
 10
11.9589119112
 20
-8.9340803792
 10
11.9850255058
 20
-8.9280106775
 10
12.0081240746
 20
-8.9174934456
 10
12.0159694314
 20
-8.9123894453
  0
LWPOLYLINE
  5
3C1
100
AcDbEntity
  8
ASSI
100
AcDbPolyline
 62
7
  6
CONTINUOUS
 90
4
 70
0
 10
11.9755395913
 20
-8.8116044636
 10
12.0098483653
 20
-8.8242228362
 10
12.0420340191
 20
-8.8321864586
 10
12.0662646711
 20
-8.8348534371
  0
LWPOLYLINE
  5
3C2
100
AcDbEntity
  8
0
100
AcDbPolyline
 62
7
  6
CONTINUOUS
 90
21
 70
0
 10
-1.499379989
 20
-7.2532937988
 10
-1.4885478036
 20
-7.259055859
 10
-1.4739339842
 20
-7.2648144895
 10
-1.4577411905
 20
-7.2683587018
 10
-1.4400347879
 20
-7.2697739054
 10
-1.4213143143
 20
-7.2693352383
 10
-1.4015804287
 20
-7.2669635752
 10
-1.3808324721
 20
-7.2627380415
 10
-1.3595680047
 20
-7.2571711515
 10
-1.3379098369
 20
-7.2503516063
 10
-1.3157351583
 20
-7.2421907048
 10
-1.2931730977
 20
-7.2329348577
 10
-1.2701785002
 20
-7.2225478076
 10
-1.2467965207
 20
-7.211065812
 10
-1.2232917524
 20
-7.1988440534
 10
-1.1996920713
 20
-7.1859184402
 10
-1.1759696014
 20
-7.1722530642
 10
-1.1523053079
 20
-7.1580953828
 10
-1.1287595124
 20
-7.1435278819
 10
-1.1052718934
 20
-7.1284680757
 10
-1.0818424508
 20
-7.1129159642
  0
LWPOLYLINE
  5
3C3
100
AcDbEntity
  8
0
100
AcDbPolyline
 62
7
  6
CONTINUOUS
 90
41
 70
0
 10
-0.592746326
 20
-6.3548835059
 10
-0.6060899706
 20
-6.3476232212
 10
-0.622810033
 20
-6.3427063691
 10
-0.6412358251
 20
-6.3406974082
 10
-0.6614132942
 20
-6.3416595991
 10
-0.6832964932
 20
-6.3455296812
 10
-0.7061679264
 20
-6.3518957591
 10
-0.7300387843
 20
-6.3607775897
 10
-0.7548978765
 20
-6.372155416
 10
-0.7799941367
 20
-6.3855580721
 10
-0.8054995487
 20
-6.4011908859
 10
-0.8312421287
 20
-6.4188485295
 10
-0.855954859
 20
-6.4374438531
 10
-0.8793083738
 20
-6.4568928212
 10
-0.9016320389
 20
-6.4772794692
 10
-0.9226469331
 20
-6.4977687536
 10
-0.9421550816
 20
-6.5181060239
 10
-0.9603544592
 20
-6.5385459305
 10
-0.9775600693
 20
-6.5590173822
 10
-0.9939255374
 20
-6.5793212689
 10
-1.0092972381
 20
-6.5996567007
 10
-1.0235292985
 20
-6.6205499165
 10
-1.0366889424
 20
-6.6422578328
 10
-1.0487089461
 20
-6.6645235331
 10
-1.0592417657
 20
-6.6871025073
 10
-1.0681569322
 20
-6.710122057
 10
-1.0755849147
 20
-6.7334548806
 10
-1.0815695767
 20
-6.7564745623
 10
-1.0860248894
 20
-6.7790478958
 10
-1.0890368815
 20
-6.8013080875
 10
-1.0909075026
 20
-6.8230283412
 10
-1.0918213757
 20
-6.8444951805
 10
-1.0915938779
 20
-6.8654220817
 10
-1.0899730891
 20
-6.8847226776
 10
-1.0867508233
 20
-6.9021125939
 10
-1.0821352667
 20
-6.9178762048
 10
-1.0764990583
 20
-6.9317802657
 10
-1.069829706
 20
-6.9436109348
 10
-1.0621397019
 20
-6.9535820539
 10
-1.0538391609
 20
-6.962101903
 10
-1.0454757911
 20
-6.9687741914
  0
LWPOLYLINE
  5
3C4
100
AcDbEntity
  8
0
100
AcDbPolyline
 62
7
  6
CONTINUOUS
 90
18
 70
0
 10
-1.0454757911
 20
-6.9687741914
 10
-1.0355886603
 20
-6.9749073311
 10
-1.0256844314
 20
-6.9793621115
 10
-1.0153724856
 20
-6.9826682969
 10
-1.0045868295
 20
-6.9847521836
 10
-0.9932663099
 20
-6.9856216316
 10
-0.9813685974
 20
-6.9852708737
 10
-0.9689360212
 20
-6.9837056772
 10
-0.9560344162
 20
-6.9809512037
 10
-0.9425851804
 20
-6.9769030186
 10
-0.9286669157
 20
-6.9716655566
 10
-0.9145812631
 20
-6.9655772833
 10
-0.9003818388
 20
-6.9586890824
 10
-0.8860150264
 20
-6.9509500702
 10
-0.8716216184
 20
-6.9425460615
 10
-0.8572485453
 20
-6.9335389945
 10
-0.8428488765
 20
-6.9238669309
 10
-0.828422612
 20
-6.9135298708
  0
LWPOLYLINE
  5
3C5
100
AcDbEntity
  8
0
100
AcDbPolyline
 62
7
  6
CONTINUOUS
 90
31
 70
0
 10
-0.9989584722
 20
-7.5270931156
 10
-1.0240792771
 20
-7.5108619093
 10
-1.049719619
 20
-7.4995374352
 10
-1.0777078562
 20
-7.492947306
 10
-1.1075299561
 20
-7.4904889098
 10
-1.1384738389
 20
-7.4926203232
 10
-1.1705859372
 20
-7.4998661
 10
-1.2038198183
 20
-7.5117016864
 10
-1.2373241048
 20
-7.5270114975
 10
-1.2711367032
 20
-7.5457825659
 10
-1.3052197068
 20
-7.5680278591
 10
-1.3386080183
 20
-7.5926706942
 10
-1.3711858691
 20
-7.6196581159
 10
-1.4030690279
 20
-7.6490430795
 10
-1.433639703
 20
-7.6799077695
 10
-1.4627235843
 20
-7.7121387466
 10
-1.4904949821
 20
-7.7458494499
 10
-1.5168590348
 20
-7.7804623815
 10
-1.5420890806
 20
-7.8159907893
 10
-1.5659117815
 20
-7.8524214253
 10
-1.5874122616
 20
-7.8891370472
 10
-1.606312357
 20
-7.9260698083
 10
-1.6228902317
 20
-7.9632875553
 10
-1.6370655019
 20
-8.0003765864
 10
-1.6486760235
 20
-8.0373489127
 10
-1.6578839407
 20
-8.074192523
 10
-1.6650953018
 20
-8.1104576817
 10
-1.6703442677
 20
-8.1460722633
 10
-1.6735966777
 20
-8.1811083931
 10
-1.6751560974
 20
-8.2153327113
 10
-1.6752140709
 20
-8.2491416158
  0
LWPOLYLINE
  5
3C6
100
AcDbEntity
  8
0
100
AcDbPolyline
 62
7
  6
CONTINUOUS
 90
26
 70
0
 10
-0.89395055
 20
-7.9013407439
 10
-0.8874655866
 20
-7.9057815086
 10
-0.8749617723
 20
-7.9134964391
 10
-0.8620047692
 20
-7.9204959998
 10
-0.8484357152
 20
-7.9265913784
 10
-0.8342178342
 20
-7.931829539
 10
-0.8193879022
 20
-7.9361635175
 10
-0.8038973845
 20
-7.9392636088
 10
-0.7877079586
 20
-7.941080799
 10
-0.7708579469
 20
-7.9416641021
 10
-0.7534137815
 20
-7.9408308549
 10
-0.7352913331
 20
-7.9383765974
 10
-0.716574731
 20
-7.9345057895
 10
-0.6975827961
 20
-7.9296491477
 10
-0.6784135117
 20
-7.9238892501
 10
-0.6589688944
 20
-7.9171435186
 10
-0.6392738152
 20
-7.9095949345
 10
-0.6193478192
 20
-7.9012882464
 10
-0.5991713613
 20
-7.8921787057
 10
-0.5787106776
 20
-7.8823150486
 10
-0.5579805916
 20
-7.8717167518
 10
-0.5369662799
 20
-7.8603643387
 10
-0.5155895078
 20
-7.8482481153
 10
-0.4938241972
 20
-7.8353648506
 10
-0.4716964263
 20
-7.8217177756
 10
-0.449206195
 20
-7.8073068905
  0
LINE
  5
3C7
100
AcDbEntity
  8
0
100
AcDbLine
 62
7
  6
CONTINUOUS
 10
-1.1702414567
 20
-7.0893525518
 11
-1.1723215732
 21
-7.0878884413
  0
LINE
  5
3C8
100
AcDbEntity
  8
0
100
AcDbLine
 62
7
  6
CONTINUOUS
 10
-0.449206195
 20
-8.5957422652
 11
-0.5906275512
 21
-8.4957422652
  0
LINE
  5
3C9
100
AcDbEntity
  8
RACCORDO
100
AcDbLine
 62
7
  6
CONTINUOUS
 10
2.5750884759
 20
-10.705054535
 11
14.8208459637
 21
-19.3641126954
  0
LINE
  5
3CA
100
AcDbEntity
  8
RACCORDO
100
AcDbLine
 62
250
  6
CONTINUOUS
 10
2.5750884759
 20
-10.6376310736
 11
14.8556085985
 21
-19.3212701287
  0
LINE
  5
3CB
100
AcDbEntity
  8
COPY-PUBBLISH
100
AcDbLine
 62
7
  6
CONTINUOUS
 10
-1.0899429061
 20
-7.7167450438
 11
-1.2313642624
 21
-7.6167450438
  0
LINE
  5
3CC
100
AcDbEntity
  8
COPY-PUBBLISH
100
AcDbLine
 62
7
  6
CONTINUOUS
 10
-1.640854565
 20
-7.1532562018
 11
-1.4994332088
 21
-7.2532562018
  0
LINE
  5
3CD
100
AcDbEntity
  8
COPY-PUBBLISH
100
AcDbLine
 62
7
  6
CONTINUOUS
 10
-0.933527988
 20
-7.6281047776
 11
-0.7921066318
 21
-7.7281047776
  0
LINE
  5
3CE
100
AcDbEntity
  8
0
100
AcDbLine
 62
7
  6
CONTINUOUS
 10
-0.449206195
 20
-7.8073068905
 11
-0.5906275512
 21
-7.7073068905
  0
LINE
  5
3CF
100
AcDbEntity
  8
RACCORDO
100
AcDbLine
 62
250
  6
CONTINUOUS
 10
2.1189430961
 20
-9.6093766385
 11
1.4551864704
 21
-9.1401132164
  0
LINE
  5
3D0
100
AcDbEntity
  8
RACCORDO
100
AcDbLine
 62
7
  6
CONTINUOUS
 10
2.3637636105
 20
-9.5409896015
 11
1.5296247303
 21
-8.9511643428
  0
LINE
  5
3D1
100
AcDbEntity
  8
0
100
AcDbLine
 62
7
  6
CONTINUOUS
 10
-1.3512220107
 20
-6.8024486271
 11
-1.4476493807
 21
-6.7342641799
  0
LINE
  5
3D2
100
AcDbEntity
  8
COPY-PUBBLISH
100
AcDbLine
 62
7
  6
CONTINUOUS
 10
-1.1869210873
 20
-6.868757269
 11
-1.045499731
 21
-6.968757269
  0
LINE
  5
3D3
100
AcDbEntity
  8
RACCORDO
100
AcDbLine
 62
250
  6
CONTINUOUS
 10
-6.465173989
 20
-2.7797612117
 11
-31.5674647211
 21
14.9702387883
  0
LINE
  5
3D4
100
AcDbEntity
  8
COPY-PUBBLISH
100
AcDbLine
 62
7
  6
CONTINUOUS
 10
-0.5927224642
 20
-6.3549003712
 11
-0.7341438205
 21
-6.2549003712
  0
LINE
  5
3D5
100
AcDbEntity
  8
0
100
AcDbLine
 62
7
  6
CONTINUOUS
 10
-1.0818424508
 20
-7.1129159642
 11
-1.2188944413
 21
-7.0159608553
  0
LWPOLYLINE
  5
3D6
100
AcDbEntity
  8
0
100
AcDbPolyline
 62
7
  6
CONTINUOUS
 90
17
 70
0
 10
-1.0899235794
 20
-7.7167587113
 10
-1.0800856582
 20
-7.7240810216
 10
-1.0644670069
 20
-7.7367172186
 10
-1.0493435042
 20
-7.7506659505
 10
-1.0346369955
 20
-7.7647858237
 10
-1.0202674721
 20
-7.7788953388
 10
-1.0063149427
 20
-7.7931759952
 10
-0.9929412785
 20
-7.8070308973
 10
-0.9803027495
 20
-7.8203163527
 10
-0.9682430857
 20
-7.8331760538
 10
-0.9564553486
 20
-7.8454441819
 10
-0.9449616671
 20
-7.8570846039
 10
-0.9337399124
 20
-7.868133453
 10
-0.9224167595
 20
-7.8785333099
 10
-0.9109850303
 20
-7.8882871609
 10
-0.8994519028
 20
-7.8973920196
 10
-0.89395055
 20
-7.9013407439
  0
LWPOLYLINE
  5
3D7
100
AcDbEntity
  8
0
100
AcDbPolyline
 62
7
  6
CONTINUOUS
 90
12
 70
0
 10
-0.7920969155
 20
-7.7281116476
 10
-0.8015622914
 20
-7.7210500971
 10
-0.8204720733
 20
-7.7048717811
 10
-0.8386749408
 20
-7.6863912931
 10
-0.8570652617
 20
-7.6669802345
 10
-0.8757805027
 20
-7.6467282119
 10
-0.8946831971
 20
-7.6255456187
 10
-0.9142553135
 20
-7.604535237
 10
-0.9345460339
 20
-7.5835001247
 10
-0.9555061762
 20
-7.562637224
 10
-0.9774701636
 20
-7.5436401438
 10
-0.9989584722
 20
-7.5270931156
  0
LWPOLYLINE
  5
3D8
100
AcDbEntity
  8
0
100
AcDbPolyline
 62
7
  6
CONTINUOUS
 90
45
 70
0
 10
-0.4864887243
 20
-6.1859045239
 10
-0.4812200542
 20
-6.1898665403
 10
-0.464381976
 20
-6.2060741882
 10
-0.4501140252
 20
-6.2262342632
 10
-0.4383261339
 20
-6.2508624697
 10
-0.42910837
 20
-6.2794431033
 10
-0.4225873404
 20
-6.3107594082
 10
-0.4187083832
 20
-6.344876716
 10
-0.4175261604
 20
-6.3817296952
 10
-0.419331264
 20
-6.4199055946
 10
-0.4242325756
 20
-6.4591332252
 10
-0.4321212136
 20
-6.499683776
 10
-0.4429611265
 20
-6.5409580633
 10
-0.4568493106
 20
-6.5828676568
 10
-0.4736887696
 20
-6.6255009867
 10
-0.4931524627
 20
-6.6685241601
 10
-0.5151185279
 20
-6.7121418025
 10
-0.5397088273
 20
-6.7561492883
 10
-0.566961906
 20
-6.7995988474
 10
-0.5969646575
 20
-6.8422483867
 10
-0.6296301884
 20
-6.8843399994
 10
-0.6647363632
 20
-6.9256521953
 10
-0.7022732438
 20
-6.9660246148
 10
-0.7422507683
 20
-7.0056176176
 10
-0.7844766159
 20
-7.0446907917
 10
-0.8290360984
 20
-7.0833479074
 10
-0.8758439041
 20
-7.1214851943
 10
-0.9244517771
 20
-7.1590509306
 10
-0.9752915554
 20
-7.1964398111
 10
-1.027931401
 20
-7.2332571409
 10
-1.0806275446
 20
-7.2682671125
 10
-1.1335031159
 20
-7.301613664
 10
-1.1864349851
 20
-7.3331528573
 10
-1.2373099928
 20
-7.3612170702
 10
-1.28561715
 20
-7.3853644814
 10
-1.3318674457
 20
-7.4060369122
 10
-1.375480688
 20
-7.4228922051
 10
-1.4164278824
 20
-7.4358319061
 10
-1.4547380233
 20
-7.4449544692
 10
-1.4899179017
 20
-7.4502130979
 10
-1.5217962151
 20
-7.4515071054
 10
-1.550544266
 20
-7.4489371786
 10
-1.5761827525
 20
-7.4427585819
 10
-1.5986139886
 20
-7.4330301198
 10
-1.6099168261
 20
-7.4258009016
  0
LWPOLYLINE
  5
3D9
100
AcDbEntity
  8
0
100
AcDbPolyline
 62
7
  6
CONTINUOUS
 90
9
 70
0
 10
-1.6099168261
 20
-7.4258009016
 10
-1.6179356605
 20
-7.4196929877
 10
-1.6344615248
 20
-7.4028260367
 10
-1.6482808162
 20
-7.3822669763
 10
-1.6593043
 20
-7.3581780969
 10
-1.6675780292
 20
-7.331125121
 10
-1.672850665
 20
-7.3005222731
 10
-1.6753735463
 20
-7.2669553286
 10
-1.675946742
 20
-7.2327473359
  0
LINE
  5
3DA
100
AcDbEntity
  8
COPY-PUBBLISH
100
AcDbLine
 62
7
  6
CONTINUOUS
 10
-0.9335321315
 20
-7.6281018476
 11
-0.9503840533
 21
-7.6150118119
  0
LWPOLYLINE
  5
3DB
100
AcDbEntity
  8
RACCORDO
100
AcDbPolyline
 62
250
  6
CONTINUOUS
 90
18
 70
0
 10
2.1189430961
 20
-9.6093766385
 10
2.1502082518
 20
-9.6341793432
 10
2.1809849476
 20
-9.6614152643
 10
2.2110604146
 20
-9.690920918
 10
2.2401740916
 20
-9.7224662179
 10
2.2680288984
 20
-9.7557406145
 10
2.2943896722
 20
-9.7904588575
 10
2.3190811696
 20
-9.8263855709
 10
2.341920194
 20
-9.8632553543
 10
2.3627344194
 20
-9.9007933888
 10
2.3813604615
 20
-9.938708717
 10
2.3976516384
 20
-9.9767042994
 10
2.4114828854
 20
-10.0144878691
 10
2.4227499913
 20
-10.0517740619
 10
2.4313670309
 20
-10.0882784425
 10
2.4372683668
 20
-10.123722709
 10
2.4404090933
 20
-10.1578368
 10
2.4407653267
 20
-10.1903607245
  0
LWPOLYLINE
  5
3DC
100
AcDbEntity
  8
COPY-PUBBLISH
100
AcDbPolyline
 62
7
  6
CONTINUOUS
 90
5
 70
0
 10
-1.1869161464
 20
-6.8687607625
 10
-1.1972010378
 20
-6.8601570129
 10
-1.2094209933
 20
-6.846135083
 10
-1.218949089
 20
-6.8291485851
 10
-1.2216569061
 20
-6.8217078632
  0
LWPOLYLINE
  5
3DD
100
AcDbEntity
  8
COPY-PUBBLISH
100
AcDbPolyline
 62
7
  6
CONTINUOUS
 90
4
 70
0
 10
-1.6408787102
 20
-7.1532391213
 10
-1.651597832
 20
-7.1442071684
 10
-1.6622409019
 20
-7.1311562758
 10
-1.6659444951
 20
-7.1243336051
  0
LWPOLYLINE
  5
3DE
100
AcDbEntity
  8
0
100
AcDbPolyline
 62
7
  6
CONTINUOUS
 90
6
 70
0
 10
-1.1723215732
 20
-7.0878884413
 10
-1.1889016648
 20
-7.0729399924
 10
-1.2028622619
 20
-7.0539336279
 10
-1.2142646975
 20
-7.0304688615
 10
-1.2230476388
 20
-7.0029461796
 10
-1.2288419782
 20
-6.972038597
  0
LWPOLYLINE
  5
3DF
100
AcDbEntity
  8
COPY-PUBBLISH
100
AcDbPolyline
 62
7
  6
CONTINUOUS
 90
3
 70
0
 10
-0.9503840533
 20
-7.6150118119
 10
-0.9705489417
 20
-7.596754791
 10
-0.9900617745
 20
-7.5760080276
  0
LWPOLYLINE
  5
3E0
100
AcDbEntity
  8
COPY-PUBBLISH
100
AcDbPolyline
 62
7
  6
CONTINUOUS
 90
4
 70
0
 10
-0.9900617745
 20
-7.5760080276
 10
-1.0305474522
 20
-7.532016401
 10
-1.0515202971
 20
-7.5087715378
 10
-1.0635409035
 20
-7.4962830663
  0
LWPOLYLINE
  5
3E1
100
AcDbEntity
  8
0
100
AcDbPolyline
 62
7
  6
CONTINUOUS
 90
6
 70
0
 10
-3.2461769675
 20
-10.1759553475
 10
-3.2544485274
 20
-10.1561166195
 10
-3.2645870016
 20
-10.1386576302
 10
-3.27659239
 20
-10.1235783796
 10
-3.29056608
 20
-10.1108143375
 10
-3.294875915
 20
-10.1075829906
  0
LWPOLYLINE
  5
3E2
100
AcDbEntity
  8
ASSI
100
AcDbPolyline
 62
7
  6
CONTINUOUS
 90
4
 70
0
 10
-4.9715400191
 20
-11.2879045963
 10
-4.9745236063
 20
-11.261464992
 10
-4.9742784151
 20
-11.2329333667
 10
-4.970877878
 20
-11.2020219236
  0
LWPOLYLINE
  5
3E3
100
AcDbEntity
  8
0
100
AcDbPolyline
 62
7
  6
CONTINUOUS
 90
21
 70
0
 10
-1.4321864442
 20
-11.3057475651
 10
-1.4336945917
 20
-11.2919614911
 10
-1.4352929824
 20
-11.2786456127
 10
-1.4369816164
 20
-11.2657999301
 10
-1.4387527438
 20
-11.2534581174
 10
-1.4406141145
 20
-11.2415865004
 10
-1.4425889783
 20
-11.2300840565
 10
-1.4446637313
 20
-11.2189362053
 10
-1.4468519774
 20
-11.2081575273
 10
-1.4492177777
 20
-11.1976907412
 10
-1.4517640749
 20
-11.1875352346
 10
-1.4544879263
 20
-11.17769162
 10
-1.4574445651
 20
-11.1681044532
 10
-1.4606018404
 20
-11.1587079832
 10
-1.4639919031
 20
-11.1495679611
 10
-1.4677664399
 20
-11.1408261967
 10
-1.4718444456
 20
-11.1323461186
 10
-1.4763069254
 20
-11.1242642982
 10
-1.481548581
 20
-11.1171322596
 10
-1.4877160823
 20
-11.1110482773
 10
-1.4913984369
 20
-11.1078525242
  0
LWPOLYLINE
  5
3E4
100
AcDbEntity
  8
COPY-PUBBLISH
100
AcDbPolyline
 62
7
  6
CONTINUOUS
 90
4
 70
0
 10
-0.559711419
 20
-9.1720474745
 10
-0.5627828595
 20
-9.1352914111
 10
-0.5688072169
 20
-9.1021541392
 10
-0.576349012
 20
-9.0767174714
  0
LWPOLYLINE
  5
3E5
100
AcDbEntity
  8
COPY-PUBBLISH
100
AcDbPolyline
 62
7
  6
CONTINUOUS
 90
4
 70
0
 10
-0.559711419
 20
-6.2562785201
 10
-0.5627828595
 20
-6.2195224568
 10
-0.5688072169
 20
-6.1863851849
 10
-0.576349012
 20
-6.1609485171
  0
LINE
  5
3E6
100
AcDbEntity
  8
0
100
AcDbLine
 62
7
  6
CONTINUOUS
 10
-1.2288419782
 20
-9.8878075513
 11
-1.2315727178
 21
-9.8531193491
  0
LINE
  5
3E7
100
AcDbEntity
  8
0
100
AcDbLine
 62
7
  6
CONTINUOUS
 10
-1.2288419782
 20
-6.972038597
 11
-1.2315727178
 21
-6.9373503947
  0
LWPOLYLINE
  5
3E8
100
AcDbEntity
  8
0
100
AcDbPolyline
 62
7
  6
CONTINUOUS
 90
10
 70
0
 10
-1.6752140709
 20
-8.2491416158
 10
-1.6735790542
 20
-8.2821387086
 10
-1.6699799809
 20
-8.3129014364
 10
-1.6642522855
 20
-8.3413044237
 10
-1.6565605335
 20
-8.367473046
 10
-1.6471273554
 20
-8.3903608757
 10
-1.635857344
 20
-8.409516716
 10
-1.6228459066
 20
-8.4253917638
 10
-1.608601895
 20
-8.4382931828
 10
-1.6060589408
 20
-8.4401461379
  0
LWPOLYLINE
  5
3E9
100
AcDbEntity
  8
ASSI
100
AcDbPolyline
 62
7
  6
CONTINUOUS
 90
12
 70
0
 10
-0.4177498427
 20
7.0811286858
 10
-0.4159530068
 20
7.0205785001
 10
-0.4105946892
 20
6.9630470055
 10
-0.40167489
 20
6.908534202
 10
-0.3891083165
 20
6.8568012118
 10
-0.3729802614
 20
6.8080869127
 10
-0.3535466025
 20
6.7631079379
 10
-0.3308347146
 20
6.7220399438
 10
-0.3048172228
 20
6.684707274
 10
-0.2756678803
 20
6.6512995921
 10
-0.2434446047
 20
6.6218801192
 10
-0.2229109822
 20
6.6062396012
  0
LWPOLYLINE
  5
3EA
100
AcDbEntity
  8
RACCORDO
100
AcDbPolyline
 62
250
  6
CONTINUOUS
 90
28
 70
0
 10
-0.834822201
 20
32.5393315341
 10
-0.8326674047
 20
32.4588363287
 10
-0.8257442707
 20
32.3821588056
 10
-0.814052799
 20
32.3092989648
 10
-0.7975542517
 20
32.2398381456
 10
-0.7762873667
 20
32.1741950087
 10
-0.7503683577
 20
32.1136255361
 10
-0.7196665668
 20
32.0582909247
 10
-0.684312652
 20
32.0080299775
 10
-0.6448148004
 20
31.9636150858
 10
-0.6011444574
 20
31.925217439
 10
-0.5533301776
 20
31.8926658476
 10
-0.5019658124
 20
31.8662191342
 10
-0.4471227486
 20
31.8459327412
 10
-0.3887295992
 20
31.8317512262
 10
-0.3271660546
 20
31.8237670848
 10
-0.2623268912
 20
31.821990906
 10
-0.1943173325
 20
31.8264121008
 10
-0.1238327397
 20
31.8370913979
 10
-0.0507292219
 20
31.8541702429
 10
0.0248493299
 20
31.8775071901
 10
0.1017758814
 20
31.9067386311
 10
0.1801099904
 20
31.9420458068
 10
0.259792099
 20
31.9832474764
 10
0.3395165001
 20
32.0294363091
 10
0.4188479578
 20
32.0803098615
 10
0.498221708
 20
32.1361705771
 10
0.5776377506
 20
32.1970184559
  0
LWPOLYLINE
  5
3EB
100
AcDbEntity
  8
0
100
AcDbPolyline
 62
7
  6
CONTINUOUS
 90
13
 70
0
 10
0.8727360651
 20
-26.4767783496
 10
0.8785649989
 20
-26.7148374346
 10
0.8957715
 20
-26.9432984736
 10
0.9243555684
 20
-27.1621614667
 10
0.9644559411
 20
-27.3719395599
 10
1.0159338811
 20
-27.5721196072
 10
1.0783731775
 20
-27.7611621706
 10
1.151779348
 20
-27.9388489137
 10
1.2361468749
 20
-28.105398173
 10
1.3310429946
 20
-28.2599255198
 10
1.436660843
 20
-28.4025095643
 10
1.5528072843
 20
-28.5330716963
 10
1.6610155995
 20
-28.6354896357
  0
LWPOLYLINE
  5
3EC
100
AcDbEntity
  8
0
100
AcDbPolyline
 62
7
  6
CONTINUOUS
 90
7
 70
0
 10
-0.5543558018
 20
-9.3801666522
 10
-0.5548155319
 20
-9.3558114389
 10
-0.5575780026
 20
-9.3339498029
 10
-0.562643214
 20
-9.3145817442
 10
-0.5700169517
 20
-9.2974951205
 10
-0.57969343
 20
-9.282902074
 10
-0.592746326
 20
-9.2706524602
  0
LWPOLYLINE
  5
3ED
100
AcDbEntity
  8
0
100
AcDbPolyline
 62
7
  6
CONTINUOUS
 90
7
 70
0
 10
-0.5543558018
 20
-6.4643976979
 10
-0.5548155319
 20
-6.4400424845
 10
-0.5575780026
 20
-6.4181808485
 10
-0.562643214
 20
-6.3988127899
 10
-0.5700169517
 20
-6.3817261661
 10
-0.57969343
 20
-6.3671331197
 10
-0.592746326
 20
-6.3548835059
  0
LWPOLYLINE
  5
3EE
100
AcDbEntity
  8
RACCORDO
100
AcDbPolyline
 62
7
  6
CONTINUOUS
 90
14
 70
0
 10
-0.7005029336
 20
34.2843856759
 10
-0.7010296168
 20
34.3249468811
 10
-0.7067790497
 20
34.4225968292
 10
-0.7186907998
 20
34.5156480859
 10
-0.7365443113
 20
34.6040054716
 10
-0.7601464769
 20
34.6877890367
 10
-0.7893822986
 20
34.7671556507
 10
-0.8241106301
 20
34.8420261797
 10
-0.8640931608
 20
34.9121639165
 10
-0.9090165816
 20
34.9772893086
 10
-0.9585265024
 20
35.0371498966
 10
-1.0122608649
 20
35.091563212
 10
-1.0697451998
 20
35.140319433
 10
-1.1000693981
 20
35.1627614628
  0
LINE
  5
3EF
100
AcDbEntity
  8
RACCORDO
100
AcDbLine
 62
250
  6
CONTINUOUS
 10
-0.0459976868
 20
36.1337323774
 11
-0.0459984006
 21
36.1341951237
  0
LINE
  5
3F0
100
AcDbEntity
  8
ASSI
100
AcDbLine
 62
7
  6
CONTINUOUS
 10
-3.3875983237
 20
-35.3040297694
 11
-3.3875983237
 21
-34.9128137937
  0
LINE
  5
3F1
100
AcDbEntity
  8
ASSI
100
AcDbLine
 62
7
  6
CONTINUOUS
 10
-3.3875983237
 20
-33.5939012115
 11
-3.3875983237
 21
-33.2437183956
  0
LINE
  5
3F2
100
AcDbEntity
  8
ASSI
100
AcDbLine
 62
7
  6
CONTINUOUS
 10
-3.3875983237
 20
-32.4588845191
 11
-3.3875983237
 21
-32.1381491651
  0
LINE
  5
3F3
100
AcDbEntity
  8
ASSI
100
AcDbLine
 62
7
  6
CONTINUOUS
 10
-3.3875983237
 20
-31.4227206475
 11
-3.3875983237
 21
-31.026331047
  0
LINE
  5
3F4
100
AcDbEntity
  8
ASSI
100
AcDbLine
 62
7
  6
CONTINUOUS
 10
-3.3875983237
 20
-30.3552312384
 11
-3.3875983237
 21
-30.0344958845
  0
LINE
  5
3F5
100
AcDbEntity
  8
ASSI
100
AcDbLine
 62
7
  6
CONTINUOUS
 10
-3.3875983237
 20
-29.4935791991
 11
-3.3875983237
 21
-29.1044446806
  0
LINE
  5
3F6
100
AcDbEntity
  8
ASSI
100
AcDbLine
 62
7
  6
CONTINUOUS
 10
-3.3875983237
 20
-27.6719773785
 11
-3.3875983237
 21
-27.3762710182
  0
LINE
  5
3F7
100
AcDbEntity
  8
ASSI
100
AcDbLine
 62
7
  6
CONTINUOUS
 10
-3.3875983237
 20
-26.8415179407
 11
-3.3875983237
 21
-26.4717030121
  0
LINE
  5
3F8
100
AcDbEntity
  8
ASSI
100
AcDbLine
 62
7
  6
CONTINUOUS
 10
-3.3875983237
 20
-25.2806136623
 11
-3.3875983237
 21
-24.9326398925
  0
LINE
  5
3F9
100
AcDbEntity
  8
ASSI
100
AcDbLine
 62
7
  6
CONTINUOUS
 10
-3.3875983237
 20
-13.8107222459
 11
-3.3875983237
 21
-13.4100270287
  0
LINE
  5
3FA
100
AcDbEntity
  8
ASSI
100
AcDbLine
 62
7
  6
CONTINUOUS
 10
-3.3875983237
 20
-12.5910550612
 11
-3.3875983237
 21
-11.7217841769
  0
LINE
  5
3FB
100
AcDbEntity
  8
ASSI
100
AcDbLine
 62
7
  6
CONTINUOUS
 10
-3.3875983237
 20
-10.9544100459
 11
-3.3875983237
 21
-10.0851118129
  0
LINE
  5
3FC
100
AcDbEntity
  8
ASSI
100
AcDbLine
 62
7
  6
CONTINUOUS
 10
-3.3875983237
 20
-9.2756661001
 11
-3.3875983237
 21
-8.4083857485
  0
LINE
  5
3FD
100
AcDbEntity
  8
0
100
AcDbLine
 62
7
  6
CONTINUOUS
 10
-3.2461769675
 20
-35.4040297694
 11
-3.2461769675
 21
-34.8582720278
  0
LINE
  5
3FE
100
AcDbEntity
  8
0
100
AcDbLine
 62
7
  6
CONTINUOUS
 10
-3.2461769675
 20
-33.6939012115
 11
-3.2461769675
 21
-33.1437183956
  0
LINE
  5
3FF
100
AcDbEntity
  8
0
100
AcDbLine
 62
7
  6
CONTINUOUS
 10
-3.2461769675
 20
-32.5588845191
 11
-3.2461769675
 21
-32.0381491651
  0
LINE
  5
400
100
AcDbEntity
  8
0
100
AcDbLine
 62
7
  6
CONTINUOUS
 10
-3.2461769675
 20
-31.5227206475
 11
-3.2461769675
 21
-30.970659756
  0
LINE
  5
401
100
AcDbEntity
  8
0
100
AcDbLine
 62
7
  6
CONTINUOUS
 10
-3.2461769675
 20
-30.4552312384
 11
-3.2461769675
 21
-29.9344958845
  0
LINE
  5
402
100
AcDbEntity
  8
0
100
AcDbLine
 62
7
  6
CONTINUOUS
 10
-3.2461769675
 20
-29.5935791991
 11
-3.2461769675
 21
-29.0501471317
  0
LINE
  5
403
100
AcDbEntity
  8
0
100
AcDbLine
 62
7
  6
CONTINUOUS
 10
-3.2461769675
 20
-27.7719773785
 11
-3.2461769675
 21
-27.2285453111
  0
LINE
  5
404
100
AcDbEntity
  8
0
100
AcDbLine
 62
7
  6
CONTINUOUS
 10
-3.2461769675
 20
-26.9415179407
 11
-3.2461769675
 21
-26.3717030121
  0
LINE
  5
405
100
AcDbEntity
  8
0
100
AcDbLine
 62
7
  6
CONTINUOUS
 10
-3.2461769675
 20
-25.3806136623
 11
-3.2461769675
 21
-24.7590660945
  0
LINE
  5
406
100
AcDbEntity
  8
0
100
AcDbLine
 62
7
  6
CONTINUOUS
 10
-3.2461769675
 20
-13.9107222459
 11
-3.2461769675
 21
-13.3467466052
  0
LINE
  5
407
100
AcDbEntity
  8
0
100
AcDbLine
 62
7
  6
CONTINUOUS
 10
-3.2461769675
 20
-12.6910546604
 11
-3.2461769675
 21
-11.6585037092
  0
LINE
  5
408
100
AcDbEntity
  8
0
100
AcDbLine
 62
7
  6
CONTINUOUS
 10
-3.2461769675
 20
-11.0544098969
 11
-3.2461769675
 21
-10.1759553475
  0
LINE
  5
409
100
AcDbEntity
  8
0
100
AcDbLine
 62
7
  6
CONTINUOUS
 10
-3.2461769574
 20
-9.3756660276
 11
-3.2461769675
 21
-8.3451052773
  0
LINE
  5
40A
100
AcDbEntity
  8
RACCORDO
100
AcDbLine
 62
7
  6
CONTINUOUS
 10
-3.0529535505
 20
37.0535520082
 11
-3.0529535505
 21
36.5436640107
  0
LINE
  5
40B
100
AcDbEntity
  8
RACCORDO
100
AcDbLine
 62
7
  6
CONTINUOUS
 10
-1.7922313975
 20
24.2591863958
 11
-1.7922313975
 21
27.8468287308
  0
LINE
  5
40C
100
AcDbEntity
  8
0
100
AcDbLine
 62
7
  6
CONTINUOUS
 10
-1.6660775684
 20
-11.0196720483
 11
-1.6660775684
 21
-11.1408326739
  0
LINE
  5
40D
100
AcDbEntity
  8
0
100
AcDbLine
 62
7
  6
CONTINUOUS
 10
-1.6506484985
 20
-8.7695641759
 11
-1.6506484985
 21
-9.6194690502
  0
LINE
  5
40E
100
AcDbEntity
  8
COPY-PUBBLISH
100
AcDbLine
 62
7
  6
CONTINUOUS
 10
-1.6377006662
 20
-9.4103135502
 11
-1.6377006662
 21
-8.7604086759
  0
LINE
  5
40F
100
AcDbEntity
  8
RACCORDO
100
AcDbLine
 62
7
  6
CONTINUOUS
 10
-1.529144223
 20
31.2188793066
 11
-1.529144223
 21
33.5173248787
  0
LINE
  5
410
100
AcDbEntity
  8
0
100
AcDbLine
 62
7
  6
CONTINUOUS
 10
-1.49627931
 20
-9.5103135502
 11
-1.49627931
 21
-8.834608674
  0
LINE
  5
411
100
AcDbEntity
  8
COPY-PUBBLISH
100
AcDbLine
 62
7
  6
CONTINUOUS
 10
-1.4559409894
 20
-11.1225445651
 11
-1.4559409894
 21
-10.8710830483
  0
LINE
  5
412
100
AcDbEntity
  8
RACCORDO
100
AcDbLine
 62
7
  6
CONTINUOUS
 10
-1.35468236
 20
28.1849285944
 11
-1.35468236
 21
27.3057272985
  0
LINE
  5
413
100
AcDbEntity
  8
0
100
AcDbLine
 62
7
  6
CONTINUOUS
 10
-1.3512220107
 20
-9.7182175815
 11
-1.3512220107
 21
-9.5664717591
  0
LINE
  5
414
100
AcDbEntity
  8
0
100
AcDbLine
 62
7
  6
CONTINUOUS
 10
-1.3512220107
 20
-6.8024486271
 11
-1.3512220107
 21
-6.6507028047
  0
LINE
  5
415
100
AcDbEntity
  8
0
100
AcDbLine
 62
7
  6
CONTINUOUS
 10
-1.3145196332
 20
-11.2225445651
 11
-1.3145196332
 21
-10.9347697828
  0
LINE
  5
416
100
AcDbEntity
  8
0
100
AcDbLine
 62
7
  6
CONTINUOUS
 10
-1.2376415697
 20
-8.3348279061
 11
-1.2376415697
 21
-8.1787008501
  0
LINE
  5
417
100
AcDbEntity
  8
RACCORDO
100
AcDbLine
 62
250
  6
CONTINUOUS
 10
-0.834822201
 20
34.0431682975
 11
-0.834822201
 21
32.5393315341
  0
LINE
  5
418
100
AcDbEntity
  8
RACCORDO
100
AcDbLine
 62
7
  6
CONTINUOUS
 10
-0.7004990697
 20
34.2843856781
 11
-0.7004733279
 21
32.7737912259
  0
LINE
  5
419
100
AcDbEntity
  8
0
100
AcDbLine
 62
7
  6
CONTINUOUS
 10
-0.5942422811
 20
-7.0713367785
 11
-0.5942422811
 21
-7.7383279777
  0
LINE
  5
41A
100
AcDbEntity
  8
COPY-PUBBLISH
100
AcDbLine
 62
7
  6
CONTINUOUS
 10
-0.5906275512
 20
-7.7073068905
 11
-0.5906275512
 21
-7.0713367785
  0
LINE
  5
41B
100
AcDbEntity
  8
0
100
AcDbLine
 62
7
  6
CONTINUOUS
 10
-0.449206195
 20
-10.3229007828
 11
-0.449206195
 21
-10.1592140483
  0
LINE
  5
41C
100
AcDbEntity
  8
0
100
AcDbLine
 62
7
  6
CONTINUOUS
 10
-0.449206195
 20
-8.5957422652
 11
-0.449206195
 21
-8.4259440067
  0
LINE
  5
41D
100
AcDbEntity
  8
0
100
AcDbLine
 62
7
  6
CONTINUOUS
 10
-0.449206195
 20
-7.8073068905
 11
-0.449206195
 21
-6.9687807785
  0
LINE
  5
41E
100
AcDbEntity
  8
RACCORDO
100
AcDbLine
 62
7
  6
CONTINUOUS
 10
-0.4177498427
 20
7.0811286858
 11
-0.4177498427
 21
9.2752341294
  0
LINE
  5
41F
100
AcDbEntity
  8
RACCORDO
100
AcDbLine
 62
7
  6
CONTINUOUS
 10
-0.3914290054
 20
30.6135074557
 11
-0.3914290054
 21
29.2785145682
  0
LINE
  5
420
100
AcDbEntity
  8
RACCORDO
100
AcDbLine
 62
7
  6
CONTINUOUS
 10
-0.3653328289
 20
16.4731408246
 11
-0.3653328289
 21
16.0007165175
  0
LINE
  5
421
100
AcDbEntity
  8
RACCORDO
100
AcDbLine
 62
7
  6
CONTINUOUS
 10
-0.3391967731
 20
27.4265433939
 11
-0.3391967731
 21
26.4596922628
  0
LINE
  5
422
100
AcDbEntity
  8
RACCORDO
100
AcDbLine
 62
7
  6
CONTINUOUS
 10
-0.0459984006
 20
36.1341951237
 11
-0.0459984006
 21
36.030535571
  0
LINE
  5
423
100
AcDbEntity
  8
RACCORDO
100
AcDbLine
 62
7
  6
CONTINUOUS
 10
-0.0459984006
 20
30.8879394774
 11
-0.0459984006
 21
16.5826926239
  0
LINE
  5
424
100
AcDbEntity
  8
RACCORDO
100
AcDbLine
 62
250
  6
CONTINUOUS
 10
0.0418695651
 20
35.9841951237
 11
0.0418695651
 21
35.9684035366
  0
LINE
  5
425
100
AcDbEntity
  8
RACCORDO
100
AcDbLine
 62
250
  6
CONTINUOUS
 10
0.0418695651
 20
30.9577473726
 11
0.0418695651
 21
16.4326926239
  0
LINE
  5
426
100
AcDbEntity
  8
RACCORDO
100
AcDbLine
 62
7
  6
CONTINUOUS
 10
0.0595312024
 20
39.5914820928
 11
0.0595312024
 21
36.3617581611
  0
LWPOLYLINE
  5
427
100
AcDbEntity
  8
0
100
AcDbPolyline
 62
7
  6
CONTINUOUS
 90
22
 70
0
 10
-1.2315727178
 20
-6.9373503947
 10
-1.2313148557
 20
-6.8992772917
 10
-1.2279242791
 20
-6.8596794595
 10
-1.2211288122
 20
-6.818508346
 10
-1.2112006309
 20
-6.7758125032
 10
-1.1988121504
 20
-6.7335977593
 10
-1.1838590505
 20
-6.6922451961
 10
-1.1664456515
 20
-6.6513737317
 10
-1.1475573293
 20
-6.6118459478
 10
-1.1276542516
 20
-6.574045321
 10
-1.1062762509
 20
-6.5375883746
 10
-1.0830281998
 20
-6.50218726
 10
-1.0579428738
 20
-6.467898639
 10
-1.0309874975
 20
-6.4346658497
 10
-1.0016686177
 20
-6.4020310587
 10
-0.9694555515
 20
-6.3695014566
 10
-0.9348789817
 20
-6.3375698528
 10
-0.8990375036
 20
-6.3072568419
 10
-0.8618008469
 20
-6.2783633658
 10
-0.8232992819
 20
-6.2510884825
 10
-0.7850222148
 20
-6.2270499617
 10
-0.7469920355
 20
-6.2065311967
  0
LWPOLYLINE
  5
428
100
AcDbEntity
  8
0
100
AcDbPolyline
 62
7
  6
CONTINUOUS
 90
22
 70
0
 10
-1.2315727178
 20
-9.8531193491
 10
-1.2313148557
 20
-9.8150462461
 10
-1.2279242791
 20
-9.7754484138
 10
-1.2211288122
 20
-9.7342773003
 10
-1.2112006309
 20
-9.6915814576
 10
-1.1988121504
 20
-9.6493667136
 10
-1.1838590505
 20
-9.6080141505
 10
-1.1664456515
 20
-9.5671426861
 10
-1.1475573293
 20
-9.5276149021
 10
-1.1276542516
 20
-9.4898142753
 10
-1.1062762509
 20
-9.4533573289
 10
-1.0830281998
 20
-9.4179562144
 10
-1.0579428738
 20
-9.3836675933
 10
-1.0309874975
 20
-9.350434804
 10
-1.0016686177
 20
-9.3178000131
 10
-0.9694555515
 20
-9.285270411
 10
-0.9348789817
 20
-9.2533388072
 10
-0.8990375036
 20
-9.2230257963
 10
-0.8618008469
 20
-9.1941323201
 10
-0.8232992819
 20
-9.1668574369
 10
-0.7850222148
 20
-9.1428189161
 10
-0.7469920355
 20
-9.1223001511
  0
LWPOLYLINE
  5
429
100
AcDbEntity
  8
RACCORDO
100
AcDbPolyline
 62
250
  6
CONTINUOUS
 90
9
 70
0
 10
-0.7004990518
 20
34.28429113
 10
-0.7007836728
 20
34.2723634303
 10
-0.7051251316
 20
34.2363084293
 10
-0.7146556806
 20
34.2007560517
 10
-0.7292754865
 20
34.1660787122
 10
-0.7488314054
 20
34.1326396593
 10
-0.7731185871
 20
34.1007891705
 10
-0.8018826209
 20
34.0708608827
 10
-0.834822201
 20
34.0431682975
  0
LWPOLYLINE
  5
42A
100
AcDbEntity
  8
RACCORDO
100
AcDbPolyline
 62
250
  6
CONTINUOUS
 90
9
 70
0
 10
-0.7004998076
 20
32.7798396325
 10
-0.7007836003
 20
32.7685281859
 10
-0.7051248428
 20
32.7324731565
 10
-0.7146552044
 20
32.6969206731
 10
-0.7292748797
 20
32.6622431584
 10
-0.7488307558
 20
32.6288038634
 10
-0.773118011
 20
32.596953078
 10
-0.8018822557
 20
32.5670244604
 10
-0.8348222009
 20
32.5393315342
  0
LWPOLYLINE
  5
42B
100
AcDbEntity
  8
0
100
AcDbPolyline
 62
7
  6
CONTINUOUS
 90
19
 70
0
 10
-1.675946742
 20
-7.2327473359
 10
-1.6747795993
 20
-7.1983013244
 10
-1.6716627712
 20
-7.1632142648
 10
-1.666768285
 20
-7.1286001173
 10
-1.6602716773
 20
-7.0949533645
 10
-1.6519974115
 20
-7.0617795238
 10
-1.6415909057
 20
-7.0287091077
 10
-1.6291380948
 20
-6.9957569107
 10
-1.6145530439
 20
-6.9629081383
 10
-1.5972233663
 20
-6.9297489195
 10
-1.5766552177
 20
-6.8959547037
 10
-1.5533424424
 20
-6.8618500414
 10
-1.5281541876
 20
-6.8279947136
 10
-1.5009414976
 20
-6.7938536665
 10
-1.471853328
 20
-6.7599619538
 10
-1.4422056931
 20
-6.7284845171
 10
-1.4124372643
 20
-6.7001430037
 10
-1.3821093701
 20
-6.6742157662
 10
-1.3512220107
 20
-6.6507028047
  0
LWPOLYLINE
  5
42C
100
AcDbEntity
  8
0
100
AcDbPolyline
 62
7
  6
CONTINUOUS
 90
19
 70
0
 10
-1.675946742
 20
-10.1485162903
 10
-1.6747795993
 20
-10.1140702788
 10
-1.6716627712
 20
-10.0789832192
 10
-1.666768285
 20
-10.0443690716
 10
-1.6602716773
 20
-10.0107223188
 10
-1.6519974115
 20
-9.9775484781
 10
-1.6415909057
 20
-9.944478062
 10
-1.6291380948
 20
-9.911525865
 10
-1.6145530439
 20
-9.8786770926
 10
-1.5972233663
 20
-9.8455178739
 10
-1.5766552177
 20
-9.811723658
 10
-1.5533424424
 20
-9.7776189958
 10
-1.5281541876
 20
-9.7437636679
 10
-1.5009414976
 20
-9.7096226209
 10
-1.471853328
 20
-9.6757309082
 10
-1.4422056931
 20
-9.6442534715
 10
-1.4124372643
 20
-9.615911958
 10
-1.3821093701
 20
-9.5899847206
 10
-1.3512220107
 20
-9.5664717591
  0
LWPOLYLINE
  5
42D
100
AcDbEntity
  8
RACCORDO
100
AcDbPolyline
 62
7
  6
CONTINUOUS
 90
4
 70
0
 10
-0.0459984006
 20
16.5826926239
 10
-0.0462394832
 20
16.575619516
 10
-0.046561689
 20
16.5726820915
 10
-0.0465788758
 20
16.5725923761
  0
LWPOLYLINE
  5
42E
100
AcDbEntity
  8
RACCORDO
100
AcDbPolyline
 62
250
  6
CONTINUOUS
 90
4
 70
0
 10
0.0418695651
 20
35.9841951237
 10
0.043684384
 20
36.0131671812
 10
0.0490977888
 20
36.0442100604
 10
0.0580171547
 20
36.0767926089
  0
LWPOLYLINE
  5
42F
100
AcDbEntity
  8
COPY-PUBBLISH
100
AcDbPolyline
 62
7
  6
CONTINUOUS
 90
4
 70
0
 10
-0.5684490744
 20
-6.376418158
 10
-0.5624008598
 20
-6.3365531022
 10
-0.5595140384
 20
-6.296159626
 10
-0.559711419
 20
-6.2562785201
  0
LWPOLYLINE
  5
430
100
AcDbEntity
  8
0
100
AcDbPolyline
 62
7
  6
CONTINUOUS
 90
12
 70
0
 10
-4.8313775136
 20
-9.6350784226
 10
-4.8359457943
 20
-9.6623596655
 10
-4.8385089069
 20
-9.6879382961
 10
-4.8390668514
 20
-9.7118143144
 10
-4.8375070694
 20
-9.7340642566
 10
-4.8339421192
 20
-9.7546115864
 10
-4.8287096761
 20
-9.7732266952
 10
-4.8218646502
 20
-9.7898924092
 10
-4.8133521314
 20
-9.8046259022
 10
-4.8033450649
 20
-9.8172490867
 10
-4.7919543936
 20
-9.8281082202
 10
-4.7853057871
 20
-9.8337005111
  0
LINE
  5
431
100
AcDbEntity
  8
ASSI
100
AcDbLine
 62
7
  6
CONTINUOUS
 10
-4.970877878
 20
-11.2020219236
 11
-4.964321995
 21
-11.1687306626
  0
LWPOLYLINE
  5
432
100
AcDbEntity
  8
RACCORDO
100
AcDbPolyline
 62
250
  6
CONTINUOUS
 90
9
 70
0
 10
-11.6368262528
 20
-40.113518575
 10
-11.6435749764
 20
-40.1465516294
 10
-11.6529057372
 20
-40.1774061406
 10
-11.664747796
 20
-40.2058481919
 10
-11.6790113749
 20
-40.2316621558
 10
-11.6955883375
 20
-40.2546523294
 10
-11.7143530093
 20
-40.2746444178
 10
-11.7351631299
 20
-40.2914868551
 10
-11.7571539462
 20
-40.3046936312
  0
LWPOLYLINE
  5
433
100
AcDbEntity
  8
0
100
AcDbPolyline
 62
7
  6
CONTINUOUS
 90
18
 70
0
 10
-4.8229006387
 20
-11.2687306626
 10
-4.8265748201
 20
-11.285346679
 10
-4.8294594365
 20
-11.3014985728
 10
-4.8315544881
 20
-11.3171863441
 10
-4.8328615467
 20
-11.3324549727
 10
-4.8333790405
 20
-11.3472594789
 10
-4.8331022534
 20
-11.3614649228
 10
-4.8320239236
 20
-11.3750658275
 10
-4.8301513128
 20
-11.38806767
 10
-4.8275014905
 20
-11.4003519417
 10
-4.8240673509
 20
-11.4119120821
 10
-4.8198559997
 20
-11.4227546517
 10
-4.8149058234
 20
-11.4327808236
 10
-4.8092100674
 20
-11.4419831337
 10
-4.8027754863
 20
-11.450369046
 10
-4.79566073
 20
-11.457862126
 10
-4.7878595803
 20
-11.4644542111
 10
-4.7855075198
 20
-11.4661799677
  0
LWPOLYLINE
  5
434
100
AcDbEntity
  8
0
100
AcDbPolyline
 62
7
  6
CONTINUOUS
 90
20
 70
0
 10
-4.8279663517
 20
-12.9181440009
 10
-4.8326843623
 20
-12.9350309394
 10
-4.8366564463
 20
-12.951543182
 10
-4.8398826039
 20
-12.9676807289
 10
-4.842367774
 20
-12.9834874045
 10
-4.8441070177
 20
-12.9989193843
 10
-4.8450855173
 20
-13.013845195
 10
-4.8452967731
 20
-13.0282605122
 10
-4.8447472848
 20
-13.0421696603
 10
-4.8434417338
 20
-13.0554541392
 10
-4.8413736606
 20
-13.0681086114
 10
-4.8385495248
 20
-13.0801384145
 10
-4.8349933864
 20
-13.0914410605
 10
-4.8306989915
 20
-13.1020103372
 10
-4.8256725939
 20
-13.1118524569
 10
-4.8199570152
 20
-13.1208835695
 10
-4.8135463674
 20
-13.1290967463
 10
-4.8064465384
 20
-13.1364989159
 10
-4.7987180126
 20
-13.1430270146
 10
-4.7962501932
 20
-13.1448322092
  0
LINE
  5
435
100
AcDbEntity
  8
ASSI
100
AcDbLine
 62
7
  6
CONTINUOUS
 10
6.8078851476
 20
22.925969638
 11
6.1937148248
 21
21.4495606055
  0
LINE
  5
436
100
AcDbEntity
  8
ASSI
100
AcDbLine
 62
7
  6
CONTINUOUS
 10
6.8850188017
 20
22.8714279081
 11
6.3351361811
 21
21.5495606055
  0
LINE
  5
437
100
AcDbEntity
  8
ASSI
100
AcDbLine
 62
7
  6
CONTINUOUS
 10
6.4813439431
 20
20.3999333372
 11
7.3675283451
 21
22.530242138
  0
LINE
  5
438
100
AcDbEntity
  8
RACCORDO
100
AcDbLine
 62
7
  6
CONTINUOUS
 10
-15.2610732108
 20
-12.9307418054
 11
-13.0285050573
 21
-10.8953318255
  0
LWPOLYLINE
  5
439
100
AcDbEntity
  8
RACCORDO
100
AcDbPolyline
 62
7
  6
CONTINUOUS
 90
25
 70
0
 10
-6.465173989
 20
-2.7797612117
 10
-6.5330912197
 20
-2.8323427219
 10
-6.6001683035
 20
-2.8885927314
 10
-6.6664052405
 20
-2.9485112402
 10
-6.7321749683
 20
-3.01249456
 10
-6.7971045493
 20
-3.0801463792
 10
-6.8600751705
 20
-3.1502777622
 10
-6.9208394706
 20
-3.2226572128
 10
-6.9796448109
 20
-3.2975162274
 10
-7.0361144627
 20
-3.3743603599
 10
-7.0903877853
 20
-3.4534166712
 10
-7.1423254195
 20
-3.5344581004
 10
-7.191132559
 20
-3.6163090192
 10
-7.2367394362
 20
-3.6989874682
 10
-7.2792158187
 20
-3.7824754067
 10
-7.3179762032
 20
-3.8655430845
 10
-7.3528970124
 20
-3.9479593596
 10
-7.3841018237
 20
-4.029955374
 10
-7.4113758648
 20
-4.1109948025
 10
-7.4347670541
 20
-4.191360714
 10
-7.4542274733
 20
-4.2707700397
 10
-7.4693985956
 20
-4.3478372478
 10
-7.4801609122
 20
-4.4221004945
 10
-7.4866339318
 20
-4.4940216237
 10
-7.4888176546
 20
-4.5636006355
  0
LINE
  5
43A
100
AcDbEntity
  8
0
100
AcDbLine
 62
7
  6
CONTINUOUS
 10
-13.1147610952
 20
-8.1107971669
 11
-11.2011282558
 21
-6.6755808351
  0
LINE
  5
43B
100
AcDbEntity
  8
RACCORDO
100
AcDbLine
 62
7
  6
CONTINUOUS
 10
23.1329103206
 20
19.1828327933
 11
21.9148755221
 21
18.2790174151
  0
LINE
  5
43C
100
AcDbEntity
  8
RACCORDO
100
AcDbLine
 62
7
  6
CONTINUOUS
 10
17.0848041588
 20
14.6949713918
 11
-6.465173989
 21
-2.7797612117
  0
LINE
  5
43D
100
AcDbEntity
  8
DRAFT
100
AcDbLine
 62
7
  6
CONTINUOUS
 10
-11.4677065139
 20
-6.3826879692
 11
-17.8887316737
 21
-10.9980365108
  0
LINE
  5
43E
100
AcDbEntity
  8
0
100
AcDbLine
 62
7
  6
CONTINUOUS
 10
-12.6036197232
 20
-5.5794760361
 11
-19.1560795442
 21
-10.2127648089
  0
LWPOLYLINE
  5
43F
100
AcDbEntity
  8
0
100
AcDbPolyline
 62
7
  6
CONTINUOUS
 90
16
 70
0
 10
-19.1560795442
 20
-10.2127648089
 10
-19.3982603077
 20
-10.3781835353
 10
-19.6388881803
 20
-10.5311266347
 10
-19.877963162
 20
-10.6715941071
 10
-20.1160965007
 20
-10.799879433
 10
-20.3526769484
 20
-10.9156891319
 10
-20.5858707617
 20
-11.0181427622
 10
-20.8154635058
 20
-11.107083178
 10
-21.0416696155
 20
-11.1826675252
 10
-21.263298652
 20
-11.2444868001
 10
-21.4805657934
 20
-11.2925000206
 10
-21.6932558615
 20
-11.3267481689
 10
-21.8995328839
 20
-11.3469451877
 10
-22.0990849983
 20
-11.3529847329
 10
-22.2922240669
 20
-11.3449731487
 10
-22.3411929342
 20
-11.3391678608
  0
LINE
  5
440
100
AcDbEntity
  8
ASSI
100
AcDbLine
 62
7
  6
CONTINUOUS
 10
9.1221544256
 20
-5.2268336849
 11
8.4925628111
 21
-5.0549886249
  0
LINE
  5
441
100
AcDbEntity
  8
ASSI
100
AcDbLine
 62
7
  6
CONTINUOUS
 10
11.0397587197
 20
-5.699421639
 11
10.437501732
 21
-5.5350377059
  0
LINE
  5
442
100
AcDbEntity
  8
ASSI
100
AcDbLine
 62
7
  6
CONTINUOUS
 10
8.594991471
 20
-4.7662123389
 11
9.2148419825
 21
-4.9353986046
  0
LINE
  5
443
100
AcDbEntity
  8
ASSI
100
AcDbLine
 62
7
  6
CONTINUOUS
 10
8.7364128272
 20
-4.6662123389
 11
9.2554012145
 21
-4.8078686021
  0
LINE
  5
444
100
AcDbEntity
  8
ASSI
100
AcDbLine
 62
7
  6
CONTINUOUS
 10
9.3515165309
 20
-4.505654139
 11
8.7337972392
 21
-4.3370499777
  0
LINE
  5
445
100
AcDbEntity
  8
DRAFT
100
AcDbLine
 62
250
  6
CONTINUOUS
 10
18.7978609038
 20
-13.8018010226
 11
17.5406414807
 21
-13.0558512012
  0
LWPOLYLINE
  5
446
100
AcDbEntity
  8
ASSI
100
AcDbPolyline
 62
7
  6
CONTINUOUS
 90
10
 70
0
 10
12.9866293724
 20
-7.9594301255
 10
12.9497096328
 20
-7.9354294112
 10
12.9139048205
 20
-7.9160586816
 10
12.8792149357
 20
-7.9013179367
 10
12.8451903734
 20
-7.8911080836
 10
12.8122807385
 20
-7.8855282153
 10
12.7818348453
 20
-7.8848756106
 10
12.7539656476
 20
-7.8894181447
 10
12.7285601917
 20
-7.8988879424
 10
12.7129089946
 20
-7.9080337757
  0
LINE
  5
447
100
AcDbEntity
  8
ASSI
100
AcDbLine
 62
7
  6
CONTINUOUS
 10
8.0993513367
 20
-6.2707254636
 11
8.6633269774
 21
-6.6695164636
  0
LINE
  5
448
100
AcDbEntity
  8
ASSI
100
AcDbLine
 62
7
  6
CONTINUOUS
 10
9.319018465
 20
-7.1331603608
 11
10.3515698734
 21
-7.8632844636
  0
LINE
  5
449
100
AcDbEntity
  8
ASSI
100
AcDbLine
 62
7
  6
CONTINUOUS
 10
10.9556635055
 20
-8.2904431674
 11
11.8341182351
 21
-8.9116044636
  0
LINE
  5
44A
100
AcDbEntity
  8
ASSI
100
AcDbLine
 62
7
  6
CONTINUOUS
 10
12.6344074936
 20
-9.4774944252
 11
13.6649683053
 21
-10.2062109636
  0
LINE
  5
44B
100
AcDbEntity
  8
ASSI
100
AcDbLine
 62
7
  6
CONTINUOUS
 10
8.2407726929
 20
-6.1707254636
 11
8.7152563005
 21
-6.5062360401
  0
LINE
  5
44C
100
AcDbEntity
  8
ASSI
100
AcDbLine
 62
7
  6
CONTINUOUS
 10
9.4604397458
 20
-7.0331603075
 11
9.7512095962
 21
-7.2387656404
  0
LINE
  5
44D
100
AcDbEntity
  8
ASSI
100
AcDbLine
 62
7
  6
CONTINUOUS
 10
9.8545221189
 20
-7.3118186259
 11
10.403499134
 21
-7.700003996
  0
LINE
  5
44E
100
AcDbEntity
  8
ASSI
100
AcDbLine
 62
7
  6
CONTINUOUS
 10
11.0970848617
 20
-8.1904431674
 11
11.4015047122
 21
-8.4057005079
  0
LINE
  5
44F
100
AcDbEntity
  8
ASSI
100
AcDbLine
 62
7
  6
CONTINUOUS
 10
11.5025777908
 20
-8.4771699672
 11
11.9755395913
 21
-8.8116044636
  0
LINE
  5
450
100
AcDbEntity
  8
ASSI
100
AcDbLine
 62
7
  6
CONTINUOUS
 10
12.775828861
 20
-9.3774944331
 11
13.0483197465
 21
-9.5701745861
  0
LINE
  5
451
100
AcDbEntity
  8
ASSI
100
AcDbLine
 62
7
  6
CONTINUOUS
 10
13.1425975745
 20
-9.6368390776
 11
13.716897561
 21
-10.0429304924
  0
LINE
  5
452
100
AcDbEntity
  8
0
100
AcDbLine
 62
7
  6
CONTINUOUS
 10
0.8727360651
 20
-11.9103786572
 11
0.8727360651
 21
-26.4767783496
  0
LINE
  5
453
100
AcDbEntity
  8
RACCORDO
100
AcDbLine
 62
7
  6
CONTINUOUS
 10
1.0637462843
 20
38.718552795
 11
1.0637462843
 21
36.829144098
  0
LINE
  5
454
100
AcDbEntity
  8
RACCORDO
100
AcDbLine
 62
250
  6
CONTINUOUS
 10
2.4407653267
 20
-11.2512362715
 11
2.4407653267
 21
-10.1903607245
  0
LINE
  5
455
100
AcDbEntity
  8
RACCORDO
100
AcDbLine
 62
250
  6
CONTINUOUS
 10
2.4407653267
 20
32.9705296206
 11
2.4407653267
 21
33.6772053888
  0
LINE
  5
456
100
AcDbEntity
  8
RACCORDO
100
AcDbLine
 62
7
  6
CONTINUOUS
 10
2.5750884759
 20
-11.0184127496
 11
2.5750884759
 21
-9.9492378919
  0
LINE
  5
457
100
AcDbEntity
  8
RACCORDO
100
AcDbLine
 62
7
  6
CONTINUOUS
 10
2.5750884759
 20
33.2116524531
 11
2.5750884759
 21
33.9183282214
  0
LWPOLYLINE
  5
458
100
AcDbEntity
  8
RACCORDO
100
AcDbPolyline
 62
250
  6
CONTINUOUS
 90
9
 70
0
 10
2.5750884759
 20
33.9183282214
 10
2.5748038549
 20
33.9064005217
 10
2.5704623962
 20
33.8703455206
 10
2.5609318471
 20
33.834793143
 10
2.5463120412
 20
33.8001158035
 10
2.5267561224
 20
33.7666767507
 10
2.5024689407
 20
33.7348262618
 10
2.4737049068
 20
33.704897974
 10
2.4407653267
 20
33.6772053888
  0
LWPOLYLINE
  5
459
100
AcDbEntity
  8
RACCORDO
100
AcDbPolyline
 62
250
  6
CONTINUOUS
 90
9
 70
0
 10
2.5750884759
 20
-9.9492378919
 10
2.5748038549
 20
-9.9611655916
 10
2.5704623962
 20
-9.9972205927
 10
2.5609318471
 20
-10.0327729703
 10
2.5463120412
 20
-10.0674503098
 10
2.5267561224
 20
-10.1008893627
 10
2.5024689407
 20
-10.1327398515
 10
2.4737049068
 20
-10.1626681394
 10
2.4407653267
 20
-10.1903607245
  0
LWPOLYLINE
  5
45A
100
AcDbEntity
  8
COPY-PUBBLISH
100
AcDbPolyline
 62
7
  6
CONTINUOUS
 90
4
 70
0
 10
-0.5684490744
 20
-9.2921871123
 10
-0.5624008598
 20
-9.2523220565
 10
-0.5595140384
 20
-9.2119285803
 10
-0.559711419
 20
-9.1720474745
  0
LWPOLYLINE
  5
45B
100
AcDbEntity
  8
0
100
AcDbPolyline
 62
7
  6
CONTINUOUS
 90
10
 70
0
 10
-5.3708750377
 20
-27.0814704537
 10
-5.3813504213
 20
-27.1101288009
 10
-5.3906224314
 20
-27.1383398552
 10
-5.3986910679
 20
-27.1661036168
 10
-5.4055727493
 20
-27.1934980701
 10
-5.4112510571
 20
-27.2204452307
 10
-5.4156767363
 20
-27.2467111451
 10
-5.4188333686
 20
-27.2722178287
 10
-5.4207373722
 20
-27.2970432662
 10
-5.4213887472
 20
-27.3211874574
  0
LWPOLYLINE
  5
45C
100
AcDbEntity
  8
RACCORDO
100
AcDbPolyline
 62
250
  6
CONTINUOUS
 90
22
 70
0
 10
-12.04554934
 20
-15.2044605396
 10
-12.09065406
 20
-15.245181423
 10
-12.1350478692
 20
-15.2882796957
 10
-12.1785472046
 20
-15.3335739564
 10
-12.2209718589
 20
-15.3808705567
 10
-12.2621470146
 20
-15.4299737321
 10
-12.3019033893
 20
-15.4806871864
 10
-12.3400807445
 20
-15.5328053296
 10
-12.3765157453
 20
-15.5861035663
 10
-12.4110449714
 20
-15.6403482048
 10
-12.4435204507
 20
-15.6953015065
 10
-12.4738157814
 20
-15.7507429207
 10
-12.5018119836
 20
-15.8064599881
 10
-12.5273961387
 20
-15.8622292209
 10
-12.5504566843
 20
-15.9178076551
 10
-12.5708909086
 20
-15.9729537281
 10
-12.5886129206
 20
-16.0274323167
 10
-12.6035519909
 20
-16.0810203733
 10
-12.6156458566
 20
-16.1334987549
 10
-12.6248439623
 20
-16.1846496342
 10
-12.6311083085
 20
-16.234257648
 10
-12.6344128041
 20
-16.2821155145
  0
LWPOLYLINE
  5
45D
100
AcDbEntity
  8
0
100
AcDbPolyline
 62
7
  6
CONTINUOUS
 90
30
 70
0
 10
-1.3512220107
 20
-6.8024486271
 10
-1.3651163338
 20
-6.8149108918
 10
-1.3788765711
 20
-6.8278906688
 10
-1.3925027224
 20
-6.8413879582
 10
-1.4060710674
 20
-6.8553989411
 10
-1.4195053265
 20
-6.8699274364
 10
-1.4325766609
 20
-6.8849849004
 10
-1.445328906
 20
-6.9006701141
 10
-1.4577182265
 20
-6.9168842966
 10
-1.4693842774
 20
-6.9333425609
 10
-1.4802652115
 20
-6.9499765644
 10
-1.4904228761
 20
-6.9668546497
 10
-1.4996824683
 20
-6.9838969584
 10
-1.5079965846
 20
-7.0010754977
 10
-1.5154126286
 20
-7.0184182602
 10
-1.5218980075
 20
-7.0359293656
 10
-1.5274451624
 20
-7.0536343892
 10
-1.5320616523
 20
-7.0715077555
 10
-1.5357375621
 20
-7.0894768575
 10
-1.5385601829
 20
-7.107555905
 10
-1.5404422236
 20
-7.1257306882
 10
-1.5411118958
 20
-7.1438859701
 10
-1.540708064
 20
-7.1623924124
 10
-1.5390918636
 20
-7.1808793535
 10
-1.5355749126
 20
-7.1981195712
 10
-1.5298998503
 20
-7.2140043899
 10
-1.5223240374
 20
-7.2286424853
 10
-1.5129311743
 20
-7.2411326624
 10
-1.501648014
 20
-7.2511682198
 10
-1.499379989
 20
-7.2532937988
  0
LWPOLYLINE
  5
45E
100
AcDbEntity
  8
RACCORDO
100
AcDbPolyline
 62
250
  6
CONTINUOUS
 90
22
 70
0
 10
-11.6368262528
 20
-15.7635556407
 10
-11.659618848
 20
-15.7838264031
 10
-11.6819050279
 20
-15.8051331781
 10
-11.7036847924
 20
-15.8274759657
 10
-11.7250541236
 20
-15.8509635237
 10
-11.7459170395
 20
-15.8754870943
 10
-11.7659855934
 20
-15.9007204038
 10
-11.7852436588
 20
-15.9266697002
 10
-11.8037073623
 20
-15.9533287355
 10
-11.8211371367
 20
-15.9803524916
 10
-11.8375156619
 20
-16.0077399032
 10
-11.852860258
 20
-16.0354920355
 10
-11.8669833177
 20
-16.063267066
 10
-11.8798706376
 20
-16.0910676953
 10
-11.8915364211
 20
-16.1188912227
 10
-11.9018356706
 20
-16.1463877239
 10
-11.9107511107
 20
-16.1735597243
 10
-11.9183000168
 20
-16.2004046985
 10
-11.9243892174
 20
-16.2265651456
 10
-11.9289876553
 20
-16.2519218987
 10
-11.9321263876
 20
-16.2765941246
 10
-11.9338054145
 20
-16.3005818234
  0
LINE
  5
45F
100
AcDbEntity
  8
RACCORDO
100
AcDbLine
 62
250
  6
CONTINUOUS
 10
-9.6399767066
 20
-13.144936591
 11
-12.04554934
 21
-15.2044605396
  0
LINE
  5
460
100
AcDbEntity
  8
RACCORDO
100
AcDbLine
 62
250
  6
CONTINUOUS
 10
-8.933994468
 20
-13.4495341423
 11
-11.6368262528
 21
-15.7635556407
  0
LWPOLYLINE
  5
461
100
AcDbEntity
  8
0
100
AcDbPolyline
 62
7
  6
CONTINUOUS
 90
25
 70
0
 10
-4.6993655485
 20
-8.9953497704
 10
-4.7166420918
 20
-9.0094431055
 10
-4.7337369984
 20
-9.0242001498
 10
-4.7506502683
 20
-9.0396209032
 10
-4.7674184163
 20
-9.0557423178
 10
-4.7840049276
 20
-9.0725274415
 10
-4.8003002581
 20
-9.0898654184
 10
-4.8163024805
 20
-9.1077599079
 10
-4.8320135219
 20
-9.1262072507
 10
-4.8473296203
 20
-9.1450856128
 10
-4.8622481615
 20
-9.1643978471
 10
-4.8767717595
 20
-9.1841411008
 10
-4.8908044946
 20
-9.2041849811
 10
-4.9043431178
 20
-9.2245314781
 10
-4.917390878
 20
-9.2451786018
 10
-4.9298616025
 20
-9.2659899901
 10
-4.9417514719
 20
-9.2869667303
 10
-4.9530643056
 20
-9.3081077352
 10
-4.9637253889
 20
-9.3292733809
 10
-4.973730408
 20
-9.3504638305
 10
-4.9830836767
 20
-9.3716789209
 10
-4.9917234222
 20
-9.3927785389
 10
-4.9996290534
 20
-9.4137159802
 10
-5.0068211614
 20
-9.4345379492
 10
-5.0132997461
 20
-9.4552444458
  0
LINE
  5
462
100
AcDbEntity
  8
RACCORDO
100
AcDbLine
 62
7
  6
CONTINUOUS
 10
-27.8273938548
 20
-23.4373909909
 11
-28.8787977855
 21
-24.1939361417
  0
LINE
  5
463
100
AcDbEntity
  8
DRAFT
100
AcDbLine
 62
7
  6
CONTINUOUS
 10
-27.8273938548
 20
-25.1344472657
 11
-28.8787977855
 21
-25.8909924166
  0
LINE
  5
464
100
AcDbEntity
  8
DRAFT
100
AcDbLine
 62
7
  6
CONTINUOUS
 10
-22.7952833503
 20
-19.5302726209
 11
-27.8779698692
 21
-23.142809303
  0
LINE
  5
465
100
AcDbEntity
  8
RACCORDO
100
AcDbLine
 62
7
  6
CONTINUOUS
 10
22.2972643087
 20
11.2823741513
 11
23.2888282552
 21
11.9835157419
  0
LINE
  5
466
100
AcDbEntity
  8
RACCORDO
100
AcDbLine
 62
250
  6
CONTINUOUS
 10
-7.8423171973
 20
-9.0506189113
 11
-9.6472186986
 21
-10.3140512145
  0
LINE
  5
467
100
AcDbEntity
  8
RACCORDO
100
AcDbLine
 62
250
  6
CONTINUOUS
 10
-7.4888176546
 20
-9.6540803778
 11
-9.2937191559
 21
-10.9175126809
  0
LINE
  5
468
100
AcDbEntity
  8
RACCORDO
100
AcDbLine
 62
7
  6
CONTINUOUS
 10
23.9650450029
 20
12.4526216213
 11
23.2889530022
 21
11.983336021
  0
LINE
  5
469
100
AcDbEntity
  8
DRAFT
100
AcDbLine
 62
7
  6
CONTINUOUS
 10
-31.0371459134
 20
-24.7485147288
 11
-30.6774212254
 21
-24.502878495
  0
LINE
  5
46A
100
AcDbEntity
  8
RACCORDO
100
AcDbLine
 62
7
  6
CONTINUOUS
 10
-28.8787977855
 20
-24.1939361417
 11
-29.0946325983
 21
-24.341317882
  0
LWPOLYLINE
  5
46B
100
AcDbEntity
  8
RACCORDO
100
AcDbPolyline
 62
250
  6
CONTINUOUS
 90
19
 70
0
 10
-9.2937191559
 20
-10.9175126809
 10
-9.3256928071
 20
-10.9375513623
 10
-9.3600627442
 20
-10.9556317479
 10
-9.3965940088
 20
-10.9716046455
 10
-9.4350667689
 20
-10.985345685
 10
-9.4751770428
 20
-10.9967192975
 10
-9.516526308
 20
-11.0056013405
 10
-9.5587651166
 20
-11.0119206988
 10
-9.6016173193
 20
-11.0156399179
 10
-9.6447733947
 20
-11.0167312342
 10
-9.6879181172
 20
-11.0151842636
 10
-9.7307226751
 20
-11.0110083808
 10
-9.7728574902
 20
-11.0042348284
 10
-9.8140050373
 20
-10.9949149391
 10
-9.8538610378
 20
-10.9831179262
 10
-9.8921271845
 20
-10.9689321685
 10
-9.9285176214
 20
-10.9524638323
 10
-9.9627609861
 20
-10.9338359274
 10
-9.9946017318
 20
-10.9131876555
  0
LWPOLYLINE
  5
46C
100
AcDbEntity
  8
RACCORDO
100
AcDbPolyline
 62
250
  6
CONTINUOUS
 90
19
 70
0
 10
-9.6472186986
 20
-10.3140512145
 10
-9.6630857496
 20
-10.3231667027
 10
-9.6800184728
 20
-10.3312569783
 10
-9.6980168684
 20
-10.3383220415
 10
-9.7172655958
 20
-10.3443716873
 10
-9.7375799955
 20
-10.3493961206
 10
-9.7584060888
 20
-10.3533659557
 10
-9.7797438757
 20
-10.3562811924
 10
-9.8015933563
 20
-10.3581418308
 10
-9.8234005518
 20
-10.3589184852
 10
-9.8451654622
 20
-10.3586111555
 10
-9.8668880876
 20
-10.3572198418
 10
-9.8880144492
 20
-10.3547151583
 10
-9.9085445471
 20
-10.3510971049
 10
-9.9284783813
 20
-10.3463656817
 10
-9.9472619731
 20
-10.340491503
 10
-9.9647106629
 20
-10.3334647734
 10
-9.9810091103
 20
-10.3252952883
 10
-9.9961573152
 20
-10.3159830475
  0
LINE
  5
46D
100
AcDbEntity
  8
RACCORDO
100
AcDbLine
 62
7
  6
CONTINUOUS
 10
-32.0568734102
 20
-20.4678917325
 11
-32.214932597
 21
-20.5535088816
  0
LWPOLYLINE
  5
46E
100
AcDbEntity
  8
0
100
AcDbPolyline
 62
7
  6
CONTINUOUS
 90
16
 70
0
 10
25.7841412051
 20
-11.5298323975
 10
25.7890299469
 20
-11.5330008757
 10
25.7978612759
 20
-11.5375171886
 10
25.8073330955
 20
-11.5409401155
 10
25.8174536104
 20
-11.5432556505
 10
25.828214616
 20
-11.5444777995
 10
25.8394788518
 20
-11.5445909737
 10
25.8512527642
 20
-11.5435809672
 10
25.8635299068
 20
-11.5414619858
 10
25.8761536805
 20
-11.538261058
 10
25.8891285255
 20
-11.533964324
 10
25.9024500016
 20
-11.5285856435
 10
25.9159481887
 20
-11.5221936235
 10
25.9295664466
 20
-11.5148111328
 10
25.9433614156
 20
-11.5064153026
 10
25.9573330955
 20
-11.4970061327
  0
LINE
  5
46F
100
AcDbEntity
  8
ASSI
100
AcDbLine
 62
7
  6
CONTINUOUS
 10
13.8043736581
 20
-8.5376626552
 11
12.9866293724
 21
-7.9594301255
  0
LINE
  5
470
100
AcDbEntity
  8
ASSI
100
AcDbLine
 62
7
  6
CONTINUOUS
 10
12.0631334544
 20
-7.3064198995
 11
11.3685388671
 21
-6.8152673567
  0
LINE
  5
471
100
AcDbEntity
  8
ASSI
100
AcDbLine
 62
7
  6
CONTINUOUS
 10
10.2687422134
 20
-6.0375936849
 11
9.7719249649
 21
-5.6864734704
  0
LINE
  5
472
100
AcDbEntity
  8
DRAFT
100
AcDbLine
 62
7
  6
CONTINUOUS
 10
25.03809428
 20
-13.4812347356
 11
25.7353840657
 21
-13.9750585199
  0
LWPOLYLINE
  5
473
100
AcDbEntity
  8
ASSI
100
AcDbPolyline
 62
7
  6
CONTINUOUS
 90
12
 70
0
 10
-25.3252017143
 20
24.3562396012
 10
-25.3457353369
 20
24.3718801192
 10
-25.3779586124
 20
24.4012995921
 10
-25.4071079549
 20
24.434707274
 10
-25.4331254467
 20
24.4720399438
 10
-25.4558373346
 20
24.5131079379
 10
-25.4752709936
 20
24.5580869127
 10
-25.4913990487
 20
24.6068012118
 10
-25.5039656221
 20
24.658534202
 10
-25.5128854213
 20
24.7130470055
 10
-25.5182437389
 20
24.7705785001
 10
-25.5200405748
 20
24.8311286858
  0
LINE
  5
474
100
AcDbEntity
  8
ASSI
100
AcDbLine
 62
7
  6
CONTINUOUS
 10
10.2894504393
 20
-6.022950758
 11
10.3141152028
 21
-6.0440830038
  0
LWPOLYLINE
  5
475
100
AcDbEntity
  8
ASSI
100
AcDbPolyline
 62
7
  6
CONTINUOUS
 90
12
 70
0
 10
13.4959012157
 20
-8.501461932
 10
13.4650102686
 20
-8.4744136193
 10
13.4349076401
 20
-8.4509507463
 10
13.4055933304
 20
-8.4310733129
 10
13.3766625942
 20
-8.4148816714
 10
13.3485201767
 20
-8.4022754696
 10
13.3223803134
 20
-8.39295365
 10
13.2985061884
 20
-8.386621235
 10
13.2766346177
 20
-8.3835732023
 10
13.2571902845
 20
-8.3843934274
 10
13.2405152771
 20
-8.3895793279
 10
13.2299173297
 20
-8.3947897375
  0
LWPOLYLINE
  5
476
100
AcDbEntity
  8
ASSI
100
AcDbPolyline
 62
7
  6
CONTINUOUS
 90
13
 70
0
 10
11.85625492
 20
-7.3505337924
 10
11.8275993684
 20
-7.3237153745
 10
11.7990924681
 20
-7.3001574149
 10
11.7707342192
 20
-7.2798599136
 10
11.7421849001
 20
-7.2626560837
 10
11.7137842324
 20
-7.2487127121
 10
11.6865513799
 20
-7.2385301597
 10
11.6605287484
 20
-7.2322450224
 10
11.6356739322
 20
-7.2297207043
 10
11.6128788778
 20
-7.2310477781
 10
11.5924409005
 20
-7.2362564349
 10
11.574062685
 20
-7.2453164835
 10
11.5696759472
 20
-7.2480989919
  0
LINE
  5
477
100
AcDbEntity
  8
ASSI
100
AcDbLine
 62
7
  6
CONTINUOUS
 10
10.3141152028
 20
-6.0440830038
 11
10.3518449379
 21
-6.0816895794
  0
LWPOLYLINE
  5
478
100
AcDbEntity
  8
ASSI
100
AcDbPolyline
 62
7
  6
CONTINUOUS
 90
13
 70
0
 10
10.2104235817
 20
-6.1816895794
 10
10.1826845465
 20
-6.1533452829
 10
10.1548192902
 20
-6.1279351875
 10
10.1268278128
 20
-6.1054592932
 10
10.0983904309
 20
-6.0857296255
 10
10.0698268278
 20
-6.0689341588
 10
10.042096054
 20
-6.0556368172
 10
10.0152264214
 20
-6.045956375
 10
9.989189618
 20
-6.0397740579
 10
9.9648597584
 20
-6.0372974662
 10
9.942528214
 20
-6.0385958004
 10
9.9219036134
 20
-6.04359986
 10
9.9029859566
 20
-6.0523096452
  0
LINE
  5
479
100
AcDbEntity
  8
RACCORDO
100
AcDbLine
 62
7
  6
CONTINUOUS
 10
5.2421548014
 20
43.4689176717
 11
5.2421548014
 21
33.8744616304
  0
LINE
  5
47A
100
AcDbEntity
  8
ASSI
100
AcDbLine
 62
7
  6
CONTINUOUS
 10
7.7086536269
 20
22.289030138
 11
7.7086536269
 21
19.5320943372
  0
LINE
  5
47B
100
AcDbEntity
  8
ASSI
100
AcDbLine
 62
7
  6
CONTINUOUS
 10
7.8500749831
 20
22.189030138
 11
7.8500749831
 21
19.6320943372
  0
LINE
  5
47C
100
AcDbEntity
  8
ASSI
100
AcDbLine
 62
7
  6
CONTINUOUS
 10
8.2885766469
 20
19.1220268372
 11
8.2885766469
 21
21.878962638
  0
LWPOLYLINE
  5
47D
100
AcDbEntity
  8
0
100
AcDbPolyline
 62
7
  6
CONTINUOUS
 90
10
 70
0
 10
-5.7874366562
 20
-26.9873170489
 10
-5.802797378
 20
-27.0255493097
 10
-5.8164043295
 20
-27.0632046071
 10
-5.8282575106
 20
-27.1002829411
 10
-5.838387133
 20
-27.136914368
 10
-5.8467629851
 20
-27.1729688314
 10
-5.8532944321
 20
-27.208056163
 10
-5.8579512627
 20
-27.2420463064
 10
-5.8607636882
 20
-27.275069318
 10
-5.8617317087
 20
-27.3071251976
  0
LWPOLYLINE
  5
47E
100
AcDbEntity
  8
ASSI
100
AcDbPolyline
 62
7
  6
CONTINUOUS
 90
10
 70
0
 10
-5.512217246
 20
-26.981229584
 10
-5.5041140295
 20
-26.9611171896
 10
-5.4952806385
 20
-26.9410151693
 10
-5.4857170728
 20
-26.9209235229
 10
-5.4753863771
 20
-26.900773148
 10
-5.4643255068
 20
-26.880633147
 10
-5.4526453286
 20
-26.8607108276
 10
-5.4403827979
 20
-26.8410752922
 10
-5.4275009593
 20
-26.8216574383
 10
-5.4139998128
 20
-26.802457266
  0
LWPOLYLINE
  5
47F
100
AcDbEntity
  8
0
100
AcDbPolyline
 62
7
  6
CONTINUOUS
 90
28
 70
0
 10
-3.6041274723
 20
-10.9734956698
 10
-3.5946557069
 20
-10.9648983417
 10
-3.585036432
 20
-10.9558039848
 10
-3.5752455892
 20
-10.9462324406
 10
-3.5653072369
 20
-10.9361638675
 10
-3.5552445066
 20
-10.9252742355
 10
-3.5449980883
 20
-10.9134436041
 10
-3.5346272919
 20
-10.9007919137
 10
-3.5243331791
 20
-10.8873549549
 10
-3.5140380971
 20
-10.8729469246
 10
-3.5038196988
 20
-10.8577536258
 10
-3.4941120039
 20
-10.8423682584
 10
-3.4850672552
 20
-10.8268321714
 10
-3.47653321
 20
-10.8111040158
 10
-3.4684871597
 20
-10.7956529453
 10
-3.4608852201
 20
-10.7805672612
 10
-3.4537712755
 20
-10.7657586622
 10
-3.4472542708
 20
-10.7514313985
 10
-3.4411394931
 20
-10.7375454892
 10
-3.4356216553
 20
-10.7241409151
 10
-3.4313938409
 20
-10.7115418696
 10
-3.4286202424
 20
-10.6997038042
 10
-3.4271366673
 20
-10.6886712673
 10
-3.4271436216
 20
-10.6789020971
 10
-3.428783703
 20
-10.6704329137
 10
-3.4319143139
 20
-10.663227097
 10
-3.4363081674
 20
-10.6576326247
 10
-3.4395371207
 20
-10.6549141503
  0
LWPOLYLINE
  5
480
100
AcDbEntity
  8
0
100
AcDbPolyline
 62
7
  6
CONTINUOUS
 90
30
 70
0
 10
-1.3512220107
 20
-9.7182175815
 10
-1.3651163338
 20
-9.7306798462
 10
-1.3788765711
 20
-9.7436596232
 10
-1.3925027224
 20
-9.7571569126
 10
-1.4060710674
 20
-9.7711678955
 10
-1.4195053265
 20
-9.7856963908
 10
-1.4325766609
 20
-9.8007538547
 10
-1.445328906
 20
-9.8164390685
 10
-1.4577182265
 20
-9.8326532509
 10
-1.4693842774
 20
-9.8491115153
 10
-1.4802652115
 20
-9.8657455187
 10
-1.4904228761
 20
-9.8826236041
 10
-1.4996824683
 20
-9.8996659127
 10
-1.5079965846
 20
-9.916844452
 10
-1.5154126286
 20
-9.9341872146
 10
-1.5218980075
 20
-9.9516983199
 10
-1.5274451624
 20
-9.9694033435
 10
-1.5320616523
 20
-9.9872767099
 10
-1.5357375621
 20
-10.0052458118
 10
-1.5385601829
 20
-10.0233248594
 10
-1.5404422236
 20
-10.0414996425
 10
-1.5411118958
 20
-10.0596549244
 10
-1.540708064
 20
-10.0781613667
 10
-1.5390918636
 20
-10.0966483078
 10
-1.5355749126
 20
-10.1138885256
 10
-1.5298998503
 20
-10.1297733443
 10
-1.5223240374
 20
-10.1444114397
 10
-1.5129311743
 20
-10.1569016168
 10
-1.501648014
 20
-10.1669371742
 10
-1.499379989
 20
-10.1690627531
  0
LWPOLYLINE
  5
481
100
AcDbEntity
  8
ASSI
100
AcDbPolyline
 62
7
  6
CONTINUOUS
 90
13
 70
0
 10
-3.6809323795
 20
-11.4023172958
 10
-3.6473994721
 20
-11.3732775132
 10
-3.615107796
 20
-11.3421507322
 10
-3.5840573513
 20
-11.3089369528
 10
-3.5539826413
 20
-11.2732887116
 10
-3.5251491627
 20
-11.2355534719
 10
-3.4983534054
 20
-11.1967736242
 10
-3.4736521872
 20
-11.1569200581
 10
-3.4509886904
 20
-11.116021884
 10
-3.4309889519
 20
-11.0752088235
 10
-3.4138616508
 20
-11.0348574506
 10
-3.399398108
 20
-10.9945911914
 10
-3.3875983237
 20
-10.9544100459
  0
LINE
  5
482
100
AcDbEntity
  8
COPY-PUBBLISH
100
AcDbLine
 62
7
  6
CONTINUOUS
 10
-0.9848727796
 20
-6.9953106958
 11
-0.9715642338
 21
-6.9840365555
  0
LINE
  5
483
100
AcDbEntity
  8
COPY-PUBBLISH
100
AcDbLine
 62
7
  6
CONTINUOUS
 10
-0.9848727796
 20
-9.9110796502
 11
-0.9715642338
 21
-9.8998055098
  0
LWPOLYLINE
  5
484
100
AcDbEntity
  8
0
100
AcDbPolyline
 62
7
  6
CONTINUOUS
 90
25
 70
0
 10
-3.6252307499
 20
-12.6645531634
 10
-3.6112228143
 20
-12.6527627232
 10
-3.5974812156
 20
-12.6402872508
 10
-3.5840059537
 20
-12.6271267461
 10
-3.5707421007
 20
-12.6132195416
 10
-3.5577445846
 20
-12.5986273048
 10
-3.5451781891
 20
-12.5835350383
 10
-3.5330484032
 20
-12.5679363758
 10
-3.5213497379
 20
-12.5518376835
 10
-3.5102305099
 20
-12.5354430628
 10
-3.4996980966
 20
-12.5187487461
 10
-3.4897451205
 20
-12.501758501
 10
-3.480497766
 20
-12.4846877317
 10
-3.4719650172
 20
-12.4675354135
 10
-3.46413789
 20
-12.4503025711
 10
-3.4571156168
 20
-12.4332076835
 10
-3.4509084447
 20
-12.4162525071
 10
-3.4455061265
 20
-12.3994352854
 10
-3.440977153
 20
-12.3829692282
 10
-3.4373326434
 20
-12.3668588063
 10
-3.4345614784
 20
-12.3510995489
 10
-3.4326987913
 20
-12.3358912526
 10
-3.4317562931
 20
-12.3213005163
 10
-3.4317222726
 20
-12.3072607412
 10
-3.43259673
 20
-12.2937719272
  0
LWPOLYLINE
  5
485
100
AcDbEntity
  8
0
100
AcDbPolyline
 62
7
  6
CONTINUOUS
 90
25
 70
0
 10
-3.5395110232
 20
-11.5023172958
 10
-3.5228628546
 20
-11.4883546106
 10
-3.5064156123
 20
-11.4737516367
 10
-3.4901692965
 20
-11.4585083741
 10
-3.4740868998
 20
-11.4425862288
 10
-3.4582054296
 20
-11.4260237948
 10
-3.4426359073
 20
-11.408936854
 10
-3.4273805187
 20
-11.3913217311
 10
-3.4124370781
 20
-11.3731821015
 10
-3.3979100497
 20
-11.3546447727
 10
-3.3838023514
 20
-11.3357069583
 10
-3.3701110652
 20
-11.3163714448
 10
-3.356931902
 20
-11.2967733994
 10
-3.3442684499
 20
-11.2769109827
 10
-3.3321171207
 20
-11.2567860341
 10
-3.3205628597
 20
-11.2365392393
 10
-3.3096098505
 20
-11.2161697446
 10
-3.2992539094
 20
-11.1956784037
 10
-3.289567431
 20
-11.1752084633
 10
-3.2805551062
 20
-11.1547600732
 10
-3.272212244
 20
-11.1343330835
 10
-3.2645971668
 20
-11.1140702914
 10
-3.2577293154
 20
-11.0940192957
 10
-3.2515892489
 20
-11.0741324976
 10
-3.2461769675
 20
-11.0544098969
  0
LINE
  5
486
100
AcDbEntity
  8
COPY-PUBBLISH
100
AcDbLine
 62
7
  6
CONTINUOUS
 10
-1.0278937017
 20
-7.0299158998
 11
-0.9848727796
 21
-6.9953106958
  0
LINE
  5
487
100
AcDbEntity
  8
COPY-PUBBLISH
100
AcDbLine
 62
7
  6
CONTINUOUS
 10
-1.0278937017
 20
-9.9456848542
 11
-0.9848727796
 21
-9.9110796502
  0
LWPOLYLINE
  5
488
100
AcDbEntity
  8
0
100
AcDbPolyline
 62
7
  6
CONTINUOUS
 90
25
 70
0
 10
-0.8122012289
 20
-6.9020596208
 10
-0.7938997831
 20
-6.8878967934
 10
-0.7760036851
 20
-6.8730645741
 10
-0.7585129349
 20
-6.857562963
 10
-0.7413852635
 20
-6.8413563238
 10
-0.7246629398
 20
-6.8244802928
 10
-0.708472771
 20
-6.8070417782
 10
-0.6928137126
 20
-6.7890096147
 10
-0.6776868091
 20
-6.7704149677
 10
-0.6632220004
 20
-6.7514582417
 10
-0.6494110293
 20
-6.7321464768
 10
-0.6362621532
 20
-6.7124726329
 10
-0.6239300839
 20
-6.692615994
 10
-0.6123557848
 20
-6.6725421609
 10
-0.6015982925
 20
-6.652285533
 10
-0.5919894293
 20
-6.6321285917
 10
-0.5836752833
 20
-6.6120677385
 10
-0.5765097663
 20
-6.592106572
 10
-0.5703864353
 20
-6.57253837
 10
-0.5653055007
 20
-6.5534449759
 10
-0.5612667522
 20
-6.5347445463
 10
-0.5581631155
 20
-6.516484829
 10
-0.5559588991
 20
-6.4986817397
 10
-0.5546897946
 20
-6.4813193627
 10
-0.5543558018
 20
-6.4643976979
  0
LWPOLYLINE
  5
489
100
AcDbEntity
  8
0
100
AcDbPolyline
 62
7
  6
CONTINUOUS
 90
25
 70
0
 10
-0.8122012289
 20
-9.8178285751
 10
-0.7938997831
 20
-9.8036657477
 10
-0.7760036851
 20
-9.7888335285
 10
-0.7585129349
 20
-9.7733319173
 10
-0.7413852635
 20
-9.7571252782
 10
-0.7246629398
 20
-9.7402492471
 10
-0.708472771
 20
-9.7228107325
 10
-0.6928137126
 20
-9.7047785691
 10
-0.6776868091
 20
-9.6861839221
 10
-0.6632220004
 20
-9.6672271961
 10
-0.6494110293
 20
-9.6479154312
 10
-0.6362621532
 20
-9.6282415872
 10
-0.6239300839
 20
-9.6083849483
 10
-0.6123557848
 20
-9.5883111153
 10
-0.6015982925
 20
-9.5680544873
 10
-0.5919894293
 20
-9.5478975461
 10
-0.5836752833
 20
-9.5278366928
 10
-0.5765097663
 20
-9.5078755263
 10
-0.5703864353
 20
-9.4883073243
 10
-0.5653055007
 20
-9.4692139302
 10
-0.5612667522
 20
-9.4505135007
 10
-0.5581631155
 20
-9.4322537833
 10
-0.5559588991
 20
-9.4144506941
 10
-0.5546897946
 20
-9.3970883171
 10
-0.5543558018
 20
-9.3801666522
  0
LINE
  5
48A
100
AcDbEntity
  8
COPY-PUBBLISH
100
AcDbLine
 62
7
  6
CONTINUOUS
 10
-1.0726551213
 20
-7.0642160826
 11
-1.0278937017
 21
-7.0299158998
  0
LINE
  5
48B
100
AcDbEntity
  8
COPY-PUBBLISH
100
AcDbLine
 62
7
  6
CONTINUOUS
 10
-1.0726551213
 20
-9.9799850369
 11
-1.0278937017
 21
-9.9456848542
  0
LWPOLYLINE
  5
48C
100
AcDbEntity
  8
0
100
AcDbPolyline
 62
7
  6
CONTINUOUS
 90
34
 70
0
 10
5.946211188
 20
-3.2494148708
 10
5.7040304244
 20
-3.4264914648
 10
5.4634025518
 20
-3.6138475663
 10
5.2243275701
 20
-3.8114831755
 10
4.9861942315
 20
-4.0199692467
 10
4.7496137837
 20
-4.2387348256
 10
4.5164199704
 20
-4.4660670488
 10
4.2868272263
 20
-4.7018198055
 10
4.0606211166
 20
-4.9461392066
 10
3.8389920801
 20
-5.1977507209
 10
3.6217249388
 20
-5.4569996383
 10
3.4090348706
 20
-5.7235406691
 10
3.2027578482
 20
-5.9950634129
 10
3.0032057338
 20
-6.2712331743
 10
2.8100666652
 20
-6.5523846487
 10
2.624241028
 20
-6.8372115233
 10
2.4455178356
 20
-7.1261508886
 10
2.2741080746
 20
-7.418765654
 10
2.1115450906
 20
-7.7124382347
 10
1.9581167842
 20
-8.0067540678
 10
1.8135352549
 20
-8.3021277162
 10
1.6784701468
 20
-8.5971852844
 10
1.5528072843
 20
-8.8923193691
 10
1.436660843
 20
-9.1871373735
 10
1.3310429946
 20
-9.4790876116
 10
1.2361468749
 20
-9.7678183379
 10
1.151779348
 20
-10.053681298
 10
1.0783731775
 20
-10.335180043
 10
1.0159338811
 20
-10.6125251063
 10
0.9644559411
 20
-10.8855059545
 10
0.9243555684
 20
-11.1519945385
 10
0.8957715
 20
-11.4112815088
 10
0.8785649989
 20
-11.6640762151
 10
0.8727360651
 20
-11.9103786572
  0
LINE
  5
48D
100
AcDbEntity
  8
COPY-PUBBLISH
100
AcDbLine
 62
7
  6
CONTINUOUS
 10
-1.1110590751
 20
-7.0922471583
 11
-1.0726551213
 21
-7.0642160826
  0
LINE
  5
48E
100
AcDbEntity
  8
COPY-PUBBLISH
100
AcDbLine
 62
7
  6
CONTINUOUS
 10
-1.1110590751
 20
-10.0080161126
 11
-1.0726551213
 21
-9.9799850369
  0
LWPOLYLINE
  5
48F
100
AcDbEntity
  8
RACCORDO
100
AcDbPolyline
 62
7
  6
CONTINUOUS
 90
12
 70
0
 10
-9.2093642101
 20
-12.7477942853
 10
-9.1804839536
 20
-12.7269642431
 10
-9.1514099616
 20
-12.7039295873
 10
-9.1231700138
 20
-12.6794167762
 10
-9.0958639625
 20
-12.6534940358
 10
-9.0695018429
 20
-12.62642206
 10
-9.0441300999
 20
-12.5982606246
 10
-9.0198214549
 20
-12.569080994
 10
-8.9966175513
 20
-12.5391544092
 10
-8.9745567596
 20
-12.5086154243
 10
-8.953673812
 20
-12.4774623081
 10
-8.933994468
 20
-12.4457608414
  0
LWPOLYLINE
  5
490
100
AcDbEntity
  8
RACCORDO
100
AcDbPolyline
 62
7
  6
CONTINUOUS
 90
12
 70
0
 10
-9.5691356047
 20
-12.9934165001
 10
-9.540188252
 20
-12.9726065968
 10
-9.5111346496
 20
-12.9495658211
 10
-9.4829313266
 20
-12.9250420171
 10
-9.4555688834
 20
-12.8991362026
 10
-9.4292265309
 20
-12.8720582938
 10
-9.4038851375
 20
-12.843887749
 10
-9.3795287355
 20
-12.8147224526
 10
-9.3563422392
 20
-12.784790643
 10
-9.3343679113
 20
-12.7542257061
 10
-9.313504902
 20
-12.7230666054
 10
-9.2937191559
 20
-12.6913970752
  0
LINE
  5
491
100
AcDbEntity
  8
RACCORDO
100
AcDbLine
 62
7
  6
CONTINUOUS
 10
25.1618219345
 20
11.6462534023
 11
23.9589331801
 21
10.795682607
  0
LINE
  5
492
100
AcDbEntity
  8
0
100
AcDbLine
 62
7
  6
CONTINUOUS
 10
-0.8122012289
 20
-6.9020596208
 11
-0.828422612
 21
-6.9135298708
  0
LINE
  5
493
100
AcDbEntity
  8
0
100
AcDbLine
 62
7
  6
CONTINUOUS
 10
-0.449206195
 20
-6.9687807785
 11
-0.5942422811
 21
-7.0713367785
  0
LINE
  5
494
100
AcDbEntity
  8
RACCORDO
100
AcDbLine
 62
7
  6
CONTINUOUS
 10
23.9607126735
 20
9.4941133362
 11
25.7353840657
 21
10.748995512
  0
LINE
  5
495
100
AcDbEntity
  8
COPY-PUBBLISH
100
AcDbLine
 62
7
  6
CONTINUOUS
 10
27.1717562783
 20
11.7646640439
 11
27.8567044093
 21
12.248995512
  0
LINE
  5
496
100
AcDbEntity
  8
0
100
AcDbLine
 62
7
  6
CONTINUOUS
 10
13.724385781
 20
2.2505851292
 11
5.946211188
 21
-3.2494148708
  0
LINE
  5
497
100
AcDbEntity
  8
0
100
AcDbLine
 62
7
  6
CONTINUOUS
 10
-1.5013220877
 20
-8.6639744582
 11
-1.6506484985
 21
-8.7695641759
  0
LINE
  5
498
100
AcDbEntity
  8
COPY-PUBBLISH
100
AcDbLine
 62
7
  6
CONTINUOUS
 10
-1.6506484985
 20
-9.4194690502
 11
-1.6377006662
 21
-9.4103135502
  0
LINE
  5
499
100
AcDbEntity
  8
0
100
AcDbLine
 62
7
  6
CONTINUOUS
 10
-1.6506484985
 20
-9.6194690502
 11
-1.49627931
 21
-9.5103135502
  0
LINE
  5
49A
100
AcDbEntity
  8
RACCORDO
100
AcDbLine
 62
7
  6
CONTINUOUS
 10
29.0686029328
 20
11.9745663262
 11
28.2866329651
 21
11.4216300594
  0
LINE
  5
49B
100
AcDbEntity
  8
RACCORDO
100
AcDbLine
 62
7
  6
CONTINUOUS
 10
26.9596323213
 20
10.4832989055
 11
26.1653126215
 21
9.9216300594
  0
LINE
  5
49C
100
AcDbEntity
  8
RACCORDO
100
AcDbLine
 62
7
  6
CONTINUOUS
 10
25.03809428
 20
9.0131803265
 11
22.2972643087
 21
7.0751208677
  0
LINE
  5
49D
100
AcDbEntity
  8
0
100
AcDbLine
 62
7
  6
CONTINUOUS
 10
-0.8122012289
 20
-9.8178285751
 11
-0.828422612
 21
-9.8292988251
  0
LINE
  5
49E
100
AcDbEntity
  8
0
100
AcDbLine
 62
7
  6
CONTINUOUS
 10
25.9573330955
 20
8.584826453
 11
26.9472825892
 21
9.284826453
  0
LINE
  5
49F
100
AcDbEntity
  8
0
100
AcDbLine
 62
7
  6
CONTINUOUS
 10
-0.449206195
 20
-10.1592140483
 11
-1.6660775684
 21
-11.0196720483
  0
LINE
  5
4A0
100
AcDbEntity
  8
ASSI
100
AcDbLine
 62
7
  6
CONTINUOUS
 10
-25.7675279483
 20
-28.0909924166
 11
-18.5550387801
 21
-22.9909924166
  0
LINE
  5
4A1
100
AcDbEntity
  8
0
100
AcDbLine
 62
7
  6
CONTINUOUS
 10
-1.3145196332
 20
-10.9347697828
 11
-0.449206195
 21
-10.3229007828
  0
LINE
  5
4A2
100
AcDbEntity
  8
COPY-PUBBLISH
100
AcDbLine
 62
7
  6
CONTINUOUS
 10
-1.4726533932
 20
-11.1343620192
 11
-1.4559409894
 21
-11.1225445651
  0
LINE
  5
4A3
100
AcDbEntity
  8
0
100
AcDbLine
 62
7
  6
CONTINUOUS
 10
-1.4321864442
 20
-11.3057475651
 11
-1.3145196332
 21
-11.2225445651
  0
LINE
  5
4A4
100
AcDbEntity
  8
DRAFT
100
AcDbLine
 62
7
  6
CONTINUOUS
 10
24.8646196404
 20
9.357491547
 11
25.8146258022
 21
10.0176241324
  0
LINE
  5
4A5
100
AcDbEntity
  8
COPY-PUBBLISH
100
AcDbLine
 62
7
  6
CONTINUOUS
 10
-20.0923428395
 20
-21.9039542915
 11
-26.2978580341
 21
-26.2159924166
  0
LINE
  5
4A6
100
AcDbEntity
  8
RACCORDO
100
AcDbLine
 62
7
  6
CONTINUOUS
 10
23.5376583298
 20
9.6103817076
 11
22.0859395007
 21
8.6027218898
  0
LINE
  5
4A7
100
AcDbEntity
  8
RACCORDO
100
AcDbLine
 62
7
  6
CONTINUOUS
 10
-20.4945177296
 20
-21.1571595932
 11
-15.9592955706
 21
-18.0535760617
  0
LINE
  5
4A8
100
AcDbEntity
  8
RACCORDO
100
AcDbLine
 62
250
  6
CONTINUOUS
 10
-9.2937191559
 20
-12.6913970752
 11
-8.933994468
 21
-12.4457608414
  0
LINE
  5
4A9
100
AcDbEntity
  8
RACCORDO
100
AcDbLine
 62
7
  6
CONTINUOUS
 10
-9.5691203893
 20
-12.9934061116
 11
-9.2093957013
 21
-12.7477698778
  0
LWPOLYLINE
  5
4AA
100
AcDbEntity
  8
0
100
AcDbPolyline
 62
7
  6
CONTINUOUS
 90
25
 70
0
 10
-3.666433862
 20
-9.3761135588
 10
-3.6518380804
 20
-9.3661677948
 10
-3.637350751
 20
-9.3554318569
 10
-3.6229718739
 20
-9.343905745
 10
-3.6086500103
 20
-9.3315418541
 10
-3.5944365989
 20
-9.3183877892
 10
-3.5804859562
 20
-9.3045863655
 10
-3.5668009455
 20
-9.290130529
 10
-3.5533787036
 20
-9.2750273336
 10
-3.540364957
 20
-9.2594407564
 10
-3.527764157
 20
-9.2433655303
 10
-3.5155718523
 20
-9.2268069224
 10
-3.5039204161
 20
-9.2099447113
 10
-3.4928157419
 20
-9.1927755887
 10
-3.482251936
 20
-9.1753028629
 10
-3.4723436908
 20
-9.157716237
 10
-3.4630981494
 20
-9.1400144697
 10
-3.4545081686
 20
-9.1221988022
 10
-3.4466670105
 20
-9.104462661
 10
-3.4395828349
 20
-9.0868069125
 10
-3.4332474819
 20
-9.0692306901
 10
-3.4277297353
 20
-9.0519248207
 10
-3.4230525229
 20
-9.034952913
 10
-3.4191929168
 20
-9.0182513582
 10
-3.416150917
 20
-9.0018201563
  0
LWPOLYLINE
  5
4AB
100
AcDbEntity
  8
0
100
AcDbPolyline
 62
7
  6
CONTINUOUS
 90
16
 70
0
 10
26.9472825892
 20
9.284826453
 10
26.9612542691
 20
9.2942356228
 10
26.9750492381
 20
9.3026314531
 10
26.9886674961
 20
9.3100139437
 10
27.0021656831
 20
9.3164059638
 10
27.0154871592
 20
9.3217846443
 10
27.0284620042
 20
9.3260813782
 10
27.0410857779
 20
9.3292823061
 10
27.0533629206
 20
9.3314012874
 10
27.065136833
 20
9.3324112939
 10
27.0764010688
 20
9.3322981198
 10
27.0871620743
 20
9.3310759708
 10
27.0972825892
 20
9.3287604358
 10
27.1067544089
 20
9.3253375088
 10
27.1155857379
 20
9.3208211959
 10
27.1204744796
 20
9.3176527177
  0
LWPOLYLINE
  5
4AC
100
AcDbEntity
  8
0
100
AcDbPolyline
 62
7
  6
CONTINUOUS
 90
19
 70
0
 10
-1.2376415697
 20
-8.1787008501
 10
-1.2534888288
 20
-8.1893112824
 10
-1.2693651308
 20
-8.1995419296
 10
-1.2852704757
 20
-8.2093927918
 10
-1.3012501789
 20
-8.2189575144
 10
-1.3172589251
 20
-8.2281424519
 10
-1.3331607676
 20
-8.2366666683
 10
-1.3489989394
 20
-8.244562382
 10
-1.3647302076
 20
-8.2517973745
 10
-1.380088927
 20
-8.257994054
 10
-1.3950158166
 20
-8.2631427725
 10
-1.4095701574
 20
-8.267253178
 10
-1.4236641476
 20
-8.2699766228
 10
-1.4372997551
 20
-8.2713174128
 10
-1.4504750119
 20
-8.2712712422
 10
-1.4630962133
 20
-8.2694765462
 10
-1.4752910841
 20
-8.2660231817
 10
-1.4869318995
 20
-8.2608212919
 10
-1.4925848815
 20
-8.2570847695
  0
LINE
  5
4AD
100
AcDbEntity
  8
0
100
AcDbLine
 62
7
  6
CONTINUOUS
 10
-28.8787977855
 20
-25.7865988447
 11
-30.8604226001
 21
-27.1057456145
  0
LINE
  5
4AE
100
AcDbEntity
  8
COPY-PUBBLISH
100
AcDbLine
 62
7
  6
CONTINUOUS
 10
-1.4667494413
 20
-8.2907926436
 11
-1.4342689886
 21
-8.2710193974
  0
LWPOLYLINE
  5
4AF
100
AcDbEntity
  8
RACCORDO
100
AcDbPolyline
 62
250
  6
CONTINUOUS
 90
19
 70
0
 10
-11.9338054145
 20
-16.3005818234
 10
-11.9660739382
 20
-16.3195849487
 10
-12.0006873491
 20
-16.3365537873
 10
-12.0373880317
 20
-16.3513620461
 10
-12.0759028354
 20
-16.3638995123
 10
-12.1159451079
 20
-16.3740728738
 10
-12.1572168285
 20
-16.381806414
 10
-12.1994108261
 20
-16.3870425748
 10
-12.2422130654
 20
-16.3897423851
 10
-12.2853049841
 20
-16.3898857513
 10
-12.3283658641
 20
-16.3874716063
 10
-12.3710752181
 20
-16.3825179178
 10
-12.4131151753
 20
-16.3750615544
 10
-12.4541728468
 20
-16.3651580111
 10
-12.4939426546
 20
-16.3528809967
 10
-12.5321286058
 20
-16.3383218846
 10
-12.5684464956
 20
-16.3215890334
 10
-12.6026260225
 20
-16.3028069797
 10
-12.6344128003
 20
-16.282115512
  0
LINE
  5
4B0
100
AcDbEntity
  8
COPY-PUBBLISH
100
AcDbLine
 62
7
  6
CONTINUOUS
 10
-0.7183527132
 20
-7.7814285064
 11
-0.67782049
 21
-7.7599696396
  0
LWPOLYLINE
  5
4B1
100
AcDbEntity
  8
0
100
AcDbPolyline
 62
7
  6
CONTINUOUS
 90
13
 70
0
 10
-0.449206195
 20
-8.4259440067
 10
-0.5418539096
 20
-8.4737751915
 10
-0.6349947248
 20
-8.5166815022
 10
-0.7286286405
 20
-8.5546629391
 10
-0.8236408156
 20
-8.5878852076
 10
-0.9191460912
 20
-8.6161826022
 10
-1.0124889905
 20
-8.639058006
 10
-1.1035437413
 20
-8.6562523774
 10
-1.1924361159
 20
-8.668024758
 10
-1.2768879538
 20
-8.6746551556
 10
-1.3561398684
 20
-8.6762369061
 10
-1.4309512463
 20
-8.6726766737
 10
-1.5013220877
 20
-8.6639744582
  0
LINE
  5
4B2
100
AcDbEntity
  8
RACCORDO
100
AcDbLine
 62
7
  6
CONTINUOUS
 10
-29.7516164377
 20
-22.0979545702
 11
-31.835693451
 21
-23.1598816277
  0
LINE
  5
4B3
100
AcDbEntity
  8
RACCORDO
100
AcDbLine
 62
7
  6
CONTINUOUS
 10
-30.6774212254
 20
-24.1493251044
 11
-33.0829938587
 21
-25.3750680361
  0
LINE
  5
4B4
100
AcDbEntity
  8
COPY-PUBBLISH
100
AcDbLine
 62
7
  6
CONTINUOUS
 10
-1.4244460267
 20
-7.2840392838
 11
-1.3834244438
 21
-7.2632659231
  0
LWPOLYLINE
  5
4B5
100
AcDbEntity
  8
ASSI
100
AcDbPolyline
 62
7
  6
CONTINUOUS
 90
19
 70
0
 10
-3.7414755692
 20
-9.7996231408
 10
-3.7129192187
 20
-9.7852186028
 10
-3.6845073144
 20
-9.768035541
 10
-3.6562398565
 20
-9.7480739553
 10
-3.6278314957
 20
-9.7250735851
 10
-3.5995675811
 20
-9.6992946911
 10
-3.5723041607
 20
-9.6715180557
 10
-3.5460718462
 20
-9.6416825548
 10
-3.5208400258
 20
-9.6098493125
 10
-3.4973729125
 20
-9.5769824833
 10
-3.4757245
 20
-9.5430504429
 10
-3.4558407946
 20
-9.5080848155
 10
-3.438324027
 20
-9.4731446282
 10
-3.4232466172
 20
-9.4382306567
 10
-3.4105361452
 20
-9.4033421253
 10
-3.4005775828
 20
-9.3695357339
 10
-3.3934992536
 20
-9.3371637159
 10
-3.3891728339
 20
-9.305873838
 10
-3.3875983237
 20
-9.2756661001
  0
LWPOLYLINE
  5
4B6
100
AcDbEntity
  8
0
100
AcDbPolyline
 62
7
  6
CONTINUOUS
 90
22
 70
0
 10
-3.6000542211
 20
-9.8996231444
 10
-3.5758006039
 20
-9.8876272373
 10
-3.5515146123
 20
-9.8734780479
 10
-3.5271962461
 20
-9.8571755761
 10
-3.502619775
 20
-9.8385236604
 10
-3.4780109293
 20
-9.8177184624
 10
-3.4540469007
 20
-9.7953484669
 10
-3.4308416535
 20
-9.7714861185
 10
-3.4082812233
 20
-9.7460589726
 10
-3.3867009089
 20
-9.7194381801
 10
-3.3660125736
 20
-9.6914514782
 10
-3.3463043541
 20
-9.6622711297
 10
-3.3281759587
 20
-9.6327850736
 10
-3.3117559497
 20
-9.6031418955
 10
-3.2969157647
 20
-9.5731930099
 10
-3.2838694256
 20
-9.5433805996
 10
-3.2725961705
 20
-9.5135776317
 10
-3.2631167611
 20
-9.4839111391
 10
-3.2557075044
 20
-9.4552044042
 10
-3.2504605028
 20
-9.4277318543
 10
-3.2472836538
 20
-9.4012190622
 10
-3.2461769574
 20
-9.3756660276
  0
LWPOLYLINE
  5
4B7
100
AcDbEntity
  8
0
100
AcDbPolyline
 62
7
  6
CONTINUOUS
 90
22
 70
0
 10
-4.6251384284
 20
-10.6233895101
 10
-4.6516828383
 20
-10.6363768826
 10
-4.6782734643
 20
-10.6517374613
 10
-4.7049103064
 20
-10.669471246
 10
-4.7318422458
 20
-10.6897934848
 10
-4.7588204013
 20
-10.7124889296
 10
-4.7850981288
 20
-10.7369118365
 10
-4.8105498587
 20
-10.7629829656
 10
-4.8353011607
 20
-10.7907815566
 10
-4.8589821004
 20
-10.8198995848
 10
-4.881690075
 20
-10.8505269058
 10
-4.9033276874
 20
-10.8824736639
 10
-4.9232328115
 20
-10.9147622669
 10
-4.9412635362
 20
-10.9472292476
 10
-4.9575617727
 20
-10.9800380732
 10
-4.9718911278
 20
-11.0127015524
 10
-4.9842745585
 20
-11.0453597329
 10
-4.9946891078
 20
-11.0778725671
 10
-5.0028295118
 20
-11.1093327212
 10
-5.0085940158
 20
-11.1394377507
 10
-5.0120843743
 20
-11.1684901
 10
-5.0133005875
 20
-11.1964897693
  0
LWPOLYLINE
  5
4B8
100
AcDbEntity
  8
ASSI
100
AcDbPolyline
 62
7
  6
CONTINUOUS
 90
8
 70
0
 10
-3.6293993097
 20
-10.5607425833
 10
-3.626459837
 20
-10.5593505565
 10
-3.6166669696
 20
-10.5554535447
 10
-3.6074352737
 20
-10.5524255621
 10
-3.5990366428
 20
-10.5509343338
 10
-3.5914720892
 20
-10.5512128903
 10
-3.5847406006
 20
-10.5530282011
 10
-3.5809158183
 20
-10.5549440399
  0
LWPOLYLINE
  5
4B9
100
AcDbEntity
  8
0
100
AcDbPolyline
 62
7
  6
CONTINUOUS
 90
10
 70
0
 10
-0.7469920355
 20
-6.2065311967
 10
-0.7091863541
 20
-6.1892487941
 10
-0.6730274068
 20
-6.1759703431
 10
-0.6387199299
 20
-6.1671234415
 10
-0.6060591872
 20
-6.1622804915
 10
-0.5758532058
 20
-6.1609262889
 10
-0.5482850071
 20
-6.1628446584
 10
-0.5231715697
 20
-6.1682517754
 10
-0.5007718565
 20
-6.1772809622
 10
-0.4864887243
 20
-6.1859045239
  0
LWPOLYLINE
  5
4BA
100
AcDbEntity
  8
0
100
AcDbPolyline
 62
7
  6
CONTINUOUS
 90
10
 70
0
 10
-0.7469920355
 20
-9.1223001511
 10
-0.7091863541
 20
-9.1050177485
 10
-0.6730274068
 20
-9.0917392975
 10
-0.6387199299
 20
-9.0828923959
 10
-0.6060591872
 20
-9.0780494458
 10
-0.5758532058
 20
-9.0766952433
 10
-0.5482850071
 20
-9.0786136128
 10
-0.5231715697
 20
-9.0840207298
 10
-0.5007718565
 20
-9.0930499165
 10
-0.4864887243
 20
-9.1016734782
  0
LINE
  5
4BB
100
AcDbEntity
  8
COPY-PUBBLISH
100
AcDbLine
 62
7
  6
CONTINUOUS
 10
-1.4721300616
 20
-7.3056132033
 11
-1.4244460267
 21
-7.2840392838
  0
LINE
  5
4BC
100
AcDbEntity
  8
0
100
AcDbLine
 62
7
  6
CONTINUOUS
 10
-4.7609202253
 20
-10.4194865451
 11
-4.2850144098
 21
-10.2061158858
  0
LINE
  5
4BD
100
AcDbEntity
  8
0
100
AcDbLine
 62
7
  6
CONTINUOUS
 10
-3.2461769675
 20
-8.3451052773
 11
-4.6993655485
 21
-8.9953497704
  0
LINE
  5
4BE
100
AcDbEntity
  8
ASSI
100
AcDbLine
 62
7
  6
CONTINUOUS
 10
-4.250733873
 20
-9.2119829722
 11
-3.5575722784
 21
-8.9018201586
  0
LINE
  5
4BF
100
AcDbEntity
  8
ASSI
100
AcDbLine
 62
7
  6
CONTINUOUS
 10
-4.9727988339
 20
-9.5350784065
 11
-4.4869421862
 21
-9.3176765656
  0
LINE
  5
4C0
100
AcDbEntity
  8
0
100
AcDbLine
 62
7
  6
CONTINUOUS
 10
-4.1093125168
 20
-9.3119829722
 11
-3.416150917
 21
-9.0018201563
  0
LINE
  5
4C1
100
AcDbEntity
  8
0
100
AcDbLine
 62
7
  6
CONTINUOUS
 10
-4.8313775136
 20
-9.6350784226
 11
-4.3455208299
 21
-9.4176765656
  0
LINE
  5
4C2
100
AcDbEntity
  8
0
100
AcDbLine
 62
7
  6
CONTINUOUS
 10
-3.666433862
 20
-9.3761135588
 11
-3.9809634436
 21
-9.5168529682
  0
LINE
  5
4C3
100
AcDbEntity
  8
ASSI
100
AcDbLine
 62
7
  6
CONTINUOUS
 10
-4.9046181949
 20
-10.3200833554
 11
-4.426435766
 21
-10.1061158858
  0
LINE
  5
4C4
100
AcDbEntity
  8
ASSI
100
AcDbLine
 62
7
  6
CONTINUOUS
 10
-4.0263700446
 20
-9.9271019147
 11
-3.7414755692
 21
-9.7996231408
  0
LINE
  5
4C5
100
AcDbEntity
  8
0
100
AcDbLine
 62
7
  6
CONTINUOUS
 10
-3.9464736032
 20
-10.0546318298
 11
-3.6000542211
 21
-9.8996231444
  0
LINE
  5
4C6
100
AcDbEntity
  8
0
100
AcDbLine
 62
7
  6
CONTINUOUS
 10
-3.4569392338
 20
-10.1006663133
 11
-3.8167633495
 21
-10.2616739301
  0
LINE
  5
4C7
100
AcDbEntity
  8
0
100
AcDbLine
 62
7
  6
CONTINUOUS
 10
-4.155304156
 20
-10.4131572791
 11
-4.6251384284
 21
-10.6233895101
  0
LINE
  5
4C8
100
AcDbEntity
  8
ASSI
100
AcDbLine
 62
7
  6
CONTINUOUS
 10
-4.964321995
 20
-11.1687306626
 11
-4.288532266
 21
-10.8663415891
  0
LINE
  5
4C9
100
AcDbEntity
  8
0
100
AcDbLine
 62
7
  6
CONTINUOUS
 10
-4.8229006387
 20
-11.2687306626
 11
-4.1471109098
 21
-10.9663415891
  0
LWPOLYLINE
  5
4CA
100
AcDbEntity
  8
0
100
AcDbPolyline
 62
7
  6
CONTINUOUS
 90
10
 70
0
 10
-0.5942422811
 20
-7.7383279777
 10
-0.6192642092
 20
-7.7487744202
 10
-0.6439743534
 20
-7.7561137812
 10
-0.6683727137
 20
-7.7603460608
 10
-0.692705702
 20
-7.7614505528
 10
-0.7167269064
 20
-7.7594479634
 10
-0.7396970912
 20
-7.7544004112
 10
-0.7612551425
 20
-7.7460810057
 10
-0.7817621742
 20
-7.7347166374
 10
-0.7920969155
 20
-7.7281116476
  0
LINE
  5
4CB
100
AcDbEntity
  8
ASSI
100
AcDbLine
 62
7
  6
CONTINUOUS
 10
-4.9395041094
 20
-10.333577395
 11
-4.9046181949
 21
-10.3200833554
  0
LINE
  5
4CC
100
AcDbEntity
  8
ASSI
100
AcDbLine
 62
7
  6
CONTINUOUS
 10
1.0165553018
 20
5.9999485397
 11
-0.1696025016
 21
6.5748161369
  0
LWPOLYLINE
  5
4CD
100
AcDbEntity
  8
ASSI
100
AcDbPolyline
 62
7
  6
CONTINUOUS
 90
3
 70
0
 10
-0.2229109822
 20
6.6062396012
 10
-0.2080894785
 20
6.5963856341
 10
-0.1696025016
 20
6.5748161369
  0
LINE
  5
4CE
100
AcDbEntity
  8
RACCORDO
100
AcDbLine
 62
250
  6
CONTINUOUS
 10
26.9596323213
 20
-11.9780134266
 11
26.1057483391
 21
-11.3920607076
  0
LINE
  5
4CF
100
AcDbEntity
  8
RACCORDO
100
AcDbLine
 62
7
  6
CONTINUOUS
 10
27.1319655954
 20
-11.944592851
 11
26.2146094839
 21
-11.3150842539
  0
LWPOLYLINE
  5
4D0
100
AcDbEntity
  8
0
100
AcDbPolyline
 62
7
  6
CONTINUOUS
 90
15
 70
0
 10
25.4423756717
 20
-9.8098178663
 10
25.4363041906
 20
-9.8056016317
 10
25.4141350108
 20
-9.7915016335
 10
25.3919902346
 20
-9.779415575
 10
25.3699700785
 20
-9.7693465959
 10
25.3482604088
 20
-9.7613527681
 10
25.326966291
 20
-9.7554224316
 10
25.3061436913
 20
-9.751507801
 10
25.2859023986
 20
-9.7496089927
 10
25.2663818679
 20
-9.7496787894
 10
25.2476001385
 20
-9.751670585
 10
25.2294700821
 20
-9.7556261972
 10
25.2120042848
 20
-9.7615675262
 10
25.1953278101
 20
-9.7694478492
 10
25.1795156362
 20
-9.7792391798
  0
LINE
  5
4D1
100
AcDbEntity
  8
RACCORDO
100
AcDbLine
 62
250
  6
CONTINUOUS
 10
28.0030411181
 20
-9.7425790381
 11
29.0686029328
 21
-10.486746006
  0
LINE
  5
4D2
100
AcDbEntity
  8
RACCORDO
100
AcDbLine
 62
7
  6
CONTINUOUS
 10
28.177393895
 20
-9.7105654598
 11
29.2414473195
 21
-10.4536789983
  0
LINE
  5
4D3
100
AcDbEntity
  8
RACCORDO
100
AcDbLine
 62
7
  6
CONTINUOUS
 10
-25.3254058068
 20
24.3563838144
 11
-0.2231150747
 21
6.6063838144
  0
LINE
  5
4D4
100
AcDbEntity
  8
0
100
AcDbLine
 62
7
  6
CONTINUOUS
 10
25.03809428
 20
-11.0022975598
 11
25.7841280148
 21
-11.5298230727
  0
LINE
  5
4D5
100
AcDbEntity
  8
DRAFT
100
AcDbLine
 62
250
  6
CONTINUOUS
 10
25.7452010612
 20
-11.4348740984
 11
25.03809428
 21
-10.9348740984
  0
LINE
  5
4D6
100
AcDbEntity
  8
RACCORDO
100
AcDbLine
 62
250
  6
CONTINUOUS
 10
-25.5200405748
 20
24.8311286858
 11
-0.4177498427
 21
7.0811286858
  0
LINE
  5
4D7
100
AcDbEntity
  8
DRAFT
100
AcDbLine
 62
250
  6
CONTINUOUS
 10
25.603779705
 20
-9.9913712141
 11
25.2625497317
 21
-9.7500851861
  0
LINE
  5
4D8
100
AcDbEntity
  8
RACCORDO
100
AcDbLine
 62
250
  6
CONTINUOUS
 10
-25.5200405748
 20
27.0252341294
 11
-0.4177498427
 21
9.2752341294
  0
LINE
  5
4D9
100
AcDbEntity
  8
RACCORDO
100
AcDbLine
 62
250
  6
CONTINUOUS
 10
25.03809428
 20
-12.1983143669
 11
25.9586253878
 21
-12.8502386666
  0
LINE
  5
4DA
100
AcDbEntity
  8
RACCORDO
100
AcDbLine
 62
250
  6
CONTINUOUS
 10
25.0820524495
 20
-11.7725125128
 11
26.1653126215
 21
-12.5396822728
  0
LINE
  5
4DB
100
AcDbEntity
  8
DRAFT
100
AcDbLine
 62
7
  6
CONTINUOUS
 10
27.161595986
 20
-11.9827795864
 11
27.8567044093
 21
-12.4750585199
  0
LINE
  5
4DC
100
AcDbEntity
  8
RACCORDO
100
AcDbLine
 62
250
  6
CONTINUOUS
 10
27.0863979391
 20
-10.6466036203
 11
28.0799457313
 21
-11.3502386666
  0
LINE
  5
4DD
100
AcDbEntity
  8
RACCORDO
100
AcDbLine
 62
250
  6
CONTINUOUS
 10
27.2217556542
 20
-10.2855313383
 11
28.2866329651
 21
-11.0396822728
  0
LWPOLYLINE
  5
4DE
100
AcDbEntity
  8
ASSI
100
AcDbPolyline
 62
7
  6
CONTINUOUS
 90
13
 70
0
 10
9.6135519192
 20
-6.9623731812
 10
9.6185006174
 20
-6.9942646349
 10
9.6266380879
 20
-7.0267028793
 10
9.6379643307
 20
-7.0596879145
 10
9.6527770137
 20
-7.0937927313
 10
9.6707784689
 20
-7.1284443389
 10
9.6910756929
 20
-7.1619237646
 10
9.7137844933
 20
-7.1941718856
 10
9.7387890624
 20
-7.2252478247
 10
9.7648489737
 20
-7.2536099778
 10
9.7915507516
 20
-7.278744477
 10
9.8193078715
 20
-7.3011651903
 10
9.8481203336
 20
-7.3208721176
  0
LINE
  5
4DF
100
AcDbEntity
  8
ASSI
100
AcDbLine
 62
7
  6
CONTINUOUS
 10
8.9050224392
 20
21.443069638
 11
8.9050224392
 21
19.4958875469
  0
LINE
  5
4E0
100
AcDbEntity
  8
ASSI
100
AcDbLine
 62
7
  6
CONTINUOUS
 10
9.0464437954
 20
21.343069638
 11
9.0464437954
 21
19.5843671515
  0
LINE
  5
4E1
100
AcDbEntity
  8
ASSI
100
AcDbLine
 62
7
  6
CONTINUOUS
 10
9.4539062999
 20
19.8392941458
 11
9.4539062999
 21
20.0312645798
  0
LWPOLYLINE
  5
4E2
100
AcDbEntity
  8
ASSI
100
AcDbPolyline
 62
7
  6
CONTINUOUS
 90
10
 70
0
 10
9.2131123993
 20
-6.4945158151
 10
9.2102156722
 20
-6.5483485939
 10
9.2155167057
 20
-6.6049996039
 10
9.2290155
 20
-6.6644688452
 10
9.2515165548
 20
-6.7285084227
 10
9.2822153703
 20
-6.7953662315
 10
9.3186984471
 20
-6.8597859559
 10
9.3601612854
 20
-6.9200154908
 10
9.407408385
 20
-6.9778069413
 10
9.4604397458
 20
-7.0331603075
  0
LWPOLYLINE
  5
4E3
100
AcDbEntity
  8
ASSI
100
AcDbPolyline
 62
7
  6
CONTINUOUS
 90
13
 70
0
 10
9.0716910431
 20
-6.5945158151
 10
9.068374505
 20
-6.633299166
 10
9.0698848159
 20
-6.6743950138
 10
9.0762219758
 20
-6.7178033585
 10
9.0876302535
 20
-6.7642579348
 10
9.1038653801
 20
-6.8130250081
 10
9.1241945493
 20
-6.8619033743
 10
9.1488053581
 20
-6.910898112
 10
9.1775102095
 20
-6.9600041427
 10
9.2090135056
 20
-7.0070050268
 10
9.2428833806
 20
-7.0511619514
 10
9.2795517004
 20
-7.0932137293
 10
9.319018465
 20
-7.1331603608
  0
LINE
  5
4E4
100
AcDbEntity
  8
ASSI
100
AcDbLine
 62
7
  6
CONTINUOUS
 10
9.2148419825
 20
-4.9353986046
 11
9.3515165309
 21
-4.505654139
  0
LINE
  5
4E5
100
AcDbEntity
  8
ASSI
100
AcDbLine
 62
7
  6
CONTINUOUS
 10
8.6633269774
 20
-6.6695164636
 11
9.1221544256
 21
-5.2268336849
  0
LINE
  5
4E6
100
AcDbEntity
  8
ASSI
100
AcDbLine
 62
7
  6
CONTINUOUS
 10
9.3873816317
 20
-5.6018941138
 11
9.0716910431
 21
-6.5945158151
  0
LINE
  5
4E7
100
AcDbEntity
  8
ASSI
100
AcDbLine
 62
7
  6
CONTINUOUS
 10
9.5113309965
 20
-5.5568310629
 11
9.2131123993
 21
-6.4945158151
  0
LINE
  5
4E8
100
AcDbEntity
  8
ASSI
100
AcDbLine
 62
7
  6
CONTINUOUS
 10
9.6135519192
 20
-6.9623731812
 11
9.9029859566
 21
-6.0523096452
  0
LINE
  5
4E9
100
AcDbEntity
  8
ASSI
100
AcDbLine
 62
7
  6
CONTINUOUS
 10
10.2104235817
 20
-6.1816895794
 11
9.8481203336
 21
-7.3208721176
  0
LINE
  5
4EA
100
AcDbEntity
  8
ASSI
100
AcDbLine
 62
7
  6
CONTINUOUS
 10
10.3518449379
 20
-6.0816895794
 11
9.9895417003
 21
-7.2208720846
  0
LINE
  5
4EB
100
AcDbEntity
  8
ASSI
100
AcDbLine
 62
7
  6
CONTINUOUS
 10
10.3515698734
 20
-7.8632844636
 11
11.0397587197
 21
-5.699421639
  0
LINE
  5
4EC
100
AcDbEntity
  8
RACCORDO
100
AcDbLine
 62
7
  6
CONTINUOUS
 10
17.0751032148
 20
16.8424953738
 11
17.0616940117
 21
16.8005967884
  0
LINE
  5
4ED
100
AcDbEntity
  8
ASSI
100
AcDbLine
 62
7
  6
CONTINUOUS
 10
8.4925628111
 20
-5.0549886249
 11
8.0993513367
 21
-6.2707254636
  0
LINE
  5
4EE
100
AcDbEntity
  8
ASSI
100
AcDbLine
 62
7
  6
CONTINUOUS
 10
8.7337972392
 20
-4.3370499777
 11
8.594991471
 21
-4.7662123389
  0
LINE
  5
4EF
100
AcDbEntity
  8
ASSI
100
AcDbLine
 62
7
  6
CONTINUOUS
 10
8.5913106827
 20
-5.0869271127
 11
8.2407726929
 21
-6.1707254636
  0
LINE
  5
4F0
100
AcDbEntity
  8
ASSI
100
AcDbLine
 62
7
  6
CONTINUOUS
 10
8.8325451902
 20
-4.3689884383
 11
8.7364128272
 21
-4.6662123389
  0
LINE
  5
4F1
100
AcDbEntity
  8
ASSI
100
AcDbLine
 62
7
  6
CONTINUOUS
 10
10.437501732
 20
-5.5350377059
 11
10.2687422134
 21
-6.0375936849
  0
LINE
  5
4F2
100
AcDbEntity
  8
ASSI
100
AcDbLine
 62
7
  6
CONTINUOUS
 10
10.5344146299
 20
-5.5675812924
 11
10.4101635697
 21
-5.9375936849
  0
LWPOLYLINE
  5
4F3
100
AcDbEntity
  8
RACCORDO
100
AcDbPolyline
 62
7
  6
CONTINUOUS
 90
11
 70
0
 10
17.0616940117
 20
16.8005967884
 10
17.0305361641
 20
16.7146683411
 10
16.9949001245
 20
16.6265715996
 10
16.9548227397
 20
16.5367234757
 10
16.9105258903
 20
16.4458630954
 10
16.8621725333
 20
16.3544923645
 10
16.8099396193
 20
16.2630761785
 10
16.7541436823
 20
16.1722573309
 10
16.69503961
 20
16.0825037387
 10
16.6329107777
 20
15.9942776502
 10
16.6051798323
 20
15.9567076761
  0
LWPOLYLINE
  5
4F4
100
AcDbEntity
  8
RACCORDO
100
AcDbPolyline
 62
7
  6
CONTINUOUS
 90
12
 70
0
 10
16.2683357599
 20
15.2723017332
 10
16.2918607221
 20
15.3357395792
 10
16.3165970052
 20
15.3995367471
 10
16.3425446092
 20
15.4636932368
 10
16.3693297274
 20
15.5283502031
 10
16.3973261666
 20
15.5933664913
 10
16.4276553463
 20
15.658318637
 10
16.460237147
 20
15.7232670511
 10
16.4951516884
 20
15.7881513229
 10
16.5337607485
 20
15.8523667556
 10
16.5759570173
 20
15.9160733265
 10
16.6049628086
 20
15.9567892691
  0
LWPOLYLINE
  5
4F5
100
AcDbEntity
  8
0
100
AcDbPolyline
 62
7
  6
CONTINUOUS
 90
10
 70
0
 10
-5.272581702
 20
-26.9024617053
 10
-5.2860822546
 20
-26.9216613099
 10
-5.2989635146
 20
-26.9410785152
 10
-5.3112254819
 20
-26.9607133211
 10
-5.3229021232
 20
-26.9806257765
 10
-5.3339594719
 20
-27.0007558326
 10
-5.3442956277
 20
-27.020923343
 10
-5.3538766239
 20
-27.041068259
 10
-5.3627364272
 20
-27.0612506292
 10
-5.3708750377
 20
-27.0814704537
  0
LWPOLYLINE
  5
4F6
100
AcDbEntity
  8
0
100
AcDbPolyline
 62
7
  6
CONTINUOUS
 90
10
 70
0
 10
-5.5415069327
 20
-26.5621198556
 10
-5.5744024651
 20
-26.6074117563
 10
-5.6059604597
 20
-26.6532867444
 10
-5.6361809164
 20
-26.6997448199
 10
-5.6651371207
 20
-26.7469126887
 10
-5.6927557871
 20
-26.7946636449
 10
-5.7188170595
 20
-26.8426175707
 10
-5.7432476525
 20
-26.8906477604
 10
-5.7661208514
 20
-26.9388809198
 10
-5.7874366562
 20
-26.9873170489
  0
LWPOLYLINE
  5
4F7
100
AcDbEntity
  8
ASSI
100
AcDbPolyline
 62
7
  6
CONTINUOUS
 90
10
 70
0
 10
-5.4139998128
 20
-26.802457266
 10
-5.3961338249
 20
-26.779096272
 10
-5.3777772088
 20
-26.7566086463
 10
-5.3589299647
 20
-26.7349943889
 10
-5.3395118453
 20
-26.7141730979
 10
-5.3196030978
 20
-26.6942251753
 10
-5.2994444636
 20
-26.6753918269
 10
-5.2791161899
 20
-26.6577534546
 10
-5.2585380296
 20
-26.6412296566
 10
-5.2377099827
 20
-26.6258204328
  0
LWPOLYLINE
  5
4F8
100
AcDbEntity
  8
ASSI
100
AcDbPolyline
 62
7
  6
CONTINUOUS
 90
3
 70
0
 10
9.3873816317
 20
-5.6018941138
 10
9.4051781521
 20
-5.5810544744
 10
9.4140256873
 20
-5.5745683547
  0
LINE
  5
4F9
100
AcDbEntity
  8
RACCORDO
100
AcDbLine
 62
250
  6
CONTINUOUS
 10
1.0845967676
 20
-10.3113137551
 11
2.0874273113
 21
-9.5871750023
  0
LINE
  5
4FA
100
AcDbEntity
  8
RACCORDO
100
AcDbLine
 62
250
  6
CONTINUOUS
 10
0.9083825351
 20
-11.2968864187
 11
2.4407653267
 21
-10.1903607245
  0
LINE
  5
4FB
100
AcDbEntity
  8
RACCORDO
100
AcDbLine
 62
7
  6
CONTINUOUS
 10
2.4407653267
 20
-11.2512362715
 11
0.8727360651
 21
-12.3835020973
  0
LINE
  5
4FC
100
AcDbEntity
  8
DRAFT
100
AcDbLine
 62
7
  6
CONTINUOUS
 10
-21.7016639564
 20
-27.5963225025
 11
-16.7600654822
 21
-24.0405602935
  0
LINE
  5
4FD
100
AcDbEntity
  8
DRAFT
100
AcDbLine
 62
7
  6
CONTINUOUS
 10
-21.7016639564
 20
-28.4802059789
 11
-17.0428834662
 21
-25.1689619445
  0
LINE
  5
4FE
100
AcDbEntity
  8
ASSI
100
AcDbLine
 62
7
  6
CONTINUOUS
 10
-18.0247086943
 20
-23.1463225025
 11
-25.7675279483
 21
-28.6213225025
  0
LINE
  5
4FF
100
AcDbEntity
  8
ASSI
100
AcDbLine
 62
7
  6
CONTINUOUS
 10
8.594991471
 20
-4.7662123389
 11
8.7364128272
 21
-4.6662123389
  0
LINE
  5
500
100
AcDbEntity
  8
0
100
AcDbLine
 62
7
  6
CONTINUOUS
 10
25.1795156362
 20
6.7670595
 11
25.03809428
 21
6.6670595
  0
LINE
  5
501
100
AcDbEntity
  8
ASSI
100
AcDbLine
 62
7
  6
CONTINUOUS
 10
8.0993513367
 20
-6.2707254636
 11
8.2407726929
 21
-6.1707254636
  0
LINE
  5
502
100
AcDbEntity
  8
ASSI
100
AcDbLine
 62
7
  6
CONTINUOUS
 10
9.0716910431
 20
-6.5945158151
 11
9.2131123993
 21
-6.4945158151
  0
LINE
  5
503
100
AcDbEntity
  8
ASSI
100
AcDbLine
 62
7
  6
CONTINUOUS
 10
9.9029862811
 20
-6.0523086249
 11
10.0444076374
 21
-5.9523086249
  0
LINE
  5
504
100
AcDbEntity
  8
0
100
AcDbLine
 62
7
  6
CONTINUOUS
 10
25.03809428
 20
4.5457391564
 11
25.1795156362
 21
4.6457391564
  0
LINE
  5
505
100
AcDbEntity
  8
ASSI
100
AcDbLine
 62
7
  6
CONTINUOUS
 10
10.2687422134
 20
-6.0375936849
 11
10.4101635697
 21
-5.9375936849
  0
LINE
  5
506
100
AcDbEntity
  8
ASSI
100
AcDbLine
 62
7
  6
CONTINUOUS
 10
10.2104235817
 20
-6.1816895794
 11
10.3518449379
 21
-6.0816895794
  0
LINE
  5
507
100
AcDbEntity
  8
0
100
AcDbLine
 62
7
  6
CONTINUOUS
 10
26.9472825892
 20
5.3957391564
 11
25.7452010612
 21
4.5457391564
  0
LINE
  5
508
100
AcDbEntity
  8
ASSI
100
AcDbLine
 62
7
  6
CONTINUOUS
 10
9.3190179032
 20
-7.1331599636
 11
9.4604392595
 21
-7.0331599636
  0
LINE
  5
509
100
AcDbEntity
  8
ASSI
100
AcDbLine
 62
7
  6
CONTINUOUS
 10
9.8481203336
 20
-7.3208721176
 11
9.989541808
 21
-7.220871746
  0
LINE
  5
50A
100
AcDbEntity
  8
ASSI
100
AcDbLine
 62
7
  6
CONTINUOUS
 10
11.0559960127
 20
-6.7554186488
 11
11.0753181923
 21
-6.7417558046
  0
LINE
  5
50B
100
AcDbEntity
  8
DRAFT
100
AcDbLine
 62
7
  6
CONTINUOUS
 10
-24.4834466299
 20
-30.4372548136
 11
-21.7016639564
 21
-28.4802059789
  0
LINE
  5
50C
100
AcDbEntity
  8
DRAFT
100
AcDbLine
 62
7
  6
CONTINUOUS
 10
-24.4834466299
 20
-29.5293051103
 11
-21.7016639564
 21
-27.5963225025
  0
LINE
  5
50D
100
AcDbEntity
  8
DRAFT
100
AcDbLine
 62
7
  6
CONTINUOUS
 10
-20.252095055
 20
-28.5859671634
 11
-19.253506403
 21
-27.8920759709
  0
LINE
  5
50E
100
AcDbEntity
  8
DRAFT
100
AcDbLine
 62
7
  6
CONTINUOUS
 10
25.03809428
 20
3.6514996764
 11
25.3639139664
 21
3.8776560087
  0
LWPOLYLINE
  5
50F
100
AcDbEntity
  8
0
100
AcDbPolyline
 62
7
  6
CONTINUOUS
 90
22
 70
0
 10
25.1795156362
 20
6.7670595
 10
25.1953278101
 20
6.7779436619
 10
25.2120042848
 20
6.7890743395
 10
25.2294700821
 20
6.8003734842
 10
25.2476001385
 20
6.8117011782
 10
25.2663818679
 20
6.823027496
 10
25.2859023986
 20
6.834463159
 10
25.3061436913
 20
6.8459930674
 10
25.326966291
 20
6.8575034141
 10
25.3482604088
 20
6.8689767222
 10
25.3699700785
 20
6.8803241272
 10
25.3919902346
 20
6.8914662057
 10
25.4141350108
 20
6.9023924432
 10
25.4363041907
 20
6.912974098
 10
25.45844641
 20
6.9231348183
 10
25.4804355297
 20
6.932934013
 10
25.5021599689
 20
6.942226285
 10
25.5235622977
 20
6.9509127095
 10
25.5445476148
 20
6.9590981727
 10
25.5649886394
 20
6.9666996743
 10
25.584769574
 20
6.9734603852
 10
25.603779705
 20
6.9791915344
  0
LWPOLYLINE
  5
510
100
AcDbEntity
  8
ASSI
100
AcDbPolyline
 62
7
  6
CONTINUOUS
 90
16
 70
0
 10
-18.5550387801
 20
-22.9909924166
 10
-18.4712086275
 20
-22.9345373135
 10
-18.388438639
 20
-22.8841622432
 10
-18.3067288146
 20
-22.8398672057
 10
-18.2257391708
 20
-22.8015149535
 10
-18.1458096911
 20
-22.769242734
 10
-18.0679603263
 20
-22.74346229
 10
-17.9922180111
 20
-22.7242568645
 10
-17.9185558108
 20
-22.7115432144
 10
-17.8479128728
 20
-22.7054833535
 10
-17.7803276912
 20
-22.7061624535
 10
-17.7157617719
 20
-22.7134953428
 10
-17.6550387801
 20
-22.7273885196
 10
-17.598207964
 20
-22.747926056
 10
-17.5452200754
 20
-22.7750238799
 10
-17.515887436
 20
-22.7940348291
  0
LWPOLYLINE
  5
511
100
AcDbEntity
  8
ASSI
100
AcDbPolyline
 62
7
  6
CONTINUOUS
 90
14
 70
0
 10
-18.0247086943
 20
-23.1463225025
 10
-17.9687170741
 20
-23.1089025052
 10
-17.9136459526
 20
-23.0761663669
 10
-17.8594953298
 20
-23.0481140876
 10
-17.8059737587
 20
-23.0246415649
 10
-17.7533726862
 20
-23.0058529012
 10
-17.7025664534
 20
-22.9920604037
 10
-17.6535850605
 20
-22.9833475822
 10
-17.6063985073
 20
-22.9796309269
 10
-17.561791134
 20
-22.9809722166
 10
-17.519806051
 20
-22.9874559934
 10
-17.4804001479
 20
-22.9989977152
 10
-17.4442284341
 20
-23.0154055342
 10
-17.4184158877
 20
-23.0315162823
  0
LWPOLYLINE
  5
512
100
AcDbEntity
  8
ASSI
100
AcDbPolyline
 62
7
  6
CONTINUOUS
 90
11
 70
0
 10
9.4140256873
 20
-5.5745683547
 10
9.4267587063
 20
-5.5661527181
 10
9.4521232942
 20
-5.557188845
 10
9.4814824222
 20
-5.5541869373
 10
9.514625584
 20
-5.5571229128
 10
9.5509212605
 20
-5.5659245246
 10
9.5906062701
 20
-5.5813225736
 10
9.6334437945
 20
-5.6025862588
 10
9.67809186
 20
-5.627450931
 10
9.7241031419
 20
-5.6551617072
 10
9.7719249649
 20
-5.6864734704
  0
LWPOLYLINE
  5
513
100
AcDbEntity
  8
0
100
AcDbPolyline
 62
7
  6
CONTINUOUS
 90
16
 70
0
 10
25.1795156362
 20
4.6457391564
 10
25.2033459393
 20
4.6607985782
 10
25.2286575674
 20
4.6738022538
 10
25.2554505207
 20
4.684750183
 10
25.2840484308
 20
4.6937167214
 10
25.314127666
 20
4.7006275136
 10
25.3447173311
 20
4.7052594934
 10
25.3758340808
 20
4.7075383057
 10
25.4074612604
 20
4.7075383057
 10
25.4385780101
 20
4.7052594934
 10
25.4691676752
 20
4.7006275136
 10
25.4992469104
 20
4.6937167214
 10
25.5278448205
 20
4.684750183
 10
25.5546377738
 20
4.6738022538
 10
25.5799494019
 20
4.6607985782
 10
25.603779705
 20
4.6457391564
  0
LWPOLYLINE
  5
514
100
AcDbEntity
  8
RACCORDO
100
AcDbPolyline
 62
250
  6
CONTINUOUS
 90
12
 70
0
 10
2.0874273113
 20
-9.5871750023
 10
2.1174951954
 20
-9.5682508584
 10
2.1472545148
 20
-9.5520988965
 10
2.1764887313
 20
-9.5388366435
 10
2.2049851275
 20
-9.5285605997
 10
2.2325363546
 20
-9.5213455368
 10
2.2589419411
 20
-9.5172439539
 10
2.2840097518
 20
-9.5162856955
 10
2.3075573852
 20
-9.518477734
 10
2.3294135013
 20
-9.5238041197
 10
2.3494190682
 20
-9.5322260959
 10
2.3637636105
 20
-9.5409896015
  0
LWPOLYLINE
  5
515
100
AcDbEntity
  8
ASSI
100
AcDbPolyline
 62
7
  6
CONTINUOUS
 90
16
 70
0
 10
-3.7513559723
 20
-13.0955980395
 10
-3.7187696175
 20
-13.0756887437
 10
-3.6866574645
 20
-13.0529685497
 10
-3.6550195132
 20
-13.0274374576
 10
-3.6235544754
 20
-12.9987896305
 10
-3.5925636393
 20
-12.9673309052
 10
-3.5629508699
 20
-12.9339787931
 10
-3.5347567538
 20
-12.8986775302
 10
-3.5079407044
 20
-12.8614828804
 10
-3.4832848266
 20
-12.8234796463
 10
-3.4608527498
 20
-12.7846440403
 10
-3.4405808446
 20
-12.7449998501
 10
-3.4230603278
 20
-12.7057032405
 10
-3.4084882715
 20
-12.6671396
 10
-3.3966676034
 20
-12.6289235403
 10
-3.3875983237
 20
-12.5910550612
  0
LWPOLYLINE
  5
516
100
AcDbEntity
  8
0
100
AcDbPolyline
 62
7
  6
CONTINUOUS
 90
25
 70
0
 10
-3.609934616
 20
-13.1955980395
 10
-3.5898029456
 20
-13.1837266912
 10
-3.5697183502
 20
-13.1706410078
 10
-3.5496808299
 20
-13.1563409891
 10
-3.5296135571
 20
-13.1407621916
 10
-3.5095933595
 20
-13.123969059
 10
-3.4898507194
 20
-13.1061549221
 10
-3.4703888444
 20
-13.0873079812
 10
-3.4512045271
 20
-13.067440036
 10
-3.4325186271
 20
-13.0467798167
 10
-3.4143369051
 20
-13.0253181675
 10
-3.3966536005
 20
-13.0030642443
 10
-3.379672292
 20
-12.9802742445
 10
-3.3634010922
 20
-12.9569419729
 10
-3.3478318884
 20
-12.9330736247
 10
-3.3331439211
 20
-12.9089439837
 10
-3.3193473744
 20
-12.8845500302
 10
-3.3064320642
 20
-12.8598947838
 10
-3.294546678
 20
-12.8352620863
 10
-3.283703118
 20
-12.810652198
 10
-3.2738894821
 20
-12.7860648587
 10
-3.265218751
 20
-12.7617831291
 10
-3.257728585
 20
-12.7379013631
 10
-3.2513813238
 20
-12.7143252068
 10
-3.2461769675
 20
-12.6910546604
  0
LWPOLYLINE
  5
517
100
AcDbEntity
  8
ASSI
100
AcDbPolyline
 62
7
  6
CONTINUOUS
 90
6
 70
0
 10
11.7108234956
 20
-7.1482949804
 10
11.7220166859
 20
-7.1418746723
 10
11.7480149879
 20
-7.1323493938
 10
11.7771604827
 20
-7.1296521227
 10
11.8102105119
 20
-7.1340170391
 10
11.826397719
 20
-7.1390224557
  0
LWPOLYLINE
  5
518
100
AcDbEntity
  8
ASSI
100
AcDbPolyline
 62
7
  6
CONTINUOUS
 90
12
 70
0
 10
11.0729418699
 20
-6.7383951773
 10
11.0850448663
 20
-6.7316778088
 10
11.1036620054
 20
-6.7255970073
 10
11.1252518674
 20
-6.7236284513
 10
11.1495701799
 20
-6.7255197179
 10
11.1758841252
 20
-6.7305135376
 10
11.2041594896
 20
-6.7386851978
 10
11.2344304869
 20
-6.7499594111
 10
11.2660669409
 20
-6.7633530468
 10
11.2988587929
 20
-6.7785383944
 10
11.3330161017
 20
-6.7958431644
 10
11.3685388671
 20
-6.8152673567
  0
LINE
  5
519
100
AcDbEntity
  8
COPY-PUBBLISH
100
AcDbLine
 62
7
  6
CONTINUOUS
 10
-1.4244460267
 20
-10.1998082382
 11
-1.3834244438
 21
-10.1790348774
  0
LINE
  5
51A
100
AcDbEntity
  8
COPY-PUBBLISH
100
AcDbLine
 62
7
  6
CONTINUOUS
 10
-1.4721300616
 20
-10.2213821577
 11
-1.4244460267
 21
-10.1998082382
  0
LINE
  5
51B
100
AcDbEntity
  8
0
100
AcDbLine
 62
7
  6
CONTINUOUS
 10
-4.0161328136
 20
-11.1754061262
 11
-4.7041277937
 21
-11.4832562104
  0
LINE
  5
51C
100
AcDbEntity
  8
ASSI
100
AcDbLine
 62
7
  6
CONTINUOUS
 10
-4.9898614316
 20
-11.9880112415
 11
-3.6809323795
 21
-11.4023172958
  0
LINE
  5
51D
100
AcDbEntity
  8
0
100
AcDbLine
 62
7
  6
CONTINUOUS
 10
-4.852146885
 20
-12.0896698921
 11
-3.5395110232
 21
-11.5023172958
  0
LINE
  5
51E
100
AcDbEntity
  8
0
100
AcDbLine
 62
7
  6
CONTINUOUS
 10
-3.2461769675
 20
-11.6585037092
 11
-5.896662792
 21
-12.8444913629
  0
LINE
  5
51F
100
AcDbEntity
  8
ASSI
100
AcDbLine
 62
7
  6
CONTINUOUS
 10
-4.9693877079
 20
-12.8181440009
 11
-3.5740181169
 21
-12.1937719409
  0
LINE
  5
520
100
AcDbEntity
  8
0
100
AcDbLine
 62
7
  6
CONTINUOUS
 10
-4.8279663517
 20
-12.9181440009
 11
-3.43259673
 21
-12.2937719272
  0
LINE
  5
521
100
AcDbEntity
  8
0
100
AcDbLine
 62
7
  6
CONTINUOUS
 10
-3.6252307499
 20
-12.6645531634
 11
-4.7399545743
 21
-13.1633480265
  0
LINE
  5
522
100
AcDbEntity
  8
ASSI
100
AcDbLine
 62
7
  6
CONTINUOUS
 10
-4.9672045734
 20
-13.6396422562
 11
-3.7513559723
 21
-13.0955980395
  0
LINE
  5
523
100
AcDbEntity
  8
0
100
AcDbLine
 62
7
  6
CONTINUOUS
 10
-4.825782985
 20
-13.7396421524
 11
-3.609934616
 21
-13.1955980395
  0
LINE
  5
524
100
AcDbEntity
  8
0
100
AcDbLine
 62
7
  6
CONTINUOUS
 10
-5.3702748265
 20
-14.2971956001
 11
-5.896662792
 21
-14.5327335517
  0
LINE
  5
525
100
AcDbEntity
  8
0
100
AcDbLine
 62
7
  6
CONTINUOUS
 10
-3.2461769675
 20
-13.3467466052
 11
-5.0132997461
 21
-14.137463657
  0
LINE
  5
526
100
AcDbEntity
  8
ASSI
100
AcDbLine
 62
7
  6
CONTINUOUS
 10
-5.7082618314
 20
-14.8334570361
 11
-5.2425819484
 21
-14.6267536116
  0
LINE
  5
527
100
AcDbEntity
  8
ASSI
100
AcDbLine
 62
7
  6
CONTINUOUS
 10
-4.819744544
 20
-14.4464149238
 11
-3.3875983237
 21
-13.8107222459
  0
LINE
  5
528
100
AcDbEntity
  8
0
100
AcDbLine
 62
7
  6
CONTINUOUS
 10
-5.6284734534
 20
-14.9608143434
 11
-5.1011605921
 21
-14.7267536116
  0
LINE
  5
529
100
AcDbEntity
  8
0
100
AcDbLine
 62
7
  6
CONTINUOUS
 10
-4.7399563062
 20
-14.5737722715
 11
-3.2461769675
 21
-13.9107222459
  0
LINE
  5
52A
100
AcDbEntity
  8
ASSI
100
AcDbLine
 62
7
  6
CONTINUOUS
 10
-5.7147283114
 20
-13.1348933646
 11
-5.1547211024
 21
-12.8908758692
  0
LINE
  5
52B
100
AcDbEntity
  8
0
100
AcDbLine
 62
7
  6
CONTINUOUS
 10
-5.6351867252
 20
-13.2618568506
 11
-5.0132997461
 21
-12.9908758692
  0
LWPOLYLINE
  5
52C
100
AcDbEntity
  8
ASSI
100
AcDbPolyline
 62
7
  6
CONTINUOUS
 90
4
 70
0
 10
10.0444073411
 20
-5.9523095564
 10
10.0706391927
 20
-5.9416200423
 10
10.0993977496
 20
-5.9374260531
 10
10.1302986664
 20
-5.939699314
  0
LWPOLYLINE
  5
52D
100
AcDbEntity
  8
0
100
AcDbPolyline
 62
7
  6
CONTINUOUS
 90
20
 70
0
 10
17.7137272445
 20
3.1325345851
 10
17.5590518784
 20
3.2105985673
 10
17.3964888944
 20
3.2743723714
 10
17.2250791334
 20
3.3245771281
 10
17.046355941
 20
3.3607637307
 10
16.8605303038
 20
3.3827934689
 10
16.6673912352
 20
3.3908050531
 10
16.4678391208
 20
3.3847655079
 10
16.2615620984
 20
3.3645684891
 10
16.0488720302
 20
3.3303203409
 10
15.8316048889
 20
3.2823071204
 10
15.6099758524
 20
3.2204878454
 10
15.3837697427
 20
3.1449034982
 10
15.1541769986
 20
3.0559630824
 10
14.9209831852
 20
2.9535094521
 10
14.6844027375
 20
2.8376997533
 10
14.4462693989
 20
2.7094144274
 10
14.2071944172
 20
2.568946955
 10
13.9665665446
 20
2.4160038556
 10
13.724385781
 20
2.2505851292
  0
LINE
  5
52E
100
AcDbEntity
  8
DRAFT
100
AcDbLine
 62
250
  6
CONTINUOUS
 10
18.7978609038
 20
0.7645986699
 11
17.5406414807
 21
1.5105484913
  0
LWPOLYLINE
  5
52F
100
AcDbEntity
  8
0
100
AcDbPolyline
 62
7
  6
CONTINUOUS
 90
16
 70
0
 10
27.1204744796
 20
-6.8750925714
 10
27.1155857379
 20
-6.8719240933
 10
27.1067544089
 20
-6.8674077803
 10
27.0972825892
 20
-6.8639848534
 10
27.0871620743
 20
-6.8616693184
 10
27.0764010688
 20
-6.8604471694
 10
27.065136833
 20
-6.8603339952
 10
27.0533629206
 20
-6.8613440017
 10
27.0410857779
 20
-6.8634629831
 10
27.0284620042
 20
-6.866663911
 10
27.0154871592
 20
-6.8709606449
 10
27.0021656831
 20
-6.8763393254
 10
26.9886674961
 20
-6.8827313455
 10
26.9750492381
 20
-6.8901138361
 10
26.9612542691
 20
-6.8985096664
 10
26.9472825892
 20
-6.9079188362
  0
LINE
  5
530
100
AcDbEntity
  8
0
100
AcDbLine
 62
7
  6
CONTINUOUS
 10
25.7452010612
 20
-7.7579188362
 11
25.603779705
 21
-7.6579188362
  0
LINE
  5
531
100
AcDbEntity
  8
RACCORDO
100
AcDbLine
 62
250
  6
CONTINUOUS
 10
23.836012752
 20
-5.7845169646
 11
23.6238807176
 21
-5.6345169646
  0
LINE
  5
532
100
AcDbEntity
  8
RACCORDO
100
AcDbLine
 62
250
  6
CONTINUOUS
 10
-24.4963969092
 20
28.8090735531
 11
0.6058938229
 21
11.0590735531
  0
LINE
  5
533
100
AcDbEntity
  8
DRAFT
100
AcDbLine
 62
250
  6
CONTINUOUS
 10
26.9472825892
 20
-6.9079188362
 11
25.8632082924
 21
-6.1413625496
  0
LINE
  5
534
100
AcDbEntity
  8
0
100
AcDbLine
 62
7
  6
CONTINUOUS
 10
26.037924911
 20
-6.1096144283
 11
27.12048767
 21
-6.8751018963
  0
LINE
  5
535
100
AcDbEntity
  8
RACCORDO
100
AcDbLine
 62
250
  6
CONTINUOUS
 10
24.1900554679
 20
-4.6348629699
 11
24.8259622456
 21
-5.0845169646
  0
LINE
  5
536
100
AcDbEntity
  8
RACCORDO
100
AcDbLine
 62
250
  6
CONTINUOUS
 10
24.2067234301
 20
-4.1345169646
 11
25.03809428
 21
-4.7223849303
  0
LWPOLYLINE
  5
537
100
AcDbEntity
  8
RACCORDO
100
AcDbPolyline
 62
7
  6
CONTINUOUS
 90
11
 70
0
 10
23.6628208616
 20
-5.8173432294
 10
23.6596314116
 20
-5.8149596159
 10
23.6523160048
 20
-5.8083584772
 10
23.6457537354
 20
-5.8007215598
 10
23.6400283073
 20
-5.7921462752
 10
23.6351504403
 20
-5.7826206029
 10
23.6311094147
 20
-5.7721565635
 10
23.6279567752
 20
-5.7608876292
 10
23.6257097033
 20
-5.748858291
 10
23.6243510174
 20
-5.736024058
 10
23.6238807176
 20
-5.7223849303
  0
LINE
  5
538
100
AcDbEntity
  8
ASSI
100
AcDbLine
 62
7
  6
CONTINUOUS
 10
5.0199013046
 20
24.190265138
 11
5.9060857066
 21
20.8067023372
  0
LINE
  5
539
100
AcDbEntity
  8
ASSI
100
AcDbLine
 62
7
  6
CONTINUOUS
 10
5.2256102951
 20
24.0448069158
 11
6.0475070628
 21
20.9067023372
  0
LINE
  5
53A
100
AcDbEntity
  8
ASSI
100
AcDbLine
 62
7
  6
CONTINUOUS
 10
6.1937148248
 20
21.4495606055
 11
5.5795452092
 21
23.794537138
  0
LWPOLYLINE
  5
53B
100
AcDbEntity
  8
ASSI
100
AcDbPolyline
 62
7
  6
CONTINUOUS
 90
10
 70
0
 10
10.7151747868
 20
-7.8270579078
 10
10.7232600156
 20
-7.8778202277
 10
10.7363505492
 20
-7.9294311873
 10
10.7544463876
 20
-7.9818907865
 10
10.7780093571
 20
-8.0360889012
 10
10.8065776313
 20
-8.0911356557
 10
10.8387657312
 20
-8.1443614222
 10
10.8741118303
 20
-8.1948763251
 10
10.9130777551
 20
-8.2435702402
 10
10.9556635055
 20
-8.2904431674
  0
LWPOLYLINE
  5
53C
100
AcDbEntity
  8
ASSI
100
AcDbPolyline
 62
7
  6
CONTINUOUS
 90
10
 70
0
 10
10.8565961431
 20
-7.7270579078
 10
10.8646813719
 20
-7.7778202277
 10
10.8777719055
 20
-7.8294311873
 10
10.8958677438
 20
-7.8818907865
 10
10.9194307133
 20
-7.9360889012
 10
10.9479989876
 20
-7.9911356557
 10
10.9801870874
 20
-8.0443614222
 10
11.0155331866
 20
-8.0948763251
 10
11.0544991113
 20
-8.1435702402
 10
11.0970848617
 20
-8.1904431674
  0
LWPOLYLINE
  5
53D
100
AcDbEntity
  8
ASSI
100
AcDbPolyline
 62
7
  6
CONTINUOUS
 90
13
 70
0
 10
12.9311265238
 20
-9.267049569
 10
12.9314053836
 20
-9.2969385383
 10
12.9349896655
 20
-9.3281223097
 10
12.9418793695
 20
-9.3606008831
 10
12.9522690383
 20
-9.3948795905
 10
12.9659641291
 20
-9.4304530998
 10
12.9823810141
 20
-9.4658054156
 10
13.0016373571
 20
-9.5009269765
 10
13.0236154941
 20
-9.5358273437
 10
13.0473788049
 20
-9.5690192053
 10
13.0726150825
 20
-9.6000067907
 10
13.0996365337
 20
-9.6292858704
 10
13.1284431586
 20
-9.6568564446
  0
LWPOLYLINE
  5
53E
100
AcDbEntity
  8
RACCORDO
100
AcDbPolyline
 62
250
  6
CONTINUOUS
 90
27
 70
0
 10
17.3009587217
 20
16.97171363
 10
17.2972192417
 20
16.9250133414
 10
17.2888010962
 20
16.8600411827
 10
17.2769211754
 20
16.7927819172
 10
17.2615629515
 20
16.7235110238
 10
17.2427981534
 20
16.6527265352
 10
17.220668722
 20
16.580663471
 10
17.1952245377
 20
16.5075425258
 10
17.1666449643
 20
16.4338785407
 10
17.1350786
 20
16.360009533
 10
17.1006097847
 20
16.2860891249
 10
17.0633718078
 20
16.2123633385
 10
17.0235488365
 20
16.1391611305
 10
16.9812383284
 20
16.0666283603
 10
16.9364288911
 20
15.9947381076
 10
16.8891910365
 20
15.9236411711
 10
16.8397193105
 20
15.8536661149
 10
16.7881763851
 20
15.7850577556
 10
16.7346530182
 20
15.7179691816
 10
16.6793775974
 20
15.6527165243
 10
16.6227494946
 20
15.5897599717
 10
16.5649550657
 20
15.5292869535
 10
16.506195979
 20
15.4714877037
 10
16.4469273317
 20
15.4167547317
 10
16.3874401393
 20
15.365281347
 10
16.3278469584
 20
15.3170984165
 10
16.268339807
 20
15.2722988715
  0
LWPOLYLINE
  5
53F
100
AcDbEntity
  8
ASSI
100
AcDbPolyline
 62
7
  6
CONTINUOUS
 90
13
 70
0
 10
12.502100798
 20
-8.8300622181
 10
12.4946989392
 20
-8.8687385128
 10
12.4935934249
 20
-8.9105764261
 10
12.4987842549
 20
-8.955575958
 10
12.5106755923
 20
-9.0049035119
 10
12.528863274
 20
-9.0573926844
 10
12.5521348116
 20
-9.1095442652
 10
12.5808368263
 20
-9.1613352386
 10
12.6146226968
 20
-9.2127886202
 10
12.6512400708
 20
-9.2604742469
 10
12.6899381641
 20
-9.3032487307
 10
12.7314677608
 20
-9.3422554594
 10
12.775828861
 20
-9.3774944331
  0
LWPOLYLINE
  5
540
100
AcDbEntity
  8
ASSI
100
AcDbPolyline
 62
7
  6
CONTINUOUS
 90
16
 70
0
 10
12.3606794418
 20
-8.9300622181
 10
12.3541195338
 20
-8.9600084606
 10
12.3516734609
 20
-8.9924053981
 10
12.3533412232
 20
-9.0272530306
 10
12.3592676554
 20
-9.0651331457
 10
12.3693079228
 20
-9.1054639557
 10
12.383027521
 20
-9.1465000976
 10
12.4005880079
 20
-9.1882725423
 10
12.4218278256
 20
-9.2307503189
 10
12.4458277962
 20
-9.2720951519
 10
12.4727091188
 20
-9.3122572959
 10
12.5023505942
 20
-9.3512864963
 10
12.533469447
 20
-9.3874937134
 10
12.5656380852
 20
-9.420315934
 10
12.5992841007
 20
-9.4503161713
 10
12.6344074936
 20
-9.4774944252
  0
LWPOLYLINE
  5
541
100
AcDbEntity
  8
ASSI
100
AcDbPolyline
 62
7
  6
CONTINUOUS
 90
16
 70
0
 10
12.3617570725
 20
-7.9057400027
 10
12.3691347286
 20
-7.873097513
 10
12.3719905754
 20
-7.8377421375
 10
12.3703246131
 20
-7.7996738762
 10
12.3639792003
 20
-7.7582525127
 10
12.3531119783
 20
-7.7141182635
 10
12.3381958705
 20
-7.6691917775
 10
12.3190520826
 20
-7.6234380705
 10
12.2958594088
 20
-7.5768921269
 10
12.2696271558
 20
-7.5315795485
 10
12.2402209307
 20
-7.4875546494
 10
12.2077751264
 20
-7.4447631157
 10
12.1737022281
 20
-7.4050676077
 10
12.1384730642
 20
-7.3690890125
 10
12.1016168063
 20
-7.3362064431
 10
12.0631334544
 20
-7.3064198995
  0
LWPOLYLINE
  5
542
100
AcDbEntity
  8
ASSI
100
AcDbPolyline
 62
7
  6
CONTINUOUS
 90
3
 70
0
 10
11.5177518152
 20
-8.4555314956
 10
11.5241882959
 20
-8.4324157708
 10
11.5360654371
 20
-8.3976186816
  0
LWPOLYLINE
  5
543
100
AcDbEntity
  8
ASSI
100
AcDbPolyline
 62
7
  6
CONTINUOUS
 90
4
 70
0
 10
11.5062219621
 20
-8.4720163307
 10
11.5065126199
 20
-8.4709879804
 10
11.5131306679
 20
-8.4646442478
 10
11.5177518152
 20
-8.4555314956
  0
LINE
  5
544
100
AcDbEntity
  8
ASSI
100
AcDbLine
 62
7
  6
CONTINUOUS
 10
11.0559959395
 20
-6.7554188792
 11
10.7151747868
 21
-7.8270579078
  0
LINE
  5
545
100
AcDbEntity
  8
ASSI
100
AcDbLine
 62
7
  6
CONTINUOUS
 10
11.1736681445
 20
-6.7300929923
 11
10.8565961431
 21
-7.7270579078
  0
LINE
  5
546
100
AcDbEntity
  8
ASSI
100
AcDbLine
 62
7
  6
CONTINUOUS
 10
11.3791084564
 20
-7.8199081175
 11
11.5577442313
 21
-7.2582279241
  0
LINE
  5
547
100
AcDbEntity
  8
ASSI
100
AcDbLine
 62
7
  6
CONTINUOUS
 10
11.85625492
 20
-7.3505337924
 11
11.6807884935
 21
-7.9022500213
  0
LINE
  5
548
100
AcDbEntity
  8
ASSI
100
AcDbLine
 62
7
  6
CONTINUOUS
 10
11.9951834382
 20
-7.2583719823
 11
11.8222098498
 21
-7.8022500213
  0
LINE
  5
549
100
AcDbEntity
  8
ASSI
100
AcDbLine
 62
7
  6
CONTINUOUS
 10
12.0584377198
 20
-8.8594637897
 11
12.1518651525
 21
-8.5656990816
  0
LINE
  5
54A
100
AcDbEntity
  8
ASSI
100
AcDbLine
 62
7
  6
CONTINUOUS
 10
12.2397663035
 20
-8.289313775
 11
12.3617570725
 21
-7.9057400027
  0
LINE
  5
54B
100
AcDbEntity
  8
ASSI
100
AcDbLine
 62
7
  6
CONTINUOUS
 10
12.6626852653
 20
-7.9804699582
 11
12.5385266968
 21
-8.3708590213
  0
LINE
  5
54C
100
AcDbEntity
  8
ASSI
100
AcDbLine
 62
7
  6
CONTINUOUS
 10
12.4506262528
 20
-8.6472448278
 11
12.3606794418
 21
-8.9300622181
  0
LINE
  5
54D
100
AcDbEntity
  8
ASSI
100
AcDbLine
 62
7
  6
CONTINUOUS
 10
12.8039488584
 20
-7.8809660094
 11
12.679948053
 21
-8.2708590213
  0
LINE
  5
54E
100
AcDbEntity
  8
ASSI
100
AcDbLine
 62
7
  6
CONTINUOUS
 10
12.5501745988
 20
-8.6789050318
 11
12.502100798
 21
-8.8300622181
  0
LINE
  5
54F
100
AcDbEntity
  8
ASSI
100
AcDbLine
 62
7
  6
CONTINUOUS
 10
12.9311265238
 20
-9.267049569
 11
13.0127931144
 21
-9.0102669875
  0
LINE
  5
550
100
AcDbEntity
  8
ASSI
100
AcDbLine
 62
7
  6
CONTINUOUS
 10
13.3084196104
 20
-9.0909574143
 11
13.1284431586
 21
-9.6568564446
  0
LINE
  5
551
100
AcDbEntity
  8
ASSI
100
AcDbLine
 62
7
  6
CONTINUOUS
 10
13.4959012157
 20
-8.501461932
 11
13.369750517
 21
-8.8981166012
  0
LINE
  5
552
100
AcDbEntity
  8
ASSI
100
AcDbLine
 62
7
  6
CONTINUOUS
 10
13.4498409666
 20
-8.9909574143
 11
13.2698645166
 21
-9.556856439
  0
LINE
  5
553
100
AcDbEntity
  8
ASSI
100
AcDbLine
 62
7
  6
CONTINUOUS
 10
13.6326287536
 20
-8.4162206686
 11
13.5111718733
 21
-8.7981166012
  0
LINE
  5
554
100
AcDbEntity
  8
ASSI
100
AcDbLine
 62
7
  6
CONTINUOUS
 10
13.6649683053
 20
-10.2062109636
 11
14.0422833122
 21
-9.0198243826
  0
LWPOLYLINE
  5
555
100
AcDbEntity
  8
RACCORDO
100
AcDbPolyline
 62
250
  6
CONTINUOUS
 90
10
 70
0
 10
22.1197487277
 20
20.4767926089
 10
22.1320214417
 20
20.5103573303
 10
22.1474375144
 20
20.5443299231
 10
22.1657331724
 20
20.5781291066
 10
22.1865953721
 20
20.6111765674
 10
22.2096671553
 20
20.6429068544
 10
22.2345537574
 20
20.6727770536
 10
22.2608293619
 20
20.7002760775
 10
22.2880443857
 20
20.7249334103
 10
22.3157331724
 20
20.7463271581
  0
LWPOLYLINE
  5
556
100
AcDbEntity
  8
ASSI
100
AcDbPolyline
 62
7
  6
CONTINUOUS
 90
27
 70
0
 10
11.3039492224
 20
-8.033885292
 10
11.2935509691
 20
-8.0480728316
 10
11.2862511563
 20
-8.0649010559
 10
11.282049784
 20
-8.0843699648
 10
11.2815422933
 20
-8.1072869643
 10
11.284133243
 20
-8.1328446484
 10
11.2880363104
 20
-8.158620799
 10
11.2925727691
 20
-8.1840404499
 10
11.2984213454
 20
-8.2096785673
 10
11.3058318951
 20
-8.2348378317
 10
11.3151922396
 20
-8.2595285144
 10
11.3261145576
 20
-8.2837403442
 10
11.3376852409
 20
-8.306745188
 10
11.3497892083
 20
-8.3281681128
 10
11.362541541
 20
-8.3483840517
 10
11.3753738743
 20
-8.3677896709
 10
11.3880986188
 20
-8.3867623208
 10
11.4009033639
 20
-8.4049246509
 10
11.4137825133
 20
-8.4215412763
 10
11.4268664826
 20
-8.4367803805
 10
11.4400248562
 20
-8.45047378
 10
11.4528607912
 20
-8.4613815392
 10
11.4655820376
 20
-8.4691349953
 10
11.4779808453
 20
-8.474102811
 10
11.4890371215
 20
-8.4761510388
 10
11.4984461365
 20
-8.4750293036
 10
11.5062219621
 20
-8.4720163307
  0
LINE
  5
557
100
AcDbEntity
  8
0
100
AcDbLine
 62
7
  6
CONTINUOUS
 10
-3.2461769675
 20
-24.7590660945
 11
-4.3676808493
 21
-26.1355462342
  0
LINE
  5
558
100
AcDbEntity
  8
ASSI
100
AcDbLine
 62
7
  6
CONTINUOUS
 10
-4.4377070481
 20
-26.5676171057
 11
-3.3875983237
 21
-25.2806136623
  0
LINE
  5
559
100
AcDbEntity
  8
0
100
AcDbLine
 62
7
  6
CONTINUOUS
 10
-4.2962856919
 20
-26.6676171057
 11
-3.2461769675
 21
-25.3806136623
  0
LWPOLYLINE
  5
55A
100
AcDbEntity
  8
ASSI
100
AcDbPolyline
 62
7
  6
CONTINUOUS
 90
10
 70
0
 10
13.2299173297
 20
-8.3947897375
 10
13.2262675073
 20
-8.3986334863
 10
13.2138453938
 20
-8.4106475257
 10
13.2037618978
 20
-8.4265276341
 10
13.1955040581
 20
-8.4453676236
 10
13.18693141
 20
-8.4635405534
 10
13.1780387577
 20
-8.4807896273
 10
13.1688312969
 20
-8.4973716414
 10
13.1571841496
 20
-8.5104300442
 10
13.1532948552
 20
-8.5134431678
  0
LWPOLYLINE
  5
55B
100
AcDbEntity
  8
ASSI
100
AcDbPolyline
 62
7
  6
CONTINUOUS
 90
3
 70
0
 10
11.0559959395
 20
-6.7554188792
 10
11.0691561777
 20
-6.7416184327
 10
11.0729418699
 20
-6.7383951773
  0
LINE
  5
55C
100
AcDbEntity
  8
ASSI
100
AcDbLine
 62
7
  6
CONTINUOUS
 10
11.5696759472
 20
-7.2480989919
 11
11.5577442313
 21
-7.2582279241
  0
LWPOLYLINE
  5
55D
100
AcDbEntity
  8
ASSI
100
AcDbPolyline
 62
7
  6
CONTINUOUS
 90
4
 70
0
 10
12.0159694314
 20
-8.9123894453
 10
12.0279103156
 20
-8.9025977571
 10
12.0446815307
 20
-8.8832545384
 10
12.0584377198
 20
-8.8594637897
  0
LINE
  5
55E
100
AcDbEntity
  8
COPY-PUBBLISH
100
AcDbLine
 62
7
  6
CONTINUOUS
 10
-16.8697070773
 20
-32.9575756263
 11
-18.2014853896
 21
-33.9862761534
  0
LINE
  5
55F
100
AcDbEntity
  8
DRAFT
100
AcDbLine
 62
7
  6
CONTINUOUS
 10
-20.7470698018
 20
-32.1862761534
 11
-22.1612833642
 21
-33.2603919456
  0
LWPOLYLINE
  5
560
100
AcDbEntity
  8
ASSI
100
AcDbPolyline
 62
7
  6
CONTINUOUS
 90
5
 70
0
 10
12.7129089946
 20
-7.9080337757
 10
12.7066284301
 20
-7.9127786572
 10
12.688507014
 20
-7.9309215071
 10
12.6738592924
 20
-7.953485274
 10
12.6626852653
 20
-7.9804699582
  0
LINE
  5
561
100
AcDbEntity
  8
COPY-PUBBLISH
100
AcDbLine
 62
7
  6
CONTINUOUS
 10
-17.6947860707
 20
-32.3741566751
 11
-19.050013527
 21
-33.3862761534
  0
LINE
  5
562
100
AcDbEntity
  8
DRAFT
100
AcDbLine
 62
7
  6
CONTINUOUS
 10
-18.4136174239
 20
-29.8859671634
 11
-17.4323070886
 21
-29.179858356
  0
LINE
  5
563
100
AcDbEntity
  8
DRAFT
100
AcDbLine
 62
7
  6
CONTINUOUS
 10
-22.1612833642
 20
-32.0792722058
 11
-19.4035669176
 21
-30.1052059789
  0
LINE
  5
564
100
AcDbEntity
  8
COPY-PUBBLISH
100
AcDbLine
 62
7
  6
CONTINUOUS
 10
-19.4035669176
 20
-31.1541415787
 11
-20.7470698018
 21
-32.1158661507
  0
LINE
  5
565
100
AcDbEntity
  8
DRAFT
100
AcDbLine
 62
7
  6
CONTINUOUS
 10
-16.0463355911
 20
-29.1226523873
 11
-18.4136174239
 21
-30.8052059789
  0
LINE
  5
566
100
AcDbEntity
  8
ASSI
100
AcDbLine
 62
7
  6
CONTINUOUS
 10
10.7151747868
 20
-7.8270579078
 11
10.8565961431
 21
-7.7270579078
  0
LINE
  5
567
100
AcDbEntity
  8
ASSI
100
AcDbLine
 62
7
  6
CONTINUOUS
 10
11.7113936039
 20
-7.1478885992
 11
11.5699722476
 21
-7.2478885992
  0
LINE
  5
568
100
AcDbEntity
  8
COPY-PUBBLISH
100
AcDbLine
 62
7
  6
CONTINUOUS
 10
25.03809428
 20
2.0128231927
 11
26.4523078424
 21
3.0128231927
  0
LINE
  5
569
100
AcDbEntity
  8
ASSI
100
AcDbLine
 62
7
  6
CONTINUOUS
 10
11.85625492
 20
-7.3505337924
 11
11.9976762762
 21
-7.2505337924
  0
LINE
  5
56A
100
AcDbEntity
  8
ASSI
100
AcDbLine
 62
7
  6
CONTINUOUS
 10
11.3039492224
 20
-8.033885292
 11
11.4453700187
 21
-7.9338851391
  0
LINE
  5
56B
100
AcDbEntity
  8
ASSI
100
AcDbLine
 62
7
  6
CONTINUOUS
 10
10.9556632173
 20
-8.2904429636
 11
11.0970845736
 21
-8.1904429636
  0
LINE
  5
56C
100
AcDbEntity
  8
ASSI
100
AcDbLine
 62
7
  6
CONTINUOUS
 10
11.6807884935
 20
-7.9022500213
 11
11.8222098498
 21
-7.8022500213
  0
LINE
  5
56D
100
AcDbEntity
  8
ASSI
100
AcDbLine
 62
7
  6
CONTINUOUS
 10
11.5061376711
 20
-8.4720762235
 11
11.5904455556
 21
-8.4124615467
  0
LINE
  5
56E
100
AcDbEntity
  8
ASSI
100
AcDbLine
 62
7
  6
CONTINUOUS
 10
12.6620674438
 20
-7.9824125606
 11
12.8034888001
 21
-7.8824125606
  0
LINE
  5
56F
100
AcDbEntity
  8
RACCORDO
100
AcDbLine
 62
7
  6
CONTINUOUS
 10
24.8259622456
 20
0.5723372849
 11
23.836012752
 21
-0.1276627151
  0
LINE
  5
570
100
AcDbEntity
  8
ASSI
100
AcDbLine
 62
7
  6
CONTINUOUS
 10
12.5385266968
 20
-8.3708590213
 11
12.679948053
 21
-8.2708590213
  0
LINE
  5
571
100
AcDbEntity
  8
ASSI
100
AcDbLine
 62
7
  6
CONTINUOUS
 10
11.8341182351
 20
-8.9116044636
 11
11.9755395913
 21
-8.8116044636
  0
LINE
  5
572
100
AcDbEntity
  8
ASSI
100
AcDbLine
 62
250
  6
CONTINUOUS
 10
12.3606794418
 20
-8.9300622181
 11
12.502100798
 21
-8.8300622181
  0
LINE
  5
573
100
AcDbEntity
  8
ASSI
100
AcDbLine
 62
7
  6
CONTINUOUS
 10
13.3713970688
 20
-8.2947484051
 11
13.2299757126
 21
-8.3947484051
  0
LINE
  5
574
100
AcDbEntity
  8
ASSI
100
AcDbLine
 62
7
  6
CONTINUOUS
 10
13.1054792571
 20
-8.5256069081
 11
13.183304109
 21
-8.4705764276
  0
LINE
  5
575
100
AcDbEntity
  8
ASSI
100
AcDbLine
 62
7
  6
CONTINUOUS
 10
13.4959012157
 20
-8.501461932
 11
13.6245396921
 21
-8.4105008383
  0
LINE
  5
576
100
AcDbEntity
  8
ASSI
100
AcDbLine
 62
7
  6
CONTINUOUS
 10
13.0127931144
 20
-9.0102669875
 11
13.1542144706
 21
-8.9102669875
  0
LINE
  5
577
100
AcDbEntity
  8
ASSI
100
AcDbLine
 62
7
  6
CONTINUOUS
 10
13.369750517
 20
-8.8981166012
 11
13.5111718733
 21
-8.7981166012
  0
LINE
  5
578
100
AcDbEntity
  8
ASSI
100
AcDbLine
 62
250
  6
CONTINUOUS
 10
12.6344075479
 20
-9.4774944636
 11
12.7758289041
 21
-9.3774944636
  0
LINE
  5
579
100
AcDbEntity
  8
ASSI
100
AcDbLine
 62
7
  6
CONTINUOUS
 10
13.3084196104
 20
-9.0909574143
 11
13.4498409666
 21
-8.9909574143
  0
LINE
  5
57A
100
AcDbEntity
  8
ASSI
100
AcDbLine
 62
7
  6
CONTINUOUS
 10
13.1284431586
 20
-9.6568564446
 11
13.2698646131
 21
-9.5568561355
  0
LWPOLYLINE
  5
57B
100
AcDbEntity
  8
RACCORDO
100
AcDbPolyline
 62
7
  6
CONTINUOUS
 90
16
 70
0
 10
24.8259622456
 20
0.5723372849
 10
24.8399339256
 20
0.5817464547
 10
24.8537288945
 20
0.5901422849
 10
24.8673471525
 20
0.5975247756
 10
24.8808453396
 20
0.6039167957
 10
24.8941668156
 20
0.6092954761
 10
24.9071416607
 20
0.6135922101
 10
24.9197654344
 20
0.616793138
 10
24.932042577
 20
0.6189121193
 10
24.9438164894
 20
0.6199221258
 10
24.9550807252
 20
0.6198089517
 10
24.9658417308
 20
0.6185868027
 10
24.9759622456
 20
0.6162712677
 10
24.9854340653
 20
0.6128483407
 10
24.9942653943
 20
0.6083320278
 10
24.9991541361
 20
0.6051635496
  0
LWPOLYLINE
  5
57C
100
AcDbEntity
  8
ASSI
100
AcDbPolyline
 62
7
  6
CONTINUOUS
 90
7
 70
0
 10
13.3712775175
 20
-8.2948331481
 10
13.3815440539
 20
-8.2889405013
 10
13.395378196
 20
-8.2851619111
 10
13.4107597844
 20
-8.2843841639
 10
13.4275535022
 20
-8.2856454115
 10
13.4457393135
 20
-8.2885031622
 10
13.4554349224
 20
-8.290925709
  0
LWPOLYLINE
  5
57D
100
AcDbEntity
  8
ASSI
100
AcDbPolyline
 62
7
  6
CONTINUOUS
 90
4
 70
0
 10
13.1532948552
 20
-8.5134431678
 10
13.142389023
 20
-8.5190126515
 10
13.1251542098
 20
-8.5240716474
 10
13.10547971
 20
-8.5256070318
  0
LINE
  5
57E
100
AcDbEntity
  8
DRAFT
100
AcDbLine
 62
7
  6
CONTINUOUS
 10
-16.0614067696
 20
-24.6957022116
 11
-17.0428834662
 21
-25.1689619445
  0
LINE
  5
57F
100
AcDbEntity
  8
RACCORDO
100
AcDbLine
 62
250
  6
CONTINUOUS
 10
-0.1425736826
 20
16.6527964797
 11
-0.1702624693
 21
16.6705605896
  0
LWPOLYLINE
  5
580
100
AcDbEntity
  8
RACCORDO
100
AcDbPolyline
 62
250
  6
CONTINUOUS
 90
16
 70
0
 10
-0.3823945037
 20
16.3084285552
 10
-0.3367841419
 20
16.2788391836
 10
-0.2927501601
 20
16.2547325614
 10
-0.2502925582
 20
16.2361086884
 10
-0.2090148944
 20
16.2229314009
 10
-0.1693136106
 20
16.2152368627
 10
-0.1323780327
 20
16.2131335652
 10
-0.0983111766
 20
16.2167490229
 10
-0.0670100265
 20
16.2259557214
 10
-0.0393548605
 20
16.2404796083
 10
-0.0154027956
 20
16.2604531538
 10
0.0049032851
 20
16.2857438878
 10
0.0208544542
 20
16.3156803481
 10
0.0322144027
 20
16.3500387138
 10
0.0392194396
 20
16.3890428058
 10
0.0418695651
 20
16.4326926239
  0
LINE
  5
581
100
AcDbEntity
  8
RACCORDO
100
AcDbLine
 62
7
  6
CONTINUOUS
 10
1.2022751295
 20
14.8922502999
 11
-19.2204695977
 21
29.333311587
  0
LINE
  5
582
100
AcDbEntity
  8
RACCORDO
100
AcDbLine
 62
250
  6
CONTINUOUS
 10
-0.1702624693
 20
16.6705605896
 11
-0.2593526711
 21
16.7335568754
  0
LINE
  5
583
100
AcDbEntity
  8
RACCORDO
100
AcDbLine
 62
250
  6
CONTINUOUS
 10
25.03809428
 20
0.5102052505
 11
24.8967498353
 21
0.6101508658
  0
LWPOLYLINE
  5
584
100
AcDbEntity
  8
RACCORDO
100
AcDbPolyline
 62
7
  6
CONTINUOUS
 90
11
 70
0
 10
24.9991541361
 20
0.6051635496
 10
25.002343586
 20
0.6027799361
 10
25.0096589928
 20
0.5961787975
 10
25.0162212623
 20
0.5885418801
 10
25.0219466904
 20
0.5799665954
 10
25.0268245573
 20
0.5704409232
 10
25.0308655829
 20
0.5599768837
 10
25.0340182224
 20
0.5487079495
 10
25.0362652944
 20
0.5366786113
 10
25.0376239802
 20
0.5238443783
 10
25.03809428
 20
0.5102052505
  0
LWPOLYLINE
  5
585
100
AcDbEntity
  8
RACCORDO
100
AcDbPolyline
 62
250
  6
CONTINUOUS
 90
7
 70
0
 10
0.0418695651
 20
16.4326926239
 10
0.0159955973
 20
16.4535548236
 10
-0.0058060217
 20
16.4766266067
 10
-0.0231622603
 20
16.5015132089
 10
-0.0357761485
 20
16.5277888134
 10
-0.043431859
 20
16.5550038372
 10
-0.0459984006
 20
16.5826926239
  0
LINE
  5
586
100
AcDbEntity
  8
ASSI
100
AcDbLine
 62
7
  6
CONTINUOUS
 10
9.4539062999
 20
20.0312645798
 11
9.4963490692
 21
19.8658482643
  0
LINE
  5
587
100
AcDbEntity
  8
ASSI
100
AcDbLine
 62
7
  6
CONTINUOUS
 10
9.5953276562
 20
20.1312645798
 11
9.6403174712
 21
19.9559214161
  0
LINE
  5
588
100
AcDbEntity
  8
ASSI
100
AcDbLine
 62
7
  6
CONTINUOUS
 10
9.9151246677
 20
20.1278532425
 11
9.7421605006
 21
20.851123638
  0
LWPOLYLINE
  5
589
100
AcDbEntity
  8
ASSI
100
AcDbPolyline
 62
7
  6
CONTINUOUS
 90
10
 70
0
 10
14.0422833122
 20
-9.0198243826
 10
14.0350573547
 20
-8.9679601833
 10
14.0227063213
 20
-8.9150141142
 10
14.0052302118
 20
-8.8609861753
 10
13.9821984079
 20
-8.8050036489
 10
13.954041528
 20
-8.7479392526
 10
13.9220514275
 20
-8.6924111398
 10
13.8866587249
 20
-8.6392920282
 10
13.8474328018
 20
-8.5877092
 10
13.8043736581
 20
-8.5376626552
  0
LWPOLYLINE
  5
58A
100
AcDbEntity
  8
0
100
AcDbPolyline
 62
7
  6
CONTINUOUS
 90
15
 70
0
 10
18.7978609038
 20
0.7645986699
 10
18.7920319701
 20
1.0026577548
 10
18.774825469
 20
1.2311187939
 10
18.7462414006
 20
1.449981787
 10
18.7061410279
 20
1.6597598802
 10
18.6546630879
 20
1.8599399274
 10
18.5922237915
 20
2.0489824908
 10
18.518817621
 20
2.226669234
 10
18.4344500941
 20
2.3932184933
 10
18.3395539744
 20
2.5477458401
 10
18.2339361259
 20
2.6903298846
 10
18.1177896847
 20
2.8208920165
 10
17.9921268222
 20
2.9383119767
 10
17.8570617141
 20
3.0423586372
 10
17.7137272445
 20
3.1325345851
  0
LINE
  5
58B
100
AcDbEntity
  8
DRAFT
100
AcDbLine
 62
7
  6
CONTINUOUS
 10
17.5406414807
 20
-13.0558512012
 11
17.5406414807
 21
1.5105484913
  0
LINE
  5
58C
100
AcDbEntity
  8
RACCORDO
100
AcDbLine
 62
7
  6
CONTINUOUS
 10
18.1084478244
 20
16.4788108155
 11
18.1084478244
 21
16.513307989
  0
LINE
  5
58D
100
AcDbEntity
  8
0
100
AcDbLine
 62
7
  6
CONTINUOUS
 10
18.7978609038
 20
-13.8018010226
 11
18.7978609038
 21
0.7645986699
  0
LWPOLYLINE
  5
58E
100
AcDbEntity
  8
RACCORDO
100
AcDbPolyline
 62
7
  6
CONTINUOUS
 90
25
 70
0
 10
18.1084478244
 20
16.4788108155
 10
18.1062641016
 20
16.4092318038
 10
18.099791082
 20
16.3373106745
 10
18.0890287654
 20
16.2630474278
 10
18.0738576431
 20
16.1859802197
 10
18.0543972239
 20
16.1065708941
 10
18.0310060346
 20
16.0262049826
 10
18.0037319934
 20
15.9451655541
 10
17.9725271822
 20
15.8631695397
 10
17.937606373
 20
15.7807532645
 10
17.8988459885
 20
15.6976855867
 10
17.856369606
 20
15.6141976482
 10
17.8107627288
 20
15.5315191992
 10
17.7619555893
 20
15.4496682804
 10
17.7100179551
 20
15.3686268512
 10
17.6557446325
 20
15.2895705399
 10
17.5992749807
 20
15.2127264074
 10
17.5404696404
 20
15.1378673929
 10
17.4797053403
 20
15.0654879423
 10
17.4167347191
 20
14.9953565592
 10
17.3518051381
 20
14.9277047401
 10
17.2860354103
 20
14.8637214202
 10
17.2197984733
 20
14.8038029114
 10
17.1527213895
 20
14.747552902
 10
17.0848041588
 20
14.6949713918
  0
LINE
  5
58F
100
AcDbEntity
  8
0
100
AcDbLine
 62
7
  6
CONTINUOUS
 10
-3.2461769675
 20
-27.2285453111
 11
-5.8617317171
 21
-29.9606975492
  0
LINE
  5
590
100
AcDbEntity
  8
ASSI
100
AcDbLine
 62
7
  6
CONTINUOUS
 10
-3.892628129
 20
-28.1922954018
 11
-3.3875983237
 21
-27.6719773785
  0
LINE
  5
591
100
AcDbEntity
  8
0
100
AcDbLine
 62
7
  6
CONTINUOUS
 10
-3.7512067727
 20
-28.2922954018
 11
-3.2461769675
 21
-27.7719773785
  0
LINE
  5
592
100
AcDbEntity
  8
ASSI
100
AcDbLine
 62
7
  6
CONTINUOUS
 10
-5.0319638296
 20
-33.1008911651
 11
-3.3875983237
 21
-31.4227206475
  0
LINE
  5
593
100
AcDbEntity
  8
0
100
AcDbLine
 62
7
  6
CONTINUOUS
 10
-4.8905424734
 20
-33.2008911651
 11
-3.2461769675
 21
-31.5227206475
  0
LINE
  5
594
100
AcDbEntity
  8
ASSI
100
AcDbLine
 62
7
  6
CONTINUOUS
 10
-5.3040620546
 20
-29.6662064016
 11
-4.3652653726
 21
-28.7174206469
  0
LINE
  5
595
100
AcDbEntity
  8
0
100
AcDbLine
 62
7
  6
CONTINUOUS
 10
-5.1626406983
 20
-29.7662064016
 11
-4.2238440163
 21
-28.8174206469
  0
LINE
  5
596
100
AcDbEntity
  8
0
100
AcDbLine
 62
7
  6
CONTINUOUS
 10
-4.0619794959
 20
-31.8235497018
 11
-5.8617317171
 21
-33.6141535317
  0
LWPOLYLINE
  5
597
100
AcDbEntity
  8
RACCORDO
100
AcDbPolyline
 62
250
  6
CONTINUOUS
 90
6
 70
0
 10
24.0799976027
 20
-4.7905082955
 10
24.0901790493
 20
-4.781839331
 10
24.1025675938
 20
-4.7656082303
 10
24.1115666077
 20
-4.7455838332
 10
24.1170260169
 20
-4.7221142964
 10
24.1188554645
 20
-4.695608235
  0
LWPOLYLINE
  5
598
100
AcDbEntity
  8
0
100
AcDbPolyline
 62
7
  6
CONTINUOUS
 90
10
 70
0
 10
-5.0962886264
 20
-26.7258204328
 10
-5.1171171608
 20
-26.7412300338
 10
-5.1376957913
 20
-26.7577542553
 10
-5.158024518
 20
-26.7753930973
 10
-5.1781836073
 20
-26.7942269849
 10
-5.1980927927
 20
-26.8141754929
 10
-5.2175112749
 20
-26.8349973465
 10
-5.2363587872
 20
-26.8566121206
 10
-5.2547155963
 20
-26.8791002402
 10
-5.272581702
 20
-26.9024617053
  0
LWPOLYLINE
  5
599
100
AcDbEntity
  8
0
100
AcDbPolyline
 62
7
  6
CONTINUOUS
 90
10
 70
0
 10
-5.1125577392
 20
-26.1591168538
 10
-5.1621054942
 20
-26.1954312618
 10
-5.2112741488
 20
-26.2339485784
 10
-5.2600637028
 20
-26.2746688036
 10
-5.3085976002
 20
-26.3177079143
 10
-5.3567523971
 20
-26.3629499336
 10
-5.404157762
 20
-26.4100469305
 10
-5.4506902509
 20
-26.458882928
 10
-5.4964733078
 20
-26.509573903
 10
-5.5415069327
 20
-26.5621198556
  0
LINE
  5
59A
100
AcDbEntity
  8
DRAFT
100
AcDbLine
 62
7
  6
CONTINUOUS
 10
-17.9186426771
 20
-35.0792722058
 11
-15.9644693954
 21
-33.6804092148
  0
LINE
  5
59B
100
AcDbEntity
  8
RACCORDO
100
AcDbLine
 62
250
  6
CONTINUOUS
 10
24.0799285109
 20
-4.7905572093
 11
24.0799976027
 21
-4.7905082955
  0
LINE
  5
59C
100
AcDbEntity
  8
RACCORDO
100
AcDbLine
 62
250
  6
CONTINUOUS
 10
24.1188554645
 20
-4.695608235
 11
23.6238807176
 21
-5.045608235
  0
LINE
  5
59D
100
AcDbEntity
  8
RACCORDO
100
AcDbLine
 62
7
  6
CONTINUOUS
 10
24.0799285109
 20
-4.7905572093
 11
23.6238807176
 21
-5.1130316964
  0
LINE
  5
59E
100
AcDbEntity
  8
0
100
AcDbLine
 62
7
  6
CONTINUOUS
 10
-5.0533269397
 20
-26.1172338297
 11
-5.1125577392
 21
-26.1591168538
  0
LINE
  5
59F
100
AcDbEntity
  8
RACCORDO
100
AcDbLine
 62
7
  6
CONTINUOUS
 10
23.836012752
 20
-5.7845169646
 11
24.8259622456
 21
-5.0845169646
  0
LINE
  5
5A0
100
AcDbEntity
  8
ASSI
100
AcDbLine
 62
7
  6
CONTINUOUS
 10
-5.2377099827
 20
-26.6258204328
 11
-5.2162085823
 21
-26.6106166467
  0
LINE
  5
5A1
100
AcDbEntity
  8
0
100
AcDbLine
 62
7
  6
CONTINUOUS
 10
-5.0962886264
 20
-26.7258204328
 11
-5.074784095
 21
-26.7106144328
  0
LINE
  5
5A2
100
AcDbEntity
  8
COPY-PUBBLISH
100
AcDbLine
 62
7
  6
CONTINUOUS
 10
26.4523078424
 20
-5.2250028725
 11
25.03809428
 21
-6.2250028725
  0
LINE
  5
5A3
100
AcDbEntity
  8
0
100
AcDbLine
 62
7
  6
CONTINUOUS
 10
-3.2461769675
 20
-26.3717030121
 11
-4.2962856919
 21
-27.1142420121
  0
LINE
  5
5A4
100
AcDbEntity
  8
0
100
AcDbLine
 62
7
  6
CONTINUOUS
 10
-4.7496839742
 20
-27.4348430121
 11
-5.4213887472
 21
-27.9098100121
  0
LINE
  5
5A5
100
AcDbEntity
  8
ASSI
100
AcDbLine
 62
7
  6
CONTINUOUS
 10
-5.8617317159
 20
-28.5909944399
 11
-3.3875983237
 21
-26.8415179407
  0
LINE
  5
5A6
100
AcDbEntity
  8
0
100
AcDbLine
 62
7
  6
CONTINUOUS
 10
-5.8617317171
 20
-28.7909944407
 11
-3.2461769675
 21
-26.9415179407
  0
LINE
  5
5A7
100
AcDbEntity
  8
DRAFT
100
AcDbLine
 62
7
  6
CONTINUOUS
 10
-16.1508757241
 20
-31.4859671634
 11
-16.0142420392
 21
-31.3910242554
  0
LINE
  5
5A8
100
AcDbEntity
  8
DRAFT
100
AcDbLine
 62
7
  6
CONTINUOUS
 10
25.8632082924
 20
-6.1413625496
 11
25.03809428
 21
-6.7147110899
  0
LWPOLYLINE
  5
5A9
100
AcDbEntity
  8
ASSI
100
AcDbPolyline
 62
7
  6
CONTINUOUS
 90
10
 70
0
 10
-5.2162085823
 20
-26.6106166467
 10
-5.1953792301
 20
-26.5965697695
 10
-5.1748001099
 20
-26.5839910611
 10
-5.1544712217
 20
-26.5728805215
 10
-5.1343125472
 20
-26.5632051585
 10
-5.1144041047
 20
-26.5549979644
 10
-5.0949859486
 20
-26.548357916
 10
-5.0761380969
 20
-26.5433180056
 10
-5.0577805316
 20
-26.5398452409
 10
-5.0399132527
 20
-26.537939622
  0
LWPOLYLINE
  5
5AA
100
AcDbEntity
  8
RACCORDO
100
AcDbPolyline
 62
7
  6
CONTINUOUS
 90
16
 70
0
 10
23.836012752
 20
-5.7845169646
 10
23.822041072
 20
-5.7939261345
 10
23.8082461031
 20
-5.8023219647
 10
23.7946278451
 20
-5.8097044554
 10
23.7811296581
 20
-5.8160964754
 10
23.767808182
 20
-5.8214751559
 10
23.754833337
 20
-5.8257718899
 10
23.7422095633
 20
-5.8289728177
 10
23.7299324206
 20
-5.8310917991
 10
23.7181585082
 20
-5.8321018056
 10
23.7068942724
 20
-5.8319886314
 10
23.6961332669
 20
-5.8307664824
 10
23.686012752
 20
-5.8284509474
 10
23.6765409323
 20
-5.8250280205
 10
23.6677096033
 20
-5.8205117076
 10
23.6628208616
 20
-5.8173432294
  0
LWPOLYLINE
  5
5AB
100
AcDbEntity
  8
0
100
AcDbPolyline
 62
7
  6
CONTINUOUS
 90
16
 70
0
 10
25.1795156362
 20
-7.6579188362
 10
25.2033459393
 20
-7.6428594144
 10
25.2286575674
 20
-7.6298557389
 10
25.2554505207
 20
-7.6189078096
 10
25.2840484308
 20
-7.6099412712
 10
25.314127666
 20
-7.6030304791
 10
25.3447173311
 20
-7.5983984992
 10
25.3758340808
 20
-7.5961196869
 10
25.4074612604
 20
-7.5961196869
 10
25.4385780101
 20
-7.5983984992
 10
25.4691676752
 20
-7.6030304791
 10
25.4992469104
 20
-7.6099412712
 10
25.5278448205
 20
-7.6189078096
 10
25.5546377738
 20
-7.6298557389
 10
25.5799494019
 20
-7.6428594144
 10
25.603779705
 20
-7.6579188362
  0
LWPOLYLINE
  5
5AC
100
AcDbEntity
  8
RACCORDO
100
AcDbPolyline
 62
250
  6
CONTINUOUS
 90
7
 70
0
 10
22.3145701258
 20
20.3220646835
 10
22.3539562034
 20
20.3237919395
 10
22.3926804081
 20
20.329159611
 10
22.430060077
 20
20.3380709808
 10
22.4654467517
 20
20.350366611
 10
22.4982360829
 20
20.3658313989
 10
22.5278652068
 20
20.3841951237
  0
LWPOLYLINE
  5
5AD
100
AcDbEntity
  8
RACCORDO
100
AcDbPolyline
 62
250
  6
CONTINUOUS
 90
5
 70
0
 10
-0.0459984006
 20
16.6232724769
 10
-0.0641964521
 20
16.6239808932
 10
-0.0890830542
 20
16.6293056643
 10
-0.1153586587
 20
16.6389659566
 10
-0.1425736826
 20
16.6527964797
  0
LINE
  5
5AE
100
AcDbEntity
  8
0
100
AcDbLine
 62
7
  6
CONTINUOUS
 10
25.7452010612
 20
4.5457391564
 11
25.603779705
 21
4.6457391564
  0
LINE
  5
5AF
100
AcDbEntity
  8
DRAFT
100
AcDbLine
 62
250
  6
CONTINUOUS
 10
25.1795156362
 20
6.7670595
 11
25.03809428
 21
6.8670595
  0
LINE
  5
5B0
100
AcDbEntity
  8
DRAFT
100
AcDbLine
 62
7
  6
CONTINUOUS
 10
26.4523078424
 20
3.0128231927
 11
25.3639139664
 21
3.8776560087
  0
LINE
  5
5B1
100
AcDbEntity
  8
RACCORDO
100
AcDbLine
 62
7
  6
CONTINUOUS
 10
-0.3053016466
 20
26.3688000196
 11
-1.320514938
 21
27.2146081968
  0
LINE
  5
5B2
100
AcDbEntity
  8
RACCORDO
100
AcDbLine
 62
250
  6
CONTINUOUS
 10
-0.3391967731
 20
26.4596922628
 11
-1.35468236
 21
27.3057272985
  0
LWPOLYLINE
  5
5B3
100
AcDbEntity
  8
0
100
AcDbPolyline
 62
7
  6
CONTINUOUS
 90
9
 70
0
 10
25.603779705
 20
-9.9913712141
 10
25.584769574
 20
-9.960939269
 10
25.5649886394
 20
-9.9325557657
 10
25.5445476148
 20
-9.9062529025
 10
25.5235622977
 20
-9.8820706783
 10
25.5021599689
 20
-9.859965159
 10
25.4804355297
 20
-9.8398564508
 10
25.45844641
 20
-9.8217279834
 10
25.4423756717
 20
-9.8098178663
  0
LWPOLYLINE
  5
5B4
100
AcDbEntity
  8
RACCORDO
100
AcDbPolyline
 62
250
  6
CONTINUOUS
 90
13
 70
0
 10
22.5278652068
 20
20.3841951237
 10
22.5260357592
 20
20.4132884148
 10
22.52057635
 20
20.4444787221
 10
22.5115773362
 20
20.4772296466
 10
22.4991887917
 20
20.5109807949
 10
22.4836222063
 20
20.5451456523
 10
22.4651505219
 20
20.5791214988
 10
22.4440443273
 20
20.6123921881
 10
22.4207078696
 20
20.6443043009
 10
22.3957263348
 20
20.6741030273
 10
22.3696235171
 20
20.7012615807
 10
22.3428060919
 20
20.7254490576
 10
22.3157331724
 20
20.7463271581
  0
LINE
  5
5B5
100
AcDbEntity
  8
RACCORDO
100
AcDbLine
 62
7
  6
CONTINUOUS
 10
20.8131472946
 20
18.5597095326
 11
20.8131472946
 21
20.1364760154
  0
LINE
  5
5B6
100
AcDbEntity
  8
RACCORDO
100
AcDbLine
 62
7
  6
CONTINUOUS
 10
22.0859395007
 20
7.1370164709
 11
22.0859395007
 21
10.9216201387
  0
LINE
  5
5B7
100
AcDbEntity
  8
RACCORDO
100
AcDbLine
 62
250
  6
CONTINUOUS
 10
22.1036011381
 20
8.6149810973
 11
22.1036011381
 21
11.0186465742
  0
LINE
  5
5B8
100
AcDbEntity
  8
RACCORDO
100
AcDbLine
 62
250
  6
CONTINUOUS
 10
22.1036011381
 20
20.3684035366
 11
22.1036011381
 21
20.3841951237
  0
LINE
  5
5B9
100
AcDbEntity
  8
RACCORDO
100
AcDbLine
 62
250
  6
CONTINUOUS
 10
22.5278652068
 20
8.9094691521
 11
22.5278652068
 21
11.4454336101
  0
LINE
  5
5BA
100
AcDbEntity
  8
RACCORDO
100
AcDbLine
 62
250
  6
CONTINUOUS
 10
22.5278652068
 20
20.0154956313
 11
22.5278652068
 21
20.3841951237
  0
LINE
  5
5BB
100
AcDbEntity
  8
RACCORDO
100
AcDbLine
 62
7
  6
CONTINUOUS
 10
22.5373997757
 20
11.2503468438
 11
22.5373997757
 21
10.2834957127
  0
LINE
  5
5BC
100
AcDbEntity
  8
RACCORDO
100
AcDbLine
 62
250
  6
CONTINUOUS
 10
23.1642613099
 20
20.8341951237
 11
23.1642613099
 21
19.4770758022
  0
LINE
  5
5BD
100
AcDbEntity
  8
RACCORDO
100
AcDbLine
 62
250
  6
CONTINUOUS
 10
23.1642613099
 20
9.8349269289
 11
23.1642613099
 21
9.3512012345
  0
LINE
  5
5BE
100
AcDbEntity
  8
RACCORDO
100
AcDbLine
 62
7
  6
CONTINUOUS
 10
23.2521292755
 20
20.9841951237
 11
23.2521292755
 21
19.4027355371
  0
LINE
  5
5BF
100
AcDbEntity
  8
RACCORDO
100
AcDbLine
 62
7
  6
CONTINUOUS
 10
23.2521292755
 20
9.7820868398
 11
23.2521292755
 21
9.4121917076
  0
LINE
  5
5C0
100
AcDbEntity
  8
RACCORDO
100
AcDbLine
 62
7
  6
CONTINUOUS
 10
23.5001530631
 20
12.3442697545
 11
23.5001530631
 21
19.0892687541
  0
LINE
  5
5C1
100
AcDbEntity
  8
RACCORDO
100
AcDbLine
 62
7
  6
CONTINUOUS
 10
23.6238807176
 20
-0.4897947495
 11
23.6238807176
 21
-5.7223849303
  0
LINE
  5
5C2
100
AcDbEntity
  8
RACCORDO
100
AcDbLine
 62
7
  6
CONTINUOUS
 10
23.7476083721
 20
10.4349285944
 11
23.7476083721
 21
9.5557272985
  0
LINE
  5
5C3
100
AcDbEntity
  8
RACCORDO
100
AcDbLine
 62
7
  6
CONTINUOUS
 10
23.9650450029
 20
22.5248891732
 11
23.9650450029
 21
12.4526216213
  0
LINE
  5
5C4
100
AcDbEntity
  8
RACCORDO
100
AcDbLine
 62
250
  6
CONTINUOUS
 10
24.1188554645
 20
0.0723372849
 11
24.1188554645
 21
-4.695608235
  0
LINE
  5
5C5
100
AcDbEntity
  8
RACCORDO
100
AcDbLine
 62
7
  6
CONTINUOUS
 10
24.2067234301
 20
0.1344693192
 11
24.2067234301
 21
-4.545608235
  0
LWPOLYLINE
  5
5C6
100
AcDbEntity
  8
RACCORDO
100
AcDbPolyline
 62
7
  6
CONTINUOUS
 90
25
 70
0
 10
23.6238807176
 20
-0.4897947495
 10
23.6243510174
 20
-0.4754905174
 10
23.6257097033
 20
-0.4607348124
 10
23.6279567752
 20
-0.4455276347
 10
23.6311094147
 20
-0.4298001948
 10
23.6351504403
 20
-0.4136212822
 10
23.6400283073
 20
-0.3971972643
 10
23.6457537354
 20
-0.3805250016
 10
23.6523160048
 20
-0.3636076337
 10
23.6596314116
 20
-0.3466609476
 10
23.6677096033
 20
-0.3296845676
 10
23.6765409323
 20
-0.3126788695
 10
23.686012752
 20
-0.2958607667
 10
23.6961332669
 20
-0.2792326623
 10
23.7068942724
 20
-0.2627921533
 10
23.7181585082
 20
-0.2467489441
 10
23.7299324206
 20
-0.231108124
 10
23.7422095633
 20
-0.2158646037
 10
23.754833337
 20
-0.2012128196
 10
23.767808182
 20
-0.1871603518
 10
23.7811296581
 20
-0.1736996201
 10
23.7946278451
 20
-0.161002321
 10
23.8082461031
 20
-0.1491256865
 10
23.822041072
 20
-0.1380124846
 10
23.836012752
 20
-0.1276627151
  0
LWPOLYLINE
  5
5C7
100
AcDbEntity
  8
RACCORDO
100
AcDbPolyline
 62
250
  6
CONTINUOUS
 90
4
 70
0
 10
22.1036011381
 20
20.3841951237
 10
22.105415957
 20
20.4131671812
 10
22.1108293619
 20
20.4442100604
 10
22.1197487277
 20
20.4767926089
  0
LWPOLYLINE
  5
5C8
100
AcDbEntity
  8
RACCORDO
100
AcDbPolyline
 62
250
  6
CONTINUOUS
 90
7
 70
0
 10
23.2521292755
 20
20.9841951237
 10
23.2495627339
 20
20.956506337
 10
23.2419070234
 20
20.9292913132
 10
23.2292931353
 20
20.9030157087
 10
23.2119368966
 20
20.8781291066
 10
23.1901352776
 20
20.8550573234
 10
23.1642613099
 20
20.8341951237
  0
LINE
  5
5C9
100
AcDbEntity
  8
0
100
AcDbLine
 62
7
  6
CONTINUOUS
 10
-4.0490224713
 20
-35.6988483986
 11
-5.8617317171
 21
-37.5633017711
  0
LINE
  5
5CA
100
AcDbEntity
  8
ASSI
100
AcDbLine
 62
7
  6
CONTINUOUS
 10
-5.8617317171
 20
-37.8487873916
 11
-3.3875983237
 21
-35.3040297694
  0
LINE
  5
5CB
100
AcDbEntity
  8
0
100
AcDbLine
 62
7
  6
CONTINUOUS
 10
-5.8617317171
 20
-38.0942456257
 11
-3.2461769675
 21
-35.4040297694
  0
LINE
  5
5CC
100
AcDbEntity
  8
0
100
AcDbLine
 62
7
  6
CONTINUOUS
 10
25.03809428
 20
-7.7579188362
 11
25.1795156362
 21
-7.6579188362
  0
LINE
  5
5CD
100
AcDbEntity
  8
0
100
AcDbLine
 62
7
  6
CONTINUOUS
 10
26.9472825892
 20
-6.9079188362
 11
25.7452010612
 21
-7.7579188362
  0
LINE
  5
5CE
100
AcDbEntity
  8
0
100
AcDbLine
 62
7
  6
CONTINUOUS
 10
25.1795156362
 20
-9.7792391798
 11
25.03809428
 21
-9.8792391798
  0
LINE
  5
5CF
100
AcDbEntity
  8
0
100
AcDbLine
 62
7
  6
CONTINUOUS
 10
-3.2461769675
 20
-29.9344958845
 11
-5.8617317171
 21
-31.7839723845
  0
LINE
  5
5D0
100
AcDbEntity
  8
ASSI
100
AcDbLine
 62
7
  6
CONTINUOUS
 10
-5.0319638296
 20
-31.5179732384
 11
-3.3875983237
 21
-30.3552312384
  0
LINE
  5
5D1
100
AcDbEntity
  8
0
100
AcDbLine
 62
7
  6
CONTINUOUS
 10
-4.8905424734
 20
-31.6179732384
 11
-3.2461769675
 21
-30.4552312384
  0
LINE
  5
5D2
100
AcDbEntity
  8
RACCORDO
100
AcDbLine
 62
7
  6
CONTINUOUS
 10
25.0820524495
 20
-11.7725125128
 11
25.6092302464
 21
-11.4061516746
  0
LINE
  5
5D3
100
AcDbEntity
  8
RACCORDO
100
AcDbLine
 62
7
  6
CONTINUOUS
 10
27.2217556542
 20
-10.2855313383
 11
28.0030411181
 21
-9.7425790381
  0
LINE
  5
5D4
100
AcDbEntity
  8
DRAFT
100
AcDbLine
 62
7
  6
CONTINUOUS
 10
-17.4323070886
 20
-29.179858356
 11
-16.0500622195
 21
-28.692779356
  0
LINE
  5
5D5
100
AcDbEntity
  8
DRAFT
100
AcDbLine
 62
7
  6
CONTINUOUS
 10
-19.253506403
 20
-27.8920759709
 11
-16.6187620823
 21
-27.0119383001
  0
LINE
  5
5D6
100
AcDbEntity
  8
RACCORDO
100
AcDbLine
 62
250
  6
CONTINUOUS
 10
-1.7922313975
 20
24.3056756633
 11
-1.5829106101
 21
24.1983186203
  0
LINE
  5
5D7
100
AcDbEntity
  8
RACCORDO
100
AcDbLine
 62
7
  6
CONTINUOUS
 10
23.7911623921
 20
9.4579350551
 11
22.5813674553
 21
10.1854547118
  0
LINE
  5
5D8
100
AcDbEntity
  8
RACCORDO
100
AcDbLine
 62
250
  6
CONTINUOUS
 10
23.7476083721
 20
9.5557272985
 11
22.5373997757
 21
10.2834957127
  0
LINE
  5
5D9
100
AcDbEntity
  8
RACCORDO
100
AcDbLine
 62
250
  6
CONTINUOUS
 10
23.7476083721
 20
10.4349285944
 11
22.5373997757
 21
11.2503468438
  0
LINE
  5
5DA
100
AcDbEntity
  8
RACCORDO
100
AcDbLine
 62
250
  6
CONTINUOUS
 10
23.9589331801
 20
10.795682607
 11
22.7556013683
 21
11.6064673943
  0
LINE
  5
5DB
100
AcDbEntity
  8
DRAFT
100
AcDbLine
 62
7
  6
CONTINUOUS
 10
23.9650450029
 20
12.4526216213
 11
25.1618219345
 21
11.6462534023
  0
LINE
  5
5DC
100
AcDbEntity
  8
ASSI
100
AcDbLine
 62
7
  6
CONTINUOUS
 10
5.9060857066
 20
20.8067023372
 11
6.4813439431
 21
20.3999333372
  0
LINE
  5
5DD
100
AcDbEntity
  8
ASSI
100
AcDbLine
 62
7
  6
CONTINUOUS
 10
7.7086536269
 20
19.5320943372
 11
8.2885766469
 21
19.1220268372
  0
LINE
  5
5DE
100
AcDbEntity
  8
DRAFT
100
AcDbLine
 62
250
  6
CONTINUOUS
 10
25.603779705
 20
6.9791915344
 11
25.03809428
 21
7.3791915344
  0
LINE
  5
5DF
100
AcDbEntity
  8
ASSI
100
AcDbLine
 62
7
  6
CONTINUOUS
 10
6.0475070628
 20
20.9067023372
 11
6.5456315774
 21
20.5544751151
  0
LINE
  5
5E0
100
AcDbEntity
  8
ASSI
100
AcDbLine
 62
7
  6
CONTINUOUS
 10
7.8500749831
 20
19.6320943372
 11
8.2885766469
 21
19.3220268372
  0
LINE
  5
5E1
100
AcDbEntity
  8
DRAFT
100
AcDbLine
 62
250
  6
CONTINUOUS
 10
25.7452010612
 20
8.2226944186
 11
25.03809428
 21
8.7226944186
  0
LINE
  5
5E2
100
AcDbEntity
  8
RACCORDO
100
AcDbLine
 62
250
  6
CONTINUOUS
 10
17.0848041588
 20
14.6949713918
 11
16.2683357599
 21
15.2723017332
  0
LINE
  5
5E3
100
AcDbEntity
  8
DRAFT
100
AcDbLine
 62
250
  6
CONTINUOUS
 10
25.9573330955
 20
8.584826453
 11
24.8646196404
 21
9.357491547
  0
LINE
  5
5E4
100
AcDbEntity
  8
ASSI
100
AcDbLine
 62
7
  6
CONTINUOUS
 10
9.7421605006
 20
20.851123638
 11
8.9050224392
 21
21.443069638
  0
LINE
  5
5E5
100
AcDbEntity
  8
ASSI
100
AcDbLine
 62
7
  6
CONTINUOUS
 10
8.2885766469
 20
21.878962638
 11
7.7086536269
 21
22.289030138
  0
LINE
  5
5E6
100
AcDbEntity
  8
ASSI
100
AcDbLine
 62
7
  6
CONTINUOUS
 10
7.3675283451
 20
22.530242138
 11
6.8078851476
 21
22.925969638
  0
LINE
  5
5E7
100
AcDbEntity
  8
ASSI
100
AcDbLine
 62
7
  6
CONTINUOUS
 10
5.5795452092
 20
23.794537138
 11
5.0199013046
 21
24.190265138
  0
LINE
  5
5E8
100
AcDbEntity
  8
DRAFT
100
AcDbLine
 62
250
  6
CONTINUOUS
 10
26.9472825892
 20
9.284826453
 11
26.0982745021
 21
9.8851658287
  0
LINE
  5
5E9
100
AcDbEntity
  8
0
100
AcDbLine
 62
7
  6
CONTINUOUS
 10
27.12048767
 20
9.3176433929
 11
26.2158170781
 21
9.9573421031
  0
LINE
  5
5EA
100
AcDbEntity
  8
RACCORDO
100
AcDbLine
 62
250
  6
CONTINUOUS
 10
18.1084478244
 20
16.4788108155
 11
17.3699552037
 21
17.0010039555
  0
LINE
  5
5EB
100
AcDbEntity
  8
RACCORDO
100
AcDbLine
 62
250
  6
CONTINUOUS
 10
-3.9611008821
 20
32.1026440846
 11
-1.8584433034
 21
30.6158406523
  0
LINE
  5
5EC
100
AcDbEntity
  8
RACCORDO
100
AcDbLine
 62
250
  6
CONTINUOUS
 10
17.4015948182
 20
17.013128543
 11
18.1084478244
 21
16.513307989
  0
LINE
  5
5ED
100
AcDbEntity
  8
RACCORDO
100
AcDbLine
 62
7
  6
CONTINUOUS
 10
25.9913622094
 20
9.8893523352
 11
25.2651032502
 21
10.4164567583
  0
LINE
  5
5EE
100
AcDbEntity
  8
RACCORDO
100
AcDbLine
 62
250
  6
CONTINUOUS
 10
25.9586253878
 20
9.939886564
 11
25.2837889447
 21
10.4296695396
  0
LINE
  5
5EF
100
AcDbEntity
  8
RACCORDO
100
AcDbLine
 62
250
  6
CONTINUOUS
 10
-0.3391967731
 20
27.4265433939
 11
-1.35468236
 21
28.1849285944
  0
LINE
  5
5F0
100
AcDbEntity
  8
RACCORDO
100
AcDbLine
 62
250
  6
CONTINUOUS
 10
-0.1295561077
 20
27.7885551584
 11
-1.1296387442
 21
28.5354371235
  0
LWPOLYLINE
  5
5F1
100
AcDbEntity
  8
0
100
AcDbPolyline
 62
7
  6
CONTINUOUS
 90
11
 70
0
 10
27.1204744796
 20
9.3176527177
 10
27.1236639296
 20
9.3152691042
 10
27.1309793364
 20
9.3086679656
 10
27.1375416058
 20
9.3010310482
 10
27.1432670339
 20
9.2924557635
 10
27.1481449009
 20
9.2829300913
 10
27.1521859265
 20
9.2724660518
 10
27.155338566
 20
9.2611971176
 10
27.1575856379
 20
9.2491677794
 10
27.1589443238
 20
9.2363335464
 10
27.1594146236
 20
9.2226944186
  0
LINE
  5
5F2
100
AcDbEntity
  8
DRAFT
100
AcDbLine
 62
7
  6
CONTINUOUS
 10
25.03809428
 20
9.0131803265
 11
24.2105288491
 21
9.6707600481
  0
LWPOLYLINE
  5
5F3
100
AcDbEntity
  8
RACCORDO
100
AcDbPolyline
 62
7
  6
CONTINUOUS
 90
10
 70
0
 10
-0.6573809842
 20
32.5587483051
 10
-0.6577391915
 20
32.5590831367
 10
-0.6603740758
 20
32.5626953559
 10
-0.6653949772
 20
32.5714335025
 10
-0.6724213061
 20
32.5871000136
 10
-0.6805346365
 20
32.611038697
 10
-0.6883015188
 20
32.6427620352
 10
-0.6945756509
 20
32.6808824753
 10
-0.6987566095
 20
32.724603002
 10
-0.7004733279
 20
32.7737912259
  0
LINE
  5
5F4
100
AcDbEntity
  8
RACCORDO
100
AcDbLine
 62
250
  6
CONTINUOUS
 10
22.0859395007
 20
7.2734648048
 11
22.2972643087
 21
7.0751208677
  0
LWPOLYLINE
  5
5F5
100
AcDbEntity
  8
RACCORDO
100
AcDbPolyline
 62
250
  6
CONTINUOUS
 90
4
 70
0
 10
23.1642613099
 20
20.8341951237
 10
23.1625266544
 20
20.8624946299
 10
23.1573019607
 20
20.8930064714
 10
23.1486008866
 20
20.9252618775
  0
LWPOLYLINE
  5
5F6
100
AcDbEntity
  8
0
100
AcDbPolyline
 62
7
  6
CONTINUOUS
 90
11
 70
0
 10
25.7452010612
 20
-11.4348740984
 10
25.745671361
 20
-11.4485132261
 10
25.7470300468
 20
-11.4613474591
 10
25.7492771187
 20
-11.4733767973
 10
25.7524297583
 20
-11.4846457316
 10
25.7564707839
 20
-11.495109771
 10
25.7613486508
 20
-11.5046354433
 10
25.7670740789
 20
-11.5132107279
 10
25.7736363484
 20
-11.5208476454
 10
25.7809517552
 20
-11.527448784
 10
25.7841412051
 20
-11.5298323975
  0
LWPOLYLINE
  5
5F7
100
AcDbEntity
  8
0
100
AcDbPolyline
 62
7
  6
CONTINUOUS
 90
11
 70
0
 10
27.1594146236
 20
-6.9700508706
 10
27.1589443238
 20
-6.9564117428
 10
27.1575856379
 20
-6.9435775098
 10
27.155338566
 20
-6.9315481716
 10
27.1521859265
 20
-6.9202792374
 10
27.1481449009
 20
-6.9098151979
 10
27.1432670339
 20
-6.9002895257
 10
27.1375416058
 20
-6.891714241
 10
27.1309793364
 20
-6.8840773236
 10
27.1236639296
 20
-6.877476185
 10
27.1204744796
 20
-6.8750925714
  0
LINE
  5
5F8
100
AcDbEntity
  8
COPY-PUBBLISH
100
AcDbLine
 62
7
  6
CONTINUOUS
 10
25.03809428
 20
-14.4681168559
 11
25.03809428
 21
-6.2250028725
  0
LINE
  5
5F9
100
AcDbEntity
  8
RACCORDO
100
AcDbLine
 62
7
  6
CONTINUOUS
 10
25.03809428
 20
-4.7223849303
 11
25.03809428
 21
0.5102052505
  0
LINE
  5
5FA
100
AcDbEntity
  8
COPY-PUBBLISH
100
AcDbLine
 62
7
  6
CONTINUOUS
 10
25.03809428
 20
2.0128231927
 11
25.03809428
 21
9.0131803265
  0
LINE
  5
5FB
100
AcDbEntity
  8
RACCORDO
100
AcDbLine
 62
7
  6
CONTINUOUS
 10
25.1618219345
 20
21.8546827438
 11
25.1618219345
 21
11.6462534023
  0
LINE
  5
5FC
100
AcDbEntity
  8
0
100
AcDbLine
 62
250
  6
CONTINUOUS
 10
25.1795156362
 20
-7.6579188362
 11
25.1795156362
 21
-9.7792391798
  0
LINE
  5
5FD
100
AcDbEntity
  8
0
100
AcDbLine
 62
250
  6
CONTINUOUS
 10
25.1795156362
 20
4.6457391564
 11
25.1795156362
 21
6.7670595
  0
LINE
  5
5FE
100
AcDbEntity
  8
0
100
AcDbLine
 62
250
  6
CONTINUOUS
 10
25.603779705
 20
-7.6579188362
 11
25.603779705
 21
-9.9913712141
  0
LINE
  5
5FF
100
AcDbEntity
  8
0
100
AcDbLine
 62
250
  6
CONTINUOUS
 10
25.603779705
 20
4.6457391564
 11
25.603779705
 21
6.9791915344
  0
LINE
  5
600
100
AcDbEntity
  8
0
100
AcDbLine
 62
7
  6
CONTINUOUS
 10
25.7452010612
 20
8.2226944186
 11
25.7452010612
 21
4.5457391564
  0
LINE
  5
601
100
AcDbEntity
  8
0
100
AcDbLine
 62
7
  6
CONTINUOUS
 10
25.7452010612
 20
-7.7579188362
 11
25.7452010612
 21
-11.4348740984
  0
LINE
  5
602
100
AcDbEntity
  8
COPY-PUBBLISH
100
AcDbLine
 62
7
  6
CONTINUOUS
 10
26.4523078424
 20
3.0128231927
 11
26.4523078424
 21
-5.2250028725
  0
LINE
  5
603
100
AcDbEntity
  8
0
100
AcDbLine
 62
7
  6
CONTINUOUS
 10
27.1594146236
 20
9.2226944186
 11
27.1594146236
 21
5.7578711908
  0
LINE
  5
604
100
AcDbEntity
  8
0
100
AcDbLine
 62
7
  6
CONTINUOUS
 10
27.1594146236
 20
-10.4348740984
 11
27.1594146236
 21
-6.9700508706
  0
LINE
  5
605
100
AcDbEntity
  8
RACCORDO
100
AcDbLine
 62
7
  6
CONTINUOUS
 10
27.1717562783
 20
-12.0401430952
 11
27.1717562783
 21
-12.9593899881
  0
LINE
  5
606
100
AcDbEntity
  8
RACCORDO
100
AcDbLine
 62
7
  6
CONTINUOUS
 10
27.1717562783
 20
10.845417151
 11
27.1717562783
 21
11.7646640439
  0
LWPOLYLINE
  5
607
100
AcDbEntity
  8
RACCORDO
100
AcDbPolyline
 62
7
  6
CONTINUOUS
 90
25
 70
0
 10
25.03809428
 20
-4.7223849303
 10
25.0376239802
 20
-4.7366891624
 10
25.0362652944
 20
-4.7514448673
 10
25.0340182224
 20
-4.7666520451
 10
25.0308655829
 20
-4.7823794849
 10
25.0268245573
 20
-4.7985583976
 10
25.0219466904
 20
-4.8149824154
 10
25.0162212623
 20
-4.8316546781
 10
25.0096589928
 20
-4.848572046
 10
25.002343586
 20
-4.8655187322
 10
24.9942653943
 20
-4.8824951121
 10
24.9854340653
 20
-4.8995008103
 10
24.9759622456
 20
-4.9163189131
 10
24.9658417308
 20
-4.9329470175
 10
24.9550807252
 20
-4.9493875265
 10
24.9438164894
 20
-4.9654307357
 10
24.932042577
 20
-4.9810715558
 10
24.9197654344
 20
-4.9963150761
 10
24.9071416607
 20
-5.0109668601
 10
24.8941668156
 20
-5.025019328
 10
24.8808453396
 20
-5.0384800596
 10
24.8673471525
 20
-5.0511773588
 10
24.8537288945
 20
-5.0630539932
 10
24.8399339256
 20
-5.0741671952
 10
24.8259622456
 20
-5.0845169646
  0
LWPOLYLINE
  5
608
100
AcDbEntity
  8
0
100
AcDbPolyline
 62
7
  6
CONTINUOUS
 90
25
 70
0
 10
25.7452010612
 20
8.2226944186
 10
25.745671361
 20
8.2369986507
 10
25.7470300468
 20
8.2517543557
 10
25.7492771187
 20
8.2669615334
 10
25.7524297583
 20
8.2826889733
 10
25.7564707839
 20
8.2988678859
 10
25.7613486508
 20
8.3152919038
 10
25.7670740789
 20
8.3319641665
 10
25.7736363484
 20
8.3488815344
 10
25.7809517552
 20
8.3658282205
 10
25.7890299469
 20
8.3828046005
 10
25.7978612759
 20
8.3998102986
 10
25.8073330955
 20
8.4166284014
 10
25.8174536104
 20
8.4332565058
 10
25.828214616
 20
8.4496970148
 10
25.8394788518
 20
8.465740224
 10
25.8512527642
 20
8.4813810441
 10
25.8635299068
 20
8.4966245644
 10
25.8761536805
 20
8.5112763485
 10
25.8891285255
 20
8.5253288163
 10
25.9024500016
 20
8.538789548
 10
25.9159481887
 20
8.5514868471
 10
25.9295664466
 20
8.5633634816
 10
25.9433614156
 20
8.5744766835
 10
25.9573330955
 20
8.584826453
  0
LWPOLYLINE
  5
609
100
AcDbEntity
  8
0
100
AcDbPolyline
 62
7
  6
CONTINUOUS
 90
25
 70
0
 10
27.1594146236
 20
5.7578711908
 10
27.1589443238
 20
5.7435669587
 10
27.1575856379
 20
5.7288112537
 10
27.155338566
 20
5.713604076
 10
27.1521859265
 20
5.6978766361
 10
27.1481449009
 20
5.6816977235
 10
27.1432670339
 20
5.6652737057
 10
27.1375416058
 20
5.6486014429
 10
27.1309793364
 20
5.631684075
 10
27.1236639296
 20
5.6147373889
 10
27.1155857379
 20
5.597761009
 10
27.1067544089
 20
5.5807553108
 10
27.0972825892
 20
5.563937208
 10
27.0871620743
 20
5.5473091036
 10
27.0764010688
 20
5.5308685946
 10
27.065136833
 20
5.5148253854
 10
27.0533629206
 20
5.4991845653
 10
27.0410857779
 20
5.483941045
 10
27.0284620042
 20
5.4692892609
 10
27.0154871592
 20
5.4552367931
 10
27.0021656831
 20
5.4417760614
 10
26.9886674961
 20
5.4290787623
 10
26.9750492381
 20
5.4172021278
 10
26.9612542691
 20
5.4060889259
 10
26.9472825892
 20
5.3957391564
  0
LINE
  5
60A
100
AcDbEntity
  8
RACCORDO
100
AcDbLine
 62
250
  6
CONTINUOUS
 10
24.2067234301
 20
-4.545608235
 11
24.2042784669
 21
-4.5726359994
  0
LINE
  5
60B
100
AcDbEntity
  8
RACCORDO
100
AcDbLine
 62
7
  6
CONTINUOUS
 10
25.7353840657
 20
-13.9750585199
 11
25.9586253878
 21
-12.8502386666
  0
LWPOLYLINE
  5
60C
100
AcDbEntity
  8
RACCORDO
100
AcDbPolyline
 62
250
  6
CONTINUOUS
 90
6
 70
0
 10
24.2042784669
 20
-4.5726359994
 10
24.1966874329
 20
-4.6000181471
 10
24.184084853
 20
-4.6264495645
 10
24.166696206
 20
-4.6514717221
 10
24.1448256931
 20
-4.6746572806
 10
24.1188554645
 20
-4.695608235
  0
LWPOLYLINE
  5
60D
100
AcDbEntity
  8
0
100
AcDbPolyline
 62
7
  6
CONTINUOUS
 90
25
 70
0
 10
26.9472825892
 20
-10.7970061327
 10
26.9612542691
 20
-10.7866563633
 10
26.9750492381
 20
-10.7755431613
 10
26.9886674961
 20
-10.7636665269
 10
27.0021656831
 20
-10.7509692277
 10
27.0154871592
 20
-10.7375084961
 10
27.0284620042
 20
-10.7234560282
 10
27.0410857779
 20
-10.7088042442
 10
27.0533629206
 20
-10.6935607239
 10
27.065136833
 20
-10.6779199038
 10
27.0764010688
 20
-10.6618766946
 10
27.0871620743
 20
-10.6454361856
 10
27.0972825892
 20
-10.6288080812
 10
27.1067544089
 20
-10.6119899784
 10
27.1155857379
 20
-10.5949842802
 10
27.1236639296
 20
-10.5780079003
 10
27.1309793364
 20
-10.5610612141
 10
27.1375416058
 20
-10.5441438463
 10
27.1432670339
 20
-10.5274715835
 10
27.1481449009
 20
-10.5110475657
 10
27.1521859265
 20
-10.494868653
 10
27.155338566
 20
-10.4791412132
 10
27.1575856379
 20
-10.4639340354
 10
27.1589443238
 20
-10.4491783305
 10
27.1594146236
 20
-10.4348740984
  0
LWPOLYLINE
  5
60E
100
AcDbEntity
  8
0
100
AcDbPolyline
 62
7
  6
CONTINUOUS
 90
34
 70
0
 10
13.724385781
 20
-22.4627648089
 10
13.9665665446
 20
-22.285688215
 10
14.2071944172
 20
-22.0983321134
 10
14.4462693989
 20
-21.9006965043
 10
14.6844027375
 20
-21.692210433
 10
14.9209831852
 20
-21.4734448541
 10
15.1541769986
 20
-21.2461126309
 10
15.3837697427
 20
-21.0103598742
 10
15.6099758524
 20
-20.7660404732
 10
15.8316048889
 20
-20.5144289589
 10
16.0488720302
 20
-20.2551800414
 10
16.2615620984
 20
-19.9886390107
 10
16.4678391208
 20
-19.7171162668
 10
16.6673912352
 20
-19.4409465055
 10
16.8605303038
 20
-19.159795031
 10
17.046355941
 20
-18.8749681564
 10
17.2250791334
 20
-18.5860287912
 10
17.3964888944
 20
-18.2934140258
 10
17.5590518784
 20
-17.9997414451
 10
17.7124801848
 20
-17.705425612
 10
17.8570617141
 20
-17.4100519635
 10
17.9921268222
 20
-17.1149943953
 10
18.1177896847
 20
-16.8198603107
 10
18.2339361259
 20
-16.5250423063
 10
18.3395539744
 20
-16.2330920681
 10
18.4344500941
 20
-15.9443613418
 10
18.518817621
 20
-15.6584983817
 10
18.5922237915
 20
-15.3769996367
 10
18.6546630879
 20
-15.0996545735
 10
18.7061410279
 20
-14.8266737253
 10
18.7462414006
 20
-14.5601851412
 10
18.774825469
 20
-14.3008981709
 10
18.7920319701
 20
-14.0481034647
 10
18.7978609038
 20
-13.8018010226
  0
LINE
  5
60F
100
AcDbEntity
  8
0
100
AcDbLine
 62
7
  6
CONTINUOUS
 10
-3.2461769675
 20
-32.0381491651
 11
-4.8905424734
 21
-33.2008911651
  0
LINE
  5
610
100
AcDbEntity
  8
0
100
AcDbLine
 62
7
  6
CONTINUOUS
 10
25.9573330955
 20
-11.4970061327
 11
26.9472825892
 21
-10.7970061327
  0
LINE
  5
611
100
AcDbEntity
  8
ASSI
100
AcDbLine
 62
7
  6
CONTINUOUS
 10
-5.8617317171
 20
-34.2083610191
 11
-3.3875983237
 21
-32.4588845191
  0
LINE
  5
612
100
AcDbEntity
  8
0
100
AcDbLine
 62
7
  6
CONTINUOUS
 10
-5.8617317171
 20
-34.4083610191
 11
-3.2461769675
 21
-32.5588845191
  0
LINE
  5
613
100
AcDbEntity
  8
0
100
AcDbLine
 62
7
  6
CONTINUOUS
 10
-3.2461769675
 20
-33.1437183956
 11
-5.8617317171
 21
-34.9931948956
  0
LINE
  5
614
100
AcDbEntity
  8
RACCORDO
100
AcDbLine
 62
7
  6
CONTINUOUS
 10
26.1653126215
 20
-12.5396822728
 11
26.9596323213
 21
-11.9780134266
  0
LINE
  5
615
100
AcDbEntity
  8
RACCORDO
100
AcDbLine
 62
7
  6
CONTINUOUS
 10
28.2866329651
 20
-11.0396822728
 11
29.0686029328
 21
-10.486746006
  0
LINE
  5
616
100
AcDbEntity
  8
ASSI
100
AcDbLine
 62
7
  6
CONTINUOUS
 10
-5.8617317171
 20
-35.3433777115
 11
-3.3875983237
 21
-33.5939012115
  0
LINE
  5
617
100
AcDbEntity
  8
0
100
AcDbLine
 62
7
  6
CONTINUOUS
 10
-5.8617317171
 20
-35.5433777115
 11
-3.2461769675
 21
-33.6939012115
  0
LINE
  5
618
100
AcDbEntity
  8
0
100
AcDbLine
 62
7
  6
CONTINUOUS
 10
5.946211188
 20
-27.9627648089
 11
13.724385781
 21
-22.4627648089
  0
LINE
  5
619
100
AcDbEntity
  8
COPY-PUBBLISH
100
AcDbLine
 62
7
  6
CONTINUOUS
 10
25.03809428
 20
-14.4681168559
 11
25.7353840657
 21
-13.9750585199
  0
LINE
  5
61A
100
AcDbEntity
  8
COPY-PUBBLISH
100
AcDbLine
 62
7
  6
CONTINUOUS
 10
27.1717562783
 20
-12.9593899881
 11
27.8567044093
 21
-12.4750585199
  0
LINE
  5
61B
100
AcDbEntity
  8
DRAFT
100
AcDbLine
 62
7
  6
CONTINUOUS
 10
4.6788633176
 20
-26.9557359642
 11
12.5249170119
 21
-21.5096723889
  0
LINE
  5
61C
100
AcDbEntity
  8
RACCORDO
100
AcDbLine
 62
250
  6
CONTINUOUS
 10
-9.6410483412
 20
-39.377840413
 11
-10.0007730292
 21
-39.6234766468
  0
LINE
  5
61D
100
AcDbEntity
  8
RACCORDO
100
AcDbLine
 62
250
  6
CONTINUOUS
 10
-8.933994468
 20
-39.7400825952
 11
-9.2937191559
 21
-39.985718829
  0
LWPOLYLINE
  5
61E
100
AcDbEntity
  8
RACCORDO
100
AcDbPolyline
 62
250
  6
CONTINUOUS
 90
19
 70
0
 10
-11.9338054145
 20
-39.982073912
 10
-11.9660737669
 20
-40.003480936
 10
-12.0006869411
 20
-40.0228357895
 10
-12.0373873272
 20
-40.0399944231
 10
-12.075901781
 20
-40.0548291329
 10
-12.115943657
 20
-40.0672295109
 10
-12.1572149418
 20
-40.0771032669
 10
-12.1994084721
 20
-40.0843769149
 10
-12.2422102208
 20
-40.0889963205
 10
-12.2853016341
 20
-40.0909271036
 10
-12.3283620022
 20
-40.0901548943
 10
-12.3710708465
 20
-40.0866854398
 10
-12.4131103046
 20
-40.0805445616
 10
-12.454167496
 20
-40.0717779634
 10
-12.4939368509
 20
-40.0604508911
 10
-12.5321223841
 20
-40.046647647
 10
-12.5684398981
 20
-40.0304709622
 10
-12.6026190983
 20
-40.0120412325
 10
-12.6344056045
 20
-39.9914956219
  0
LINE
  5
61F
100
AcDbEntity
  8
ASSI
100
AcDbLine
 62
7
  6
CONTINUOUS
 10
-5.8617317171
 20
-32.4188823636
 11
-4.2034008522
 21
-31.7235497018
  0
LINE
  5
620
100
AcDbEntity
  8
0
100
AcDbLine
 62
7
  6
CONTINUOUS
 10
-5.8617317171
 20
-32.5781798718
 11
-4.0619794959
 21
-31.8235497018
  0
LINE
  5
621
100
AcDbEntity
  8
0
100
AcDbLine
 62
7
  6
CONTINUOUS
 10
-4.2238440163
 20
-29.3873338633
 11
-5.1626406983
 21
-29.7662064016
  0
LINE
  5
622
100
AcDbEntity
  8
0
100
AcDbLine
 62
7
  6
CONTINUOUS
 10
-3.2461769675
 20
-30.970659756
 11
-4.8905424734
 21
-31.6179732384
  0
LINE
  5
623
100
AcDbEntity
  8
0
100
AcDbLine
 62
7
  6
CONTINUOUS
 10
-3.2461769675
 20
-29.0501471317
 11
-3.7512067727
 21
-29.2440491084
  0
LINE
  5
624
100
AcDbEntity
  8
ASSI
100
AcDbLine
 62
7
  6
CONTINUOUS
 10
-5.8617317171
 20
-30.4081056682
 11
-3.3875983237
 21
-29.4935791991
  0
LINE
  5
625
100
AcDbEntity
  8
0
100
AcDbLine
 62
7
  6
CONTINUOUS
 10
-5.8617317171
 20
-30.560379961
 11
-3.2461769675
 21
-29.5935791991
  0
LWPOLYLINE
  5
626
100
AcDbEntity
  8
RACCORDO
100
AcDbPolyline
 62
250
  6
CONTINUOUS
 90
4
 70
0
 10
22.1992547236
 20
20.3387050077
 10
22.2363703722
 20
20.3296205091
 10
22.2751175752
 20
20.3240161842
 10
22.3145701258
 20
20.3220646835
  0
LINE
  5
627
100
AcDbEntity
  8
RACCORDO
100
AcDbLine
 62
250
  6
CONTINUOUS
 10
22.164450832
 20
20.3510098985
 11
22.1992547236
 21
20.3387050077
  0
LWPOLYLINE
  5
628
100
AcDbEntity
  8
RACCORDO
100
AcDbPolyline
 62
7
  6
CONTINUOUS
 90
11
 70
0
 10
22.1199027784
 20
20.3539101232
 10
22.0973053859
 20
20.3621019653
 10
22.072667446
 20
20.3669530866
 10
22.046179419
 20
20.3684298922
 10
22.0180696113
 20
20.3665094909
 10
21.9885513966
 20
20.361215601
 10
21.9578514373
 20
20.3525969984
 10
21.9262338282
 20
20.3407090039
 10
21.8939495942
 20
20.3256472045
 10
21.8612347733
 20
20.3075466277
 10
21.8283384549
 20
20.2865594779
  0
LWPOLYLINE
  5
629
100
AcDbEntity
  8
RACCORDO
100
AcDbPolyline
 62
250
  6
CONTINUOUS
 90
18
 70
0
 10
-0.6597047128
 20
32.5609451908
 10
-0.6383749212
 20
32.5472070639
 10
-0.6002760968
 20
32.5277324513
 10
-0.5596109871
 20
32.5128838068
 10
-0.5164914438
 20
32.5026567968
 10
-0.4708708246
 20
32.497033449
 10
-0.422829228
 20
32.49607068
 10
-0.3725974713
 20
32.4998188417
 10
-0.3203392499
 20
32.508280384
 10
-0.2661689986
 20
32.5214792765
 10
-0.2103484797
 20
32.5393911152
 10
-0.1532964712
 20
32.5618586181
 10
-0.0952343028
 20
32.5887789656
 10
-0.0363916799
 20
32.620028986
 10
0.0227672605
 20
32.6552825478
 10
0.0819310255
 20
32.694267311
 10
0.140954438
 20
32.7368304132
 10
0.1996220644
 20
32.7827544297
  0
LWPOLYLINE
  5
62A
100
AcDbEntity
  8
RACCORDO
100
AcDbPolyline
 62
250
  6
CONTINUOUS
 90
19
 70
0
 10
0.1996220644
 20
32.7827544297
 10
0.2315632903
 20
32.7604461413
 10
0.2633550988
 20
32.7356811153
 10
0.2947551598
 20
32.7086481207
 10
0.3255241295
 20
32.6795532138
 10
0.3554274744
 20
32.6486181678
 10
0.3842372592
 20
32.6160787822
 10
0.4117338842
 20
32.5821830853
 10
0.4377077589
 20
32.5471894438
 10
0.4619609
 20
32.5113645932
 10
0.4843084404
 20
32.4749816051
 10
0.5045800379
 20
32.4383178053
 10
0.5226211745
 20
32.40165266
 10
0.5382943332
 20
32.3652656458
 10
0.5514800469
 20
32.3294341191
 10
0.5620778088
 20
32.2944312023
 10
0.5700068384
 20
32.2605237017
 10
0.5752066975
 20
32.2279700739
 10
0.5776377506
 20
32.1970184559
  0
LINE
  5
62B
100
AcDbEntity
  8
RACCORDO
100
AcDbLine
 62
250
  6
CONTINUOUS
 10
-3.3762370955
 20
32.5249712022
 11
-1.529144223
 21
31.2188793066
  0
LINE
  5
62C
100
AcDbEntity
  8
RACCORDO
100
AcDbLine
 62
250
  6
CONTINUOUS
 10
-1.7563005391
 20
33.6779486501
 11
-1.529144223
 21
33.5173248787
  0
LINE
  5
62D
100
AcDbEntity
  8
RACCORDO
100
AcDbLine
 62
250
  6
CONTINUOUS
 10
0.1996220644
 20
32.7827544297
 11
-0.7004990518
 21
33.4192361749
  0
LINE
  5
62E
100
AcDbEntity
  8
RACCORDO
100
AcDbLine
 62
250
  6
CONTINUOUS
 10
-5.0827726907
 20
37.0126242017
 11
-2.1442593023
 21
34.9348530203
  0
LINE
  5
62F
100
AcDbEntity
  8
RACCORDO
100
AcDbLine
 62
7
  6
CONTINUOUS
 10
-3.9870736953
 20
37.2041866996
 11
-1.0996615724
 21
35.1624780074
  0
LINE
  5
630
100
AcDbEntity
  8
RACCORDO
100
AcDbLine
 62
7
  6
CONTINUOUS
 10
28.112682553
 20
11.3893523352
 11
27.3864235938
 21
11.9164567583
  0
LINE
  5
631
100
AcDbEntity
  8
RACCORDO
100
AcDbLine
 62
250
  6
CONTINUOUS
 10
28.0799457313
 20
11.439886564
 11
27.4051092882
 21
11.9296695396
  0
LWPOLYLINE
  5
632
100
AcDbEntity
  8
RACCORDO
100
AcDbPolyline
 62
7
  6
CONTINUOUS
 90
11
 70
0
 10
17.9137450791
 20
16.9881009163
 10
17.9319114798
 20
16.974417409
 10
17.9679630053
 20
16.9415465702
 10
18.0001923347
 20
16.9036553282
 10
18.0283701995
 20
16.860983789
 10
18.0525479649
 20
16.8133060821
 10
18.0726742658
 20
16.7608480781
 10
18.0883657386
 20
16.704527495
 10
18.0994945953
 20
16.6446502388
 10
18.1061886239
 20
16.5809104035
 10
18.1084478244
 20
16.513307989
  0
LWPOLYLINE
  5
633
100
AcDbEntity
  8
RACCORDO
100
AcDbPolyline
 62
250
  6
CONTINUOUS
 90
18
 70
0
 10
-2.1442593023
 20
34.9348530203
 10
-2.1127965477
 20
34.9098589421
 10
-2.081908275
 20
34.8824738439
 10
-2.0518291973
 20
34.8529058214
 10
-2.0227878828
 20
34.8213795614
 10
-1.9950050168
 20
34.788134636
 10
-1.9686917154
 20
34.7534236712
 10
-1.9440479269
 20
34.7175104317
 10
-1.9212609162
 20
34.6806678241
 10
-1.9005038344
 20
34.6431758112
 10
-1.8819344064
 20
34.6053192884
 10
-1.865693735
 20
34.567385925
 10
-1.8519052244
 20
34.5296639695
 10
-1.8406736445
 20
34.4924400613
 10
-1.832084336
 20
34.4559970575
 10
-1.8262025603
 20
34.4206118779
 10
-1.8230730044
 20
34.386553402
 10
-1.8227194421
 20
34.3540804272
  0
LINE
  5
634
100
AcDbEntity
  8
RACCORDO
100
AcDbLine
 62
250
  6
CONTINUOUS
 10
0.0418695651
 20
35.9841951237
 11
0.0165313011
 21
36.0045651554
  0
LINE
  5
635
100
AcDbEntity
  8
RACCORDO
100
AcDbLine
 62
250
  6
CONTINUOUS
 10
20.8863558152
 20
19.1491915128
 11
21.9148755221
 21
18.2790174151
  0
LWPOLYLINE
  5
636
100
AcDbEntity
  8
RACCORDO
100
AcDbPolyline
 62
250
  6
CONTINUOUS
 90
6
 70
0
 10
0.0165313011
 20
36.0045651554
 10
-0.0050614305
 20
36.0272223549
 10
-0.0224631741
 20
36.0518324227
 10
-0.0353105952
 20
36.0780771495
 10
-0.0432363074
 20
36.1054755595
 10
-0.0459976868
 20
36.1337323774
  0
LINE
  5
637
100
AcDbEntity
  8
RACCORDO
100
AcDbLine
 62
7
  6
CONTINUOUS
 10
25.7353840657
 20
10.748995512
 11
25.9586253878
 21
9.939886564
  0
LWPOLYLINE
  5
638
100
AcDbEntity
  8
RACCORDO
100
AcDbPolyline
 62
7
  6
CONTINUOUS
 90
20
 70
0
 10
29.2807349671
 20
26.4710746264
 10
29.279971033
 20
26.5168884952
 10
29.2777010914
 20
26.5614891272
 10
29.2739251423
 20
26.6048765223
 10
29.2686359222
 20
26.6470945111
 10
29.2618406946
 20
26.6880992631
 10
29.2535612501
 20
26.7277592861
 10
29.2437928241
 20
26.7660702634
 10
29.2325401812
 20
26.8030365117
 10
29.2198394059
 20
26.8385394897
 10
29.2056858494
 20
26.8725744997
 10
29.1900841604
 20
26.9051462394
 10
29.1730843696
 20
26.9361502591
 10
29.154681989
 20
26.9655815262
 10
29.1348815066
 20
26.9934450734
 10
29.1137464177
 20
27.0196515492
 10
29.091272438
 20
27.0441956342
 10
29.0674638517
 20
27.0670826478
 10
29.0423970072
 20
27.0882391971
 10
29.0212102459
 20
27.1040760592
  0
LINE
  5
639
100
AcDbEntity
  8
RACCORDO
100
AcDbLine
 62
7
  6
CONTINUOUS
 10
29.2807349671
 20
26.4710746264
 11
29.2807349671
 21
12.3367064382
  0
LINE
  5
63A
100
AcDbEntity
  8
RACCORDO
100
AcDbLine
 62
7
  6
CONTINUOUS
 10
29.2807349671
 20
-10.548886118
 11
29.2807349671
 21
-21.9568677375
  0
LINE
  5
63B
100
AcDbEntity
  8
RACCORDO
100
AcDbLine
 62
7
  6
CONTINUOUS
 10
27.8567044093
 20
-12.4750585199
 11
28.0799457313
 21
-11.3502386666
  0
LINE
  5
63C
100
AcDbEntity
  8
RACCORDO
100
AcDbLine
 62
7
  6
CONTINUOUS
 10
26.7898004906
 20
-11.7097921314
 11
26.9774791113
 21
-10.7734240419
  0
LINE
  5
63D
100
AcDbEntity
  8
RACCORDO
100
AcDbLine
 62
250
  6
CONTINUOUS
 10
-9.2937191559
 20
-41.7596032233
 11
-7.4888176546
 21
-40.558099302
  0
LINE
  5
63E
100
AcDbEntity
  8
RACCORDO
100
AcDbLine
 62
7
  6
CONTINUOUS
 10
-9.3639798836
 20
-41.9214909677
 11
-7.5565867877
 21
-40.7183284182
  0
LWPOLYLINE
  5
63F
100
AcDbEntity
  8
RACCORDO
100
AcDbPolyline
 62
250
  6
CONTINUOUS
 90
19
 70
0
 10
-9.2937191559
 20
-41.7596032233
 10
-9.3260115226
 20
-41.7798249179
 10
-9.3606485582
 20
-41.7980032922
 10
-9.3973724756
 20
-41.8140030532
 10
-9.4359099564
 20
-41.8277051222
 10
-9.4759741843
 20
-41.8390075214
 10
-9.5172669805
 20
-41.8478261323
 10
-9.5594810223
 20
-41.8540953222
 10
-9.6023021308
 20
-41.8577684326
 10
-9.6454116089
 20
-41.8588181262
 10
-9.6884886133
 20
-41.8572365907
 10
-9.7312125423
 20
-41.8530355967
 10
-9.7732654222
 20
-41.8462464101
 10
-9.8143342734
 20
-41.8369195597
 10
-9.85411344
 20
-41.8251244607
 10
-9.8923068646
 20
-41.8109488985
 10
-9.9286302918
 20
-41.7944983749
 10
-9.9628133837
 20
-41.7758953235
 10
-9.9946017318
 20
-41.7552781979
  0
LWPOLYLINE
  5
640
100
AcDbEntity
  8
RACCORDO
100
AcDbPolyline
 62
7
  6
CONTINUOUS
 90
13
 70
0
 10
-9.2444562412
 20
-39.0243877146
 10
-9.2194224863
 20
-39.0109348226
 10
-9.1888846559
 20
-38.9925029809
 10
-9.1590503811
 20
-38.9724443308
 10
-9.130004055
 20
-38.9508244251
 10
-9.1018469437
 20
-38.9277053941
 10
-9.0746131072
 20
-38.9033314416
 10
-9.0483661841
 20
-38.8777660947
 10
-9.0231823883
 20
-38.851074891
 10
-8.9991067486
 20
-38.8234999202
 10
-8.9761865892
 20
-38.7951655306
 10
-8.9544702499
 20
-38.7660797563
 10
-8.933994468
 20
-38.7363092944
  0
LINE
  5
641
100
AcDbEntity
  8
RACCORDO
100
AcDbLine
 62
250
  6
CONTINUOUS
 10
-11.6368262528
 20
-40.113518575
 11
-8.933994468
 21
-38.7363092944
  0
LINE
  5
642
100
AcDbEntity
  8
RACCORDO
100
AcDbLine
 62
7
  6
CONTINUOUS
 10
-11.7571539462
 20
-40.3046936312
 11
-9.2444702204
 21
-39.0243729817
  0
LINE
  5
643
100
AcDbEntity
  8
0
100
AcDbLine
 62
7
  6
CONTINUOUS
 10
-3.2461769675
 20
-34.8582720278
 11
-5.8617317171
 21
-35.8670091716
  0
LINE
  5
644
100
AcDbEntity
  8
ASSI
100
AcDbLine
 62
7
  6
CONTINUOUS
 10
-5.8617317171
 20
-36.2434119336
 11
-4.1904438275
 21
-35.5988483986
  0
LINE
  5
645
100
AcDbEntity
  8
0
100
AcDbLine
 62
7
  6
CONTINUOUS
 10
-5.8617317171
 20
-36.3979537332
 11
-4.0490224713
 21
-35.6988483986
  0
LINE
  5
646
100
AcDbEntity
  8
RACCORDO
100
AcDbLine
 62
7
  6
CONTINUOUS
 10
23.7446219944
 20
22.8533283394
 11
24.7491845798
 21
22.5590987702
  0
LINE
  5
647
100
AcDbEntity
  8
RACCORDO
100
AcDbLine
 62
250
  6
CONTINUOUS
 10
23.9650450029
 20
22.5248891732
 11
25.1618219345
 21
21.8546827438
  0
LINE
  5
648
100
AcDbEntity
  8
RACCORDO
100
AcDbLine
 62
250
  6
CONTINUOUS
 10
-0.4146522037
 20
36.0147290064
 11
-1.9693804115
 21
36.9328327933
  0
LINE
  5
649
100
AcDbEntity
  8
RACCORDO
100
AcDbLine
 62
7
  6
CONTINUOUS
 10
-0.1344516234
 20
36.0926088027
 11
-1.6755076459
 21
37.0026388407
  0
LWPOLYLINE
  5
64A
100
AcDbEntity
  8
RACCORDO
100
AcDbPolyline
 62
250
  6
CONTINUOUS
 90
3
 70
0
 10
22.1036011381
 20
20.3841951237
 10
22.1324087131
 20
20.3662782654
 10
22.164450832
 20
20.3510098985
  0
LWPOLYLINE
  5
64B
100
AcDbEntity
  8
RACCORDO
100
AcDbPolyline
 62
7
  6
CONTINUOUS
 90
3
 70
0
 10
-0.1344509253
 20
36.0926083103
 10
-0.1283758602
 20
36.0887590274
 10
-0.1265544909
 20
36.0874973287
  0
LWPOLYLINE
  5
64C
100
AcDbEntity
  8
RACCORDO
100
AcDbPolyline
 62
250
  6
CONTINUOUS
 90
9
 70
0
 10
0.2540015994
 20
36.3463271581
 10
0.2269286799
 20
36.3637359476
 10
0.2001112547
 20
36.3774740371
 10
0.1740084371
 20
36.3872304424
 10
0.1490269022
 20
36.3927609414
 10
0.1256904446
 20
36.3938515634
 10
0.10458425
 20
36.3904295408
 10
0.0861125656
 20
36.382576601
 10
0.0807965187
 20
36.379144098
  0
LWPOLYLINE
  5
64D
100
AcDbEntity
  8
RACCORDO
100
AcDbPolyline
 62
250
  6
CONTINUOUS
 90
9
 70
0
 10
0.8903977025
 20
36.7963271581
 10
0.863324783
 20
36.8137359476
 10
0.8365073578
 20
36.8274740371
 10
0.8104045401
 20
36.8372304424
 10
0.7854230053
 20
36.8427609414
 10
0.7620865477
 20
36.8438515634
 10
0.7409803531
 20
36.8404295408
 10
0.7225086686
 20
36.832576601
 10
0.7172073355
 20
36.8291544996
  0
LINE
  5
64E
100
AcDbEntity
  8
RACCORDO
100
AcDbLine
 62
250
  6
CONTINUOUS
 10
1.0636027832
 20
36.829144098
 11
1.0586933605
 21
36.8323359252
  0
LWPOLYLINE
  5
64F
100
AcDbEntity
  8
RACCORDO
100
AcDbPolyline
 62
250
  6
CONTINUOUS
 90
9
 70
0
 10
23.1251206916
 20
21.229294624
 10
23.1210560275
 20
21.2319555304
 10
23.1027096716
 20
21.2400888924
 10
23.0817952784
 20
21.2437718675
 10
23.0586376591
 20
21.2429635432
 10
23.0336465346
 20
21.2376806942
 10
23.0072588738
 20
21.2280208141
 10
22.9799289518
 20
21.2141550501
 10
22.9521292755
 20
21.1963271581
  0
LWPOLYLINE
  5
650
100
AcDbEntity
  8
RACCORDO
100
AcDbPolyline
 62
7
  6
CONTINUOUS
 90
3
 70
0
 10
22.1422686482
 20
20.341061478
 10
22.1402886682
 20
20.3424353314
 10
22.1199027784
 20
20.3539101232
  0
LWPOLYLINE
  5
651
100
AcDbEntity
  8
RACCORDO
100
AcDbPolyline
 62
250
  6
CONTINUOUS
 90
19
 70
0
 10
2.0627496405
 20
34.2629413627
 10
2.0943547436
 20
34.2408811921
 10
2.1259079216
 20
34.216338742
 10
2.1571700097
 20
34.1894778312
 10
2.187930014
 20
34.1604534354
 10
2.2179167649
 20
34.12949449
 10
2.2468102862
 20
34.0969194565
 10
2.2743611153
 20
34.0630141087
 10
2.3003899531
 20
34.0280038399
 10
2.3247042499
 20
33.9921464092
 10
2.3471205599
 20
33.9557087932
 10
2.3674614132
 20
33.9189756047
 10
2.3855649894
 20
33.8822374794
 10
2.4012916302
 20
33.8457783684
 10
2.4145225178
 20
33.8098743456
 10
2.4251561524
 20
33.774801131
 10
2.4331113546
 20
33.7408272919
 10
2.4383276302
 20
33.7082122609
 10
2.4407653267
 20
33.6772053888
  0
LINE
  5
652
100
AcDbEntity
  8
RACCORDO
100
AcDbLine
 62
250
  6
CONTINUOUS
 10
23.1253343563
 20
21.229144098
 11
23.1251206916
 21
21.229294624
  0
LINE
  5
653
100
AcDbEntity
  8
RACCORDO
100
AcDbLine
 62
250
  6
CONTINUOUS
 10
21.0011900714
 20
20.8714417089
 11
21.8283384549
 21
20.2865594779
  0
LINE
  5
654
100
AcDbEntity
  8
RACCORDO
100
AcDbLine
 62
250
  6
CONTINUOUS
 10
2.0627496405
 20
34.2629413627
 11
-0.4146522037
 21
36.0147290064
  0
LINE
  5
655
100
AcDbEntity
  8
RACCORDO
100
AcDbLine
 62
7
  6
CONTINUOUS
 10
21.1059495986
 20
21.0738497055
 11
22.1422674462
 21
20.341062328
  0
LINE
  5
656
100
AcDbEntity
  8
RACCORDO
100
AcDbLine
 62
7
  6
CONTINUOUS
 10
2.3637636105
 20
34.3265765119
 11
-0.126553255
 21
36.0874964548
  0
LINE
  5
657
100
AcDbEntity
  8
RACCORDO
100
AcDbLine
 62
250
  6
CONTINUOUS
 10
22.1036011381
 20
20.3841951237
 11
21.1123101437
 21
21.085143708
  0
LINE
  5
658
100
AcDbEntity
  8
RACCORDO
100
AcDbLine
 62
250
  6
CONTINUOUS
 10
16.3644334672
 20
24.4423995022
 11
0.0418695651
 21
35.9841951237
  0
LINE
  5
659
100
AcDbEntity
  8
RACCORDO
100
AcDbLine
 62
250
  6
CONTINUOUS
 10
22.3157331724
 20
20.7463271581
 11
21.3463802355
 21
21.4317631932
  0
LINE
  5
65A
100
AcDbEntity
  8
RACCORDO
100
AcDbLine
 62
250
  6
CONTINUOUS
 10
16.7209230842
 20
24.702455311
 11
0.2540015994
 21
36.3463271581
  0
LINE
  5
65B
100
AcDbEntity
  8
RACCORDO
100
AcDbLine
 62
250
  6
CONTINUOUS
 10
0.8903977025
 20
36.7963271581
 11
17.3474034325
 21
25.1594668084
  0
LINE
  5
65C
100
AcDbEntity
  8
RACCORDO
100
AcDbLine
 62
250
  6
CONTINUOUS
 10
21.8798705724
 20
21.9545285582
 11
22.9521292755
 21
21.1963271581
  0
LINE
  5
65D
100
AcDbEntity
  8
RACCORDO
100
AcDbLine
 62
7
  6
CONTINUOUS
 10
1.0636027832
 20
36.829144098
 11
17.4555001295
 21
25.2383223279
  0
LINE
  5
65E
100
AcDbEntity
  8
RACCORDO
100
AcDbLine
 62
7
  6
CONTINUOUS
 10
21.9947278127
 20
22.0286036518
 11
23.1253343563
 21
21.229144098
  0
LINE
  5
65F
100
AcDbEntity
  8
RACCORDO
100
AcDbLine
 62
250
  6
CONTINUOUS
 10
22.9799289518
 20
21.1748403709
 11
22.9521292755
 21
21.1963271581
  0
LINE
  5
660
100
AcDbEntity
  8
RACCORDO
100
AcDbLine
 62
7
  6
CONTINUOUS
 10
22.1515504103
 20
20.3338751847
 11
22.1422686482
 21
20.341061478
  0
LINE
  5
661
100
AcDbEntity
  8
RACCORDO
100
AcDbLine
 62
250
  6
CONTINUOUS
 10
23.1329103206
 20
19.1828327933
 11
21.8283384549
 21
20.2865594779
  0
LINE
  5
662
100
AcDbEntity
  8
RACCORDO
100
AcDbLine
 62
7
  6
CONTINUOUS
 10
23.4439987297
 20
19.2404053182
 11
22.1515486378
 21
20.333876435
  0
LINE
  5
663
100
AcDbEntity
  8
RACCORDO
100
AcDbLine
 62
250
  6
CONTINUOUS
 10
0.0817450528
 20
39.5850810086
 11
1.0637462843
 21
38.718552795
  0
LWPOLYLINE
  5
664
100
AcDbEntity
  8
RACCORDO
100
AcDbPolyline
 62
250
  6
CONTINUOUS
 90
3
 70
0
 10
23.0336465346
 20
21.1223978807
 10
23.0072588738
 20
21.1500557885
 10
22.9799289518
 20
21.1748403709
  0
LWPOLYLINE
  5
665
100
AcDbEntity
  8
RACCORDO
100
AcDbPolyline
 62
250
  6
CONTINUOUS
 90
4
 70
0
 10
23.1027096716
 20
21.027136054
 10
23.0817952784
 20
21.0603964477
 10
23.0586376591
 20
21.0923379427
 10
23.0336465346
 20
21.1223978807
  0
LWPOLYLINE
  5
666
100
AcDbEntity
  8
RACCORDO
100
AcDbPolyline
 62
250
  6
CONTINUOUS
 90
4
 70
0
 10
23.1486008866
 20
20.9252618775
 10
23.1364667729
 20
20.9588235265
 10
23.1210560275
 20
20.9930570267
 10
23.1027096716
 20
21.027136054
  0
LINE
  5
667
100
AcDbEntity
  8
RACCORDO
100
AcDbLine
 62
7
  6
CONTINUOUS
 10
27.8567044093
 20
12.248995512
 11
28.0799457313
 21
11.439886564
  0
LINE
  5
668
100
AcDbEntity
  8
RACCORDO
100
AcDbLine
 62
7
  6
CONTINUOUS
 10
-6.465173989
 20
-45.9847677131
 11
29.2807349671
 21
-21.9568677375
  0
LWPOLYLINE
  5
669
100
AcDbEntity
  8
RACCORDO
100
AcDbPolyline
 62
7
  6
CONTINUOUS
 90
25
 70
0
 10
24.613963931
 20
28.4237266543
 10
24.579135222
 20
28.4327482799
 10
24.5432649114
 20
28.4397528334
 10
24.5063529991
 20
28.4447403147
 10
24.4683539698
 20
28.4477118368
 10
24.4293133389
 20
28.4486662867
 10
24.3893676523
 20
28.4476003262
 10
24.3485137409
 20
28.4445068807
 10
24.3067547738
 20
28.4393930249
 10
24.2642368045
 20
28.4322766447
 10
24.2209571752
 20
28.4231507279
 10
24.1769185436
 20
28.4120222867
 10
24.1322749365
 20
28.3989302431
 10
24.0870242354
 20
28.3838677214
 10
24.0411685587
 20
28.3668415974
 10
23.9948682882
 20
28.3479114205
 10
23.9481218672
 20
28.3270705235
 10
23.9009308524
 20
28.3043255736
 10
23.8534602961
 20
28.2797561221
 10
23.8057092195
 20
28.2533557803
 10
23.7576786012
 20
28.2251309368
 10
23.7095364303
 20
28.1951803092
 10
23.6613387028
 20
28.163536803
 10
23.6130294225
 20
28.1301675127
 10
23.5646085894
 20
28.095072438
  0
LINE
  5
66A
100
AcDbEntity
  8
RACCORDO
100
AcDbLine
 62
7
  6
CONTINUOUS
 10
24.613963931
 20
28.4237266543
 11
28.8665214047
 21
27.1781814076
  0
LINE
  5
66B
100
AcDbEntity
  8
RACCORDO
100
AcDbLine
 62
7
  6
CONTINUOUS
 10
23.5095270707
 20
29.2046814475
 11
27.7991960513
 21
27.9328944027
  0
LWPOLYLINE
  5
66C
100
AcDbEntity
  8
RACCORDO
100
AcDbPolyline
 62
250
  6
CONTINUOUS
 90
8
 70
0
 10
1.0586933605
 20
36.8323359252
 10
1.0403977025
 20
36.8402611409
 10
1.0195355029
 20
36.8438049961
 10
0.9964637197
 20
36.8429068544
 10
0.9715771175
 20
36.8375820833
 10
0.945301513
 20
36.8279217911
 10
0.9180864892
 20
36.814091268
 10
0.8903977025
 20
36.7963271581
  0
LINE
  5
66D
100
AcDbEntity
  8
RACCORDO
100
AcDbLine
 62
7
  6
CONTINUOUS
 10
-0.2856048113
 20
39.6909355711
 11
0.6543974226
 21
39.4200670206
  0
LWPOLYLINE
  5
66E
100
AcDbEntity
  8
RACCORDO
100
AcDbPolyline
 62
7
  6
CONTINUOUS
 90
7
 70
0
 10
29.0212102459
 20
27.1040760592
 10
29.016067865
 20
27.107659727
 10
28.9884804646
 20
27.1253497925
 10
28.9597232717
 20
27.1412526661
 10
28.9298257751
 20
27.1553494385
 10
28.8987584861
 20
27.167659019
 10
28.8665214047
 20
27.1781814076
  0
LINE
  5
66F
100
AcDbEntity
  8
RACCORDO
100
AcDbLine
 62
250
  6
CONTINUOUS
 10
-1.5376821427
 20
45.845072438
 11
-0.4240876971
 21
45.0576422541
  0
LINE
  5
670
100
AcDbEntity
  8
RACCORDO
100
AcDbLine
 62
250
  6
CONTINUOUS
 10
22.4510141438
 20
28.882502622
 11
23.5646085894
 21
28.095072438
  0
LINE
  5
671
100
AcDbEntity
  8
RACCORDO
100
AcDbLine
 62
250
  6
CONTINUOUS
 10
-0.4883268011
 20
46.1737266543
 11
0.6161100592
 21
45.392771861
  0
LINE
  5
672
100
AcDbEntity
  8
RACCORDO
100
AcDbLine
 62
250
  6
CONTINUOUS
 10
23.5095270707
 20
29.2046814475
 11
24.613963931
 21
28.4237266543
  0
LINE
  5
673
100
AcDbEntity
  8
RACCORDO
100
AcDbLine
 62
250
  6
CONTINUOUS
 10
3.7642306726
 20
44.9281814076
 11
4.8315560261
 21
44.1734684124
  0
LINE
  5
674
100
AcDbEntity
  8
RACCORDO
100
AcDbLine
 62
250
  6
CONTINUOUS
 10
27.7991960513
 20
27.9328944027
 11
28.8665214047
 21
27.1781814076
  0
LINE
  5
675
100
AcDbEntity
  8
RACCORDO
100
AcDbLine
 62
7
  6
CONTINUOUS
 10
3.918931211
 20
44.8540677883
 11
4.9849065133
 21
44.1003094234
  0
LINE
  5
676
100
AcDbEntity
  8
RACCORDO
100
AcDbLine
 62
7
  6
CONTINUOUS
 10
27.9552466408
 20
27.8578261531
 11
29.0212219431
 21
27.1040677883
  0
LINE
  5
677
100
AcDbEntity
  8
RACCORDO
100
AcDbLine
 62
7
  6
CONTINUOUS
 10
0.6161100592
 20
45.392771861
 11
4.8315560261
 21
44.1734684124
  0
LWPOLYLINE
  5
678
100
AcDbEntity
  8
RACCORDO
100
AcDbPolyline
 62
7
  6
CONTINUOUS
 90
7
 70
0
 10
3.7642306726
 20
44.9281814076
 10
3.796467754
 20
44.917659019
 10
3.827535043
 20
44.9053494385
 10
3.8574325396
 20
44.8912526661
 10
3.8861897325
 20
44.8753497925
 10
3.9137771329
 20
44.857659727
 10
3.9189195138
 20
44.8540760592
  0
LINE
  5
679
100
AcDbEntity
  8
RACCORDO
100
AcDbLine
 62
7
  6
CONTINUOUS
 10
-0.4883268011
 20
46.1737266543
 11
3.7642306726
 21
44.9281814076
  0
ARC
  5
67A
100
AcDbEntity
  8
RACCORDO
100
AcDbCircle
 62
7
  6
CONTINUOUS
 10
2.0750884759
 20
33.9183282214
 40
0.5
100
AcDbArc
 50
0.0006767693
 51
54.7356103172
  0
ARC
  5
67B
100
AcDbEntity
  8
RACCORDO
100
AcDbCircle
 62
7
  6
CONTINUOUS
 10
2.0750884759
 20
33.2116524531
 40
0.5
100
AcDbArc
 50
308.4658609972
 51
0.0008535374
  0
ARC
  5
67C
100
AcDbEntity
  8
RACCORDO
100
AcDbCircle
 62
7
  6
CONTINUOUS
 10
2.0750884759
 20
-9.9492378919
 40
0.5
100
AcDbArc
 50
0.0013214119
 51
54.7356103172
  0
ARC
  5
67D
100
AcDbEntity
  8
RACCORDO
100
AcDbCircle
 62
7
  6
CONTINUOUS
 10
-9.6410483412
 20
-41.5052781979
 40
0.5
100
AcDbArc
 50
281.7795641849
 51
303.6504279961
  0
ARC
  5
67E
100
AcDbEntity
  8
RACCORDO
100
AcDbCircle
 62
7
  6
CONTINUOUS
 10
-33.974411606
 20
6.5430985181
 40
0.5
100
AcDbArc
 50
126.8697386438
 51
180.0001577892
  0
ARC
  5
67F
100
AcDbEntity
  8
RACCORDO
100
AcDbCircle
 62
7
  6
CONTINUOUS
 10
0.2540015994
 20
36.1341951237
 40
0.3
100
AcDbArc
 50
125.280557335
 51
180.0883781802
  0
ARC
  5
680
100
AcDbEntity
  8
RACCORDO
100
AcDbCircle
 62
7
  6
CONTINUOUS
 10
0.8903977025
 20
36.5841951237
 40
0.3
100
AcDbArc
 50
54.7356103172
 51
125.2609482806
  0
ARC
  5
681
100
AcDbEntity
  8
RACCORDO
100
AcDbCircle
 62
7
  6
CONTINUOUS
 10
22.9521292755
 20
20.9841951237
 40
0.3
100
AcDbArc
 50
0.0
 51
54.785526975
  0
ARC
  5
682
100
AcDbEntity
  8
RACCORDO
100
AcDbCircle
 62
7
  6
CONTINUOUS
 10
23.9067234301
 20
-4.545608235
 40
0.3
100
AcDbArc
 50
305.280557335
 51
0.0883781802
  0
ELLIPSE
  5
683
100
AcDbEntity
  8
RACCORDO
100
AcDbEllipse
 62
7
  6
CONTINUOUS
 10
2.0750884759
 20
-11.0096825573
 30
0.0
 11
0.4998685193
 21
-0.01663521
 31
0.0
 40
0.6892458983
 41
-0.7275580675
 42
0.0229335158
  0
ELLIPSE
  5
684
100
AcDbEntity
  8
RACCORDO
100
AcDbEllipse
 62
7
  6
CONTINUOUS
 10
20.849044758
 20
20.18328014
 30
0.0
 11
0.8803384061
 21
1.2185527404
 31
0.0
 40
0.5036973382
 41
-2.2131064161
 42
-2.14487444
  0
ELLIPSE
  5
685
100
AcDbEntity
  8
RACCORDO
100
AcDbEllipse
 62
7
  6
CONTINUOUS
 10
-1.1417400157
 20
27.4561389273
 30
0.0
 11
0.1742096199
 21
0.2450473444
 31
0.0
 40
0.4997234798
 41
-3.7542775281
 42
-3.1799284798
  0
ELLIPSE
  5
686
100
AcDbEntity
  8
RACCORDO
100
AcDbEllipse
 62
7
  6
CONTINUOUS
 10
22.7523645657
 20
10.4326911278
 30
0.0
 11
0.1764537866
 21
0.2436295825
 31
0.0
 40
0.5039449677
 41
-3.7494918067
 42
-3.0984711162
  0
ELLIPSE
  5
687
100
AcDbEntity
  8
RACCORDO
100
AcDbEllipse
 62
7
  6
CONTINUOUS
 10
-21.9197237782
 20
1.7841450768
 30
0.0
 11
0.2999940726
 21
0.0026507204
 31
0.0
 40
0.7114427855
 41
-0.2680855488
 42
-0.0062861589
  0
ELLIPSE
  5
688
100
AcDbEntity
  8
RACCORDO
100
AcDbEllipse
 62
7
  6
CONTINUOUS
 10
-21.9197237782
 20
-8.6103246066
 30
0.0
 11
0.2999940726
 21
0.0026507204
 31
0.0
 40
0.7114427855
 41
-0.2680855488
 42
-0.0062861589
  0
ELLIPSE
  5
689
100
AcDbEntity
  8
RACCORDO
100
AcDbEllipse
 62
7
  6
CONTINUOUS
 10
-15.140428676
 20
-37.1923651307
 30
0.0
 11
0.5640494253
 21
0.8258626013
 31
0.0
 40
0.4911738445
 41
-3.7256051964
 42
-3.1495829302
  0
ELLIPSE
  5
68A
100
AcDbEntity
  8
RACCORDO
100
AcDbEllipse
 62
7
  6
CONTINUOUS
 10
-10.0007730292
 20
-12.6827082836
 30
0.0
 11
-0.2887435356
 21
0.4082621122
 31
0.0
 40
0.499974606
 41
-4.0970289345
 42
-4.079575642
  0
ELLIPSE
  5
68B
100
AcDbEntity
  8
DRAFT
100
AcDbEllipse
 62
7
  6
CONTINUOUS
 10
12.528743606
 20
-1.9720785005
 30
0.0
 11
4.1042400489
 21
5.7035486572
 31
0.0
 40
0.5043376274
 41
-0.6113056111
 42
-0.1471433956
  0
ELLIPSE
  5
68C
100
AcDbEntity
  8
DRAFT
100
AcDbEllipse
 62
7
  6
CONTINUOUS
 10
12.528743606
 20
-16.538478193
 30
0.0
 11
4.1042400489
 21
5.7035486572
 31
0.0
 40
0.5043376274
 41
-2.18286544
 42
-0.6113056111
  0
ELLIPSE
  5
68D
100
AcDbEntity
  8
DRAFT
100
AcDbEllipse
 62
7
  6
CONTINUOUS
 10
24.8646196404
 20
9.1453595127
 30
0.0
 11
0.1752307486
 21
0.2435134104
 31
0.0
 40
0.5043376775
 41
0.9594904852
 42
1.5319227743
  0
ELLIPSE
  5
68E
100
AcDbEntity
  8
RACCORDO
100
AcDbEllipse
 62
7
  6
CONTINUOUS
 10
271.8510413672
 20
195.3708015901
 30
0.0
 11
249.8429279175
 21
341.1379334266
 31
0.0
 40
0.5086230016
 41
-3.7848173342
 42
-3.7674073432
  0
ELLIPSE
  5
68F
100
AcDbEntity
  8
DRAFT
100
AcDbEllipse
 62
7
  6
CONTINUOUS
 10
271.8510413672
 20
195.3708015901
 30
0.0
 11
249.8429279175
 21
341.1379334266
 31
0.0
 40
0.5086230016
 41
-3.7645691225
 42
-3.7326377754
  0
ELLIPSE
  5
690
100
AcDbEntity
  8
RACCORDO
100
AcDbEllipse
 62
7
  6
CONTINUOUS
 10
271.8510413672
 20
195.3708015901
 30
0.0
 11
249.8429279175
 21
341.1379334266
 31
0.0
 40
0.5086230016
 41
-3.7297995548
 42
-3.7123895638
  0
ELLIPSE
  5
691
100
AcDbEntity
  8
RACCORDO
100
AcDbEllipse
 62
7
  6
CONTINUOUS
 10
279.2103016635
 20
190.1670187301
 30
0.0
 11
239.7210057473
 21
350.9916055565
 31
0.0
 40
0.4911738445
 41
-3.8045201059
 42
-3.7256051964
  0
ELLIPSE
  5
692
100
AcDbEntity
  8
DRAFT
100
AcDbEllipse
 62
7
  6
CONTINUOUS
 10
25.8632082924
 20
-6.353494584
 30
0.0
 11
0.1752307486
 21
0.2435134104
 31
0.0
 40
0.5043376775
 41
0.0041738686
 42
0.9594904852
  0
ELLIPSE
  5
693
100
AcDbEntity
  8
DRAFT
100
AcDbEllipse
 62
7
  6
CONTINUOUS
 10
4.6826853379
 20
-21.9904835983
 30
0.0
 11
4.0993344476
 21
5.696731479
 31
0.0
 40
0.5043376274
 41
-2.9617989582
 42
-2.18286544
  0
ELLIPSE
  5
694
100
AcDbEntity
  8
COPY-PUBBLISH
100
AcDbEllipse
 62
7
  6
CONTINUOUS
 10
-20.0923428395
 20
-23.1767464976
 30
0.0
 11
1.0513844913
 21
1.4610804622
 31
0.0
 40
0.5043376775
 41
0.0041738634
 42
0.9594904852
  0
ELLIPSE
  5
695
100
AcDbEntity
  8
RACCORDO
100
AcDbEllipse
 62
7
  6
CONTINUOUS
 10
-1.9570415761
 20
36.588219652
 30
0.0
 11
0.2904003342
 21
0.4086663177
 31
0.0
 40
0.499235317
 41
0.0422034245
 42
0.9931349254
  0
ELLIPSE
  5
696
100
AcDbEntity
  8
RACCORDO
100
AcDbEllipse
 62
7
  6
CONTINUOUS
 10
-18.1598094259
 20
29.0596904846
 30
0.0
 11
1.4994696871
 21
0.0550792635
 31
0.0
 40
0.7241027529
 41
2.3383293051
 42
2.6048735913
  0
ELLIPSE
  5
697
100
AcDbEntity
  8
RACCORDO
100
AcDbEllipse
 62
7
  6
CONTINUOUS
 10
2.2629353012
 20
15.6792893693
 30
0.0
 11
1.4994696871
 21
0.0550792635
 31
0.0
 40
0.7241027529
 41
-2.3827863216
 42
-0.8207166411
  0
ELLIPSE
  5
698
100
AcDbEntity
  8
RACCORDO
100
AcDbEllipse
 62
7
  6
CONTINUOUS
 10
21.8778590159
 20
20.8812532118
 30
0.0
 11
0.8683074448
 21
1.2235326041
 31
0.0
 40
0.5035910503
 41
0.9612456464
 42
2.5244457767
  0
ELLIPSE
  5
699
100
AcDbEntity
  8
RACCORDO
100
AcDbEllipse
 62
7
  6
CONTINUOUS
 10
-1.9983386282
 20
37.8051322584
 30
0.0
 11
0.8572887461
 21
1.2310386818
 31
0.0
 40
0.4989461246
 41
0.9566979396
 42
2.5198980698
  0
ELLIPSE
  5
69A
100
AcDbEntity
  8
RACCORDO
100
AcDbEllipse
 62
7
  6
CONTINUOUS
 10
26.7904691835
 20
26.2319584489
 30
0.0
 11
1.1682049904
 21
1.6234227358
 31
0.0
 40
0.5043376775
 41
0.004173867
 42
0.1740923218
  0
ELLIPSE
  5
69B
100
AcDbEntity
  8
RACCORDO
100
AcDbEllipse
 62
7
  6
CONTINUOUS
 10
22.5008002029
 20
27.5037454938
 30
0.0
 11
1.1682049904
 21
1.6234227358
 31
0.0
 40
0.5043376775
 41
0.1740923218
 42
0.9943970703
  0
ELLIPSE
  5
69C
100
AcDbEntity
  8
RACCORDO
100
AcDbEllipse
 62
7
  6
CONTINUOUS
 10
22.5319464029
 20
21.5241532243
 30
0.0
 11
1.1766983419
 21
1.6294547819
 31
0.0
 40
0.5020191393
 41
-0.6074839259
 42
-0.3971995611
  0
ELLIPSE
  5
69D
100
AcDbEntity
  8
RACCORDO
100
AcDbEllipse
 62
7
  6
CONTINUOUS
 10
22.743960593
 20
21.1387756031
 30
0.0
 11
1.154012897
 21
1.6413227373
 31
0.0
 40
0.4990323312
 41
0.1681463433
 42
0.9503931185
  0
ELLIPSE
  5
69E
100
AcDbEntity
  8
RACCORDO
100
AcDbEllipse
 62
7
  6
CONTINUOUS
 10
-1.2778473725
 20
37.9692178807
 30
0.0
 11
1.141384315
 21
1.6516190253
 31
0.0
 40
0.4942301215
 41
0.1645606894
 42
0.9468074646
  0
ELLIPSE
  5
69F
100
AcDbEntity
  8
RACCORDO
100
AcDbEllipse
 62
7
  6
CONTINUOUS
 10
-27.8273938548
 20
5.3418550034
 30
0.0
 11
0.2853332164
 21
0.4106063508
 31
0.0
 40
0.4956115482
 41
-2.1903302398
 42
-1.8333840928
  0
ELLIPSE
  5
6A0
100
AcDbEntity
  8
RACCORDO
100
AcDbEllipse
 62
7
  6
CONTINUOUS
 10
-29.8140819742
 20
1.2493028794
 30
0.0
 11
0.2954623083
 21
0.4034270736
 31
0.0
 40
0.5086230016
 41
-2.003274197
 42
-0.6070107954
  0
ELLIPSE
  5
6A1
100
AcDbEntity
  8
RACCORDO
100
AcDbEllipse
 62
7
  6
CONTINUOUS
 10
-29.0946325983
 20
3.7308213311
 30
0.0
 11
0.2954623083
 21
0.4034270736
 31
0.0
 40
0.5086230016
 41
0.9637855314
 42
2.5345818582
  0
ELLIPSE
  5
6A2
100
AcDbEntity
  8
RACCORDO
100
AcDbEllipse
 62
7
  6
CONTINUOUS
 10
-31.7732279145
 20
-1.1460292094
 30
0.0
 11
0.2954623083
 21
0.4034270736
 31
0.0
 40
0.5086230016
 41
1.1383184566
 42
2.498367973
  0
ELLIPSE
  5
6A3
100
AcDbEntity
  8
RACCORDO
100
AcDbEllipse
 62
7
  6
CONTINUOUS
 10
-1.1417400157
 20
28.3338840336
 30
0.0
 11
0.173661489
 21
0.2447065208
 31
0.0
 40
0.5035910503
 41
1.4125886273
 42
2.5244457767
  0
ELLIPSE
  5
6A4
100
AcDbEntity
  8
RACCORDO
100
AcDbEllipse
 62
7
  6
CONTINUOUS
 10
22.7523645657
 20
11.3979395931
 30
0.0
 11
0.1758927173
 21
0.2431784191
 31
0.0
 40
0.5081798294
 41
1.2306719965
 42
2.5291385292
  0
ELLIPSE
  5
6A5
100
AcDbEntity
  8
RACCORDO
100
AcDbEllipse
 62
7
  6
CONTINUOUS
 10
23.2872107189
 20
12.1953143153
 30
0.0
 11
0.173661489
 21
0.2447065208
 31
0.0
 40
0.5035910503
 41
-2.1803470072
 42
-0.6171468769
  0
ELLIPSE
  5
6A6
100
AcDbEntity
  8
RACCORDO
100
AcDbEllipse
 62
7
  6
CONTINUOUS
 10
-0.6023519898
 20
29.1281985181
 30
0.0
 11
0.1714577492
 21
0.2462077364
 31
0.0
 40
0.4989461246
 41
-2.184894714
 42
-0.6216945837
  0
ELLIPSE
  5
6A7
100
AcDbEntity
  8
RACCORDO
100
AcDbEllipse
 62
7
  6
CONTINUOUS
 10
29.0686029328
 20
12.1867064382
 30
0.0
 11
0.1732014166
 21
0.2449562289
 31
0.0
 40
0.5000063458
 41
-2.1863059526
 42
-0.6155096258
  0
ELLIPSE
  5
6A8
100
AcDbEntity
  8
RACCORDO
100
AcDbEllipse
 62
7
  6
CONTINUOUS
 10
26.9596161663
 20
10.6954275942
 30
0.0
 11
0.1732096037
 21
0.2449465762
 31
0.0
 40
0.5000358996
 41
-2.1862168037
 42
-0.6154966294
  0
ELLIPSE
  5
6A9
100
AcDbEntity
  8
RACCORDO
100
AcDbEllipse
 62
7
  6
CONTINUOUS
 10
28.0030411181
 20
-9.9547191501
 30
0.0
 11
0.1752290437
 21
0.2435325029
 31
0.0
 40
0.5043081263
 41
0.0070989323
 42
0.959476604
  0
ELLIPSE
  5
6AA
100
AcDbEntity
  8
RACCORDO
100
AcDbEllipse
 62
7
  6
CONTINUOUS
 10
27.2217686158
 20
-10.4976624427
 30
0.0
 11
0.1752175229
 21
0.2435212267
 31
0.0
 40
0.5043431204
 41
0.9594954268
 42
1.2395265088
  0
ELLIPSE
  5
6AB
100
AcDbEntity
  8
RACCORDO
100
AcDbEllipse
 62
7
  6
CONTINUOUS
 10
25.0820654111
 20
-11.9846436172
 30
0.0
 11
0.1752175229
 21
0.2435212267
 31
0.0
 40
0.5043431204
 41
0.9594954268
 42
1.1664770115
  0
ELLIPSE
  5
6AC
100
AcDbEntity
  8
RACCORDO
100
AcDbEllipse
 62
7
  6
CONTINUOUS
 10
-22.7428918939
 20
-0.4051581324
 30
0.0
 11
0.2999940726
 21
0.0026507204
 31
0.0
 40
0.7114427855
 41
-0.7829576781
 42
-0.2680855488
  0
ELLIPSE
  5
6AD
100
AcDbEntity
  8
RACCORDO
100
AcDbEllipse
 62
7
  6
CONTINUOUS
 10
-22.7428918939
 20
-10.7996278158
 30
0.0
 11
0.2999940726
 21
0.0026507204
 31
0.0
 40
0.7114427855
 41
-0.7829576781
 42
-0.2680855488
  0
ELLIPSE
  5
6AE
100
AcDbEntity
  8
RACCORDO
100
AcDbEllipse
 62
7
  6
CONTINUOUS
 10
22.298881845
 20
11.070575578
 30
0.0
 11
0.173661489
 21
0.2447065208
 31
0.0
 40
0.5035910503
 41
0.9612456464
 42
2.5244457767
  0
ELLIPSE
  5
6AF
100
AcDbEntity
  8
RACCORDO
100
AcDbEllipse
 62
7
  6
CONTINUOUS
 10
-1.5813084131
 20
27.9971447809
 30
0.0
 11
0.1714577492
 21
0.2462077364
 31
0.0
 40
0.4989461246
 41
0.9566979396
 42
2.5198980698
  0
ELLIPSE
  5
6B0
100
AcDbEntity
  8
RACCORDO
100
AcDbEllipse
 62
7
  6
CONTINUOUS
 10
-0.1550520428
 20
16.6244498548
 30
0.0
 11
0.1711999299
 21
0.2463638105
 31
0.0
 40
0.4956115482
 41
0.9512624138
 42
2.5220587406
  0
ELLIPSE
  5
6B1
100
AcDbEntity
  8
RACCORDO
100
AcDbEllipse
 62
7
  6
CONTINUOUS
 10
-34.3217936992
 20
4.5148503576
 30
0.0
 11
-0.2887435356
 21
0.4082621122
 31
0.0
 40
0.499974606
 41
-4.114482227
 42
-4.0970289345
  0
ELLIPSE
  5
6B2
100
AcDbEntity
  8
RACCORDO
100
AcDbEllipse
 62
7
  6
CONTINUOUS
 10
-15.140428676
 20
-13.5387664368
 30
0.0
 11
0.5640494253
 21
0.8258626013
 31
0.0
 40
0.4911738445
 41
1.1218592544
 42
2.4786652012
  0
ELLIPSE
  5
6B3
100
AcDbEntity
  8
0
100
AcDbEllipse
 62
7
  6
CONTINUOUS
 10
-13.1117297684
 20
-8.2853273083
 30
0.0
 11
0.1410123563
 21
0.2064656503
 31
0.0
 40
0.4911738445
 41
0.9647796217
 42
2.518122656
  0
ELLIPSE
  5
6B4
100
AcDbEntity
  8
DRAFT
100
AcDbEllipse
 62
7
  6
CONTINUOUS
 10
-16.7600654822
 20
-24.7830224137
 30
0.0
 11
0.5991997545
 21
0.8622733367
 31
0.0
 40
0.4956115482
 41
5.9582993724
 42
7.234447721
  0
ELLIPSE
  5
6B5
100
AcDbEntity
  8
RACCORDO
100
AcDbEllipse
 62
7
  6
CONTINUOUS
 10
-18.1598094259
 20
30.1203506563
 30
0.0
 11
1.4994696871
 21
0.0550792635
 31
0.0
 40
0.7241027529
 41
2.3383293051
 42
3.9003989856
  0
ELLIPSE
  5
6B6
100
AcDbEntity
  8
RACCORDO
100
AcDbEllipse
 62
7
  6
CONTINUOUS
 10
271.8510413672
 20
195.3708015901
 30
0.0
 11
251.1429620741
 21
342.9130125503
 31
0.0
 40
0.5086230016
 41
-3.7880609038
 42
-3.7091459942
  0
ELLIPSE
  5
6B7
100
AcDbEntity
  8
RACCORDO
100
AcDbEllipse
 62
7
  6
CONTINUOUS
 10
3.8402828938
 20
42.4601908039
 30
0.0
 11
1.1413328657
 21
1.6424254033
 31
0.0
 40
0.4956115482
 41
5.6636513942
 42
6.4490495576
  0
ELLIPSE
  5
6B8
100
AcDbEntity
  8
RACCORDO
100
AcDbEllipse
 62
7
  6
CONTINUOUS
 10
23.7422063061
 20
20.846396203
 30
0.0
 11
1.161703679
 21
1.6384653152
 31
0.0
 40
0.4979885355
 41
-0.6123096849
 42
0.1699370903
  0
ELLIPSE
  5
6B9
100
AcDbEntity
  8
RACCORDO
100
AcDbEllipse
 62
7
  6
CONTINUOUS
 10
-0.3445557876
 20
37.700283053
 30
0.0
 11
1.1497042924
 21
1.6485605221
 31
0.0
 40
0.49335361
 41
-0.6156881857
 42
0.1665585895
  0
ELLIPSE
  5
6BA
100
AcDbEntity
  8
RACCORDO
100
AcDbEllipse
 62
7
  6
CONTINUOUS
 10
-29.8140819742
 20
-22.4887909747
 30
0.0
 11
0.2954623083
 21
0.4034270736
 31
0.0
 40
0.5086230016
 41
5.6761745118
 42
7.0724379134
  0
ELLIPSE
  5
6BB
100
AcDbEntity
  8
RACCORDO
100
AcDbEllipse
 62
7
  6
CONTINUOUS
 10
-27.8273938548
 20
-23.7909443815
 30
0.0
 11
0.2853332164
 21
0.4106063508
 31
0.0
 40
0.4956115482
 41
5.6636513942
 42
7.234447721
  0
ELLIPSE
  5
6BC
100
AcDbEntity
  8
RACCORDO
100
AcDbEllipse
 62
7
  6
CONTINUOUS
 10
-32.23750114
 20
7.8457738362
 30
0.0
 11
-0.2887329325
 21
0.408388636
 31
0.0
 40
0.4998564329
 41
-0.9550797507
 42
0.0140419641
  0
ELLIPSE
  5
6BD
100
AcDbEntity
  8
RACCORDO
100
AcDbEllipse
 62
7
  6
CONTINUOUS
 10
23.145249156
 20
18.838219652
 30
0.0
 11
0.2904003342
 21
0.4086663177
 31
0.0
 40
0.499235317
 41
5.6707502045
 42
7.2763202326
  0
ELLIPSE
  5
6BE
100
AcDbEntity
  8
RACCORDO
100
AcDbEllipse
 62
7
  6
CONTINUOUS
 10
-1.8703512572
 20
30.9601491142
 30
0.0
 11
0.275504705
 21
0.4174874944
 31
0.0
 40
0.4821564928
 41
-2.1668838124
 42
-0.6309940707
  0
ELLIPSE
  5
6BF
100
AcDbEntity
  8
RACCORDO
100
AcDbEllipse
 62
7
  6
CONTINUOUS
 10
21.8778590159
 20
19.3128568388
 30
0.0
 11
0.8712010027
 21
1.2259989531
 31
0.0
 40
0.499235317
 41
2.529157551
 42
4.134727579
  0
ELLIPSE
  5
6C0
100
AcDbEntity
  8
RACCORDO
100
AcDbEllipse
 62
7
  6
CONTINUOUS
 10
-0.3751630731
 20
43.6794942524
 30
0.0
 11
1.1413328657
 21
1.6424254033
 31
0.0
 40
0.4956115482
 41
0.1658642504
 42
0.9861689989
  0
ELLIPSE
  5
6C1
100
AcDbEntity
  8
RACCORDO
100
AcDbEllipse
 62
7
  6
CONTINUOUS
 10
-9.6410483412
 20
-39.7313938036
 30
0.0
 11
-0.2887435356
 21
0.4082621122
 31
0.0
 40
0.499974606
 41
-0.9728895734
 42
-0.9554362809
  0
ELLIPSE
  5
6C2
100
AcDbEntity
  8
RACCORDO
100
AcDbEllipse
 62
7
  6
CONTINUOUS
 10
-5.1316973147
 20
35.56406808
 30
0.0
 11
1.1413328657
 21
1.6424254033
 31
0.0
 40
0.4956115482
 41
-0.0040542112
 42
0.9163558288
  0
ELLIPSE
  5
6C3
100
AcDbEntity
  8
RACCORDO
100
AcDbEllipse
 62
7
  6
CONTINUOUS
 10
-9.6410483412
 20
-13.5031863525
 30
0.0
 11
-0.2861005155
 21
0.412405003
 31
0.0
 40
0.5038954357
 41
-0.9600573649
 42
-0.9456346556
  0
ELLIPSE
  5
6C4
100
AcDbEntity
  8
RACCORDO
100
AcDbEllipse
 62
7
  6
CONTINUOUS
 10
-32.1177315357
 20
-20.8598647483
 30
0.0
 11
0.2853332164
 21
0.4106063508
 31
0.0
 40
0.4956115482
 41
-0.0040542032
 42
0.7767294886
  0
ELLIPSE
  5
6C5
100
AcDbEntity
  8
RACCORDO
100
AcDbEllipse
 62
7
  6
CONTINUOUS
 10
-30.1551108651
 20
-22.1449998988
 30
0.0
 11
0.2853332164
 21
0.4106063508
 31
0.0
 40
0.4956115482
 41
-0.0040542873
 42
0.5822026421
  0
ELLIPSE
  5
6C6
100
AcDbEntity
  8
RACCORDO
100
AcDbEllipse
 62
7
  6
CONTINUOUS
 10
-31.7732279145
 20
-22.7690452232
 30
0.0
 11
0.2954623083
 21
0.4034270736
 31
0.0
 40
0.5086230016
 41
2.5707957434
 42
3.9308452598
  0
ELLIPSE
  5
6C7
100
AcDbEntity
  8
RACCORDO
100
AcDbEllipse
 62
7
  6
CONTINUOUS
 10
-29.0946325983
 20
-23.9877644914
 30
0.0
 11
0.2954623083
 21
0.4034270736
 31
0.0
 40
0.5086230016
 41
2.5345818582
 42
4.105378185
  0
ELLIPSE
  5
6C8
100
AcDbEntity
  8
RACCORDO
100
AcDbEllipse
 62
7
  6
CONTINUOUS
 10
-0.1279514623
 20
27.5767662122
 30
0.0
 11
0.1718244248
 21
0.2460589976
 31
0.0
 40
0.4994164703
 41
0.9575491083
 42
2.5207492386
  0
ELLIPSE
  5
6C9
100
AcDbEntity
  8
RACCORDO
100
AcDbEllipse
 62
7
  6
CONTINUOUS
 10
-0.1279514623
 20
26.6115177469
 30
0.0
 11
0.1723947141
 21
0.2465045923
 31
0.0
 40
0.4952628898
 41
-3.7577800935
 42
-2.186223199
  0
ELLIPSE
  5
6CA
100
AcDbEntity
  8
RACCORDO
100
AcDbEllipse
 62
7
  6
CONTINUOUS
 10
23.9605507164
 20
9.7061389273
 30
0.0
 11
0.1742096199
 21
0.2450473444
 31
0.0
 40
0.4997234798
 41
-3.7542775281
 42
-2.1827206336
  0
ELLIPSE
  5
6CB
100
AcDbEntity
  8
RACCORDO
100
AcDbEllipse
 62
7
  6
CONTINUOUS
 10
23.9605507164
 20
10.5838840336
 30
0.0
 11
0.173661489
 21
0.2447065208
 31
0.0
 40
0.5035910503
 41
0.9612456464
 42
2.5244457767
  0
ELLIPSE
  5
6CC
100
AcDbEntity
  8
RACCORDO
100
AcDbEllipse
 62
7
  6
CONTINUOUS
 10
-1.8703512572
 20
33.2585946863
 30
0.0
 11
0.275504705
 21
0.4174874944
 31
0.0
 40
0.4821564928
 41
-0.6309940707
 42
0.9048956711
  0
ELLIPSE
  5
6CD
100
AcDbEntity
  8
RACCORDO
100
AcDbEllipse
 62
7
  6
CONTINUOUS
 10
28.2866458153
 20
11.6337792579
 30
0.0
 11
0.173209557
 21
0.2449668664
 31
0.0
 40
0.4999737756
 41
-3.5301770841
 42
-2.1863341349
  0
ELLIPSE
  5
6CE
100
AcDbEntity
  8
RACCORDO
100
AcDbEllipse
 62
7
  6
CONTINUOUS
 10
26.1653254718
 20
10.1337792579
 30
0.0
 11
0.173209557
 21
0.2449668664
 31
0.0
 40
0.4999737756
 41
-3.5301770841
 42
-2.1863341349
  0
ELLIPSE
  5
6CF
100
AcDbEntity
  8
RACCORDO
100
AcDbEllipse
 62
7
  6
CONTINUOUS
 10
28.2866458153
 20
-11.2518132983
 30
0.0
 11
0.1732062594
 21
0.2449482137
 31
0.0
 40
0.5000308872
 41
0.9553527449
 42
2.2991956941
  0
ELLIPSE
  5
6D0
100
AcDbEntity
  8
RACCORDO
100
AcDbEllipse
 62
7
  6
CONTINUOUS
 10
26.1653254718
 20
-12.7518132983
 30
0.0
 11
0.1732062594
 21
0.2449482137
 31
0.0
 40
0.5000308872
 41
0.9553527449
 42
2.2991956941
  0
ELLIPSE
  5
6D1
100
AcDbEntity
  8
RACCORDO
100
AcDbEllipse
 62
7
  6
CONTINUOUS
 10
-21.9197237782
 20
2.4283322289
 30
0.0
 11
0.2999944957
 21
-0.002586098
 31
0.0
 40
0.7027169147
 41
-0.2557417015
 42
0.8787223123
  0
ELLIPSE
  5
6D2
100
AcDbEntity
  8
RACCORDO
100
AcDbEllipse
 62
7
  6
CONTINUOUS
 10
-21.9197237782
 20
-7.9661374546
 30
0.0
 11
0.2999944957
 21
-0.002586098
 31
0.0
 40
0.7027169147
 41
-0.2557417015
 42
0.8787223123
  0
ELLIPSE
  5
6D3
100
AcDbEntity
  8
RACCORDO
100
AcDbEllipse
 62
7
  6
CONTINUOUS
 10
-22.7428918939
 20
0.2730225552
 30
0.0
 11
0.2999944957
 21
-0.002586098
 31
0.0
 40
0.7027169147
 41
-0.7706138308
 42
-0.2557417015
  0
ELLIPSE
  5
6D4
100
AcDbEntity
  8
RACCORDO
100
AcDbEllipse
 62
7
  6
CONTINUOUS
 10
-22.7428918939
 20
-10.1214471283
 30
0.0
 11
0.2999944957
 21
-0.002586098
 31
0.0
 40
0.7027169147
 41
-0.7706138308
 42
-0.2557417015
  0
ELLIPSE
  5
6D5
100
AcDbEntity
  8
RACCORDO
100
AcDbEllipse
 62
7
  6
CONTINUOUS
 10
22.298881845
 20
7.2892069828
 30
0.0
 11
0.1740764864
 21
0.2470545251
 31
0.0
 40
0.4964292518
 41
2.527821423
 42
4.0910215533
  0
ELLIPSE
  5
6D6
100
AcDbEntity
  8
DRAFT
100
AcDbEllipse
 62
7
  6
CONTINUOUS
 10
-17.8849757849
 20
-6.0327373829
 30
0.0
 11
4.0050377927
 21
5.7634135211
 31
0.0
 40
0.4956115011
 41
2.8449028131
 42
4.0920917929
  0
ELLIPSE
  5
6D7
100
AcDbEntity
  8
RACCORDO
100
AcDbEllipse
 62
7
  6
CONTINUOUS
 10
-1.5813084131
 20
24.4124126028
 30
0.0
 11
0.1718462986
 21
0.2483063219
 31
0.0
 40
0.4925378658
 41
2.5230680272
 42
4.0862681574
  0
ELLIPSE
  5
6D8
100
AcDbEntity
  8
RACCORDO
100
AcDbEllipse
 62
7
  6
CONTINUOUS
 10
-7.8424249013
 20
-9.4041499998
 30
0.0
 11
-0.2887052956
 21
0.4082322983
 31
0.0
 40
0.5001435998
 41
-2.5260452923
 42
-0.955553552
  0
ELLIPSE
  5
6D9
100
AcDbEntity
  8
RACCORDO
100
AcDbEllipse
 62
7
  6
CONTINUOUS
 10
-10.0007730292
 20
-39.9770300374
 30
0.0
 11
-0.2887435356
 21
0.4082621122
 31
0.0
 40
0.499974606
 41
-0.9728895734
 42
-0.9554362809
  0
ELLIPSE
  5
6DA
100
AcDbEntity
  8
RACCORDO
100
AcDbEllipse
 62
7
  6
CONTINUOUS
 10
-7.8424249013
 20
-40.307953516
 30
0.0
 11
-0.2887329325
 21
0.408388636
 31
0.0
 40
0.4998564329
 41
-3.155634468
 42
-2.526180664
  0
ELLIPSE
  5
6DB
100
AcDbEntity
  8
RACCORDO
100
AcDbEllipse
 62
7
  6
CONTINUOUS
 10
29.0686029328
 20
-10.698886118
 30
0.0
 11
0.1732014166
 21
0.2449562289
 31
0.0
 40
0.5000063458
 41
5.6676756814
 42
7.2384720081
  0
ELLIPSE
  5
6DC
100
AcDbEntity
  8
RACCORDO
100
AcDbEllipse
 62
7
  6
CONTINUOUS
 10
-32.9580627857
 20
-24.5933952271
 30
0.0
 11
0.5909246166
 21
0.8068541472
 31
0.0
 40
0.5086230016
 41
-3.7091459942
 42
-2.3523400474
  0
ELLIPSE
  5
6DD
100
AcDbEntity
  8
RACCORDO
100
AcDbEllipse
 62
7
  6
CONTINUOUS
 10
-32.9580627857
 20
-0.9397965331
 30
0.0
 11
0.5909246166
 21
0.8068541472
 31
0.0
 40
0.5086230016
 41
1.1383184566
 42
2.4951244034
  0
ELLIPSE
  5
6DE
100
AcDbEntity
  8
0
100
AcDbEllipse
 62
7
  6
CONTINUOUS
 10
-30.8572835694
 20
4.2626741202
 30
0.0
 11
0.1477311542
 21
0.2017135368
 31
0.0
 40
0.5086230016
 41
0.9812388239
 42
2.5345818582
  0
ELLIPSE
  5
6DF
100
AcDbEntity
  8
0
100
AcDbEllipse
 62
7
  6
CONTINUOUS
 10
-30.8572835694
 20
-26.9268523714
 30
0.0
 11
0.1477311542
 21
0.2017135368
 31
0.0
 40
0.5086230016
 41
-3.748603449
 42
-2.1952604147
  0
ELLIPSE
  5
6E0
100
AcDbEntity
  8
RACCORDO
100
AcDbEllipse
 62
7
  6
CONTINUOUS
 10
26.9596161663
 20
-12.1901649619
 30
0.0
 11
0.173213749
 21
0.244970026
 31
0.0
 40
0.4999641024
 41
5.6677225233
 42
7.2384426977
  0
ENDSEC
  0
SECTION
  2
OBJECTS
  0
DICTIONARY
  5
C
100
AcDbDictionary
280
0
281
1
  3
ACAD_GROUP
350
D
  3
ACAD_MLINESTYLE
350
17
  3
ACAD_LAYOUT
350
1A
  3
ACAD_PLOTSETTINGS
350
19
  3
ACAD_PLOTSTYLENAME
350
E
  0
DICTIONARY
  5
D
102
{ACAD_REACTORS
330
C
102
}
100
AcDbDictionary
280
0
281
1
  0
ACDBDICTIONARYWDFLT
  5
E
102
{ACAD_REACTORS
330
C
102
}
100
AcDbDictionary
281
1
  3
Normal
350
F
100
AcDbDictionaryWithDefault
340
F
  0
DICTIONARY
  5
17
102
{ACAD_REACTORS
330
C
102
}
100
AcDbDictionary
280
0
281
1
  3
Standard
350
18
  0
DICTIONARY
  5
19
102
{ACAD_REACTORS
330
C
102
}
100
AcDbDictionary
281
1
  0
DICTIONARY
  5
1A
102
{ACAD_REACTORS
330
C
102
}
100
AcDbDictionary
281
1
  3
Model
350
6E1
  3
Layout1
350
6E2
  0
ACDBPLACEHOLDER
  5
F
102
{ACAD_REACTORS
330
E
102
}
  0
MLINESTYLE
  5
18
102
{ACAD_REACTORS
330
17
102
}
100
AcDbMlineStyle
  2
STANDARD
 70
0
  3

 62
256
 51
90.0
 52
90.0
 71
2
 49
0.5
 62
256
  6
BYLAYER
 49
-0.5
 62
256
  6
BYLAYER
  0
LAYOUT
  5
6E1
102
{ACAD_REACTORS
330
1A
102
}
100
AcDbPlotSettings
  1

  2
none_device
  4
ISO_A4_(297.00_x_210.00_MM)
  6

 40
0.0
 41
0.0
 42
0.0
 43
0.0
 44
297.0
 45
210.0
 46
0.0
 47
0.0
 48
0.0
 49
0.0
140
0.0
141
0.0
142
1.0
143
1.0
 70
1024
 72
1
 73
0
 74
0
  7

 75
0
147
1.0
148
0.0
149
0.0
100
AcDbLayout
  1
Model
 70
0
 71
0
 10
0.0
 20
0.0
 11
297.0
 21
210.0
 12
0.0
 22
0.0
 32
0.0
 14
0.0
 24
0.0
 34
0.0
 15
0.0
 25
0.0
 35
0.0
146
0.0
 13
0.0
 23
0.0
 33
0.0
 16
1.0
 26
0.0
 36
0.0
 17
0.0
 27
1.0
 37
0.0
 76
0
330
214
345
0
346
0
  0
LAYOUT
  5
6E2
102
{ACAD_REACTORS
330
1A
102
}
100
AcDbPlotSettings
  1

  2
none_device
  4
ISO_A4_(297.00_x_210.00_MM)
  6

 40
0.0
 41
0.0
 42
0.0
 43
0.0
 44
297.0
 45
210.0
 46
0.0
 47
0.0
 48
0.0
 49
0.0
140
0.0
141
0.0
142
1.0
143
1.0
 70
0
 72
1
 73
0
 74
0
  7

 75
0
147
1.0
148
0.0
149
0.0
100
AcDbLayout
  1
Layout1
 70
0
 71
1
 10
0.0
 20
0.0
 11
297.0
 21
210.0
 12
0.0
 22
0.0
 32
0.0
 14
0.0
 24
0.0
 34
0.0
 15
0.0
 25
0.0
 35
0.0
146
0.0
 13
0.0
 23
0.0
 33
0.0
 16
1.0
 26
0.0
 36
0.0
 17
0.0
 27
1.0
 37
0.0
 76
0
330
215
345
0
346
0
  0
ENDSEC
  0
EOF
