  0
SECTION
  2
HEADER
  9
$ACADVER
  1
AC1024
  9
$DWGCODEPAGE
  3
ANSI_1252
  9
$EXTMAX
 10
297.0
 20
210.0
 30
0.0
  9
$EXTMIN
 10
0.0
 20
0.0
 30
0.0
  9
$LIMMIN
 10
0.0
 20
0.0
  9
$LIMMAX
 10
297.0
 20
210.0
  9
$VIEWCTR
 10
148.5
 20
105.0
  9
$VIEWSIZE
 40
210.0
  9
$CLAYER
  8
0
  9
$LTSCALE
 40
16.335
  9
$CELTYPE
  6
BYLAYER
  9
$DIMSCALE
 40
1.0
  9
$DIMASZ
 40
3.0
  9
$DIMEXO
 40
0.5
  9
$DIMDLI
 40
11.286
  9
$DIMEXE
 40
1.5
  9
$DIMCEN
 40
2.673
  9
$DIMLFAC
 40
1.0
  9
$DIMBLK
  1
_FILLED
  9
$DIMALT
 70
0
  9
$DIMALTF
 40
0.0393700787
  9
$DIMTXT
 40
3.0
  9
$DIMTOL
 70
1
  9
$DIMLIM
 70
0
  9
$DIMTFAC
 40
1.0
  9
$DIMTP
 40
0.01
  9
$DIMTM
 40
0.01
  9
$DIMGAP
 40
0.625
  9
$DIMDSEP
 70
44
  9
$AUNITS
 70
0
  9
$PDMODE
 70
3
  9
$PDSIZE
 40
3.0
  9
$HANDSEED
  5
3C8
  9
$TILEMODE
 70
1
  9
$MEASUREMENT
 70
1
  9
$INSUNITS
 70
4
  0
ENDSEC
  0
SECTION
  2
CLASSES
  0
CLASS
  1
ACDBDICTIONARYWDFLT
  2
AcDbDictionaryWithDefault
  3
AutoCAD 2000
 90
0
 91
1
280
0
281
0
  0
CLASS
  1
ACDBPLACEHOLDER
  2
AcDbPlaceHolder
  3
AutoCAD 2000
 90
0
 91
1
280
0
281
0
  0
CLASS
  1
LAYOUT
  2
AcDbLayout
  3
AutoCAD 2000
 90
0
 91
0
280
0
281
0
  0
ENDSEC
  0
SECTION
  2
TABLES
  0
TABLE
  2
VPORT
  5
8
100
AcDbSymbolTable
 70
2
  0
VPORT
  5
1F4
100
AcDbSymbolTableRecord
100
AcDbViewportTableRecord
  2
*ACTIVE
 70
0
 10
0.0
 20
0.0
 11
1.0
 21
1.0
 12
148.5
 22
105.0
 13
0.0
 23
0.0
 14
1.0
 24
1.0
 15
0.0
 25
0.0
 16
0.0
 26
0.0
 36
1.0
 17
0.0
 27
0.0
 37
0.0
 40
210.0
 41
1.4142857143
 42
50.0
 43
0.0
 44
0.0
 50
0.0
 51
0.0
 71
0
 72
100
 73
1
 74
1
 75
0
 76
0
 77
0
 78
0
  0
ENDTAB
  0
TABLE
  2
LTYPE
  5
5
100
AcDbSymbolTable
 70
6
  0
LTYPE
  5
14
100
AcDbSymbolTableRecord
100
AcDbLinetypeTableRecord
  2
BYBLOCK
 70
0
  3

 72
65
 73
0
 40
0.0
  0
LTYPE
  5
15
100
AcDbSymbolTableRecord
100
AcDbLinetypeTableRecord
  2
BYLAYER
 70
0
  3

 72
65
 73
0
 40
0.0
  0
LTYPE
  5
16
100
AcDbSymbolTableRecord
100
AcDbLinetypeTableRecord
  2
CONTINUOUS
 70
64
  3
Solid line
 72
65
 73
0
 40
0.0
  0
LTYPE
  5
1F5
100
AcDbSymbolTableRecord
100
AcDbLinetypeTableRecord
  2
CENTER
 70
64
  3
____ _ ____ _ ____ _ ____ _ ____ _ ____ _ ____
 72
65
 73
4
 40
0.6
 49
0.375
 74
0
 49
-0.075
 74
0
 49
0.075
 74
0
 49
-0.075
 74
0
  0
LTYPE
  5
1F6
100
AcDbSymbolTableRecord
100
AcDbLinetypeTableRecord
  2
HIDDEN
 70
64
  3
- - - - - - - - - - - - - - - - - - - -
 72
65
 73
2
 40
0.2
 49
0.1
 74
0
 49
-0.1
 74
0
  0
LTYPE
  5
1F7
100
AcDbSymbolTableRecord
100
AcDbLinetypeTableRecord
  2
PHANTOM
 70
64
  3
_____ _ _ _____ _ _ _____ _ _ _____
 72
65
 73
6
 40
0.8
 49
0.45
 74
0
 49
-0.05
 74
0
 49
0.1
 74
0
 49
-0.05
 74
0
 49
0.1
 74
0
 49
-0.05
 74
0
  0
LTYPE
  5
1F8
100
AcDbSymbolTableRecord
100
AcDbLinetypeTableRecord
  2
DOT
 70
64
  3
. . . . . . . . . . . . . . . . . . . .
 72
65
 73
2
 40
0.2
 49
0.1
 74
0
 49
-0.1
 74
0
  0
LTYPE
  5
1F9
100
AcDbSymbolTableRecord
100
AcDbLinetypeTableRecord
  2
DASHED
 70
64
  3
- - - - - - - - - - - - - - - - - - - -
 72
65
 73
2
 40
0.2
 49
0.1
 74
0
 49
-0.1
 74
0
  0
ENDTAB
  0
TABLE
  2
LAYER
  5
2
100
AcDbSymbolTable
 70
36
  0
LAYER
  5
10
100
AcDbSymbolTableRecord
100
AcDbLayerTableRecord
  2
0
 70
0
 62
7
  6
CONTINUOUS
370
-3
390
F
  0
LAYER
  5
1FA
100
AcDbSymbolTableRecord
100
AcDbLayerTableRecord
  2
DEFAULT_1
 70
0
 62
7
  6
CENTER
370
-3
390
F
  0
LAYER
  5
1FB
100
AcDbSymbolTableRecord
100
AcDbLayerTableRecord
  2
DEFAULT_2
 70
0
 62
7
  6
HIDDEN
370
-3
390
F
  0
LAYER
  5
1FC
100
AcDbSymbolTableRecord
100
AcDbLayerTableRecord
  2
DEFAULT_3
 70
0
 62
7
  6
PHANTOM
370
-3
390
F
  0
LAYER
  5
1FD
100
AcDbSymbolTableRecord
100
AcDbLayerTableRecord
  2
ASSI
 70
0
 62
7
  6
CONTINUOUS
370
-3
390
F
  0
LAYER
  5
1FE
100
AcDbSymbolTableRecord
100
AcDbLayerTableRecord
  2
COORDINATE
 70
0
 62
7
  6
CONTINUOUS
370
-3
390
F
  0
LAYER
  5
1FF
100
AcDbSymbolTableRecord
100
AcDbLayerTableRecord
  2
COORD_ORIGINE
 70
0
 62
7
  6
CONTINUOUS
370
-3
390
F
  0
LAYER
  5
200
100
AcDbSymbolTableRecord
100
AcDbLayerTableRecord
  2
COSMETICI
 70
0
 62
7
  6
CONTINUOUS
370
-3
390
F
  0
LAYER
  5
201
100
AcDbSymbolTableRecord
100
AcDbLayerTableRecord
  2
CURVA_VIMAR
 70
0
 62
7
  6
CONTINUOUS
370
-3
390
F
  0
LAYER
  5
202
100
AcDbSymbolTableRecord
100
AcDbLayerTableRecord
  2
CURVE
 70
0
 62
7
  6
CONTINUOUS
370
-3
390
F
  0
LAYER
  5
203
100
AcDbSymbolTableRecord
100
AcDbLayerTableRecord
  2
DRAFT
 70
0
 62
7
  6
CONTINUOUS
370
-3
390
F
  0
LAYER
  5
204
100
AcDbSymbolTableRecord
100
AcDbLayerTableRecord
  2
IMPORT_IGES
 70
0
 62
7
  6
CONTINUOUS
370
-3
390
F
  0
LAYER
  5
205
100
AcDbSymbolTableRecord
100
AcDbLayerTableRecord
  2
INTF_1
 70
0
 62
7
  6
CONTINUOUS
370
-3
390
F
  0
LAYER
  5
206
100
AcDbSymbolTableRecord
100
AcDbLayerTableRecord
  2
INTF_7
 70
0
 62
7
  6
CONTINUOUS
370
-3
390
F
  0
LAYER
  5
207
100
AcDbSymbolTableRecord
100
AcDbLayerTableRecord
  2
LAY0001
 70
0
 62
7
  6
CONTINUOUS
370
-3
390
F
  0
LAYER
  5
208
100
AcDbSymbolTableRecord
100
AcDbLayerTableRecord
  2
NOTE
 70
0
 62
7
  6
CONTINUOUS
370
-3
390
F
  0
LAYER
  5
209
100
AcDbSymbolTableRecord
100
AcDbLayerTableRecord
  2
PIANI
 70
0
 62
7
  6
CONTINUOUS
370
-3
390
F
  0
LAYER
  5
20A
100
AcDbSymbolTableRecord
100
AcDbLayerTableRecord
  2
PIANI_DI_RIFERIMENTO
 70
0
 62
7
  6
CONTINUOUS
370
-3
390
F
  0
LAYER
  5
20B
100
AcDbSymbolTableRecord
100
AcDbLayerTableRecord
  2
PIANI_ORIGINE
 70
0
 62
7
  6
CONTINUOUS
370
-3
390
F
  0
LAYER
  5
20C
100
AcDbSymbolTableRecord
100
AcDbLayerTableRecord
  2
PUNTI
 70
0
 62
7
  6
CONTINUOUS
370
-3
390
F
  0
LAYER
  5
20D
100
AcDbSymbolTableRecord
100
AcDbLayerTableRecord
  2
PUNZONE_ITERC
 70
0
 62
7
  6
CONTINUOUS
370
-3
390
F
  0
LAYER
  5
20E
100
AcDbSymbolTableRecord
100
AcDbLayerTableRecord
  2
RACCORDO
 70
0
 62
7
  6
CONTINUOUS
370
-3
390
F
  0
LAYER
  5
20F
100
AcDbSymbolTableRecord
100
AcDbLayerTableRecord
  2
RGB__255__255__255__
 70
0
 62
7
  6
CONTINUOUS
370
-3
390
F
  0
LAYER
  5
210
100
AcDbSymbolTableRecord
100
AcDbLayerTableRecord
  2
RGB____0____0____0__
 70
0
 62
7
  6
CONTINUOUS
370
-3
390
F
  0
LAYER
  5
211
100
AcDbSymbolTableRecord
100
AcDbLayerTableRecord
  2
SIMBOLI
 70
0
 62
7
  6
CONTINUOUS
370
-3
390
F
  0
LAYER
  5
212
100
AcDbSymbolTableRecord
100
AcDbLayerTableRecord
  2
SNAPLINE
 70
0
 62
7
  6
CONTINUOUS
370
-3
390
F
  0
LAYER
  5
213
100
AcDbSymbolTableRecord
100
AcDbLayerTableRecord
  2
SUPERFICI
 70
0
 62
7
  6
CONTINUOUS
370
-3
390
F
  0
LAYER
  5
214
100
AcDbSymbolTableRecord
100
AcDbLayerTableRecord
  2
TRASH
 70
0
 62
7
  6
CONTINUOUS
370
-3
390
F
  0
LAYER
  5
215
100
AcDbSymbolTableRecord
100
AcDbLayerTableRecord
  2
XSEC_DATUMS
 70
0
 62
7
  6
CONTINUOUS
370
-3
390
F
  0
ENDTAB
  0
TABLE
  2
STYLE
  5
3
100
AcDbSymbolTable
 70
1
  0
STYLE
  5
11
100
AcDbSymbolTableRecord
100
AcDbTextStyleTableRecord
  2
STANDARD
 70
0
 40
0.0
 41
0.8
 50
0.0
 71
0
 42
0.2
  3
txt
  4

  0
STYLE
  5
216
100
AcDbSymbolTableRecord
100
AcDbTextStyleTableRecord
  2
TEXTSTYLE_1
 70
0
 40
0.0
 41
0.8
 50
0.0
 71
0
 42
0.2
  3
gdt
  4

  0
ENDTAB
  0
TABLE
  2
VIEW
  5
6
100
AcDbSymbolTable
 70
0
  0
ENDTAB
  0
TABLE
  2
UCS
  5
7
100
AcDbSymbolTable
 70
0
  0
ENDTAB
  0
TABLE
  2
APPID
  5
9
100
AcDbSymbolTable
 70
1
  0
APPID
  5
217
100
AcDbSymbolTableRecord
100
AcDbRegAppTableRecord
  2
ACAD
 70
0
  0
ENDTAB
  0
TABLE
  2
BLOCK_RECORD
  5
1
100
AcDbSymbolTable
 70
0
  0
BLOCK_RECORD
  5
218
100
AcDbSymbolTableRecord
100
AcDbBlockTableRecord
  2
*Model_Space
  0
BLOCK_RECORD
  5
219
100
AcDbSymbolTableRecord
100
AcDbBlockTableRecord
  2
*Paper_Space
  0
BLOCK_RECORD
  5
21A
100
AcDbSymbolTableRecord
100
AcDbBlockTableRecord
  2
_FILLED
  0
ENDTAB
  0
TABLE
  2
DIMSTYLE
  5
A
100
AcDbSymbolTable
 70
1
100
AcDbDimStyleTable
 71
0
  0
DIMSTYLE
105
21B
100
AcDbSymbolTableRecord
100
AcDbDimStyleTableRecord
  2
STANDARD
 70
0
  3

  4

 40
1.0
 41
3.0
 42
0.5
 43
0.38
 44
1.5
 45
0.0
 46
0.0
 47
0.01
 48
0.01
140
3.0
141
0.09
142
0.0
143
25.4
144
1.0
145
0.0
146
1.0
147
0.625
 71
1
 72
0
 73
0
 74
0
 75
0
 76
0
 77
1
 78
8
 79
2
170
0
171
1
172
0
173
0
174
0
175
0
176
0
177
0
178
0
270
2
179
2
271
2
272
2
273
2
274
2
275
0
280
0
281
0
282
0
283
1
284
8
285
0
286
0
287
3
288
0
340
11
278
44
341
21A
342
21A
343
21A
344
21A
  0
ENDTAB
  0
ENDSEC
  0
SECTION
  2
BLOCKS
  0
BLOCK
  5
20
100
AcDbEntity
  8
0
100
AcDbBlockBegin
  2
*Model_Space
 70
0
 10
0.0
 20
0.0
 30
0.0
  3
*Model_Space
  1

  0
ENDBLK
  5
21
100
AcDbEntity
  8
0
100
AcDbBlockEnd
  0
BLOCK
  5
1C
100
AcDbEntity
  8
0
100
AcDbBlockBegin
  2
*Paper_Space
 70
0
 10
0.0
 20
0.0
 30
0.0
  3
*Paper_Space
  1

  0
ENDBLK
  5
1D
100
AcDbEntity
  8
0
100
AcDbBlockEnd
  0
BLOCK
  5
21C
100
AcDbEntity
  8
0
100
AcDbBlockBegin
  2
_FILLED
 70
64
 10
0.0
 20
0.0
  3
_FILLED
  1

  0
SOLID
  5
21D
100
AcDbEntity
  8
0
  6
BYBLOCK
 62
0
100
AcDbTrace
 10
0.0
 20
0.0
 11
-1.0
 21
0.3166666667
 12
-1.0
 22
-0.3166666667
 13
-1.0
 23
-0.3166666667
  0
ENDBLK
  5
21E
100
AcDbEntity
  8
0
  6
BYBLOCK
 62
0
100
AcDbBlockEnd
  0
ENDSEC
  0
SECTION
  2
ENTITIES
  0
LINE
  5
21F
100
AcDbEntity
  8
RACCORDO
100
AcDbLine
 62
7
  6
CONTINUOUS
 10
-43.8306170211
 20
56.6954832352
 11
-39.3521068601
 21
60.2534962798
  0
LINE
  5
220
100
AcDbEntity
  8
RACCORDO
100
AcDbLine
 62
250
  6
CONTINUOUS
 10
-43.4124576377
 20
56.6298563779
 11
-38.9403798327
 21
60.1827591501
  0
LWPOLYLINE
  5
221
100
AcDbEntity
  8
RACCORDO
100
AcDbPolyline
 62
250
  6
CONTINUOUS
 90
26
 70
0
 10
-43.8306139326
 20
56.6954856888
 10
-43.8260844107
 20
56.6989613227
 10
-43.8145923526
 20
56.7067709388
 10
-43.8024209794
 20
56.7136745271
 10
-43.7895899996
 20
56.71966091
 10
-43.7761201839
 20
56.7247203957
 10
-43.7620333605
 20
56.7288447838
 10
-43.7473523771
 20
56.7320273887
 10
-43.7321010482
 20
56.7342630579
 10
-43.7163040503
 20
56.7355481841
 10
-43.6999869048
 20
56.7358806911
 10
-43.6831759614
 20
56.7352600299
 10
-43.6658985179
 20
56.7336871966
 10
-43.6481827229
 20
56.731164761
 10
-43.6300573897
 20
56.727696853
 10
-43.6115517789
 20
56.7232890979
 10
-43.5926957061
 20
56.717948605
 10
-43.5735194857
 20
56.7116839423
 10
-43.5540543924
 20
56.7045053093
 10
-43.5343324707
 20
56.6964245523
 10
-43.5143845203
 20
56.6874542811
 10
-43.4942440002
 20
56.677609532
 10
-43.4739476103
 20
56.6669085355
 10
-43.4535296681
 20
56.6553699834
 10
-43.4330219379
 20
56.6430124203
 10
-43.4124576377
 20
56.6298563779
  0
LWPOLYLINE
  5
222
100
AcDbEntity
  8
RACCORDO
100
AcDbPolyline
 62
250
  6
CONTINUOUS
 90
37
 70
0
 10
-43.895931288
 20
55.8525723074
 10
-43.8935810037
 20
55.8738148041
 10
-43.8904342628
 20
55.8954952731
 10
-43.8864959991
 20
55.9175791209
 10
-43.8817723522
 20
55.9400313249
 10
-43.8762708221
 20
55.9628158292
 10
-43.8700003377
 20
55.9858955725
 10
-43.8629709667
 20
56.0092335379
 10
-43.85519387
 20
56.0327925657
 10
-43.8466815293
 20
56.0565347235
 10
-43.8374475807
 20
56.0804219446
 10
-43.8275067659
 20
56.1044161646
 10
-43.8168749732
 20
56.1284791014
 10
-43.8055692364
 20
56.1525722418
 10
-43.7936075875
 20
56.1766571311
 10
-43.7810090029
 20
56.2006955018
 10
-43.7677934127
 20
56.2246492514
 10
-43.7539820926
 20
56.2484797651
 10
-43.7395975508
 20
56.2721482193
 10
-43.7246631253
 20
56.2956163125
 10
-43.7092024291
 20
56.3188470396
 10
-43.6932397036
 20
56.3418039955
 10
-43.6768002165
 20
56.3644507978
 10
-43.6599104439
 20
56.3867509142
 10
-43.6425975492
 20
56.408668443
 10
-43.6248892784
 20
56.4301682428
 10
-43.6068138667
 20
56.4512160664
 10
-43.5884001688
 20
56.4717783618
 10
-43.569677529
 20
56.4918223956
 10
-43.5506759481
 20
56.5113159825
 10
-43.531426015
 20
56.5302276535
 10
-43.5119585395
 20
56.5485271212
 10
-43.4923046166
 20
56.56618525
 10
-43.4724957955
 20
56.5831737998
 10
-43.4525637836
 20
56.5994656391
 10
-43.4325403969
 20
56.6150347803
 10
-43.4124576377
 20
56.6298563779
  0
LINE
  5
223
100
AcDbEntity
  8
RACCORDO
100
AcDbLine
 62
7
  6
CONTINUOUS
 10
-29.3310916958
 20
45.5558905743
 11
-29.3128490702
 21
45.5619632467
  0
LINE
  5
224
100
AcDbEntity
  8
RACCORDO
100
AcDbLine
 62
7
  6
CONTINUOUS
 10
25.0984103352
 20
-49.6969255827
 11
25.093660754
 21
-49.6980113131
  0
LINE
  5
225
100
AcDbEntity
  8
RACCORDO
100
AcDbLine
 62
7
  6
CONTINUOUS
 10
25.093660754
 20
-49.6980113131
 11
25.0889711675
 21
-49.6990519496
  0
LINE
  5
226
100
AcDbEntity
  8
RACCORDO
100
AcDbLine
 62
7
  6
CONTINUOUS
 10
25.0889711675
 20
-49.6990519496
 11
25.0843415339
 21
-49.7000468914
  0
LWPOLYLINE
  5
227
100
AcDbEntity
  8
RACCORDO
100
AcDbPolyline
 62
7
  6
CONTINUOUS
 90
34
 70
0
 10
25.0843415345
 20
-49.7000468909
 10
25.0833423622
 20
-49.7001475418
 10
25.0822448909
 20
-49.7001520002
 10
25.0810453776
 20
-49.700053751
 10
25.0797339643
 20
-49.6998354514
 10
25.0783133007
 20
-49.6995004563
 10
25.0767994013
 20
-49.6990750671
 10
25.0751900761
 20
-49.6985586232
 10
25.0734829999
 20
-49.6979419177
 10
25.0716958755
 20
-49.6972423449
 10
25.0698326533
 20
-49.6964614205
 10
25.0678878433
 20
-49.6955923658
 10
25.0658662066
 20
-49.6946427458
 10
25.0637700465
 20
-49.6936133717
 10
25.0615963995
 20
-49.6924998569
 10
25.0593421713
 20
-49.6913024934
 10
25.0570057656
 20
-49.6900196711
 10
25.0545881462
 20
-49.6886496506
 10
25.052089969
 20
-49.6871925992
 10
25.0495144637
 20
-49.6856498365
 10
25.0468584011
 20
-49.6840178738
 10
25.0441125325
 20
-49.6822893099
 10
25.0412785368
 20
-49.6804643947
 10
25.0383545088
 20
-49.6785402466
 10
25.0353251963
 20
-49.6765034399
 10
25.032189625
 20
-49.6743522122
 10
25.02894821
 20
-49.6720848076
 10
25.025587235
 20
-49.669686332
 10
25.0221061579
 20
-49.6671552455
 10
25.018505078
 20
-49.6644892569
 10
25.0147710155
 20
-49.6616711985
 10
25.0108996082
 20
-49.6586937395
 10
25.0068952478
 20
-49.655560274
 10
25.0027581304
 20
-49.6522693874
  0
LWPOLYLINE
  5
228
100
AcDbEntity
  8
RACCORDO
100
AcDbPolyline
 62
250
  6
CONTINUOUS
 90
21
 70
0
 10
-44.0925265976
 20
56.2083264695
 10
-44.0933383638
 20
56.196211971
 10
-44.0936163287
 20
56.1768792498
 10
-44.0926497867
 20
56.1574891717
 10
-44.0904435943
 20
56.1380493107
 10
-44.0869970765
 20
56.1186645299
 10
-44.0823163645
 20
56.099325716
 10
-44.0764128912
 20
56.0800360959
 10
-44.0692988402
 20
56.0609099503
 10
-44.0609797531
 20
56.0419329467
 10
-44.0514705724
 20
56.0231019
 10
-44.0408050419
 20
56.0045404172
 10
-44.0289827123
 20
55.9862301189
 10
-44.0160167684
 20
55.9681594806
 10
-44.0019719895
 20
55.950458657
 10
-43.9868386307
 20
55.9331089617
 10
-43.9706213801
 20
55.9160898557
 10
-43.9534215695
 20
55.8995307595
 10
-43.9352711482
 20
55.8834631547
 10
-43.916116188
 20
55.8678170705
 10
-43.895931288
 20
55.8525723074
  0
LWPOLYLINE
  5
229
100
AcDbEntity
  8
RACCORDO
100
AcDbPolyline
 62
7
  6
CONTINUOUS
 90
37
 70
0
 10
-44.0925265801
 20
56.2083268734
 10
-44.2343088241
 20
54.5424466347
 10
-44.3693526233
 20
52.8656966468
 10
-44.4962337981
 20
51.1943729563
 10
-44.6149477566
 20
49.5285296912
 10
-44.7254909904
 20
47.8682135512
 10
-44.8278603048
 20
46.2134682209
 10
-44.9220524425
 20
44.5643394771
 10
-45.0080644096
 20
42.920875451
 10
-45.0858933561
 20
41.283123368
 10
-45.1555365463
 20
39.6511302305
 10
-45.2169916914
 20
38.0249435817
 10
-45.2702566162
 20
36.4046114304
 10
-45.3153293089
 20
34.7901807131
 10
-45.3522082341
 20
33.1816975614
 10
-45.3808919495
 20
31.5792087363
 10
-45.4013791401
 20
29.9827604824
 10
-45.4136689622
 20
28.3923986995
 10
-45.4177606846
 20
26.8081696002
 10
-45.4136536955
 20
25.230118745
 10
-45.4013478504
 20
23.6582916131
 10
-45.3808431291
 20
22.0927342578
 10
-45.352139625
 20
20.5334917903
 10
-45.3152379036
 20
18.9806090742
 10
-45.2701386712
 20
17.4341317479
 10
-45.2168427204
 20
15.8941041508
 10
-45.1553513188
 20
14.3605706918
 10
-45.0856659163
 20
12.8335770582
 10
-45.0077880635
 20
11.3131678469
 10
-44.9217197552
 20
9.7993864122
 10
-44.8274631216
 20
8.2922765347
 10
-44.7250204185
 20
6.7918823002
 10
-44.6143941629
 20
5.2982450285
 10
-44.4955868312
 20
3.8114043554
 10
-44.3686012029
 20
2.3314022494
 10
-44.2334411233
 20
0.8582862772
 10
-44.0916595806
 20
-0.5925213678
  0
LWPOLYLINE
  5
22A
100
AcDbEntity
  8
RACCORDO
100
AcDbPolyline
 62
7
  6
CONTINUOUS
 90
22
 70
0
 10
-44.092525362
 20
56.2083406099
 10
-44.0911058407
 20
56.22284182
 10
-44.0875495922
 20
56.2504944076
 10
-44.0828897794
 20
56.278010975
 10
-44.0771310911
 20
56.3053447014
 10
-44.0702796326
 20
56.3324517528
 10
-44.0623388037
 20
56.3593024195
 10
-44.0533147783
 20
56.3858574428
 10
-44.0432194979
 20
56.4120657812
 10
-44.0320663989
 20
56.4378801272
 10
-44.0198718147
 20
56.4632527249
 10
-44.0066505035
 20
56.4881439561
 10
-43.9924156963
 20
56.5125190927
 10
-43.977184371
 20
56.536338485
 10
-43.9609793975
 20
56.5595566148
 10
-43.9438248532
 20
56.5821305545
 10
-43.925746772
 20
56.6040185758
 10
-43.9067708953
 20
56.6251825548
 10
-43.8869235003
 20
56.6455862419
 10
-43.8662325593
 20
56.6651938524
 10
-43.8447318328
 20
56.6839667903
 10
-43.8306139326
 20
56.6954856888
  0
LWPOLYLINE
  5
22B
100
AcDbEntity
  8
RACCORDO
100
AcDbPolyline
 62
250
  6
CONTINUOUS
 90
40
 70
0
 10
-28.9153531655
 20
39.0367009026
 10
-28.8949595583
 20
39.0518830497
 10
-28.8738570447
 20
39.0664801095
 10
-28.8520783589
 20
39.0804694389
 10
-28.8296572839
 20
39.0938293378
 10
-28.8066285994
 20
39.1065390823
 10
-28.7830280275
 20
39.1185789569
 10
-28.7588921773
 20
39.1299302856
 10
-28.7342584883
 20
39.14057546
 10
-28.7091651724
 20
39.1504979674
 10
-28.6836511543
 20
39.1596824161
 10
-28.6577560112
 20
39.168114559
 10
-28.6315199119
 20
39.1757813163
 10
-28.6049835536
 20
39.1826707953
 10
-28.5781880997
 20
39.188772309
 10
-28.5511751151
 20
39.1940763927
 10
-28.5239865024
 20
39.1985748188
 10
-28.4966644366
 20
39.2022606094
 10
-28.4692512997
 20
39.2051280469
 10
-28.4417896149
 20
39.2071726835
 10
-28.4143219808
 20
39.2083913475
 10
-28.3868910052
 20
39.2087821485
 10
-28.3595392389
 20
39.2083444803
 10
-28.3323091101
 20
39.2070790218
 10
-28.3052428581
 20
39.204987736
 10
-28.2783824681
 20
39.2020738669
 10
-28.2517696059
 20
39.1983419345
 10
-28.2254455534
 20
39.1937977277
 10
-28.1994511444
 20
39.1884482956
 10
-28.1738267014
 20
39.1823019361
 10
-28.1486119732
 20
39.1753681836
 10
-28.1238460727
 20
39.1676577935
 10
-28.0995674168
 20
39.1591827264
 10
-28.0758136666
 20
39.1499561287
 10
-28.0526216689
 20
39.1399923127
 10
-28.0300273991
 20
39.1293067342
 10
-28.0080659054
 20
39.1179159688
 10
-27.9867712545
 20
39.1058376858
 10
-27.9661764786
 20
39.093090621
 10
-27.9463135244
 20
39.0796945477
  0
LWPOLYLINE
  5
22C
100
AcDbEntity
  8
RACCORDO
100
AcDbPolyline
 62
250
  6
CONTINUOUS
 90
37
 70
0
 10
-43.8959313147
 20
-0.9126669276
 10
-44.0389461889
 20
0.551188896
 10
-44.1738110924
 20
2.0219984587
 10
-44.3005219968
 20
3.4997192238
 10
-44.4190750044
 20
4.9843083869
 10
-44.5294666861
 20
6.4757231012
 10
-44.6316940826
 20
7.9739204785
 10
-44.7257541664
 20
9.4788572531
 10
-44.8116441014
 20
10.9904898993
 10
-44.8893615817
 20
12.5087748546
 10
-44.9589043115
 20
14.0336682613
 10
-45.0202701898
 20
15.5651260663
 10
-45.0734575715
 20
17.1031041358
 10
-45.1184648937
 20
18.6475580585
 10
-45.1552907884
 20
20.1984432392
 10
-45.18393427
 20
21.7557149976
 10
-45.2043945086
 20
23.3193284016
 10
-45.2166708684
 20
24.8892383054
 10
-45.2207630206
 20
26.465399443
 10
-45.2166708684
 20
28.0477663562
 10
-45.2043945086
 20
29.6362933772
 10
-45.1839342701
 20
31.2309346666
 10
-45.1552907885
 20
32.8316442517
 10
-45.1184648937
 20
34.4383759545
 10
-45.0734575716
 20
36.0510833752
 10
-45.02027019
 20
37.6697200563
 10
-44.9589043117
 20
39.2942393037
 10
-44.8893615819
 20
40.9245941145
 10
-44.8116441015
 20
42.5607375367
 10
-44.7257541666
 20
44.2026223927
 10
-44.6316940827
 20
45.8502010995
 10
-44.5294666863
 20
47.5034261923
 10
-44.4190750045
 20
49.1622500514
 10
-44.300521997
 20
50.826624625
 10
-44.1738110925
 20
52.4965018906
 10
-44.0389461889
 20
54.1718338573
 10
-43.8959313147
 20
55.8525722905
  0
LWPOLYLINE
  5
22D
100
AcDbEntity
  8
RACCORDO
100
AcDbPolyline
 62
250
  6
CONTINUOUS
 90
4
 70
0
 10
-26.9531884568
 20
33.7717598322
 10
-26.9382898998
 20
33.7845448657
 10
-26.9232545282
 20
33.7975759509
 10
-26.9157464372
 20
33.8041462599
  0
LWPOLYLINE
  5
22E
100
AcDbEntity
  8
RACCORDO
100
AcDbPolyline
 62
250
  6
CONTINUOUS
 90
40
 70
0
 10
-27.9196781109
 20
33.8252097892
 10
-27.8995797678
 20
33.8419791729
 10
-27.8787717661
 20
33.8581613317
 10
-27.8572863946
 20
33.8737311062
 10
-27.8351570103
 20
33.8886643559
 10
-27.8124179364
 20
33.9029377919
 10
-27.789104412
 20
33.9165290269
 10
-27.765252619
 20
33.929416937
 10
-27.7408995763
 20
33.9415814978
 10
-27.7160830376
 20
33.9530036326
 10
-27.6908415206
 20
33.9636655957
 10
-27.665214206
 20
33.9735508351
 10
-27.639240836
 20
33.9826438559
 10
-27.612961728
 20
33.9909305435
 10
-27.5864176751
 20
33.9983980393
 10
-27.5596498484
 20
34.0050346262
 10
-27.5326997991
 20
34.0108300052
 10
-27.5056093657
 20
34.0157751994
 10
-27.4784205774
 20
34.019862447
 10
-27.4511756378
 20
34.0230854015
 10
-27.4239168462
 20
34.0254390924
 10
-27.3966865083
 20
34.0269198391
 10
-27.3695268911
 20
34.0275253369
 10
-27.3424801619
 20
34.0272546796
 10
-27.3155883126
 20
34.0261083189
 10
-27.2888930806
 20
34.0240880123
 10
-27.2624359135
 20
34.0211969335
 10
-27.2362579082
 20
34.0174396817
 10
-27.2103996911
 20
34.0128220554
 10
-27.1849014085
 20
34.0073512525
 10
-27.1598026891
 20
34.0010359563
 10
-27.135142484
 20
33.9938859367
 10
-27.1109590752
 20
33.9859123032
 10
-27.0872900636
 20
33.9771276719
 10
-27.0641721814
 20
33.9675456486
 10
-27.0416413147
 20
33.9571811098
 10
-27.0197325099
 20
33.9460504223
 10
-26.9984797974
 20
33.9341709496
 10
-26.9779161409
 20
33.9215610339
 10
-26.9580734615
 20
33.9082402543
  0
LWPOLYLINE
  5
22F
100
AcDbEntity
  8
RACCORDO
100
AcDbPolyline
 62
250
  6
CONTINUOUS
 90
17
 70
0
 10
-44.0904435752
 20
-0.6031549701
 10
-44.0869970497
 20
-0.6251742661
 10
-44.0823163305
 20
-0.6470214377
 10
-44.0764128508
 20
-0.6686216063
 10
-44.0692987945
 20
-0.6899680553
 10
-44.0609797032
 20
-0.7110321139
 10
-44.0514705197
 20
-0.731747208
 10
-44.0408049878
 20
-0.7520779132
 10
-44.0289826583
 20
-0.7720193376
 10
-44.0160167161
 20
-0.7915187532
 10
-44.0019719406
 20
-0.8105091881
 10
-43.9868385868
 20
-0.8290067567
 10
-43.970621343
 20
-0.8469768233
 10
-43.9534215407
 20
-0.8643261387
 10
-43.9352711291
 20
-0.8810422019
 10
-43.9161161804
 20
-0.8971576201
 10
-43.8959312934
 20
-0.9126669191
  0
LINE
  5
230
100
AcDbEntity
  8
RACCORDO
100
AcDbLine
 62
250
  6
CONTINUOUS
 10
-44.091658945
 20
-0.5925274729
 11
-44.0904435752
 21
-0.6031549701
  0
LWPOLYLINE
  5
231
100
AcDbEntity
  8
RACCORDO
100
AcDbPolyline
 62
250
  6
CONTINUOUS
 90
15
 70
0
 10
-26.7040977605
 20
24.3073519825
 10
-26.698006119
 20
24.3123221665
 10
-26.6914478778
 20
24.3188176959
 10
-26.6854842043
 20
24.3260580619
 10
-26.6801265004
 20
24.3340294261
 10
-26.6753850103
 20
24.342716551
 10
-26.6712687972
 20
24.3521028333
 10
-26.6677857292
 20
24.3621703346
 10
-26.6649424651
 20
24.3728998102
 10
-26.6627444397
 20
24.384270752
 10
-26.661195854
 20
24.3962614281
 10
-26.6602996681
 20
24.408848921
 10
-26.660057595
 20
24.4220091725
 10
-26.6604700978
 20
24.4357170297
 10
-26.6615363883
 20
24.4499462932
  0
LINE
  5
232
100
AcDbEntity
  8
RACCORDO
100
AcDbLine
 62
250
  6
CONTINUOUS
 10
-27.8102600522
 20
23.5953828203
 11
-26.6615363883
 21
24.4499462932
  0
LINE
  5
233
100
AcDbEntity
  8
RACCORDO
100
AcDbLine
 62
7
  6
CONTINUOUS
 10
-27.8571664
 20
23.4495285332
 11
-26.7040977605
 21
24.3073519825
  0
LINE
  5
234
100
AcDbEntity
  8
ASSI
100
AcDbLine
 62
7
  6
CONTINUOUS
 10
-26.141445568
 20
24.2273114823
 11
-27.6970804866
 21
23.1273114823
  0
LWPOLYLINE
  5
235
100
AcDbEntity
  8
RACCORDO
100
AcDbPolyline
 62
250
  6
CONTINUOUS
 90
19
 70
0
 10
-26.6615363883
 20
24.4499462932
 10
-26.6455694908
 20
24.4609555292
 10
-26.6303127407
 20
24.472457265
 10
-26.6157964894
 20
24.484428619
 10
-26.602049615
 20
24.4968457757
 10
-26.5890994655
 20
24.5096840319
 10
-26.5769718044
 20
24.5229178466
 10
-26.5656907569
 20
24.5365208933
 10
-26.5552787663
 20
24.5504661092
 10
-26.5457565484
 20
24.5647257468
 10
-26.5371430456
 20
24.5792714374
 10
-26.529455392
 20
24.594074244
 10
-26.5227088813
 20
24.609104714
 10
-26.5169169328
 20
24.6243329464
 10
-26.512091067
 20
24.6397286453
 10
-26.5082408835
 20
24.6552611771
 10
-26.5053740388
 20
24.67089964
 10
-26.5034962325
 20
24.6866129243
 10
-26.502611197
 20
24.7023697697
  0
LWPOLYLINE
  5
236
100
AcDbEntity
  8
RACCORDO
100
AcDbPolyline
 62
250
  6
CONTINUOUS
 90
20
 70
0
 10
-28.3446752247
 20
22.6794631858
 10
-28.3287095154
 20
22.6904715652
 10
-28.3134538431
 20
22.7019723712
 10
-28.2989385524
 20
22.7139427275
 10
-28.2851925153
 20
22.7263588239
 10
-28.2722430739
 20
22.7391959636
 10
-28.2601159853
 20
22.7524286122
 10
-28.2488353713
 20
22.7660304487
 10
-28.2384236698
 20
22.7799744177
 10
-28.2289015904
 20
22.7942327834
 10
-28.2202880729
 20
22.8087771846
 10
-28.2126002503
 20
22.8235786911
 10
-28.2058534139
 20
22.8386078614
 10
-28.2000609837
 20
22.853834801
 10
-28.1952344809
 20
22.8692292224
 10
-28.1913835057
 20
22.8847605046
 10
-28.1885157177
 20
22.9003977546
 10
-28.186636821
 20
22.9161098685
 10
-28.1857505526
 20
22.9318655937
 10
-28.1856744048
 20
22.9380357668
  0
LWPOLYLINE
  5
237
100
AcDbEntity
  8
RACCORDO
100
AcDbPolyline
 62
250
  6
CONTINUOUS
 90
37
 70
0
 10
-29.3310917175
 20
-11.2094556173
 10
-29.484453364
 20
-9.7382840888
 10
-29.629074885
 20
-8.2605759058
 10
-29.7649522515
 20
-6.7763736068
 10
-29.8920817958
 20
-5.2857198349
 10
-30.010459858
 20
-3.7886576016
 10
-30.120082786
 20
-2.2852302864
 10
-30.2209475006
 20
-0.7754811934
 10
-30.3130512166
 20
0.7405461865
 10
-30.396391091
 20
2.2628079101
 10
-30.4709647761
 20
3.7912600817
 10
-30.5367702221
 20
5.3258586825
 10
-30.5938053999
 20
6.8665593067
 10
-30.6420686953
 20
8.4133175049
 10
-30.6815587915
 20
9.9660887164
 10
-30.7122744725
 20
11.5248280975
 10
-30.7342148573
 20
13.0894906783
 10
-30.747379361
 20
14.6600313475
 10
-30.7517675783
 20
16.236404784
 10
-30.747379361
 20
17.8185654917
 10
-30.7342148573
 20
19.4064678374
 10
-30.7122744725
 20
21.0000660353
 10
-30.6815587915
 20
22.5993140748
 10
-30.6420686953
 20
24.2041658124
 10
-30.5938053998
 20
25.8145750101
 10
-30.536770222
 20
27.4304951727
 10
-30.4709647761
 20
29.0518796405
 10
-30.3963910909
 20
30.6786816811
 10
-30.3130512166
 20
32.3108543042
 10
-30.2209475005
 20
33.9483503671
 10
-30.1200827859
 20
35.5911226656
 10
-30.0104598579
 20
37.2391236973
 10
-29.8920817958
 20
38.8923058767
 10
-29.7649522515
 20
40.5506216398
 10
-29.629074885
 20
42.2140231256
 10
-29.484453364
 20
43.8824621783
 10
-29.3310917175
 20
45.5558905619
  0
LINE
  5
238
100
AcDbEntity
  8
RACCORDO
100
AcDbLine
 62
7
  6
CONTINUOUS
 10
-28.7673568279
 20
-11.5696906061
 11
-28.7645515268
 21
-11.5966714257
  0
LINE
  5
239
100
AcDbEntity
  8
RACCORDO
100
AcDbLine
 62
7
  6
CONTINUOUS
 10
-28.764551523
 20
45.1693756215
 11
-28.7673568279
 21
45.1384271106
  0
LWPOLYLINE
  5
23A
100
AcDbEntity
  8
RACCORDO
100
AcDbPolyline
 62
250
  6
CONTINUOUS
 90
37
 70
0
 10
-28.7645513857
 20
45.1693755244
 10
-28.7622180612
 20
45.1906298832
 10
-28.7591081332
 20
45.2123362913
 10
-28.7552264369
 20
45.2344600919
 10
-28.7505790866
 20
45.2569662639
 10
-28.7451733483
 20
45.2798185797
 10
-28.739017709
 20
45.3029796283
 10
-28.7321220967
 20
45.3264121952
 10
-28.7244974376
 20
45.3500790535
 10
-28.7161555819
 20
45.3739421007
 10
-28.7071045954
 20
45.3979594866
 10
-28.6973642553
 20
45.4220965967
 10
-28.6869656886
 20
45.4463258098
 10
-28.6759345421
 20
45.4706147903
 10
-28.6642796144
 20
45.4949184822
 10
-28.652008356
 20
45.5191900912
 10
-28.6391371848
 20
45.5433885662
 10
-28.6256902338
 20
45.5674777552
 10
-28.6116879857
 20
45.5914183998
 10
-28.597153067
 20
45.6151724085
 10
-28.5821089228
 20
45.6387019705
 10
-28.5665785651
 20
45.6619687118
 10
-28.550587104
 20
45.6849356459
 10
-28.5341603576
 20
45.7075662508
 10
-28.517323526
 20
45.7298235823
 10
-28.5001038408
 20
45.7516722912
 10
-28.4825291214
 20
45.7730776698
 10
-28.4646263836
 20
45.7940047273
 10
-28.4464245884
 20
45.8144202605
 10
-28.4279531558
 20
45.8342918746
 10
-28.4092405202
 20
45.853587028
 10
-28.3903169548
 20
45.8722751401
 10
-28.3712130573
 20
45.890326595
 10
-28.351958263
 20
45.9077117595
 10
-28.3325832289
 20
45.9244027648
 10
-28.3131197837
 20
45.9403735498
 10
-28.2935994121
 20
45.9555988593
  0
LWPOLYLINE
  5
23B
100
AcDbEntity
  8
ASSI
100
AcDbPolyline
 62
7
  6
CONTINUOUS
 90
3
 70
0
 10
-26.577910024
 20
24.4447175315
 10
-26.5427487008
 20
24.4580278593
 10
-26.4949989586
 20
24.4773114823
  0
LINE
  5
23C
100
AcDbEntity
  8
RACCORDO
100
AcDbLine
 62
7
  6
CONTINUOUS
 10
-29.3128490659
 20
-11.2354245455
 11
-29.3189860861
 21
-11.2268164387
  0
LINE
  5
23D
100
AcDbEntity
  8
RACCORDO
100
AcDbLine
 62
7
  6
CONTINUOUS
 10
-29.3189860861
 20
-11.2268164387
 11
-29.3250669774
 21
-11.2181599232
  0
LINE
  5
23E
100
AcDbEntity
  8
RACCORDO
100
AcDbLine
 62
7
  6
CONTINUOUS
 10
-29.3250669774
 20
-11.2181599232
 11
-29.3310916954
 21
-11.2094556006
  0
LWPOLYLINE
  5
23F
100
AcDbEntity
  8
RACCORDO
100
AcDbPolyline
 62
250
  6
CONTINUOUS
 90
11
 70
0
 10
-28.7645513857
 20
-11.5966715255
 10
-28.7623362387
 20
-11.6146316892
 10
-28.759344591
 20
-11.6319261411
 10
-28.7555812743
 20
-11.6485270658
 10
-28.7510523991
 20
-11.6644078469
 10
-28.7457652279
 20
-11.6795427805
 10
-28.7397282449
 20
-11.6939071963
 10
-28.7329513717
 20
-11.707477831
 10
-28.7254455331
 20
-11.7202330032
 10
-28.7172225847
 20
-11.7321523813
 10
-28.7083012557
 20
-11.7432129253
  0
LINE
  5
240
100
AcDbEntity
  8
RACCORDO
100
AcDbLine
 62
250
  6
CONTINUOUS
 10
-29.1730047317
 20
44.8263765098
 11
-29.1664339121
 21
44.7601639069
  0
LINE
  5
241
100
AcDbEntity
  8
RACCORDO
100
AcDbLine
 62
250
  6
CONTINUOUS
 10
-29.1664339121
 20
44.7601639069
 11
-29.1596519656
 21
44.6881942416
  0
LINE
  5
242
100
AcDbEntity
  8
RACCORDO
100
AcDbLine
 62
250
  6
CONTINUOUS
 10
-29.1596519656
 20
44.6881942416
 11
-29.1526458362
 21
44.6098268977
  0
LINE
  5
243
100
AcDbEntity
  8
RACCORDO
100
AcDbLine
 62
250
  6
CONTINUOUS
 10
-29.1526458362
 20
44.6098268977
 11
-29.141678341
 21
44.478605209
  0
LWPOLYLINE
  5
244
100
AcDbEntity
  8
RACCORDO
100
AcDbPolyline
 62
250
  6
CONTINUOUS
 90
34
 70
0
 10
-28.9153531662
 20
-5.426023398
 10
-29.0178419904
 20
-4.1485672421
 10
-29.1139323692
 20
-2.8665034701
 10
-29.2036243024
 20
-1.5798320819
 10
-29.2869195362
 20
-0.2885242057
 10
-29.3638163245
 20
1.0073912866
 10
-29.4343094289
 20
2.3078277791
 10
-29.4983983141
 20
3.6127840348
 10
-29.5560835154
 20
4.9222612907
 10
-29.6073613999
 20
6.2361766411
 10
-29.6522315625
 20
7.5545303355
 10
-29.6906944083
 20
8.8773221246
 10
-29.7227475206
 20
10.2044683546
 10
-29.7483904971
 20
11.5359693071
 10
-29.7676237399
 20
12.8718247007
 10
-29.7804460387
 20
14.2119500369
 10
-29.7868569897
 20
15.5563455844
 10
-29.7868569967
 20
16.9050110747
 10
-29.7804460599
 20
18.2578612041
 10
-29.7676237758
 20
19.6148962363
 10
-29.7483905478
 20
20.9761159076
 10
-29.722747587
 20
22.3414341241
 10
-29.690694491
 20
23.7108511427
 10
-29.6522316622
 20
25.0843667065
 10
-29.6073615193
 20
26.4618939495
 10
-29.5560836593
 20
27.8434331118
 10
-29.4983984853
 20
29.2289839535
 10
-29.4343096246
 20
30.6184588885
 10
-29.3638165504
 20
32.0118597727
 10
-29.2869197897
 20
33.4091847502
 10
-29.2036245501
 20
34.8103406677
 10
-29.1139325676
 20
36.2152964743
 10
-29.0178421063
 20
37.6240832209
 10
-28.9153531662
 20
39.0367009075
  0
LINE
  5
245
100
AcDbEntity
  8
RACCORDO
100
AcDbLine
 62
250
  6
CONTINUOUS
 10
-29.141678341
 20
44.478605209
 11
-29.130146725
 21
44.3291363856
  0
LWPOLYLINE
  5
246
100
AcDbEntity
  8
RACCORDO
100
AcDbPolyline
 62
250
  6
CONTINUOUS
 90
14
 70
0
 10
-27.8102600522
 20
23.5953828203
 10
-27.8091292944
 20
23.5798868681
 10
-27.8087765748
 20
23.5650141757
 10
-27.8092026955
 20
23.550798565
 10
-27.8104066876
 20
23.5372723637
 10
-27.8123858131
 20
23.5244663318
 10
-27.8151355711
 20
23.5124095916
 10
-27.8186497084
 20
23.5011295612
 10
-27.8229202337
 20
23.4906518927
 10
-27.8279374351
 20
23.4810004132
 10
-27.8336899032
 20
23.4721970713
 10
-27.8401645563
 20
23.4642618866
 10
-27.8473466702
 20
23.4572129046
 10
-27.8528214244
 20
23.4527885097
  0
LINE
  5
247
100
AcDbEntity
  8
RACCORDO
100
AcDbLine
 62
250
  6
CONTINUOUS
 10
-29.130146725
 20
44.3291363856
 11
-29.1180380798
 21
44.1591140913
  0
LINE
  5
248
100
AcDbEntity
  8
RACCORDO
100
AcDbLine
 62
250
  6
CONTINUOUS
 10
-29.1180380798
 20
44.1591140913
 11
-29.105304823
 21
43.9654992039
  0
LINE
  5
249
100
AcDbEntity
  8
RACCORDO
100
AcDbLine
 62
250
  6
CONTINUOUS
 10
-29.105304823
 20
43.9654992039
 11
-29.0918867996
 21
43.7447313752
  0
LINE
  5
24A
100
AcDbEntity
  8
RACCORDO
100
AcDbLine
 62
250
  6
CONTINUOUS
 10
-29.0918867996
 20
43.7447313752
 11
-29.0825105219
 21
43.5800164125
  0
LINE
  5
24B
100
AcDbEntity
  8
RACCORDO
100
AcDbLine
 62
250
  6
CONTINUOUS
 10
-29.0825105219
 20
43.5800164125
 11
-29.0727724799
 21
43.4001542562
  0
LINE
  5
24C
100
AcDbEntity
  8
RACCORDO
100
AcDbLine
 62
250
  6
CONTINUOUS
 10
-29.0727724799
 20
43.4001542562
 11
-29.0626796445
 21
43.2039392702
  0
LINE
  5
24D
100
AcDbEntity
  8
RACCORDO
100
AcDbLine
 62
250
  6
CONTINUOUS
 10
-29.0626796445
 20
43.2039392702
 11
-29.052384227
 21
42.993735351
  0
LINE
  5
24E
100
AcDbEntity
  8
RACCORDO
100
AcDbLine
 62
250
  6
CONTINUOUS
 10
-29.052384227
 20
42.993735351
 11
-29.0419780134
 21
42.7710415058
  0
LINE
  5
24F
100
AcDbEntity
  8
RACCORDO
100
AcDbLine
 62
250
  6
CONTINUOUS
 10
-29.0419780134
 20
42.7710415058
 11
-29.0264382306
 21
42.4192413587
  0
LINE
  5
250
100
AcDbEntity
  8
RACCORDO
100
AcDbLine
 62
250
  6
CONTINUOUS
 10
-29.0264382306
 20
42.4192413587
 11
-29.0111067489
 21
42.0496773074
  0
LINE
  5
251
100
AcDbEntity
  8
RACCORDO
100
AcDbLine
 62
250
  6
CONTINUOUS
 10
-29.0111067489
 20
42.0496773074
 11
-28.9961706628
 21
41.667746837
  0
LINE
  5
252
100
AcDbEntity
  8
RACCORDO
100
AcDbLine
 62
250
  6
CONTINUOUS
 10
-28.9961706628
 20
41.667746837
 11
-28.9818042348
 21
41.2788388153
  0
LINE
  5
253
100
AcDbEntity
  8
RACCORDO
100
AcDbLine
 62
250
  6
CONTINUOUS
 10
-28.9818042348
 20
41.2788388153
 11
-28.9681665344
 21
40.8879711826
  0
LINE
  5
254
100
AcDbEntity
  8
RACCORDO
100
AcDbLine
 62
250
  6
CONTINUOUS
 10
-28.9681665344
 20
40.8879711826
 11
-28.9554002984
 21
40.4995651567
  0
LINE
  5
255
100
AcDbEntity
  8
RACCORDO
100
AcDbLine
 62
250
  6
CONTINUOUS
 10
-28.9554002984
 20
40.4995651567
 11
-28.9436328575
 21
40.1173936772
  0
LINE
  5
256
100
AcDbEntity
  8
RACCORDO
100
AcDbLine
 62
250
  6
CONTINUOUS
 10
-28.9436328575
 20
40.1173936772
 11
-28.9329756716
 21
39.744585748
  0
LINE
  5
257
100
AcDbEntity
  8
RACCORDO
100
AcDbLine
 62
250
  6
CONTINUOUS
 10
-28.9329756716
 20
39.744585748
 11
-28.9235236019
 21
39.3836844258
  0
LINE
  5
258
100
AcDbEntity
  8
RACCORDO
100
AcDbLine
 62
250
  6
CONTINUOUS
 10
-28.9235236019
 20
39.3836844258
 11
-28.9153531655
 21
39.0367009026
  0
LWPOLYLINE
  5
259
100
AcDbEntity
  8
RACCORDO
100
AcDbPolyline
 62
7
  6
CONTINUOUS
 90
18
 70
0
 10
-26.5025355683
 20
12.3915827853
 10
-26.502558671
 20
12.3963885751
 10
-26.5032370224
 20
12.4180577921
 10
-26.5048561046
 20
12.4396981239
 10
-26.5074158082
 20
12.4612701463
 10
-26.510917028
 20
12.482747947
 10
-26.515359338
 20
12.5040957507
 10
-26.520738041
 20
12.5252650979
 10
-26.5270464033
 20
12.5462108664
 10
-26.5342747601
 20
12.5668870261
 10
-26.5424143291
 20
12.5872564391
 10
-26.551457669
 20
12.6072872941
 10
-26.5613944203
 20
12.62694244
 10
-26.5722081281
 20
12.6461764764
 10
-26.5838800803
 20
12.6649455666
 10
-26.5963897346
 20
12.6832078267
 10
-26.6097176688
 20
12.7009267309
 10
-26.6216829247
 20
12.715445248
  0
LINE
  5
25A
100
AcDbEntity
  8
RACCORDO
100
AcDbLine
 62
250
  6
CONTINUOUS
 10
-28.3446752247
 20
11.6838104009
 11
-28.3446752247
 21
22.6794631858
  0
LINE
  5
25B
100
AcDbEntity
  8
RACCORDO
100
AcDbLine
 62
7
  6
CONTINUOUS
 10
-28.1856744048
 20
11.9423829818
 11
-28.1856744048
 21
22.9380357668
  0
LINE
  5
25C
100
AcDbEntity
  8
ASSI
100
AcDbLine
 62
7
  6
CONTINUOUS
 10
-27.6970804866
 20
23.1273114823
 11
-27.6970804866
 21
11.9550243395
  0
LINE
  5
25D
100
AcDbEntity
  8
RACCORDO
100
AcDbLine
 62
250
  6
CONTINUOUS
 10
-26.6615363883
 20
2.5397051122
 11
-26.6615363883
 21
12.1330095237
  0
LINE
  5
25E
100
AcDbEntity
  8
RACCORDO
100
AcDbLine
 62
250
  6
CONTINUOUS
 10
-26.6615363883
 20
24.4499462932
 11
-26.6615363883
 21
33.6286606421
  0
LINE
  5
25F
100
AcDbEntity
  8
RACCORDO
100
AcDbLine
 62
7
  6
CONTINUOUS
 10
-26.5025355683
 20
2.7982774988
 11
-26.5025355683
 21
12.3915821046
  0
LINE
  5
260
100
AcDbEntity
  8
RACCORDO
100
AcDbLine
 62
7
  6
CONTINUOUS
 10
-26.5025355683
 20
24.7085188741
 11
-26.5025355683
 21
33.5162300841
  0
LINE
  5
261
100
AcDbEntity
  8
ASSI
100
AcDbLine
 62
7
  6
CONTINUOUS
 10
-26.141445568
 20
24.2273114823
 11
-26.141445568
 21
13.0550243395
  0
LWPOLYLINE
  5
262
100
AcDbEntity
  8
RACCORDO
100
AcDbPolyline
 62
7
  6
CONTINUOUS
 90
22
 70
0
 10
-26.5025355686
 20
24.7085298451
 10
-26.5026428284
 20
24.6981627873
 10
-26.5036229082
 20
24.6755619723
 10
-26.5056261049
 20
24.6530122514
 10
-26.5086536269
 20
24.6305404931
 10
-26.5127050568
 20
24.6081890685
 10
-26.5177752549
 20
24.5860140231
 10
-26.5238577834
 20
24.5640627276
 10
-26.5309416678
 20
24.5423888257
 10
-26.5390166724
 20
24.5210349199
 10
-26.548076293
 20
24.5000320229
 10
-26.5581082971
 20
24.4794241327
 10
-26.5690944497
 20
24.4592623864
 10
-26.5810184922
 20
24.4395888561
 10
-26.593860891
 20
24.4204476883
 10
-26.6075970336
 20
24.4018862703
 10
-26.6221997741
 20
24.3839504166
 10
-26.6376389442
 20
24.3666849178
 10
-26.6538851822
 20
24.3501295493
 10
-26.6709092786
 20
24.3343210601
 10
-26.6886785639
 20
24.3192968542
 10
-26.7041031358
 20
24.3073479841
  0
LWPOLYLINE
  5
263
100
AcDbEntity
  8
RACCORDO
100
AcDbPolyline
 62
250
  6
CONTINUOUS
 90
20
 70
0
 10
-26.5025355683
 20
12.3915821046
 10
-26.5026126
 20
12.3853762304
 10
-26.503501284
 20
12.3696186911
 10
-26.5053828237
 20
12.3539048668
 10
-26.5082534649
 20
12.3382660554
 10
-26.5121074759
 20
12.3227334076
 10
-26.5169371851
 20
12.3073377866
 10
-26.5227330061
 20
12.2921097434
 10
-26.5294834858
 20
12.2770794253
 10
-26.5371751451
 20
12.2622768911
 10
-26.5457924584
 20
12.2477319542
 10
-26.555318058
 20
12.2334737581
 10
-26.5657330622
 20
12.2195304109
 10
-26.5770169604
 20
12.2059293181
 10
-26.5891490924
 20
12.1926956779
 10
-26.6021037712
 20
12.1798577841
 10
-26.6158495016
 20
12.1674461126
 10
-26.6303559975
 20
12.1554863962
 10
-26.6455953332
 20
12.1440001298
 10
-26.6615363883
 20
12.1330095237
  0
LWPOLYLINE
  5
264
100
AcDbEntity
  8
RACCORDO
100
AcDbPolyline
 62
7
  6
CONTINUOUS
 90
48
 70
0
 10
-28.1856745235
 20
22.9380432459
 10
-28.1856557764
 20
22.9394790837
 10
-28.1855710271
 20
22.941732793
 10
-28.1853852071
 20
22.9447005961
 10
-28.1850656279
 20
22.94836657
 10
-28.1845808076
 20
22.9527234655
 10
-28.1839000119
 20
22.9577678691
 10
-28.1829934953
 20
22.9634951389
 10
-28.1818326135
 20
22.9698970957
 10
-28.1803894918
 20
22.9769656787
 10
-28.1786354657
 20
22.9846997915
 10
-28.1765438285
 20
22.9930914303
 10
-28.174090136
 20
23.0021252965
 10
-28.1712493305
 20
23.0117902935
 10
-28.1679961511
 20
23.0220779061
 10
-28.1643114714
 20
23.0329631072
 10
-28.1601823348
 20
23.0444073842
 10
-28.155590154
 20
23.0563918326
 10
-28.1505218353
 20
23.0688865201
 10
-28.1449792131
 20
23.0818317131
 10
-28.138954267
 20
23.0951967181
 10
-28.1324404104
 20
23.1089500082
 10
-28.1254494781
 20
23.1230272602
 10
-28.1179821316
 20
23.1373937482
 10
-28.1100404794
 20
23.1520133167
 10
-28.1016463119
 20
23.1668186579
 10
-28.0928077236
 20
23.1817736394
 10
-28.0835362167
 20
23.1968387517
 10
-28.0738657463
 20
23.2119417985
 10
-28.0638128814
 20
23.227044645
 10
-28.0533965988
 20
23.2421090054
 10
-28.0426606863
 20
23.2570639629
 10
-28.0316286726
 20
23.2718725928
 10
-28.0203259416
 20
23.2864991103
 10
-28.0088043264
 20
23.3008774942
 10
-27.9970922951
 20
23.3149751722
 10
-27.9852204448
 20
23.3287602566
 10
-27.973247881
 20
23.3421725292
 10
-27.9612061156
 20
23.3551866155
 10
-27.9491294932
 20
23.3677763529
 10
-27.9370843625
 20
23.3798871496
 10
-27.9251050844
 20
23.391501455
 10
-27.9132264689
 20
23.4026024085
 10
-27.9015175616
 20
23.4131455575
 10
-27.890012006
 20
23.4231236585
 10
-27.8787435259
 20
23.4325305396
 10
-27.8677807696
 20
23.4413341083
 10
-27.8571664
 20
23.4495285332
  0
LWPOLYLINE
  5
265
100
AcDbEntity
  8
RACCORDO
100
AcDbPolyline
 62
250
  6
CONTINUOUS
 90
40
 70
0
 10
-28.3446752247
 20
22.6794631858
 10
-28.344273178
 20
22.7009543089
 10
-28.3430355913
 20
22.722972701
 10
-28.3409624647
 20
22.7455183622
 10
-28.3380544485
 20
22.7686272962
 10
-28.3343108924
 20
22.7922634992
 10
-28.3297298454
 20
22.8163189602
 10
-28.3243003267
 20
22.8408105188
 10
-28.318033317
 20
22.8657213353
 10
-28.3109598075
 20
22.8908928798
 10
-28.3030737643
 20
22.9163188176
 10
-28.2943812213
 20
22.9420054836
 10
-28.2849312708
 20
22.9678133521
 10
-28.2747221277
 20
22.9937347002
 10
-28.2637555773
 20
23.019777251
 10
-28.2520860676
 20
23.0458246479
 10
-28.2397141452
 20
23.071870599
 10
-28.2266392637
 20
23.0979213961
 10
-28.2129142317
 20
23.1238795581
 10
-28.1985377206
 20
23.1497449058
 10
-28.1835110591
 20
23.1755176183
 10
-28.1678910417
 20
23.2011007516
 10
-28.151676246
 20
23.2264941727
 10
-28.1348680945
 20
23.2516980146
 10
-28.1175276485
 20
23.2766157318
 10
-28.0996512937
 20
23.3012495236
 10
-28.0812426445
 20
23.3255971907
 10
-28.0623736054
 20
23.3495555903
 10
-28.0430345261
 20
23.3731313697
 10
-28.0232350571
 20
23.3963178817
 10
-28.0030760539
 20
23.418992041
 10
-27.9825496726
 20
23.4411542258
 10
-27.9616637572
 20
23.4628040578
 10
-27.9405426958
 20
23.483817318
 10
-27.9191859877
 20
23.5041858445
 10
-27.8975941336
 20
23.5239177991
 10
-27.8758930239
 20
23.5429134475
 10
-27.8541246222
 20
23.5611395447
 10
-27.832246965
 20
23.5786293356
 10
-27.8102600522
 20
23.5953828203
  0
LINE
  5
266
100
AcDbEntity
  8
RACCORDO
100
AcDbLine
 62
250
  6
CONTINUOUS
 10
-28.9153531655
 20
-5.4260233922
 11
-28.9206518654
 21
-5.6614162001
  0
LINE
  5
267
100
AcDbEntity
  8
RACCORDO
100
AcDbLine
 62
250
  6
CONTINUOUS
 10
-28.9206518654
 20
-5.6614162001
 11
-28.9265356643
 21
-5.9010000195
  0
LINE
  5
268
100
AcDbEntity
  8
RACCORDO
100
AcDbLine
 62
250
  6
CONTINUOUS
 10
-28.9265356643
 20
-5.9010000195
 11
-28.9329756709
 21
-6.1444757651
  0
LINE
  5
269
100
AcDbEntity
  8
RACCORDO
100
AcDbLine
 62
250
  6
CONTINUOUS
 10
-28.9329756709
 20
-6.1444757651
 11
-28.9436328564
 21
-6.5151645288
  0
LINE
  5
26A
100
AcDbEntity
  8
RACCORDO
100
AcDbLine
 62
250
  6
CONTINUOUS
 10
-28.9436328564
 20
-6.5151645288
 11
-28.9554002968
 21
-6.8899820508
  0
LINE
  5
26B
100
AcDbEntity
  8
RACCORDO
100
AcDbLine
 62
250
  6
CONTINUOUS
 10
-28.9554002968
 20
-6.8899820508
 11
-28.9681665324
 21
-7.2657229107
  0
LINE
  5
26C
100
AcDbEntity
  8
RACCORDO
100
AcDbLine
 62
250
  6
CONTINUOUS
 10
-28.9681665324
 20
-7.2657229107
 11
-28.9818042295
 21
-7.6386918629
  0
LINE
  5
26D
100
AcDbEntity
  8
RACCORDO
100
AcDbLine
 62
250
  6
CONTINUOUS
 10
-28.9818042295
 20
-7.6386918629
 11
-28.9961706667
 21
-8.0047300158
  0
LINE
  5
26E
100
AcDbEntity
  8
RACCORDO
100
AcDbLine
 62
250
  6
CONTINUOUS
 10
-28.9961706667
 20
-8.0047300158
 11
-29.0060753739
 21
-8.2427306212
  0
LINE
  5
26F
100
AcDbEntity
  8
RACCORDO
100
AcDbLine
 62
250
  6
CONTINUOUS
 10
-29.0060753739
 20
-8.2427306212
 11
-29.0161833547
 21
-8.4740492781
  0
LINE
  5
270
100
AcDbEntity
  8
RACCORDO
100
AcDbLine
 62
250
  6
CONTINUOUS
 10
-29.0161833547
 20
-8.4740492781
 11
-29.0264382255
 21
-8.6976729242
  0
LINE
  5
271
100
AcDbEntity
  8
RACCORDO
100
AcDbLine
 62
250
  6
CONTINUOUS
 10
-29.0264382255
 20
-8.6976729242
 11
-29.0367871046
 21
-8.9120351211
  0
LINE
  5
272
100
AcDbEntity
  8
RACCORDO
100
AcDbLine
 62
250
  6
CONTINUOUS
 10
-29.0367871046
 20
-8.9120351211
 11
-29.0471818359
 21
-9.1160936618
  0
LINE
  5
273
100
AcDbEntity
  8
RACCORDO
100
AcDbLine
 62
250
  6
CONTINUOUS
 10
-29.0471818359
 20
-9.1160936618
 11
-29.0575498871
 21
-9.3087991415
  0
LINE
  5
274
100
AcDbEntity
  8
RACCORDO
100
AcDbLine
 62
250
  6
CONTINUOUS
 10
-29.0575498871
 20
-9.3087991415
 11
-29.0677679647
 21
-9.4878980118
  0
LINE
  5
275
100
AcDbEntity
  8
RACCORDO
100
AcDbLine
 62
250
  6
CONTINUOUS
 10
-29.0677679647
 20
-9.4878980118
 11
-29.0776829265
 21
-9.6519011421
  0
LWPOLYLINE
  5
276
100
AcDbEntity
  8
RACCORDO
100
AcDbPolyline
 62
250
  6
CONTINUOUS
 90
34
 70
0
 10
-27.8102600522
 20
11.4726643931
 10
-27.8091292931
 20
11.4907509471
 10
-27.8087765749
 20
11.5093843908
 10
-27.8092026997
 20
11.5285223497
 10
-27.810406698
 20
11.5481213019
 10
-27.8123858318
 20
11.5681366771
 10
-27.8151355998
 20
11.5885229577
 10
-27.8186497487
 20
11.6092337829
 10
-27.8229202866
 20
11.630222054
 10
-27.8279375016
 20
11.6514400411
 10
-27.8336899835
 20
11.6728394922
 10
-27.8401646506
 20
11.6943717426
 10
-27.8473467783
 20
11.7159878256
 10
-27.8552200334
 20
11.7376385838
 10
-27.8637665112
 20
11.7592747813
 10
-27.8729667758
 20
11.7808472151
 10
-27.8827999045
 20
11.8023068273
 10
-27.8932435356
 20
11.8236048166
 10
-27.9042739191
 20
11.8446927495
 10
-27.9158659706
 20
11.8655226701
 10
-27.9279933284
 20
11.886047209
 10
-27.9406284136
 20
11.9062196918
 10
-27.9537424926
 20
11.9259942446
 10
-27.9673057427
 20
11.945325898
 10
-27.9812873198
 20
11.9641706906
 10
-27.9956554283
 20
11.9824857676
 10
-28.0103773936
 20
12.000229479
 10
-28.0254197369
 20
12.0173614743
 10
-28.0407482504
 20
12.0338427939
 10
-28.0563280756
 20
12.0496359578
 10
-28.0721237828
 20
12.0647050515
 10
-28.0880994512
 20
12.0790158065
 10
-28.1042187505
 20
12.0925356788
 10
-28.1204450239
 20
12.1052339229
  0
LWPOLYLINE
  5
277
100
AcDbEntity
  8
RACCORDO
100
AcDbPolyline
 62
250
  6
CONTINUOUS
 90
25
 70
0
 10
-26.6615363883
 20
12.1330095237
 10
-26.6604701673
 20
12.1495673711
 10
-26.6600576111
 20
12.166587693
 10
-26.6602995079
 20
12.1840379645
 10
-26.6611953955
 20
12.2018848393
 10
-26.6627435621
 20
12.2200942133
 10
-26.664941049
 20
12.2386312895
 10
-26.667783657
 20
12.2574606447
 10
-26.6712659542
 20
12.2765462973
 10
-26.6753812861
 20
12.2958517758
 10
-26.6801217885
 20
12.3153401888
 10
-26.6854784026
 20
12.3349742951
 10
-26.6914408924
 20
12.3547165753
 10
-26.6979978638
 20
12.374529303
 10
-26.7051367869
 20
12.3943746176
 10
-26.7128440198
 20
12.4142145959
 10
-26.7211048343
 20
12.4340113249
 10
-26.7299034447
 20
12.4537269745
 10
-26.7392230373
 20
12.4733238692
 10
-26.7490458031
 20
12.4927645608
 10
-26.7593529712
 20
12.5120118993
 10
-26.7701248455
 20
12.5310291043
 10
-26.7813408415
 20
12.5497798351
 10
-26.7929795263
 20
12.5682282604
 10
-26.8047781735
 20
12.585977356
  0
LINE
  5
278
100
AcDbEntity
  8
RACCORDO
100
AcDbLine
 62
250
  6
CONTINUOUS
 10
-29.0776829265
 20
-9.6519011421
 11
-29.0872463955
 21
-9.8007126776
  0
LINE
  5
279
100
AcDbEntity
  8
RACCORDO
100
AcDbLine
 62
250
  6
CONTINUOUS
 10
-29.0872463955
 20
-9.8007126776
 11
-29.096439064
 21
-9.9353192994
  0
LINE
  5
27A
100
AcDbEntity
  8
RACCORDO
100
AcDbLine
 62
250
  6
CONTINUOUS
 10
-29.096439064
 20
-9.9353192994
 11
-29.1053048176
 21
-10.0575548519
  0
LINE
  5
27B
100
AcDbEntity
  8
RACCORDO
100
AcDbLine
 62
250
  6
CONTINUOUS
 10
-29.1053048176
 20
-10.0575548519
 11
-29.1138661384
 21
-10.16840982
  0
LINE
  5
27C
100
AcDbEntity
  8
RACCORDO
100
AcDbLine
 62
250
  6
CONTINUOUS
 10
-29.1138661384
 20
-10.16840982
 11
-29.1221405373
 21
-10.2691228121
  0
LINE
  5
27D
100
AcDbEntity
  8
RACCORDO
100
AcDbLine
 62
250
  6
CONTINUOUS
 10
-29.1221405373
 20
-10.2691228121
 11
-29.1301467192
 21
-10.3607681985
  0
LINE
  5
27E
100
AcDbEntity
  8
RACCORDO
100
AcDbLine
 62
250
  6
CONTINUOUS
 10
-29.1301467192
 20
-10.3607681985
 11
-29.1378978119
 21
-10.4439996273
  0
LINE
  5
27F
100
AcDbEntity
  8
RACCORDO
100
AcDbLine
 62
250
  6
CONTINUOUS
 10
-29.1378978119
 20
-10.4439996273
 11
-29.1453981482
 21
-10.5196324884
  0
LINE
  5
280
100
AcDbEntity
  8
RACCORDO
100
AcDbLine
 62
250
  6
CONTINUOUS
 10
-29.1453981482
 20
-10.5196324884
 11
-29.1526458305
 21
-10.5883300237
  0
LINE
  5
281
100
AcDbEntity
  8
RACCORDO
100
AcDbLine
 62
250
  6
CONTINUOUS
 10
-29.1526458305
 20
-10.5883300237
 11
-29.1596519598
 21
-10.650586013
  0
LINE
  5
282
100
AcDbEntity
  8
RACCORDO
100
AcDbLine
 62
250
  6
CONTINUOUS
 10
-27.960443317
 20
-5.6226538521
 11
-27.9750262653
 21
-5.7484452096
  0
LWPOLYLINE
  5
283
100
AcDbEntity
  8
RACCORDO
100
AcDbPolyline
 62
250
  6
CONTINUOUS
 90
3
 70
0
 10
-27.9750262653
 20
-5.7484452096
 10
-28.0055272154
 20
-6.0027181449
 10
-28.0214304869
 20
-6.1311900847
  0
LINE
  5
284
100
AcDbEntity
  8
RACCORDO
100
AcDbLine
 62
250
  6
CONTINUOUS
 10
-29.1596519598
 20
-10.650586013
 11
-29.1664339063
 21
-10.7071744142
  0
LINE
  5
285
100
AcDbEntity
  8
RACCORDO
100
AcDbLine
 62
250
  6
CONTINUOUS
 10
-28.0214304869
 20
-6.1311900847
 11
-28.0544747092
 21
-6.3898932611
  0
LINE
  5
286
100
AcDbEntity
  8
RACCORDO
100
AcDbLine
 62
250
  6
CONTINUOUS
 10
-29.1664339063
 20
-10.7071744142
 11
-29.1730047258
 21
-10.7586882955
  0
LINE
  5
287
100
AcDbEntity
  8
RACCORDO
100
AcDbLine
 62
250
  6
CONTINUOUS
 10
-28.0544747092
 20
-6.3898932611
 11
-28.0891020746
 21
-6.6505881308
  0
LWPOLYLINE
  5
288
100
AcDbEntity
  8
RACCORDO
100
AcDbPolyline
 62
250
  6
CONTINUOUS
 90
11
 70
0
 10
-28.6527612356
 20
-3.3305790919
 10
-28.6765103058
 20
-3.5034158456
 10
-28.7008585664
 20
-3.6833914383
 10
-28.7258048055
 20
-3.8706376703
 10
-28.7513728784
 20
-4.0666756013
 10
-28.7776646027
 20
-4.2721806809
 10
-28.8045781609
 20
-4.4864774597
 10
-28.8318319561
 20
-4.7090606495
 10
-28.8593321225
 20
-4.9397618212
 10
-28.8871725259
 20
-5.178749404
 10
-28.9153531662
 20
-5.426023398
  0
LWPOLYLINE
  5
289
100
AcDbEntity
  8
RACCORDO
100
AcDbPolyline
 62
250
  6
CONTINUOUS
 90
11
 70
0
 10
-27.6856561556
 20
-3.4184976708
 10
-27.7092518249
 20
-3.5900100437
 10
-27.7334259245
 20
-3.7685962169
 10
-27.758144937
 20
-3.9543684739
 10
-27.7835561126
 20
-4.1489088519
 10
-27.8096737538
 20
-4.3528355296
 10
-27.8363366596
 20
-4.5654433996
 10
-27.8634151655
 20
-4.7863212079
 10
-27.8908153922
 20
-5.0153009885
 10
-27.9184757287
 20
-5.2524559927
 10
-27.960443317
 20
-5.6226538521
  0
LWPOLYLINE
  5
28A
100
AcDbEntity
  8
RACCORDO
100
AcDbPolyline
 62
250
  6
CONTINUOUS
 90
3
 70
0
 10
-29.1730047258
 20
-10.7586882955
 10
-29.1793738469
 20
-10.805492808
 10
-29.1824826994
 20
-10.8272993475
  0
LWPOLYLINE
  5
28B
100
AcDbEntity
  8
RACCORDO
100
AcDbPolyline
 62
250
  6
CONTINUOUS
 90
3
 70
0
 10
-28.0891020746
 20
-6.6505881308
 10
-28.1252022314
 20
-6.9123014274
 10
-28.143748524
 20
-7.0431451548
  0
LINE
  5
28C
100
AcDbEntity
  8
RACCORDO
100
AcDbLine
 62
250
  6
CONTINUOUS
 10
-28.6070295391
 20
-3.0055918431
 11
-28.6527612356
 21
-3.3305790919
  0
LINE
  5
28D
100
AcDbEntity
  8
RACCORDO
100
AcDbLine
 62
250
  6
CONTINUOUS
 10
-27.640289204
 20
-3.0960409391
 11
-27.6856561556
 21
-3.4184976708
  0
LINE
  5
28E
100
AcDbEntity
  8
RACCORDO
100
AcDbLine
 62
250
  6
CONTINUOUS
 10
-27.5971725868
 20
-2.7978104904
 11
-27.640289204
 21
-3.0960409391
  0
LINE
  5
28F
100
AcDbEntity
  8
RACCORDO
100
AcDbLine
 62
250
  6
CONTINUOUS
 10
-28.5635838639
 20
-2.7050309712
 11
-28.6070295391
 21
-3.0055918431
  0
LWPOLYLINE
  5
290
100
AcDbEntity
  8
RACCORDO
100
AcDbPolyline
 62
250
  6
CONTINUOUS
 90
4
 70
0
 10
-28.143748524
 20
-7.0431451548
 10
-28.1817926119
 20
-7.3044602708
 10
-28.2012207956
 20
-7.4344800739
 10
-28.2209070753
 20
-7.5639485788
  0
LINE
  5
291
100
AcDbEntity
  8
RACCORDO
100
AcDbLine
 62
250
  6
CONTINUOUS
 10
-28.5223200495
 20
-2.4263067044
 11
-28.5635838639
 21
-2.7050309712
  0
LINE
  5
292
100
AcDbEntity
  8
RACCORDO
100
AcDbLine
 62
250
  6
CONTINUOUS
 10
-27.5561985292
 20
-2.5212348263
 11
-27.5971725868
 21
-2.7978104904
  0
LWPOLYLINE
  5
293
100
AcDbEntity
  8
RACCORDO
100
AcDbPolyline
 62
250
  6
CONTINUOUS
 90
71
 70
0
 10
-29.1824826994
 20
-10.8272993475
 10
-29.188554904
 20
-10.867857061
 10
-29.1915186184
 20
-10.8867487688
 10
-29.194436038
 20
-10.9047159954
 10
-29.1973071163
 20
-10.9218767383
 10
-29.2001329246
 20
-10.9382385965
 10
-29.2029147369
 20
-10.9537983534
 10
-29.2056525242
 20
-10.9686572809
 10
-29.2083469968
 20
-10.9828207359
 10
-29.2109995358
 20
-10.9962870465
 10
-29.2136108636
 20
-11.0091465184
 10
-29.2161818421
 20
-11.0214050787
 10
-29.2187134448
 20
-11.0330598742
 10
-29.221206333
 20
-11.0441876815
 10
-29.2236612142
 20
-11.0547932408
 10
-29.2260789998
 20
-11.0648743985
 10
-29.2284604639
 20
-11.0744972979
 10
-29.2308073026
 20
-11.0836694006
 10
-29.2331192354
 20
-11.0923854146
 10
-29.235393953
 20
-11.100692172
 10
-29.2376332105
 20
-11.1085950541
 10
-29.2398365938
 20
-11.1160906307
 10
-29.2419985324
 20
-11.1232124824
 10
-29.2441178521
 20
-11.129956589
 10
-29.2461971135
 20
-11.1363288668
 10
-29.2482363128
 20
-11.1423777372
 10
-29.2502350241
 20
-11.1481037554
 10
-29.2521949032
 20
-11.1535079842
 10
-29.2541189267
 20
-11.1586394237
 10
-29.2560078787
 20
-11.1635021458
 10
-29.2578619931
 20
-11.1680933816
 10
-29.2596832753
 20
-11.1724516915
 10
-29.2614723487
 20
-11.1765800125
 10
-29.2632294622
 20
-11.1804764928
 10
-29.2649559547
 20
-11.1841723828
 10
-29.2666516855
 20
-11.1876688053
 10
-29.2683175613
 20
-11.1909655632
 10
-29.2699563935
 20
-11.1940918112
 10
-29.2715682091
 20
-11.1970491848
 10
-29.273153618
 20
-11.1998368028
 10
-29.2747161971
 20
-11.202479923
 10
-29.2762567808
 20
-11.2049811834
 10
-29.2777750421
 20
-11.2073385399
 10
-29.27927273
 20
-11.2095701329
 10
-29.2807504788
 20
-11.2116776014
 10
-29.2822080907
 20
-11.213659808
 10
-29.2836460197
 20
-11.2155306771
 10
-29.2850643509
 20
-11.2172908459
 10
-29.2864633985
 20
-11.218940125
 10
-29.2878439271
 20
-11.2204911629
 10
-29.2892063667
 20
-11.2219448714
 10
-29.2905506426
 20
-11.2233007293
 10
-29.291876737
 20
-11.2245692082
 10
-29.2931849091
 20
-11.2257508514
 10
-29.2944752312
 20
-11.2268454716
 10
-29.2957473909
 20
-11.2278624281
 10
-29.2970013263
 20
-11.2288019995
 10
-29.2982374139
 20
-11.2296642371
 10
-29.2994559843
 20
-11.2304581428
 10
-29.3006569988
 20
-11.2311841078
 10
-29.3018407836
 20
-11.2318420364
 10
-29.3030081954
 20
-11.2324401775
 10
-29.3041593076
 20
-11.2329790054
 10
-29.3052943019
 20
-11.2334583038
 10
-29.3064141719
 20
-11.2338852612
 10
-29.3075183676
 20
-11.2342602429
 10
-29.3086076667
 20
-11.2345831102
 10
-29.3096850182
 20
-11.2348602611
 10
-29.3107514525
 20
-11.2350938766
 10
-29.3118061066
 20
-11.2352819434
 10
-29.3128490659
 20
-11.2354245456
  0
LINE
  5
294
100
AcDbEntity
  8
RACCORDO
100
AcDbLine
 62
250
  6
CONTINUOUS
 10
-28.4831687428
 20
-2.1678002108
 11
-28.5223200495
 21
-2.4263067044
  0
LINE
  5
295
100
AcDbEntity
  8
RACCORDO
100
AcDbLine
 62
250
  6
CONTINUOUS
 10
-27.5173520798
 20
-2.2647379701
 11
-27.5561985292
 21
-2.5212348263
  0
LINE
  5
296
100
AcDbEntity
  8
RACCORDO
100
AcDbLine
 62
250
  6
CONTINUOUS
 10
-28.4281645352
 20
-1.813263095
 11
-28.4831687428
 21
-2.1678002108
  0
LINE
  5
297
100
AcDbEntity
  8
RACCORDO
100
AcDbLine
 62
250
  6
CONTINUOUS
 10
-27.4627580553
 20
-1.9129471949
 11
-27.5173520798
 21
-2.2647379701
  0
LWPOLYLINE
  5
298
100
AcDbEntity
  8
RACCORDO
100
AcDbPolyline
 62
250
  6
CONTINUOUS
 90
21
 70
0
 10
-28.2209070753
 20
-7.5639485788
 10
-28.2609553414
 20
-7.8206961424
 10
-28.281251013
 20
-7.9475104924
 10
-28.3017266552
 20
-8.073277312
 10
-28.3222880305
 20
-8.1974755566
 10
-28.3429484145
 20
-8.3201139928
 10
-28.3637069166
 20
-8.4411907123
 10
-28.3844544383
 20
-8.5601727331
 10
-28.40520564
 20
-8.6770573854
 10
-28.425964337
 20
-8.7918582457
 10
-28.446611335
 20
-8.9040706898
 10
-28.4671587372
 20
-9.0136664413
 10
-28.4876181554
 20
-9.1206882773
 10
-28.5078748017
 20
-9.2247415264
 10
-28.527970545
 20
-9.3259254223
 10
-28.547889937
 20
-9.4241572459
 10
-28.5674378619
 20
-9.5187731329
 10
-28.5866269384
 20
-9.6097001155
 10
-28.6054764631
 20
-9.6970315415
 10
-28.6238065777
 20
-9.7803565163
 10
-28.6415817028
 20
-9.8594306021
  0
LWPOLYLINE
  5
299
100
AcDbEntity
  8
RACCORDO
100
AcDbPolyline
 62
250
  6
CONTINUOUS
 90
37
 70
0
 10
-26.9531884568
 20
2.4265723874
 10
-26.9563281492
 20
2.4066678003
 10
-26.9585319886
 20
2.3863216917
 10
-26.9597954945
 20
2.3655754258
 10
-26.9601160981
 20
2.3444711804
 10
-26.9594931478
 20
2.3230518612
 10
-26.9579279098
 20
2.3013610143
 10
-26.9554235665
 20
2.279442738
 10
-26.9519852091
 20
2.2573415928
 10
-26.9476198281
 20
2.2351025111
 10
-26.9423362982
 20
2.2127707057
 10
-26.9361453613
 20
2.1903915778
 10
-26.9290596035
 20
2.1680106251
 10
-26.9210934304
 20
2.1456733486
 10
-26.9122630377
 20
2.1234251608
 10
-26.9025863776
 20
2.101311293
 10
-26.8920831233
 20
2.0793767034
 10
-26.8807746281
 20
2.0576659857
 10
-26.8686838826
 20
2.0362232786
 10
-26.8558354676
 20
2.0150921758
 10
-26.8422555045
 20
1.9943156375
 10
-26.8279716018
 20
1.9739359031
 10
-26.813012799
 20
1.9539944052
 10
-26.7974095079
 20
1.9345316856
 10
-26.7811934505
 20
1.9155873126
 10
-26.7643975946
 20
1.8971998008
 10
-26.7470560868
 20
1.8794065324
 10
-26.7292041828
 20
1.862243682
 10
-26.7108781762
 20
1.8457461419
 10
-26.6921153244
 20
1.8299474524
 10
-26.6729537729
 20
1.8148797326
 10
-26.6534324777
 20
1.8005736158
 10
-26.6335911262
 20
1.7870581866
 10
-26.6134700567
 20
1.7743609225
 10
-26.5931101759
 20
1.7625076372
 10
-26.5725528761
 20
1.7515224291
 10
-26.5518399509
 20
1.7414276313
  0
LINE
  5
29A
100
AcDbEntity
  8
RACCORDO
100
AcDbLine
 62
250
  6
CONTINUOUS
 10
-28.3773485191
 20
-1.4941236376
 11
-28.4281645352
 21
-1.813263095
  0
LINE
  5
29B
100
AcDbEntity
  8
RACCORDO
100
AcDbLine
 62
250
  6
CONTINUOUS
 10
-27.4123209889
 20
-1.5962801143
 11
-27.4627580553
 21
-1.9129471949
  0
LINE
  5
29C
100
AcDbEntity
  8
RACCORDO
100
AcDbLine
 62
250
  6
CONTINUOUS
 10
-28.3155685902
 20
-1.1160685738
 11
-28.3773485191
 21
-1.4941236376
  0
LINE
  5
29D
100
AcDbEntity
  8
RACCORDO
100
AcDbLine
 62
250
  6
CONTINUOUS
 10
-27.350997206
 20
-1.2211516493
 11
-27.4123209889
 21
-1.5962801143
  0
LINE
  5
29E
100
AcDbEntity
  8
RACCORDO
100
AcDbLine
 62
250
  6
CONTINUOUS
 10
-28.2469957447
 20
-0.7082290667
 11
-28.3155685902
 21
-1.1160685738
  0
LINE
  5
29F
100
AcDbEntity
  8
RACCORDO
100
AcDbLine
 62
250
  6
CONTINUOUS
 10
-27.2829402909
 20
-0.8164748286
 11
-27.350997206
 21
-1.2211516493
  0
LINE
  5
2A0
100
AcDbEntity
  8
RACCORDO
100
AcDbLine
 62
250
  6
CONTINUOUS
 10
-28.1757857892
 20
-0.2965866117
 11
-28.2469957447
 21
-0.7082290667
  0
LINE
  5
2A1
100
AcDbEntity
  8
RACCORDO
100
AcDbLine
 62
250
  6
CONTINUOUS
 10
-27.2122613669
 20
-0.4080224087
 11
-27.2829402909
 21
-0.8164748286
  0
LINE
  5
2A2
100
AcDbEntity
  8
RACCORDO
100
AcDbLine
 62
250
  6
CONTINUOUS
 10
-28.1056952103
 20
0.0977680652
 11
-28.1757857892
 21
-0.2965866117
  0
LINE
  5
2A3
100
AcDbEntity
  8
RACCORDO
100
AcDbLine
 62
250
  6
CONTINUOUS
 10
-27.1426922219
 20
-0.0167234892
 11
-27.2122613669
 21
-0.4080224087
  0
LINE
  5
2A4
100
AcDbEntity
  8
RACCORDO
100
AcDbLine
 62
250
  6
CONTINUOUS
 10
-28.0324546165
 20
0.4993201661
 11
-28.1056952103
 21
0.0977680652
  0
LINE
  5
2A5
100
AcDbEntity
  8
RACCORDO
100
AcDbLine
 62
250
  6
CONTINUOUS
 10
-27.0699983521
 20
0.3817157837
 11
-27.1426922219
 21
-0.0167234892
  0
LINE
  5
2A6
100
AcDbEntity
  8
RACCORDO
100
AcDbLine
 62
250
  6
CONTINUOUS
 10
-27.9578832022
 20
0.8980115993
 11
-28.0324546165
 21
0.4993201661
  0
LINE
  5
2A7
100
AcDbEntity
  8
RACCORDO
100
AcDbLine
 62
250
  6
CONTINUOUS
 10
-26.9959836024
 20
0.7773163412
 11
-27.0699983521
 21
0.3817157837
  0
LINE
  5
2A8
100
AcDbEntity
  8
RACCORDO
100
AcDbLine
 62
250
  6
CONTINUOUS
 10
-26.9580734724
 20
0.9762907004
 11
-26.9959836024
 21
0.7773163412
  0
LINE
  5
2A9
100
AcDbEntity
  8
RACCORDO
100
AcDbLine
 62
250
  6
CONTINUOUS
 10
-27.9196781109
 20
1.0985395711
 11
-27.9578832022
 21
0.8980115993
  0
LWPOLYLINE
  5
2AA
100
AcDbEntity
  8
RACCORDO
100
AcDbPolyline
 62
250
  6
CONTINUOUS
 90
74
 70
0
 10
-28.6415817028
 20
-9.8594306021
 10
-28.6756501071
 20
-10.0059787699
 10
-28.6919095199
 20
-10.0737440965
 10
-28.7076857641
 20
-10.1378964587
 10
-28.7230229799
 20
-10.1990045335
 10
-28.7379340811
 20
-10.2571195632
 10
-28.7524252588
 20
-10.3122028719
 10
-28.7665268385
 20
-10.3646858089
 10
-28.7802450307
 20
-10.4145923072
 10
-28.7935880455
 20
-10.4619079748
 10
-28.8065865623
 20
-10.5070049256
 10
-28.8192496458
 20
-10.5499159996
 10
-28.8315790536
 20
-10.5906155531
 10
-28.8435925929
 20
-10.6293867058
 10
-28.8552950409
 20
-10.6662457087
 10
-28.8666899473
 20
-10.7011818731
 10
-28.8777919228
 20
-10.7344370059
 10
-28.8885987761
 20
-10.766009038
 10
-28.8991191258
 20
-10.7959043492
 10
-28.90938268
 20
-10.8243766717
 10
-28.9193935363
 20
-10.8514439584
 10
-28.9291523561
 20
-10.8770914582
 10
-28.938682785
 20
-10.9015232363
 10
-28.9479894821
 20
-10.9247559733
 10
-28.9570713724
 20
-10.9467754069
 10
-28.9659428667
 20
-10.9677387601
 10
-28.9746049109
 20
-10.9876522312
 10
-28.9830593212
 20
-11.0065114904
 10
-28.9913213528
 20
-11.0244576574
 10
-28.9993920302
 20
-11.0414971413
 10
-29.0072724387
 20
-11.0576249635
 10
-29.0149775645
 20
-11.0729649178
 10
-29.0225086781
 20
-11.0875234707
 10
-29.0298661174
 20
-11.1012952484
 10
-29.0370631936
 20
-11.1143860979
 10
-29.0441003021
 20
-11.1268004647
 10
-29.0509782782
 20
-11.1385347407
 10
-29.0577108808
 20
-11.1496825492
 10
-29.0642991378
 20
-11.1602490086
 10
-29.0707429582
 20
-11.1702296388
 10
-29.0770542605
 20
-11.1797035552
 10
-29.0832337414
 20
-11.1886747597
 10
-29.0892814215
 20
-11.1971397399
 10
-29.0952080838
 20
-11.2051662566
 10
-29.1010170005
 20
-11.2127605433
 10
-29.106705448
 20
-11.2199167414
 10
-29.1122751298
 20
-11.2266844151
 10
-29.117728728
 20
-11.2330671478
 10
-29.1230639952
 20
-11.2390616535
 10
-29.1282751862
 20
-11.2447071551
 10
-29.1333575971
 20
-11.24999972
 10
-29.1383162853
 20
-11.2549435229
 10
-29.1431600976
 20
-11.2595899133
 10
-29.1478875812
 20
-11.2639400696
 10
-29.1525004531
 20
-11.2679929945
 10
-29.1570122644
 20
-11.2717967395
 10
-29.1614243845
 20
-11.2753548101
 10
-29.1657356374
 20
-11.2786638333
 10
-29.1699557175
 20
-11.2817615173
 10
-29.1740853504
 20
-11.2846501351
 10
-29.1781239556
 20
-11.2873275131
 10
-29.1820792414
 20
-11.2898246712
 10
-29.1859502654
 20
-11.2921426835
 10
-29.18973808
 20
-11.2942805512
 10
-29.1934533655
 20
-11.2962661707
 10
-29.1970959948
 20
-11.2981011833
 10
-29.2006661765
 20
-11.2997840035
 10
-29.2041750785
 20
-11.3013376759
 10
-29.2076244603
 20
-11.302764232
 10
-29.2110126226
 20
-11.3040616816
 10
-29.2143455334
 20
-11.3052470299
 10
-29.2176251961
 20
-11.3063259549
 10
-29.2208496533
 20
-11.3072928101
 10
-29.2240189268
 20
-11.3081476105
  0
LWPOLYLINE
  5
2AB
100
AcDbEntity
  8
RACCORDO
100
AcDbPolyline
 62
250
  6
CONTINUOUS
 90
38
 70
0
 10
-26.8818194156
 20
1.197312009
 10
-26.8845710441
 20
1.19135224
 10
-26.8872931057
 20
1.1853874456
 10
-26.8899850976
 20
1.1794182214
 10
-26.8926458567
 20
1.1734443488
 10
-26.895274892
 20
1.1674664544
 10
-26.8978716962
 20
1.1614851542
 10
-26.9004350721
 20
1.155500225
 10
-26.9029645254
 20
1.1495123134
 10
-26.9054595449
 20
1.1435220566
 10
-26.9079188973
 20
1.1375292279
 10
-26.9103420844
 20
1.1315344978
 10
-26.9127285928
 20
1.1255385219
 10
-26.9150771544
 20
1.1195410635
 10
-26.9173872684
 20
1.113542816
 10
-26.9196584183
 20
1.1075444552
 10
-26.9218893001
 20
1.1015457319
 10
-26.9240794117
 20
1.0955473599
 10
-26.9262282324
 20
1.0895500386
 10
-26.9283344187
 20
1.083553511
 10
-26.930397468
 20
1.0775585089
 10
-26.9324168553
 20
1.0715657589
 10
-26.9343911909
 20
1.0655750114
 10
-26.9363199678
 20
1.0595870318
 10
-26.9382026625
 20
1.0536025588
 10
-26.9400378489
 20
1.0476213178
 10
-26.9418250277
 20
1.041644068
 10
-26.9435636639
 20
1.0356716016
 10
-26.9452522673
 20
1.0297037089
 10
-26.9468903169
 20
1.0237412551
 10
-26.9484773025
 20
1.0177849723
 10
-26.9500117358
 20
1.0118344684
 10
-26.9514931536
 20
1.0058903926
 10
-26.9529209774
 20
0.9999537461
 10
-26.9542935427
 20
0.9940246785
 10
-26.955609958
 20
0.9881038018
 10
-26.9568701019
 20
0.9821921913
 10
-26.9580734728
 20
0.9762907007
  0
LINE
  5
2AC
100
AcDbEntity
  8
RACCORDO
100
AcDbLine
 62
250
  6
CONTINUOUS
 10
-26.8762300519
 20
1.2092148625
 11
-26.8818194156
 21
1.197312009
  0
LINE
  5
2AD
100
AcDbEntity
  8
RACCORDO
100
AcDbLine
 62
250
  6
CONTINUOUS
 10
-26.8705308723
 20
1.2210937221
 11
-26.8762300519
 21
1.2092148625
  0
LINE
  5
2AE
100
AcDbEntity
  8
RACCORDO
100
AcDbLine
 62
250
  6
CONTINUOUS
 10
-26.8647276263
 20
1.2329462967
 11
-26.8705308723
 21
1.2210937221
  0
LWPOLYLINE
  5
2AF
100
AcDbEntity
  8
RACCORDO
100
AcDbPolyline
 62
250
  6
CONTINUOUS
 90
3
 70
0
 10
-26.8558390521
 20
1.2506697787
 10
-26.8588254064
 20
1.244769615
 10
-26.8647276263
 20
1.2329462967
  0
LINE
  5
2B0
100
AcDbEntity
  8
ASSI
100
AcDbLine
 62
7
  6
CONTINUOUS
 10
-26.141445568
 20
13.0550243395
 11
-27.6970804866
 21
11.9550243395
  0
LWPOLYLINE
  5
2B1
100
AcDbEntity
  8
RACCORDO
100
AcDbPolyline
 62
250
  6
CONTINUOUS
 90
20
 70
0
 10
-28.3446752247
 20
11.6838104009
 10
-28.3287095375
 20
11.6948187644
 10
-28.3134538838
 20
11.7063195542
 10
-28.2989386084
 20
11.7182898942
 10
-28.2851925835
 20
11.7307059745
 10
-28.272243151
 20
11.7435430985
 10
-28.2601160685
 20
11.7567757319
 10
-28.2488354579
 20
11.7703775539
 10
-28.2384237571
 20
11.7843215094
 10
-28.2289016759
 20
11.7985798626
 10
-28.2202881547
 20
11.8131242525
 10
-28.2126003263
 20
11.827925749
 10
-28.2058534826
 20
11.8429549106
 10
-28.2000610436
 20
11.8581818432
 10
-28.195234531
 20
11.8735762591
 10
-28.191383545
 20
11.8891075373
 10
-28.1885157457
 20
11.904744785
 10
-28.1866368373
 20
11.9204568983
 10
-28.1857505572
 20
11.9362126243
 10
-28.1856744048
 20
11.9423774968
  0
LINE
  5
2B2
100
AcDbEntity
  8
RACCORDO
100
AcDbLine
 62
250
  6
CONTINUOUS
 10
-28.0040961586
 20
12.1721172031
 11
-28.1204467152
 21
12.1052329506
  0
LWPOLYLINE
  5
2B3
100
AcDbEntity
  8
RACCORDO
100
AcDbPolyline
 62
7
  6
CONTINUOUS
 90
5
 70
0
 10
-29.0715178911
 20
-11.3996774732
 10
-29.0423729747
 20
-11.4166765488
 10
-29.0136976748
 20
-11.433175808
 10
-28.985486372
 20
-11.4491952804
 10
-28.9577390397
 20
-11.464734948
  0
LINE
  5
2B4
100
AcDbEntity
  8
RACCORDO
100
AcDbLine
 62
7
  6
CONTINUOUS
 10
-29.1311831065
 20
-11.3643002229
 11
-29.0715178911
 21
-11.3996774732
  0
LWPOLYLINE
  5
2B5
100
AcDbEntity
  8
RACCORDO
100
AcDbPolyline
 62
7
  6
CONTINUOUS
 90
3
 70
0
 10
-29.2240189268
 20
-11.3081476105
 10
-29.1926263296
 20
-11.3272847182
 10
-29.1311831065
 20
-11.3643002229
  0
LWPOLYLINE
  5
2B6
100
AcDbEntity
  8
RACCORDO
100
AcDbPolyline
 62
7
  6
CONTINUOUS
 90
34
 70
0
 10
-29.2240189268
 20
-11.3081476105
 10
-29.2281433564
 20
-11.3055936302
 10
-29.2321652396
 20
-11.3030499922
 10
-29.236082672
 20
-11.3005194246
 10
-29.2398897807
 20
-11.2980056594
 10
-29.2435890688
 20
-11.2955108298
 10
-29.2471913817
 20
-11.2930348328
 10
-29.2506949324
 20
-11.2905810653
 10
-29.2540989717
 20
-11.288151064
 10
-29.2574159475
 20
-11.2857409704
 10
-29.2606463833
 20
-11.2833521322
 10
-29.2637877144
 20
-11.2809872925
 10
-29.2668476795
 20
-11.2786439173
 10
-29.2698278748
 20
-11.2763224304
 10
-29.2727251057
 20
-11.2740261031
 10
-29.2755399673
 20
-11.2717563765
 10
-29.2782703718
 20
-11.2695169558
 10
-29.2809175616
 20
-11.2673078713
 10
-29.2834871228
 20
-11.265124918
 10
-29.2859773202
 20
-11.2629718601
 10
-29.2883894564
 20
-11.2608484237
 10
-29.2907333765
 20
-11.2587441495
 10
-29.2930152797
 20
-11.256655948
 10
-29.2952283772
 20
-11.2545900552
 10
-29.2973632132
 20
-11.25255027
 10
-29.299420579
 20
-11.2505403192
 10
-29.3014007156
 20
-11.2485601149
 10
-29.3032943837
 20
-11.2466084864
 10
-29.3051023843
 20
-11.2446933468
 10
-29.3068268555
 20
-11.2428106246
 10
-29.308461841
 20
-11.240942249
 10
-29.3100073674
 20
-11.2390839183
 10
-29.3114687994
 20
-11.2372441706
 10
-29.3128490656
 20
-11.2354245453
  0
LWPOLYLINE
  5
2B7
100
AcDbEntity
  8
RACCORDO
100
AcDbPolyline
 62
7
  6
CONTINUOUS
 90
29
 70
0
 10
39.7492177864
 20
-60.1715656808
 10
39.7734030864
 20
-60.187399326
 10
39.7982431003
 20
-60.2022332302
 10
39.8236888002
 20
-60.2160351883
 10
39.849708536
 20
-60.2287849699
 10
39.8762318765
 20
-60.2404462799
 10
39.9031452811
 20
-60.2509743628
 10
39.9303067756
 20
-60.2603300191
 10
39.9577387745
 20
-60.2685382733
 10
39.9855769922
 20
-60.2756395998
 10
40.0138333572
 20
-60.2816212269
 10
40.0423884358
 20
-60.286443359
 10
40.0711854638
 20
-60.2900873449
 10
40.1001384207
 20
-60.2925362252
 10
40.1292157124
 20
-60.2937824969
 10
40.1584415042
 20
-60.2938166118
 10
40.1878295303
 20
-60.2926192629
 10
40.2172421804
 20
-60.2901779157
 10
40.2464790085
 20
-60.2865057797
 10
40.2753419003
 20
-60.2816432448
 10
40.3039156286
 20
-60.2755925341
 10
40.3324210111
 20
-60.268296973
 10
40.3609732674
 20
-60.2596869875
 10
40.3893174021
 20
-60.2497998692
 10
40.4171259825
 20
-60.2387427744
 10
40.44422684
 20
-60.2266065379
 10
40.4707028038
 20
-60.2133770273
 10
40.4966237382
 20
-60.1990239253
 10
40.5159262673
 20
-60.1873753685
  0
LINE
  5
2B8
100
AcDbEntity
  8
RACCORDO
100
AcDbLine
 62
250
  6
CONTINUOUS
 10
-28.9577390534
 20
-11.4647349574
 11
-28.7645525468
 21
-11.5966616466
  0
LINE
  5
2B9
100
AcDbEntity
  8
RACCORDO
100
AcDbLine
 62
7
  6
CONTINUOUS
 10
-28.6776362081
 20
-11.7709721194
 11
24.6399654278
 21
-49.4722097927
  0
LINE
  5
2BA
100
AcDbEntity
  8
RACCORDO
100
AcDbLine
 62
250
  6
CONTINUOUS
 10
-28.7645515268
 20
-11.5966714257
 11
24.5513000615
 21
-49.2966716285
  0
LINE
  5
2BB
100
AcDbEntity
  8
DRAFT
100
AcDbLine
 62
7
  6
CONTINUOUS
 10
-28.7673568279
 20
-11.5696906061
 11
24.5484944736
 21
-49.2696906061
  0
LWPOLYLINE
  5
2BC
100
AcDbEntity
  8
RACCORDO
100
AcDbPolyline
 62
7
  6
CONTINUOUS
 90
10
 70
0
 10
-43.8080530267
 20
-1.0876505528
 10
-42.165043354
 20
-2.2832060802
 10
-40.4991192387
 20
-3.4863735633
 10
-38.8266373406
 20
-4.6852061063
 10
-37.1476248953
 20
-5.8796841316
 10
-35.4621064808
 20
-7.069790299
 10
-33.7701061188
 20
-8.2555077139
 10
-32.0716481425
 20
-9.4368192987
 10
-30.3667579762
 20
-10.6137074623
 10
-28.6776550356
 20
-11.7709995989
  0
LWPOLYLINE
  5
2BD
100
AcDbEntity
  8
RACCORDO
100
AcDbPolyline
 62
250
  6
CONTINUOUS
 90
10
 70
0
 10
-43.8959313147
 20
-0.9126669276
 10
-42.3017312261
 20
-2.0728324222
 10
-40.7014509225
 20
-3.2290148269
 10
-39.0951120939
 20
-4.3811987299
 10
-37.482735917
 20
-5.5293691142
 10
-35.8643448427
 20
-6.6735100807
 10
-34.239962618
 20
-7.8136048667
 10
-32.6096118908
 20
-8.9496375397
 10
-30.9733141878
 20
-10.0815929801
 10
-29.3310917175
 20
-11.2094556173
  0
LWPOLYLINE
  5
2BE
100
AcDbEntity
  8
RACCORDO
100
AcDbPolyline
 62
250
  6
CONTINUOUS
 90
10
 70
0
 10
25.0984103142
 20
-49.6969256006
 10
26.6922522709
 20
-50.8573060647
 10
28.292178961
 20
-52.0137068383
 10
29.8981687375
 20
-53.1661124815
 10
31.5102004699
 20
-54.3145079509
 10
33.1282517469
 20
-55.4588773173
 10
34.7522988546
 20
-56.5992037838
 10
36.3823191841
 20
-57.7354713874
 10
38.0182912535
 20
-58.8676649814
 10
39.6601928954
 20
-59.995768966
  0
LWPOLYLINE
  5
2BF
100
AcDbEntity
  8
RACCORDO
100
AcDbPolyline
 62
7
  6
CONTINUOUS
 90
10
 70
0
 10
24.6375598421
 20
-49.4704600209
 10
26.2752308751
 20
-50.6656129345
 10
27.9386058591
 20
-51.8704559947
 10
29.6085471306
 20
-53.0709702141
 10
31.2850297652
 20
-54.2671376676
 10
32.9680295645
 20
-55.458941201
 10
34.6575225945
 20
-56.6463638824
 10
36.3534842587
 20
-57.8293883658
 10
38.0558867599
 20
-59.0079954015
 10
39.7492177864
 20
-60.1715656808
  0
LINE
  5
2C0
100
AcDbEntity
  8
RACCORDO
100
AcDbLine
 62
250
  6
CONTINUOUS
 10
24.5512990412
 20
-49.2966618493
 11
24.7377036661
 21
-49.4331466236
  0
LWPOLYLINE
  5
2C1
100
AcDbEntity
  8
RACCORDO
100
AcDbPolyline
 62
7
  6
CONTINUOUS
 90
22
 70
0
 10
-43.8080530268
 20
-1.0876505527
 10
-43.8298772743
 20
-1.0710452735
 10
-43.8510963644
 20
-1.0535447119
 10
-43.871666387
 20
-1.0351731295
 10
-43.8914987696
 20
-1.0160034826
 10
-43.9106023833
 20
-0.996021879
 10
-43.9290647902
 20
-0.975109833
 10
-43.9469210455
 20
-0.9531694002
 10
-43.9640135366
 20
-0.9303340685
 10
-43.9801527582
 20
-0.906834698
 10
-43.9952942029
 20
-0.8827435884
 10
-44.0094367496
 20
-0.8580704071
 10
-44.0225031631
 20
-0.8329689295
 10
-44.034435695
 20
-0.8076034508
 10
-44.0452968226
 20
-0.7818964757
 10
-44.05517706
 20
-0.7556287744
 10
-44.0641053971
 20
-0.7286331252
 10
-44.071973711
 20
-0.7011318979
 10
-44.0786786199
 20
-0.6734827087
 10
-44.0842127703
 20
-0.6458168241
 10
-44.0886123352
 20
-0.6180607953
 10
-44.0916593612
 20
-0.5925233406
  0
LWPOLYLINE
  5
2C2
100
AcDbEntity
  8
RACCORDO
100
AcDbPolyline
 62
250
  6
CONTINUOUS
 90
14
 70
0
 10
-43.8080529392
 20
-1.0876506167
 10
-43.8168749732
 20
-1.0807799568
 10
-43.8275067659
 20
-1.0712346417
 10
-43.8374475806
 20
-1.0608120687
 10
-43.8466815293
 20
-1.0495288858
 10
-43.8551938699
 20
-1.037403078
 10
-43.8629709667
 20
-1.0244540578
 10
-43.8700003376
 20
-1.0107026548
 10
-43.8762708218
 20
-0.9961707631
 10
-43.8817723516
 20
-0.9808817295
 10
-43.886495999
 20
-0.9648605243
 10
-43.890434264
 20
-0.9481330147
 10
-43.8935810067
 20
-0.9307258486
 10
-43.8959312934
 20
-0.9126669191
  0
LWPOLYLINE
  5
2C3
100
AcDbEntity
  8
RACCORDO
100
AcDbPolyline
 62
250
  6
CONTINUOUS
 90
4
 70
0
 10
-28.7083012557
 20
-11.7432129253
 10
-28.6986906558
 20
-11.7534005947
 10
-28.6883899013
 20
-11.7627105771
 10
-28.6776362081
 20
-11.7709721194
  0
LWPOLYLINE
  5
2C4
100
AcDbEntity
  8
RACCORDO
100
AcDbPolyline
 62
250
  6
CONTINUOUS
 90
3
 70
0
 10
-29.1824827054
 20
44.9157907931
 10
-29.1762148998
 20
44.857403746
 10
-29.1730047317
 20
44.8263765098
  0
LINE
  5
2C5
100
AcDbEntity
  8
RACCORDO
100
AcDbLine
 62
250
  6
CONTINUOUS
 10
-26.8497988132
 20
1.262445121
 11
-26.8558390521
 21
1.2506697787
  0
LINE
  5
2C6
100
AcDbEntity
  8
RACCORDO
100
AcDbLine
 62
250
  6
CONTINUOUS
 10
-26.8436732299
 20
1.2741855759
 11
-26.8497988132
 21
1.262445121
  0
LINE
  5
2C7
100
AcDbEntity
  8
RACCORDO
100
AcDbLine
 62
250
  6
CONTINUOUS
 10
-26.8374677342
 20
1.2858890545
 11
-26.8436732299
 21
1.2741855759
  0
LINE
  5
2C8
100
AcDbEntity
  8
RACCORDO
100
AcDbLine
 62
250
  6
CONTINUOUS
 10
-26.8311871768
 20
1.2975528584
 11
-26.8374677342
 21
1.2858890545
  0
LINE
  5
2C9
100
AcDbEntity
  8
RACCORDO
100
AcDbLine
 62
250
  6
CONTINUOUS
 10
-26.8248368911
 20
1.3091750245
 11
-26.8311871768
 21
1.2975528584
  0
LINE
  5
2CA
100
AcDbEntity
  8
RACCORDO
100
AcDbLine
 62
250
  6
CONTINUOUS
 10
-26.8184220878
 20
1.3207536367
 11
-26.8248368911
 21
1.3091750245
  0
LINE
  5
2CB
100
AcDbEntity
  8
RACCORDO
100
AcDbLine
 62
250
  6
CONTINUOUS
 10
-26.8119474492
 20
1.3322861933
 11
-26.8184220878
 21
1.3207536367
  0
LINE
  5
2CC
100
AcDbEntity
  8
RACCORDO
100
AcDbLine
 62
250
  6
CONTINUOUS
 10
-26.8054180848
 20
1.343770896
 11
-26.8119474492
 21
1.3322861933
  0
LINE
  5
2CD
100
AcDbEntity
  8
RACCORDO
100
AcDbLine
 62
250
  6
CONTINUOUS
 10
-26.7988390354
 20
1.355205905
 11
-26.8054180848
 21
1.343770896
  0
LINE
  5
2CE
100
AcDbEntity
  8
RACCORDO
100
AcDbLine
 62
250
  6
CONTINUOUS
 10
-26.7922148413
 20
1.3665888671
 11
-26.7988390354
 21
1.355205905
  0
LINE
  5
2CF
100
AcDbEntity
  8
RACCORDO
100
AcDbLine
 62
250
  6
CONTINUOUS
 10
-26.7855504522
 20
1.3779180555
 11
-26.7922148413
 21
1.3665888671
  0
LINE
  5
2D0
100
AcDbEntity
  8
RACCORDO
100
AcDbLine
 62
250
  6
CONTINUOUS
 10
-26.7754888108
 20
1.3948070927
 11
-26.7855504522
 21
1.3779180555
  0
LINE
  5
2D1
100
AcDbEntity
  8
RACCORDO
100
AcDbLine
 62
250
  6
CONTINUOUS
 10
-26.7653628708
 20
1.4115649991
 11
-26.7754888108
 21
1.3948070927
  0
LINE
  5
2D2
100
AcDbEntity
  8
RACCORDO
100
AcDbLine
 62
250
  6
CONTINUOUS
 10
-26.7551880282
 20
1.4281858361
 11
-26.7653628708
 21
1.4115649991
  0
LINE
  5
2D3
100
AcDbEntity
  8
RACCORDO
100
AcDbLine
 62
250
  6
CONTINUOUS
 10
-26.744979464
 20
1.4446637878
 11
-26.7551880282
 21
1.4281858361
  0
LINE
  5
2D4
100
AcDbEntity
  8
RACCORDO
100
AcDbLine
 62
250
  6
CONTINUOUS
 10
-26.734751991
 20
1.460993398
 11
-26.744979464
 21
1.4446637878
  0
LINE
  5
2D5
100
AcDbEntity
  8
RACCORDO
100
AcDbLine
 62
250
  6
CONTINUOUS
 10
-26.7211108984
 20
1.4825266705
 11
-26.734751991
 21
1.460993398
  0
LINE
  5
2D6
100
AcDbEntity
  8
RACCORDO
100
AcDbLine
 62
250
  6
CONTINUOUS
 10
-26.5518399205
 20
1.7414276783
 11
-26.562651114
 21
1.724496493
  0
LINE
  5
2D7
100
AcDbEntity
  8
RACCORDO
100
AcDbLine
 62
250
  6
CONTINUOUS
 10
-26.7074955148
 20
1.5037751393
 11
-26.7211108984
 21
1.4825266705
  0
LINE
  5
2D8
100
AcDbEntity
  8
RACCORDO
100
AcDbLine
 62
250
  6
CONTINUOUS
 10
-26.562651114
 20
1.724496493
 11
-26.5738317207
 21
1.7071858762
  0
LINE
  5
2D9
100
AcDbEntity
  8
RACCORDO
100
AcDbLine
 62
250
  6
CONTINUOUS
 10
-26.6905625319
 20
1.5299175346
 11
-26.7074955148
 21
1.5037751393
  0
LWPOLYLINE
  5
2DA
100
AcDbEntity
  8
RACCORDO
100
AcDbPolyline
 62
250
  6
CONTINUOUS
 90
19
 70
0
 10
-26.3492078436
 20
2.0065269799
 10
-26.3603197327
 20
1.9895721663
 10
-26.3714459669
 20
1.9729047928
 10
-26.3825865462
 20
1.9565248595
 10
-26.3937406275
 20
1.9404402804
 10
-26.404909054
 20
1.9246431414
 10
-26.4160943548
 20
1.9091097008
 10
-26.4272966499
 20
1.8938389194
 10
-26.4385158193
 20
1.8788318365
 10
-26.4497540325
 20
1.8640678278
 10
-26.4610113323
 20
1.8495460667
 10
-26.4722876758
 20
1.8352673798
 10
-26.483585104
 20
1.8212136236
 10
-26.4949034311
 20
1.8073843304
 10
-26.5062428429
 20
1.7937799678
 10
-26.5176059373
 20
1.7803837949
 10
-26.5289935802
 20
1.7671902314
 10
-26.5404049057
 20
1.7542048576
 10
-26.5518399137
 20
1.7414276736
  0
LINE
  5
2DB
100
AcDbEntity
  8
RACCORDO
100
AcDbLine
 62
250
  6
CONTINUOUS
 10
-26.5738317207
 20
1.7071858762
 11
-26.5912490387
 21
1.6805149015
  0
LINE
  5
2DC
100
AcDbEntity
  8
RACCORDO
100
AcDbLine
 62
250
  6
CONTINUOUS
 10
-26.667127913
 20
1.5657005062
 11
-26.6905625319
 21
1.5299175346
  0
LINE
  5
2DD
100
AcDbEntity
  8
RACCORDO
100
AcDbLine
 62
250
  6
CONTINUOUS
 10
-26.5912490387
 20
1.6805149015
 11
-26.6218088446
 21
1.6342188163
  0
LINE
  5
2DE
100
AcDbEntity
  8
RACCORDO
100
AcDbLine
 62
250
  6
CONTINUOUS
 10
-26.6218088446
 20
1.6342188163
 11
-26.667127913
 21
1.5657005062
  0
LINE
  5
2DF
100
AcDbEntity
  8
RACCORDO
100
AcDbLine
 62
250
  6
CONTINUOUS
 10
-26.6615363883
 20
12.1330095237
 11
-27.8102600522
 21
11.4726643931
  0
LWPOLYLINE
  5
2E0
100
AcDbEntity
  8
RACCORDO
100
AcDbPolyline
 62
250
  6
CONTINUOUS
 90
40
 70
0
 10
-27.8102600522
 20
11.4726643931
 10
-27.8321585553
 20
11.4604678747
 10
-27.853958561
 20
11.4491419332
 10
-27.8756600693
 20
11.4386865687
 10
-27.8973051653
 20
11.4290785511
 10
-27.9188517638
 20
11.4203411105
 10
-27.9401736104
 20
11.4125439372
 10
-27.9612703968
 20
11.4056957273
 10
-27.9821424312
 20
11.3997877847
 10
-28.0026643831
 20
11.3948637106
 10
-28.0228301929
 20
11.390933569
 10
-28.0426459201
 20
11.3879872959
 10
-28.0620044137
 20
11.3860383005
 10
-28.0808960207
 20
11.3850938131
 10
-28.0993303941
 20
11.3851466035
 10
-28.1172293415
 20
11.3861883902
 10
-28.1345868231
 20
11.3882221944
 10
-28.1514088788
 20
11.3912449949
 10
-28.1676354361
 20
11.3952394462
 10
-28.1832651373
 20
11.400207545
 10
-28.1982993402
 20
11.4061472945
 10
-28.212682045
 20
11.4130353591
 10
-28.2264119095
 20
11.4208737193
 10
-28.2394902761
 20
11.4296603947
 10
-28.2518651718
 20
11.4393661077
 10
-28.2635361376
 20
11.4499945693
 10
-28.2745036325
 20
11.4615420687
 10
-28.2847170613
 20
11.4739681956
 10
-28.294175962
 20
11.4872826644
 10
-28.3028807966
 20
11.5014757609
 10
-28.310782356
 20
11.5164779316
 10
-28.3178750522
 20
11.5323003227
 10
-28.3241644731
 20
11.548931788
 10
-28.3296181737
 20
11.5662693367
 10
-28.3342271959
 20
11.5843196012
 10
-28.3380004979
 20
11.603075949
 10
-28.3409325088
 20
11.6224154918
 10
-28.3430213718
 20
11.6422972666
 10
-28.3442689438
 20
11.6627622363
 10
-28.3446752247
 20
11.6838104009
  0
LWPOLYLINE
  5
2E1
100
AcDbEntity
  8
RACCORDO
100
AcDbPolyline
 62
250
  6
CONTINUOUS
 90
9
 70
0
 10
-28.1204468093
 20
12.1052330172
 10
-28.1290984955
 20
12.1010022227
 10
-28.1377353782
 20
12.0970776798
 10
-28.1463458464
 20
12.0934688784
 10
-28.1549233074
 20
12.090184263
 10
-28.1634506235
 20
12.0872336516
 10
-28.1719004997
 20
12.0846265445
 10
-28.1802614816
 20
12.0823692512
 10
-28.1856744048
 20
12.0811232846
  0
LINE
  5
2E2
100
AcDbEntity
  8
RACCORDO
100
AcDbLine
 62
7
  6
CONTINUOUS
 10
-28.7673568279
 20
-11.5696906061
 11
-28.9577390397
 21
-11.464734948
  0
LINE
  5
2E3
100
AcDbEntity
  8
RACCORDO
100
AcDbLine
 62
7
  6
CONTINUOUS
 10
24.9406585896
 20
-49.602133501
 11
25.0027581305
 21
-49.6522693875
  0
LINE
  5
2E4
100
AcDbEntity
  8
RACCORDO
100
AcDbLine
 62
7
  6
CONTINUOUS
 10
24.8803591513
 20
-49.552873458
 11
24.9406585896
 21
-49.602133501
  0
LWPOLYLINE
  5
2E5
100
AcDbEntity
  8
RACCORDO
100
AcDbPolyline
 62
7
  6
CONTINUOUS
 90
4
 70
0
 10
24.7652916385
 20
-49.4567349049
 10
24.7933499477
 20
-49.4805040562
 10
24.8218785815
 20
-49.504454086
 10
24.8803591513
 20
-49.552873458
  0
LINE
  5
2E6
100
AcDbEntity
  8
RACCORDO
100
AcDbLine
 62
7
  6
CONTINUOUS
 10
24.7652916385
 20
-49.4567349049
 11
24.7167235365
 21
-49.4150544524
  0
LINE
  5
2E7
100
AcDbEntity
  8
RACCORDO
100
AcDbLine
 62
7
  6
CONTINUOUS
 10
24.7167235365
 20
-49.4150544524
 11
24.5484944736
 21
-49.2696906061
  0
LWPOLYLINE
  5
2E8
100
AcDbEntity
  8
RACCORDO
100
AcDbPolyline
 62
250
  6
CONTINUOUS
 90
11
 70
0
 10
-26.3492079908
 20
2.0065267508
 10
-26.3582977047
 20
2.019337349
 10
-26.3672488884
 20
2.03227596
 10
-26.3760462721
 20
2.0453328342
 10
-26.3846660036
 20
2.058522271
 10
-26.3931049119
 20
2.0718102171
 10
-26.4013847611
 20
2.0851155247
 10
-26.4095036602
 20
2.0984261807
 10
-26.4174532082
 20
2.1117384109
 10
-26.4252549006
 20
2.1249860928
 10
-26.432913851
 20
2.1381584625
  0
LINE
  5
2E9
100
AcDbEntity
  8
RACCORDO
100
AcDbLine
 62
250
  6
CONTINUOUS
 10
-26.5510304467
 20
2.3432078239
 11
-26.5915042663
 21
2.4095075568
  0
LINE
  5
2EA
100
AcDbEntity
  8
RACCORDO
100
AcDbLine
 62
250
  6
CONTINUOUS
 10
-26.5375255249
 20
2.320782207
 11
-26.5510304467
 21
2.3432078239
  0
LWPOLYLINE
  5
2EB
100
AcDbEntity
  8
RACCORDO
100
AcDbPolyline
 62
250
  6
CONTINUOUS
 90
12
 70
0
 10
-26.5915042663
 20
2.4095075568
 10
-26.6047470607
 20
2.4314906659
 10
-26.6112348355
 20
2.442473356
 10
-26.617619426
 20
2.4534477423
 10
-26.6238849033
 20
2.4644075006
 10
-26.6299605863
 20
2.4753375781
 10
-26.6358423892
 20
2.4862151766
 10
-26.6415271629
 20
2.4970386292
 10
-26.6469485334
 20
2.5078161919
 10
-26.652081949
 20
2.5185368273
 10
-26.6569453302
 20
2.5291733394
 10
-26.6615364547
 20
2.5397050912
  0
LINE
  5
2EC
100
AcDbEntity
  8
RACCORDO
100
AcDbLine
 62
250
  6
CONTINUOUS
 10
-26.524035831
 20
2.2980395453
 11
-26.5375255249
 21
2.320782207
  0
LINE
  5
2ED
100
AcDbEntity
  8
RACCORDO
100
AcDbLine
 62
250
  6
CONTINUOUS
 10
-26.5105322855
 20
2.2748955452
 11
-26.524035831
 21
2.2980395453
  0
LINE
  5
2EE
100
AcDbEntity
  8
RACCORDO
100
AcDbLine
 62
250
  6
CONTINUOUS
 10
-26.4969670903
 20
2.2512725303
 11
-26.5105322855
 21
2.2748955452
  0
LINE
  5
2EF
100
AcDbEntity
  8
RACCORDO
100
AcDbLine
 62
250
  6
CONTINUOUS
 10
-26.432913851
 20
2.1381584625
 11
-26.4478201549
 21
2.1642339949
  0
LINE
  5
2F0
100
AcDbEntity
  8
RACCORDO
100
AcDbLine
 62
250
  6
CONTINUOUS
 10
-26.4763375648
 20
2.2148227128
 11
-26.4969670903
 21
2.2512725303
  0
LINE
  5
2F1
100
AcDbEntity
  8
RACCORDO
100
AcDbLine
 62
250
  6
CONTINUOUS
 10
-26.4478201549
 20
2.1642339949
 11
-26.4763375648
 21
2.2148227128
  0
LINE
  5
2F2
100
AcDbEntity
  8
RACCORDO
100
AcDbLine
 62
250
  6
CONTINUOUS
 10
-28.1657118016
 20
34.8385452538
 11
-28.115583688
 21
34.6226516533
  0
LINE
  5
2F3
100
AcDbEntity
  8
RACCORDO
100
AcDbLine
 62
250
  6
CONTINUOUS
 10
-28.2108016742
 20
35.0373781838
 11
-28.1657118016
 21
34.8385452538
  0
LINE
  5
2F4
100
AcDbEntity
  8
RACCORDO
100
AcDbLine
 62
250
  6
CONTINUOUS
 10
-28.2608703743
 20
35.2636133506
 11
-28.2108016742
 21
35.0373781838
  0
LINE
  5
2F5
100
AcDbEntity
  8
RACCORDO
100
AcDbLine
 62
250
  6
CONTINUOUS
 10
-28.3020272846
 20
35.4541360521
 11
-28.2608703743
 21
35.2636133506
  0
LINE
  5
2F6
100
AcDbEntity
  8
RACCORDO
100
AcDbLine
 62
250
  6
CONTINUOUS
 10
-28.3465656215
 20
35.6652456804
 11
-28.3020272846
 21
35.4541360521
  0
LINE
  5
2F7
100
AcDbEntity
  8
RACCORDO
100
AcDbLine
 62
250
  6
CONTINUOUS
 10
-27.4132365831
 20
35.8865470365
 11
-27.366639339
 21
35.6618595086
  0
LINE
  5
2F8
100
AcDbEntity
  8
RACCORDO
100
AcDbLine
 62
250
  6
CONTINUOUS
 10
-28.3947663902
 20
35.8998765441
 11
-28.3465656215
 21
35.6652456804
  0
LINE
  5
2F9
100
AcDbEntity
  8
RACCORDO
100
AcDbLine
 62
250
  6
CONTINUOUS
 10
-27.4463995327
 20
36.0502705831
 11
-27.4132365831
 21
35.8865470365
  0
LINE
  5
2FA
100
AcDbEntity
  8
RACCORDO
100
AcDbLine
 62
250
  6
CONTINUOUS
 10
-28.4290780136
 20
36.0710369726
 11
-28.3947663902
 21
35.8998765441
  0
LINE
  5
2FB
100
AcDbEntity
  8
RACCORDO
100
AcDbLine
 62
250
  6
CONTINUOUS
 10
-27.4813850579
 20
36.2266439545
 11
-27.4463995327
 21
36.0502705831
  0
LINE
  5
2FC
100
AcDbEntity
  8
RACCORDO
100
AcDbLine
 62
250
  6
CONTINUOUS
 10
-28.691909521
 20
43.6708316509
 11
-28.6588706263
 21
43.5043766566
  0
LINE
  5
2FD
100
AcDbEntity
  8
RACCORDO
100
AcDbLine
 62
250
  6
CONTINUOUS
 10
-28.4652414569
 20
36.2553725031
 11
-28.4290780136
 21
36.0710369726
  0
LINE
  5
2FE
100
AcDbEntity
  8
RACCORDO
100
AcDbLine
 62
250
  6
CONTINUOUS
 10
-27.5182300182
 20
36.4166747862
 11
-27.4813850579
 21
36.2266439545
  0
LINE
  5
2FF
100
AcDbEntity
  8
RACCORDO
100
AcDbLine
 62
250
  6
CONTINUOUS
 10
-28.6588706263
 20
43.5043766566
 11
-28.623806582
 21
43.3232077926
  0
LINE
  5
300
100
AcDbEntity
  8
RACCORDO
100
AcDbLine
 62
250
  6
CONTINUOUS
 10
-28.5033636658
 20
36.4545349095
 11
-28.4652414569
 21
36.2553725031
  0
LINE
  5
301
100
AcDbEntity
  8
RACCORDO
100
AcDbLine
 62
250
  6
CONTINUOUS
 10
-29.2419985381
 20
45.3312784008
 11
-29.2376332163
 21
45.3085440877
  0
LINE
  5
302
100
AcDbEntity
  8
RACCORDO
100
AcDbLine
 62
250
  6
CONTINUOUS
 10
-27.5570447634
 20
36.6219223897
 11
-27.5182300182
 21
36.4166747862
  0
LINE
  5
303
100
AcDbEntity
  8
RACCORDO
100
AcDbLine
 62
250
  6
CONTINUOUS
 10
-28.623806582
 20
43.3232077926
 11
-28.5866269443
 21
43.1261742143
  0
LINE
  5
304
100
AcDbEntity
  8
RACCORDO
100
AcDbLine
 62
250
  6
CONTINUOUS
 10
-28.5435153596
 20
36.6697397501
 11
-28.5033636658
 21
36.4545349095
  0
LINE
  5
305
100
AcDbEntity
  8
RACCORDO
100
AcDbLine
 62
250
  6
CONTINUOUS
 10
-28.5866269443
 20
43.1261742143
 11
-28.5478899428
 21
42.9157532815
  0
LINE
  5
306
100
AcDbEntity
  8
RACCORDO
100
AcDbLine
 62
250
  6
CONTINUOUS
 10
-27.5979753868
 20
36.844383018
 11
-27.5570447634
 21
36.6219223897
  0
LWPOLYLINE
  5
307
100
AcDbEntity
  8
RACCORDO
100
AcDbPolyline
 62
250
  6
CONTINUOUS
 90
3
 70
0
 10
-29.2376332163
 20
45.3085440877
 10
-29.2331192413
 20
45.2838299036
 10
-29.2308073085
 20
45.2707202839
  0
LINE
  5
308
100
AcDbEntity
  8
RACCORDO
100
AcDbLine
 62
250
  6
CONTINUOUS
 10
-28.5478899428
 20
42.9157532815
 11
-28.5078748059
 21
42.6935160487
  0
LINE
  5
309
100
AcDbEntity
  8
RACCORDO
100
AcDbLine
 62
250
  6
CONTINUOUS
 10
-28.5078748059
 20
42.6935160487
 11
-28.4671587442
 21
42.4624055353
  0
LINE
  5
30A
100
AcDbEntity
  8
RACCORDO
100
AcDbLine
 62
250
  6
CONTINUOUS
 10
-28.4671587442
 20
42.4624055353
 11
-28.4259643371
 21
42.2237589009
  0
LINE
  5
30B
100
AcDbEntity
  8
RACCORDO
100
AcDbLine
 62
250
  6
CONTINUOUS
 10
-28.4259643371
 20
42.2237589009
 11
-28.3844544219
 21
41.9787475794
  0
LINE
  5
30C
100
AcDbEntity
  8
RACCORDO
100
AcDbLine
 62
250
  6
CONTINUOUS
 10
-29.2308073085
 20
45.2707202839
 11
-29.2260790057
 21
45.242840342
  0
LINE
  5
30D
100
AcDbEntity
  8
RACCORDO
100
AcDbLine
 62
250
  6
CONTINUOUS
 10
-28.3844544219
 20
41.9787475794
 11
-28.3429483862
 21
41.7292405422
  0
LINE
  5
30E
100
AcDbEntity
  8
RACCORDO
100
AcDbLine
 62
250
  6
CONTINUOUS
 10
-28.3429483862
 20
41.7292405422
 11
-28.3017266386
 21
41.4770701235
  0
LINE
  5
30F
100
AcDbEntity
  8
RACCORDO
100
AcDbLine
 62
250
  6
CONTINUOUS
 10
-28.3017266386
 20
41.4770701235
 11
-28.2609553546
 21
41.2234123361
  0
LINE
  5
310
100
AcDbEntity
  8
RACCORDO
100
AcDbLine
 62
250
  6
CONTINUOUS
 10
-29.2260790057
 20
45.242840342
 11
-29.2212063388
 21
45.2126687031
  0
LINE
  5
311
100
AcDbEntity
  8
RACCORDO
100
AcDbLine
 62
250
  6
CONTINUOUS
 10
-28.2609553546
 20
41.2234123361
 11
-28.2209070819
 21
40.9699623687
  0
LINE
  5
312
100
AcDbEntity
  8
RACCORDO
100
AcDbLine
 62
250
  6
CONTINUOUS
 10
-28.2209070819
 20
40.9699623687
 11
-28.1817926125
 21
40.718154495
  0
LINE
  5
313
100
AcDbEntity
  8
RACCORDO
100
AcDbLine
 62
250
  6
CONTINUOUS
 10
-29.2212063388
 20
45.2126687031
 11
-29.2161818481
 21
45.1799712733
  0
LINE
  5
314
100
AcDbEntity
  8
RACCORDO
100
AcDbLine
 62
250
  6
CONTINUOUS
 10
-28.1817926125
 20
40.718154495
 11
-28.1437485256
 21
40.4688798887
  0
LINE
  5
315
100
AcDbEntity
  8
RACCORDO
100
AcDbLine
 62
250
  6
CONTINUOUS
 10
-28.1437485256
 20
40.4688798887
 11
-28.1069717453
 21
40.2233764743
  0
LINE
  5
316
100
AcDbEntity
  8
RACCORDO
100
AcDbLine
 62
250
  6
CONTINUOUS
 10
-28.1069717453
 20
40.2233764743
 11
-28.0716035649
 21
39.982613003
  0
LINE
  5
317
100
AcDbEntity
  8
RACCORDO
100
AcDbLine
 62
250
  6
CONTINUOUS
 10
-29.2161818481
 20
45.1799712733
 11
-29.2109995417
 21
45.1444754672
  0
LINE
  5
318
100
AcDbEntity
  8
RACCORDO
100
AcDbLine
 62
250
  6
CONTINUOUS
 10
-28.0716035649
 20
39.982613003
 11
-28.0377465954
 21
39.7471736752
  0
LINE
  5
319
100
AcDbEntity
  8
RACCORDO
100
AcDbLine
 62
250
  6
CONTINUOUS
 10
-28.0377465954
 20
39.7471736752
 11
-28.0055272159
 21
39.517860052
  0
LWPOLYLINE
  5
31A
100
AcDbEntity
  8
RACCORDO
100
AcDbPolyline
 62
250
  6
CONTINUOUS
 90
13
 70
0
 10
-27.9185862434
 20
38.871908528
 10
-27.8910270146
 20
38.671911376
 10
-27.863716932
 20
38.4796384991
 10
-27.8367127782
 20
38.2948988186
 10
-27.8101102717
 20
38.1177606927
 10
-27.7840483534
 20
37.9485483668
 10
-27.7586904916
 20
37.7877671479
 10
-27.7340191756
 20
37.6347916977
 10
-27.7098891125
 20
37.488260501
 10
-27.6863339272
 20
37.3480166758
 10
-27.6634217152
 20
37.2141325326
 10
-27.6410362157
 20
37.0856092443
 10
-27.5979753868
 20
36.844383018
  0
LINE
  5
31B
100
AcDbEntity
  8
RACCORDO
100
AcDbLine
 62
250
  6
CONTINUOUS
 10
-29.2109995417
 20
45.1444754672
 11
-29.2056525301
 21
45.1059898679
  0
LINE
  5
31C
100
AcDbEntity
  8
RACCORDO
100
AcDbLine
 62
250
  6
CONTINUOUS
 10
-28.0055272159
 20
39.517860052
 11
-27.9750262655
 21
39.2953102292
  0
LWPOLYLINE
  5
31D
100
AcDbEntity
  8
RACCORDO
100
AcDbPolyline
 62
250
  6
CONTINUOUS
 90
15
 70
0
 10
-28.9153531662
 20
39.0367009075
 10
-28.8872863281
 20
38.8274092388
 10
-28.8595472686
 20
38.625839985
 10
-28.8321359876
 20
38.4319931462
 10
-28.8049561617
 20
38.2458001952
 10
-28.7781041143
 20
38.0673296591
 10
-28.7518688155
 20
37.8967871196
 10
-28.7263541635
 20
37.7347325123
 10
-28.7014562601
 20
37.5806059015
 10
-28.677152381
 20
37.4329330615
 10
-28.6534439441
 20
37.2915832138
 10
-28.6303295316
 20
37.1566871369
 10
-28.6077821647
 20
37.0271629411
 10
-28.585803913
 20
36.9029320273
 10
-28.5435153596
 20
36.6697397501
  0
LINE
  5
31E
100
AcDbEntity
  8
RACCORDO
100
AcDbLine
 62
250
  6
CONTINUOUS
 10
-27.9750262655
 20
39.2953102292
 11
-27.9185862434
 21
38.871908528
  0
LINE
  5
31F
100
AcDbEntity
  8
RACCORDO
100
AcDbLine
 62
250
  6
CONTINUOUS
 10
-29.2056525301
 20
45.1059898679
 11
-29.2001329305
 21
45.0642024163
  0
LINE
  5
320
100
AcDbEntity
  8
RACCORDO
100
AcDbLine
 62
250
  6
CONTINUOUS
 10
-29.2001329305
 20
45.0642024163
 11
-29.194436044
 21
45.0187627173
  0
LINE
  5
321
100
AcDbEntity
  8
RACCORDO
100
AcDbLine
 62
250
  6
CONTINUOUS
 10
-29.194436044
 20
45.0187627173
 11
-29.1885549099
 21
44.9694249709
  0
LINE
  5
322
100
AcDbEntity
  8
RACCORDO
100
AcDbLine
 62
250
  6
CONTINUOUS
 10
-29.1885549099
 20
44.9694249709
 11
-29.1824827054
 21
44.9157907931
  0
LWPOLYLINE
  5
323
100
AcDbEntity
  8
RACCORDO
100
AcDbPolyline
 62
250
  6
CONTINUOUS
 90
24
 70
0
 10
-26.3492082708
 20
2.006527282
 10
-26.3334413429
 20
2.0178749215
 10
-26.317681228
 20
2.028514535
 10
-26.3019592745
 20
2.0384249581
 10
-26.2863067526
 20
2.0475864795
 10
-26.2707547988
 20
2.0559808719
 10
-26.2553343535
 20
2.0635914299
 10
-26.2400760915
 20
2.0704030134
 10
-26.2250103606
 20
2.0764020761
 10
-26.2101671281
 20
2.0815766853
 10
-26.1955759184
 20
2.0859165485
 10
-26.1812657547
 20
2.0894130334
 10
-26.1672651011
 20
2.0920591853
 10
-26.1536018063
 20
2.0938497409
 10
-26.1403030475
 20
2.0947811388
 10
-26.1273952773
 20
2.0948515265
 10
-26.1149041702
 20
2.0940607642
 10
-26.102854572
 20
2.0924104248
 10
-26.0912704504
 20
2.0899037913
 10
-26.0801748472
 20
2.0865458497
 10
-26.0695898323
 20
2.0823432793
 10
-26.0595364602
 20
2.0773044398
 10
-26.0500347277
 20
2.0714393538
 10
-26.0482169557
 20
2.0701785725
  0
LWPOLYLINE
  5
324
100
AcDbEntity
  8
RACCORDO
100
AcDbPolyline
 62
250
  6
CONTINUOUS
 90
20
 70
0
 10
-26.6615363883
 20
2.5397049178
 10
-26.6455707011
 20
2.5507132813
 10
-26.6303150473
 20
2.5622140711
 10
-26.615799772
 20
2.5741844112
 10
-26.602053747
 20
2.5866004915
 10
-26.5891043146
 20
2.5994376154
 10
-26.5769772321
 20
2.6126702488
 10
-26.5656966214
 20
2.6262720708
 10
-26.5552849206
 20
2.6402160263
 10
-26.5457628395
 20
2.6544743795
 10
-26.5371493182
 20
2.6690187694
 10
-26.5294614899
 20
2.6838202659
 10
-26.5227146462
 20
2.6988494276
 10
-26.5169222072
 20
2.7140763602
 10
-26.5120956945
 20
2.729470776
 10
-26.5082447086
 20
2.7450020543
 10
-26.5053769093
 20
2.760639302
 10
-26.5034980009
 20
2.7763514152
 10
-26.5026117208
 20
2.7921071413
 10
-26.5025355713
 20
2.7982389783
  0
LINE
  5
325
100
AcDbEntity
  8
RACCORDO
100
AcDbLine
 62
250
  6
CONTINUOUS
 10
23.8635441255
 20
-34.9600197343
 11
-26.9580734724
 21
0.9762907004
  0
LWPOLYLINE
  5
326
100
AcDbEntity
  8
RACCORDO
100
AcDbPolyline
 62
250
  6
CONTINUOUS
 90
4
 70
0
 10
24.6087125957
 20
-49.4440375774
 10
24.6185119647
 20
-49.4543580267
 10
24.6290131774
 20
-49.4638088641
 10
24.6375509555
 20
-49.4704720306
  0
LINE
  5
327
100
AcDbEntity
  8
RACCORDO
100
AcDbLine
 62
250
  6
CONTINUOUS
 10
-28.9913213548
 20
44.9348258412
 11
-28.974604913
 21
44.8779341103
  0
LWPOLYLINE
  5
328
100
AcDbEntity
  8
RACCORDO
100
AcDbPolyline
 62
250
  6
CONTINUOUS
 90
3
 70
0
 10
-28.974604913
 20
44.8779341103
 10
-28.9570713745
 20
44.8162631014
 10
-28.9479894842
 20
44.7835824757
  0
LWPOLYLINE
  5
329
100
AcDbEntity
  8
RACCORDO
100
AcDbPolyline
 62
250
  6
CONTINUOUS
 90
41
 70
0
 10
-26.9580734729
 20
33.9082402971
 10
-26.9568698519
 20
33.9038135883
 10
-26.9556094236
 20
33.899444632
 10
-26.9542926913
 20
33.895133571
 10
-26.9529197778
 20
33.8908802475
 10
-26.9514915769
 20
33.8866850714
 10
-26.9500097565
 20
33.8825490173
 10
-26.9484748968
 20
33.8784723132
 10
-26.9468874621
 20
33.8744549062
 10
-26.9452489421
 20
33.8704973435
 10
-26.9435598475
 20
33.8665996669
 10
-26.9418207008
 20
33.8627619721
 10
-26.940032994
 20
33.8589848895
 10
-26.9381972625
 20
33.8552684898
 10
-26.9363140069
 20
33.8516127898
 10
-26.9343846551
 20
33.8480183399
 10
-26.9324097311
 20
33.8444851707
 10
-26.9303897431
 20
33.841013297
 10
-26.9283260827
 20
33.8376032477
 10
-26.9262192754
 20
33.834255038
 10
-26.9240698248
 20
33.8309686566
 10
-26.9218790782
 20
33.827744595
 10
-26.9196475571
 20
33.8245828466
 10
-26.9173757643
 20
33.8214833831
 10
-26.9150650079
 20
33.818446667
 10
-26.9127158061
 20
33.8154726727
 10
-26.9103286597
 20
33.8125613542
 10
-26.9079048394
 20
33.8097131464
 10
-26.9054448604
 20
33.8069280065
 10
-26.9029492205
 20
33.8042058709
 10
-26.9004191529
 20
33.8015471471
 10
-26.8978551691
 20
33.7989517752
 10
-26.8952577641
 20
33.7964196757
 10
-26.8926281357
 20
33.7939512307
 10
-26.8899667908
 20
33.7915463641
 10
-26.8872742218
 20
33.7892049815
 10
-26.8845515934
 20
33.7869274419
 10
-26.8817994086
 20
33.7847136539
 10
-26.8790181561
 20
33.7825635089
 10
-26.8762089693
 20
33.7804773436
 10
-26.874264707
 20
33.7790822848
  0
LINE
  5
32A
100
AcDbEntity
  8
RACCORDO
100
AcDbLine
 62
250
  6
CONTINUOUS
 10
-28.9479894842
 20
44.7835824757
 11
-28.9291523581
 21
44.7140658195
  0
LWPOLYLINE
  5
32B
100
AcDbEntity
  8
RACCORDO
100
AcDbPolyline
 62
250
  6
CONTINUOUS
 90
142
 70
0
 10
-27.9196781109
 20
33.8252097892
 10
-27.9173521838
 20
33.8164123569
 10
-27.9149207673
 20
33.8077338556
 10
-27.9123838613
 20
33.7991742853
 10
-27.9097407291
 20
33.7907330507
 10
-27.9069921075
 20
33.7824107472
 10
-27.9041402071
 20
33.7742091604
 10
-27.9011850856
 20
33.7661285751
 10
-27.8981266853
 20
33.7581687067
 10
-27.8949670446
 20
33.7503304861
 10
-27.8917061108
 20
33.7426138546
 10
-27.8883439367
 20
33.735018871
 10
-27.884882719
 20
33.7275466433
 10
-27.8813224462
 20
33.7201972261
 10
-27.8776631299
 20
33.7129705648
 10
-27.8739070014
 20
33.7058676026
 10
-27.8700540328
 20
33.6988883585
 10
-27.866104252
 20
33.6920328136
 10
-27.8620599748
 20
33.6853018547
 10
-27.8579211788
 20
33.6786955148
 10
-27.8536878864
 20
33.6722137609
 10
-27.8493624802
 20
33.6658573818
 10
-27.8449449356
 20
33.6596264076
 10
-27.8404352772
 20
33.6535208081
 10
-27.8358359621
 20
33.6475412809
 10
-27.8311469654
 20
33.641687858
 10
-27.8263683121
 20
33.6359605073
 10
-27.8215025343
 20
33.6303598306
 10
-27.816549608
 20
33.6248858625
 10
-27.8115095574
 20
33.6195385683
 10
-27.8063849869
 20
33.6143184456
 10
-27.8011758723
 20
33.6092255301
 10
-27.7958822378
 20
33.6042597861
 10
-27.7905067612
 20
33.5994216045
 10
-27.7850494176
 20
33.5947110216
 10
-27.7795102319
 20
33.5901280009
 10
-27.7738919566
 20
33.5856728244
 10
-27.7681945671
 20
33.5813455296
 10
-27.762418088
 20
33.5771460789
 10
-27.7565653457
 20
33.5730746405
 10
-27.7506363183
 20
33.569131255
 10
-27.7446310278
 20
33.5653158817
 10
-27.7385523658
 20
33.5616285674
 10
-27.7324003094
 20
33.5580693522
 10
-27.7261748817
 20
33.554638196
 10
-27.7198790438
 20
33.5513350246
 10
-27.7135127713
 20
33.5481598783
 10
-27.7070760887
 20
33.5451127168
 10
-27.7005720311
 20
33.5421933447
 10
-27.6940005761
 20
33.5394018042
 10
-27.6873617461
 20
33.5367380531
 10
-27.6806586439
 20
33.534201769
 10
-27.673891252
 20
33.5317929966
 10
-27.6670595879
 20
33.5295116912
 10
-27.6601668074
 20
33.5273573975
 10
-27.6532128902
 20
33.525330159
 10
-27.6461978566
 20
33.5234299321
 10
-27.6391249238
 20
33.5216561305
 10
-27.6319940689
 20
33.5200087978
 10
-27.6248053147
 20
33.5184878904
 10
-27.6175619466
 20
33.5170926907
 10
-27.6102639461
 20
33.5158232439
 10
-27.6029113318
 20
33.5146795048
 10
-27.5955074447
 20
33.5136606203
 10
-27.5880522741
 20
33.5127666365
 10
-27.5805458309
 20
33.5119975072
 10
-27.5729914884
 20
33.5113522409
 10
-27.5653892304
 20
33.5108308829
 10
-27.5577390732
 20
33.5104333878
 10
-27.5500444389
 20
33.5101586283
 10
-27.5423053048
 20
33.5100066503
 10
-27.5345216935
 20
33.5099774078
 10
-27.5266970946
 20
33.510069636
 10
-27.5188314944
 20
33.5102833814
 10
-27.5109249065
 20
33.5106185976
 10
-27.5029808621
 20
33.5110738804
 10
-27.4949993597
 20
33.5116492751
 10
-27.4869804008
 20
33.5123447364
 10
-27.4789275207
 20
33.5131587242
 10
-27.470840713
 20
33.514091283
 10
-27.4627199842
 20
33.5151423683
 10
-27.4545688888
 20
33.5163103063
 10
-27.4463874086
 20
33.5175951436
 10
-27.4381755618
 20
33.5189968335
 10
-27.4299369584
 20
33.520513562
 10
-27.4216715861
 20
33.5221453755
 10
-27.4133794572
 20
33.5238922277
 10
-27.405064219
 20
33.5257521655
 10
-27.3967258767
 20
33.5277252313
 10
-27.388364425
 20
33.5298113829
 10
-27.3799834951
 20
33.5320085401
 10
-27.3715830946
 20
33.534316743
 10
-27.363163216
 20
33.5367359516
 10
-27.3547274673
 20
33.5392639663
 10
-27.3462758224
 20
33.5419008378
 10
-27.3378083076
 20
33.5446465154
 10
-27.3293286096
 20
33.5474986472
 10
-27.3208367131
 20
33.5504572821
 10
-27.3123326335
 20
33.5535223712
 10
-27.3038201035
 20
33.5566914162
 10
-27.2952991463
 20
33.5599644518
 10
-27.2867697386
 20
33.5633414434
 10
-27.2782355434
 20
33.5668197889
 10
-27.2696965831
 20
33.5703995206
 10
-27.2611528353
 20
33.5740806062
 10
-27.2526078955
 20
33.5778603479
 10
-27.2440617751
 20
33.5817387804
 10
-27.2355144628
 20
33.585715869
 10
-27.2269695198
 20
33.5897888115
 10
-27.2184269499
 20
33.593957646
 10
-27.2098867493
 20
33.5982223344
 10
-27.2013524682
 20
33.6025799607
 10
-27.1928241065
 20
33.6070305648
 10
-27.1843016644
 20
33.6115741068
 10
-27.1757886924
 20
33.6162075506
 10
-27.1672852056
 20
33.620930928
 10
-27.1587911889
 20
33.6257442072
 10
-27.1503101476
 20
33.6306442564
 10
-27.141842105
 20
33.6356311016
 10
-27.1333870378
 20
33.6407047169
 10
-27.1249483817
 20
33.6458618928
 10
-27.1165261645
 20
33.6511026505
 10
-27.1081203583
 20
33.6564269688
 10
-27.0997343152
 20
33.661831575
 10
-27.0913680539
 20
33.6673164947
 10
-27.0830215555
 20
33.6728817023
 10
-27.0746981159
 20
33.6785238487
 10
-27.0663977862
 20
33.6842429347
 10
-27.0581205152
 20
33.6900389594
 10
-27.0498694445
 20
33.6959085716
 10
-27.041644575
 20
33.7018518059
 10
-27.0334459058
 20
33.7078686277
 10
-27.0252765753
 20
33.7139555817
 10
-27.0171366482
 20
33.7201126536
 10
-27.0090260597
 20
33.7263398578
 10
-27.0009477539
 20
33.7326337823
 10
-26.9929017226
 20
33.7389944673
 10
-26.984887974
 20
33.7454218725
 10
-26.9769094763
 20
33.751912465
 10
-26.9689672189
 20
33.7584650669
 10
-26.9610602124
 20
33.765080856
 10
-26.9531884568
 20
33.7717598322
  0
LINE
  5
32C
100
AcDbEntity
  8
RACCORDO
100
AcDbLine
 62
250
  6
CONTINUOUS
 10
-28.9291523581
 20
44.7140658195
 11
-28.9093826818
 21
44.638795999
  0
LINE
  5
32D
100
AcDbEntity
  8
RACCORDO
100
AcDbLine
 62
250
  6
CONTINUOUS
 10
-28.9093826818
 20
44.638795999
 11
-28.8885987776
 21
44.5571553752
  0
LINE
  5
32E
100
AcDbEntity
  8
RACCORDO
100
AcDbLine
 62
250
  6
CONTINUOUS
 10
-27.0014447438
 20
34.0788928681
 11
-26.9580734724
 21
33.9082402968
  0
LINE
  5
32F
100
AcDbEntity
  8
RACCORDO
100
AcDbLine
 62
250
  6
CONTINUOUS
 10
-27.9689168282
 20
34.019185474
 11
-27.9196781109
 21
33.8252097892
  0
LINE
  5
330
100
AcDbEntity
  8
RACCORDO
100
AcDbLine
 62
250
  6
CONTINUOUS
 10
-28.011922462
 20
34.1920186215
 11
-27.9689168282
 21
34.019185474
  0
LINE
  5
331
100
AcDbEntity
  8
RACCORDO
100
AcDbLine
 62
250
  6
CONTINUOUS
 10
-27.049619447
 20
34.2722364592
 11
-27.0014447438
 21
34.0788928681
  0
LINE
  5
332
100
AcDbEntity
  8
RACCORDO
100
AcDbLine
 62
250
  6
CONTINUOUS
 10
-28.8885987776
 20
44.5571553752
 11
-28.8666899493
 21
44.4683125965
  0
LINE
  5
333
100
AcDbEntity
  8
RACCORDO
100
AcDbLine
 62
250
  6
CONTINUOUS
 10
-28.0554740087
 20
34.3704477054
 11
-28.011922462
 21
34.1920186215
  0
LINE
  5
334
100
AcDbEntity
  8
RACCORDO
100
AcDbLine
 62
250
  6
CONTINUOUS
 10
-27.0928459254
 20
34.4492967381
 11
-27.049619447
 21
34.2722364592
  0
LINE
  5
335
100
AcDbEntity
  8
RACCORDO
100
AcDbLine
 62
250
  6
CONTINUOUS
 10
-28.0972869996
 20
34.545135896
 11
-28.0554740087
 21
34.3704477054
  0
LINE
  5
336
100
AcDbEntity
  8
RACCORDO
100
AcDbLine
 62
250
  6
CONTINUOUS
 10
-27.1343485277
 20
34.6226431572
 11
-27.0928459254
 21
34.4492967381
  0
LINE
  5
337
100
AcDbEntity
  8
RACCORDO
100
AcDbLine
 62
250
  6
CONTINUOUS
 10
-28.8666899493
 20
44.4683125965
 11
-28.8435925957
 21
44.3717869138
  0
LINE
  5
338
100
AcDbEntity
  8
RACCORDO
100
AcDbLine
 62
250
  6
CONTINUOUS
 10
-28.115583688
 20
34.6226516533
 11
-28.0972869996
 21
34.545135896
  0
LINE
  5
339
100
AcDbEntity
  8
RACCORDO
100
AcDbLine
 62
250
  6
CONTINUOUS
 10
-27.1815823603
 20
34.8241267314
 11
-27.1343485277
 21
34.6226431572
  0
LINE
  5
33A
100
AcDbEntity
  8
RACCORDO
100
AcDbLine
 62
250
  6
CONTINUOUS
 10
-28.8435925957
 20
44.3717869138
 11
-28.8192496478
 21
44.2669399135
  0
LINE
  5
33B
100
AcDbEntity
  8
RACCORDO
100
AcDbLine
 62
250
  6
CONTINUOUS
 10
-27.2240593107
 20
35.0093442295
 11
-27.1815823603
 21
34.8241267314
  0
LINE
  5
33C
100
AcDbEntity
  8
RACCORDO
100
AcDbLine
 62
250
  6
CONTINUOUS
 10
-28.8192496478
 20
44.2669399135
 11
-28.793588047
 21
44.1529910214
  0
LINE
  5
33D
100
AcDbEntity
  8
RACCORDO
100
AcDbLine
 62
250
  6
CONTINUOUS
 10
-27.271204636
 20
35.2196425971
 11
-27.2240593107
 21
35.0093442295
  0
LINE
  5
33E
100
AcDbEntity
  8
RACCORDO
100
AcDbLine
 62
250
  6
CONTINUOUS
 10
-27.3099616903
 20
35.3964607985
 11
-27.271204636
 21
35.2196425971
  0
LINE
  5
33F
100
AcDbEntity
  8
RACCORDO
100
AcDbLine
 62
250
  6
CONTINUOUS
 10
-28.793588047
 20
44.1529910214
 11
-28.7665268402
 21
44.029338109
  0
LWPOLYLINE
  5
340
100
AcDbEntity
  8
RACCORDO
100
AcDbPolyline
 62
250
  6
CONTINUOUS
 90
5
 70
0
 10
-26.9531884568
 20
33.7717598322
 10
-26.9563275238
 20
33.7864650099
 10
-26.9585307691
 20
33.80072931
 10
-26.9597937136
 20
33.8145237332
 10
-26.9599994141
 20
33.8230688859
  0
LINE
  5
341
100
AcDbEntity
  8
RACCORDO
100
AcDbLine
 62
250
  6
CONTINUOUS
 10
-28.7665268402
 20
44.029338109
 11
-28.7379340827
 21
43.8949297913
  0
LWPOLYLINE
  5
342
100
AcDbEntity
  8
RACCORDO
100
AcDbPolyline
 62
250
  6
CONTINUOUS
 90
3
 70
0
 10
-27.366639339
 20
35.6618595086
 10
-27.3518991604
 20
35.5920273055
 10
-27.3099616903
 20
35.3964607985
  0
LWPOLYLINE
  5
343
100
AcDbEntity
  8
RACCORDO
100
AcDbPolyline
 62
250
  6
CONTINUOUS
 90
3
 70
0
 10
-28.7379340827
 20
43.8949297913
 10
-28.7076857655
 20
43.748598636
 10
-28.691909521
 20
43.6708316509
  0
LWPOLYLINE
  5
344
100
AcDbEntity
  8
RACCORDO
100
AcDbPolyline
 62
250
  6
CONTINUOUS
 90
142
 70
0
 10
-26.9531884568
 20
2.4265723874
 10
-26.9610515917
 20
2.4228746224
 10
-26.9689505669
 20
2.419066942
 10
-26.9768853827
 20
2.4151493462
 10
-26.984857044
 20
2.4111217109
 10
-26.9928645458
 20
2.4069841601
 10
-27.0009048726
 20
2.4027370666
 10
-27.0089780197
 20
2.3983803969
 10
-27.0170839919
 20
2.3939141845
 10
-27.0252197881
 20
2.3893389014
 10
-27.0333854729
 20
2.3846544748
 10
-27.0415809817
 20
2.3798609776
 10
-27.0498031197
 20
2.3749591005
 10
-27.0580518885
 20
2.3699488051
 10
-27.0663272865
 20
2.3648301298
 10
-27.0746261132
 20
2.3596038801
 10
-27.0829484202
 20
2.3542699857
 10
-27.0912941561
 20
2.3488285168
 10
-27.0996599656
 20
2.3432804903
 10
-27.1080458671
 20
2.3376258547
 10
-27.1164518422
 20
2.3318646614
 10
-27.1248744818
 20
2.3259980819
 10
-27.1333138126
 20
2.3200260574
 10
-27.1417698079
 20
2.3139486467
 10
-27.1502389778
 20
2.3077671973
 10
-27.1587213653
 20
2.3014816356
 10
-27.1672169273
 20
2.2950920353
 10
-27.1757220455
 20
2.2885999652
 10
-27.1842367242
 20
2.2820053795
 10
-27.1927609591
 20
2.275308324
 10
-27.2012911183
 20
2.2685105053
 10
-27.2098271777
 20
2.2616119011
 10
-27.2183691616
 20
2.2546125337
 10
-27.2269135102
 20
2.2475141767
 10
-27.2354602236
 20
2.2403167903
 10
-27.2440093017
 20
2.2330204144
 10
-27.2525571855
 20
2.2256269416
 10
-27.2611039059
 20
2.2181363042
 10
-27.2696494319
 20
2.21054857
 10
-27.2781901116
 20
2.2028658346
 10
-27.2867259635
 20
2.1950880388
 10
-27.2952569692
 20
2.1872152417
 10
-27.3037794219
 20
2.1792497169
 10
-27.3122933088
 20
2.1711914338
 10
-27.3207986427
 20
2.163040423
 10
-27.3292917558
 20
2.1547990497
 10
-27.3377726296
 20
2.14646729
 10
-27.3462412826
 20
2.1380451679
 10
-27.3546941016
 20
2.1295351212
 10
-27.3631310978
 20
2.120937097
 10
-27.3715522602
 20
2.1122511483
 10
-27.3799539421
 20
2.1034798718
 10
-27.3883361519
 20
2.0946232154
 10
-27.3966988813
 20
2.0856812314
 10
-27.4050384586
 20
2.0766566731
 10
-27.4133548717
 20
2.0675495102
 10
-27.4216481326
 20
2.058359773
 10
-27.4299146068
 20
2.0490903062
 10
-27.4381542749
 20
2.0397410879
 10
-27.4463671561
 20
2.0303121398
 10
-27.4545496739
 20
2.0208063717
 10
-27.4627018244
 20
2.0112237447
 10
-27.4708236115
 20
2.0015642976
 10
-27.4789114694
 20
1.9918310575
 10
-27.4869653991
 20
1.9820239783
 10
-27.4949853998
 20
1.972143106
 10
-27.5029679029
 20
1.9621916053
 10
-27.5109128954
 20
1.9521694469
 10
-27.5188203904
 20
1.9420766601
 10
-27.5266868591
 20
1.9319164965
 10
-27.5345122794
 20
1.9216889392
 10
-27.5422966735
 20
1.9113940051
 10
-27.5500365791
 20
1.9010349972
 10
-27.5577319819
 20
1.8906118889
 10
-27.5653828961
 20
1.8801247067
 10
-27.5729859024
 20
1.8695768333
 10
-27.580540992
 20
1.8589682341
 10
-27.5880481736
 20
1.8482989438
 10
-27.5955040539
 20
1.8375724491
 10
-27.6029086155
 20
1.8267887273
 10
-27.610261876
 20
1.815947801
 10
-27.617560494
 20
1.8050532253
 10
-27.6248044475
 20
1.7941049853
 10
-27.6319937586
 20
1.7831030959
 10
-27.6391251533
 20
1.7720511568
 10
-27.6461986121
 20
1.7609491496
 10
-27.6532141544
 20
1.7497970928
 10
-27.6601685649
 20
1.7385986415
 10
-27.6670618274
 20
1.7273537718
 10
-27.6738939579
 20
1.7160625078
 10
-27.6806617895
 20
1.7047285762
 10
-27.6873653006
 20
1.6933519623
 10
-27.6940045126
 20
1.681932681
 10
-27.7005763232
 20
1.6704745038
 10
-27.7070807077
 20
1.6589774223
 10
-27.7135176908
 20
1.647441445
 10
-27.7198842443
 20
1.6358703692
 10
-27.7261803453
 20
1.6242641841
 10
-27.7324060167
 20
1.6126229006
 10
-27.738558299
 20
1.600950349
 10
-27.744637171
 20
1.5892465156
 10
-27.7506426539
 20
1.5775114141
 10
-27.7565718517
 20
1.5657489156
 10
-27.7624247398
 20
1.5539590137
 10
-27.7682013427
 20
1.5421417149
 10
-27.7738988381
 20
1.5303009094
 10
-27.7795172021
 20
1.5184365906
 10
-27.7850564586
 20
1.5065487652
 10
-27.7905138569
 20
1.494641344
 10
-27.7958893733
 20
1.4827143208
 10
-27.8011830314
 20
1.4707677018
 10
-27.806392152
 20
1.4588054162
 10
-27.8115167113
 20
1.4468274587
 10
-27.816556733
 20
1.4348338346
 10
-27.821509609
 20
1.4228284893
 10
-27.8263753135
 20
1.4108114239
 10
-27.8311538723
 20
1.3987826373
 10
-27.8358427544
 20
1.3867460729
 10
-27.8404419336
 20
1.3747017345
 10
-27.8449514362
 20
1.3626496182
 10
-27.8493688097
 20
1.3505936549
 10
-27.8536940297
 20
1.3385338465
 10
-27.8579271206
 20
1.326470191
 10
-27.8620657039
 20
1.3144066129
 10
-27.8661097584
 20
1.302343106
 10
-27.8700593052
 20
1.2902796764
 10
-27.8739120297
 20
1.2782202673
 10
-27.8776679043
 20
1.2661648954
 10
-27.8813269567
 20
1.254113544
 10
-27.8848869554
 20
1.2420701058
 10
-27.8883478894
 20
1.2300345392
 10
-27.8917097697
 20
1.2180068858
 10
-27.8949703983
 20
1.2059911637
 10
-27.8981297231
 20
1.1939874975
 10
-27.9011877963
 20
1.1819957626
 10
-27.9041425765
 20
1.1700196035
 10
-27.9069941205
 20
1.1580586594
 10
-27.9097423714
 20
1.1461132912
 10
-27.9123851171
 20
1.1341882256
 10
-27.9149216203
 20
1.1222850382
 10
-27.9173526182
 20
1.1104021534
 10
-27.9196781109
 20
1.0985395711
  0
LWPOLYLINE
  5
345
100
AcDbEntity
  8
RACCORDO
100
AcDbPolyline
 62
250
  6
CONTINUOUS
 90
40
 70
0
 10
-27.9196776393
 20
1.0985392131
 10
-27.899598757
 20
1.1071234748
 10
-27.8788092838
 20
1.1151360672
 10
-27.8573414897
 20
1.1225645624
 10
-27.8352287205
 20
1.1293973119
 10
-27.8125052782
 20
1.1356238428
 10
-27.7892063693
 20
1.1412348692
 10
-27.7653681526
 20
1.1462217325
 10
-27.7410276428
 20
1.1505766414
 10
-27.7162225872
 20
1.1542930571
 10
-27.6909914845
 20
1.1573652543
 10
-27.6653735112
 20
1.1597884177
 10
-27.6394084234
 20
1.1615588697
 10
-27.6131365211
 20
1.162673903
 10
-27.5865985956
 20
1.163131745
 10
-27.5598358529
 20
1.1629316454
 10
-27.5328898327
 20
1.1620739467
 10
-27.5058023699
 20
1.1605599512
 10
-27.4786155384
 20
1.1583918789
 10
-27.4513715437
 20
1.1555730986
 10
-27.4241126742
 20
1.1521079874
 10
-27.3968812605
 20
1.148001791
 10
-27.3697195809
 20
1.1432608651
 10
-27.3426697917
 20
1.1378925893
 10
-27.3157738792
 20
1.1319052195
 10
-27.289073597
 20
1.1253080166
 10
-27.2626103902
 20
1.1181112497
 10
-27.2364253272
 20
1.1103261028
 10
-27.2105590631
 20
1.1019645937
 10
-27.1850517455
 20
1.0930397588
 10
-27.1599429403
 20
1.083565652
 10
-27.1352716424
 20
1.0735568847
 10
-27.1110761339
 20
1.0630290801
 10
-27.0873938934
 20
1.0519990598
 10
-27.0642617021
 20
1.040483849
 10
-27.0417154497
 20
1.0285014242
 10
-27.0197899948
 20
1.0160711787
 10
-26.9985193232
 20
1.0032126892
 10
-26.9779364965
 20
0.9899456755
 10
-26.9580734615
 20
0.9762907569
  0
LWPOLYLINE
  5
346
100
AcDbEntity
  8
RACCORDO
100
AcDbPolyline
 62
250
  6
CONTINUOUS
 90
19
 70
0
 10
-26.6615363883
 20
2.5397051122
 10
-26.6792562737
 20
2.5340310555
 10
-26.6967781391
 20
2.5282818516
 10
-26.7141019845
 20
2.5224575004
 10
-26.7312217374
 20
2.5165569698
 10
-26.7481434703
 20
2.5105812919
 10
-26.7648854002
 20
2.5045335634
 10
-26.7814483245
 20
2.4984139211
 10
-26.7978314458
 20
2.4922222282
 10
-26.8140505886
 20
2.4859611715
 10
-26.830106365
 20
2.4796308961
 10
-26.8459981629
 20
2.473231257
 10
-26.8617399705
 20
2.4667645057
 10
-26.8773320265
 20
2.4602309025
 10
-26.8927740922
 20
2.4536301872
 10
-26.9080794408
 20
2.4469638309
 10
-26.9232524966
 20
2.440232324
 10
-26.9382888353
 20
2.4334351762
 10
-26.9531884568
 20
2.4265723874
  0
LINE
  5
347
100
AcDbEntity
  8
RACCORDO
100
AcDbLine
 62
250
  6
CONTINUOUS
 10
23.8170664847
 20
-33.8747676013
 11
-26.5518399137
 21
1.7414276736
  0
LINE
  5
348
100
AcDbEntity
  8
RACCORDO
100
AcDbLine
 62
250
  6
CONTINUOUS
 10
23.8002050317
 20
-33.4544629368
 11
-26.3492078436
 21
2.0065269799
  0
LINE
  5
349
100
AcDbEntity
  8
RACCORDO
100
AcDbLine
 62
7
  6
CONTINUOUS
 10
23.7887894232
 20
-33.1699065883
 11
-26.0481941967
 21
2.0701624832
  0
LINE
  5
34A
100
AcDbEntity
  8
RACCORDO
100
AcDbLine
 62
7
  6
CONTINUOUS
 10
23.752960283
 20
-32.1786967082
 11
-26.5025355683
 21
3.3573052002
  0
LINE
  5
34B
100
AcDbEntity
  8
0
100
AcDbLine
 62
7
  6
CONTINUOUS
 10
-26.5025355683
 20
4.0573052002
 11
23.7281158336
 21
-31.4611290295
  0
LINE
  5
34C
100
AcDbEntity
  8
0
100
AcDbLine
 62
7
  6
CONTINUOUS
 10
-23.6665718338
 20
4.339843978
 11
-23.5846183121
 21
4.281894087
  0
LWPOLYLINE
  5
34D
100
AcDbEntity
  8
RACCORDO
100
AcDbPolyline
 62
7
  6
CONTINUOUS
 90
47
 70
0
 10
-26.0482166815
 20
2.0701789603
 10
-26.0641874198
 20
2.0817386271
 10
-26.0802600549
 20
2.0939061861
 10
-26.0965287358
 20
2.1067673267
 10
-26.1129363589
 20
2.1202949352
 10
-26.1293986201
 20
2.1344343662
 10
-26.1458770009
 20
2.1491655781
 10
-26.162334451
 20
2.1644673349
 10
-26.1786995974
 20
2.1802822539
 10
-26.1949372986
 20
2.1965831702
 10
-26.2110109501
 20
2.2133402894
 10
-26.2268578538
 20
2.2304917808
 10
-26.2424430681
 20
2.2479991635
 10
-26.2577356456
 20
2.2658278004
 10
-26.2726891225
 20
2.2839217426
 10
-26.2872629545
 20
2.3022233546
 10
-26.3014415201
 20
2.3207045323
 10
-26.3152222104
 20
2.3393569636
 10
-26.3285769279
 20
2.3581321717
 10
-26.3414855689
 20
2.376989505
 10
-26.3539577753
 20
2.3959374382
 10
-26.3659733264
 20
2.4149345469
 10
-26.377511179
 20
2.4339318
 10
-26.3885760706
 20
2.4529294136
 10
-26.3991529182
 20
2.4718891901
 10
-26.4092242709
 20
2.490759297
 10
-26.4187870392
 20
2.5095203471
 10
-26.4278297605
 20
2.5281323779
 10
-26.4363438149
 20
2.546549812
 10
-26.4443268636
 20
2.5647434541
 10
-26.4517757958
 20
2.5826810838
 10
-26.4586865848
 20
2.6003171697
 10
-26.4650542116
 20
2.6175989398
 10
-26.4708836109
 20
2.6344988129
 10
-26.4761784723
 20
2.6509769425
 10
-26.4809349926
 20
2.6669576172
 10
-26.4851662754
 20
2.6824136233
 10
-26.4888865703
 20
2.6973166207
 10
-26.4921005615
 20
2.7115841292
 10
-26.4948311714
 20
2.7251951794
 10
-26.497101316
 20
2.7381256164
 10
-26.4989258163
 20
2.7502830176
 10
-26.5003371499
 20
2.7616522485
 10
-26.5013687569
 20
2.7722162957
 10
-26.5020502666
 20
2.7818775605
 10
-26.5024233525
 20
2.7905976374
 10
-26.502535207
 20
2.7982389782
  0
LWPOLYLINE
  5
34E
100
AcDbEntity
  8
RACCORDO
100
AcDbPolyline
 62
250
  6
CONTINUOUS
 90
40
 70
0
 10
-28.9153530693
 20
-5.4260234651
 10
-28.8949594664
 20
-5.4153608646
 10
-28.8738569573
 20
-5.4052763407
 10
-28.8520782762
 20
-5.3957855362
 10
-28.8296572061
 20
-5.3869031735
 10
-28.8066285267
 20
-5.3786430307
 10
-28.78302796
 20
-5.3710179211
 10
-28.7588921151
 20
-5.3640396727
 10
-28.7342584316
 20
-5.3577191101
 10
-28.7091651211
 20
-5.3520660378
 10
-28.6836511084
 20
-5.3470892248
 10
-28.6577559709
 20
-5.3427963912
 10
-28.6315198769
 20
-5.3391941959
 10
-28.6049835239
 20
-5.3362882269
 10
-28.5781880752
 20
-5.3340829917
 10
-28.5511750956
 20
-5.3325819111
 10
-28.5239864878
 20
-5.3317873136
 10
-28.4966644267
 20
-5.3317004319
 10
-28.4692512942
 20
-5.3323214006
 10
-28.4417896135
 20
-5.3336492566
 10
-28.4143219833
 20
-5.33568194
 10
-28.3868910112
 20
-5.3384162979
 10
-28.3595392481
 20
-5.3418480886
 10
-28.3323091222
 20
-5.3459719888
 10
-28.3052428726
 20
-5.3507816015
 10
-28.2783824847
 20
-5.3562694661
 10
-28.2517696241
 20
-5.3624270698
 10
-28.2254455727
 20
-5.3692448609
 10
-28.1994511645
 20
-5.3767122637
 10
-28.1738267218
 20
-5.3848176947
 10
-28.1486119934
 20
-5.3935485809
 10
-28.1238460923
 20
-5.402891379
 10
-28.0995674353
 20
-5.4128315963
 10
-28.0758136836
 20
-5.4233538137
 10
-28.0526216839
 20
-5.434441709
 10
-28.0300274116
 20
-5.4460780829
 10
-28.008065915
 20
-5.4582448849
 10
-27.9867712608
 20
-5.4709232419
 10
-27.9661764813
 20
-5.4840934873
 10
-27.946313523
 20
-5.4977351914
  0
LINE
  5
34F
100
AcDbEntity
  8
RACCORDO
100
AcDbLine
 62
250
  6
CONTINUOUS
 10
-28.1204467152
 20
12.1052329506
 11
-28.1856744048
 21
12.1513557702
  0
LINE
  5
350
100
AcDbEntity
  8
ASSI
100
AcDbLine
 62
7
  6
CONTINUOUS
 10
-27.6970804866
 20
11.9550243395
 11
-28.1856744048
 21
12.3005124123
  0
LWPOLYLINE
  5
351
100
AcDbEntity
  8
RACCORDO
100
AcDbPolyline
 62
250
  6
CONTINUOUS
 90
49
 70
0
 10
25.0843415339
 20
-49.7000468913
 10
25.0832269786
 20
-49.6983782729
 10
25.082095916
 20
-49.6966441663
 10
25.0809484523
 20
-49.694844502
 10
25.0797860961
 20
-49.6929829642
 10
25.0786075511
 20
-49.6910557315
 10
25.077408745
 20
-49.6890514565
 10
25.0761892444
 20
-49.6869694698
 10
25.0749497685
 20
-49.6848102551
 10
25.0736880172
 20
-49.682564164
 10
25.0724041178
 20
-49.6802313197
 10
25.0710982709
 20
-49.6778113893
 10
25.0697683171
 20
-49.6752940191
 10
25.0684143266
 20
-49.6726791373
 10
25.0670366038
 20
-49.6699665801
 10
25.0656333684
 20
-49.6671458374
 10
25.064204637
 20
-49.6642165994
 10
25.0627508117
 20
-49.661178918
 10
25.0612707114
 20
-49.6580228137
 10
25.0597647084
 20
-49.6547486629
 10
25.0582328829
 20
-49.6513558172
 10
25.0566736357
 20
-49.6478327488
 10
25.0550876516
 20
-49.6441806231
 10
25.0534747416
 20
-49.6403979835
 10
25.0518320318
 20
-49.6364693484
 10
25.0501597558
 20
-49.6323948182
 10
25.0484582523
 20
-49.6281739626
 10
25.0467248535
 20
-49.6237904759
 10
25.0449604414
 20
-49.619246108
 10
25.0431647775
 20
-49.6145387467
 10
25.041333578
 20
-49.6096462554
 10
25.0394682695
 20
-49.6045721087
 10
25.0375681825
 20
-49.599312414
 10
25.0356260082
 20
-49.5938339132
 10
25.033642125
 20
-49.5881371272
 10
25.0316171214
 20
-49.5822210076
 10
25.029544159
 20
-49.5760498537
 10
25.0274235535
 20
-49.5696235323
 10
25.0252561719
 20
-49.5629415447
 10
25.0230361486
 20
-49.5559675615
 10
25.0207647578
 20
-49.5487041474
 10
25.0184421141
 20
-49.5411480168
 10
25.0160607749
 20
-49.5332539782
 10
25.0136226732
 20
-49.5250267878
 10
25.0111275428
 20
-49.5164608486
 10
25.0085648821
 20
-49.5074953139
 10
25.0059344862
 20
-49.4981266787
 10
25.0032386657
 20
-49.4883574123
 10
25.0004709317
 20
-49.47813551
  0
LWPOLYLINE
  5
352
100
AcDbEntity
  8
RACCORDO
100
AcDbPolyline
 62
250
  6
CONTINUOUS
 90
20
 70
0
 10
44.6951112633
 20
-30.7581503326
 10
44.68593661
 20
-30.7526154567
 10
44.6757370128
 20
-30.7476395628
 10
44.6649999836
 20
-30.7435143777
 10
44.6537472182
 20
-30.740248237
 10
44.6420014546
 20
-30.7378477404
 10
44.6297864268
 20
-30.7363177385
 10
44.6171268171
 20
-30.7356613228
 10
44.6040482063
 20
-30.7358798199
 10
44.5905770216
 20
-30.7369727881
 10
44.5767404837
 20
-30.7389380189
 10
44.5625665513
 20
-30.7417715414
 10
44.5480838651
 20
-30.7454676299
 10
44.5333216895
 20
-30.7500188159
 10
44.5183098538
 20
-30.7554159031
 10
44.5030786916
 20
-30.7616479859
 10
44.4876589798
 20
-30.7687024713
 10
44.4720818763
 20
-30.7765651047
 10
44.456378857
 20
-30.7852199984
 10
44.4405816523
 20
-30.794649664
  0
LWPOLYLINE
  5
353
100
AcDbEntity
  8
RACCORDO
100
AcDbPolyline
 62
7
  6
CONTINUOUS
 90
27
 70
0
 10
44.6984425785
 20
-30.7603983224
 10
44.6803207721
 20
-30.7481696276
 10
44.6616566239
 20
-30.7367301394
 10
44.6424909392
 20
-30.7261087334
 10
44.6228652386
 20
-30.7163310927
 10
44.6028248277
 20
-30.7074212379
 10
44.5824190346
 20
-30.6994010181
 10
44.5617334688
 20
-30.6922997569
 10
44.5407790302
 20
-30.686115822
 10
44.5194903821
 20
-30.6808342752
 10
44.4978517793
 20
-30.6764666156
 10
44.4759727079
 20
-30.6730491321
 10
44.453974397
 20
-30.6706047017
 10
44.4319955908
 20
-30.6691409478
 10
44.4099986738
 20
-30.6686466665
 10
44.3878406435
 20
-30.6691276289
 10
44.3654531293
 20
-30.6706142431
 10
44.3430124047
 20
-30.6731228852
 10
44.3207388742
 20
-30.676636538
 10
44.2987377121
 20
-30.6811300505
 10
44.2769986616
 20
-30.6865963558
 10
44.2555592023
 20
-30.6930209006
 10
44.2345067045
 20
-30.7003692665
 10
44.2138361808
 20
-30.7086347218
 10
44.1934498726
 20
-30.7178620653
 10
44.1732912178
 20
-30.7281026376
 10
44.1676088561
 20
-30.7312003669
  0
LINE
  5
354
100
AcDbEntity
  8
RACCORDO
100
AcDbLine
 62
250
  6
CONTINUOUS
 10
43.9541616999
 20
-31.6418733884
 11
44.1545673896
 21
-31.7835816106
  0
LINE
  5
355
100
AcDbEntity
  8
RACCORDO
100
AcDbLine
 62
250
  6
CONTINUOUS
 10
44.4405816523
 20
-30.794649664
 11
45.0837512053
 21
-31.2494392164
  0
LWPOLYLINE
  5
356
100
AcDbEntity
  8
RACCORDO
100
AcDbPolyline
 62
250
  6
CONTINUOUS
 90
46
 70
0
 10
-29.2240189284
 20
45.519309946
 10
-29.2208496549
 20
45.5141405426
 10
-29.2176251977
 20
45.5087896352
 10
-29.2143455351
 20
45.5032572397
 10
-29.2110126243
 20
45.4975514499
 10
-29.207624462
 20
45.4916642054
 10
-29.2041750802
 20
45.4855712941
 10
-29.2006661782
 20
45.4792770153
 10
-29.1970959964
 20
45.4727771135
 10
-29.1934533671
 20
45.4660345533
 10
-29.1897380816
 20
45.4590506549
 10
-29.1859502671
 20
45.4518241574
 10
-29.1820792431
 20
45.4443141642
 10
-29.1781239573
 20
45.4365203194
 10
-29.1740853521
 20
45.428443059
 10
-29.1699557192
 20
45.4200426898
 10
-29.1657356392
 20
45.4113222552
 10
-29.1614243863
 20
45.4022788175
 10
-29.1570122662
 20
45.3928637322
 10
-29.152500455
 20
45.3830820536
 10
-29.147887583
 20
45.3729288683
 10
-29.1431600993
 20
45.3623406083
 10
-29.1383162871
 20
45.3513162101
 10
-29.1333575988
 20
45.3398569298
 10
-29.1282751879
 20
45.3279027155
 10
-29.1230639971
 20
45.3154431746
 10
-29.1177287301
 20
45.3024889578
 10
-29.112275132
 20
45.2890116135
 10
-29.1067054502
 20
45.2750178938
 10
-29.1010170026
 20
45.2605013642
 10
-29.0952080857
 20
45.2454138336
 10
-29.0892814234
 20
45.2297652667
 10
-29.0832337434
 20
45.2135460997
 10
-29.0770542625
 20
45.1966789115
 10
-29.0707429602
 20
45.1791679244
 10
-29.0642991399
 20
45.1610094409
 10
-29.0577108829
 20
45.1421142487
 10
-29.0509782802
 20
45.1224879143
 10
-29.0441003041
 20
45.1021255575
 10
-29.0370631955
 20
45.0809224148
 10
-29.0298661194
 20
45.0588823561
 10
-29.0225086801
 20
45.0360024145
 10
-29.0149775665
 20
45.0121677263
 10
-29.0072724407
 20
44.9873849788
 10
-28.9993920322
 20
44.9616486669
 10
-28.9913213548
 20
44.9348258412
  0
LWPOLYLINE
  5
357
100
AcDbEntity
  8
RACCORDO
100
AcDbPolyline
 62
250
  6
CONTINUOUS
 90
49
 70
0
 10
-29.3128490702
 20
45.5619632467
 10
-29.3118061109
 20
45.5602451699
 10
-29.3107514568
 20
45.5584583485
 10
-29.3096850226
 20
45.5566028483
 10
-29.3086076711
 20
45.5546828292
 10
-29.3075183721
 20
45.5526942627
 10
-29.3064141764
 20
45.5506249498
 10
-29.3052943064
 20
45.548474353
 10
-29.3041593121
 20
45.5462431873
 10
-29.3030081999
 20
45.5439211583
 10
-29.3018407882
 20
45.5415087344
 10
-29.3006570034
 20
45.5390056497
 10
-29.2994559889
 20
45.5364005279
 10
-29.2982374185
 20
45.5336935424
 10
-29.2970013309
 20
45.5308847523
 10
-29.2957473957
 20
45.5279626276
 10
-29.294475236
 20
45.5249271419
 10
-29.2931849139
 20
45.5217785821
 10
-29.2918767418
 20
45.5185059015
 10
-29.2905506474
 20
45.5151098311
 10
-29.2892063716
 20
45.5115899219
 10
-29.287843932
 20
45.5079333712
 10
-29.2864634034
 20
45.5041415783
 10
-29.2850643558
 20
45.5002134543
 10
-29.2836460246
 20
45.4961324857
 10
-29.2822080957
 20
45.4918992266
 10
-29.2807504837
 20
45.4875134798
 10
-29.279272735
 20
45.4829576336
 10
-29.2777750471
 20
45.4782341768
 10
-29.2762567858
 20
45.4733410217
 10
-29.2747162021
 20
45.4682537332
 10
-29.2731536231
 20
45.4629762359
 10
-29.2715682142
 20
45.4575050812
 10
-29.2699563986
 20
45.4518048488
 10
-29.2683175664
 20
45.4458770783
 10
-29.2666516907
 20
45.4397208359
 10
-29.2649559599
 20
45.4332970881
 10
-29.2632294674
 20
45.4266064155
 10
-29.261472354
 20
45.419648983
 10
-29.2596832807
 20
45.4123852261
 10
-29.2578619985
 20
45.4048188029
 10
-29.2560078842
 20
45.3969469325
 10
-29.2541189321
 20
45.3887204949
 10
-29.2521949087
 20
45.3801446088
 10
-29.2502350296
 20
45.3712152127
 10
-29.2482363183
 20
45.3618695606
 10
-29.2461971191
 20
45.3521068497
 10
-29.2441178578
 20
45.3419292004
 10
-29.2419985381
 20
45.3312784008
  0
LWPOLYLINE
  5
358
100
AcDbEntity
  8
RACCORDO
100
AcDbPolyline
 62
250
  6
CONTINUOUS
 90
100
 70
0
 10
25.0027581305
 20
-49.6522693875
 10
24.9997046073
 20
-49.6470117465
 10
24.9966015977
 20
-49.641567399
 10
24.9934491237
 20
-49.6359363301
 10
24.9902487711
 20
-49.6301265479
 10
24.9869990004
 20
-49.6241300125
 10
24.9836951506
 20
-49.6179226325
 10
24.9803390882
 20
-49.6115091893
 10
24.9769290071
 20
-49.6048848601
 10
24.9734547483
 20
-49.5980111393
 10
24.9699159435
 20
-49.5908889725
 10
24.9663130428
 20
-49.5835173579
 10
24.962637131
 20
-49.5758548571
 10
24.9588873513
 20
-49.5679012429
 10
24.9550646706
 20
-49.5596566668
 10
24.95116293
 20
-49.5510802445
 10
24.9471826673
 20
-49.5421748096
 10
24.9431234901
 20
-49.5329374288
 10
24.9389778709
 20
-49.523318549
 10
24.9347474859
 20
-49.5133244528
 10
24.9304308523
 20
-49.5029487249
 10
24.9260157425
 20
-49.492122739
 10
24.9215002654
 20
-49.4808442963
 10
24.9168865786
 20
-49.4691154131
 10
24.9121685777
 20
-49.4568737507
 10
24.9073398803
 20
-49.4441026173
 10
24.9024072268
 20
-49.4308184598
 10
24.8973842415
 20
-49.4170086178
 10
24.8922757915
 20
-49.4026858593
 10
24.8870774342
 20
-49.3878371262
 10
24.8817888791
 20
-49.3724109848
 10
24.8764139074
 20
-49.3564204009
 10
24.8709492744
 20
-49.3398520423
 10
24.8653842394
 20
-49.3226149683
 10
24.8597182979
 20
-49.3047104483
 10
24.8539526684
 20
-49.2861367258
 10
24.8480793221
 20
-49.2667982336
 10
24.842098716
 20
-49.2466991486
 10
24.8360113288
 20
-49.2258346562
 10
24.8298093279
 20
-49.2040955918
 10
24.8234924577
 20
-49.1814833459
 10
24.8170622042
 20
-49.1579956906
 10
24.8105135553
 20
-49.133517892
 10
24.8038480383
 20
-49.1080578731
 10
24.7970657247
 20
-49.0816066249
 10
24.7901596911
 20
-49.0540238299
 10
24.783130505
 20
-49.025313786
 10
24.7759797002
 20
-48.9954707706
 10
24.7687021635
 20
-48.9643391906
 10
24.7612982254
 20
-48.9319211314
 10
24.753770308
 20
-48.8982126455
 10
24.7461168915
 20
-48.8630487826
 10
24.7383422114
 20
-48.8264501244
 10
24.7304455915
 20
-48.7883936876
 10
24.7224187779
 20
-48.7486487484
 10
24.7142649955
 20
-48.7072337288
 10
24.7059857615
 20
-48.6641270161
 10
24.6975711879
 20
-48.6190372102
 10
24.6890170394
 20
-48.5719364895
 10
24.6803340114
 20
-48.5228483427
 10
24.6715356944
 20
-48.4715576105
 10
24.6626290473
 20
-48.4180945249
 10
24.6536153252
 20
-48.3624233671
 10
24.6445009109
 20
-48.3042291538
 10
24.6352902497
 20
-48.2435274371
 10
24.6259897363
 20
-48.180295456
 10
24.6166106087
 20
-48.1141594747
 10
24.6071582388
 20
-48.0451368844
 10
24.5976416033
 20
-47.9732008001
 10
24.5880799659
 20
-47.8979093422
 10
24.5784811593
 20
-47.8192943697
 10
24.5688564102
 20
-47.7373114861
 10
24.5592337369
 20
-47.6514020227
 10
24.549614355
 20
-47.5615115021
 10
24.5400229652
 20
-47.4676774644
 10
24.5305271317
 20
-47.3694764544
 10
24.5211077624
 20
-47.266476663
 10
24.5118182351
 20
-47.159087671
 10
24.5028345434
 20
-47.0481483489
 10
24.4941856783
 20
-46.9336732666
 10
24.4858736727
 20
-46.8156280554
 10
24.4780286503
 20
-46.6947818011
 10
24.4706761309
 20
-46.5711870968
 10
24.4638177128
 20
-46.4447743804
 10
24.4575423297
 20
-46.3161330195
 10
24.4518672519
 20
-46.1852419258
 10
24.4467989258
 20
-46.0521076861
 10
24.4424046673
 20
-45.9173647077
 10
24.4386995636
 20
-45.7810058818
 10
24.4356870894
 20
-45.6430273566
 10
24.4334109655
 20
-45.5040724174
 10
24.4318830683
 20
-45.3641527137
 10
24.4311039595
 20
-45.223249706
 10
24.4310939824
 20
-45.0819654819
 10
24.4318610372
 20
-44.9403216291
 10
24.4334034249
 20
-44.7982937061
 10
24.4357210029
 20
-44.6564185891
 10
24.4388177494
 20
-44.5147224298
 10
24.4426900777
 20
-44.3731798836
 10
24.4450911537
 20
-44.300112237
  0
LINE
  5
359
100
AcDbEntity
  8
DRAFT
100
AcDbLine
 62
7
  6
CONTINUOUS
 10
43.9541616999
 20
-30.2523384443
 11
44.2156791601
 21
-30.4372592138
  0
LINE
  5
35A
100
AcDbEntity
  8
RACCORDO
100
AcDbLine
 62
7
  6
CONTINUOUS
 10
44.6984425785
 20
-30.7603983224
 11
45.3506168335
 21
-31.2215551606
  0
LINE
  5
35B
100
AcDbEntity
  8
ASSI
100
AcDbLine
 62
7
  6
CONTINUOUS
 10
-27.6970804866
 20
23.1273114823
 11
-27.983963469
 21
23.3301683846
  0
LINE
  5
35C
100
AcDbEntity
  8
ASSI
100
AcDbLine
 62
7
  6
CONTINUOUS
 10
-26.4949989586
 20
24.4773114823
 11
-26.141445568
 21
24.2273114823
  0
LWPOLYLINE
  5
35D
100
AcDbEntity
  8
RACCORDO
100
AcDbPolyline
 62
250
  6
CONTINUOUS
 90
19
 70
0
 10
44.4405816523
 20
-30.794649664
 10
44.4246670536
 20
-30.7826861654
 10
44.4087188982
 20
-30.7715919218
 10
44.3927731043
 20
-30.7613919196
 10
44.3768655849
 20
-30.7521091309
 10
44.3610321665
 20
-30.7437644625
 10
44.3453085092
 20
-30.7363767081
 10
44.3297300254
 20
-30.7299625062
 10
44.3143318008
 20
-30.7245363029
 10
44.2991485151
 20
-30.7201103189
 10
44.2842143638
 20
-30.7166945224
 10
44.2695629816
 20
-30.7142966065
 10
44.255227366
 20
-30.7129219717
 10
44.2412398036
 20
-30.7125737138
 10
44.2276317968
 20
-30.7132526174
 10
44.2144339936
 20
-30.7149571532
 10
44.2016761178
 20
-30.7176834825
 10
44.1893869025
 20
-30.721425465
 10
44.1775940253
 20
-30.726174673
  0
LINE
  5
35E
100
AcDbEntity
  8
RACCORDO
100
AcDbLine
 62
7
  6
CONTINUOUS
 10
-26.874264707
 20
33.7790822848
 11
-26.8742304054
 21
33.7790580239
  0
LINE
  5
35F
100
AcDbEntity
  8
RACCORDO
100
AcDbLine
 62
7
  6
CONTINUOUS
 10
-26.8742302962
 20
33.7790579467
 11
24.1818750921
 21
-2.3230603944
  0
LINE
  5
360
100
AcDbEntity
  8
RACCORDO
100
AcDbLine
 62
250
  6
CONTINUOUS
 10
-26.9580734724
 20
33.9082402968
 11
24.1860204147
 21
-2.2560953087
  0
LINE
  5
361
100
AcDbEntity
  8
RACCORDO
100
AcDbLine
 62
7
  6
CONTINUOUS
 10
-28.957739025
 20
45.3010536422
 11
-28.7673568279
 21
45.1384271106
  0
LINE
  5
362
100
AcDbEntity
  8
RACCORDO
100
AcDbLine
 62
250
  6
CONTINUOUS
 10
25.0004709317
 20
-49.47813551
 11
24.9947181108
 21
-49.4563075745
  0
LINE
  5
363
100
AcDbEntity
  8
RACCORDO
100
AcDbLine
 62
250
  6
CONTINUOUS
 10
24.9947181108
 20
-49.4563075745
 11
24.9887015831
 21
-49.4326268538
  0
LINE
  5
364
100
AcDbEntity
  8
RACCORDO
100
AcDbLine
 62
250
  6
CONTINUOUS
 10
24.9887015831
 20
-49.4326268538
 11
24.9824265278
 21
-49.407023626
  0
LINE
  5
365
100
AcDbEntity
  8
RACCORDO
100
AcDbLine
 62
250
  6
CONTINUOUS
 10
24.9824265278
 20
-49.407023626
 11
24.9758851128
 21
-49.379353485
  0
LINE
  5
366
100
AcDbEntity
  8
RACCORDO
100
AcDbLine
 62
250
  6
CONTINUOUS
 10
24.9758851128
 20
-49.379353485
 11
24.9690449633
 21
-49.3493477566
  0
LINE
  5
367
100
AcDbEntity
  8
RACCORDO
100
AcDbLine
 62
250
  6
CONTINUOUS
 10
24.9690449633
 20
-49.3493477566
 11
24.9618933984
 21
-49.3168332035
  0
LINE
  5
368
100
AcDbEntity
  8
RACCORDO
100
AcDbLine
 62
250
  6
CONTINUOUS
 10
24.9618933984
 20
-49.3168332035
 11
24.9544078732
 21
-49.2815512135
  0
LINE
  5
369
100
AcDbEntity
  8
RACCORDO
100
AcDbLine
 62
250
  6
CONTINUOUS
 10
24.9544078732
 20
-49.2815512135
 11
24.9465619557
 21
-49.2431944935
  0
LINE
  5
36A
100
AcDbEntity
  8
RACCORDO
100
AcDbLine
 62
250
  6
CONTINUOUS
 10
24.9465619557
 20
-49.2431944935
 11
24.9383463775
 21
-49.2015524886
  0
LINE
  5
36B
100
AcDbEntity
  8
RACCORDO
100
AcDbLine
 62
250
  6
CONTINUOUS
 10
24.9383463775
 20
-49.2015524886
 11
24.9297418886
 21
-49.1563153029
  0
LINE
  5
36C
100
AcDbEntity
  8
RACCORDO
100
AcDbLine
 62
250
  6
CONTINUOUS
 10
24.9297418886
 20
-49.1563153029
 11
24.9207183956
 21
-49.1070795437
  0
LINE
  5
36D
100
AcDbEntity
  8
RACCORDO
100
AcDbLine
 62
250
  6
CONTINUOUS
 10
24.7809156957
 20
-48.0997889102
 11
24.7652492224
 21
-47.9544127505
  0
LINE
  5
36E
100
AcDbEntity
  8
RACCORDO
100
AcDbLine
 62
7
  6
CONTINUOUS
 10
24.5484944736
 20
-49.2696906061
 11
24.5513000615
 21
-49.2966716285
  0
LINE
  5
36F
100
AcDbEntity
  8
RACCORDO
100
AcDbLine
 62
250
  6
CONTINUOUS
 10
24.7652492224
 20
-47.9544127505
 11
24.7489916336
 21
-47.7949244653
  0
LINE
  5
370
100
AcDbEntity
  8
RACCORDO
100
AcDbLine
 62
250
  6
CONTINUOUS
 10
24.7489916336
 20
-47.7949244653
 11
24.7336205545
 21
-47.6352591979
  0
LINE
  5
371
100
AcDbEntity
  8
RACCORDO
100
AcDbLine
 62
7
  6
CONTINUOUS
 10
24.5484944736
 20
7.4384271106
 11
24.7377036654
 21
7.3326419968
  0
LWPOLYLINE
  5
372
100
AcDbEntity
  8
RACCORDO
100
AcDbPolyline
 62
7
  6
CONTINUOUS
 90
5
 70
0
 10
24.8508837313
 20
7.2671611189
 10
24.8218785781
 20
7.2842590214
 10
24.7933499403
 20
7.3008619858
 10
24.7652916273
 20
7.3169896378
 10
24.7377036654
 20
7.3326419968
  0
LINE
  5
373
100
AcDbEntity
  8
RACCORDO
100
AcDbLine
 62
7
  6
CONTINUOUS
 10
24.9102861897
 20
7.2315980726
 11
24.8508837313
 21
7.2671611189
  0
LWPOLYLINE
  5
374
100
AcDbEntity
  8
RACCORDO
100
AcDbPolyline
 62
7
  6
CONTINUOUS
 90
3
 70
0
 10
25.0027581327
 20
7.1751881621
 10
24.9714825844
 20
7.1944080351
 10
24.9102861897
 20
7.2315980726
  0
LWPOLYLINE
  5
375
100
AcDbEntity
  8
RACCORDO
100
AcDbPolyline
 62
7
  6
CONTINUOUS
 90
34
 70
0
 10
25.0027581328
 20
7.1751881621
 10
25.0068556141
 20
7.1726151147
 10
25.0108278137
 20
7.170036334
 10
25.0146744247
 20
7.1674556778
 10
25.0183912536
 20
7.1648780651
 10
25.0219822097
 20
7.162306624
 10
25.0254591843
 20
7.1597419918
 10
25.0288217749
 20
7.1571885439
 10
25.0320705364
 20
7.1546487394
 10
25.0352185736
 20
7.1521191873
 10
25.0382674535
 20
7.1496019754
 10
25.0412157714
 20
7.147100665
 10
25.0440718372
 20
7.1446131209
 10
25.046838046
 20
7.1421403324
 10
25.04951227
 20
7.1396863247
 10
25.0520959492
 20
7.13725313
 10
25.0545880586
 20
7.1348452008
 10
25.0569905248
 20
7.1324630553
 10
25.0593090709
 20
7.1301025915
 10
25.0615428967
 20
7.1277682438
 10
25.0636937932
 20
7.1254600746
 10
25.0657707562
 20
7.123167002
 10
25.067779834
 20
7.1208858108
 10
25.0697152836
 20
7.1186234959
 10
25.0715683786
 20
7.1163844075
 10
25.0733406174
 20
7.1141727818
 10
25.0750324141
 20
7.1119886438
 10
25.0766343158
 20
7.109830679
 10
25.078148418
 20
7.1077077093
 10
25.0795762104
 20
7.1056152109
 10
25.0809080646
 20
7.103532542
 10
25.0821425124
 20
7.1014543516
 10
25.0832860668
 20
7.0993899802
 10
25.0843415403
 20
7.0973408843
  0
LWPOLYLINE
  5
376
100
AcDbEntity
  8
RACCORDO
100
AcDbPolyline
 62
250
  6
CONTINUOUS
 90
10
 70
0
 10
39.6601928954
 20
-3.230529748
 10
38.0182912474
 20
-2.1040944234
 10
36.3823191743
 20
-0.9731499639
 10
34.7522988433
 20
0.1622885561
 10
33.1282517371
 20
1.3022063393
 10
31.5102004639
 20
2.4465875945
 10
29.8981687347
 20
3.5954155238
 10
28.2921789598
 20
4.7486740234
 10
26.6922522706
 20
5.9063476976
 10
25.0984103142
 20
7.0684205786
  0
LWPOLYLINE
  5
377
100
AcDbEntity
  8
RACCORDO
100
AcDbPolyline
 62
250
  6
CONTINUOUS
 90
10
 70
0
 10
40.1273711588
 20
-2.4417230644
 10
38.4241954397
 20
-1.273076828
 10
36.7274536916
 20
-0.0996045968
 10
35.0371459144
 20
1.0786936294
 10
33.3532454333
 20
2.2618367326
 10
31.6757789232
 20
3.4498058307
 10
30.0048264085
 20
4.6425442775
 10
28.340414564
 20
5.8400331909
 10
26.6825167149
 20
7.0422914531
 10
25.0311328611
 20
8.249319064
  0
LINE
  5
378
100
AcDbEntity
  8
DRAFT
100
AcDbLine
 62
7
  6
CONTINUOUS
 10
-28.7673568279
 20
45.1384271106
 11
24.5484944736
 21
7.4384271106
  0
LINE
  5
379
100
AcDbEntity
  8
RACCORDO
100
AcDbLine
 62
250
  6
CONTINUOUS
 10
24.5513000577
 20
7.4693754241
 11
-28.764551523
 21
45.1693756215
  0
LINE
  5
37A
100
AcDbEntity
  8
RACCORDO
100
AcDbLine
 62
250
  6
CONTINUOUS
 10
24.7377036516
 20
7.3326419867
 11
24.5512990374
 21
7.4693642023
  0
LINE
  5
37B
100
AcDbEntity
  8
RACCORDO
100
AcDbLine
 62
7
  6
CONTINUOUS
 10
-29.1616810587
 20
45.4693425865
 11
-29.2240189284
 21
45.519309946
  0
LINE
  5
37C
100
AcDbEntity
  8
RACCORDO
100
AcDbLine
 62
7
  6
CONTINUOUS
 10
-29.1011268501
 20
45.4202626823
 11
-29.1616810587
 21
45.4693425865
  0
LINE
  5
37D
100
AcDbEntity
  8
RACCORDO
100
AcDbLine
 62
7
  6
CONTINUOUS
 10
-29.042372965
 20
45.372036552
 11
-29.1011268501
 21
45.4202626823
  0
LWPOLYLINE
  5
37E
100
AcDbEntity
  8
RACCORDO
100
AcDbPolyline
 62
7
  6
CONTINUOUS
 90
3
 70
0
 10
-28.957739025
 20
45.3010536422
 10
-28.9854863589
 20
45.3245292463
 10
-29.042372965
 20
45.372036552
  0
LINE
  5
37F
100
AcDbEntity
  8
RACCORDO
100
AcDbLine
 62
250
  6
CONTINUOUS
 10
24.9207183956
 20
-49.1070795437
 11
24.9112672539
 21
-49.0535663577
  0
LINE
  5
380
100
AcDbEntity
  8
RACCORDO
100
AcDbLine
 62
250
  6
CONTINUOUS
 10
24.9112672539
 20
-49.0535663577
 11
24.9013639443
 21
-48.9953440166
  0
LINE
  5
381
100
AcDbEntity
  8
RACCORDO
100
AcDbLine
 62
250
  6
CONTINUOUS
 10
24.9013639443
 20
-48.9953440166
 11
24.8909874144
 21
-48.9319542185
  0
LINE
  5
382
100
AcDbEntity
  8
RACCORDO
100
AcDbLine
 62
250
  6
CONTINUOUS
 10
24.8909874144
 20
-48.9319542185
 11
24.8801297861
 21
-48.8630182507
  0
LINE
  5
383
100
AcDbEntity
  8
RACCORDO
100
AcDbLine
 62
250
  6
CONTINUOUS
 10
24.8801297861
 20
-48.8630182507
 11
24.8687546649
 21
-48.7878938928
  0
LINE
  5
384
100
AcDbEntity
  8
RACCORDO
100
AcDbLine
 62
250
  6
CONTINUOUS
 10
24.8687546649
 20
-48.7878938928
 11
24.8568076177
 21
-48.7057236086
  0
LINE
  5
385
100
AcDbEntity
  8
RACCORDO
100
AcDbLine
 62
250
  6
CONTINUOUS
 10
24.8568076177
 20
-48.7057236086
 11
24.8442943482
 21
-48.6160258914
  0
LINE
  5
386
100
AcDbEntity
  8
RACCORDO
100
AcDbLine
 62
250
  6
CONTINUOUS
 10
24.8442943482
 20
-48.6160258914
 11
24.8312261253
 21
-48.5182580109
  0
LINE
  5
387
100
AcDbEntity
  8
RACCORDO
100
AcDbLine
 62
250
  6
CONTINUOUS
 10
24.8312261253
 20
-48.5182580109
 11
24.8175722069
 21
-48.4114755971
  0
LWPOLYLINE
  5
388
100
AcDbEntity
  8
RACCORDO
100
AcDbPolyline
 62
250
  6
CONTINUOUS
 90
11
 70
0
 10
24.5512999158
 20
-49.2966715255
 10
24.5535694226
 20
-49.314671191
 10
24.5566293808
 20
-49.3320148308
 10
24.5604749556
 20
-49.3486746257
 10
24.5651002067
 20
-49.3646240783
 10
24.570497694
 20
-49.37983736
 10
24.5766584074
 20
-49.3942894321
 10
24.5835724848
 20
-49.4079570737
 10
24.5912289343
 20
-49.4208185566
 10
24.5996151855
 20
-49.4328530459
 10
24.6087125957
 20
-49.4440375774
  0
LINE
  5
389
100
AcDbEntity
  8
RACCORDO
100
AcDbLine
 62
250
  6
CONTINUOUS
 10
24.8175722069
 20
-48.4114755971
 11
24.8033488122
 21
-48.2950165187
  0
LWPOLYLINE
  5
38A
100
AcDbEntity
  8
RACCORDO
100
AcDbPolyline
 62
250
  6
CONTINUOUS
 90
3
 70
0
 10
24.8033488122
 20
-48.2950165187
 10
24.7885452181
 20
-48.1678383429
 10
24.7809156957
 20
-48.0997889102
  0
LWPOLYLINE
  5
38B
100
AcDbEntity
  8
RACCORDO
100
AcDbPolyline
 62
250
  6
CONTINUOUS
 90
108
 70
0
 10
24.5026068305
 20
2.4685973839
 10
24.5002920647
 20
2.4932919125
 10
24.490648168
 20
2.6039895283
 10
24.4816731312
 20
2.715463721
 10
24.473371597
 20
2.8277047422
 10
24.4657836133
 20
2.9404377597
 10
24.4589156492
 20
3.0536810303
 10
24.4527700735
 20
3.1674224285
 10
24.4473769449
 20
3.2813384284
 10
24.4427414189
 20
3.3954465829
 10
24.4388630233
 20
3.5097320523
 10
24.4357587261
 20
3.6238189886
 10
24.4334321105
 20
3.7377220522
 10
24.4318792301
 20
3.8514252473
 10
24.4311003276
 20
3.9645024313
 10
24.4310971181
 20
4.0769632406
 10
24.4318617379
 20
4.1887921664
 10
24.4333739888
 20
4.2995205819
 10
24.4356333109
 20
4.4091475008
 10
24.4386278798
 20
4.517663253
 10
24.4423142121
 20
4.6245812263
 10
24.4466889202
 20
4.7298859863
 10
24.4517369162
 20
4.8335777456
 10
24.4573909951
 20
4.9351886243
 10
24.4636434623
 20
5.0346763364
 10
24.470478297
 20
5.1320641301
 10
24.477810661
 20
5.2269785253
 10
24.4856437273
 20
5.3194913982
 10
24.4939479023
 20
5.4095100228
 10
24.5025835502
 20
5.4964097648
 10
24.5115393491
 20
5.5801007276
 10
24.5207947056
 20
5.6606480528
 10
24.530190837
 20
5.7376557479
 10
24.5396849881
 20
5.8108743014
 10
24.5492867077
 20
5.8805277799
 10
24.5589155931
 20
5.9469305616
 10
24.5685416888
 20
6.0100054248
 10
24.5781686802
 20
6.0698096086
 10
24.5877705506
 20
6.1268621818
 10
24.5973369658
 20
6.1811979478
 10
24.6068591551
 20
6.2327676512
 10
24.6163171767
 20
6.2819670968
 10
24.6257011512
 20
6.3288088404
 10
24.6350065376
 20
6.3732694736
 10
24.6442240479
 20
6.4156928491
 10
24.6533494995
 20
6.4561024395
 10
24.6623762529
 20
6.4944666636
 10
24.6712932467
 20
6.531048228
 10
24.6800958488
 20
6.5658567303
 10
24.6887803645
 20
6.5988763592
 10
24.6973384938
 20
6.6303327213
 10
24.7057619693
 20
6.6602194509
 10
24.7140526311
 20
6.6885381346
 10
24.722218458
 20
6.7155271399
 10
24.7302576634
 20
6.7412002588
 10
24.7381672751
 20
6.765540171
 10
24.745954402
 20
6.7887392485
 10
24.753619072
 20
6.8108108971
 10
24.7611576734
 20
6.8317390606
 10
24.7685724898
 20
6.851672387
 10
24.7758613827
 20
6.8706148935
 10
24.7830237287
 20
6.8885605253
 10
24.7900645453
 20
6.905643163
 10
24.7969824126
 20
6.9218674871
 10
24.8037766409
 20
6.9372272638
 10
24.8104537039
 20
6.9518402681
 10
24.8170129223
 20
6.9657115872
 10
24.8234533669
 20
6.9788349518
 10
24.8297814136
 20
6.9913113047
 10
24.8359960167
 20
7.0031440723
 10
24.842096991
 20
7.0143289252
 10
24.8480922142
 20
7.0249553277
 10
24.8539815179
 20
7.0350275524
 10
24.8597641335
 20
7.0445406403
 10
24.8654472008
 20
7.0535703275
 10
24.8710305045
 20
7.0621199711
 10
24.8765135427
 20
7.0701856891
 10
24.8819031462
 20
7.0778324479
 10
24.8872016696
 20
7.0850658321
 10
24.8924062098
 20
7.091879856
 10
24.8975157959
 20
7.098322193
 10
24.9025324441
 20
7.1043959554
 10
24.9074537034
 20
7.1100977133
 10
24.912271957
 20
7.1154653663
 10
24.9169824546
 20
7.1204949488
 10
24.9215895929
 20
7.1251901684
 10
24.9260995256
 20
7.1296004702
 10
24.930510531
 20
7.1337268427
 10
24.9348240664
 20
7.1375681047
 10
24.9390511039
 20
7.1411704843
 10
24.9431926388
 20
7.1445372222
 10
24.9472474822
 20
7.1476649366
 10
24.9512233675
 20
7.1505899487
 10
24.9551207643
 20
7.1533143508
 10
24.9589390578
 20
7.155835945
 10
24.962684381
 20
7.1581846371
 10
24.966355666
 20
7.1603614125
 10
24.9699538707
 20
7.1623652059
 10
24.9734881876
 20
7.1642228612
 10
24.9769583479
 20
7.1659359198
 10
24.9803645389
 20
7.167502781
 10
24.9837166538
 20
7.1689455883
 10
24.9870162653
 20
7.1702662407
 10
24.9902617404
 20
7.1714627953
 10
24.9934581753
 20
7.1725516406
 10
24.9966072547
 20
7.1735382292
 10
24.9997072477
 20
7.174417075
 10
25.0027581327
 20
7.1751881621
  0
LWPOLYLINE
  5
38C
100
AcDbEntity
  8
RACCORDO
100
AcDbPolyline
 62
7
  6
CONTINUOUS
 90
35
 70
0
 10
24.6818588161
 20
4.7981049288
 10
24.6263937956
 20
4.09817547
 10
24.4993590725
 20
2.4258426786
 10
24.3805009615
 20
0.7589961302
 10
24.2698229852
 20
-0.9023173457
 10
24.1673283424
 20
-2.5580540118
 10
24.0730202983
 20
-4.2081680278
 10
23.9869018552
 20
-5.8526111812
 10
23.9089758682
 20
-7.4913361664
 10
23.8392450808
 20
-9.1242959024
 10
23.7777117896
 20
-10.7514427502
 10
23.7243781747
 20
-12.3727285954
 10
23.6792462536
 20
-13.9881064158
 10
23.6423175666
 20
-15.5975300015
 10
23.6135935585
 20
-17.2009524969
 10
23.593075548
 20
-18.7983275757
 10
23.5807643819
 20
-20.3896092573
 10
23.5766607923
 20
-21.9747512368
 10
23.5807653927
 20
-23.5537078731
 10
23.5930783284
 20
-25.1264336083
 10
23.6135996192
 20
-26.6928822998
 10
23.6423291714
 20
-28.2530087578
 10
23.6792664182
 20
-29.806768041
 10
23.7244106514
 20
-31.3541144229
 10
23.7777610762
 20
-32.8950034898
 10
23.8393164216
 20
-34.4293907544
 10
23.909075234
 20
-35.9572304364
 10
23.987035958
 20
-37.4784778572
 10
24.0731965933
 20
-38.9930895924
 10
24.1675550058
 20
-40.5010217858
 10
24.270108933
 20
-42.0022302784
 10
24.3808558521
 20
-43.4966736901
 10
24.499793283
 20
-44.9843123286
 10
24.6269184356
 20
-46.4651041307
 10
24.7336214728
 20
-47.6352690148
  0
LINE
  5
38D
100
AcDbEntity
  8
RACCORDO
100
AcDbLine
 62
250
  6
CONTINUOUS
 10
24.6818584058
 20
4.7980998131
 11
24.6975952717
 21
4.9867602273
  0
LWPOLYLINE
  5
38E
100
AcDbEntity
  8
RACCORDO
100
AcDbPolyline
 62
250
  6
CONTINUOUS
 90
37
 70
0
 10
25.0984103142
 20
7.0684205786
 10
24.9553931203
 20
5.3876775623
 10
24.8205260289
 20
3.7123410862
 10
24.6938130687
 20
2.0424593865
 10
24.5752581378
 20
0.378080456
 10
24.4648646651
 20
-1.2807476809
 10
24.3626356097
 20
-2.9339769701
 10
24.268573999
 20
-4.5815597895
 10
24.1826826696
 20
-6.2234486732
 10
24.1049639272
 20
-7.8595960369
 10
24.0354200679
 20
-9.4899547014
 10
23.9740531928
 20
-11.1144777127
 10
23.9208649472
 20
-12.7331180671
 10
23.8758568938
 20
-14.3458290685
 10
23.8390304007
 20
-15.9525642579
 10
23.8103864537
 20
-17.5532772345
 10
23.7899258826
 20
-19.1479218187
 10
23.7776493234
 20
-20.736452036
 10
23.7735571046
 20
-22.3188220463
 10
23.7776493234
 20
-23.8949861802
 10
23.7899258826
 20
-25.4648989778
 10
23.8103864537
 20
-27.0285151723
 10
23.8390304007
 20
-28.5857896163
 10
23.8758568938
 20
-30.1366773761
 10
23.9208649472
 20
-31.6811337705
 10
23.9740531929
 20
-33.2191142029
 10
24.035420068
 20
-34.7505742602
 10
24.1049639272
 20
-36.2754698078
 10
24.1826826696
 20
-37.7937567908
 10
24.268573999
 20
-39.30539135
 10
24.3626356098
 20
-40.8103299221
 10
24.4648646651
 20
-42.3085289797
 10
24.5752581378
 20
-43.7999452555
 10
24.6938130688
 20
-45.2845358601
 10
24.820526029
 20
-46.7622579453
 10
24.9553931203
 20
-48.2330687049
 10
25.0984103142
 20
-49.6969256006
  0
LINE
  5
38F
100
AcDbEntity
  8
RACCORDO
100
AcDbLine
 62
7
  6
CONTINUOUS
 10
24.5513000577
 20
7.4693754241
 11
24.5484944736
 21
7.4384271106
  0
LINE
  5
390
100
AcDbEntity
  8
RACCORDO
100
AcDbLine
 62
250
  6
CONTINUOUS
 10
24.6975952717
 20
4.9867602273
 11
24.7147906371
 21
5.1775252274
  0
LINE
  5
391
100
AcDbEntity
  8
RACCORDO
100
AcDbLine
 62
250
  6
CONTINUOUS
 10
24.7147906371
 20
5.1775252274
 11
24.7319770169
 21
5.3544509075
  0
LINE
  5
392
100
AcDbEntity
  8
RACCORDO
100
AcDbLine
 62
250
  6
CONTINUOUS
 10
24.7319770169
 20
5.3544509075
 11
24.7487538415
 21
5.5155642376
  0
LWPOLYLINE
  5
393
100
AcDbEntity
  8
RACCORDO
100
AcDbPolyline
 62
250
  6
CONTINUOUS
 90
37
 70
0
 10
24.5512999158
 20
7.4693755244
 10
24.5536872372
 20
7.4905901247
 10
24.5568649086
 20
7.5122469441
 10
24.5608280983
 20
7.5343113338
 10
24.5655708702
 20
7.5567481594
 10
24.5710857874
 20
7.5795213229
 10
24.577363842
 20
7.6025937854
 10
24.5843951725
 20
7.6259282946
 10
24.5921687939
 20
7.6494876766
 10
24.6006721474
 20
7.6732343361
 10
24.6098971998
 20
7.6971263095
 10
24.6198241453
 20
7.7211291097
 10
24.6304210763
 20
7.7452159873
 10
24.6416624809
 20
7.7693546805
 10
24.6535394783
 20
7.7935000728
 10
24.6660435237
 20
7.8176060393
 10
24.6791582453
 20
7.8416314637
 10
24.6928594898
 20
7.8655402608
 10
24.707125573
 20
7.8892940364
 10
24.721933928
 20
7.9128546674
 10
24.7372610734
 20
7.9361843665
 10
24.75308265
 20
7.9592457042
 10
24.7693735977
 20
7.9820016621
 10
24.7861080648
 20
8.0044157332
 10
24.803259376
 20
8.0264519864
 10
24.8208003384
 20
8.0480750421
 10
24.838703102
 20
8.0692501997
 10
24.856939068
 20
8.0899435396
 10
24.8754793022
 20
8.1101218309
 10
24.8942943574
 20
8.1297526804
 10
24.9133541324
 20
8.1488046639
 10
24.9326283685
 20
8.1672471787
 10
24.9520864457
 20
8.1850506065
 10
24.9716972031
 20
8.2021864666
 10
24.9914294042
 20
8.2186272695
 10
25.0112517873
 20
8.2343465568
 10
25.0311328611
 20
8.249319064
  0
LINE
  5
394
100
AcDbEntity
  8
RACCORDO
100
AcDbLine
 62
250
  6
CONTINUOUS
 10
24.7487538415
 20
5.5155642376
 11
24.7650335113
 21
5.6621377151
  0
LINE
  5
395
100
AcDbEntity
  8
RACCORDO
100
AcDbLine
 62
250
  6
CONTINUOUS
 10
24.7650335113
 20
5.6621377151
 11
24.7807134724
 21
5.7949816473
  0
LINE
  5
396
100
AcDbEntity
  8
RACCORDO
100
AcDbLine
 62
250
  6
CONTINUOUS
 10
24.7807134724
 20
5.7949816473
 11
24.7958261685
 21
5.9158675137
  0
LINE
  5
397
100
AcDbEntity
  8
RACCORDO
100
AcDbLine
 62
250
  6
CONTINUOUS
 10
24.7958261685
 20
5.9158675137
 11
24.8103675837
 21
6.0259726626
  0
LINE
  5
398
100
AcDbEntity
  8
RACCORDO
100
AcDbLine
 62
250
  6
CONTINUOUS
 10
24.8103675837
 20
6.0259726626
 11
24.8243109913
 21
6.1260677945
  0
LINE
  5
399
100
AcDbEntity
  8
RACCORDO
100
AcDbLine
 62
250
  6
CONTINUOUS
 10
24.8243109913
 20
6.1260677945
 11
24.8376879074
 21
6.2172729105
  0
LINE
  5
39A
100
AcDbEntity
  8
RACCORDO
100
AcDbLine
 62
250
  6
CONTINUOUS
 10
24.8376879074
 20
6.2172729105
 11
24.8505019069
 21
6.3003683466
  0
LINE
  5
39B
100
AcDbEntity
  8
RACCORDO
100
AcDbLine
 62
250
  6
CONTINUOUS
 10
24.8505019069
 20
6.3003683466
 11
24.862736956
 21
6.375859697
  0
LINE
  5
39C
100
AcDbEntity
  8
RACCORDO
100
AcDbLine
 62
250
  6
CONTINUOUS
 10
24.862736956
 20
6.375859697
 11
24.8744025375
 21
6.4444226267
  0
LINE
  5
39D
100
AcDbEntity
  8
RACCORDO
100
AcDbLine
 62
250
  6
CONTINUOUS
 10
24.8744025375
 20
6.4444226267
 11
24.8855429565
 21
6.5068441408
  0
LWPOLYLINE
  5
39E
100
AcDbEntity
  8
RACCORDO
100
AcDbPolyline
 62
250
  6
CONTINUOUS
 90
77
 70
0
 10
24.8855429565
 20
6.5068441408
 10
24.8961683655
 20
6.5635821263
 10
24.9013065684
 20
6.5900642412
 10
24.9063202616
 20
6.6152763309
 10
24.9112248485
 20
6.6393783883
 10
24.9160166776
 20
6.662374972
 10
24.9206911423
 20
6.6842598934
 10
24.9252631362
 20
6.7051772224
 10
24.9297297409
 20
6.7251316343
 10
24.9340869905
 20
6.7441169745
 10
24.9383489995
 20
6.7622612541
 10
24.942513653
 20
6.7795698189
 10
24.9465773397
 20
6.796035998
 10
24.9505525872
 20
6.8117699421
 10
24.9544373251
 20
6.8267750419
 10
24.9582288223
 20
6.8410467177
 10
24.9619391669
 20
6.8546833119
 10
24.9655670181
 20
6.8676891941
 10
24.9691097217
 20
6.8800589461
 10
24.9725778611
 20
6.8918763602
 10
24.9759702469
 20
6.9031448355
 10
24.9792847152
 20
6.9138600436
 10
24.9825307666
 20
6.9240942987
 10
24.9857087389
 20
6.9338541016
 10
24.9888154877
 20
6.9431321355
 10
24.9918555265
 20
6.9519800568
 10
24.9948291102
 20
6.960402186
 10
24.9977334669
 20
6.9683934257
 10
25.0005686161
 20
6.9759913093
 10
25.003331066
 20
6.9831901777
 10
25.0060218706
 20
6.9899948819
 10
25.0086479531
 20
6.9964587415
 10
25.0112074212
 20
7.0025812747
 10
25.0137000914
 20
7.0083622438
 10
25.0161356835
 20
7.013855417
 10
25.01851419
 20
7.0190643064
 10
25.0208339495
 20
7.0239848031
 10
25.0231024287
 20
7.0286593291
 10
25.0253195172
 20
7.0330903025
 10
25.0274839377
 20
7.0372747924
 10
25.0296015693
 20
7.0412472595
 10
25.0316715013
 20
7.0450082822
 10
25.0336934626
 20
7.0485568307
 10
25.0356744385
 20
7.0519250109
 10
25.0376139329
 20
7.0551140884
 10
25.0395114802
 20
7.0581224216
 10
25.0413742664
 20
7.0609778204
 10
25.0432028647
 20
7.0636827379
 10
25.0449959455
 20
7.0662344211
 10
25.0467579596
 20
7.068652921
 10
25.0484892244
 20
7.0709396524
 10
25.0501887843
 20
7.0730929421
 10
25.0518592465
 20
7.0751282371
 10
25.0535003001
 20
7.0770458944
 10
25.055111687
 20
7.0788453202
 10
25.0566961403
 20
7.0805405546
 10
25.0582537853
 20
7.0821322941
 10
25.0597840008
 20
7.0836196313
 10
25.0612884355
 20
7.0850142159
 10
25.0627670224
 20
7.0863163605
 10
25.0642193774
 20
7.0875255552
 10
25.0656466933
 20
7.0886522238
 10
25.0670485703
 20
7.0896964058
 10
25.0684249911
 20
7.0906578739
 10
25.0697777431
 20
7.0915466603
 10
25.0711065078
 20
7.0923629584
 10
25.0724112303
 20
7.0931064029
 10
25.0736941223
 20
7.0937862009
 10
25.074955036
 20
7.0944026702
 10
25.0761937935
 20
7.0949553403
 10
25.0774125908
 20
7.0954522498
 10
25.0786106641
 20
7.095893613
 10
25.0797884915
 20
7.0962790793
 10
25.0809501749
 20
7.0966158619
 10
25.0820970207
 20
7.096906337
 10
25.0832275111
 20
7.0971480281
 10
25.08434154
 20
7.0973408841
  0
LINE
  5
39F
100
AcDbEntity
  8
RACCORDO
100
AcDbLine
 62
250
  6
CONTINUOUS
 10
44.9230874665
 20
0.882332729
 11
40.1273711588
 21
-2.4417230644
  0
LWPOLYLINE
  5
3A0
100
AcDbEntity
  8
RACCORDO
100
AcDbPolyline
 62
250
  6
CONTINUOUS
 90
37
 70
0
 10
40.6220443804
 20
-3.2861830755
 10
40.6001284476
 20
-3.298061684
 10
40.5773875523
 20
-3.3092271946
 10
40.5538677719
 20
-3.3196822238
 10
40.5296259121
 20
-3.3294572193
 10
40.5047064623
 20
-3.338534718
 10
40.4791377272
 20
-3.346847661
 10
40.4529722404
 20
-3.3544090767
 10
40.4262663888
 20
-3.361230568
 10
40.3990509927
 20
-3.3672443547
 10
40.3713808333
 20
-3.3724706717
 10
40.3433157872
 20
-3.3769273875
 10
40.3148901091
 20
-3.3805456644
 10
40.2861583574
 20
-3.3833527437
 10
40.2571826781
 20
-3.385373449
 10
40.228002862
 20
-3.3865385777
 10
40.1986697207
 20
-3.3868810561
 10
40.1692459674
 20
-3.3864329465
 10
40.1397806981
 20
-3.3851271219
 10
40.1103162948
 20
-3.3829992659
 10
40.0809135434
 20
-3.380088221
 10
40.0516364418
 20
-3.3763339005
 10
40.0225135549
 20
-3.3717699514
 10
39.9936001116
 20
-3.3664402841
 10
39.9649816699
 20
-3.3602997319
 10
39.9366683682
 20
-3.353373715
 10
39.9087050297
 20
-3.3457076791
 10
39.881204106
 20
-3.3372813935
 10
39.8541560602
 20
-3.3281061765
 10
39.8275900274
 20
-3.318223477
 10
39.801645397
 20
-3.3076475102
 10
39.776297561
 20
-3.2963726712
 10
39.7515564876
 20
-3.2844298623
 10
39.7275796273
 20
-3.2718726506
 10
39.7043980805
 20
-3.2587141371
 10
39.681939314
 20
-3.2449348708
 10
39.6601929153
 20
-3.2305297274
  0
LINE
  5
3A1
100
AcDbEntity
  8
RACCORDO
100
AcDbLine
 62
250
  6
CONTINUOUS
 10
-28.7645525429
 20
45.1693643997
 11
-28.9577390385
 21
45.3010536323
  0
LWPOLYLINE
  5
3A2
100
AcDbEntity
  8
RACCORDO
100
AcDbPolyline
 62
250
  6
CONTINUOUS
 90
10
 70
0
 10
-28.2935994121
 20
45.9555988593
 10
-29.99925427
 20
47.1223560835
 10
-31.6984837595
 20
48.2939453265
 10
-33.3912878806
 20
49.4703665885
 10
-35.0776933825
 20
50.6516387648
 10
-36.757673516
 20
51.83774296
 10
-38.4311480331
 20
53.0286224876
 10
-40.0980901844
 20
54.224258452
 10
-41.7585267193
 20
55.4246697488
 10
-43.4124576377
 20
56.6298563779
  0
LWPOLYLINE
  5
3A3
100
AcDbEntity
  8
RACCORDO
100
AcDbPolyline
 62
250
  6
CONTINUOUS
 90
10
 70
0
 10
-29.3310917175
 20
45.5558905619
 10
-30.9733141874
 20
46.6820607818
 10
-32.6096118896
 20
47.8127433203
 10
-34.2399626152
 20
48.9479231346
 10
-35.8643448367
 20
50.0875854562
 10
-37.4827359072
 20
51.2317145285
 10
-39.0951120826
 20
52.3802935938
 10
-40.7014509127
 20
53.5333065827
 10
-42.3017312202
 20
54.6907381274
 10
-43.8959313147
 20
55.8525722905
  0
LINE
  5
3A4
100
AcDbEntity
  8
RACCORDO
100
AcDbLine
 62
250
  6
CONTINUOUS
 10
25.0311328611
 20
8.249319064
 11
-28.2935994121
 21
45.9555988593
  0
LINE
  5
3A5
100
AcDbEntity
  8
RACCORDO
100
AcDbLine
 62
7
  6
CONTINUOUS
 10
25.0936607596
 20
7.0780265771
 11
25.0984103349
 21
7.0684205922
  0
LINE
  5
3A6
100
AcDbEntity
  8
RACCORDO
100
AcDbLine
 62
7
  6
CONTINUOUS
 10
25.0889711754
 20
7.0876668954
 11
25.0936607596
 21
7.0780265771
  0
LINE
  5
3A7
100
AcDbEntity
  8
RACCORDO
100
AcDbLine
 62
7
  6
CONTINUOUS
 10
25.0843415401
 20
7.097340884
 11
25.0889711754
 21
7.0876668954
  0
LWPOLYLINE
  5
3A8
100
AcDbEntity
  8
RACCORDO
100
AcDbPolyline
 62
250
  6
CONTINUOUS
 90
37
 70
0
 10
40.1273711588
 20
-2.4417230644
 10
40.1079454741
 20
-2.4570092838
 10
40.0885781357
 20
-2.4730423213
 10
40.0693000976
 20
-2.4897965898
 10
40.0501421603
 20
-2.507245384
 10
40.0311349625
 20
-2.5253608165
 10
40.0123089267
 20
-2.5441138506
 10
39.9936940499
 20
-2.5634745742
 10
39.9753201858
 20
-2.5834120239
 10
39.9572170255
 20
-2.6038940958
 10
39.9394136359
 20
-2.6248879444
 10
39.9219383348
 20
-2.6463601103
 10
39.9048189658
 20
-2.6682763265
 10
39.888082799
 20
-2.6906016635
 10
39.8717566806
 20
-2.7133003436
 10
39.85586689
 20
-2.73633584
 10
39.8404390265
 20
-2.7596710005
 10
39.8254975031
 20
-2.7832688382
 10
39.8110657442
 20
-2.8070923704
 10
39.7971665663
 20
-2.8311040287
 10
39.7838225225
 20
-2.8552649566
 10
39.7710553637
 20
-2.879535795
 10
39.7588856359
 20
-2.9038774133
 10
39.7473325991
 20
-2.928251235
 10
39.7364146085
 20
-2.9526185535
 10
39.7261490998
 20
-2.9769404921
 10
39.7165524961
 20
-3.0011781062
 10
39.7076400952
 20
-3.0252926958
 10
39.6994260954
 20
-3.0492458125
 10
39.6919236871
 20
-3.0729990743
 10
39.6851449638
 20
-3.0965142744
 10
39.6791007199
 20
-3.1197539938
 10
39.6738006216
 20
-3.142680932
 10
39.669253219
 20
-3.1652577594
 10
39.6654657166
 20
-3.1874482116
 10
39.662444036
 20
-3.2092171115
 10
39.6601929153
 20
-3.2305297274
  0
LINE
  5
3A9
100
AcDbEntity
  8
RACCORDO
100
AcDbLine
 62
250
  6
CONTINUOUS
 10
45.4177606881
 20
0.037872718
 11
40.6220443702
 21
-3.2861830825
  0
LINE
  5
3AA
100
AcDbEntity
  8
RACCORDO
100
AcDbLine
 62
7
  6
CONTINUOUS
 10
-38.9403798327
 20
60.1827591501
 11
44.9230874665
 21
0.882332729
  0
LWPOLYLINE
  5
3AB
100
AcDbEntity
  8
RACCORDO
100
AcDbPolyline
 62
250
  6
CONTINUOUS
 90
15
 70
0
 10
39.6601929097
 20
-59.9957689539
 10
39.6624440328
 20
-60.0137577642
 10
39.6654657153
 20
-60.0310764993
 10
39.669253219
 20
-60.0476974046
 10
39.6738006221
 20
-60.0635939862
 10
39.6791007201
 20
-60.078740586
 10
39.6851449638
 20
-60.0931125016
 10
39.6919236872
 20
-60.1066866699
 10
39.6994260954
 20
-60.119441456
 10
39.7076400952
 20
-60.131356305
 10
39.7165524961
 20
-60.1424121193
 10
39.7261490998
 20
-60.1525912983
 10
39.7364146085
 20
-60.1618776115
 10
39.7473325991
 20
-60.1702562036
 10
39.7492177119
 20
-60.1715656299
  0
LWPOLYLINE
  5
3AC
100
AcDbEntity
  8
RACCORDO
100
AcDbPolyline
 62
250
  6
CONTINUOUS
 90
40
 70
0
 10
40.6220443804
 20
-3.2861830754
 10
40.6209392764
 20
-3.2664591621
 10
40.6190627082
 20
-3.2461808529
 10
40.6164177152
 20
-3.2253809929
 10
40.6130085815
 20
-3.2040932718
 10
40.6088408288
 20
-3.1823521702
 10
40.603921208
 20
-3.1601929039
 10
40.5982576874
 20
-3.1376513637
 10
40.5918594404
 20
-3.1147640619
 10
40.5847368322
 20
-3.0915680743
 10
40.5769014002
 20
-3.0681009732
 10
40.5683658358
 20
-3.0444007679
 10
40.5591439654
 20
-3.020505848
 10
40.5492507255
 20
-2.9964549145
 10
40.5387021418
 20
-2.9722869255
 10
40.5275153043
 20
-2.9480410342
 10
40.5157083371
 20
-2.9237565192
 10
40.5033003623
 20
-2.8994727076
 10
40.4903114714
 20
-2.8752289195
 10
40.4767626908
 20
-2.8510644021
 10
40.4626759769
 20
-2.8270183159
 10
40.448074177
 20
-2.8031296579
 10
40.4329809769
 20
-2.7794371685
 10
40.4174207962
 20
-2.7559791712
 10
40.4014187733
 20
-2.7327935632
 10
40.3850007496
 20
-2.7099177983
 10
40.3681933859
 20
-2.687389035
 10
40.3510240639
 20
-2.6652439691
 10
40.3335207056
 20
-2.6435185882
 10
40.3157115661
 20
-2.6222479373
 10
40.297625339
 20
-2.6014662798
 10
40.2792911032
 20
-2.5812070453
 10
40.2607387609
 20
-2.5615032925
 10
40.2419988511
 20
-2.5423874282
 10
40.2231006406
 20
-2.5238893159
 10
40.2040758286
 20
-2.5060399934
 10
40.1849590614
 20
-2.4888716794
 10
40.1657826199
 20
-2.4724127746
 10
40.1465762945
 20
-2.4566882598
 10
40.1273711588
 20
-2.4417230644
  0
LWPOLYLINE
  5
3AD
100
AcDbEntity
  8
RACCORDO
100
AcDbPolyline
 62
250
  6
CONTINUOUS
 90
37
 70
0
 10
39.6601928954
 20
-3.230529748
 10
39.5068337318
 20
-4.9039536634
 10
39.3622145534
 20
-6.5723883157
 10
39.2263393891
 20
-8.2357854706
 10
39.0992119066
 20
-9.8940969742
 10
38.9808357654
 20
-11.5472749674
 10
38.8712146167
 20
-13.1952718876
 10
38.7703515393
 20
-14.8380401513
 10
38.6782493186
 20
-16.4755322577
 10
38.5949107976
 20
-18.1077010038
 10
38.5203383236
 20
-19.7344992484
 10
38.4545339465
 20
-21.3558800033
 10
38.3974996952
 20
-22.9717965369
 10
38.3492371839
 20
-24.5822021914
 10
38.3097477293
 20
-26.1870504731
 10
38.2790325474
 20
-27.786295145
 10
38.2570925192
 20
-29.3798900651
 10
38.2439282294
 20
-30.9677892248
 10
38.2395400834
 20
-32.5499468388
 10
38.2439282294
 20
-34.1263172756
 10
38.2570925191
 20
-35.6968550408
 10
38.2790325473
 20
-37.261514814
 10
38.3097477292
 20
-38.8202514856
 10
38.3492371838
 20
-40.3730200875
 10
38.3974996951
 20
-41.9197757764
 10
38.4545339464
 20
-43.4604739935
 10
38.5203383234
 20
-44.9950702909
 10
38.5949107974
 20
-46.5235202639
 10
38.6782493185
 20
-48.0457798953
 10
38.7703515392
 20
-49.5618052911
 10
38.8712146165
 20
-51.0715525088
 10
38.9808357652
 20
-52.5749780588
 10
39.0992119064
 20
-54.0720386389
 10
39.226339389
 20
-55.5626908719
 10
39.3622145533
 20
-57.0468917477
 10
39.5068337317
 20
-58.5245986247
 10
39.6601928954
 20
-59.995768966
  0
LWPOLYLINE
  5
3AE
100
AcDbEntity
  8
RACCORDO
100
AcDbPolyline
 62
250
  6
CONTINUOUS
 90
37
 70
0
 10
40.6220443702
 20
-3.2861830825
 10
40.4689339238
 20
-4.9568703311
 10
40.3245565634
 20
-6.6224808549
 10
40.1889122892
 20
-8.2830146536
 10
40.0619976892
 20
-9.9385193795
 10
39.9438161752
 20
-11.5889473804
 10
39.8343779832
 20
-13.2341557004
 10
39.7336838715
 20
-14.8741438776
 10
39.6417330818
 20
-16.5089123738
 10
39.5585335745
 20
-18.1383196183
 10
39.4840861088
 20
-19.7623651325
 10
39.4183899256
 20
-21.381049395
 10
39.3614507085
 20
-22.9942322704
 10
39.3132692157
 20
-24.6019132651
 10
39.2738446891
 20
-26.2040928727
 10
39.2431805373
 20
-27.800632439
 10
39.2212775178
 20
-29.3915314764
 10
39.2081348731
 20
-30.9767904726
 10
39.2037537395
 20
-32.5562722355
 10
39.2081348746
 20
-34.1299762659
 10
39.2212775209
 20
-35.697903063
 10
39.243180542
 20
-37.2599169339
 10
39.2738446954
 20
-38.8160173671
 10
39.3132692236
 20
-40.366204874
 10
39.3614507179
 20
-41.9103452958
 10
39.4183899365
 20
-43.4484381262
 10
39.4840861212
 20
-44.9804838714
 10
39.5585335885
 20
-46.5063498917
 10
39.6417330974
 20
-48.0260356644
 10
39.7336838888
 20
-49.5395417122
 10
39.834378002
 20
-51.0467369624
 10
39.9438161965
 20
-52.5476208865
 10
40.0619977128
 20
-54.0421940131
 10
40.1889123123
 20
-55.5303268558
 10
40.3245565818
 20
-57.0119762524
 10
40.4689339345
 20
-58.4871853651
 10
40.6220443703
 20
-59.955954194
  0
LWPOLYLINE
  5
3AF
100
AcDbEntity
  8
RACCORDO
100
AcDbPolyline
 62
7
  6
CONTINUOUS
 90
24
 70
0
 10
-27.0679830839
 20
33.8371506907
 10
-27.0681851214
 20
33.8371045064
 10
-27.0679325599
 20
33.8371537833
 10
-27.0665800796
 20
33.837385459
 10
-27.0641241976
 20
33.8377274065
 10
-27.0605385697
 20
33.8381072324
 10
-27.0558086286
 20
33.838445785
 10
-27.0499714287
 20
33.8386576121
 10
-27.0431062238
 20
33.8386593412
 10
-27.0352343163
 20
33.8383714875
 10
-27.0264148815
 20
33.8377160485
 10
-27.016806253
 20
33.8366312188
 10
-27.0064926169
 20
33.8350608896
 10
-26.9955090601
 20
33.8329453161
 10
-26.9839442031
 20
33.8302368398
 10
-26.9718796612
 20
33.8268927007
 10
-26.959362031
 20
33.8228637357
 10
-26.9464229501
 20
33.8180937396
 10
-26.9331278875
 20
33.8125362635
 10
-26.9195621455
 20
33.8061548982
 10
-26.9057905471
 20
33.7989053503
 10
-26.8918989048
 20
33.790753837
 10
-26.8779955245
 20
33.7816829057
 10
-26.8742646372
 20
33.779082236
  0
LINE
  5
3B0
100
AcDbEntity
  8
RACCORDO
100
AcDbLine
 62
7
  6
CONTINUOUS
 10
43.9541616999
 20
-31.7044018577
 11
43.9541616999
 21
-27.1434207815
  0
LINE
  5
3B1
100
AcDbEntity
  8
RACCORDO
100
AcDbLine
 62
7
  6
CONTINUOUS
 10
44.2156791601
 20
-30.7078977757
 11
44.2156791601
 21
-30.4372592138
  0
LINE
  5
3B2
100
AcDbEntity
  8
RACCORDO
100
AcDbLine
 62
7
  6
CONTINUOUS
 10
45.4177606881
 20
-56.9555368961
 11
45.4177606881
 21
-31.3814054712
  0
LINE
  5
3B3
100
AcDbEntity
  8
RACCORDO
100
AcDbLine
 62
7
  6
CONTINUOUS
 10
45.4177606881
 20
-25.5362587069
 11
45.4177606881
 21
0.037872718
  0
LWPOLYLINE
  5
3B4
100
AcDbEntity
  8
RACCORDO
100
AcDbPolyline
 62
250
  6
CONTINUOUS
 90
17
 70
0
 10
40.6220443804
 20
-59.9559541876
 10
40.6209392763
 20
-59.9760392704
 10
40.6190627079
 20
-59.9955054777
 10
40.6164177148
 20
-60.0143212799
 10
40.6130085813
 20
-60.0324562004
 10
40.6088408293
 20
-60.0498808659
 10
40.6039212094
 20
-60.0665670532
 10
40.5982576896
 20
-60.0824877367
 10
40.5918594437
 20
-60.0976171278
 10
40.5847368367
 20
-60.1119307185
 10
40.5769014061
 20
-60.1254053245
 10
40.5683658434
 20
-60.138019122
 10
40.5591439747
 20
-60.1497516803
 10
40.5492507365
 20
-60.1605839976
 10
40.5387021546
 20
-60.1704985282
 10
40.5275153187
 20
-60.1794792116
 10
40.5159262673
 20
-60.1873753685
  0
LINE
  5
3B5
100
AcDbEntity
  8
RACCORDO
100
AcDbLine
 62
7
  6
CONTINUOUS
 10
45.0837512053
 20
-26.1087084785
 11
44.1545673896
 21
-26.7999509186
  0
LINE
  5
3B6
100
AcDbEntity
  8
DRAFT
100
AcDbLine
 62
7
  6
CONTINUOUS
 10
44.2156791601
 20
-30.4372592138
 11
43.9541616999
 21
-30.6037626226
  0
LINE
  5
3B7
100
AcDbEntity
  8
RACCORDO
100
AcDbLine
 62
7
  6
CONTINUOUS
 10
45.0837512053
 20
-31.2494392164
 11
44.1545673896
 21
-31.7835816106
  0
LINE
  5
3B8
100
AcDbEntity
  8
RACCORDO
100
AcDbLine
 62
7
  6
CONTINUOUS
 10
43.9541616999
 20
-30.8493540187
 11
44.1676167109
 21
-30.7311960185
  0
LINE
  5
3B9
100
AcDbEntity
  8
RACCORDO
100
AcDbLine
 62
250
  6
CONTINUOUS
 10
43.9541616999
 20
-31.0639073803
 11
44.4405816523
 21
-30.794649664
  0
LINE
  5
3BA
100
AcDbEntity
  8
RACCORDO
100
AcDbLine
 62
250
  6
CONTINUOUS
 10
44.1732912178
 20
-30.7281026376
 11
44.1676167109
 21
-30.7311960185
  0
LWPOLYLINE
  5
3BB
100
AcDbEntity
  8
RACCORDO
100
AcDbPolyline
 62
7
  6
CONTINUOUS
 90
34
 70
0
 10
-29.3128490699
 20
45.5619632469
 10
-29.3115402567
 20
45.5622828122
 10
-29.3101357134
 20
45.5625043649
 10
-29.3086318538
 20
45.5626212837
 10
-29.3070195064
 20
45.5626157454
 10
-29.3053008762
 20
45.5624914215
 10
-29.3034906632
 20
45.5622755358
 10
-29.3015863262
 20
45.5619676849
 10
-29.2995867077
 20
45.5615578384
 10
-29.2975107196
 20
45.5610625309
 10
-29.295363096
 20
45.5604827181
 10
-29.2931383529
 20
45.5598116174
 10
-29.2908413808
 20
45.5590566936
 10
-29.2884751494
 20
45.5582182795
 10
-29.286037042
 20
45.557291756
 10
-29.2835238031
 20
45.5562775339
 10
-29.2809342736
 20
45.5551736875
 10
-29.2782703139
 20
45.5539778323
 10
-29.2755332656
 20
45.5526896741
 10
-29.2727273206
 20
45.5513098551
 10
-29.269849701
 20
45.5498345518
 10
-29.2668912346
 20
45.5482562927
 10
-29.263854613
 20
45.5465746391
 10
-29.2607387365
 20
45.5447861548
 10
-29.2575284803
 20
45.542877307
 10
-29.2542239846
 20
45.5408455233
 10
-29.2508269301
 20
45.5386881751
 10
-29.247324329
 20
45.5363898802
 10
-29.243717039
 20
45.5339480839
 10
-29.2400066359
 20
45.5313594224
 10
-29.2361812689
 20
45.5286059434
 10
-29.2322380989
 20
45.5256792752
 10
-29.2281833391
 20
45.5225815007
 10
-29.2240189284
 20
45.519309946
  0
LWPOLYLINE
  5
3BC
100
AcDbEntity
  8
RACCORDO
100
AcDbPolyline
 62
250
  6
CONTINUOUS
 90
37
 70
0
 10
40.6220443804
 20
-59.9559541876
 10
40.6001284612
 20
-59.9717738058
 10
40.57738758
 20
-59.9869845204
 10
40.5538678143
 20
-60.0015262271
 10
40.5296259697
 20
-60.0153094756
 10
40.5047065354
 20
-60.0283112641
 10
40.4791378157
 20
-60.0405712226
 10
40.4529723441
 20
-60.0520342249
 10
40.4262665073
 20
-60.0626504812
 10
40.3990511253
 20
-60.0724639007
 10
40.3713809791
 20
-60.0814234376
 10
40.3433159453
 20
-60.0894838174
 10
40.3148902782
 20
-60.0966935189
 10
40.286158536
 20
-60.1030064187
 10
40.2571828647
 20
-60.1083816836
 10
40.228003055
 20
-60.1128720527
 10
40.1986699183
 20
-60.1164374551
 10
40.1692461678
 20
-60.1190414888
 10
40.1397808994
 20
-60.1207404096
 10
40.1103164951
 20
-60.1215013631
 10
40.0809137409
 20
-60.1212923754
 10
40.0516366345
 20
-60.120172579
 10
40.0225137411
 20
-60.1181169973
 10
39.9936002897
 20
-60.1150978887
 10
39.9649818382
 20
-60.1111776506
 10
39.9366685254
 20
-60.1063386995
 10
39.9087051743
 20
-60.1005567218
 10
39.8812042371
 20
-60.0938996693
 10
39.8541561769
 20
-60.0863555884
 10
39.8275901289
 20
-60.0779016759
 10
39.8016454829
 20
-60.068615329
 10
39.7762976311
 20
-60.0584883709
 10
39.7515565416
 20
-60.0474965292
 10
39.7275796657
 20
-60.0357295418
 10
39.7043981038
 20
-60.0232194906
 10
39.6819393227
 20
-60.0099095607
 10
39.6601929097
 20
-59.9957689539
  0
LINE
  5
3BD
100
AcDbEntity
  8
RACCORDO
100
AcDbLine
 62
250
  6
CONTINUOUS
 10
40.6220443703
 20
-59.955954194
 11
45.4177606881
 21
-56.9555368961
  0
LINE
  5
3BE
100
AcDbEntity
  8
RACCORDO
100
AcDbLine
 62
7
  6
CONTINUOUS
 10
40.515920111
 20
-60.1873792204
 11
45.3187735862
 21
-57.1824965938
  0
ELLIPSE
  5
3BF
100
AcDbEntity
  8
RACCORDO
100
AcDbEllipse
 62
7
  6
CONTINUOUS
 10
44.9224842322
 20
-56.6047203214
 30
0.0
 11
-0.4044690645
 21
0.5723335566
 31
0.0
 40
0.4994261019
 41
-3.1696557442
 42
-2.5263841361
  0
ELLIPSE
  5
3C0
100
AcDbEntity
  8
RACCORDO
100
AcDbEllipse
 62
7
  6
CONTINUOUS
 10
44.9224842322
 20
0.3874828242
 30
0.0
 11
-0.4043142751
 21
0.5714579316
 31
0.0
 40
0.5005744201
 41
-2.5258428156
 42
-0.956264464
  0
ELLIPSE
  5
3C1
100
AcDbEntity
  8
RACCORDO
100
AcDbEllipse
 62
7
  6
CONTINUOUS
 10
-38.9397765984
 20
59.6870561432
 30
0.0
 11
-0.4044690645
 21
0.5723335566
 31
0.0
 40
0.4994261019
 41
-0.9543698342
 42
0.0280630908
  0
ELLIPSE
  5
3C2
100
AcDbEntity
  8
RACCORDO
100
AcDbEllipse
 62
7
  6
CONTINUOUS
 10
45.051860941
 20
-25.7775285146
 30
0.0
 11
0.3023921289
 21
0.3984559091
 31
0.0
 40
0.5170299861
 41
-2.0815811474
 42
-0.5980512832
  0
ELLIPSE
  5
3C3
100
AcDbEntity
  8
RACCORDO
100
AcDbEllipse
 62
7
  6
CONTINUOUS
 10
44.1737015481
 20
-26.9986588969
 30
0.0
 11
0.1814352773
 21
0.2390735454
 31
0.0
 40
0.5170299861
 41
1.0600115062
 42
2.5435413704
  0
ELLIPSE
  5
3C4
100
AcDbEntity
  8
RACCORDO
100
AcDbEllipse
 62
7
  6
CONTINUOUS
 10
45.051860941
 20
-31.6226752789
 30
0.0
 11
0.3023921289
 21
0.3984559091
 31
0.0
 40
0.5170299861
 41
5.685134024
 42
7.1686638882
  0
ELLIPSE
  5
3C5
100
AcDbEntity
  8
RACCORDO
100
AcDbEllipse
 62
7
  6
CONTINUOUS
 10
44.1737015481
 20
-31.5596399731
 30
0.0
 11
0.1814352773
 21
0.2390735454
 31
0.0
 40
0.5170299861
 41
2.5435413704
 42
4.0270712346
  0
ENDSEC
  0
SECTION
  2
OBJECTS
  0
DICTIONARY
  5
C
100
AcDbDictionary
280
0
281
1
  3
ACAD_GROUP
350
D
  3
ACAD_MLINESTYLE
350
17
  3
ACAD_LAYOUT
350
1A
  3
ACAD_PLOTSETTINGS
350
19
  3
ACAD_PLOTSTYLENAME
350
E
  0
DICTIONARY
  5
D
102
{ACAD_REACTORS
330
C
102
}
100
AcDbDictionary
280
0
281
1
  0
ACDBDICTIONARYWDFLT
  5
E
102
{ACAD_REACTORS
330
C
102
}
100
AcDbDictionary
281
1
  3
Normal
350
F
100
AcDbDictionaryWithDefault
340
F
  0
DICTIONARY
  5
17
102
{ACAD_REACTORS
330
C
102
}
100
AcDbDictionary
280
0
281
1
  3
Standard
350
18
  0
DICTIONARY
  5
19
102
{ACAD_REACTORS
330
C
102
}
100
AcDbDictionary
281
1
  0
DICTIONARY
  5
1A
102
{ACAD_REACTORS
330
C
102
}
100
AcDbDictionary
281
1
  3
Model
350
3C6
  3
Layout1
350
3C7
  0
ACDBPLACEHOLDER
  5
F
102
{ACAD_REACTORS
330
E
102
}
  0
MLINESTYLE
  5
18
102
{ACAD_REACTORS
330
17
102
}
100
AcDbMlineStyle
  2
STANDARD
 70
0
  3

 62
256
 51
90.0
 52
90.0
 71
2
 49
0.5
 62
256
  6
BYLAYER
 49
-0.5
 62
256
  6
BYLAYER
  0
LAYOUT
  5
3C6
102
{ACAD_REACTORS
330
1A
102
}
100
AcDbPlotSettings
  1

  2
none_device
  4
ISO_A4_(297.00_x_210.00_MM)
  6

 40
0.0
 41
0.0
 42
0.0
 43
0.0
 44
297.0
 45
210.0
 46
0.0
 47
0.0
 48
0.0
 49
0.0
140
0.0
141
0.0
142
1.0
143
1.0
 70
1024
 72
1
 73
0
 74
0
  7

 75
0
147
1.0
148
0.0
149
0.0
100
AcDbLayout
  1
Model
 70
0
 71
0
 10
0.0
 20
0.0
 11
297.0
 21
210.0
 12
0.0
 22
0.0
 32
0.0
 14
0.0
 24
0.0
 34
0.0
 15
0.0
 25
0.0
 35
0.0
146
0.0
 13
0.0
 23
0.0
 33
0.0
 16
1.0
 26
0.0
 36
0.0
 17
0.0
 27
1.0
 37
0.0
 76
0
330
218
345
0
346
0
  0
LAYOUT
  5
3C7
102
{ACAD_REACTORS
330
1A
102
}
100
AcDbPlotSettings
  1

  2
none_device
  4
ISO_A4_(297.00_x_210.00_MM)
  6

 40
0.0
 41
0.0
 42
0.0
 43
0.0
 44
297.0
 45
210.0
 46
0.0
 47
0.0
 48
0.0
 49
0.0
140
0.0
141
0.0
142
1.0
143
1.0
 70
0
 72
1
 73
0
 74
0
  7

 75
0
147
1.0
148
0.0
149
0.0
100
AcDbLayout
  1
Layout1
 70
0
 71
1
 10
0.0
 20
0.0
 11
297.0
 21
210.0
 12
0.0
 22
0.0
 32
0.0
 14
0.0
 24
0.0
 34
0.0
 15
0.0
 25
0.0
 35
0.0
146
0.0
 13
0.0
 23
0.0
 33
0.0
 16
1.0
 26
0.0
 36
0.0
 17
0.0
 27
1.0
 37
0.0
 76
0
330
219
345
0
346
0
  0
ENDSEC
  0
EOF
