  0
SECTION
  2
HEADER
  9
$ACADVER
  1
AC1024
  9
$DWGCODEPAGE
  3
ANSI_1252
  9
$EXTMAX
 10
297.0
 20
210.0
 30
0.0
  9
$EXTMIN
 10
0.0
 20
0.0
 30
0.0
  9
$LIMMIN
 10
0.0
 20
0.0
  9
$LIMMAX
 10
297.0
 20
210.0
  9
$VIEWCTR
 10
148.5
 20
105.0
  9
$VIEWSIZE
 40
210.0
  9
$CLAYER
  8
0
  9
$LTSCALE
 40
16.335
  9
$CELTYPE
  6
BYLAYER
  9
$DIMSCALE
 40
1.0
  9
$DIMASZ
 40
3.0
  9
$DIMEXO
 40
0.5
  9
$DIMDLI
 40
11.286
  9
$DIMEXE
 40
1.5
  9
$DIMCEN
 40
2.673
  9
$DIMLFAC
 40
1.0
  9
$DIMBLK
  1
_FILLED
  9
$DIMALT
 70
0
  9
$DIMALTF
 40
0.0393700787
  9
$DIMTXT
 40
3.0
  9
$DIMTOL
 70
1
  9
$DIMLIM
 70
0
  9
$DIMTFAC
 40
1.0
  9
$DIMTP
 40
0.01
  9
$DIMTM
 40
0.01
  9
$DIMGAP
 40
0.625
  9
$DIMDSEP
 70
44
  9
$AUNITS
 70
0
  9
$PDMODE
 70
3
  9
$PDSIZE
 40
3.0
  9
$HANDSEED
  5
326
  9
$TILEMODE
 70
1
  9
$MEASUREMENT
 70
1
  9
$INSUNITS
 70
4
  0
ENDSEC
  0
SECTION
  2
CLASSES
  0
CLASS
  1
ACDBDICTIONARYWDFLT
  2
AcDbDictionaryWithDefault
  3
AutoCAD 2000
 90
0
 91
1
280
0
281
0
  0
CLASS
  1
ACDBPLACEHOLDER
  2
AcDbPlaceHolder
  3
AutoCAD 2000
 90
0
 91
1
280
0
281
0
  0
CLASS
  1
LAYOUT
  2
AcDbLayout
  3
AutoCAD 2000
 90
0
 91
0
280
0
281
0
  0
ENDSEC
  0
SECTION
  2
TABLES
  0
TABLE
  2
VPORT
  5
8
100
AcDbSymbolTable
 70
2
  0
VPORT
  5
1F4
100
AcDbSymbolTableRecord
100
AcDbViewportTableRecord
  2
*ACTIVE
 70
0
 10
0.0
 20
0.0
 11
1.0
 21
1.0
 12
148.5
 22
105.0
 13
0.0
 23
0.0
 14
1.0
 24
1.0
 15
0.0
 25
0.0
 16
0.0
 26
0.0
 36
1.0
 17
0.0
 27
0.0
 37
0.0
 40
210.0
 41
1.4142857143
 42
50.0
 43
0.0
 44
0.0
 50
0.0
 51
0.0
 71
0
 72
100
 73
1
 74
1
 75
0
 76
0
 77
0
 78
0
  0
ENDTAB
  0
TABLE
  2
LTYPE
  5
5
100
AcDbSymbolTable
 70
6
  0
LTYPE
  5
14
100
AcDbSymbolTableRecord
100
AcDbLinetypeTableRecord
  2
BYBLOCK
 70
0
  3

 72
65
 73
0
 40
0.0
  0
LTYPE
  5
15
100
AcDbSymbolTableRecord
100
AcDbLinetypeTableRecord
  2
BYLAYER
 70
0
  3

 72
65
 73
0
 40
0.0
  0
LTYPE
  5
16
100
AcDbSymbolTableRecord
100
AcDbLinetypeTableRecord
  2
CONTINUOUS
 70
64
  3
Solid line
 72
65
 73
0
 40
0.0
  0
LTYPE
  5
1F5
100
AcDbSymbolTableRecord
100
AcDbLinetypeTableRecord
  2
CENTER
 70
64
  3
____ _ ____ _ ____ _ ____ _ ____ _ ____ _ ____
 72
65
 73
4
 40
0.6
 49
0.375
 74
0
 49
-0.075
 74
0
 49
0.075
 74
0
 49
-0.075
 74
0
  0
LTYPE
  5
1F6
100
AcDbSymbolTableRecord
100
AcDbLinetypeTableRecord
  2
HIDDEN
 70
64
  3
- - - - - - - - - - - - - - - - - - - -
 72
65
 73
2
 40
0.2
 49
0.1
 74
0
 49
-0.1
 74
0
  0
LTYPE
  5
1F7
100
AcDbSymbolTableRecord
100
AcDbLinetypeTableRecord
  2
PHANTOM
 70
64
  3
_____ _ _ _____ _ _ _____ _ _ _____
 72
65
 73
6
 40
0.8
 49
0.45
 74
0
 49
-0.05
 74
0
 49
0.1
 74
0
 49
-0.05
 74
0
 49
0.1
 74
0
 49
-0.05
 74
0
  0
LTYPE
  5
1F8
100
AcDbSymbolTableRecord
100
AcDbLinetypeTableRecord
  2
DOT
 70
64
  3
. . . . . . . . . . . . . . . . . . . .
 72
65
 73
2
 40
0.2
 49
0.1
 74
0
 49
-0.1
 74
0
  0
LTYPE
  5
1F9
100
AcDbSymbolTableRecord
100
AcDbLinetypeTableRecord
  2
DASHED
 70
64
  3
- - - - - - - - - - - - - - - - - - - -
 72
65
 73
2
 40
0.2
 49
0.1
 74
0
 49
-0.1
 74
0
  0
ENDTAB
  0
TABLE
  2
LAYER
  5
2
100
AcDbSymbolTable
 70
36
  0
LAYER
  5
10
100
AcDbSymbolTableRecord
100
AcDbLayerTableRecord
  2
0
 70
0
 62
7
  6
CONTINUOUS
370
-3
390
F
  0
LAYER
  5
1FA
100
AcDbSymbolTableRecord
100
AcDbLayerTableRecord
  2
DEFAULT_1
 70
0
 62
7
  6
CENTER
370
-3
390
F
  0
LAYER
  5
1FB
100
AcDbSymbolTableRecord
100
AcDbLayerTableRecord
  2
DEFAULT_2
 70
0
 62
7
  6
HIDDEN
370
-3
390
F
  0
LAYER
  5
1FC
100
AcDbSymbolTableRecord
100
AcDbLayerTableRecord
  2
DEFAULT_3
 70
0
 62
7
  6
PHANTOM
370
-3
390
F
  0
LAYER
  5
1FD
100
AcDbSymbolTableRecord
100
AcDbLayerTableRecord
  2
ASSI
 70
0
 62
7
  6
CONTINUOUS
370
-3
390
F
  0
LAYER
  5
1FE
100
AcDbSymbolTableRecord
100
AcDbLayerTableRecord
  2
COORDINATE
 70
0
 62
7
  6
CONTINUOUS
370
-3
390
F
  0
LAYER
  5
1FF
100
AcDbSymbolTableRecord
100
AcDbLayerTableRecord
  2
COORD_ORIGINE
 70
0
 62
7
  6
CONTINUOUS
370
-3
390
F
  0
LAYER
  5
200
100
AcDbSymbolTableRecord
100
AcDbLayerTableRecord
  2
COSMETICI
 70
0
 62
7
  6
CONTINUOUS
370
-3
390
F
  0
LAYER
  5
201
100
AcDbSymbolTableRecord
100
AcDbLayerTableRecord
  2
CURVE
 70
0
 62
7
  6
CONTINUOUS
370
-3
390
F
  0
LAYER
  5
202
100
AcDbSymbolTableRecord
100
AcDbLayerTableRecord
  2
DRAFT
 70
0
 62
7
  6
CONTINUOUS
370
-3
390
F
  0
LAYER
  5
203
100
AcDbSymbolTableRecord
100
AcDbLayerTableRecord
  2
IMPORT
 70
0
 62
7
  6
CONTINUOUS
370
-3
390
F
  0
LAYER
  5
204
100
AcDbSymbolTableRecord
100
AcDbLayerTableRecord
  2
INTF_1
 70
0
 62
7
  6
CONTINUOUS
370
-3
390
F
  0
LAYER
  5
205
100
AcDbSymbolTableRecord
100
AcDbLayerTableRecord
  2
NOTE
 70
0
 62
7
  6
CONTINUOUS
370
-3
390
F
  0
LAYER
  5
206
100
AcDbSymbolTableRecord
100
AcDbLayerTableRecord
  2
PIANI
 70
0
 62
7
  6
CONTINUOUS
370
-3
390
F
  0
LAYER
  5
207
100
AcDbSymbolTableRecord
100
AcDbLayerTableRecord
  2
PIANI_ORIGINE
 70
0
 62
7
  6
CONTINUOUS
370
-3
390
F
  0
LAYER
  5
208
100
AcDbSymbolTableRecord
100
AcDbLayerTableRecord
  2
PUNTI
 70
0
 62
7
  6
CONTINUOUS
370
-3
390
F
  0
LAYER
  5
209
100
AcDbSymbolTableRecord
100
AcDbLayerTableRecord
  2
RACCORDO
 70
0
 62
7
  6
CONTINUOUS
370
-3
390
F
  0
LAYER
  5
20A
100
AcDbSymbolTableRecord
100
AcDbLayerTableRecord
  2
RGB____0____0____0__
 70
0
 62
7
  6
CONTINUOUS
370
-3
390
F
  0
LAYER
  5
20B
100
AcDbSymbolTableRecord
100
AcDbLayerTableRecord
  2
SIMBOLI
 70
0
 62
7
  6
CONTINUOUS
370
-3
390
F
  0
LAYER
  5
20C
100
AcDbSymbolTableRecord
100
AcDbLayerTableRecord
  2
SNAPLINE
 70
0
 62
7
  6
CONTINUOUS
370
-3
390
F
  0
LAYER
  5
20D
100
AcDbSymbolTableRecord
100
AcDbLayerTableRecord
  2
SUPERFICI
 70
0
 62
7
  6
CONTINUOUS
370
-3
390
F
  0
LAYER
  5
20E
100
AcDbSymbolTableRecord
100
AcDbLayerTableRecord
  2
TRASH
 70
0
 62
7
  6
CONTINUOUS
370
-3
390
F
  0
LAYER
  5
20F
100
AcDbSymbolTableRecord
100
AcDbLayerTableRecord
  2
XSEC_DATUMS
 70
0
 62
7
  6
CONTINUOUS
370
-3
390
F
  0
ENDTAB
  0
TABLE
  2
STYLE
  5
3
100
AcDbSymbolTable
 70
1
  0
STYLE
  5
11
100
AcDbSymbolTableRecord
100
AcDbTextStyleTableRecord
  2
STANDARD
 70
0
 40
0.0
 41
0.8
 50
0.0
 71
0
 42
0.2
  3
txt
  4

  0
STYLE
  5
210
100
AcDbSymbolTableRecord
100
AcDbTextStyleTableRecord
  2
TEXTSTYLE_1
 70
0
 40
0.0
 41
0.8
 50
0.0
 71
0
 42
0.2
  3
gdt
  4

  0
ENDTAB
  0
TABLE
  2
VIEW
  5
6
100
AcDbSymbolTable
 70
0
  0
ENDTAB
  0
TABLE
  2
UCS
  5
7
100
AcDbSymbolTable
 70
0
  0
ENDTAB
  0
TABLE
  2
APPID
  5
9
100
AcDbSymbolTable
 70
1
  0
APPID
  5
211
100
AcDbSymbolTableRecord
100
AcDbRegAppTableRecord
  2
ACAD
 70
0
  0
ENDTAB
  0
TABLE
  2
BLOCK_RECORD
  5
1
100
AcDbSymbolTable
 70
0
  0
BLOCK_RECORD
  5
212
100
AcDbSymbolTableRecord
100
AcDbBlockTableRecord
  2
*Model_Space
  0
BLOCK_RECORD
  5
213
100
AcDbSymbolTableRecord
100
AcDbBlockTableRecord
  2
*Paper_Space
  0
BLOCK_RECORD
  5
214
100
AcDbSymbolTableRecord
100
AcDbBlockTableRecord
  2
_FILLED
  0
ENDTAB
  0
TABLE
  2
DIMSTYLE
  5
A
100
AcDbSymbolTable
 70
1
100
AcDbDimStyleTable
 71
0
  0
DIMSTYLE
105
215
100
AcDbSymbolTableRecord
100
AcDbDimStyleTableRecord
  2
STANDARD
 70
0
  3

  4

 40
1.0
 41
3.0
 42
0.5
 43
0.38
 44
1.5
 45
0.0
 46
0.0
 47
0.01
 48
0.01
140
3.0
141
0.09
142
0.0
143
25.4
144
1.0
145
0.0
146
1.0
147
0.625
 71
1
 72
0
 73
0
 74
0
 75
0
 76
0
 77
1
 78
8
 79
2
170
0
171
1
172
0
173
0
174
0
175
0
176
0
177
0
178
0
270
2
179
2
271
2
272
2
273
2
274
2
275
0
280
0
281
0
282
0
283
1
284
8
285
0
286
0
287
3
288
0
340
11
278
44
341
214
342
214
343
214
344
214
  0
ENDTAB
  0
ENDSEC
  0
SECTION
  2
BLOCKS
  0
BLOCK
  5
20
100
AcDbEntity
  8
0
100
AcDbBlockBegin
  2
*Model_Space
 70
0
 10
0.0
 20
0.0
 30
0.0
  3
*Model_Space
  1

  0
ENDBLK
  5
21
100
AcDbEntity
  8
0
100
AcDbBlockEnd
  0
BLOCK
  5
1C
100
AcDbEntity
  8
0
100
AcDbBlockBegin
  2
*Paper_Space
 70
0
 10
0.0
 20
0.0
 30
0.0
  3
*Paper_Space
  1

  0
ENDBLK
  5
1D
100
AcDbEntity
  8
0
100
AcDbBlockEnd
  0
BLOCK
  5
216
100
AcDbEntity
  8
0
100
AcDbBlockBegin
  2
_FILLED
 70
64
 10
0.0
 20
0.0
  3
_FILLED
  1

  0
SOLID
  5
217
100
AcDbEntity
  8
0
  6
BYBLOCK
 62
0
100
AcDbTrace
 10
0.0
 20
0.0
 11
-1.0
 21
0.3166666667
 12
-1.0
 22
-0.3166666667
 13
-1.0
 23
-0.3166666667
  0
ENDBLK
  5
218
100
AcDbEntity
  8
0
  6
BYBLOCK
 62
0
100
AcDbBlockEnd
  0
ENDSEC
  0
SECTION
  2
ENTITIES
  0
LINE
  5
219
100
AcDbEntity
  8
RACCORDO
100
AcDbLine
 62
7
  6
CONTINUOUS
 10
-61.1806254165
 20
69.0281754538
 11
-57.2136008135
 21
72.3629670068
  0
LINE
  5
21A
100
AcDbEntity
  8
RACCORDO
100
AcDbLine
 62
250
  6
CONTINUOUS
 10
-60.4528653381
 20
68.9255774167
 11
-56.501869411
 21
72.2468948176
  0
LWPOLYLINE
  5
21B
100
AcDbEntity
  8
RACCORDO
100
AcDbPolyline
 62
250
  6
CONTINUOUS
 90
19
 70
0
 10
-61.1806254165
 20
69.0281754538
 10
-61.177044835
 20
69.0311360158
 10
-61.1493858802
 20
69.0510218021
 10
-61.1192285893
 20
69.0677332577
 10
-61.0866746494
 20
69.0812140335
 10
-61.0518338291
 20
69.0914186735
 10
-61.014823608
 20
69.0983127688
 10
-60.9757687809
 20
69.1018730732
 10
-60.9348010364
 20
69.1020875818
 10
-60.8920585136
 20
69.0989555712
 10
-60.8476853359
 20
69.0924876023
 10
-60.8018311251
 20
69.0827054843
 10
-60.7546504967
 20
69.0696422017
 10
-60.706302539
 20
69.0533418023
 10
-60.6569502764
 20
69.0338592495
 10
-60.6067601194
 20
69.0112602365
 10
-60.5559013042
 20
68.9856209647
 10
-60.5045453214
 20
68.9570278871
 10
-60.4528653381
 20
68.9255774167
  0
LWPOLYLINE
  5
21C
100
AcDbEntity
  8
RACCORDO
100
AcDbPolyline
 62
250
  6
CONTINUOUS
 90
22
 70
0
 10
-60.4528653381
 20
68.9255774167
 10
-60.5101785555
 20
68.8800944519
 10
-60.5670242244
 20
68.8310700894
 10
-60.6231410622
 20
68.7787296621
 10
-60.6782711364
 20
68.7233137449
 10
-60.7321610499
 20
68.6650770487
 10
-60.784563106
 20
68.6042872496
 10
-60.8352364465
 20
68.5412237587
 10
-60.8839481591
 20
68.4761764378
 10
-60.9304743478
 20
68.409444267
 10
-60.9746011621
 20
68.3413339706
 10
-61.0161257797
 20
68.2721586073
 10
-61.0548573391
 20
68.2022361311
 10
-61.0906178164
 20
68.1318879301
 10
-61.1232428441
 20
68.0614373491
 10
-61.1525824662
 20
67.9912082036
 10
-61.1785018276
 20
67.9215232911
 10
-61.2008817939
 20
67.8527029078
 10
-61.2196194988
 20
67.7850633761
 10
-61.2346288175
 20
67.7189155909
 10
-61.2458407618
 20
67.6545635905
 10
-61.2532037978
 20
67.592303159
  0
LWPOLYLINE
  5
21D
100
AcDbEntity
  8
RACCORDO
100
AcDbPolyline
 62
250
  6
CONTINUOUS
 90
10
 70
0
 10
-47.1705038748
 20
57.4159311691
 10
-47.1572207166
 20
57.4206611261
 10
-47.144196478
 20
57.4251972692
 10
-47.1314356135
 20
57.4295381207
 10
-47.1189425062
 20
57.4336822769
 10
-47.1067214082
 20
57.4376283802
 10
-47.0947764387
 20
57.4413751126
 10
-47.0831116603
 20
57.4449212382
 10
-47.0717310785
 20
57.4482656094
 10
-47.0606385815
 20
57.4514071342
  0
LWPOLYLINE
  5
21E
100
AcDbEntity
  8
RACCORDO
100
AcDbPolyline
 62
250
  6
CONTINUOUS
 90
15
 70
0
 10
-61.6042650299
 20
68.2098269673
 10
-61.6053137686
 20
68.1945642506
 10
-61.6055885619
 20
68.1446726746
 10
-61.6010655911
 20
68.0946421468
 10
-61.5917518611
 20
68.0449544942
 10
-61.5777019545
 20
67.9952667857
 10
-61.5589674674
 20
67.9460173153
 10
-61.5356278228
 20
67.8976879945
 10
-61.5077613812
 20
67.8499733799
 10
-61.4754890314
 20
67.8032826473
 10
-61.4389617997
 20
67.7580572629
 10
-61.3982823269
 20
67.7140218755
 10
-61.3536024954
 20
67.6713497283
 10
-61.3051613867
 20
67.6306539814
 10
-61.2532037978
 20
67.592303159
  0
LWPOLYLINE
  5
21F
100
AcDbEntity
  8
RACCORDO
100
AcDbPolyline
 62
7
  6
CONTINUOUS
 90
22
 70
0
 10
-61.6042637118
 20
68.2098391832
 10
-61.8278652429
 20
65.420085863
 10
-62.0333900895
 20
62.5901211351
 10
-62.2161310347
 20
59.7760204199
 10
-62.3760681207
 20
56.9780285442
 10
-62.5131867973
 20
54.1963663451
 10
-62.6274729618
 20
51.431253745
 10
-62.7189139336
 20
48.6829095418
 10
-62.7875000466
 20
45.9515574225
 10
-62.8332219872
 20
43.2374245208
 10
-62.8560717043
 20
40.5407302519
 10
-62.8560450063
 20
37.8616945184
 10
-62.8331386672
 20
35.200544537
 10
-62.7873503566
 20
32.5574954357
 10
-62.7186816812
 20
29.9327621218
 10
-62.6271358311
 20
27.3265706578
 10
-62.512716458
 20
24.7391389887
 10
-62.3754298226
 20
22.1706655601
 10
-62.215283296
 20
19.6213460649
 10
-62.032284756
 20
17.0913806756
 10
-61.8264477737
 20
14.5809896616
 10
-61.6029040047
 20
12.1433135127
  0
LWPOLYLINE
  5
220
100
AcDbEntity
  8
RACCORDO
100
AcDbPolyline
 62
250
  6
CONTINUOUS
 90
28
 70
0
 10
-45.9494343041
 20
45.8310537016
 10
-45.8996952074
 20
45.8742117112
 10
-45.8472487463
 20
45.9151808661
 10
-45.7922721337
 20
45.9538224747
 10
-45.7349492102
 20
45.9900002994
 10
-45.6754756257
 20
46.023597008
 10
-45.6140583753
 20
46.0545148065
 10
-45.5509072698
 20
46.0826546346
 10
-45.4862339883
 20
46.1079156029
 10
-45.4202573047
 20
46.1302114917
 10
-45.3532004893
 20
46.1494668174
 10
-45.2852904117
 20
46.1656164096
 10
-45.2167567262
 20
46.1786049459
 10
-45.1478313418
 20
46.1883884659
 10
-45.0787474758
 20
46.1949338621
 10
-45.0097387319
 20
46.1982183345
 10
-44.9410386188
 20
46.1982307724
 10
-44.8728796055
 20
46.1949711391
 10
-44.8054921735
 20
46.1884498216
 10
-44.7391043485
 20
46.1786888954
 10
-44.6739407747
 20
46.1657213984
 10
-44.6102218001
 20
46.1495905695
 10
-44.5481630374
 20
46.1303509997
 10
-44.4879744803
 20
46.108067797
 10
-44.4298596395
 20
46.0828157169
 10
-44.3740151104
 20
46.0546799898
 10
-44.3206299078
 20
46.0237560307
 10
-44.2698846719
 20
45.9901484685
  0
LWPOLYLINE
  5
221
100
AcDbEntity
  8
RACCORDO
100
AcDbPolyline
 62
250
  6
CONTINUOUS
 90
25
 70
0
 10
-46.3157467986
 20
47.4942151883
 10
-46.2592633902
 20
47.541146454
 10
-46.1993883246
 20
47.5853074604
 10
-46.1363779961
 20
47.6265091034
 10
-46.0705022247
 20
47.6645749511
 10
-46.0020431006
 20
47.6993419998
 10
-45.9312937763
 20
47.7306613717
 10
-45.8585572112
 20
47.7583989524
 10
-45.7841448746
 20
47.7824359654
 10
-45.7083754115
 20
47.8026694806
 10
-45.6315732783
 20
47.819012855
 10
-45.5540673537
 20
47.8313961037
 10
-45.4761895298
 20
47.8397661998
 10
-45.3982732914
 20
47.8440873014
 10
-45.3206522879
 20
47.8443409048
 10
-45.2436589042
 20
47.8405259241
 10
-45.1676228379
 20
47.8326586956
 10
-45.092869687
 20
47.820772908
 10
-45.0197195558
 20
47.8049194582
 10
-44.9484856847
 20
47.785166233
 10
-44.8794731077
 20
47.7615978188
 10
-44.8129773474
 20
47.7343151391
 10
-44.7492831488
 20
47.7034350226
 10
-44.6886632602
 20
47.6690897027
 10
-44.6313772652
 20
47.6314262513
  0
LWPOLYLINE
  5
222
100
AcDbEntity
  8
RACCORDO
100
AcDbPolyline
 62
250
  6
CONTINUOUS
 90
4
 70
0
 10
-44.7487789692
 20
46.0132481378
 10
-44.7296797981
 20
46.026878175
 10
-44.7110105026
 20
46.0403505299
 10
-44.6797025804
 20
46.0632084116
  0
LWPOLYLINE
  5
223
100
AcDbEntity
  8
RACCORDO
100
AcDbPolyline
 62
250
  6
CONTINUOUS
 90
4
 70
0
 10
-44.8086941279
 20
45.9714281433
 10
-44.7882671593
 20
45.9855088419
 10
-44.7683081265
 20
45.999457331
 10
-44.7487789692
 20
46.0132481378
  0
LWPOLYLINE
  5
224
100
AcDbEntity
  8
RACCORDO
100
AcDbPolyline
 62
250
  6
CONTINUOUS
 90
10
 70
0
 10
42.7144684997
 20
-61.7533661254
 10
42.705643793
 20
-61.7549426858
 10
42.6965129978
 20
-61.7567255427
 10
42.6870791963
 20
-61.7587141676
 10
42.6773456221
 20
-61.7609079781
 10
42.6673155071
 20
-61.7633062878
 10
42.6569920647
 20
-61.7659083068
 10
42.6463786986
 20
-61.7687132077
 10
42.6354790172
 20
-61.7717201271
 10
42.6242966699
 20
-61.7749281148
  0
LINE
  5
225
100
AcDbEntity
  8
RACCORDO
100
AcDbLine
 62
250
  6
CONTINUOUS
 10
-61.6029043427
 20
12.143313487
 11
-61.6010196633
 21
12.1260879881
  0
LINE
  5
226
100
AcDbEntity
  8
RACCORDO
100
AcDbLine
 62
7
  6
CONTINUOUS
 10
-61.6029088139
 20
12.1433598062
 11
-61.6029043427
 21
12.143313487
  0
LWPOLYLINE
  5
227
100
AcDbEntity
  8
RACCORDO
100
AcDbPolyline
 62
250
  6
CONTINUOUS
 90
22
 70
0
 10
-61.2532037978
 20
11.5812757084
 10
-61.4805809101
 20
14.0629938731
 10
-61.6852777637
 20
16.5646022107
 10
-61.8672760387
 20
19.0858983879
 10
-62.0265589648
 20
21.6266824732
 10
-62.1631124012
 20
24.1867452117
 10
-62.2769252507
 20
26.7658677274
 10
-62.3679876323
 20
29.363841133
 10
-62.4362909897
 20
31.9804555614
 10
-62.4818298292
 20
34.6154879497
 10
-62.5046004426
 20
37.2687248977
 10
-62.5046004212
 20
39.9399519736
 10
-62.4818297671
 20
42.6289420078
 10
-62.4362908945
 20
45.335478041
 10
-62.3679875167
 20
48.0593405424
 10
-62.2769251266
 20
50.8002960329
 10
-62.1631122818
 20
53.5581234658
 10
-62.0265588648
 20
56.3325990575
 10
-61.8672759643
 20
59.1234828316
 10
-61.685277715
 20
61.9305437353
 10
-61.4805808872
 20
64.7535599243
 10
-61.2532037978
 20
67.592303159
  0
LWPOLYLINE
  5
228
100
AcDbEntity
  8
RACCORDO
100
AcDbPolyline
 62
250
  6
CONTINUOUS
 90
12
 70
0
 10
-61.6010196633
 20
12.1260879881
 10
-61.5916903868
 20
12.0695846521
 10
-61.5776248728
 20
12.0138375665
 10
-61.5588794268
 20
11.9590699235
 10
-61.5355290824
 20
11.9055009425
 10
-61.5076672971
 20
11.853344964
 10
-61.475405605
 20
11.8028108592
 10
-61.4388731427
 20
11.7541009134
 10
-61.3982161238
 20
11.7074099229
 10
-61.3535972915
 20
11.6629248121
 10
-61.3051952646
 20
11.6208238551
 10
-61.2532037978
 20
11.5812757084
  0
LWPOLYLINE
  5
229
100
AcDbEntity
  8
RACCORDO
100
AcDbPolyline
 62
250
  6
CONTINUOUS
 90
9
 70
0
 10
-61.2532037978
 20
11.5812757084
 10
-61.2458407618
 20
11.5294281823
 10
-61.2346288175
 20
11.4809322656
 10
-61.2196194988
 20
11.4360108625
 10
-61.2008817939
 20
11.3948704473
 10
-61.1785018276
 20
11.3577001157
 10
-61.1525824662
 20
11.3246707156
 10
-61.1232428441
 20
11.2959340616
 10
-61.1013413121
 20
11.2788672872
  0
LWPOLYLINE
  5
22A
100
AcDbEntity
  8
RACCORDO
100
AcDbPolyline
 62
250
  6
CONTINUOUS
 90
25
 70
0
 10
-47.2577094155
 20
57.6959941751
 10
-47.4689539679
 20
55.218927892
 10
-47.6618732529
 20
52.7532291881
 10
-47.8364553229
 20
50.299050779
 10
-47.9926893642
 20
47.8565446976
 10
-48.1305657036
 20
45.4258621917
 10
-48.2500758071
 20
43.0071537165
 10
-48.351212274
 20
40.600569013
 10
-48.4339688359
 20
38.2062572028
 10
-48.4983403638
 20
35.8243666854
 10
-48.5443228713
 20
33.4550450402
 10
-48.5719135137
 20
31.0984389577
 10
-48.5811105834
 20
28.7546943352
 10
-48.5719135109
 20
26.4239563354
 10
-48.5443228658
 20
24.1063693157
 10
-48.4983403555
 20
21.8020767585
 10
-48.4339688249
 20
19.511221331
 10
-48.3512122603
 20
17.2339449753
 10
-48.2500757906
 20
14.9703888372
 10
-48.1305656837
 20
12.7206931608
 10
-47.9926893406
 20
10.484997234
 10
-47.8364552982
 20
8.2634394794
 10
-47.6618732316
 20
6.0561574764
 10
-47.4689539545
 20
3.863287952
 10
-47.2577094155
 20
1.6849667246
  0
LWPOLYLINE
  5
22B
100
AcDbEntity
  8
0
100
AcDbPolyline
 62
7
  6
CONTINUOUS
 90
8
 70
0
 10
53.1685186326
 20
-65.3898675269
 10
53.1616120083
 20
-65.3886161546
 10
53.1449622986
 20
-65.3839813245
 10
53.1275329398
 20
-65.3775924445
 10
53.1096372763
 20
-65.3695738058
 10
53.0913797087
 20
-65.3599668759
 10
53.0726557026
 20
-65.3487302926
 10
53.0534652243
 20
-65.3358640823
  0
LINE
  5
22C
100
AcDbEntity
  8
RACCORDO
100
AcDbLine
 62
7
  6
CONTINUOUS
 10
-44.0556271838
 20
45.7156674011
 11
-44.0556271838
 21
14.9862132893
  0
LWPOLYLINE
  5
22D
100
AcDbEntity
  8
RACCORDO
100
AcDbPolyline
 62
250
  6
CONTINUOUS
 90
19
 70
0
 10
-46.3157467924
 20
47.4942151585
 10
-46.434995388
 20
45.3744709554
 10
-46.5402207666
 20
43.264039319
 10
-46.6314229283
 20
41.1629202491
 10
-46.7086053559
 20
39.0710066698
 10
-46.7717645665
 20
36.9884056572
 10
-46.8208901119
 20
34.9154384389
 10
-46.8559795062
 20
32.8521150911
 10
-46.8770352353
 20
30.7984255378
 10
-46.8840543085
 20
28.7546607789
 10
-46.877034704
 20
26.7208209388
 10
-46.8559784438
 20
24.6969058932
 10
-46.8208886031
 20
22.6832062688
 10
-46.7717626416
 20
20.6797164063
 10
-46.7086030997
 20
18.6864419651
 10
-46.6314206741
 20
16.70369055
 10
-46.5402189302
 20
14.7315646957
 10
-46.4349943026
 20
12.7699618674
 10
-46.3157467912
 20
10.8188820652
  0
LINE
  5
22E
100
AcDbEntity
  8
RACCORDO
100
AcDbLine
 62
250
  6
CONTINUOUS
 10
-46.3157467986
 20
10.8188820193
 11
-46.3596151138
 21
10.0548823153
  0
LINE
  5
22F
100
AcDbEntity
  8
RACCORDO
100
AcDbLine
 62
250
  6
CONTINUOUS
 10
-46.3596151138
 20
10.0548823153
 11
-46.425403554
 21
9.0117339525
  0
LINE
  5
230
100
AcDbEntity
  8
RACCORDO
100
AcDbLine
 62
250
  6
CONTINUOUS
 10
-46.425403554
 20
9.0117339525
 11
-46.4883059
 21
8.0794750868
  0
LINE
  5
231
100
AcDbEntity
  8
RACCORDO
100
AcDbLine
 62
250
  6
CONTINUOUS
 10
-46.4883059
 20
8.0794750868
 11
-46.5665884996
 21
6.983650266
  0
LINE
  5
232
100
AcDbEntity
  8
RACCORDO
100
AcDbLine
 62
250
  6
CONTINUOUS
 10
-46.5665884996
 20
6.983650266
 11
-46.6384313301
 21
6.0308585409
  0
LINE
  5
233
100
AcDbEntity
  8
RACCORDO
100
AcDbLine
 62
250
  6
CONTINUOUS
 10
-46.6384313301
 20
6.0308585409
 11
-46.7046163327
 21
5.1994566978
  0
LINE
  5
234
100
AcDbEntity
  8
RACCORDO
100
AcDbLine
 62
250
  6
CONTINUOUS
 10
-46.7046163327
 20
5.1994566978
 11
-46.7513885584
 21
4.6442913747
  0
LINE
  5
235
100
AcDbEntity
  8
RACCORDO
100
AcDbLine
 62
250
  6
CONTINUOUS
 10
-46.7513885584
 20
4.6442913747
 11
-46.7963154688
 21
4.141778363
  0
LINE
  5
236
100
AcDbEntity
  8
RACCORDO
100
AcDbLine
 62
250
  6
CONTINUOUS
 10
-46.7963154688
 20
4.141778363
 11
-46.8255477951
 21
3.8339574625
  0
LINE
  5
237
100
AcDbEntity
  8
RACCORDO
100
AcDbLine
 62
250
  6
CONTINUOUS
 10
-46.8255477951
 20
3.8339574625
 11
-46.8544072531
 21
3.5466705941
  0
LWPOLYLINE
  5
238
100
AcDbEntity
  8
RACCORDO
100
AcDbPolyline
 62
250
  6
CONTINUOUS
 90
18
 70
0
 10
-46.8544072531
 20
3.5466705941
 10
-46.8831734446
 20
3.2784135953
 10
-46.897657341
 20
3.1510432718
 10
-46.9122412965
 20
3.027904027
 10
-46.9269209105
 20
2.9091335576
 10
-46.9418363465
 20
2.7948154112
 10
-46.9569500423
 20
2.6849084542
 10
-46.9722759818
 20
2.5794526585
 10
-46.9880222605
 20
2.4786715515
 10
-47.0040318835
 20
2.3826471332
 10
-47.0204251966
 20
2.2913122612
 10
-47.03779592
 20
2.2047139237
 10
-47.0558969414
 20
2.1223038719
 10
-47.0748759787
 20
2.0447188493
 10
-47.0958409292
 20
1.9738852528
 10
-47.1190519568
 20
1.9105541994
 10
-47.1439730995
 20
1.8542284687
 10
-47.1704447175
 20
1.8050322711
  0
LINE
  5
239
100
AcDbEntity
  8
RACCORDO
100
AcDbLine
 62
250
  6
CONTINUOUS
 10
-46.2000830891
 20
11.5428440335
 11
-46.3157467912
 21
10.8188820652
  0
LINE
  5
23A
100
AcDbEntity
  8
RACCORDO
100
AcDbLine
 62
250
  6
CONTINUOUS
 10
-44.5172785779
 20
11.3779083277
 11
-44.6985522109
 21
10.2481447302
  0
LWPOLYLINE
  5
23B
100
AcDbEntity
  8
RACCORDO
100
AcDbPolyline
 62
250
  6
CONTINUOUS
 90
4
 70
0
 10
-44.6985522109
 20
10.2481447302
 10
-44.7647873869
 20
9.8486073309
 10
-44.8302766886
 20
9.4650243844
 10
-44.8955217606
 20
9.0980153883
  0
LINE
  5
23C
100
AcDbEntity
  8
RACCORDO
100
AcDbLine
 62
250
  6
CONTINUOUS
 10
-46.0779789267
 20
12.2699125463
 11
-46.2000830891
 21
11.5428440335
  0
LINE
  5
23D
100
AcDbEntity
  8
RACCORDO
100
AcDbLine
 62
250
  6
CONTINUOUS
 10
-44.3967769989
 20
12.0954346025
 11
-44.5172785779
 21
11.3779083277
  0
LINE
  5
23E
100
AcDbEntity
  8
RACCORDO
100
AcDbLine
 62
250
  6
CONTINUOUS
 10
-45.9494343041
 20
13.0000876037
 11
-46.0779789267
 21
12.2699125463
  0
LINE
  5
23F
100
AcDbEntity
  8
RACCORDO
100
AcDbLine
 62
250
  6
CONTINUOUS
 10
-44.2698846719
 20
12.8162347054
 11
-44.3967769989
 21
12.0954346025
  0
LWPOLYLINE
  5
240
100
AcDbEntity
  8
RACCORDO
100
AcDbPolyline
 62
250
  6
CONTINUOUS
 90
3
 70
0
 10
-44.8955217606
 20
9.0980153883
 10
-45.0241221738
 20
8.4090903693
 10
-45.0867196145
 20
8.0847425123
  0
LWPOLYLINE
  5
241
100
AcDbEntity
  8
RACCORDO
100
AcDbPolyline
 62
250
  6
CONTINUOUS
 90
3
 70
0
 10
-45.0867196145
 20
8.0847425123
 10
-45.2089510047
 20
7.4744655317
 10
-45.2682051993
 20
7.1865916415
  0
LINE
  5
242
100
AcDbEntity
  8
RACCORDO
100
AcDbLine
 62
250
  6
CONTINUOUS
 10
-45.2682051993
 20
7.1865916415
 11
-45.3834170792
 21
6.6438559456
  0
LINE
  5
243
100
AcDbEntity
  8
RACCORDO
100
AcDbLine
 62
250
  6
CONTINUOUS
 10
-45.3834170792
 20
6.6438559456
 11
-45.4939523014
 21
6.1408386431
  0
LINE
  5
244
100
AcDbEntity
  8
RACCORDO
100
AcDbLine
 62
250
  6
CONTINUOUS
 10
-45.4939523014
 20
6.1408386431
 11
-45.6000153968
 21
5.6739357889
  0
LWPOLYLINE
  5
245
100
AcDbEntity
  8
RACCORDO
100
AcDbPolyline
 62
250
  6
CONTINUOUS
 90
3
 70
0
 10
-45.6000153968
 20
5.6739357889
 10
-45.7019546579
 20
5.2407304569
 10
-45.7514322569
 20
5.0355698359
  0
LWPOLYLINE
  5
246
100
AcDbEntity
  8
RACCORDO
100
AcDbPolyline
 62
250
  6
CONTINUOUS
 90
29
 70
0
 10
-45.7514322569
 20
5.0355698359
 10
-45.8477374528
 20
4.6472711354
 10
-45.8946381372
 20
4.4631947824
 10
-45.9407792972
 20
4.2858522921
 10
-45.9861823192
 20
4.1147129023
 10
-46.030879732
 20
3.9497209479
 10
-46.0749315883
 20
3.7908762845
 10
-46.1183914626
 20
3.637736804
 10
-46.16126652
 20
3.4902867437
 10
-46.2036284514
 20
3.3484934138
 10
-46.245619129
 20
3.2118944674
 10
-46.2872599861
 20
3.0804426009
 10
-46.3285946521
 20
2.9541445062
 10
-46.3697903902
 20
2.832623736
 10
-46.4108405777
 20
2.7156590409
 10
-46.4518051821
 20
2.6034379108
 10
-46.4929477709
 20
2.4961991736
 10
-46.5343954485
 20
2.3940049094
 10
-46.5760713672
 20
2.2967606692
 10
-46.6179327846
 20
2.2044705901
 10
-46.6593936074
 20
2.116622268
 10
-46.7010855697
 20
2.0336982718
 10
-46.7447930104
 20
1.9571948442
 10
-46.790873267
 20
1.887374016
 10
-46.8390120482
 20
1.8239452163
 10
-46.8899866848
 20
1.7675753914
 10
-46.9440692694
 20
1.718478146
 10
-47.0010259739
 20
1.6764142128
 10
-47.0608743159
 20
1.6413717853
  0
LINE
  5
247
100
AcDbEntity
  8
RACCORDO
100
AcDbLine
 62
250
  6
CONTINUOUS
 10
-46.9541112285
 20
56.1194506486
 11
-46.9239555819
 21
55.8328942058
  0
LINE
  5
248
100
AcDbEntity
  8
RACCORDO
100
AcDbLine
 62
250
  6
CONTINUOUS
 10
-46.9239555819
 20
55.8328942058
 11
-46.894641256
 21
55.5312915561
  0
LINE
  5
249
100
AcDbEntity
  8
RACCORDO
100
AcDbLine
 62
250
  6
CONTINUOUS
 10
-46.894641256
 20
55.5312915561
 11
-46.865755344
 21
55.2147369428
  0
LINE
  5
24A
100
AcDbEntity
  8
RACCORDO
100
AcDbLine
 62
250
  6
CONTINUOUS
 10
-46.865755344
 20
55.2147369428
 11
-46.8224712309
 21
54.7084275949
  0
LINE
  5
24B
100
AcDbEntity
  8
RACCORDO
100
AcDbLine
 62
250
  6
CONTINUOUS
 10
-46.8224712309
 20
54.7084275949
 11
-46.7634712221
 21
53.9685588119
  0
LINE
  5
24C
100
AcDbEntity
  8
RACCORDO
100
AcDbLine
 62
250
  6
CONTINUOUS
 10
-46.7634712221
 20
53.9685588119
 11
-46.6855735406
 21
52.9302557
  0
LINE
  5
24D
100
AcDbEntity
  8
RACCORDO
100
AcDbLine
 62
250
  6
CONTINUOUS
 10
-46.6855735406
 20
52.9302557
 11
-46.5825757765
 21
51.4949139449
  0
LINE
  5
24E
100
AcDbEntity
  8
RACCORDO
100
AcDbLine
 62
250
  6
CONTINUOUS
 10
-46.5825757765
 20
51.4949139449
 11
-46.4863996982
 21
50.1140754156
  0
LINE
  5
24F
100
AcDbEntity
  8
RACCORDO
100
AcDbLine
 62
250
  6
CONTINUOUS
 10
-46.4863996982
 20
50.1140754156
 11
-46.4027763166
 21
48.8714861847
  0
LWPOLYLINE
  5
250
100
AcDbEntity
  8
RACCORDO
100
AcDbPolyline
 62
250
  6
CONTINUOUS
 90
3
 70
0
 10
-46.4027763166
 20
48.8714861847
 10
-46.3371877155
 20
47.8510519323
 10
-46.3157467986
 20
47.4942151883
  0
LWPOLYLINE
  5
251
100
AcDbEntity
  8
RACCORDO
100
AcDbPolyline
 62
250
  6
CONTINUOUS
 90
19
 70
0
 10
-44.2873913146
 20
14.8223313008
 10
-44.2868531571
 20
14.8096250916
 10
-44.285242794
 20
14.7962545234
 10
-44.2825724811
 20
14.7823213544
 10
-44.278862541
 20
14.7679316244
 10
-44.2741412086
 20
14.753194848
 10
-44.2684444162
 20
14.738223181
 10
-44.2618155197
 20
14.7231305667
 10
-44.254304969
 20
14.7080318692
 10
-44.245969924
 20
14.6930419985
 10
-44.2368738195
 20
14.6782750368
 10
-44.2270858822
 20
14.6638433694
 10
-44.2166806044
 20
14.6498568301
 10
-44.2057371762
 20
14.6364218647
 10
-44.194338884
 20
14.6236407216
 10
-44.1825724762
 20
14.6116106735
 10
-44.1705275027
 20
14.6004232765
 10
-44.1582956327
 20
14.590163673
 10
-44.1459699584
 20
14.5809099446
  0
LWPOLYLINE
  5
252
100
AcDbEntity
  8
RACCORDO
100
AcDbPolyline
 62
7
  6
CONTINUOUS
 90
25
 70
0
 10
-44.0556271838
 20
14.9862132893
 10
-44.0553136506
 20
14.9766771346
 10
-44.05440786
 20
14.966839998
 10
-44.0529098121
 20
14.9567018794
 10
-44.0508080524
 20
14.9462169195
 10
-44.0481140354
 20
14.9354309778
 10
-44.0448621241
 20
14.9244816326
 10
-44.041045172
 20
14.9133667907
 10
-44.0366703257
 20
14.9020885455
 10
-44.0317933878
 20
14.8907907547
 10
-44.0264079267
 20
14.8794731681
 10
-44.020520374
 20
14.868136036
 10
-44.0142058276
 20
14.8569239674
 10
-44.0074588176
 20
14.8458385645
 10
-44.0002848139
 20
14.8348782252
 10
-43.9927753234
 20
14.8241827524
 10
-43.9849260485
 20
14.813755539
 10
-43.9767412867
 20
14.8035931921
 10
-43.9683254376
 20
14.7938253361
 10
-43.9596755409
 20
14.7844570242
 10
-43.9507945569
 20
14.7754832031
 10
-43.9417957655
 20
14.767018337
 10
-43.9327169268
 20
14.7591005807
 10
-43.9235202809
 20
14.7516917794
 10
-43.9142058276
 20
14.7447919331
  0
LWPOLYLINE
  5
253
100
AcDbEntity
  8
RACCORDO
100
AcDbPolyline
 62
250
  6
CONTINUOUS
 90
4
 70
0
 10
-47.2154189634
 20
1.7440127157
 10
-47.2298246507
 20
1.724115689
 10
-47.2439241061
 20
1.7044348128
 10
-47.2577094155
 20
1.6849667253
  0
LWPOLYLINE
  5
254
100
AcDbEntity
  8
RACCORDO
100
AcDbPolyline
 62
250
  6
CONTINUOUS
 90
3
 70
0
 10
-47.1704447175
 20
1.8050322711
 10
-47.1857209091
 20
1.784467986
 10
-47.2154189634
 20
1.7440127157
  0
LWPOLYLINE
  5
255
100
AcDbEntity
  8
RACCORDO
100
AcDbPolyline
 62
250
  6
CONTINUOUS
 90
32
 70
0
 10
-44.1459699584
 20
14.5809099446
 10
-44.1661853582
 20
14.5657879786
 10
-44.1860514204
 20
14.5488030979
 10
-44.2055523553
 20
14.5299084275
 10
-44.224729411
 20
14.5090767634
 10
-44.2434999594
 20
14.486242995
 10
-44.2616577443
 20
14.4613084353
 10
-44.2791672147
 20
14.4342384123
 10
-44.2960015923
 20
14.4049927045
 10
-44.3119629847
 20
14.3734734081
 10
-44.3270082375
 20
14.3396563946
 10
-44.3410947297
 20
14.3035116395
 10
-44.3540200615
 20
14.2649410686
 10
-44.3657259783
 20
14.223934312
 10
-44.3761593317
 20
14.180473654
 10
-44.3851191149
 20
14.1344582831
 10
-44.392523416
 20
14.0858912781
 10
-44.3983144641
 20
14.0347725779
 10
-44.4023189155
 20
13.9810040971
 10
-44.4043652496
 20
13.9238721362
 10
-44.4044335496
 20
13.8641173202
 10
-44.4026497311
 20
13.8038866046
 10
-44.3988448056
 20
13.7431707101
 10
-44.3931711552
 20
13.682140173
 10
-44.3864112036
 20
13.6232911245
 10
-44.3787850414
 20
13.5676832785
 10
-44.3702831515
 20
13.5144221473
 10
-44.3614010379
 20
13.4630755476
 10
-44.3522349596
 20
13.4136676564
 10
-44.3428127029
 20
13.3662498664
 10
-44.3334661984
 20
13.320413264
 10
-44.3064988363
 20
13.1921632984
  0
LINE
  5
256
100
AcDbEntity
  8
RACCORDO
100
AcDbLine
 62
250
  6
CONTINUOUS
 10
-44.0556271838
 20
14.9862132893
 11
-44.2975218682
 21
14.8152068064
  0
LWPOLYLINE
  5
257
100
AcDbEntity
  8
RACCORDO
100
AcDbPolyline
 62
250
  6
CONTINUOUS
 90
83
 70
0
 10
-44.7295610164
 20
14.5293392223
 10
-44.7486543142
 20
14.5159639719
 10
-44.7681775049
 20
14.5021416016
 10
-44.7881303845
 20
14.4878692621
 10
-44.8085504623
 20
14.4730681178
 10
-44.8294373984
 20
14.4577420809
 10
-44.8507915327
 20
14.4418872393
 10
-44.8726513946
 20
14.4254130208
 10
-44.8950169618
 20
14.4083240497
 10
-44.9178882567
 20
14.3906157019
 10
-44.9413038755
 20
14.3721835322
 10
-44.9653335564
 20
14.3529723249
 10
-44.9899075612
 20
14.3330372958
 10
-45.0148552719
 20
14.3124396473
 10
-45.0402345009
 20
14.2911197241
 10
-45.0659874358
 20
14.2691371814
 10
-45.0917700205
 20
14.246732187
 10
-45.1175728203
 20
14.2238944045
 10
-45.14340527
 20
14.2006341702
 10
-45.168951617
 20
14.1772226613
 10
-45.1941693064
 20
14.1536834406
 10
-45.2191008931
 20
14.1299929453
 10
-45.2435582901
 20
14.1063516635
 10
-45.2674626622
 20
14.0828321408
 10
-45.2908928445
 20
14.0593618318
 10
-45.3138972547
 20
14.0359235882
 10
-45.3365024868
 20
14.0124910091
 10
-45.3586819467
 20
13.9890904954
 10
-45.3804042705
 20
13.9657841023
 10
-45.4016623502
 20
13.9425782811
 10
-45.4224632936
 20
13.9194665804
 10
-45.4427970602
 20
13.8964917014
 10
-45.4626600927
 20
13.8736573954
 10
-45.4820559483
 20
13.8509599111
 10
-45.5009852589
 20
13.8284306953
 10
-45.5194488378
 20
13.8060684854
 10
-45.5374458716
 20
13.7838745441
 10
-45.5549745521
 20
13.761884106
 10
-45.57203239
 20
13.7400998866
 10
-45.5886218747
 20
13.7185191706
 10
-45.6047486654
 20
13.6971690459
 10
-45.6204084302
 20
13.6760554741
 10
-45.635605501
 20
13.6551724937
 10
-45.650358533
 20
13.6345293088
 10
-45.6646663277
 20
13.6141284065
 10
-45.6785300835
 20
13.5939672998
 10
-45.6919720509
 20
13.5740477318
 10
-45.7049929017
 20
13.5543694698
 10
-45.7175919642
 20
13.5349327464
 10
-45.7297894734
 20
13.5157400028
 10
-45.7415838711
 20
13.4967946422
 10
-45.7529767155
 20
13.4780932614
 10
-45.7639929168
 20
13.4596280912
 10
-45.7746310804
 20
13.4414032282
 10
-45.784892601
 20
13.4234145758
 10
-45.7948065723
 20
13.4056420747
 10
-45.8043761711
 20
13.388081633
 10
-45.8135982206
 20
13.3707373426
 10
-45.8224922842
 20
13.35360142
 10
-45.8310595176
 20
13.3366724391
 10
-45.8392987651
 20
13.3199518262
 10
-45.8472261233
 20
13.3034360756
 10
-45.8548416761
 20
13.2871256504
 10
-45.8621453396
 20
13.2710200876
 10
-45.8691529589
 20
13.2551144936
 10
-45.8758645614
 20
13.2394096637
 10
-45.8822801197
 20
13.2239048025
 10
-45.8884153965
 20
13.2085926307
 10
-45.8942707048
 20
13.1934734989
 10
-45.8998457316
 20
13.1785470566
 10
-45.9051553002
 20
13.1638049717
 10
-45.9101998362
 20
13.1492474496
 10
-45.914978914
 20
13.1348742849
 10
-45.919506081
 20
13.1206765299
 10
-45.9237812613
 20
13.1066568738
 10
-45.9278045309
 20
13.0928126272
 10
-45.9315896648
 20
13.0791267747
 10
-45.935137287
 20
13.0656016555
 10
-45.9384467736
 20
13.0522349304
 10
-45.9415300283
 20
13.039002566
 10
-45.9443910189
 20
13.0258965512
 10
-45.9470257775
 20
13.0129248971
 10
-45.9494343041
 20
13.0000876037
  0
LWPOLYLINE
  5
258
100
AcDbEntity
  8
RACCORDO
100
AcDbPolyline
 62
250
  6
CONTINUOUS
 90
13
 70
0
 10
-44.3064988363
 20
13.1921632984
 10
-44.2983124041
 20
13.1521627866
 10
-44.2906166886
 20
13.1135617491
 10
-44.283753379
 20
13.076378898
 10
-44.2777476585
 20
13.0405492775
 10
-44.2725933563
 20
13.0061629789
 10
-44.2685778634
 20
12.9734711261
 10
-44.2658115959
 20
12.942468528
 10
-44.2642103462
 20
12.9131776831
 10
-44.2637866903
 20
12.8858832207
 10
-44.2645706509
 20
12.8606764054
 10
-44.2665936879
 20
12.8374614978
 10
-44.2698846719
 20
12.8162347054
  0
LINE
  5
259
100
AcDbEntity
  8
RACCORDO
100
AcDbLine
 62
250
  6
CONTINUOUS
 10
-43.9142058276
 20
14.7447919331
 11
-44.1459699584
 21
14.5809099446
  0
LINE
  5
25A
100
AcDbEntity
  8
RACCORDO
100
AcDbLine
 62
250
  6
CONTINUOUS
 10
-44.2975218682
 20
14.8152068064
 11
-44.3183223125
 21
14.8007805732
  0
LWPOLYLINE
  5
25B
100
AcDbEntity
  8
RACCORDO
100
AcDbPolyline
 62
250
  6
CONTINUOUS
 90
3
 70
0
 10
-44.6747426363
 20
14.5669799842
 10
-44.6926253669
 20
14.5548101026
 10
-44.7295610164
 20
14.5293392223
  0
LINE
  5
25C
100
AcDbEntity
  8
RACCORDO
100
AcDbLine
 62
250
  6
CONTINUOUS
 10
-44.3183223125
 20
14.8007805732
 11
-44.3398282478
 21
14.7861317601
  0
LINE
  5
25D
100
AcDbEntity
  8
RACCORDO
100
AcDbLine
 62
250
  6
CONTINUOUS
 10
-44.6401205335
 20
14.5902390945
 11
-44.6747426363
 21
14.5669799842
  0
LINE
  5
25E
100
AcDbEntity
  8
RACCORDO
100
AcDbLine
 62
250
  6
CONTINUOUS
 10
-44.3398282478
 20
14.7861317601
 11
-44.3621142812
 21
14.7711857022
  0
LINE
  5
25F
100
AcDbEntity
  8
RACCORDO
100
AcDbLine
 62
250
  6
CONTINUOUS
 10
-44.6069382614
 20
14.612217698
 11
-44.6401205335
 21
14.5902390945
  0
LINE
  5
260
100
AcDbEntity
  8
RACCORDO
100
AcDbLine
 62
250
  6
CONTINUOUS
 10
-44.3621142812
 20
14.7711857022
 11
-44.3852222787
 21
14.7558983499
  0
LINE
  5
261
100
AcDbEntity
  8
RACCORDO
100
AcDbLine
 62
250
  6
CONTINUOUS
 10
-44.575105382
 20
14.6330685164
 11
-44.6069382614
 21
14.612217698
  0
LINE
  5
262
100
AcDbEntity
  8
RACCORDO
100
AcDbLine
 62
250
  6
CONTINUOUS
 10
-44.3852222787
 20
14.7558983499
 11
-44.4215680407
 21
14.7321704075
  0
LINE
  5
263
100
AcDbEntity
  8
RACCORDO
100
AcDbLine
 62
250
  6
CONTINUOUS
 10
-44.5010464007
 20
14.6809437234
 11
-44.575105382
 21
14.6330685164
  0
LINE
  5
264
100
AcDbEntity
  8
RACCORDO
100
AcDbLine
 62
250
  6
CONTINUOUS
 10
-44.4215680407
 20
14.7321704075
 11
-44.5010464007
 21
14.6809437234
  0
LWPOLYLINE
  5
265
100
AcDbEntity
  8
RACCORDO
100
AcDbPolyline
 62
250
  6
CONTINUOUS
 90
28
 70
0
 10
-45.9494343041
 20
13.0000876037
 10
-45.8997152052
 20
13.0231242446
 10
-45.8472853321
 20
13.044088771
 10
-45.792321697
 20
13.0629094878
 10
-45.7350072764
 20
13.0795319107
 10
-45.6755382277
 20
13.0938893213
 10
-45.6141235401
 20
13.1059033919
 10
-45.5509733302
 20
13.1155249896
 10
-45.4862989495
 20
13.1227300619
 10
-45.4203203471
 20
13.1274904465
 10
-45.3532610215
 20
13.1297895968
 10
-45.2853476388
 20
13.1296202938
 10
-45.216810399
 20
13.1269809006
 10
-45.1478812968
 20
13.1218799169
 10
-45.0787934777
 20
13.1143351619
 10
-45.0097808526
 20
13.1043714438
 10
-44.9410770217
 20
13.0920220701
 10
-44.8729143757
 20
13.0773293418
 10
-44.8055234486
 20
13.0603436292
 10
-44.7391323412
 20
13.0411220567
 10
-44.6739656356
 20
13.0197300962
 10
-44.6102435255
 20
12.9962419553
 10
-44.5481816807
 20
12.9707368591
 10
-44.4879900498
 20
12.9433014426
 10
-44.4298718353
 20
12.9140312446
 10
-44.3740235321
 20
12.8830262522
 10
-44.3206342632
 20
12.8503905663
 10
-44.2698846719
 20
12.8162347054
  0
LWPOLYLINE
  5
266
100
AcDbEntity
  8
RACCORDO
100
AcDbPolyline
 62
250
  6
CONTINUOUS
 90
10
 70
0
 10
-47.1704447189
 20
1.8050322697
 10
-47.1571950004
 20
1.7877889428
 10
-47.1442040507
 20
1.7702960531
 10
-47.1314763351
 20
1.7525596218
 10
-47.119016312
 20
1.7345858355
 10
-47.1068281772
 20
1.7163808013
 10
-47.0949158755
 20
1.697950534
 10
-47.0832834333
 20
1.6793012824
 10
-47.0719349431
 20
1.6604395383
 10
-47.0608743174
 20
1.6413717843
  0
LWPOLYLINE
  5
267
100
AcDbEntity
  8
RACCORDO
100
AcDbPolyline
 62
250
  6
CONTINUOUS
 90
79
 70
0
 10
-45.9494343041
 20
45.8310537016
 10
-45.9470252287
 20
45.8216219733
 10
-45.9443904083
 20
45.8123767579
 10
-45.9415298428
 20
45.8033180554
 10
-45.9384474183
 20
45.7944483033
 10
-45.9351392489
 20
45.785765064
 10
-45.9315936761
 20
45.7772610259
 10
-45.9278113098
 20
45.7689329967
 10
-45.9237915403
 20
45.7607841686
 10
-45.919520879
 20
45.7528168059
 10
-45.9149996464
 20
45.7450288052
 10
-45.9102275222
 20
45.7374222699
 10
-45.9051900568
 20
45.7300057742
 10
-45.8998878934
 20
45.7227783392
 10
-45.8943203889
 20
45.7157409438
 10
-45.8884711642
 20
45.7089050991
 10
-45.8823402422
 20
45.7022694451
 10
-45.8759276001
 20
45.6958353418
 10
-45.8692167902
 20
45.6896183804
 10
-45.8622071101
 20
45.6836173021
 10
-45.8548992622
 20
45.6778333657
 10
-45.8472789062
 20
45.6722859387
 10
-45.8393460761
 20
45.6669747993
 10
-45.8311007378
 20
45.6619001693
 10
-45.8225284489
 20
45.657082081
 10
-45.8136309853
 20
45.6525207728
 10
-45.804406571
 20
45.6482160064
 10
-45.7948354362
 20
45.6441870998
 10
-45.7849210453
 20
45.640433631
 10
-45.7746599339
 20
45.636956022
 10
-45.764021938
 20
45.6337748575
 10
-45.7530052397
 20
45.6308878212
 10
-45.741611657
 20
45.6282972293
 10
-45.7298164793
 20
45.6260306146
 10
-45.7176182058
 20
45.6240868036
 10
-45.7050183373
 20
45.6224669697
 10
-45.6919966653
 20
45.6212021668
 10
-45.6785540372
 20
45.6202916656
 10
-45.6646896057
 20
45.6197361952
 10
-45.6503806208
 20
45.6195689967
 10
-45.6356255814
 20
45.6197892753
 10
-45.6204259886
 20
45.6203978257
 10
-45.6047635961
 20
45.6214302735
 10
-45.5886341181
 20
45.6228868137
 10
-45.5720418404
 20
45.6247672514
 10
-45.5549813743
 20
45.627106626
 10
-45.5374506109
 20
45.6299056596
 10
-45.5194516592
 20
45.6331636303
 10
-45.5009854567
 20
45.6369134117
 10
-45.4820524557
 20
45.6411551669
 10
-45.462652204
 20
45.6458887329
 10
-45.4427842826
 20
45.6511464933
 10
-45.4224454362
 20
45.65692963
 10
-45.4016389202
 20
45.6632369613
 10
-45.3803740825
 20
45.6700973255
 10
-45.3586429764
 20
45.6775146451
 10
-45.3364535486
 20
45.6854849977
 10
-45.3138389873
 20
45.6940254541
 10
-45.2908235611
 20
45.7031260669
 10
-45.2673830013
 20
45.7127967836
 10
-45.2434776897
 20
45.7230845166
 10
-45.2190326974
 20
45.7340266795
 10
-45.1941229533
 20
45.7455858589
 10
-45.1689336262
 20
45.757696727
 10
-45.1434240402
 20
45.7703945714
 10
-45.117634871
 20
45.7836441045
 10
-45.0918733151
 20
45.7972741367
 10
-45.0661312831
 20
45.8113069841
 10
-45.0404168642
 20
45.8257203305
 10
-45.0150615223
 20
45.840276038
 10
-44.9901132381
 20
45.8549578871
 10
-44.9655240307
 20
45.8697820972
 10
-44.9414814219
 20
45.8845591878
 10
-44.9180621875
 20
45.8992417442
 10
-44.8951895516
 20
45.9138771811
 10
-44.8728207083
 20
45.928418263
 10
-44.8509533412
 20
45.942861863
 10
-44.8295897667
 20
45.9572111079
 10
-44.8086941279
 20
45.9714281433
  0
LINE
  5
268
100
AcDbEntity
  8
RACCORDO
100
AcDbLine
 62
250
  6
CONTINUOUS
 10
-46.3203535357
 20
55.2569647021
 11
-46.237187567
 21
54.9247787062
  0
LINE
  5
269
100
AcDbEntity
  8
RACCORDO
100
AcDbLine
 62
250
  6
CONTINUOUS
 10
-46.237187567
 20
54.9247787062
 11
-46.1526394098
 21
54.5772139554
  0
LINE
  5
26A
100
AcDbEntity
  8
RACCORDO
100
AcDbLine
 62
250
  6
CONTINUOUS
 10
-46.1526394098
 20
54.5772139554
 11
-46.0661659404
 21
54.2130216036
  0
LINE
  5
26B
100
AcDbEntity
  8
RACCORDO
100
AcDbLine
 62
250
  6
CONTINUOUS
 10
-46.0661659404
 20
54.2130216036
 11
-45.9319443486
 21
53.6342370642
  0
LINE
  5
26C
100
AcDbEntity
  8
RACCORDO
100
AcDbLine
 62
250
  6
CONTINUOUS
 10
-45.9319443486
 20
53.6342370642
 11
-45.7427861398
 21
52.7987055572
  0
LWPOLYLINE
  5
26D
100
AcDbEntity
  8
RACCORDO
100
AcDbPolyline
 62
250
  6
CONTINUOUS
 90
18
 70
0
 10
-44.2698846719
 20
45.9901484684
 10
-44.2665743532
 20
45.9751956185
 10
-44.2645507029
 20
45.9615233074
 10
-44.2637858031
 20
45.9491679976
 10
-44.264253271
 20
45.9381344332
 10
-44.2659203652
 20
45.9284986571
 10
-44.2687626469
 20
45.9203930857
 10
-44.2728623012
 20
45.9139376044
 10
-44.2781105943
 20
45.9090676761
 10
-44.2842124679
 20
45.9056243154
 10
-44.2911741931
 20
45.9036655322
 10
-44.2989701108
 20
45.903186496
 10
-44.3072497283
 20
45.9039447729
 10
-44.3159782782
 20
45.905977783
 10
-44.3251528094
 20
45.9093314456
 10
-44.334443309
 20
45.9138133789
 10
-44.3438138128
 20
45.9194934994
 10
-44.3464131565
 20
45.9212841343
  0
LINE
  5
26E
100
AcDbEntity
  8
RACCORDO
100
AcDbLine
 62
250
  6
CONTINUOUS
 10
-45.7427861398
 20
52.7987055572
 11
-45.486159854
 21
51.6416877366
  0
LINE
  5
26F
100
AcDbEntity
  8
RACCORDO
100
AcDbLine
 62
250
  6
CONTINUOUS
 10
-45.486159854
 20
51.6416877366
 11
-45.2617558602
 21
50.6167571027
  0
LINE
  5
270
100
AcDbEntity
  8
RACCORDO
100
AcDbLine
 62
250
  6
CONTINUOUS
 10
-45.2617558602
 20
50.6167571027
 11
-45.0196891616
 21
49.4959364484
  0
LINE
  5
271
100
AcDbEntity
  8
RACCORDO
100
AcDbLine
 62
250
  6
CONTINUOUS
 10
-45.0196891616
 20
49.4959364484
 11
-44.8278654442
 21
48.5905976488
  0
LINE
  5
272
100
AcDbEntity
  8
RACCORDO
100
AcDbLine
 62
250
  6
CONTINUOUS
 10
-44.8278654442
 20
48.5905976488
 11
-44.6313772652
 21
47.6314262513
  0
LWPOLYLINE
  5
273
100
AcDbEntity
  8
RACCORDO
100
AcDbPolyline
 62
250
  6
CONTINUOUS
 90
7
 70
0
 10
-46.3157467924
 20
47.4942151585
 10
-46.2587199734
 20
47.2132704416
 10
-46.2000830494
 20
46.9338261811
 10
-46.1398360205
 20
46.6558823768
 10
-46.0779788867
 20
46.3794390288
 10
-46.0145116479
 20
46.1044961371
 10
-45.9494343041
 20
45.8310537016
  0
LWPOLYLINE
  5
274
100
AcDbEntity
  8
RACCORDO
100
AcDbPolyline
 62
250
  6
CONTINUOUS
 90
7
 70
0
 10
-44.6313772652
 20
47.6314262513
 10
-44.5751290232
 20
47.3543067152
 10
-44.5172785891
 20
47.0786070813
 10
-44.4578274191
 20
46.8043344221
 10
-44.3967770106
 20
46.5314957733
 10
-44.3341289019
 20
46.2600981346
 10
-44.2698846719
 20
45.9901484684
  0
LWPOLYLINE
  5
275
100
AcDbEntity
  8
RACCORDO
100
AcDbPolyline
 62
250
  6
CONTINUOUS
 90
25
 70
0
 10
-46.3157467986
 20
10.8188820193
 10
-46.2592630181
 20
10.8466919366
 10
-46.1993875548
 20
10.8718134348
 10
-46.1363768102
 20
10.8941389406
 10
-46.0705006069
 20
10.913572855
 10
-46.0020410466
 20
10.9300319589
 10
-45.9312913044
 20
10.9434457709
 10
-45.8585543483
 20
10.9537568548
 10
-45.7841416539
 20
10.9609210612
 10
-45.7083718861
 20
10.9649077159
 10
-45.6315695085
 20
10.9656997536
 10
-45.5540634029
 20
10.9632937891
 10
-45.476185475
 20
10.9577001325
 10
-45.3982692127
 20
10.9489427444
 10
-45.3206482639
 20
10.9370591327
 10
-45.243655018
 20
10.9221001936
 10
-45.1676191703
 20
10.9041299917
 10
-45.0928663123
 20
10.8832254852
 10
-45.0197165429
 20
10.8594761981
 10
-44.9484830946
 20
10.8329838354
 10
-44.8794709905
 20
10.8038618474
 10
-44.812975739
 20
10.7722349431
 10
-44.7492820719
 20
10.738238558
 10
-44.6886627243
 20
10.7020182739
 10
-44.6313772652
 20
10.6637291945
  0
LINE
  5
276
100
AcDbEntity
  8
RACCORDO
100
AcDbLine
 62
250
  6
CONTINUOUS
 10
-61.1013413121
 20
11.2788672872
 11
-61.1012771296
 21
11.2788218907
  0
LINE
  5
277
100
AcDbEntity
  8
ASSI
100
AcDbLine
 62
7
  6
CONTINUOUS
 10
-61.1012771296
 20
11.2788218907
 11
56.9751155583
 21
-72.213796077
  0
LINE
  5
278
100
AcDbEntity
  8
RACCORDO
100
AcDbLine
 62
250
  6
CONTINUOUS
 10
-61.2532037978
 20
11.5812757084
 11
-47.2577094147
 21
1.6849667241
  0
LINE
  5
279
100
AcDbEntity
  8
RACCORDO
100
AcDbLine
 62
250
  6
CONTINUOUS
 10
42.827694507
 20
-62.0150332749
 11
56.8231888901
 21
-71.9113422592
  0
LINE
  5
27A
100
AcDbEntity
  8
RACCORDO
100
AcDbLine
 62
250
  6
CONTINUOUS
 10
-47.0608743159
 20
1.6413717853
 11
42.6237957262
 21
-61.77526657
  0
LWPOLYLINE
  5
27B
100
AcDbEntity
  8
RACCORDO
100
AcDbPolyline
 62
250
  6
CONTINUOUS
 90
7
 70
0
 10
-47.2577094156
 20
57.6959941737
 10
-47.2439130908
 20
57.6485068879
 10
-47.2298066182
 20
57.60134201
 10
-47.2153982282
 20
57.5545031987
 10
-47.2006962102
 20
57.5079939897
 10
-47.1857089083
 20
57.4618177952
 10
-47.1704447175
 20
57.4159779032
  0
LWPOLYLINE
  5
27C
100
AcDbEntity
  8
RACCORDO
100
AcDbPolyline
 62
250
  6
CONTINUOUS
 90
12
 70
0
 10
-47.1704447175
 20
57.4159779032
 10
-47.1433804995
 20
57.3190490064
 10
-47.117949352
 20
57.2178247512
 10
-47.0943239755
 20
57.1122030614
 10
-47.0730898908
 20
57.0017369975
 10
-47.0539586989
 20
56.8866593215
 10
-47.0357098608
 20
56.7679503372
 10
-47.0181498575
 20
56.6460210563
 10
-47.0015717914
 20
56.5203946016
 10
-46.9854020249
 20
56.3908081833
 10
-46.9695321607
 20
56.2571150547
 10
-46.9541112285
 20
56.1194506486
  0
LWPOLYLINE
  5
27D
100
AcDbEntity
  8
0
100
AcDbPolyline
 62
7
  6
CONTINUOUS
 90
14
 70
0
 10
52.9470525457
 20
-65.4110938827
 10
52.9647082298
 20
-65.4230026886
 10
52.9821779586
 20
-65.4336213901
 10
52.9993659689
 20
-65.4428904053
 10
53.0161846148
 20
-65.4507639191
 10
53.0325320544
 20
-65.4571896329
 10
53.0482953626
 20
-65.4621184159
 10
53.0633448665
 20
-65.4655244095
 10
53.0776441985
 20
-65.4674131521
 10
53.0912144529
 20
-65.4677720445
 10
53.1039817867
 20
-65.4665732778
 10
53.1158375804
 20
-65.4637987106
 10
53.1267329829
 20
-65.4594197267
 10
53.1356777879
 20
-65.4540739569
  0
LINE
  5
27E
100
AcDbEntity
  8
0
100
AcDbLine
 62
7
  6
CONTINUOUS
 10
50.2354775063
 20
-64.4952521192
 11
50.6314717404
 21
-64.7752579612
  0
LINE
  5
27F
100
AcDbEntity
  8
0
100
AcDbLine
 62
7
  6
CONTINUOUS
 10
48.8051093824
 20
-63.4838291192
 11
49.201093717
 21
-63.7638279612
  0
LINE
  5
280
100
AcDbEntity
  8
0
100
AcDbLine
 62
7
  6
CONTINUOUS
 10
47.2427467553
 20
-62.3790762772
 11
47.6387409894
 21
-62.6590821192
  0
LINE
  5
281
100
AcDbEntity
  8
0
100
AcDbLine
 62
7
  6
CONTINUOUS
 10
45.9470365113
 20
-61.4628707772
 11
46.3430455947
 21
-61.7428871192
  0
LINE
  5
282
100
AcDbEntity
  8
0
100
AcDbLine
 62
7
  6
CONTINUOUS
 10
53.3053946192
 20
-66.6660069612
 11
53.7514209008
 21
-66.9813908032
  0
LINE
  5
283
100
AcDbEntity
  8
0
100
AcDbLine
 62
7
  6
CONTINUOUS
 10
48.0347257366
 20
-62.9390856192
 11
48.4307203833
 21
-63.2190961192
  0
LINE
  5
284
100
AcDbEntity
  8
0
100
AcDbLine
 62
7
  6
CONTINUOUS
 10
49.5754880783
 20
-64.0285691192
 11
49.971482725
 21
-64.3085796192
  0
LINE
  5
285
100
AcDbEntity
  8
0
100
AcDbLine
 62
7
  6
CONTINUOUS
 10
52.1668982543
 20
-65.8609684612
 11
52.5628978507
 21
-66.1409824612
  0
LINE
  5
286
100
AcDbEntity
  8
0
100
AcDbLine
 62
7
  6
CONTINUOUS
 10
51.5069038766
 20
-65.3942819612
 11
51.9029038856
 21
-65.6743006192
  0
LINE
  5
287
100
AcDbEntity
  8
0
100
AcDbLine
 62
7
  6
CONTINUOUS
 10
50.7242892793
 20
-64.4970482157
 11
51.3496948216
 21
-64.9392767157
  0
LINE
  5
288
100
AcDbEntity
  8
0
100
AcDbLine
 62
7
  6
CONTINUOUS
 10
50.8144593189
 20
-64.2279137124
 11
51.1982825366
 21
-64.4993177124
  0
LINE
  5
289
100
AcDbEntity
  8
0
100
AcDbLine
 62
7
  6
CONTINUOUS
 10
52.500125118
 20
-65.4198550452
 11
52.8457416347
 21
-65.6642472124
  0
LINE
  5
28A
100
AcDbEntity
  8
0
100
AcDbLine
 62
7
  6
CONTINUOUS
 10
50.9208707102
 20
-64.152669496
 11
51.1301045185
 21
-64.3006201407
  0
LINE
  5
28B
100
AcDbEntity
  8
0
100
AcDbLine
 62
7
  6
CONTINUOUS
 10
52.4652702901
 20
-65.0704209685
 11
52.9470526582
 21
-65.411092389
  0
LINE
  5
28C
100
AcDbEntity
  8
0
100
AcDbLine
 62
7
  6
CONTINUOUS
 10
52.5716711315
 20
-64.9951842121
 11
53.0534533871
 21
-65.3358557121
  0
LINE
  5
28D
100
AcDbEntity
  8
0
100
AcDbLine
 62
7
  6
CONTINUOUS
 10
52.4273522721
 20
-64.6154077381
 11
52.9091394774
 21
-64.9560827381
  0
LINE
  5
28E
100
AcDbEntity
  8
0
100
AcDbLine
 62
7
  6
CONTINUOUS
 10
45.1529537373
 20
-59.145355059
 11
45.5489533337
 21
-59.425369059
  0
LINE
  5
28F
100
AcDbEntity
  8
0
100
AcDbLine
 62
7
  6
CONTINUOUS
 10
46.4243805202
 20
-60.044389559
 11
46.8203801167
 21
-60.324403559
  0
LINE
  5
290
100
AcDbEntity
  8
0
100
AcDbLine
 62
7
  6
CONTINUOUS
 10
47.0843748979
 20
-60.511076059
 11
47.4803695446
 21
-60.791086559
  0
LINE
  5
291
100
AcDbEntity
  8
0
100
AcDbLine
 62
7
  6
CONTINUOUS
 10
47.8763493421
 20
-61.071086559
 11
48.4749866501
 21
-61.494387059
  0
LINE
  5
292
100
AcDbEntity
  8
0
100
AcDbLine
 62
7
  6
CONTINUOUS
 10
49.2144690224
 20
-62.017280059
 11
49.8131063305
 21
-62.440580559
  0
LINE
  5
293
100
AcDbEntity
  8
0
100
AcDbLine
 62
7
  6
CONTINUOUS
 10
50.7128017495
 20
-63.0767568774
 11
51.1088161952
 21
-63.3567813774
  0
LINE
  5
294
100
AcDbEntity
  8
0
100
AcDbLine
 62
7
  6
CONTINUOUS
 10
52.008521893
 20
-63.9929693774
 11
52.9358074483
 21
-64.6486594732
  0
LINE
  5
295
100
AcDbEntity
  8
0
100
AcDbLine
 62
7
  6
CONTINUOUS
 10
45.2593307887
 20
-59.0701351246
 11
45.6553303852
 21
-59.3501491246
  0
LINE
  5
296
100
AcDbEntity
  8
0
100
AcDbLine
 62
7
  6
CONTINUOUS
 10
46.5307575717
 20
-59.9691696246
 11
46.9267571681
 21
-60.2491836246
  0
LINE
  5
297
100
AcDbEntity
  8
0
100
AcDbLine
 62
7
  6
CONTINUOUS
 10
47.1907519493
 20
-60.4358561246
 11
47.586746596
 21
-60.7158666246
  0
LINE
  5
298
100
AcDbEntity
  8
0
100
AcDbLine
 62
7
  6
CONTINUOUS
 10
47.9827263935
 20
-60.9958666246
 11
48.5813637016
 21
-61.4191671246
  0
LINE
  5
299
100
AcDbEntity
  8
0
100
AcDbLine
 62
7
  6
CONTINUOUS
 10
49.3208460738
 20
-61.9420601246
 11
49.9194833819
 21
-62.3653606246
  0
LINE
  5
29A
100
AcDbEntity
  8
0
100
AcDbLine
 62
7
  6
CONTINUOUS
 10
50.8191788008
 20
-63.0015369431
 11
51.2151932465
 21
-63.2815614431
  0
LINE
  5
29B
100
AcDbEntity
  8
0
100
AcDbLine
 62
7
  6
CONTINUOUS
 10
52.1148989443
 20
-63.9177494431
 11
53.042184635
 21
-64.5734394431
  0
LWPOLYLINE
  5
29C
100
AcDbEntity
  8
0
100
AcDbPolyline
 62
7
  6
CONTINUOUS
 90
37
 70
0
 10
52.9358075837
 20
-64.6486576101
 10
52.9725391634
 20
-64.6756142023
 10
53.009300423
 20
-64.7045652401
 10
53.0459583597
 20
-64.7354039896
 10
53.0823821245
 20
-64.7680133317
 10
53.1184402196
 20
-64.802275426
 10
53.1540007374
 20
-64.8380728331
 10
53.1889315938
 20
-64.8752640412
 10
53.2231155932
 20
-64.9137192382
 10
53.2564450275
 20
-64.9533337735
 10
53.2887602038
 20
-64.9939091014
 10
53.3199897891
 20
-65.0353461827
 10
53.350143738
 20
-65.0776974422
 10
53.3791547948
 20
-65.1209039479
 10
53.4068302893
 20
-65.1647195363
 10
53.4329858527
 20
-65.2089143672
 10
53.4575510728
 20
-65.2533823878
 10
53.4803752577
 20
-65.2978808103
 10
53.5012075019
 20
-65.341968962
 10
53.5199762187
 20
-65.3854201037
 10
53.5366607804
 20
-65.4281184649
 10
53.5511559655
 20
-65.469804645
 10
53.5634004949
 20
-65.5101360118
 10
53.5734719146
 20
-65.5491743444
 10
53.5814292413
 20
-65.5872470318
 10
53.5872378917
 20
-65.6243619567
 10
53.5908024708
 20
-65.660156247
 10
53.5920478416
 20
-65.6943773562
 10
53.5909601483
 20
-65.7269061454
 10
53.5875340412
 20
-65.7575571343
 10
53.5817859263
 20
-65.7860387509
 10
53.5737875993
 20
-65.8122175201
 10
53.563598811
 20
-65.8360580262
 10
53.5512823064
 20
-65.8574802544
 10
53.5369579857
 20
-65.8763975719
 10
53.5206965352
 20
-65.8928185742
 10
53.5065407238
 20
-65.9040108842
  0
LWPOLYLINE
  5
29D
100
AcDbEntity
  8
RACCORDO
100
AcDbPolyline
 62
250
  6
CONTINUOUS
 90
9
 70
0
 10
56.9750974073
 20
-72.2137832413
 10
56.9531498438
 20
-72.1966839061
 10
56.9238102217
 20
-72.1679472521
 10
56.8978908603
 20
-72.134917852
 10
56.8755108941
 20
-72.0977475204
 10
56.8567731891
 20
-72.0566071052
 10
56.8417638704
 20
-72.0116857021
 10
56.8305519261
 20
-71.9631897854
 10
56.8231888901
 20
-71.9113422592
  0
LINE
  5
29E
100
AcDbEntity
  8
RACCORDO
100
AcDbLine
 62
250
  6
CONTINUOUS
 10
-44.2698846719
 20
12.8162347054
 11
41.4710078626
 21
-47.8117318307
  0
LINE
  5
29F
100
AcDbEntity
  8
RACCORDO
100
AcDbLine
 62
250
  6
CONTINUOUS
 10
-44.1459699584
 20
14.5809099446
 11
41.3850295782
 21
-45.8986398294
  0
LINE
  5
2A0
100
AcDbEntity
  8
0
100
AcDbLine
 62
7
  6
CONTINUOUS
 10
41.3384597868
 20
-44.6379460371
 11
-44.0556271838
 21
15.7447919331
  0
LWPOLYLINE
  5
2A1
100
AcDbEntity
  8
RACCORDO
100
AcDbPolyline
 62
250
  6
CONTINUOUS
 90
17
 70
0
 10
-47.0608743159
 20
57.4512326923
 10
-46.9993131539
 20
57.3347347285
 10
-46.9410596663
 20
57.2158490246
 10
-46.8860946598
 20
57.0945897831
 10
-46.8348723771
 20
56.9711214542
 10
-46.7868960053
 20
56.8453112289
 10
-46.7407206068
 20
56.7167268869
 10
-46.6962920835
 20
56.585472069
 10
-46.6536217324
 20
56.4514753321
 10
-46.611365142
 20
56.3140401379
 10
-46.5690920319
 20
56.1729085793
 10
-46.5271866547
 20
56.0283736148
 10
-46.4855274367
 20
55.8805643566
 10
-46.444131016
 20
55.7295903984
 10
-46.4029323478
 20
55.5753795212
 10
-46.3616872293
 20
55.4177883469
 10
-46.3203535357
 20
55.2569647021
  0
LWPOLYLINE
  5
2A2
100
AcDbEntity
  8
RACCORDO
100
AcDbPolyline
 62
250
  6
CONTINUOUS
 90
7
 70
0
 10
-47.0608743159
 20
1.6413717853
 10
-47.0943107404
 20
1.6479435653
 10
-47.1274963707
 20
1.6547831863
 10
-47.1604300334
 20
1.6618980153
 10
-47.1931106831
 20
1.6692953744
 10
-47.2255374048
 20
1.6769825369
 10
-47.2577094147
 20
1.6849667241
  0
LWPOLYLINE
  5
2A3
100
AcDbEntity
  8
RACCORDO
100
AcDbPolyline
 62
250
  6
CONTINUOUS
 90
7
 70
0
 10
42.827694507
 20
-62.0150332749
 10
42.7926801409
 20
-61.9755095198
 10
42.7580794451
 20
-61.9358011407
 10
42.7238916357
 20
-61.8959153588
 10
42.6901157977
 20
-61.8558594476
 10
42.6567508857
 20
-61.815640729
 10
42.6237957262
 20
-61.77526657
  0
LINE
  5
2A4
100
AcDbEntity
  8
DRAFT
100
AcDbLine
 62
7
  6
CONTINUOUS
 10
61.4447045692
 20
-42.7439068789
 11
62.8589181316
 21
-43.7439068789
  0
LWPOLYLINE
  5
2A5
100
AcDbEntity
  8
RACCORDO
100
AcDbPolyline
 62
250
  6
CONTINUOUS
 90
7
 70
0
 10
-47.2577094141
 20
57.6959941742
 10
-47.2255123438
 20
57.654428229
 10
-47.1930701663
 20
57.6131634831
 10
-47.1603839801
 20
57.5722058566
 10
-47.1274550153
 20
57.5315611232
 10
-47.0942846315
 20
57.4912349092
 10
-47.0608743159
 20
57.4512326923
  0
LWPOLYLINE
  5
2A6
100
AcDbEntity
  8
RACCORDO
100
AcDbPolyline
 62
250
  6
CONTINUOUS
 90
7
 70
0
 10
42.6237957262
 20
-5.965405663
 10
42.6567248988
 20
-5.9723125476
 10
42.6900737998
 20
-5.9790225707
 10
42.7238439164
 20
-5.9855412099
 10
42.7580366083
 20
-5.9918740916
 10
42.7926531054
 20
-5.9980269896
 10
42.8276945063
 20
-6.0040058239
  0
LINE
  5
2A7
100
AcDbEntity
  8
RACCORDO
100
AcDbLine
 62
7
  6
CONTINUOUS
 10
-44.3464165601
 20
45.9212865409
 11
41.7603367407
 21
-14.965382624
  0
LINE
  5
2A8
100
AcDbEntity
  8
RACCORDO
100
AcDbLine
 62
250
  6
CONTINUOUS
 10
-44.2698846719
 20
45.9901484684
 11
41.7674547003
 21
-14.8474376369
  0
LWPOLYLINE
  5
2A9
100
AcDbEntity
  8
RACCORDO
100
AcDbPolyline
 62
250
  6
CONTINUOUS
 90
45
 70
0
 10
42.6237957262
 20
-61.77526657
 10
42.5704014771
 20
-61.6653308195
 10
42.5201793491
 20
-61.5531313171
 10
42.4731441369
 20
-61.4386580856
 10
42.4295931783
 20
-61.3220077524
 10
42.3892615079
 20
-61.2030619569
 10
42.3513206512
 20
-61.081488172
 10
42.3160254273
 20
-60.9574781119
 10
42.2831556819
 20
-60.8308170512
 10
42.2511697426
 20
-60.7005633791
 10
42.219567812
 20
-60.5663883763
 10
42.1888870184
 20
-60.4285962924
 10
42.1591412095
 20
-60.2871949749
 10
42.1304175518
 20
-60.1421698482
 10
42.1026703507
 20
-59.9935086625
 10
42.0757141252
 20
-59.8412228893
 10
42.04953176
 20
-59.68542913
 10
42.0241830872
 20
-59.5259836166
 10
41.9995997949
 20
-59.3625062522
 10
41.9758000141
 20
-59.1950225285
 10
41.9528161745
 20
-59.0234752222
 10
41.9306070012
 20
-58.8473566821
 10
41.9091776385
 20
-58.6666114018
 10
41.8885840459
 20
-58.4812570661
 10
41.8688678736
 20
-58.2908916948
 10
41.8500486574
 20
-58.0954669415
 10
41.8321788546
 20
-57.8949873227
 10
41.8153561695
 20
-57.6891261697
 10
41.7996099022
 20
-57.4779042081
 10
41.7849939201
 20
-57.2612510474
 10
41.7716510378
 20
-57.0386984929
 10
41.7596121251
 20
-56.8102556925
 10
41.7489450128
 20
-56.5758557115
 10
41.7398596649
 20
-56.3349094133
 10
41.732388926
 20
-56.0873964627
 10
41.7266191085
 20
-55.8332688825
 10
41.7228555535
 20
-55.5718873879
 10
41.7211338131
 20
-55.3032104771
 10
41.7215627199
 20
-55.0271987987
 10
41.7245759997
 20
-54.7432059859
 10
41.730208235
 20
-54.4511988852
 10
41.738599425
 20
-54.151115474
 10
41.7503642826
 20
-53.8422536558
 10
41.7655315604
 20
-53.5245273457
 10
41.783229909
 20
-53.216294921
  0
LWPOLYLINE
  5
2AA
100
AcDbEntity
  8
RACCORDO
100
AcDbPolyline
 62
250
  6
CONTINUOUS
 90
7
 70
0
 10
42.8276945076
 20
-62.0150332747
 10
42.8079079686
 20
-61.971826305
 10
42.7884892719
 20
-61.9284445157
 10
42.7694435187
 20
-61.8848937486
 10
42.7507756328
 20
-61.841179907
 10
42.7324903594
 20
-61.7973089535
 10
42.7145922651
 20
-61.7532869065
  0
LINE
  5
2AB
100
AcDbEntity
  8
RACCORDO
100
AcDbLine
 62
250
  6
CONTINUOUS
 10
-47.0608743159
 20
57.4512326923
 11
42.6237957262
 21
-5.965405663
  0
LINE
  5
2AC
100
AcDbEntity
  8
RACCORDO
100
AcDbLine
 62
250
  6
CONTINUOUS
 10
-61.2532037978
 20
67.592303159
 11
-47.2577094155
 21
57.6959941751
  0
LINE
  5
2AD
100
AcDbEntity
  8
RACCORDO
100
AcDbLine
 62
250
  6
CONTINUOUS
 10
42.8276945077
 20
-6.0040058249
 11
56.8231888901
 21
-15.9003148087
  0
LWPOLYLINE
  5
2AE
100
AcDbEntity
  8
RACCORDO
100
AcDbPolyline
 62
250
  6
CONTINUOUS
 90
23
 70
0
 10
42.7145922651
 20
-61.7532869065
 10
42.6843788876
 20
-61.6683076153
 10
42.6559607345
 20
-61.5791933305
 10
42.6292003106
 20
-61.4860575982
 10
42.604108998
 20
-61.3887784499
 10
42.5803923659
 20
-61.2876769848
 10
42.5575309263
 20
-61.1834796551
 10
42.5354550976
 20
-61.0766492693
 10
42.5141314143
 20
-60.9667976628
 10
42.4932083281
 20
-60.8533176476
 10
42.472604482
 20
-60.7360235224
 10
42.4523821146
 20
-60.615129048
 10
42.4324598562
 20
-60.4906028019
 10
42.4128258979
 20
-60.3624213976
 10
42.3934936166
 20
-60.2306255038
 10
42.3744400129
 20
-60.0952725048
 10
42.3556869142
 20
-59.9565036449
 10
42.3372258518
 20
-59.814190327
 10
42.3190055252
 20
-59.6679804607
 10
42.3010458044
 20
-59.5179180086
 10
42.2833603751
 20
-59.3639668992
 10
42.265908342
 20
-59.2056507186
 10
42.2487133095
 20
-59.0429470602
  0
LWPOLYLINE
  5
2AF
100
AcDbEntity
  8
RACCORDO
100
AcDbPolyline
 62
250
  6
CONTINUOUS
 90
26
 70
0
 10
42.6237957262
 20
-5.965405663
 10
42.5661233294
 20
-5.9973496567
 10
42.5121947055
 20
-6.0366642965
 10
42.4620289707
 20
-6.0833354377
 10
42.4161338149
 20
-6.1378762202
 10
42.3740439476
 20
-6.1997419923
 10
42.3343182167
 20
-6.2673324255
 10
42.2969311928
 20
-6.3404908678
 10
42.2619510479
 20
-6.4193418221
 10
42.228074643
 20
-6.5027083534
 10
42.1949196499
 20
-6.5902750634
 10
42.162914359
 20
-6.6823223545
 10
42.1319704884
 20
-6.7785676644
 10
42.1021475305
 20
-6.8789503439
 10
42.0734342499
 20
-6.9834937884
 10
42.0456364137
 20
-7.0920412475
 10
42.0187482928
 20
-7.2044124846
 10
41.99282831
 20
-7.3207464991
 10
41.9677829241
 20
-7.4413618289
 10
41.9436179402
 20
-7.5662165628
 10
41.9203924075
 20
-7.6953013151
 10
41.8981007032
 20
-7.8289770261
 10
41.8767551156
 20
-7.9672228648
 10
41.8564215535
 20
-8.1099970409
 10
41.8371829761
 20
-8.2576224597
 10
41.8190678897
 20
-8.4100297976
  0
LINE
  5
2B0
100
AcDbEntity
  8
RACCORDO
100
AcDbLine
 62
250
  6
CONTINUOUS
 10
-60.4528653381
 20
68.9255774167
 11
57.6235273499
 21
-14.567040551
  0
LINE
  5
2B1
100
AcDbEntity
  8
RACCORDO
100
AcDbLine
 62
7
  6
CONTINUOUS
 10
-56.501869411
 20
72.2468948176
 11
62.0115528725
 21
-11.5547497407
  0
LINE
  5
2B2
100
AcDbEntity
  8
0
100
AcDbLine
 62
7
  6
CONTINUOUS
 10
53.4131738765
 20
-65.9371508942
 11
53.4168026695
 21
-65.9450800258
  0
LWPOLYLINE
  5
2B3
100
AcDbEntity
  8
RACCORDO
100
AcDbPolyline
 62
250
  6
CONTINUOUS
 90
23
 70
0
 10
42.8276945077
 20
-62.0150332754
 10
42.6164499547
 20
-59.8367118972
 10
42.4235306692
 20
-57.6438422563
 10
42.2489485989
 20
-55.4365601717
 10
42.0927145573
 20
-53.2150023836
 10
41.9548382177
 20
-50.9793064599
 10
41.8353281142
 20
-48.7296107867
 10
41.7341916473
 20
-46.4660546394
 10
41.6514350856
 20
-44.1887782744
 10
41.5870635579
 20
-41.8979228376
 10
41.5410810508
 20
-39.5936302711
 10
41.5134904089
 20
-37.2760432419
 10
41.5042933398
 20
-34.9453052326
 10
41.513490413
 20
-32.6015606005
 10
41.5410810589
 20
-30.2449545085
 10
41.5870635701
 20
-27.8756328537
 10
41.6514351018
 20
-25.4937423265
 10
41.7341916676
 20
-23.0994305066
 10
41.8353281385
 20
-20.6928457933
 10
41.9548382471
 20
-18.2741372884
 10
42.0927145922
 20
-15.8434547526
 10
42.2489486354
 20
-13.4009487013
 10
42.4235307008
 20
-10.9467704032
  0
LINE
  5
2B4
100
AcDbEntity
  8
RACCORDO
100
AcDbLine
 62
250
  6
CONTINUOUS
 10
42.2487133095
 20
-59.0429470602
 11
42.2151725131
 21
-58.7040592633
  0
LINE
  5
2B5
100
AcDbEntity
  8
RACCORDO
100
AcDbLine
 62
250
  6
CONTINUOUS
 10
42.2151725131
 20
-58.7040592633
 11
42.1948999586
 21
-58.4834686176
  0
LWPOLYLINE
  5
2B6
100
AcDbEntity
  8
RACCORDO
100
AcDbPolyline
 62
250
  6
CONTINUOUS
 90
3
 70
0
 10
42.7145922651
 20
-6.1423412744
 10
42.732476074
 20
-6.1199405564
 10
42.750752322
 20
-6.0972852428
  0
LINE
  5
2B7
100
AcDbEntity
  8
RACCORDO
100
AcDbLine
 62
250
  6
CONTINUOUS
 10
42.750752322
 20
-6.0972852428
 11
42.788465074
 21
-6.0511883321
  0
LINE
  5
2B8
100
AcDbEntity
  8
RACCORDO
100
AcDbLine
 62
250
  6
CONTINUOUS
 10
42.788465074
 20
-6.0511883321
 11
42.8276945076
 21
-6.0040058263
  0
LWPOLYLINE
  5
2B9
100
AcDbEntity
  8
RACCORDO
100
AcDbPolyline
 62
250
  6
CONTINUOUS
 90
10
 70
0
 10
42.7145922077
 20
-6.1423413015
 10
42.7057528087
 20
-6.121979514
 10
42.6965934156
 20
-6.1017772997
 10
42.6871171801
 20
-6.081741608
 10
42.6773273798
 20
-6.0618793457
 10
42.6672273671
 20
-6.0421973299
 10
42.6568205654
 20
-6.0227022876
 10
42.6461105357
 20
-6.0034009118
 10
42.6351009778
 20
-5.9842998582
 10
42.6237956775
 20
-5.9654056986
  0
LINE
  5
2BA
100
AcDbEntity
  8
0
100
AcDbLine
 62
7
  6
CONTINUOUS
 10
48.4782693348
 20
-62.468597885
 11
48.5371543605
 21
-63.1438359322
  0
LINE
  5
2BB
100
AcDbEntity
  8
0
100
AcDbLine
 62
7
  6
CONTINUOUS
 10
47.1356945512
 20
-61.1348996904
 11
47.2427467553
 21
-62.3790762772
  0
LINE
  5
2BC
100
AcDbEntity
  8
0
100
AcDbLine
 62
7
  6
CONTINUOUS
 10
47.5316890678
 20
-61.414908632
 11
47.6387409894
 21
-62.6590821192
  0
LINE
  5
2BD
100
AcDbEntity
  8
0
100
AcDbLine
 62
7
  6
CONTINUOUS
 10
47.6380845657
 20
-61.3396757378
 11
47.7451749666
 21
-62.5838219322
  0
LINE
  5
2BE
100
AcDbEntity
  8
0
100
AcDbLine
 62
7
  6
CONTINUOUS
 10
47.9276705154
 20
-61.6949097988
 11
48.0347257366
 21
-62.9390856192
  0
LINE
  5
2BF
100
AcDbEntity
  8
0
100
AcDbLine
 62
7
  6
CONTINUOUS
 10
48.324785905
 20
-61.9883339712
 11
48.4307203833
 21
-63.2190961192
  0
LINE
  5
2C0
100
AcDbEntity
  8
0
100
AcDbLine
 62
7
  6
CONTINUOUS
 10
49.4695486503
 20
-62.7978034712
 11
49.5754880783
 21
-64.0285691192
  0
LINE
  5
2C1
100
AcDbEntity
  8
0
100
AcDbLine
 62
7
  6
CONTINUOUS
 10
49.8644275038
 20
-63.0644037988
 11
49.971482725
 21
-64.3085796192
  0
LINE
  5
2C2
100
AcDbEntity
  8
0
100
AcDbLine
 62
7
  6
CONTINUOUS
 10
49.9708230018
 20
-62.9891709047
 11
50.0779167022
 21
-64.2333194322
  0
LINE
  5
2C3
100
AcDbEntity
  8
0
100
AcDbLine
 62
7
  6
CONTINUOUS
 10
47.0843748979
 20
-60.511076059
 11
47.1356945512
 21
-61.1348996904
  0
LINE
  5
2C4
100
AcDbEntity
  8
0
100
AcDbLine
 62
7
  6
CONTINUOUS
 10
47.4803695446
 20
-60.791086559
 11
47.5316890678
 21
-61.414908632
  0
LINE
  5
2C5
100
AcDbEntity
  8
0
100
AcDbLine
 62
7
  6
CONTINUOUS
 10
47.586746596
 20
-60.7158666246
 11
47.6380845657
 21
-61.3396757378
  0
LINE
  5
2C6
100
AcDbEntity
  8
0
100
AcDbLine
 62
7
  6
CONTINUOUS
 10
47.8763493421
 20
-61.071086559
 11
47.9276705154
 21
-61.6949097988
  0
LINE
  5
2C7
100
AcDbEntity
  8
0
100
AcDbLine
 62
7
  6
CONTINUOUS
 10
49.8131063305
 20
-62.440580559
 11
49.8644275038
 21
-63.0644037988
  0
LINE
  5
2C8
100
AcDbEntity
  8
0
100
AcDbLine
 62
7
  6
CONTINUOUS
 10
49.9194833819
 20
-62.3653606246
 11
49.9708230018
 21
-62.9891709047
  0
LWPOLYLINE
  5
2C9
100
AcDbEntity
  8
RACCORDO
100
AcDbPolyline
 62
250
  6
CONTINUOUS
 90
19
 70
0
 10
41.7723047222
 20
-8.8970384085
 10
41.7595065462
 20
-9.069589629
 10
41.7483572842
 20
-9.247849111
 10
41.7388924585
 20
-9.4317094467
 10
41.7312064777
 20
-9.6211691973
 10
41.7256166074
 20
-9.8169806207
 10
41.7221609858
 20
-10.0190197546
 10
41.7209598412
 20
-10.2272757234
 10
41.7224748635
 20
-10.4426522692
 10
41.7267435509
 20
-10.6649927453
 10
41.7339220664
 20
-10.8942859883
 10
41.7446766525
 20
-11.1316309228
 10
41.7590378496
 20
-11.3768422218
 10
41.7772129986
 20
-11.6298951364
 10
41.8001659165
 20
-11.8921007866
 10
41.827902162
 20
-12.1632077795
 10
41.8607073212
 20
-12.4432049506
 10
41.900004073
 20
-12.7337285658
 10
41.9028036949
 20
-12.7519230466
  0
LWPOLYLINE
  5
2CA
100
AcDbEntity
  8
RACCORDO
100
AcDbPolyline
 62
7
  6
CONTINUOUS
 90
20
 70
0
 10
42.1228302638
 20
-9.6641759299
 10
42.0209410991
 20
-11.0293245849
 10
41.828774116
 20
-13.831371503
 10
41.6605874043
 20
-16.6182346856
 10
41.5163969805
 20
-19.3896902609
 10
41.3962169731
 20
-22.1455160526
 10
41.3000596179
 20
-24.8854923844
 10
41.2279354214
 20
-27.6093972138
 10
41.1798529911
 20
-30.3170070836
 10
41.1558188789
 20
-33.0081050872
 10
41.155837784
 20
-35.6824743946
 10
41.1799124413
 20
-38.3398941409
 10
41.228043653
 20
-40.9801516403
 10
41.300230337
 20
-43.6030341613
 10
41.3964692309
 20
-46.208323399
 10
41.5167553578
 20
-48.7958110652
 10
41.661081815
 20
-51.3652887031
 10
41.829439191
 20
-53.9165405439
 10
42.021816377
 20
-56.4493589401
 10
42.1948995381
 20
-58.4834639056
  0
LWPOLYLINE
  5
2CB
100
AcDbEntity
  8
RACCORDO
100
AcDbPolyline
 62
250
  6
CONTINUOUS
 90
3
 70
0
 10
42.4235307008
 20
-10.9467704032
 10
42.6164499745
 20
-8.4810718723
 10
42.8276945077
 20
-6.0040058249
  0
LWPOLYLINE
  5
2CC
100
AcDbEntity
  8
RACCORDO
100
AcDbPolyline
 62
250
  6
CONTINUOUS
 90
29
 70
0
 10
42.1228295448
 20
-9.6641853154
 10
42.1387485393
 20
-9.4635637586
 10
42.1544628118
 20
-9.2781038359
 10
42.1706498468
 20
-9.0982082875
 10
42.1872937612
 20
-8.9235127078
 10
42.2043498731
 20
-8.7539897574
 10
42.2217699179
 20
-8.5896566931
 10
42.2395531817
 20
-8.4302163276
 10
42.2576588979
 20
-8.2756920786
 10
42.2760550761
 20
-8.1260536823
 10
42.2947753111
 20
-7.980922336
 10
42.313792258
 20
-7.8402863962
 10
42.333084411
 20
-7.7041506913
 10
42.3527194152
 20
-7.5721581892
 10
42.3727010213
 20
-7.4441556163
 10
42.3930049722
 20
-7.3202857758
 10
42.4136823492
 20
-7.2006315638
 10
42.4347369881
 20
-7.0850760846
 10
42.4561660152
 20
-6.9737204739
 10
42.4780364474
 20
-6.8669689705
 10
42.5002916304
 20
-6.7648123815
 10
42.5230101889
 20
-6.6672357204
 10
42.5465207158
 20
-6.5746177765
 10
42.570815675
 20
-6.4862780235
 10
42.5960099275
 20
-6.4028378736
 10
42.6227544458
 20
-6.326580632
 10
42.6514164498
 20
-6.2581970291
 10
42.6819734541
 20
-6.1968187762
 10
42.7145922651
 20
-6.1423412744
  0
LINE
  5
2CD
100
AcDbEntity
  8
RACCORDO
100
AcDbLine
 62
250
  6
CONTINUOUS
 10
41.7865397361
 20
-8.7295879928
 11
41.7723047222
 21
-8.8970384085
  0
LINE
  5
2CE
100
AcDbEntity
  8
RACCORDO
100
AcDbLine
 62
250
  6
CONTINUOUS
 10
41.8021390687
 20
-8.5672142061
 11
41.7865397361
 21
-8.7295879928
  0
LINE
  5
2CF
100
AcDbEntity
  8
RACCORDO
100
AcDbLine
 62
250
  6
CONTINUOUS
 10
41.8190678897
 20
-8.4100297976
 11
41.8021390687
 21
-8.5672142061
  0
LINE
  5
2D0
100
AcDbEntity
  8
RACCORDO
100
AcDbLine
 62
250
  6
CONTINUOUS
 10
62.0115528725
 20
-11.5547497407
 11
57.6235273499
 21
-14.567040551
  0
LWPOLYLINE
  5
2D1
100
AcDbEntity
  8
RACCORDO
100
AcDbPolyline
 62
250
  6
CONTINUOUS
 90
25
 70
0
 10
58.470892609
 20
-16.013583531
 10
58.4131450621
 20
-16.0430040846
 10
58.352414636
 20
-16.0697826753
 10
58.2889444346
 20
-16.0938119583
 10
58.2229885364
 20
-16.1149955088
 10
58.1548109504
 20
-16.1332484982
 10
58.084684556
 20
-16.1484980674
 10
58.012890053
 20
-16.1606831656
 10
57.9397148288
 20
-16.1697549002
 10
57.8654517772
 20
-16.1756770545
 10
57.790398155
 20
-16.1784259262
 10
57.7148543891
 20
-16.177990455
 10
57.6391228604
 20
-16.1743724121
 10
57.5635067017
 20
-16.1675863034
 10
57.4883085885
 20
-16.1576592685
 10
57.4138295232
 20
-16.1446310145
 10
57.3403676224
 20
-16.1285537476
 10
57.2682169365
 20
-16.1094918188
 10
57.1976662762
 20
-16.0875214331
 10
57.1289980277
 20
-16.062730651
 10
57.0624870525
 20
-16.0352187147
 10
56.9983995969
 20
-16.0050955446
 10
56.9369921843
 20
-15.9724817523
 10
56.878510591
 20
-15.9375081246
 10
56.8231888901
 20
-15.9003148087
  0
LINE
  5
2D2
100
AcDbEntity
  8
0
100
AcDbLine
 62
7
  6
CONTINUOUS
 10
52.6203134466
 20
-65.5048425521
 11
52.6693318278
 21
-66.0657222743
  0
LINE
  5
2D3
100
AcDbEntity
  8
0
100
AcDbLine
 62
7
  6
CONTINUOUS
 10
52.500125118
 20
-65.4198550452
 11
52.5628978507
 21
-66.1409824612
  0
LINE
  5
2D4
100
AcDbEntity
  8
0
100
AcDbLine
 62
7
  6
CONTINUOUS
 10
52.0598430553
 20
-64.6167926251
 11
52.1668982543
 21
-65.8609684612
  0
LINE
  5
2D5
100
AcDbEntity
  8
0
100
AcDbLine
 62
7
  6
CONTINUOUS
 10
52.5469679255
 20
-64.6999887778
 11
52.5716711315
 21
-64.9951842121
  0
LINE
  5
2D6
100
AcDbEntity
  8
0
100
AcDbLine
 62
7
  6
CONTINUOUS
 10
52.4273522721
 20
-64.6154077381
 11
52.4652702901
 21
-65.0704209685
  0
LINE
  5
2D7
100
AcDbEntity
  8
0
100
AcDbLine
 62
7
  6
CONTINUOUS
 10
52.008521893
 20
-63.9929693774
 11
52.0598430553
 21
-64.6167926251
  0
LINE
  5
2D8
100
AcDbEntity
  8
RACCORDO
100
AcDbLine
 62
250
  6
CONTINUOUS
 10
62.8589181316
 20
-13.0012927207
 11
58.4708952079
 21
-16.0135817468
  0
LWPOLYLINE
  5
2D9
100
AcDbEntity
  8
RACCORDO
100
AcDbPolyline
 62
250
  6
CONTINUOUS
 90
28
 70
0
 10
58.470892609
 20
-16.0135835309
 10
58.466849907
 20
-15.9652082697
 10
58.4601232103
 20
-15.9148410213
 10
58.4507287449
 20
-15.8626464128
 10
58.4386882738
 20
-15.8087814536
 10
58.4240382836
 20
-15.7534375921
 10
58.4068367268
 20
-15.6968436979
 10
58.3871475788
 20
-15.6392072033
 10
58.3650327434
 20
-15.5807066576
 10
58.3405653678
 20
-15.5215360126
 10
58.3138265534
 20
-15.4618925187
 10
58.2849070135
 20
-15.4019795443
 10
58.2539057654
 20
-15.3420025757
 10
58.2209281365
 20
-15.2821652531
 10
58.1860847559
 20
-15.2226681865
 10
58.1494928928
 20
-15.1637116558
 10
58.1112757833
 20
-15.1054943161
 10
58.0715625127
 20
-15.0482129011
 10
58.030487323
 20
-14.9920610753
 10
57.9881889044
 20
-14.9372284314
 10
57.9448098804
 20
-14.8838998523
 10
57.900496598
 20
-14.8322552595
 10
57.8553985483
 20
-14.7824688879
 10
57.8096679206
 20
-14.7347087596
 10
57.7634590743
 20
-14.6891360879
 10
57.7169279452
 20
-14.645904659
 10
57.6702315167
 20
-14.6051603213
 10
57.6235273499
 20
-14.567040551
  0
LWPOLYLINE
  5
2DA
100
AcDbEntity
  8
RACCORDO
100
AcDbPolyline
 62
250
  6
CONTINUOUS
 90
22
 70
0
 10
56.8231888901
 20
-15.9003148087
 10
56.5707338527
 20
-18.7213252563
 10
56.343463922
 20
-21.5283798512
 10
56.1413974151
 20
-24.3212503539
 10
55.9645497913
 20
-27.099713993
 10
55.8129364962
 20
-29.8635406427
 10
55.6865725513
 20
-32.6124931076
 10
55.585468495
 20
-35.3463480679
 10
55.509632229
 20
-38.0648840129
 10
55.4590712118
 20
-40.7678688536
 10
55.4337898115
 20
-43.4550835222
 10
55.4337897875
 20
-46.1263105962
 10
55.4590711428
 20
-48.7813229068
 10
55.5096321238
 20
-51.4199064854
 10
55.5854683669
 20
-54.0418474684
 10
55.6865724137
 20
-56.6469214035
 10
55.812936364
 20
-59.2349188878
 10
55.9645496806
 20
-61.8056305697
 10
56.1413973325
 20
-64.3588347917
 10
56.3434638676
 20
-66.8943213717
 10
56.5707338267
 20
-69.4118913053
 10
56.8231888901
 20
-71.9113422592
  0
LWPOLYLINE
  5
2DB
100
AcDbEntity
  8
RACCORDO
100
AcDbPolyline
 62
250
  6
CONTINUOUS
 90
22
 70
0
 10
56.8231888901
 20
-15.9003148087
 10
56.8305519261
 20
-15.8380543772
 10
56.8417638704
 20
-15.7737023768
 10
56.8567731891
 20
-15.7075545916
 10
56.8755108941
 20
-15.6399150599
 10
56.8978908603
 20
-15.5710946766
 10
56.9238102217
 20
-15.5014097641
 10
56.9531498438
 20
-15.4311806185
 10
56.9857748715
 20
-15.3607300376
 10
57.0215353489
 20
-15.2903818366
 10
57.0602669082
 20
-15.2204593604
 10
57.1017915258
 20
-15.1512839971
 10
57.1459183401
 20
-15.0831737007
 10
57.1924445289
 20
-15.0164415299
 10
57.2411562415
 20
-14.9513942089
 10
57.291829582
 20
-14.8883307181
 10
57.344231638
 20
-14.827540919
 10
57.3981215516
 20
-14.7693042228
 10
57.4532516257
 20
-14.7138883056
 10
57.5093684635
 20
-14.6615478783
 10
57.5662141324
 20
-14.6125235158
 10
57.6235273499
 20
-14.567040551
  0
LWPOLYLINE
  5
2DC
100
AcDbEntity
  8
RACCORDO
100
AcDbPolyline
 62
7
  6
CONTINUOUS
 90
24
 70
0
 10
-44.8476843016
 20
46.0685578019
 10
-44.8493462383
 20
46.0681144166
 10
-44.850425365
 20
46.0678450528
 10
-44.848509818
 20
46.0682382868
 10
-44.8437150303
 20
46.0690780202
 10
-44.8361980408
 20
46.0701517777
 10
-44.8261869132
 20
46.0712542451
 10
-44.8137394389
 20
46.0722137595
 10
-44.7987360971
 20
46.0728631713
 10
-44.7812606215
 20
46.0730112044
 10
-44.7613729741
 20
46.0724663192
 10
-44.738806496
 20
46.0710056866
 10
-44.7134110483
 20
46.068363152
 10
-44.6854992847
 20
46.0643025081
 10
-44.655549538
 20
46.058649656
 10
-44.6237463533
 20
46.0512138488
 10
-44.5903461519
 20
46.0418326242
 10
-44.5560430715
 20
46.0305179008
 10
-44.5211887391
 20
46.0172521202
 10
-44.4859712891
 20
46.0019881197
 10
-44.4508646893
 20
45.9848391227
 10
-44.4161381106
 20
45.9658808485
 10
-44.3820165659
 20
45.9451996278
 10
-44.3464372291
 20
45.9213012477
  0
LINE
  5
2DD
100
AcDbEntity
  8
DRAFT
100
AcDbLine
 62
7
  6
CONTINUOUS
 10
61.370588777
 20
-39.6180239768
 11
61.370588777
 21
-44.5677714451
  0
LINE
  5
2DE
100
AcDbEntity
  8
RACCORDO
100
AcDbLine
 62
7
  6
CONTINUOUS
 10
62.8589181316
 20
-69.2893182598
 11
62.8589181316
 21
-43.7439068789
  0
LINE
  5
2DF
100
AcDbEntity
  8
RACCORDO
100
AcDbLine
 62
7
  6
CONTINUOUS
 10
62.8589181316
 20
-38.5467041016
 11
62.8589181316
 21
-13.0012927207
  0
LWPOLYLINE
  5
2E0
100
AcDbEntity
  8
RACCORDO
100
AcDbPolyline
 62
250
  6
CONTINUOUS
 90
13
 70
0
 10
58.470892609
 20
-71.8645794745
 10
58.4668335688
 20
-71.914423039
 10
58.4600807282
 20
-71.961972288
 10
58.4506568572
 20
-72.0070668905
 10
58.438593732
 20
-72.0495547919
 10
58.4239320283
 20
-72.0892927275
 10
58.4067211838
 20
-72.1261467052
 10
58.3870192317
 20
-72.1599924571
 10
58.3648926049
 20
-72.1907158588
 10
58.3404159121
 20
-72.2182133142
 10
58.3136716862
 20
-72.2423921047
 10
58.284750106
 20
-72.263170702
 10
58.2753206073
 20
-72.2689319625
  0
LWPOLYLINE
  5
2E1
100
AcDbEntity
  8
RACCORDO
100
AcDbPolyline
 62
250
  6
CONTINUOUS
 90
22
 70
0
 10
58.4708952079
 20
-16.0135817468
 10
58.2191068766
 20
-18.8267498591
 10
57.9924654888
 20
-21.625594219
 10
57.7909710443
 20
-24.4101148265
 10
57.6146091194
 20
-27.180554107
 10
57.4633941378
 20
-29.9366696351
 10
57.3373693716
 20
-32.6777341347
 10
57.236542666
 20
-35.4037287973
 10
57.1609061758
 20
-38.1146724313
 10
57.1104796371
 20
-40.8098941867
 10
57.0852696266
 20
-43.489389622
 10
57.0852695676
 20
-46.1531631786
 10
57.110479467
 20
-48.8005573307
 10
57.160905898
 20
-51.4315680975
 10
57.2365422872
 20
-54.0461994597
 10
57.3373689222
 20
-56.6438058342
 10
57.4633936545
 20
-59.2243961053
 10
57.6146086325
 20
-61.7879613887
 10
57.7909705891
 20
-64.333829447
 10
57.9924651016
 20
-66.8617762013
 10
58.2191065927
 20
-69.3720257305
 10
58.4708950622
 20
-71.8645780347
  0
LINE
  5
2E2
100
AcDbEntity
  8
DRAFT
100
AcDbLine
 62
7
  6
CONTINUOUS
 10
62.8589181316
 20
-38.5467041016
 11
61.370588777
 21
-39.6180239768
  0
LINE
  5
2E3
100
AcDbEntity
  8
DRAFT
100
AcDbLine
 62
7
  6
CONTINUOUS
 10
61.370588777
 20
-42.7849336683
 11
61.4447045692
 21
-42.7439068789
  0
LINE
  5
2E4
100
AcDbEntity
  8
DRAFT
100
AcDbLine
 62
7
  6
CONTINUOUS
 10
61.370588777
 20
-44.5677714451
 11
62.8589181316
 21
-43.7439068789
  0
LINE
  5
2E5
100
AcDbEntity
  8
0
100
AcDbLine
 62
7
  6
CONTINUOUS
 10
45.2593307887
 20
-59.0701351246
 11
45.1529537373
 21
-59.145355059
  0
LINE
  5
2E6
100
AcDbEntity
  8
0
100
AcDbLine
 62
7
  6
CONTINUOUS
 10
45.6553303852
 20
-59.3501491246
 11
45.5489533337
 21
-59.425369059
  0
LINE
  5
2E7
100
AcDbEntity
  8
0
100
AcDbLine
 62
7
  6
CONTINUOUS
 10
46.5307575717
 20
-59.9691696246
 11
46.4243805202
 21
-60.044389559
  0
LINE
  5
2E8
100
AcDbEntity
  8
0
100
AcDbLine
 62
7
  6
CONTINUOUS
 10
46.9267571681
 20
-60.2491836246
 11
46.8203801167
 21
-60.324403559
  0
LINE
  5
2E9
100
AcDbEntity
  8
0
100
AcDbLine
 62
7
  6
CONTINUOUS
 10
47.1907519493
 20
-60.4358561246
 11
47.0843748979
 21
-60.511076059
  0
LINE
  5
2EA
100
AcDbEntity
  8
0
100
AcDbLine
 62
7
  6
CONTINUOUS
 10
47.586746596
 20
-60.7158666246
 11
47.4803695446
 21
-60.791086559
  0
LINE
  5
2EB
100
AcDbEntity
  8
0
100
AcDbLine
 62
7
  6
CONTINUOUS
 10
46.4494795718
 20
-61.6676269322
 11
46.3430455947
 21
-61.7428871192
  0
LINE
  5
2EC
100
AcDbEntity
  8
0
100
AcDbLine
 62
7
  6
CONTINUOUS
 10
47.9827263935
 20
-60.9958666246
 11
47.8763493421
 21
-61.071086559
  0
LINE
  5
2ED
100
AcDbEntity
  8
0
100
AcDbLine
 62
7
  6
CONTINUOUS
 10
48.5813637016
 20
-61.4191671246
 11
48.4749866501
 21
-61.494387059
  0
LINE
  5
2EE
100
AcDbEntity
  8
0
100
AcDbLine
 62
7
  6
CONTINUOUS
 10
47.7451749666
 20
-62.5838219322
 11
47.6387409894
 21
-62.6590821192
  0
LINE
  5
2EF
100
AcDbEntity
  8
0
100
AcDbLine
 62
7
  6
CONTINUOUS
 10
49.3208460738
 20
-61.9420601246
 11
49.2144690224
 21
-62.017280059
  0
LINE
  5
2F0
100
AcDbEntity
  8
0
100
AcDbLine
 62
7
  6
CONTINUOUS
 10
48.5371543605
 20
-63.1438359322
 11
48.4307203833
 21
-63.2190961192
  0
LINE
  5
2F1
100
AcDbEntity
  8
0
100
AcDbLine
 62
7
  6
CONTINUOUS
 10
49.9194833819
 20
-62.3653606246
 11
49.8131063305
 21
-62.440580559
  0
LINE
  5
2F2
100
AcDbEntity
  8
0
100
AcDbLine
 62
7
  6
CONTINUOUS
 10
49.307527694
 20
-63.6885677743
 11
49.201093717
 21
-63.7638279612
  0
LINE
  5
2F3
100
AcDbEntity
  8
0
100
AcDbLine
 62
7
  6
CONTINUOUS
 10
50.8191788008
 20
-63.0015369431
 11
50.7128017495
 21
-63.0767568774
  0
LINE
  5
2F4
100
AcDbEntity
  8
0
100
AcDbLine
 62
7
  6
CONTINUOUS
 10
51.2151932465
 20
-63.2815614431
 11
51.1088161952
 21
-63.3567813774
  0
LINE
  5
2F5
100
AcDbEntity
  8
0
100
AcDbLine
 62
7
  6
CONTINUOUS
 10
50.0779167022
 20
-64.2333194322
 11
49.971482725
 21
-64.3085796192
  0
LINE
  5
2F6
100
AcDbEntity
  8
0
100
AcDbLine
 62
7
  6
CONTINUOUS
 10
50.9208707102
 20
-64.152669496
 11
50.8144593189
 21
-64.2279137124
  0
LINE
  5
2F7
100
AcDbEntity
  8
0
100
AcDbLine
 62
7
  6
CONTINUOUS
 10
50.7379057174
 20
-64.6999977743
 11
50.6314717404
 21
-64.7752579612
  0
LINE
  5
2F8
100
AcDbEntity
  8
0
100
AcDbLine
 62
7
  6
CONTINUOUS
 10
52.1148989443
 20
-63.9177494431
 11
52.008521893
 21
-63.9929693774
  0
LINE
  5
2F9
100
AcDbEntity
  8
0
100
AcDbLine
 62
7
  6
CONTINUOUS
 10
53.042184635
 20
-64.5734394431
 11
52.9358074483
 21
-64.6486594732
  0
LINE
  5
2FA
100
AcDbEntity
  8
0
100
AcDbLine
 62
7
  6
CONTINUOUS
 10
52.5716711315
 20
-64.9951842121
 11
52.4652702901
 21
-65.0704209685
  0
LINE
  5
2FB
100
AcDbEntity
  8
0
100
AcDbLine
 62
7
  6
CONTINUOUS
 10
52.0093378628
 20
-65.5990404322
 11
51.9029038856
 21
-65.6743006192
  0
LWPOLYLINE
  5
2FC
100
AcDbEntity
  8
0
100
AcDbPolyline
 62
7
  6
CONTINUOUS
 90
30
 70
0
 10
53.1356777879
 20
-65.4540739569
 10
53.1453255815
 20
-65.4457737388
 10
53.1527847124
 20
-65.4365876982
 10
53.1589269808
 20
-65.4259023425
 10
53.1637044969
 20
-65.4137851667
 10
53.1670803241
 20
-65.4004097729
 10
53.1690509702
 20
-65.3859656981
 10
53.1696484441
 20
-65.3705049413
 10
53.168907789
 20
-65.3540122638
 10
53.1668317499
 20
-65.3366035603
 10
53.1634279312
 20
-65.3183698
 10
53.1586852147
 20
-65.2992208131
 10
53.1525504244
 20
-65.2791368049
 10
53.1450412798
 20
-65.2583337492
 10
53.1362595689
 20
-65.2370779099
 10
53.1262499652
 20
-65.2154974668
 10
53.1150605175
 20
-65.193726868
 10
53.1028688747
 20
-65.1720576543
 10
53.0898105384
 20
-65.1506853194
 10
53.0759382079
 20
-65.1296648598
 10
53.0613335529
 20
-65.1090707399
 10
53.0461191348
 20
-65.0890511854
 10
53.0303599998
 20
-65.0696682827
 10
53.0140340623
 20
-65.0508725827
 10
52.9971704436
 20
-65.0327145858
 10
52.9799056321
 20
-65.0153588993
 10
52.9623711999
 20
-64.9989306138
 10
52.9446753148
 20
-64.983526025
 10
52.9268994807
 20
-64.9692182065
 10
52.9091394774
 20
-64.9560827381
  0
LWPOLYLINE
  5
2FD
100
AcDbEntity
  8
0
100
AcDbPolyline
 62
7
  6
CONTINUOUS
 90
37
 70
0
 10
53.6129400624
 20
-65.8287706404
 10
53.6269962706
 20
-65.8176693298
 10
53.6433703012
 20
-65.8011815947
 10
53.6577014966
 20
-65.7822162298
 10
53.6700048463
 20
-65.7607021707
 10
53.6802661662
 20
-65.7367098492
 10
53.6882626179
 20
-65.7104920627
 10
53.6939349385
 20
-65.6819416375
 10
53.6973429205
 20
-65.6511653319
 10
53.6984418939
 20
-65.6187371668
 10
53.6971817754
 20
-65.5847187433
 10
53.6936126311
 20
-65.549048475
 10
53.6878396241
 20
-65.5121159095
 10
53.6798891313
 20
-65.4739987005
 10
53.6697345056
 20
-65.4346194079
 10
53.657401184
 20
-65.3941350873
 10
53.6428473052
 20
-65.3524214776
 10
53.6261143986
 20
-65.3096031019
 10
53.607352766
 20
-65.2662103651
 10
53.5864685753
 20
-65.2221486541
 10
53.5635550075
 20
-65.177513094
 10
53.5390425466
 20
-65.1331189634
 10
53.5129498725
 20
-65.0890773844
 10
53.4852573571
 20
-65.0452779795
 10
53.4563378062
 20
-65.0022039471
 10
53.4262261205
 20
-64.9599177818
 10
53.3948865034
 20
-64.9183576921
 10
53.3625856687
 20
-64.8778204826
 10
53.3293003183
 20
-64.8382822606
 10
53.2950530187
 20
-64.7997674928
 10
53.2601792853
 20
-64.7626455182
 10
53.2246513527
 20
-64.7269084081
 10
53.1884964447
 20
-64.6925645159
 10
53.1521325911
 20
-64.6600075807
 10
53.1156990341
 20
-64.6293689281
 10
53.0790562407
 20
-64.6005174602
 10
53.0422041384
 20
-64.5734532341
  0
LINE
  5
2FE
100
AcDbEntity
  8
0
100
AcDbLine
 62
7
  6
CONTINUOUS
 10
53.0534533871
 20
-65.3358557121
 11
52.9470526582
 21
-65.411092389
  0
LINE
  5
2FF
100
AcDbEntity
  8
0
100
AcDbLine
 62
7
  6
CONTINUOUS
 10
52.6693318278
 20
-66.0657222743
 11
52.5628978507
 21
-66.1409824612
  0
LINE
  5
300
100
AcDbEntity
  8
ASSI
100
AcDbLine
 62
7
  6
CONTINUOUS
 10
53.5065383504
 20
-65.9040125624
 11
53.6129423328
 21
-65.8287735849
  0
LINE
  5
301
100
AcDbEntity
  8
0
100
AcDbLine
 62
7
  6
CONTINUOUS
 10
53.8578548776
 20
-66.9061306164
 11
53.7514209008
 21
-66.9813908032
  0
LWPOLYLINE
  5
302
100
AcDbEntity
  8
RACCORDO
100
AcDbPolyline
 62
250
  6
CONTINUOUS
 90
25
 70
0
 10
58.470892609
 20
-71.8645794744
 10
58.4129786509
 20
-71.9044688889
 10
58.3525234911
 20
-71.941104925
 10
58.289535109
 20
-71.9747165319
 10
58.2238206541
 20
-72.0057094074
 10
58.1555114789
 20
-72.0338963154
 10
58.0852825172
 20
-72.0586332185
 10
58.0135702545
 20
-72.0800551181
 10
57.9403786012
 20
-72.0983187987
 10
57.8660266638
 20
-72.1129112767
 10
57.7909561862
 20
-72.1239681212
 10
57.7154188299
 20
-72.1316808608
 10
57.6395923594
 20
-72.1356010045
 10
57.563914532
 20
-72.1358845583
 10
57.4887383123
 20
-72.1327687188
 10
57.4141778648
 20
-72.1258684241
 10
57.3406412006
 20
-72.1153699446
 10
57.2685091391
 20
-72.1015420726
 10
57.197884456
 20
-72.0840621003
 10
57.1291443065
 20
-72.0631579959
 10
57.0626495106
 20
-72.0391228789
 10
56.9984971474
 20
-72.0116853311
 10
56.9369519458
 20
-71.9809388011
 10
56.878417398
 20
-71.9473801931
 10
56.8231888901
 20
-71.9113422593
  0
LWPOLYLINE
  5
303
100
AcDbEntity
  8
0
100
AcDbPolyline
 62
7
  6
CONTINUOUS
 90
11
 70
0
 10
53.5065407238
 20
-65.9040108842
 10
53.5024766701
 20
-65.9067968078
 10
53.482343986
 20
-65.9182935835
 10
53.4604087744
 20
-65.9272409004
 10
53.4367265289
 20
-65.9336232017
 10
53.4113886066
 20
-65.9374128886
 10
53.3844970445
 20
-65.9385898447
 10
53.3561288241
 20
-65.9371594937
 10
53.3263834031
 20
-65.933125511
 10
53.29538336
 20
-65.9264918787
 10
53.2632462771
 20
-65.9172774691
  0
LINE
  5
304
100
AcDbEntity
  8
RACCORDO
100
AcDbLine
 62
250
  6
CONTINUOUS
 10
58.4708950622
 20
-71.8645780347
 11
62.8589181316
 21
-69.2893182598
  0
LINE
  5
305
100
AcDbEntity
  8
RACCORDO
100
AcDbLine
 62
7
  6
CONTINUOUS
 10
58.2753206073
 20
-72.2689319625
 11
62.6820818787
 21
-69.6826750399
  0
ARC
  5
306
100
AcDbEntity
  8
RACCORDO
100
AcDbCircle
 62
7
  6
CONTINUOUS
 10
-60.4084568066
 20
12.2586177878
 40
1.2
100
AcDbArc
 50
185.511659943
 51
234.7318567564
  0
ARC
  5
307
100
AcDbEntity
  8
RACCORDO
100
AcDbCircle
 62
7
  6
CONTINUOUS
 10
-60.4084568066
 20
68.1096137313
 40
1.2
100
AcDbArc
 50
130.0513455627
 51
175.2095912737
  0
ARC
  5
308
100
AcDbEntity
  8
RACCORDO
100
AcDbCircle
 62
7
  6
CONTINUOUS
 10
57.6679358813
 20
-71.2340001799
 40
1.2
100
AcDbArc
 50
234.7345488682
 51
300.4079833576
  0
ELLIPSE
  5
309
100
AcDbEntity
  8
RACCORDO
100
AcDbEllipse
 62
7
  6
CONTINUOUS
 10
-56.4995420585
 20
71.3955565192
 30
0.0
 11
-0.6940708947
 21
0.9828275207
 31
0.0
 40
0.4987101158
 41
-0.9531889164
 42
0.042043145
  0
ELLIPSE
  5
30A
100
AcDbEntity
  8
0
100
AcDbEllipse
 62
7
  6
CONTINUOUS
 10
349.9344069154
 20
166.9616696783
 30
0.0
 11
301.6300315164
 21
300.7490863323
 31
0.0
 40
0.265596453
 41
-3.6346599249
 42
-3.630056717
  0
ELLIPSE
  5
30B
100
AcDbEntity
  8
0
100
AcDbEllipse
 62
7
  6
CONTINUOUS
 10
334.0879628308
 20
178.1667977482
 30
0.0
 11
128.7078177795
 21
411.2238603181
 31
0.0
 40
0.6912191856
 41
-3.9000610221
 42
-3.8933751199
  0
ELLIPSE
  5
30C
100
AcDbEntity
  8
0
100
AcDbEllipse
 62
7
  6
CONTINUOUS
 10
351.9456153818
 20
165.5395305334
 30
0.0
 11
296.1018113369
 21
304.6663207133
 31
0.0
 40
0.2906993817
 41
-3.6350079422
 42
-3.6306542627
  0
ELLIPSE
  5
30D
100
AcDbEntity
  8
0
100
AcDbEllipse
 62
7
  6
CONTINUOUS
 10
337.7930794378
 20
175.5468846704
 30
0.0
 11
146.3687977933
 21
402.5132927455
 31
0.0
 40
0.6762663434
 41
-3.8610271271
 42
-3.8566178351
  0
ELLIPSE
  5
30E
100
AcDbEntity
  8
0
100
AcDbEllipse
 62
7
  6
CONTINUOUS
 10
354.222864813
 20
163.9292720181
 30
0.0
 11
301.630298559
 21
300.7488975952
 31
0.0
 40
0.2655952353
 41
-3.6346599454
 42
-3.6279740432
  0
ELLIPSE
  5
30F
100
AcDbEntity
  8
0
100
AcDbEllipse
 62
7
  6
CONTINUOUS
 10
339.6481101295
 20
174.2351798889
 30
0.0
 11
128.7138453229
 21
411.2210032961
 31
0.0
 40
0.6912146399
 41
-3.8946777159
 42
-3.8933626105
  0
ELLIPSE
  5
310
100
AcDbEntity
  8
0
100
AcDbEllipse
 62
7
  6
CONTINUOUS
 10
339.6478406342
 20
174.2353704509
 30
0.0
 11
128.7081007931
 21
411.223726173
 31
0.0
 40
0.6912189722
 41
-3.8979785223
 42
-3.8959601215
  0
ELLIPSE
  5
311
100
AcDbEntity
  8
0
100
AcDbEllipse
 62
7
  6
CONTINUOUS
 10
336.5776538081
 20
176.4063203751
 30
0.0
 11
-0.5146678914
 21
457.1150324405
 31
0.0
 40
0.7320502981
 41
-4.1551297457
 42
-4.1525441887
  0
ELLIPSE
  5
312
100
AcDbEntity
  8
RACCORDO
100
AcDbEllipse
 62
7
  6
CONTINUOUS
 10
62.00922552
 20
-68.6861674997
 30
0.0
 11
-0.6940708947
 21
0.9828275207
 31
0.0
 40
0.4987101158
 41
-3.1836357971
 42
-2.5267242989
  0
ELLIPSE
  5
313
100
AcDbEntity
  8
RACCORDO
100
AcDbEllipse
 62
7
  6
CONTINUOUS
 10
62.00922552
 20
-12.4027966656
 30
0.0
 11
-0.6934737074
 21
0.9794492403
 31
0.0
 40
0.501292524
 41
-2.5255069615
 42
-0.9574496904
  0
ELLIPSE
  5
314
100
AcDbEntity
  8
0
100
AcDbEllipse
 62
7
  6
CONTINUOUS
 10
334.4839746396
 20
177.8867751128
 30
0.0
 11
128.708107827
 21
411.223722839
 31
0.0
 40
0.6912189668
 41
-3.9000604185
 42
-3.8954572107
  0
ELLIPSE
  5
315
100
AcDbEntity
  8
0
100
AcDbEllipse
 62
7
  6
CONTINUOUS
 10
334.4839746396
 20
177.8867751128
 30
0.0
 11
128.6621570566
 21
411.076909657
 31
0.0
 40
0.6912189668
 41
-3.9000330524
 42
-3.8957731889
  0
ELLIPSE
  5
316
100
AcDbEntity
  8
0
100
AcDbEllipse
 62
7
  6
CONTINUOUS
 10
350.3305760934
 20
166.6815357661
 30
0.0
 11
301.6312270684
 21
300.7482413552
 31
0.0
 40
0.2655910011
 41
-3.6346599421
 42
-3.6279740566
  0
ELLIPSE
  5
317
100
AcDbEntity
  8
0
100
AcDbEllipse
 62
7
  6
CONTINUOUS
 10
350.3305760934
 20
166.6815357661
 30
0.0
 11
301.5235400898
 21
300.6408696161
 31
0.0
 40
0.2655910011
 41
-3.6346325759
 42
-3.6279442873
  0
ELLIPSE
  5
318
100
AcDbEntity
  8
0
100
AcDbEllipse
 62
7
  6
CONTINUOUS
 10
338.1889704002
 20
175.2669474862
 30
0.0
 11
146.366494401
 21
402.5144736846
 31
0.0
 40
0.6762685217
 41
-3.8633085101
 42
-3.8589548307
  0
ELLIPSE
  5
319
100
AcDbEntity
  8
0
100
AcDbEllipse
 62
7
  6
CONTINUOUS
 10
338.1889704002
 20
175.2669474862
 30
0.0
 11
146.3142393155
 21
402.3707698382
 31
0.0
 40
0.6762685217
 41
-3.863281144
 42
-3.8593462569
  0
ELLIPSE
  5
31A
100
AcDbEntity
  8
0
100
AcDbEllipse
 62
7
  6
CONTINUOUS
 10
352.341526801
 20
165.2595788841
 30
0.0
 11
296.1012250984
 21
304.6667371811
 31
0.0
 40
0.2907020299
 41
-3.6327314312
 42
-3.6283221559
  0
ELLIPSE
  5
31B
100
AcDbEntity
  8
0
100
AcDbEllipse
 62
7
  6
CONTINUOUS
 10
352.341526801
 20
165.2595788841
 30
0.0
 11
295.9955124154
 21
304.5579664788
 31
0.0
 40
0.2907020299
 41
-3.6312898017
 42
-3.6282923867
  0
ELLIPSE
  5
31C
100
AcDbEntity
  8
0
100
AcDbEllipse
 62
7
  6
CONTINUOUS
 10
340.0437705147
 20
173.9554057475
 30
0.0
 11
128.7064701197
 21
411.2244990907
 31
0.0
 40
0.6912202019
 41
-3.9000638432
 42
-3.893377941
  0
ELLIPSE
  5
31D
100
AcDbEntity
  8
0
100
AcDbEllipse
 62
7
  6
CONTINUOUS
 10
340.0437705147
 20
173.9554057475
 30
0.0
 11
128.6605199341
 21
411.0776856315
 31
0.0
 40
0.6912202019
 41
-3.900036477
 42
-3.8933481717
  0
ELLIPSE
  5
31E
100
AcDbEntity
  8
0
100
AcDbEllipse
 62
7
  6
CONTINUOUS
 10
354.6189573399
 20
163.6491923063
 30
0.0
 11
301.6309435557
 21
300.7484417327
 31
0.0
 40
0.265592294
 41
-3.6292891746
 42
-3.6279740692
  0
ELLIPSE
  5
31F
100
AcDbEntity
  8
0
100
AcDbEllipse
 62
7
  6
CONTINUOUS
 10
354.6189573399
 20
163.6491923063
 30
0.0
 11
301.5232566783
 21
300.641069922
 31
0.0
 40
0.265592294
 41
2.6545009507
 42
2.6552410072
  0
ELLIPSE
  5
320
100
AcDbEntity
  8
0
100
AcDbEllipse
 62
7
  6
CONTINUOUS
 10
354.618517108
 20
163.6495035973
 30
0.0
 11
301.6279644201
 21
300.7505472905
 31
0.0
 40
0.2656058792
 41
-3.6325779844
 42
-3.6305595836
  0
ELLIPSE
  5
321
100
AcDbEntity
  8
0
100
AcDbEllipse
 62
7
  6
CONTINUOUS
 10
354.618517108
 20
163.6495035973
 30
0.0
 11
301.5202786064
 21
300.6431747281
 31
0.0
 40
0.2656058792
 41
-3.6316331179
 42
-3.630530744
  0
ELLIPSE
  5
322
100
AcDbEntity
  8
0
100
AcDbEllipse
 62
7
  6
CONTINUOUS
 10
337.0237652549
 20
176.0908719459
 30
0.0
 11
-0.5122673036
 21
457.1144125167
 31
0.0
 40
0.7320503028
 41
-4.1552860181
 42
-4.1525396587
  0
ELLIPSE
  5
323
100
AcDbEntity
  8
0
100
AcDbEllipse
 62
7
  6
CONTINUOUS
 10
337.0237652549
 20
176.0908719459
 30
0.0
 11
-0.5120844163
 21
456.951215654
 31
0.0
 40
0.7320503028
 41
-4.1549913929
 42
-4.1525098894
  0
ENDSEC
  0
SECTION
  2
OBJECTS
  0
DICTIONARY
  5
C
100
AcDbDictionary
280
0
281
1
  3
ACAD_GROUP
350
D
  3
ACAD_MLINESTYLE
350
17
  3
ACAD_LAYOUT
350
1A
  3
ACAD_PLOTSETTINGS
350
19
  3
ACAD_PLOTSTYLENAME
350
E
  0
DICTIONARY
  5
D
102
{ACAD_REACTORS
330
C
102
}
100
AcDbDictionary
280
0
281
1
  0
ACDBDICTIONARYWDFLT
  5
E
102
{ACAD_REACTORS
330
C
102
}
100
AcDbDictionary
281
1
  3
Normal
350
F
100
AcDbDictionaryWithDefault
340
F
  0
DICTIONARY
  5
17
102
{ACAD_REACTORS
330
C
102
}
100
AcDbDictionary
280
0
281
1
  3
Standard
350
18
  0
DICTIONARY
  5
19
102
{ACAD_REACTORS
330
C
102
}
100
AcDbDictionary
281
1
  0
DICTIONARY
  5
1A
102
{ACAD_REACTORS
330
C
102
}
100
AcDbDictionary
281
1
  3
Model
350
324
  3
Layout1
350
325
  0
ACDBPLACEHOLDER
  5
F
102
{ACAD_REACTORS
330
E
102
}
  0
MLINESTYLE
  5
18
102
{ACAD_REACTORS
330
17
102
}
100
AcDbMlineStyle
  2
STANDARD
 70
0
  3

 62
256
 51
90.0
 52
90.0
 71
2
 49
0.5
 62
256
  6
BYLAYER
 49
-0.5
 62
256
  6
BYLAYER
  0
LAYOUT
  5
324
102
{ACAD_REACTORS
330
1A
102
}
100
AcDbPlotSettings
  1

  2
none_device
  4
ISO_A4_(297.00_x_210.00_MM)
  6

 40
0.0
 41
0.0
 42
0.0
 43
0.0
 44
297.0
 45
210.0
 46
0.0
 47
0.0
 48
0.0
 49
0.0
140
0.0
141
0.0
142
1.0
143
1.0
 70
1024
 72
1
 73
0
 74
0
  7

 75
0
147
1.0
148
0.0
149
0.0
100
AcDbLayout
  1
Model
 70
0
 71
0
 10
0.0
 20
0.0
 11
297.0
 21
210.0
 12
0.0
 22
0.0
 32
0.0
 14
0.0
 24
0.0
 34
0.0
 15
0.0
 25
0.0
 35
0.0
146
0.0
 13
0.0
 23
0.0
 33
0.0
 16
1.0
 26
0.0
 36
0.0
 17
0.0
 27
1.0
 37
0.0
 76
0
330
212
345
0
346
0
  0
LAYOUT
  5
325
102
{ACAD_REACTORS
330
1A
102
}
100
AcDbPlotSettings
  1

  2
none_device
  4
ISO_A4_(297.00_x_210.00_MM)
  6

 40
0.0
 41
0.0
 42
0.0
 43
0.0
 44
297.0
 45
210.0
 46
0.0
 47
0.0
 48
0.0
 49
0.0
140
0.0
141
0.0
142
1.0
143
1.0
 70
0
 72
1
 73
0
 74
0
  7

 75
0
147
1.0
148
0.0
149
0.0
100
AcDbLayout
  1
Layout1
 70
0
 71
1
 10
0.0
 20
0.0
 11
297.0
 21
210.0
 12
0.0
 22
0.0
 32
0.0
 14
0.0
 24
0.0
 34
0.0
 15
0.0
 25
0.0
 35
0.0
146
0.0
 13
0.0
 23
0.0
 33
0.0
 16
1.0
 26
0.0
 36
0.0
 17
0.0
 27
1.0
 37
0.0
 76
0
330
213
345
0
346
0
  0
ENDSEC
  0
EOF
