  0
SECTION
  2
HEADER
  9
$ACADVER
  1
AC1024
  9
$DWGCODEPAGE
  3
ANSI_1252
  9
$EXTMAX
 10
297.0
 20
210.0
 30
0.0
  9
$EXTMIN
 10
0.0
 20
0.0
 30
0.0
  9
$LIMMIN
 10
0.0
 20
0.0
  9
$LIMMAX
 10
297.0
 20
210.0
  9
$VIEWCTR
 10
148.5
 20
105.0
  9
$VIEWSIZE
 40
210.0
  9
$CLAYER
  8
0
  9
$LTSCALE
 40
16.335
  9
$CELTYPE
  6
BYLAYER
  9
$DIMSCALE
 40
1.0
  9
$DIMASZ
 40
3.0
  9
$DIMEXO
 40
0.5
  9
$DIMDLI
 40
11.286
  9
$DIMEXE
 40
1.5
  9
$DIMCEN
 40
2.673
  9
$DIMLFAC
 40
1.0
  9
$DIMBLK
  1
_FILLED
  9
$DIMALT
 70
0
  9
$DIMALTF
 40
0.0393700787
  9
$DIMTXT
 40
3.0
  9
$DIMTOL
 70
1
  9
$DIMLIM
 70
0
  9
$DIMTFAC
 40
1.0
  9
$DIMTP
 40
0.01
  9
$DIMTM
 40
0.01
  9
$DIMGAP
 40
0.625
  9
$DIMDSEP
 70
44
  9
$AUNITS
 70
0
  9
$PDMODE
 70
3
  9
$PDSIZE
 40
3.0
  9
$HANDSEED
  5
326
  9
$TILEMODE
 70
1
  9
$MEASUREMENT
 70
1
  9
$INSUNITS
 70
4
  0
ENDSEC
  0
SECTION
  2
CLASSES
  0
CLASS
  1
ACDBDICTIONARYWDFLT
  2
AcDbDictionaryWithDefault
  3
AutoCAD 2000
 90
0
 91
1
280
0
281
0
  0
CLASS
  1
ACDBPLACEHOLDER
  2
AcDbPlaceHolder
  3
AutoCAD 2000
 90
0
 91
1
280
0
281
0
  0
CLASS
  1
LAYOUT
  2
AcDbLayout
  3
AutoCAD 2000
 90
0
 91
0
280
0
281
0
  0
ENDSEC
  0
SECTION
  2
TABLES
  0
TABLE
  2
VPORT
  5
8
100
AcDbSymbolTable
 70
2
  0
VPORT
  5
1F4
100
AcDbSymbolTableRecord
100
AcDbViewportTableRecord
  2
*ACTIVE
 70
0
 10
0.0
 20
0.0
 11
1.0
 21
1.0
 12
148.5
 22
105.0
 13
0.0
 23
0.0
 14
1.0
 24
1.0
 15
0.0
 25
0.0
 16
0.0
 26
0.0
 36
1.0
 17
0.0
 27
0.0
 37
0.0
 40
210.0
 41
1.4142857143
 42
50.0
 43
0.0
 44
0.0
 50
0.0
 51
0.0
 71
0
 72
100
 73
1
 74
1
 75
0
 76
0
 77
0
 78
0
  0
ENDTAB
  0
TABLE
  2
LTYPE
  5
5
100
AcDbSymbolTable
 70
6
  0
LTYPE
  5
14
100
AcDbSymbolTableRecord
100
AcDbLinetypeTableRecord
  2
BYBLOCK
 70
0
  3

 72
65
 73
0
 40
0.0
  0
LTYPE
  5
15
100
AcDbSymbolTableRecord
100
AcDbLinetypeTableRecord
  2
BYLAYER
 70
0
  3

 72
65
 73
0
 40
0.0
  0
LTYPE
  5
16
100
AcDbSymbolTableRecord
100
AcDbLinetypeTableRecord
  2
CONTINUOUS
 70
64
  3
Solid line
 72
65
 73
0
 40
0.0
  0
LTYPE
  5
1F5
100
AcDbSymbolTableRecord
100
AcDbLinetypeTableRecord
  2
CENTER
 70
64
  3
____ _ ____ _ ____ _ ____ _ ____ _ ____ _ ____
 72
65
 73
4
 40
0.6
 49
0.375
 74
0
 49
-0.075
 74
0
 49
0.075
 74
0
 49
-0.075
 74
0
  0
LTYPE
  5
1F6
100
AcDbSymbolTableRecord
100
AcDbLinetypeTableRecord
  2
HIDDEN
 70
64
  3
- - - - - - - - - - - - - - - - - - - -
 72
65
 73
2
 40
0.2
 49
0.1
 74
0
 49
-0.1
 74
0
  0
LTYPE
  5
1F7
100
AcDbSymbolTableRecord
100
AcDbLinetypeTableRecord
  2
PHANTOM
 70
64
  3
_____ _ _ _____ _ _ _____ _ _ _____
 72
65
 73
6
 40
0.8
 49
0.45
 74
0
 49
-0.05
 74
0
 49
0.1
 74
0
 49
-0.05
 74
0
 49
0.1
 74
0
 49
-0.05
 74
0
  0
LTYPE
  5
1F8
100
AcDbSymbolTableRecord
100
AcDbLinetypeTableRecord
  2
DOT
 70
64
  3
. . . . . . . . . . . . . . . . . . . .
 72
65
 73
2
 40
0.2
 49
0.1
 74
0
 49
-0.1
 74
0
  0
LTYPE
  5
1F9
100
AcDbSymbolTableRecord
100
AcDbLinetypeTableRecord
  2
DASHED
 70
64
  3
- - - - - - - - - - - - - - - - - - - -
 72
65
 73
2
 40
0.2
 49
0.1
 74
0
 49
-0.1
 74
0
  0
ENDTAB
  0
TABLE
  2
LAYER
  5
2
100
AcDbSymbolTable
 70
36
  0
LAYER
  5
10
100
AcDbSymbolTableRecord
100
AcDbLayerTableRecord
  2
0
 70
0
 62
7
  6
CONTINUOUS
370
-3
390
F
  0
LAYER
  5
1FA
100
AcDbSymbolTableRecord
100
AcDbLayerTableRecord
  2
DEFAULT_1
 70
0
 62
7
  6
CENTER
370
-3
390
F
  0
LAYER
  5
1FB
100
AcDbSymbolTableRecord
100
AcDbLayerTableRecord
  2
DEFAULT_2
 70
0
 62
7
  6
HIDDEN
370
-3
390
F
  0
LAYER
  5
1FC
100
AcDbSymbolTableRecord
100
AcDbLayerTableRecord
  2
DEFAULT_3
 70
0
 62
7
  6
PHANTOM
370
-3
390
F
  0
LAYER
  5
1FD
100
AcDbSymbolTableRecord
100
AcDbLayerTableRecord
  2
ASSI
 70
0
 62
7
  6
CONTINUOUS
370
-3
390
F
  0
LAYER
  5
1FE
100
AcDbSymbolTableRecord
100
AcDbLayerTableRecord
  2
COORDINATE
 70
0
 62
7
  6
CONTINUOUS
370
-3
390
F
  0
LAYER
  5
1FF
100
AcDbSymbolTableRecord
100
AcDbLayerTableRecord
  2
COORD_ORIGINE
 70
0
 62
7
  6
CONTINUOUS
370
-3
390
F
  0
LAYER
  5
200
100
AcDbSymbolTableRecord
100
AcDbLayerTableRecord
  2
COSMETICI
 70
0
 62
7
  6
CONTINUOUS
370
-3
390
F
  0
LAYER
  5
201
100
AcDbSymbolTableRecord
100
AcDbLayerTableRecord
  2
CURVE
 70
0
 62
7
  6
CONTINUOUS
370
-3
390
F
  0
LAYER
  5
202
100
AcDbSymbolTableRecord
100
AcDbLayerTableRecord
  2
DRAFT
 70
0
 62
7
  6
CONTINUOUS
370
-3
390
F
  0
LAYER
  5
203
100
AcDbSymbolTableRecord
100
AcDbLayerTableRecord
  2
IMPORT
 70
0
 62
7
  6
CONTINUOUS
370
-3
390
F
  0
LAYER
  5
204
100
AcDbSymbolTableRecord
100
AcDbLayerTableRecord
  2
INTF_1
 70
0
 62
7
  6
CONTINUOUS
370
-3
390
F
  0
LAYER
  5
205
100
AcDbSymbolTableRecord
100
AcDbLayerTableRecord
  2
NOTE
 70
0
 62
7
  6
CONTINUOUS
370
-3
390
F
  0
LAYER
  5
206
100
AcDbSymbolTableRecord
100
AcDbLayerTableRecord
  2
PIANI
 70
0
 62
7
  6
CONTINUOUS
370
-3
390
F
  0
LAYER
  5
207
100
AcDbSymbolTableRecord
100
AcDbLayerTableRecord
  2
PIANI_ORIGINE
 70
0
 62
7
  6
CONTINUOUS
370
-3
390
F
  0
LAYER
  5
208
100
AcDbSymbolTableRecord
100
AcDbLayerTableRecord
  2
PUNTI
 70
0
 62
7
  6
CONTINUOUS
370
-3
390
F
  0
LAYER
  5
209
100
AcDbSymbolTableRecord
100
AcDbLayerTableRecord
  2
RACCORDO
 70
0
 62
7
  6
CONTINUOUS
370
-3
390
F
  0
LAYER
  5
20A
100
AcDbSymbolTableRecord
100
AcDbLayerTableRecord
  2
RGB____0____0____0__
 70
0
 62
7
  6
CONTINUOUS
370
-3
390
F
  0
LAYER
  5
20B
100
AcDbSymbolTableRecord
100
AcDbLayerTableRecord
  2
SIMBOLI
 70
0
 62
7
  6
CONTINUOUS
370
-3
390
F
  0
LAYER
  5
20C
100
AcDbSymbolTableRecord
100
AcDbLayerTableRecord
  2
SNAPLINE
 70
0
 62
7
  6
CONTINUOUS
370
-3
390
F
  0
LAYER
  5
20D
100
AcDbSymbolTableRecord
100
AcDbLayerTableRecord
  2
SUPERFICI
 70
0
 62
7
  6
CONTINUOUS
370
-3
390
F
  0
LAYER
  5
20E
100
AcDbSymbolTableRecord
100
AcDbLayerTableRecord
  2
TRASH
 70
0
 62
7
  6
CONTINUOUS
370
-3
390
F
  0
LAYER
  5
20F
100
AcDbSymbolTableRecord
100
AcDbLayerTableRecord
  2
XSEC_DATUMS
 70
0
 62
7
  6
CONTINUOUS
370
-3
390
F
  0
ENDTAB
  0
TABLE
  2
STYLE
  5
3
100
AcDbSymbolTable
 70
1
  0
STYLE
  5
11
100
AcDbSymbolTableRecord
100
AcDbTextStyleTableRecord
  2
STANDARD
 70
0
 40
0.0
 41
0.8
 50
0.0
 71
0
 42
0.2
  3
txt
  4

  0
STYLE
  5
210
100
AcDbSymbolTableRecord
100
AcDbTextStyleTableRecord
  2
TEXTSTYLE_1
 70
0
 40
0.0
 41
0.8
 50
0.0
 71
0
 42
0.2
  3
gdt
  4

  0
ENDTAB
  0
TABLE
  2
VIEW
  5
6
100
AcDbSymbolTable
 70
0
  0
ENDTAB
  0
TABLE
  2
UCS
  5
7
100
AcDbSymbolTable
 70
0
  0
ENDTAB
  0
TABLE
  2
APPID
  5
9
100
AcDbSymbolTable
 70
1
  0
APPID
  5
211
100
AcDbSymbolTableRecord
100
AcDbRegAppTableRecord
  2
ACAD
 70
0
  0
ENDTAB
  0
TABLE
  2
BLOCK_RECORD
  5
1
100
AcDbSymbolTable
 70
0
  0
BLOCK_RECORD
  5
212
100
AcDbSymbolTableRecord
100
AcDbBlockTableRecord
  2
*Model_Space
  0
BLOCK_RECORD
  5
213
100
AcDbSymbolTableRecord
100
AcDbBlockTableRecord
  2
*Paper_Space
  0
BLOCK_RECORD
  5
214
100
AcDbSymbolTableRecord
100
AcDbBlockTableRecord
  2
_FILLED
  0
ENDTAB
  0
TABLE
  2
DIMSTYLE
  5
A
100
AcDbSymbolTable
 70
1
100
AcDbDimStyleTable
 71
0
  0
DIMSTYLE
105
215
100
AcDbSymbolTableRecord
100
AcDbDimStyleTableRecord
  2
STANDARD
 70
0
  3

  4

 40
1.0
 41
3.0
 42
0.5
 43
0.38
 44
1.5
 45
0.0
 46
0.0
 47
0.01
 48
0.01
140
3.0
141
0.09
142
0.0
143
25.4
144
1.0
145
0.0
146
1.0
147
0.625
 71
1
 72
0
 73
0
 74
0
 75
0
 76
0
 77
1
 78
8
 79
2
170
0
171
1
172
0
173
0
174
0
175
0
176
0
177
0
178
0
270
2
179
2
271
2
272
2
273
2
274
2
275
0
280
0
281
0
282
0
283
1
284
8
285
0
286
0
287
3
288
0
340
11
278
44
341
214
342
214
343
214
344
214
  0
ENDTAB
  0
ENDSEC
  0
SECTION
  2
BLOCKS
  0
BLOCK
  5
20
100
AcDbEntity
  8
0
100
AcDbBlockBegin
  2
*Model_Space
 70
0
 10
0.0
 20
0.0
 30
0.0
  3
*Model_Space
  1

  0
ENDBLK
  5
21
100
AcDbEntity
  8
0
100
AcDbBlockEnd
  0
BLOCK
  5
1C
100
AcDbEntity
  8
0
100
AcDbBlockBegin
  2
*Paper_Space
 70
0
 10
0.0
 20
0.0
 30
0.0
  3
*Paper_Space
  1

  0
ENDBLK
  5
1D
100
AcDbEntity
  8
0
100
AcDbBlockEnd
  0
BLOCK
  5
216
100
AcDbEntity
  8
0
100
AcDbBlockBegin
  2
_FILLED
 70
64
 10
0.0
 20
0.0
  3
_FILLED
  1

  0
SOLID
  5
217
100
AcDbEntity
  8
0
  6
BYBLOCK
 62
0
100
AcDbTrace
 10
0.0
 20
0.0
 11
-1.0
 21
0.3166666667
 12
-1.0
 22
-0.3166666667
 13
-1.0
 23
-0.3166666667
  0
ENDBLK
  5
218
100
AcDbEntity
  8
0
  6
BYBLOCK
 62
0
100
AcDbBlockEnd
  0
ENDSEC
  0
SECTION
  2
ENTITIES
  0
LINE
  5
219
100
AcDbEntity
  8
RACCORDO
100
AcDbLine
 62
7
  6
CONTINUOUS
 10
-70.0194601817
 20
75.2781754538
 11
-66.0524355787
 21
78.6129670068
  0
LINE
  5
21A
100
AcDbEntity
  8
RACCORDO
100
AcDbLine
 62
250
  6
CONTINUOUS
 10
-69.2917001033
 20
75.1755774167
 11
-65.3407041762
 21
78.4968948176
  0
LWPOLYLINE
  5
21B
100
AcDbEntity
  8
RACCORDO
100
AcDbPolyline
 62
250
  6
CONTINUOUS
 90
19
 70
0
 10
-70.0194601817
 20
75.2781754538
 10
-70.0158796002
 20
75.2811360158
 10
-69.9882206454
 20
75.3010218021
 10
-69.9580633545
 20
75.3177332577
 10
-69.9255094146
 20
75.3312140335
 10
-69.8906685943
 20
75.3414186735
 10
-69.8536583732
 20
75.3483127688
 10
-69.8146035461
 20
75.3518730732
 10
-69.7736358016
 20
75.3520875818
 10
-69.7308932788
 20
75.3489555712
 10
-69.6865201011
 20
75.3424876023
 10
-69.6406658903
 20
75.3327054843
 10
-69.5934852619
 20
75.3196422017
 10
-69.5451373042
 20
75.3033418023
 10
-69.4957850416
 20
75.2838592495
 10
-69.4455948846
 20
75.2612602365
 10
-69.3947360694
 20
75.2356209647
 10
-69.3433800866
 20
75.2070278871
 10
-69.2917001033
 20
75.1755774167
  0
LWPOLYLINE
  5
21C
100
AcDbEntity
  8
RACCORDO
100
AcDbPolyline
 62
250
  6
CONTINUOUS
 90
25
 70
0
 10
-69.2917001033
 20
75.1755774167
 10
-69.341869351
 20
75.1359779405
 10
-69.391705742
 20
75.0936461319
 10
-69.4410338826
 20
75.048730973
 10
-69.4896801673
 20
75.0013905382
 10
-69.5374733908
 20
74.9517914372
 10
-69.5842453498
 20
74.9001082287
 10
-69.6298314352
 20
74.8465228065
 10
-69.6740712117
 20
74.7912237587
 10
-69.7168089819
 20
74.7344057047
 10
-69.7578943347
 20
74.6762686096
 10
-69.7971826747
 20
74.6170170808
 10
-69.8345357304
 20
74.5568596479
 10
-69.8698220419
 20
74.4960080287
 10
-69.9029174226
 20
74.4346763839
 10
-69.9337053967
 20
74.3730805641
 10
-69.9620776093
 20
74.3114373491
 10
-69.9879342073
 20
74.2499636859
 10
-70.0111841912
 20
74.1888759245
 10
-70.0317457349
 20
74.128389057
 10
-70.0495464744
 20
74.0687159605
 10
-70.0645237618
 20
74.0100666482
 10
-70.0766248861
 20
73.9526475302
 10
-70.0858072586
 20
73.8966606872
 10
-70.0920385631
 20
73.842303159
  0
LWPOLYLINE
  5
21D
100
AcDbEntity
  8
RACCORDO
100
AcDbPolyline
 62
250
  6
CONTINUOUS
 90
10
 70
0
 10
-56.0093372126
 20
63.6659322919
 10
-55.9960548954
 20
63.6706626067
 10
-55.9830314498
 20
63.6751988984
 10
-55.97027133
 20
63.6795396873
 10
-55.9577789183
 20
63.6836835675
 10
-55.9455584674
 20
63.6876291796
 10
-55.9336140988
 20
63.691375206
 10
-55.9219498758
 20
63.6949204099
 10
-55.9105698032
 20
63.6982636421
 10
-55.8994777692
 20
63.7014038096
  0
LWPOLYLINE
  5
21E
100
AcDbEntity
  8
RACCORDO
100
AcDbPolyline
 62
250
  6
CONTINUOUS
 90
16
 70
0
 10
-70.4431025889
 20
74.4597936263
 10
-70.4449025905
 20
74.4167690672
 10
-70.4429998243
 20
74.372550801
 10
-70.4373206365
 20
74.3281014634
 10
-70.4278743307
 20
74.2837473837
 10
-70.4146867368
 20
74.2398301678
 10
-70.3978024738
 20
74.1961155909
 10
-70.3772750758
 20
74.1529039931
 10
-70.353176665
 20
74.1105258227
 10
-70.3255670261
 20
74.0687750333
 10
-70.2945426194
 20
74.0279368156
 10
-70.2602187663
 20
73.988312364
 10
-70.2226702667
 20
73.9497104819
 10
-70.182009002
 20
73.9122520583
 10
-70.1384075208
 20
73.8763635531
 10
-70.0920385631
 20
73.842303159
  0
LWPOLYLINE
  5
21F
100
AcDbEntity
  8
RACCORDO
100
AcDbPolyline
 62
7
  6
CONTINUOUS
 90
22
 70
0
 10
-70.4430984488
 20
74.4598395232
 10
-70.6667000113
 20
71.6700858439
 10
-70.8722248564
 20
68.840121141
 10
-71.0549657969
 20
66.026020466
 10
-71.2149028821
 20
63.228028598
 10
-71.3520215609
 20
60.4463663768
 10
-71.4663077266
 20
57.6812537436
 10
-71.5577486991
 20
54.9329095143
 10
-71.6263348129
 20
52.2015573791
 10
-71.672056753
 20
49.4874244707
 10
-71.694906469
 20
46.7907302081
 10
-71.6948797708
 20
44.1116944909
 10
-71.6719734322
 20
41.4505445237
 10
-71.6261851221
 20
38.8074954401
 10
-71.5575164466
 20
36.1827621458
 10
-71.4659705967
 20
33.5765706815
 10
-71.351551223
 20
30.9891389881
 10
-71.2142645856
 20
28.4206655382
 10
-71.0541180596
 20
25.8713460441
 10
-70.8711195239
 20
23.341380681
 10
-70.6652825426
 20
20.8309896816
 10
-70.4417387712
 20
18.3933135216
  0
LWPOLYLINE
  5
220
100
AcDbEntity
  8
RACCORDO
100
AcDbPolyline
 62
250
  6
CONTINUOUS
 90
28
 70
0
 10
-54.7882690693
 20
52.0810537016
 10
-54.7385300825
 20
52.1242118602
 10
-54.6860837031
 20
52.1651811124
 10
-54.6311071408
 20
52.203822765
 10
-54.5737842205
 20
52.2400005547
 10
-54.5143106024
 20
52.2735971701
 10
-54.4528933208
 20
52.3045148867
 10
-54.3897422003
 20
52.3326546697
 10
-54.3250689067
 20
52.3579156047
 10
-54.2590922137
 20
52.3802114687
 10
-54.1920353928
 20
52.3994667782
 10
-54.1241253126
 20
52.4156163628
 10
-54.0555916246
 20
52.4286048979
 10
-53.986666237
 20
52.4383884229
 10
-53.9175823677
 20
52.4449338298
 10
-53.8485736199
 20
52.4482183155
 10
-53.7798735024
 20
52.448230769
 10
-53.7117144841
 20
52.4449711537
 10
-53.6443270459
 20
52.438449853
 10
-53.5779392134
 20
52.4286889424
 10
-53.5127756312
 20
52.4157214598
 10
-53.4490566468
 20
52.3995906407
 10
-53.3869978729
 20
52.3803510761
 10
-53.3268093038
 20
52.3580678738
 10
-53.2686944498
 20
52.3328157866
 10
-53.2128499065
 20
52.3046800438
 10
-53.1594646888
 20
52.2737560615
 10
-53.1087194371
 20
52.2401484685
  0
LWPOLYLINE
  5
221
100
AcDbEntity
  8
RACCORDO
100
AcDbPolyline
 62
250
  6
CONTINUOUS
 90
25
 70
0
 10
-55.1545815638
 20
53.7442151883
 10
-55.0980981554
 20
53.791146454
 10
-55.0382230897
 20
53.8353074604
 10
-54.9752127613
 20
53.8765091034
 10
-54.9093369899
 20
53.9145749511
 10
-54.8408778657
 20
53.9493419998
 10
-54.7701285414
 20
53.9806613717
 10
-54.6973919763
 20
54.0083989524
 10
-54.6229796397
 20
54.0324359654
 10
-54.5472101766
 20
54.0526694806
 10
-54.4704080434
 20
54.069012855
 10
-54.3929021188
 20
54.0813961037
 10
-54.3150242949
 20
54.0897661998
 10
-54.2371080566
 20
54.0940873014
 10
-54.159487053
 20
54.0943409048
 10
-54.0824936694
 20
54.0905259241
 10
-54.006457603
 20
54.0826586956
 10
-53.9317044521
 20
54.070772908
 10
-53.858554321
 20
54.0549194582
 10
-53.7873204498
 20
54.035166233
 10
-53.7183078729
 20
54.0115978188
 10
-53.6518121126
 20
53.9843151391
 10
-53.588117914
 20
53.9534350226
 10
-53.5274980254
 20
53.9190897027
 10
-53.4702120304
 20
53.8814262513
  0
LWPOLYLINE
  5
222
100
AcDbEntity
  8
RACCORDO
100
AcDbPolyline
 62
250
  6
CONTINUOUS
 90
4
 70
0
 10
-53.5900972239
 20
52.2614889386
 10
-53.5714301175
 20
52.2747938588
 10
-53.5531592118
 20
52.2879425154
 10
-53.5185760146
 20
52.3131757567
  0
LWPOLYLINE
  5
223
100
AcDbEntity
  8
RACCORDO
100
AcDbPolyline
 62
250
  6
CONTINUOUS
 90
3
 70
0
 10
-53.628659639
 20
52.2344357847
 10
-53.6091615522
 20
52.248029585
 10
-53.5900972239
 20
52.2614889386
  0
LWPOLYLINE
  5
224
100
AcDbEntity
  8
RACCORDO
100
AcDbPolyline
 62
250
  6
CONTINUOUS
 90
10
 70
0
 10
51.5533070844
 20
-68.0033636745
 10
51.5444821418
 20
-68.0049419158
 10
51.5353507204
 20
-68.0067263329
 10
51.5259159031
 20
-68.0087163936
 10
51.5161809213
 20
-68.0109115103
 10
51.5061490107
 20
-68.0133109944
 10
51.4958233949
 20
-68.0159140567
 10
51.4852074832
 20
-68.0187198681
 10
51.4743048836
 20
-68.0217275604
 10
51.4631192485
 20
-68.0249361805
  0
LINE
  5
225
100
AcDbEntity
  8
RACCORDO
100
AcDbLine
 62
7
  6
CONTINUOUS
 10
-70.4417435813
 20
18.3933598288
 11
-70.4417391089
 21
18.3933134973
  0
LWPOLYLINE
  5
226
100
AcDbEntity
  8
RACCORDO
100
AcDbPolyline
 62
250
  6
CONTINUOUS
 90
22
 70
0
 10
-70.0920385631
 20
17.8312757084
 10
-70.3193125322
 20
20.3118123476
 10
-70.5239516144
 20
22.812519445
 10
-70.7059289763
 20
25.333201609
 10
-70.8652213496
 20
27.8737064371
 10
-71.00180325
 20
30.4337911862
 10
-71.1156512476
 20
33.0131195391
 10
-71.2067505739
 20
35.6114853422
 10
-71.2750874012
 20
38.2286834299
 10
-71.3206501645
 20
40.864370999
 10
-71.343433677
 20
43.5183367062
 10
-71.343433557
 20
46.1903662068
 10
-71.3206498103
 20
48.8801046794
 10
-71.2750868326
 20
51.5873331702
 10
-71.2067498248
 20
54.3118313939
 10
-71.1156503637
 20
57.0532353936
 10
-71.0018022914
 20
59.8113220379
 10
-70.8652203899
 20
62.5858626802
 10
-70.7059280992
 20
65.3764782761
 10
-70.5239509155
 20
68.1828868396
 10
-70.3193121213
 20
71.0049062495
 10
-70.0920385631
 20
73.842303159
  0
LWPOLYLINE
  5
227
100
AcDbEntity
  8
RACCORDO
100
AcDbPolyline
 62
7
  6
CONTINUOUS
 90
27
 70
0
 10
-53.6786409885
 20
52.3208967649
 10
-53.6815346807
 20
52.3200020628
 10
-53.6865706424
 20
52.3185437106
 10
-53.6889947017
 20
52.3179091771
 10
-53.6888296462
 20
52.3179387517
 10
-53.6860622878
 20
52.3184787169
 10
-53.6807673091
 20
52.3193556364
 10
-53.6730521791
 20
52.320396631
 10
-53.6630348661
 20
52.3214358272
 10
-53.6509123299
 20
52.3223115626
 10
-53.6366970708
 20
52.3228854851
 10
-53.6201520774
 20
52.3230117021
 10
-53.6012510087
 20
52.3225126818
 10
-53.5801123669
 20
52.3212073471
 10
-53.5566577805
 20
52.3188955987
 10
-53.5308102205
 20
52.3153498613
 10
-53.5028457943
 20
52.3103803856
 10
-53.4732896391
 20
52.303881033
 10
-53.4423602075
 20
52.295726569
 10
-53.4102458035
 20
52.2857986373
 10
-53.3775030144
 20
52.2741302355
 10
-53.3444236589
 20
52.2607250013
 10
-53.3111708
 20
52.2455613287
 10
-53.2781175892
 20
52.228742172
 10
-53.2454776142
 20
52.2103360362
 10
-53.2134450767
 20
52.1904277728
 10
-53.185275421
 20
52.1713039036
  0
LWPOLYLINE
  5
228
100
AcDbEntity
  8
RACCORDO
100
AcDbPolyline
 62
250
  6
CONTINUOUS
 90
13
 70
0
 10
-70.4372736149
 20
18.3571834181
 10
-70.4278070995
 20
18.3071231425
 10
-70.414606709
 20
18.2576998809
 10
-70.3977141921
 20
18.209069924
 10
-70.3771829822
 20
18.1613871267
 10
-70.3530780177
 20
18.1148023077
 10
-70.3254755328
 20
18.0694627348
 10
-70.2944628388
 20
18.02551189
 10
-70.260138027
 20
17.9830888009
 10
-70.2226096504
 20
17.9423275138
 10
-70.1819964095
 20
17.9033569756
 10
-70.1384267751
 20
17.8663006051
 10
-70.0920385631
 20
17.8312757084
  0
LWPOLYLINE
  5
229
100
AcDbEntity
  8
RACCORDO
100
AcDbPolyline
 62
250
  6
CONTINUOUS
 90
10
 70
0
 10
-70.0920385631
 20
17.8312757084
 10
-70.0858072586
 20
17.7857305754
 10
-70.0766248861
 20
17.7427295682
 10
-70.0645237618
 20
17.7024240243
 10
-70.0495464744
 20
17.664955795
 10
-70.0317457349
 20
17.6304567457
 10
-70.0111841912
 20
17.5990482922
 10
-69.9879342073
 20
17.5708409732
 10
-69.9620776093
 20
17.5459340616
 10
-69.9401760774
 20
17.5288672872
  0
LINE
  5
22A
100
AcDbEntity
  8
RACCORDO
100
AcDbLine
 62
250
  6
CONTINUOUS
 10
-70.4417391089
 20
18.3933134973
 11
-70.4372736149
 21
18.3571834181
  0
LWPOLYLINE
  5
22B
100
AcDbEntity
  8
RACCORDO
100
AcDbPolyline
 62
250
  6
CONTINUOUS
 90
19
 70
0
 10
-55.1545815574
 20
53.7442151576
 10
-55.2738301523
 20
51.6244709704
 10
-55.3790555305
 20
49.514039347
 10
-55.470257692
 20
47.4129202875
 10
-55.5474401196
 20
45.3210067148
 10
-55.6105993304
 20
43.2384057059
 10
-55.6597248761
 20
41.1654384915
 10
-55.6948142707
 20
39.1021151482
 10
-55.7158700001
 20
37.0484255994
 10
-55.7228890738
 20
35.0046608452
 10
-55.7158694698
 20
32.9708210104
 10
-55.6948132101
 20
30.9469059702
 10
-55.65972337
 20
28.9332063501
 10
-55.6105974093
 20
26.9297164937
 10
-55.5474378683
 20
24.9364420573
 10
-55.470255443
 20
22.9536906362
 10
-55.3790536987
 20
20.981564762
 10
-55.2738290702
 20
19.0199619029
 10
-55.1545815574
 20
17.0688820591
  0
LINE
  5
22C
100
AcDbEntity
  8
RACCORDO
100
AcDbLine
 62
250
  6
CONTINUOUS
 10
-55.1545815638
 20
17.0688820193
 11
-55.1963402107
 21
16.3404268881
  0
LINE
  5
22D
100
AcDbEntity
  8
RACCORDO
100
AcDbLine
 62
250
  6
CONTINUOUS
 10
-55.1963402107
 20
16.3404268881
 11
-55.2589801326
 21
15.3422634172
  0
LINE
  5
22E
100
AcDbEntity
  8
RACCORDO
100
AcDbLine
 62
250
  6
CONTINUOUS
 10
-55.2589801326
 20
15.3422634172
 11
-55.3190528726
 21
14.4464595222
  0
LINE
  5
22F
100
AcDbEntity
  8
RACCORDO
100
AcDbLine
 62
250
  6
CONTINUOUS
 10
-55.3190528726
 20
14.4464595222
 11
-55.3940699023
 21
13.3887718196
  0
LINE
  5
230
100
AcDbEntity
  8
RACCORDO
100
AcDbLine
 62
250
  6
CONTINUOUS
 10
-55.3940699023
 20
13.3887718196
 11
-55.4631211142
 21
12.4645167753
  0
LINE
  5
231
100
AcDbEntity
  8
RACCORDO
100
AcDbLine
 62
250
  6
CONTINUOUS
 10
-55.4631211142
 20
12.4645167753
 11
-55.5267862602
 21
11.6540972178
  0
LWPOLYLINE
  5
232
100
AcDbEntity
  8
RACCORDO
100
AcDbPolyline
 62
250
  6
CONTINUOUS
 90
22
 70
0
 10
-56.0965441807
 20
63.9459941751
 10
-56.3077887331
 20
61.468927892
 10
-56.5007080181
 20
59.0032291881
 10
-56.6752900881
 20
56.549050779
 10
-56.8315241294
 20
54.1065446976
 10
-56.9694004688
 20
51.6758621917
 10
-57.0889105723
 20
49.2571537165
 10
-57.1900470392
 20
46.850569013
 10
-57.2728036011
 20
44.4562572028
 10
-57.337175129
 20
42.0743666854
 10
-57.3831576365
 20
39.7050450402
 10
-57.4107482789
 20
37.3484389577
 10
-57.4199453486
 20
35.0046943352
 10
-57.4107482761
 20
32.6739563354
 10
-57.383157631
 20
30.3563693157
 10
-57.3371751207
 20
28.0520767585
 10
-57.2728035901
 20
25.761221331
 10
-57.1900470255
 20
23.4839449753
 10
-57.0889105558
 20
21.2203888372
 10
-56.969400449
 20
18.9706931608
 10
-56.8315241058
 20
16.734997234
 10
-56.6752900635
 20
14.5134394794
  0
LINE
  5
233
100
AcDbEntity
  8
RACCORDO
100
AcDbLine
 62
250
  6
CONTINUOUS
 10
-55.5267862602
 20
11.6540972178
 11
-55.5862219453
 21
10.9406617603
  0
LINE
  5
234
100
AcDbEntity
  8
RACCORDO
100
AcDbLine
 62
250
  6
CONTINUOUS
 10
-55.5862219453
 20
10.9406617603
 11
-55.6287020295
 21
10.4619079248
  0
LINE
  5
235
100
AcDbEntity
  8
RACCORDO
100
AcDbLine
 62
250
  6
CONTINUOUS
 10
-55.6287020295
 20
10.4619079248
 11
-55.6562737047
 21
10.1676336199
  0
LINE
  5
236
100
AcDbEntity
  8
RACCORDO
100
AcDbLine
 62
250
  6
CONTINUOUS
 10
-55.6562737047
 20
10.1676336199
 11
-55.6834807931
 21
9.8918794655
  0
LINE
  5
237
100
AcDbEntity
  8
RACCORDO
100
AcDbLine
 62
250
  6
CONTINUOUS
 10
-55.6834807931
 20
9.8918794655
 11
-55.71047472
 21
9.6337877634
  0
LWPOLYLINE
  5
238
100
AcDbEntity
  8
RACCORDO
100
AcDbPolyline
 62
250
  6
CONTINUOUS
 90
18
 70
0
 10
-55.71047472
 20
9.6337877634
 10
-55.7375192388
 20
9.3920237112
 10
-55.7511732553
 20
9.2770585018
 10
-55.7649433023
 20
9.1658384421
 10
-55.7788244949
 20
9.0584791817
 10
-55.7929335221
 20
8.955128141
 10
-55.8072289743
 20
8.8557957331
 10
-55.8217320109
 20
8.7604715863
 10
-55.8366445198
 20
8.6692877695
 10
-55.8518251712
 20
8.5823094523
 10
-55.8673816065
 20
8.4994880632
 10
-55.8838610689
 20
8.4208273147
 10
-55.90104565
 20
8.3458028686
 10
-55.9190629183
 20
8.2750208648
 10
-55.9389100484
 20
8.2102681761
 10
-55.9608241912
 20
8.1522350372
 10
-55.9843269367
 20
8.1004533633
 10
-56.0092794827
 20
8.0550322711
  0
LINE
  5
239
100
AcDbEntity
  8
RACCORDO
100
AcDbLine
 62
250
  6
CONTINUOUS
 10
-55.038892307
 20
17.792996151
 11
-55.1545815574
 21
17.0688820591
  0
LINE
  5
23A
100
AcDbEntity
  8
RACCORDO
100
AcDbLine
 62
250
  6
CONTINUOUS
 10
-54.9167881443
 20
18.5200646659
 11
-55.038892307
 21
17.792996151
  0
LINE
  5
23B
100
AcDbEntity
  8
RACCORDO
100
AcDbLine
 62
250
  6
CONTINUOUS
 10
-54.7882690693
 20
19.2500876038
 11
-54.9167881443
 21
18.5200646659
  0
LWPOLYLINE
  5
23C
100
AcDbEntity
  8
0
100
AcDbPolyline
 62
7
  6
CONTINUOUS
 90
8
 70
0
 10
62.0073338712
 20
-71.6400107986
 10
61.9933680244
 20
-71.6368381634
 10
61.9776528808
 20
-71.6319045882
 10
61.9613065783
 20
-71.6254709479
 10
61.9445738038
 20
-71.6176398477
 10
61.9275360847
 20
-71.6084455169
 10
61.9101117938
 20
-71.5978538048
 10
61.8923009062
 20
-71.585864731
  0
LINE
  5
23D
100
AcDbEntity
  8
RACCORDO
100
AcDbLine
 62
250
  6
CONTINUOUS
 10
-55.7944888785
 20
62.3834759061
 11
-55.7644401794
 21
62.0992027935
  0
LINE
  5
23E
100
AcDbEntity
  8
RACCORDO
100
AcDbLine
 62
250
  6
CONTINUOUS
 10
-55.7644401794
 20
62.0992027935
 11
-55.7352135197
 21
61.799728678
  0
LINE
  5
23F
100
AcDbEntity
  8
RACCORDO
100
AcDbLine
 62
250
  6
CONTINUOUS
 10
-55.7352135197
 20
61.799728678
 11
-55.7064073996
 21
61.4851902551
  0
LINE
  5
240
100
AcDbEntity
  8
RACCORDO
100
AcDbLine
 62
250
  6
CONTINUOUS
 10
-55.7064073996
 20
61.4851902551
 11
-55.6632242144
 21
60.9815953243
  0
LWPOLYLINE
  5
241
100
AcDbEntity
  8
RACCORDO
100
AcDbPolyline
 62
250
  6
CONTINUOUS
 90
4
 70
0
 10
-56.6752900635
 20
14.5134394794
 10
-56.5007079968
 20
12.3061574764
 10
-56.3077887197
 20
10.113287952
 10
-56.0965441807
 20
7.9349667246
  0
LINE
  5
242
100
AcDbEntity
  8
RACCORDO
100
AcDbLine
 62
250
  6
CONTINUOUS
 10
-55.6632242144
 20
60.9815953243
 11
-55.6043108906
 21
60.2444756457
  0
LINE
  5
243
100
AcDbEntity
  8
RACCORDO
100
AcDbLine
 62
250
  6
CONTINUOUS
 10
-55.6043108906
 20
60.2444756457
 11
-55.5264229895
 21
59.2077450142
  0
LINE
  5
244
100
AcDbEntity
  8
RACCORDO
100
AcDbLine
 62
250
  6
CONTINUOUS
 10
-55.5264229895
 20
59.2077450142
 11
-55.423238364
 21
57.7708018627
  0
LINE
  5
245
100
AcDbEntity
  8
RACCORDO
100
AcDbLine
 62
250
  6
CONTINUOUS
 10
-55.423238364
 20
57.7708018627
 11
-55.3266357044
 21
56.3844882824
  0
LINE
  5
246
100
AcDbEntity
  8
RACCORDO
100
AcDbLine
 62
250
  6
CONTINUOUS
 10
-55.3266357044
 20
56.3844882824
 11
-55.2424245995
 21
55.1338061385
  0
LWPOLYLINE
  5
247
100
AcDbEntity
  8
RACCORDO
100
AcDbPolyline
 62
250
  6
CONTINUOUS
 90
3
 70
0
 10
-55.2424245995
 20
55.1338061385
 10
-55.1762306965
 20
54.1045363453
 10
-55.1545815638
 20
53.7442151883
  0
LWPOLYLINE
  5
248
100
AcDbEntity
  8
RACCORDO
100
AcDbPolyline
 62
250
  6
CONTINUOUS
 90
19
 70
0
 10
-53.1262260798
 20
21.0723313008
 10
-53.1256879216
 20
21.0596250921
 10
-53.1240775579
 20
21.0462545245
 10
-53.1214072445
 20
21.0323213559
 10
-53.117697304
 20
21.0179316264
 10
-53.1129759714
 20
21.0031948503
 10
-53.1072791787
 20
20.9882231836
 10
-53.1006502821
 20
20.9731305696
 10
-53.0931397315
 20
20.9580318722
 10
-53.0848046866
 20
20.9430420017
 10
-53.0757085822
 20
20.92827504
 10
-53.0659206451
 20
20.9138433726
 10
-53.0555153676
 20
20.8998568332
 10
-53.0445719399
 20
20.8864218677
 10
-53.0331736482
 20
20.8736407244
 10
-53.0214072409
 20
20.8616106759
 10
-53.0093622676
 20
20.8504232782
 10
-52.9971303979
 20
20.8401636739
 10
-52.9848047236
 20
20.8309099446
  0
LWPOLYLINE
  5
249
100
AcDbEntity
  8
RACCORDO
100
AcDbPolyline
 62
7
  6
CONTINUOUS
 90
25
 70
0
 10
-52.894461949
 20
21.2362132893
 10
-52.8941484158
 20
21.2266771346
 10
-52.8932426252
 20
21.216839998
 10
-52.8917445773
 20
21.2067018794
 10
-52.8896428176
 20
21.1962169195
 10
-52.8869488006
 20
21.1854309778
 10
-52.8836968893
 20
21.1744816326
 10
-52.8798799372
 20
21.1633667907
 10
-52.8755050909
 20
21.1520885455
 10
-52.870628153
 20
21.1407907547
 10
-52.8652426919
 20
21.1294731681
 10
-52.8593551392
 20
21.118136036
 10
-52.8530405928
 20
21.1069239674
 10
-52.8462935829
 20
21.0958385645
 10
-52.8391195792
 20
21.0848782252
 10
-52.8316100886
 20
21.0741827524
 10
-52.8237608137
 20
21.063755539
 10
-52.8155760519
 20
21.0535931921
 10
-52.8071602028
 20
21.0438253361
 10
-52.7985103061
 20
21.0344570242
 10
-52.7896293221
 20
21.0254832031
 10
-52.7806305307
 20
21.017018337
 10
-52.771551692
 20
21.0091005807
 10
-52.7623550461
 20
21.0016917794
 10
-52.7530405928
 20
20.9947919331
  0
LINE
  5
24A
100
AcDbEntity
  8
RACCORDO
100
AcDbLine
 62
7
  6
CONTINUOUS
 10
-52.894461949
 20
51.9656674011
 11
-52.894461949
 21
21.2362132893
  0
LINE
  5
24B
100
AcDbEntity
  8
RACCORDO
100
AcDbLine
 62
250
  6
CONTINUOUS
 10
-53.3561034296
 20
17.6279688273
 11
-53.5341069535
 21
16.5176066562
  0
LWPOLYLINE
  5
24C
100
AcDbEntity
  8
RACCORDO
100
AcDbPolyline
 62
250
  6
CONTINUOUS
 90
4
 70
0
 10
-53.5341069535
 20
16.5176066562
 10
-53.5971651607
 20
16.1362380196
 10
-53.6595567802
 20
15.7695419788
 10
-53.7217280267
 20
15.4180684873
  0
LINE
  5
24D
100
AcDbEntity
  8
RACCORDO
100
AcDbLine
 62
250
  6
CONTINUOUS
 10
-53.23560131
 20
18.3454953813
 11
-53.3561034296
 21
17.6279688273
  0
LINE
  5
24E
100
AcDbEntity
  8
RACCORDO
100
AcDbLine
 62
250
  6
CONTINUOUS
 10
-53.1087194371
 20
19.0662347054
 11
-53.23560131
 21
18.3454953813
  0
LWPOLYLINE
  5
24F
100
AcDbEntity
  8
RACCORDO
100
AcDbPolyline
 62
250
  6
CONTINUOUS
 90
3
 70
0
 10
-53.7217280267
 20
15.4180684873
 10
-53.8443604881
 20
14.7566886243
 10
-53.9041427344
 20
14.4446319061
  0
LWPOLYLINE
  5
250
100
AcDbEntity
  8
RACCORDO
100
AcDbPolyline
 62
250
  6
CONTINUOUS
 90
3
 70
0
 10
-53.9041427344
 20
14.4446319061
 10
-54.0210103739
 20
13.8561554722
 10
-54.0777434286
 20
13.5780041682
  0
LINE
  5
251
100
AcDbEntity
  8
RACCORDO
100
AcDbLine
 62
250
  6
CONTINUOUS
 10
-54.0777434286
 20
13.5780041682
 11
-54.1881793703
 21
13.0524741887
  0
LINE
  5
252
100
AcDbEntity
  8
RACCORDO
100
AcDbLine
 62
250
  6
CONTINUOUS
 10
-54.1881793703
 20
13.0524741887
 11
-54.2942999391
 21
12.5640477519
  0
LINE
  5
253
100
AcDbEntity
  8
RACCORDO
100
AcDbLine
 62
250
  6
CONTINUOUS
 10
-54.2942999391
 20
12.5640477519
 11
-54.396246813
 21
12.1094654277
  0
LINE
  5
254
100
AcDbEntity
  8
RACCORDO
100
AcDbLine
 62
250
  6
CONTINUOUS
 10
-54.396246813
 20
12.1094654277
 11
-54.4943106156
 21
11.6865258527
  0
LINE
  5
255
100
AcDbEntity
  8
RACCORDO
100
AcDbLine
 62
250
  6
CONTINUOUS
 10
-54.4943106156
 20
11.6865258527
 11
-54.5886807766
 21
11.2923012073
  0
LINE
  5
256
100
AcDbEntity
  8
RACCORDO
100
AcDbLine
 62
250
  6
CONTINUOUS
 10
-54.5886807766
 20
11.2923012073
 11
-54.6797098861
 21
10.9243636565
  0
LWPOLYLINE
  5
257
100
AcDbEntity
  8
RACCORDO
100
AcDbPolyline
 62
250
  6
CONTINUOUS
 90
29
 70
0
 10
-54.6797098861
 20
10.9243636565
 10
-54.7677282339
 20
10.5812139829
 10
-54.8106926813
 20
10.4182340993
 10
-54.8530194425
 20
10.2609877452
 10
-54.8947345399
 20
10.1090841882
 10
-54.9358561885
 20
9.9625054317
 10
-54.97643868
 20
9.8212252666
 10
-55.0165552407
 20
9.6848447799
 10
-55.0562106411
 20
9.5533420063
 10
-55.0954613612
 20
9.4267009524
 10
-55.1344513088
 20
9.3045358963
 10
-55.1732055996
 20
9.1867781914
 10
-55.2117496671
 20
9.0734647245
 10
-55.2502223185
 20
8.9643715501
 10
-55.2886214198
 20
8.859318132
 10
-55.326991938
 20
8.7584577327
 10
-55.3655415644
 20
8.6620681344
 10
-55.4043469804
 20
8.5702325991
 10
-55.4433728911
 20
8.4828410697
 10
-55.4826587896
 20
8.3998813953
 10
-55.5217216759
 20
8.3209384031
 10
-55.561081386
 20
8.2464031075
 10
-55.602281159
 20
8.1774728875
 10
-55.6455655113
 20
8.114243643
 10
-55.690723727
 20
8.0565970325
 10
-55.7386168105
 20
8.0054085834
 10
-55.7895427675
 20
7.960962745
 10
-55.8432353542
 20
7.9229537411
 10
-55.8997090811
 20
7.8913717853
  0
LWPOLYLINE
  5
258
100
AcDbEntity
  8
RACCORDO
100
AcDbPolyline
 62
250
  6
CONTINUOUS
 90
4
 70
0
 10
-56.0542537286
 20
7.9940127157
 10
-56.0686594159
 20
7.974115689
 10
-56.0827588713
 20
7.9544348128
 10
-56.0965441807
 20
7.9349667253
  0
LWPOLYLINE
  5
259
100
AcDbEntity
  8
RACCORDO
100
AcDbPolyline
 62
250
  6
CONTINUOUS
 90
3
 70
0
 10
-56.0092794827
 20
8.0550322711
 10
-56.0245556743
 20
8.034467986
 10
-56.0542537286
 20
7.9940127157
  0
LWPOLYLINE
  5
25A
100
AcDbEntity
  8
RACCORDO
100
AcDbPolyline
 62
250
  6
CONTINUOUS
 90
32
 70
0
 10
-52.9848047236
 20
20.8309099446
 10
-53.0045089511
 20
20.8162032716
 10
-53.0239164133
 20
20.79968473
 10
-53.0430123967
 20
20.7813075019
 10
-53.0618398811
 20
20.7610480747
 10
-53.0803170214
 20
20.7388373728
 10
-53.0982373016
 20
20.7145644426
 10
-53.1155669932
 20
20.6881940187
 10
-53.1322803597
 20
20.6596838256
 10
-53.1481779188
 20
20.6289200574
 10
-53.1632189804
 20
20.5958759459
 10
-53.1773610663
 20
20.5605191798
 10
-53.1903963191
 20
20.5227350747
 10
-53.2022687144
 20
20.4825097718
 10
-53.2129245957
 20
20.4398225434
 10
-53.2221528673
 20
20.3945559143
 10
-53.2298735586
 20
20.3467136782
 10
-53.2360273354
 20
20.2962879792
 10
-53.2404245545
 20
20.2431505536
 10
-53.2429090273
 20
20.186744082
 10
-53.2434473154
 20
20.1276476712
 10
-53.2420846222
 20
20.067489239
 10
-53.2385914255
 20
20.0058535663
 10
-53.2331197784
 20
19.9432922598
 10
-53.2264708637
 20
19.8829703423
 10
-53.2188767191
 20
19.8261742355
 10
-53.2103337365
 20
19.7717995129
 10
-53.2013789162
 20
19.7194388826
 10
-53.1921217309
 20
19.6691369248
 10
-53.182587375
 20
19.6209304275
 10
-53.1731228018
 20
19.5743810061
 10
-53.163763255
 20
19.5294519553
  0
LINE
  5
25B
100
AcDbEntity
  8
RACCORDO
100
AcDbLine
 62
250
  6
CONTINUOUS
 10
-52.7530405928
 20
20.9947919331
 11
-52.9848047236
 21
20.8309099446
  0
LINE
  5
25C
100
AcDbEntity
  8
RACCORDO
100
AcDbLine
 62
250
  6
CONTINUOUS
 10
-52.894461949
 20
21.2362132893
 11
-53.136095397
 21
21.0653894828
  0
LWPOLYLINE
  5
25D
100
AcDbEntity
  8
RACCORDO
100
AcDbPolyline
 62
250
  6
CONTINUOUS
 90
86
 70
0
 10
-53.5530466688
 20
20.7899856433
 10
-53.571311941
 20
20.7773000389
 10
-53.5899734031
 20
20.764210516
 10
-53.6090319568
 20
20.7507138959
 10
-53.6285236227
 20
20.7367389425
 10
-53.6484492214
 20
20.7222881457
 10
-53.6688079325
 20
20.7073590156
 10
-53.6896333153
 20
20.6918728474
 10
-53.7109220187
 20
20.6758361199
 10
-53.7326773939
 20
20.6592423542
 10
-53.7549430537
 20
20.641993409
 10
-53.7777517564
 20
20.6240664747
 10
-53.8010707437
 20
20.6054843608
 10
-53.8248453533
 20
20.5862173542
 10
-53.8491552019
 20
20.5661942356
 10
-53.8739206727
 20
20.5454862244
 10
-53.8988482539
 20
20.5242772649
 10
-53.9239434155
 20
20.5025472009
 10
-53.9492006873
 20
20.4803161888
 10
-53.9743101466
 20
20.4578286418
 10
-53.9992521696
 20
20.4350857268
 10
-54.0240463801
 20
20.4120862771
 10
-54.0484417265
 20
20.3890712053
 10
-54.0723662296
 20
20.3661001088
 10
-54.0958918686
 20
20.3431133902
 10
-54.1189835296
 20
20.3201731706
 10
-54.1416216452
 20
20.2972989875
 10
-54.1638257827
 20
20.2744713034
 10
-54.1856195309
 20
20.2516936268
 10
-54.2070217528
 20
20.2289460342
 10
-54.2280135853
 20
20.2062484491
 10
-54.2485620284
 20
20.1836641501
 10
-54.2686558657
 20
20.1612045634
 10
-54.2883063136
 20
20.1388582627
 10
-54.3075140209
 20
20.1166542476
 10
-54.3262795879
 20
20.0945917426
 10
-54.3446024143
 20
20.0726715232
 10
-54.3624813485
 20
20.0509249151
 10
-54.3799160282
 20
20.0293519687
 10
-54.3969068156
 20
20.0079526336
 10
-54.4134536453
 20
19.986758084
 10
-54.4295532113
 20
19.9657723434
 10
-54.4452088196
 20
19.9449913882
 10
-54.4604303226
 20
19.9244343218
 10
-54.4752144665
 20
19.904105982
 10
-54.489564505
 20
19.884001531
 10
-54.5035000513
 20
19.8641255588
 10
-54.5170208629
 20
19.8444792032
 10
-54.5301271824
 20
19.8250613263
 10
-54.5428393508
 20
19.805873105
 10
-54.555158029
 20
19.7869141745
 10
-54.5670825562
 20
19.7681848995
 10
-54.5786312916
 20
19.7496875507
 10
-54.5898017657
 20
19.7314271367
 10
-54.600596448
 20
19.713398649
 10
-54.6110411073
 20
19.6955893325
 10
-54.6211359106
 20
19.6780006167
 10
-54.6308806909
 20
19.6606310721
 10
-54.6403007149
 20
19.6434636551
 10
-54.64939891
 20
19.6264942872
 10
-54.6581723489
 20
19.6097270469
 10
-54.6666375171
 20
19.5931571258
 10
-54.6747949468
 20
19.5767841028
 10
-54.6826441057
 20
19.5606083991
 10
-54.6901998821
 20
19.5446264689
 10
-54.6974623603
 20
19.528838736
 10
-54.704431456
 20
19.5132447767
 10
-54.7111218039
 20
19.4978397753
 10
-54.7175334356
 20
19.4826244715
 10
-54.7236663196
 20
19.4675981255
 10
-54.7295349952
 20
19.4527537027
 10
-54.7351397892
 20
19.4380914268
 10
-54.740480375
 20
19.423611074
 10
-54.7455703122
 20
19.4093049377
 10
-54.7504099793
 20
19.3951732276
 10
-54.7549989977
 20
19.381215734
 10
-54.7593497925
 20
19.367424121
 10
-54.7634622158
 20
19.3538011924
 10
-54.7673364154
 20
19.3403441443
 10
-54.7709852593
 20
19.3270362293
 10
-54.7744094268
 20
19.3138792513
 10
-54.7776082387
 20
19.3008714064
 10
-54.7805925259
 20
19.2879905351
 10
-54.7833658985
 20
19.275229251
 10
-54.7859247463
 20
19.2625949406
 10
-54.7882690693
 20
19.2500876038
  0
LINE
  5
25E
100
AcDbEntity
  8
RACCORDO
100
AcDbLine
 62
250
  6
CONTINUOUS
 10
-53.136095397
 20
21.0653894828
 11
-53.1563446027
 21
21.0513390102
  0
LINE
  5
25F
100
AcDbEntity
  8
RACCORDO
100
AcDbLine
 62
250
  6
CONTINUOUS
 10
-53.5176740822
 20
20.8141972601
 11
-53.5530466688
 21
20.7899856433
  0
LINE
  5
260
100
AcDbEntity
  8
RACCORDO
100
AcDbLine
 62
250
  6
CONTINUOUS
 10
-53.1563446027
 20
21.0513390102
 11
-53.177261991
 21
21.0370787405
  0
LINE
  5
261
100
AcDbEntity
  8
RACCORDO
100
AcDbLine
 62
250
  6
CONTINUOUS
 10
-53.4837534098
 20
20.8370335681
 11
-53.5176740822
 21
20.8141972601
  0
LINE
  5
262
100
AcDbEntity
  8
RACCORDO
100
AcDbLine
 62
250
  6
CONTINUOUS
 10
-53.177261991
 20
21.0370787405
 11
-53.1989164492
 21
21.0225399295
  0
LINE
  5
263
100
AcDbEntity
  8
RACCORDO
100
AcDbLine
 62
250
  6
CONTINUOUS
 10
-53.4512015686
 20
20.8586472553
 11
-53.4837534098
 21
20.8370335681
  0
LINE
  5
264
100
AcDbEntity
  8
RACCORDO
100
AcDbLine
 62
250
  6
CONTINUOUS
 10
-53.1989164492
 20
21.0225399295
 11
-53.2213466121
 21
21.0076821061
  0
LINE
  5
265
100
AcDbEntity
  8
RACCORDO
100
AcDbLine
 62
250
  6
CONTINUOUS
 10
-53.4048052929
 20
20.8890129759
 11
-53.4512015686
 21
20.8586472553
  0
LINE
  5
266
100
AcDbEntity
  8
RACCORDO
100
AcDbLine
 62
250
  6
CONTINUOUS
 10
-53.2213466121
 20
21.0076821061
 11
-53.2565778127
 21
20.9846532518
  0
LINE
  5
267
100
AcDbEntity
  8
RACCORDO
100
AcDbLine
 62
250
  6
CONTINUOUS
 10
-53.2565778127
 20
20.9846532518
 11
-53.4048052929
 21
20.8890129759
  0
LWPOLYLINE
  5
268
100
AcDbEntity
  8
RACCORDO
100
AcDbPolyline
 62
250
  6
CONTINUOUS
 90
14
 70
0
 10
-53.163763255
 20
19.5294519553
 10
-53.1458048478
 20
19.4444268422
 10
-53.1375165422
 20
19.4039860755
 10
-53.1297300051
 20
19.3650074939
 10
-53.1227878912
 20
19.3275000498
 10
-53.1167192571
 20
19.2913968488
 10
-53.1115173379
 20
19.2567897553
 10
-53.1074633989
 20
19.2239255834
 10
-53.1046695811
 20
19.1928126939
 10
-53.10305401
 20
19.1634589274
 10
-53.1026221386
 20
19.136102886
 10
-53.1034006153
 20
19.1108209492
 10
-53.1054234774
 20
19.0875327663
 10
-53.1087194371
 20
19.0662347054
  0
LWPOLYLINE
  5
269
100
AcDbEntity
  8
RACCORDO
100
AcDbPolyline
 62
250
  6
CONTINUOUS
 90
7
 70
0
 10
-55.1545815574
 20
53.7442151576
 10
-55.0975389624
 20
53.4631988156
 10
-55.0388925729
 20
53.1837115801
 10
-54.9786423888
 20
52.9057534509
 10
-54.9167884102
 20
52.6293244281
 10
-54.853330637
 20
52.3544245116
 10
-54.7882690693
 20
52.0810537016
  0
LWPOLYLINE
  5
26A
100
AcDbEntity
  8
RACCORDO
100
AcDbPolyline
 62
250
  6
CONTINUOUS
 90
7
 70
0
 10
-53.5372008013
 20
54.210055689
 10
-53.4139580208
 20
53.6042787704
 10
-53.356103867
 20
53.3285626002
 10
-53.29665122
 20
53.0542846413
 10
-53.2356017713
 20
52.7814517565
 10
-53.1729572528
 20
52.5100707702
 10
-53.1087194371
 20
52.2401484684
  0
LWPOLYLINE
  5
26B
100
AcDbEntity
  8
RACCORDO
100
AcDbPolyline
 62
250
  6
CONTINUOUS
 90
25
 70
0
 10
-55.1545815638
 20
17.0688820193
 10
-55.098097832
 20
17.096691915
 10
-55.0382224206
 20
17.121813397
 10
-54.9752117303
 20
17.1441388918
 10
-54.9093355834
 20
17.1635728005
 10
-54.8408760801
 20
17.1800319036
 10
-54.7701263923
 20
17.1934457202
 10
-54.6973894873
 20
17.2037568135
 10
-54.6229768396
 20
17.2109210334
 10
-54.5472071115
 20
17.2149077052
 10
-54.4704047658
 20
17.2156997628
 10
-54.3928986839
 20
17.2132938198
 10
-54.3150207695
 20
17.2077001855
 10
-54.2371045104
 20
17.1989428194
 10
-54.1594835545
 20
17.1870592284
 10
-54.0824902907
 20
17.1721003072
 10
-54.0064544145
 20
17.1541301194
 10
-53.9317015183
 20
17.1332256223
 10
-53.8585517017
 20
17.1094763387
 10
-53.7873181982
 20
17.0829839729
 10
-53.7183060323
 20
17.0538619742
 10
-53.6518107144
 20
17.0222350513
 10
-53.5881169779
 20
16.9882386391
 10
-53.5274975596
 20
16.952018319
 10
-53.4702120304
 20
16.9137291945
  0
LWPOLYLINE
  5
26C
100
AcDbEntity
  8
RACCORDO
100
AcDbPolyline
 62
250
  6
CONTINUOUS
 90
28
 70
0
 10
-54.7882690693
 20
19.2500876037
 10
-54.738550205
 20
19.2731235179
 10
-54.6861205184
 20
19.2940875049
 10
-54.6311570164
 20
19.3129078659
 10
-54.573842653
 20
19.3295301618
 10
-54.514373599
 20
19.3438876201
 10
-54.4529588961
 20
19.355901765
 10
-54.3898086778
 20
19.3655234217
 10
-54.325134279
 20
19.3727285791
 10
-54.2591556544
 20
19.3774890562
 10
-54.1920963039
 20
19.3797883039
 10
-54.1241828925
 20
19.3796191055
 10
-54.0556456228
 20
19.3769798125
 10
-53.9867164899
 20
19.371878922
 10
-53.9176286392
 20
19.3643342557
 10
-53.8486159832
 20
19.3543706176
 10
-53.7799121232
 20
19.342021313
 10
-53.7117494493
 20
19.3273286454
 10
-53.6443584944
 20
19.3103429878
 10
-53.57796736
 20
19.2911214626
 10
-53.5128006281
 20
19.2697295438
 10
-53.4490784905
 20
19.2462414484
 10
-53.3870166172
 20
19.2207363996
 10
-53.3268249572
 20
19.1933010342
 10
-53.268706711
 20
19.1640309061
 10
-53.2128583732
 20
19.1330260075
 10
-53.1594690674
 20
19.1003904344
 10
-53.1087194371
 20
19.0662347054
  0
LWPOLYLINE
  5
26D
100
AcDbEntity
  8
RACCORDO
100
AcDbPolyline
 62
250
  6
CONTINUOUS
 90
10
 70
0
 10
-56.0092794841
 20
8.0550322697
 10
-55.9960297923
 20
8.0377889639
 10
-55.9830388427
 20
8.0202960751
 10
-55.9703111018
 20
8.0025596235
 10
-55.9578510043
 20
7.9845857732
 10
-55.9456627726
 20
7.9663806514
 10
-55.933750425
 20
7.947950338
 10
-55.9221180096
 20
7.9293011057
 10
-55.910769592
 20
7.9104394264
 10
-55.8997090826
 20
7.8913717843
  0
LWPOLYLINE
  5
26E
100
AcDbEntity
  8
RACCORDO
100
AcDbPolyline
 62
250
  6
CONTINUOUS
 90
7
 70
0
 10
-56.0965441808
 20
63.9459941737
 10
-56.082747856
 20
63.8985068879
 10
-56.0686413834
 20
63.85134201
 10
-56.0542329934
 20
63.8045031987
 10
-56.0395309754
 20
63.7579939897
 10
-56.0245436736
 20
63.7118177952
 10
-56.0092794827
 20
63.6659779032
  0
LWPOLYLINE
  5
26F
100
AcDbEntity
  8
RACCORDO
100
AcDbPolyline
 62
250
  6
CONTINUOUS
 90
12
 70
0
 10
-56.0092794827
 20
63.6659779032
 10
-55.9825100671
 20
63.5703767025
 10
-55.9573402847
 20
63.4704653067
 10
-55.9339368836
 20
63.3661454492
 10
-55.9128679951
 20
63.25697731
 10
-55.8938530523
 20
63.1431943711
 10
-55.8757065202
 20
63.0257686919
 10
-55.8582431399
 20
62.9051123076
 10
-55.8417455946
 20
62.7807491801
 10
-55.8256496585
 20
62.6524051414
 10
-55.8098486975
 20
62.5199361785
 10
-55.7944888785
 20
62.3834759061
  0
LWPOLYLINE
  5
270
100
AcDbEntity
  8
RACCORDO
100
AcDbPolyline
 62
250
  6
CONTINUOUS
 90
82
 70
0
 10
-54.7882690693
 20
52.0810537016
 10
-54.7859241647
 20
52.0718611569
 10
-54.7833651934
 20
52.0628458825
 10
-54.7805921553
 20
52.0540078782
 10
-54.7776086017
 20
52.0453494717
 10
-54.7744109813
 20
52.0368683355
 10
-54.770988641
 20
52.0285574868
 10
-54.7673421884
 20
52.0204141011
 10
-54.763471016
 20
52.0124410031
 10
-54.7593626473
 20
52.0046396841
 10
-54.7550173249
 20
51.9970080846
 10
-54.7504348064
 20
51.9895482641
 10
-54.7456018877
 20
51.9822678931
 10
-54.7405191687
 20
51.975166099
 10
-54.7351860495
 20
51.9682437544
 10
-54.7295875264
 20
51.9615111478
 10
-54.7237237312
 20
51.9549670997
 10
-54.717594532
 20
51.9486127897
 10
-54.7111845293
 20
51.942462044
 10
-54.7044930926
 20
51.9365136159
 10
-54.6975208524
 20
51.9307687521
 10
-54.6902543005
 20
51.9252450199
 10
-54.6826933063
 20
51.919942095
 10
-54.6748380006
 20
51.9148603016
 10
-54.6666752666
 20
51.9100181786
 10
-54.658206198
 20
51.9054158754
 10
-54.6494297011
 20
51.9010532427
 10
-54.6403293792
 20
51.896948371
 10
-54.6309085552
 20
51.893101255
 10
-54.6211639061
 20
51.8895119001
 10
-54.6110690653
 20
51.8861984132
 10
-54.6006237893
 20
51.8831589179
 10
-54.5898283216
 20
51.8803952905
 10
-54.5786570255
 20
51.8779312669
 10
-54.5671074361
 20
51.8757653487
 10
-54.5551820184
 20
51.8738990343
 10
-54.5428625297
 20
51.8723605546
 10
-54.5301498688
 20
51.8711493391
 10
-54.5170431369
 20
51.8702659583
 10
-54.5035213959
 20
51.8697403554
 10
-54.4895840874
 20
51.8695717159
 10
-54.4752317697
 20
51.8697608544
 10
-54.4604451791
 20
51.8703401572
 10
-54.4452210766
 20
51.8713094205
 10
-54.4295627012
 20
51.8726688481
 10
-54.413460507
 20
51.874451438
 10
-54.3969114338
 20
51.8766578062
 10
-54.3799185417
 20
51.8792873367
 10
-54.3624814655
 20
51.8823711797
 10
-54.3445999327
 20
51.885909734
 10
-54.3262742157
 20
51.8899026008
 10
-54.3075047663
 20
51.8943797328
 10
-54.2882912429
 20
51.8993413458
 10
-54.268633987
 20
51.904787224
 10
-54.2485344748
 20
51.9107466734
 10
-54.2279843685
 20
51.9172230958
 10
-54.2069920059
 20
51.9242130892
 10
-54.1855838759
 20
51.9317357544
 10
-54.1637713235
 20
51.9397873718
 10
-54.1415430038
 20
51.9483716609
 10
-54.1188913709
 20
51.9575188807
 10
-54.0958045719
 20
51.9672342809
 10
-54.0722944597
 20
51.9775126119
 10
-54.0483890462
 20
51.9883683829
 10
-54.0240131143
 20
51.9998451115
 10
-53.9992418812
 20
52.0118992802
 10
-53.97432901
 20
52.0244148466
 10
-53.9492602008
 20
52.0374153231
 10
-53.9240497536
 20
52.0508771972
 10
-53.8989942312
 20
52.0646138893
 10
-53.8740959094
 20
52.0786391216
 10
-53.8493525125
 20
52.0929391719
 10
-53.8250537756
 20
52.1072862938
 10
-53.8012735252
 20
52.121642881
 10
-53.7779379349
 20
52.1360465399
 10
-53.7551152603
 20
52.1503823431
 10
-53.73284408
 20
52.1646233354
 10
-53.7110858155
 20
52.178796472
 10
-53.6897929871
 20
52.1928676914
 10
-53.6689603275
 20
52.2068364829
 10
-53.648593104
 20
52.2207033571
 10
-53.628659639
 20
52.2344357847
  0
LINE
  5
271
100
AcDbEntity
  8
RACCORDO
100
AcDbLine
 62
250
  6
CONTINUOUS
 10
-55.1642988933
 20
61.5270177514
 11
-55.0814266142
 21
61.1966770454
  0
LINE
  5
272
100
AcDbEntity
  8
RACCORDO
100
AcDbLine
 62
250
  6
CONTINUOUS
 10
-55.0814266142
 20
61.1966770454
 11
-54.9971348096
 21
60.8507669217
  0
LINE
  5
273
100
AcDbEntity
  8
RACCORDO
100
AcDbLine
 62
250
  6
CONTINUOUS
 10
-54.9971348096
 20
60.8507669217
 11
-54.9108669613
 21
60.4879641924
  0
LINE
  5
274
100
AcDbEntity
  8
RACCORDO
100
AcDbLine
 62
250
  6
CONTINUOUS
 10
-54.9108669613
 20
60.4879641924
 11
-54.7768426189
 21
59.9106794213
  0
LINE
  5
275
100
AcDbEntity
  8
RACCORDO
100
AcDbLine
 62
250
  6
CONTINUOUS
 10
-54.7768426189
 20
59.9106794213
 11
-54.5877159128
 21
59.0759100676
  0
LWPOLYLINE
  5
276
100
AcDbEntity
  8
RACCORDO
100
AcDbPolyline
 62
250
  6
CONTINUOUS
 90
18
 70
0
 10
-53.1087194371
 20
52.2401484684
 10
-53.1054553166
 20
52.2254557689
 10
-53.1034361237
 20
52.2119891156
 10
-53.1026343369
 20
52.1997840453
 10
-53.10301661
 20
52.1888426397
 10
-53.1045582128
 20
52.1792413238
 10
-53.1072559473
 20
52.171117753
 10
-53.1111880577
 20
52.1645869576
 10
-53.1162466202
 20
52.1595912812
 10
-53.1221638278
 20
52.1559957812
 10
-53.1289497913
 20
52.1538618946
 10
-53.1365730288
 20
52.1531824133
 10
-53.1446974123
 20
52.1537283609
 10
-53.1532908931
 20
52.1555385518
 10
-53.162348065
 20
52.1586557182
 10
-53.1715475762
 20
52.1628912587
 10
-53.1808538379
 20
52.168312465
 10
-53.1852683525
 20
52.171298581
  0
LINE
  5
277
100
AcDbEntity
  8
RACCORDO
100
AcDbLine
 62
250
  6
CONTINUOUS
 10
-54.5877159128
 20
59.0759100676
 11
-54.3841500043
 21
58.1601134987
  0
LINE
  5
278
100
AcDbEntity
  8
RACCORDO
100
AcDbLine
 62
250
  6
CONTINUOUS
 10
-54.3841500043
 20
58.1601134987
 11
-54.1054261033
 21
56.8889814837
  0
LINE
  5
279
100
AcDbEntity
  8
RACCORDO
100
AcDbLine
 62
250
  6
CONTINUOUS
 10
-54.1054261033
 20
56.8889814837
 11
-53.8619252039
 21
55.7618174496
  0
LINE
  5
27A
100
AcDbEntity
  8
RACCORDO
100
AcDbLine
 62
250
  6
CONTINUOUS
 10
-53.8619252039
 20
55.7618174496
 11
-53.6685743328
 21
54.8495567591
  0
LINE
  5
27B
100
AcDbEntity
  8
RACCORDO
100
AcDbLine
 62
250
  6
CONTINUOUS
 10
-53.6685743328
 20
54.8495567591
 11
-53.5372008013
 21
54.210055689
  0
LWPOLYLINE
  5
27C
100
AcDbEntity
  8
0
100
AcDbPolyline
 62
7
  6
CONTINUOUS
 90
14
 70
0
 10
61.7858873102
 20
-71.6610938827
 10
61.803542458
 20
-71.6730023446
 10
61.821011657
 20
-71.6836207782
 10
61.8381991531
 20
-71.6928896086
 10
61.8550172857
 20
-71.7007630157
 10
61.8713642474
 20
-71.7071887223
 10
61.8871271903
 20
-71.7121176216
 10
61.9021764574
 20
-71.7155238375
 10
61.9164756634
 20
-71.7174128846
 10
61.9300459184
 20
-71.7177721481
 10
61.9428133738
 20
-71.7165737897
 10
61.9546693916
 20
-71.7137996371
 10
61.9655651075
 20
-71.7094210446
 10
61.9745125505
 20
-71.7040739583
  0
LINE
  5
27D
100
AcDbEntity
  8
RACCORDO
100
AcDbLine
 62
250
  6
CONTINUOUS
 10
-69.9401760774
 20
17.5288672872
 11
-69.9401118949
 21
17.5288218907
  0
LINE
  5
27E
100
AcDbEntity
  8
ASSI
100
AcDbLine
 62
7
  6
CONTINUOUS
 10
-69.9401118949
 20
17.5288218907
 11
65.8139503227
 21
-78.463796077
  0
LINE
  5
27F
100
AcDbEntity
  8
RACCORDO
100
AcDbLine
 62
250
  6
CONTINUOUS
 10
-70.0920385631
 20
17.8312757084
 11
-56.0965441799
 21
7.9349667241
  0
LINE
  5
280
100
AcDbEntity
  8
RACCORDO
100
AcDbLine
 62
250
  6
CONTINUOUS
 10
51.6665292714
 20
-68.2650332749
 11
65.6620236545
 21
-78.1613422592
  0
LINE
  5
281
100
AcDbEntity
  8
RACCORDO
100
AcDbLine
 62
250
  6
CONTINUOUS
 10
-55.8997090811
 20
7.8913717853
 11
51.4626304907
 21
-68.02526657
  0
LINE
  5
282
100
AcDbEntity
  8
0
100
AcDbLine
 62
7
  6
CONTINUOUS
 10
59.0743122707
 20
-70.7452521192
 11
59.4703065048
 21
-71.0252579612
  0
LINE
  5
283
100
AcDbEntity
  8
0
100
AcDbLine
 62
7
  6
CONTINUOUS
 10
57.6439441468
 20
-69.7338291192
 11
58.0399284814
 21
-70.0138279612
  0
LINE
  5
284
100
AcDbEntity
  8
0
100
AcDbLine
 62
7
  6
CONTINUOUS
 10
56.0815815198
 20
-68.6290762772
 11
56.4775757539
 21
-68.9090821192
  0
LINE
  5
285
100
AcDbEntity
  8
0
100
AcDbLine
 62
7
  6
CONTINUOUS
 10
54.7858712757
 20
-67.7128707772
 11
55.1818803591
 21
-67.9928871192
  0
LINE
  5
286
100
AcDbEntity
  8
0
100
AcDbLine
 62
7
  6
CONTINUOUS
 10
62.1442293837
 20
-72.9160069612
 11
62.5902556652
 21
-73.2313908032
  0
LINE
  5
287
100
AcDbEntity
  8
0
100
AcDbLine
 62
7
  6
CONTINUOUS
 10
56.8735605011
 20
-69.1890856192
 11
57.2695551478
 21
-69.4690961192
  0
LINE
  5
288
100
AcDbEntity
  8
0
100
AcDbLine
 62
7
  6
CONTINUOUS
 10
58.4143228428
 20
-70.2785691192
 11
58.8103174895
 21
-70.5585796192
  0
LINE
  5
289
100
AcDbEntity
  8
0
100
AcDbLine
 62
7
  6
CONTINUOUS
 10
61.0057330187
 20
-72.1109684612
 11
61.4017326152
 21
-72.3909824612
  0
LINE
  5
28A
100
AcDbEntity
  8
0
100
AcDbLine
 62
7
  6
CONTINUOUS
 10
60.3457386411
 20
-71.6442819612
 11
60.7417386501
 21
-71.9243006192
  0
LINE
  5
28B
100
AcDbEntity
  8
0
100
AcDbLine
 62
7
  6
CONTINUOUS
 10
59.5631240437
 20
-70.7470482157
 11
60.1885295861
 21
-71.1892767157
  0
LINE
  5
28C
100
AcDbEntity
  8
0
100
AcDbLine
 62
7
  6
CONTINUOUS
 10
59.6532940834
 20
-70.4779137124
 11
60.0371173011
 21
-70.7493177124
  0
LINE
  5
28D
100
AcDbEntity
  8
0
100
AcDbLine
 62
7
  6
CONTINUOUS
 10
61.3389598825
 20
-71.6698550452
 11
61.6845763992
 21
-71.9142472124
  0
LINE
  5
28E
100
AcDbEntity
  8
0
100
AcDbLine
 62
7
  6
CONTINUOUS
 10
59.7597054746
 20
-70.402669496
 11
59.968939283
 21
-70.5506201407
  0
LINE
  5
28F
100
AcDbEntity
  8
0
100
AcDbLine
 62
7
  6
CONTINUOUS
 10
61.3041050546
 20
-71.3204209685
 11
61.7858874226
 21
-71.661092389
  0
LINE
  5
290
100
AcDbEntity
  8
0
100
AcDbLine
 62
7
  6
CONTINUOUS
 10
61.4105058959
 20
-71.2451842121
 11
61.8922881515
 21
-71.5858557121
  0
LINE
  5
291
100
AcDbEntity
  8
0
100
AcDbLine
 62
7
  6
CONTINUOUS
 10
61.2661870365
 20
-70.8654077381
 11
61.7479742419
 21
-71.2060827381
  0
LINE
  5
292
100
AcDbEntity
  8
0
100
AcDbLine
 62
7
  6
CONTINUOUS
 10
53.9917885017
 20
-65.395355059
 11
54.3877880982
 21
-65.675369059
  0
LINE
  5
293
100
AcDbEntity
  8
0
100
AcDbLine
 62
7
  6
CONTINUOUS
 10
55.2632152847
 20
-66.294389559
 11
55.6592148811
 21
-66.574403559
  0
LINE
  5
294
100
AcDbEntity
  8
0
100
AcDbLine
 62
7
  6
CONTINUOUS
 10
55.9232096624
 20
-66.761076059
 11
56.3192043091
 21
-67.041086559
  0
LINE
  5
295
100
AcDbEntity
  8
0
100
AcDbLine
 62
7
  6
CONTINUOUS
 10
56.7151841065
 20
-67.321086559
 11
57.3138214146
 21
-67.744387059
  0
LINE
  5
296
100
AcDbEntity
  8
0
100
AcDbLine
 62
7
  6
CONTINUOUS
 10
58.0533037869
 20
-68.267280059
 11
58.6519410949
 21
-68.690580559
  0
LINE
  5
297
100
AcDbEntity
  8
0
100
AcDbLine
 62
7
  6
CONTINUOUS
 10
59.551636514
 20
-69.3267568774
 11
59.9476509597
 21
-69.6067813774
  0
LINE
  5
298
100
AcDbEntity
  8
0
100
AcDbLine
 62
7
  6
CONTINUOUS
 10
60.8473566575
 20
-70.2429693774
 11
61.7746422128
 21
-70.8986594732
  0
LINE
  5
299
100
AcDbEntity
  8
0
100
AcDbLine
 62
7
  6
CONTINUOUS
 10
54.0981655532
 20
-65.3201351246
 11
54.4941651496
 21
-65.6001491246
  0
LINE
  5
29A
100
AcDbEntity
  8
0
100
AcDbLine
 62
7
  6
CONTINUOUS
 10
55.3695923361
 20
-66.2191696246
 11
55.7655919326
 21
-66.4991836246
  0
LINE
  5
29B
100
AcDbEntity
  8
0
100
AcDbLine
 62
7
  6
CONTINUOUS
 10
56.0295867138
 20
-66.6858561246
 11
56.4255813605
 21
-66.9658666246
  0
LINE
  5
29C
100
AcDbEntity
  8
0
100
AcDbLine
 62
7
  6
CONTINUOUS
 10
56.821561158
 20
-67.2458666246
 11
57.420198466
 21
-67.6691671246
  0
LINE
  5
29D
100
AcDbEntity
  8
0
100
AcDbLine
 62
7
  6
CONTINUOUS
 10
58.1596808383
 20
-68.1920601246
 11
58.7583181464
 21
-68.6153606246
  0
LINE
  5
29E
100
AcDbEntity
  8
0
100
AcDbLine
 62
7
  6
CONTINUOUS
 10
59.6580135653
 20
-69.2515369431
 11
60.054028011
 21
-69.5315614431
  0
LINE
  5
29F
100
AcDbEntity
  8
0
100
AcDbLine
 62
7
  6
CONTINUOUS
 10
60.9537337088
 20
-70.1677494431
 11
61.8810193995
 21
-70.8234394431
  0
LWPOLYLINE
  5
2A0
100
AcDbEntity
  8
0
100
AcDbPolyline
 62
7
  6
CONTINUOUS
 90
40
 70
0
 10
61.7746423482
 20
-70.8986576101
 10
61.8090931094
 20
-70.9238834835
 10
61.8435729983
 20
-70.9508659892
 10
61.8779722973
 20
-70.9795169419
 10
61.9121832299
 20
-71.0097402798
 10
61.9460970509
 20
-71.0414391679
 10
61.9796042544
 20
-71.0745167468
 10
62.012592663
 20
-71.1088546452
 10
62.0449681743
 20
-71.1443497457
 10
62.0766493676
 20
-71.1809252048
 10
62.1075194175
 20
-71.2184411976
 10
62.1374998701
 20
-71.2567978771
 10
62.1665600214
 20
-71.2959824726
 10
62.194605046
 20
-71.3358799174
 10
62.2215300613
 20
-71.3763547653
 10
62.2472757272
 20
-71.4173659497
 10
62.2718042895
 20
-71.4588861603
 10
62.2949429543
 20
-71.5006672156
 10
62.3164546407
 20
-71.5423307509
 10
62.3362740692
 20
-71.583714968
 10
62.3543499917
 20
-71.6246895836
 10
62.3705321981
 20
-71.6649303215
 10
62.3847594507
 20
-71.7041667333
 10
62.3970853934
 20
-71.7424181472
 10
62.4075381424
 20
-71.7797971755
 10
62.4160919471
 20
-71.8161770891
 10
62.4227276598
 20
-71.8514326204
 10
62.4274270402
 20
-71.8856501563
 10
62.4301565773
 20
-71.9188054013
 10
62.4308610011
 20
-71.9506303622
 10
62.4294977117
 20
-71.9808513241
 10
62.4260772221
 20
-72.0093627087
 10
62.4206187762
 20
-72.0360534215
 10
62.4131696369
 20
-72.0607069682
 10
62.4038223332
 20
-72.0832081336
 10
62.3926305554
 20
-72.1035782563
 10
62.379612094
 20
-72.121837001
 10
62.3648336511
 20
-72.1379387511
 10
62.3483662367
 20
-72.1518466604
 10
62.3453760546
 20
-72.1540104837
  0
LWPOLYLINE
  5
2A1
100
AcDbEntity
  8
RACCORDO
100
AcDbPolyline
 62
250
  6
CONTINUOUS
 90
10
 70
0
 10
65.8139321717
 20
-78.4637832413
 10
65.7919846083
 20
-78.4466839061
 10
65.7661280103
 20
-78.4217769944
 10
65.7428780264
 20
-78.3935696755
 10
65.7223164827
 20
-78.362161222
 10
65.7045157432
 20
-78.3276621727
 10
65.6895384558
 20
-78.2901939434
 10
65.6774373315
 20
-78.2498883995
 10
65.668254959
 20
-78.2068873923
 10
65.6620236545
 20
-78.1613422592
  0
LINE
  5
2A2
100
AcDbEntity
  8
RACCORDO
100
AcDbLine
 62
250
  6
CONTINUOUS
 10
-53.1087194371
 20
19.0662347054
 11
50.3098426271
 21
-54.0617318307
  0
LINE
  5
2A3
100
AcDbEntity
  8
RACCORDO
100
AcDbLine
 62
250
  6
CONTINUOUS
 10
-52.9848047236
 20
20.8309099446
 11
50.2238643426
 21
-52.1486398294
  0
LWPOLYLINE
  5
2A4
100
AcDbEntity
  8
RACCORDO
100
AcDbPolyline
 62
250
  6
CONTINUOUS
 90
17
 70
0
 10
-55.8997090812
 20
63.7012326923
 10
-55.8388405818
 20
63.5862878688
 10
-55.7812007293
 20
63.4689040717
 10
-55.7267706286
 20
63.3490952792
 10
-55.6759919981
 20
63.2270168085
 10
-55.6283811656
 20
63.1025445152
 10
-55.5825319617
 20
62.9752726688
 10
-55.5383950798
 20
62.8453140977
 10
-55.4959776077
 20
62.7125877181
 10
-55.4539602565
 20
62.5763953442
 10
-55.4119217412
 20
62.4364842217
 10
-55.3702376471
 20
62.2931418819
 10
-55.3287848004
 20
62.146480089
 10
-55.2875771089
 20
61.9965995952
 10
-55.2465522947
 20
61.843436959
 10
-55.2054727076
 20
61.6868579514
 10
-55.1642988933
 20
61.5270177514
  0
LINE
  5
2A5
100
AcDbEntity
  8
0
100
AcDbLine
 62
7
  6
CONTINUOUS
 10
50.1772945513
 20
-50.8879460371
 11
-52.894461949
 21
21.9947919331
  0
LWPOLYLINE
  5
2A6
100
AcDbEntity
  8
RACCORDO
100
AcDbPolyline
 62
250
  6
CONTINUOUS
 90
7
 70
0
 10
51.6665292714
 20
-68.2650332749
 10
51.6315149054
 20
-68.2255095198
 10
51.5969142096
 20
-68.1858011407
 10
51.5627264002
 20
-68.1459153588
 10
51.5289505621
 20
-68.1058594476
 10
51.4955856502
 20
-68.065640729
 10
51.4626304907
 20
-68.02526657
  0
LWPOLYLINE
  5
2A7
100
AcDbEntity
  8
RACCORDO
100
AcDbPolyline
 62
250
  6
CONTINUOUS
 90
7
 70
0
 10
-55.8997090811
 20
7.8913717853
 10
-55.9331455056
 20
7.8979435653
 10
-55.9663311359
 20
7.9047831863
 10
-55.9992647986
 20
7.9118980153
 10
-56.0319454483
 20
7.9192953744
 10
-56.06437217
 20
7.9269825369
 10
-56.0965441799
 20
7.9349667241
  0
LWPOLYLINE
  5
2A8
100
AcDbEntity
  8
RACCORDO
100
AcDbPolyline
 62
250
  6
CONTINUOUS
 90
7
 70
0
 10
51.4626304907
 20
-12.215405663
 10
51.4955596633
 20
-12.2223125476
 10
51.5289085642
 20
-12.2290225707
 10
51.5626786808
 20
-12.2355412099
 10
51.5968713727
 20
-12.2418740916
 10
51.6314878698
 20
-12.2480269896
 10
51.6665292708
 20
-12.2540058239
  0
LINE
  5
2A9
100
AcDbEntity
  8
DRAFT
100
AcDbLine
 62
7
  6
CONTINUOUS
 10
70.2094235414
 20
-48.9414990996
 11
71.6977528961
 21
-49.9939068789
  0
LWPOLYLINE
  5
2AA
100
AcDbEntity
  8
RACCORDO
100
AcDbPolyline
 62
250
  6
CONTINUOUS
 90
7
 70
0
 10
-56.0965441793
 20
63.9459941742
 10
-56.064347109
 20
63.904428229
 10
-56.0319049315
 20
63.8631634831
 10
-55.9992187453
 20
63.8222058566
 10
-55.9662897805
 20
63.7815611232
 10
-55.9331193967
 20
63.7412349092
 10
-55.8997090812
 20
63.7012326923
  0
LINE
  5
2AB
100
AcDbEntity
  8
RACCORDO
100
AcDbLine
 62
7
  6
CONTINUOUS
 10
-53.1852712854
 20
52.1713006549
 11
50.5991715052
 21
-21.215382624
  0
LINE
  5
2AC
100
AcDbEntity
  8
RACCORDO
100
AcDbLine
 62
250
  6
CONTINUOUS
 10
-53.1087194371
 20
52.2401484684
 11
50.6062894648
 21
-21.0974376369
  0
LINE
  5
2AD
100
AcDbEntity
  8
RACCORDO
100
AcDbLine
 62
250
  6
CONTINUOUS
 10
-55.8997090812
 20
63.7012326923
 11
51.4626304907
 21
-12.215405663
  0
LINE
  5
2AE
100
AcDbEntity
  8
RACCORDO
100
AcDbLine
 62
250
  6
CONTINUOUS
 10
-70.0920385631
 20
73.842303159
 11
-56.0965441807
 21
63.9459941751
  0
LINE
  5
2AF
100
AcDbEntity
  8
RACCORDO
100
AcDbLine
 62
250
  6
CONTINUOUS
 10
51.6665292722
 20
-12.2540058249
 11
65.6620236545
 21
-22.1503148087
  0
LINE
  5
2B0
100
AcDbEntity
  8
RACCORDO
100
AcDbLine
 62
250
  6
CONTINUOUS
 10
-69.2917001033
 20
75.1755774167
 11
66.4623621143
 21
-20.817040551
  0
LWPOLYLINE
  5
2B1
100
AcDbEntity
  8
RACCORDO
100
AcDbPolyline
 62
250
  6
CONTINUOUS
 90
46
 70
0
 10
51.4626304907
 20
-68.02526657
 10
51.409699169
 20
-67.9165175362
 10
51.3599141228
 20
-67.8055601254
 10
51.3132897315
 20
-67.6923846395
 10
51.270129588
 20
-67.5770958798
 10
51.2301615486
 20
-67.4595679278
 10
51.1925365829
 20
-67.3394449299
 10
51.1574917517
 20
-67.2169188942
 10
51.1248236643
 20
-67.0917754548
 10
51.0930221044
 20
-66.9630496142
 10
51.0616014901
 20
-66.8304204739
 10
51.0310841228
 20
-66.6941848461
 10
51.0014721354
 20
-66.5543040399
 10
50.9728467061
 20
-66.4107527432
 10
50.945167914
 20
-66.2635295508
 10
50.9182565178
 20
-66.1126315589
 10
50.8920963213
 20
-65.95816872
 10
50.8667463194
 20
-65.8000038204
 10
50.8421419053
 20
-65.6377621241
 10
50.8183022295
 20
-65.4714745891
 10
50.795258754
 20
-65.3010784444
 10
50.7729709709
 20
-65.1260548484
 10
50.7514445513
 20
-64.9463519601
 10
50.7307351869
 20
-64.7619835757
 10
50.7108843226
 20
-64.5725250483
 10
50.6919114436
 20
-64.3779259107
 10
50.6738697597
 20
-64.1781922892
 10
50.6568582746
 20
-63.9729802495
 10
50.6409065873
 20
-63.762307516
 10
50.6260694224
 20
-63.5461059045
 10
50.6124919847
 20
-63.3238976065
 10
50.6002059538
 20
-63.0956965338
 10
50.5892798772
 20
-62.8614299728
 10
50.5799263365
 20
-62.6204831317
 10
50.5721787436
 20
-62.372836382
 10
50.5661251709
 20
-62.1184395558
 10
50.5620759892
 20
-61.8566229907
 10
50.5600673978
 20
-61.58734605
 10
50.5602109822
 20
-61.3105664314
 10
50.5629495181
 20
-61.0256011595
 10
50.5683181897
 20
-60.7324180221
 10
50.576461282
 20
-60.4309511727
 10
50.5880093005
 20
-60.1204540646
 10
50.6029912358
 20
-59.8008397084
 10
50.6215981397
 20
-59.4720783967
 10
50.6220296169
 20
-59.4657636806
  0
LWPOLYLINE
  5
2B2
100
AcDbEntity
  8
RACCORDO
100
AcDbPolyline
 62
250
  6
CONTINUOUS
 90
7
 70
0
 10
51.6665292721
 20
-68.2650332747
 10
51.646742733
 20
-68.221826305
 10
51.6273240363
 20
-68.1784445157
 10
51.6082782832
 20
-68.1348937486
 10
51.5896103972
 20
-68.091179907
 10
51.5713251238
 20
-68.0473089535
 10
51.5534270296
 20
-68.0032869065
  0
LINE
  5
2B3
100
AcDbEntity
  8
RACCORDO
100
AcDbLine
 62
7
  6
CONTINUOUS
 10
-65.3407041762
 20
78.4968948176
 11
70.850387637
 21
-17.8047497407
  0
LINE
  5
2B4
100
AcDbEntity
  8
0
100
AcDbLine
 62
7
  6
CONTINUOUS
 10
62.2519195744
 20
-72.1869562739
 11
62.2556373805
 21
-72.195079909
  0
LWPOLYLINE
  5
2B5
100
AcDbEntity
  8
RACCORDO
100
AcDbPolyline
 62
250
  6
CONTINUOUS
 90
24
 70
0
 10
51.5534270296
 20
-68.0032869065
 10
51.5235034315
 20
-67.9192262272
 10
51.4953508263
 20
-67.8311133316
 10
51.468834432
 20
-67.7390593491
 10
51.4439681051
 20
-67.6429512094
 10
51.4204606061
 20
-67.5430970928
 10
51.39779481
 20
-67.4401893104
 10
51.3759028814
 20
-67.3346877754
 10
51.3547518461
 20
-67.2262056811
 10
51.3339886992
 20
-67.114108938
 10
51.3135335191
 20
-66.9982157032
 10
51.2934482117
 20
-66.8787350182
 10
51.2736468471
 20
-66.7555958208
 10
51.2541170955
 20
-66.6287661712
 10
51.2348744552
 20
-66.4982943854
 10
51.2158953274
 20
-66.3642224794
 10
51.1972015024
 20
-66.2266847203
 10
51.178785955
 20
-66.0855587721
 10
51.1605986136
 20
-65.9404971217
 10
51.1426604142
 20
-65.7915484412
 10
51.1249848304
 20
-65.6386714412
 10
51.1075299892
 20
-65.4813794304
 10
51.0903202951
 20
-65.3196532296
 10
51.0733862298
 20
-65.1535174095
  0
LWPOLYLINE
  5
2B6
100
AcDbEntity
  8
RACCORDO
100
AcDbPolyline
 62
250
  6
CONTINUOUS
 90
47
 70
0
 10
51.4626304907
 20
-12.215405663
 10
51.4055938566
 20
-12.2467386317
 10
51.3522162871
 20
-12.2853771363
 10
51.3025165989
 20
-12.3313072575
 10
51.2569894269
 20
-12.3850331445
 10
51.2151819158
 20
-12.4460196068
 10
51.1756908769
 20
-12.5126942015
 10
51.1384945783
 20
-12.5848969973
 10
51.1036569072
 20
-12.6627562332
 10
51.0699008603
 20
-12.7451332752
 10
51.0368528789
 20
-12.831720294
 10
51.0049321553
 20
-12.9227903978
 10
50.9740499736
 20
-13.0180768611
 10
50.9442636508
 20
-13.1175244182
 10
50.9155640886
 20
-13.2211511461
 10
50.8877631799
 20
-13.3288000108
 10
50.8608573142
 20
-13.4402867307
 10
50.8349027003
 20
-13.5557544653
 10
50.809805472
 20
-13.675533742
 10
50.7855717911
 20
-13.799580289
 10
50.7622604708
 20
-13.9278870407
 10
50.7398649071
 20
-14.0608337726
 10
50.7183971145
 20
-14.1984006475
 10
50.6979238286
 20
-14.3405445144
 10
50.6785289817
 20
-14.4876033494
 10
50.6602412474
 20
-14.6395096887
 10
50.6431242331
 20
-14.7962561079
 10
50.6273233741
 20
-14.9582631454
 10
50.6128742854
 20
-15.1254140062
 10
50.5998500351
 20
-15.2977359246
 10
50.5884648826
 20
-15.4758549869
 10
50.5787548969
 20
-15.6596613199
 10
50.5708159939
 20
-15.8491543701
 10
50.5649696218
 20
-16.0451096024
 10
50.5612545041
 20
-16.24739848
 10
50.5597933087
 20
-16.456012297
 10
50.5610555164
 20
-16.6718874383
 10
50.565079125
 20
-16.8948619146
 10
50.5720242952
 20
-17.1249262174
 10
50.5825715135
 20
-17.3632213981
 10
50.596751441
 20
-17.6095546727
 10
50.61477786
 20
-17.8639032048
 10
50.637639989
 20
-18.1276328543
 10
50.6653424423
 20
-18.4004825219
 10
50.6981811799
 20
-18.682442537
 10
50.7376234859
 20
-18.9752187401
 10
50.7416643432
 20
-19.0015456258
  0
LWPOLYLINE
  5
2B7
100
AcDbEntity
  8
RACCORDO
100
AcDbPolyline
 62
250
  6
CONTINUOUS
 90
10
 70
0
 10
51.5534269722
 20
-12.3923413015
 10
51.5445875739
 20
-12.3719795147
 10
51.5354281808
 20
-12.3517773005
 10
51.5259519448
 20
-12.3317416083
 10
51.5161621424
 20
-12.3118793443
 10
51.5060621268
 20
-12.2921973263
 10
51.4956553236
 20
-12.2727022828
 10
51.4849452945
 20
-12.2534009076
 10
51.4739357386
 20
-12.2342998556
 10
51.4626304419
 20
-12.2154056986
  0
LWPOLYLINE
  5
2B8
100
AcDbEntity
  8
RACCORDO
100
AcDbPolyline
 62
250
  6
CONTINUOUS
 90
23
 70
0
 10
51.6665292722
 20
-68.2650332754
 10
51.4552847192
 20
-66.0867118972
 10
51.2623654337
 20
-63.8938422563
 10
51.0877833633
 20
-61.6865601717
 10
50.9315493218
 20
-59.4650023836
 10
50.7936729821
 20
-57.2293064599
 10
50.6741628786
 20
-54.9796107867
 10
50.5730264118
 20
-52.7160546394
 10
50.49026985
 20
-50.4387782744
 10
50.4258983224
 20
-48.1479228376
 10
50.3799158152
 20
-45.8436302711
 10
50.3523251734
 20
-43.5260432419
 10
50.3431281042
 20
-41.1953052326
 10
50.3523251774
 20
-38.8515606005
 10
50.3799158233
 20
-36.4949545085
 10
50.4258983346
 20
-34.1256328537
 10
50.4902698662
 20
-31.7437423265
 10
50.5730264321
 20
-29.3494305066
 10
50.674162903
 20
-26.9428457933
 10
50.7936730116
 20
-24.5241372884
 10
50.9315493566
 20
-22.0934547526
 10
51.0877833998
 20
-19.6509487013
 10
51.2623654652
 20
-17.1967704032
  0
LWPOLYLINE
  5
2B9
100
AcDbEntity
  8
RACCORDO
100
AcDbPolyline
 62
250
  6
CONTINUOUS
 90
3
 70
0
 10
51.0733862298
 20
-65.1535174095
 10
51.040335506
 20
-64.8067294451
 10
51.0337314764
 20
-64.7334322269
  0
LINE
  5
2BA
100
AcDbEntity
  8
0
100
AcDbLine
 62
7
  6
CONTINUOUS
 10
56.855309444
 20
-68.9820452751
 11
56.8735605011
 21
-69.1890856192
  0
LINE
  5
2BB
100
AcDbEntity
  8
0
100
AcDbLine
 62
7
  6
CONTINUOUS
 10
55.9745293157
 20
-67.3848996904
 11
56.0815815198
 21
-68.6290762772
  0
LINE
  5
2BC
100
AcDbEntity
  8
0
100
AcDbLine
 62
7
  6
CONTINUOUS
 10
56.4769193301
 20
-67.5896757378
 11
56.584009731
 21
-68.8338219322
  0
LWPOLYLINE
  5
2BD
100
AcDbEntity
  8
0
100
AcDbPolyline
 62
7
  6
CONTINUOUS
 90
3
 70
0
 10
56.3532538688
 20
-67.4570962968
 10
56.3705238322
 20
-67.664908632
 10
56.4775757539
 20
-68.9090821192
  0
LINE
  5
2BE
100
AcDbEntity
  8
0
100
AcDbLine
 62
7
  6
CONTINUOUS
 10
55.9232096624
 20
-66.761076059
 11
55.9745293157
 21
-67.3848996904
  0
LWPOLYLINE
  5
2BF
100
AcDbEntity
  8
RACCORDO
100
AcDbPolyline
 62
250
  6
CONTINUOUS
 90
3
 70
0
 10
51.5534270296
 20
-12.3923412744
 10
51.5713108384
 20
-12.3699405564
 10
51.5895870865
 20
-12.3472852428
  0
LINE
  5
2C0
100
AcDbEntity
  8
RACCORDO
100
AcDbLine
 62
250
  6
CONTINUOUS
 10
51.5895870865
 20
-12.3472852428
 11
51.6272998384
 21
-12.3011883321
  0
LINE
  5
2C1
100
AcDbEntity
  8
RACCORDO
100
AcDbLine
 62
250
  6
CONTINUOUS
 10
51.6272998384
 20
-12.3011883321
 11
51.666529272
 21
-12.2540058263
  0
LWPOLYLINE
  5
2C2
100
AcDbEntity
  8
RACCORDO
100
AcDbPolyline
 62
250
  6
CONTINUOUS
 90
28
 70
0
 10
67.3097273734
 20
-22.263583531
 10
67.2585478534
 20
-22.2898635822
 10
67.2049905524
 20
-22.3140659327
 10
67.1492248776
 20
-22.3361139175
 10
67.0914272269
 20
-22.3559376193
 10
67.0317804107
 20
-22.3734743111
 10
66.9704730712
 20
-22.3886686791
 10
66.9076991189
 20
-22.4014726471
 10
66.8436571096
 20
-22.4118456285
 10
66.7785495932
 20
-22.4197549007
 10
66.7125824984
 20
-22.425175444
 10
66.6459644769
 20
-22.428090064
 10
66.5789062313
 20
-22.4284895763
 10
66.5116198591
 20
-22.4263727239
 10
66.4443181823
 20
-22.4217461791
 10
66.377214069
 20
-22.4146245754
 10
66.3105197603
 20
-22.4050304605
 10
66.2444462039
 20
-22.392994173
 10
66.1792023868
 20
-22.3785537481
 10
66.1149946637
 20
-22.3617549094
 10
66.0520261165
 20
-22.3426507931
 10
65.9904959162
 20
-22.3213017376
 10
65.9305986681
 20
-22.2977753566
 10
65.8725238191
 20
-22.2721460796
 10
65.8164550683
 20
-22.2444948165
 10
65.7625697527
 20
-22.2149090521
 10
65.7110382888
 20
-22.1834825448
 10
65.6620236545
 20
-22.1503148087
  0
LINE
  5
2C3
100
AcDbEntity
  8
0
100
AcDbLine
 62
7
  6
CONTINUOUS
 10
61.4591482111
 20
-71.7548425521
 11
61.5081665922
 21
-72.3157222743
  0
LINE
  5
2C4
100
AcDbEntity
  8
0
100
AcDbLine
 62
7
  6
CONTINUOUS
 10
57.3171040993
 20
-68.718597885
 11
57.375989125
 21
-69.3938359322
  0
LINE
  5
2C5
100
AcDbEntity
  8
0
100
AcDbLine
 62
7
  6
CONTINUOUS
 10
61.3389598825
 20
-71.6698550452
 11
61.4017326152
 21
-72.3909824612
  0
LINE
  5
2C6
100
AcDbEntity
  8
0
100
AcDbLine
 62
7
  6
CONTINUOUS
 10
57.1636206695
 20
-68.2383339712
 11
57.2695551478
 21
-69.4690961192
  0
LINE
  5
2C7
100
AcDbEntity
  8
0
100
AcDbLine
 62
7
  6
CONTINUOUS
 10
58.3083834147
 20
-69.0478034712
 11
58.4143228428
 21
-70.2785691192
  0
LINE
  5
2C8
100
AcDbEntity
  8
0
100
AcDbLine
 62
7
  6
CONTINUOUS
 10
58.7032622683
 20
-69.3144037988
 11
58.8103174895
 21
-70.5585796192
  0
LINE
  5
2C9
100
AcDbEntity
  8
0
100
AcDbLine
 62
7
  6
CONTINUOUS
 10
58.8096577662
 20
-69.2391709047
 11
58.9167514667
 21
-70.4833194322
  0
LINE
  5
2CA
100
AcDbEntity
  8
0
100
AcDbLine
 62
7
  6
CONTINUOUS
 10
60.8986778198
 20
-70.8667926251
 11
61.0057330187
 21
-72.1109684612
  0
LINE
  5
2CB
100
AcDbEntity
  8
0
100
AcDbLine
 62
7
  6
CONTINUOUS
 10
56.7492347665
 20
-67.7370970748
 11
56.855309444
 21
-68.9820452751
  0
LINE
  5
2CC
100
AcDbEntity
  8
0
100
AcDbLine
 62
7
  6
CONTINUOUS
 10
61.38580269
 20
-70.9499887778
 11
61.4105058959
 21
-71.2451842121
  0
LINE
  5
2CD
100
AcDbEntity
  8
0
100
AcDbLine
 62
7
  6
CONTINUOUS
 10
61.2661870365
 20
-70.8654077381
 11
61.3041050546
 21
-71.3204209685
  0
LINE
  5
2CE
100
AcDbEntity
  8
0
100
AcDbLine
 62
7
  6
CONTINUOUS
 10
56.3192043091
 20
-67.041086559
 11
56.3532538688
 21
-67.4570962968
  0
LINE
  5
2CF
100
AcDbEntity
  8
0
100
AcDbLine
 62
7
  6
CONTINUOUS
 10
56.4255813605
 20
-66.9658666246
 11
56.4769193301
 21
-67.5896757378
  0
LINE
  5
2D0
100
AcDbEntity
  8
0
100
AcDbLine
 62
7
  6
CONTINUOUS
 10
56.7151841065
 20
-67.321086559
 11
56.7492347665
 21
-67.7370970748
  0
LINE
  5
2D1
100
AcDbEntity
  8
0
100
AcDbLine
 62
7
  6
CONTINUOUS
 10
58.6519410949
 20
-68.690580559
 11
58.7032622683
 21
-69.3144037988
  0
LINE
  5
2D2
100
AcDbEntity
  8
0
100
AcDbLine
 62
7
  6
CONTINUOUS
 10
58.7583181464
 20
-68.6153606246
 11
58.8096577662
 21
-69.2391709047
  0
LINE
  5
2D3
100
AcDbEntity
  8
0
100
AcDbLine
 62
7
  6
CONTINUOUS
 10
60.8473566575
 20
-70.2429693774
 11
60.8986778198
 21
-70.8667926251
  0
LWPOLYLINE
  5
2D4
100
AcDbEntity
  8
RACCORDO
100
AcDbPolyline
 62
7
  6
CONTINUOUS
 90
20
 70
0
 10
50.9616648318
 20
-15.9141784946
 10
50.8597758636
 20
-17.2793245849
 10
50.6676088805
 20
-20.081371503
 10
50.4994221687
 20
-22.8682346856
 10
50.355231745
 20
-25.6396902609
 10
50.2350517376
 20
-28.3955160526
 10
50.1388943824
 20
-31.1354923844
 10
50.0667701858
 20
-33.8593972138
 10
50.0186877555
 20
-36.5670070836
 10
49.9946536434
 20
-39.2581050872
 10
49.9946725485
 20
-41.9324743946
 10
50.0187472057
 20
-44.5898941409
 10
50.0668784174
 20
-47.2301516403
 10
50.1390651014
 20
-49.8530341613
 10
50.2353039954
 20
-52.458323399
 10
50.3555901223
 20
-55.0458110652
 10
50.4999165794
 20
-57.6152887031
 10
50.6682739554
 20
-60.1665405439
 10
50.8606511414
 20
-62.6993589401
 10
51.0337312906
 20
-64.733430145
  0
LWPOLYLINE
  5
2D5
100
AcDbEntity
  8
RACCORDO
100
AcDbPolyline
 62
250
  6
CONTINUOUS
 90
3
 70
0
 10
51.2623654652
 20
-17.1967704032
 10
51.455284739
 20
-14.7310718723
 10
51.6665292722
 20
-12.2540058249
  0
LWPOLYLINE
  5
2D6
100
AcDbEntity
  8
RACCORDO
100
AcDbPolyline
 62
250
  6
CONTINUOUS
 90
29
 70
0
 10
50.9616640317
 20
-15.9141889397
 10
50.9795868754
 20
-15.6892652644
 10
50.9953954479
 20
-15.5041865723
 10
51.0116656475
 20
-15.3247522416
 10
51.0283818296
 20
-15.1505895759
 10
51.0454982177
 20
-14.9816740786
 10
51.0629659691
 20
-14.8180205722
 10
51.0807855438
 20
-14.6593156134
 10
51.0989152963
 20
-14.5055844404
 10
51.1173228479
 20
-14.3567953678
 10
51.1360439827
 20
-14.2125483976
 10
51.1550512583
 20
-14.072829379
 10
51.1743224817
 20
-13.9376459844
 10
51.1939267744
 20
-13.8066279391
 10
51.2138685717
 20
-13.679616801
 10
51.2341222936
 20
-13.5567608464
 10
51.2547371474
 20
-13.4381457144
 10
51.2757152154
 20
-13.3236625009
 10
51.297053972
 20
-13.2134048629
 10
51.3188211962
 20
-13.1077566562
 10
51.3409603431
 20
-13.006709114
 10
51.363548438
 20
-12.9102474675
 10
51.3869111991
 20
-12.8187300455
 10
51.4110437261
 20
-12.7314862762
 10
51.4360552603
 20
-12.6491288875
 10
51.4625770719
 20
-12.573894164
 10
51.4909643258
 20
-12.5064594225
 10
51.5211941027
 20
-12.4459754606
 10
51.5534270296
 20
-12.3923412744
  0
LINE
  5
2D7
100
AcDbEntity
  8
RACCORDO
100
AcDbLine
 62
250
  6
CONTINUOUS
 10
70.850387637
 20
-17.8047497407
 11
66.4623621143
 21
-20.817040551
  0
LINE
  5
2D8
100
AcDbEntity
  8
RACCORDO
100
AcDbLine
 62
250
  6
CONTINUOUS
 10
71.6977528961
 20
-19.2512927207
 11
67.3097219783
 21
-22.2635872345
  0
LWPOLYLINE
  5
2D9
100
AcDbEntity
  8
RACCORDO
100
AcDbPolyline
 62
250
  6
CONTINUOUS
 90
28
 70
0
 10
67.3097273734
 20
-22.2635835309
 10
67.3056846714
 20
-22.2152082697
 10
67.2989579747
 20
-22.1648410213
 10
67.2895635094
 20
-22.1126464128
 10
67.2775230382
 20
-22.0587814536
 10
67.2628730481
 20
-22.0034375921
 10
67.2456714912
 20
-21.9468436979
 10
67.2259823432
 20
-21.8892072033
 10
67.2038675078
 20
-21.8307066576
 10
67.1794001322
 20
-21.7715360126
 10
67.1526613178
 20
-21.7118925187
 10
67.1237417779
 20
-21.6519795443
 10
67.0927405299
 20
-21.5920025757
 10
67.0597629009
 20
-21.5321652531
 10
67.0249195204
 20
-21.4726681865
 10
66.9883276573
 20
-21.4137116558
 10
66.9501105478
 20
-21.3554943161
 10
66.9103972772
 20
-21.2982129011
 10
66.8693220875
 20
-21.2420610753
 10
66.8270236689
 20
-21.1872284314
 10
66.7836446449
 20
-21.1338998523
 10
66.7393313624
 20
-21.0822552595
 10
66.6942333127
 20
-21.0324688879
 10
66.6485026851
 20
-20.9847087596
 10
66.6022938388
 20
-20.9391360879
 10
66.5557627096
 20
-20.895904659
 10
66.5090662812
 20
-20.8551603213
 10
66.4623621143
 20
-20.817040551
  0
LINE
  5
2DA
100
AcDbEntity
  8
DRAFT
100
AcDbLine
 62
7
  6
CONTINUOUS
 10
70.2094235414
 20
-45.8680239768
 11
70.2094235414
 21
-50.8177714451
  0
LINE
  5
2DB
100
AcDbEntity
  8
RACCORDO
100
AcDbLine
 62
7
  6
CONTINUOUS
 10
71.6977528961
 20
-75.5393182598
 11
71.6977528961
 21
-49.9939068789
  0
LINE
  5
2DC
100
AcDbEntity
  8
RACCORDO
100
AcDbLine
 62
7
  6
CONTINUOUS
 10
71.6977528961
 20
-44.7967041016
 11
71.6977528961
 21
-19.2512927207
  0
LWPOLYLINE
  5
2DD
100
AcDbEntity
  8
RACCORDO
100
AcDbPolyline
 62
250
  6
CONTINUOUS
 90
18
 70
0
 10
64.8035774266
 20
-33.3464642513
 10
64.651932004
 20
-36.1103533756
 10
64.5255289225
 20
-38.8595622878
 10
64.4243841014
 20
-41.5938631454
 10
64.3485102457
 20
-44.3130320127
 10
64.2979223217
 20
-47.01670733
 10
64.2726266596
 20
-49.7046696102
 10
64.2726265258
 20
-52.376699101
 10
64.2979219284
 20
-55.0324409827
 10
64.348509615
 20
-57.6716817091
 10
64.4243832693
 20
-60.2942091383
 10
64.5255279412
 20
-62.8996780735
 10
64.6519309402
 20
-65.487884153
 10
64.8035763607
 20
-68.0586204192
 10
64.9804339764
 20
-70.6115457494
 10
65.1824760376
 20
-73.1464157983
 10
65.4096815414
 20
-75.6630797655
 10
65.6620236545
 20
-78.1613422592
  0
LWPOLYLINE
  5
2DE
100
AcDbEntity
  8
RACCORDO
100
AcDbPolyline
 62
250
  6
CONTINUOUS
 90
19
 70
0
 10
66.6300081406
 20
-30.6571405629
 10
66.4536416665
 20
-33.427309159
 10
66.30238976
 20
-36.1834908526
 10
66.1763254114
 20
-38.9248117675
 10
66.0754616111
 20
-41.6512488529
 10
65.9997853687
 20
-44.3628251597
 10
65.9493307032
 20
-47.0587359644
 10
65.9241089472
 20
-49.7389746099
 10
65.924108768
 20
-52.4035477533
 10
65.9493301869
 20
-55.0516706418
 10
65.9997845289
 20
-57.6833353987
 10
66.0754604689
 20
-60.2985499008
 10
66.1763240528
 20
-62.8965530262
 10
66.3023882629
 20
-65.477351365
 10
66.4536401167
 20
-68.0409383272
 10
66.6300067133
 20
-70.5865330204
 10
66.8314637521
 20
-73.1138751472
 10
67.0580355336
 20
-75.6232250051
 10
67.3097220578
 20
-78.1145825941
  0
LWPOLYLINE
  5
2DF
100
AcDbEntity
  8
RACCORDO
100
AcDbPolyline
 62
250
  6
CONTINUOUS
 90
5
 70
0
 10
65.6620236545
 20
-22.1503148087
 10
65.4096819952
 20
-24.9699858939
 10
65.1824768117
 20
-27.7760484569
 10
64.9804349502
 20
-30.5682691507
 10
64.8035774266
 20
-33.3464642513
  0
LWPOLYLINE
  5
2E0
100
AcDbEntity
  8
RACCORDO
100
AcDbPolyline
 62
250
  6
CONTINUOUS
 90
4
 70
0
 10
67.3097219783
 20
-22.2635872345
 10
67.0580361314
 20
-25.0754252466
 10
66.8314648522
 20
-27.8732763561
 10
66.6300081406
 20
-30.6571405629
  0
LWPOLYLINE
  5
2E1
100
AcDbEntity
  8
RACCORDO
100
AcDbPolyline
 62
250
  6
CONTINUOUS
 90
25
 70
0
 10
65.6620236545
 20
-22.1503148087
 10
65.668254959
 20
-22.0959572805
 10
65.6774373315
 20
-22.0399704374
 10
65.6895384558
 20
-21.9825513195
 10
65.7045157432
 20
-21.9239020072
 10
65.7223164827
 20
-21.8642289107
 10
65.7428780264
 20
-21.8037420431
 10
65.7661280103
 20
-21.7426542818
 10
65.7919846083
 20
-21.6811806185
 10
65.8203568209
 20
-21.6195374036
 10
65.851144795
 20
-21.5579415837
 10
65.8842401757
 20
-21.496609939
 10
65.9195264872
 20
-21.4357583198
 10
65.9568795429
 20
-21.3756008869
 10
65.9961678829
 20
-21.3163493581
 10
66.0372532357
 20
-21.258212263
 10
66.0799910059
 20
-21.2013942089
 10
66.1242307824
 20
-21.1460951612
 10
66.1698168678
 20
-21.092509739
 10
66.2165888268
 20
-21.0408265305
 10
66.2643820503
 20
-20.9912274295
 10
66.313028335
 20
-20.9438869947
 10
66.3623564756
 20
-20.8989718358
 10
66.4121928666
 20
-20.8566400271
 10
66.4623621143
 20
-20.817040551
  0
LWPOLYLINE
  5
2E2
100
AcDbEntity
  8
RACCORDO
100
AcDbPolyline
 62
250
  6
CONTINUOUS
 90
13
 70
0
 10
67.3097273734
 20
-78.1145794745
 10
67.3056683332
 20
-78.164423039
 10
67.2989154927
 20
-78.211972288
 10
67.2894916217
 20
-78.2570668905
 10
67.2774284965
 20
-78.2995547919
 10
67.2627667928
 20
-78.3392927275
 10
67.2455559483
 20
-78.3761467052
 10
67.2258539961
 20
-78.4099924571
 10
67.2037273693
 20
-78.4407158588
 10
67.1792506765
 20
-78.4682133142
 10
67.1525064507
 20
-78.4923921047
 10
67.1235848704
 20
-78.513170702
 10
67.1141553717
 20
-78.5189319625
  0
LINE
  5
2E3
100
AcDbEntity
  8
DRAFT
100
AcDbLine
 62
7
  6
CONTINUOUS
 10
71.6977528961
 20
-44.7967041016
 11
70.2094235414
 21
-45.8680239768
  0
LINE
  5
2E4
100
AcDbEntity
  8
DRAFT
100
AcDbLine
 62
7
  6
CONTINUOUS
 10
70.2094235414
 20
-50.8177714451
 11
71.6977528961
 21
-49.9939068789
  0
LINE
  5
2E5
100
AcDbEntity
  8
0
100
AcDbLine
 62
7
  6
CONTINUOUS
 10
54.0981655532
 20
-65.3201351246
 11
53.9917885017
 21
-65.395355059
  0
LINE
  5
2E6
100
AcDbEntity
  8
0
100
AcDbLine
 62
7
  6
CONTINUOUS
 10
54.4941651496
 20
-65.6001491246
 11
54.3877880982
 21
-65.675369059
  0
LINE
  5
2E7
100
AcDbEntity
  8
0
100
AcDbLine
 62
7
  6
CONTINUOUS
 10
55.3695923361
 20
-66.2191696246
 11
55.2632152847
 21
-66.294389559
  0
LINE
  5
2E8
100
AcDbEntity
  8
0
100
AcDbLine
 62
7
  6
CONTINUOUS
 10
55.7655919326
 20
-66.4991836246
 11
55.6592148811
 21
-66.574403559
  0
LINE
  5
2E9
100
AcDbEntity
  8
0
100
AcDbLine
 62
7
  6
CONTINUOUS
 10
56.0295867138
 20
-66.6858561246
 11
55.9232096624
 21
-66.761076059
  0
LINE
  5
2EA
100
AcDbEntity
  8
0
100
AcDbLine
 62
7
  6
CONTINUOUS
 10
56.4255813605
 20
-66.9658666246
 11
56.3192043091
 21
-67.041086559
  0
LINE
  5
2EB
100
AcDbEntity
  8
0
100
AcDbLine
 62
7
  6
CONTINUOUS
 10
55.2883143363
 20
-67.9176269322
 11
55.1818803591
 21
-67.9928871192
  0
LINE
  5
2EC
100
AcDbEntity
  8
0
100
AcDbLine
 62
7
  6
CONTINUOUS
 10
56.821561158
 20
-67.2458666246
 11
56.7151841065
 21
-67.321086559
  0
LINE
  5
2ED
100
AcDbEntity
  8
0
100
AcDbLine
 62
7
  6
CONTINUOUS
 10
57.420198466
 20
-67.6691671246
 11
57.3138214146
 21
-67.744387059
  0
LINE
  5
2EE
100
AcDbEntity
  8
0
100
AcDbLine
 62
7
  6
CONTINUOUS
 10
56.584009731
 20
-68.8338219322
 11
56.4775757539
 21
-68.9090821192
  0
LINE
  5
2EF
100
AcDbEntity
  8
0
100
AcDbLine
 62
7
  6
CONTINUOUS
 10
58.1596808383
 20
-68.1920601246
 11
58.0533037869
 21
-68.267280059
  0
LINE
  5
2F0
100
AcDbEntity
  8
0
100
AcDbLine
 62
7
  6
CONTINUOUS
 10
57.375989125
 20
-69.3938359322
 11
57.2695551478
 21
-69.4690961192
  0
LINE
  5
2F1
100
AcDbEntity
  8
0
100
AcDbLine
 62
7
  6
CONTINUOUS
 10
58.7583181464
 20
-68.6153606246
 11
58.6519410949
 21
-68.690580559
  0
LINE
  5
2F2
100
AcDbEntity
  8
0
100
AcDbLine
 62
7
  6
CONTINUOUS
 10
58.1463624585
 20
-69.9385677743
 11
58.0399284814
 21
-70.0138279612
  0
LINE
  5
2F3
100
AcDbEntity
  8
0
100
AcDbLine
 62
7
  6
CONTINUOUS
 10
59.6580135653
 20
-69.2515369431
 11
59.551636514
 21
-69.3267568774
  0
LINE
  5
2F4
100
AcDbEntity
  8
0
100
AcDbLine
 62
7
  6
CONTINUOUS
 10
60.054028011
 20
-69.5315614431
 11
59.9476509597
 21
-69.6067813774
  0
LINE
  5
2F5
100
AcDbEntity
  8
0
100
AcDbLine
 62
7
  6
CONTINUOUS
 10
58.9167514667
 20
-70.4833194322
 11
58.8103174895
 21
-70.5585796192
  0
LINE
  5
2F6
100
AcDbEntity
  8
0
100
AcDbLine
 62
7
  6
CONTINUOUS
 10
59.7597054746
 20
-70.402669496
 11
59.6532940834
 21
-70.4779137124
  0
LINE
  5
2F7
100
AcDbEntity
  8
0
100
AcDbLine
 62
7
  6
CONTINUOUS
 10
59.5767404819
 20
-70.9499977743
 11
59.4703065048
 21
-71.0252579612
  0
LINE
  5
2F8
100
AcDbEntity
  8
0
100
AcDbLine
 62
7
  6
CONTINUOUS
 10
60.9537337088
 20
-70.1677494431
 11
60.8473566575
 21
-70.2429693774
  0
LWPOLYLINE
  5
2F9
100
AcDbEntity
  8
0
100
AcDbPolyline
 62
7
  6
CONTINUOUS
 90
30
 70
0
 10
61.9745125505
 20
-71.7040739583
 10
61.9841585261
 20
-71.69577563
 10
61.9916180898
 20
-71.6865897247
 10
61.9977607715
 20
-71.6759043745
 10
62.0025386564
 20
-71.6637870596
 10
62.0059147764
 20
-71.6504114053
 10
62.0078856273
 20
-71.6359669539
 10
62.0084832115
 20
-71.6205057039
 10
62.0077425691
 20
-71.6040124515
 10
62.0056664446
 20
-71.5866031041
 10
62.0022624431
 20
-71.5683686403
 10
61.9975194579
 20
-71.5492189317
 10
61.9913843178
 20
-71.52913419
 10
61.9838747526
 20
-71.5083304121
 10
61.975092589
 20
-71.487073935
 10
61.9650825261
 20
-71.4654929593
 10
61.9538926303
 20
-71.4437219397
 10
61.9417005947
 20
-71.4220524677
 10
61.9286419584
 20
-71.4006800569
 10
61.9147694311
 20
-71.3796596841
 10
61.9001646872
 20
-71.3590657973
 10
61.8849503063
 20
-71.3390466166
 10
61.8691913412
 20
-71.3196642086
 10
61.8528656845
 20
-71.3008690843
 10
61.8360024767
 20
-71.2827117457
 10
61.8187381906
 20
-71.2653567588
 10
61.8012043121
 20
-71.2489291211
 10
61.7835089716
 20
-71.2335250976
 10
61.7657336913
 20
-71.219217779
 10
61.7479742419
 20
-71.2060827381
  0
LWPOLYLINE
  5
2FA
100
AcDbEntity
  8
0
100
AcDbPolyline
 62
7
  6
CONTINUOUS
 90
37
 70
0
 10
62.4517748215
 20
-72.0787706334
 10
62.4658282547
 20
-72.0676717715
 10
62.4822025284
 20
-72.0511845498
 10
62.4965340266
 20
-72.0322196114
 10
62.5088377509
 20
-72.0107058842
 10
62.5190995051
 20
-71.9867138074
 10
62.5270963692
 20
-71.9604961077
 10
62.5327690775
 20
-71.9319455917
 10
62.5361774253
 20
-71.9011690374
 10
62.5372766698
 20
-71.8687404543
 10
62.5360167163
 20
-71.8347214311
 10
62.5324476424
 20
-71.7990503938
 10
62.5266745732
 20
-71.7621169164
 10
62.5187238717
 20
-71.7239986334
 10
62.5085689046
 20
-71.6846181237
 10
62.4962351124
 20
-71.6441325259
 10
62.4816806089
 20
-71.6024175546
 10
62.4649469482
 20
-71.5595977571
 10
62.4461845094
 20
-71.5162036951
 10
62.4252994374
 20
-71.4721407538
 10
62.4023849362
 20
-71.4275040599
 10
62.3778716348
 20
-71.383109053
 10
62.3517782242
 20
-71.3390668977
 10
62.3240850651
 20
-71.295267174
 10
62.2951650742
 20
-71.2521931139
 10
62.2650531831
 20
-71.2099072542
 10
62.2337135641
 20
-71.1683477612
 10
62.2014129509
 20
-71.127811347
 10
62.1681280883
 20
-71.0882741519
 10
62.1338814997
 20
-71.0497606094
 10
62.0990085903
 20
-71.0126398675
 10
62.0634816187
 20
-70.97690399
 10
62.0273277848
 20
-70.9425613378
 10
61.9909649363
 20
-70.9100054813
 10
61.9545322548
 20
-70.8793676898
 10
61.917890268
 20
-70.8505169219
 10
61.8810389034
 20
-70.8234532344
  0
LINE
  5
2FB
100
AcDbEntity
  8
0
100
AcDbLine
 62
7
  6
CONTINUOUS
 10
61.8810193995
 20
-70.8234394431
 11
61.7746422128
 21
-70.8986594732
  0
LINE
  5
2FC
100
AcDbEntity
  8
0
100
AcDbLine
 62
7
  6
CONTINUOUS
 10
61.4105058959
 20
-71.2451842121
 11
61.3041050546
 21
-71.3204209685
  0
LINE
  5
2FD
100
AcDbEntity
  8
0
100
AcDbLine
 62
7
  6
CONTINUOUS
 10
60.8481726273
 20
-71.8490404322
 11
60.7417386501
 21
-71.9243006192
  0
LINE
  5
2FE
100
AcDbEntity
  8
0
100
AcDbLine
 62
7
  6
CONTINUOUS
 10
61.8922881515
 20
-71.5858557121
 11
61.7858874226
 21
-71.661092389
  0
LINE
  5
2FF
100
AcDbEntity
  8
0
100
AcDbLine
 62
7
  6
CONTINUOUS
 10
61.5081665922
 20
-72.3157222743
 11
61.4017326152
 21
-72.3909824612
  0
LINE
  5
300
100
AcDbEntity
  8
ASSI
100
AcDbLine
 62
7
  6
CONTINUOUS
 10
62.3453731149
 20
-72.1540125624
 11
62.4517770973
 21
-72.0787735849
  0
LINE
  5
301
100
AcDbEntity
  8
0
100
AcDbLine
 62
7
  6
CONTINUOUS
 10
62.6966896421
 20
-73.1561306164
 11
62.5902556652
 21
-73.2313908032
  0
LWPOLYLINE
  5
302
100
AcDbEntity
  8
RACCORDO
100
AcDbPolyline
 62
250
  6
CONTINUOUS
 90
28
 70
0
 10
67.3097273734
 20
-78.1145794744
 10
67.2584550539
 20
-78.1500724017
 10
67.2051384803
 20
-78.1830582786
 10
67.1497686096
 20
-78.2136996337
 10
67.0921760817
 20
-78.2422925922
 10
67.0324537936
 20
-78.2687009094
 10
66.9711053511
 20
-78.2924531774
 10
66.9083965973
 20
-78.3136408637
 10
66.8443101585
 20
-78.3323660274
 10
66.7791316804
 20
-78.3482527574
 10
66.7131688315
 20
-78.3613972578
 10
66.6465564633
 20
-78.3719230086
 10
66.5794353477
 20
-78.3794971137
 10
66.5121062642
 20
-78.3842215389
 10
66.4448045175
 20
-78.3862473353
 10
66.3776288492
 20
-78.3852825761
 10
66.3108776352
 20
-78.3814491855
 10
66.2448133987
 20
-78.3749214022
 10
66.179508139
 20
-78.3654456403
 10
66.1152393826
 20
-78.3531638535
 10
66.0522745902
 20
-78.3382683649
 10
65.9906855622
 20
-78.3205446318
 10
65.9307314751
 20
-78.300162787
 10
65.8726608465
 20
-78.2773298411
 10
65.8165406338
 20
-78.251860143
 10
65.762553341
 20
-78.2238246438
 10
65.7109787795
 20
-78.1935739574
 10
65.6620236545
 20
-78.1613422593
  0
LWPOLYLINE
  5
303
100
AcDbEntity
  8
0
100
AcDbPolyline
 62
7
  6
CONTINUOUS
 90
11
 70
0
 10
62.3453760546
 20
-72.1540104837
 10
62.33021537
 20
-72.1635737122
 10
62.3104364999
 20
-72.1730862107
 10
62.2891128217
 20
-72.1803448654
 10
62.266282681
 20
-72.1853429836
 10
62.2420171739
 20
-72.1880595692
 10
62.2164054051
 20
-72.1884779361
 10
62.1895156783
 20
-72.1866033751
 10
62.1614322034
 20
-72.1824404256
 10
62.1322549591
 20
-72.1759931818
 10
62.1020810415
 20
-72.1672774691
  0
LINE
  5
304
100
AcDbEntity
  8
RACCORDO
100
AcDbLine
 62
250
  6
CONTINUOUS
 10
67.3097220578
 20
-78.1145825941
 11
71.6977528961
 21
-75.5393182598
  0
LINE
  5
305
100
AcDbEntity
  8
RACCORDO
100
AcDbLine
 62
7
  6
CONTINUOUS
 10
67.1141553717
 20
-78.5189319625
 11
71.5209166431
 21
-75.9326750399
  0
ARC
  5
306
100
AcDbEntity
  8
RACCORDO
100
AcDbCircle
 62
7
  6
CONTINUOUS
 10
-69.2472915718
 20
18.5086177878
 40
1.2
100
AcDbArc
 50
185.5116588569
 51
234.731856752
  0
ARC
  5
307
100
AcDbEntity
  8
RACCORDO
100
AcDbCircle
 62
7
  6
CONTINUOUS
 10
-69.2472915718
 20
74.3596137313
 40
1.2
100
AcDbArc
 50
130.0513455627
 51
175.2111887673
  0
ARC
  5
308
100
AcDbEntity
  8
RACCORDO
100
AcDbCircle
 62
7
  6
CONTINUOUS
 10
66.5067706458
 20
-77.4840001799
 40
1.2
100
AcDbArc
 50
234.7345488682
 51
300.4079833576
  0
ELLIPSE
  5
309
100
AcDbEntity
  8
RACCORDO
100
AcDbEllipse
 62
7
  6
CONTINUOUS
 10
-65.3383768237
 20
77.6455565192
 30
0.0
 11
-0.6940708947
 21
0.9828275207
 31
0.0
 40
0.4987101158
 41
-0.9531889164
 42
0.042043145
  0
ELLIPSE
  5
30A
100
AcDbEntity
  8
0
100
AcDbEllipse
 62
7
  6
CONTINUOUS
 10
358.7732416798
 20
160.7116696783
 30
0.0
 11
301.6300315164
 21
300.7490863323
 31
0.0
 40
0.265596453
 41
-3.6346599249
 42
-3.630056717
  0
ELLIPSE
  5
30B
100
AcDbEntity
  8
0
100
AcDbEllipse
 62
7
  6
CONTINUOUS
 10
342.9267975953
 20
171.9167977482
 30
0.0
 11
128.7078177795
 21
411.2238603181
 31
0.0
 40
0.6912191856
 41
-3.9000610221
 42
-3.8933751199
  0
ELLIPSE
  5
30C
100
AcDbEntity
  8
0
100
AcDbEllipse
 62
7
  6
CONTINUOUS
 10
360.7844501462
 20
159.2895305334
 30
0.0
 11
296.1018113369
 21
304.6663207133
 31
0.0
 40
0.2906993817
 41
-3.6350079422
 42
-3.6306542627
  0
ELLIPSE
  5
30D
100
AcDbEntity
  8
0
100
AcDbEllipse
 62
7
  6
CONTINUOUS
 10
346.6319142022
 20
169.2968846704
 30
0.0
 11
146.3687977933
 21
402.5132927455
 31
0.0
 40
0.6762663434
 41
-3.8610271271
 42
-3.8566178351
  0
ELLIPSE
  5
30E
100
AcDbEntity
  8
0
100
AcDbEllipse
 62
7
  6
CONTINUOUS
 10
363.0616995775
 20
157.6792720181
 30
0.0
 11
301.630298559
 21
300.7488975952
 31
0.0
 40
0.2655952353
 41
-3.6346599454
 42
-3.6279740432
  0
ELLIPSE
  5
30F
100
AcDbEntity
  8
0
100
AcDbEllipse
 62
7
  6
CONTINUOUS
 10
348.4869448939
 20
167.9851798889
 30
0.0
 11
128.7138453229
 21
411.2210032961
 31
0.0
 40
0.6912146399
 41
-3.8946777159
 42
-3.8933626105
  0
ELLIPSE
  5
310
100
AcDbEntity
  8
0
100
AcDbEllipse
 62
7
  6
CONTINUOUS
 10
348.4866753986
 20
167.9853704509
 30
0.0
 11
128.7081007931
 21
411.223726173
 31
0.0
 40
0.6912189722
 41
-3.8979785223
 42
-3.8959601215
  0
ELLIPSE
  5
311
100
AcDbEntity
  8
0
100
AcDbEllipse
 62
7
  6
CONTINUOUS
 10
345.4164885725
 20
170.1563203751
 30
0.0
 11
-0.5146678914
 21
457.1150324405
 31
0.0
 40
0.7320502981
 41
-4.1551297457
 42
-4.1525441887
  0
ELLIPSE
  5
312
100
AcDbEntity
  8
RACCORDO
100
AcDbEllipse
 62
7
  6
CONTINUOUS
 10
70.8480602844
 20
-74.9361674997
 30
0.0
 11
-0.6940708947
 21
0.9828275207
 31
0.0
 40
0.4987101158
 41
-3.1836357971
 42
-2.5267242989
  0
ELLIPSE
  5
313
100
AcDbEntity
  8
RACCORDO
100
AcDbEllipse
 62
7
  6
CONTINUOUS
 10
70.8480602844
 20
-18.6527966656
 30
0.0
 11
-0.6934737074
 21
0.9794492403
 31
0.0
 40
0.501292524
 41
-2.5255069615
 42
-0.9574496904
  0
ELLIPSE
  5
314
100
AcDbEntity
  8
0
100
AcDbEllipse
 62
7
  6
CONTINUOUS
 10
343.3228094041
 20
171.6367751128
 30
0.0
 11
128.708107827
 21
411.223722839
 31
0.0
 40
0.6912189668
 41
-3.9000604185
 42
-3.8954572107
  0
ELLIPSE
  5
315
100
AcDbEntity
  8
0
100
AcDbEllipse
 62
7
  6
CONTINUOUS
 10
343.3228094041
 20
171.6367751128
 30
0.0
 11
128.6621570566
 21
411.076909657
 31
0.0
 40
0.6912189668
 41
-3.9000330524
 42
-3.8957731889
  0
ELLIPSE
  5
316
100
AcDbEntity
  8
0
100
AcDbEllipse
 62
7
  6
CONTINUOUS
 10
359.1694108578
 20
160.4315357661
 30
0.0
 11
301.6312270684
 21
300.7482413552
 31
0.0
 40
0.2655910011
 41
-3.6346599421
 42
-3.6279740566
  0
ELLIPSE
  5
317
100
AcDbEntity
  8
0
100
AcDbEllipse
 62
7
  6
CONTINUOUS
 10
359.1694108578
 20
160.4315357661
 30
0.0
 11
301.5235400898
 21
300.6408696161
 31
0.0
 40
0.2655910011
 41
-3.6346325759
 42
-3.6279442873
  0
ELLIPSE
  5
318
100
AcDbEntity
  8
0
100
AcDbEllipse
 62
7
  6
CONTINUOUS
 10
347.0278051647
 20
169.0169474862
 30
0.0
 11
146.366494401
 21
402.5144736846
 31
0.0
 40
0.6762685217
 41
-3.8633085101
 42
-3.8589548307
  0
ELLIPSE
  5
319
100
AcDbEntity
  8
0
100
AcDbEllipse
 62
7
  6
CONTINUOUS
 10
347.0278051647
 20
169.0169474862
 30
0.0
 11
146.3142393155
 21
402.3707698382
 31
0.0
 40
0.6762685217
 41
-3.863281144
 42
-3.8593462569
  0
ELLIPSE
  5
31A
100
AcDbEntity
  8
0
100
AcDbEllipse
 62
7
  6
CONTINUOUS
 10
361.1803615654
 20
159.0095788841
 30
0.0
 11
296.1012250984
 21
304.6667371811
 31
0.0
 40
0.2907020299
 41
-3.6327314312
 42
-3.6283221559
  0
ELLIPSE
  5
31B
100
AcDbEntity
  8
0
100
AcDbEllipse
 62
7
  6
CONTINUOUS
 10
361.1803615654
 20
159.0095788841
 30
0.0
 11
295.9955124154
 21
304.5579664788
 31
0.0
 40
0.2907020299
 41
-3.6312898017
 42
-3.6282923867
  0
ELLIPSE
  5
31C
100
AcDbEntity
  8
0
100
AcDbEllipse
 62
7
  6
CONTINUOUS
 10
348.8826052791
 20
167.7054057475
 30
0.0
 11
128.7064701197
 21
411.2244990907
 31
0.0
 40
0.6912202019
 41
-3.9000638432
 42
-3.893377941
  0
ELLIPSE
  5
31D
100
AcDbEntity
  8
0
100
AcDbEllipse
 62
7
  6
CONTINUOUS
 10
348.8826052791
 20
167.7054057475
 30
0.0
 11
128.6605199341
 21
411.0776856315
 31
0.0
 40
0.6912202019
 41
-3.900036477
 42
-3.8933481717
  0
ELLIPSE
  5
31E
100
AcDbEntity
  8
0
100
AcDbEllipse
 62
7
  6
CONTINUOUS
 10
363.4577921044
 20
157.3991923063
 30
0.0
 11
301.6309435557
 21
300.7484417327
 31
0.0
 40
0.265592294
 41
-3.6292891746
 42
-3.6279740692
  0
ELLIPSE
  5
31F
100
AcDbEntity
  8
0
100
AcDbEllipse
 62
7
  6
CONTINUOUS
 10
363.4577921044
 20
157.3991923063
 30
0.0
 11
301.5232566783
 21
300.641069922
 31
0.0
 40
0.265592294
 41
2.6545009507
 42
2.6552410072
  0
ELLIPSE
  5
320
100
AcDbEntity
  8
0
100
AcDbEllipse
 62
7
  6
CONTINUOUS
 10
363.4573518724
 20
157.3995035973
 30
0.0
 11
301.6279644201
 21
300.7505472905
 31
0.0
 40
0.2656058792
 41
-3.6325779844
 42
-3.6305595836
  0
ELLIPSE
  5
321
100
AcDbEntity
  8
0
100
AcDbEllipse
 62
7
  6
CONTINUOUS
 10
363.4573518724
 20
157.3995035973
 30
0.0
 11
301.5202786064
 21
300.6431747281
 31
0.0
 40
0.2656058792
 41
-3.6316331179
 42
-3.630530744
  0
ELLIPSE
  5
322
100
AcDbEntity
  8
0
100
AcDbEllipse
 62
7
  6
CONTINUOUS
 10
345.8626000194
 20
169.8408719459
 30
0.0
 11
-0.5122673036
 21
457.1144125167
 31
0.0
 40
0.7320503028
 41
-4.1552860181
 42
-4.1525396587
  0
ELLIPSE
  5
323
100
AcDbEntity
  8
0
100
AcDbEllipse
 62
7
  6
CONTINUOUS
 10
345.8626000194
 20
169.8408719459
 30
0.0
 11
-0.5120844163
 21
456.951215654
 31
0.0
 40
0.7320503028
 41
-4.1549913932
 42
-4.1525098894
  0
ENDSEC
  0
SECTION
  2
OBJECTS
  0
DICTIONARY
  5
C
100
AcDbDictionary
280
0
281
1
  3
ACAD_GROUP
350
D
  3
ACAD_MLINESTYLE
350
17
  3
ACAD_LAYOUT
350
1A
  3
ACAD_PLOTSETTINGS
350
19
  3
ACAD_PLOTSTYLENAME
350
E
  0
DICTIONARY
  5
D
102
{ACAD_REACTORS
330
C
102
}
100
AcDbDictionary
280
0
281
1
  0
ACDBDICTIONARYWDFLT
  5
E
102
{ACAD_REACTORS
330
C
102
}
100
AcDbDictionary
281
1
  3
Normal
350
F
100
AcDbDictionaryWithDefault
340
F
  0
DICTIONARY
  5
17
102
{ACAD_REACTORS
330
C
102
}
100
AcDbDictionary
280
0
281
1
  3
Standard
350
18
  0
DICTIONARY
  5
19
102
{ACAD_REACTORS
330
C
102
}
100
AcDbDictionary
281
1
  0
DICTIONARY
  5
1A
102
{ACAD_REACTORS
330
C
102
}
100
AcDbDictionary
281
1
  3
Model
350
324
  3
Layout1
350
325
  0
ACDBPLACEHOLDER
  5
F
102
{ACAD_REACTORS
330
E
102
}
  0
MLINESTYLE
  5
18
102
{ACAD_REACTORS
330
17
102
}
100
AcDbMlineStyle
  2
STANDARD
 70
0
  3

 62
256
 51
90.0
 52
90.0
 71
2
 49
0.5
 62
256
  6
BYLAYER
 49
-0.5
 62
256
  6
BYLAYER
  0
LAYOUT
  5
324
102
{ACAD_REACTORS
330
1A
102
}
100
AcDbPlotSettings
  1

  2
none_device
  4
ISO_A4_(297.00_x_210.00_MM)
  6

 40
0.0
 41
0.0
 42
0.0
 43
0.0
 44
297.0
 45
210.0
 46
0.0
 47
0.0
 48
0.0
 49
0.0
140
0.0
141
0.0
142
1.0
143
1.0
 70
1024
 72
1
 73
0
 74
0
  7

 75
0
147
1.0
148
0.0
149
0.0
100
AcDbLayout
  1
Model
 70
0
 71
0
 10
0.0
 20
0.0
 11
297.0
 21
210.0
 12
0.0
 22
0.0
 32
0.0
 14
0.0
 24
0.0
 34
0.0
 15
0.0
 25
0.0
 35
0.0
146
0.0
 13
0.0
 23
0.0
 33
0.0
 16
1.0
 26
0.0
 36
0.0
 17
0.0
 27
1.0
 37
0.0
 76
0
330
212
345
0
346
0
  0
LAYOUT
  5
325
102
{ACAD_REACTORS
330
1A
102
}
100
AcDbPlotSettings
  1

  2
none_device
  4
ISO_A4_(297.00_x_210.00_MM)
  6

 40
0.0
 41
0.0
 42
0.0
 43
0.0
 44
297.0
 45
210.0
 46
0.0
 47
0.0
 48
0.0
 49
0.0
140
0.0
141
0.0
142
1.0
143
1.0
 70
0
 72
1
 73
0
 74
0
  7

 75
0
147
1.0
148
0.0
149
0.0
100
AcDbLayout
  1
Layout1
 70
0
 71
1
 10
0.0
 20
0.0
 11
297.0
 21
210.0
 12
0.0
 22
0.0
 32
0.0
 14
0.0
 24
0.0
 34
0.0
 15
0.0
 25
0.0
 35
0.0
146
0.0
 13
0.0
 23
0.0
 33
0.0
 16
1.0
 26
0.0
 36
0.0
 17
0.0
 27
1.0
 37
0.0
 76
0
330
213
345
0
346
0
  0
ENDSEC
  0
EOF
