  0
SECTION
  2
HEADER
  9
$ACADVER
  1
AC1024
  9
$DWGCODEPAGE
  3
ANSI_1252
  9
$EXTMAX
 10
297.0
 20
210.0
 30
0.0
  9
$EXTMIN
 10
0.0
 20
0.0
 30
0.0
  9
$LIMMIN
 10
0.0
 20
0.0
  9
$LIMMAX
 10
297.0
 20
210.0
  9
$VIEWCTR
 10
148.5
 20
105.0
  9
$VIEWSIZE
 40
210.0
  9
$CLAYER
  8
0
  9
$LTSCALE
 40
16.335
  9
$CELTYPE
  6
BYLAYER
  9
$DIMSCALE
 40
1.0
  9
$DIMASZ
 40
3.0
  9
$DIMEXO
 40
0.5
  9
$DIMDLI
 40
11.286
  9
$DIMEXE
 40
1.5
  9
$DIMCEN
 40
2.673
  9
$DIMLFAC
 40
1.0
  9
$DIMBLK
  1
_FILLED
  9
$DIMALT
 70
0
  9
$DIMALTF
 40
25.4
  9
$DIMTXT
 40
3.0
  9
$DIMTOL
 70
1
  9
$DIMLIM
 70
0
  9
$DIMTFAC
 40
1.0
  9
$DIMTP
 40
0.01
  9
$DIMTM
 40
0.01
  9
$DIMGAP
 40
0.625
  9
$DIMDSEP
 70
44
  9
$AUNITS
 70
0
  9
$PDMODE
 70
3
  9
$PDSIZE
 40
3.0
  9
$HANDSEED
  5
30A
  9
$TILEMODE
 70
1
  9
$MEASUREMENT
 70
1
  9
$INSUNITS
 70
4
  0
ENDSEC
  0
SECTION
  2
CLASSES
  0
CLASS
  1
ACDBDICTIONARYWDFLT
  2
AcDbDictionaryWithDefault
  3
AutoCAD 2000
 90
0
 91
1
280
0
281
0
  0
CLASS
  1
ACDBPLACEHOLDER
  2
AcDbPlaceHolder
  3
AutoCAD 2000
 90
0
 91
1
280
0
281
0
  0
CLASS
  1
LAYOUT
  2
AcDbLayout
  3
AutoCAD 2000
 90
0
 91
0
280
0
281
0
  0
ENDSEC
  0
SECTION
  2
TABLES
  0
TABLE
  2
VPORT
  5
8
100
AcDbSymbolTable
 70
2
  0
VPORT
  5
1F4
100
AcDbSymbolTableRecord
100
AcDbViewportTableRecord
  2
*ACTIVE
 70
0
 10
0.0
 20
0.0
 11
1.0
 21
1.0
 12
148.5
 22
105.0
 13
0.0
 23
0.0
 14
1.0
 24
1.0
 15
0.0
 25
0.0
 16
0.0
 26
0.0
 36
1.0
 17
0.0
 27
0.0
 37
0.0
 40
210.0
 41
1.4142857143
 42
50.0
 43
0.0
 44
0.0
 50
0.0
 51
0.0
 71
0
 72
100
 73
1
 74
1
 75
0
 76
0
 77
0
 78
0
  0
ENDTAB
  0
TABLE
  2
LTYPE
  5
5
100
AcDbSymbolTable
 70
6
  0
LTYPE
  5
14
100
AcDbSymbolTableRecord
100
AcDbLinetypeTableRecord
  2
BYBLOCK
 70
0
  3

 72
65
 73
0
 40
0.0
  0
LTYPE
  5
15
100
AcDbSymbolTableRecord
100
AcDbLinetypeTableRecord
  2
BYLAYER
 70
0
  3

 72
65
 73
0
 40
0.0
  0
LTYPE
  5
16
100
AcDbSymbolTableRecord
100
AcDbLinetypeTableRecord
  2
CONTINUOUS
 70
64
  3
Solid line
 72
65
 73
0
 40
0.0
  0
LTYPE
  5
1F5
100
AcDbSymbolTableRecord
100
AcDbLinetypeTableRecord
  2
CENTER
 70
64
  3
____ _ ____ _ ____ _ ____ _ ____ _ ____ _ ____
 72
65
 73
4
 40
0.6
 49
0.375
 74
0
 49
-0.075
 74
0
 49
0.075
 74
0
 49
-0.075
 74
0
  0
LTYPE
  5
1F6
100
AcDbSymbolTableRecord
100
AcDbLinetypeTableRecord
  2
HIDDEN
 70
64
  3
- - - - - - - - - - - - - - - - - - - -
 72
65
 73
2
 40
0.2
 49
0.1
 74
0
 49
-0.1
 74
0
  0
LTYPE
  5
1F7
100
AcDbSymbolTableRecord
100
AcDbLinetypeTableRecord
  2
PHANTOM
 70
64
  3
_____ _ _ _____ _ _ _____ _ _ _____
 72
65
 73
6
 40
0.8
 49
0.45
 74
0
 49
-0.05
 74
0
 49
0.1
 74
0
 49
-0.05
 74
0
 49
0.1
 74
0
 49
-0.05
 74
0
  0
LTYPE
  5
1F8
100
AcDbSymbolTableRecord
100
AcDbLinetypeTableRecord
  2
DOT
 70
64
  3
. . . . . . . . . . . . . . . . . . . .
 72
65
 73
2
 40
0.2
 49
0.1
 74
0
 49
-0.1
 74
0
  0
LTYPE
  5
1F9
100
AcDbSymbolTableRecord
100
AcDbLinetypeTableRecord
  2
DASHED
 70
64
  3
- - - - - - - - - - - - - - - - - - - -
 72
65
 73
2
 40
0.2
 49
0.1
 74
0
 49
-0.1
 74
0
  0
ENDTAB
  0
TABLE
  2
LAYER
  5
2
100
AcDbSymbolTable
 70
36
  0
LAYER
  5
10
100
AcDbSymbolTableRecord
100
AcDbLayerTableRecord
  2
0
 70
0
 62
7
  6
CONTINUOUS
370
-3
390
F
  0
LAYER
  5
1FA
100
AcDbSymbolTableRecord
100
AcDbLayerTableRecord
  2
DEFAULT_1
 70
0
 62
7
  6
CENTER
370
-3
390
F
  0
LAYER
  5
1FB
100
AcDbSymbolTableRecord
100
AcDbLayerTableRecord
  2
DEFAULT_2
 70
0
 62
7
  6
HIDDEN
370
-3
390
F
  0
LAYER
  5
1FC
100
AcDbSymbolTableRecord
100
AcDbLayerTableRecord
  2
DEFAULT_3
 70
0
 62
7
  6
PHANTOM
370
-3
390
F
  0
LAYER
  5
1FD
100
AcDbSymbolTableRecord
100
AcDbLayerTableRecord
  2
26216763_GEN
 70
0
 62
7
  6
CONTINUOUS
370
-3
390
F
  0
LAYER
  5
1FE
100
AcDbSymbolTableRecord
100
AcDbLayerTableRecord
  2
ASSI
 70
0
 62
7
  6
CONTINUOUS
370
-3
390
F
  0
LAYER
  5
1FF
100
AcDbSymbolTableRecord
100
AcDbLayerTableRecord
  2
COORDINATE
 70
0
 62
7
  6
CONTINUOUS
370
-3
390
F
  0
LAYER
  5
200
100
AcDbSymbolTableRecord
100
AcDbLayerTableRecord
  2
COORD_ORIGINE
 70
0
 62
7
  6
CONTINUOUS
370
-3
390
F
  0
LAYER
  5
201
100
AcDbSymbolTableRecord
100
AcDbLayerTableRecord
  2
COSMETICI
 70
0
 62
7
  6
CONTINUOUS
370
-3
390
F
  0
LAYER
  5
202
100
AcDbSymbolTableRecord
100
AcDbLayerTableRecord
  2
CURVE
 70
0
 62
7
  6
CONTINUOUS
370
-3
390
F
  0
LAYER
  5
203
100
AcDbSymbolTableRecord
100
AcDbLayerTableRecord
  2
DRAFT
 70
0
 62
7
  6
CONTINUOUS
370
-3
390
F
  0
LAYER
  5
204
100
AcDbSymbolTableRecord
100
AcDbLayerTableRecord
  2
IGES_SCRITTE
 70
0
 62
7
  6
CONTINUOUS
370
-3
390
F
  0
LAYER
  5
205
100
AcDbSymbolTableRecord
100
AcDbLayerTableRecord
  2
IMPORT_FEATURE
 70
0
 62
7
  6
CONTINUOUS
370
-3
390
F
  0
LAYER
  5
206
100
AcDbSymbolTableRecord
100
AcDbLayerTableRecord
  2
INTF_1
 70
0
 62
7
  6
CONTINUOUS
370
-3
390
F
  0
LAYER
  5
207
100
AcDbSymbolTableRecord
100
AcDbLayerTableRecord
  2
LAY0001
 70
0
 62
7
  6
CONTINUOUS
370
-3
390
F
  0
LAYER
  5
208
100
AcDbSymbolTableRecord
100
AcDbLayerTableRecord
  2
NOTE
 70
0
 62
7
  6
CONTINUOUS
370
-3
390
F
  0
LAYER
  5
209
100
AcDbSymbolTableRecord
100
AcDbLayerTableRecord
  2
PIANI
 70
0
 62
7
  6
CONTINUOUS
370
-3
390
F
  0
LAYER
  5
20A
100
AcDbSymbolTableRecord
100
AcDbLayerTableRecord
  2
PIANI_DI_RIFERIMENTO
 70
0
 62
7
  6
CONTINUOUS
370
-3
390
F
  0
LAYER
  5
20B
100
AcDbSymbolTableRecord
100
AcDbLayerTableRecord
  2
PIANI_ORIGINE
 70
0
 62
7
  6
CONTINUOUS
370
-3
390
F
  0
LAYER
  5
20C
100
AcDbSymbolTableRecord
100
AcDbLayerTableRecord
  2
PUNTI
 70
0
 62
7
  6
CONTINUOUS
370
-3
390
F
  0
LAYER
  5
20D
100
AcDbSymbolTableRecord
100
AcDbLayerTableRecord
  2
RACCORDO
 70
0
 62
7
  6
CONTINUOUS
370
-3
390
F
  0
LAYER
  5
20E
100
AcDbSymbolTableRecord
100
AcDbLayerTableRecord
  2
RGB____0____0____0__
 70
0
 62
7
  6
CONTINUOUS
370
-3
390
F
  0
LAYER
  5
20F
100
AcDbSymbolTableRecord
100
AcDbLayerTableRecord
  2
SIMBOLI
 70
0
 62
7
  6
CONTINUOUS
370
-3
390
F
  0
LAYER
  5
210
100
AcDbSymbolTableRecord
100
AcDbLayerTableRecord
  2
SNAPLINE
 70
0
 62
7
  6
CONTINUOUS
370
-3
390
F
  0
LAYER
  5
211
100
AcDbSymbolTableRecord
100
AcDbLayerTableRecord
  2
SUPERFICI
 70
0
 62
7
  6
CONTINUOUS
370
-3
390
F
  0
LAYER
  5
212
100
AcDbSymbolTableRecord
100
AcDbLayerTableRecord
  2
TRASH
 70
0
 62
7
  6
CONTINUOUS
370
-3
390
F
  0
LAYER
  5
213
100
AcDbSymbolTableRecord
100
AcDbLayerTableRecord
  2
XSEC_DATUMS
 70
0
 62
7
  6
CONTINUOUS
370
-3
390
F
  0
ENDTAB
  0
TABLE
  2
STYLE
  5
3
100
AcDbSymbolTable
 70
1
  0
STYLE
  5
11
100
AcDbSymbolTableRecord
100
AcDbTextStyleTableRecord
  2
STANDARD
 70
0
 40
0.0
 41
0.8
 50
0.0
 71
0
 42
0.2
  3
txt
  4

  0
STYLE
  5
214
100
AcDbSymbolTableRecord
100
AcDbTextStyleTableRecord
  2
TEXTSTYLE_1
 70
0
 40
0.0
 41
0.8
 50
0.0
 71
0
 42
0.2
  3
gdt
  4

  0
ENDTAB
  0
TABLE
  2
VIEW
  5
6
100
AcDbSymbolTable
 70
0
  0
ENDTAB
  0
TABLE
  2
UCS
  5
7
100
AcDbSymbolTable
 70
0
  0
ENDTAB
  0
TABLE
  2
APPID
  5
9
100
AcDbSymbolTable
 70
1
  0
APPID
  5
215
100
AcDbSymbolTableRecord
100
AcDbRegAppTableRecord
  2
ACAD
 70
0
  0
ENDTAB
  0
TABLE
  2
BLOCK_RECORD
  5
1
100
AcDbSymbolTable
 70
0
  0
BLOCK_RECORD
  5
216
100
AcDbSymbolTableRecord
100
AcDbBlockTableRecord
  2
*Model_Space
  0
BLOCK_RECORD
  5
217
100
AcDbSymbolTableRecord
100
AcDbBlockTableRecord
  2
*Paper_Space
  0
ENDTAB
  0
TABLE
  2
DIMSTYLE
  5
A
100
AcDbSymbolTable
 70
1
100
AcDbDimStyleTable
 71
0
  0
DIMSTYLE
105
218
100
AcDbSymbolTableRecord
100
AcDbDimStyleTableRecord
  2
STANDARD
 70
0
  3

  4

 40
1.0
 41
3.0
 42
0.5
 43
0.38
 44
1.5
 45
0.0
 46
0.0
 47
0.01
 48
0.01
140
3.0
141
0.09
142
0.0
143
25.4
144
1.0
145
0.0
146
1.0
147
0.625
 71
1.0
 72
0.0
 73
0
 74
0
 75
0
 76
0
 77
1
 78
8
170
0
171
1
172
0
173
0
174
0
175
0
176
0
177
0
178
0
270
2
271
2
272
2
273
2
274
2
275
0
280
0
281
0
282
0
283
1
284
8
285
0
286
0
287
3
288
0
340
11
278
44
  0
ENDTAB
  0
ENDSEC
  0
SECTION
  2
BLOCKS
  0
BLOCK
  5
20
100
AcDbEntity
  8
0
100
AcDbBlockBegin
  2
*Model_Space
 70
0
 10
0.0
 20
0.0
 30
0.0
  3
*Model_Space
  1

  0
ENDBLK
  5
21
100
AcDbEntity
  8
0
100
AcDbBlockEnd
  0
BLOCK
  5
1C
100
AcDbEntity
  8
0
100
AcDbBlockBegin
  2
*Paper_Space
 70
0
 10
0.0
 20
0.0
 30
0.0
  3
*Paper_Space
  1

  0
ENDBLK
  5
1D
100
AcDbEntity
  8
0
100
AcDbBlockEnd
  0
ENDSEC
  0
SECTION
  2
ENTITIES
  0
LWPOLYLINE
  5
219
100
AcDbEntity
  8
0
100
AcDbPolyline
 62
7
  6
CONTINUOUS
 90
39
 70
0
 10
-40.6149807795
 20
54.2636546686
 10
-40.7157278196
 20
54.1844268966
 10
-40.8149815548
 20
54.1031340585
 10
-40.9126954682
 20
54.0198087936
 10
-41.0088247829
 20
53.9344847804
 10
-41.1033710372
 20
53.8471548397
 10
-41.1962889596
 20
53.7578529892
 10
-41.2875345813
 20
53.6666141204
 10
-41.3771086479
 20
53.5734282163
 10
-41.4649682695
 20
53.4783291569
 10
-41.5510692462
 20
53.3813545877
 10
-41.6354078486
 20
53.2824963274
 10
-41.7179415516
 20
53.181789692
 10
-41.7986280063
 20
53.0792732062
 10
-41.8774611051
 20
52.974939353
 10
-41.9543989101
 20
52.868825774
 10
-42.0294010473
 20
52.7609708239
 10
-42.1024615257
 20
52.6513641276
 10
-42.1735407276
 20
52.5400432072
 10
-42.2425988232
 20
52.4270484614
 10
-42.3096271958
 20
52.3123694687
 10
-42.3745895784
 20
52.1960412527
 10
-42.4374459559
 20
52.0781081865
 10
-42.4981806162
 20
51.9585695383
 10
-42.5567574176
 20
51.8374641867
 10
-42.6131407453
 20
51.714833702
 10
-42.667314634
 20
51.5906765608
 10
-42.7192445625
 20
51.4650319152
 10
-42.7688973769
 20
51.3379405563
 10
-42.8162574766
 20
51.209397446
 10
-42.861293687
 20
51.079435754
 10
-42.9039725687
 20
50.9481006203
 10
-42.9442736286
 20
50.8153982842
 10
-42.9821666715
 20
50.6813633973
 10
-43.0176214971
 20
50.5460359598
 10
-43.0506166773
 20
50.4094227744
 10
-43.0811254077
 20
50.2715474233
 10
-43.1091165379
 20
50.1324592986
 10
-43.1313241766
 20
50.0109262535
  0
LINE
  5
21A
100
AcDbEntity
  8
0
100
AcDbLine
 62
7
  6
CONTINUOUS
 10
-39.0666289432
 20
55.4456877017
 11
-40.6149807795
 21
54.2636546686
  0
LWPOLYLINE
  5
21B
100
AcDbEntity
  8
0
100
AcDbPolyline
 62
253
  6
CONTINUOUS
 90
47
 70
0
 10
-40.5921021499
 20
54.2812006123
 10
-40.5187220052
 20
54.3353406249
 10
-40.4475437962
 20
54.3844163777
 10
-40.3749944756
 20
54.4311528068
 10
-40.3011012538
 20
54.4755323216
 10
-40.2258894824
 20
54.5175399522
 10
-40.1493849165
 20
54.5571616151
 10
-40.0716160876
 20
54.5943822562
 10
-39.9926097705
 20
54.6291893842
 10
-39.9123930639
 20
54.6615714345
 10
-39.8309956583
 20
54.6915159686
 10
-39.7484456212
 20
54.7190130266
 10
-39.664771349
 20
54.7440535737
 10
-39.5800036539
 20
54.7666277978
 10
-39.494171852
 20
54.7867282889
 10
-39.4073055065
 20
54.8043485881
 10
-39.3194363809
 20
54.8194815575
 10
-39.2305949062
 20
54.8321223651
 10
-39.140811756
 20
54.8422671315
 10
-39.0501195908
 20
54.8499114011
 10
-38.958549895
 20
54.8550529298
 10
-38.8661343233
 20
54.8576904367
 10
-38.7729062743
 20
54.8578221635
 10
-38.6788981408
 20
54.8554484583
 10
-38.5841425024
 20
54.8505706347
 10
-38.4886734699
 20
54.8431896359
 10
-38.3925242965
 20
54.8333084055
 10
-38.2957283348
 20
54.820930851
 10
-38.1983202262
 20
54.8060606117
 10
-38.1003339714
 20
54.7887032151
 10
-38.0018035988
 20
54.7688651463
 10
-37.9027641173
 20
54.7465527144
 10
-37.8032501495
 20
54.7217740092
 10
-37.7032963103
 20
54.6945380644
 10
-37.6029378683
 20
54.6648538159
 10
-37.5022098672
 20
54.632731844
 10
-37.4011474922
 20
54.598183733
 10
-37.2997864439
 20
54.5612211305
 10
-37.19816216
 20
54.5218571275
 10
-37.0963102116
 20
54.480105806
 10
-36.9942666692
 20
54.435981518
 10
-36.8920675155
 20
54.3894999293
 10
-36.7897483376
 20
54.3406775126
 10
-36.6873447241
 20
54.2895310123
 10
-36.584892508
 20
54.236078302
 10
-36.4824277544
 20
54.1803384234
 10
-36.3799864548
 20
54.1223310368
  0
LWPOLYLINE
  5
21C
100
AcDbEntity
  8
0
100
AcDbPolyline
 62
253
  6
CONTINUOUS
 90
67
 70
0
 10
-36.3799864548
 20
54.1223310368
 10
-36.4597960517
 20
54.0656008202
 10
-36.5393981062
 20
54.0070891099
 10
-36.6187586478
 20
53.9468208759
 10
-36.6978438092
 20
53.8848218379
 10
-36.7766198407
 20
53.821118454
 10
-36.8550531244
 20
53.7557379099
 10
-36.9331101887
 20
53.6887081068
 10
-37.0107577225
 20
53.6200576499
 10
-37.0879625897
 20
53.549815836
 10
-37.1646918428
 20
53.4780126408
 10
-37.2409127373
 20
53.4046787067
 10
-37.316592746
 20
53.3298453289
 10
-37.3916995721
 20
53.2535444429
 10
-37.4662011637
 20
53.1758086103
 10
-37.5400657269
 20
53.0966710049
 10
-37.6132617399
 20
53.016165399
 10
-37.6857579662
 20
52.9343261486
 10
-37.7575234677
 20
52.8511881786
 10
-37.8285276184
 20
52.7667869685
 10
-37.8987401171
 20
52.6811585367
 10
-37.9681310005
 20
52.5943394253
 10
-38.0366706557
 20
52.5063666846
 10
-38.1043298334
 20
52.4172778572
 10
-38.1710796599
 20
52.3271109619
 10
-38.2368916494
 20
52.2359044777
 10
-38.3017377165
 20
52.1436973272
 10
-38.3655901881
 20
52.0505288599
 10
-38.4284218148
 20
51.9564388359
 10
-38.4902057833
 20
51.8614674081
 10
-38.550915727
 20
51.765655106
 10
-38.6105257378
 20
51.6690428176
 10
-38.669010377
 20
51.5716717725
 10
-38.7263446861
 20
51.473583524
 10
-38.7825041975
 20
51.3748199315
 10
-38.8374649452
 20
51.2754231425
 10
-38.8912034743
 20
51.1754355751
 10
-38.9436968519
 20
51.0748998989
 10
-38.9949226764
 20
50.973859018
 10
-39.0448590869
 20
50.8723560518
 10
-39.0934847729
 20
50.7704343168
 10
-39.1407789834
 20
50.6681373085
 10
-39.1867215354
 20
50.5655086823
 10
-39.2312928229
 20
50.4625922352
 10
-39.2744738248
 20
50.3594318872
 10
-39.3162461137
 20
50.2560716621
 10
-39.3565918631
 20
50.1525556691
 10
-39.3954938553
 20
50.048928084
 10
-39.4329354888
 20
49.9452331301
 10
-39.4689007854
 20
49.8415150594
 10
-39.5033743967
 20
49.737818134
 10
-39.5363416111
 20
49.6341866066
 10
-39.5677883596
 20
49.5306647024
 10
-39.5977012224
 20
49.4272965995
 10
-39.626067434
 20
49.3241264106
 10
-39.6528748892
 20
49.2211981637
 10
-39.6781121476
 20
49.1185557837
 10
-39.7017684394
 20
49.0162430736
 10
-39.723833669
 20
48.9143036955
 10
-39.7442984202
 20
48.8127811524
 10
-39.7631539595
 20
48.7117187691
 10
-39.7803922402
 20
48.6111596743
 10
-39.796005906
 20
48.5111467819
 10
-39.8099882936
 20
48.4117227726
 10
-39.822333436
 20
48.3129300759
 10
-39.833036065
 20
48.2148108517
 10
-39.842091613
 20
48.1174069727
  0
LINE
  5
21D
100
AcDbEntity
  8
0
100
AcDbLine
 62
253
  6
CONTINUOUS
 10
-34.7802463828
 20
55.2401453716
 11
-36.3799864548
 21
54.1223310368
  0
LWPOLYLINE
  5
21E
100
AcDbEntity
  8
0
100
AcDbPolyline
 62
253
  6
CONTINUOUS
 90
43
 70
0
 10
-43.1313262084
 20
50.0109145886
 10
-43.1388806632
 20
49.9639190974
 10
-43.1474083618
 20
49.8976614593
 10
-43.1535174825
 20
49.8310341908
 10
-43.1572053065
 20
49.7640669439
 10
-43.1584701926
 20
49.6967895217
 10
-43.1573115779
 20
49.6292318655
 10
-43.1537299778
 20
49.5614240413
 10
-43.1477269866
 20
49.4933962263
 10
-43.1393052756
 20
49.4251786959
 10
-43.128468593
 20
49.3568018095
 10
-43.1152217614
 20
49.2882959979
 10
-43.0995706763
 20
49.2196917489
 10
-43.0815223032
 20
49.1510195942
 10
-43.0610846741
 20
49.0823100959
 10
-43.0382668848
 20
49.0135938326
 10
-43.0130790902
 20
48.9449013857
 10
-42.9855324997
 20
48.8762633264
 10
-42.9556393729
 20
48.8077102014
 10
-42.9234130133
 20
48.7392725197
 10
-42.8888677632
 20
48.6709807389
 10
-42.8520189964
 20
48.6028652518
 10
-42.8128831124
 20
48.5349563725
 10
-42.7714775281
 20
48.4672843233
 10
-42.7278206708
 20
48.3998792211
 10
-42.6819319696
 20
48.332771064
 10
-42.6338318469
 20
48.2659897179
 10
-42.5835417092
 20
48.1995649033
 10
-42.5310839378
 20
48.133526182
 10
-42.4764818785
 20
48.0679029439
 10
-42.4197598316
 20
48.0027243942
 10
-42.3609430406
 20
47.93801954
 10
-42.3000576816
 20
47.8738171776
 10
-42.237130851
 20
47.8101458799
 10
-42.1721905539
 20
47.7470339831
 10
-42.1052656914
 20
47.6845095747
 10
-42.0363860479
 20
47.6226004806
 10
-41.9655822777
 20
47.561334253
 10
-41.8928858915
 20
47.5007381579
 10
-41.818329242
 20
47.4408391631
 10
-41.7419455103
 20
47.3816639261
 10
-41.6637686901
 20
47.3232387824
 10
-41.5838335734
 20
47.2655897336
  0
LWPOLYLINE
  5
21F
100
AcDbEntity
  8
0
100
AcDbPolyline
 62
7
  6
CONTINUOUS
 90
49
 70
0
 10
-43.1313262129
 20
50.0109145894
 10
-43.3280167602
 20
48.8576454594
 10
-43.518333944
 20
47.6918506317
 10
-43.7001759331
 20
46.5256211618
 10
-43.8735350569
 20
45.3590358392
 10
-44.0384155801
 20
44.192105402
 10
-44.1948297979
 20
43.0247752918
 10
-44.3427757645
 20
41.8570871027
 10
-44.4822527524
 20
40.6890838779
 10
-44.6132708311
 20
39.5207126453
 10
-44.7358280108
 20
38.3520159968
 10
-44.8499237178
 20
37.1830372286
 10
-44.9555660962
 20
36.0137239211
 10
-45.0527533985
 20
34.8441184494
 10
-45.1414852796
 20
33.6742639435
 10
-45.2217679608
 20
32.5041086986
 10
-45.2935998641
 20
31.333695633
 10
-45.3569809125
 20
30.1630673737
 10
-45.4119155409
 20
28.9921714436
 10
-45.4584023984
 20
27.8210505097
 10
-45.4964416096
 20
26.6497473563
 10
-45.5260357635
 20
25.4782094307
 10
-45.5471837214
 20
24.3064793933
 10
-45.559885827
 20
23.1345999566
 10
-45.5641428273
 20
21.9625184769
 10
-45.5599538
 20
20.7902775089
 10
-45.5473193054
 20
19.6179197664
 10
-45.5262382537
 20
18.4453927606
 10
-45.4967099445
 20
17.2727390564
 10
-45.4587351597
 20
16.1000012411
 10
-45.4123109817
 20
14.9271268589
 10
-45.3574369361
 20
13.7541584771
 10
-45.2941140213
 20
12.5811385376
 10
-45.2223374854
 20
11.4080144795
 10
-45.1421070598
 20
10.2348285966
 10
-45.0534239732
 20
9.0616234754
 10
-44.9562816981
 20
7.8883471596
 10
-44.8506802359
 20
6.7150423264
 10
-44.7366209871
 20
5.5417509156
 10
-44.6140955148
 20
4.3684201123
 10
-44.4831040519
 20
3.19509266
 10
-44.3436482407
 20
2.0218105896
 10
-44.1957177281
 20
0.8485203509
 10
-44.0393129018
 20
-0.3247356771
 10
-43.8744353604
 20
-1.4979165822
 10
-43.7010725322
 20
-2.6710776993
 10
-43.5192198364
 20
-3.8442091077
 10
-43.3288845711
 20
-5.0172327644
 10
-43.132356022
 20
-6.1768951679
  0
LWPOLYLINE
  5
220
100
AcDbEntity
  8
0
100
AcDbPolyline
 62
253
  6
CONTINUOUS
 90
58
 70
0
 10
-41.5838335735
 20
47.2655897336
 10
-41.5748722076
 20
47.313970865
 10
-41.5648491777
 20
47.3614980268
 10
-41.5537645844
 20
47.4081711709
 10
-41.5416072068
 20
47.454026923
 10
-41.5283884542
 20
47.4990285669
 10
-41.5141424235
 20
47.5430660174
 10
-41.4988682948
 20
47.5861303391
 10
-41.482567189
 20
47.628230325
 10
-41.465276206
 20
47.6692824393
 10
-41.4469928282
 20
47.7092851644
 10
-41.4277199451
 20
47.748239843
 10
-41.407502845
 20
47.7860671937
 10
-41.3863400146
 20
47.8227636075
 10
-41.3642334064
 20
47.8583324878
 10
-41.3412335788
 20
47.8927050386
 10
-41.317338773
 20
47.9258783876
 10
-41.2925512395
 20
47.9578551778
 10
-41.2669276142
 20
47.9885748572
 10
-41.240467002
 20
48.0180338149
 10
-41.2131708304
 20
48.0462354141
 10
-41.1850992718
 20
48.07312954
 10
-41.1562507875
 20
48.0987134309
 10
-41.1266274738
 20
48.1229895897
 10
-41.0962950002
 20
48.145915778
 10
-41.0652525157
 20
48.1674886366
 10
-41.0335014417
 20
48.1877112605
 10
-41.0011108925
 20
48.2065510767
 10
-40.9680812786
 20
48.224004562
 10
-40.9344127583
 20
48.2400749766
 10
-40.900174093
 20
48.2547399109
 10
-40.8653639387
 20
48.2679968621
 10
-40.8299841911
 20
48.2798480785
 10
-40.7941084886
 20
48.2902782686
 10
-40.7577370251
 20
48.2992843997
 10
-40.7208701308
 20
48.3068692631
 10
-40.683581659
 20
48.313026299
 10
-40.6458714519
 20
48.3177528498
 10
-40.6077401513
 20
48.3210513502
 10
-40.5692628124
 20
48.3229228787
 10
-40.5304394875
 20
48.3233648814
 10
-40.4912705585
 20
48.3223797124
 10
-40.4518315705
 20
48.3199758134
 10
-40.4121227125
 20
48.316150816
 10
-40.372144171
 20
48.3109069163
 10
-40.3319714785
 20
48.3042594063
 10
-40.2916040967
 20
48.296205808
 10
-40.251042873
 20
48.2867484575
 10
-40.210365406
 20
48.2759098739
 10
-40.16957389
 20
48.2636886337
 10
-40.1286663678
 20
48.2500860516
 10
-40.0877141953
 20
48.235128761
 10
-40.0467085629
 20
48.2188100888
 10
-40.0056584406
 20
48.2011366345
 10
-39.9646618351
 20
48.1821549484
 10
-39.9237514428
 20
48.1618805347
 10
-39.8828946484
 20
48.1402978521
 10
-39.842091472
 20
48.1174068913
  0
LWPOLYLINE
  5
221
100
AcDbEntity
  8
RACCORDO
100
AcDbPolyline
 62
253
  6
CONTINUOUS
 90
46
 70
0
 10
-29.5109617639
 20
32.0488662494
 10
-29.4967135068
 20
32.0678470617
 10
-29.481940911
 20
32.0864592428
 10
-29.4666610342
 20
32.1046812937
 10
-29.4508915799
 20
32.1224922301
 10
-29.4346506982
 20
32.139871414
 10
-29.417956968
 20
32.15679858
 10
-29.4008296125
 20
32.173254116
 10
-29.3832884716
 20
32.1892190799
 10
-29.3653538027
 20
32.204675031
 10
-29.3470463183
 20
32.2196041171
 10
-29.3283871645
 20
32.2339890975
 10
-29.3093978944
 20
32.2478133609
 10
-29.2901004392
 20
32.2610609403
 10
-29.2705170875
 20
32.2737165362
 10
-29.2506704619
 20
32.2857655366
 10
-29.2305834857
 20
32.2971940264
 10
-29.2102793573
 20
32.3079888055
 10
-29.1897815283
 20
32.3181374075
 10
-29.1691136731
 20
32.3276281118
 10
-29.1482996619
 20
32.3364499567
 10
-29.1273635338
 20
32.3445927535
 10
-29.1063294689
 20
32.3520470975
 10
-29.0852217608
 20
32.3588043796
 10
-29.0640647892
 20
32.3648567966
 10
-29.0428829893
 20
32.3701973581
 10
-29.0217008251
 20
32.3748198963
 10
-29.0005427631
 20
32.378719074
 10
-28.9794332399
 20
32.3818903882
 10
-28.9583966359
 20
32.3843301759
 10
-28.9374572487
 20
32.3860356204
 10
-28.9166392622
 20
32.3870047523
 10
-28.8959667202
 20
32.387236452
 10
-28.8754634991
 20
32.3867304525
 10
-28.855153279
 20
32.3854873381
 10
-28.8350595172
 20
32.3835085447
 10
-28.8152054223
 20
32.3807963587
 10
-28.7956139244
 20
32.3773539122
 10
-28.7763076511
 20
32.3731851813
 10
-28.7573089021
 20
32.3682949826
 10
-28.7386396201
 20
32.3626889638
 10
-28.7203213672
 20
32.3563735997
 10
-28.7023753025
 20
32.3493561869
 10
-28.6848221537
 20
32.3416448307
 10
-28.6676821932
 20
32.3332484366
 10
-28.6509752167
 20
32.324176702
  0
LWPOLYLINE
  5
222
100
AcDbEntity
  8
RACCORDO
100
AcDbPolyline
 62
253
  6
CONTINUOUS
 90
43
 70
0
 10
-30.2909604359
 20
33.0758111327
 10
-30.2734283038
 20
33.0930063207
 10
-30.2553034152
 20
33.1097840134
 10
-30.2366095993
 20
33.1261221527
 10
-30.2173714334
 20
33.1419992586
 10
-30.1976142104
 20
33.1573944568
 10
-30.1773639057
 20
33.1722875071
 10
-30.1566471429
 20
33.186658829
 10
-30.1354911589
 20
33.2004895282
 10
-30.113923768
 20
33.2137614213
 10
-30.0919733254
 20
33.2264570591
 10
-30.0696686899
 20
33.2385597506
 10
-30.0470391861
 20
33.2500535839
 10
-30.0241145655
 20
33.2609234479
 10
-30.0009249677
 20
33.2711550516
 10
-29.9775008808
 20
33.2807349432
 10
-29.9538731009
 20
33.2896505279
 10
-29.9300726921
 20
33.2978900842
 10
-29.9061309456
 20
33.3054427791
 10
-29.882079338
 20
33.3122986831
 10
-29.8579494907
 20
33.3184487826
 10
-29.8337731278
 20
33.3238849917
 10
-29.8095820346
 20
33.3286001634
 10
-29.7854080158
 20
33.3325880985
 10
-29.7612828536
 20
33.3358435541
 10
-29.737238266
 20
33.33836225
 10
-29.7133058649
 20
33.3401408749
 10
-29.6895171151
 20
33.3411770904
 10
-29.6659032921
 20
33.3414695342
 10
-29.6424954416
 20
33.3410178217
 10
-29.6193243386
 20
33.3398225469
 10
-29.5964204467
 20
33.3378852811
 10
-29.5738138783
 20
33.3352085715
 10
-29.5515343548
 20
33.3317959371
 10
-29.5296111676
 20
33.3276518646
 10
-29.5080731398
 20
33.3227818024
 10
-29.4869485879
 20
33.3171921532
 10
-29.466265285
 20
33.3108902659
 10
-29.446050424
 20
33.3038844258
 10
-29.4263305817
 20
33.2961838436
 10
-29.4071316845
 20
33.2877986434
 10
-29.3884789735
 20
33.2787398496
 10
-29.3703969721
 20
33.2690193719
  0
LWPOLYLINE
  5
223
100
AcDbEntity
  8
0
100
AcDbPolyline
 62
253
  6
CONTINUOUS
 90
33
 70
0
 10
-43.1284685966
 20
-6.1985578827
 10
-43.115221765
 20
-6.2631332426
 10
-43.0995706799
 20
-6.32725283
 10
-43.0815223066
 20
-6.390888109
 10
-43.0610846774
 20
-6.4540107591
 10
-43.0382668881
 20
-6.5165926883
 10
-43.0130790933
 20
-6.5786060448
 10
-42.9855325027
 20
-6.6400232303
 10
-42.9556393758
 20
-6.7008169115
 10
-42.9234130161
 20
-6.7609600327
 10
-42.8888677659
 20
-6.8204258277
 10
-42.852018999
 20
-6.8791878318
 10
-42.8128831148
 20
-6.9372198933
 10
-42.7714775304
 20
-6.9944961856
 10
-42.727820673
 20
-7.0509912185
 10
-42.6819319717
 20
-7.1066798492
 10
-42.6338318489
 20
-7.1615372939
 10
-42.5835417111
 20
-7.2155391389
 10
-42.5310839395
 20
-7.2686613511
 10
-42.4764818801
 20
-7.3208802889
 10
-42.419759833
 20
-7.3721727126
 10
-42.3609430419
 20
-7.422515795
 10
-42.3000576827
 20
-7.4718871314
 10
-42.237130852
 20
-7.5202647494
 10
-42.1721905548
 20
-7.567627119
 10
-42.1052656922
 20
-7.6139531619
 10
-42.0363860486
 20
-7.6592222612
 10
-41.9655822782
 20
-7.7034142702
 10
-41.8928858918
 20
-7.7465095217
 10
-41.8183292422
 20
-7.7884888363
 10
-41.7419455103
 20
-7.8293335317
 10
-41.66376869
 20
-7.8690254302
 10
-41.5838335732
 20
-7.9075468672
  0
LWPOLYLINE
  5
224
100
AcDbEntity
  8
0
100
AcDbPolyline
 62
7
  6
CONTINUOUS
 90
55
 70
0
 10
-43.132355809
 20
-6.1768963734
 10
-43.1087601339
 20
-6.306826181
 10
-43.07990002
 20
-6.4513908316
 10
-43.048353627
 20
-6.5957049527
 10
-43.0141106694
 20
-6.7398693315
 10
-42.9771995657
 20
-6.8838015916
 10
-42.9377050745
 20
-7.0272349303
 10
-42.8956416615
 20
-7.1701920308
 10
-42.8510215368
 20
-7.3126882721
 10
-42.8039508686
 20
-7.454454068
 10
-42.7544413914
 20
-7.5955296185
 10
-42.7025092581
 20
-7.7359295164
 10
-42.6482916689
 20
-7.8753531979
 10
-42.5918068023
 20
-8.0138345944
 10
-42.533067314
 20
-8.1514064067
 10
-42.4722317697
 20
-8.2877705805
 10
-42.4093250262
 20
-8.4229513044
 10
-42.3443548716
 20
-8.556998915
 10
-42.2774792007
 20
-8.6896570896
 10
-42.2087489957
 20
-8.8209031331
 10
-42.1381453728
 20
-8.9508376231
 10
-42.065739399
 20
-9.0793863731
 10
-41.9915531297
 20
-9.2065618306
 10
-41.9155782352
 20
-9.3324205417
 10
-41.8378432978
 20
-9.4569478313
 10
-41.7583493801
 20
-9.5801690182
 10
-41.6770876473
 20
-9.7021151725
 10
-41.5940728197
 20
-9.8227758238
 10
-41.5092986519
 20
-9.9421650031
 10
-41.4227431778
 20
-10.060311935
 10
-41.3343917775
 20
-10.177226689
 10
-41.2442209115
 20
-10.2929246686
 10
-41.1522031207
 20
-10.4074177022
 10
-41.0583098791
 20
-10.5207121205
 10
-40.9624734894
 20
-10.6328514457
 10
-40.8646862901
 20
-10.7438006896
 10
-40.7650011375
 20
-10.8534553353
 10
-40.6633041987
 20
-10.9618915349
 10
-40.5596186461
 20
-11.0690282866
 10
-40.4542096615
 20
-11.1745481456
 10
-40.3470280043
 20
-11.2784643116
 10
-40.2380433404
 20
-11.3807645477
 10
-40.127567534
 20
-11.4811241711
 10
-40.0155725927
 20
-11.5795474883
 10
-39.9020230541
 20
-11.6760380919
 10
-39.7872434794
 20
-11.7703031316
 10
-39.671226988
 20
-11.8623408943
 10
-39.5539379124
 20
-11.9521683592
 10
-39.4356834003
 20
-12.0395462407
 10
-39.3164606352
 20
-12.1244827724
 10
-39.196254429
 20
-12.2069903008
 10
-39.0753814091
 20
-12.2868621868
 10
-38.9539559726
 20
-12.3640466191
 10
-38.8318775602
 20
-12.4386289023
 10
-38.7236058359
 20
-12.5022954274
  0
LINE
  5
225
100
AcDbEntity
  8
RACCORDO
100
AcDbLine
 62
253
  6
CONTINUOUS
 10
-28.9223011097
 20
32.1924656176
 11
-28.8361180774
 21
32.2458854267
  0
LINE
  5
226
100
AcDbEntity
  8
RACCORDO
100
AcDbLine
 62
253
  6
CONTINUOUS
 10
-28.9425432749
 20
32.1800515126
 11
-28.9223011097
 21
32.1924656176
  0
LINE
  5
227
100
AcDbEntity
  8
RACCORDO
100
AcDbLine
 62
253
  6
CONTINUOUS
 10
-28.8361180774
 20
32.2458854267
 11
-28.8165072456
 21
32.2579005146
  0
LINE
  5
228
100
AcDbEntity
  8
RACCORDO
100
AcDbLine
 62
253
  6
CONTINUOUS
 10
-28.9640632746
 20
32.1670084768
 11
-28.9425432749
 21
32.1800515126
  0
LINE
  5
229
100
AcDbEntity
  8
RACCORDO
100
AcDbLine
 62
253
  6
CONTINUOUS
 10
-28.8165072456
 20
32.2579005146
 11
-28.8025561433
 21
32.2663475618
  0
LINE
  5
22A
100
AcDbEntity
  8
RACCORDO
100
AcDbLine
 62
253
  6
CONTINUOUS
 10
-28.9791979851
 20
32.157956851
 11
-28.9640632746
 21
32.1670084768
  0
LINE
  5
22B
100
AcDbEntity
  8
RACCORDO
100
AcDbLine
 62
253
  6
CONTINUOUS
 10
-28.8025561433
 20
32.2663475618
 11
-28.7892025742
 21
32.2743302574
  0
LINE
  5
22C
100
AcDbEntity
  8
RACCORDO
100
AcDbLine
 62
253
  6
CONTINUOUS
 10
-28.7892025742
 20
32.2743302574
 11
-28.7806086598
 21
32.2794040599
  0
LINE
  5
22D
100
AcDbEntity
  8
RACCORDO
100
AcDbLine
 62
253
  6
CONTINUOUS
 10
-28.9950174069
 20
32.1486155315
 11
-28.9791979851
 21
32.157956851
  0
LINE
  5
22E
100
AcDbEntity
  8
RACCORDO
100
AcDbLine
 62
253
  6
CONTINUOUS
 10
-28.7806086598
 20
32.2794040599
 11
-28.7722491228
 21
32.2842850422
  0
LINE
  5
22F
100
AcDbEntity
  8
RACCORDO
100
AcDbLine
 62
253
  6
CONTINUOUS
 10
-29.0116082204
 20
32.1389684178
 11
-28.9950174069
 21
32.1486155315
  0
LINE
  5
230
100
AcDbEntity
  8
RACCORDO
100
AcDbLine
 62
253
  6
CONTINUOUS
 10
-28.7722491228
 20
32.2842850422
 11
-28.7641100187
 21
32.2889797099
  0
LINE
  5
231
100
AcDbEntity
  8
RACCORDO
100
AcDbLine
 62
253
  6
CONTINUOUS
 10
-28.7641100187
 20
32.2889797099
 11
-28.7561781445
 21
32.2934946326
  0
LINE
  5
232
100
AcDbEntity
  8
RACCORDO
100
AcDbLine
 62
253
  6
CONTINUOUS
 10
-28.7561781445
 20
32.2934946326
 11
-28.7484452957
 21
32.2978339123
  0
LINE
  5
233
100
AcDbEntity
  8
RACCORDO
100
AcDbLine
 62
253
  6
CONTINUOUS
 10
-28.7484452957
 20
32.2978339123
 11
-28.7408999179
 21
32.3020034008
  0
LINE
  5
234
100
AcDbEntity
  8
RACCORDO
100
AcDbLine
 62
253
  6
CONTINUOUS
 10
-28.7408999179
 20
32.3020034008
 11
-28.7335321854
 21
32.3060082748
  0
LINE
  5
235
100
AcDbEntity
  8
RACCORDO
100
AcDbLine
 62
253
  6
CONTINUOUS
 10
-28.7335321854
 20
32.3060082748
 11
-28.7263354644
 21
32.3098520609
  0
LINE
  5
236
100
AcDbEntity
  8
RACCORDO
100
AcDbLine
 62
253
  6
CONTINUOUS
 10
-28.7263354644
 20
32.3098520609
 11
-28.7192998099
 21
32.3135401196
  0
LINE
  5
237
100
AcDbEntity
  8
RACCORDO
100
AcDbLine
 62
253
  6
CONTINUOUS
 10
-28.7192998099
 20
32.3135401196
 11
-28.7124162237
 21
32.317077395
  0
LWPOLYLINE
  5
238
100
AcDbEntity
  8
RACCORDO
100
AcDbPolyline
 62
253
  6
CONTINUOUS
 90
7
 70
0
 10
-28.7124162237
 20
32.317077395
 10
-28.7056790618
 20
32.3204670032
 10
-28.7023624188
 20
32.3221080853
 10
-28.6990804407
 20
32.3237133334
 10
-28.695830676
 20
32.3252841248
 10
-28.6926123074
 20
32.3268209186
 10
-28.6894261522
 20
32.3283232557
  0
LINE
  5
239
100
AcDbEntity
  8
RACCORDO
100
AcDbLine
 62
253
  6
CONTINUOUS
 10
-28.6894261522
 20
32.3283232557
 11
-28.6854712004
 21
32.3301615088
  0
LWPOLYLINE
  5
23A
100
AcDbEntity
  8
0
100
AcDbPolyline
 62
253
  6
CONTINUOUS
 90
49
 70
0
 10
-41.5838335735
 20
-7.9075468674
 10
-41.7772814921
 20
-6.7573951769
 10
-41.962485688
 20
-5.6070675117
 10
-42.1394461125
 20
-4.456582659
 10
-42.3081630801
 20
-3.3059517754
 10
-42.4686363198
 20
-2.155201335
 10
-42.6208652596
 20
-1.0043733191
 10
-42.7648475112
 20
0.1464900742
 10
-42.9005866321
 20
1.2973927488
 10
-43.0280908555
 20
2.448361969
 10
-43.1473616154
 20
3.5993876107
 10
-43.2583978856
 20
4.7504420842
 10
-43.3612036395
 20
5.9015268439
 10
-43.4557792556
 20
7.0526234786
 10
-43.5421248112
 20
8.2037127163
 10
-43.6202435342
 20
9.3547949199
 10
-43.6901355525
 20
10.5058457281
 10
-43.7518012464
 20
11.656851838
 10
-43.8052437598
 20
12.8078304973
 10
-43.8504636384
 20
13.9587700847
 10
-43.8874604084
 20
15.1096448599
 10
-43.9162352591
 20
16.2604511564
 10
-43.9367883732
 20
17.4111657946
 10
-43.9491198036
 20
18.5617745152
 10
-43.9532301923
 20
19.7122872453
 10
-43.9491198007
 20
20.8626856023
 10
-43.9367883655
 20
22.012950677
 10
-43.916235247
 20
23.1630918919
 10
-43.887460396
 20
24.3130952549
 10
-43.8504636293
 20
25.4629375892
 10
-43.8052437531
 20
26.6126147358
 10
-43.7518012378
 20
27.762101402
 10
-43.6901355397
 20
28.9113856025
 10
-43.6202435167
 20
30.0604833658
 10
-43.5421247881
 20
31.2093820214
 10
-43.4557792269
 20
32.3580571621
 10
-43.3612036104
 20
33.5065074484
 10
-43.258397869
 20
34.6547140182
 10
-43.1473616182
 20
35.802658576
 10
-43.0280908683
 20
36.950340772
 10
-42.9005866304
 20
38.0977338412
 10
-42.7648474826
 20
39.2448273074
 10
-42.6208652154
 20
40.3916455244
 10
-42.4686362881
 20
41.5381929393
 10
-42.3081630752
 20
42.6844281593
 10
-42.1394461273
 20
43.8303068156
 10
-41.9624857069
 20
44.975801546
 10
-41.7772815063
 20
46.120902133
 10
-41.5838335735
 20
47.2655897336
  0
LWPOLYLINE
  5
23B
100
AcDbEntity
  8
RACCORDO
100
AcDbPolyline
 62
253
  6
CONTINUOUS
 90
46
 70
0
 10
-30.9223877948
 20
39.7048257674
 10
-31.0184136222
 20
38.4889539689
 10
-31.1100854804
 20
37.2749246694
 10
-31.1974019121
 20
36.0627582857
 10
-31.2803615935
 20
34.8524752515
 10
-31.358963142
 20
33.644095866
 10
-31.4332051161
 20
32.437640294
 10
-31.5030863254
 20
31.2331288098
 10
-31.5686056701
 20
30.030581667
 10
-31.6297619477
 20
28.8300189474
 10
-31.6865541751
 20
27.6314608316
 10
-31.7389814621
 20
26.4349274557
 10
-31.7870428486
 20
25.2404387818
 10
-31.83073756
 20
24.0480148822
 10
-31.8700649141
 20
22.8576757842
 10
-31.9050241915
 20
21.6694413284
 10
-31.9356148262
 20
20.4833314663
 10
-31.9618363432
 20
19.2993661234
 10
-31.9836882631
 20
18.1175650454
 10
-32.0011702277
 20
16.9379480633
 10
-32.0142819703
 20
15.7605349948
 10
-32.0230232506
 20
14.5853455079
 10
-32.0273939188
 20
13.4123993195
 10
-32.0273939164
 20
12.2417161269
 10
-32.0230232433
 20
11.0733155097
 10
-32.0142819581
 20
9.9072170726
 10
-32.0011702106
 20
8.7434403842
 10
-31.9836882411
 20
7.5820049112
 10
-31.9618363163
 20
6.4229301379
 10
-31.9356147944
 20
5.2662355067
 10
-31.9050241548
 20
4.1119403603
 10
-31.8700648725
 20
2.9600640508
 10
-31.8307375136
 20
1.8106259011
 10
-31.7870427973
 20
0.6636451466
 10
-31.7389814059
 20
-0.4808589981
 10
-31.6865541141
 20
-1.6228673302
 10
-31.6297618818
 20
-2.7623606955
 10
-31.5686055994
 20
-3.8993200117
 10
-31.5030862498
 20
-5.0337262076
 10
-31.4332050356
 20
-6.1655602119
 10
-31.3589630535
 20
-7.2948031121
 10
-31.2803614964
 20
-8.4214359371
 10
-31.1974018169
 20
-9.5454395968
 10
-31.1100854026
 20
-10.666795193
 10
-31.0184135755
 20
-11.7854840183
 10
-30.9223877944
 20
-12.90148734
  0
LWPOLYLINE
  5
23C
100
AcDbEntity
  8
RACCORDO
100
AcDbPolyline
 62
253
  6
CONTINUOUS
 90
40
 70
0
 10
-28.6959726951
 20
-4.3853596046
 10
-28.6953420995
 20
-4.395052281
 10
-28.6943880579
 20
-4.4049373554
 10
-28.6931121125
 20
-4.4149988497
 10
-28.6915163255
 20
-4.4252205013
 10
-28.6896032763
 20
-4.4355857882
 10
-28.6873760571
 20
-4.4460779565
 10
-28.6848382678
 20
-4.4566800471
 10
-28.6819940105
 20
-4.4673749235
 10
-28.6788478824
 20
-4.4781452987
 10
-28.6754049688
 20
-4.4889737642
 10
-28.6716708347
 20
-4.4998428174
 10
-28.6676515157
 20
-4.5107348899
 10
-28.6633535084
 20
-4.5216323764
 10
-28.65878376
 20
-4.5325176627
 10
-28.6539496568
 20
-4.5433731544
 10
-28.6488590123
 20
-4.554181305
 10
-28.643520055
 20
-4.564924645
 10
-28.6379414143
 20
-4.5755858091
 10
-28.6321321074
 20
-4.5861475653
 10
-28.6261015241
 20
-4.596592842
 10
-28.619859412
 20
-4.6069047559
 10
-28.6134158605
 20
-4.6170666394
 10
-28.6067812847
 20
-4.6270620673
 10
-28.5999664084
 20
-4.6368748834
 10
-28.5929822469
 20
-4.6464892268
 10
-28.585840089
 20
-4.6558895572
 10
-28.578551479
 20
-4.6650606804
 10
-28.5711281978
 20
-4.6739877728
 10
-28.5635822442
 20
-4.6826564048
 10
-28.5559258149
 20
-4.691052565
 10
-28.5481712855
 20
-4.6991626821
 10
-28.5403311901
 20
-4.7069736475
 10
-28.5324182011
 20
-4.7144728358
 10
-28.5244451085
 20
-4.7216481257
 10
-28.5164247998
 20
-4.7284879193
 10
-28.5083702385
 20
-4.7349811612
 10
-28.5002944438
 20
-4.7411173561
 10
-28.4922104689
 20
-4.7468865855
 10
-28.4841313803
 20
-4.7522795245
  0
LWPOLYLINE
  5
23D
100
AcDbEntity
  8
RACCORDO
100
AcDbPolyline
 62
7
  6
CONTINUOUS
 90
11
 70
0
 10
-28.9176455935
 20
8.433945463
 10
-28.9125287493
 20
8.3358218291
 10
-28.9001601974
 20
8.2433589761
 10
-28.8805399376
 20
8.1565569039
 10
-28.8533395397
 20
8.0745647448
 10
-28.818887434
 20
7.9982333666
 10
-28.7781689115
 20
7.9301153721
 10
-28.731171117
 20
7.8708244344
 10
-28.6779069058
 20
7.8197468804
 10
-28.6194001343
 20
7.777594294
 10
-28.6072092883
 20
7.770324993
  0
LWPOLYLINE
  5
23E
100
AcDbEntity
  8
RACCORDO
100
AcDbPolyline
 62
253
  6
CONTINUOUS
 90
19
 70
0
 10
-30.9223877126
 20
39.704826788
 10
-30.9141391781
 20
39.4099264876
 10
-30.9042324556
 20
39.1169183299
 10
-30.8927251982
 20
38.825812768
 10
-30.8796361704
 20
38.5362422156
 10
-30.8650499153
 20
38.2486308566
 10
-30.8491405319
 20
37.9641610243
 10
-30.8319868121
 20
37.6829512239
 10
-30.8136503683
 20
37.4049330469
 10
-30.7943114467
 20
37.1309755219
 10
-30.7740462774
 20
36.8610464207
 10
-30.7529312738
 20
36.5952042326
 10
-30.7311684902
 20
36.3344181808
 10
-30.708862234
 20
36.0788870844
 10
-30.6860762327
 20
35.8284081844
 10
-30.6629596381
 20
35.5833155128
 10
-30.6396143359
 20
35.3437080978
 10
-30.6161007054
 20
35.1094728856
 10
-30.5924970607
 20
34.8806072998
  0
LWPOLYLINE
  5
23F
100
AcDbEntity
  8
RACCORDO
100
AcDbPolyline
 62
253
  6
CONTINUOUS
 90
10
 70
0
 10
-29.6018491608
 20
8.013488959
 10
-29.6209454755
 20
9.2225464973
 10
-29.6352677117
 20
10.4340972022
 10
-29.6448158695
 20
11.6481410739
 10
-29.649589949
 20
12.8646855685
 10
-29.6495899501
 20
14.0837232297
 10
-29.6448158719
 20
15.3052316889
 10
-29.6352677142
 20
16.5292034898
 10
-29.6209454771
 20
17.7556460887
 10
-29.6018491608
 20
18.9845594855
  0
LWPOLYLINE
  5
240
100
AcDbEntity
  8
RACCORDO
100
AcDbPolyline
 62
7
  6
CONTINUOUS
 90
10
 70
0
 10
-29.43649355
 20
8.2369228958
 10
-29.4554159946
 20
9.4336405221
 10
-29.4697828474
 20
10.6459691454
 10
-29.4793616813
 20
11.8608536611
 10
-29.4841521673
 20
13.0782684822
 10
-29.4841541973
 20
14.2981921418
 10
-29.4793677071
 20
15.520604762
 10
-29.4697926771
 20
16.7454848222
 10
-29.4554293084
 20
17.9728064498
 10
-29.4364907044
 20
19.1903694953
  0
LWPOLYLINE
  5
241
100
AcDbEntity
  8
RACCORDO
100
AcDbPolyline
 62
7
  6
CONTINUOUS
 90
10
 70
0
 10
-28.9176455935
 20
8.433945463
 10
-28.9348780634
 20
9.6110170063
 10
-28.9478024159
 20
10.7906172447
 10
-28.9564186509
 20
11.9727461781
 10
-28.9607267684
 20
13.1574313012
 10
-28.9607267684
 20
14.3446451193
 10
-28.9564186509
 20
15.5343051485
 10
-28.9478024159
 20
16.7263838941
 10
-28.9348780634
 20
17.9209088508
 10
-28.9176455935
 20
19.1178800185
  0
LWPOLYLINE
  5
242
100
AcDbEntity
  8
RACCORDO
100
AcDbPolyline
 62
253
  6
CONTINUOUS
 90
25
 70
0
 10
-28.6127849687
 20
-5.1579279307
 10
-28.6130424857
 20
-5.1712625924
 10
-28.6133573436
 20
-5.1840900105
 10
-28.6137761134
 20
-5.1964963949
 10
-28.6143089544
 20
-5.208481551
 10
-28.6149554591
 20
-5.2200320891
 10
-28.6157431271
 20
-5.2312179537
 10
-28.6166819889
 20
-5.2420541562
 10
-28.6177690482
 20
-5.2525165469
 10
-28.6190106532
 20
-5.2626180403
 10
-28.6204179035
 20
-5.2723583766
 10
-28.6219864131
 20
-5.281730452
 10
-28.6236991022
 20
-5.2907374078
 10
-28.6255662866
 20
-5.2993740211
 10
-28.6275845099
 20
-5.3076393224
 10
-28.6297162252
 20
-5.3155430157
 10
-28.6319701811
 20
-5.3230808163
 10
-28.6343445682
 20
-5.3302518351
 10
-28.6367862692
 20
-5.3370709797
 10
-28.639293799
 20
-5.3435212893
 10
-28.6418757159
 20
-5.3496153827
 10
-28.6444936086
 20
-5.3554128827
 10
-28.6471363538
 20
-5.3609327303
 10
-28.6498205892
 20
-5.3661529763
 10
-28.6525490082
 20
-5.3710722705
  0
LWPOLYLINE
  5
243
100
AcDbEntity
  8
RACCORDO
100
AcDbPolyline
 62
7
  6
CONTINUOUS
 90
61
 70
0
 10
-29.4364905902
 20
19.1903730938
 10
-29.4360781533
 20
19.2076569795
 10
-29.4348644031
 20
19.2373782033
 10
-29.4329856119
 20
19.2677877691
 10
-29.4304253192
 20
19.2988658286
 10
-29.4271693123
 20
19.3305818075
 10
-29.423206361
 20
19.3628944374
 10
-29.4185249751
 20
19.3957779779
 10
-29.4131149922
 20
19.4292053012
 10
-29.4069703992
 20
19.4631329282
 10
-29.4000842936
 20
19.4975310268
 10
-29.3924505927
 20
19.5323711109
 10
-29.3840674002
 20
19.5676120868
 10
-29.3749318538
 20
19.6032226189
 10
-29.3650416418
 20
19.6391729418
 10
-29.3543980862
 20
19.6754247699
 10
-29.3430017757
 20
19.7119462218
 10
-29.3308540131
 20
19.7487058766
 10
-29.3179592125
 20
19.7856666871
 10
-29.3043208869
 20
19.8227971829
 10
-29.2899439658
 20
19.8600641656
 10
-29.2748369693
 20
19.8974285247
 10
-29.2590062452
 20
19.9348593283
 10
-29.2424603889
 20
19.9723220705
 10
-29.2252135876
 20
20.0097728668
 10
-29.207276318
 20
20.0471790657
 10
-29.1886598349
 20
20.0845079816
 10
-29.1693819455
 20
20.1217164523
 10
-29.1494563245
 20
20.1587722243
 10
-29.1288973016
 20
20.195643263
 10
-29.107725965
 20
20.2322877153
 10
-29.085958808
 20
20.268674398
 10
-29.0636130946
 20
20.3047721664
 10
-29.0407132205
 20
20.3405404171
 10
-29.0172783815
 20
20.3759492602
 10
-28.9933283932
 20
20.4109691303
 10
-28.9688905899
 20
20.4455613151
 10
-28.9439865488
 20
20.4796977209
 10
-28.9186383836
 20
20.5133507408
 10
-28.8928760889
 20
20.5464839897
 10
-28.8667239624
 20
20.579070805
 10
-28.8402054825
 20
20.6110867814
 10
-28.813351038
 20
20.6425005612
 10
-28.7861863289
 20
20.6732883585
 10
-28.758736697
 20
20.7034280342
 10
-28.7310333972
 20
20.7328922412
 10
-28.7031028879
 20
20.7616606074
 10
-28.6749724293
 20
20.7897131981
 10
-28.6466758464
 20
20.8170248702
 10
-28.6182399351
 20
20.8435790809
 10
-28.5896937259
 20
20.8693584968
 10
-28.5610758264
 20
20.8943386676
 10
-28.5324140183
 20
20.9185065897
 10
-28.5037382576
 20
20.941848825
 10
-28.4750919527
 20
20.964342678
 10
-28.4465041797
 20
20.9859788559
 10
-28.4180037716
 20
21.006749647
 10
-28.3896351544
 20
21.0266376344
 10
-28.361433022
 20
21.0456346149
 10
-28.3334227481
 20
21.0637404415
 10
-28.3158825246
 20
21.074692005
  0
LWPOLYLINE
  5
244
100
AcDbEntity
  8
RACCORDO
100
AcDbPolyline
 62
253
  6
CONTINUOUS
 90
58
 70
0
 10
-29.6018491608
 20
18.9845594855
 10
-29.6006395098
 20
19.0267851859
 10
-29.5984551704
 20
19.0694883384
 10
-29.5952961426
 20
19.1126689428
 10
-29.5911615969
 20
19.1563664174
 10
-29.5860523629
 20
19.2005413441
 10
-29.5799709288
 20
19.2450754682
 10
-29.5729125147
 20
19.289969796
 10
-29.5648819005
 20
19.3352233213
 10
-29.555895915
 20
19.3807147709
 10
-29.5459504678
 20
19.4264434535
 10
-29.5350496493
 20
19.4724100603
 10
-29.5232225592
 20
19.5184953921
 10
-29.5104695816
 20
19.5646882045
 10
-29.4967903325
 20
19.6109997418
 10
-29.4822127595
 20
19.6573445375
 10
-29.4667375892
 20
19.7037180474
 10
-29.4503640951
 20
19.7501248158
 10
-29.4331180453
 20
19.7964930084
 10
-29.4149962307
 20
19.8428286226
 10
-29.3960018605
 20
19.8891256611
 10
-29.3761703302
 20
19.9352942976
 10
-29.3554980567
 20
19.9813380087
 10
-29.3339886231
 20
20.0272533178
 10
-29.3116881742
 20
20.0729399693
 10
-29.2885961307
 20
20.1183947154
 10
-29.2647130719
 20
20.163620804
 10
-29.2400868802
 20
20.2085277226
 10
-29.2147174516
 20
20.2531127266
 10
-29.1886048902
 20
20.2973785606
 10
-29.1617973909
 20
20.3412429462
 10
-29.1342924869
 20
20.3847071828
 10
-29.106092645
 20
20.4277699709
 10
-29.077253461
 20
20.4703451333
 10
-29.0477715517
 20
20.512434175
 10
-29.0176503002
 20
20.5540355911
 10
-28.9869554512
 20
20.5950586895
 10
-28.9556878699
 20
20.6354991923
 10
-28.923846691
 20
20.6753613775
 10
-28.8914950636
 20
20.7145673862
 10
-28.8586366478
 20
20.7531114039
 10
-28.8252677834
 20
20.7909992452
 10
-28.791440639
 20
20.8281704954
 10
-28.7571519436
 20
20.8646276494
 10
-28.7224049682
 20
20.9003682124
 10
-28.6872616941
 20
20.9353242854
 10
-28.651712295
 20
20.9695021792
 10
-28.6157665972
 20
21.002895583
 10
-28.5795160614
 20
21.0354176656
 10
-28.5429574342
 20
21.0670660426
 10
-28.506093969
 20
21.0978430985
 10
-28.4690268859
 20
21.1276691553
 10
-28.4317542359
 20
21.1565401206
 10
-28.3942779679
 20
21.1844600868
 10
-28.3567051493
 20
21.2113616538
 10
-28.3190714691
 20
21.2372223546
 10
-28.2813412382
 20
21.262064656
 10
-28.2435144567
 20
21.2858885582
  0
LWPOLYLINE
  5
245
100
AcDbEntity
  8
RACCORDO
100
AcDbPolyline
 62
253
  6
CONTINUOUS
 90
34
 70
0
 10
-30.2909604337
 20
33.0758111281
 10
-30.3655347067
 20
31.8331927353
 10
-30.4354627636
 20
30.5926922449
 10
-30.5007446044
 20
29.354309657
 10
-30.561381347
 20
28.1180209205
 10
-30.6173718736
 20
26.8838500864
 10
-30.6687128301
 20
25.6518693078
 10
-30.7154038449
 20
24.4220807268
 10
-30.7574452897
 20
23.1944822012
 10
-30.7948349252
 20
21.969139458
 10
-30.8275725052
 20
20.7460526193
 10
-30.855658276
 20
19.5252215628
 10
-30.8790907374
 20
18.3067116488
 10
-30.8978696428
 20
17.0905229864
 10
-30.9119952388
 20
15.8766554664
 10
-30.921466765
 20
14.6651741216
 10
-30.9262839719
 20
13.4560789383
 10
-30.926447109
 20
12.2493699301
 10
-30.9219561639
 20
11.0451121713
 10
-30.9128108856
 20
9.84330588
 10
-30.899011525
 20
8.6439508381
 10
-30.880558823
 20
7.4471114647
 10
-30.8574525327
 20
6.2527879627
 10
-30.8296929009
 20
5.0609801292
 10
-30.7972814091
 20
3.8717517751
 10
-30.7602178107
 20
2.6851030349
 10
-30.7185023523
 20
1.5010337741
 10
-30.6721372544
 20
0.3196073994
 10
-30.6211221445
 20
-0.859177871
 10
-30.5654573951
 20
-2.0353202552
 10
-30.5051463446
 20
-3.2087510005
 10
-30.4401901058
 20
-4.3794471895
 10
-30.3705875659
 20
-5.5474317396
 10
-30.2963387248
 20
-6.7127046509
  0
LWPOLYLINE
  5
246
100
AcDbEntity
  8
RACCORDO
100
AcDbPolyline
 62
253
  6
CONTINUOUS
 90
39
 70
0
 10
-28.2435144567
 20
7.12450744
 10
-28.2425370126
 20
7.1405394461
 10
-28.2420315847
 20
7.1568506998
 10
-28.241998884
 20
7.1734182557
 10
-28.2424389564
 20
7.1902188078
 10
-28.2433511829
 20
7.2072287224
 10
-28.2447342801
 20
7.2244240712
 10
-28.2465863025
 20
7.241780665
 10
-28.2489046448
 20
7.259274088
 10
-28.2516860456
 20
7.2768797317
 10
-28.2549265923
 20
7.2945728298
 10
-28.2586217264
 20
7.312328493
 10
-28.2627662497
 20
7.330121744
 10
-28.2673543321
 20
7.3479275526
 10
-28.2723795194
 20
7.365720871
 10
-28.2778347425
 20
7.3834766688
 10
-28.2837123275
 20
7.4011699686
 10
-28.2900040061
 20
7.4187758807
 10
-28.2967009277
 20
7.4362696386
 10
-28.3037936717
 20
7.4536266333
 10
-28.3112722603
 20
7.4708224483
 10
-28.3191261734
 20
7.487832894
 10
-28.3273443627
 20
7.5046340412
 10
-28.3359152673
 20
7.5212022554
 10
-28.3448268305
 20
7.5375142298
 10
-28.354066516
 20
7.5535470179
 10
-28.3636213263
 20
7.5692780661
 10
-28.3734778203
 20
7.5846852449
 10
-28.3836221326
 20
7.599746881
 10
-28.3940399931
 20
7.6144417866
 10
-28.4047167466
 20
7.6287492901
 10
-28.4156373739
 20
7.6426492649
 10
-28.4267865128
 20
7.6561221575
 10
-28.4381484794
 20
7.6691490153
 10
-28.4497072906
 20
7.6817115131
 10
-28.4614466863
 20
7.693791979
 10
-28.4733501526
 20
7.705373419
 10
-28.4854009444
 20
7.7164395414
 10
-28.4918464711
 20
7.722014144
  0
LWPOLYLINE
  5
247
100
AcDbEntity
  8
RACCORDO
100
AcDbPolyline
 62
253
  6
CONTINUOUS
 90
13
 70
0
 10
-30.7422152735
 20
-9.3611629803
 10
-30.7643123266
 20
-9.6491403116
 10
-30.7855086006
 20
-9.9390908519
 10
-30.8057088531
 20
-10.2309824356
 10
-30.8248589534
 20
-10.525148845
 10
-30.8428084852
 20
-10.8211875853
 10
-30.8593271534
 20
-11.1179853776
 10
-30.8743319922
 20
-11.4155653261
 10
-30.8877284205
 20
-11.7138723201
 10
-30.8993107743
 20
-12.0117239012
 10
-30.9089758306
 20
-12.3087395152
 10
-30.916693178
 20
-12.6053223558
 10
-30.9223876871
 20
-12.9014885633
  0
LWPOLYLINE
  5
248
100
AcDbEntity
  8
RACCORDO
100
AcDbPolyline
 62
253
  6
CONTINUOUS
 90
14
 70
0
 10
-30.5405738728
 20
-7.9601814065
 10
-30.5602450129
 20
-8.0661328259
 10
-30.5798564287
 20
-8.1742900508
 10
-30.5992693343
 20
-8.2844347093
 10
-30.6182018677
 20
-8.3955226596
 10
-30.6366270114
 20
-8.5079900596
 10
-30.6543696558
 20
-8.6214657028
 10
-30.6709935098
 20
-8.7337260351
 10
-30.6864405602
 20
-8.844793579
 10
-30.7006563209
 20
-8.9547672017
 10
-30.7133387506
 20
-9.0615549611
 10
-30.72443287
 20
-9.1644957007
 10
-30.7340485683
 20
-9.2643527922
 10
-30.7422152693
 20
-9.361162956
  0
LINE
  5
249
100
AcDbEntity
  8
RACCORDO
100
AcDbLine
 62
253
  6
CONTINUOUS
 10
-30.5013488207
 20
-7.7546202126
 11
-30.5405738728
 21
-7.9601814065
  0
LINE
  5
24A
100
AcDbEntity
  8
RACCORDO
100
AcDbLine
 62
253
  6
CONTINUOUS
 10
-30.2963386039
 20
-6.7127047443
 11
-30.325624682
 21
-6.8651322265
  0
LINE
  5
24B
100
AcDbEntity
  8
RACCORDO
100
AcDbLine
 62
253
  6
CONTINUOUS
 10
-30.4443876509
 20
-7.4646818377
 11
-30.5013488207
 21
-7.7546202126
  0
LINE
  5
24C
100
AcDbEntity
  8
RACCORDO
100
AcDbLine
 62
253
  6
CONTINUOUS
 10
-30.325624682
 20
-6.8651322265
 11
-30.3737631365
 21
-7.1099021974
  0
LINE
  5
24D
100
AcDbEntity
  8
RACCORDO
100
AcDbLine
 62
253
  6
CONTINUOUS
 10
-30.3737631365
 20
-7.1099021974
 11
-30.4443876509
 21
-7.4646818377
  0
LWPOLYLINE
  5
24E
100
AcDbEntity
  8
RACCORDO
100
AcDbPolyline
 62
7
  6
CONTINUOUS
 90
19
 70
0
 10
-27.9126846452
 20
20.8980667963
 10
-28.0001114068
 20
20.8382437426
 10
-28.0859517084
 20
20.7710562531
 10
-28.1702055501
 20
20.6965043278
 10
-28.253725258
 20
20.6136954501
 10
-28.3356585058
 20
20.5235221365
 10
-28.4134483153
 20
20.4286619366
 10
-28.486608734
 20
20.3294020681
 10
-28.5556257143
 20
20.2254553132
 10
-28.6194001343
 20
20.1186375679
 10
-28.6779069058
 20
20.0089228283
 10
-28.731171117
 20
19.8963370983
 10
-28.7781689115
 20
19.7827742856
 10
-28.818887434
 20
19.667635562
 10
-28.8533395397
 20
19.5515197556
 10
-28.8805399376
 20
19.4381172589
 10
-28.9001601974
 20
19.3286582025
 10
-28.9125287493
 20
19.2219124557
 10
-28.9176455935
 20
19.1178800185
  0
LWPOLYLINE
  5
24F
100
AcDbEntity
  8
RACCORDO
100
AcDbPolyline
 62
7
  6
CONTINUOUS
 90
29
 70
0
 10
-28.0109749445
 20
21.2624759383
 10
-27.9972983138
 20
21.2712081712
 10
-27.9822436296
 20
21.2815682219
 10
-27.9675194168
 20
21.2925164427
 10
-27.9533227739
 20
21.3039009964
 10
-27.939801695
 20
21.3155691207
 10
-27.9268187656
 20
21.3276042964
 10
-27.914151579
 20
21.3402136937
 10
-27.9016811805
 20
21.3535583554
 10
-27.8895936884
 20
21.3674844231
 10
-27.878123243
 20
21.3817238426
 10
-27.8674087761
 20
21.3960566822
 10
-27.8573072347
 20
21.4106241126
 10
-27.8476324464
 20
21.4256960137
 10
-27.8383107607
 20
21.4414443438
 10
-27.8294880906
 20
21.4576839478
 10
-27.8213121805
 20
21.4741528476
 10
-27.8138579202
 20
21.4906538635
 10
-27.8070447503
 20
21.5073140888
 10
-27.8007856063
 20
21.5243529448
 10
-27.7950633211
 20
21.5418876478
 10
-27.7899543452
 20
21.559761796
 10
-27.7855192114
 20
21.5777875991
 10
-27.7817805129
 20
21.5958365056
 10
-27.7787152602
 20
21.6139732323
 10
-27.7763095424
 20
21.6322960026
 10
-27.7745732784
 20
21.6508187522
 10
-27.7735244678
 20
21.6694683293
 10
-27.7731729744
 20
21.6882131727
  0
LINE
  5
250
100
AcDbEntity
  8
RACCORDO
100
AcDbLine
 62
7
  6
CONTINUOUS
 10
-27.4056306914
 20
21.2215169234
 11
-27.9126846452
 21
20.8980667963
  0
LINE
  5
251
100
AcDbEntity
  8
RACCORDO
100
AcDbLine
 62
253
  6
CONTINUOUS
 10
-28.2435144567
 20
21.2858885582
 11
-27.9386076712
 21
21.4736719189
  0
LINE
  5
252
100
AcDbEntity
  8
RACCORDO
100
AcDbLine
 62
7
  6
CONTINUOUS
 10
-28.3158807543
 20
21.0746931784
 11
-28.0109739689
 21
21.2624765391
  0
LWPOLYLINE
  5
253
100
AcDbEntity
  8
RACCORDO
100
AcDbPolyline
 62
253
  6
CONTINUOUS
 90
25
 70
0
 10
-27.9386076712
 20
21.4736719189
 10
-27.9254281183
 20
21.4807762732
 10
-27.9127000724
 20
21.4881507826
 10
-27.9004401642
 20
21.4957859006
 10
-27.888664205
 20
21.5036718666
 10
-27.8773878294
 20
21.5117983445
 10
-27.8666263798
 20
21.5201543924
 10
-27.8563940425
 20
21.5287290221
 10
-27.8467039243
 20
21.5375111867
 10
-27.837568632
 20
21.5464893905
 10
-27.8290000501
 20
21.5556519189
 10
-27.8210093264
 20
21.5649868859
 10
-27.8136068565
 20
21.5744821786
 10
-27.8068022708
 20
21.5841254587
 10
-27.8006044219
 20
21.5939041659
 10
-27.7950213731
 20
21.6038055651
 10
-27.7900603878
 20
21.6138167694
 10
-27.7857279202
 20
21.6239247601
 10
-27.7820296065
 20
21.6341163913
 10
-27.7789702584
 20
21.6443784062
 10
-27.7765538558
 20
21.6546974521
 10
-27.7747835426
 20
21.6650601016
 10
-27.7736616217
 20
21.6754528731
 10
-27.7731895528
 20
21.685862246
 10
-27.7731729744
 20
21.6882131597
  0
LWPOLYLINE
  5
254
100
AcDbEntity
  8
RACCORDO
100
AcDbPolyline
 62
253
  6
CONTINUOUS
 90
23
 70
0
 10
-29.6018491899
 20
18.9845595041
 10
-29.5877453478
 20
18.9918765278
 10
-29.5741621922
 20
18.9995030107
 10
-29.5611200075
 20
19.0074275638
 10
-29.5486382703
 20
19.015638353
 10
-29.5367356203
 20
19.0241231166
 10
-29.5254298323
 20
19.0328691839
 10
-29.5147377898
 20
19.0418634939
 10
-29.50467546
 20
19.0510926149
 10
-29.4952578694
 20
19.0605427645
 10
-29.4864990817
 20
19.0701998304
 10
-29.4784121771
 20
19.080049391
 10
-29.4710092321
 20
19.0900767376
 10
-29.4643013019
 20
19.1002668958
 10
-29.4582984038
 20
19.1106046479
 10
-29.4530095024
 20
19.1210745562
 10
-29.4484424957
 20
19.1316609852
 10
-29.444604204
 20
19.1423481258
 10
-29.4415003592
 20
19.1531200182
 10
-29.4391355964
 20
19.1639605762
 10
-29.4375134471
 20
19.174853611
 10
-29.4366363337
 20
19.1857828554
 10
-29.436490653
 20
19.1903694944
  0
LWPOLYLINE
  5
255
100
AcDbEntity
  8
0
100
AcDbPolyline
 62
7
  6
CONTINUOUS
 90
48
 70
0
 10
34.2912427003
 20
-54.6601538804
 10
34.4050201037
 20
-54.7245904463
 10
34.5324211417
 20
-54.7937968695
 10
34.6601905975
 20
-54.8601337053
 10
34.788301803
 20
-54.9236160956
 10
34.9167323533
 20
-54.9842610464
 10
35.0454510441
 20
-55.0420803491
 10
35.1744248233
 20
-55.0970857617
 10
35.3036225926
 20
-55.1492894983
 10
35.4330001011
 20
-55.1986988701
 10
35.562506619
 20
-55.2453208441
 10
35.6921155495
 20
-55.2891715144
 10
35.8218055626
 20
-55.3302683564
 10
35.9515241453
 20
-55.3686197098
 10
36.0812358911
 20
-55.4042398354
 10
36.2109340945
 20
-55.437150384
 10
36.3405711123
 20
-55.467362508
 10
36.4700992966
 20
-55.494888473
 10
36.5995027893
 20
-55.5197474804
 10
36.7287252001
 20
-55.5419515247
 10
36.8577220143
 20
-55.5615163615
 10
36.9864877305
 20
-55.5784632801
 10
37.1149430065
 20
-55.5928041138
 10
37.2430631564
 20
-55.6045594975
 10
37.3709196094
 20
-55.6137553752
 10
37.4984552352
 20
-55.6204039622
 10
37.6256233622
 20
-55.6245199615
 10
37.7525079609
 20
-55.6261200897
 10
37.879077413
 20
-55.6252138507
 10
38.0052597214
 20
-55.621812143
 10
38.1310751109
 20
-55.6159239266
 10
38.2564793108
 20
-55.6075594439
 10
38.3814124728
 20
-55.5967314584
 10
38.5058686698
 20
-55.583448607
 10
38.6297956862
 20
-55.5677237344
 10
38.7531415217
 20
-55.5495716082
 10
38.8758981435
 20
-55.5290010792
 10
38.9980129202
 20
-55.5060278487
 10
39.1194351165
 20
-55.480668867
 10
39.2401574246
 20
-55.4529322427
 10
39.360126737
 20
-55.4228363608
 10
39.479294282
 20
-55.3904003607
 10
39.5976575178
 20
-55.3556307591
 10
39.7151656558
 20
-55.3185472775
 10
39.8317689531
 20
-55.2791709694
 10
39.9474647588
 20
-55.2375073758
 10
40.0622038392
 20
-55.1935780017
 10
40.1737567261
 20
-55.1483160912
  0
LINE
  5
256
100
AcDbEntity
  8
0
100
AcDbLine
 62
7
  6
CONTINUOUS
 10
34.2912311356
 20
-54.6601472093
 11
-38.723599017
 21
-12.5022993699
  0
LINE
  5
257
100
AcDbEntity
  8
0
100
AcDbLine
 62
253
  6
CONTINUOUS
 10
33.1727385396
 20
-52.5908187581
 11
-39.842091613
 21
-10.4329709188
  0
LWPOLYLINE
  5
258
100
AcDbEntity
  8
0
100
AcDbPolyline
 62
253
  6
CONTINUOUS
 90
79
 70
0
 10
-39.842091613
 20
-10.4329709188
 10
-39.8723819577
 20
-10.4151806587
 10
-39.9027000598
 20
-10.3967751128
 10
-39.9330459133
 20
-10.3777542769
 10
-39.9634305525
 20
-10.3581107868
 10
-39.9938429186
 20
-10.3378519895
 10
-40.0242498597
 20
-10.316999943
 10
-40.054651213
 20
-10.2955540523
 10
-40.0850470925
 20
-10.2735148784
 10
-40.1154047563
 20
-10.2509062085
 10
-40.1457241004
 20
-10.2277274096
 10
-40.1760051564
 20
-10.2039790644
 10
-40.2062153804
 20
-10.1796867794
 10
-40.2363546214
 20
-10.1548499505
 10
-40.2664229355
 20
-10.1294691158
 10
-40.2963880842
 20
-10.103571592
 10
-40.3262499
 20
-10.0771567755
 10
-40.3560084343
 20
-10.050225189
 10
-40.385631773
 20
-10.0228058366
 10
-40.4151197022
 20
-9.9948981396
 10
-40.4444722999
 20
-9.966502582
 10
-40.4736580867
 20
-9.9376497602
 10
-40.5026767996
 20
-9.9083391277
 10
-40.5315285476
 20
-9.8785711239
 10
-40.5601824086
 20
-9.8483778221
 10
-40.5886380693
 20
-9.8177587157
 10
-40.6168956729
 20
-9.786714193
 10
-40.6449249813
 20
-9.7552776705
 10
-40.6727256495
 20
-9.7234486659
 10
-40.7002978386
 20
-9.6912275337
 10
-40.7276120719
 20
-9.6586489457
 10
-40.7546679607
 20
-9.6257124616
 10
-40.7814656982
 20
-9.5924183862
 10
-40.8079766846
 20
-9.5588025108
 10
-40.8342005
 20
-9.5248644263
 10
-40.8601373599
 20
-9.4906044001
 10
-40.8857596215
 20
-9.4560592415
 10
-40.9110668248
 20
-9.4212285903
 10
-40.9360592193
 20
-9.3861126608
 10
-40.9607102323
 20
-9.3507491281
 10
-40.9850193796
 20
-9.3151376649
 10
-41.0089869315
 20
-9.2792784504
 10
-41.032587455
 20
-9.2432099248
 10
-41.0558204313
 20
-9.2069318142
 10
-41.0786861646
 20
-9.1704442441
 10
-41.1011604651
 20
-9.13378626
 10
-41.1232427962
 20
-9.0969576224
 10
-41.144933482
 20
-9.0599584239
 10
-41.1662096356
 20
-9.0228282163
 10
-41.1870706926
 20
-8.9855668164
 10
-41.2075170096
 20
-8.9481742638
 10
-41.227527095
 20
-8.9106904535
 10
-41.2471003705
 20
-8.8731152407
 10
-41.266237214
 20
-8.8354486318
 10
-41.2849175832
 20
-8.7977307588
 10
-41.3031408777
 20
-8.7599615384
 10
-41.3209075076
 20
-8.7221409226
 10
-41.3381989617
 20
-8.6843091074
 10
-41.3550146355
 20
-8.6464660415
 10
-41.3713549556
 20
-8.6086116538
 10
-41.3872029759
 20
-8.5707861229
 10
-41.4025580783
 20
-8.5329894544
 10
-41.4174207175
 20
-8.4952215304
 10
-41.431775576
 20
-8.4575223575
 10
-41.4456220279
 20
-8.419891995
 10
-41.4589605526
 20
-8.382330283
 10
-41.4717775106
 20
-8.3448769129
 10
-41.4840722709
 20
-8.3075320046
 10
-41.4958453367
 20
-8.2702953506
 10
-41.5070847909
 20
-8.2332061665
 10
-41.5177900133
 20
-8.1962645787
 10
-41.5279615165
 20
-8.1594703873
 10
-41.5375891046
 20
-8.1228623339
 10
-41.5466721836
 20
-8.0864404317
 10
-41.5552112614
 20
-8.0502046088
 10
-41.5631978174
 20
-8.0141934955
 10
-41.5706289957
 20
-7.9784199579
 10
-41.5775075917
 20
-7.942871089
 10
-41.5838335735
 20
-7.9075468674
  0
LWPOLYLINE
  5
259
100
AcDbEntity
  8
0
100
AcDbPolyline
 62
253
  6
CONTINUOUS
 90
34
 70
0
 10
-38.7236058382
 20
-12.5022954314
 10
-38.7825041982
 20
-12.4667988892
 10
-38.8374649458
 20
-12.430869394
 10
-38.891203475
 20
-12.392937733
 10
-38.9436968526
 20
-12.3530200935
 10
-38.994922677
 20
-12.3111335106
 10
-39.0448590875
 20
-12.2672958594
 10
-39.0934847735
 20
-12.2215258479
 10
-39.140778984
 20
-12.1738430083
 10
-39.186721536
 20
-12.1242676896
 10
-39.2312928234
 20
-12.0728210481
 10
-39.2744738253
 20
-12.0195250387
 10
-39.3162461142
 20
-11.9644024057
 10
-39.3565918635
 20
-11.9074766728
 10
-39.3954938557
 20
-11.8487721332
 10
-39.4329354892
 20
-11.7883138392
 10
-39.4689007858
 20
-11.7261275916
 10
-39.5033743971
 20
-11.6622399283
 10
-39.5363416114
 20
-11.5966781138
 10
-39.5677883599
 20
-11.5294701266
 10
-39.5977012227
 20
-11.4606446478
 10
-39.6260674343
 20
-11.3902310491
 10
-39.6528748894
 20
-11.3182593794
 10
-39.6781121478
 20
-11.244760353
 10
-39.7017684395
 20
-11.1697653357
 10
-39.7238336692
 20
-11.0933063317
 10
-39.7442984203
 20
-11.0154159703
 10
-39.7631539596
 20
-10.9361274912
 10
-39.7803922403
 20
-10.855474731
 10
-39.7960059061
 20
-10.7734921085
 10
-39.8099882937
 20
-10.69021461
 10
-39.8223334361
 20
-10.6056777743
 10
-39.833036065
 20
-10.5199176778
 10
-39.842091613
 20
-10.4329709188
  0
LWPOLYLINE
  5
25A
100
AcDbEntity
  8
0
100
AcDbPolyline
 62
253
  6
CONTINUOUS
 90
34
 70
0
 10
34.2912311356
 20
-54.6601472093
 10
34.2323259551
 20
-54.624646729
 10
34.1773652074
 20
-54.5887172338
 10
34.1236266783
 20
-54.5507855728
 10
34.0711333006
 20
-54.5108679334
 10
34.0199074762
 20
-54.4689813505
 10
33.9699710657
 20
-54.4251436993
 10
33.9213453797
 20
-54.3793736878
 10
33.8740511692
 20
-54.3316908483
 10
33.8281086172
 20
-54.2821155295
 10
33.7835373297
 20
-54.230668888
 10
33.7403563278
 20
-54.1773728787
 10
33.6985840389
 20
-54.1222502457
 10
33.6582382895
 20
-54.0653245128
 10
33.6193362973
 20
-54.0066199732
 10
33.5818946637
 20
-53.9461616792
 10
33.5459293672
 20
-53.8839754315
 10
33.5114557559
 20
-53.8200877683
 10
33.4784885415
 20
-53.7545259537
 10
33.447041793
 20
-53.6873179665
 10
33.4171289302
 20
-53.6184924878
 10
33.3887627185
 20
-53.548078889
 10
33.3619552634
 20
-53.4761072193
 10
33.336718005
 20
-53.4026081928
 10
33.3130617132
 20
-53.3276131755
 10
33.2909964836
 20
-53.2511541715
 10
33.2705317324
 20
-53.17326381
 10
33.2516761931
 20
-53.0939753309
 10
33.2344379124
 20
-53.0133225707
 10
33.2188242466
 20
-52.9313399481
 10
33.204841859
 20
-52.8480624496
 10
33.1924967165
 20
-52.7635256138
 10
33.1817940876
 20
-52.6777655172
 10
33.1727385396
 20
-52.5908187581
  0
LWPOLYLINE
  5
25B
100
AcDbEntity
  8
RACCORDO
100
AcDbPolyline
 62
253
  6
CONTINUOUS
 90
15
 70
0
 10
-30.5924970648
 20
34.8806073157
 10
-30.5790344823
 20
34.7566725386
 10
-30.5643306366
 20
34.634250278
 10
-30.5485716328
 20
34.5133718922
 10
-30.5319196819
 20
34.3934779952
 10
-30.5145227944
 20
34.2751784309
 10
-30.4966031846
 20
34.1602100736
 10
-30.4784031924
 20
34.0488213119
 10
-30.4600468889
 20
33.9406853572
 10
-30.4416511505
 20
33.8366084976
 10
-30.4234056949
 20
33.7367564585
 10
-30.4054209545
 20
33.6408253301
 10
-30.38770329
 20
33.5488955966
 10
-30.3703758825
 20
33.4610133909
 10
-30.3371053677
 20
33.296531116
  0
LWPOLYLINE
  5
25C
100
AcDbEntity
  8
RACCORDO
100
AcDbPolyline
 62
253
  6
CONTINUOUS
 90
22
 70
0
 10
-28.2435144567
 20
21.2858885582
 10
-28.2425370127
 20
21.2714193438
 10
-28.2420315848
 20
21.257272284
 10
-28.2419988839
 20
21.2434672797
 10
-28.242438956
 20
21.2300237507
 10
-28.2433511821
 20
21.2169606084
 10
-28.2447342788
 20
21.204296229
 10
-28.2465863006
 20
21.1920484278
 10
-28.2489046422
 20
21.180234434
 10
-28.2516860423
 20
21.1688708668
 10
-28.2549265883
 20
21.1579737115
 10
-28.2586217215
 20
21.1475582973
 10
-28.262766244
 20
21.137639276
 10
-28.2673543256
 20
21.1282306008
 10
-28.2723795121
 20
21.1193455071
 10
-28.2778347344
 20
21.1109964938
 10
-28.2837123186
 20
21.1031953057
 10
-28.2900039966
 20
21.0959529169
 10
-28.2967009176
 20
21.0892795154
 10
-28.3037936609
 20
21.0831844889
 10
-28.3112722491
 20
21.0776764113
 10
-28.3158807543
 20
21.0746931784
  0
LWPOLYLINE
  5
25D
100
AcDbEntity
  8
RACCORDO
100
AcDbPolyline
 62
253
  6
CONTINUOUS
 90
22
 70
0
 10
-27.9386076712
 20
21.4736719189
 10
-27.9376310215
 20
21.4592180254
 10
-27.9371253031
 20
21.4450817673
 10
-27.9370916121
 20
21.4312832698
 10
-27.9375304429
 20
21.4178410073
 10
-27.9384415891
 20
21.4047754548
 10
-27.9398237137
 20
21.3921087065
 10
-27.9416746729
 20
21.3798597354
 10
-27.9439919728
 20
21.3680445433
 10
-27.9467723973
 20
21.3566795902
 10
-27.9500120906
 20
21.3457807758
 10
-27.9537064887
 20
21.3353635726
 10
-27.9578503437
 20
21.3254428138
 10
-27.9624377923
 20
21.3160325143
 10
-27.967462404
 20
21.307145845
 10
-27.972917127
 20
21.2987952789
 10
-27.9787942991
 20
21.2909925558
 10
-27.985085646
 20
21.28374867
 10
-27.9917823102
 20
21.277073824
 10
-27.9988748677
 20
21.2709774125
 10
-28.0063533438
 20
21.2654680109
 10
-28.0109739689
 20
21.2624765391
  0
LINE
  5
25E
100
AcDbEntity
  8
RACCORDO
100
AcDbLine
 62
253
  6
CONTINUOUS
 10
-27.9386076712
 20
-3.9480707406
 11
-27.9386076712
 21
7.2537551845
  0
LINE
  5
25F
100
AcDbEntity
  8
RACCORDO
100
AcDbLine
 62
253
  6
CONTINUOUS
 10
-27.9386076712
 20
21.4736719189
 11
-27.9386076712
 21
31.9053980633
  0
LINE
  5
260
100
AcDbEntity
  8
RACCORDO
100
AcDbLine
 62
7
  6
CONTINUOUS
 10
-27.7731685
 20
-3.7350610798
 11
-27.7731729744
 21
7.4682964387
  0
LINE
  5
261
100
AcDbEntity
  8
RACCORDO
100
AcDbLine
 62
7
  6
CONTINUOUS
 10
-27.7731729744
 20
21.6882131731
 11
-27.7731729744
 21
31.8098781428
  0
LINE
  5
262
100
AcDbEntity
  8
DRAFT
100
AcDbLine
 62
7
  6
CONTINUOUS
 10
-27.4056306914
 20
21.2215169234
 11
-27.4056306914
 21
8.076345467
  0
LWPOLYLINE
  5
263
100
AcDbEntity
  8
RACCORDO
100
AcDbPolyline
 62
253
  6
CONTINUOUS
 90
25
 70
0
 10
-27.7731729744
 20
7.4682964517
 10
-27.7731895528
 20
7.4659455533
 10
-27.7736616217
 20
7.455536252
 10
-27.7747835426
 20
7.4451435509
 10
-27.7765538558
 20
7.4347809706
 10
-27.7789702584
 20
7.4244619927
 10
-27.7820296065
 20
7.4142000394
 10
-27.7857279202
 20
7.4040084589
 10
-27.7900603878
 20
7.3939005127
 10
-27.7950213731
 20
7.3838893551
 10
-27.8006044219
 20
7.3739880164
 10
-27.8068022708
 20
7.3642093722
 10
-27.8136068565
 20
7.3545661314
 10
-27.8210093264
 20
7.3450708246
 10
-27.8290000501
 20
7.3357358199
 10
-27.837568632
 20
7.3265732937
 10
-27.8467039243
 20
7.3175952004
 10
-27.8563940425
 20
7.3088131862
 10
-27.8666263798
 20
7.3002386058
 10
-27.8773878294
 20
7.291882416
 10
-27.888664205
 20
7.2837556951
 10
-27.9004401642
 20
7.2758695141
 10
-27.9127000724
 20
7.2682342521
 10
-27.9254281183
 20
7.2608596268
 10
-27.9386076712
 20
7.2537551845
  0
LWPOLYLINE
  5
264
100
AcDbEntity
  8
RACCORDO
100
AcDbPolyline
 62
253
  6
CONTINUOUS
 90
30
 70
0
 10
-27.9386076712
 20
7.2537551845
 10
-27.9376310215
 20
7.269769872
 10
-27.9371253031
 20
7.2860677131
 10
-27.937091612
 20
7.3026260367
 10
-27.9375304429
 20
7.3194233084
 10
-27.9384415891
 20
7.3364345953
 10
-27.9398237136
 20
7.3536314191
 10
-27.9416746728
 20
7.3709879175
 10
-27.9439919727
 20
7.388481309
 10
-27.9467723972
 20
7.4060872404
 10
-27.9500120903
 20
7.4237811283
 10
-27.9537064883
 20
7.4415379042
 10
-27.9578503433
 20
7.459332302
 10
-27.962437792
 20
7.4771391709
 10
-27.9674624041
 20
7.4949335739
 10
-27.9729171275
 20
7.5126905357
 10
-27.9787942999
 20
7.530385101
 10
-27.9850856471
 20
7.5479923474
 10
-27.9917823115
 20
7.5654874813
 10
-27.9988748693
 20
7.5828458807
 10
-28.0063533455
 20
7.6000431313
 10
-28.01420722
 20
7.6170550389
 10
-28.0224254449
 20
7.6338576709
 10
-28.0309964578
 20
7.6504273847
 10
-28.0399081981
 20
7.6667408628
 10
-28.0491481279
 20
7.6827751524
 10
-28.058703248
 20
7.6985076948
 10
-28.0685601142
 20
7.7139163527
 10
-28.0787048588
 20
7.7289794468
 10
-28.0871337521
 20
7.7408694154
  0
LWPOLYLINE
  5
265
100
AcDbEntity
  8
RACCORDO
100
AcDbPolyline
 62
253
  6
CONTINUOUS
 90
13
 70
0
 10
-30.3232936228
 20
-9.5457621578
 10
-30.3835403867
 20
-9.8254524808
 10
-30.4425417323
 20
-10.1059155229
 10
-30.5001877544
 20
-10.3870474354
 10
-30.5565540317
 20
-10.6690079768
 10
-30.611334617
 20
-10.9514143146
 10
-30.663882965
 20
-11.2333643132
 10
-30.7141490634
 20
-11.5147750227
 10
-30.7620313776
 20
-11.7955345392
 10
-30.8068834327
 20
-12.074739887
 10
-30.848485068
 20
-12.3520500958
 10
-30.8869974859
 20
-12.6276585246
 10
-30.9223875528
 20
-12.9014874795
  0
LWPOLYLINE
  5
266
100
AcDbEntity
  8
RACCORDO
100
AcDbPolyline
 62
253
  6
CONTINUOUS
 90
6
 70
0
 10
-29.410673764
 20
-7.0824927206
 10
-29.4402304038
 20
-7.1619310573
 10
-29.4710180931
 20
-7.2430912352
 10
-29.5029713687
 20
-7.3260082334
 10
-29.5360293692
 20
-7.4106163181
 10
-29.5701392895
 20
-7.4967492182
  0
LINE
  5
267
100
AcDbEntity
  8
RACCORDO
100
AcDbLine
 62
253
  6
CONTINUOUS
 10
-29.5701392895
 20
-7.4967492182
 11
-29.6411618885
 21
-7.673188095
  0
LWPOLYLINE
  5
268
100
AcDbEntity
  8
RACCORDO
100
AcDbPolyline
 62
253
  6
CONTINUOUS
 90
14
 70
0
 10
-29.8754969234
 20
-8.2445977754
 10
-29.9164904732
 20
-8.3456925362
 10
-29.9576891508
 20
-8.4482826619
 10
-29.9988637649
 20
-8.5521502255
 10
-30.0392534385
 20
-8.6564697536
 10
-30.0789891536
 20
-8.761531334
 10
-30.1178260028
 20
-8.8669459643
 10
-30.1545693314
 20
-8.9709121637
 10
-30.1892291305
 20
-9.0733900057
 10
-30.2218742125
 20
-9.1743902479
 10
-30.2515731106
 20
-9.2722591554
 10
-30.2781319051
 20
-9.3664809271
 10
-30.302000634
 20
-9.4576374735
 10
-30.3232936228
 20
-9.5457621578
  0
LWPOLYLINE
  5
269
100
AcDbEntity
  8
RACCORDO
100
AcDbPolyline
 62
253
  6
CONTINUOUS
 90
4
 70
0
 10
-29.6411618885
 20
-7.673188095
 10
-29.7160787757
 20
-7.8565021209
 10
-29.7548547616
 20
-7.9507929181
 10
-29.8754969234
 20
-8.2445977754
  0
LWPOLYLINE
  5
26A
100
AcDbEntity
  8
RACCORDO
100
AcDbPolyline
 62
253
  6
CONTINUOUS
 90
16
 70
0
 10
-29.5060595536
 20
-4.9340474598
 10
-29.5674679051
 20
-5.0507378967
 10
-29.6276610245
 20
-5.1677659491
 10
-29.6866389118
 20
-5.2851316171
 10
-29.7444145246
 20
-5.4028626135
 10
-29.8009749052
 20
-5.5209312255
 10
-29.8562811814
 20
-5.6392543138
 10
-29.9103315023
 20
-5.7578296696
 10
-29.9631277186
 20
-5.8766595018
 10
-30.01463651
 20
-5.995667298
 10
-30.0648559537
 20
-6.114849541
 10
-30.1137879725
 20
-6.2342097479
 10
-30.1614050141
 20
-6.3536819585
 10
-30.2076978947
 20
-6.4732441857
 10
-30.2526757983
 20
-6.5929184165
 10
-30.2963387248
 20
-6.7127046509
  0
LINE
  5
26B
100
AcDbEntity
  8
RACCORDO
100
AcDbLine
 62
253
  6
CONTINUOUS
 10
23.7500384234
 20
-44.4686610318
 11
-30.9223875528
 21
-12.9014874795
  0
LINE
  5
26C
100
AcDbEntity
  8
RACCORDO
100
AcDbLine
 62
253
  6
CONTINUOUS
 10
-30.3232936228
 20
-9.5457621578
 11
23.0509786071
 21
-40.3633980066
  0
LWPOLYLINE
  5
26D
100
AcDbEntity
  8
RACCORDO
100
AcDbPolyline
 62
253
  6
CONTINUOUS
 90
19
 70
0
 10
-30.9223875833
 20
39.7048256452
 10
-30.8867356922
 20
39.402548758
 10
-30.8484840501
 20
39.1028462425
 10
-30.8076569608
 20
38.8057538498
 10
-30.7641163622
 20
38.5108880329
 10
-30.7180432041
 20
38.2187044321
 10
-30.6699737627
 20
37.9304782196
 10
-30.6199980318
 20
37.6463174385
 10
-30.5681453953
 20
37.3661369699
 10
-30.5149182536
 20
37.0908875328
 10
-30.4604109974
 20
36.8205229393
 10
-30.4046933441
 20
36.5550731758
 10
-30.3482823934
 20
36.2955679387
 10
-30.2913553684
 20
36.0421791978
 10
-30.2339555979
 20
35.7946663345
 10
-30.1764355469
 20
35.553412255
 10
-30.1189929764
 20
35.3185108288
 10
-30.0616599256
 20
35.0897744531
 10
-30.0045476639
 20
34.867154232
  0
LWPOLYLINE
  5
26E
100
AcDbEntity
  8
RACCORDO
100
AcDbPolyline
 62
253
  6
CONTINUOUS
 90
16
 70
0
 10
-28.6525489862
 20
-5.3710722832
 10
-28.7092438158
 20
-5.4781910324
 10
-28.7648398907
 20
-5.585674124
 10
-28.8193252271
 20
-5.6934961318
 10
-28.8726888838
 20
-5.8016315187
 10
-28.9249185755
 20
-5.9100547924
 10
-28.9760007071
 20
-6.0187405039
 10
-29.0259232673
 20
-6.1276607688
 10
-29.0746766793
 20
-6.2367921456
 10
-29.1222512378
 20
-6.3461158157
 10
-29.1686356722
 20
-6.4556039239
 10
-29.2138208731
 20
-6.5652328736
 10
-29.2578002083
 20
-6.6749902532
 10
-29.3005647552
 20
-6.7848547563
 10
-29.3421037306
 20
-6.8947961523
 10
-29.410673764
 20
-7.0824927206
  0
LWPOLYLINE
  5
26F
100
AcDbEntity
  8
RACCORDO
100
AcDbPolyline
 62
253
  6
CONTINUOUS
 90
23
 70
0
 10
-29.6018491608
 20
8.013488959
 10
-29.5877453232
 20
8.0214167288
 10
-29.574162172
 20
8.0296530456
 10
-29.5611199918
 20
8.0381856098
 10
-29.548638259
 20
8.0470016792
 10
-29.5367356133
 20
8.0560880882
 10
-29.5254298296
 20
8.0654312677
 10
-29.5147377915
 20
8.075017265
 10
-29.5046754659
 20
8.0848317648
 10
-29.4952578794
 20
8.0948601105
 10
-29.4864990958
 20
8.1050873264
 10
-29.4784121952
 20
8.1154981395
 10
-29.471009254
 20
8.1260770028
 10
-29.4643013276
 20
8.1368081183
 10
-29.4582984331
 20
8.1476754607
 10
-29.4530095352
 20
8.1586628012
 10
-29.4484425319
 20
8.1697537318
 10
-29.4446042434
 20
8.1809316898
 10
-29.4415004016
 20
8.1921799826
 10
-29.4391356417
 20
8.2034818125
 10
-29.4375134951
 20
8.2148203018
 10
-29.4366363843
 20
8.2261785182
 10
-29.4364934046
 20
8.2369147119
  0
LINE
  5
270
100
AcDbEntity
  8
RACCORDO
100
AcDbLine
 62
7
  6
CONTINUOUS
 10
-27.4056306914
 20
8.076345467
 11
-27.9126846452
 21
7.814262398
  0
LINE
  5
271
100
AcDbEntity
  8
RACCORDO
100
AcDbLine
 62
7
  6
CONTINUOUS
 10
-29.1169208053
 20
7.9844325424
 11
-29.0394919112
 21
8.0199174073
  0
LWPOLYLINE
  5
272
100
AcDbEntity
  8
RACCORDO
100
AcDbPolyline
 62
7
  6
CONTINUOUS
 90
14
 70
0
 10
-29.1169305513
 20
7.9844281342
 10
-29.1306209643
 20
7.9782614226
 10
-29.1531442446
 20
7.9685881856
 10
-29.1754368978
 20
7.9596047282
 10
-29.1974617951
 20
7.9513225283
 10
-29.2191894271
 20
7.9437478971
 10
-29.2405919898
 20
7.9368849092
 10
-29.2616362473
 20
7.9307380286
 10
-29.2822836891
 20
7.9253109572
 10
-29.3024887805
 20
7.920606019
 10
-29.3222149115
 20
7.91662055
 10
-29.3414216422
 20
7.9133498568
 10
-29.3600495945
 20
7.910787703
 10
-29.372373541
 20
7.9095097997
  0
LWPOLYLINE
  5
273
100
AcDbEntity
  8
RACCORDO
100
AcDbPolyline
 62
253
  6
CONTINUOUS
 90
12
 70
0
 10
-29.1169208053
 20
7.9844325424
 10
-29.1116477727
 20
7.9867527121
 10
-29.1009143879
 20
7.9909032416
 10
-29.0899125683
 20
7.994410254
 10
-29.0786576713
 20
7.9972688539
 10
-29.0671654073
 20
7.9994750512
 10
-29.0554518182
 20
8.0010257661
 10
-29.0435332548
 20
8.001918834
 10
-29.0314263541
 20
8.0021530084
 10
-29.0191480159
 20
8.0017279623
 10
-29.0067153792
 20
8.0006442892
 10
-29.0059216609
 20
8.0005343655
  0
LINE
  5
274
100
AcDbEntity
  8
RACCORDO
100
AcDbLine
 62
253
  6
CONTINUOUS
 10
-28.9380792525
 20
-5.2042023419
 11
-28.8968031223
 21
-5.2269629597
  0
LINE
  5
275
100
AcDbEntity
  8
RACCORDO
100
AcDbLine
 62
253
  6
CONTINUOUS
 10
-28.8968031223
 20
-5.2269629597
 11
-28.85617816
 21
-5.2497579876
  0
LINE
  5
276
100
AcDbEntity
  8
RACCORDO
100
AcDbLine
 62
253
  6
CONTINUOUS
 10
-28.85617816
 20
-5.2497579876
 11
-28.8163921804
 21
-5.2724820937
  0
LINE
  5
277
100
AcDbEntity
  8
RACCORDO
100
AcDbLine
 62
253
  6
CONTINUOUS
 10
-28.6525490082
 20
-5.3710722705
 11
22.9326814041
 21
-35.1557377958
  0
LINE
  5
278
100
AcDbEntity
  8
RACCORDO
100
AcDbLine
 62
253
  6
CONTINUOUS
 10
-28.8163921804
 20
-5.2724820937
 11
-28.7776291329
 21
-5.2950302978
  0
LWPOLYLINE
  5
279
100
AcDbEntity
  8
RACCORDO
100
AcDbPolyline
 62
253
  6
CONTINUOUS
 90
7
 70
0
 10
-28.7776291329
 20
-5.2950302978
 10
-28.7400682258
 20
-5.317298407
 10
-28.7217930765
 20
-5.3282952005
 10
-28.7038830939
 20
-5.3391835015
 10
-28.6863589815
 20
-5.3499507246
 10
-28.6692409981
 20
-5.3605844226
 10
-28.6525489322
 20
-5.3710723034
  0
LINE
  5
27A
100
AcDbEntity
  8
RACCORDO
100
AcDbLine
 62
7
  6
CONTINUOUS
 10
-27.8269139042
 20
7.6938021861
 11
-27.8190984365
 21
7.6776199062
  0
LWPOLYLINE
  5
27B
100
AcDbEntity
  8
RACCORDO
100
AcDbPolyline
 62
7
  6
CONTINUOUS
 90
13
 70
0
 10
-27.8190984365
 20
7.6776199062
 10
-27.8119800512
 20
7.6614313331
 10
-27.8054784351
 20
7.6451065569
 10
-27.7995043537
 20
7.6284152627
 10
-27.7940363374
 20
7.6112232837
 10
-27.7891541801
 20
7.5936990172
 10
-27.7849249081
 20
7.5760639003
 10
-27.7813726785
 20
7.558476641
 10
-27.7784635663
 20
7.540840229
 10
-27.7761740361
 20
7.5229961214
 10
-27.7745151649
 20
7.5049077574
 10
-27.7735104877
 20
7.4866648572
 10
-27.7731729744
 20
7.4682964391
  0
LWPOLYLINE
  5
27C
100
AcDbEntity
  8
RACCORDO
100
AcDbPolyline
 62
253
  6
CONTINUOUS
 90
19
 70
0
 10
-30.0045476639
 20
34.867154232
 10
-29.9727887279
 20
34.7529557781
 10
-29.9395449982
 20
34.6405731069
 10
-29.9048419446
 20
34.5300224208
 10
-29.8684000591
 20
34.4207507216
 10
-29.8305357
 20
34.3133526296
 10
-29.7922362123
 20
34.2095078216
 10
-29.7537521326
 20
34.1094461178
 10
-29.7150234728
 20
34.0128385061
 10
-29.6766676214
 20
33.9204394588
 10
-29.6389408794
 20
33.8323910529
 10
-29.6018209467
 20
33.7483886177
 10
-29.5655366935
 20
33.6684836584
 10
-29.530272229
 20
33.5927009423
 10
-29.4960593702
 20
33.5208454824
 10
-29.4628888964
 20
33.4526432402
 10
-29.4308131686
 20
33.3879560014
 10
-29.3999547166
 20
33.3267729075
 10
-29.3703969748
 20
33.2690193689
  0
LINE
  5
27D
100
AcDbEntity
  8
RACCORDO
100
AcDbLine
 62
253
  6
CONTINUOUS
 10
-30.3371053677
 20
33.296531116
 11
-30.2909603599
 21
33.075811084
  0
LINE
  5
27E
100
AcDbEntity
  8
RACCORDO
100
AcDbLine
 62
253
  6
CONTINUOUS
 10
-27.9386076712
 20
7.2537551845
 11
-28.2435144567
 21
7.12450744
  0
LWPOLYLINE
  5
27F
100
AcDbEntity
  8
RACCORDO
100
AcDbPolyline
 62
253
  6
CONTINUOUS
 90
58
 70
0
 10
-28.2435144567
 20
7.12450744
 10
-28.2813296108
 20
7.1090048824
 10
-28.3190492646
 20
7.0946202261
 10
-28.3566734182
 20
7.081353471
 10
-28.3942375649
 20
7.06918992
 10
-28.4317062113
 20
7.0581442703
 10
-28.4689728772
 20
7.0482606131
 10
-28.5060358474
 20
7.0395449783
 10
-28.542896837
 20
7.031991336
 10
-28.5794545114
 20
7.025625687
 10
-28.6157059926
 20
7.0204538102
 10
-28.6516541585
 20
7.0164699268
 10
-28.6872063077
 20
7.013682701
 10
-28.7223525035
 20
7.0120961859
 10
-28.7571026827
 20
7.0117063283
 10
-28.7913939543
 20
7.0125096326
 10
-28.8252226367
 20
7.0145070328
 10
-28.8585924115
 20
7.0176975949
 10
-28.8914514323
 20
7.0220750211
 10
-28.9238032894
 20
7.0276412485
 10
-28.9556443924
 20
7.03439434
 10
-28.9869121234
 20
7.0423221869
 10
-29.0176075469
 20
7.0514281816
 10
-29.0477295982
 20
7.0617089316
 10
-29.0772124653
 20
7.0731421506
 10
-29.1060528272
 20
7.0857299054
 10
-29.1342540047
 20
7.0994701293
 10
-29.1617601486
 20
7.1143343352
 10
-29.1885686979
 20
7.1303237621
 10
-29.2146822134
 20
7.1474371709
 10
-29.2400525279
 20
7.1656423584
 10
-29.2646794761
 20
7.1849421015
 10
-29.2885632232
 20
7.2053336231
 10
-29.311656097
 20
7.2267763887
 10
-29.3339575952
 20
7.2492742863
 10
-29.3554682201
 20
7.2728234277
 10
-29.376141806
 20
7.2973716141
 10
-29.3959748637
 20
7.3229192749
 10
-29.4149708823
 20
7.3494659806
 10
-29.4330941638
 20
7.3769582435
 10
-29.450341402
 20
7.4053933636
 10
-29.4667159032
 20
7.4347740408
 10
-29.482191888
 20
7.4650548871
 10
-29.4967699406
 20
7.4962392943
 10
-29.5104494767
 20
7.5283238705
 10
-29.5232029647
 20
7.5612530516
 10
-29.5350308807
 20
7.5950375233
 10
-29.5459327484
 20
7.6296665999
 10
-29.5558796076
 20
7.6650526595
 10
-29.5648675329
 20
7.7012009936
 10
-29.5729004495
 20
7.7381063108
 10
-29.5799611736
 20
7.775665115
 10
-29.5860449379
 20
7.8138816195
 10
-29.5911565097
 20
7.8527516111
 10
-29.5952930062
 20
7.8921589544
 10
-29.5984534664
 20
7.9320649376
 10
-29.6006388513
 20
7.9725082724
 10
-29.6018491608
 20
8.013488959
  0
LWPOLYLINE
  5
280
100
AcDbEntity
  8
RACCORDO
100
AcDbPolyline
 62
253
  6
CONTINUOUS
 90
7
 70
0
 10
-28.5732757898
 20
7.7532848586
 10
-28.5760682786
 20
7.7521857687
 10
-28.6048373404
 20
7.7416631666
 10
-28.6335504426
 20
7.7319678398
 10
-28.6621980535
 20
7.7231096623
 10
-28.6907533235
 20
7.715101325
 10
-28.7191724567
 20
7.7079560923
  0
LWPOLYLINE
  5
281
100
AcDbEntity
  8
RACCORDO
100
AcDbPolyline
 62
253
  6
CONTINUOUS
 90
22
 70
0
 10
-30.7422152735
 20
-9.3611629803
 10
-30.7197649891
 20
-9.3658187531
 10
-30.6974193837
 20
-9.3709359536
 10
-30.6752024315
 20
-9.3765090916
 10
-30.6531379685
 20
-9.3825321879
 10
-30.6312496673
 20
-9.3889987804
 10
-30.6095610113
 20
-9.3959019311
 10
-30.5880952698
 20
-9.403234234
 10
-30.566875473
 20
-9.4109878222
 10
-30.545924387
 20
-9.4191543772
 10
-30.52526449
 20
-9.4277251373
 10
-30.5049179473
 20
-9.4366909069
 10
-30.4849065885
 20
-9.4460420671
 10
-30.4652518832
 20
-9.455768585
 10
-30.4459749185
 20
-9.4658600254
 10
-30.4270963764
 20
-9.4763055613
 10
-30.4086365111
 20
-9.487093986
 10
-30.3906151279
 20
-9.4982137247
 10
-30.3730515615
 20
-9.5096528475
 10
-30.3559646556
 20
-9.5213990814
 10
-30.3393727421
 20
-9.5334398242
 10
-30.3232936224
 20
-9.5457621576
  0
LWPOLYLINE
  5
282
100
AcDbEntity
  8
RACCORDO
100
AcDbPolyline
 62
253
  6
CONTINUOUS
 90
15
 70
0
 10
-29.506060801
 20
-4.934049915
 10
-29.4920366859
 20
-4.9392865309
 10
-29.4774876728
 20
-4.9448649701
 10
-29.4624305746
 20
-4.9507787769
 10
-29.446882888
 20
-4.9570212995
 10
-29.4308624844
 20
-4.9635851248
 10
-29.4143875928
 20
-4.9704620911
 10
-29.397477169
 20
-4.9776440711
 10
-29.3801508502
 20
-4.9851229396
 10
-29.3624286462
 20
-4.9928900132
 10
-29.3443310409
 20
-5.0009363076
 10
-29.3258789575
 20
-5.0092525266
 10
-29.3070937148
 20
-5.0178290354
 10
-29.2879970264
 20
-5.0266559159
 10
-29.2686109699
 20
-5.0357229683
  0
LINE
  5
283
100
AcDbEntity
  8
RACCORDO
100
AcDbLine
 62
253
  6
CONTINUOUS
 10
-29.2686109699
 20
-5.0357229683
 11
-29.2290606862
 21
-5.0545353695
  0
LINE
  5
284
100
AcDbEntity
  8
RACCORDO
100
AcDbLine
 62
253
  6
CONTINUOUS
 10
-29.2290606862
 20
-5.0545353695
 11
-29.188625681
 21
-5.074179261
  0
LINE
  5
285
100
AcDbEntity
  8
RACCORDO
100
AcDbLine
 62
253
  6
CONTINUOUS
 10
-29.188625681
 20
-5.074179261
 11
-29.1474928609
 21
-5.0945638203
  0
LWPOLYLINE
  5
286
100
AcDbEntity
  8
RACCORDO
100
AcDbPolyline
 62
253
  6
CONTINUOUS
 90
49
 70
0
 10
-27.7267663565
 20
-4.3149906606
 10
-27.7342416633
 20
-4.3112612696
 10
-27.741706202
 20
-4.3072559553
 10
-27.7491531632
 20
-4.3029774947
 10
-27.7565798134
 20
-4.2984277262
 10
-27.7639749255
 20
-4.2936111636
 10
-27.7713188652
 20
-4.2885359454
 10
-27.7786043204
 20
-4.2832067547
 10
-27.7858243798
 20
-4.2776290425
 10
-27.7929601908
 20
-4.2718142047
 10
-27.8000039305
 20
-4.2657690928
 10
-27.8069495631
 20
-4.2595002256
 10
-27.8137813274
 20
-4.2530202577
 10
-27.8204901243
 20
-4.2463391499
 10
-27.8270720874
 20
-4.2394627732
 10
-27.8335196568
 20
-4.2323984879
 10
-27.8398248146
 20
-4.2251564865
 10
-27.8459833345
 20
-4.2177432324
 10
-27.8519932867
 20
-4.2101603238
 10
-27.8578493914
 20
-4.2024148683
 10
-27.8635448363
 20
-4.1945163803
 10
-27.8690751792
 20
-4.1864697752
 10
-27.8744357958
 20
-4.1782813405
 10
-27.8796196051
 20
-4.1699619619
 10
-27.8846186828
 20
-4.1615236294
 10
-27.8894275187
 20
-4.1529751658
 10
-27.8940411211
 20
-4.1443258979
 10
-27.8984529248
 20
-4.135588909
 10
-27.9026570577
 20
-4.1267757153
 10
-27.9066503611
 20
-4.1178935248
 10
-27.9104306298
 20
-4.1089490569
 10
-27.9139929883
 20
-4.0999531175
 10
-27.9173340078
 20
-4.0909136918
 10
-27.920453315
 20
-4.0818332311
 10
-27.9233473893
 20
-4.0727188344
 10
-27.9260114989
 20
-4.0635823273
 10
-27.9284432383
 20
-4.0544332863
 10
-27.9306394767
 20
-4.045277861
 10
-27.9325960725
 20
-4.0361290461
 10
-27.9343099513
 20
-4.0270065795
 10
-27.935778466
 20
-4.0179188742
 10
-27.9369995356
 20
-4.0088762282
 10
-27.9379726488
 20
-3.9999006926
 10
-27.9386964977
 20
-3.9910010054
 10
-27.9391706517
 20
-3.982185854
 10
-27.9393978297
 20
-3.9734763219
 10
-27.9393796947
 20
-3.9648844118
 10
-27.9391159875
 20
-3.9564134452
 10
-27.9386076712
 20
-3.9480707406
  0
LINE
  5
287
100
AcDbEntity
  8
RACCORDO
100
AcDbLine
 62
253
  6
CONTINUOUS
 10
-29.1474928609
 20
-5.0945638203
 11
-29.1058523412
 21
-5.1155947696
  0
LINE
  5
288
100
AcDbEntity
  8
RACCORDO
100
AcDbLine
 62
253
  6
CONTINUOUS
 10
-29.1058523412
 20
-5.1155947696
 11
-29.0638965969
 21
-5.1371748665
  0
LINE
  5
289
100
AcDbEntity
  8
RACCORDO
100
AcDbLine
 62
253
  6
CONTINUOUS
 10
-29.0638965969
 20
-5.1371748665
 11
-29.0218195507
 21
-5.1592043129
  0
LINE
  5
28A
100
AcDbEntity
  8
RACCORDO
100
AcDbLine
 62
253
  6
CONTINUOUS
 10
-29.0218195507
 20
-5.1592043129
 11
-28.9798157113
 21
-5.1815812806
  0
LINE
  5
28B
100
AcDbEntity
  8
RACCORDO
100
AcDbLine
 62
253
  6
CONTINUOUS
 10
-28.9798157113
 20
-5.1815812806
 11
-28.9380792525
 21
-5.2042023419
  0
LINE
  5
28C
100
AcDbEntity
  8
RACCORDO
100
AcDbLine
 62
253
  6
CONTINUOUS
 10
-28.4841313803
 20
-4.7522795245
 11
22.8970487817
 21
-34.4191289927
  0
LINE
  5
28D
100
AcDbEntity
  8
RACCORDO
100
AcDbLine
 62
253
  6
CONTINUOUS
 10
22.8549643881
 20
-33.5202480545
 11
-27.7267663565
 21
-4.3149906606
  0
LINE
  5
28E
100
AcDbEntity
  8
ASSI
100
AcDbLine
 62
7
  6
CONTINUOUS
 10
-27.7731729744
 20
-3.1828239411
 11
22.8055210831
 21
-32.38632799
  0
LINE
  5
28F
100
AcDbEntity
  8
0
100
AcDbLine
 62
7
  6
CONTINUOUS
 10
-27.7731729744
 20
-2.6112395104
 11
22.7822165418
 21
-31.8012878092
  0
LWPOLYLINE
  5
290
100
AcDbEntity
  8
RACCORDO
100
AcDbPolyline
 62
7
  6
CONTINUOUS
 90
60
 70
0
 10
22.8463517674
 20
-33.3242238915
 10
-27.4592735211
 20
-4.278383281
 10
-27.4641192003
 20
-4.2754875382
 10
-27.4693140711
 20
-4.2722376587
 10
-27.4748469818
 20
-4.2686195915
 10
-27.480701643
 20
-4.2646230032
 10
-27.4868566512
 20
-4.2602421677
 10
-27.4932958967
 20
-4.255468879
 10
-27.5000042963
 20
-4.2502948338
 10
-27.5069610973
 20
-4.2447167655
 10
-27.5141487275
 20
-4.2387300792
 10
-27.521550156
 20
-4.2323307243
 10
-27.5291450566
 20
-4.2255182524
 10
-27.5369165582
 20
-4.2182898717
 10
-27.5448444048
 20
-4.2106469572
 10
-27.5529029097
 20
-4.2025977084
 10
-27.5610739959
 20
-4.1941438845
 10
-27.5693368169
 20
-4.1852910098
 10
-27.5776615706
 20
-4.1760562426
 10
-27.5860288209
 20
-4.166447389
 10
-27.5944189125
 20
-4.156473182
 10
-27.6028026743
 20
-4.1461556549
 10
-27.6111619951
 20
-4.1355057911
 10
-27.6194771493
 20
-4.124537543
 10
-27.6277179316
 20
-4.1132806735
 10
-27.6358669774
 20
-4.1017505552
 10
-27.6439065919
 20
-4.08996458
 10
-27.6518078228
 20
-4.0779584872
 10
-27.6595547365
 20
-4.0657516828
 10
-27.6671324551
 20
-4.0533639724
 10
-27.6745158736
 20
-4.0408340081
 10
-27.6816916891
 20
-4.0281835898
 10
-27.6886478601
 20
-4.0154346166
 10
-27.695363847
 20
-4.0026274505
 10
-27.7018297746
 20
-3.9897849914
 10
-27.7080367392
 20
-3.9769305292
 10
-27.7139686835
 20
-3.964105818
 10
-27.7196194879
 20
-3.9513344682
 10
-27.7249840862
 20
-3.9386396382
 10
-27.7300514788
 20
-3.9260625799
 10
-27.7348197771
 20
-3.9136263206
 10
-27.7392878661
 20
-3.9013532748
 10
-27.7434497956
 20
-3.8892834089
 10
-27.7473073763
 20
-3.8774397997
 10
-27.7508643018
 20
-3.8658415293
 10
-27.7541210229
 20
-3.854521511
 10
-27.7570827896
 20
-3.8435018058
 10
-27.7597575378
 20
-3.8327976786
 10
-27.7621521117
 20
-3.822430413
 10
-27.76427546
 20
-3.8124164118
 10
-27.7661375524
 20
-3.8027713053
 10
-27.7677484515
 20
-3.793514116
 10
-27.7691200574
 20
-3.7846569564
 10
-27.7702646914
 20
-3.776214083
 10
-27.7711949216
 20
-3.768206073
 10
-27.7719255363
 20
-3.7606426562
 10
-27.7724718402
 20
-3.7535330753
 10
-27.7728494662
 20
-3.7468947219
 10
-27.7730756868
 20
-3.7407368128
 10
-27.7731685
 20
-3.7350610798
  0
LWPOLYLINE
  5
291
100
AcDbEntity
  8
RACCORDO
100
AcDbPolyline
 62
7
  6
CONTINUOUS
 90
10
 70
0
 10
-27.9124195027
 20
7.8143994433
 10
-27.9081809005
 20
7.810028477
 10
-27.8961868647
 20
7.7967495907
 10
-27.8845732559
 20
7.7829236126
 10
-27.8735565889
 20
7.7688072446
 10
-27.8632636008
 20
7.7546079914
 10
-27.8535620399
 20
7.7401910205
 10
-27.8442821452
 20
7.7253035526
 10
-27.8353547155
 20
7.7097817843
 10
-27.8269139042
 20
7.6938021861
  0
LWPOLYLINE
  5
292
100
AcDbEntity
  8
RACCORDO
100
AcDbPolyline
 62
253
  6
CONTINUOUS
 90
23
 70
0
 10
-27.7267663565
 20
-4.3149906606
 10
-27.713337333
 20
-4.3067194905
 10
-27.6999009801
 20
-4.2990336482
 10
-27.6864767042
 20
-4.2919442346
 10
-27.6730838942
 20
-4.285461489
 10
-27.6597418935
 20
-4.2795947746
 10
-27.6464699721
 20
-4.2743525648
 10
-27.6332872989
 20
-4.2697424309
 10
-27.6202129138
 20
-4.2657710316
 10
-27.6072657004
 20
-4.2624441028
 10
-27.5944643584
 20
-4.2597664496
 10
-27.5818273771
 20
-4.2577419395
 10
-27.5693730083
 20
-4.2563734966
 10
-27.5571192399
 20
-4.2556630973
 10
-27.5450837705
 20
-4.2556117677
 10
-27.5332839828
 20
-4.2562195821
 10
-27.5217369197
 20
-4.2574856626
 10
-27.5104592587
 20
-4.2594081807
 10
-27.4994672883
 20
-4.2619843596
 10
-27.4887768845
 20
-4.2652104786
 10
-27.4784034876
 20
-4.2690818782
 10
-27.4683620801
 20
-4.2735929671
 10
-27.4582522119
 20
-4.2789760186
  0
LINE
  5
293
100
AcDbEntity
  8
RACCORDO
100
AcDbLine
 62
253
  6
CONTINUOUS
 10
-27.7267663565
 20
-4.3149906606
 11
-28.4841313803
 21
-4.7522795245
  0
LWPOLYLINE
  5
294
100
AcDbEntity
  8
RACCORDO
100
AcDbPolyline
 62
253
  6
CONTINUOUS
 90
9
 70
0
 10
-27.9386076712
 20
-3.9480707406
 10
-28.6990282717
 20
-4.38711423
 10
-28.7021146318
 20
-4.3888668427
 10
-28.7052317754
 20
-4.3906174426
 10
-28.7083789001
 20
-4.3923656689
 10
-28.7115568082
 20
-4.3941118824
 10
-28.7147679067
 20
-4.3958571657
 10
-28.7180121461
 20
-4.3976014958
 10
-28.7212895758
 20
-4.3993448958
  0
LWPOLYLINE
  5
295
100
AcDbEntity
  8
RACCORDO
100
AcDbPolyline
 62
253
  6
CONTINUOUS
 90
40
 70
0
 10
-28.4841313803
 20
-4.7522795245
 10
-28.4883238585
 20
-4.7546599975
 10
-28.4925956047
 20
-4.7572634833
 10
-28.4969461287
 20
-4.7600946004
 10
-28.5013866883
 20
-4.7631516913
 10
-28.5059048012
 20
-4.7664461855
 10
-28.510464239
 20
-4.770002566
 10
-28.515063159
 20
-4.7738253218
 10
-28.5197015982
 20
-4.7779206298
 10
-28.5243459764
 20
-4.7823157746
 10
-28.5289933045
 20
-4.7870140054
 10
-28.5336440115
 20
-4.7920236789
 10
-28.538269382
 20
-4.7973803499
 10
-28.5428685602
 20
-4.8030901339
 10
-28.5474387854
 20
-4.8091600127
 10
-28.5519481051
 20
-4.815627724
 10
-28.5563947095
 20
-4.8225001744
 10
-28.5607754358
 20
-4.8297849121
 10
-28.5650558131
 20
-4.8375215234
 10
-28.5692325563
 20
-4.8457174424
 10
-28.5733022576
 20
-4.8543808998
 10
-28.5772296317
 20
-4.8635535865
 10
-28.5810090242
 20
-4.8732422333
 10
-28.5846372305
 20
-4.8834568053
 10
-28.588081771
 20
-4.8942449758
 10
-28.5913326908
 20
-4.9056051504
 10
-28.5943883033
 20
-4.9175565981
 10
-28.5972269263
 20
-4.9301807588
 10
-28.5998392805
 20
-4.9435196371
 10
-28.6022179548
 20
-4.9575529604
 10
-28.6043427743
 20
-4.9722695927
 10
-28.6061999266
 20
-4.9879000385
 10
-28.6077811104
 20
-5.004236308
 10
-28.6090852046
 20
-5.0205875542
 10
-28.6100810692
 20
-5.0367794783
 10
-28.6108036501
 20
-5.052960012
 10
-28.6113655154
 20
-5.0688976185
 10
-28.6117737659
 20
-5.0845160874
 10
-28.6120309838
 20
-5.0998635817
 10
-28.6127849687
 20
-5.1579279307
  0
LWPOLYLINE
  5
296
100
AcDbEntity
  8
RACCORDO
100
AcDbPolyline
 62
253
  6
CONTINUOUS
 90
23
 70
0
 10
-27.9386076712
 20
-3.9480707406
 10
-27.9245010592
 20
-3.9404468974
 10
-27.910915144
 20
-3.9325140495
 10
-27.8978702145
 20
-3.9242840437
 10
-27.8853857516
 20
-3.9157691703
 10
-27.8734803993
 20
-3.9069821453
 10
-27.8621719367
 20
-3.8979360909
 10
-27.8514772515
 20
-3.8886445164
 10
-27.8414123149
 20
-3.8791212974
 10
-27.8319921576
 20
-3.8693806557
 10
-27.8232308473
 20
-3.8594371376
 10
-27.815141468
 20
-3.8493055926
 10
-27.8077361001
 20
-3.8390011508
 10
-27.8010258026
 20
-3.8285392005
 10
-27.7950205964
 20
-3.8179353654
 10
-27.7897294497
 20
-3.807205481
 10
-27.7851602639
 20
-3.7963655709
 10
-27.7813198626
 20
-3.7854318231
 10
-27.778213981
 20
-3.7744205658
 10
-27.7758472572
 20
-3.763348243
 10
-27.7742232258
 20
-3.7522313896
 10
-27.7733443119
 20
-3.7410866074
 10
-27.7731729744
 20
-3.7335309405
  0
LWPOLYLINE
  5
297
100
AcDbEntity
  8
RACCORDO
100
AcDbPolyline
 62
253
  6
CONTINUOUS
 90
3
 70
0
 10
-28.7212895758
 20
-4.3993448958
 10
-28.7279515245
 20
-4.4028322833
 10
-28.7313360435
 20
-4.4045762708
  0
LWPOLYLINE
  5
298
100
AcDbEntity
  8
RACCORDO
100
AcDbPolyline
 62
253
  6
CONTINUOUS
 90
16
 70
0
 10
-30.2909604337
 20
33.0758111281
 10
-30.2488499321
 20
32.9961398724
 10
-30.2052988821
 20
32.9180307972
 10
-30.1603072835
 20
32.8414839026
 10
-30.1138655269
 20
32.7664849973
 10
-30.0659832218
 20
32.6930482726
 10
-30.0166891969
 20
32.6212163018
 10
-29.965981053
 20
32.5509867793
 10
-29.9138611894
 20
32.4823620107
 10
-29.8603656319
 20
32.4153914864
 10
-29.8054921324
 20
32.3500747481
 10
-29.7492429391
 20
32.286412254
 10
-29.6916608221
 20
32.2244548693
 10
-29.6327600382
 20
32.164219549
 10
-29.5725263307
 20
32.1056893381
 10
-29.5109596995
 20
32.0488642365
  0
LWPOLYLINE
  5
299
100
AcDbEntity
  8
RACCORDO
100
AcDbPolyline
 62
253
  6
CONTINUOUS
 90
19
 70
0
 10
-29.3703969748
 20
33.2690193689
 10
-29.3381415611
 20
33.2079023484
 10
-29.3049475728
 20
33.1477529282
 10
-29.2708208444
 20
33.0885812253
 10
-29.2357682805
 20
33.0303990308
 10
-29.1997951642
 20
32.9732141632
 10
-29.1629048454
 20
32.917030833
 10
-29.1251029702
 20
32.861858019
 10
-29.0863963454
 20
32.8077060044
 10
-29.0467898374
 20
32.7545812236
 10
-29.0062891664
 20
32.7024921449
 10
-28.9649016259
 20
32.6514488924
 10
-28.9226344586
 20
32.6014603695
 10
-28.8794939463
 20
32.5525348106
 10
-28.8354876533
 20
32.5046815431
 10
-28.7906249855
 20
32.4579108009
 10
-28.7449140548
 20
32.4122313732
 10
-28.6983616166
 20
32.3676506854
 10
-28.6509753136
 20
32.3241765594
  0
LINE
  5
29A
100
AcDbEntity
  8
RACCORDO
100
AcDbLine
 62
253
  6
CONTINUOUS
 10
-28.7313360435
 20
-4.4045762708
 11
-28.738221233
 21
-4.4080689991
  0
LINE
  5
29B
100
AcDbEntity
  8
RACCORDO
100
AcDbLine
 62
253
  6
CONTINUOUS
 10
-28.738221233
 20
-4.4080689991
 11
-28.7452645541
 21
-4.4115695834
  0
LINE
  5
29C
100
AcDbEntity
  8
RACCORDO
100
AcDbLine
 62
253
  6
CONTINUOUS
 10
-28.7452645541
 20
-4.4115695834
 11
-28.7524757385
 21
-4.4150825291
  0
LINE
  5
29D
100
AcDbEntity
  8
RACCORDO
100
AcDbLine
 62
253
  6
CONTINUOUS
 10
-28.7524757385
 20
-4.4150825291
 11
-28.7598646499
 21
-4.4186125229
  0
LINE
  5
29E
100
AcDbEntity
  8
RACCORDO
100
AcDbLine
 62
253
  6
CONTINUOUS
 10
-28.7598646499
 20
-4.4186125229
 11
-28.7674383906
 21
-4.4221629952
  0
LWPOLYLINE
  5
29F
100
AcDbEntity
  8
RACCORDO
100
AcDbPolyline
 62
253
  6
CONTINUOUS
 90
95
 70
0
 10
-29.0381674349
 20
-4.5363409287
 10
-29.0473084242
 20
-4.5405534978
 10
-29.05667281
 20
-4.5449336526
 10
-29.0662254571
 20
-4.5494635904
 10
-29.0758211609
 20
-4.5540914052
 10
-29.0854730805
 20
-4.5588285004
 10
-29.0951680568
 20
-4.5636634725
 10
-29.1047214076
 20
-4.5685102053
 10
-29.1140974658
 20
-4.5733554822
 10
-29.1233318986
 20
-4.5782125197
 10
-29.1323470253
 20
-4.5830348516
 10
-29.1411109849
 20
-4.587806958
 10
-29.1496556384
 20
-4.5925443588
 10
-29.1579988885
 20
-4.5972471464
 10
-29.1661360366
 20
-4.6019121404
 10
-29.1740717814
 20
-4.6065425214
 10
-29.181838121
 20
-4.6111479238
 10
-29.1894393069
 20
-4.6157302165
 10
-29.1968710877
 20
-4.6202875307
 10
-29.2041527076
 20
-4.624823895
 10
-29.2112856153
 20
-4.6293397924
 10
-29.218268362
 20
-4.6338347399
 10
-29.2251158454
 20
-4.6383113166
 10
-29.2318285222
 20
-4.642769451
 10
-29.2384059357
 20
-4.6472092146
 10
-29.2448616138
 20
-4.6516334015
 10
-29.2511967267
 20
-4.6560425047
 10
-29.2574101041
 20
-4.660436031
 10
-29.2635117637
 20
-4.6648152951
 10
-29.2695021157
 20
-4.6691803465
 10
-29.2753807499
 20
-4.6735311356
 10
-29.2811564535
 20
-4.6778688278
 10
-29.2868295698
 20
-4.6821934596
 10
-29.2923997554
 20
-4.6865049945
 10
-29.2978747674
 20
-4.6908044889
 10
-29.3032548887
 20
-4.6950919634
 10
-29.3085398363
 20
-4.6993673973
 10
-29.313736519
 20
-4.7036317852
 10
-29.3188450712
 20
-4.7078850443
 10
-29.3238653585
 20
-4.7121272572
 10
-29.3288038859
 20
-4.7163596664
 10
-29.3336609863
 20
-4.720582381
 10
-29.3384363268
 20
-4.7247952919
 10
-29.3431354141
 20
-4.7289993135
 10
-29.3477584019
 20
-4.7331944261
 10
-29.3523051366
 20
-4.7373806496
 10
-29.3567806634
 20
-4.7415589576
 10
-29.3611852486
 20
-4.7457294598
 10
-29.365518626
 20
-4.7498920467
 10
-29.3697850425
 20
-4.7540473629
 10
-29.3739842631
 20
-4.758195024
 10
-29.3781165229
 20
-4.7623354144
 10
-29.3821867742
 20
-4.7664703325
 10
-29.3861949429
 20
-4.7705995038
 10
-29.3901411031
 20
-4.7747232027
 10
-29.3940304298
 20
-4.7788440504
 10
-29.3978634586
 20
-4.7829624403
 10
-29.4016396538
 20
-4.7870779791
 10
-29.4053625834
 20
-4.7911921074
 10
-29.4090334452
 20
-4.7953061281
 10
-29.4126510413
 20
-4.7994187384
 10
-29.4162153453
 20
-4.803527471
 10
-29.4197264981
 20
-4.8076325894
 10
-29.4231843588
 20
-4.8117338302
 10
-29.4265884781
 20
-4.8158279353
 10
-29.4299387266
 20
-4.8199148599
 10
-29.4332352338
 20
-4.8239946489
 10
-29.4364779394
 20
-4.828064179
 10
-29.439666449
 20
-4.8321230175
 10
-29.442801157
 20
-4.8361715972
 10
-29.4458831866
 20
-4.840208093
 10
-29.448912325
 20
-4.8442322267
 10
-29.4518887849
 20
-4.8482442765
 10
-29.4548143275
 20
-4.8522432524
 10
-29.4576889508
 20
-4.8562291273
 10
-29.4605126568
 20
-4.8602019282
 10
-29.4632872125
 20
-4.8641607456
 10
-29.466012368
 20
-4.8681051599
 10
-29.4686883732
 20
-4.8720355906
 10
-29.471317745
 20
-4.8759523874
 10
-29.473899526
 20
-4.8798538809
 10
-29.4764346735
 20
-4.8837417405
 10
-29.4789285767
 20
-4.8876213241
 10
-29.4813812603
 20
-4.8914922733
 10
-29.4837926995
 20
-4.8953549464
 10
-29.4861682092
 20
-4.8992157768
 10
-29.4885084467
 20
-4.9030754854
 10
-29.4908127546
 20
-4.9069333512
 10
-29.4930844754
 20
-4.9107936449
 10
-29.4953238936
 20
-4.9146565854
 10
-29.4975307247
 20
-4.9185219538
 10
-29.4997074573
 20
-4.922393364
 10
-29.5018549211
 20
-4.9262720207
 10
-29.5039722866
 20
-4.9301567193
 10
-29.5060595536
 20
-4.9340474598
  0
LINE
  5
2A0
100
AcDbEntity
  8
RACCORDO
100
AcDbLine
 62
253
  6
CONTINUOUS
 10
-28.7674383906
 20
-4.4221629952
 11
-28.7752080246
 21
-4.4257393483
  0
LINE
  5
2A1
100
AcDbEntity
  8
RACCORDO
100
AcDbLine
 62
253
  6
CONTINUOUS
 10
-28.7752080246
 20
-4.4257393483
 11
-28.7831872037
 21
-4.4293484502
  0
LWPOLYLINE
  5
2A2
100
AcDbEntity
  8
RACCORDO
100
AcDbPolyline
 62
253
  6
CONTINUOUS
 90
3
 70
0
 10
-29.0120162245
 20
-4.524606483
 10
-29.0204900401
 20
-4.5283636382
 10
-29.0381674349
 20
-4.5363409287
  0
LINE
  5
2A3
100
AcDbEntity
  8
RACCORDO
100
AcDbLine
 62
253
  6
CONTINUOUS
 10
-28.7831872037
 20
-4.4293484502
 11
-28.7913850589
 21
-4.4329949871
  0
LINE
  5
2A4
100
AcDbEntity
  8
RACCORDO
100
AcDbLine
 62
253
  6
CONTINUOUS
 10
-28.7913850589
 20
-4.4329949871
 11
-28.7998156408
 21
-4.4366862386
  0
LINE
  5
2A5
100
AcDbEntity
  8
RACCORDO
100
AcDbLine
 62
253
  6
CONTINUOUS
 10
-28.9957242061
 20
-4.5175083123
 11
-29.0120162245
 21
-4.524606483
  0
LINE
  5
2A6
100
AcDbEntity
  8
RACCORDO
100
AcDbLine
 62
253
  6
CONTINUOUS
 10
-28.7998156408
 20
-4.4366862386
 11
-28.8084936306
 21
-4.4404303433
  0
LINE
  5
2A7
100
AcDbEntity
  8
RACCORDO
100
AcDbLine
 62
253
  6
CONTINUOUS
 10
-28.9802336357
 20
-4.5108868866
 11
-28.9957242061
 21
-4.5175083123
  0
LINE
  5
2A8
100
AcDbEntity
  8
RACCORDO
100
AcDbLine
 62
253
  6
CONTINUOUS
 10
-28.8084936306
 20
-4.4404303433
 11
-28.8174291255
 21
-4.4442330556
  0
LINE
  5
2A9
100
AcDbEntity
  8
RACCORDO
100
AcDbLine
 62
253
  6
CONTINUOUS
 10
-28.9654338608
 20
-4.5046611911
 11
-28.9802336357
 21
-4.5108868866
  0
LINE
  5
2AA
100
AcDbEntity
  8
RACCORDO
100
AcDbLine
 62
253
  6
CONTINUOUS
 10
-28.8174291255
 20
-4.4442330556
 11
-28.8313499082
 21
-4.4500674838
  0
LINE
  5
2AB
100
AcDbEntity
  8
RACCORDO
100
AcDbLine
 62
253
  6
CONTINUOUS
 10
-28.9444194895
 20
-4.4959684122
 11
-28.9654338608
 21
-4.5046611911
  0
LINE
  5
2AC
100
AcDbEntity
  8
RACCORDO
100
AcDbLine
 62
253
  6
CONTINUOUS
 10
-28.8313499082
 20
-4.4500674838
 11
-28.8459322982
 21
-4.4560847534
  0
LINE
  5
2AD
100
AcDbEntity
  8
RACCORDO
100
AcDbLine
 62
253
  6
CONTINUOUS
 10
-28.8459322982
 20
-4.4560847534
 11
-28.8718606283
 21
-4.4666229784
  0
LINE
  5
2AE
100
AcDbEntity
  8
RACCORDO
100
AcDbLine
 62
253
  6
CONTINUOUS
 10
-28.9121767874
 20
-4.4828645016
 11
-28.9444194895
 21
-4.4959684122
  0
LWPOLYLINE
  5
2AF
100
AcDbEntity
  8
RACCORDO
100
AcDbPolyline
 62
253
  6
CONTINUOUS
 90
3
 70
0
 10
-28.8718606283
 20
-4.4666229784
 10
-28.8885144884
 20
-4.4733342696
 10
-28.9121767874
 20
-4.4828645016
  0
LWPOLYLINE
  5
2B0
100
AcDbEntity
  8
RACCORDO
100
AcDbPolyline
 62
253
  6
CONTINUOUS
 90
43
 70
0
 10
-30.2963386039
 20
-6.7127047443
 10
-30.2790515764
 20
-6.7131157203
 10
-30.2611709233
 20
-6.7139214078
 10
-30.2427201743
 20
-6.7151207464
 10
-30.2237236096
 20
-6.7167121579
 10
-30.2042062274
 20
-6.7186935481
 10
-30.1841937114
 20
-6.7210623097
 10
-30.1637123969
 20
-6.7238153254
 10
-30.1427892359
 20
-6.7269489724
 10
-30.121451762
 20
-6.7304591271
 10
-30.099728054
 20
-6.7343411704
 10
-30.077646699
 20
-6.7385899936
 10
-30.0552367547
 20
-6.7432000057
 10
-30.0325277112
 20
-6.74816514
 10
-30.009549452
 20
-6.7534788629
 10
-29.9863322153
 20
-6.7591341817
 10
-29.9629065535
 20
-6.7651236545
 10
-29.9393032931
 20
-6.7714393993
 10
-29.9155534948
 20
-6.7780731052
 10
-29.8916884117
 20
-6.7850160425
 10
-29.8677394489
 20
-6.7922590748
 10
-29.8437381215
 20
-6.7997926707
 10
-29.819716014
 20
-6.8076069165
 10
-29.7957047379
 20
-6.815691529
 10
-29.7717358906
 20
-6.8240358694
 10
-29.7478410135
 20
-6.8326289572
 10
-29.7240515508
 20
-6.8414594842
 10
-29.7003988081
 20
-6.8505158302
 10
-29.6769139107
 20
-6.8597860774
 10
-29.6536277635
 20
-6.8692580269
 10
-29.6305710095
 20
-6.8789192141
 10
-29.6077739899
 20
-6.8887569255
 10
-29.5852667043
 20
-6.8987582152
 10
-29.5630787709
 20
-6.9089099223
 10
-29.5412393874
 20
-6.9191986876
 10
-29.5197772933
 20
-6.9296109719
 10
-29.4987207314
 20
-6.9401330731
 10
-29.4780974106
 20
-6.9507511448
 10
-29.4579344702
 20
-6.9614512144
 10
-29.4382584431
 20
-6.9722192011
 10
-29.4190952219
 20
-6.9830409351
 10
-29.4004700241
 20
-6.9939021754
 10
-29.3824073595
 20
-7.0047886295
  0
LWPOLYLINE
  5
2B1
100
AcDbEntity
  8
RACCORDO
100
AcDbPolyline
 62
7
  6
CONTINUOUS
 90
10
 70
0
 10
-28.6072092883
 20
7.770324993
 10
-28.5556257143
 20
7.7444216504
 10
-28.486608734
 20
7.7201739744
 10
-28.4134483153
 20
7.7053979236
 10
-28.3356585058
 20
7.7003674457
 10
-28.253725258
 20
7.7048085931
 10
-28.1702055501
 20
7.7184461805
 10
-28.0859517084
 20
7.7411884796
 10
-28.0001114068
 20
7.7731272188
 10
-27.9126846452
 20
7.814262398
  0
LINE
  5
2B2
100
AcDbEntity
  8
RACCORDO
100
AcDbLine
 62
7
  6
CONTINUOUS
 10
-29.2506747583
 20
7.7643785581
 11
-29.2508096866
 21
7.7644564395
  0
LINE
  5
2B3
100
AcDbEntity
  8
RACCORDO
100
AcDbLine
 62
7
  6
CONTINUOUS
 10
-28.607210221
 20
7.7703233771
 11
-29.4312027082
 21
8.2460863122
  0
LINE
  5
2B4
100
AcDbEntity
  8
RACCORDO
100
AcDbLine
 62
253
  6
CONTINUOUS
 10
-28.9176455935
 20
8.433945463
 11
-29.4444180969
 21
8.7380973044
  0
LWPOLYLINE
  5
2B5
100
AcDbEntity
  8
RACCORDO
100
AcDbPolyline
 62
7
  6
CONTINUOUS
 90
31
 70
0
 10
-29.2506740211
 20
7.7643781352
 10
-29.2541532136
 20
7.7664234548
 10
-29.264621445
 20
7.7730760826
 10
-29.2746735667
 20
7.7802254538
 10
-29.2843085723
 20
7.7878493922
 10
-29.293608814
 20
7.7959925958
 10
-29.3027214064
 20
7.8047879317
 10
-29.3116682657
 20
7.8142817759
 10
-29.3204294785
 20
7.8244789135
 10
-29.3290538245
 20
7.8354712326
 10
-29.3375326149
 20
7.8472949048
 10
-29.3458297032
 20
7.8599474518
 10
-29.3539355397
 20
7.8734651451
 10
-29.3618255445
 20
7.8878621211
 10
-29.3694623069
 20
7.9031257806
 10
-29.3768143803
 20
7.9192480765
 10
-29.3838543961
 20
7.9362229126
 10
-29.3905508006
 20
7.9540284014
 10
-29.3968710417
 20
7.9726294231
 10
-29.4027913927
 20
7.9920032153
 10
-29.4082896467
 20
8.0121239973
 10
-29.4133427409
 20
8.0329524518
 10
-29.4179335379
 20
8.0544580761
 10
-29.4220475634
 20
8.0766123287
 10
-29.4256714361
 20
8.099382988
 10
-29.4287941686
 20
8.1227385577
 10
-29.4314070772
 20
8.1466503752
 10
-29.4335033197
 20
8.1710971849
 10
-29.4350766579
 20
8.1960536979
 10
-29.4361219258
 20
8.2214847397
 10
-29.4364933231
 20
8.2369147134
  0
LWPOLYLINE
  5
2B6
100
AcDbEntity
  8
RACCORDO
100
AcDbPolyline
 62
253
  6
CONTINUOUS
 90
20
 70
0
 10
-29.3518772775
 20
7.8700326854
 10
-29.3500235226
 20
7.8697360817
 10
-29.3260624187
 20
7.8668575519
 10
-29.3017456885
 20
7.8648762209
 10
-29.2770797902
 20
7.8637932239
 10
-29.2520779486
 20
7.8636098954
 10
-29.2267583589
 20
7.8643271028
 10
-29.2011347416
 20
7.8659458926
 10
-29.175216815
 20
7.8684668784
 10
-29.149027369
 20
7.871889065
 10
-29.1226003938
 20
7.8762089008
 10
-29.0959519914
 20
7.8814230431
 10
-29.0691006485
 20
7.8875271873
 10
-29.0420850001
 20
7.8945118397
 10
-29.0149227019
 20
7.9023698068
 10
-28.9876319861
 20
7.9110932068
 10
-28.9602531227
 20
7.9206667185
 10
-28.9328117631
 20
7.9310769358
 10
-28.9053185695
 20
7.9423146066
 10
-28.9051877705
 20
7.9423718797
  0
LINE
  5
2B7
100
AcDbEntity
  8
RACCORDO
100
AcDbLine
 62
253
  6
CONTINUOUS
 10
-29.416851919
 20
19.4061154943
 11
-28.9176455935
 21
19.1178800185
  0
LINE
  5
2B8
100
AcDbEntity
  8
RACCORDO
100
AcDbLine
 62
253
  6
CONTINUOUS
 10
-28.2688046329
 20
21.103686014
 11
-27.9126846452
 21
20.8980667963
  0
LINE
  5
2B9
100
AcDbEntity
  8
DRAFT
100
AcDbLine
 62
7
  6
CONTINUOUS
 10
-27.759184082
 20
21.4256542201
 11
-27.4056306914
 21
21.2215169234
  0
LINE
  5
2BA
100
AcDbEntity
  8
RACCORDO
100
AcDbLine
 62
253
  6
CONTINUOUS
 10
-28.6509753185
 20
32.3241765622
 11
-28.6452642411
 21
32.3191551016
  0
LWPOLYLINE
  5
2BB
100
AcDbEntity
  8
RACCORDO
100
AcDbPolyline
 62
253
  6
CONTINUOUS
 90
97
 70
0
 10
-29.5109596995
 20
32.0488642365
 10
-29.5088536003
 20
32.0470030172
 10
-29.5067145187
 20
32.0451792386
 10
-29.5045424547
 20
32.0433929008
 10
-29.5023382813
 20
32.0416443136
 10
-29.5001011256
 20
32.0399331671
 10
-29.4978283685
 20
32.038258532
 10
-29.4955201981
 20
32.0366202785
 10
-29.4931764263
 20
32.0350185365
 10
-29.4907938701
 20
32.0334527653
 10
-29.4883726322
 20
32.031922765
 10
-29.4859126099
 20
32.0304287357
 10
-29.4834103115
 20
32.0289707365
 10
-29.4808657941
 20
32.0275485519
 10
-29.4782790007
 20
32.0261623974
 10
-29.4756462678
 20
32.0248129789
 10
-29.4729672812
 20
32.0234999563
 10
-29.4702423551
 20
32.0222236696
 10
-29.4674687684
 20
32.0209858443
 10
-29.4646462369
 20
32.0197862712
 10
-29.4617750447
 20
32.0186251595
 10
-29.4588533238
 20
32.0175048616
 10
-29.4558810816
 20
32.0164253388
 10
-29.4528583107
 20
32.01538663
 10
-29.4497831204
 20
32.0143912045
 10
-29.4466554462
 20
32.0134390118
 10
-29.4434753527
 20
32.0125301025
 10
-29.4402411425
 20
32.0116670974
 10
-29.4369524917
 20
32.0108499274
 10
-29.4336097243
 20
32.0100786615
 10
-29.4302121156
 20
32.0093561271
 10
-29.4267595388
 20
32.0086823577
 10
-29.4232521206
 20
32.0080573196
 10
-29.4196895166
 20
32.0074837396
 10
-29.4160717393
 20
32.0069616839
 10
-29.4123987762
 20
32.0064910861
 10
-29.4086702451
 20
32.006074474
 10
-29.4048870079
 20
32.0057119147
 10
-29.4010482027
 20
32.005403341
 10
-29.3971508617
 20
32.0051510783
 10
-29.3931956636
 20
32.0049550099
 10
-29.3891819296
 20
32.0048152525
 10
-29.3851046554
 20
32.0047344812
 10
-29.3809637802
 20
32.0047125033
 10
-29.3767593647
 20
32.0047495115
 10
-29.3724865861
 20
32.0048487591
 10
-29.3681451659
 20
32.0050101094
 10
-29.3637353828
 20
32.0052336991
 10
-29.3592532491
 20
32.0055231923
 10
-29.3546991094
 20
32.0058784287
 10
-29.3500726191
 20
32.0062995686
 10
-29.345368758
 20
32.0067907567
 10
-29.3405876069
 20
32.0073518292
 10
-29.3357290848
 20
32.0079829499
 10
-29.330787929
 20
32.0086887559
 10
-29.3257644311
 20
32.009469036
 10
-29.3206582995
 20
32.0103240014
 10
-29.3154633962
 20
32.0112589223
 10
-29.3101798668
 20
32.0122735886
 10
-29.3048075657
 20
32.0133682104
 10
-29.299339919
 20
32.0145486883
 10
-29.2937771014
 20
32.0158147958
 10
-29.2881189381
 20
32.0171667594
 10
-29.2823583309
 20
32.0186111591
 10
-29.2764956511
 20
32.0201476944
 10
-29.2705305274
 20
32.0217766659
 10
-29.264454747
 20
32.0235055557
 10
-29.2582685206
 20
32.0253340814
 10
-29.2519716376
 20
32.0272625254
 10
-29.2455552538
 20
32.0292992171
 10
-29.2390205934
 20
32.0314434765
 10
-29.2323664323
 20
32.0336959836
 10
-29.2255802538
 20
32.0360671077
 10
-29.2186624182
 20
32.0385563751
 10
-29.2116125654
 20
32.0411642596
 10
-29.2044170983
 20
32.043902552
 10
-29.1970765205
 20
32.0467707115
 10
-29.1895903285
 20
32.0497692789
 10
-29.1819434151
 20
32.0529116673
 10
-29.1741411623
 20
32.056195019
 10
-29.1661781882
 20
32.0596221918
 10
-29.1580232403
 20
32.0632151722
 10
-29.1496705775
 20
32.066976033
 10
-29.141125941
 20
32.0709027013
 10
-29.1323753019
 20
32.0750109452
 10
-29.1233955377
 20
32.079312998
 10
-29.114209771
 20
32.0837966264
 10
-29.10487334
 20
32.0884408981
 10
-29.0953461495
 20
32.0932704621
 10
-29.0856682948
 20
32.0982606695
 10
-29.0760154004
 20
32.1033166413
 10
-29.0663999112
 20
32.1084367775
 10
-29.0568093822
 20
32.113622678
 10
-29.0473821035
 20
32.1187842635
 10
-29.03814587
 20
32.1239080804
 10
-29.0290728867
 20
32.1290075821
 10
-29.0116082204
 20
32.1389684178
  0
LWPOLYLINE
  5
2BC
100
AcDbEntity
  8
RACCORDO
100
AcDbPolyline
 62
253
  6
CONTINUOUS
 90
12
 70
0
 10
-28.6452642411
 20
32.3191551016
 10
-28.6424838326
 20
32.316724563
 10
-28.6397319904
 20
32.3143462437
 10
-28.6370221853
 20
32.3120347358
 10
-28.6344013093
 20
32.3098229839
 10
-28.6318619048
 20
32.307715241
 10
-28.6294028892
 20
32.3057221533
 10
-28.6270803506
 20
32.3038870721
 10
-28.6248963392
 20
32.3022214891
 10
-28.6228403059
 20
32.3007299077
 10
-28.6209497131
 20
32.2994450724
 10
-28.6191505168
 20
32.2983349731
  0
LWPOLYLINE
  5
2BD
100
AcDbEntity
  8
RACCORDO
100
AcDbPolyline
 62
7
  6
CONTINUOUS
 90
79
 70
0
 10
44.9982005602
 20
-29.9554027692
 10
44.912974451
 20
-29.8770608078
 10
44.8296889519
 20
-29.7962718546
 10
44.7483656351
 20
-29.713058493
 10
44.6690290852
 20
-29.6274477303
 10
44.5916961492
 20
-29.5394600378
 10
44.5163766763
 20
-29.4491083475
 10
44.4430858968
 20
-29.3564107475
 10
44.3718486
 20
-29.26139849
 10
44.3026883735
 20
-29.1641050029
 10
44.2356269759
 20
-29.064563038
 10
44.1706779978
 20
-28.9627950511
 10
44.1078519519
 20
-28.8588200458
 10
44.0471632986
 20
-28.7526622287
 10
43.9886309353
 20
-28.6443549443
 10
43.9322714458
 20
-28.5339315612
 10
43.8781007182
 20
-28.4214247966
 10
43.8261321223
 20
-28.3068640657
 10
43.7763774572
 20
-28.1902788761
 10
43.7288502179
 20
-28.0717022587
 10
43.6835629038
 20
-27.9511667116
 10
43.6405252128
 20
-27.8287015631
 10
43.5997475989
 20
-27.7043369508
 10
43.5612425737
 20
-27.5781112667
 10
43.5250218068
 20
-27.4500672684
 10
43.4910963096
 20
-27.3202471913
 10
43.4594732773
 20
-27.1886816656
 10
43.4301578414
 20
-27.0553967752
 10
43.4031566814
 20
-26.9204221457
 10
43.3784791158
 20
-26.7838029201
 10
43.3561332414
 20
-26.6455892578
 10
43.3361257287
 20
-26.5058275032
 10
43.3184605787
 20
-26.3645502834
 10
43.3031407995
 20
-26.2217880187
 10
43.2901701812
 20
-26.0775754467
 10
43.279553112
 20
-25.9319586106
 10
43.2712926739
 20
-25.7849854533
 10
43.2653910218
 20
-25.6367005128
 10
43.2618495456
 20
-25.4871431396
 10
43.2606689898
 20
-25.3363542581
 10
43.2618495791
 20
-25.1843766979
 10
43.2653910817
 20
-25.0312536592
 10
43.271292753
 20
-24.8770270871
 10
43.2795532053
 20
-24.7217377646
 10
43.290170283
 20
-24.5654328895
 10
43.303140907
 20
-24.4081646363
 10
43.3184606952
 20
-24.2499838069
 10
43.3361258555
 20
-24.0909298224
 10
43.356133367
 20
-23.9310381729
 10
43.3784792135
 20
-23.7703462102
 10
43.4031567318
 20
-23.6089078802
 10
43.4301578473
 20
-23.4467839792
 10
43.4594732552
 20
-23.2840299842
 10
43.49109627
 20
-23.1206836581
 10
43.5250217581
 20
-22.9567795708
 10
43.561242532
 20
-22.7923567596
 10
43.5997475771
 20
-22.6274700763
 10
43.6405252012
 20
-22.4621780204
 10
43.6835628743
 20
-22.296533235
 10
43.7288501556
 20
-22.1305781278
 10
43.7763773721
 20
-21.9643560863
 10
43.8261320424
 20
-21.7979139362
 10
43.8781006583
 20
-21.6313003976
 10
43.9322713979
 20
-21.4645617802
 10
43.9886308767
 20
-21.2977431257
 10
44.0471632183
 20
-21.1308953113
 10
44.1078518555
 20
-20.9640734714
 10
44.1706778994
 20
-20.7973323512
 10
44.2356268828
 20
-20.6307132773
 10
44.302688288
 20
-20.4642512719
 10
44.3718485252
 20
-20.2979851404
 10
44.4430858353
 20
-20.1319721055
 10
44.516376622
 20
-19.966274746
 10
44.5916960865
 20
-19.8009522312
 10
44.6690290066
 20
-19.6360409454
 10
44.7483655519
 20
-19.4715692338
 10
44.8296888829
 20
-19.3075783687
 10
44.9129744095
 20
-19.1441224007
 10
44.9982005602
 20
-18.9812488247
  0
LWPOLYLINE
  5
2BE
100
AcDbEntity
  8
0
100
AcDbPolyline
 62
253
  6
CONTINUOUS
 90
67
 70
0
 10
36.6348436978
 20
11.9644831974
 10
36.5550341008
 20
11.9077529808
 10
36.4754320463
 20
11.8492412705
 10
36.3960715047
 20
11.7889730365
 10
36.3169863432
 20
11.7269739984
 10
36.2382103117
 20
11.6632706145
 10
36.159777028
 20
11.5978900703
 10
36.0817199636
 20
11.5308602672
 10
36.0040724297
 20
11.4622098103
 10
35.9268675626
 20
11.3919679963
 10
35.8501383095
 20
11.3201648011
 10
35.7739174148
 20
11.2468308669
 10
35.6982374061
 20
11.1719974891
 10
35.62313058
 20
11.0956966031
 10
35.5486289885
 20
11.0179607704
 10
35.4747644252
 20
10.938823165
 10
35.4015684122
 20
10.858317559
 10
35.3290721859
 20
10.7764783085
 10
35.2573066843
 20
10.6933403385
 10
35.1863025336
 20
10.6089391284
 10
35.1160900349
 20
10.5233106966
 10
35.0466991515
 20
10.4364915851
 10
34.9781594962
 20
10.3485188444
 10
34.9105003185
 20
10.2594300169
 10
34.8437504921
 20
10.1692631216
 10
34.7779385026
 20
10.0780566374
 10
34.7130924355
 20
9.9858494868
 10
34.6492399639
 20
9.8926810195
 10
34.5864083371
 20
9.7985909954
 10
34.5246243686
 20
9.7036195677
 10
34.463914425
 20
9.6078072655
 10
34.4043044142
 20
9.5111949771
 10
34.345819775
 20
9.413823932
 10
34.2884854659
 20
9.3157356835
 10
34.2323259545
 20
9.2169720909
 10
34.1773652068
 20
9.117575302
 10
34.1236266777
 20
9.0175877345
 10
34.0711333001
 20
8.9170520584
 10
34.0199074757
 20
8.8160111775
 10
33.9699710652
 20
8.7145082112
 10
33.9213453792
 20
8.6125864762
 10
33.8740511687
 20
8.5102894679
 10
33.8281086167
 20
8.4076608417
 10
33.7835373293
 20
8.3047443947
 10
33.7403563274
 20
8.2015840467
 10
33.6985840385
 20
8.0982238216
 10
33.6582382891
 20
7.9947078287
 10
33.6193362969
 20
7.8910802436
 10
33.5818946634
 20
7.7873852897
 10
33.5459293669
 20
7.6836672191
 10
33.5114557556
 20
7.5799702937
 10
33.4784885413
 20
7.4763387663
 10
33.4470417927
 20
7.3728168622
 10
33.41712893
 20
7.2694487593
 10
33.3887627184
 20
7.1662785704
 10
33.3619552633
 20
7.0633503236
 10
33.3367180048
 20
6.9607079437
 10
33.3130617131
 20
6.8583952336
 10
33.2909964835
 20
6.7564558556
 10
33.2705317323
 20
6.6549333125
 10
33.2516761931
 20
6.5538709293
 10
33.2344379123
 20
6.4533118346
 10
33.2188242465
 20
6.3532989423
 10
33.2048418589
 20
6.2538749331
 10
33.1924967165
 20
6.1550822364
 10
33.1817940876
 20
6.0569630123
 10
33.1727385396
 20
5.9595591333
  0
LINE
  5
2BF
100
AcDbEntity
  8
0
100
AcDbLine
 62
253
  6
CONTINUOUS
 10
38.2345837698
 20
13.0822975322
 11
36.6348436978
 21
11.9644831974
  0
LWPOLYLINE
  5
2C0
100
AcDbEntity
  8
0
100
AcDbPolyline
 62
253
  6
CONTINUOUS
 90
70
 70
0
 10
41.9294374029
 20
3.1178939051
 10
41.8380877442
 20
3.0848263329
 10
41.7452493619
 20
3.0526408206
 10
41.650963573
 20
3.0213516921
 10
41.5552723386
 20
2.9909728722
 10
41.4582182453
 20
2.961517881
 10
41.3598444861
 20
2.9329998269
 10
41.2601948416
 20
2.9054314019
 10
41.1593136598
 20
2.8788248749
 10
41.0572458372
 20
2.8531920869
 10
40.9540367982
 20
2.8285444458
 10
40.8497324751
 20
2.8048929205
 10
40.7443792877
 20
2.7822480372
 10
40.6380241225
 20
2.7606198736
 10
40.5307143121
 20
2.7400180553
 10
40.4224976136
 20
2.7204517509
 10
40.3134221882
 20
2.7019296681
 10
40.2035365788
 20
2.6844600502
 10
40.0928896891
 20
2.6680506718
 10
39.9815307617
 20
2.6527088358
 10
39.8695093559
 20
2.6384413699
 10
39.7568753258
 20
2.6252546237
 10
39.6436787983
 20
2.613154466
 10
39.5299701506
 20
2.6021462817
 10
39.4157999878
 20
2.59223497
 10
39.3012191202
 20
2.5834249418
 10
39.1862785413
 20
2.5757201179
 10
39.0710294043
 20
2.5691239274
 10
38.9555229999
 20
2.5636393058
 10
38.8398107332
 20
2.5592686939
 10
38.723944101
 20
2.5560140369
 10
38.6079746689
 20
2.5538767833
 10
38.491954048
 20
2.5528578841
 10
38.3759338723
 20
2.552957793
 10
38.2599657756
 20
2.5541764653
 10
38.1441013686
 20
2.5565133587
 10
38.0283922158
 20
2.5599674333
 10
37.9128898125
 20
2.5645371518
 10
37.7976455621
 20
2.5702204805
 10
37.6827107531
 20
2.5770148901
 10
37.5681365364
 20
2.5849173567
 10
37.4539739021
 20
2.5939243635
 10
37.3402736574
 20
2.604031902
 10
37.2270864036
 20
2.6152354739
 10
37.1144625139
 20
2.6275300931
 10
37.0024521105
 20
2.640910288
 10
36.8911050426
 20
2.6553701039
 10
36.7804708645
 20
2.6709031056
 10
36.6705988128
 20
2.6875023802
 10
36.5615377853
 20
2.7051605403
 10
36.4533363186
 20
2.7238697274
 10
36.3460425669
 20
2.743621615
 10
36.2397042804
 20
2.7644074128
 10
36.134368784
 20
2.7862178702
 10
36.0300829564
 20
2.8090432807
 10
35.9268932092
 20
2.8328734859
 10
35.8248454661
 20
2.8576978805
 10
35.7239851426
 20
2.8835054166
 10
35.6243571257
 20
2.9102846088
 10
35.526005754
 20
2.9380235391
 10
35.428974798
 20
2.9667098626
 10
35.3333074406
 20
2.9963308127
 10
35.2390462576
 20
3.0268732069
 10
35.1462331992
 20
3.0583234524
 10
35.0549095711
 20
3.0906675528
 10
34.9651160162
 20
3.1238911133
 10
34.8768924962
 20
3.1579793483
 10
34.7902782743
 20
3.192917087
 10
34.7053118975
 20
3.2286887807
 10
34.6220311793
 20
3.2652785094
  0
LWPOLYLINE
  5
2C1
100
AcDbEntity
  8
RACCORDO
100
AcDbPolyline
 62
253
  6
CONTINUOUS
 90
23
 70
0
 10
-28.7191724567
 20
7.7079560923
 10
-28.7474371509
 20
7.7016817703
 10
-28.7755297711
 20
7.6962855097
 10
-28.8034082995
 20
7.6917747888
 10
-28.8310541303
 20
7.6881537901
 10
-28.8584512504
 20
7.6854258445
 10
-28.8855626026
 20
7.6835926509
 10
-28.9123650931
 20
7.6826549402
 10
-28.9388492952
 20
7.6826122228
 10
-28.964999322
 20
7.6834621719
 10
-28.9907968934
 20
7.6852037677
 10
-29.0162288805
 20
7.6878356642
 10
-29.0412869448
 20
7.691355629
 10
-29.0659586302
 20
7.6957627976
 10
-29.0902254075
 20
7.7010547284
 10
-29.1140697213
 20
7.7072271274
 10
-29.1374784213
 20
7.7142773562
 10
-29.1604351127
 20
7.7222012419
 10
-29.1829179924
 20
7.7309908421
 10
-29.2049118864
 20
7.7406400208
 10
-29.2264047737
 20
7.7511432686
 10
-29.2473803319
 20
7.7624921278
 10
-29.2506747583
 20
7.7643785581
  0
LWPOLYLINE
  5
2C2
100
AcDbEntity
  8
RACCORDO
100
AcDbPolyline
 62
7
  6
CONTINUOUS
 90
3
 70
0
 10
-28.6333500678
 20
32.3062123825
 10
-28.6272209164
 20
32.302889552
 10
-28.6213491726
 20
32.2995965028
  0
LINE
  5
2C3
100
AcDbEntity
  8
RACCORDO
100
AcDbLine
 62
7
  6
CONTINUOUS
 10
-28.6213491726
 20
32.2995965028
 11
23.1254902083
 21
2.4216279311
  0
LINE
  5
2C4
100
AcDbEntity
  8
RACCORDO
100
AcDbLine
 62
253
  6
CONTINUOUS
 10
-28.6509753185
 20
32.3241765622
 11
23.1258967026
 21
2.4288595739
  0
LWPOLYLINE
  5
2C5
100
AcDbEntity
  8
RACCORDO
100
AcDbPolyline
 62
253
  6
CONTINUOUS
 90
22
 70
0
 10
23.2516784895
 20
-40.5365605109
 10
23.2491026313
 20
-40.5267665043
 10
23.2457841656
 20
-40.5170655934
 10
23.2417266528
 20
-40.5074681863
 10
23.2369344461
 20
-40.4979845796
 10
23.2314126869
 20
-40.4886249483
 10
23.2251672994
 20
-40.4793993339
 10
23.2182049841
 20
-40.4703176346
 10
23.2105332108
 20
-40.4613895937
 10
23.2021602104
 20
-40.4526247902
 10
23.193094966
 20
-40.4440326274
 10
23.1833472036
 20
-40.4356223238
 10
23.1729273812
 20
-40.4274029027
 10
23.1618466783
 20
-40.4193831823
 10
23.1501169828
 20
-40.411571767
 10
23.1377508795
 20
-40.4039770373
 10
23.1247616356
 20
-40.3966071417
 10
23.111163187
 20
-40.3894699869
 10
23.0969701232
 20
-40.3825732304
 10
23.0821976716
 20
-40.3759242715
 10
23.0668616813
 20
-40.3695302438
 10
23.0509786059
 20
-40.3633980072
  0
LWPOLYLINE
  5
2C6
100
AcDbEntity
  8
RACCORDO
100
AcDbPolyline
 62
253
  6
CONTINUOUS
 90
13
 70
0
 10
23.7500384234
 20
-44.4686610318
 10
23.6668178251
 20
-44.1263477653
 10
23.5879548145
 20
-43.7829682352
 10
23.513416258
 20
-43.4386001352
 10
23.4429461385
 20
-43.092809209
 10
23.3767415148
 20
-42.7461773244
 10
23.3154075703
 20
-42.4003301488
 10
23.2588950328
 20
-42.0554097618
 10
23.2071016275
 20
-41.7114689376
 10
23.1604756805
 20
-41.3700419766
 10
23.1190762014
 20
-41.0317224331
 10
23.082613812
 20
-40.6961398269
 10
23.0509786071
 20
-40.3633980066
  0
LWPOLYLINE
  5
2C7
100
AcDbEntity
  8
RACCORDO
100
AcDbPolyline
 62
253
  6
CONTINUOUS
 90
22
 70
0
 10
23.0509786071
 20
-40.3633980066
 10
23.0408807168
 20
-40.2571486221
 10
23.0310234284
 20
-40.146519096
 10
23.0215210676
 20
-40.0314760652
 10
23.0122987732
 20
-39.9111345489
 10
23.0036875245
 20
-39.7863134184
 10
22.9963305522
 20
-39.6595756192
 10
22.9902477627
 20
-39.530882156
 10
22.9854980528
 20
-39.4003011928
 10
22.982608184
 20
-39.2706281345
 10
22.9815753727
 20
-39.1423917827
 10
22.9822884769
 20
-39.0151622504
 10
22.9849816629
 20
-38.8903395365
 10
22.9896136663
 20
-38.7682500745
 10
22.9960442911
 20
-38.6486709174
 10
23.0043077618
 20
-38.5321882972
 10
23.01432958
 20
-38.4190586037
 10
23.0259903739
 20
-38.3091118345
 10
23.039250277
 20
-38.2022916247
 10
23.0540275468
 20
-38.0987300491
 10
23.0702357449
 20
-37.9983578425
 10
23.0842579775
 20
-37.920682802
  0
LINE
  5
2C8
100
AcDbEntity
  8
0
100
AcDbLine
 62
253
  6
CONTINUOUS
 10
43.855196986
 20
4.0434422961
 11
41.9294374032
 21
3.1178939049
  0
LWPOLYLINE
  5
2C9
100
AcDbEntity
  8
RACCORDO
100
AcDbPolyline
 62
7
  6
CONTINUOUS
 90
6
 70
0
 10
-28.6671879376
 20
32.322603107
 10
-28.6600417849
 20
32.3194047865
 10
-28.6530671797
 20
32.3161506745
 10
-28.6462854628
 20
32.3128578659
 10
-28.6397104918
 20
32.309540998
 10
-28.6333500678
 20
32.3062123825
  0
LINE
  5
2CA
100
AcDbEntity
  8
RACCORDO
100
AcDbLine
 62
253
  6
CONTINUOUS
 10
-30.0045476639
 20
34.867154232
 11
23.0089384327
 21
4.2578317748
  0
LINE
  5
2CB
100
AcDbEntity
  8
RACCORDO
100
AcDbLine
 62
253
  6
CONTINUOUS
 10
-30.9223875833
 20
39.7048256452
 11
23.7500384538
 21
8.1376520578
  0
LWPOLYLINE
  5
2CC
100
AcDbEntity
  8
RACCORDO
100
AcDbPolyline
 62
253
  6
CONTINUOUS
 90
13
 70
0
 10
23.7500387626
 20
-44.468662389
 10
23.6939191093
 20
-44.1368055225
 10
23.6402572111
 20
-43.8047830528
 10
23.5890768662
 20
-43.4726360238
 10
23.5403289326
 20
-43.1399504768
 10
23.4941418778
 20
-42.8072407332
 10
23.4507686014
 20
-42.4759539982
 10
23.4102232602
 20
-42.1462081521
 10
23.3725159878
 20
-41.8180338618
 10
23.3378128039
 20
-41.4927732573
 10
23.3061380402
 20
-41.170929738
 10
23.2774293416
 20
-40.8521647169
 10
23.2516784524
 20
-40.536560515
  0
LWPOLYLINE
  5
2CD
100
AcDbEntity
  8
RACCORDO
100
AcDbPolyline
 62
253
  6
CONTINUOUS
 90
46
 70
0
 10
23.7500386654
 20
-44.4686611715
 10
23.6635560809
 20
-43.3581674489
 10
23.5809944906
 20
-42.2447383651
 10
23.5023553521
 20
-41.128392654
 10
23.427640119
 20
-40.0091491456
 10
23.3568500438
 20
-38.8870266178
 10
23.2899861783
 20
-37.7620437955
 10
23.2270496918
 20
-36.6342195909
 10
23.1680417049
 20
-35.5035729753
 10
23.1129630931
 20
-34.3701228308
 10
23.0618148171
 20
-33.2338882156
 10
23.0145977895
 20
-32.094888225
 10
22.9713127094
 20
-30.9531418628
 10
22.9319603296
 20
-29.8086683196
 10
22.8965413543
 20
-28.6614868223
 10
22.865056307
 20
-27.5116164936
 10
22.8375057322
 20
-26.3590766439
 10
22.8138901264
 20
-25.2038866379
 10
22.7942098389
 20
-24.0460657426
 10
22.7784652061
 20
-22.8856333882
 10
22.7666565166
 20
-21.7226090715
 10
22.7587839452
 20
-20.5570122211
 10
22.7548476203
 20
-19.3888623932
 10
22.754847622
 20
-18.2181792048
 10
22.7587839503
 20
-17.044982236
 10
22.7666565251
 20
-15.8692911711
 10
22.778465218
 20
-14.6911257396
 10
22.7942098542
 20
-13.5105056476
 10
22.8138901451
 20
-12.3274507002
 10
22.8375057543
 20
-11.1419807409
 10
22.8650563325
 20
-9.9541155907
 10
22.8965413832
 20
-8.7638751628
 10
22.9319603619
 20
-7.5712794212
 10
22.9713127451
 20
-6.376348319
 10
23.0145978285
 20
-5.1791018712
 10
23.0618148596
 20
-3.9795601625
 10
23.1129631389
 20
-2.7777433053
 10
23.1680417541
 20
-1.5736714227
 10
23.2270497443
 20
-0.3673647083
 10
23.2899862343
 20
0.841156567
 10
23.3568501053
 20
2.0518722003
 10
23.4276401863
 20
3.2647618666
 10
23.5023554182
 20
4.4798050594
 10
23.5809945447
 20
5.696981365
 10
23.6635561132
 20
6.916270463
 10
23.7500386651
 20
8.1376519359
  0
LINE
  5
2CE
100
AcDbEntity
  8
RACCORDO
100
AcDbLine
 62
253
  6
CONTINUOUS
 10
23.2516784895
 20
-40.5365605109
 11
23.2355473586
 21
-40.320312039
  0
LINE
  5
2CF
100
AcDbEntity
  8
RACCORDO
100
AcDbLine
 62
253
  6
CONTINUOUS
 10
23.2355473586
 20
-40.320312039
 11
23.2260421622
 21
-40.1827579149
  0
LWPOLYLINE
  5
2D0
100
AcDbEntity
  8
RACCORDO
100
AcDbPolyline
 62
253
  6
CONTINUOUS
 90
19
 70
0
 10
23.0089384327
 20
4.2578317748
 10
23.0154541979
 20
4.4437139707
 10
23.0258472362
 20
4.6333461513
 10
23.0402288172
 20
4.8267772126
 10
23.0587764861
 20
5.024110744
 10
23.0815424977
 20
5.2253368894
 10
23.1084427987
 20
5.4303247829
 10
23.1396327125
 20
5.6392503787
 10
23.1751774677
 20
5.8520063714
 10
23.2148216607
 20
6.068009098
 10
23.2586616346
 20
6.2872131991
 10
23.3067651546
 20
6.5096802358
 10
23.3587822418
 20
6.7349516419
 10
23.4148045249
 20
6.9630765973
 10
23.474859753
 20
7.193982998
 10
23.5384450896
 20
7.4269956426
 10
23.6053951136
 20
7.6618588808
 10
23.6759181337
 20
7.8987562696
 10
23.7500384538
 20
8.1376520578
  0
LWPOLYLINE
  5
2D1
100
AcDbEntity
  8
RACCORDO
100
AcDbPolyline
 62
7
  6
CONTINUOUS
 90
34
 70
0
 10
23.2341900925
 20
4.2642021508
 10
23.1496877758
 20
2.8521092157
 10
23.071096823
 20
1.453954861
 10
22.9977365608
 20
0.0586989524
 10
22.9296087799
 20
-1.3336269828
 10
22.8667152138
 20
-2.7229916072
 10
22.8090573183
 20
-4.1093643726
 10
22.7566364986
 20
-5.4927142333
 10
22.7094541154
 20
-6.8730104872
 10
22.6675112819
 20
-8.2502232873
 10
22.630809054
 20
-9.6243219023
 10
22.5993484692
 20
-10.9952755281
 10
22.5731303303
 20
-12.3630543755
 10
22.5521553401
 20
-13.7276279188
 10
22.5364241889
 20
-15.0889656266
 10
22.5259373645
 20
-16.4470378975
 10
22.5206952201
 20
-17.801814496
 10
22.5206981003
 20
-19.1532650246
 10
22.5259461783
 20
-20.5013598375
 10
22.5364394561
 20
-21.8460689199
 10
22.5521779258
 20
-23.1873621081
 10
22.5731614372
 20
-24.5252097439
 10
22.5993896407
 20
-25.8595819763
 10
22.6308621735
 20
-27.1904489596
 10
22.66757856
 20
-28.5177812519
 10
22.709538098
 20
-29.8415491718
 10
22.7567400671
 20
-31.1617231372
 10
22.8091836715
 20
-32.478274077
 10
22.8668678792
 20
-33.7911727775
 10
22.9297916181
 20
-35.1003898524
 10
22.9979537505
 20
-36.4058961628
 10
23.0713528768
 20
-37.7076624784
 10
23.1499875318
 20
-39.0056592947
 10
23.2260421622
 20
-40.1827579149
  0
LWPOLYLINE
  5
2D2
100
AcDbEntity
  8
RACCORDO
100
AcDbPolyline
 62
253
  6
CONTINUOUS
 90
17
 70
0
 10
23.234188193
 20
4.2641861882
 10
23.2468750063
 20
4.4564526523
 10
23.2635481065
 20
4.678571271
 10
23.2826813502
 20
4.9048465158
 10
23.3042816876
 20
5.1350264803
 10
23.3283967306
 20
5.3693232446
 10
23.3550443308
 20
5.6075879058
 10
23.384136206
 20
5.8490188704
 10
23.4156723648
 20
6.0936017592
 10
23.4496680561
 20
6.3414040145
 10
23.4859981031
 20
6.5917329612
 10
23.5246634393
 20
6.8446920455
 10
23.565644157
 20
7.1002197359
 10
23.6087251291
 20
7.3573584149
 10
23.6537996007
 20
7.6157943478
 10
23.7009106694
 20
7.875881124
 10
23.7500387397
 20
8.1376529609
  0
LWPOLYLINE
  5
2D3
100
AcDbEntity
  8
RACCORDO
100
AcDbPolyline
 62
7
  6
CONTINUOUS
 90
6
 70
0
 10
-28.7055021612
 20
32.3375157856
 10
-28.6974989011
 20
32.3347033254
 10
-28.6896724842
 20
32.3318007786
 10
-28.6820043644
 20
32.3288088081
 10
-28.6745042769
 20
32.3257382608
 10
-28.6671879376
 20
32.322603107
  0
LINE
  5
2D4
100
AcDbEntity
  8
0
100
AcDbLine
 62
253
  6
CONTINUOUS
 10
-39.842091613
 20
48.1174069727
 11
33.1727385396
 21
5.9595591333
  0
LWPOLYLINE
  5
2D5
100
AcDbEntity
  8
0
100
AcDbPolyline
 62
253
  6
CONTINUOUS
 90
79
 70
0
 10
33.1727385396
 20
5.9595591333
 10
33.2029690267
 20
5.9417343123
 10
33.2331081037
 20
5.9232253996
 10
33.2631557769
 20
5.904032398
 10
33.2931229061
 20
5.8841478428
 10
33.3229986559
 20
5.8635792101
 10
33.3527504956
 20
5.8423489162
 10
33.3823781757
 20
5.8204563163
 10
33.4118819944
 20
5.7979020777
 10
33.441230248
 20
5.7747105869
 10
33.4704227718
 20
5.7508811762
 10
33.4994598029
 20
5.7264145465
 10
33.5283102449
 20
5.7013371405
 10
33.5569739122
 20
5.6756483338
 10
33.5854510852
 20
5.6493487942
 10
33.6137113713
 20
5.6224669041
 10
33.6417545905
 20
5.5950020527
 10
33.669581039
 20
5.5669549041
 10
33.6971610411
 20
5.5383557548
 10
33.7244943929
 20
5.5092040318
 10
33.7515814344
 20
5.4795003705
 10
33.778393308
 20
5.4492768808
 10
33.804929782
 20
5.4185330348
 10
33.8311912423
 20
5.3872694312
 10
33.8571497589
 20
5.3555198714
 10
33.8828050709
 20
5.3232838787
 10
33.9081576094
 20
5.2905620079
 10
33.9331804835
 20
5.2573896079
 10
33.9578734171
 20
5.2237662363
 10
33.9822368702
 20
5.1896924202
 10
34.0062450545
 20
5.1552049609
 10
34.0298976669
 20
5.1203034677
 10
34.0531952058
 20
5.0849884214
 10
34.0761130825
 20
5.0492979295
 10
34.0986509762
 20
5.01323164
 10
34.120809412
 20
4.9767899991
 10
34.1425650653
 20
4.9400123093
 10
34.1639175877
 20
4.9028982749
 10
34.1848675381
 20
4.8654482889
 10
34.205392947
 20
4.8277026841
 10
34.2254934497
 20
4.7896612023
 10
34.245169625
 20
4.7513242007
 10
34.2644009103
 20
4.7127329317
 10
34.2831869144
 20
4.6738871952
 10
34.3015282433
 20
4.6347872906
 10
34.3194058207
 20
4.5954752162
 10
34.3368192399
 20
4.5559508074
 10
34.3537691203
 20
4.5162143273
 10
34.3702379128
 20
4.4763084095
 10
34.3862251859
 20
4.436232948
 10
34.401731579
 20
4.3959881453
 10
34.4167411364
 20
4.3556170927
 10
34.4312534107
 20
4.3151197212
 10
34.4452690497
 20
4.2744961931
 10
34.4587737252
 20
4.2337899395
 10
34.4717669669
 20
4.193000952
 10
34.4842494356
 20
4.1521293278
 10
34.4962084842
 20
4.1112186485
 10
34.50764363
 20
4.0702689332
 10
34.5185555337
 20
4.0292802459
 10
34.528933246
 20
3.9882962276
 10
34.538776264
 20
3.9473169507
 10
34.5480852539
 20
3.9063424193
 10
34.5568510014
 20
3.8654161637
 10
34.5650729866
 20
3.8245383046
 10
34.5727518759
 20
3.7837087901
 10
34.579880214
 20
3.7429708822
 10
34.5864574664
 20
3.7023247564
 10
34.5924842954
 20
3.6617702973
 10
34.5979550202
 20
3.6213503212
 10
34.6028690973
 20
3.5810649986
 10
34.607227178
 20
3.54091421
 10
34.6110253521
 20
3.500940326
 10
34.61426306
 20
3.4611433797
 10
34.6169409477
 20
3.4215233792
 10
34.6190568898
 20
3.382122647
 10
34.6206101938
 20
3.3429552984
 10
34.621601613
 20
3.3040072474
 10
34.622031179
 20
3.2652785093
  0
LWPOLYLINE
  5
2D6
100
AcDbEntity
  8
RACCORDO
100
AcDbPolyline
 62
253
  6
CONTINUOUS
 90
17
 70
0
 10
23.1620445006
 20
3.0585987468
 10
23.1575211543
 20
3.0702779655
 10
23.1357933672
 20
3.1318733439
 10
23.1154451994
 20
3.195723505
 10
23.09654077
 20
3.2620601418
 10
23.0791969887
 20
3.33102911
 10
23.0635128718
 20
3.4026547738
 10
23.0495353521
 20
3.4769906764
 10
23.0374094179
 20
3.5542448983
 10
23.0272240816
 20
3.6343719527
 10
23.0189129285
 20
3.7170121868
 10
23.0126159865
 20
3.802379126
 10
23.0083837764
 20
3.8903584367
 10
23.0059197914
 20
3.980011722
 10
23.0051124397
 20
4.0709914547
 10
23.0061101635
 20
4.1636035398
 10
23.0089384327
 20
4.2578317748
  0
LWPOLYLINE
  5
2D7
100
AcDbEntity
  8
RACCORDO
100
AcDbPolyline
 62
253
  6
CONTINUOUS
 90
21
 70
0
 10
23.2149173043
 20
3.9421403532
 10
23.2124736741
 20
3.9576219706
 10
23.2088235959
 20
3.9753364768
 10
23.2043357676
 20
3.9929545556
 10
23.199015637
 20
4.0104548202
 10
23.1928696622
 20
4.0278160267
 10
23.185905304
 20
4.0450171003
 10
23.1781310165
 20
4.0620371602
 10
23.1695562369
 20
4.0788555457
 10
23.1601913743
 20
4.0954518406
 10
23.1500477969
 20
4.1118058985
 10
23.139137818
 20
4.1278978671
 10
23.1274746814
 20
4.143708212
 10
23.1150725452
 20
4.1592177409
 10
23.1019464644
 20
4.1744076266
 10
23.0881123729
 20
4.1892594299
 10
23.0735870642
 20
4.203755122
 10
23.0583881708
 20
4.2178771063
 10
23.0425341426
 20
4.2316082401
 10
23.0260442252
 20
4.244931855
 10
23.0089384358
 20
4.2578317771
  0
LINE
  5
2D8
100
AcDbEntity
  8
0
100
AcDbLine
 62
253
  6
CONTINUOUS
 10
-36.3799864548
 20
54.1223310368
 11
36.6348436978
 21
11.9644831974
  0
LWPOLYLINE
  5
2D9
100
AcDbEntity
  8
0
100
AcDbPolyline
 62
253
  6
CONTINUOUS
 90
79
 70
0
 10
36.6348436978
 20
11.9644831974
 10
36.7372260043
 20
11.9042280003
 10
36.8395145213
 20
11.8417459065
 10
36.9416732575
 20
11.7770588176
 10
37.0436659294
 20
11.7101894652
 10
37.1454569222
 20
11.6411612283
 10
37.2470113021
 20
11.5699980812
 10
37.3482933103
 20
11.4967247447
 10
37.4492671357
 20
11.4213670066
 10
37.549897877
 20
11.3439514929
 10
37.6501498289
 20
11.2645052761
 10
37.7499876877
 20
11.1830561102
 10
37.8493773234
 20
11.0996326666
 10
37.9482833967
 20
11.0142640812
 10
38.0466710181
 20
10.9269801521
 10
38.1445069518
 20
10.8378114974
 10
38.2417564449
 20
10.7467891354
 10
38.338385013
 20
10.6539448779
 10
38.4343600945
 20
10.5593114298
 10
38.5296475213
 20
10.462921682
 10
38.6242134327
 20
10.3648092894
 10
38.7180260545
 20
10.26500896
 10
38.8110519022
 20
10.1635553773
 10
38.9032578547
 20
10.0604839214
 10
38.9946130647
 20
9.9558311551
 10
39.0850848262
 20
9.8496334598
 10
39.1746408727
 20
9.741927821
 10
39.2632514484
 20
9.6327524614
 10
39.3508847783
 20
9.5221452857
 10
39.4375094983
 20
9.4101448257
 10
39.5230969511
 20
9.2967909412
 10
39.6076163506
 20
9.1821229978
 10
39.6910373784
 20
9.0661809032
 10
39.7733326123
 20
8.9490059684
 10
39.8544723836
 20
8.8306388523
 10
39.9344274816
 20
8.7111207573
 10
40.0131717526
 20
8.5904943869
 10
40.0906767036
 20
8.4688016234
 10
40.1669143636
 20
8.3460847822
 10
40.2418599902
 20
8.222387731
 10
40.3154863956
 20
8.0977533788
 10
40.3877668942
 20
7.9722250841
 10
40.4586781701
 20
7.845847837
 10
40.5281943891
 20
7.7186655082
 10
40.5962902784
 20
7.5907222973
 10
40.6629440811
 20
7.462064068
 10
40.7281314365
 20
7.3327354409
 10
40.791828523
 20
7.2027813889
 10
40.8540151499
 20
7.0722486153
 10
40.9146684732
 20
6.9411824247
 10
40.9737662392
 20
6.8096283496
 10
41.0312899392
 20
6.6776336751
 10
41.0872183486
 20
6.5452441784
 10
41.1415308189
 20
6.4125058742
 10
41.194210539
 20
6.2794665719
 10
41.2452379419
 20
6.1461724553
 10
41.2945940861
 20
6.0126697977
 10
41.3422639643
 20
5.8790066362
 10
41.3882297645
 20
5.7452293074
 10
41.4324742694
 20
5.6113843028
 10
41.4749842604
 20
5.4775199124
 10
41.5157437161
 20
5.3436825685
 10
41.5547372295
 20
5.2099187437
 10
41.5919534323
 20
5.0762767348
 10
41.6273781337
 20
4.9428029007
 10
41.6609977991
 20
4.8095435675
 10
41.6928029976
 20
4.6765468544
 10
41.7227814592
 20
4.5438589486
 10
41.7509215189
 20
4.4115258317
 10
41.7772156192
 20
4.2795951131
 10
41.801653348
 20
4.1481124076
 10
41.8242250313
 20
4.0171234655
 10
41.8449252088
 20
3.8866758225
 10
41.8637455901
 20
3.7568148494
 10
41.8806783281
 20
3.6275854322
 10
41.8957196336
 20
3.4990340304
 10
41.9088641882
 20
3.3712057509
 10
41.9201051407
 20
3.2441443581
 10
41.9294374032
 20
3.1178939049
  0
LWPOLYLINE
  5
2DA
100
AcDbEntity
  8
0
100
AcDbPolyline
 62
7
  6
CONTINUOUS
 90
47
 70
0
 10
-34.7802463828
 20
55.2401453716
 10
-34.8860007299
 20
55.3000635901
 10
-34.9916490279
 20
55.3576435005
 10
-35.0971912766
 20
55.4128851026
 10
-35.2026687844
 20
55.4658080815
 10
-35.3080402431
 20
55.5163927522
 10
-35.4131817271
 20
55.5645800597
 10
-35.5180814556
 20
55.6103626584
 10
-35.6227512096
 20
55.6537478939
 10
-35.7271024063
 20
55.6946987473
 10
-35.8311505304
 20
55.7332184489
 10
-35.9348800973
 20
55.7693037683
 10
-36.0381560704
 20
55.8029079956
 10
-36.1409590841
 20
55.8340227871
 10
-36.2433085039
 20
55.8626564864
 10
-36.3451273903
 20
55.8887874143
 10
-36.4464359494
 20
55.9124179266
 10
-36.547213975
 20
55.9335456675
 10
-36.6473239086
 20
55.9521418896
 10
-36.7467435943
 20
55.9682002566
 10
-36.8454951881
 20
55.9817271049
 10
-36.9435075997
 20
55.9927126967
 10
-37.040801081
 20
56.0011565045
 10
-37.13735538
 20
56.0070590558
 10
-37.2330386509
 20
56.0104121951
 10
-37.3278304501
 20
56.0112127103
 10
-37.4217512212
 20
56.0094638135
 10
-37.5147304496
 20
56.005166986
 10
-37.6067842186
 20
55.9983187401
 10
-37.6978964449
 20
55.9889225634
 10
-37.7879483638
 20
55.9769904008
 10
-37.8769251306
 20
55.962521328
 10
-37.9648415901
 20
55.9455162692
 10
-38.0516235118
 20
55.9259899415
 10
-38.137279371
 20
55.903937774
 10
-38.2218006925
 20
55.8793643375
 10
-38.3050878206
 20
55.8522980614
 10
-38.3871344815
 20
55.8227375394
 10
-38.4679469491
 20
55.7906841777
 10
-38.5474443895
 20
55.7561706236
 10
-38.625625655
 20
55.7191947298
 10
-38.7024918934
 20
55.6797586437
 10
-38.7779657142
 20
55.6379014546
 10
-38.8520497338
 20
55.5936177258
 10
-38.9247413358
 20
55.546912894
 10
-38.995955281
 20
55.497842359
 10
-39.0666287861
 20
55.4456874548
  0
LINE
  5
2DB
100
AcDbEntity
  8
0
100
AcDbLine
 62
7
  6
CONTINUOUS
 10
38.2345837698
 20
13.0822975322
 11
-34.7802463828
 21
55.2401453716
  0
LINE
  5
2DC
100
AcDbEntity
  8
0
100
AcDbLine
 62
253
  6
CONTINUOUS
 10
34.622031179
 20
3.2652785093
 11
34.6312895138
 21
0.7515157891
  0
LINE
  5
2DD
100
AcDbEntity
  8
0
100
AcDbLine
 62
253
  6
CONTINUOUS
 10
34.6312895138
 20
0.7515157891
 11
34.6397259476
 21
-1.7443184575
  0
LINE
  5
2DE
100
AcDbEntity
  8
0
100
AcDbLine
 62
253
  6
CONTINUOUS
 10
34.6397259476
 20
-1.7443184575
 11
34.6473426007
 21
-4.222049199
  0
LINE
  5
2DF
100
AcDbEntity
  8
0
100
AcDbLine
 62
253
  6
CONTINUOUS
 10
34.6473426007
 20
-4.222049199
 11
34.654144556
 21
-6.6813958315
  0
LINE
  5
2E0
100
AcDbEntity
  8
0
100
AcDbLine
 62
253
  6
CONTINUOUS
 10
34.654144556
 20
-6.6813958315
 11
34.6601367307
 21
-9.1224156884
  0
LINE
  5
2E1
100
AcDbEntity
  8
0
100
AcDbLine
 62
253
  6
CONTINUOUS
 10
34.6601367307
 20
-9.1224156884
 11
34.6628296441
 21
-10.3360260739
  0
LINE
  5
2E2
100
AcDbEntity
  8
0
100
AcDbLine
 62
253
  6
CONTINUOUS
 10
34.6628296441
 20
-10.3360260739
 11
34.6676135816
 21
-12.7494106669
  0
LINE
  5
2E3
100
AcDbEntity
  8
0
100
AcDbLine
 62
253
  6
CONTINUOUS
 10
34.6676135816
 20
-12.7494106669
 11
34.6715950772
 21
-15.1442429382
  0
LINE
  5
2E4
100
AcDbEntity
  8
0
100
AcDbLine
 62
253
  6
CONTINUOUS
 10
34.6715950772
 20
-15.1442429382
 11
34.6747775737
 21
-17.5204221953
  0
LINE
  5
2E5
100
AcDbEntity
  8
0
100
AcDbLine
 62
253
  6
CONTINUOUS
 10
34.6747775737
 20
-17.5204221953
 11
34.6771627174
 21
-19.8779296103
  0
LINE
  5
2E6
100
AcDbEntity
  8
0
100
AcDbLine
 62
253
  6
CONTINUOUS
 10
34.6771627174
 20
-19.8779296103
 11
34.6787518574
 21
-22.2166686117
  0
LINE
  5
2E7
100
AcDbEntity
  8
0
100
AcDbLine
 62
253
  6
CONTINUOUS
 10
34.6787518574
 20
-22.2166686117
 11
34.6795463579
 21
-24.5365207
  0
LINE
  5
2E8
100
AcDbEntity
  8
0
100
AcDbLine
 62
253
  6
CONTINUOUS
 10
34.6795463579
 20
-24.5365207
 11
34.6795463592
 21
-26.8374317902
  0
LINE
  5
2E9
100
AcDbEntity
  8
0
100
AcDbLine
 62
253
  6
CONTINUOUS
 10
34.6795463592
 20
-26.8374317902
 11
34.6787518578
 21
-29.1193093548
  0
LINE
  5
2EA
100
AcDbEntity
  8
0
100
AcDbLine
 62
253
  6
CONTINUOUS
 10
34.6787518578
 20
-29.1193093548
 11
34.677162717
 21
-31.3820971227
  0
LINE
  5
2EB
100
AcDbEntity
  8
0
100
AcDbLine
 62
253
  6
CONTINUOUS
 10
34.677162717
 20
-31.3820971227
 11
34.6747775745
 21
-33.6256717699
  0
LINE
  5
2EC
100
AcDbEntity
  8
0
100
AcDbLine
 62
253
  6
CONTINUOUS
 10
34.6747775745
 20
-33.6256717699
 11
34.6715950778
 21
-35.8499313996
  0
LINE
  5
2ED
100
AcDbEntity
  8
0
100
AcDbLine
 62
253
  6
CONTINUOUS
 10
34.6715950778
 20
-35.8499313996
 11
34.6676135829
 21
-38.0548443731
  0
LINE
  5
2EE
100
AcDbEntity
  8
0
100
AcDbLine
 62
253
  6
CONTINUOUS
 10
34.6676135829
 20
-38.0548443731
 11
34.6628296441
 21
-40.2402980267
  0
LINE
  5
2EF
100
AcDbEntity
  8
0
100
AcDbLine
 62
253
  6
CONTINUOUS
 10
34.6628296441
 20
-40.2402980267
 11
34.6572414986
 21
-42.4061751798
  0
LINE
  5
2F0
100
AcDbEntity
  8
0
100
AcDbLine
 62
253
  6
CONTINUOUS
 10
34.6572414986
 20
-42.4061751798
 11
34.6508457074
 21
-44.5523608642
  0
LINE
  5
2F1
100
AcDbEntity
  8
0
100
AcDbLine
 62
253
  6
CONTINUOUS
 10
34.6508457074
 20
-44.5523608642
 11
34.643635818
 21
-46.6788607475
  0
LINE
  5
2F2
100
AcDbEntity
  8
0
100
AcDbLine
 62
253
  6
CONTINUOUS
 10
34.643635818
 20
-46.6788607475
 11
34.6356107852
 21
-48.7855381826
  0
LWPOLYLINE
  5
2F3
100
AcDbEntity
  8
0
100
AcDbPolyline
 62
253
  6
CONTINUOUS
 90
3
 70
0
 10
34.6356107852
 20
-48.7855381826
 10
34.6267629953
 20
-50.8721328416
 10
34.622031179
 20
-51.9078580917
  0
LWPOLYLINE
  5
2F4
100
AcDbEntity
  8
0
100
AcDbPolyline
 62
253
  6
CONTINUOUS
 90
79
 70
0
 10
34.622031179
 20
-51.9078580917
 10
34.6216016046
 20
-51.9392819201
 10
34.6206101775
 20
-51.9702868714
 10
34.6190568658
 20
-52.000872967
 10
34.6169409164
 20
-52.03105105
 10
34.6142630218
 20
-52.060810318
 10
34.6110253068
 20
-52.0901183324
 10
34.6072271253
 20
-52.1189745139
 10
34.602869037
 20
-52.1473795004
 10
34.5979549524
 20
-52.175302695
 10
34.5924842201
 20
-52.2027436255
 10
34.5864573837
 20
-52.2297028376
 10
34.579880124
 20
-52.2561512766
 10
34.5727517785
 20
-52.2820884765
 10
34.5650728818
 20
-52.3075149908
 10
34.5568508891
 20
-52.3324033078
 10
34.5480851342
 20
-52.3567529261
 10
34.5387761369
 20
-52.3805644476
 10
34.5289331115
 20
-52.4038120304
 10
34.5185553918
 20
-52.4264951451
 10
34.5076434807
 20
-52.4486144333
 10
34.4962083276
 20
-52.4701458229
 10
34.4842492716
 20
-52.491088757
 10
34.4717667956
 20
-52.511443915
 10
34.4587735467
 20
-52.531189091
 10
34.4452688639
 20
-52.5503237148
 10
34.4312532177
 20
-52.5688484879
 10
34.4167409362
 20
-52.5867431235
 10
34.4017313717
 20
-52.6040070228
 10
34.3862249715
 20
-52.6206409229
 10
34.3702376913
 20
-52.6366265505
 10
34.3537688918
 20
-52.6519632908
 10
34.3368190045
 20
-52.6666519021
 10
34.3194055784
 20
-52.6806761798
 10
34.3015279942
 20
-52.6940354865
 10
34.2831866584
 20
-52.7067306066
 10
34.2644006476
 20
-52.7187474754
 10
34.2451693557
 20
-52.7300854423
 10
34.2254931739
 20
-52.7407453065
 10
34.205392665
 20
-52.7507151848
 10
34.1848672505
 20
-52.759994408
 10
34.1639172949
 20
-52.7685837936
 10
34.1425647674
 20
-52.7764736941
 10
34.1208091092
 20
-52.7836634285
 10
34.0986506686
 20
-52.7901538239
 10
34.0761127703
 20
-52.7959374988
 10
34.053194889
 20
-52.8010137583
 10
34.0298973457
 20
-52.8053834391
 10
34.006244729
 20
-52.8090414603
 10
33.9822365406
 20
-52.8119871178
 10
33.9578730834
 20
-52.8142212513
 10
33.933180146
 20
-52.8157410984
 10
33.9081572682
 20
-52.8165459459
 10
33.8828047261
 20
-52.8166366348
 10
33.8571494107
 20
-52.8160127341
 10
33.8311908907
 20
-52.8146735239
 10
33.8049294273
 20
-52.8126198425
 10
33.7783929503
 20
-52.8098535968
 10
33.7515810737
 20
-52.8063740618
 10
33.7244940294
 20
-52.8021820697
 10
33.6971606749
 20
-52.7972818618
 10
33.6695806703
 20
-52.7916727129
 10
33.6417542194
 20
-52.7853554428
 10
33.613710998
 20
-52.7783366087
 10
33.58545071
 20
-52.7706154871
 10
33.5569735352
 20
-52.7621928823
 10
33.5283098664
 20
-52.7530776401
 10
33.4994594231
 20
-52.7432690281
 10
33.4704223909
 20
-52.7327678448
 10
33.4412298657
 20
-52.7215852283
 10
33.4118816107
 20
-52.7097204411
 10
33.3823777905
 20
-52.697174271
 10
33.3527501088
 20
-52.6839601414
 10
33.322998253
 20
-52.6700772451
 10
33.293122487
 20
-52.655526423
 10
33.2631553856
 20
-52.6403235668
 10
33.2331077989
 20
-52.6244739795
 10
33.2029688523
 20
-52.6079723752
 10
33.1727385396
 20
-52.5908187581
  0
LWPOLYLINE
  5
2F5
100
AcDbEntity
  8
RACCORDO
100
AcDbPolyline
 62
7
  6
CONTINUOUS
 90
29
 70
0
 10
-28.8747702963
 20
32.3590977575
 10
-28.8745460172
 20
32.3591402478
 10
-28.8738143262
 20
32.3592690557
 10
-28.8725888275
 20
32.3594659236
 10
-28.870872488
 20
32.3597144663
 10
-28.8686743519
 20
32.3599973763
 10
-28.8659938575
 20
32.360298483
 10
-28.8627988115
 20
32.3606038691
 10
-28.8590818497
 20
32.3608952176
 10
-28.8548384189
 20
32.3611528852
 10
-28.8500213591
 20
32.3613577066
 10
-28.8445799582
 20
32.3614862598
 10
-28.8385379076
 20
32.3615105374
 10
-28.8319665308
 20
32.3614046163
 10
-28.8248586877
 20
32.3611435425
 10
-28.8172345836
 20
32.360702635
 10
-28.8092384565
 20
32.360068864
 10
-28.8008943974
 20
32.3592272007
 10
-28.7922290091
 20
32.3581640788
 10
-28.783415162
 20
32.3568899566
 10
-28.774509218
 20
32.3554089615
 10
-28.765526397
 20
32.3537209437
 10
-28.7565856463
 20
32.3518492431
 10
-28.747757936
 20
32.3498149166
 10
-28.7390402762
 20
32.3476248776
 10
-28.7304352171
 20
32.3452867395
 10
-28.7219697946
 20
32.3428150166
 10
-28.7136642651
 20
32.3402238208
 10
-28.7055021612
 20
32.3375157856
  0
LINE
  5
2F6
100
AcDbEntity
  8
0
100
AcDbLine
 62
253
  6
CONTINUOUS
 10
41.9294374032
 20
3.1178939049
 11
41.945557503
 21
0.5976387657
  0
LINE
  5
2F7
100
AcDbEntity
  8
0
100
AcDbLine
 62
253
  6
CONTINUOUS
 10
41.945557503
 20
0.5976387657
 11
41.9602572174
 21
-1.9046483526
  0
LINE
  5
2F8
100
AcDbEntity
  8
0
100
AcDbLine
 62
253
  6
CONTINUOUS
 10
41.9602572174
 20
-1.9046483526
 11
41.9735406488
 21
-4.3887918791
  0
LINE
  5
2F9
100
AcDbEntity
  8
0
100
AcDbLine
 62
253
  6
CONTINUOUS
 10
41.9735406488
 20
-4.3887918791
 11
41.9854121808
 21
-6.8545090259
  0
LINE
  5
2FA
100
AcDbEntity
  8
0
100
AcDbLine
 62
253
  6
CONTINUOUS
 10
41.9854121808
 20
-6.8545090259
 11
41.9958769405
 21
-9.3018561305
  0
LWPOLYLINE
  5
2FB
100
AcDbEntity
  8
0
100
AcDbPolyline
 62
253
  6
CONTINUOUS
 90
38
 70
0
 10
41.9958769405
 20
-9.3018561305
 10
42.0049387926
 20
-11.7307539063
 10
42.0089444596
 20
-12.9382585203
 10
42.0126008157
 20
-14.1411084965
 10
42.0159077362
 20
-15.3393048297
 10
42.0188655354
 20
-16.5328230663
 10
42.0214749934
 20
-17.7216504306
 10
42.0237360958
 20
-18.9058051314
 10
42.0256488717
 20
-20.0852754861
 10
42.0272137093
 20
-21.2600356302
 10
42.0284305878
 20
-22.4300822095
 10
42.0292995839
 20
-23.5953919632
 10
42.0298210599
 20
-24.7559506466
 10
42.0299949653
 20
-25.9117681745
 10
42.0298210587
 20
-27.0628257121
 10
42.0292995829
 20
-28.2091043506
 10
42.0284305884
 20
-29.3506135325
 10
42.0272137109
 20
-30.4873388115
 10
42.0256488731
 20
-31.6192566196
 10
42.0237360964
 20
-32.746362442
 10
42.0214749937
 20
-33.8686305922
 10
42.0188655361
 20
-34.9860487283
 10
42.0159077373
 20
-36.0986320124
 10
42.0126008168
 20
-37.2063667653
 10
42.0089444608
 20
-38.3092281732
 10
42.0049387943
 20
-39.4072143197
 10
42.0005831236
 20
-40.5003055783
 10
41.9958769424
 20
-41.5884829442
 10
41.9908202655
 20
-42.6717451678
 10
41.9854121808
 20
-43.7500649715
 10
41.979652288
 20
-44.8234308418
 10
41.9735406514
 20
-45.8918646888
 10
41.9670759951
 20
-46.9553680166
 10
41.9602572197
 20
-48.0138997217
 10
41.9530844724
 20
-49.0674176578
 10
41.9455575031
 20
-50.115894862
 10
41.9376753364
 20
-51.1593193351
 10
41.9294374032
 20
-52.1976715956
  0
LWPOLYLINE
  5
2FC
100
AcDbEntity
  8
RACCORDO
100
AcDbPolyline
 62
253
  6
CONTINUOUS
 90
28
 70
0
 10
-30.5924970648
 20
34.8806073157
 10
-30.5688199007
 20
34.8864483224
 10
-30.5450528664
 20
34.8918265556
 10
-30.5212248129
 20
34.8967354868
 10
-30.4973646656
 20
34.9011691569
 10
-30.4735013884
 20
34.9051221838
 10
-30.4496639493
 20
34.9085897689
 10
-30.425881285
 20
34.9115677029
 10
-30.4021822654
 20
34.9140523708
 10
-30.3785956592
 20
34.9160407563
 10
-30.3551500984
 20
34.9175304459
 10
-30.3318740438
 20
34.9185196311
 10
-30.3087957506
 20
34.9190071112
 10
-30.2859432338
 20
34.9189922943
 10
-30.2633442344
 20
34.9184751986
 10
-30.2410261855
 20
34.9174564516
 10
-30.2190161794
 20
34.9159372901
 10
-30.1973409342
 20
34.9139195581
 10
-30.1760267618
 20
34.9114057051
 10
-30.1550995358
 20
34.9083987827
 10
-30.1345846599
 20
34.9049024409
 10
-30.1145070375
 20
34.900920924
 10
-30.094891041
 20
34.8964590653
 10
-30.0757604826
 20
34.8915222811
 10
-30.057138585
 20
34.886116564
 10
-30.0390479536
 20
34.8802484764
 10
-30.0215105489
 20
34.8739251414
 10
-30.0045476597
 20
34.8671542351
  0
LWPOLYLINE
  5
2FD
100
AcDbEntity
  8
0
100
AcDbPolyline
 62
7
  6
CONTINUOUS
 90
79
 70
0
 10
43.855196986
 20
4.0434422961
 10
43.8422617251
 20
4.1721101342
 10
43.8273790137
 20
4.3015233983
 10
43.8105488517
 20
4.4316820883
 10
43.7917629858
 20
4.5626378907
 10
43.7710296694
 20
4.6943391191
 10
43.7483736621
 20
4.8266307146
 10
43.723795828
 20
4.9594986013
 10
43.697295303
 20
5.0929568551
 10
43.6688942551
 20
5.2268926453
 10
43.6385860206
 20
5.3613269392
 10
43.6063772633
 20
5.4962387695
 10
43.572310142
 20
5.6314524039
 10
43.5363892875
 20
5.766943272
 10
43.498610069
 20
5.9027359443
 10
43.4590007538
 20
6.0387283997
 10
43.4175510463
 20
6.1749487126
 10
43.374271242
 20
6.3113688086
 10
43.329220495
 20
6.4478024442
 10
43.2824068648
 20
6.5842202767
 10
43.233822292
 20
6.7206516487
 10
43.1835017521
 20
6.8569983446
 10
43.1314324403
 20
6.9932896109
 10
43.0776271614
 20
7.1294962011
 10
43.022159305
 20
7.2654321605
 10
42.9650385746
 20
7.4010694027
 10
42.9062552666
 20
7.5364360141
 10
42.8458536596
 20
7.6714302984
 10
42.7838209437
 20
7.8060766599
 10
42.7201699288
 20
7.9403506943
 10
42.654983323
 20
8.0740774919
 10
42.5882693843
 20
8.207236118
 10
42.5200198546
 20
8.3398475073
 10
42.4502926681
 20
8.4717995544
 10
42.3790787229
 20
8.6031061683
 10
42.3063871208
 20
8.7337534401
 10
42.2323031013
 20
8.8635875377
 10
42.1568292804
 20
8.9926000033
 10
42.0799630421
 20
9.1207992947
 10
42.0017817766
 20
9.2480569542
 10
41.9222843361
 20
9.3743721598
 10
41.8414718686
 20
9.4997457335
 10
41.7594252077
 20
9.6240516829
 10
41.6761380795
 20
9.747295847
 10
41.591616758
 20
9.8694723869
 10
41.5059608989
 20
9.9904377935
 10
41.4191789771
 20
10.1101777092
 10
41.3312625177
 20
10.2287064916
 10
41.2422857509
 20
10.3459237044
 10
41.152233832
 20
10.4618455658
 10
41.0611216057
 20
10.5764558576
 10
40.9690678366
 20
10.6896054886
 10
40.8760886083
 20
10.8012723984
 10
40.7821678372
 20
10.9114786474
 10
40.687376038
 20
11.0201413259
 10
40.591692767
 20
11.1272808295
 10
40.495138468
 20
11.2328767625
 10
40.3978449868
 20
11.3367850281
 10
40.2998325752
 20
11.4389817124
 10
40.2010809814
 20
11.5394907293
 10
40.1016612957
 20
11.6382397233
 10
40.001551362
 20
11.7352479432
 10
39.9007733364
 20
11.8304961403
 10
39.7994647773
 20
11.9238542126
 10
39.697645891
 20
12.0153011825
 10
39.5952964711
 20
12.1048580278
 10
39.4924934575
 20
12.1924575796
 10
39.3892174844
 20
12.2781138573
 10
39.2854879175
 20
12.3618128416
 10
39.1814397933
 20
12.4434453057
 10
39.0770885966
 20
12.5229965987
 10
38.9724188427
 20
12.6004813714
 10
38.8675191141
 20
12.6758343498
 10
38.7623776301
 20
12.7490617926
 10
38.6570061715
 20
12.8201574411
 10
38.5515286636
 20
12.8890372444
 10
38.4459864149
 20
12.9556731855
 10
38.340338117
 20
13.0200932815
 10
38.2345837698
 20
13.0822975322
  0
LWPOLYLINE
  5
2FE
100
AcDbEntity
  8
RACCORDO
100
AcDbPolyline
 62
7
  6
CONTINUOUS
 90
19
 70
0
 10
45.1508812934
 20
-18.4004651733
 10
45.1227194296
 20
-17.1760261081
 10
45.0893969917
 20
-15.9488381385
 10
45.0509139796
 20
-14.7189012646
 10
45.0072691878
 20
-13.4861844185
 10
44.958463822
 20
-12.250718668
 10
44.9045014984
 20
-11.012597217
 10
44.8453818633
 20
-9.771820892
 10
44.7811052705
 20
-8.5283888664
 10
44.7116763983
 20
-7.2823918638
 10
44.6370948639
 20
-6.0338296015
 10
44.5573610501
 20
-4.7827023621
 10
44.4724807832
 20
-3.5291017172
 10
44.3824537215
 20
-2.2730278859
 10
44.2872802067
 20
-1.0144806491
 10
44.1869670906
 20
0.2464490789
 10
44.0815166571
 20
1.5097309934
 10
43.9709266222
 20
2.7753953991
 10
43.855196986
 20
4.0434422961
  0
LWPOLYLINE
  5
2FF
100
AcDbEntity
  8
RACCORDO
100
AcDbPolyline
 62
7
  6
CONTINUOUS
 90
22
 70
0
 10
45.1508812934
 20
-30.3722694764
 10
45.1510390811
 20
-30.3472235658
 10
45.1504288189
 20
-30.3225530457
 10
45.1490511136
 20
-30.2982825649
 10
45.1469068024
 20
-30.2744310972
 10
45.1439979857
 20
-30.2510279391
 10
45.1403295756
 20
-30.2281115382
 10
45.1359088288
 20
-30.2057163871
 10
45.1307393164
 20
-30.183850234
 10
45.1248206464
 20
-30.1625113214
 10
45.1181521504
 20
-30.1417068332
 10
45.1107432564
 20
-30.1214736596
 10
45.102609667
 20
-30.1018536232
 10
45.0937661897
 20
-30.0828778882
 10
45.0842166708
 20
-30.0645498074
 10
45.0739613651
 20
-30.0468686027
 10
45.063002046
 20
-30.0298428357
 10
45.0513536745
 20
-30.0135005954
 10
45.039036431
 20
-29.9978701554
 10
45.0260654056
 20
-29.9829698399
 10
45.0124492545
 20
-29.9688096523
 10
44.9982005602
 20
-29.9554027692
  0
LWPOLYLINE
  5
300
100
AcDbEntity
  8
0
100
AcDbPolyline
 62
253
  6
CONTINUOUS
 90
41
 70
0
 10
41.9294374032
 20
-52.1976715956
 10
41.9201051462
 20
-52.3064423681
 10
41.9088641975
 20
-52.4138309457
 10
41.895719645
 20
-52.5197991509
 10
41.8806783393
 20
-52.6243088297
 10
41.8637455995
 20
-52.7273233178
 10
41.8449252169
 20
-52.8288074348
 10
41.8242250399
 20
-52.9287251023
 10
41.8016533578
 20
-53.0270407769
 10
41.7772156297
 20
-53.1237208939
 10
41.7509215293
 20
-53.2187310202
 10
41.7227814692
 20
-53.3120374186
 10
41.6928030073
 20
-53.4036084356
 10
41.6609978091
 20
-53.4934115069
 10
41.6273781441
 20
-53.5814146674
 10
41.5919534432
 20
-53.6675880758
 10
41.5547372406
 20
-53.751901073
 10
41.5157437273
 20
-53.8343236495
 10
41.4749842719
 20
-53.9148279098
 10
41.432474281
 20
-53.9933851942
 10
41.3882297762
 20
-54.0699675501
 10
41.3422639762
 20
-54.1445491607
 10
41.2945940982
 20
-54.2171034587
 10
41.2452379543
 20
-54.2876046341
 10
41.1942105517
 20
-54.3560290616
 10
41.1415308318
 20
-54.4223523888
 10
41.0872183618
 20
-54.4865509795
 10
41.0312899528
 20
-54.548603377
 10
40.9737662531
 20
-54.608487472
 10
40.9146684874
 20
-54.6661819358
 10
40.8540151644
 20
-54.7216676123
 10
40.7918285378
 20
-54.7749247374
 10
40.7281314515
 20
-54.8259343156
 10
40.6629440965
 20
-54.8746795044
 10
40.5962902941
 20
-54.9211429215
 10
40.5281944051
 20
-54.9653079951
 10
40.4586781865
 20
-55.007160283
 10
40.3877669109
 20
-55.0466848613
 10
40.3154864127
 20
-55.0838676004
 10
40.2418600076
 20
-55.118696458
 10
40.1737562696
 20
-55.1483164416
  0
LWPOLYLINE
  5
301
100
AcDbEntity
  8
RACCORDO
100
AcDbPolyline
 62
7
  6
CONTINUOUS
 90
19
 70
0
 10
43.855196986
 20
-51.319953185
 10
43.9709266222
 20
-50.1855479711
 10
44.0815166571
 20
-49.0475901656
 10
44.1869670906
 20
-47.9060797685
 10
44.2872802067
 20
-46.7609891126
 10
44.3824537215
 20
-45.612345865
 10
44.4724807832
 20
-44.460233028
 10
44.5573610501
 20
-43.3046499877
 10
44.6370948639
 20
-42.1455973579
 10
44.7116763983
 20
-40.9831599821
 10
44.7811052705
 20
-39.8173377008
 10
44.8453818633
 20
-38.6481306734
 10
44.9045014984
 20
-37.4756242212
 10
44.958463822
 20
-36.2998171087
 10
45.0072691878
 20
-35.1207105714
 10
45.0509139796
 20
-33.9383936368
 10
45.0893969917
 20
-32.7528959807
 10
45.1227194296
 20
-31.5641879272
 10
45.1508812934
 20
-30.3722694764
  0
LWPOLYLINE
  5
302
100
AcDbEntity
  8
RACCORDO
100
AcDbPolyline
 62
7
  6
CONTINUOUS
 90
22
 70
0
 10
44.9982005602
 20
-18.9812488247
 10
45.0124492545
 20
-18.9536894579
 10
45.0260654056
 20
-18.92594189
 10
45.039036431
 20
-18.8980338276
 10
45.0513536745
 20
-18.8699873247
 10
45.063002046
 20
-18.8418360765
 10
45.0739613651
 20
-18.8136254961
 10
45.0842166708
 20
-18.7853997595
 10
45.0937661897
 20
-18.7571706658
 10
45.102609667
 20
-18.7289351346
 10
45.1107432564
 20
-18.7007010236
 10
45.1181521504
 20
-18.6725165329
 10
45.1248206464
 20
-18.644438834
 10
45.1307393164
 20
-18.6165149074
 10
45.1359088288
 20
-18.5887519617
 10
45.1403295756
 20
-18.5611473921
 10
45.1439979857
 20
-18.5337125321
 10
45.1469068024
 20
-18.5064907926
 10
45.1490511136
 20
-18.4795275144
 10
45.1504288189
 20
-18.4528548269
 10
45.1510390811
 20
-18.4264922633
 10
45.1508812934
 20
-18.4004651733
  0
LWPOLYLINE
  5
303
100
AcDbEntity
  8
0
100
AcDbPolyline
 62
253
  6
CONTINUOUS
 90
70
 70
0
 10
41.9294373991
 20
-52.1976715921
 10
41.8380877405
 20
-52.2464630495
 10
41.7452493583
 20
-52.2939162084
 10
41.6509635695
 20
-52.3400099504
 10
41.5552723351
 20
-52.3847237617
 10
41.4582182419
 20
-52.4280377429
 10
41.3598444828
 20
-52.4699326174
 10
41.2601948383
 20
-52.5103897402
 10
41.1593136566
 20
-52.5493911063
 10
41.0572458341
 20
-52.5869193584
 10
40.9540367952
 20
-52.6229577949
 10
40.8497324722
 20
-52.6574903772
 10
40.7443792849
 20
-52.6905017369
 10
40.6380241198
 20
-52.7219771824
 10
40.5307143094
 20
-52.751902706
 10
40.422497611
 20
-52.7802649895
 10
40.3134221857
 20
-52.8070514106
 10
40.2035365763
 20
-52.8322500481
 10
40.0928896868
 20
-52.8558496876
 10
39.9815307595
 20
-52.8778398264
 10
39.8695093537
 20
-52.8982106777
 10
39.7568753237
 20
-52.9169531759
 10
39.6436787963
 20
-52.9340589797
 10
39.5299701487
 20
-52.9495204763
 10
39.4157999859
 20
-52.9633307847
 10
39.3012191185
 20
-52.9754837587
 10
39.1862785397
 20
-52.9859739898
 10
39.0710294027
 20
-52.9947968093
 10
38.9555229984
 20
-53.0019482908
 10
38.8398107318
 20
-53.0074252515
 10
38.7239440997
 20
-53.011225254
 10
38.6079746676
 20
-53.013346607
 10
38.4919540468
 20
-53.0137883666
 10
38.3759338711
 20
-53.0125503361
 10
38.2599657746
 20
-53.0096330665
 10
38.1441013676
 20
-53.005037856
 10
38.0283922149
 20
-52.9987667498
 10
37.9128898116
 20
-52.9908225388
 10
37.7976455613
 20
-52.9812087584
 10
37.6827107524
 20
-52.9699296872
 10
37.5681365357
 20
-52.9569903449
 10
37.4539739015
 20
-52.9423964899
 10
37.3402736568
 20
-52.9261546173
 10
37.2270864032
 20
-52.9082719552
 10
37.1144625135
 20
-52.8887564621
 10
37.0024521101
 20
-52.8676168235
 10
36.8911050423
 20
-52.8448624471
 10
36.7804708642
 20
-52.8205034597
 10
36.6705988126
 20
-52.7945507021
 10
36.5615377851
 20
-52.7670157242
 10
36.4533363184
 20
-52.7379107804
 10
36.3460425668
 20
-52.7072488234
 10
36.2397042803
 20
-52.6750434993
 10
36.1343687839
 20
-52.6413091406
 10
36.0300829564
 20
-52.6060607606
 10
35.9268932092
 20
-52.5693140462
 10
35.8248454661
 20
-52.5310853514
 10
35.7239851425
 20
-52.4913916893
 10
35.6243571256
 20
-52.4502507255
 10
35.526005754
 20
-52.4076807693
 10
35.428974798
 20
-52.3637007661
 10
35.3333074405
 20
-52.3183302888
 10
35.2390462575
 20
-52.2715895293
 10
35.1462331992
 20
-52.223499289
 10
35.0549095711
 20
-52.1740809702
 10
34.9651160161
 20
-52.1233565661
 10
34.8768924961
 20
-52.0713486511
 10
34.7902782742
 20
-52.0180803709
 10
34.7053118973
 20
-51.9635754321
 10
34.6220311791
 20
-51.9078580917
  0
LINE
  5
304
100
AcDbEntity
  8
0
100
AcDbLine
 62
253
  6
CONTINUOUS
 10
43.855196986
 20
-51.319953185
 11
41.9294374032
 21
-52.1976715956
  0
LWPOLYLINE
  5
305
100
AcDbEntity
  8
0
100
AcDbPolyline
 62
7
  6
CONTINUOUS
 90
41
 70
0
 10
41.9264638991
 20
-54.4170643725
 10
42.0017817766
 20
-54.3842904168
 10
42.0799630421
 20
-54.347314523
 10
42.1568292804
 20
-54.3078784369
 10
42.2323031013
 20
-54.2660212478
 10
42.3063871208
 20
-54.221737519
 10
42.3790787229
 20
-54.1750326873
 10
42.4502926681
 20
-54.1259621522
 10
42.5200198546
 20
-54.0745293123
 10
42.5882693843
 20
-54.0207307691
 10
42.654983323
 20
-53.9646117273
 10
42.7201699288
 20
-53.9061607881
 10
42.7838209437
 20
-53.8453893502
 10
42.8458536596
 20
-53.7823768141
 10
42.9062552666
 20
-53.7171327916
 10
42.9650385746
 20
-53.6496476708
 10
43.022159305
 20
-53.5799720162
 10
43.0776271614
 20
-53.5080889471
 10
43.1314324403
 20
-53.4340153443
 10
43.1835017521
 20
-53.357852414
 10
43.233822292
 20
-53.2796146163
 10
43.2824068648
 20
-53.1992874912
 10
43.329220495
 20
-53.1169288654
 10
43.374271242
 20
-53.0325187032
 10
43.4175510463
 20
-52.9460770403
 10
43.4590007538
 20
-52.8577218107
 10
43.498610069
 20
-52.7674691996
 10
43.5363892875
 20
-52.6753030219
 10
43.572310142
 20
-52.5812926562
 10
43.6063772633
 20
-52.4854188795
 10
43.6385860206
 20
-52.3877009149
 10
43.6688942551
 20
-52.2882658105
 10
43.697295303
 20
-52.1871268384
 10
43.723795828
 20
-52.0842707266
 10
43.7483736621
 20
-51.9797847068
 10
43.7710296694
 20
-51.8736557006
 10
43.7917629858
 20
-51.7658967863
 10
43.8105488517
 20
-51.6566344309
 10
43.8273790137
 20
-51.5459107901
 10
43.8422617251
 20
-51.4336837081
 10
43.855196986
 20
-51.319953185
  0
LINE
  5
306
100
AcDbEntity
  8
0
100
AcDbLine
 62
7
  6
CONTINUOUS
 10
41.9264644502
 20
-54.4170654295
 11
40.1737562362
 21
-55.1483164555
  0
ELLIPSE
  5
307
100
AcDbEntity
  8
RACCORDO
100
AcDbEllipse
 62
7
  6
CONTINUOUS
 10
-28.8198442537
 20
22.03806611
 30
0.0
 11
1.4993661418
 21
0.0718605949
 31
0.0
 40
0.6067642562
 41
5.3304324811
 42
5.468714755
  0
ENDSEC
  0
SECTION
  2
OBJECTS
  0
DICTIONARY
  5
C
100
AcDbDictionary
280
0
281
1
  3
ACAD_GROUP
350
D
  3
ACAD_MLINESTYLE
350
17
  3
ACAD_LAYOUT
350
1A
  3
ACAD_PLOTSETTINGS
350
19
  3
ACAD_PLOTSTYLENAME
350
E
  0
DICTIONARY
  5
D
102
{ACAD_REACTORS
330
C
102
}
100
AcDbDictionary
280
0
281
1
  0
ACDBDICTIONARYWDFLT
  5
E
102
{ACAD_REACTORS
330
C
102
}
100
AcDbDictionary
281
1
  3
Normal
350
F
100
AcDbDictionaryWithDefault
340
F
  0
DICTIONARY
  5
17
102
{ACAD_REACTORS
330
C
102
}
100
AcDbDictionary
280
0
281
1
  3
Standard
350
18
  0
DICTIONARY
  5
19
102
{ACAD_REACTORS
330
C
102
}
100
AcDbDictionary
281
1
  0
DICTIONARY
  5
1A
102
{ACAD_REACTORS
330
C
102
}
100
AcDbDictionary
281
1
  3
Model
350
308
  3
Layout1
350
309
  0
ACDBPLACEHOLDER
  5
F
102
{ACAD_REACTORS
330
E
102
}
  0
MLINESTYLE
  5
18
102
{ACAD_REACTORS
330
17
102
}
100
AcDbMlineStyle
  2
STANDARD
 70
0
  3

 62
256
 51
90.0
 52
90.0
 71
2
 49
0.5
 62
256
  6
BYLAYER
 49
-0.5
 62
256
  6
BYLAYER
  0
LAYOUT
  5
308
102
{ACAD_REACTORS
330
1A
102
}
100
AcDbPlotSettings
  1

  2
none_device
  4
ISO_A4_(297.00_x_210.00_MM)
  6

 40
0.0
 41
0.0
 42
0.0
 43
0.0
 44
297.0
 45
210.0
 46
0.0
 47
0.0
 48
0.0
 49
0.0
140
0.0
141
0.0
142
1.0
143
1.0
 70
1024
 72
1
 73
0
 74
0
  7

 75
0
147
1.0
148
0.0
149
0.0
100
AcDbLayout
  1
Model
 70
0
 71
0
 10
0.0
 20
0.0
 11
297.0
 21
210.0
 12
0.0
 22
0.0
 32
0.0
 14
0.0
 24
0.0
 34
0.0
 15
0.0
 25
0.0
 35
0.0
146
0.0
 13
0.0
 23
0.0
 33
0.0
 16
1.0
 26
0.0
 36
0.0
 17
0.0
 27
1.0
 37
0.0
 76
0
330
216
345
0
346
0
  0
LAYOUT
  5
309
102
{ACAD_REACTORS
330
1A
102
}
100
AcDbPlotSettings
  1

  2
none_device
  4
ISO_A4_(297.00_x_210.00_MM)
  6

 40
0.0
 41
0.0
 42
0.0
 43
0.0
 44
297.0
 45
210.0
 46
0.0
 47
0.0
 48
0.0
 49
0.0
140
0.0
141
0.0
142
1.0
143
1.0
 70
0
 72
1
 73
0
 74
0
  7

 75
0
147
1.0
148
0.0
149
0.0
100
AcDbLayout
  1
Layout1
 70
0
 71
1
 10
0.0
 20
0.0
 11
297.0
 21
210.0
 12
0.0
 22
0.0
 32
0.0
 14
0.0
 24
0.0
 34
0.0
 15
0.0
 25
0.0
 35
0.0
146
0.0
 13
0.0
 23
0.0
 33
0.0
 16
1.0
 26
0.0
 36
0.0
 17
0.0
 27
1.0
 37
0.0
 76
0
330
217
345
0
346
0
  0
ENDSEC
  0
EOF
