  0
SECTION
  2
HEADER
  9
$ACADVER
  1
AC1024
  9
$DWGCODEPAGE
  3
ANSI_1252
  9
$EXTMAX
 10
297.0
 20
210.0
 30
0.0
  9
$EXTMIN
 10
0.0
 20
0.0
 30
0.0
  9
$LIMMIN
 10
0.0
 20
0.0
  9
$LIMMAX
 10
297.0
 20
210.0
  9
$VIEWCTR
 10
148.5
 20
105.0
  9
$VIEWSIZE
 40
210.0
  9
$CLAYER
  8
0
  9
$LTSCALE
 40
16.335
  9
$CELTYPE
  6
BYLAYER
  9
$DIMSCALE
 40
1.0
  9
$DIMASZ
 40
3.0
  9
$DIMEXO
 40
0.5
  9
$DIMDLI
 40
11.286
  9
$DIMEXE
 40
1.5
  9
$DIMCEN
 40
2.673
  9
$DIMLFAC
 40
1.0
  9
$DIMBLK
  1
_FILLED
  9
$DIMALT
 70
0
  9
$DIMALTF
 40
0.0393700787
  9
$DIMTXT
 40
3.0
  9
$DIMTOL
 70
1
  9
$DIMLIM
 70
0
  9
$DIMTFAC
 40
1.0
  9
$DIMTP
 40
0.01
  9
$DIMTM
 40
0.01
  9
$DIMGAP
 40
0.625
  9
$DIMDSEP
 70
44
  9
$AUNITS
 70
0
  9
$PDMODE
 70
3
  9
$PDSIZE
 40
3.0
  9
$HANDSEED
  5
300
  9
$TILEMODE
 70
1
  9
$MEASUREMENT
 70
1
  9
$INSUNITS
 70
4
  0
ENDSEC
  0
SECTION
  2
CLASSES
  0
CLASS
  1
ACDBDICTIONARYWDFLT
  2
AcDbDictionaryWithDefault
  3
AutoCAD 2000
 90
0
 91
1
280
0
281
0
  0
CLASS
  1
ACDBPLACEHOLDER
  2
AcDbPlaceHolder
  3
AutoCAD 2000
 90
0
 91
1
280
0
281
0
  0
CLASS
  1
LAYOUT
  2
AcDbLayout
  3
AutoCAD 2000
 90
0
 91
0
280
0
281
0
  0
ENDSEC
  0
SECTION
  2
TABLES
  0
TABLE
  2
VPORT
  5
8
100
AcDbSymbolTable
 70
2
  0
VPORT
  5
1F4
100
AcDbSymbolTableRecord
100
AcDbViewportTableRecord
  2
*ACTIVE
 70
0
 10
0.0
 20
0.0
 11
1.0
 21
1.0
 12
148.5
 22
105.0
 13
0.0
 23
0.0
 14
1.0
 24
1.0
 15
0.0
 25
0.0
 16
0.0
 26
0.0
 36
1.0
 17
0.0
 27
0.0
 37
0.0
 40
210.0
 41
1.4142857143
 42
50.0
 43
0.0
 44
0.0
 50
0.0
 51
0.0
 71
0
 72
100
 73
1
 74
1
 75
0
 76
0
 77
0
 78
0
  0
ENDTAB
  0
TABLE
  2
LTYPE
  5
5
100
AcDbSymbolTable
 70
6
  0
LTYPE
  5
14
100
AcDbSymbolTableRecord
100
AcDbLinetypeTableRecord
  2
BYBLOCK
 70
0
  3

 72
65
 73
0
 40
0.0
  0
LTYPE
  5
15
100
AcDbSymbolTableRecord
100
AcDbLinetypeTableRecord
  2
BYLAYER
 70
0
  3

 72
65
 73
0
 40
0.0
  0
LTYPE
  5
16
100
AcDbSymbolTableRecord
100
AcDbLinetypeTableRecord
  2
CONTINUOUS
 70
64
  3
Solid line
 72
65
 73
0
 40
0.0
  0
LTYPE
  5
1F5
100
AcDbSymbolTableRecord
100
AcDbLinetypeTableRecord
  2
CENTER
 70
64
  3
____ _ ____ _ ____ _ ____ _ ____ _ ____ _ ____
 72
65
 73
4
 40
0.6
 49
0.375
 74
0
 49
-0.075
 74
0
 49
0.075
 74
0
 49
-0.075
 74
0
  0
LTYPE
  5
1F6
100
AcDbSymbolTableRecord
100
AcDbLinetypeTableRecord
  2
HIDDEN
 70
64
  3
- - - - - - - - - - - - - - - - - - - -
 72
65
 73
2
 40
0.2
 49
0.1
 74
0
 49
-0.1
 74
0
  0
LTYPE
  5
1F7
100
AcDbSymbolTableRecord
100
AcDbLinetypeTableRecord
  2
PHANTOM
 70
64
  3
_____ _ _ _____ _ _ _____ _ _ _____
 72
65
 73
6
 40
0.8
 49
0.45
 74
0
 49
-0.05
 74
0
 49
0.1
 74
0
 49
-0.05
 74
0
 49
0.1
 74
0
 49
-0.05
 74
0
  0
LTYPE
  5
1F8
100
AcDbSymbolTableRecord
100
AcDbLinetypeTableRecord
  2
DOT
 70
64
  3
. . . . . . . . . . . . . . . . . . . .
 72
65
 73
2
 40
0.2
 49
0.1
 74
0
 49
-0.1
 74
0
  0
LTYPE
  5
1F9
100
AcDbSymbolTableRecord
100
AcDbLinetypeTableRecord
  2
DASHED
 70
64
  3
- - - - - - - - - - - - - - - - - - - -
 72
65
 73
2
 40
0.2
 49
0.1
 74
0
 49
-0.1
 74
0
  0
ENDTAB
  0
TABLE
  2
LAYER
  5
2
100
AcDbSymbolTable
 70
36
  0
LAYER
  5
10
100
AcDbSymbolTableRecord
100
AcDbLayerTableRecord
  2
0
 70
0
 62
7
  6
CONTINUOUS
370
-3
390
F
  0
LAYER
  5
1FA
100
AcDbSymbolTableRecord
100
AcDbLayerTableRecord
  2
DEFAULT_1
 70
0
 62
7
  6
CENTER
370
-3
390
F
  0
LAYER
  5
1FB
100
AcDbSymbolTableRecord
100
AcDbLayerTableRecord
  2
DEFAULT_2
 70
0
 62
7
  6
HIDDEN
370
-3
390
F
  0
LAYER
  5
1FC
100
AcDbSymbolTableRecord
100
AcDbLayerTableRecord
  2
DEFAULT_3
 70
0
 62
7
  6
PHANTOM
370
-3
390
F
  0
LAYER
  5
1FD
100
AcDbSymbolTableRecord
100
AcDbLayerTableRecord
  2
26216763_GEN
 70
0
 62
7
  6
CONTINUOUS
370
-3
390
F
  0
LAYER
  5
1FE
100
AcDbSymbolTableRecord
100
AcDbLayerTableRecord
  2
ASSI
 70
0
 62
7
  6
CONTINUOUS
370
-3
390
F
  0
LAYER
  5
1FF
100
AcDbSymbolTableRecord
100
AcDbLayerTableRecord
  2
COORDINATE
 70
0
 62
7
  6
CONTINUOUS
370
-3
390
F
  0
LAYER
  5
200
100
AcDbSymbolTableRecord
100
AcDbLayerTableRecord
  2
COORD_ORIGINE
 70
0
 62
7
  6
CONTINUOUS
370
-3
390
F
  0
LAYER
  5
201
100
AcDbSymbolTableRecord
100
AcDbLayerTableRecord
  2
COSMETICI
 70
0
 62
7
  6
CONTINUOUS
370
-3
390
F
  0
LAYER
  5
202
100
AcDbSymbolTableRecord
100
AcDbLayerTableRecord
  2
CURVE
 70
0
 62
7
  6
CONTINUOUS
370
-3
390
F
  0
LAYER
  5
203
100
AcDbSymbolTableRecord
100
AcDbLayerTableRecord
  2
DRAFT
 70
0
 62
7
  6
CONTINUOUS
370
-3
390
F
  0
LAYER
  5
204
100
AcDbSymbolTableRecord
100
AcDbLayerTableRecord
  2
IGES_SCRITTE
 70
0
 62
7
  6
CONTINUOUS
370
-3
390
F
  0
LAYER
  5
205
100
AcDbSymbolTableRecord
100
AcDbLayerTableRecord
  2
IMPORT_FEATURE
 70
0
 62
7
  6
CONTINUOUS
370
-3
390
F
  0
LAYER
  5
206
100
AcDbSymbolTableRecord
100
AcDbLayerTableRecord
  2
INTF_1
 70
0
 62
7
  6
CONTINUOUS
370
-3
390
F
  0
LAYER
  5
207
100
AcDbSymbolTableRecord
100
AcDbLayerTableRecord
  2
LAY0001
 70
0
 62
7
  6
CONTINUOUS
370
-3
390
F
  0
LAYER
  5
208
100
AcDbSymbolTableRecord
100
AcDbLayerTableRecord
  2
NOTE
 70
0
 62
7
  6
CONTINUOUS
370
-3
390
F
  0
LAYER
  5
209
100
AcDbSymbolTableRecord
100
AcDbLayerTableRecord
  2
PIANI
 70
0
 62
7
  6
CONTINUOUS
370
-3
390
F
  0
LAYER
  5
20A
100
AcDbSymbolTableRecord
100
AcDbLayerTableRecord
  2
PIANI_DI_RIFERIMENTO
 70
0
 62
7
  6
CONTINUOUS
370
-3
390
F
  0
LAYER
  5
20B
100
AcDbSymbolTableRecord
100
AcDbLayerTableRecord
  2
PIANI_ORIGINE
 70
0
 62
7
  6
CONTINUOUS
370
-3
390
F
  0
LAYER
  5
20C
100
AcDbSymbolTableRecord
100
AcDbLayerTableRecord
  2
PUNTI
 70
0
 62
7
  6
CONTINUOUS
370
-3
390
F
  0
LAYER
  5
20D
100
AcDbSymbolTableRecord
100
AcDbLayerTableRecord
  2
RACCORDO
 70
0
 62
7
  6
CONTINUOUS
370
-3
390
F
  0
LAYER
  5
20E
100
AcDbSymbolTableRecord
100
AcDbLayerTableRecord
  2
RGB____0____0____0__
 70
0
 62
7
  6
CONTINUOUS
370
-3
390
F
  0
LAYER
  5
20F
100
AcDbSymbolTableRecord
100
AcDbLayerTableRecord
  2
SIMBOLI
 70
0
 62
7
  6
CONTINUOUS
370
-3
390
F
  0
LAYER
  5
210
100
AcDbSymbolTableRecord
100
AcDbLayerTableRecord
  2
SNAPLINE
 70
0
 62
7
  6
CONTINUOUS
370
-3
390
F
  0
LAYER
  5
211
100
AcDbSymbolTableRecord
100
AcDbLayerTableRecord
  2
SUPERFICI
 70
0
 62
7
  6
CONTINUOUS
370
-3
390
F
  0
LAYER
  5
212
100
AcDbSymbolTableRecord
100
AcDbLayerTableRecord
  2
TRASH
 70
0
 62
7
  6
CONTINUOUS
370
-3
390
F
  0
LAYER
  5
213
100
AcDbSymbolTableRecord
100
AcDbLayerTableRecord
  2
XSEC_DATUMS
 70
0
 62
7
  6
CONTINUOUS
370
-3
390
F
  0
ENDTAB
  0
TABLE
  2
STYLE
  5
3
100
AcDbSymbolTable
 70
1
  0
STYLE
  5
11
100
AcDbSymbolTableRecord
100
AcDbTextStyleTableRecord
  2
STANDARD
 70
0
 40
0.0
 41
0.8
 50
0.0
 71
0
 42
0.2
  3
txt
  4

  0
STYLE
  5
214
100
AcDbSymbolTableRecord
100
AcDbTextStyleTableRecord
  2
TEXTSTYLE_1
 70
0
 40
0.0
 41
0.8
 50
0.0
 71
0
 42
0.2
  3
gdt
  4

  0
ENDTAB
  0
TABLE
  2
VIEW
  5
6
100
AcDbSymbolTable
 70
0
  0
ENDTAB
  0
TABLE
  2
UCS
  5
7
100
AcDbSymbolTable
 70
0
  0
ENDTAB
  0
TABLE
  2
APPID
  5
9
100
AcDbSymbolTable
 70
1
  0
APPID
  5
215
100
AcDbSymbolTableRecord
100
AcDbRegAppTableRecord
  2
ACAD
 70
0
  0
ENDTAB
  0
TABLE
  2
BLOCK_RECORD
  5
1
100
AcDbSymbolTable
 70
0
  0
BLOCK_RECORD
  5
216
100
AcDbSymbolTableRecord
100
AcDbBlockTableRecord
  2
*Model_Space
  0
BLOCK_RECORD
  5
217
100
AcDbSymbolTableRecord
100
AcDbBlockTableRecord
  2
*Paper_Space
  0
BLOCK_RECORD
  5
218
100
AcDbSymbolTableRecord
100
AcDbBlockTableRecord
  2
_FILLED
  0
ENDTAB
  0
TABLE
  2
DIMSTYLE
  5
A
100
AcDbSymbolTable
 70
1
100
AcDbDimStyleTable
 71
0
  0
DIMSTYLE
105
219
100
AcDbSymbolTableRecord
100
AcDbDimStyleTableRecord
  2
STANDARD
 70
0
  3

  4

 40
1.0
 41
3.0
 42
0.5
 43
0.38
 44
1.5
 45
0.0
 46
0.0
 47
0.01
 48
0.01
140
3.0
141
0.09
142
0.0
143
25.4
144
1.0
145
0.0
146
1.0
147
0.625
 71
1
 72
0
 73
0
 74
0
 75
0
 76
0
 77
1
 78
8
 79
2
170
0
171
1
172
0
173
0
174
0
175
0
176
0
177
0
178
0
270
2
179
2
271
2
272
2
273
2
274
2
275
0
280
0
281
0
282
0
283
1
284
8
285
0
286
0
287
3
288
0
340
11
278
44
341
218
342
218
343
218
344
218
  0
ENDTAB
  0
ENDSEC
  0
SECTION
  2
BLOCKS
  0
BLOCK
  5
20
100
AcDbEntity
  8
0
100
AcDbBlockBegin
  2
*Model_Space
 70
0
 10
0.0
 20
0.0
 30
0.0
  3
*Model_Space
  1

  0
ENDBLK
  5
21
100
AcDbEntity
  8
0
100
AcDbBlockEnd
  0
BLOCK
  5
1C
100
AcDbEntity
  8
0
100
AcDbBlockBegin
  2
*Paper_Space
 70
0
 10
0.0
 20
0.0
 30
0.0
  3
*Paper_Space
  1

  0
ENDBLK
  5
1D
100
AcDbEntity
  8
0
100
AcDbBlockEnd
  0
BLOCK
  5
21A
100
AcDbEntity
  8
0
100
AcDbBlockBegin
  2
_FILLED
 70
64
 10
0.0
 20
0.0
  3
_FILLED
  1

  0
SOLID
  5
21B
100
AcDbEntity
  8
0
  6
BYBLOCK
 62
0
100
AcDbTrace
 10
0.0
 20
0.0
 11
-1.0
 21
0.3166666667
 12
-1.0
 22
-0.3166666667
 13
-1.0
 23
-0.3166666667
  0
ENDBLK
  5
21C
100
AcDbEntity
  8
0
  6
BYBLOCK
 62
0
100
AcDbBlockEnd
  0
ENDSEC
  0
SECTION
  2
ENTITIES
  0
LWPOLYLINE
  5
21D
100
AcDbEntity
  8
0
100
AcDbPolyline
 62
7
  6
CONTINUOUS
 90
34
 70
0
 10
-49.7670572237
 20
61.0875857623
 10
-49.8560266787
 20
61.0046884636
 10
-49.9434148357
 20
60.9200388143
 10
-50.029222606
 20
60.8336327859
 10
-50.1134116604
 20
60.7455041664
 10
-50.1959448728
 20
60.6556875206
 10
-50.2768222677
 20
60.5641767029
 10
-50.3560066649
 20
60.4710062266
 10
-50.4334617141
 20
60.3762121841
 10
-50.5091859781
 20
60.2797876739
 10
-50.583143693
 20
60.1817674098
 10
-50.6552986539
 20
60.0821891961
 10
-50.7256462966
 20
59.9810478557
 10
-50.7941515015
 20
59.8783803776
 10
-50.8607800959
 20
59.7742248787
 10
-50.9255264397
 20
59.6685747284
 10
-50.988356434
 20
59.561468348
 10
-51.0492376339
 20
59.4529446666
 10
-51.108164343
 20
59.3429945306
 10
-51.1651032435
 20
59.2316577328
 10
-51.2200234216
 20
59.1189732815
 10
-51.2729198534
 20
59.0049270196
 10
-51.3237609308
 20
58.8895585498
 10
-51.3725163167
 20
58.7729080035
 10
-51.4191797866
 20
58.6549578583
 10
-51.4637209968
 20
58.5357480885
 10
-51.506110739
 20
58.4153193681
 10
-51.5463410855
 20
58.2936503926
 10
-51.5843834882
 20
58.1707778471
 10
-51.6202091123
 20
58.0467440295
 10
-51.6538063498
 20
57.9215301116
 10
-51.6851515468
 20
57.795154974
 10
-51.7142118391
 20
57.667680348
 10
-51.7368505855
 20
57.5597175668
  0
LINE
  5
21E
100
AcDbEntity
  8
0
100
AcDbLine
 62
7
  6
CONTINUOUS
 10
-48.2209271958
 20
62.4894399957
 11
-49.7670572237
 21
61.0875857623
  0
LWPOLYLINE
  5
21F
100
AcDbEntity
  8
0
100
AcDbPolyline
 62
250
  6
CONTINUOUS
 90
58
 70
0
 10
-49.7489651532
 20
61.1040533679
 10
-49.7216591953
 20
61.1283883782
 10
-49.6659391203
 20
61.1755330003
 10
-49.6087569207
 20
61.2206309122
 10
-49.5501305737
 20
61.2636681431
 10
-49.4900785027
 20
61.3046314207
 10
-49.4286220022
 20
61.3435059624
 10
-49.3657804926
 20
61.3802797947
 10
-49.3015737738
 20
61.4149416881
 10
-49.236024406
 20
61.4474789761
 10
-49.1691531514
 20
61.4778817372
 10
-49.1009811648
 20
61.506140787
 10
-49.0315322613
 20
61.5322455777
 10
-48.9608285314
 20
61.556188251
 10
-48.8888923795
 20
61.577961719
 10
-48.8157487228
 20
61.5975576123
 10
-48.7414208555
 20
61.6149701712
 10
-48.6659324176
 20
61.6301943986
 10
-48.5893094423
 20
61.6432240995
 10
-48.511576429
 20
61.6540556179
 10
-48.4327581203
 20
61.6626860837
 10
-48.3528814745
 20
61.6691115143
 10
-48.2719720441
 20
61.6733303713
 10
-48.1900556737
 20
61.6753419
 10
-48.107160282
 20
61.6751443279
 10
-48.0233124886
 20
61.6727382393
 10
-47.9385390823
 20
61.6681250083
 10
-47.8528687188
 20
61.6613050789
 10
-47.7663289131
 20
61.6522811457
 10
-47.6789474061
 20
61.6410566996
 10
-47.5907536344
 20
61.6276344041
 10
-47.5017760172
 20
61.6120190694
 10
-47.4120430829
 20
61.5942162906
 10
-47.3215848322
 20
61.574230925
 10
-47.230430407
 20
61.5520698596
 10
-47.1386091333
 20
61.5277407857
 10
-47.0461516473
 20
61.5012507752
 10
-46.9530878444
 20
61.4726088068
 10
-46.859447654
 20
61.4418246272
 10
-46.7652620786
 20
61.4089074551
 10
-46.6705616007
 20
61.3738683045
 10
-46.5753767409
 20
61.3367189629
 10
-46.4797388297
 20
61.2974707795
 10
-46.3836788803
 20
61.2561367865
 10
-46.2872278846
 20
61.2127307603
 10
-46.1904173657
 20
61.1672661135
 10
-46.0932786557
 20
61.1197577828
 10
-45.9958432488
 20
61.0702215544
 10
-45.8981430946
 20
61.0186730501
 10
-45.80020989
 20
60.9651291673
 10
-45.7020754117
 20
60.9096075954
 10
-45.6037718695
 20
60.8521260821
 10
-45.5053314191
 20
60.7927035287
 10
-45.4067858425
 20
60.7313594075
 10
-45.3081668815
 20
60.6681132168
 10
-45.2095065227
 20
60.6029854393
 10
-45.1108369885
 20
60.5359975703
 10
-45.0121904185
 20
60.4671715015
  0
LWPOLYLINE
  5
220
100
AcDbEntity
  8
0
100
AcDbPolyline
 62
250
  6
CONTINUOUS
 90
67
 70
0
 10
-45.0121904185
 20
60.4671715015
 10
-45.0920000154
 20
60.4015148579
 10
-45.1716020698
 20
60.3343583193
 10
-45.2509626114
 20
60.2657305448
 10
-45.3300477728
 20
60.1956608215
 10
-45.4088238043
 20
60.1241790518
 10
-45.487257088
 20
60.0513157408
 10
-45.5653141523
 20
59.977101983
 10
-45.6429616862
 20
59.9015694494
 10
-45.7201665533
 20
59.8247503737
 10
-45.7968958064
 20
59.7466775384
 10
-45.873116701
 20
59.6673842616
 10
-45.9487967097
 20
59.5869043817
 10
-46.0239035358
 20
59.5052722437
 10
-46.0984051273
 20
59.4225226843
 10
-46.1722696905
 20
59.3386910172
 10
-46.2454657036
 20
59.2538130176
 10
-46.3179619298
 20
59.1679249075
 10
-46.3897274314
 20
59.0810633399
 10
-46.4607315821
 20
58.9932653831
 10
-46.5309440808
 20
58.9045685051
 10
-46.6003349641
 20
58.8150105575
 10
-46.6688746194
 20
58.7246297594
 10
-46.7365337971
 20
58.6334646811
 10
-46.8032836235
 20
58.5415542274
 10
-46.869095613
 20
58.4489376213
 10
-46.9339416801
 20
58.3556543873
 10
-46.9977941517
 20
58.2617443341
 10
-47.0606257785
 20
58.1672475381
 10
-47.122409747
 20
58.0722043261
 10
-47.1831196907
 20
57.9766552579
 10
-47.2427297014
 20
57.8806411095
 10
-47.3012143406
 20
57.7842028549
 10
-47.3585486497
 20
57.6873816495
 10
-47.4147081612
 20
57.5902188121
 10
-47.4696689088
 20
57.492755807
 10
-47.523407438
 20
57.3950342268
 10
-47.5759008156
 20
57.2970957745
 10
-47.62712664
 20
57.1989822455
 10
-47.6770630505
 20
57.10073551
 10
-47.7256887366
 20
57.0023974951
 10
-47.7729829471
 20
56.9040101668
 10
-47.8189254991
 20
56.805615512
 10
-47.8634967865
 20
56.7072555209
 10
-47.9066777885
 20
56.6089721689
 10
-47.9484500774
 20
56.5108073987
 10
-47.9887958267
 20
56.4128031023
 10
-48.0276978189
 20
56.3150011033
 10
-48.0651394525
 20
56.217443139
 10
-48.1011047491
 20
56.1201708423
 10
-48.1355783604
 20
56.0232257246
 10
-48.1685455747
 20
55.9266491573
 10
-48.1999923233
 20
55.8304823548
 10
-48.2299051861
 20
55.7347663565
 10
-48.2582713977
 20
55.6395420094
 10
-48.2850788528
 20
55.5448499508
 10
-48.3103161113
 20
55.4507305907
 10
-48.333972403
 20
55.3572240947
 10
-48.3560376327
 20
55.2643703671
 10
-48.3765023838
 20
55.1722090333
 10
-48.3953579231
 20
55.0807794234
 10
-48.4125962039
 20
54.9901205553
 10
-48.4282098697
 20
54.9002711178
 10
-48.4421922573
 20
54.8112694544
 10
-48.4545373997
 20
54.7231535468
 10
-48.4652400286
 20
54.6359609986
 10
-48.4742955767
 20
54.5497290195
  0
LINE
  5
221
100
AcDbEntity
  8
0
100
AcDbLine
 62
250
  6
CONTINUOUS
 10
-43.4124503464
 20
61.7664980115
 11
-45.0121904185
 21
60.4671715015
  0
LWPOLYLINE
  5
222
100
AcDbEntity
  8
0
100
AcDbPolyline
 62
250
  6
CONTINUOUS
 90
46
 70
0
 10
-51.7449515398
 20
57.5177987357
 10
-51.7580839548
 20
57.4406869226
 10
-51.7690039336
 20
57.3631799221
 10
-51.777707013
 20
57.2853094136
 10
-51.7841896358
 20
57.2071072251
 10
-51.7884491524
 20
57.12860532
 10
-51.7904838217
 20
57.0498357842
 10
-51.7902928122
 20
56.9708308132
 10
-51.7878762018
 20
56.8916226985
 10
-51.7832349784
 20
56.8122438148
 10
-51.776371039
 20
56.7327266065
 10
-51.767287189
 20
56.6531035746
 10
-51.7559871412
 20
56.5734072633
 10
-51.7424755144
 20
56.4936702468
 10
-51.726757831
 20
56.4139251158
 10
-51.7088405155
 20
56.3342044645
 10
-51.688730891
 20
56.254540877
 10
-51.666437177
 20
56.1749669142
 10
-51.6419684856
 20
56.0955151001
 10
-51.6153348178
 20
56.016217909
 10
-51.5865470596
 20
55.9371077519
 10
-51.5556169773
 20
55.8582169635
 10
-51.5225572129
 20
55.7795777887
 10
-51.487381279
 20
55.7012223695
 10
-51.450103553
 20
55.6231827321
 10
-51.4107392712
 20
55.5454907735
 10
-51.3693045231
 20
55.4681782487
 10
-51.3258162442
 20
55.3912767574
 10
-51.2802922094
 20
55.3148177315
 10
-51.2327510257
 20
55.2388324221
 10
-51.1832121245
 20
55.1633518865
 10
-51.1316957539
 20
55.0884069758
 10
-51.0782229699
 20
55.0140283221
 10
-51.0228156286
 20
54.9402463261
 10
-50.9654963764
 20
54.8670911446
 10
-50.9062886414
 20
54.7945926783
 10
-50.8452166235
 20
54.7227805593
 10
-50.7823052846
 20
54.6516841393
 10
-50.7175803383
 20
54.5813324775
 10
-50.6510682396
 20
54.5117543286
 10
-50.5827961739
 20
54.4429781312
 10
-50.512792046
 20
54.3750319961
 10
-50.4410844684
 20
54.3079436948
 10
-50.3677027503
 20
54.2417406483
 10
-50.2926768848
 20
54.1764499157
 10
-50.2160375371
 20
54.1120981831
  0
LWPOLYLINE
  5
223
100
AcDbEntity
  8
0
100
AcDbPolyline
 62
7
  6
CONTINUOUS
 90
49
 70
0
 10
-51.7368551951
 20
57.5596947007
 10
-51.9357060955
 20
56.5512567655
 10
-52.1281081427
 20
55.5318207283
 10
-52.3119378152
 20
54.5119560175
 10
-52.4871875804
 20
53.4917350014
 10
-52.6538627107
 20
52.4711663757
 10
-52.8119771712
 20
51.4501975319
 10
-52.9615294418
 20
50.4288662372
 10
-53.1025192345
 20
49.4072115815
 10
-53.234957977
 20
48.385182412
 10
-53.358843993
 20
47.3628173452
 10
-53.4741770331
 20
46.3401557146
 10
-53.580966293
 20
45.3171469845
 10
-53.6792102252
 20
44.2938296384
 10
-53.7689087078
 20
43.2702428167
 10
-53.8500687335
 20
42.2463365839
 10
-53.9226888205
 20
41.2221498632
 10
-53.9867690071
 20
40.1977213827
 10
-54.0423142175
 20
39.1730005965
 10
-54.0893230933
 20
38.1480262152
 10
-54.127795774
 20
37.1228370776
 10
-54.1577350642
 20
36.0973825789
 10
-54.1791397176
 20
35.0717013853
 10
-54.1920099915
 20
34.0458322773
 10
-54.1963465786
 20
33.0197246384
 10
-54.1921483491
 20
31.9934168855
 10
-54.1794156788
 20
30.9669479085
 10
-54.1581471709
 20
29.9402676841
 10
-54.1283418319
 20
28.9134147445
 10
-54.0900001752
 20
27.8864276987
 10
-54.0431187389
 20
26.8592565906
 10
-53.9876966741
 20
25.8319399828
 10
-53.9237346229
 20
24.8045162494
 10
-53.8512270416
 20
23.77693517
 10
-53.770173199
 20
22.7492350329
 10
-53.6805738753
 20
21.7214542795
 10
-53.5824214891
 20
20.6935430046
 10
-53.4757154799
 20
19.665539736
 10
-53.3604567059
 20
18.6374823404
 10
-53.2366354144
 20
17.6093200744
 10
-53.1042511849
 20
16.5810915256
 10
-52.9633050095
 20
15.552834515
 10
-52.813784923
 20
14.5244973755
 10
-52.6556905516
 20
13.4961183019
 10
-52.4890227361
 20
12.4677341029
 10
-52.3137669855
 20
11.4392913278
 10
-52.1299174152
 20
10.4107976194
 10
-51.9374808333
 20
9.3823242372
 10
-51.7387686879
 20
8.3654813768
  0
LWPOLYLINE
  5
224
100
AcDbEntity
  8
0
100
AcDbPolyline
 62
250
  6
CONTINUOUS
 90
61
 70
0
 10
-50.2160375371
 20
54.1120981831
 10
-50.2075518148
 20
54.1517705219
 10
-50.1981065239
 20
54.190577272
 10
-50.1877017481
 20
54.2285183809
 10
-50.1763278811
 20
54.2656209758
 10
-50.1639946864
 20
54.3018578317
 10
-50.1507313455
 20
54.3371473429
 10
-50.1365374334
 20
54.3714818338
 10
-50.1214136267
 20
54.4048688247
 10
-50.1053908343
 20
54.4372494576
 10
-50.0884669047
 20
54.4686224268
 10
-50.070644299
 20
54.4989888478
 10
-50.0519609096
 20
54.528293455
 10
-50.03241544
 20
54.5565333046
 10
-50.0120095528
 20
54.5837111162
 10
-49.9907856386
 20
54.6097800826
 10
-49.968742418
 20
54.6347375949
 10
-49.9458815817
 20
54.6585860106
 10
-49.9222500286
 20
54.6812859399
 10
-49.8978465333
 20
54.7028348297
 10
-49.8726727681
 20
54.7232349605
 10
-49.8467800246
 20
54.7424541648
 10
-49.8201671618
 20
54.7604898455
 10
-49.7928357928
 20
54.7773443121
 10
-49.7648413806
 20
54.7929927332
 10
-49.7361840712
 20
54.8074321286
 10
-49.7068642056
 20
54.8206651821
 10
-49.6769375699
 20
54.8326755402
 10
-49.6464028971
 20
54.8434610695
 10
-49.6152619427
 20
54.8530236064
 10
-49.5835750504
 20
54.8613527372
 10
-49.5513425682
 20
54.8684459449
 10
-49.5185646298
 20
54.874305454
 10
-49.4853012754
 20
54.8789279522
 10
-49.4515516209
 20
54.8823112881
 10
-49.4173170136
 20
54.8844573322
 10
-49.3826608524
 20
54.885368799
 10
-49.347582933
 20
54.8850434372
 10
-49.3120838963
 20
54.8834832334
 10
-49.2762284145
 20
54.8806972555
 10
-49.2400169183
 20
54.8766835084
 10
-49.2034493783
 20
54.8714437441
 10
-49.1665897768
 20
54.864992651
 10
-49.1294378335
 20
54.8573282681
 10
-49.0919941867
 20
54.8484523398
 10
-49.0543241924
 20
54.8383851144
 10
-49.0164283087
 20
54.8271249285
 10
-48.9783063857
 20
54.814673259
 10
-48.940022859
 20
54.8010550692
 10
-48.9015771244
 20
54.7862683663
 10
-48.862970039
 20
54.7703149902
 10
-48.824268219
 20
54.7532256598
 10
-48.7854734977
 20
54.7349996602
 10
-48.7465842354
 20
54.7156375893
 10
-48.707661825
 20
54.6951721433
 10
-48.6686994282
 20
54.6735972767
 10
-48.629704014
 20
54.650918956
 10
-48.5907576715
 20
54.627187905
 10
-48.5518877856
 20
54.6024210184
 10
-48.5130670373
 20
54.5766013617
 10
-48.4742954429
 20
54.549728925
  0
LWPOLYLINE
  5
225
100
AcDbEntity
  8
RACCORDO
100
AcDbPolyline
 62
250
  6
CONTINUOUS
 90
46
 70
0
 10
-38.9334838643
 20
39.3312518553
 10
-38.9149669937
 20
39.3507518504
 10
-38.8958579122
 20
39.3697477597
 10
-38.8761785179
 20
39.3882178151
 10
-38.8559513621
 20
39.4061408509
 10
-38.8351996243
 20
39.4234963281
 10
-38.8139470847
 20
39.4402643584
 10
-38.7922180977
 20
39.4564257264
 10
-38.7700375633
 20
39.4719619122
 10
-38.7474308994
 20
39.4868551121
 10
-38.724424012
 20
39.5010882593
 10
-38.7010432657
 20
39.5146450433
 10
-38.6773154535
 20
39.5275099289
 10
-38.6532677663
 20
39.5396681735
 10
-38.6289277615
 20
39.5511058445
 10
-38.6043233313
 20
39.5618098348
 10
-38.5794826711
 20
39.5717678783
 10
-38.5544342469
 20
39.5809685637
 10
-38.529206763
 20
39.5894013473
 10
-38.5038291286
 20
39.5970565658
 10
-38.4783304251
 20
39.6039254465
 10
-38.4527398727
 20
39.6100001182
 10
-38.4270867968
 20
39.6152736196
 10
-38.4014005944
 20
39.6197399075
 10
-38.3757107005
 20
39.6233938638
 10
-38.3500465544
 20
39.6262313013
 10
-38.3244375658
 20
39.6282489684
 10
-38.2989130813
 20
39.6294445529
 10
-38.2735023504
 20
39.6298166849
 10
-38.2482344926
 20
39.6293649377
 10
-38.2231384634
 20
39.6280898292
 10
-38.1982430216
 20
39.6259928205
 10
-38.1735766959
 20
39.6230763146
 10
-38.1491677528
 20
39.6193436538
 10
-38.1250441634
 20
39.6147991154
 10
-38.1012335722
 20
39.6094479073
 10
-38.0777632649
 20
39.6032961616
 10
-38.054660137
 20
39.5963509279
 10
-38.0319506636
 20
39.5886201651
 10
-38.0096608686
 20
39.5801127322
 10
-37.9878162947
 20
39.5708383782
 10
-37.9664419748
 20
39.5608077311
 10
-37.9455624027
 20
39.5500322855
 10
-37.9252015052
 20
39.5385243894
 10
-37.9053826148
 20
39.5262972303
 10
-37.8861284429
 20
39.5133648198
  0
LWPOLYLINE
  5
226
100
AcDbEntity
  8
RACCORDO
100
AcDbPolyline
 62
250
  6
CONTINUOUS
 90
42
 70
0
 10
-38.2325061608
 20
38.6768105062
 10
-38.2171593446
 20
38.6970983472
 10
-38.2012852129
 20
38.7169392329
 10
-38.1848998689
 20
38.7363130268
 10
-38.1680200389
 20
38.7552001381
 10
-38.1506627428
 20
38.7735813265
 10
-38.1328452807
 20
38.7914377243
 10
-38.1145856299
 20
38.8087511417
 10
-38.0959024234
 20
38.8255040816
 10
-38.0768146216
 20
38.8416795443
 10
-38.0573415932
 20
38.8572611155
 10
-38.0375030991
 20
38.8722329849
 10
-38.0173192735
 20
38.886579962
 10
-37.9968105974
 20
38.9002874882
 10
-37.9759978824
 20
38.9133416545
 10
-37.9549022529
 20
38.9257292175
 10
-37.9335451178
 20
38.9374376085
 10
-37.9119481468
 20
38.9484549453
 10
-37.8901332536
 20
38.9587700472
 10
-37.868122574
 20
38.968372447
 10
-37.8459384439
 20
38.977252401
 10
-37.8236033748
 20
38.9854008989
 10
-37.8011400292
 20
38.992809671
 10
-37.7785712033
 20
38.9994712005
 10
-37.7559198039
 20
39.0053787309
 10
-37.7332088164
 20
39.0105262678
 10
-37.7104612863
 20
39.0149085877
 10
-37.6877003008
 20
39.0185212465
 10
-37.664948958
 20
39.0213605792
 10
-37.6422303429
 20
39.0234237038
 10
-37.6195675084
 20
39.0247085264
 10
-37.5969834511
 20
39.0252137431
 10
-37.574501088
 20
39.0249388415
 10
-37.5521432332
 20
39.0238841006
 10
-37.5299325732
 20
39.0220505904
 10
-37.5078916466
 20
39.0194401717
 10
-37.4860428212
 20
39.0160554947
 10
-37.4644082674
 20
39.0118999937
 10
-37.4430099389
 20
39.0069778857
 10
-37.4218695526
 20
39.0012941674
 10
-37.4010085607
 20
38.9948546063
 10
-37.3804481312
 20
38.9876657367
  0
LINE
  5
227
100
AcDbEntity
  8
RACCORDO
100
AcDbLine
 62
250
  6
CONTINUOUS
 10
-37.6287749249
 20
38.941373574
 11
-37.5283724591
 21
39.0194076823
  0
LINE
  5
228
100
AcDbEntity
  8
RACCORDO
100
AcDbLine
 62
250
  6
CONTINUOUS
 10
-37.6578551768
 20
38.9190502569
 11
-37.6287749249
 21
38.941373574
  0
LINE
  5
229
100
AcDbEntity
  8
RACCORDO
100
AcDbLine
 62
250
  6
CONTINUOUS
 10
-37.6814622654
 20
38.9011430388
 11
-37.6578551768
 21
38.9190502569
  0
LINE
  5
22A
100
AcDbEntity
  8
RACCORDO
100
AcDbLine
 62
250
  6
CONTINUOUS
 10
-37.6981634098
 20
38.888615662
 11
-37.6814622654
 21
38.9011430388
  0
LINE
  5
22B
100
AcDbEntity
  8
RACCORDO
100
AcDbLine
 62
250
  6
CONTINUOUS
 10
-37.7157904829
 20
38.8755365615
 11
-37.6981634098
 21
38.888615662
  0
LINE
  5
22C
100
AcDbEntity
  8
RACCORDO
100
AcDbLine
 62
250
  6
CONTINUOUS
 10
-37.7345417657
 20
38.8618142986
 11
-37.7157904829
 21
38.8755365615
  0
LINE
  5
22D
100
AcDbEntity
  8
RACCORDO
100
AcDbLine
 62
250
  6
CONTINUOUS
 10
-37.7543253003
 20
38.8475502388
 11
-37.7345417657
 21
38.8618142986
  0
LWPOLYLINE
  5
22E
100
AcDbEntity
  8
RACCORDO
100
AcDbPolyline
 62
7
  6
CONTINUOUS
 90
50
 70
0
 10
-37.7009785064
 20
39.0072347136
 10
-37.7012600978
 20
39.0071290415
 10
-37.7017920234
 20
39.0069333092
 10
-37.7019220598
 20
39.0068867129
 10
-37.7016509337
 20
39.0069793578
 10
-37.7009713247
 20
39.0072038238
 10
-37.6998813579
 20
39.0075504257
 10
-37.698377239
 20
39.0080097462
 10
-37.6964411005
 20
39.0085760007
 10
-37.6940639488
 20
39.0092397867
 10
-37.6912440375
 20
39.0099890957
 10
-37.6879717008
 20
39.010813477
 10
-37.6842406769
 20
39.0117008508
 10
-37.680052573
 20
39.0126367715
 10
-37.6754115147
 20
39.0136060139
 10
-37.67031693
 20
39.014594151
 10
-37.6647740722
 20
39.0155853285
 10
-37.6588010567
 20
39.0165616433
 10
-37.6524106491
 20
39.0175066704
 10
-37.6456049827
 20
39.0184057063
 10
-37.6383886966
 20
39.0192435279
 10
-37.6307695137
 20
39.0200044637
 10
-37.6227571431
 20
39.0206727889
 10
-37.6143546568
 20
39.021233302
 10
-37.6055673385
 20
39.0216704529
 10
-37.5964106229
 20
39.021968265
 10
-37.5869007048
 20
39.0221112807
 10
-37.5770383689
 20
39.022084453
 10
-37.5668484406
 20
39.0218728676
 10
-37.5563868034
 20
39.0214643343
 10
-37.5456662386
 20
39.0208472314
 10
-37.5347101315
 20
39.0200112516
 10
-37.5235919342
 20
39.0189524083
 10
-37.5122958292
 20
39.0176607031
 10
-37.5008822438
 20
39.0161351981
 10
-37.4895458276
 20
39.0144009093
 10
-37.4783259082
 20
39.012469093
 10
-37.4672369194
 20
39.0103484873
 10
-37.4564411185
 20
39.0080809358
 10
-37.4460334664
 20
39.0057037422
 10
-37.4359639437
 20
39.0032234812
 10
-37.4261743614
 20
39.0006401912
 10
-37.4166905139
 20
38.9979738545
 10
-37.4075185662
 20
38.9952396967
 10
-37.3985718516
 20
38.9924230339
 10
-37.3898569521
 20
38.9895348097
 10
-37.3813980294
 20
38.9865923721
 10
-37.3731398861
 20
38.9835850005
 10
-37.3650926307
 20
38.9805234066
 10
-37.3572807937
 20
38.9774248002
  0
LWPOLYLINE
  5
22F
100
AcDbEntity
  8
RACCORDO
100
AcDbPolyline
 62
7
  6
CONTINUOUS
 90
19
 70
0
 10
-36.5448886088
 20
29.3675739465
 10
-36.6323153704
 20
29.2976615428
 10
-36.7181556721
 20
29.221699635
 10
-36.8024095137
 20
29.1396882232
 10
-36.8859292216
 20
29.0506778592
 10
-36.9678624695
 20
28.9556179911
 10
-37.0456522789
 20
28.8573569635
 10
-37.1188126977
 20
28.7562441429
 10
-37.1878296779
 20
28.6519301629
 10
-37.251604098
 20
28.5462152686
 10
-37.3101108694
 20
28.439082134
 10
-37.3633750807
 20
28.3305480851
 10
-37.4103728751
 20
28.2224653451
 10
-37.4510913976
 20
28.1143179585
 10
-37.4855435034
 20
28.0066218809
 10
-37.5127439013
 20
27.9027772014
 10
-37.532364161
 20
27.8039172832
 10
-37.544732713
 20
27.7089087632
 10
-37.5498495571
 20
27.6177516413
  0
LINE
  5
230
100
AcDbEntity
  8
RACCORDO
100
AcDbLine
 62
7
  6
CONTINUOUS
 10
-36.037834655
 20
29.7526888073
 11
-36.5448886088
 21
29.3675739465
  0
LWPOLYLINE
  5
231
100
AcDbEntity
  8
RACCORDO
100
AcDbPolyline
 62
7
  6
CONTINUOUS
 90
29
 70
0
 10
-36.6132838336
 20
29.7257173589
 10
-36.6042257903
 20
29.732393143
 10
-36.5911845418
 20
29.7425758583
 10
-36.5786803932
 20
29.7530177865
 10
-36.5663518301
 20
29.7640193978
 10
-36.5539966211
 20
29.7758139996
 10
-36.5418847671
 20
29.7882001708
 10
-36.5303627507
 20
29.8008243621
 10
-36.5196575064
 20
29.8133754647
 10
-36.5095273019
 20
29.8260716837
 10
-36.4996240544
 20
29.8393549833
 10
-36.4897644901
 20
29.8535590374
 10
-36.4802272915
 20
29.8683774639
 10
-36.4713517298
 20
29.8832891602
 10
-36.4633048136
 20
29.8979201756
 10
-36.4558778492
 20
29.9125510047
 10
-36.4488396093
 20
29.927630971
 10
-36.4421319368
 20
29.9433674987
 10
-36.4358873976
 20
29.9595400628
 10
-36.4301895958
 20
29.9759733722
 10
-36.4250659166
 20
29.9925979883
 10
-36.4205123098
 20
30.0094358609
 10
-36.4165453124
 20
30.0264384558
 10
-36.4131811528
 20
30.0435311151
 10
-36.4104136669
 20
30.0607362272
 10
-36.4082340625
 20
30.0781515267
 10
-36.4066554744
 20
30.0957934338
 10
-36.4056986231
 20
30.113594514
 10
-36.4053769381
 20
30.1315271884
  0
LINE
  5
232
100
AcDbEntity
  8
RACCORDO
100
AcDbLine
 62
250
  6
CONTINUOUS
 10
-36.8757184203
 20
29.649309731
 11
-36.5708116349
 21
29.8687858156
  0
LINE
  5
233
100
AcDbEntity
  8
RACCORDO
100
AcDbLine
 62
7
  6
CONTINUOUS
 10
-36.9181811499
 20
29.5062480894
 11
-36.6132743645
 21
29.7257241739
  0
LWPOLYLINE
  5
234
100
AcDbEntity
  8
RACCORDO
100
AcDbPolyline
 62
250
  6
CONTINUOUS
 90
25
 70
0
 10
-36.5708116349
 20
29.8687858156
 10
-36.5576294932
 20
29.8774881022
 10
-36.5448997409
 20
29.8865208718
 10
-36.5326389384
 20
29.8958723734
 10
-36.5208630359
 20
29.9055304417
 10
-36.5095873528
 20
29.9154825122
 10
-36.4988265578
 20
29.9257156382
 10
-36.4885946499
 20
29.9362165074
 10
-36.4789049397
 20
29.9469714588
 10
-36.4697700329
 20
29.9579665014
 10
-36.461201813
 20
29.9691873314
 10
-36.4532114267
 20
29.9806193517
 10
-36.4458092687
 20
29.99224769
 10
-36.4390049687
 20
30.004057219
 10
-36.4328073784
 20
30.0160325754
 10
-36.4272245603
 20
30.0281581804
 10
-36.4222637773
 20
30.0404182595
 10
-36.4179314828
 20
30.0527968635
 10
-36.4142333128
 20
30.0652778888
 10
-36.4111740784
 20
30.0778450988
 10
-36.4087577593
 20
30.0904821445
 10
-36.4069874989
 20
30.1031725863
 10
-36.4058656002
 20
30.1158999151
 10
-36.4053935227
 20
30.1286475735
 10
-36.4053769381
 20
30.1315271884
  0
LWPOLYLINE
  5
235
100
AcDbEntity
  8
RACCORDO
100
AcDbPolyline
 62
250
  6
CONTINUOUS
 90
24
 70
0
 10
-38.2340531501
 20
27.4029932442
 10
-38.2208735945
 20
27.4114470315
 10
-38.2081464195
 20
27.4202316213
 10
-38.1958881818
 20
27.4293355855
 10
-38.1841148283
 20
27.4387470808
 10
-38.1728416748
 20
27.448453864
 10
-38.1620833866
 20
27.4584433074
 10
-38.1518539591
 20
27.4687024157
 10
-38.1421666997
 20
27.479217843
 10
-38.1330342106
 20
27.4899759097
 10
-38.1244683722
 20
27.5009626207
 10
-38.1164803278
 20
27.5121636833
 10
-38.1090804691
 20
27.5235645261
 10
-38.1022784225
 20
27.5351503179
 10
-38.0960830368
 20
27.5469059865
 10
-38.0905023715
 20
27.5588162392
 10
-38.0855436866
 20
27.5708655819
 10
-38.0812134327
 20
27.5830383396
 10
-38.0775172432
 20
27.5953186768
 10
-38.0744599263
 20
27.607690618
 10
-38.0720454593
 20
27.6201380686
 10
-38.0702769832
 20
27.6326448358
 10
-38.0691567987
 20
27.6451946494
 10
-38.0687192633
 20
27.6556912049
  0
LWPOLYLINE
  5
236
100
AcDbEntity
  8
0
100
AcDbPolyline
 62
250
  6
CONTINUOUS
 90
32
 70
0
 10
-51.7267578342
 20
8.3085332015
 10
-51.7088405185
 20
8.2331168177
 10
-51.688730894
 20
8.1581944632
 10
-51.6664371799
 20
8.0837967608
 10
-51.6419684884
 20
8.0099541189
 10
-51.6153348205
 20
7.9366967193
 10
-51.5865470622
 20
7.8640545043
 10
-51.5556169798
 20
7.7920571648
 10
-51.5225572154
 20
7.7207341283
 10
-51.4873812813
 20
7.6501145465
 10
-51.4501035552
 20
7.5802272837
 10
-51.4107392733
 20
7.5111009048
 10
-51.3693045251
 20
7.4427636637
 10
-51.3258162461
 20
7.3752434918
 10
-51.2802922112
 20
7.3085679866
 10
-51.2327510274
 20
7.2427644002
 10
-51.1832121261
 20
7.1778596285
 10
-51.1316957553
 20
7.1138801999
 10
-51.0782229713
 20
7.0508522647
 10
-51.0228156298
 20
6.9888015841
 10
-50.9654963775
 20
6.92775352
 10
-50.9062886424
 20
6.8677330247
 10
-50.8452166244
 20
6.80876463
 10
-50.7823052854
 20
6.7508724383
 10
-50.717580339
 20
6.6940801115
 10
-50.6510682401
 20
6.6384108624
 10
-50.5827961743
 20
6.5838874447
 10
-50.5127920462
 20
6.5305321435
 10
-50.4410844686
 20
6.4783667667
 10
-50.3677027503
 20
6.4274126359
 10
-50.2926768847
 20
6.3776905774
 10
-50.2160375369
 20
6.3292209141
  0
LWPOLYLINE
  5
237
100
AcDbEntity
  8
0
100
AcDbPolyline
 62
7
  6
CONTINUOUS
 90
55
 70
0
 10
-51.7387665763
 20
8.365470814
 10
-51.7182378441
 20
8.2661173242
 10
-51.6928313124
 20
8.1515785916
 10
-51.665560951
 20
8.0370287228
 10
-51.6364580419
 20
7.9225818026
 10
-51.6054958082
 20
7.8081176144
 10
-51.572570826
 20
7.6932853915
 10
-51.5376648207
 20
7.5780830709
 10
-51.5007578602
 20
7.4625059866
 10
-51.4617086601
 20
7.3462009627
 10
-51.4204744358
 20
7.2291540684
 10
-51.3770194696
 20
7.111376562
 10
-51.331178464
 20
6.9925519572
 10
-51.2828898868
 20
6.8726722018
 10
-51.2320975948
 20
6.7517480222
 10
-51.1786084284
 20
6.6294858357
 10
-51.1222492353
 20
6.5056863229
 10
-51.0630279863
 20
6.3805617483
 10
-51.0010094411
 20
6.2544151831
 10
-50.9356907607
 20
6.1264210286
 10
-50.8673947393
 20
5.9974112842
 10
-50.7975510892
 20
5.8700950394
 10
-50.7266282036
 20
5.7451615517
 10
-50.6542352768
 20
5.6217756847
 10
-50.5806498045
 20
5.5002958009
 10
-50.5060344753
 20
5.3808607281
 10
-50.4302938724
 20
5.2632012157
 10
-50.3533344063
 20
5.1470853154
 10
-50.2751520898
 20
5.0324390506
 10
-50.19577253
 20
4.9192420015
 10
-50.1151421989
 20
4.8073704281
 10
-50.0332362364
 20
4.6967554153
 10
-49.950073064
 20
4.5873945911
 10
-49.8656623204
 20
4.4792782712
 10
-49.7800005276
 20
4.3723852189
 10
-49.6930676548
 20
4.2666798106
 10
-49.60484582
 20
4.1621365671
 10
-49.5153996113
 20
4.0588300227
 10
-49.424623463
 20
3.9566426043
 10
-49.3322246863
 20
3.8552693295
 10
-49.2381971797
 20
3.7547438853
 10
-49.1424610239
 20
3.6550263766
 10
-49.0445664337
 20
3.5557177454
 10
-48.9440962969
 20
3.4565003346
 10
-48.841310715
 20
3.3577438391
 10
-48.7367575534
 20
3.2600563234
 10
-48.6300489978
 20
3.1631520652
 10
-48.5214319756
 20
3.0673395529
 10
-48.4124722662
 20
2.9740157245
 10
-48.303165322
 20
2.8831367523
 10
-48.1934851777
 20
2.7946462318
 10
-48.0850888536
 20
2.7097923562
 10
-47.9785866004
 20
2.6288901888
 10
-47.8734668811
 20
2.5513947274
 10
-47.7811139464
 20
2.48521119
  0
LWPOLYLINE
  5
238
100
AcDbEntity
  8
0
100
AcDbPolyline
 62
250
  6
CONTINUOUS
 90
49
 70
0
 10
-50.2160375371
 20
6.3292209139
 10
-50.4094854557
 20
7.3262933487
 10
-50.5946896517
 20
8.3234756783
 10
-50.7716500761
 20
9.3207516423
 10
-50.9403670438
 20
10.3181114004
 10
-51.1008402835
 20
11.3155321936
 10
-51.2530692233
 20
12.3129781206
 10
-51.3970514749
 20
13.310412513
 10
-51.5327905957
 20
14.3078386323
 10
-51.6602948192
 20
15.3052805765
 10
-51.779565579
 20
16.3027296191
 10
-51.8906018493
 20
17.3001617401
 10
-51.9934076032
 20
18.2975785512
 10
-52.0879832192
 20
19.2949640992
 10
-52.1743287748
 20
20.2923016073
 10
-52.2524474979
 20
21.2895916855
 10
-52.3223395162
 20
22.2868132445
 10
-52.38400521
 20
23.2839546493
 10
-52.4374477235
 20
24.2810310445
 10
-52.4826676021
 20
25.2780324173
 10
-52.519664372
 20
26.2749364084
 10
-52.5484392228
 20
27.2717399603
 10
-52.5689923369
 20
28.2684230203
 10
-52.5813237673
 20
29.264973168
 10
-52.585434156
 20
30.2613990513
 10
-52.5813237643
 20
31.2576848178
 10
-52.5689923292
 20
32.2538140235
 10
-52.5484392107
 20
33.2497947784
 10
-52.5196643597
 20
34.2456150354
 10
-52.482667593
 20
35.2412546995
 10
-52.4374477167
 20
36.2367100511
 10
-52.3840052015
 20
37.2319592527
 10
-52.3223395033
 20
38.2269918725
 10
-52.2524474804
 20
39.2218215845
 10
-52.1743287518
 20
40.2164375294
 10
-52.0879831905
 20
41.2108185606
 10
-51.993407574
 20
42.2049632224
 10
-51.8906018326
 20
43.1988552654
 10
-51.7795655819
 20
44.1924788524
 10
-51.660294832
 20
45.1858333283
 10
-51.5327905941
 20
46.1788956393
 10
-51.3970514463
 20
47.1716566712
 10
-51.253069179
 20
48.1641370302
 10
-51.1008402518
 20
49.1563406868
 10
-50.9403670389
 20
50.1482319152
 10
-50.7716500909
 20
51.1397718326
 10
-50.5946896706
 20
52.1309365733
 10
-50.4094854699
 20
53.1217174665
 10
-50.2160375371
 20
54.1120981831
  0
LWPOLYLINE
  5
239
100
AcDbEntity
  8
RACCORDO
100
AcDbPolyline
 62
250
  6
CONTINUOUS
 90
19
 70
0
 10
-39.5545916762
 20
45.3129364666
 10
-39.5473925376
 20
45.0480460744
 10
-39.5386265041
 20
44.7850659513
 10
-39.5283427485
 20
44.5240066756
 10
-39.5165541864
 20
44.2645613962
 10
-39.5033350975
 20
44.0070929985
 10
-39.4888428602
 20
43.7525990837
 10
-39.4731432309
 20
43.5011428108
 10
-39.4562907706
 20
43.2527069684
 10
-39.4384573608
 20
43.0081303299
 10
-39.4197169637
 20
42.7674556029
 10
-39.4001319787
 20
42.5306573654
 10
-39.3798773872
 20
42.2984331391
 10
-39.3590343952
 20
42.070830526
 10
-39.3376681006
 20
41.847794048
 10
-39.3159392046
 20
41.6298288998
 10
-39.2939510452
 20
41.4170838644
 10
-39.2717508679
 20
41.2093798391
 10
-39.2494110661
 20
41.0067064288
  0
LWPOLYLINE
  5
23A
100
AcDbEntity
  8
RACCORDO
100
AcDbPolyline
 62
7
  6
CONTINUOUS
 90
64
 70
0
 10
-38.0687191458
 20
27.6556970574
 10
-38.0684203775
 20
27.667035167
 10
-38.0674979177
 20
27.688169454
 10
-38.066060994
 20
27.7101363062
 10
-38.0640841786
 20
27.7329314484
 10
-38.0615446218
 20
27.7565330399
 10
-38.0584236099
 20
27.7809020109
 10
-38.054701424
 20
27.806023341
 10
-38.0503595384
 20
27.8318803555
 10
-38.0453855203
 20
27.8584304383
 10
-38.0397647331
 20
27.8856534892
 10
-38.0334831859
 20
27.9135305856
 10
-38.0265334735
 20
27.9420205631
 10
-38.0189055639
 20
27.9711003387
 10
-38.0105895913
 20
28.0007492398
 10
-38.0015816884
 20
28.0309298058
 10
-37.9918754979
 20
28.0616178582
 10
-37.9814651338
 20
28.0927900239
 10
-37.9703500458
 20
28.1244104041
 10
-37.9585272783
 20
28.1564537041
 10
-37.9459945331
 20
28.1888947
 10
-37.9327544838
 20
28.2216979904
 10
-37.9188064557
 20
28.2548393912
 10
-37.9041523282
 20
28.2882901412
 10
-37.8888009947
 20
28.3220082615
 10
-37.8727557136
 20
28.3559673236
 10
-37.8560214052
 20
28.3901387639
 10
-37.8386121824
 20
28.4244776834
 10
-37.8205353275
 20
28.4589557498
 10
-37.8017985933
 20
28.4935450428
 10
-37.7824194273
 20
28.5282017514
 10
-37.7624083138
 20
28.5628972152
 10
-37.7417760453
 20
28.5976034607
 10
-37.7205428463
 20
28.6322783921
 10
-37.6987221577
 20
28.6668933512
 10
-37.676327448
 20
28.7014207904
 10
-37.6533809694
 20
28.7358211311
 10
-37.6298984372
 20
28.7700666229
 10
-37.6058960092
 20
28.8041299573
 10
-37.5813983244
 20
28.8379731954
 10
-37.5564231835
 20
28.8715696812
 10
-37.5309890869
 20
28.9048928561
 10
-37.5051232939
 20
28.9379060291
 10
-37.4788453148
 20
28.9705841193
 10
-37.4521758643
 20
29.0029015458
 10
-37.4251455113
 20
29.0348221388
 10
-37.3977757705
 20
29.0663221427
 10
-37.3700888219
 20
29.0973780201
 10
-37.3421176766
 20
29.1279553857
 10
-37.3138853437
 20
29.1580324654
 10
-37.2854154149
 20
29.1875878389
 10
-37.2567431399
 20
29.2165892687
 10
-37.227892695
 20
29.2450173629
 10
-37.1988887284
 20
29.2728532321
 10
-37.1697684787
 20
29.3000671855
 10
-37.1405573494
 20
29.3266422398
 10
-37.1112805713
 20
29.3525625652
 10
-37.0819763422
 20
29.3778021065
 10
-37.0526702122
 20
29.4023472704
 10
-37.0233876273
 20
29.4261854965
 10
-36.9941677572
 20
29.4492943223
 10
-36.9650411654
 20
29.4716598462
 10
-36.9360304303
 20
29.4932754882
 10
-36.9181822772
 20
29.5062472312
  0
LWPOLYLINE
  5
23B
100
AcDbEntity
  8
RACCORDO
100
AcDbPolyline
 62
250
  6
CONTINUOUS
 90
61
 70
0
 10
-38.2340531245
 20
27.4029932241
 10
-38.2329271256
 20
27.4379238872
 10
-38.2309215556
 20
27.473397311
 10
-38.2280364143
 20
27.5094134957
 10
-38.224271292
 20
27.5460020953
 10
-38.2196265985
 20
27.5831334557
 10
-38.2141035634
 20
27.6207186143
 10
-38.2076982927
 20
27.6587586058
 10
-38.2004146803
 20
27.6972523954
 10
-38.1922656382
 20
27.736107916
 10
-38.1832475497
 20
27.7753261057
 10
-38.1733640314
 20
27.8149060263
 10
-38.1626388447
 20
27.8547527969
 10
-38.1510715133
 20
27.8948596325
 10
-38.1386625134
 20
27.935233318
 10
-38.1254370352
 20
27.975799327
 10
-38.1113962779
 20
28.0165517134
 10
-38.0965390423
 20
28.0574964232
 10
-38.0808869212
 20
28.0985767687
 10
-38.0644382632
 20
28.1397958428
 10
-38.0471947196
 20
28.1811505525
 10
-38.029182837
 20
28.222574931
 10
-38.0103991013
 20
28.264074002
 10
-37.9908470265
 20
28.3056427418
 10
-37.9705637021
 20
28.347200113
 10
-37.9495477036
 20
28.3887454898
 10
-37.9278004554
 20
28.4302794979
 10
-37.9053633201
 20
28.4717229771
 10
-37.8822365587
 20
28.5130729562
 10
-37.8584199102
 20
28.5543324065
 10
-37.833953954
 20
28.5954310814
 10
-37.8088377963
 20
28.6363686829
 10
-37.783072331
 20
28.677145509
 10
-37.756700819
 20
28.7176922079
 10
-37.7297203646
 20
28.7580110709
 10
-37.7021338636
 20
28.7980998066
 10
-37.6739932645
 20
28.8378821893
 10
-37.6452966543
 20
28.8773583468
 10
-37.6160459461
 20
28.9165281512
 10
-37.5862988274
 20
28.9553149939
 10
-37.5560576928
 20
28.9937139291
 10
-37.5253201477
 20
29.0317299026
 10
-37.4941366966
 20
29.0693011424
 10
-37.4625094907
 20
29.1064244143
 10
-37.4304363789
 20
29.1431029527
 10
-37.3979614118
 20
29.1792846882
 10
-37.3650796659
 20
29.2149740643
 10
-37.3317960647
 20
29.2501666375
 10
-37.2981694302
 20
29.284797009
 10
-37.2641922839
 20
29.3188700633
 10
-37.2298721043
 20
29.3523809158
 10
-37.1952901479
 20
29.385249514
 10
-37.1604444027
 20
29.4174739325
 10
-37.1253368808
 20
29.4490560967
 10
-37.0900548743
 20
29.4799217295
 10
-37.0545961781
 20
29.5100686678
 10
-37.0189629974
 20
29.5394990748
 10
-36.9832492405
 20
29.5681451633
 10
-36.94748621
 20
29.5959843377
 10
-36.9116426033
 20
29.6230391936
 10
-36.8757184203
 20
29.649309731
  0
LWPOLYLINE
  5
23C
100
AcDbEntity
  8
RACCORDO
100
AcDbPolyline
 62
250
  6
CONTINUOUS
 90
34
 70
0
 10
-38.9334838779
 20
39.3312518648
 10
-39.0068625639
 20
38.2501898585
 10
-39.0756685193
 20
37.1717876798
 10
-39.1399017439
 20
36.0960453285
 10
-39.1995633199
 20
35.022942283
 10
-39.2546521651
 20
33.9524990651
 10
-39.3051650338
 20
32.8847772397
 10
-39.3511015668
 20
31.8197786761
 10
-39.3924621233
 20
30.7575015051
 10
-39.4292445346
 20
29.6980016844
 10
-39.4614485623
 20
28.6412793609
 10
-39.4890744447
 20
27.5873343877
 10
-39.5121207288
 20
26.5362222821
 10
-39.5305871758
 20
25.4879431779
 10
-39.5444740244
 20
24.4424969414
 10
-39.5537805367
 20
23.3999386885
 10
-39.558506471
 20
22.3602684191
 10
-39.558652069
 20
21.3234861333
 10
-39.5542173192
 20
20.2896469477
 10
-39.5452019776
 20
19.2587511146
 10
-39.5316062882
 20
18.2307983817
 10
-39.5134309711
 20
17.2058431088
 10
-39.4906757875
 20
16.1838855231
 10
-39.4633409763
 20
15.1649253974
 10
-39.4314279742
 20
14.1490164093
 10
-39.3949365429
 20
13.1361587161
 10
-39.3538669208
 20
12.1263521605
 10
-39.3082212604
 20
11.1196499478
 10
-39.2579991992
 20
10.1160506101
 10
-39.2032010998
 20
9.1155556154
 10
-39.1438302026
 20
8.1182225726
 10
-39.0798875876
 20
7.1240706849
 10
-39.0113721749
 20
6.1330807493
 10
-38.9382839642
 20
5.1452527656
  0
LWPOLYLINE
  5
23D
100
AcDbEntity
  8
RACCORDO
100
AcDbPolyline
 62
250
  6
CONTINUOUS
 90
13
 70
0
 10
-39.3921051182
 20
2.7260348777
 10
-39.4126083764
 20
2.4810689504
 10
-39.4321910321
 20
2.235043219
 10
-39.4507690967
 20
1.9879851776
 10
-39.4682980153
 20
1.739630355
 10
-39.484641471
 20
1.4903064841
 10
-39.4995873714
 20
1.2409027983
 10
-39.5130637847
 20
0.9914020104
 10
-39.5249878818
 20
0.7418453166
 10
-39.5351710643
 20
0.4931562405
 10
-39.5435215823
 20
0.2456249352
 10
-39.5500168111
 20
-0.0010676412
 10
-39.5545916508
 20
-0.2469367726
  0
LWPOLYLINE
  5
23E
100
AcDbEntity
  8
RACCORDO
100
AcDbPolyline
 62
250
  6
CONTINUOUS
 90
46
 70
0
 10
-39.5545917584
 20
45.3129355673
 10
-39.6506175859
 20
44.2420188278
 10
-39.7422894441
 20
43.1735096657
 10
-39.8296058757
 20
42.1074260647
 10
-39.9125655571
 20
41.0437860226
 10
-39.9911671057
 20
39.9826073789
 10
-40.0654090797
 20
38.9239078151
 10
-40.135290289
 20
37.8677051321
 10
-40.2008096338
 20
36.8140171025
 10
-40.2619659113
 20
35.7628612996
 10
-40.3187581387
 20
34.7142553997
 10
-40.3711854258
 20
33.6682170307
 10
-40.4192468122
 20
32.6247636256
 10
-40.4629415237
 20
31.583912724
 10
-40.5022688778
 20
30.5456818164
 10
-40.5372281552
 20
29.5100881941
 10
-40.5678187898
 20
28.4771492491
 10
-40.5940403069
 20
27.4468823407
 10
-40.6158922268
 20
26.4193046419
 10
-40.6333741914
 20
25.3944333973
 10
-40.6464859339
 20
24.3722858296
 10
-40.6552272143
 20
23.3528790087
 10
-40.6595978824
 20
22.336230037
 10
-40.65959788
 20
21.32235599
 10
-40.6552272069
 20
20.3112738248
 10
-40.6464859217
 20
19.3030005032
 10
-40.6333741743
 20
18.2975529465
 10
-40.6158922047
 20
17.2949479774
 10
-40.5940402799
 20
16.2952024107
 10
-40.567818758
 20
15.2983330149
 10
-40.5372281185
 20
14.3043564694
 10
-40.5022688361
 20
13.3132894315
 10
-40.4629414772
 20
12.3251485229
 10
-40.4192467608
 20
11.3399502943
 10
-40.3711853695
 20
10.3577112405
 10
-40.3187580776
 20
9.3784478366
 10
-40.2619658454
 20
8.4021765262
 10
-40.200809563
 20
7.4289136467
 10
-40.1352902133
 20
6.4586755159
 10
-40.0654089991
 20
5.4914784691
 10
-39.991167017
 20
4.5273386542
 10
-39.9125654599
 20
3.5662722585
 10
-39.8296057804
 20
2.6082955956
 10
-39.7422893661
 20
1.653424772
 10
-39.6506175391
 20
0.7016756885
 10
-39.5545917581
 20
-0.2469357334
  0
LWPOLYLINE
  5
23F
100
AcDbEntity
  8
RACCORDO
100
AcDbPolyline
 62
250
  6
CONTINUOUS
 90
14
 70
0
 10
-39.1873693526
 20
3.9918135106
 10
-39.207522408
 20
3.8949515248
 10
-39.2276389944
 20
3.7961181789
 10
-39.2475577005
 20
3.6955825861
 10
-39.2669560289
 20
3.5944422415
 10
-39.2857817957
 20
3.4924113154
 10
-39.3038761252
 20
3.3896922444
 10
-39.3208250884
 20
3.2880666853
 10
-39.3366164155
 20
3.1871164534
 10
-39.3511167545
 20
3.0870991147
 10
-39.3638936398
 20
2.9907747047
 10
-39.3748840615
 20
2.8990066209
 10
-39.3842680426
 20
2.8107779556
 10
-39.3921051124
 20
2.7260349117
  0
LINE
  5
240
100
AcDbEntity
  8
RACCORDO
100
AcDbLine
 62
250
  6
CONTINUOUS
 10
-38.9382838403
 20
5.1452526519
 11
-38.9681439354
 21
5.0021314146
  0
LINE
  5
241
100
AcDbEntity
  8
RACCORDO
100
AcDbLine
 62
250
  6
CONTINUOUS
 10
-39.1472231355
 20
4.1800975418
 11
-39.1873693526
 21
3.9918135106
  0
LINE
  5
242
100
AcDbEntity
  8
RACCORDO
100
AcDbLine
 62
250
  6
CONTINUOUS
 10
-38.9681439354
 20
5.0021314146
 11
-39.0002128918
 21
4.8522218162
  0
LINE
  5
243
100
AcDbEntity
  8
RACCORDO
100
AcDbLine
 62
250
  6
CONTINUOUS
 10
-39.0002128918
 20
4.8522218162
 11
-39.0521005064
 21
4.6144773828
  0
LINE
  5
244
100
AcDbEntity
  8
RACCORDO
100
AcDbLine
 62
250
  6
CONTINUOUS
 10
-39.0521005064
 20
4.6144773828
 11
-39.1472231355
 21
4.1800975418
  0
LWPOLYLINE
  5
245
100
AcDbEntity
  8
RACCORDO
100
AcDbPolyline
 62
250
  6
CONTINUOUS
 90
13
 70
0
 10
-38.9302164296
 20
2.4966783748
 10
-38.9928173555
 20
2.2618653495
 10
-39.0541043223
 20
2.0275309748
 10
-39.1139732077
 20
1.7937843791
 10
-39.1725023573
 20
1.5605566831
 10
-39.2293954283
 20
1.3281495446
 10
-39.284020378
 20
1.0972078637
 10
-39.336329509
 20
0.8678238139
 10
-39.3862281965
 20
0.6400986218
 10
-39.4330873972
 20
0.4146405498
 10
-39.476693297
 20
0.1916873976
 10
-39.5172049266
 20
-0.0288621185
 10
-39.5545915083
 20
-0.24693591
  0
LWPOLYLINE
  5
246
100
AcDbEntity
  8
RACCORDO
100
AcDbPolyline
 62
250
  6
CONTINUOUS
 90
19
 70
0
 10
-36.5708116349
 20
29.8687858156
 10
-36.569885465
 20
29.8573520608
 10
-36.5693694421
 20
29.8462506809
 10
-36.5692645219
 20
29.8354955277
 10
-36.5695711985
 20
29.8250992345
 10
-36.5702894458
 20
29.8150756972
 10
-36.5714183897
 20
29.8054397544
 10
-36.5729565508
 20
29.7962038956
 10
-36.5749021408
 20
29.7873787603
 10
-36.5772527475
 20
29.7789753785
 10
-36.5800054652
 20
29.7710041238
 10
-36.5831569425
 20
29.7634746873
 10
-36.5867033403
 20
29.7563962615
 10
-36.5906403413
 20
29.7497775002
 10
-36.5949631127
 20
29.7436265615
 10
-36.59966632
 20
29.7379510447
 10
-36.6047441739
 20
29.732757925
 10
-36.610190469
 20
29.7280535385
 10
-36.6132743645
 20
29.7257241739
  0
LWPOLYLINE
  5
247
100
AcDbEntity
  8
RACCORDO
100
AcDbPolyline
 62
250
  6
CONTINUOUS
 90
18
 70
0
 10
-36.8757184203
 20
29.649309731
 10
-36.8747409764
 20
29.6370588381
 10
-36.8742355485
 20
29.6251947834
 10
-36.8742028476
 20
29.6137342564
 10
-36.8746429197
 20
29.6026933787
 10
-36.8755551457
 20
29.592087682
 10
-36.8769382425
 20
29.5819320855
 10
-36.8787902643
 20
29.5722408753
 10
-36.8811086059
 20
29.5630276843
 10
-36.883890006
 20
29.5543054729
 10
-36.8871305519
 20
29.5460865109
 10
-36.8908256852
 20
29.5383823599
 10
-36.8949702077
 20
29.5312038578
 10
-36.8995582893
 20
29.5245611025
 10
-36.9045834758
 20
29.5184634388
 10
-36.9100386981
 20
29.5129194442
 10
-36.9159162823
 20
29.5079369176
 10
-36.9181811499
 20
29.5062480894
  0
LWPOLYLINE
  5
248
100
AcDbEntity
  8
RACCORDO
100
AcDbPolyline
 62
250
  6
CONTINUOUS
 90
40
 70
0
 10
-37.3574919921
 20
7.2788093132
 10
-37.3568613985
 20
7.2704649496
 10
-37.3559073589
 20
7.2618792639
 10
-37.3546314152
 20
7.2530661334
 10
-37.3530356299
 20
7.2440398035
 10
-37.3511225823
 20
7.2348148636
 10
-37.3488953646
 20
7.2254062248
 10
-37.3463575768
 20
7.2158290945
 10
-37.3435133208
 20
7.2060989528
 10
-37.3403671939
 20
7.1962315272
 10
-37.3369242813
 20
7.1862427667
 10
-37.3331901482
 20
7.1761488168
 10
-37.32917083
 20
7.1659659929
 10
-37.3248728235
 20
7.1557107539
 10
-37.3203030757
 20
7.145399676
 10
-37.3154689731
 20
7.1350494255
 10
-37.3103783291
 20
7.1246767321
 10
-37.305039372
 20
7.1142983617
 10
-37.2994607316
 20
7.1039310893
 10
-37.2936514248
 20
7.0935916723
 10
-37.2876208415
 20
7.0832968226
 10
-37.2813787293
 20
7.0730631805
 10
-37.2749351777
 20
7.0629072871
 10
-37.2683006017
 20
7.0528455579
 10
-37.261485725
 20
7.0428942561
 10
-37.254501563
 20
7.0330694667
 10
-37.2473594045
 20
7.02338707
 10
-37.2400707938
 20
7.013862716
 10
-37.2326475118
 20
7.0045117996
 10
-37.2251015572
 20
6.9953494351
 10
-37.2174451269
 20
6.9863904321
 10
-37.2096905964
 20
6.9776492716
 10
-37.2018504997
 20
6.9691400822
 10
-37.1939375092
 20
6.960876618
 10
-37.1859644151
 20
6.9528722355
 10
-37.1779441047
 20
6.9451398727
 10
-37.1698895416
 20
6.9376920277
 10
-37.161813745
 20
6.930540739
 10
-37.153729768
 20
6.9236975655
 10
-37.1456506773
 20
6.9171735682
  0
LWPOLYLINE
  5
249
100
AcDbEntity
  8
RACCORDO
100
AcDbPolyline
 62
7
  6
CONTINUOUS
 90
9
 70
0
 10
-37.5498495571
 20
18.3648948152
 10
-37.544732713
 20
18.2809740037
 10
-37.532364161
 20
18.2034572576
 10
-37.5127439013
 20
18.1323445768
 10
-37.4855435034
 20
18.066967069
 10
-37.4510913976
 20
18.0079936265
 10
-37.4103728751
 20
17.9574309267
 10
-37.3633750807
 20
17.915813105
 10
-37.3553945493
 20
17.9100280349
  0
LWPOLYLINE
  5
24A
100
AcDbEntity
  8
RACCORDO
100
AcDbPolyline
 62
250
  6
CONTINUOUS
 90
10
 70
0
 10
-38.2340531245
 20
17.9014613414
 10
-38.2531494378
 20
18.9450091534
 10
-38.2674716732
 20
19.9916063375
 10
-38.2770198306
 20
21.0412528935
 10
-38.2817939104
 20
22.0939553333
 10
-38.2817939123
 20
23.1497071451
 10
-38.2770198348
 20
24.2084887936
 10
-38.2674716774
 20
25.2702937671
 10
-38.2531494406
 20
26.3351285772
 10
-38.2340531245
 20
27.4029932241
  0
LWPOLYLINE
  5
24B
100
AcDbEntity
  8
RACCORDO
100
AcDbPolyline
 62
7
  6
CONTINUOUS
 90
10
 70
0
 10
-38.0687246724
 20
18.1745096799
 10
-38.0876364702
 20
19.2068235195
 10
-38.1019952774
 20
20.2535051264
 10
-38.1115687519
 20
21.3032978675
 10
-38.1163565171
 20
22.3561796546
 10
-38.1163584168
 20
23.4121318484
 10
-38.1115743411
 20
24.4711371004
 10
-38.1020042266
 20
25.533176708
 10
-38.0876482305
 20
26.5982282341
 10
-38.0687193075
 20
27.6556912058
  0
LWPOLYLINE
  5
24C
100
AcDbEntity
  8
RACCORDO
100
AcDbPolyline
 62
7
  6
CONTINUOUS
 90
10
 70
0
 10
-37.5498495571
 20
18.3648948152
 10
-37.5670820271
 20
19.3807333862
 10
-37.5800063796
 20
20.399653974
 10
-37.5886226146
 20
21.4216565787
 10
-37.5929307321
 20
22.4467650122
 10
-37.5929307321
 20
23.4749554624
 10
-37.5886226146
 20
24.506156494
 10
-37.5800063796
 20
25.5403442951
 10
-37.5670820271
 20
26.5775426775
 10
-37.5498495571
 20
27.6177516413
  0
LINE
  5
24D
100
AcDbEntity
  8
RACCORDO
100
AcDbLine
 62
250
  6
CONTINUOUS
 10
-36.5708116349
 20
7.8188494744
 11
-36.5708116349
 21
17.5535799391
  0
LINE
  5
24E
100
AcDbEntity
  8
RACCORDO
100
AcDbLine
 62
250
  6
CONTINUOUS
 10
-36.5708116349
 20
29.8687858156
 11
-36.5708116349
 21
38.4336520606
  0
LINE
  5
24F
100
AcDbEntity
  8
RACCORDO
100
AcDbLine
 62
7
  6
CONTINUOUS
 10
-36.4053765587
 20
8.0813467812
 11
-36.4053769381
 21
17.8163213118
  0
LINE
  5
250
100
AcDbEntity
  8
RACCORDO
100
AcDbLine
 62
7
  6
CONTINUOUS
 10
-36.4053769381
 20
30.1315271884
 11
-36.4053769381
 21
38.3166720646
  0
LINE
  5
251
100
AcDbEntity
  8
DRAFT
100
AcDbLine
 62
7
  6
CONTINUOUS
 10
-36.037834655
 20
29.7526888073
 11
-36.037834655
 21
18.3682696302
  0
LWPOLYLINE
  5
252
100
AcDbEntity
  8
RACCORDO
100
AcDbPolyline
 62
250
  6
CONTINUOUS
 90
25
 70
0
 10
-36.4053769381
 20
17.8163213118
 10
-36.4053935227
 20
17.813441697
 10
-36.4058656002
 20
17.8006940385
 10
-36.4069874989
 20
17.7879667098
 10
-36.4087577593
 20
17.775276268
 10
-36.4111740784
 20
17.7626392223
 10
-36.4142333128
 20
17.7500720123
 10
-36.4179314828
 20
17.7375909869
 10
-36.4222637773
 20
17.7252123829
 10
-36.4272245603
 20
17.7129523038
 10
-36.4328073784
 20
17.7008266989
 10
-36.4390049687
 20
17.6888513425
 10
-36.4458092687
 20
17.6770418135
 10
-36.4532114267
 20
17.6654134752
 10
-36.461201813
 20
17.6539814549
 10
-36.4697700329
 20
17.6427606248
 10
-36.4789049397
 20
17.6317655823
 10
-36.4885946499
 20
17.6210106308
 10
-36.4988265578
 20
17.6105097617
 10
-36.5095873528
 20
17.6002766357
 10
-36.5208630359
 20
17.5903245651
 10
-36.5326389384
 20
17.5806664969
 10
-36.5448997409
 20
17.5713149952
 10
-36.5576294932
 20
17.5622822257
 10
-36.5708116349
 20
17.5535799391
  0
LWPOLYLINE
  5
253
100
AcDbEntity
  8
RACCORDO
100
AcDbPolyline
 62
250
  6
CONTINUOUS
 90
30
 70
0
 10
-36.8757184203
 20
17.3847988183
 10
-36.8747409763
 20
17.3989636079
 10
-36.8742355484
 20
17.4134780761
 10
-36.8742028476
 20
17.428321805
 10
-36.87464292
 20
17.4434739137
 10
-36.8755551464
 20
17.4589130871
 10
-36.8769382436
 20
17.4746176068
 10
-36.8787902659
 20
17.4905653807
 10
-36.8811086081
 20
17.5067339748
 10
-36.8838900089
 20
17.5231006442
 10
-36.8871305555
 20
17.5396423656
 10
-36.8908256894
 20
17.5563358694
 10
-36.8949702127
 20
17.5731576723
 10
-36.8995582949
 20
17.5900841108
 10
-36.9045834821
 20
17.607091374
 10
-36.9100387052
 20
17.6241555374
 10
-36.91591629
 20
17.6412525965
 10
-36.9222079685
 20
17.6583585003
 10
-36.9289048901
 20
17.6754491857
 10
-36.935997634
 20
17.6925006106
 10
-36.9434762226
 20
17.7094887886
 10
-36.9513301356
 20
17.7263898219
 10
-36.9595483248
 20
17.7431799354
 10
-36.9681192294
 20
17.7598355102
 10
-36.9770307926
 20
17.7763331163
 10
-36.9862704781
 20
17.7926495462
 10
-36.9958252884
 20
17.8087618473
 10
-37.0056817824
 20
17.824647354
 10
-37.0158260947
 20
17.8402837197
 10
-37.017396709
 20
17.8426002075
  0
LWPOLYLINE
  5
254
100
AcDbEntity
  8
RACCORDO
100
AcDbPolyline
 62
250
  6
CONTINUOUS
 90
28
 70
0
 10
-36.5708116349
 20
17.5535799391
 10
-36.569885465
 20
17.5667747812
 10
-36.5693694421
 20
17.580278356
 10
-36.5692645219
 20
17.5940743778
 10
-36.5695711985
 20
17.6081473113
 10
-36.5702894458
 20
17.6224790397
 10
-36.5714183896
 20
17.6370486884
 10
-36.5729565508
 20
17.6518373441
 10
-36.5749021407
 20
17.6668279409
 10
-36.5772527474
 20
17.6820017783
 10
-36.580005465
 20
17.6973401171
 10
-36.5831569422
 20
17.7128243015
 10
-36.58670334
 20
17.7284354427
 10
-36.5906403411
 20
17.7441544888
 10
-36.5949631126
 20
17.7599621003
 10
-36.5996663202
 20
17.7758387584
 10
-36.6047441744
 20
17.7917649343
 10
-36.6101904697
 20
17.8077211786
 10
-36.6159985534
 20
17.823687999
 10
-36.6221613225
 20
17.8396458598
 10
-36.6286712148
 20
17.85557517
 10
-36.6355202386
 20
17.8714563715
 10
-36.642699993
 20
17.8872699856
 10
-36.6502016847
 20
17.9029966459
 10
-36.6580161242
 20
17.9186170866
 10
-36.6661337373
 20
17.9341121677
 10
-36.6745445731
 20
17.9494628934
 10
-36.6792715368
 20
17.957720667
  0
LWPOLYLINE
  5
255
100
AcDbEntity
  8
RACCORDO
100
AcDbPolyline
 62
250
  6
CONTINUOUS
 90
10
 70
0
 10
-37.9291961326
 20
4.7499441489
 10
-37.9613527546
 20
4.6727801195
 10
-37.9948087005
 20
4.5944568779
 10
-38.0294519107
 20
4.5150460247
 10
-38.0652675239
 20
4.4345290932
 10
-38.1023316285
 20
4.3527993266
 10
-38.1405730444
 20
4.2699077447
 10
-38.1799098493
 20
4.1858752552
 10
-38.2203853547
 20
4.1005581096
 10
-38.2619403066
 20
4.0139920746
  0
LWPOLYLINE
  5
256
100
AcDbEntity
  8
RACCORDO
100
AcDbPolyline
 62
250
  6
CONTINUOUS
 90
11
 70
0
 10
-38.5732839034
 20
3.3752154658
 10
-38.6179430973
 20
3.2810737312
 10
-38.661819101
 20
3.1868800397
 10
-38.7046937827
 20
3.0928681984
 10
-38.7453117579
 20
3.0003111196
 10
-38.7838070937
 20
2.9088970003
 10
-38.820101737
 20
2.818968492
 10
-38.8528497116
 20
2.7326524369
 10
-38.8817736018
 20
2.6505729955
 10
-38.9075104053
 20
2.5719405724
 10
-38.9302164296
 20
2.4966783748
  0
LINE
  5
257
100
AcDbEntity
  8
RACCORDO
100
AcDbLine
 62
250
  6
CONTINUOUS
 10
-38.4822320202
 20
3.5628707503
 11
-38.5732839034
 21
3.3752154658
  0
LINE
  5
258
100
AcDbEntity
  8
RACCORDO
100
AcDbLine
 62
250
  6
CONTINUOUS
 10
-38.2619403066
 20
4.0139920746
 11
-38.3478373117
 21
3.8372011404
  0
LINE
  5
259
100
AcDbEntity
  8
RACCORDO
100
AcDbLine
 62
250
  6
CONTINUOUS
 10
-38.3478373117
 20
3.8372011404
 11
-38.4822320202
 21
3.5628707503
  0
LWPOLYLINE
  5
25A
100
AcDbEntity
  8
RACCORDO
100
AcDbPolyline
 62
250
  6
CONTINUOUS
 90
13
 70
0
 10
-38.2281003685
 20
6.6507362684
 10
-38.2957042747
 20
6.5252753961
 10
-38.3618051102
 20
6.3997558398
 10
-38.426402875
 20
6.2741775996
 10
-38.4895152204
 20
6.1485042286
 10
-38.5511244951
 20
6.0227721737
 10
-38.6111777452
 20
5.8970907755
 10
-38.6696732772
 20
5.7714606326
 10
-38.7266127846
 20
5.6458811464
 10
-38.7819483943
 20
5.5204598621
 10
-38.8356641487
 20
5.3952326281
 10
-38.8877760053
 20
5.2701635959
 10
-38.9382839642
 20
5.1452527656
  0
LWPOLYLINE
  5
25B
100
AcDbEntity
  8
RACCORDO
100
AcDbPolyline
 62
250
  6
CONTINUOUS
 90
16
 70
0
 10
-37.2495633951
 20
6.1922732092
 10
-37.2990596085
 20
6.1012572587
 10
-37.3476996678
 20
6.0101577387
 10
-37.3954753322
 20
5.9189914155
 10
-37.4423792442
 20
5.8277748123
 10
-37.4884027149
 20
5.7365249488
 10
-37.5335357772
 20
5.6452593376
 10
-37.5777707054
 20
5.5539949362
 10
-37.6211001986
 20
5.4627483039
 10
-37.6635152357
 20
5.3715363386
 10
-37.7050086243
 20
5.2803758931
 10
-37.7455735287
 20
5.1892835381
 10
-37.7852017471
 20
5.0982757146
 10
-37.8238862086
 20
5.0073689932
 10
-37.8616209558
 20
4.9165800736
 10
-37.9291961326
 20
4.7499441489
  0
LWPOLYLINE
  5
25C
100
AcDbEntity
  8
RACCORDO
100
AcDbPolyline
 62
250
  6
CONTINUOUS
 90
25
 70
0
 10
-38.2340531245
 20
17.9014613414
 10
-38.2208735724
 20
17.910408821
 10
-38.2081464011
 20
17.9196864605
 10
-38.195888167
 20
17.9292821908
 10
-38.1841148171
 20
17.9391835287
 10
-38.1728416672
 20
17.9493775937
 10
-38.1620833825
 20
17.9598511242
 10
-38.1518539585
 20
17.9705904953
 10
-38.1421667025
 20
17.9815817363
 10
-38.1330342169
 20
17.9928105484
 10
-38.1244683818
 20
18.0042623244
 10
-38.1164803408
 20
18.0159221665
 10
-38.1090804853
 20
18.0277749064
 10
-38.1022784418
 20
18.039805125
 10
-38.0960830591
 20
18.0519971723
 10
-38.0905023968
 20
18.0643351875
 10
-38.0855437147
 20
18.0768031201
 10
-38.0812134636
 20
18.0893847508
 10
-38.0775172767
 20
18.1020637119
 10
-38.0744599623
 20
18.1148235096
 10
-38.0720454977
 20
18.1276475446
 10
-38.0702770239
 20
18.1405191342
 10
-38.0691568415
 20
18.1534215337
 10
-38.0686864077
 20
18.1663379584
 10
-38.0687243704
 20
18.1744950134
  0
LINE
  5
25D
100
AcDbEntity
  8
RACCORDO
100
AcDbLine
 62
7
  6
CONTINUOUS
 10
-36.037834655
 20
18.3682696302
 11
-36.5448886088
 21
18.0363019127
  0
LINE
  5
25E
100
AcDbEntity
  8
RACCORDO
100
AcDbLine
 62
250
  6
CONTINUOUS
 10
-36.5708116349
 20
17.5535799391
 11
-36.8757184203
 21
17.3847988183
  0
LWPOLYLINE
  5
25F
100
AcDbEntity
  8
RACCORDO
100
AcDbPolyline
 62
250
  6
CONTINUOUS
 90
61
 70
0
 10
-36.8757184203
 20
17.3847988183
 10
-36.9116338221
 20
17.3653294369
 10
-36.9474689831
 20
17.3467464292
 10
-36.9832239034
 20
17.3290497951
 10
-37.0189295084
 20
17.3122223779
 10
-37.0545548727
 20
17.2962813343
 10
-37.0900072197
 20
17.2812781352
 10
-37.1252847258
 20
17.2672175401
 10
-37.1603892147
 20
17.2540947894
 10
-37.1952333809
 20
17.2419470761
 10
-37.2298155133
 20
17.2307788234
 10
-37.264137323
 20
17.2205856079
 10
-37.2981166376
 20
17.2113913519
 10
-37.3317460164
 20
17.2032007855
 10
-37.3650329001
 20
17.1960091785
 10
-37.3979174383
 20
17.1898262628
 10
-37.4303943608
 20
17.1846539847
 10
-37.4624689379
 20
17.180490398
 10
-37.4940971301
 20
17.1773393956
 10
-37.5252809015
 20
17.1752014564
 10
-37.5560182879
 20
17.1740761016
 10
-37.5862593575
 20
17.1739657876
 10
-37.6160066445
 20
17.1748723646
 10
-37.6452576146
 20
17.1767939825
 10
-37.6739547327
 20
17.1797275479
 10
-37.7020962207
 20
17.1836753906
 10
-37.7296838567
 20
17.1886351808
 10
-37.7566654396
 20
17.1945968354
 10
-37.7830380294
 20
17.2015617716
 10
-37.8088045661
 20
17.2095285721
 10
-37.8339216682
 20
17.2184829024
 10
-37.8583883517
 20
17.2284261641
 10
-37.8822056005
 20
17.2393569556
 10
-37.9053329844
 20
17.2512567371
 10
-37.9277707614
 20
17.2641281082
 10
-37.9495186734
 20
17.2779684693
 10
-37.9705355164
 20
17.292751482
 10
-37.9908199715
 20
17.3084796577
 10
-38.0103733575
 20
17.3251504851
 10
-38.029158426
 20
17.3427300915
 10
-38.0471716966
 20
17.3612180428
 10
-38.0644166498
 20
17.3806147732
 10
-38.0808664777
 20
17.400887712
 10
-38.0965193963
 20
17.4220357601
 10
-38.1113771896
 20
17.4440600166
 10
-38.1254184022
 20
17.4669312089
 10
-38.138644151
 20
17.4906534679
 10
-38.151053319
 20
17.5152226627
 10
-38.1626211
 20
17.540597127
 10
-38.1733471404
 20
17.5667842234
 10
-38.1832317938
 20
17.5937765893
 10
-38.1922513147
 20
17.6215104716
 10
-38.2004022014
 20
17.6499897622
 10
-38.2076879555
 20
17.6792105692
 10
-38.2140953367
 20
17.7090974638
 10
-38.2196204567
 20
17.7396547279
 10
-38.2242672038
 20
17.7708780797
 10
-38.2280340017
 20
17.8026792443
 10
-38.2309203251
 20
17.8350287971
 10
-38.2329266993
 20
17.8679561628
 10
-38.2340531245
 20
17.9014613414
  0
LWPOLYLINE
  5
260
100
AcDbEntity
  8
RACCORDO
100
AcDbPolyline
 62
7
  6
CONTINUOUS
 90
12
 70
0
 10
-37.8664613769
 20
18.27138818
 10
-37.8853704526
 20
18.2614191007
 10
-37.9081625709
 20
18.2499044263
 10
-37.9303263927
 20
18.2391925531
 10
-37.9518515949
 20
18.2292600061
 10
-37.9727243452
 20
18.2200845937
 10
-37.9930254999
 20
18.2116049323
 10
-38.0127438221
 20
18.2038028385
 10
-38.0318626684
 20
18.1966617367
 10
-38.0504458526
 20
18.1901365632
 10
-38.0684821821
 20
18.1842122518
 10
-38.0689000831
 20
18.1840845971
  0
LWPOLYLINE
  5
261
100
AcDbEntity
  8
RACCORDO
100
AcDbPolyline
 62
250
  6
CONTINUOUS
 90
19
 70
0
 10
-39.5545915397
 20
45.3129354126
 10
-39.5171560577
 20
45.0354900155
 10
-39.4771254671
 20
44.7609185921
 10
-39.4345213125
 20
44.4892483916
 10
-39.389207878
 20
44.220130853
 10
-39.3413588328
 20
43.9539705682
 10
-39.2914906772
 20
43.6919026851
 10
-39.2396786718
 20
43.4339745367
 10
-39.1859554531
 20
43.1801415138
 10
-39.1308300758
 20
42.9313594959
 10
-39.07440945
 20
42.6876508492
 10
-39.0167462713
 20
42.4489484459
 10
-38.9583162255
 20
42.2160357063
 10
-38.8992552654
 20
41.9889303859
 10
-38.8396282361
 20
41.7675253024
 10
-38.7798420493
 20
41.5523835834
 10
-38.7201151747
 20
41.3436452956
 10
-38.6604587241
 20
41.1410425291
 10
-38.6009831415
 20
40.9445109383
  0
LWPOLYLINE
  5
262
100
AcDbEntity
  8
RACCORDO
100
AcDbPolyline
 62
250
  6
CONTINUOUS
 90
17
 70
0
 10
-39.2494110694
 20
41.0067064491
 10
-39.2376849766
 20
40.9057564256
 10
-39.224880011
 20
40.8056873175
 10
-39.2111286611
 20
40.706537129
 10
-39.196545739
 20
40.6078653813
 10
-39.1812378502
 20
40.5101805202
 10
-39.1653826351
 20
40.4149041563
 10
-39.1491780232
 20
40.3222279832
 10
-39.1327193073
 20
40.2319148795
 10
-39.1161030119
 20
40.1446833151
 10
-39.0994897728
 20
40.0606564942
 10
-39.0829744239
 20
39.9796067592
 10
-39.0665709187
 20
39.9017039112
 10
-39.0503854886
 20
39.8269613045
 10
-39.0345040436
 20
39.7552427727
 10
-39.0189048687
 20
39.6864972344
 10
-38.9888551751
 20
39.5578317344
  0
LWPOLYLINE
  5
263
100
AcDbEntity
  8
RACCORDO
100
AcDbPolyline
 62
250
  6
CONTINUOUS
 90
32
 70
0
 10
-37.2383003042
 20
6.4890378394
 10
-37.2304183101
 20
6.4216604755
 10
-37.2290251652
 20
6.4088943449
 10
-37.227717768
 20
6.3963927009
 10
-37.2265525278
 20
6.3843449299
 10
-37.2255497431
 20
6.3728433281
 10
-37.2246970299
 20
6.361802281
 10
-37.2240026352
 20
6.3511445186
 10
-37.2234704161
 20
6.3408645054
 10
-37.2231016609
 20
6.3309719365
 10
-37.2228990954
 20
6.3214114141
 10
-37.2228670681
 20
6.3121693443
 10
-37.2230049839
 20
6.3032622037
 10
-37.2233074155
 20
6.2946792589
 10
-37.2237807007
 20
6.2864201664
 10
-37.2244221807
 20
6.2784876118
 10
-37.225212926
 20
6.2708752801
 10
-37.2261590307
 20
6.2635856072
 10
-37.2272581949
 20
6.2566180893
 10
-37.2284790752
 20
6.2499619436
 10
-37.2298271983
 20
6.2436185885
 10
-37.231300938
 20
6.2375881724
 10
-37.2328584712
 20
6.23185797
 10
-37.2345028097
 20
6.2264323311
 10
-37.2362349913
 20
6.2213081563
 10
-37.2380104097
 20
6.2164614987
 10
-37.2398158542
 20
6.2119183937
 10
-37.2416686039
 20
6.207653759
 10
-37.2435689622
 20
6.2035668007
 10
-37.2455173381
 20
6.199624041
 10
-37.2475151513
 20
6.1958594347
 10
-37.2495633814
 20
6.1922731994
  0
LWPOLYLINE
  5
264
100
AcDbEntity
  8
RACCORDO
100
AcDbPolyline
 62
250
  6
CONTINUOUS
 90
31
 70
0
 10
-36.3589703201
 20
7.4572137294
 10
-36.3468080847
 20
7.4662413878
 10
-36.3346383359
 20
7.4748555282
 10
-36.3224754926
 20
7.4830459443
 10
-36.3103339657
 20
7.4908029321
 10
-36.2982281408
 20
7.4981173008
 10
-36.286172361
 20
7.5049803841
 10
-36.2741809103
 20
7.5113840507
 10
-36.2622679966
 20
7.5173207131
 10
-36.2504477344
 20
7.5227833376
 10
-36.2387341286
 20
7.5277654518
 10
-36.2271410579
 20
7.5322611528
 10
-36.215682258
 20
7.536265114
 10
-36.2043713054
 20
7.5397725915
 10
-36.1932216017
 20
7.5427794293
 10
-36.1822463573
 20
7.545282065
 10
-36.171458576
 20
7.5472775333
 10
-36.1608710393
 20
7.5487634699
 10
-36.1504962916
 20
7.5497381142
 10
-36.1403466252
 20
7.5502003115
 10
-36.1304340656
 20
7.550149514
 10
-36.1207703575
 20
7.5495857819
 10
-36.1113669507
 20
7.5485097831
 10
-36.1022349865
 20
7.5469227925
 10
-36.0933852848
 20
7.5448266902
 10
-36.0848283309
 20
7.5422239599
 10
-36.0765742633
 20
7.5391176851
 10
-36.0686328616
 20
7.5355115463
 10
-36.0610135351
 20
7.5314098161
 10
-36.0537253112
 20
7.5268173542
 10
-36.0517916307
 20
7.5254771509
  0
LWPOLYLINE
  5
265
100
AcDbEntity
  8
RACCORDO
100
AcDbPolyline
 62
250
  6
CONTINUOUS
 90
3
 70
0
 10
-36.5708116349
 20
7.8188494744
 10
-37.3602137204
 20
7.2769489328
 10
-37.3629592931
 20
7.2750888412
  0
LWPOLYLINE
  5
266
100
AcDbEntity
  8
RACCORDO
100
AcDbPolyline
 62
250
  6
CONTINUOUS
 90
5
 70
0
 10
-37.384221107
 20
17.930392815
 10
-37.3965286396
 20
17.9260101377
 10
-37.4230993455
 20
17.9172060071
 10
-37.4494708608
 20
17.9091315425
 10
-37.4756288274
 20
17.9017927232
  0
LINE
  5
267
100
AcDbEntity
  8
RACCORDO
100
AcDbLine
 62
250
  6
CONTINUOUS
 10
-38.9602935361
 20
39.4396260915
 11
-38.9334838457
 21
39.3312518407
  0
LINE
  5
268
100
AcDbEntity
  8
RACCORDO
100
AcDbLine
 62
250
  6
CONTINUOUS
 10
-38.9888551751
 20
39.5578317344
 11
-38.9602935361
 21
39.4396260915
  0
LWPOLYLINE
  5
269
100
AcDbEntity
  8
RACCORDO
100
AcDbPolyline
 62
7
  6
CONTINUOUS
 90
7
 70
0
 10
-36.4159124586
 20
17.9184218668
 10
-36.412749474
 20
17.9018676826
 10
-36.4101446594
 20
17.8852052009
 10
-36.4080872467
 20
17.8683113381
 10
-36.4065920877
 20
17.8511591168
 10
-36.4056832638
 20
17.8338207777
 10
-36.4053769381
 20
17.8163213118
  0
LINE
  5
26A
100
AcDbEntity
  8
RACCORDO
100
AcDbLine
 62
250
  6
CONTINUOUS
 10
-36.3589703201
 20
7.4572137294
 11
-37.1456506773
 21
6.9171735682
  0
LWPOLYLINE
  5
26B
100
AcDbEntity
  8
RACCORDO
100
AcDbPolyline
 62
250
  6
CONTINUOUS
 90
47
 70
0
 10
-37.1456506773
 20
6.9171735682
 10
-37.1488387998
 20
6.9150351195
 10
-37.1521046534
 20
6.9127101983
 10
-37.1554479854
 20
6.9101964248
 10
-37.1588754011
 20
6.90749962
 10
-37.1623796745
 20
6.9046089457
 10
-37.1659397324
 20
6.9014967688
 10
-37.1695585322
 20
6.8981579227
 10
-37.1732321767
 20
6.8945916867
 10
-37.1769292205
 20
6.8907768859
 10
-37.1806478895
 20
6.8867120157
 10
-37.1843886562
 20
6.8823923532
 10
-37.1881233383
 20
6.8777917835
 10
-37.1918502579
 20
6.8729094396
 10
-37.195569312
 20
6.8677394601
 10
-37.1992545109
 20
6.8622479004
 10
-37.2029058698
 20
6.8564314541
 10
-37.2065209303
 20
6.8502859309
 10
-37.210069754
 20
6.8437755993
 10
-37.2135518095
 20
6.8368967502
 10
-37.2169643564
 20
6.8296449534
 10
-37.2202738509
 20
6.821982975
 10
-37.2234789822
 20
6.8139068956
 10
-37.2265767659
 20
6.8054119926
 10
-37.2295307905
 20
6.7964594481
 10
-37.2323386167
 20
6.7870459123
 10
-37.2349971411
 20
6.7771657631
 10
-37.2374685012
 20
6.7667763794
 10
-37.2397484821
 20
6.7558808223
 10
-37.2418342329
 20
6.7444668955
 10
-37.2436891692
 20
6.7324682354
 10
-37.2453086749
 20
6.7198889005
 10
-37.246687962
 20
6.7067147928
 10
-37.2477887571
 20
6.6928505456
 10
-37.2485992626
 20
6.6781760791
 10
-37.249117305
 20
6.6627983306
 10
-37.2493207274
 20
6.6469663895
 10
-37.2491734537
 20
6.6305585112
 10
-37.2487014941
 20
6.6136944235
 10
-37.2479860006
 20
6.5970004135
 10
-37.2470240319
 20
6.5806509818
 10
-37.2458258169
 20
6.5644912193
 10
-37.2445007674
 20
6.5486632128
 10
-37.2430621314
 20
6.5332207483
 10
-37.2415054346
 20
6.5181264655
 10
-37.2399137365
 20
6.5033850604
 10
-37.2383003042
 20
6.4890378394
  0
LINE
  5
26C
100
AcDbEntity
  8
RACCORDO
100
AcDbLine
 62
250
  6
CONTINUOUS
 10
-37.3629592931
 20
7.2750888412
 11
-37.3685212835
 21
7.2713698834
  0
LWPOLYLINE
  5
26D
100
AcDbEntity
  8
RACCORDO
100
AcDbPolyline
 62
250
  6
CONTINUOUS
 90
25
 70
0
 10
-36.5708116349
 20
7.8188494744
 10
-36.5576294931
 20
7.8275517611
 10
-36.5448997408
 20
7.8365845307
 10
-36.5326389382
 20
7.8459360324
 10
-36.5208630357
 20
7.8555941007
 10
-36.5095873525
 20
7.8655461712
 10
-36.4988265576
 20
7.8757792973
 10
-36.4885946496
 20
7.8862801665
 10
-36.4789049394
 20
7.897035118
 10
-36.4697700325
 20
7.9080301606
 10
-36.4612018127
 20
7.9192509907
 10
-36.4532114264
 20
7.930683011
 10
-36.4458092684
 20
7.9423113493
 10
-36.4390049684
 20
7.9541208783
 10
-36.4328073781
 20
7.9660962347
 10
-36.4272245601
 20
7.9782218396
 10
-36.4222637771
 20
7.9904819187
 10
-36.4179314826
 20
8.0028605227
 10
-36.4142333127
 20
8.015341548
 10
-36.4111740783
 20
8.027908758
 10
-36.4087577592
 20
8.0405458037
 10
-36.4069874988
 20
8.0532362455
 10
-36.4058656002
 20
8.0659635742
 10
-36.4053935227
 20
8.0787112326
 10
-36.4053769381
 20
8.0815892061
  0
LINE
  5
26E
100
AcDbEntity
  8
RACCORDO
100
AcDbLine
 62
250
  6
CONTINUOUS
 10
-37.3685212835
 20
7.2713698834
 11
-37.3741800278
 21
7.2676513628
  0
LINE
  5
26F
100
AcDbEntity
  8
RACCORDO
100
AcDbLine
 62
250
  6
CONTINUOUS
 10
-37.3741800278
 20
7.2676513628
 11
-37.3799423048
 21
7.263929723
  0
LINE
  5
270
100
AcDbEntity
  8
RACCORDO
100
AcDbLine
 62
250
  6
CONTINUOUS
 10
-37.3799423048
 20
7.263929723
 11
-37.385814829
 21
7.2602015611
  0
LINE
  5
271
100
AcDbEntity
  8
RACCORDO
100
AcDbLine
 62
250
  6
CONTINUOUS
 10
-37.385814829
 20
7.2602015611
 11
-37.3918021863
 21
7.2564645699
  0
LINE
  5
272
100
AcDbEntity
  8
RACCORDO
100
AcDbLine
 62
250
  6
CONTINUOUS
 10
-37.3918021863
 20
7.2564645699
 11
-37.3979113849
 21
7.252715259
  0
LINE
  5
273
100
AcDbEntity
  8
RACCORDO
100
AcDbLine
 62
250
  6
CONTINUOUS
 10
-37.3979113849
 20
7.252715259
 11
-37.4041502592
 21
7.2489497575
  0
LINE
  5
274
100
AcDbEntity
  8
RACCORDO
100
AcDbLine
 62
250
  6
CONTINUOUS
 10
-37.4041502592
 20
7.2489497575
 11
-37.4105240534
 21
7.2451654875
  0
LINE
  5
275
100
AcDbEntity
  8
RACCORDO
100
AcDbLine
 62
250
  6
CONTINUOUS
 10
-37.4105240534
 20
7.2451654875
 11
-37.4170407347
 21
7.2413585588
  0
LINE
  5
276
100
AcDbEntity
  8
RACCORDO
100
AcDbLine
 62
250
  6
CONTINUOUS
 10
-37.4170407347
 20
7.2413585588
 11
-37.4237085501
 21
7.2375249399
  0
LINE
  5
277
100
AcDbEntity
  8
RACCORDO
100
AcDbLine
 62
250
  6
CONTINUOUS
 10
-37.4237085501
 20
7.2375249399
 11
-37.4305334635
 21
7.2336616686
  0
LINE
  5
278
100
AcDbEntity
  8
RACCORDO
100
AcDbLine
 62
250
  6
CONTINUOUS
 10
-37.4305334635
 20
7.2336616686
 11
-37.4375249604
 21
7.2297639908
  0
LINE
  5
279
100
AcDbEntity
  8
RACCORDO
100
AcDbLine
 62
250
  6
CONTINUOUS
 10
-37.4375249604
 20
7.2297639908
 11
-37.4446938385
 21
7.2258263781
  0
LINE
  5
27A
100
AcDbEntity
  8
RACCORDO
100
AcDbLine
 62
250
  6
CONTINUOUS
 10
-37.4446938385
 20
7.2258263781
 11
-37.4520472789
 21
7.2218451217
  0
LWPOLYLINE
  5
27B
100
AcDbEntity
  8
RACCORDO
100
AcDbPolyline
 62
250
  6
CONTINUOUS
 90
104
 70
0
 10
-37.7450857359
 20
7.076384786
 10
-37.7550638763
 20
7.0710697302
 10
-37.7652623676
 20
7.0655695313
 10
-37.7756382776
 20
7.0599114986
 10
-37.7859202343
 20
7.0542321147
 10
-37.7960831603
 20
7.0485384277
 10
-37.8061521331
 20
7.0428233895
 10
-37.8159310131
 20
7.0372023389
 10
-37.8253359523
 20
7.0317210754
 10
-37.8344507987
 20
7.0263337995
 10
-37.8433309573
 20
7.0210184516
 10
-37.8519813228
 20
7.0157731062
 10
-37.8603970004
 20
7.0105996888
 10
-37.8686187104
 20
7.0054819163
 10
-37.8766519961
 20
7.0004170122
 10
-37.8844913143
 20
6.995407753
 10
-37.8921607557
 20
6.990446186
 10
-37.899662112
 20
6.9855315847
 10
-37.9069935915
 20
6.9806646755
 10
-37.9141739109
 20
6.9758396845
 10
-37.9212042212
 20
6.9710561904
 10
-37.9280833712
 20
6.9663146146
 10
-37.9348266243
 20
6.961610447
 10
-37.9414349093
 20
6.9569433314
 10
-37.9479072973
 20
6.9523136241
 10
-37.9542562644
 20
6.9477178837
 10
-37.9604821985
 20
6.9431560888
 10
-37.9665847116
 20
6.9386282608
 10
-37.972575116
 20
6.9341310227
 10
-37.9784540449
 20
6.9296641296
 10
-37.9842208651
 20
6.9252278264
 10
-37.989884989
 20
6.9208194701
 10
-37.995446737
 20
6.9164390136
 10
-38.0009057888
 20
6.912086504
 10
-38.0062705954
 20
6.9077594394
 10
-38.0115414677
 20
6.9034577553
 10
-38.0167180949
 20
6.8991815162
 10
-38.0218079959
 20
6.894928413
 10
-38.0268114683
 20
6.8906983657
 10
-38.0317282146
 20
6.8864914543
 10
-38.0365648605
 20
6.8823056107
 10
-38.0413215566
 20
6.8781408633
 10
-38.0459981524
 20
6.8739971837
 10
-38.0506008229
 20
6.8698724189
 10
-38.0551299409
 20
6.8657663742
 10
-38.0595851336
 20
6.8616792442
 10
-38.0639714567
 20
6.8576094601
 10
-38.0682888645
 20
6.8535571993
 10
-38.0725374027
 20
6.8495222843
 10
-38.0767222647
 20
6.8455026144
 10
-38.0808435025
 20
6.8414982874
 10
-38.0849010641
 20
6.8375092055
 10
-38.0888999867
 20
6.8335329739
 10
-38.0928409249
 20
6.8295690512
 10
-38.0967232241
 20
6.8256179789
 10
-38.100549958
 20
6.8216789866
 10
-38.1043214108
 20
6.817751837
 10
-38.1080372982
 20
6.8138367674
 10
-38.1116998419
 20
6.8099337201
 10
-38.1153091846
 20
6.8060425731
 10
-38.1188651835
 20
6.8021634483
 10
-38.1223696318
 20
6.7982966534
 10
-38.1258230709
 20
6.7944415683
 10
-38.1292249594
 20
6.790598813
 10
-38.1325754659
 20
6.786770555
 10
-38.1358748371
 20
6.7829564266
 10
-38.1391228263
 20
6.7791567956
 10
-38.1423188625
 20
6.775374933
 10
-38.1454628859
 20
6.7716108033
 10
-38.1485549564
 20
6.7678644422
 10
-38.1515946822
 20
6.7641392278
 10
-38.1545815045
 20
6.7604357893
 10
-38.1575159821
 20
6.7567534976
 10
-38.1603994004
 20
6.7530938432
 10
-38.1632312699
 20
6.7494574832
 10
-38.1660120801
 20
6.7458437606
 10
-38.1687445841
 20
6.742252194
 10
-38.1714287267
 20
6.7386829447
 10
-38.1740645633
 20
6.7351358514
 10
-38.1766550127
 20
6.7316099501
 10
-38.1792000455
 20
6.7281053867
 10
-38.1816996911
 20
6.7246220151
 10
-38.1841569576
 20
6.721158433
 10
-38.1865713371
 20
6.7177155326
 10
-38.1889433374
 20
6.7142924216
 10
-38.1912774905
 20
6.710885021
 10
-38.1935735571
 20
6.7074939523
 10
-38.1958317765
 20
6.7041185939
 10
-38.1980573986
 20
6.7007530023
 10
-38.2002509386
 20
6.6973966652
 10
-38.2024118812
 20
6.6940500948
 10
-38.2045439313
 20
6.6907088842
 10
-38.206647523
 20
6.6873725444
 10
-38.2087222221
 20
6.6840415643
 10
-38.2107704306
 20
6.6807130043
 10
-38.2127921964
 20
6.6773869537
 10
-38.2147874715
 20
6.6740633231
 10
-38.2167585144
 20
6.6707389043
 10
-38.2187053386
 20
6.667413856
 10
-38.2206279306
 20
6.6640880195
 10
-38.2225285078
 20
6.6607577109
 10
-38.2244078095
 20
6.6574217022
 10
-38.2262650964
 20
6.6540812214
 10
-38.2281003685
 20
6.6507362684
  0
LINE
  5
27C
100
AcDbEntity
  8
RACCORDO
100
AcDbLine
 62
250
  6
CONTINUOUS
 10
-37.4520472789
 20
7.2218451217
 11
-37.4595959452
 21
7.2178146916
  0
LINE
  5
27D
100
AcDbEntity
  8
RACCORDO
100
AcDbLine
 62
250
  6
CONTINUOUS
 10
-37.4595959452
 20
7.2178146916
 11
-37.4673522518
 21
7.2137284073
  0
LINE
  5
27E
100
AcDbEntity
  8
RACCORDO
100
AcDbLine
 62
250
  6
CONTINUOUS
 10
-37.7258042861
 20
7.0864868408
 11
-37.7450857359
 21
7.076384786
  0
LINE
  5
27F
100
AcDbEntity
  8
RACCORDO
100
AcDbLine
 62
250
  6
CONTINUOUS
 10
-37.4673522518
 20
7.2137284073
 11
-37.4753251293
 21
7.2095814084
  0
LINE
  5
280
100
AcDbEntity
  8
RACCORDO
100
AcDbLine
 62
250
  6
CONTINUOUS
 10
-37.4753251293
 20
7.2095814084
 11
-37.4835294936
 21
7.2053655473
  0
LINE
  5
281
100
AcDbEntity
  8
RACCORDO
100
AcDbLine
 62
250
  6
CONTINUOUS
 10
-37.7079536461
 20
7.0956626507
 11
-37.7258042861
 21
7.0864868408
  0
LINE
  5
282
100
AcDbEntity
  8
RACCORDO
100
AcDbLine
 62
250
  6
CONTINUOUS
 10
-37.4835294936
 20
7.2053655473
 11
-37.4919786942
 21
7.2010730802
  0
LINE
  5
283
100
AcDbEntity
  8
RACCORDO
100
AcDbLine
 62
250
  6
CONTINUOUS
 10
-37.6911219202
 20
7.1041776404
 11
-37.7079536461
 21
7.0956626507
  0
LINE
  5
284
100
AcDbEntity
  8
RACCORDO
100
AcDbLine
 62
250
  6
CONTINUOUS
 10
-37.4919786942
 20
7.2010730802
 11
-37.505131264
 21
7.1944787027
  0
LINE
  5
285
100
AcDbEntity
  8
RACCORDO
100
AcDbLine
 62
250
  6
CONTINUOUS
 10
-37.6751718563
 20
7.1121308462
 11
-37.6911219202
 21
7.1041776404
  0
LINE
  5
286
100
AcDbEntity
  8
RACCORDO
100
AcDbLine
 62
250
  6
CONTINUOUS
 10
-37.505131264
 20
7.1944787027
 11
-37.5188983564
 21
7.1876725089
  0
LINE
  5
287
100
AcDbEntity
  8
RACCORDO
100
AcDbLine
 62
250
  6
CONTINUOUS
 10
-37.6525637471
 20
7.123249067
 11
-37.6751718563
 21
7.1121308462
  0
LINE
  5
288
100
AcDbEntity
  8
RACCORDO
100
AcDbLine
 62
250
  6
CONTINUOUS
 10
-37.5188983564
 20
7.1876725089
 11
-37.5383130815
 21
7.1782042132
  0
LINE
  5
289
100
AcDbEntity
  8
RACCORDO
100
AcDbLine
 62
250
  6
CONTINUOUS
 10
-37.6247688729
 20
7.1367213843
 11
-37.6525637471
 21
7.123249067
  0
LINE
  5
28A
100
AcDbEntity
  8
RACCORDO
100
AcDbLine
 62
250
  6
CONTINUOUS
 10
-37.5383130815
 20
7.1782042132
 11
-37.5756606351
 21
7.1602475364
  0
LINE
  5
28B
100
AcDbEntity
  8
RACCORDO
100
AcDbLine
 62
250
  6
CONTINUOUS
 10
-37.593181296
 20
7.1518691579
 11
-37.6247688729
 21
7.1367213843
  0
LINE
  5
28C
100
AcDbEntity
  8
RACCORDO
100
AcDbLine
 62
250
  6
CONTINUOUS
 10
-37.5756606351
 20
7.1602475364
 11
-37.593181296
 21
7.1518691579
  0
LWPOLYLINE
  5
28D
100
AcDbEntity
  8
0
100
AcDbPolyline
 62
7
  6
CONTINUOUS
 90
64
 70
0
 10
42.9114119709
 20
-61.6440888887
 10
43.0055684752
 20
-61.7097613883
 10
43.1096007123
 20
-61.780235513
 10
43.2131092761
 20
-61.8482108443
 10
43.3159665598
 20
-61.9136690156
 10
43.4182776118
 20
-61.9767401416
 10
43.5203790855
 20
-62.0376794456
 10
43.6222635768
 20
-62.0965188873
 10
43.7239297563
 20
-62.1532923116
 10
43.8257315322
 20
-62.2082211308
 10
43.9276646756
 20
-62.2613157657
 10
44.0297382884
 20
-62.31259256
 10
44.1323381332
 20
-62.362245709
 10
44.2354776399
 20
-62.4102702099
 10
44.3391601678
 20
-62.4566552639
 10
44.4437701632
 20
-62.5015498192
 10
44.5493721857
 20
-62.5449455171
 10
44.6559280324
 20
-62.5867895184
 10
44.7636786872
 20
-62.6271336232
 10
44.872716103
 20
-62.6659594349
 10
44.9829734177
 20
-62.7031889553
 10
45.0944546578
 20
-62.7387707499
 10
45.2071776408
 20
-62.7726560756
 10
45.3211329169
 20
-62.8047863597
 10
45.4362775869
 20
-62.835094638
 10
45.5526611694
 20
-62.8635377156
 10
45.6702233071
 20
-62.8900434375
 10
45.7887450473
 20
-62.914511827
 10
45.908262827
 20
-62.9369038171
 10
46.0287031629
 20
-62.9571583903
 10
46.1496651298
 20
-62.9751727909
 10
46.2711179088
 20
-62.990918242
 10
46.3930271065
 20
-63.0043662848
 10
46.5149686568
 20
-63.0154574546
 10
46.6368941262
 20
-63.0241864496
 10
46.7587669416
 20
-63.0305506244
 10
46.8801666766
 20
-63.0345393201
 10
47.0009441598
 20
-63.0361733405
 10
47.121154162
 20
-63.0354797582
 10
47.2406744862
 20
-63.0324857521
 10
47.3593557071
 20
-63.0272275141
 10
47.4772552627
 20
-63.0197355368
 10
47.5945580749
 20
-63.01002208
 10
47.71121583
 20
-62.998109243
 10
47.8271884878
 20
-62.9840200442
 10
47.9426701874
 20
-62.9677434291
 10
48.0576484911
 20
-62.9492862997
 10
48.1720474249
 20
-62.9286664658
 10
48.2859619764
 20
-62.9058696926
 10
48.3993903257
 20
-62.8808943935
 10
48.5122442235
 20
-62.8537585984
 10
48.6244865012
 20
-62.8244713183
 10
48.7360753829
 20
-62.7930436028
 10
48.8469633457
 20
-62.7594893872
 10
48.9571037727
 20
-62.7238239364
 10
49.0664522607
 20
-62.6860634929
 10
49.1749659456
 20
-62.6462252045
 10
49.2826004148
 20
-62.604328158
 10
49.3893122121
 20
-62.5603925402
 10
49.4950603036
 20
-62.5144389321
 10
49.5998040975
 20
-62.4664890403
 10
49.7035030829
 20
-62.4165660416
 10
49.8061169373
 20
-62.3646944866
 10
49.8940757302
 20
-62.3182176928
  0
LINE
  5
28E
100
AcDbEntity
  8
0
100
AcDbLine
 62
7
  6
CONTINUOUS
 10
42.9114031019
 20
-61.6440826218
 11
-47.7810965804
 21
2.4851989063
  0
LINE
  5
28F
100
AcDbEntity
  8
0
100
AcDbLine
 62
250
  6
CONTINUOUS
 10
42.2182041056
 20
-60.2873007572
 11
-48.4742955767
 21
3.8419807709
  0
LINE
  5
290
100
AcDbEntity
  8
RACCORDO
100
AcDbLine
 62
250
  6
CONTINUOUS
 10
32.7955039812
 20
-51.4061790502
 11
-39.5545915083
 21
-0.24693591
  0
LWPOLYLINE
  5
291
100
AcDbEntity
  8
0
100
AcDbPolyline
 62
250
  6
CONTINUOUS
 90
82
 70
0
 10
-48.4742955767
 20
3.8419807709
 10
-48.5034619259
 20
3.8628346799
 10
-48.5326551299
 20
3.8841660187
 10
-48.5618751836
 20
3.9059747913
 10
-48.5911319423
 20
3.9282686748
 10
-48.6204155295
 20
3.9510400093
 10
-48.649696337
 20
3.9742657985
 10
-48.6789742203
 20
3.9979464378
 10
-48.708249282
 20
4.0220815657
 10
-48.7374922796
 20
4.0466470542
 10
-48.7667031318
 20
4.071643353
 10
-48.7958818577
 20
4.0970700627
 10
-48.8249993602
 20
4.1229017857
 10
-48.8540555073
 20
4.1491389376
 10
-48.8830503492
 20
4.1757811691
 10
-48.9119550582
 20
4.2028019381
 10
-48.9407694973
 20
4.2302016691
 10
-48.9694937031
 20
4.2579800189
 10
-48.998099106
 20
4.2861092971
 10
-49.0265855251
 20
4.3145899019
 10
-49.0549530235
 20
4.3434215303
 10
-49.0831733944
 20
4.3725754418
 10
-49.1112464254
 20
4.4020520178
 10
-49.1391721954
 20
4.4318509851
 10
-49.166922933
 20
4.461942623
 10
-49.1944983717
 20
4.4923272675
 10
-49.2218986302
 20
4.5230047023
 10
-49.2490965145
 20
4.5539443787
 10
-49.2760917402
 20
4.5851466232
 10
-49.3028844313
 20
4.6166112391
 10
-49.3294480073
 20
4.6483068912
 10
-49.3557821382
 20
4.6802338621
 10
-49.3818869829
 20
4.7123920076
 10
-49.407736697
 20
4.7447493502
 10
-49.4333309329
 20
4.7773061593
 10
-49.4586698586
 20
4.8100623106
 10
-49.4837284055
 20
4.8429852342
 10
-49.5085061836
 20
4.8760751496
 10
-49.533003397
 20
4.9093319875
 10
-49.5571958735
 20
4.9427227411
 10
-49.5810832087
 20
4.9762476134
 10
-49.6046656172
 20
5.0099065547
 10
-49.6279198608
 20
5.0436661745
 10
-49.6508454996
 20
5.0775266253
 10
-49.6734427818
 20
5.1114879092
 10
-49.695689509
 20
5.1455164036
 10
-49.7175852293
 20
5.1796122405
 10
-49.7391302035
 20
5.213775442
 10
-49.760303311
 20
5.2479722135
 10
-49.7811040725
 20
5.2822026385
 10
-49.8015327791
 20
5.3164667853
 10
-49.821569476
 20
5.3507308291
 10
-49.8412136736
 20
5.3849948271
 10
-49.8604656783
 20
5.4192588696
 10
-49.8793067412
 20
5.4534891718
 10
-49.8977363519
 20
5.4876857419
 10
-49.9157548447
 20
5.5218487134
 10
-49.9333447516
 20
5.555944479
 10
-49.9505055541
 20
5.589973016
 10
-49.9672376037
 20
5.6239344811
 10
-49.9835247512
 20
5.6577955254
 10
-49.999366469
 20
5.6915560883
 10
-50.0147631291
 20
5.7252163553
 10
-50.0296999471
 20
5.7587433334
 10
-50.0441763888
 20
5.7921369258
 10
-50.0581928458
 20
5.8253973435
 10
-50.0717359385
 20
5.8584920422
 10
-50.0848051229
 20
5.8914208727
 10
-50.0974008152
 20
5.9241840865
 10
-50.1095110928
 20
5.956749725
 10
-50.1211354133
 20
5.9891176058
 10
-50.1322742076
 20
6.0212880004
 10
-50.1429170316
 20
6.0532296169
 10
-50.1530633498
 20
6.0849422608
 10
-50.1627136034
 20
6.1164262017
 10
-50.1718588329
 20
6.1476508274
 10
-50.180498528
 20
6.1786160351
 10
-50.1886331234
 20
6.2093219878
 10
-50.1962550973
 20
6.2397384567
 10
-50.2033619283
 20
6.2698553766
 10
-50.2099560842
 20
6.299682855
 10
-50.2160375371
 20
6.3292209139
  0
LWPOLYLINE
  5
292
100
AcDbEntity
  8
0
100
AcDbPolyline
 62
250
  6
CONTINUOUS
 90
26
 70
0
 10
-47.7811139483
 20
2.4852111874
 10
-47.8189254996
 20
2.5129275309
 10
-47.863496787
 20
2.5482542028
 10
-47.9066777889
 20
2.5854703962
 10
-47.9484500778
 20
2.6245602289
 10
-47.9887958271
 20
2.6655070194
 10
-48.0276978193
 20
2.7082932934
 10
-48.0651394529
 20
2.7529007918
 10
-48.1011047494
 20
2.7993104783
 10
-48.1355783607
 20
2.8475025473
 10
-48.168545575
 20
2.8974564329
 10
-48.1999923235
 20
2.9491508171
 10
-48.2299051863
 20
3.0025636392
 10
-48.2582713979
 20
3.057672105
 10
-48.285078853
 20
3.114452697
 10
-48.3103161114
 20
3.172881184
 10
-48.3339724032
 20
3.2329326313
 10
-48.3560376328
 20
3.2945814119
 10
-48.3765023839
 20
3.357801217
 10
-48.3953579232
 20
3.4225650675
 10
-48.412596204
 20
3.4888453251
 10
-48.4282098697
 20
3.5566137047
 10
-48.4421922573
 20
3.6258412858
 10
-48.4545373997
 20
3.6964985256
 10
-48.4652400286
 20
3.7685552707
 10
-48.4742955767
 20
3.8419807709
  0
LWPOLYLINE
  5
293
100
AcDbEntity
  8
0
100
AcDbPolyline
 62
250
  6
CONTINUOUS
 90
26
 70
0
 10
42.9114031019
 20
-61.6440826218
 10
42.8735741832
 20
-61.6163539976
 10
42.8290028957
 20
-61.5810273257
 10
42.7858218938
 20
-61.5438111323
 10
42.7440496049
 20
-61.5047212996
 10
42.7037038555
 20
-61.4637745091
 10
42.6648018633
 20
-61.4209882351
 10
42.6273602298
 20
-61.3763807367
 10
42.5913949332
 20
-61.3299710503
 10
42.5569213219
 20
-61.2817789812
 10
42.5239541075
 20
-61.2318250956
 10
42.492507359
 20
-61.1801307114
 10
42.4625944962
 20
-61.1267178893
 10
42.4342282846
 20
-61.0716094235
 10
42.4074208294
 20
-61.0148288314
 10
42.382183571
 20
-60.9564003445
 10
42.3585272792
 20
-60.8963488972
 10
42.3364620496
 20
-60.8347001165
 10
42.3159972984
 20
-60.7714803114
 10
42.2971417591
 20
-60.7067164609
 10
42.2799034784
 20
-60.6404362032
 10
42.2642898126
 20
-60.5726678236
 10
42.250307425
 20
-60.5034402424
 10
42.2379622826
 20
-60.4327830026
 10
42.2272596536
 20
-60.3607262574
 10
42.2182041056
 20
-60.2873007572
  0
LWPOLYLINE
  5
294
100
AcDbEntity
  8
RACCORDO
100
AcDbPolyline
 62
7
  6
CONTINUOUS
 90
12
 70
0
 10
-36.4799204489
 20
18.0788365022
 10
-36.476044126
 20
18.0725894055
 10
-36.4676220705
 20
18.0579215516
 10
-36.4600297145
 20
18.0436225435
 10
-36.4530442454
 20
18.0293826529
 10
-36.4464089667
 20
18.0146856263
 10
-36.4400505018
 20
17.9992729659
 10
-36.4341213254
 20
17.9834085568
 10
-36.4287299102
 20
17.9673432005
 10
-36.4239098453
 20
17.9511895383
 10
-36.419637256
 20
17.9348833681
 10
-36.4159124586
 20
17.9184218668
  0
LWPOLYLINE
  5
295
100
AcDbEntity
  8
RACCORDO
100
AcDbPolyline
 62
250
  6
CONTINUOUS
 90
22
 70
0
 10
-38.6009831415
 20
40.9445109383
 10
-38.5707130794
 20
40.8522856547
 10
-38.5389931697
 20
40.7613294704
 10
-38.5058279637
 20
40.671662682
 10
-38.4709473052
 20
40.5828315109
 10
-38.4346187606
 20
40.4953410841
 10
-38.397711765
 20
40.4105962845
 10
-38.3604148048
 20
40.3287688518
 10
-38.3226698905
 20
40.2496101543
 10
-38.2850618635
 20
40.1738117355
 10
-38.247795092
 20
40.1014753441
 10
-38.2108421589
 20
40.0323628335
 10
-38.1744724312
 20
39.9666203544
 10
-38.1388339873
 20
39.9042476081
 10
-38.1039516418
 20
39.8450967915
 10
-38.0699117174
 20
39.7890872552
 10
-38.0368421242
 20
39.7362133223
 10
-38.004770096
 20
39.6863373482
 10
-37.9736174401
 20
39.6391924017
 10
-37.9433950864
 20
39.5946543215
 10
-37.9142126861
 20
39.5527311324
 10
-37.8861285171
 20
39.5133647324
  0
LINE
  5
296
100
AcDbEntity
  8
RACCORDO
100
AcDbLine
 62
250
  6
CONTINUOUS
 10
-38.9302164296
 20
2.4966783748
 11
32.0711630164
 21
-47.708878505
  0
LINE
  5
297
100
AcDbEntity
  8
RACCORDO
100
AcDbLine
 62
250
  6
CONTINUOUS
 10
-37.2495633814
 20
6.1922731994
 11
31.942529692
 21
-42.7339250173
  0
LWPOLYLINE
  5
298
100
AcDbEntity
  8
RACCORDO
100
AcDbPolyline
 62
250
  6
CONTINUOUS
 90
52
 70
0
 10
-36.3589703201
 20
7.4572137294
 10
-36.3660054421
 20
7.4614743131
 10
-36.3730319575
 20
7.4659525268
 10
-36.3800441979
 20
7.4706450852
 10
-36.3870398899
 20
7.4755496027
 10
-36.3940096952
 20
7.480661295
 10
-36.4009372723
 20
7.4859723665
 10
-36.4078165391
 20
7.4914782608
 10
-36.4146417184
 20
7.4971737895
 10
-36.4213970397
 20
7.5030488394
 10
-36.4280762845
 20
7.5090976152
 10
-36.434674018
 20
7.5153140506
 10
-36.4411759518
 20
7.5216864523
 10
-36.4475746637
 20
7.5282065789
 10
-36.4538665814
 20
7.5348691402
 10
-36.4600435202
 20
7.5416662016
 10
-36.4660983525
 20
7.5485887141
 10
-36.472027875
 20
7.5556315361
 10
-36.4778298381
 20
7.5627925817
 10
-36.4834991576
 20
7.5700648551
 10
-36.4890308147
 20
7.5774411908
 10
-36.4944224637
 20
7.5849194605
 10
-36.4996702006
 20
7.5924942896
 10
-36.5047679676
 20
7.6001567536
 10
-36.5097101652
 20
7.607899413
 10
-36.514492671
 20
7.6157162633
 10
-36.5191102809
 20
7.6235985825
 10
-36.5235561548
 20
7.6315347174
 10
-36.5278253736
 20
7.6395161493
 10
-36.5319147269
 20
7.647536373
 10
-36.5358203834
 20
7.6555866913
 10
-36.539537725
 20
7.6636577921
 10
-36.5430641969
 20
7.6717440079
 10
-36.5463990611
 20
7.6798421095
 10
-36.5495387172
 20
7.6879444812
 10
-36.5524798666
 20
7.6960438127
 10
-36.5552218635
 20
7.7041372589
 10
-36.5577619152
 20
7.7122196328
 10
-36.5600960426
 20
7.7202810815
 10
-36.5622218246
 20
7.7283117363
 10
-36.5641366962
 20
7.7363065272
 10
-36.5658375399
 20
7.7442556624
 10
-36.5673219965
 20
7.7521425334
 10
-36.5685880175
 20
7.7599604836
 10
-36.5696341664
 20
7.7677022618
 10
-36.5704604293
 20
7.7753511111
 10
-36.5710658866
 20
7.7829008211
 10
-36.5714502984
 20
7.7903451819
 10
-36.5716161604
 20
7.7976684128
 10
-36.5715649596
 20
7.8048619323
 10
-36.5712965008
 20
7.8119239252
 10
-36.5708116349
 20
7.8188494744
  0
LINE
  5
299
100
AcDbEntity
  8
RACCORDO
100
AcDbLine
 62
250
  6
CONTINUOUS
 10
-37.1456506773
 20
6.9171735682
 11
31.8973117766
 21
-41.9035733762
  0
LINE
  5
29A
100
AcDbEntity
  8
RACCORDO
100
AcDbLine
 62
250
  6
CONTINUOUS
 10
31.8404778888
 20
-40.7670785723
 11
-36.3589703201
 21
7.4572137294
  0
LINE
  5
29B
100
AcDbEntity
  8
ASSI
100
AcDbLine
 62
7
  6
CONTINUOUS
 10
31.8259996595
 20
-40.4556396146
 11
-36.1517023082
 21
7.6118544162
  0
LINE
  5
29C
100
AcDbEntity
  8
ASSI
100
AcDbLine
 62
7
  6
CONTINUOUS
 10
-36.4053769381
 20
8.7811789609
 11
31.7809726716
 21
-39.4338512325
  0
LINE
  5
29D
100
AcDbEntity
  8
0
100
AcDbLine
 62
7
  6
CONTINUOUS
 10
-36.4053769381
 20
9.4811789609
 11
31.7514114165
 21
-38.7129482685
  0
LWPOLYLINE
  5
29E
100
AcDbEntity
  8
RACCORDO
100
AcDbPolyline
 62
7
  6
CONTINUOUS
 90
62
 70
0
 10
31.8267557615
 20
-40.4719040072
 10
-36.0552193679
 20
7.5279206484
 10
-36.0627402951
 20
7.5334196663
 10
-36.0705641669
 20
7.5393358031
 10
-36.078671063
 20
7.5456717194
 10
-36.0870295485
 20
7.5524196861
 10
-36.0956229345
 20
7.5595820391
 10
-36.1044354196
 20
7.5671611957
 10
-36.1134353685
 20
7.5751450943
 10
-36.1226044358
 20
7.5835315661
 10
-36.1319248956
 20
7.5923179419
 10
-36.141365312
 20
7.601487636
 10
-36.1509076654
 20
7.6110355381
 10
-36.1605321092
 20
7.6209535126
 10
-36.1702043455
 20
7.6312168406
 10
-36.1799055169
 20
7.6418155684
 10
-36.1896161602
 20
7.6527378146
 10
-36.1993015601
 20
7.663952392
 10
-36.2089429416
 20
7.6754447235
 10
-36.2185221567
 20
7.6871998665
 10
-36.2280067426
 20
7.6991829498
 10
-36.2373797291
 20
7.7113764907
 10
-36.2466241649
 20
7.7237622116
 10
-36.2557097645
 20
7.7363013911
 10
-36.2646217057
 20
7.7489739181
 10
-36.2733453961
 20
7.7617594146
 10
-36.2818537674
 20
7.7746165999
 10
-36.2901348301
 20
7.7875237481
 10
-36.2981769696
 20
7.8004591347
 10
-36.305957034
 20
7.8133799819
 10
-36.3134661233
 20
7.8262635405
 10
-36.3206964387
 20
7.8390880421
 10
-36.3276299961
 20
7.8518115555
 10
-36.334261837
 20
7.864412286
 10
-36.3405877299
 20
7.8768683887
 10
-36.346594345
 20
7.8891382307
 10
-36.3522801154
 20
7.9012002699
 10
-36.3576454783
 20
7.9130352558
 10
-36.3626836117
 20
7.9246062382
 10
-36.3673969186
 20
7.9358940437
 10
-36.3717895857
 20
7.9468816136
 10
-36.3758607306
 20
7.9575369508
 10
-36.3796165896
 20
7.9678440546
 10
-36.38306472
 20
7.9777885017
 10
-36.3862092125
 20
7.9873429119
 10
-36.3890587297
 20
7.9964908859
 10
-36.3916252681
 20
8.0052251691
 10
-36.3939199383
 20
8.0135338903
 10
-36.3959546137
 20
8.0214057808
 10
-36.3977424964
 20
8.0288338681
 10
-36.3992975475
 20
8.035813081
 10
-36.4006337092
 20
8.0423364778
 10
-36.4017653466
 20
8.0483970831
 10
-36.4027074031
 20
8.0539898171
 10
-36.4034754508
 20
8.0591110263
 10
-36.4040852007
 20
8.0637547215
 10
-36.4045527289
 20
8.0679127086
 10
-36.4048952506
 20
8.071582433
 10
-36.4051305237
 20
8.0747630539
 10
-36.405276567
 20
8.0774504671
 10
-36.4053521821
 20
8.0796440626
 10
-36.4053765587
 20
8.0813467812
  0
LWPOLYLINE
  5
29F
100
AcDbEntity
  8
RACCORDO
100
AcDbPolyline
 62
250
  6
CONTINUOUS
 90
22
 70
0
 10
-39.3921051182
 20
2.7260348777
 10
-39.3673152207
 20
2.7204972046
 10
-39.3426540046
 20
2.7143658536
 10
-39.3181463563
 20
2.707647012
 10
-39.293817007
 20
2.7003474601
 10
-39.269690508
 20
2.6924745639
 10
-39.2457912059
 20
2.6840362682
 10
-39.2221432181
 20
2.6750410882
 10
-39.1987704083
 20
2.6654981012
 10
-39.1756963626
 20
2.6554169372
 10
-39.1529443655
 20
2.6448077695
 10
-39.1305373766
 20
2.6336813039
 10
-39.1084980074
 20
2.6220487685
 10
-39.0868484982
 20
2.6099219018
 10
-39.0656106962
 20
2.5973129414
 10
-39.0448060328
 20
2.5842346114
 10
-39.0244555026
 20
2.5707001093
 10
-39.0045796417
 20
2.5567230932
 10
-38.9851985074
 20
2.5423176675
 10
-38.9663316576
 20
2.5274983692
 10
-38.9479981313
 20
2.5122801527
 10
-38.9302164293
 20
2.4966783751
  0
LWPOLYLINE
  5
2A0
100
AcDbEntity
  8
RACCORDO
100
AcDbPolyline
 62
7
  6
CONTINUOUS
 90
4
 70
0
 10
54.0436661263
 20
-41.0971953199
 10
53.9615588055
 20
-41.046497332
 10
53.8812519369
 20
-40.9935245233
 10
53.8359273038
 20
-40.9620608983
  0
LINE
  5
2A1
100
AcDbEntity
  8
RACCORDO
100
AcDbLine
 62
7
  6
CONTINUOUS
 10
-38.0069811247
 20
17.9569165918
 11
-38.0071082012
 21
17.9570064139
  0
LINE
  5
2A2
100
AcDbEntity
  8
RACCORDO
100
AcDbLine
 62
7
  6
CONTINUOUS
 10
-37.3554033483
 20
17.9100155824
 11
-38.0731772797
 21
18.4175583967
  0
LINE
  5
2A3
100
AcDbEntity
  8
RACCORDO
100
AcDbLine
 62
250
  6
CONTINUOUS
 10
-37.5498495571
 20
18.3648948152
 11
-38.0790680231
 21
18.7391087812
  0
LWPOLYLINE
  5
2A4
100
AcDbEntity
  8
RACCORDO
100
AcDbPolyline
 62
7
  6
CONTINUOUS
 90
25
 70
0
 10
-38.0069829374
 20
17.9569179398
 10
-38.0080689502
 20
17.9577014985
 10
-38.010514845
 20
17.9596297115
 10
-38.012953525
 20
17.9618015923
 10
-38.0153768323
 20
17.9642270951
 10
-38.0178725327
 20
17.9670147815
 10
-38.020596859
 20
17.9703990045
 10
-38.0235553795
 20
17.974485
 10
-38.0266907274
 20
17.979294512
 10
-38.030014564
 20
17.9849564814
 10
-38.0334899374
 20
17.991539752
 10
-38.03704925
 20
17.9990506826
 10
-38.0406436245
 20
18.0075227095
 10
-38.0442231479
 20
18.0169828961
 10
-38.0477293279
 20
18.0274252089
 10
-38.0511053773
 20
18.0388299454
 10
-38.0543051455
 20
18.0511937737
 10
-38.0572840097
 20
18.0645037071
 10
-38.0599976261
 20
18.0787282331
 10
-38.0624090892
 20
18.0938497163
 10
-38.0644851108
 20
18.1098524028
 10
-38.0661943612
 20
18.1267162241
 10
-38.0675083472
 20
18.1444247127
 10
-38.0684006783
 20
18.1629550565
 10
-38.0687242995
 20
18.1744950149
  0
LWPOLYLINE
  5
2A5
100
AcDbEntity
  8
RACCORDO
100
AcDbPolyline
 62
250
  6
CONTINUOUS
 90
14
 70
0
 10
-37.8861285171
 20
39.5133647324
 10
-37.8505543025
 20
39.4654303076
 10
-37.8139385976
 20
39.4186265031
 10
-37.7762880012
 20
39.3729624919
 10
-37.7376087324
 20
39.3284467459
 10
-37.6979083451
 20
39.2850884606
 10
-37.6571957659
 20
39.2428975042
 10
-37.6154778381
 20
39.2018815505
 10
-37.5727626947
 20
39.162049124
 10
-37.5290616535
 20
39.1234107872
 10
-37.4843831553
 20
39.0859741226
 10
-37.4387351661
 20
39.049745891
 10
-37.3921287698
 20
39.0147347848
 10
-37.3644441572
 20
38.9948349988
  0
LWPOLYLINE
  5
2A6
100
AcDbEntity
  8
RACCORDO
100
AcDbPolyline
 62
250
  6
CONTINUOUS
 90
16
 70
0
 10
-38.9334838779
 20
39.3312518648
 10
-38.8944723408
 20
39.2785602278
 10
-38.8543348497
 20
39.227139226
 10
-38.8130714046
 20
39.1769888596
 10
-38.7706736161
 20
39.1280995797
 10
-38.7271498735
 20
39.0804809352
 10
-38.6825253447
 20
39.0341615721
 10
-38.6367986548
 20
38.9891417245
 10
-38.5899711786
 20
38.9454211584
 10
-38.5420722087
 20
38.9030278174
 10
-38.4931015281
 20
38.8619630749
 10
-38.4430593538
 20
38.8222255576
 10
-38.3919756291
 20
38.7838390884
 10
-38.3398603352
 20
38.7468116085
 10
-38.2867034909
 20
38.7111351766
 10
-38.2325050963
 20
38.676809793
  0
LWPOLYLINE
  5
2A7
100
AcDbEntity
  8
RACCORDO
100
AcDbPolyline
 62
7
  6
CONTINUOUS
 90
12
 70
0
 10
-37.3553945493
 20
17.9100280349
 10
-37.3101108694
 20
17.882606026
 10
-37.251604098
 20
17.8582139611
 10
-37.1878296779
 20
17.8426897166
 10
-37.1188126977
 20
17.8359804861
 10
-37.0456522789
 20
17.8383321219
 10
-36.9678624695
 20
17.8500824978
 10
-36.8859292216
 20
17.8708937401
 10
-36.8024095137
 20
17.8999980797
 10
-36.7181556721
 20
17.9371395935
 10
-36.6323153704
 20
17.9825742045
 10
-36.5448886088
 20
18.0363019127
  0
LWPOLYLINE
  5
2A8
100
AcDbEntity
  8
RACCORDO
100
AcDbPolyline
 62
7
  6
CONTINUOUS
 90
3
 70
0
 10
54.0625366677
 20
-41.1094697979
 10
54.0561644963
 20
-41.1050907972
 10
54.0436661263
 20
-41.0971953199
  0
LINE
  5
2A9
100
AcDbEntity
  8
RACCORDO
100
AcDbLine
 62
250
  6
CONTINUOUS
 10
53.6419825351
 20
-40.8131621287
 11
54.0436661263
 21
-41.0971953199
  0
LINE
  5
2AA
100
AcDbEntity
  8
RACCORDO
100
AcDbLine
 62
7
  6
CONTINUOUS
 10
53.6344652206
 20
-40.8067775748
 11
54.0441700623
 21
-41.0964826467
  0
LINE
  5
2AB
100
AcDbEntity
  8
RACCORDO
100
AcDbLine
 62
7
  6
CONTINUOUS
 10
54.061223527
 20
-41.1085412672
 11
54.062535565
 21
-41.1094690182
  0
LWPOLYLINE
  5
2AC
100
AcDbEntity
  8
RACCORDO
100
AcDbPolyline
 62
7
  6
CONTINUOUS
 90
80
 70
0
 10
53.8359273038
 20
-40.9620608983
 10
53.8027647162
 20
-40.9382904713
 10
53.7261199008
 20
-40.8808124521
 10
53.651331608
 20
-40.8211024191
 10
53.5784061406
 20
-40.759165862
 10
53.5073561002
 20
-40.695012637
 10
53.4382049819
 20
-40.6286631584
 10
53.3709750168
 20
-40.5601392798
 10
53.3056859311
 20
-40.4894622946
 10
53.2423498886
 20
-40.4166466644
 10
53.1809769485
 20
-40.3417050581
 10
53.1215811504
 20
-40.264654691
 10
53.0641784759
 20
-40.1855163971
 10
53.008781588
 20
-40.1043086453
 10
52.9554031224
 20
-40.0210500068
 10
52.9040576538
 20
-39.9357633147
 10
52.8547597241
 20
-39.8484746117
 10
52.8075237451
 20
-39.7592112023
 10
52.7623585592
 20
-39.6679916082
 10
52.719269834
 20
-39.5748292822
 10
52.6782657472
 20
-39.4797409582
 10
52.6393599676
 20
-39.3827572592
 10
52.6025655514
 20
-39.2839133375
 10
52.5678935834
 20
-39.1832418447
 10
52.535349867
 20
-39.080762508
 10
52.5049386288
 20
-38.9764920042
 10
52.4766663235
 20
-38.870452035
 10
52.4505417749
 20
-38.7626748209
 10
52.4265722032
 20
-38.6531933319
 10
52.4047638536
 20
-38.5420380879
 10
52.3851217072
 20
-38.429236195
 10
52.3676499919
 20
-38.3148164744
 10
52.3523531578
 20
-38.1988104008
 10
52.339234818
 20
-38.0812468239
 10
52.3282974196
 20
-37.9621510704
 10
52.3195435355
 20
-37.8415485388
 10
52.3129762107
 20
-37.7194761599
 10
52.3085974779
 20
-37.5959774268
 10
52.3064081332
 20
-37.4710929249
 10
52.3064081546
 20
-37.3448480554
 10
52.3085975382
 20
-37.217264142
 10
52.3129762962
 20
-37.0883664791
 10
52.3195436274
 20
-36.9581968632
 10
52.3282975092
 20
-36.8268019029
 10
52.3392349111
 20
-36.6942224895
 10
52.352353258
 20
-36.5604879975
 10
52.3676500948
 20
-36.4256284743
 10
52.3851218032
 20
-36.2896777424
 10
52.4047639361
 20
-36.1526737079
 10
52.4265722641
 20
-36.0146528464
 10
52.4505417987
 20
-35.8756492975
 10
52.4766662994
 20
-35.7357024249
 10
52.5049385671
 20
-35.5948571156
 10
52.5353497957
 20
-35.4531575776
 10
52.5678935218
 20
-35.3106351275
 10
52.6025655014
 20
-35.1673155911
 10
52.6393599266
 20
-35.0232272697
 10
52.6782657166
 20
-34.8784181244
 10
52.7192698056
 20
-34.7329438462
 10
52.762358512
 20
-34.5868538002
 10
52.8075236674
 20
-34.4401768752
 10
52.8547596298
 20
-34.2929383774
 10
52.9040575815
 20
-34.1451696614
 10
52.9554030917
 20
-33.9969180837
 10
53.0087815775
 20
-33.8482331043
 10
53.064178431
 20
-33.6991580474
 10
53.1215810427
 20
-33.5497294766
 10
53.1809767968
 20
-33.3999869867
 10
53.2423497418
 20
-33.2499736808
 10
53.3056858139
 20
-33.0997269602
 10
53.3709749229
 20
-32.9492779318
 10
53.4382048901
 20
-32.798659058
 10
53.5073560019
 20
-32.6479187309
 10
53.578406035
 20
-32.4971120593
 10
53.6513314916
 20
-32.3462916486
 10
53.7261197725
 20
-32.1954862122
 10
53.8027645909
 20
-32.0447150785
 10
53.8812518361
 20
-31.8940118074
 10
53.9615587461
 20
-31.7434242176
 10
54.0561644963
 20
-31.5698978553
  0
LWPOLYLINE
  5
2AD
100
AcDbEntity
  8
RACCORDO
100
AcDbPolyline
 62
250
  6
CONTINUOUS
 90
49
 70
0
 10
-38.2281005574
 20
6.6507359043
 10
-38.2129939301
 20
6.6487569621
 10
-38.1973587502
 20
6.646353471
 10
-38.1812108993
 20
6.6435278672
 10
-38.164566692
 20
6.6402831731
 10
-38.1474431218
 20
6.6366225223
 10
-38.1298578426
 20
6.632549161
 10
-38.1118287999
 20
6.6280670733
 10
-38.0933742179
 20
6.6231809672
 10
-38.0745128417
 20
6.6178958016
 10
-38.0552638383
 20
6.6122169249
 10
-38.0356467464
 20
6.6061501254
 10
-38.0156814588
 20
6.5997016214
 10
-37.9953882591
 20
6.5928779512
 10
-37.9747877518
 20
6.585686056
 10
-37.9539008115
 20
6.5781333284
 10
-37.9327486481
 20
6.570227446
 10
-37.9113527489
 20
6.5619764297
 10
-37.889734809
 20
6.5533887245
 10
-37.8679167653
 20
6.5444730874
 10
-37.8459207972
 20
6.5352385361
 10
-37.8237692686
 20
6.5256944054
 10
-37.8014846654
 20
6.5158504108
 10
-37.7790896329
 20
6.5057165275
 10
-37.756606976
 20
6.495302938
 10
-37.7340595326
 20
6.4846202117
 10
-37.7114701982
 20
6.4736792067
 10
-37.6888619624
 20
6.4624909489
 10
-37.6662577983
 20
6.4510667804
 10
-37.6436806511
 20
6.439418327
 10
-37.621153462
 20
6.4275573989
 10
-37.5986991246
 20
6.4154960166
 10
-37.5763404294
 20
6.403246457
 10
-37.5541000529
 20
6.3908212198
 10
-37.5320005949
 20
6.3782329026
 10
-37.5100644889
 20
6.3654943117
 10
-37.4883139473
 20
6.3526185078
 10
-37.4667710594
 20
6.3396185702
 10
-37.4454577074
 20
6.3265076978
 10
-37.4243954767
 20
6.3132993185
 10
-37.4036057508
 20
6.3000068623
 10
-37.3831096536
 20
6.2866438125
 10
-37.362927967
 20
6.2732238048
 10
-37.343081173
 20
6.2597604952
 10
-37.323589444
 20
6.2462675311
 10
-37.3044725868
 20
6.232758601
 10
-37.2857500202
 20
6.2192474209
 10
-37.2674407552
 20
6.2057477194
 10
-37.2495633863
 20
6.192273209
  0
LINE
  5
2AE
100
AcDbEntity
  8
RACCORDO
100
AcDbLine
 62
250
  6
CONTINUOUS
 10
-38.0237017862
 20
27.9528157658
 11
-37.5498495571
 21
27.6177516413
  0
LINE
  5
2AF
100
AcDbEntity
  8
RACCORDO
100
AcDbLine
 62
250
  6
CONTINUOUS
 10
-36.8303812024
 20
29.5694476954
 11
-36.5448886088
 21
29.3675739465
  0
LINE
  5
2B0
100
AcDbEntity
  8
DRAFT
100
AcDbLine
 62
7
  6
CONTINUOUS
 10
-36.3913880456
 20
30.0026888073
 11
-36.037834655
 21
29.7526888073
  0
LWPOLYLINE
  5
2B1
100
AcDbEntity
  8
RACCORDO
100
AcDbPolyline
 62
250
  6
CONTINUOUS
 90
46
 70
0
 10
-38.9382838403
 20
5.1452526519
 10
-38.9200248181
 20
5.1477721296
 10
-38.9011727514
 20
5.1498065402
 10
-38.8817492633
 20
5.1513535501
 10
-38.8617766322
 20
5.1524113849
 10
-38.8412777665
 20
5.1529788313
 10
-38.8202761781
 20
5.1530552385
 10
-38.7987959556
 20
5.1526405189
 10
-38.7768617364
 20
5.1517351481
 10
-38.7544986788
 20
5.1503401645
 10
-38.731732433
 20
5.1484571683
 10
-38.7085891116
 20
5.1460883191
 10
-38.6850952595
 20
5.143236334
 10
-38.661277824
 20
5.1399044843
 10
-38.6371641233
 20
5.1360965914
 10
-38.6127818155
 20
5.1318170231
 10
-38.5881588668
 20
5.1270706879
 10
-38.5633235194
 20
5.1218630297
 10
-38.5383042591
 20
5.1162000219
 10
-38.5131297826
 20
5.1100881596
 10
-38.4878289648
 20
5.1035344532
 10
-38.4624308253
 20
5.0965464196
 10
-38.4369644954
 20
5.0891320741
 10
-38.4114591848
 20
5.0812999208
 10
-38.3859441475
 20
5.0730589431
 10
-38.3604486492
 20
5.0644185933
 10
-38.3350019327
 20
5.0553887817
 10
-38.309633185
 20
5.0459798655
 10
-38.2843715039
 20
5.0362026365
 10
-38.259245864
 20
5.0260683091
 10
-38.2342850843
 20
5.0155885072
 10
-38.2095177943
 20
5.0047752511
 10
-38.1849724018
 20
4.9936409433
 10
-38.16067706
 20
4.9821983548
 10
-38.1366596354
 20
4.9704606102
 10
-38.1129476757
 20
4.9584411723
 10
-38.089568378
 20
4.9461538275
 10
-38.0665485583
 20
4.933612669
 10
-38.0439146199
 20
4.9208320815
 10
-38.0216925235
 20
4.9078267241
 10
-37.9999077578
 20
4.8946115137
 10
-37.9785853094
 20
4.8812016082
 10
-37.957749635
 20
4.8676123883
 10
-37.9374246328
 20
4.8538594409
 10
-37.9176336153
 20
4.8399585403
 10
-37.8983992826
 20
4.8259256307
  0
LINE
  5
2B2
100
AcDbEntity
  8
ASSI
100
AcDbLine
 62
7
  6
CONTINUOUS
 10
-37.3644437234
 20
38.9948346921
 11
32.207637696
 21
-10.2000558608
  0
LINE
  5
2B3
100
AcDbEntity
  8
RACCORDO
100
AcDbLine
 62
250
  6
CONTINUOUS
 10
-38.6009831415
 20
40.9445109383
 11
32.0186355126
 21
-8.9911002969
  0
LWPOLYLINE
  5
2B4
100
AcDbEntity
  8
RACCORDO
100
AcDbPolyline
 62
250
  6
CONTINUOUS
 90
17
 70
0
 10
-38.0613949013
 20
18.0874900815
 10
-38.049570226
 20
18.0869348211
 10
-38.0278752665
 20
18.0867025495
 10
-38.0058219694
 20
18.0872385682
 10
-37.9834209169
 20
18.0885418362
 10
-37.9606821676
 20
18.0906120034
 10
-37.937620664
 20
18.0934473464
 10
-37.9142481952
 20
18.0970460485
 10
-37.8905698356
 20
18.1014082643
 10
-37.8665954987
 20
18.1065328511
 10
-37.8423423212
 20
18.1124168206
 10
-37.8178261852
 20
18.1190576838
 10
-37.7930564467
 20
18.1264534641
 10
-37.7680519737
 20
18.1345990987
 10
-37.7428435933
 20
18.1434853146
 10
-37.7174457136
 20
18.1531061258
 10
-37.7058320092
 20
18.1578060649
  0
LWPOLYLINE
  5
2B5
100
AcDbEntity
  8
RACCORDO
100
AcDbPolyline
 62
250
  6
CONTINUOUS
 90
102
 70
0
 10
-38.2325050963
 20
38.676809793
 10
-38.2306577779
 20
38.6756979199
 10
-38.2287872271
 20
38.67461951
 10
-38.2268934441
 20
38.6735745632
 10
-38.2249771038
 20
38.6725633809
 10
-38.2230375312
 20
38.6715856617
 10
-38.2210727007
 20
38.6706405012
 10
-38.2190827495
 20
38.6697277708
 10
-38.2170675404
 20
38.668847599
 10
-38.2150246365
 20
38.6679994671
 10
-38.212954359
 20
38.6671832829
 10
-38.2108563867
 20
38.6663991385
 10
-38.2087273183
 20
38.6656467923
 10
-38.2065675073
 20
38.6649260991
 10
-38.2043766002
 20
38.6642372039
 10
-38.2021501351
 20
38.6635803006
 10
-38.1998880003
 20
38.6629550965
 10
-38.1975903075
 20
38.6623618842
 10
-38.1952529297
 20
38.6618017355
 10
-38.1928755955
 20
38.6612743963
 10
-38.1904585763
 20
38.6607801206
 10
-38.1879985599
 20
38.6603207424
 10
-38.1854955238
 20
38.6598961158
 10
-38.1829494905
 20
38.6595063866
 10
-38.1803572155
 20
38.6591538259
 10
-38.1777187298
 20
38.6588383094
 10
-38.1750340024
 20
38.6585599613
 10
-38.1722996953
 20
38.6583214253
 10
-38.1695153959
 20
38.6581225878
 10
-38.1666815169
 20
38.6579635623
 10
-38.1637959585
 20
38.6578473329
 10
-38.1608582276
 20
38.6577738916
 10
-38.1578688172
 20
38.6577432463
 10
-38.1548271067
 20
38.6577584045
 10
-38.1517329688
 20
38.6578194303
 10
-38.1485865308
 20
38.6579262595
 10
-38.1453875543
 20
38.6580817085
 10
-38.142136082
 20
38.6582858395
 10
-38.1388320711
 20
38.6585385902
 10
-38.1354751558
 20
38.6588425889
 10
-38.1320654663
 20
38.6591978694
 10
-38.1286028723
 20
38.659604398
 10
-38.1250866167
 20
38.6600647025
 10
-38.1215167286
 20
38.6605788095
 10
-38.1178931789
 20
38.6611466925
 10
-38.1142151235
 20
38.6617707988
 10
-38.1104827911
 20
38.6624510983
 10
-38.1066959529
 20
38.6631876212
 10
-38.1028530783
 20
38.6639829049
 10
-38.0989550115
 20
38.6648367049
 10
-38.0950009084
 20
38.6657492657
 10
-38.0909867053
 20
38.6667238588
 10
-38.0869128597
 20
38.667760224
 10
-38.0827789142
 20
38.6688586215
 10
-38.0785794336
 20
38.6700231031
 10
-38.0743141645
 20
38.6712535944
 10
-38.0699833604
 20
38.6725501698
 10
-38.0655823463
 20
38.6739171044
 10
-38.0611112479
 20
38.6753542346
 10
-38.0565699396
 20
38.6768617239
 10
-38.0519533695
 20
38.6784443387
 10
-38.0472618157
 20
38.6801018453
 10
-38.0424950001
 20
38.6818344774
 10
-38.0376470371
 20
38.6836477027
 10
-38.0327180974
 20
38.6855413055
 10
-38.0277080102
 20
38.6875155014
 10
-38.0226103779
 20
38.6895764056
 10
-38.0174254584
 20
38.6917237504
 10
-38.0121529939
 20
38.6939578036
 10
-38.0067858128
 20
38.6962854831
 10
-38.001324128
 20
38.6987065217
 10
-37.9957677268
 20
38.7012211867
 10
-37.990108799
 20
38.7038371968
 10
-37.9843477559
 20
38.7065541687
 10
-37.9784841863
 20
38.7093724859
 10
-37.9725090461
 20
38.7123010179
 10
-37.966422724
 20
38.7153393569
 10
-37.9602248313
 20
38.7184879108
 10
-37.9539051577
 20
38.7217567727
 10
-37.9474640635
 20
38.7251455224
 10
-37.9409011883
 20
38.7286545801
 10
-37.9342052404
 20
38.7322952995
 10
-37.9273769699
 20
38.736067008
 10
-37.9204156266
 20
38.7399703781
 10
-37.9133076679
 20
38.7440187807
 10
-37.9060544261
 20
38.7482111223
 10
-37.8986545688
 20
38.7525484964
 10
-37.8910905565
 20
38.7570475543
 10
-37.883362885
 20
38.7617076321
 10
-37.8754710585
 20
38.7665293936
 10
-37.8673960498
 20
38.7715314822
 10
-37.8591476124
 20
38.7767070403
 10
-37.8507159929
 20
38.7820629254
 10
-37.8420529033
 20
38.7876383542
 10
-37.8331499267
 20
38.79343807
 10
-37.8240154801
 20
38.7994573294
 10
-37.8146265264
 20
38.8057211185
 10
-37.8049226751
 20
38.8122725331
 10
-37.7949643166
 20
38.8190684775
 10
-37.7849095864
 20
38.8260046504
 10
-37.7747325554
 20
38.8331049191
 10
-37.7543253003
 20
38.8475502388
  0
LINE
  5
2B6
100
AcDbEntity
  8
RACCORDO
100
AcDbLine
 62
250
  6
CONTINUOUS
 10
-39.5545915397
 20
45.3129354126
 11
32.7955040126
 21
-5.8463077719
  0
LINE
  5
2B7
100
AcDbEntity
  8
0
100
AcDbLine
 62
250
  6
CONTINUOUS
 10
-48.4742955767
 20
54.5497290195
 11
42.2182041056
 21
-9.5795525086
  0
LWPOLYLINE
  5
2B8
100
AcDbEntity
  8
0
100
AcDbPolyline
 62
250
  6
CONTINUOUS
 90
82
 70
0
 10
42.2182041056
 20
-9.5795525086
 10
42.2473149603
 20
-9.6004456581
 10
42.2763421506
 20
-9.6218943863
 10
42.3052856818
 20
-9.64389869
 10
42.3341552594
 20
-9.6664663518
 10
42.3629411989
 20
-9.6895895764
 10
42.391614426
 20
-9.7132449897
 10
42.4201747217
 20
-9.7374330401
 10
42.4486223469
 20
-9.762153254
 10
42.476928952
 20
-9.787380872
 10
42.5050944031
 20
-9.8131163809
 10
42.5331188964
 20
-9.8393592564
 10
42.5609745811
 20
-9.8660832194
 10
42.5886612954
 20
-9.8932887065
 10
42.6161792829
 20
-9.9209752316
 10
42.643501305
 20
-9.9491151293
 10
42.6706272138
 20
-9.9777088315
 10
42.6975572574
 20
-10.0067558456
 10
42.7242647943
 20
-10.0362271177
 10
42.7507496529
 20
-10.0661230395
 10
42.7770121224
 20
-10.0964431481
 10
42.8030262552
 20
-10.1271571056
 10
42.8287918657
 20
-10.1582652742
 10
42.8543092731
 20
-10.189767211
 10
42.8795532884
 20
-10.2216313693
 10
42.9045236908
 20
-10.2538580526
 10
42.929220849
 20
-10.286446868
 10
42.9536204585
 20
-10.3193652234
 10
42.977722295
 20
-10.3526134031
 10
43.0015267432
 20
-10.3861910258
 10
43.0250104116
 20
-10.4200645014
 10
43.0481730458
 20
-10.4542340592
 10
43.0710150711
 20
-10.4886993664
 10
43.0935141134
 20
-10.5234259917
 10
43.1156699119
 20
-10.5584141432
 10
43.1374829069
 20
-10.5936635041
 10
43.1589317725
 20
-10.6291388579
 10
43.1800162177
 20
-10.664840354
 10
43.2007367193
 20
-10.7007677303
 10
43.2210730986
 20
-10.7368851564
 10
43.2410250572
 20
-10.7731927602
 10
43.2605930834
 20
-10.8096902985
 10
43.2797581728
 20
-10.8463413869
 10
43.2985199998
 20
-10.8831460973
 10
43.3168790816
 20
-10.9201042414
 10
43.3348176706
 20
-10.9571790496
 10
43.3523354319
 20
-10.994370571
 10
43.3694328914
 20
-11.0316786402
 10
43.3860935841
 20
-11.0690661709
 10
43.4023171517
 20
-11.1065331607
 10
43.4181041408
 20
-11.1440794974
 10
43.4334394334
 20
-11.1816679361
 10
43.4483226597
 20
-11.2192984492
 10
43.4627543729
 20
-11.2569709525
 10
43.4767208277
 20
-11.2946481232
 10
43.4902216332
 20
-11.3323298849
 10
43.5032573565
 20
-11.3700162065
 10
43.5158156753
 20
-11.4076698421
 10
43.5278961867
 20
-11.4452906873
 10
43.5394994607
 20
-11.4828787445
 10
43.5506146201
 20
-11.5203969366
 10
43.5612412471
 20
-11.5578451257
 10
43.5713799153
 20
-11.5952233544
 10
43.5810212194
 20
-11.6324948262
 10
43.5901647276
 20
-11.6696593721
 10
43.5988110143
 20
-11.7067170737
 10
43.606952168
 20
-11.74363152
 10
43.6145877401
 20
-11.7804024947
 10
43.6217183071
 20
-11.8170301356
 10
43.6283374768
 20
-11.8534785737
 10
43.6344447915
 20
-11.8897475667
 10
43.6400408207
 20
-11.9258372882
 10
43.6451206954
 20
-11.9617125038
 10
43.6496839481
 20
-11.9973729711
 10
43.6537311407
 20
-12.0328188745
 10
43.6572589286
 20
-12.0680156312
 10
43.6602668315
 20
-12.1029631174
 10
43.6627554055
 20
-12.1376614101
 10
43.6647228417
 20
-12.1720762409
 10
43.6661685511
 20
-12.2061961783
 10
43.6670931762
 20
-12.2400326203
 10
43.6674967451
 20
-12.2735855496
  0
LINE
  5
2B9
100
AcDbEntity
  8
RACCORDO
100
AcDbLine
 62
250
  6
CONTINUOUS
 10
-37.3804481312
 20
38.9876657367
 11
-37.36020913
 21
38.9797348549
  0
LWPOLYLINE
  5
2BA
100
AcDbEntity
  8
RACCORDO
100
AcDbPolyline
 62
7
  6
CONTINUOUS
 90
9
 70
0
 10
-37.3572807937
 20
38.9774248002
 10
-37.3496778181
 20
38.9742861199
 10
-37.3423006509
 20
38.9711216151
 10
-37.335173162
 20
38.96794943
 10
-37.328284372
 20
38.9647728998
 10
-37.3216692047
 20
38.9616165872
 10
-37.3153395103
 20
38.9584957472
 10
-37.30926063
 20
38.955401972
 10
-37.3069986426
 20
38.9542148859
  0
LWPOLYLINE
  5
2BB
100
AcDbEntity
  8
RACCORDO
100
AcDbPolyline
 62
250
  6
CONTINUOUS
 90
4
 70
0
 10
-37.36020913
 20
38.9797348549
 10
-37.3403120955
 20
38.9710700093
 10
-37.3207772167
 20
38.9616799919
 10
-37.30926063
 20
38.955401972
  0
LWPOLYLINE
  5
2BC
100
AcDbEntity
  8
RACCORDO
100
AcDbPolyline
 62
250
  6
CONTINUOUS
 90
20
 70
0
 10
32.2190808102
 20
-10.0310603222
 10
32.2045305323
 20
-10.0074195696
 10
32.1823451314
 20
-9.9685644733
 10
32.1612472381
 20
-9.9285293176
 10
32.1412828823
 20
-9.8872147607
 10
32.1224791718
 20
-9.8444283303
 10
32.1049079775
 20
-9.8000639447
 10
32.0886525724
 20
-9.754084364
 10
32.0737706688
 20
-9.7063887081
 10
32.0603669942
 20
-9.6568856808
 10
32.0485097141
 20
-9.6055184767
 10
32.0381998471
 20
-9.5522434952
 10
32.0295519669
 20
-9.4969229926
 10
32.022628451
 20
-9.4395583149
 10
32.0173198198
 20
-9.3803500466
 10
32.013724044
 20
-9.3191598364
 10
32.0118736501
 20
-9.2560491437
 10
32.0114758719
 20
-9.1916010511
 10
32.0124108756
 20
-9.1260467523
 10
32.0147959055
 20
-9.059206402
  0
LWPOLYLINE
  5
2BD
100
AcDbEntity
  8
RACCORDO
100
AcDbPolyline
 62
250
  6
CONTINUOUS
 90
13
 70
0
 10
32.7955039812
 20
-51.4061790502
 10
32.7103641366
 20
-51.1014659916
 10
32.6295457721
 20
-50.795123214
 10
32.5530181101
 20
-50.4872228057
 10
32.4805334934
 20
-50.1773759111
 10
32.4122847959
 20
-49.8661079019
 10
32.3488630382
 20
-49.5548897558
 10
32.2902212166
 20
-49.2438563729
 10
32.2362640127
 20
-48.9330662533
 10
32.1874365849
 20
-48.6239259933
 10
32.1438016572
 20
-48.3169911496
 10
32.1050785085
 20
-48.0119389441
 10
32.0599315852
 20
-47.6096189025
  0
LWPOLYLINE
  5
2BE
100
AcDbEntity
  8
RACCORDO
100
AcDbPolyline
 62
250
  6
CONTINUOUS
 90
22
 70
0
 10
32.2984758872
 20
-47.9668610621
 10
32.2951232985
 20
-47.9524989951
 10
32.2909749382
 20
-47.9382589019
 10
32.2860349924
 20
-47.9241551525
 10
32.2803084462
 20
-47.9102019795
 10
32.2738010784
 20
-47.8964134632
 10
32.2665194557
 20
-47.882803518
 10
32.2584709262
 20
-47.869385878
 10
32.2496636118
 20
-47.8561740832
 10
32.2401064002
 20
-47.843181466
 10
32.2298089358
 20
-47.8304211375
 10
32.21878161
 20
-47.8179059746
 10
32.2070355507
 20
-47.8056486064
 10
32.1945826113
 20
-47.7936614023
 10
32.1814353582
 20
-47.7819564588
 10
32.1676070585
 20
-47.7705455876
 10
32.1531116669
 20
-47.7594403037
 10
32.137963811
 20
-47.7486518137
 10
32.1221787767
 20
-47.7381910046
 10
32.1057724931
 20
-47.7280684325
 10
32.0887615163
 20
-47.7182943125
 10
32.0711630123
 20
-47.7088785077
  0
LWPOLYLINE
  5
2BF
100
AcDbEntity
  8
RACCORDO
100
AcDbPolyline
 62
250
  6
CONTINUOUS
 90
13
 70
0
 10
32.7955043286
 20
-51.4061802592
 10
32.7403284677
 20
-51.1180610519
 10
32.6874761393
 20
-50.8294033982
 10
32.6369660143
 20
-50.5402512997
 10
32.5887471185
 20
-50.250265707
 10
32.5429388117
 20
-49.9598860444
 10
32.4997814153
 20
-49.6703391097
 10
32.4592867659
 20
-49.3817330269
 10
32.4214638006
 20
-49.0941077054
 10
32.3864744468
 20
-48.8086168695
 10
32.3543442824
 20
-48.5257027353
 10
32.3250135318
 20
-48.245090023
 10
32.2984758442
 20
-47.9668610679
  0
LWPOLYLINE
  5
2C0
100
AcDbEntity
  8
RACCORDO
100
AcDbPolyline
 62
250
  6
CONTINUOUS
 90
22
 70
0
 10
32.0599315852
 20
-47.6096189025
 10
32.0487491679
 20
-47.504880648
 10
32.0377720719
 20
-47.3945869487
 10
32.0269097473
 20
-47.2774337553
 10
32.0166123259
 20
-47.1545596821
 10
32.007716475
 20
-47.0296349333
 10
32.0002513431
 20
-46.9030779634
 10
31.9942437956
 20
-46.7745011664
 10
31.990299486
 20
-46.6464934072
 10
31.9884240635
 20
-46.5194467297
 10
31.9884940359
 20
-46.3930880612
 10
31.9907821576
 20
-46.2690754655
 10
31.9952407895
 20
-46.1478504774
 10
32.0017056262
 20
-46.0291178469
 10
32.0102129676
 20
-45.9134533232
 10
32.0206801155
 20
-45.8011371913
 10
32.0329716891
 20
-45.6920168804
 10
32.0470411569
 20
-45.5860156732
 10
32.0628100106
 20
-45.4832282867
 10
32.080171592
 20
-45.3836569677
 10
32.099053968
 20
-45.2870764774
 10
32.0997218139
 20
-45.2840040764
  0
LWPOLYLINE
  5
2C1
100
AcDbEntity
  8
RACCORDO
100
AcDbPolyline
 62
250
  6
CONTINUOUS
 90
46
 70
0
 10
32.7955042314
 20
-51.4061792271
 10
32.7090216469
 20
-50.4643154286
 10
32.6264600566
 20
-49.5190079248
 10
32.5478209181
 20
-48.5702726383
 10
32.473105685
 20
-47.6181256029
 10
32.4023156098
 20
-46.662582795
 10
32.3354517443
 20
-45.7036601329
 10
32.2725152578
 20
-44.7413737489
 10
32.2135072709
 20
-43.7757398457
 10
32.1584286591
 20
-42.8067745271
 10
32.1072803831
 20
-41.8344940949
 10
32.0600633554
 20
-40.8589149024
 10
32.0167782753
 20
-39.8800532091
 10
31.9774258956
 20
-38.8979254747
 10
31.9420069203
 20
-37.9125482094
 10
31.910521873
 20
-36.9239378256
 10
31.8829712982
 20
-35.9321109299
 10
31.8593556924
 20
-34.9370841948
 10
31.8396754049
 20
-33.9388742074
 10
31.8239307721
 20
-32.9374977209
 10
31.8121220826
 20
-31.9329715655
 10
31.8042495112
 20
-30.9253125176
 10
31.8003131863
 20
-29.914537483
 10
31.800313188
 20
-28.9006634388
 10
31.8042495163
 20
-27.8837073424
 10
31.8121220911
 20
-26.8636862537
 10
31.823930784
 20
-25.8406172905
 10
31.8396754202
 20
-24.8145175691
 10
31.8593557112
 20
-23.7854042968
 10
31.8829713204
 20
-22.7532947335
 10
31.9105218986
 20
-21.7182061445
 10
31.9420069493
 20
-20.6801558739
 10
31.977425928
 20
-19.6391613288
 10
32.0167783111
 20
-18.5952399388
 10
32.0600633946
 20
-17.5484091791
 10
32.1072804257
 20
-16.4986866045
 10
32.158428705
 20
-15.4460898322
 10
32.2135073202
 20
-14.3906364743
 10
32.2725153105
 20
-13.3323442228
 10
32.3354518004
 20
-12.2712308827
 10
32.4023156715
 20
-11.2073141778
 10
32.4731057525
 20
-10.1406119576
 10
32.5478209844
 20
-9.0711422822
 10
32.6264601109
 20
-7.9989231183
 10
32.7090216793
 20
-6.9239723382
 10
32.7955042311
 20
-5.8463079264
  0
LINE
  5
2C2
100
AcDbEntity
  8
RACCORDO
100
AcDbLine
 62
250
  6
CONTINUOUS
 10
32.2984758872
 20
-47.9668610621
 11
32.2811480293
 21
-47.7694596305
  0
LINE
  5
2C3
100
AcDbEntity
  8
RACCORDO
100
AcDbLine
 62
250
  6
CONTINUOUS
 10
32.2811480293
 20
-47.7694596305
 11
32.2693536906
 21
-47.6244191782
  0
LWPOLYLINE
  5
2C4
100
AcDbEntity
  8
RACCORDO
100
AcDbPolyline
 62
250
  6
CONTINUOUS
 90
26
 70
0
 10
-37.4756288274
 20
17.9017927232
 10
-37.5015396971
 20
17.8951968361
 10
-37.5271843637
 20
17.8893487142
 10
-37.552553696
 20
17.8842504627
 10
-37.5776297906
 20
17.8799031172
 10
-37.6023953751
 20
17.8763094765
 10
-37.6268406747
 20
17.8734707581
 10
-37.6509590156
 20
17.8713857325
 10
-37.6747386824
 20
17.8700561877
 10
-37.6981646896
 20
17.8694837237
 10
-37.721225219
 20
17.8696674438
 10
-37.7439097666
 20
17.8706083575
 10
-37.7662029177
 20
17.8723069466
 10
-37.7880858032
 20
17.8747608431
 10
-37.8095458068
 20
17.8779690531
 10
-37.8305714083
 20
17.8819303076
 10
-37.8511460702
 20
17.8866404739
 10
-37.8712570842
 20
17.8920965784
 10
-37.8908948644
 20
17.8982959566
 10
-37.910047985
 20
17.9052341801
 10
-37.9287057561
 20
17.9129074952
 10
-37.946857921
 20
17.9213117873
 10
-37.9644938775
 20
17.9304418081
 10
-37.9816047987
 20
17.9402933468
 10
-37.9981799451
 20
17.9508605636
 10
-38.0069811247
 20
17.9569165918
  0
LWPOLYLINE
  5
2C5
100
AcDbEntity
  8
0
100
AcDbPolyline
 62
7
  6
CONTINUOUS
 90
58
 70
0
 10
-43.4124503464
 20
61.7664980115
 10
-43.5142881006
 20
61.8375901233
 10
-43.6160289423
 20
61.9067849857
 10
-43.7176728716
 20
61.9740825987
 10
-43.8192546148
 20
62.0395046481
 10
-43.9207394455
 20
62.1030294482
 10
-44.0220231849
 20
62.164591941
 10
-44.1231007259
 20
62.2241874068
 10
-44.2239771756
 20
62.2818205654
 10
-44.3245636756
 20
62.3374405185
 10
-44.4248670103
 20
62.3910490368
 10
-44.5248803953
 20
62.4426443497
 10
-44.6244946199
 20
62.4921702468
 10
-44.7237003313
 20
62.539620452
 10
-44.8225068821
 20
62.5850012413
 10
-44.9208331197
 20
62.6282752323
 10
-45.0186891749
 20
62.6694448445
 10
-45.1160649167
 20
62.7085076584
 10
-45.2128487993
 20
62.7454190334
 10
-45.3090282915
 20
62.7801725264
 10
-45.4046159244
 20
62.8127745806
 10
-45.4995377458
 20
62.8431998846
 10
-45.5938061471
 20
62.8714502923
 10
-45.6874087369
 20
62.8975239498
 10
-45.7802343887
 20
62.9213899855
 10
-45.872268505
 20
62.9430429133
 10
-45.9635256832
 20
62.9624882192
 10
-46.0539385886
 20
62.9797114893
 10
-46.143520776
 20
62.9947130839
 10
-46.2322586906
 20
63.0074926427
 10
-46.3200443335
 20
63.0180346708
 10
-46.4068621391
 20
63.0263354602
 10
-46.492727673
 20
63.0323987189
 10
-46.5775796338
 20
63.0362200762
 10
-46.6614316904
 20
63.037797791
 10
-46.7442701739
 20
63.0371336044
 10
-46.8259927757
 20
63.0342283678
 10
-46.9065839865
 20
63.0290806417
 10
-46.9860593155
 20
63.0216918658
 10
-47.0643629823
 20
63.0120672107
 10
-47.1415078252
 20
63.0002025662
 10
-47.2174810059
 20
62.9861020426
 10
-47.2921882281
 20
62.9697831411
 10
-47.3656149373
 20
62.9512468356
 10
-47.437775688
 20
62.9304921523
 10
-47.5086198487
 20
62.9075336702
 10
-47.5781586381
 20
62.8823649891
 10
-47.6463808374
 20
62.8549925094
 10
-47.7132021585
 20
62.8254500114
 10
-47.7786097235
 20
62.7937406814
 10
-47.8426164104
 20
62.7598613333
 10
-47.9051765651
 20
62.7238361886
 10
-47.9662991985
 20
62.6856569779
 10
-48.0259752997
 20
62.6453319706
 10
-48.0841321815
 20
62.6029101968
 10
-48.1407591467
 20
62.5583965178
 10
-48.1958668925
 20
62.5117860722
 10
-48.2209273252
 20
62.4894401673
  0
LINE
  5
2C6
100
AcDbEntity
  8
0
100
AcDbLine
 62
250
  6
CONTINUOUS
 10
-45.0121904185
 20
60.4671715015
 11
45.6803092638
 21
-3.6621100266
  0
LINE
  5
2C7
100
AcDbEntity
  8
0
100
AcDbLine
 62
7
  6
CONTINUOUS
 10
47.2800493358
 20
-2.3627835166
 11
-43.4124503464
 21
61.7664980115
  0
LWPOLYLINE
  5
2C8
100
AcDbEntity
  8
0
100
AcDbPolyline
 62
250
  6
CONTINUOUS
 90
82
 70
0
 10
45.6803092638
 20
-3.6621100266
 10
45.7789011455
 20
-3.7327526051
 10
45.8774072529
 20
-3.8051889696
 10
45.9757954465
 20
-3.8793955596
 10
46.0740333162
 20
-3.9553481683
 10
46.172089063
 20
-4.0330221752
 10
46.2699315083
 20
-4.1123925877
 10
46.3675287223
 20
-4.1934338274
 10
46.464848697
 20
-4.2761194247
 10
46.5618602279
 20
-4.3604222864
 10
46.6585314226
 20
-4.4463150808
 10
46.7548306997
 20
-4.533769961
 10
46.8507274621
 20
-4.622758322
 10
46.9461900826
 20
-4.713251316
 10
47.0411873621
 20
-4.8052196639
 10
47.135689528
 20
-4.898633435
 10
47.2296654687
 20
-4.9934624923
 10
47.3230842907
 20
-5.0896760931
 10
47.4159167727
 20
-5.1872427702
 10
47.5081322729
 20
-5.2861310626
 10
47.59970043
 20
-5.3863089616
 10
47.6905927136
 20
-5.4877435894
 10
47.7807790792
 20
-5.590402285
 10
47.8702297465
 20
-5.69425183
 10
47.9589168973
 20
-5.7992579627
 10
48.0468110958
 20
-5.9053868236
 10
48.1338833099
 20
-6.0126041645
 10
48.2201066863
 20
-6.1208746407
 10
48.3054525909
 20
-6.2301634273
 10
48.3898927103
 20
-6.3404352187
 10
48.4734010724
 20
-6.4516534983
 10
48.5559498376
 20
-6.5637824558
 10
48.6375115897
 20
-6.6767859435
 10
48.7180614337
 20
-6.7906265394
 10
48.7975724865
 20
-6.9052676658
 10
48.8760182228
 20
-7.0206723279
 10
48.9533747669
 20
-7.136802129
 10
49.0296161887
 20
-7.2536197043
 10
49.1047170212
 20
-7.3710874389
 10
49.1786546065
 20
-7.4891662664
 10
49.2514041212
 20
-7.6078182683
 10
49.3229411468
 20
-7.7270051982
 10
49.3932441923
 20
-7.8466872566
 10
49.462289546
 20
-7.9668259637
 10
49.5300539854
 20
-8.0873826673
 10
49.5965173505
 20
-8.2083171239
 10
49.661657171
 20
-8.3295905143
 10
49.7254514224
 20
-8.451163786
 10
49.7878812449
 20
-8.5729962159
 10
49.8489254268
 20
-8.6950486615
 10
49.9085632629
 20
-8.8172818798
 10
49.966777319
 20
-8.9396549238
 10
50.0235477447
 20
-9.0621285271
 10
50.0788551702
 20
-9.1846632872
 10
50.1326835791
 20
-9.3072180388
 10
50.1850145065
 20
-9.4297534259
 10
50.2358300169
 20
-9.5522300832
 10
50.2851156141
 20
-9.6746068751
 10
50.3328543005
 20
-9.7968445376
 10
50.3790295955
 20
-9.9189037924
 10
50.4236285302
 20
-10.0407435837
 10
50.4666356141
 20
-10.1623248341
 10
50.5080358832
 20
-10.283608489
 10
50.547817936
 20
-10.4045536873
 10
50.5859678429
 20
-10.5251216558
 10
50.6224721955
 20
-10.645273677
 10
50.6573211776
 20
-10.764969192
 10
50.690502432
 20
-10.8841697986
 10
50.7220041816
 20
-11.0028372806
 10
50.7518183018
 20
-11.1209316347
 10
50.7799341045
 20
-11.2384149794
 10
50.8063414095
 20
-11.3552496743
 10
50.8310336862
 20
-11.4713964081
 10
50.8540018405
 20
-11.5868180818
 10
50.8752374183
 20
-11.7014775869
 10
50.8947357046
 20
-11.8153359887
 10
50.9124894363
 20
-11.9283566806
 10
50.9284917294
 20
-12.0405036118
 10
50.9427393026
 20
-12.1517391231
 10
50.9552274841
 20
-12.2620270277
 10
50.9659502098
 20
-12.3713326041
 10
50.9749029692
 20
-12.4796208623
  0
LWPOLYLINE
  5
2C9
100
AcDbEntity
  8
RACCORDO
100
AcDbPolyline
 62
250
  6
CONTINUOUS
 90
24
 70
0
 10
32.2578943113
 20
-9.4578502293
 10
32.2571383755
 20
-9.4394579961
 10
32.2552923408
 20
-9.4167517307
 10
32.252536838
 20
-9.3941009143
 10
32.2488750118
 20
-9.3715313962
 10
32.2443110412
 20
-9.3490689332
 10
32.2388501346
 20
-9.3267391597
 10
32.232498524
 20
-9.3045675589
 10
32.2252634581
 20
-9.2825794333
 10
32.2171531935
 20
-9.2607998761
 10
32.208176986
 20
-9.2392537424
 10
32.1983450791
 20
-9.217965621
 10
32.1876686933
 20
-9.1969598062
 10
32.1761600126
 20
-9.1762602702
 10
32.1638321708
 20
-9.1558906356
 10
32.1506992368
 20
-9.1358741484
 10
32.136776198
 20
-9.116233652
 10
32.1220789435
 20
-9.0969915602
 10
32.1066242461
 20
-9.0781698324
 10
32.090429743
 20
-9.0597899483
 10
32.0735139155
 20
-9.0418728832
 10
32.0558960682
 20
-9.0244390844
 10
32.0375963069
 20
-9.0075084477
 10
32.0186355156
 20
-8.9911002944
  0
LWPOLYLINE
  5
2CA
100
AcDbEntity
  8
RACCORDO
100
AcDbPolyline
 62
250
  6
CONTINUOUS
 90
19
 70
0
 10
32.0147959055
 20
-9.059206402
 10
32.0272934326
 20
-8.8427463677
 10
32.0398381408
 20
-8.6911975302
 10
32.0563800809
 20
-8.5363894385
 10
32.0771043672
 20
-8.3781772209
 10
32.1020554671
 20
-8.2165779061
 10
32.1311182857
 20
-8.0517855073
 10
32.1644224007
 20
-7.8837386149
 10
32.2020390326
 20
-7.7124092116
 10
32.2437276632
 20
-7.5380742855
 10
32.2895934334
 20
-7.3607037928
 10
32.3396908082
 20
-7.1802830157
 10
32.3936553027
 20
-6.9971501477
 10
32.4515630547
 20
-6.8112913396
 10
32.5134458235
 20
-6.6227231646
 10
32.5788160667
 20
-6.4318708051
 10
32.6475127727
 20
-6.2389021978
 10
32.7197349065
 20
-6.043705437
 10
32.7955040126
 20
-5.8463077719
  0
LWPOLYLINE
  5
2CB
100
AcDbEntity
  8
RACCORDO
100
AcDbPolyline
 62
7
  6
CONTINUOUS
 90
34
 70
0
 10
32.2671380679
 20
-9.321335501
 10
32.1955409678
 20
-10.378704179
 10
32.1169047472
 20
-11.6083664443
 10
32.0435014452
 20
-12.8343283337
 10
31.9753329741
 20
-14.0565621713
 10
31.9124011899
 20
-15.2750404615
 10
31.8547076734
 20
-16.4897364392
 10
31.8022539553
 20
-17.7006229343
 10
31.7550415228
 20
-18.9076730896
 10
31.7130716176
 20
-20.1108608435
 10
31.6763454254
 20
-21.3101593802
 10
31.644864115
 20
-22.5055418293
 10
31.6186286217
 20
-23.6969822671
 10
31.5976397831
 20
-24.8844541418
 10
31.5818984258
 20
-26.0679308958
 10
31.5714051756
 20
-27.2473868442
 10
31.5661605254
 20
-28.4227958636
 10
31.5661649628
 20
-29.5941314956
 10
31.5714188023
 20
-30.7613678077
 10
31.581922189
 20
-31.9244789519
 10
31.5976752581
 20
-33.0834387564
 10
31.618677994
 20
-34.2382210767
 10
31.6449301857
 20
-35.3888001589
 10
31.6764316131
 20
-36.5351503304
 10
31.7131819297
 20
-37.6772458417
 10
31.7551805769
 20
-38.8150612924
 10
31.8024269737
 20
-39.9485712038
 10
31.8549204367
 20
-41.0777499917
 10
31.9126600708
 20
-42.2025726603
 10
31.9756449436
 20
-43.323014073
 10
32.0438740183
 20
-44.4390486922
 10
32.1173460224
 20
-45.5506514845
 10
32.1960596344
 20
-46.6577974243
 10
32.2693536906
 20
-47.6244191782
  0
LWPOLYLINE
  5
2CC
100
AcDbEntity
  8
RACCORDO
100
AcDbPolyline
 62
250
  6
CONTINUOUS
 90
18
 70
0
 10
32.2671360943
 20
-9.3213457389
 10
32.2766919656
 20
-9.1910031706
 10
32.292062804
 20
-9.0046748957
 10
32.3097450277
 20
-8.8145776031
 10
32.3297711525
 20
-8.6208099925
 10
32.3521231074
 20
-8.4237508313
 10
32.3768290885
 20
-8.223318535
 10
32.4039120957
 20
-8.0195195496
 10
32.4332973031
 20
-7.8128747622
 10
32.4649951865
 20
-7.6033220388
 10
32.4990123088
 20
-7.3908564254
 10
32.535214432
 20
-7.1761002314
 10
32.5735963129
 20
-6.9589939558
 10
32.6141444802
 20
-6.7395447456
 10
32.6566571897
 20
-6.5184962787
 10
32.7010360119
 20
-6.2960893193
 10
32.7473237064
 20
-6.0720380788
 10
32.7955043057
 20
-5.8463070217
  0
LWPOLYLINE
  5
2CD
100
AcDbEntity
  8
0
100
AcDbPolyline
 62
250
  6
CONTINUOUS
 90
67
 70
0
 10
45.6803092638
 20
-3.6621100266
 10
45.6004996668
 20
-3.7277666702
 10
45.5208976124
 20
-3.7949232089
 10
45.4415370707
 20
-3.8635509834
 10
45.3624519093
 20
-3.9336207067
 10
45.2836758777
 20
-4.0051024764
 10
45.205242594
 20
-4.0779657875
 10
45.1271855297
 20
-4.1521795453
 10
45.0495379958
 20
-4.227712079
 10
44.9723331286
 20
-4.3045311548
 10
44.8956038755
 20
-4.38260399
 10
44.8193829809
 20
-4.4618972669
 10
44.7437029722
 20
-4.5423771469
 10
44.6685961461
 20
-4.6240092849
 10
44.5940945545
 20
-4.7067588443
 10
44.5202299913
 20
-4.7905905115
 10
44.4470339782
 20
-4.8754685111
 10
44.3745377519
 20
-4.9613566212
 10
44.3027722504
 20
-5.0482181889
 10
44.2317680996
 20
-5.1360161457
 10
44.1615556009
 20
-5.2247130238
 10
44.0921647175
 20
-5.3142709714
 10
44.0236250623
 20
-5.4046517695
 10
43.9559658846
 20
-5.4958168479
 10
43.8892160581
 20
-5.5877273016
 10
43.8234040687
 20
-5.6803439077
 10
43.7585580015
 20
-5.7736271418
 10
43.69470553
 20
-5.867537195
 10
43.6318739032
 20
-5.9620339909
 10
43.5700899347
 20
-6.057077203
 10
43.509379991
 20
-6.1526262712
 10
43.4497699802
 20
-6.2486404197
 10
43.3912853411
 20
-6.3450786742
 10
43.333951032
 20
-6.4418998796
 10
43.2777915205
 20
-6.5390627171
 10
43.2228307729
 20
-6.6365257222
 10
43.1690922438
 20
-6.7342473024
 10
43.1165988661
 20
-6.8321857547
 10
43.0653730417
 20
-6.9302992837
 10
43.0154366313
 20
-7.0285460191
 10
42.9668109452
 20
-7.126884034
 10
42.9195167347
 20
-7.2252713624
 10
42.8735741827
 20
-7.3236660172
 10
42.8290028953
 20
-7.4220260082
 10
42.7858218934
 20
-7.5203093601
 10
42.7440496045
 20
-7.6184741303
 10
42.7037038552
 20
-7.7164784267
 10
42.664801863
 20
-7.8142804257
 10
42.6273602295
 20
-7.91183839
 10
42.5913949329
 20
-8.0091106866
 10
42.5569213216
 20
-8.1060558043
 10
42.5239541073
 20
-8.2026323716
 10
42.4925073588
 20
-8.298799174
 10
42.462594496
 20
-8.3945151723
 10
42.4342282844
 20
-8.4897395193
 10
42.4074208293
 20
-8.5844315779
 10
42.3821835708
 20
-8.678550938
 10
42.3585272791
 20
-8.7720574339
 10
42.3364620495
 20
-8.8649111615
 10
42.3159972983
 20
-8.9570724952
 10
42.2971417591
 20
-9.048502105
 10
42.2799034783
 20
-9.1391609731
 10
42.2642898126
 20
-9.2290104105
 10
42.250307425
 20
-9.3180120739
 10
42.2379622825
 20
-9.4061279814
 10
42.2272596536
 20
-9.4933205295
 10
42.2182041056
 20
-9.5795525086
  0
LINE
  5
2CE
100
AcDbEntity
  8
0
100
AcDbLine
 62
250
  6
CONTINUOUS
 10
47.2800493358
 20
-2.3627835166
 11
45.6803092638
 21
-3.6621100266
  0
LWPOLYLINE
  5
2CF
100
AcDbEntity
  8
0
100
AcDbPolyline
 62
250
  6
CONTINUOUS
 90
73
 70
0
 10
50.9749029689
 20
-12.4796208621
 10
50.8873895529
 20
-12.5211552146
 10
50.7985073169
 20
-12.5616230757
 10
50.7082925896
 20
-12.6010079053
 10
50.6167822444
 20
-12.6392936054
 10
50.5240136842
 20
-12.6764645278
 10
50.4300248262
 20
-12.7125054795
 10
50.3348540863
 20
-12.7474017296
 10
50.2385403635
 20
-12.781139015
 10
50.1411230241
 20
-12.8137035462
 10
50.0426418852
 20
-12.8450820133
 10
49.943137199
 20
-12.875261591
 10
49.8426496358
 20
-12.9042299439
 10
49.7412202678
 20
-12.9319752319
 10
49.6388905522
 20
-12.9584861147
 10
49.5357023139
 20
-12.9837517565
 10
49.4316977291
 20
-13.0077618306
 10
49.3269193073
 20
-13.0305065234
 10
49.2214098745
 20
-13.0519765383
 10
49.1152125554
 20
-13.0721631001
 10
49.008370756
 20
-13.0910579578
 10
48.9009281455
 20
-13.1086533887
 10
48.7929286389
 20
-13.1249422009
 10
48.6844163786
 20
-13.1399177368
 10
48.5754357166
 20
-13.1535738754
 10
48.4660311966
 20
-13.1659050351
 10
48.3562475353
 20
-13.1769061757
 10
48.2461296044
 20
-13.1865728009
 10
48.1357224123
 20
-13.1949009595
 10
48.0250710856
 20
-13.2018872476
 10
47.9142208506
 20
-13.2075288097
 10
47.803217015
 20
-13.2118233399
 10
47.6921049493
 20
-13.214769083
 10
47.5809300682
 20
-13.2163648349
 10
47.469737812
 20
-13.2166099434
 10
47.3585736282
 20
-13.2155043083
 10
47.2474829528
 20
-13.2130483815
 10
47.1365111917
 20
-13.2092431669
 10
47.0257037023
 20
-13.2040902197
 10
46.9151057748
 20
-13.1975916461
 10
46.8047626137
 20
-13.1897501022
 10
46.6947193195
 20
-13.1805687932
 10
46.58502087
 20
-13.1700514716
 10
46.4757121021
 20
-13.1582024362
 10
46.3668376934
 20
-13.14502653
 10
46.2584421441
 20
-13.1305291385
 10
46.1505697584
 20
-13.1147161871
 10
46.0432646271
 20
-13.097594139
 10
45.9365706086
 20
-13.0791699925
 10
45.830531312
 20
-13.059451278
 10
45.7251900786
 20
-13.0384460552
 10
45.6205899643
 20
-13.0161629096
 10
45.5167737222
 20
-12.9926109488
 10
45.413783785
 20
-12.9677997993
 10
45.3116622476
 20
-12.941739602
 10
45.2104508501
 20
-12.9144410085
 10
45.1101909604
 20
-12.8859151766
 10
45.0109235576
 20
-12.8561737655
 10
44.9126892152
 20
-12.8252289315
 10
44.8155280843
 20
-12.7930933225
 10
44.7194798776
 20
-12.7597800734
 10
44.6245838526
 20
-12.7253028001
 10
44.5308787961
 20
-12.6896755946
 10
44.4384030081
 20
-12.6529130187
 10
44.347194286
 20
-12.6150300984
 10
44.2572899095
 20
-12.5760423174
 10
44.168726625
 20
-12.5359656112
 10
44.081540631
 20
-12.4948163603
 10
43.9957675629
 20
-12.4526113836
 10
43.9114424785
 20
-12.4093679314
 10
43.828599844
 20
-12.3651036787
 10
43.7472735194
 20
-12.3198367174
 10
43.6674967453
 20
-12.2735855495
  0
LINE
  5
2D0
100
AcDbEntity
  8
0
100
AcDbLine
 62
250
  6
CONTINUOUS
 10
52.900662552
 20
-11.3547094643
 11
50.9749029692
 21
-12.4796208623
  0
LINE
  5
2D1
100
AcDbEntity
  8
0
100
AcDbLine
 62
250
  6
CONTINUOUS
 10
43.6674967451
 20
-12.2735855496
 11
43.6767550798
 21
-14.5290411834
  0
LINE
  5
2D2
100
AcDbEntity
  8
0
100
AcDbLine
 62
250
  6
CONTINUOUS
 10
43.6767550798
 20
-14.5290411834
 11
43.6851915136
 21
-16.7621421025
  0
LINE
  5
2D3
100
AcDbEntity
  8
0
100
AcDbLine
 62
250
  6
CONTINUOUS
 10
43.6851915136
 20
-16.7621421025
 11
43.6928081667
 21
-18.972736623
  0
LINE
  5
2D4
100
AcDbEntity
  8
0
100
AcDbLine
 62
250
  6
CONTINUOUS
 10
43.6928081667
 20
-18.972736623
 11
43.699610122
 21
-21.1605805846
  0
LINE
  5
2D5
100
AcDbEntity
  8
0
100
AcDbLine
 62
250
  6
CONTINUOUS
 10
43.699610122
 20
-21.1605805846
 11
43.7066625175
 21
-23.7485894706
  0
LINE
  5
2D6
100
AcDbEntity
  8
0
100
AcDbLine
 62
250
  6
CONTINUOUS
 10
43.7066625175
 20
-23.7485894706
 11
43.7107875063
 21
-25.4681220477
  0
LINE
  5
2D7
100
AcDbEntity
  8
0
100
AcDbLine
 62
250
  6
CONTINUOUS
 10
43.7107875063
 20
-25.4681220477
 11
43.7151697173
 21
-27.5876770238
  0
LINE
  5
2D8
100
AcDbEntity
  8
0
100
AcDbLine
 62
250
  6
CONTINUOUS
 10
43.7151697173
 20
-27.5876770238
 11
43.7187519673
 21
-29.6843151072
  0
LINE
  5
2D9
100
AcDbEntity
  8
0
100
AcDbLine
 62
250
  6
CONTINUOUS
 10
43.7187519673
 20
-29.6843151072
 11
43.7215351617
 21
-31.7579587328
  0
LINE
  5
2DA
100
AcDbEntity
  8
0
100
AcDbLine
 62
250
  6
CONTINUOUS
 10
43.7215351617
 20
-31.7579587328
 11
43.7235221815
 21
-33.8085947773
  0
LINE
  5
2DB
100
AcDbEntity
  8
0
100
AcDbLine
 62
250
  6
CONTINUOUS
 10
43.7235221815
 20
-33.8085947773
 11
43.7247141182
 21
-35.8361187494
  0
LINE
  5
2DC
100
AcDbEntity
  8
0
100
AcDbLine
 62
250
  6
CONTINUOUS
 10
43.7247141182
 20
-35.8361187494
 11
43.725111084
 21
-37.8404404922
  0
LINE
  5
2DD
100
AcDbEntity
  8
0
100
AcDbLine
 62
250
  6
CONTINUOUS
 10
43.725111084
 20
-37.8404404922
 11
43.7247141196
 21
-39.82150976
  0
LINE
  5
2DE
100
AcDbEntity
  8
0
100
AcDbLine
 62
250
  6
CONTINUOUS
 10
43.7247141196
 20
-39.82150976
 11
43.723522181
 21
-41.7792734142
  0
LINE
  5
2DF
100
AcDbEntity
  8
0
100
AcDbLine
 62
250
  6
CONTINUOUS
 10
43.723522181
 20
-41.7792734142
 11
43.721535162
 21
-43.71363775
  0
LINE
  5
2E0
100
AcDbEntity
  8
0
100
AcDbLine
 62
250
  6
CONTINUOUS
 10
43.721535162
 20
-43.71363775
 11
43.7187519681
 21
-45.624493751
  0
LINE
  5
2E1
100
AcDbEntity
  8
0
100
AcDbLine
 62
250
  6
CONTINUOUS
 10
43.7187519681
 20
-45.624493751
 11
43.7151697183
 21
-47.5118129693
  0
LINE
  5
2E2
100
AcDbEntity
  8
0
100
AcDbLine
 62
250
  6
CONTINUOUS
 10
43.7151697183
 20
-47.5118129693
 11
43.7107875073
 21
-49.3755067479
  0
LINE
  5
2E3
100
AcDbEntity
  8
0
100
AcDbLine
 62
250
  6
CONTINUOUS
 10
43.7107875073
 20
-49.3755067479
 11
43.7056022963
 21
-51.2154799938
  0
LINE
  5
2E4
100
AcDbEntity
  8
0
100
AcDbLine
 62
250
  6
CONTINUOUS
 10
43.7056022963
 20
-51.2154799938
 11
43.6996101238
 21
-53.0316376126
  0
LINE
  5
2E5
100
AcDbEntity
  8
0
100
AcDbLine
 62
250
  6
CONTINUOUS
 10
43.6996101238
 20
-53.0316376126
 11
43.6928081682
 21
-54.8238955768
  0
LINE
  5
2E6
100
AcDbEntity
  8
0
100
AcDbLine
 62
250
  6
CONTINUOUS
 10
43.6928081682
 20
-54.8238955768
 11
43.6851915139
 21
-56.5922626433
  0
LINE
  5
2E7
100
AcDbEntity
  8
0
100
AcDbLine
 62
250
  6
CONTINUOUS
 10
43.6851915139
 20
-56.5922626433
 11
43.6767550805
 21
-58.3365020875
  0
LINE
  5
2E8
100
AcDbEntity
  8
0
100
AcDbLine
 62
250
  6
CONTINUOUS
 10
43.6767550805
 20
-58.3365020875
 11
43.6674967451
 21
-60.0564628188
  0
LWPOLYLINE
  5
2E9
100
AcDbEntity
  8
0
100
AcDbPolyline
 62
250
  6
CONTINUOUS
 90
82
 70
0
 10
43.6674967451
 20
-60.0564628188
 10
43.6670931688
 20
-60.0814154072
 10
43.6661685366
 20
-60.1059264025
 10
43.6647228203
 20
-60.1299958268
 10
43.6627553777
 20
-60.1536315769
 10
43.6602667976
 20
-60.1768257983
 10
43.6572588884
 20
-60.1995548941
 10
43.6537310938
 20
-60.2218183379
 10
43.6496838946
 20
-60.2436167162
 10
43.6451206351
 20
-60.2649281174
 10
43.6400407538
 20
-60.2857521014
 10
43.6344447181
 20
-60.3060891834
 10
43.6283373969
 20
-60.3259188989
 10
43.6217182205
 20
-60.3452408121
 10
43.6145876469
 20
-60.3640554482
 10
43.6069520682
 20
-60.3823437987
 10
43.5988109079
 20
-60.4001054135
 10
43.5901646146
 20
-60.4173408451
 10
43.5810210999
 20
-60.4340326043
 10
43.5713797892
 20
-60.450180219
 10
43.5612411144
 20
-60.4657842756
 10
43.5506144808
 20
-60.4808288857
 10
43.5394993149
 20
-60.4953135661
 10
43.5278960344
 20
-60.509238925
 10
43.5158155164
 20
-60.5225907235
 10
43.5032571911
 20
-60.5353684673
 10
43.4902214614
 20
-60.5475727848
 10
43.4767206495
 20
-60.5591911338
 10
43.4627541884
 20
-60.5702230104
 10
43.4483224688
 20
-60.5806690602
 10
43.4334392361
 20
-60.5905184751
 10
43.4181039373
 20
-60.5997707376
 10
43.4023169419
 20
-60.6084265129
 10
43.3860933681
 20
-60.6164767759
 10
43.3694326692
 20
-60.623921003
 10
43.3523352035
 20
-60.6307598698
 10
43.3348174362
 20
-60.6369861586
 10
43.3168788412
 20
-60.6425993354
 10
43.2985197533
 20
-60.6476000886
 10
43.2797579205
 20
-60.6519830415
 10
43.2605928257
 20
-60.6557476551
 10
43.2410247942
 20
-60.6588946232
 10
43.2210728307
 20
-60.6614204253
 10
43.2007364467
 20
-60.6633245147
 10
43.1800159407
 20
-60.6646075913
 10
43.1589314913
 20
-60.6652680094
 10
43.1374826215
 20
-60.6653052181
 10
43.1156696224
 20
-60.6647199183
 10
43.09351382
 20
-60.6635123461
 10
43.0710147738
 20
-60.6616819471
 10
43.0481727447
 20
-60.6592294207
 10
43.0250101068
 20
-60.6561568854
 10
43.0015264349
 20
-60.6524637836
 10
42.9777219833
 20
-60.6481508112
 10
42.9536201436
 20
-60.6432219687
 10
42.9292205309
 20
-60.6376766994
 10
42.9045233697
 20
-60.6315156899
 10
42.8795529644
 20
-60.6247448061
 10
42.8543089463
 20
-60.6173634872
 10
42.8287915362
 20
-60.6093724138
 10
42.8030259231
 20
-60.6007793137
 10
42.7770117878
 20
-60.5915836324
 10
42.7507493158
 20
-60.5817860326
 10
42.724264455
 20
-60.5713960668
 10
42.6975569159
 20
-60.560413183
 10
42.6706268703
 20
-60.5488380284
 10
42.6435009598
 20
-60.5366819531
 10
42.6161789362
 20
-60.5239444123
 10
42.5886609472
 20
-60.510626032
 10
42.5609742316
 20
-60.4967399151
 10
42.5331185459
 20
-60.4822855046
 10
42.5050940517
 20
-60.4672634237
 10
42.4769285994
 20
-60.4516885427
 10
42.4486219931
 20
-60.4355603102
 10
42.4201743665
 20
-60.418879328
 10
42.3916140693
 20
-60.401662192
 10
42.3629408273
 20
-60.3839082742
 10
42.3341548729
 20
-60.3656182366
 10
42.305285321
 20
-60.3468106061
 10
42.2763418695
 20
-60.3274915641
 10
42.2473147995
 20
-60.3076549464
 10
42.2182041056
 20
-60.2873007572
  0
LWPOLYLINE
  5
2EA
100
AcDbEntity
  8
RACCORDO
100
AcDbPolyline
 62
250
  6
CONTINUOUS
 90
28
 70
0
 10
-39.2494110694
 20
41.0067064491
 10
-39.2231263562
 20
41.0126326753
 10
-39.1967710357
 20
41.0179399512
 10
-39.1703751848
 20
41.0226222201
 10
-39.1439689269
 20
41.0266741386
 10
-39.1175823973
 20
41.0300910825
 10
-39.0912457086
 20
41.0328691523
 10
-39.0649889167
 20
41.0350051778
 10
-39.0388419862
 20
41.0364967211
 10
-39.0128347564
 20
41.0373420802
 10
-38.986996907
 20
41.0375402904
 10
-38.9613579248
 20
41.0370911253
 10
-38.9359470691
 20
41.0359950977
 10
-38.9107933394
 20
41.0342534582
 10
-38.8859254414
 20
41.0318681946
 10
-38.8613717546
 20
41.0288420288
 10
-38.8371603002
 20
41.0251784144
 10
-38.8133187087
 20
41.0208815324
 10
-38.7898741883
 20
41.0159562864
 10
-38.7668534944
 20
41.0104082972
 10
-38.7442828985
 20
41.0042438963
 10
-38.7221881584
 20
40.9974701185
 10
-38.7005944891
 20
40.9900946942
 10
-38.6795265336
 20
40.9821260403
 10
-38.6590083349
 20
40.9735732508
 10
-38.6390633086
 20
40.9644460862
 10
-38.6197142165
 20
40.9547549626
 10
-38.6009831398
 20
40.9445109397
  0
LWPOLYLINE
  5
2EB
100
AcDbEntity
  8
RACCORDO
100
AcDbPolyline
 62
7
  6
CONTINUOUS
 90
19
 70
0
 10
54.1963468594
 20
-31.0606120866
 10
54.1681849956
 20
-29.994351436
 10
54.1348625577
 20
-28.9246415472
 10
54.0963795456
 20
-27.8514824202
 10
54.0527347539
 20
-26.7748468989
 10
54.003929388
 20
-25.6947621394
 10
53.9499670644
 20
-24.61130961
 10
53.8908474293
 20
-23.5244899532
 10
53.8265708365
 20
-22.4343025265
 10
53.7571419643
 20
-21.3408268699
 10
53.6825604299
 20
-20.2440626593
 10
53.6028266161
 20
-19.1440102189
 10
53.5179463492
 20
-18.0407500609
 10
53.4279192875
 20
-16.9342823041
 10
53.3327457727
 20
-15.8246068298
 10
53.2324326566
 20
-14.7118037931
 10
53.1269822231
 20
-13.5958999125
 10
53.0163921882
 20
-12.4768684696
 10
52.900662552
 20
-11.3547094643
  0
LINE
  5
2EC
100
AcDbEntity
  8
0
100
AcDbLine
 62
250
  6
CONTINUOUS
 10
50.9749029692
 20
-12.4796208623
 11
50.991023069
 21
-14.7409181207
  0
LINE
  5
2ED
100
AcDbEntity
  8
0
100
AcDbLine
 62
250
  6
CONTINUOUS
 10
50.991023069
 20
-14.7409181207
 11
51.0057227834
 21
-16.9798070658
  0
LINE
  5
2EE
100
AcDbEntity
  8
0
100
AcDbLine
 62
250
  6
CONTINUOUS
 10
51.0057227834
 20
-16.9798070658
 11
51.0190062148
 21
-19.1961361565
  0
LINE
  5
2EF
100
AcDbEntity
  8
0
100
AcDbLine
 62
250
  6
CONTINUOUS
 10
51.0190062148
 20
-19.1961361565
 11
51.0308777468
 21
-21.3896590456
  0
LINE
  5
2F0
100
AcDbEntity
  8
0
100
AcDbLine
 62
250
  6
CONTINUOUS
 10
51.0308777468
 20
-21.3896590456
 11
51.0413425065
 21
-23.5604315785
  0
LINE
  5
2F1
100
AcDbEntity
  8
0
100
AcDbLine
 62
250
  6
CONTINUOUS
 10
51.0413425065
 20
-23.5604315785
 11
51.0504043586
 21
-25.7083880404
  0
LINE
  5
2F2
100
AcDbEntity
  8
0
100
AcDbLine
 62
250
  6
CONTINUOUS
 10
51.0504043586
 20
-25.7083880404
 11
51.0580663817
 21
-27.8334495332
  0
LWPOLYLINE
  5
2F3
100
AcDbEntity
  8
0
100
AcDbPolyline
 62
250
  6
CONTINUOUS
 90
34
 70
0
 10
51.0580663817
 20
-27.8334495332
 10
51.0643311014
 20
-29.9355343117
 10
51.0669405594
 20
-30.9779262994
 10
51.0692016618
 20
-32.0145640418
 10
51.0711144377
 20
-33.0454375481
 10
51.0726792753
 20
-34.0705243776
 10
51.0738961538
 20
-35.0898218145
 10
51.0747651499
 20
-36.1033097532
 10
51.0752866259
 20
-37.1109759082
 10
51.0754605313
 20
-38.112828978
 10
51.0752866247
 20
-39.1088526823
 10
51.074765149
 20
-40.0990306137
 10
51.0738961544
 20
-41.083370838
 10
51.0726792769
 20
-42.0618607919
 10
51.0711144392
 20
-43.034480025
 10
51.0692016624
 20
-44.0012244387
 10
51.0669405597
 20
-44.9620718285
 10
51.0643311021
 20
-45.9170113783
 10
51.0613733033
 20
-46.8660556654
 10
51.0580663828
 20
-47.809192681
 10
51.0544100268
 20
-48.7464008705
 10
51.0504043603
 20
-49.6776780447
 10
51.0460486896
 20
-50.6030070946
 10
51.0413425085
 20
-51.5223714239
 10
51.0362858316
 20
-52.4357693014
 10
51.0308777468
 20
-53.3431771969
 10
51.025117854
 20
-54.2445847736
 10
51.0190062174
 20
-55.1400095202
 10
51.0125415611
 20
-56.029451862
 10
51.0057227857
 20
-56.9128765868
 10
50.9985500384
 20
-57.7902475631
 10
50.9910230691
 20
-58.6615415009
 10
50.9831409024
 20
-59.5267476934
 10
50.9749029692
 20
-60.3858491505
  0
LWPOLYLINE
  5
2F4
100
AcDbEntity
  8
RACCORDO
100
AcDbPolyline
 62
7
  6
CONTINUOUS
 90
24
 70
0
 10
54.1963468594
 20
-41.4288327633
 10
54.1965268563
 20
-41.4099874878
 10
54.1961190115
 20
-41.3914835889
 10
54.195123394
 20
-41.3733355288
 10
54.1935399888
 20
-41.3555520538
 10
54.1913698127
 20
-41.3381527828
 10
54.188616567
 20
-41.3211668225
 10
54.1852856779
 20
-41.3046171202
 10
54.181379084
 20
-41.2885037013
 10
54.1768956248
 20
-41.2728210219
 10
54.171835159
 20
-41.2575738774
 10
54.1662029042
 20
-41.2427824893
 10
54.1600052938
 20
-41.2284648407
 10
54.1532464949
 20
-41.2146314362
 10
54.1459315729
 20
-41.2012928098
 10
54.1380701804
 20
-41.1884650322
 10
54.1296728431
 20
-41.1761629713
 10
54.1207422485
 20
-41.1643882978
 10
54.1112759034
 20
-41.1531377836
 10
54.1012724977
 20
-41.1424136821
 10
54.0907444835
 20
-41.1322328552
 10
54.0797102921
 20
-41.1226135919
 10
54.0681821187
 20
-41.1135653907
 10
54.0625366677
 20
-41.1094697979
  0
LWPOLYLINE
  5
2F5
100
AcDbEntity
  8
0
100
AcDbPolyline
 62
7
  6
CONTINUOUS
 90
82
 70
0
 10
52.900662552
 20
-11.3547094643
 10
52.8882413176
 20
-11.2448447546
 10
52.8740140295
 20
-11.1340059342
 10
52.8579806876
 20
-11.0221930031
 10
52.8401345166
 20
-10.9093669909
 10
52.8204822919
 20
-10.795566868
 10
52.7990443398
 20
-10.6809095461
 10
52.7758201359
 20
-10.5653998539
 10
52.7508102047
 20
-10.4490329627
 10
52.7240364458
 20
-10.3319112982
 10
52.6954950855
 20
-10.2140257931
 10
52.6651898976
 20
-10.0953855147
 10
52.6331541032
 20
-9.9761200902
 10
52.5993890944
 20
-9.8562397588
 10
52.5638934791
 20
-9.7357342814
 10
52.5266963017
 20
-9.614702568
 10
52.4877917035
 20
-9.4931309458
 10
52.4471855433
 20
-9.3710330878
 10
52.4049244423
 20
-9.2485489222
 10
52.3610122189
 20
-9.125693327
 10
52.3154450546
 20
-9.0024514242
 10
52.2682581153
 20
-8.8789185092
 10
52.2194431362
 20
-8.7550772067
 10
52.169008382
 20
-8.6309448918
 10
52.1170138124
 20
-8.5066689858
 10
52.0634658819
 20
-8.3822680098
 10
52.0083581361
 20
-8.2577234427
 10
51.9517311709
 20
-8.1331271415
 10
51.8935742891
 20
-8.0084591167
 10
51.8338981879
 20
-7.8837393578
 10
51.7727755545
 20
-7.7591196899
 10
51.7102153998
 20
-7.6346211261
 10
51.646208713
 20
-7.5102226532
 10
51.5808011479
 20
-7.3860130578
 10
51.5139798268
 20
-7.2619709412
 10
51.4457576275
 20
-7.1381177019
 10
51.3762188381
 20
-7.0146063218
 10
51.3053746774
 20
-6.8914590669
 10
51.2332139267
 20
-6.7686536711
 10
51.1597872175
 20
-6.6462763177
 10
51.0850799953
 20
-6.5243054493
 10
51.0091068147
 20
-6.4027626233
 10
50.9319619717
 20
-6.2817986957
 10
50.8536583049
 20
-6.161435933
 10
50.7741829759
 20
-6.0416520688
 10
50.6935917651
 20
-5.9225311594
 10
50.6118691633
 20
-5.8040527111
 10
50.5290306798
 20
-5.6862372176
 10
50.4451786232
 20
-5.5692302168
 10
50.3603266624
 20
-5.4530527802
 10
50.2744611285
 20
-5.3376838364
 10
50.1876433229
 20
-5.2232057077
 10
50.09985768
 20
-5.109600089
 10
50.0111197654
 20
-4.9968852855
 10
49.9215375781
 20
-4.8851985358
 10
49.8311246726
 20
-4.7745586488
 10
49.7398674944
 20
-4.6649468156
 10
49.6478333781
 20
-4.5564438479
 10
49.5550077263
 20
-4.4490345879
 10
49.4614051365
 20
-4.3427341935
 10
49.3671367352
 20
-4.2376689494
 10
49.2722149138
 20
-4.1338545263
 10
49.1766272809
 20
-4.0312752536
 10
49.0804477887
 20
-3.9300104044
 10
48.9836639061
 20
-3.8300487
 10
48.8862881643
 20
-3.7314014192
 10
48.7884321091
 20
-3.6341816709
 10
48.6901058716
 20
-3.5384013633
 10
48.5912993207
 20
-3.4440485884
 10
48.4920936093
 20
-3.3512007311
 10
48.3924793848
 20
-3.2598508407
 10
48.2924659997
 20
-3.170005868
 10
48.192162665
 20
-3.0817640502
 10
48.091576165
 20
-2.9951332107
 10
47.9906997153
 20
-2.9101055261
 10
47.8896221743
 20
-2.8267557625
 10
47.7883384349
 20
-2.7450814175
 10
47.6868536042
 20
-2.6650849935
 10
47.585271861
 20
-2.5868487641
 10
47.4836279317
 20
-2.5104001537
 10
47.38188709
 20
-2.4357117379
 10
47.2800493358
 20
-2.3627835166
  0
LWPOLYLINE
  5
2F6
100
AcDbEntity
  8
0
100
AcDbPolyline
 62
250
  6
CONTINUOUS
 90
33
 70
0
 10
50.9749029692
 20
-60.3858491505
 10
50.9659502148
 20
-60.4735716477
 10
50.9552274926
 20
-60.5598204974
 10
50.9427393131
 20
-60.6445670881
 10
50.9284917396
 20
-60.7277827588
 10
50.9124894448
 20
-60.8094404453
 10
50.894735712
 20
-60.8895146758
 10
50.8752374262
 20
-60.9679788566
 10
50.8540018494
 20
-61.0448069309
 10
50.8310336958
 20
-61.1199750127
 10
50.806341419
 20
-61.1934581072
 10
50.7799341136
 20
-61.2652318189
 10
50.7518183106
 20
-61.3352739794
 10
50.7220041906
 20
-61.4035612877
 10
50.6905024414
 20
-61.4700710355
 10
50.6573211874
 20
-61.5347827914
 10
50.6224722056
 20
-61.5976750319
 10
50.5859678532
 20
-61.6587267931
 10
50.5478179464
 20
-61.7179193687
 10
50.5080358938
 20
-61.7752330247
 10
50.4666356249
 20
-61.8306486663
 10
50.4236285411
 20
-61.8841494645
 10
50.3790296066
 20
-61.9357175679
 10
50.3328543118
 20
-61.9853357651
 10
50.2851156256
 20
-62.0329891268
 10
50.2358300286
 20
-62.07866173
 10
50.1850145186
 20
-62.1223383009
 10
50.1326835914
 20
-62.1640058453
 10
50.0788551828
 20
-62.2036504214
 10
50.0235477576
 20
-62.2412587278
 10
49.9667773322
 20
-62.276819714
 10
49.9085632764
 20
-62.3103214424
 10
49.8940752246
 20
-62.3182181503
  0
LWPOLYLINE
  5
2F7
100
AcDbEntity
  8
RACCORDO
100
AcDbPolyline
 62
7
  6
CONTINUOUS
 90
19
 70
0
 10
52.900662552
 20
-59.3023610653
 10
53.0163921882
 20
-58.3438684812
 10
53.1269822231
 20
-57.3812349655
 10
53.2324326566
 20
-56.4144605182
 10
53.3327457727
 20
-55.4435216507
 10
53.4279192875
 20
-54.4684418517
 10
53.5179463492
 20
-53.4892915866
 10
53.6028266161
 20
-52.5060702532
 10
53.6825604299
 20
-51.5187784537
 10
53.7571419643
 20
-50.5274884606
 10
53.8265708365
 20
-49.5322000567
 10
53.8908474293
 20
-48.5329134592
 10
53.9499670644
 20
-47.5297015923
 10
54.003929388
 20
-46.5225633126
 10
54.0527347539
 20
-45.5114997635
 10
54.0963795456
 20
-44.4965872986
 10
54.1348625577
 20
-43.4778513692
 10
54.1681849956
 20
-42.4552665241
 10
54.1963468594
 20
-41.4288327633
  0
LWPOLYLINE
  5
2F8
100
AcDbEntity
  8
RACCORDO
100
AcDbPolyline
 62
7
  6
CONTINUOUS
 90
24
 70
0
 10
54.0561644963
 20
-31.5698978553
 10
54.0681821187
 20
-31.546749428
 10
54.0797102921
 20
-31.523565565
 10
54.0907444835
 20
-31.5003572609
 10
54.1012724977
 20
-31.4771492223
 10
54.1112759034
 20
-31.4539796908
 10
54.1207422485
 20
-31.4308817183
 10
54.1296728431
 20
-31.4078571251
 10
54.1380701804
 20
-31.3848973028
 10
54.1459315729
 20
-31.3620081262
 10
54.1532464949
 20
-31.3392189453
 10
54.1600052938
 20
-31.3165564161
 10
54.1662029042
 20
-31.2940375509
 10
54.171835159
 20
-31.2716794329
 10
54.1768956248
 20
-31.2495081327
 10
54.181379084
 20
-31.2275509908
 10
54.1852856779
 20
-31.2058128629
 10
54.188616567
 20
-31.1842863328
 10
54.1913698127
 20
-31.1629735751
 10
54.1935399888
 20
-31.1419058033
 10
54.195123394
 20
-31.1211189062
 10
54.1961190115
 20
-31.1006344564
 10
54.1965268563
 20
-31.0804606633
 10
54.1963468594
 20
-31.0606120866
  0
LWPOLYLINE
  5
2F9
100
AcDbEntity
  8
0
100
AcDbPolyline
 62
250
  6
CONTINUOUS
 90
73
 70
0
 10
50.9749029654
 20
-60.3858491468
 10
50.8873895494
 20
-60.4404416642
 10
50.7985073135
 20
-60.4936050324
 10
50.7082925863
 20
-60.5453175219
 10
50.6167822412
 20
-60.5955579964
 10
50.5240136811
 20
-60.644305921
 10
50.4300248231
 20
-60.6915413712
 10
50.3348540833
 20
-60.7372450405
 10
50.2385403606
 20
-60.7813982484
 10
50.1411230212
 20
-60.8239829482
 10
50.0426418824
 20
-60.8649817345
 10
49.9431371962
 20
-60.9043778497
 10
49.8426496331
 20
-60.9421551916
 10
49.7412202652
 20
-60.9782983195
 10
49.6388905496
 20
-61.0127924607
 10
49.5357023115
 20
-61.0456235163
 10
49.4316977267
 20
-61.0767780675
 10
49.326919305
 20
-61.1062433804
 10
49.2214098723
 20
-61.1340074118
 10
49.1152125533
 20
-61.1600588136
 10
49.0083707539
 20
-61.184386938
 10
48.9009281435
 20
-61.2069818413
 10
48.792928637
 20
-61.2278342883
 10
48.6844163767
 20
-61.2469357561
 10
48.5754357149
 20
-61.2642784373
 10
48.4660311949
 20
-61.2798552434
 10
48.3562475337
 20
-61.2936598079
 10
48.2461296029
 20
-61.3056864883
 10
48.1357224108
 20
-61.315930369
 10
48.0250710841
 20
-61.324387263
 10
47.9142208492
 20
-61.3310537139
 10
47.8032170137
 20
-61.3359269967
 10
47.6921049481
 20
-61.3390051197
 10
47.580930067
 20
-61.3402868247
 10
47.4697378109
 20
-61.3397715878
 10
47.3585736272
 20
-61.3374596198
 10
47.2474829518
 20
-61.3333518654
 10
47.1365111908
 20
-61.3274500037
 10
47.0257037015
 20
-61.319756447
 10
46.915105774
 20
-61.3102743398
 10
46.804762613
 20
-61.2990075577
 10
46.6947193188
 20
-61.2859607057
 10
46.5850208694
 20
-61.2711391166
 10
46.4757121015
 20
-61.2545488483
 10
46.3668376929
 20
-61.2361966818
 10
46.2584421436
 20
-61.216090118
 10
46.150569758
 20
-61.1942373751
 10
46.0432646267
 20
-61.1706473851
 10
45.9365706083
 20
-61.1453297896
 10
45.8305313117
 20
-61.1182949369
 10
45.7251900783
 20
-61.0895538768
 10
45.6205899641
 20
-61.0591183566
 10
45.516773722
 20
-61.0270008162
 10
45.4137837848
 20
-60.993214383
 10
45.3116622475
 20
-60.9577728664
 10
45.2104508499
 20
-60.9206907523
 10
45.1101909602
 20
-60.8819831974
 10
45.0109235575
 20
-60.8416660225
 10
44.9126892151
 20
-60.7997557064
 10
44.8155280842
 20
-60.7562693791
 10
44.7194798775
 20
-60.7112248146
 10
44.6245838525
 20
-60.664640424
 10
44.530878796
 20
-60.6165352476
 10
44.438403008
 20
-60.5669289474
 10
44.3471942859
 20
-60.5158417989
 10
44.2572899094
 20
-60.463294683
 10
44.1687266249
 20
-60.4093090771
 10
44.0815406309
 20
-60.3539070466
 10
43.9957675628
 20
-60.2971112361
 10
43.9114424784
 20
-60.2389448595
 10
43.8285998438
 20
-60.1794316912
 10
43.7472735192
 20
-60.1185960558
 10
43.6674967451
 20
-60.0564628187
  0
LINE
  5
2FA
100
AcDbEntity
  8
0
100
AcDbLine
 62
250
  6
CONTINUOUS
 10
52.900662552
 20
-59.3023610653
 11
50.9749029692
 21
-60.3858491505
  0
LWPOLYLINE
  5
2FB
100
AcDbEntity
  8
0
100
AcDbPolyline
 62
7
  6
CONTINUOUS
 90
33
 70
0
 10
51.6921533543
 20
-61.3487596129
 10
51.7102153998
 20
-61.3389028957
 10
51.7727755545
 20
-61.302877751
 10
51.8338981879
 20
-61.2646985403
 10
51.8935742891
 20
-61.2243735331
 10
51.9517311709
 20
-61.1819517593
 10
52.0083581361
 20
-61.1374380803
 10
52.0634658819
 20
-61.0908276347
 10
52.1170138124
 20
-61.0421548682
 10
52.169008382
 20
-60.9914103877
 10
52.2194431362
 20
-60.9386035862
 10
52.2682581153
 20
-60.8837970891
 10
52.3154450546
 20
-60.8269965837
 10
52.3610122189
 20
-60.7681963827
 10
52.4049244423
 20
-60.7074420493
 10
52.4471855433
 20
-60.644724106
 10
52.4877917035
 20
-60.5800520305
 10
52.5266963017
 20
-60.5134998187
 10
52.5638934791
 20
-60.445072858
 10
52.5993890944
 20
-60.3747657612
 10
52.6331541032
 20
-60.3026363631
 10
52.6651898976
 20
-60.2286763936
 10
52.6954950855
 20
-60.1528941229
 10
52.7240364458
 20
-60.0753721966
 10
52.7508102047
 20
-59.996114345
 10
52.7758201359
 20
-59.9151168377
 10
52.7990443398
 20
-59.8324511297
 10
52.8204822919
 20
-59.7481116504
 10
52.8401345166
 20
-59.6621039702
 10
52.8579806876
 20
-59.5745162551
 10
52.8740140295
 20
-59.4853778935
 10
52.8882413176
 20
-59.3946594969
 10
52.900662552
 20
-59.3023610653
  0
LINE
  5
2FC
100
AcDbEntity
  8
0
100
AcDbLine
 62
7
  6
CONTINUOUS
 10
51.692153292
 20
-61.3487595189
 11
49.8940752428
 21
-62.3182181404
  0
ELLIPSE
  5
2FD
100
AcDbEntity
  8
RACCORDO
100
AcDbEllipse
 62
7
  6
CONTINUOUS
 10
-37.4520482174
 20
30.7526888073
 30
0.0
 11
1.4987139318
 21
0.0848115576
 31
0.0
 40
0.7322248791
 41
-0.8629018044
 42
-0.8268107545
  0
ENDSEC
  0
SECTION
  2
OBJECTS
  0
DICTIONARY
  5
C
100
AcDbDictionary
280
0
281
1
  3
ACAD_GROUP
350
D
  3
ACAD_MLINESTYLE
350
17
  3
ACAD_LAYOUT
350
1A
  3
ACAD_PLOTSETTINGS
350
19
  3
ACAD_PLOTSTYLENAME
350
E
  0
DICTIONARY
  5
D
102
{ACAD_REACTORS
330
C
102
}
100
AcDbDictionary
280
0
281
1
  0
ACDBDICTIONARYWDFLT
  5
E
102
{ACAD_REACTORS
330
C
102
}
100
AcDbDictionary
281
1
  3
Normal
350
F
100
AcDbDictionaryWithDefault
340
F
  0
DICTIONARY
  5
17
102
{ACAD_REACTORS
330
C
102
}
100
AcDbDictionary
280
0
281
1
  3
Standard
350
18
  0
DICTIONARY
  5
19
102
{ACAD_REACTORS
330
C
102
}
100
AcDbDictionary
281
1
  0
DICTIONARY
  5
1A
102
{ACAD_REACTORS
330
C
102
}
100
AcDbDictionary
281
1
  3
Model
350
2FE
  3
Layout1
350
2FF
  0
ACDBPLACEHOLDER
  5
F
102
{ACAD_REACTORS
330
E
102
}
  0
MLINESTYLE
  5
18
102
{ACAD_REACTORS
330
17
102
}
100
AcDbMlineStyle
  2
STANDARD
 70
0
  3

 62
256
 51
90.0
 52
90.0
 71
2
 49
0.5
 62
256
  6
BYLAYER
 49
-0.5
 62
256
  6
BYLAYER
  0
LAYOUT
  5
2FE
102
{ACAD_REACTORS
330
1A
102
}
100
AcDbPlotSettings
  1

  2
none_device
  4
ISO_A4_(297.00_x_210.00_MM)
  6

 40
0.0
 41
0.0
 42
0.0
 43
0.0
 44
297.0
 45
210.0
 46
0.0
 47
0.0
 48
0.0
 49
0.0
140
0.0
141
0.0
142
1.0
143
1.0
 70
1024
 72
1
 73
0
 74
0
  7

 75
0
147
1.0
148
0.0
149
0.0
100
AcDbLayout
  1
Model
 70
0
 71
0
 10
0.0
 20
0.0
 11
297.0
 21
210.0
 12
0.0
 22
0.0
 32
0.0
 14
0.0
 24
0.0
 34
0.0
 15
0.0
 25
0.0
 35
0.0
146
0.0
 13
0.0
 23
0.0
 33
0.0
 16
1.0
 26
0.0
 36
0.0
 17
0.0
 27
1.0
 37
0.0
 76
0
330
216
345
0
346
0
  0
LAYOUT
  5
2FF
102
{ACAD_REACTORS
330
1A
102
}
100
AcDbPlotSettings
  1

  2
none_device
  4
ISO_A4_(297.00_x_210.00_MM)
  6

 40
0.0
 41
0.0
 42
0.0
 43
0.0
 44
297.0
 45
210.0
 46
0.0
 47
0.0
 48
0.0
 49
0.0
140
0.0
141
0.0
142
1.0
143
1.0
 70
0
 72
1
 73
0
 74
0
  7

 75
0
147
1.0
148
0.0
149
0.0
100
AcDbLayout
  1
Layout1
 70
0
 71
1
 10
0.0
 20
0.0
 11
297.0
 21
210.0
 12
0.0
 22
0.0
 32
0.0
 14
0.0
 24
0.0
 34
0.0
 15
0.0
 25
0.0
 35
0.0
146
0.0
 13
0.0
 23
0.0
 33
0.0
 16
1.0
 26
0.0
 36
0.0
 17
0.0
 27
1.0
 37
0.0
 76
0
330
217
345
0
346
0
  0
ENDSEC
  0
EOF
