  0
SECTION
  2
HEADER
  9
$ACADVER
  1
AC1024
  9
$DWGCODEPAGE
  3
ANSI_1252
  9
$EXTMAX
 10
297.0
 20
210.0
 30
0.0
  9
$EXTMIN
 10
0.0
 20
0.0
 30
0.0
  9
$LIMMIN
 10
0.0
 20
0.0
  9
$LIMMAX
 10
297.0
 20
210.0
  9
$VIEWCTR
 10
148.5
 20
105.0
  9
$VIEWSIZE
 40
210.0
  9
$CLAYER
  8
0
  9
$LTSCALE
 40
16.335
  9
$CELTYPE
  6
BYLAYER
  9
$DIMSCALE
 40
1.0
  9
$DIMASZ
 40
3.0
  9
$DIMEXO
 40
0.5
  9
$DIMDLI
 40
11.286
  9
$DIMEXE
 40
1.5
  9
$DIMCEN
 40
2.673
  9
$DIMLFAC
 40
1.0
  9
$DIMBLK
  1
_FILLED
  9
$DIMALT
 70
0
  9
$DIMALTF
 40
0.0393700787
  9
$DIMTXT
 40
3.0
  9
$DIMTOL
 70
1
  9
$DIMLIM
 70
0
  9
$DIMTFAC
 40
1.0
  9
$DIMTP
 40
0.01
  9
$DIMTM
 40
0.01
  9
$DIMGAP
 40
0.625
  9
$DIMDSEP
 70
44
  9
$AUNITS
 70
0
  9
$PDMODE
 70
3
  9
$PDSIZE
 40
3.0
  9
$HANDSEED
  5
301
  9
$TILEMODE
 70
1
  9
$MEASUREMENT
 70
1
  9
$INSUNITS
 70
4
  0
ENDSEC
  0
SECTION
  2
CLASSES
  0
CLASS
  1
ACDBDICTIONARYWDFLT
  2
AcDbDictionaryWithDefault
  3
AutoCAD 2000
 90
0
 91
1
280
0
281
0
  0
CLASS
  1
ACDBPLACEHOLDER
  2
AcDbPlaceHolder
  3
AutoCAD 2000
 90
0
 91
1
280
0
281
0
  0
CLASS
  1
LAYOUT
  2
AcDbLayout
  3
AutoCAD 2000
 90
0
 91
0
280
0
281
0
  0
ENDSEC
  0
SECTION
  2
TABLES
  0
TABLE
  2
VPORT
  5
8
100
AcDbSymbolTable
 70
2
  0
VPORT
  5
1F4
100
AcDbSymbolTableRecord
100
AcDbViewportTableRecord
  2
*ACTIVE
 70
0
 10
0.0
 20
0.0
 11
1.0
 21
1.0
 12
148.5
 22
105.0
 13
0.0
 23
0.0
 14
1.0
 24
1.0
 15
0.0
 25
0.0
 16
0.0
 26
0.0
 36
1.0
 17
0.0
 27
0.0
 37
0.0
 40
210.0
 41
1.4142857143
 42
50.0
 43
0.0
 44
0.0
 50
0.0
 51
0.0
 71
0
 72
100
 73
1
 74
1
 75
0
 76
0
 77
0
 78
0
  0
ENDTAB
  0
TABLE
  2
LTYPE
  5
5
100
AcDbSymbolTable
 70
6
  0
LTYPE
  5
14
100
AcDbSymbolTableRecord
100
AcDbLinetypeTableRecord
  2
BYBLOCK
 70
0
  3

 72
65
 73
0
 40
0.0
  0
LTYPE
  5
15
100
AcDbSymbolTableRecord
100
AcDbLinetypeTableRecord
  2
BYLAYER
 70
0
  3

 72
65
 73
0
 40
0.0
  0
LTYPE
  5
16
100
AcDbSymbolTableRecord
100
AcDbLinetypeTableRecord
  2
CONTINUOUS
 70
64
  3
Solid line
 72
65
 73
0
 40
0.0
  0
LTYPE
  5
1F5
100
AcDbSymbolTableRecord
100
AcDbLinetypeTableRecord
  2
CENTER
 70
64
  3
____ _ ____ _ ____ _ ____ _ ____ _ ____ _ ____
 72
65
 73
4
 40
0.6
 49
0.375
 74
0
 49
-0.075
 74
0
 49
0.075
 74
0
 49
-0.075
 74
0
  0
LTYPE
  5
1F6
100
AcDbSymbolTableRecord
100
AcDbLinetypeTableRecord
  2
HIDDEN
 70
64
  3
- - - - - - - - - - - - - - - - - - - -
 72
65
 73
2
 40
0.2
 49
0.1
 74
0
 49
-0.1
 74
0
  0
LTYPE
  5
1F7
100
AcDbSymbolTableRecord
100
AcDbLinetypeTableRecord
  2
PHANTOM
 70
64
  3
_____ _ _ _____ _ _ _____ _ _ _____
 72
65
 73
6
 40
0.8
 49
0.45
 74
0
 49
-0.05
 74
0
 49
0.1
 74
0
 49
-0.05
 74
0
 49
0.1
 74
0
 49
-0.05
 74
0
  0
LTYPE
  5
1F8
100
AcDbSymbolTableRecord
100
AcDbLinetypeTableRecord
  2
DOT
 70
64
  3
. . . . . . . . . . . . . . . . . . . .
 72
65
 73
2
 40
0.2
 49
0.1
 74
0
 49
-0.1
 74
0
  0
LTYPE
  5
1F9
100
AcDbSymbolTableRecord
100
AcDbLinetypeTableRecord
  2
DASHED
 70
64
  3
- - - - - - - - - - - - - - - - - - - -
 72
65
 73
2
 40
0.2
 49
0.1
 74
0
 49
-0.1
 74
0
  0
ENDTAB
  0
TABLE
  2
LAYER
  5
2
100
AcDbSymbolTable
 70
36
  0
LAYER
  5
10
100
AcDbSymbolTableRecord
100
AcDbLayerTableRecord
  2
0
 70
0
 62
7
  6
CONTINUOUS
370
-3
390
F
  0
LAYER
  5
1FA
100
AcDbSymbolTableRecord
100
AcDbLayerTableRecord
  2
DEFAULT_1
 70
0
 62
7
  6
CENTER
370
-3
390
F
  0
LAYER
  5
1FB
100
AcDbSymbolTableRecord
100
AcDbLayerTableRecord
  2
DEFAULT_2
 70
0
 62
7
  6
HIDDEN
370
-3
390
F
  0
LAYER
  5
1FC
100
AcDbSymbolTableRecord
100
AcDbLayerTableRecord
  2
DEFAULT_3
 70
0
 62
7
  6
PHANTOM
370
-3
390
F
  0
LAYER
  5
1FD
100
AcDbSymbolTableRecord
100
AcDbLayerTableRecord
  2
26216763_GEN
 70
0
 62
7
  6
CONTINUOUS
370
-3
390
F
  0
LAYER
  5
1FE
100
AcDbSymbolTableRecord
100
AcDbLayerTableRecord
  2
ASSI
 70
0
 62
7
  6
CONTINUOUS
370
-3
390
F
  0
LAYER
  5
1FF
100
AcDbSymbolTableRecord
100
AcDbLayerTableRecord
  2
COORDINATE
 70
0
 62
7
  6
CONTINUOUS
370
-3
390
F
  0
LAYER
  5
200
100
AcDbSymbolTableRecord
100
AcDbLayerTableRecord
  2
COORD_ORIGINE
 70
0
 62
7
  6
CONTINUOUS
370
-3
390
F
  0
LAYER
  5
201
100
AcDbSymbolTableRecord
100
AcDbLayerTableRecord
  2
COSMETICI
 70
0
 62
7
  6
CONTINUOUS
370
-3
390
F
  0
LAYER
  5
202
100
AcDbSymbolTableRecord
100
AcDbLayerTableRecord
  2
CURVE
 70
0
 62
7
  6
CONTINUOUS
370
-3
390
F
  0
LAYER
  5
203
100
AcDbSymbolTableRecord
100
AcDbLayerTableRecord
  2
DRAFT
 70
0
 62
7
  6
CONTINUOUS
370
-3
390
F
  0
LAYER
  5
204
100
AcDbSymbolTableRecord
100
AcDbLayerTableRecord
  2
IGES_SCRITTE
 70
0
 62
7
  6
CONTINUOUS
370
-3
390
F
  0
LAYER
  5
205
100
AcDbSymbolTableRecord
100
AcDbLayerTableRecord
  2
IMPORT_FEATURE
 70
0
 62
7
  6
CONTINUOUS
370
-3
390
F
  0
LAYER
  5
206
100
AcDbSymbolTableRecord
100
AcDbLayerTableRecord
  2
INTF_1
 70
0
 62
7
  6
CONTINUOUS
370
-3
390
F
  0
LAYER
  5
207
100
AcDbSymbolTableRecord
100
AcDbLayerTableRecord
  2
LAY0001
 70
0
 62
7
  6
CONTINUOUS
370
-3
390
F
  0
LAYER
  5
208
100
AcDbSymbolTableRecord
100
AcDbLayerTableRecord
  2
NOTE
 70
0
 62
7
  6
CONTINUOUS
370
-3
390
F
  0
LAYER
  5
209
100
AcDbSymbolTableRecord
100
AcDbLayerTableRecord
  2
PIANI
 70
0
 62
7
  6
CONTINUOUS
370
-3
390
F
  0
LAYER
  5
20A
100
AcDbSymbolTableRecord
100
AcDbLayerTableRecord
  2
PIANI_DI_RIFERIMENTO
 70
0
 62
7
  6
CONTINUOUS
370
-3
390
F
  0
LAYER
  5
20B
100
AcDbSymbolTableRecord
100
AcDbLayerTableRecord
  2
PIANI_ORIGINE
 70
0
 62
7
  6
CONTINUOUS
370
-3
390
F
  0
LAYER
  5
20C
100
AcDbSymbolTableRecord
100
AcDbLayerTableRecord
  2
PUNTI
 70
0
 62
7
  6
CONTINUOUS
370
-3
390
F
  0
LAYER
  5
20D
100
AcDbSymbolTableRecord
100
AcDbLayerTableRecord
  2
RACCORDO
 70
0
 62
7
  6
CONTINUOUS
370
-3
390
F
  0
LAYER
  5
20E
100
AcDbSymbolTableRecord
100
AcDbLayerTableRecord
  2
RGB____0____0____0__
 70
0
 62
7
  6
CONTINUOUS
370
-3
390
F
  0
LAYER
  5
20F
100
AcDbSymbolTableRecord
100
AcDbLayerTableRecord
  2
SIMBOLI
 70
0
 62
7
  6
CONTINUOUS
370
-3
390
F
  0
LAYER
  5
210
100
AcDbSymbolTableRecord
100
AcDbLayerTableRecord
  2
SNAPLINE
 70
0
 62
7
  6
CONTINUOUS
370
-3
390
F
  0
LAYER
  5
211
100
AcDbSymbolTableRecord
100
AcDbLayerTableRecord
  2
SUPERFICI
 70
0
 62
7
  6
CONTINUOUS
370
-3
390
F
  0
LAYER
  5
212
100
AcDbSymbolTableRecord
100
AcDbLayerTableRecord
  2
TRASH
 70
0
 62
7
  6
CONTINUOUS
370
-3
390
F
  0
LAYER
  5
213
100
AcDbSymbolTableRecord
100
AcDbLayerTableRecord
  2
XSEC_DATUMS
 70
0
 62
7
  6
CONTINUOUS
370
-3
390
F
  0
ENDTAB
  0
TABLE
  2
STYLE
  5
3
100
AcDbSymbolTable
 70
1
  0
STYLE
  5
11
100
AcDbSymbolTableRecord
100
AcDbTextStyleTableRecord
  2
STANDARD
 70
0
 40
0.0
 41
0.8
 50
0.0
 71
0
 42
0.2
  3
txt
  4

  0
STYLE
  5
214
100
AcDbSymbolTableRecord
100
AcDbTextStyleTableRecord
  2
TEXTSTYLE_1
 70
0
 40
0.0
 41
0.8
 50
0.0
 71
0
 42
0.2
  3
gdt
  4

  0
ENDTAB
  0
TABLE
  2
VIEW
  5
6
100
AcDbSymbolTable
 70
0
  0
ENDTAB
  0
TABLE
  2
UCS
  5
7
100
AcDbSymbolTable
 70
0
  0
ENDTAB
  0
TABLE
  2
APPID
  5
9
100
AcDbSymbolTable
 70
1
  0
APPID
  5
215
100
AcDbSymbolTableRecord
100
AcDbRegAppTableRecord
  2
ACAD
 70
0
  0
ENDTAB
  0
TABLE
  2
BLOCK_RECORD
  5
1
100
AcDbSymbolTable
 70
0
  0
BLOCK_RECORD
  5
216
100
AcDbSymbolTableRecord
100
AcDbBlockTableRecord
  2
*Model_Space
  0
BLOCK_RECORD
  5
217
100
AcDbSymbolTableRecord
100
AcDbBlockTableRecord
  2
*Paper_Space
  0
BLOCK_RECORD
  5
218
100
AcDbSymbolTableRecord
100
AcDbBlockTableRecord
  2
_FILLED
  0
ENDTAB
  0
TABLE
  2
DIMSTYLE
  5
A
100
AcDbSymbolTable
 70
1
100
AcDbDimStyleTable
 71
0
  0
DIMSTYLE
105
219
100
AcDbSymbolTableRecord
100
AcDbDimStyleTableRecord
  2
STANDARD
 70
0
  3

  4

 40
1.0
 41
3.0
 42
0.5
 43
0.38
 44
1.5
 45
0.0
 46
0.0
 47
0.01
 48
0.01
140
3.0
141
0.09
142
0.0
143
25.4
144
1.0
145
0.0
146
1.0
147
0.625
 71
1
 72
0
 73
0
 74
0
 75
0
 76
0
 77
1
 78
8
 79
2
170
0
171
1
172
0
173
0
174
0
175
0
176
0
177
0
178
0
270
2
179
2
271
2
272
2
273
2
274
2
275
0
280
0
281
0
282
0
283
1
284
8
285
0
286
0
287
3
288
0
340
11
278
44
341
218
342
218
343
218
344
218
  0
ENDTAB
  0
ENDSEC
  0
SECTION
  2
BLOCKS
  0
BLOCK
  5
20
100
AcDbEntity
  8
0
100
AcDbBlockBegin
  2
*Model_Space
 70
0
 10
0.0
 20
0.0
 30
0.0
  3
*Model_Space
  1

  0
ENDBLK
  5
21
100
AcDbEntity
  8
0
100
AcDbBlockEnd
  0
BLOCK
  5
1C
100
AcDbEntity
  8
0
100
AcDbBlockBegin
  2
*Paper_Space
 70
0
 10
0.0
 20
0.0
 30
0.0
  3
*Paper_Space
  1

  0
ENDBLK
  5
1D
100
AcDbEntity
  8
0
100
AcDbBlockEnd
  0
BLOCK
  5
21A
100
AcDbEntity
  8
0
100
AcDbBlockBegin
  2
_FILLED
 70
64
 10
0.0
 20
0.0
  3
_FILLED
  1

  0
SOLID
  5
21B
100
AcDbEntity
  8
0
  6
BYBLOCK
 62
0
100
AcDbTrace
 10
0.0
 20
0.0
 11
-1.0
 21
0.3166666667
 12
-1.0
 22
-0.3166666667
 13
-1.0
 23
-0.3166666667
  0
ENDBLK
  5
21C
100
AcDbEntity
  8
0
  6
BYBLOCK
 62
0
100
AcDbBlockEnd
  0
ENDSEC
  0
SECTION
  2
ENTITIES
  0
LWPOLYLINE
  5
21D
100
AcDbEntity
  8
0
100
AcDbPolyline
 62
7
  6
CONTINUOUS
 90
37
 70
0
 10
-67.4266367017
 20
73.6033838157
 10
-67.5064805854
 20
73.5297225412
 10
-67.5876484467
 20
73.4521483035
 10
-67.6674773328
 20
73.3730714078
 10
-67.7459370864
 20
73.2925181858
 10
-67.8229983753
 20
73.2105158642
 10
-67.8986613695
 20
73.1270600827
 10
-67.9728963884
 20
73.0421780535
 10
-68.045674708
 20
72.9558974822
 10
-68.116996029
 20
72.8682125273
 10
-68.1868322662
 20
72.7791502384
 10
-68.2551546102
 20
72.6887402259
 10
-68.3219597823
 20
72.5969782757
 10
-68.3872197571
 20
72.5038928828
 10
-68.4509072409
 20
72.409513862
 10
-68.5130181589
 20
72.3138367008
 10
-68.5735252497
 20
72.2168911266
 10
-68.6324022019
 20
72.118707293
 10
-68.6896446046
 20
72.019279051
 10
-68.7452260903
 20
71.9186372686
 10
-68.799121621
 20
71.8168125782
 10
-68.8513268944
 20
71.7137959861
 10
-68.9018162434
 20
71.6096187557
 10
-68.9505656223
 20
71.5043120302
 10
-68.9975708031
 20
71.3978636124
 10
-69.0428071993
 20
71.2903045614
 10
-69.0862510996
 20
71.1816666509
 10
-69.1278973128
 20
71.0719356829
 10
-69.1677221494
 20
70.9611430284
 10
-69.2057026882
 20
70.84932065
 10
-69.2418323775
 20
70.7364514521
 10
-69.2760890268
 20
70.6225639544
 10
-69.3084499199
 20
70.5076915289
 10
-69.338905464
 20
70.3918199717
 10
-69.3674370322
 20
70.2749647145
 10
-69.3940189363
 20
70.1571740699
 10
-69.4145208368
 20
70.0590464579
  0
LINE
  5
21E
100
AcDbEntity
  8
0
100
AcDbLine
 62
7
  6
CONTINUOUS
 10
-65.8985967255
 20
74.9887724676
 11
-67.426635478
 21
73.6033851188
  0
LWPOLYLINE
  5
21F
100
AcDbEntity
  8
0
100
AcDbPolyline
 62
250
  6
CONTINUOUS
 90
60
 70
0
 10
-67.4266355209
 20
73.60338508
 10
-67.3953959116
 20
73.6311573638
 10
-67.3415904304
 20
73.6765122876
 10
-67.2864253008
 20
73.7199642228
 10
-67.2299166094
 20
73.7615006934
 10
-67.1720830199
 20
73.8011078306
 10
-67.1129414869
 20
73.8387742711
 10
-67.0525093304
 20
73.8744892711
 10
-66.9908063741
 20
73.9082407514
 10
-66.9278507849
 20
73.9400190984
 10
-66.8636610452
 20
73.9698153474
 10
-66.7982580381
 20
73.9976192642
 10
-66.7316610615
 20
74.0234230223
 10
-66.6638897361
 20
74.0472194413
 10
-66.5949659882
 20
74.0690001375
 10
-66.5249102267
 20
74.0887590818
 10
-66.453743127
 20
74.1064909126
 10
-66.3814875458
 20
74.1221891355
 10
-66.3081649143
 20
74.1358495407
 10
-66.2337969346
 20
74.1474685862
 10
-66.1584073701
 20
74.1570416724
 10
-66.0820186473
 20
74.1645664152
 10
-66.0046534068
 20
74.1700411098
 10
-65.9263362029
 20
74.1734630692
 10
-65.8470903626
 20
74.1748317413
 10
-65.7669394334
 20
74.1741472555
 10
-65.6859087372
 20
74.1714088401
 10
-65.6040224717
 20
74.166617777
 10
-65.5213049955
 20
74.1597760317
 10
-65.4377822764
 20
74.150884749
 10
-65.3534792872
 20
74.1399470362
 10
-65.2684211588
 20
74.1269666873
 10
-65.1826344652
 20
74.1119467604
 10
-65.0961449102
 20
74.0948921833
 10
-65.0089783065
 20
74.0758085655
 10
-64.9211617258
 20
74.0547008633
 10
-64.8327215002
 20
74.0315758014
 10
-64.7436840855
 20
74.0064407934
 10
-64.6540770388
 20
73.979302696
 10
-64.5639272904
 20
73.9501700258
 10
-64.4732618293
 20
73.9190519729
 10
-64.3821085646
 20
73.885957261
 10
-64.290494948
 20
73.8508961731
 10
-64.1984484323
 20
73.8138796496
 10
-64.105997154
 20
73.7749182373
 10
-64.0131689894
 20
73.7340239498
 10
-63.9199918023
 20
73.691209447
 10
-63.8264938982
 20
73.6464870607
 10
-63.732703437
 20
73.5998704557
 10
-63.6386486845
 20
73.5513740155
 10
-63.544358256
 20
73.501011954
 10
-63.4498605892
 20
73.4487996089
 10
-63.355184211
 20
73.3947530148
 10
-63.2603579881
 20
73.3388882355
 10
-63.1654107377
 20
73.2812223307
 10
-63.0703709942
 20
73.2217728769
 10
-62.9752672774
 20
73.160557487
 10
-62.8801282895
 20
73.0975946102
 10
-62.7849829069
 20
73.0329035533
 10
-62.6898599481
 20
72.9665039734
  0
LWPOLYLINE
  5
220
100
AcDbEntity
  8
0
100
AcDbPolyline
 62
250
  6
CONTINUOUS
 90
73
 70
0
 10
-62.6898599481
 20
72.9665039734
 10
-62.7630262031
 20
72.9063763952
 10
-62.8360204459
 20
72.8449864986
 10
-62.9088165015
 20
72.7823562976
 10
-62.9813882657
 20
72.718508251
 10
-63.0537097148
 20
72.6534652542
 10
-63.1257549149
 20
72.5872506311
 10
-63.1974980311
 20
72.5198881258
 10
-63.2689133368
 20
72.451401894
 10
-63.339975223
 20
72.3818164944
 10
-63.4106582075
 20
72.3111568797
 10
-63.4809369439
 20
72.239448388
 10
-63.5507862307
 20
72.1667167335
 10
-63.6201810205
 20
72.0929879971
 10
-63.6890964288
 20
72.0182886174
 10
-63.7575077431
 20
71.9426453811
 10
-63.8253904316
 20
71.8660854133
 10
-63.892720152
 20
71.7886361678
 10
-63.9594727605
 20
71.7103254174
 10
-64.0256243199
 20
71.6311812437
 10
-64.091151109
 20
71.5512320272
 10
-64.1560296301
 20
71.4705064372
 10
-64.2202366184
 20
71.3890334212
 10
-64.2837490498
 20
71.3068421948
 10
-64.3465441491
 20
71.2239622313
 10
-64.4085993984
 20
71.1404232508
 10
-64.4698925453
 20
71.0562552096
 10
-64.5304016104
 20
70.97148829
 10
-64.5901048956
 20
70.8861528886
 10
-64.6489809919
 20
70.8002796061
 10
-64.7070087866
 20
70.7138992361
 10
-64.7641674713
 20
70.6270427538
 10
-64.8204365496
 20
70.5397413055
 10
-64.8757958435
 20
70.4520261967
 10
-64.9302255018
 20
70.3639288814
 10
-64.9837060063
 20
70.2754809508
 10
-65.0362181794
 20
70.1867141214
 10
-65.0877431905
 20
70.0976602246
 10
-65.1382625631
 20
70.0083511944
 10
-65.1877581815
 20
69.9188190562
 10
-65.2362122967
 20
69.8290959158
 10
-65.2836075336
 20
69.7392139471
 10
-65.3299268966
 20
69.6492053811
 10
-65.3751537758
 20
69.5591024944
 10
-65.4192719533
 20
69.468937597
 10
-65.4622656085
 20
69.3787430215
 10
-65.5041193243
 20
69.2885511109
 10
-65.5448180923
 20
69.1983942075
 10
-65.5843473181
 20
69.1083046408
 10
-65.622692827
 20
69.0183147163
 10
-65.6598408683
 20
68.9284567037
 10
-65.6957781213
 20
68.8387628255
 10
-65.7304916989
 20
68.7492652451
 10
-65.7639691533
 20
68.6599960557
 10
-65.7961984795
 20
68.5709872688
 10
-65.8271681205
 20
68.482270802
 10
-65.8568669707
 20
68.3938784686
 10
-65.8852843803
 20
68.3058419652
 10
-65.9124101591
 20
68.2181928613
 10
-65.93823458
 20
68.1309625871
 10
-65.9627483825
 20
68.0441824227
 10
-65.9859427761
 20
67.9578834869
 10
-66.0078094436
 20
67.8720967258
 10
-66.0283405436
 20
67.7868529019
 10
-66.0475287139
 20
67.7021825831
 10
-66.0653670738
 20
67.6181161314
 10
-66.0818492265
 20
67.5346836926
 10
-66.0969692616
 20
67.4519151848
 10
-66.1107217573
 20
67.3698402882
 10
-66.123101782
 20
67.2884884343
 10
-66.1341048963
 20
67.2078887953
 10
-66.1437271546
 20
67.1280702735
 10
-66.1519651063
 20
67.0490614914
  0
LINE
  5
221
100
AcDbEntity
  8
0
100
AcDbLine
 62
250
  6
CONTINUOUS
 10
-61.0901198761
 20
74.2658304834
 11
-62.6898599481
 21
72.9665039734
  0
LWPOLYLINE
  5
222
100
AcDbEntity
  8
0
100
AcDbPolyline
 62
250
  6
CONTINUOUS
 90
48
 70
0
 10
-69.4208967498
 20
70.0263565702
 10
-69.4338008454
 20
69.9523846622
 10
-69.44466669
 20
69.8780438908
 10
-69.4534901906
 20
69.803362259
 10
-69.4602680234
 20
69.7283678984
 10
-69.4649976354
 20
69.6530890581
 10
-69.467677245
 20
69.5775540947
 10
-69.4683058428
 20
69.5017914611
 10
-69.4668831921
 20
69.4258296959
 10
-69.4634098287
 20
69.3496974129
 10
-69.457887061
 20
69.2734232899
 10
-69.4503169693
 20
69.1970360582
 10
-69.4407024052
 20
69.120564492
 10
-69.4290469903
 20
69.0440373967
 10
-69.4153551152
 20
68.9674835992
 10
-69.3996319372
 20
68.8909319361
 10
-69.3818833791
 20
68.8144112433
 10
-69.3621161266
 20
68.737950345
 10
-69.3403376256
 20
68.6615780429
 10
-69.3165560798
 20
68.5853231054
 10
-69.2907804473
 20
68.5092142566
 10
-69.2630204375
 20
68.4332801655
 10
-69.2332865072
 20
68.3575494354
 10
-69.2015898566
 20
68.2820505931
 10
-69.1679424255
 20
68.2068120777
 10
-69.1323568884
 20
68.1318622306
 10
-69.0948466497
 20
68.0572292842
 10
-69.0554258391
 20
67.9829413517
 10
-69.0141093058
 20
67.9090264163
 10
-68.9709126132
 20
67.8355123206
 10
-68.9258520327
 20
67.7624267564
 10
-68.8789445381
 20
67.6897972539
 10
-68.8302077987
 20
67.6176511715
 10
-68.779660173
 20
67.5460156857
 10
-68.7273207014
 20
67.4749177805
 10
-68.6732090996
 20
67.4043842374
 10
-68.6173457505
 20
67.3344416253
 10
-68.5597516971
 20
67.2651162908
 10
-68.5004486342
 20
67.1964343475
 10
-68.4394589004
 20
67.1284216669
 10
-68.3768054696
 20
67.0611038685
 10
-68.3125119425
 20
66.9945063099
 10
-68.2466025375
 20
66.9286540774
 10
-68.1791020818
 20
66.8635719766
 10
-68.1100360017
 20
66.7992845229
 10
-68.0394303134
 20
66.7358159325
 10
-67.967311613
 20
66.6731901131
 10
-67.8937070667
 20
66.611430655
  0
LWPOLYLINE
  5
223
100
AcDbEntity
  8
0
100
AcDbPolyline
 62
7
  6
CONTINUOUS
 90
49
 70
0
 10
-69.4145247248
 20
70.0590271726
 10
-69.6133756252
 20
69.0505892374
 10
-69.8057776723
 20
68.0311532002
 10
-69.9896073449
 20
67.0112884894
 10
-70.1648571101
 20
65.9910674733
 10
-70.3315322404
 20
64.9704988476
 10
-70.4896467009
 20
63.9495300038
 10
-70.6391989715
 20
62.9281987091
 10
-70.7801887642
 20
61.9065440534
 10
-70.9126275067
 20
60.8845148839
 10
-71.0365135227
 20
59.8621498171
 10
-71.1518465628
 20
58.8394881865
 10
-71.2586358227
 20
57.8164794564
 10
-71.3568797548
 20
56.7931621103
 10
-71.4465782375
 20
55.7695752886
 10
-71.5277382632
 20
54.7456690558
 10
-71.6003583502
 20
53.7214823351
 10
-71.6644385368
 20
52.6970538546
 10
-71.7199837472
 20
51.6723330684
 10
-71.7669926229
 20
50.6473586871
 10
-71.8054653037
 20
49.6221695495
 10
-71.8354045939
 20
48.5967150508
 10
-71.8568092473
 20
47.5710338571
 10
-71.8696795211
 20
46.5451647492
 10
-71.8740161082
 20
45.5190571103
 10
-71.8698178787
 20
44.4927493574
 10
-71.8570852085
 20
43.4662803804
 10
-71.8358167005
 20
42.439600156
 10
-71.8060113616
 20
41.4127472164
 10
-71.7676697048
 20
40.3857601706
 10
-71.7207882686
 20
39.3585890625
 10
-71.6653662037
 20
38.3312724547
 10
-71.6014041525
 20
37.3038487213
 10
-71.5288965712
 20
36.2762676419
 10
-71.4478427287
 20
35.2485675048
 10
-71.358243405
 20
34.2207867514
 10
-71.2600910187
 20
33.1928754765
 10
-71.1533850095
 20
32.1648722079
 10
-71.0381262356
 20
31.1368148123
 10
-70.914304944
 20
30.1086525463
 10
-70.7819207145
 20
29.0804239975
 10
-70.6409745391
 20
28.0521669869
 10
-70.4914544527
 20
27.0238298473
 10
-70.3333600812
 20
25.9954507738
 10
-70.1666922658
 20
24.9670665748
 10
-69.9914365152
 20
23.9386237997
 10
-69.8075869449
 20
22.9101300913
 10
-69.615150363
 20
21.8816567091
 10
-69.4164382176
 20
20.8648138487
  0
LWPOLYLINE
  5
224
100
AcDbEntity
  8
0
100
AcDbPolyline
 62
250
  6
CONTINUOUS
 90
64
 70
0
 10
-67.8937070668
 20
66.6114306549
 10
-67.8856487476
 20
66.649228026
 10
-67.8767190528
 20
66.6862437373
 10
-67.8669180532
 20
66.7224777448
 10
-67.8562375116
 20
66.7579539281
 10
-67.8446857979
 20
66.7926483249
 10
-67.8322879292
 20
66.8264891066
 10
-67.819043669
 20
66.8594694105
 10
-67.8049534655
 20
66.8915959685
 10
-67.790043426
 20
66.9228173069
 10
-67.7743117524
 20
66.9531324314
 10
-67.7577605027
 20
66.9825421763
 10
-67.740421622
 20
67.0109977777
 10
-67.7222940211
 20
67.0384968113
 10
-67.7033790968
 20
67.0650415129
 10
-67.6837125737
 20
67.0905900788
 10
-67.6632933308
 20
67.1151404009
 10
-67.6421228357
 20
67.1386943752
 10
-67.6202407405
 20
67.1612161768
 10
-67.5976462059
 20
67.1827035513
 10
-67.5743404496
 20
67.2031585221
 10
-67.550366248
 20
67.2225516561
 10
-67.5257222469
 20
67.2408810902
 10
-67.5004102017
 20
67.2581484431
 10
-67.4744775882
 20
67.274329484
 10
-67.4479250186
 20
67.289421406
 10
-67.4207522982
 20
67.3034267619
 10
-67.3930057205
 20
67.3163293434
 10
-67.3646838473
 20
67.3281276257
 10
-67.3357885381
 20
67.3388228774
 10
-67.3063710545
 20
67.3484030662
 10
-67.2764307813
 20
67.3568660771
 10
-67.2459687537
 20
67.36421377
 10
-67.215038726
 20
67.3704400644
 10
-67.1836416416
 20
67.3755428625
 10
-67.1517769675
 20
67.379524013
 10
-67.1194962557
 20
67.3823833478
 10
-67.0867981153
 20
67.3841191522
 10
-67.0536843282
 20
67.384732904
 10
-67.0202112135
 20
67.384229219
 10
-66.9863794765
 20
67.3826063224
 10
-66.9521887786
 20
67.3798657671
 10
-66.9176938766
 20
67.3760171578
 10
-66.8828944916
 20
67.3710588506
 10
-66.8477912372
 20
67.3649922869
 10
-66.8124402086
 20
67.3578317007
 10
-66.7768415048
 20
67.3495755388
 10
-66.7409953242
 20
67.3402251745
 10
-66.7049579065
 20
67.3297992338
 10
-66.6687295677
 20
67.3182963675
 10
-66.6323102472
 20
67.3057177704
 10
-66.5957556119
 20
67.2920858892
 10
-66.5590651488
 20
67.2773990767
 10
-66.52223958
 20
67.2616588538
 10
-66.4853364164
 20
67.2448924248
 10
-66.4483571447
 20
67.2270992005
 10
-66.4113004378
 20
67.2082796738
 10
-66.3742195738
 20
67.1884626788
 10
-66.3371090585
 20
67.1676433097
 10
-66.2999744938
 20
67.1458264074
 10
-66.2628857895
 20
67.1230554331
 10
-66.225866267
 20
67.0993448633
 10
-66.1888926591
 20
67.0746801889
 10
-66.1519649793
 20
67.0490614016
  0
LWPOLYLINE
  5
225
100
AcDbEntity
  8
RACCORDO
100
AcDbPolyline
 62
250
  6
CONTINUOUS
 90
49
 70
0
 10
-56.6111534093
 20
51.8305843392
 10
-56.5938114136
 20
51.8488801221
 10
-56.5759477309
 20
51.8667340684
 10
-56.5575803533
 20
51.8841281959
 10
-56.5387277803
 20
51.9010449854
 10
-56.519409
 20
51.9174673983
 10
-56.4996434702
 20
51.9333788943
 10
-56.4794510985
 20
51.9487634474
 10
-56.4588522224
 20
51.9636055625
 10
-56.437867589
 20
51.9778902906
 10
-56.4165183339
 20
51.9916032445
 10
-56.3948259597
 20
52.0047306124
 10
-56.3728123149
 20
52.0172591727
 10
-56.3504995714
 20
52.0291763068
 10
-56.3279102023
 20
52.0404700117
 10
-56.3050669595
 20
52.0511289126
 10
-56.2819928506
 20
52.0611422739
 10
-56.2587111154
 20
52.0705000104
 10
-56.2352452032
 20
52.0791926969
 10
-56.2116187486
 20
52.0872115782
 10
-56.187855548
 20
52.094548578
 10
-56.1639795354
 20
52.1011963063
 10
-56.1400147585
 20
52.1071480677
 10
-56.1159853545
 20
52.1123978676
 10
-56.0919155255
 20
52.1169404184
 10
-56.0678295144
 20
52.1207711451
 10
-56.0437515805
 20
52.1238861892
 10
-56.0197059747
 20
52.1262824134
 10
-55.9957169157
 20
52.1279574042
 10
-55.9718085649
 20
52.1289094746
 10
-55.9480050026
 20
52.1291376656
 10
-55.9243302036
 20
52.1286417475
 10
-55.9008080129
 20
52.1274222197
 10
-55.8774621218
 20
52.1254803106
 10
-55.854316044
 20
52.1228179759
 10
-55.8313930922
 20
52.1194378973
 10
-55.808716354
 20
52.115343479
 10
-55.7863086692
 20
52.110538845
 10
-55.7641926067
 20
52.1050288343
 10
-55.7423904415
 20
52.0988189968
 10
-55.7209241327
 20
52.0919155867
 10
-55.6998153007
 20
52.0843255573
 10
-55.6790852063
 20
52.0760565531
 10
-55.6587547287
 20
52.0671169026
 10
-55.6388443444
 20
52.0575156096
 10
-55.619374107
 20
52.0472623446
 10
-55.6003636268
 20
52.0363674346
 10
-55.5818320509
 20
52.0248418527
 10
-55.5637980441
 20
52.0126972074
  0
LWPOLYLINE
  5
226
100
AcDbEntity
  8
RACCORDO
100
AcDbPolyline
 62
250
  6
CONTINUOUS
 90
45
 70
0
 10
-55.9101756967
 20
51.176142972
 10
-55.8957463224
 20
51.1952495359
 10
-55.8808490518
 20
51.2139612648
 10
-55.8654972711
 20
51.2322613362
 10
-55.8497048792
 20
51.2501333695
 10
-55.8334859631
 20
51.2675612249
 10
-55.8168547891
 20
51.2845290208
 10
-55.7998262039
 20
51.301021435
 10
-55.7824156182
 20
51.3170237141
 10
-55.7646386834
 20
51.3325214739
 10
-55.7465113786
 20
51.3475007833
 10
-55.7280499986
 20
51.3619481787
 10
-55.7092711405
 20
51.375850675
 10
-55.6901916835
 20
51.3891957752
 10
-55.6708287785
 20
51.4019714845
 10
-55.6511998348
 20
51.4141663217
 10
-55.6313224975
 20
51.4257693258
 10
-55.6112146329
 20
51.4367700667
 10
-55.5908943163
 20
51.4471586566
 10
-55.5703798142
 20
51.456925758
 10
-55.5496895657
 20
51.4660625911
 10
-55.5288421672
 20
51.4745609419
 10
-55.5078563561
 20
51.4824131705
 10
-55.4867509978
 20
51.4896122198
 10
-55.4655450668
 20
51.4961516207
 10
-55.4442576238
 20
51.5020254948
 10
-55.4229078043
 20
51.5072285626
 10
-55.4015148042
 20
51.5117561504
 10
-55.3800978542
 20
51.5156041891
 10
-55.3586762043
 20
51.518769219
 10
-55.3372691117
 20
51.5212483964
 10
-55.3158958192
 20
51.523039493
 10
-55.2945755381
 20
51.5241408985
 10
-55.273327432
 20
51.5245516226
 10
-55.2521705999
 20
51.5242712957
 10
-55.2311240595
 20
51.52330017
 10
-55.2102067298
 20
51.5216391191
 10
-55.1894374124
 20
51.5192896356
 10
-55.1688347767
 20
51.5162538316
 10
-55.148417344
 20
51.5125344375
 10
-55.128203467
 20
51.5081347962
 10
-55.1082113153
 20
51.5030588626
 10
-55.0884588624
 20
51.4973112011
 10
-55.0689638634
 20
51.4908969782
 10
-55.0497438416
 20
51.4838219593
  0
LINE
  5
227
100
AcDbEntity
  8
RACCORDO
100
AcDbLine
 62
250
  6
CONTINUOUS
 10
-55.3044307898
 20
51.4422610491
 11
-55.2060369788
 21
51.5187436418
  0
LINE
  5
228
100
AcDbEntity
  8
RACCORDO
100
AcDbLine
 62
250
  6
CONTINUOUS
 10
-55.331486593
 20
51.4214651499
 11
-55.3044307898
 21
51.4422610491
  0
LINE
  5
229
100
AcDbEntity
  8
RACCORDO
100
AcDbLine
 62
250
  6
CONTINUOUS
 10
-55.3533107609
 20
51.4048684886
 11
-55.331486593
 21
51.4214651499
  0
LINE
  5
22A
100
AcDbEntity
  8
RACCORDO
100
AcDbLine
 62
250
  6
CONTINUOUS
 10
-55.3766746639
 20
51.3873181017
 11
-55.3533107609
 21
51.4048684886
  0
LINE
  5
22B
100
AcDbEntity
  8
RACCORDO
100
AcDbLine
 62
250
  6
CONTINUOUS
 10
-55.3933162685
 20
51.374979397
 11
-55.3766746639
 21
51.3873181017
  0
LINE
  5
22C
100
AcDbEntity
  8
RACCORDO
100
AcDbLine
 62
250
  6
CONTINUOUS
 10
-55.410867068
 20
51.3621212131
 11
-55.3933162685
 21
51.374979397
  0
LWPOLYLINE
  5
22D
100
AcDbEntity
  8
RACCORDO
100
AcDbPolyline
 62
250
  6
CONTINUOUS
 90
3
 70
0
 10
-55.4387241996
 20
51.3420878875
 10
-55.429320408
 20
51.3487961702
 10
-55.410867068
 20
51.3621212131
  0
LWPOLYLINE
  5
22E
100
AcDbEntity
  8
RACCORDO
100
AcDbPolyline
 62
250
  6
CONTINUOUS
 90
4
 70
0
 10
-57.2322612881
 20
57.8122680392
 10
-57.3282871155
 20
56.7413512996
 10
-57.4199589738
 20
55.6728421373
 10
-57.5072754054
 20
54.6067585363
  0
LWPOLYLINE
  5
22F
100
AcDbEntity
  8
RACCORDO
100
AcDbPolyline
 62
250
  6
CONTINUOUS
 90
19
 70
0
 10
-54.2909438942
 20
42.2250566458
 10
-54.2878712368
 20
42.2273771105
 10
-54.2824245326
 20
42.2320802144
 10
-54.27734622
 20
42.2372719952
 10
-54.2726425221
 20
42.2429460907
 10
-54.2683192029
 20
42.2490955476
 10
-54.2643815603
 20
42.2557128302
 10
-54.2608344197
 20
42.2627898295
 10
-54.2576821279
 20
42.2703178731
 10
-54.2549285477
 20
42.2782877359
 10
-54.2525770535
 20
42.2866896514
 10
-54.2506305269
 20
42.2955133237
 10
-54.2490913532
 20
42.3047479398
 10
-54.2479614186
 20
42.3143821835
 10
-54.2472421077
 20
42.3244042486
 10
-54.246934302
 20
42.3348018538
 10
-54.2470383787
 20
42.3455622575
 10
-54.2475542103
 20
42.3566722736
 10
-54.2484811646
 20
42.3681182875
  0
LWPOLYLINE
  5
230
100
AcDbEntity
  8
RACCORDO
100
AcDbPolyline
 62
250
  6
CONTINUOUS
 90
55
 70
0
 10
-55.2187558386
 20
41.6697012741
 10
-55.2386492406
 20
41.6551299112
 10
-55.2584928209
 20
41.6400767026
 10
-55.2782865794
 20
41.6245416483
 10
-55.298052043
 20
41.6085091542
 10
-55.3177676849
 20
41.5919948144
 10
-55.3373689245
 20
41.5750454113
 10
-55.356853979
 20
41.5576594098
 10
-55.3762246313
 20
41.5398383449
 10
-55.3954216491
 20
41.521633604
 10
-55.414443414
 20
41.5030438686
 10
-55.4332915445
 20
41.4840704573
 10
-55.4519116635
 20
41.4647687135
 10
-55.4702989463
 20
41.4451416192
 10
-55.4884582177
 20
41.4251861925
 10
-55.5063495749
 20
41.4049488307
 10
-55.5239695484
 20
41.3844326965
 10
-55.5413216078
 20
41.3636346272
 10
-55.5583762593
 20
41.3425915333
 10
-55.5751343999
 20
41.3213018152
 10
-55.5915951327
 20
41.2997670724
 10
-55.6077262728
 20
41.2780290138
 10
-55.6235291409
 20
41.2560845848
 10
-55.6390024165
 20
41.23393684
 10
-55.6541099524
 20
41.2116366512
 10
-55.6688509036
 20
41.1891834045
 10
-55.6832261152
 20
41.1665777138
 10
-55.6972019764
 20
41.1438722931
 10
-55.7107773912
 20
41.1210668745
 10
-55.7239534555
 20
41.098161726
 10
-55.7366998458
 20
41.0752103645
 10
-55.7490152989
 20
41.0522128567
 10
-55.7609010779
 20
41.029169136
 10
-55.7723306486
 20
41.0061325201
 10
-55.7833017205
 20
40.9831059432
 10
-55.793816584
 20
40.9600864711
 10
-55.8038555769
 20
40.9371186194
 10
-55.8134176387
 20
40.914204112
 10
-55.8225038299
 20
40.8913412249
 10
-55.8310976697
 20
40.8685693024
 10
-55.8391999606
 20
40.8458845513
 10
-55.8468099001
 20
40.8232907649
 10
-55.8539086003
 20
40.8008386663
 10
-55.8604957257
 20
40.7785238424
 10
-55.8665716118
 20
40.7563507063
 10
-55.8721183778
 20
40.734383221
 10
-55.8771334987
 20
40.7126214924
 10
-55.8816194995
 20
40.6910654145
 10
-55.8855660738
 20
40.6697786322
 10
-55.8889702977
 20
40.648761422
 10
-55.8918350951
 20
40.6280135073
 10
-55.8941589318
 20
40.607597703
 10
-55.8959412963
 20
40.5875349474
 10
-55.8971827001
 20
40.5678043021
 10
-55.8978831431
 20
40.5484057672
  0
LINE
  5
231
100
AcDbEntity
  8
RACCORDO
100
AcDbLine
 62
250
  6
CONTINUOUS
 10
-55.2187558386
 20
41.6697012741
 11
-54.2484811646
 21
42.3681182875
  0
LINE
  5
232
100
AcDbEntity
  8
RACCORDO
100
AcDbLine
 62
7
  6
CONTINUOUS
 10
-55.2612185682
 20
41.5266396325
 11
-54.2909438942
 21
42.2250566458
  0
LWPOLYLINE
  5
233
100
AcDbEntity
  8
RACCORDO
100
AcDbPolyline
 62
250
  6
CONTINUOUS
 90
26
 70
0
 10
-54.2484811646
 20
42.3681182875
 10
-54.2361098281
 20
42.3762668795
 10
-54.2241351777
 20
42.3847065719
 10
-54.2125709051
 20
42.3934277148
 10
-54.2014302328
 20
42.4024203365
 10
-54.1907258992
 20
42.4116741549
 10
-54.1804701435
 20
42.4211785892
 10
-54.170674692
 20
42.430922772
 10
-54.1613507448
 20
42.440895562
 10
-54.152508963
 20
42.4510855561
 10
-54.1441594562
 20
42.4614811033
 10
-54.1363117711
 20
42.4720703174
 10
-54.1289748808
 20
42.4828410905
 10
-54.1221571743
 20
42.4937811076
 10
-54.1158664469
 20
42.5048778597
 10
-54.1101098914
 20
42.516118659
 10
-54.1048940898
 20
42.5274906527
 10
-54.1002250058
 20
42.5389808382
 10
-54.0961079781
 20
42.5505760775
 10
-54.0925477141
 20
42.5622631128
 10
-54.0895482845
 20
42.5740285812
 10
-54.0871131188
 20
42.58585903
 10
-54.0852450016
 20
42.5977409323
 10
-54.0839460686
 20
42.6096607025
 10
-54.0832178053
 20
42.6216047114
 10
-54.0830464677
 20
42.6308596603
  0
LWPOLYLINE
  5
234
100
AcDbEntity
  8
RACCORDO
100
AcDbPolyline
 62
250
  6
CONTINUOUS
 90
26
 70
0
 10
-55.8978833438
 20
40.5484022471
 10
-55.8855151145
 20
40.5562876924
 10
-55.8735435633
 20
40.5644642339
 10
-55.8619823788
 20
40.5729225245
 10
-55.850844781
 20
40.5816528008
 10
-55.840143504
 20
40.5906451749
 10
-55.8298907807
 20
40.5998896454
 10
-55.8200983327
 20
40.6093757336
 10
-55.8107773576
 20
40.6190925022
 10
-55.801938513
 20
40.6290288467
 10
-55.7935919051
 20
40.6391734066
 10
-55.7857470773
 20
40.6495145825
 10
-55.7784129989
 20
40.6600405541
 10
-55.7715980557
 20
40.6707392869
 10
-55.7653100397
 20
40.6815985475
 10
-55.7595561406
 20
40.6926059216
 10
-55.7543429371
 20
40.7037488234
 10
-55.74967639
 20
40.7150145123
 10
-55.7455618348
 20
40.726390109
 10
-55.7420039762
 20
40.7378626065
 10
-55.739006882
 20
40.7494188876
 10
-55.7365739789
 20
40.7610457416
 10
-55.7347080486
 20
40.7727298745
 10
-55.7334112245
 20
40.7844579267
 10
-55.7326849894
 20
40.7962164912
 10
-55.732577907
 20
40.7997750974
  0
LWPOLYLINE
  5
235
100
AcDbEntity
  8
RACCORDO
100
AcDbPolyline
 62
7
  6
CONTINUOUS
 90
55
 70
0
 10
-55.3785208343
 20
51.5066152812
 10
-55.3787846324
 20
51.5065157808
 10
-55.3793628546
 20
51.5063015974
 10
-55.3795937815
 20
51.5062184272
 10
-55.3794806153
 20
51.5062574673
 10
-55.3790189009
 20
51.5064124635
 10
-55.3782085964
 20
51.5066754042
 10
-55.3770441216
 20
51.5070398259
 10
-55.3755009843
 20
51.5075044462
 10
-55.3735657243
 20
51.5080634841
 10
-55.3712334918
 20
51.5087079684
 10
-55.3684877728
 20
51.5094314592
 10
-55.3653153957
 20
51.5102255904
 10
-55.361716226
 20
51.5110780363
 10
-55.3576985239
 20
51.5119743406
 10
-55.3532575162
 20
51.5129028721
 10
-55.348398428
 20
51.5138495331
 10
-55.3431553574
 20
51.5147952219
 10
-55.3375426757
 20
51.515725646
 10
-55.3315626223
 20
51.5166287959
 10
-55.3252387274
 20
51.5174897731
 10
-55.3185977218
 20
51.5182943932
 10
-55.3116357094
 20
51.5190328337
 10
-55.3043244627
 20
51.5196967307
 10
-55.2966709802
 20
51.5202732833
 10
-55.2886836516
 20
51.5207496806
 10
-55.2803261759
 20
51.5211148473
 10
-55.2715832681
 20
51.5213545377
 10
-55.2624808056
 20
51.5214528394
 10
-55.2530427808
 20
51.52139504
 10
-55.2432235196
 20
51.521165244
 10
-55.2330866559
 20
51.520749216
 10
-55.2228304912
 20
51.520145704
 10
-55.2124805809
 20
51.519352364
 10
-55.2020562539
 20
51.5183675857
 10
-55.1917616952
 20
51.5172131032
 10
-55.1816827498
 20
51.5159081809
 10
-55.1717852556
 20
51.514458782
 10
-55.1620970855
 20
51.5128787506
 10
-55.1526669063
 20
51.5111871456
 10
-55.1434835865
 20
51.5093935973
 10
-55.1344801754
 20
51.50749435
 10
-55.1256672091
 20
51.5054993033
 10
-55.1170605675
 20
51.5034201266
 10
-55.1085985771
 20
51.5012486412
 10
-55.1002850746
 20
51.4989911335
 10
-55.0921386553
 20
51.4966582564
 10
-55.0841205213
 20
51.4942438776
 10
-55.0762365841
 20
51.4917539699
 10
-55.0685038154
 20
51.4891983592
 10
-55.0609024057
 20
51.4865748727
 10
-55.0534460649
 20
51.4838923132
 10
-55.0461472553
 20
51.4811596876
 10
-55.038987735
 20
51.4783745136
 10
-55.031979827
 20
51.4755455822
  0
LWPOLYLINE
  5
236
100
AcDbEntity
  8
0
100
AcDbPolyline
 62
250
  6
CONTINUOUS
 90
34
 70
0
 10
-69.4164365177
 20
20.8648053307
 10
-69.39963194
 20
20.7867010656
 10
-69.3818833819
 20
20.7144217113
 10
-69.3621161292
 20
20.6426044462
 10
-69.3403376282
 20
20.5712763229
 10
-69.3165560823
 20
20.5004642096
 10
-69.2907804498
 20
20.4301947802
 10
-69.2630204399
 20
20.3604945042
 10
-69.2332865095
 20
20.2913896367
 10
-69.2015898588
 20
20.2229062085
 10
-69.1679424276
 20
20.1550700161
 10
-69.1323568904
 20
20.0879066127
 10
-69.0948466516
 20
20.0214412976
 10
-69.0554258409
 20
19.9556991073
 10
-69.0141093076
 20
19.890704806
 10
-68.9709126148
 20
19.8264828761
 10
-68.9258520342
 20
19.763057509
 10
-68.8789445395
 20
19.7004525961
 10
-68.8302078
 20
19.6386917199
 10
-68.7796601742
 20
19.5777981446
 10
-68.7273207026
 20
19.5177948081
 10
-68.6732091006
 20
19.4587043127
 10
-68.6173457514
 20
19.400548917
 10
-68.5597516979
 20
19.3433505272
 10
-68.5004486349
 20
19.2871306891
 10
-68.439458901
 20
19.2319105799
 10
-68.3768054701
 20
19.1777110003
 10
-68.312511943
 20
19.1245523663
 10
-68.2466025379
 20
19.0724547022
 10
-68.179102082
 20
19.0214376323
 10
-68.1100360018
 20
18.971520374
 10
-68.0394303134
 20
18.9227217304
 10
-67.9673116129
 20
18.8750600833
 10
-67.8937070665
 20
18.828553386
  0
LWPOLYLINE
  5
237
100
AcDbEntity
  8
0
100
AcDbPolyline
 62
7
  6
CONTINUOUS
 90
58
 70
0
 10
-69.4164365145
 20
20.8648053314
 10
-69.3971499468
 20
20.7712760152
 10
-69.373183763
 20
20.6626210015
 10
-69.347553746
 20
20.55401189
 10
-69.3202897921
 20
20.4455494509
 10
-69.2913708288
 20
20.337126629
 10
-69.2607093409
 20
20.2284321555
 10
-69.2282927778
 20
20.1194647309
 10
-69.1941067005
 20
20.0102187567
 10
-69.1580310722
 20
19.9003784131
 10
-69.12003324
 20
19.789933267
 10
-69.0800853931
 20
19.678890579
 10
-69.0380454538
 20
19.5669610907
 10
-68.9938643588
 20
19.4541368996
 10
-68.9474979136
 20
19.3404272698
 10
-68.8987822252
 20
19.2255659818
 10
-68.8476368594
 20
19.1095170011
 10
-68.7940142968
 20
18.9923243824
 10
-68.7377709739
 20
18.8738333546
 10
-68.6784669386
 20
18.7533242827
 10
-68.6163648122
 20
18.6315386011
 10
-68.5524438298
 20
18.5104606392
 10
-68.4868219956
 20
18.3902704254
 10
-68.4193753646
 20
18.2707062127
 10
-68.3508524328
 20
18.1530180775
 10
-68.2815849153
 20
18.0376265432
 10
-68.2113232695
 20
17.9239811779
 10
-68.1399948275
 20
17.8118698182
 10
-68.0676201412
 20
17.701246982
 10
-67.9942132044
 20
17.592065055
 10
-67.9196851482
 20
17.4841369881
 10
-67.8440107249
 20
17.3773861916
 10
-67.7672193692
 20
17.2718204949
 10
-67.6893004142
 20
17.1673969653
 10
-67.6102406257
 20
17.0640759235
 10
-67.5300407061
 20
16.9618423613
 10
-67.4487113467
 20
16.8606974102
 10
-67.3662600382
 20
16.7606416949
 10
-67.2826535968
 20
16.661630709
 10
-67.1978362664
 20
16.5636019274
 10
-67.1118705955
 20
16.4666335345
 10
-67.0246508964
 20
16.3706171353
 10
-66.9358467934
 20
16.2752195556
 10
-66.845397849
 20
16.1804238031
 10
-66.7532766506
 20
16.0862537188
 10
-66.659162747
 20
15.9924488206
 10
-66.5626369692
 20
15.8986876281
 10
-66.4639767337
 20
15.805341815
 10
-66.3639028947
 20
15.7131592451
 10
-66.2621712685
 20
15.621963974
 10
-66.1589202938
 20
15.5319351778
 10
-66.0555096185
 20
15.4442603859
 10
-65.9519500515
 20
15.3589049817
 10
-65.8482153932
 20
15.2758076475
 10
-65.7457113843
 20
15.1960121328
 10
-65.644956228
 20
15.1197806669
 10
-65.5455198944
 20
15.0466517145
 10
-65.4587823775
 20
14.9845428847
  0
LWPOLYLINE
  5
238
100
AcDbEntity
  8
0
100
AcDbPolyline
 62
250
  6
CONTINUOUS
 90
49
 70
0
 10
-67.8937070668
 20
18.8285533858
 10
-68.0871549854
 20
19.8256258206
 10
-68.2723591813
 20
20.8228081502
 10
-68.4493196058
 20
21.8200841142
 10
-68.6180365734
 20
22.8174438723
 10
-68.7785098132
 20
23.8148646655
 10
-68.9307387529
 20
24.8123105925
 10
-69.0747210045
 20
25.8097449849
 10
-69.2104601254
 20
26.8071711042
 10
-69.3379643488
 20
27.8046130484
 10
-69.4572351087
 20
28.802062091
 10
-69.5682713789
 20
29.799494212
 10
-69.6710771328
 20
30.7969110231
 10
-69.7656527489
 20
31.7942965711
 10
-69.8519983045
 20
32.7916340792
 10
-69.9301170276
 20
33.7889241574
 10
-70.0000090459
 20
34.7861457164
 10
-70.0616747397
 20
35.7832871212
 10
-70.1151172532
 20
36.7803635164
 10
-70.1603371318
 20
37.7773648892
 10
-70.1973339017
 20
38.7742688803
 10
-70.2261087524
 20
39.7710724322
 10
-70.2466618665
 20
40.7677554922
 10
-70.258993297
 20
41.7643056399
 10
-70.2631036856
 20
42.7607315232
 10
-70.258993294
 20
43.7570172897
 10
-70.2466618588
 20
44.7531464954
 10
-70.2261087403
 20
45.7491272503
 10
-70.1973338893
 20
46.7449475073
 10
-70.1603371226
 20
47.7405871714
 10
-70.1151172464
 20
48.736042523
 10
-70.0616747312
 20
49.7312917246
 10
-70.000009033
 20
50.7263243444
 10
-69.93011701
 20
51.7211540564
 10
-69.8519982815
 20
52.7157700013
 10
-69.7656527202
 20
53.7101510325
 10
-69.6710771037
 20
54.7042956943
 10
-69.5682713623
 20
55.6981877373
 10
-69.4572351116
 20
56.6918113243
 10
-69.3379643616
 20
57.6851658002
 10
-69.2104601238
 20
58.6782281112
 10
-69.0747209759
 20
59.6709891431
 10
-68.9307387087
 20
60.6634695021
 10
-68.7785097814
 20
61.6556731587
 10
-68.6180365686
 20
62.6475643871
 10
-68.4493196206
 20
63.6391043045
 10
-68.2723592002
 20
64.6302690452
 10
-68.0871549996
 20
65.6210499384
 10
-67.8937070668
 20
66.6114306549
  0
LWPOLYLINE
  5
239
100
AcDbEntity
  8
RACCORDO
100
AcDbPolyline
 62
250
  6
CONTINUOUS
 90
55
 70
0
 10
-55.897883103
 20
29.7723358855
 10
-55.8971830117
 20
29.7538342636
 10
-55.895942095
 20
29.7356886343
 10
-55.8941603528
 20
29.7178989977
 10
-55.891837318
 20
29.7004450061
 10
-55.8889734578
 20
29.6833470072
 10
-55.8855701737
 20
29.6666660434
 10
-55.8816245472
 20
29.6504055955
 10
-55.8771394969
 20
29.6345621827
 10
-55.8721251798
 20
29.6191864047
 10
-55.8665790144
 20
29.6042812732
 10
-55.8605035822
 20
29.5898437765
 10
-55.8539167859
 20
29.5759154789
 10
-55.8468182395
 20
29.562501249
 10
-55.8392083289
 20
29.5495962182
 10
-55.8311061144
 20
29.5372273453
 10
-55.8225124399
 20
29.5253975164
 10
-55.8134264615
 20
29.5141038454
 10
-55.8038647078
 20
29.5033646327
 10
-55.7938261646
 20
29.4931795306
 10
-55.7833118462
 20
29.4835488867
 10
-55.7723413232
 20
29.4744920451
 10
-55.7609122928
 20
29.4660089509
 10
-55.749027058
 20
29.458099659
 10
-55.7367120984
 20
29.4507836774
 10
-55.7239661146
 20
29.4440625289
 10
-55.7107904059
 20
29.4379346908
 10
-55.69721535
 20
29.4324151034
 10
-55.6832398911
 20
29.4275054452
 10
-55.6688650849
 20
29.4232040377
 10
-55.6541244764
 20
29.4195207851
 10
-55.6390171808
 20
29.416457368
 10
-55.6235440829
 20
29.4140121059
 10
-55.6077413821
 20
29.412189861
 10
-55.5916103539
 20
29.4109920206
 10
-55.5751497229
 20
29.4104171975
 10
-55.5583918627
 20
29.4104660928
 10
-55.5413377225
 20
29.4111391764
 10
-55.5239863531
 20
29.4124359783
 10
-55.5063672813
 20
29.4143557907
 10
-55.4884771784
 20
29.4168998268
 10
-55.470319373
 20
29.4200668733
 10
-55.4519333769
 20
29.4238525824
 10
-55.4333143668
 20
29.4282600692
 10
-55.4144671661
 20
29.4332862186
 10
-55.395445756
 20
29.4389173381
 10
-55.3762483848
 20
29.4451568304
 10
-55.3568768043
 20
29.4520012929
 10
-55.3373902513
 20
29.4594268245
 10
-55.3177869582
 20
29.467437225
 10
-55.2980686927
 20
29.4760286946
 10
-55.278299994
 20
29.4851659331
 10
-55.2585023753
 20
29.4948371737
 10
-55.2386543235
 20
29.5050541832
 10
-55.2187558386
 20
29.5158169617
  0
LWPOLYLINE
  5
23A
100
AcDbEntity
  8
RACCORDO
100
AcDbPolyline
 62
250
  6
CONTINUOUS
 90
22
 70
0
 10
-57.2322612059
 20
57.8122689385
 10
-57.2261984328
 20
57.5851454905
 10
-57.2189703486
 20
57.359320241
 10
-57.2106066506
 20
57.1348013504
 10
-57.2011145027
 20
56.9113808405
 10
-57.1905398694
 20
56.6893035944
 10
-57.1789805005
 20
56.469247309
 10
-57.1664776726
 20
56.2512823553
 10
-57.1530633669
 20
56.0353704121
 10
-57.1388394707
 20
55.8220061941
 10
-57.1238458122
 20
55.6111679617
 10
-57.1081230504
 20
55.4028959922
 10
-57.0917879844
 20
55.197756766
 10
-57.0748935671
 20
54.995820409
 10
-57.0574777868
 20
54.7970195595
 10
-57.0396438605
 20
54.6016931637
 10
-57.0214394313
 20
54.409832977
 10
-57.0029092064
 20
54.2214382936
 10
-56.9841554348
 20
54.0368397883
 10
-56.9652435751
 20
53.85613494
 10
-56.946203261
 20
53.6792040875
 10
-56.9270805958
 20
53.5060389011
  0
LWPOLYLINE
  5
23B
100
AcDbEntity
  8
RACCORDO
100
AcDbPolyline
 62
250
  6
CONTINUOUS
 90
13
 70
0
 10
-55.897883103
 20
29.7723358855
 10
-55.9168814735
 20
30.6581670383
 10
-55.932425617
 20
31.5462295528
 10
-55.9445155337
 20
32.4365234292
 10
-55.953151259
 20
33.3290592952
 10
-55.9583327575
 20
34.223826523
 10
-55.9600599223
 20
35.1207932293
 10
-55.9583326642
 20
36.019960378
 10
-55.9531510725
 20
36.9213270052
 10
-55.9445153084
 20
37.8248583352
 10
-55.9324254257
 20
38.7305427763
 10
-55.9168813706
 20
39.6383919203
 10
-55.8978831431
 20
40.5484057672
  0
LWPOLYLINE
  5
23C
100
AcDbEntity
  8
RACCORDO
100
AcDbPolyline
 62
7
  6
CONTINUOUS
 90
10
 70
0
 10
-55.7325857896
 20
30.0467910702
 10
-55.756933589
 20
31.2169007641
 10
-55.7753929414
 20
32.4022598598
 10
-55.7877002358
 20
33.5916263235
 10
-55.7938550835
 20
34.7849716279
 10
-55.7938571256
 20
35.9822670748
 10
-55.7877062057
 20
37.1834836971
 10
-55.7754023854
 20
38.3885925352
 10
-55.7569457546
 20
39.5975647555
 10
-55.732577907
 20
40.7997750974
  0
LINE
  5
23D
100
AcDbEntity
  8
0
100
AcDbLine
 62
7
  6
CONTINUOUS
 10
-55.5539818158
 20
41.2242772476
 11
-55.5539818158
 21
31.0392488588
  0
LWPOLYLINE
  5
23E
100
AcDbEntity
  8
RACCORDO
100
AcDbPolyline
 62
250
  6
CONTINUOUS
 90
27
 70
0
 10
-58.3110437211
 20
37.8937658672
 10
-58.3241554636
 20
36.8716182994
 10
-58.3328967439
 20
35.8522114784
 10
-58.3372674121
 20
34.8355625066
 10
-58.3372674097
 20
33.8216884595
 10
-58.3328967366
 20
32.8106062942
 10
-58.3241554513
 20
31.8023329726
 10
-58.3110437039
 20
30.7968854158
 10
-58.2935617343
 20
29.7942804466
 10
-58.2717098095
 20
28.7945348797
 10
-58.2454882876
 20
27.7976654838
 10
-58.214897648
 20
26.8036889383
 10
-58.1799383657
 20
25.8126219002
 10
-58.1406110067
 20
24.8244809915
 10
-58.0969162904
 20
23.8392827628
 10
-58.048854899
 20
22.857043709
 10
-57.9964276071
 20
21.877780305
 10
-57.9396353748
 20
20.9015089945
 10
-57.8784790924
 20
19.928246115
 10
-57.8129597427
 20
18.958007984
 10
-57.7430785285
 20
17.9908109371
 10
-57.6688365463
 20
17.026671122
 10
-57.5902349892
 20
16.0656047261
 10
-57.5072753097
 20
15.1076280634
 10
-57.4199588955
 20
14.1527572407
 10
-57.3282870685
 20
13.2010081586
 10
-57.2322612878
 20
12.2523967385
  0
LWPOLYLINE
  5
23F
100
AcDbEntity
  8
RACCORDO
100
AcDbPolyline
 62
250
  6
CONTINUOUS
 90
5
 70
0
 10
-58.2148976849
 20
42.0094206644
 10
-58.2454883195
 20
40.9764817193
 10
-58.2717098366
 20
39.9462148108
 10
-58.2935617565
 20
38.9186371119
 10
-58.3110437211
 20
37.8937658672
  0
LWPOLYLINE
  5
240
100
AcDbEntity
  8
RACCORDO
100
AcDbPolyline
 62
7
  6
CONTINUOUS
 90
62
 70
0
 10
-55.7325778521
 20
40.7997779323
 10
-55.7324568019
 20
40.803581241
 10
-55.7322089091
 20
40.8084538151
 10
-55.7318280868
 20
40.8138222766
 10
-55.7312966494
 20
40.8196832765
 10
-55.7305974247
 20
40.8260331598
 10
-55.7297136586
 20
40.8328686172
 10
-55.72862909
 20
40.8401857428
 10
-55.7273277751
 20
40.8479808864
 10
-55.7257940719
 20
40.856250185
 10
-55.724013346
 20
40.8649863998
 10
-55.721971767
 20
40.8741810156
 10
-55.7196551808
 20
40.8838287679
 10
-55.7170508547
 20
40.8939196997
 10
-55.7141483043
 20
40.9044379038
 10
-55.7109359038
 20
40.9153743671
 10
-55.7074029096
 20
40.9267182263
 10
-55.703541854
 20
40.9384501182
 10
-55.6993431051
 20
40.9505597636
 10
-55.6947987844
 20
40.9630331419
 10
-55.6899060949
 20
40.9758442916
 10
-55.6846585671
 20
40.9889795845
 10
-55.6790509203
 20
41.0024238455
 10
-55.6730845722
 20
41.0161478436
 10
-55.666756134
 20
41.0301357456
 10
-55.6600632864
 20
41.0443707204
 10
-55.6530115812
 20
41.0588213237
 10
-55.6456005527
 20
41.0734705187
 10
-55.6378310917
 20
41.0882997445
 10
-55.6297133841
 20
41.1032749018
 10
-55.6212504545
 20
41.1183773396
 10
-55.6124459477
 20
41.1335881956
 10
-55.6033135921
 20
41.1488732014
 10
-55.5938591573
 20
41.1642136658
 10
-55.5840894234
 20
41.1795899436
 10
-55.5740221797
 20
41.1949669654
 10
-55.5636662617
 20
41.2103256841
 10
-55.5530309487
 20
41.2256470814
 10
-55.5421370773
 20
41.2408971019
 10
-55.5309959668
 20
41.2560572663
 10
-55.5196193334
 20
41.2711093516
 10
-55.5080306649
 20
41.286020912
 10
-55.4962435075
 20
41.300774415
 10
-55.484271527
 20
41.3153531034
 10
-55.4721400592
 20
41.3297271506
 10
-55.459864195
 20
41.343880778
 10
-55.447459346
 20
41.357798826
 10
-55.434952638
 20
41.3714540896
 10
-55.4223601418
 20
41.3848331227
 10
-55.4096986951
 20
41.3979226472
 10
-55.3969975918
 20
41.4106977232
 10
-55.3842735956
 20
41.4231475354
 10
-55.3715443065
 20
41.4352613691
 10
-55.3588410446
 20
41.4470167939
 10
-55.3461810819
 20
41.4584058047
 10
-55.33358221
 20
41.4694207573
 10
-55.3210770077
 20
41.4800424915
 10
-55.3086823276
 20
41.4902666677
 10
-55.2964154233
 20
41.500089238
 10
-55.2843094943
 20
41.5094947314
 10
-55.2723869902
 20
41.5184777626
 10
-55.2612197161
 20
41.5266388543
  0
LINE
  5
241
100
AcDbEntity
  8
RACCORDO
100
AcDbLine
 62
250
  6
CONTINUOUS
 10
-58.1799384075
 20
43.0450142868
 11
-58.2148976849
 21
42.0094206644
  0
LWPOLYLINE
  5
242
100
AcDbEntity
  8
RACCORDO
100
AcDbPolyline
 62
250
  6
CONTINUOUS
 90
34
 70
0
 10
-56.6111534081
 20
51.8305843375
 10
-56.6845320962
 20
50.7495222918
 10
-56.753338053
 20
49.6711200856
 10
-56.8175712783
 20
48.5953777189
 10
-56.8772328539
 20
47.5222746739
 10
-56.9323216982
 20
46.4518314685
 10
-56.982834566
 20
45.3841096556
 10
-57.0287710984
 20
44.3191111003
 10
-57.0701316544
 20
43.2568339376
 10
-57.1069140653
 20
42.1973341253
 10
-57.1391180926
 20
41.14061181
 10
-57.1667439748
 20
40.086666845
 10
-57.1897902586
 20
39.0355547476
 10
-57.2082567054
 20
37.9872756516
 10
-57.2221435539
 20
36.9418294232
 10
-57.2314500663
 20
35.8992711783
 10
-57.2361760006
 20
34.8596009169
 10
-57.2363215987
 20
33.822818639
 10
-57.2318868491
 20
32.7889794613
 10
-57.2228715078
 20
31.7580836361
 10
-57.2092758187
 20
30.7301309111
 10
-57.1911005021
 20
29.7051756459
 10
-57.168345319
 20
28.683218068
 10
-57.1410105083
 20
27.66425795
 10
-57.1090975069
 20
26.6483489694
 10
-57.0726060762
 20
25.6354912838
 10
-57.0315364549
 20
24.6256847357
 10
-56.9858907954
 20
23.6189825305
 10
-56.9356687355
 20
22.6153832061
 10
-56.8808706375
 20
21.6148882245
 10
-56.8214997405
 20
20.6175551775
 10
-56.7575571243
 20
19.6234032622
 10
-56.689041709
 20
18.6324132815
 10
-56.6159534949
 20
17.6445852353
  0
LWPOLYLINE
  5
243
100
AcDbEntity
  8
RACCORDO
100
AcDbPolyline
 62
250
  6
CONTINUOUS
 90
10
 70
0
 10
-57.6688366354
 20
52.4819398502
 10
-57.7430786094
 20
51.4232402864
 10
-57.8129598187
 20
50.3670376033
 10
-57.8784791635
 20
49.3133495736
 10
-57.939635441
 20
48.2621937705
 10
-57.9964276685
 20
47.2135878705
 10
-58.0488549555
 20
46.1675495014
 10
-58.096916342
 20
45.1240960962
 10
-58.1406110534
 20
44.0832451945
 10
-58.1799384075
 20
43.0450142868
  0
LWPOLYLINE
  5
244
100
AcDbEntity
  8
RACCORDO
100
AcDbPolyline
 62
250
  6
CONTINUOUS
 90
46
 70
0
 10
-54.2484811646
 20
30.052912411
 10
-54.2475542103
 20
30.0661217774
 10
-54.2470383787
 20
30.0796369281
 10
-54.246934302
 20
30.0934413014
 10
-54.2472421077
 20
30.1075179807
 10
-54.2479614186
 20
30.1218497162
 10
-54.2490913532
 20
30.1364189453
 10
-54.2506305269
 20
30.1512078144
 10
-54.2525770535
 20
30.1661982007
 10
-54.2549285477
 20
30.1813717346
 10
-54.2576821279
 20
30.1967098219
 10
-54.2608344197
 20
30.2121936669
 10
-54.2643815603
 20
30.2278042951
 10
-54.2683192029
 20
30.2435225769
 10
-54.2726425221
 20
30.2593292505
 10
-54.27734622
 20
30.2752049459
 10
-54.2824245326
 20
30.2911302087
 10
-54.2878712368
 20
30.3070855233
 10
-54.2936796579
 20
30.3230513378
 10
-54.2998426783
 20
30.3390080872
 10
-54.3063527454
 20
30.3549362174
 10
-54.3132018816
 20
30.3708162097
 10
-54.3203816939
 20
30.3866286042
 10
-54.3278833839
 20
30.4023540239
 10
-54.3356977587
 20
30.4179731985
 10
-54.3438152423
 20
30.4334669876
 10
-54.3522258874
 20
30.4488164048
 10
-54.3609193873
 20
30.4640026402
 10
-54.3698850887
 20
30.4790070844
 10
-54.3791120047
 20
30.4938113503
 10
-54.3885888284
 20
30.5083972963
 10
-54.3983039465
 20
30.5227470484
 10
-54.408245454
 20
30.5368430219
 10
-54.4184011681
 20
30.5506679432
 10
-54.4287586437
 20
30.5642048707
 10
-54.4393051885
 20
30.577437216
 10
-54.4500278783
 20
30.5903487636
 10
-54.4609135733
 20
30.6029236914
 10
-54.4719489337
 20
30.6151465896
 10
-54.4831204366
 20
30.6270024799
 10
-54.4944143919
 20
30.6384768338
 10
-54.5058169598
 20
30.6495555903
 10
-54.5173141672
 20
30.6602251729
 10
-54.5288919249
 20
30.670472507
 10
-54.5405360453
 20
30.6802850351
 10
-54.5522322594
 20
30.6896507326
  0
LWPOLYLINE
  5
245
100
AcDbEntity
  8
RACCORDO
100
AcDbPolyline
 62
250
  6
CONTINUOUS
 90
49
 70
0
 10
-55.2187558386
 20
29.5158169617
 10
-55.2178747834
 20
29.5281916182
 10
-55.2173550218
 20
29.5408359331
 10
-55.2171971136
 20
29.5537362877
 10
-55.2174012289
 20
29.5668787876
 10
-55.2179671478
 20
29.5802492776
 10
-55.2188942609
 20
29.5938333571
 10
-55.2201815695
 20
29.6076163952
 10
-55.2218276872
 20
29.6215835468
 10
-55.223830841
 20
29.6357197687
 10
-55.2261888734
 20
29.6500098354
 10
-55.2288992448
 20
29.6644383556
 10
-55.2319590357
 20
29.6789897891
 10
-55.2353649508
 20
29.6936484633
 10
-55.2391133217
 20
29.70839859
 10
-55.2432001111
 20
29.7232242823
 10
-55.2476209173
 20
29.738109572
 10
-55.2523709788
 20
29.753038427
 10
-55.2574451795
 20
29.7679947679
 10
-55.2628380541
 20
29.7829624857
 10
-55.2685437943
 20
29.7979254595
 10
-55.2745562545
 20
29.8128675735
 10
-55.280868959
 20
29.827772734
 10
-55.2874751088
 20
29.8426248876
 10
-55.2943675885
 20
29.8574080376
 10
-55.3015389746
 20
29.8721062619
 10
-55.3089815431
 20
29.8867037297
 10
-55.3166872779
 20
29.9011847187
 10
-55.3246478796
 20
29.9155336323
 10
-55.3328547741
 20
29.9297350158
 10
-55.3412991223
 20
29.9437735738
 10
-55.3499718289
 20
29.9576341859
 10
-55.3588635532
 20
29.9713019235
 10
-55.3679647182
 20
29.984762066
 10
-55.3772655215
 20
29.9980001159
 10
-55.3867559456
 20
30.0110018153
 10
-55.3964257689
 20
30.0237531607
 10
-55.4062645765
 20
30.0362404183
 10
-55.4162617714
 20
30.0484501386
 10
-55.4264065862
 20
30.0603691713
 10
-55.4366880944
 20
30.0719846789
 10
-55.4470952222
 20
30.0832841509
 10
-55.4576167608
 20
30.0942554174
 10
-55.4682413778
 20
30.1048866616
 10
-55.47895763
 20
30.1151664332
 10
-55.4897539755
 20
30.1250836605
 10
-55.5006187861
 20
30.134627662
 10
-55.5115403598
 20
30.1437881583
 10
-55.5225069334
 20
30.1525552833
  0
LWPOLYLINE
  5
246
100
AcDbEntity
  8
RACCORDO
100
AcDbPolyline
 62
250
  6
CONTINUOUS
 90
3
 70
0
 10
-57.5072754054
 20
54.6067585363
 10
-57.5902350868
 20
53.543118494
 10
-57.6688366354
 20
52.4819398502
  0
LWPOLYLINE
  5
247
100
AcDbEntity
  8
RACCORDO
100
AcDbPolyline
 62
250
  6
CONTINUOUS
 90
16
 70
0
 10
-57.0697746477
 20
15.2253673509
 10
-57.0862109322
 20
15.0297406783
 10
-57.1020898299
 20
14.8333077308
 10
-57.1173668193
 20
14.6360847037
 10
-57.132018464
 20
14.4379365149
 10
-57.1459740669
 20
14.2390342125
 10
-57.1591214339
 20
14.0398421923
 10
-57.1714200433
 20
13.8403733203
 10
-57.1828270154
 20
13.6406317131
 10
-57.1932403631
 20
13.4410472418
 10
-57.2026259429
 20
13.2415853456
 10
-57.210942941
 20
13.0422878613
 10
-57.2180981367
 20
12.8436770299
 10
-57.2240465289
 20
12.6459175616
 10
-57.2287779321
 20
12.4488269427
 10
-57.2322611805
 20
12.2523956993
  0
LWPOLYLINE
  5
248
100
AcDbEntity
  8
RACCORDO
100
AcDbPolyline
 62
250
  6
CONTINUOUS
 90
14
 70
0
 10
-56.8914744288
 20
16.3636709708
 10
-56.9095302831
 20
16.2743831959
 10
-56.9273660937
 20
16.183934815
 10
-56.9448873744
 20
16.0923848182
 10
-56.9618671414
 20
16.0004955259
 10
-56.9783307774
 20
15.907664421
 10
-56.994087238
 20
15.8144200408
 10
-57.0086666757
 20
15.7231818654
 10
-57.0219694461
 20
15.6344752891
 10
-57.0340781641
 20
15.5476384288
 10
-57.0448986015
 20
15.4632919023
 10
-57.0544248607
 20
15.3816077952
 10
-57.0627079569
 20
15.3023124374
 10
-57.069774644
 20
15.2253673723
  0
LINE
  5
249
100
AcDbEntity
  8
RACCORDO
100
AcDbLine
 62
250
  6
CONTINUOUS
 10
-56.6159533998
 20
17.6445851472
 11
-56.6427048768
 21
17.5161806111
  0
LINE
  5
24A
100
AcDbEntity
  8
RACCORDO
100
AcDbLine
 62
250
  6
CONTINUOUS
 10
-56.8550644202
 20
16.5384355896
 11
-56.8914744288
 21
16.3636709708
  0
LINE
  5
24B
100
AcDbEntity
  8
RACCORDO
100
AcDbLine
 62
250
  6
CONTINUOUS
 10
-56.6427048768
 20
17.5161806111
 11
-56.6712630169
 21
17.3822492779
  0
LINE
  5
24C
100
AcDbEntity
  8
RACCORDO
100
AcDbLine
 62
250
  6
CONTINUOUS
 10
-56.8191380446
 20
16.7060372384
 11
-56.8550644202
 21
16.5384355896
  0
LINE
  5
24D
100
AcDbEntity
  8
RACCORDO
100
AcDbLine
 62
250
  6
CONTINUOUS
 10
-56.6712630169
 20
17.3822492779
 11
-56.7172345981
 21
17.1709155044
  0
LINE
  5
24E
100
AcDbEntity
  8
RACCORDO
100
AcDbLine
 62
250
  6
CONTINUOUS
 10
-56.7172345981
 20
17.1709155044
 11
-56.8191380446
 21
16.7060372384
  0
LWPOLYLINE
  5
24F
100
AcDbEntity
  8
RACCORDO
100
AcDbPolyline
 62
250
  6
CONTINUOUS
 90
16
 70
0
 10
-56.6078859593
 20
14.9960108467
 10
-56.6579297571
 20
14.8083171173
 10
-56.707222598
 20
14.6208294213
 10
-56.7557075969
 20
14.4336055601
 10
-56.8034194375
 20
14.2466068125
 10
-56.8502054315
 20
14.0599937627
 10
-56.8957415148
 20
13.8741152832
 10
-56.9399917494
 20
13.6890385377
 10
-56.9829049629
 20
13.5048030745
 10
-57.0241623746
 20
13.3216978354
 10
-57.0637474047
 20
13.1397414755
 10
-57.1016164668
 20
12.9590072216
 10
-57.1374419126
 20
12.7798434566
 10
-57.1711146862
 20
12.602382606
 10
-57.2027247676
 20
12.4265558445
 10
-57.2322610386
 20
12.2523965623
  0
LWPOLYLINE
  5
250
100
AcDbEntity
  8
RACCORDO
100
AcDbPolyline
 62
250
  6
CONTINUOUS
 90
9
 70
0
 10
-55.6037106922
 20
17.256989626
 10
-55.6324547272
 20
17.1877520275
 10
-55.6622571292
 20
17.117562063
 10
-55.6930357574
 20
17.0464689904
 10
-55.7247808721
 20
16.9744613348
 10
-55.7575512419
 20
16.9014679643
 10
-55.7912830571
 20
16.8275463703
 10
-55.8259320191
 20
16.7526886011
 10
-55.8615736001
 20
16.6767310389
  0
LWPOLYLINE
  5
251
100
AcDbEntity
  8
RACCORDO
100
AcDbPolyline
 62
250
  6
CONTINUOUS
 90
12
 70
0
 10
-56.2557818416
 20
15.8642156299
 10
-56.2962755334
 20
15.7791679093
 10
-56.3358116008
 20
15.6942874994
 10
-56.3746117776
 20
15.6091227418
 10
-56.4123705896
 20
15.5242139867
 10
-56.4477550962
 20
15.4414866459
 10
-56.4805969381
 20
15.3614296139
 10
-56.5112348022
 20
15.2835022217
 10
-56.5392328373
 20
15.2080076628
 10
-56.5645232313
 20
15.1350118088
 10
-56.5873760739
 20
15.0643609385
 10
-56.6078859593
 20
14.9960108467
  0
LINE
  5
252
100
AcDbEntity
  8
RACCORDO
100
AcDbLine
 62
250
  6
CONTINUOUS
 10
-55.8615736001
 20
16.6767310389
 11
-55.935678623
 21
16.5214836396
  0
LINE
  5
253
100
AcDbEntity
  8
RACCORDO
100
AcDbLine
 62
250
  6
CONTINUOUS
 10
-56.1741193089
 20
16.0332057583
 11
-56.2557818416
 21
15.8642156299
  0
LINE
  5
254
100
AcDbEntity
  8
RACCORDO
100
AcDbLine
 62
250
  6
CONTINUOUS
 10
-55.935678623
 20
16.5214836396
 11
-56.0128230794
 21
16.362506837
  0
LINE
  5
255
100
AcDbEntity
  8
RACCORDO
100
AcDbLine
 62
250
  6
CONTINUOUS
 10
-56.0128230794
 20
16.362506837
 11
-56.1741193089
 21
16.0332057583
  0
LWPOLYLINE
  5
256
100
AcDbEntity
  8
RACCORDO
100
AcDbPolyline
 62
250
  6
CONTINUOUS
 90
16
 70
0
 10
-55.9057683741
 20
19.1500714853
 10
-55.9599670627
 20
19.0497173542
 10
-56.0132087363
 20
18.9493155205
 10
-56.0654933949
 20
18.848865984
 10
-56.116830153
 20
18.7483501637
 10
-56.1672098961
 20
18.6477866407
 10
-56.2166052809
 20
18.5472311583
 10
-56.2650153106
 20
18.4466846698
 10
-56.312440982
 20
18.3461462219
 10
-56.3588579423
 20
18.2456686977
 10
-56.4042645397
 20
18.1452550392
 10
-56.448662426
 20
18.0449023045
 10
-56.4920322044
 20
17.944654551
 10
-56.5343674091
 20
17.8445264646
 10
-56.575674506
 20
17.7445033593
 10
-56.6159534949
 20
17.6445852353
  0
LWPOLYLINE
  5
257
100
AcDbEntity
  8
RACCORDO
100
AcDbPolyline
 62
250
  6
CONTINUOUS
 90
16
 70
0
 10
-54.9272328992
 20
18.6916056629
 10
-54.9767359253
 20
18.6005770792
 10
-55.0253812404
 20
18.5094674119
 10
-55.0731606677
 20
18.4182934367
 10
-55.1200671409
 20
18.3270712253
 10
-55.1660918041
 20
18.2358182589
 10
-55.2112241068
 20
18.1445534248
 10
-55.2554558392
 20
18.053294911
 10
-55.2987804247
 20
17.9620580334
 10
-55.3411900437
 20
17.870857352
 10
-55.3826765175
 20
17.7797120357
 10
-55.4232341348
 20
17.688636312
 10
-55.4628587284
 20
17.5976373291
 10
-55.5015443014
 20
17.5067285964
 10
-55.5392833087
 20
17.4159299474
 10
-55.6037106922
 20
17.256989626
  0
LWPOLYLINE
  5
258
100
AcDbEntity
  8
RACCORDO
100
AcDbPolyline
 62
250
  6
CONTINUOUS
 90
27
 70
0
 10
-55.8978833444
 20
29.7723397361
 10
-55.8855151555
 20
29.7807494222
 10
-55.8735436346
 20
29.7894497127
 10
-55.86198247
 20
29.7984306607
 10
-55.8508448783
 20
29.8076819298
 10
-55.8401435968
 20
29.8171930108
 10
-55.829890869
 20
29.8269532332
 10
-55.82009842
 20
29.8369515052
 10
-55.8107774437
 20
29.8471763268
 10
-55.8019385979
 20
29.857616007
 10
-55.7935919887
 20
29.8682586094
 10
-55.7857471593
 20
29.8790919652
 10
-55.7784130794
 20
29.8901036862
 10
-55.7715981346
 20
29.9012811821
 10
-55.7653101169
 20
29.9126116724
 10
-55.759556216
 20
29.9240821995
 10
-55.7543430107
 20
29.9356796479
 10
-55.7496764617
 20
29.9473907574
 10
-55.7455619045
 20
29.9592021357
 10
-55.7420040438
 20
29.9711002773
 10
-55.7390069473
 20
29.9830715786
 10
-55.736574042
 20
29.9951023507
 10
-55.7347081094
 20
30.0071788376
 10
-55.733411283
 20
30.0192872316
 10
-55.7326850455
 20
30.0314136873
 10
-55.7325302272
 20
30.0435443397
 10
-55.7325853749
 20
30.046773344
  0
LWPOLYLINE
  5
259
100
AcDbEntity
  8
RACCORDO
100
AcDbPolyline
 62
250
  6
CONTINUOUS
 90
26
 70
0
 10
-54.2484811646
 20
30.052912411
 10
-54.2361095723
 20
30.0610611772
 10
-54.2241346831
 20
30.0695010558
 10
-54.2125701898
 20
30.0782223963
 10
-54.2014293155
 20
30.0872152262
 10
-54.1907247994
 20
30.0964692627
 10
-54.1804688813
 20
30.1059739243
 10
-54.1706732884
 20
30.115718343
 10
-54.1613492213
 20
30.1256913764
 10
-54.1525073421
 20
30.1358816205
 10
-54.1441577609
 20
30.1462774232
 10
-54.1363100248
 20
30.1568668973
 10
-54.1289731074
 20
30.1676379342
 10
-54.1221553978
 20
30.1785782176
 10
-54.1158646916
 20
30.1896752379
 10
-54.1101081818
 20
30.2009163057
 10
-54.1048924506
 20
30.2122885674
 10
-54.1002234615
 20
30.2237790194
 10
-54.0961065532
 20
30.2353745224
 10
-54.0925464327
 20
30.2470618175
 10
-54.0895471706
 20
30.2588275409
 10
-54.0871121961
 20
30.2706582384
 10
-54.0852442929
 20
30.2825403824
 10
-54.0839455964
 20
30.2944603862
 10
-54.0832175911
 20
30.3064046196
 10
-54.0830464677
 20
30.3156537837
  0
LWPOLYLINE
  5
25A
100
AcDbEntity
  8
RACCORDO
100
AcDbPolyline
 62
250
  6
CONTINUOUS
 90
27
 70
0
 10
-55.10502098
 20
31.0805313855
 10
-55.0934281756
 20
31.0875216421
 10
-55.0818814546
 20
31.0940978437
 10
-55.0703933659
 20
31.100252843
 10
-55.0589763932
 20
31.105979951
 10
-55.0476429463
 20
31.1112729418
 10
-55.0364053482
 20
31.1161260602
 10
-55.0252758135
 20
31.1205340314
 10
-55.0142664363
 20
31.1244920655
 10
-55.0033891815
 20
31.1279958611
 10
-54.9926558703
 20
31.1310416103
 10
-54.9820781681
 20
31.1336260032
 10
-54.9716675714
 20
31.135746231
 10
-54.9614353944
 20
31.1373999895
 10
-54.9513927575
 20
31.1385854819
 10
-54.9415505753
 20
31.1393014198
 10
-54.9319195443
 20
31.1395470256
 10
-54.9225101312
 20
31.1393220326
 10
-54.9133325629
 20
31.1386266858
 10
-54.9043968133
 20
31.1374617413
 10
-54.8957125935
 20
31.1358284655
 10
-54.8872893418
 20
31.1337286341
 10
-54.8791362122
 20
31.1311645297
 10
-54.8712620652
 20
31.1281389394
 10
-54.8636754584
 20
31.124655152
 10
-54.8563846373
 20
31.1207169547
 10
-54.8498434178
 20
31.1166086756
  0
LINE
  5
25B
100
AcDbEntity
  8
RACCORDO
100
AcDbLine
 62
7
  6
CONTINUOUS
 10
-55.7507926941
 20
30.9217808416
 11
-55.3920902657
 21
31.1358750186
  0
LINE
  5
25C
100
AcDbEntity
  8
RACCORDO
100
AcDbLine
 62
250
  6
CONTINUOUS
 10
-55.7461337052
 20
30.6978785502
 11
-55.10502098
 21
31.0805313855
  0
LINE
  5
25D
100
AcDbEntity
  8
RACCORDO
100
AcDbLine
 62
250
  6
CONTINUOUS
 10
-55.3903715963
 20
31.1368847631
 11
-55.3920902657
 21
31.1358750186
  0
LWPOLYLINE
  5
25E
100
AcDbEntity
  8
RACCORDO
100
AcDbPolyline
 62
250
  6
CONTINUOUS
 90
20
 70
0
 10
-55.2187558386
 20
41.6697012741
 10
-55.2178747834
 20
41.6589609328
 10
-55.2173550218
 20
41.6485151458
 10
-55.2171971136
 20
41.6383751638
 10
-55.2174012289
 20
41.6285519082
 10
-55.2179671477
 20
41.6190559591
 10
-55.2188942607
 20
41.6098975441
 10
-55.2201815693
 20
41.6010865274
 10
-55.2218276869
 20
41.5926323988
 10
-55.2238308406
 20
41.584544264
 10
-55.2261888729
 20
41.5768308343
 10
-55.2288992441
 20
41.5695004174
 10
-55.2319590349
 20
41.5625609086
 10
-55.2353649498
 20
41.5560197822
 10
-55.2391133205
 20
41.5498840831
 10
-55.2432001097
 20
41.5441604201
 10
-55.2476209157
 20
41.5388549578
 10
-55.252370977
 20
41.5339734105
 10
-55.2574451775
 20
41.5295210358
 10
-55.2612185682
 20
41.5266396325
  0
LWPOLYLINE
  5
25F
100
AcDbEntity
  8
RACCORDO
100
AcDbPolyline
 62
250
  6
CONTINUOUS
 90
43
 70
0
 10
-55.0351615218
 20
19.7781417851
 10
-55.0345867122
 20
19.7704016125
 10
-55.03373293
 20
19.7624525152
 10
-55.032601365
 20
19.754305572
 10
-55.0311935945
 20
19.7459721373
 10
-55.0295115803
 20
19.7374638257
 10
-55.0275576668
 20
19.7287924953
 10
-55.0253345771
 20
19.7199702315
 10
-55.0228454097
 20
19.71100933
 10
-55.0200936336
 20
19.7019222799
 10
-55.0170830842
 20
19.6927217459
 10
-55.0138179572
 20
19.683420551
 10
-55.0103028034
 20
19.6740316583
 10
-55.0065425219
 20
19.6645681534
 10
-55.0025423533
 20
19.6550432258
 10
-54.998307873
 20
19.6454701503
 10
-54.9938449824
 20
19.6358622694
 10
-54.9891599017
 20
19.6262329735
 10
-54.9842591604
 20
19.6165956833
 10
-54.9791495889
 20
19.6069638304
 10
-54.9738383085
 20
19.5973508388
 10
-54.9683327215
 20
19.5877701064
 10
-54.9626405012
 20
19.5782349861
 10
-54.956769581
 20
19.568758767
 10
-54.9507281433
 20
19.5593546564
 10
-54.9445246081
 20
19.5500357609
 10
-54.9381676214
 20
19.5408150684
 10
-54.931666043
 20
19.53170543
 10
-54.9250289343
 20
19.522719542
 10
-54.9182655456
 20
19.5138699281
 10
-54.9113853031
 20
19.5051689222
 10
-54.904397796
 20
19.496628651
 10
-54.8973127628
 20
19.4882610173
 10
-54.890140078
 20
19.4800776832
 10
-54.8828897385
 20
19.472090054
 10
-54.875571849
 20
19.4643092621
 10
-54.8681966087
 20
19.4567461518
 10
-54.8607742966
 20
19.4494112639
 10
-54.8533152573
 20
19.4423148212
 10
-54.8458298866
 20
19.4354667141
 10
-54.8383286169
 20
19.428876487
 10
-54.830821903
 20
19.4225533248
 10
-54.823320207
 20
19.4165060401
  0
LINE
  5
260
100
AcDbEntity
  8
RACCORDO
100
AcDbLine
 62
250
  6
CONTINUOUS
 10
-54.2484811646
 20
20.3181819463
 11
-54.2484811646
 21
30.052912411
  0
LINE
  5
261
100
AcDbEntity
  8
RACCORDO
100
AcDbLine
 62
250
  6
CONTINUOUS
 10
-54.2484811646
 20
42.3681182875
 11
-54.2484811646
 21
50.9329845325
  0
LINE
  5
262
100
AcDbEntity
  8
RACCORDO
100
AcDbLine
 62
7
  6
CONTINUOUS
 10
-54.0830462744
 20
20.5807431568
 11
-54.0830464677
 21
30.3156537837
  0
LINE
  5
263
100
AcDbEntity
  8
RACCORDO
100
AcDbLine
 62
7
  6
CONTINUOUS
 10
-54.0830464677
 20
42.6308596603
 11
-54.0830464677
 21
50.8160045365
  0
LWPOLYLINE
  5
264
100
AcDbEntity
  8
RACCORDO
100
AcDbPolyline
 62
250
  6
CONTINUOUS
 90
31
 70
0
 10
-54.0366398498
 20
19.9565462013
 10
-54.0246922608
 20
19.965418166
 10
-54.0127371757
 20
19.9738912495
 10
-54.0007882638
 20
19.9819557635
 10
-53.9888591876
 20
19.9896024872
 10
-53.9769635865
 20
19.9968226774
 10
-53.9651150621
 20
20.0036080784
 10
-53.9533271618
 20
20.009950932
 10
-53.9416133639
 20
20.0158439857
 10
-53.9299870619
 20
20.0212805013
 10
-53.9184615492
 20
20.0262542629
 10
-53.9070500041
 20
20.0307595834
 10
-53.8957654744
 20
20.0347913115
 10
-53.8846208628
 20
20.0383448372
 10
-53.8736289121
 20
20.0414160975
 10
-53.8628021904
 20
20.0440015806
 10
-53.8521530769
 20
20.0460983304
 10
-53.8416937478
 20
20.0477039494
 10
-53.8314361621
 20
20.0488166017
 10
-53.8213920486
 20
20.0494350151
 10
-53.8115728914
 20
20.0495584824
 10
-53.8019899178
 20
20.0491868626
 10
-53.792654085
 20
20.0483205804
 10
-53.7835760675
 20
20.0469606263
 10
-53.7747662451
 20
20.0451085553
 10
-53.7662346909
 20
20.0427664851
 10
-53.75799116
 20
20.0399370934
 10
-53.7500450778
 20
20.0366236154
 10
-53.74240553
 20
20.0328298396
 10
-53.7350812515
 20
20.0285601039
 10
-53.7294611862
 20
20.0248096411
  0
LWPOLYLINE
  5
265
100
AcDbEntity
  8
RACCORDO
100
AcDbPolyline
 62
250
  6
CONTINUOUS
 90
28
 70
0
 10
-54.5522322594
 20
30.6896507326
 10
-54.5406397483
 20
30.6966408172
 10
-54.5290933225
 20
30.7032168656
 10
-54.5176055301
 20
30.7093717311
 10
-54.5061888554
 20
30.7150987251
 10
-54.4948557055
 20
30.7203916237
 10
-54.4836183966
 20
30.7252446749
 10
-54.4724891407
 20
30.7296526046
 10
-54.4614800327
 20
30.7336106227
 10
-54.4506030365
 20
30.7371144276
 10
-54.4398699728
 20
30.7401602116
 10
-54.4292925056
 20
30.7427446648
 10
-54.4188821299
 20
30.7448649785
 10
-54.4086501593
 20
30.7465188485
 10
-54.3986077133
 20
30.7477044774
 10
-54.3887657054
 20
30.7484205768
 10
-54.3791348314
 20
30.7486663683
 10
-54.3697255577
 20
30.748441585
 10
-54.3605481097
 20
30.7477464711
 10
-54.351612461
 20
30.746581782
 10
-54.3429283224
 20
30.7449487835
 10
-54.3345051314
 20
30.7428492501
 10
-54.3263520417
 20
30.7402854636
 10
-54.3184779138
 20
30.7372602101
 10
-54.3108913048
 20
30.7337767774
 10
-54.3036004595
 20
30.7298389509
 10
-54.2966133012
 20
30.7254510102
 10
-54.2943713331
 20
30.7239020742
  0
LINE
  5
266
100
AcDbEntity
  8
RACCORDO
100
AcDbLine
 62
250
  6
CONTINUOUS
 10
-54.5522322594
 20
30.6896507326
 11
-55.5225069334
 21
30.1525552833
  0
LINE
  5
267
100
AcDbEntity
  8
RACCORDO
100
AcDbLine
 62
250
  6
CONTINUOUS
 10
-54.2484811646
 20
30.052912411
 11
-55.2187558386
 21
29.5158169617
  0
LWPOLYLINE
  5
268
100
AcDbEntity
  8
RACCORDO
100
AcDbPolyline
 62
250
  6
CONTINUOUS
 90
18
 70
0
 10
-55.5225069334
 20
30.1525552833
 10
-55.5360766225
 20
30.14607477
 10
-55.5495839514
 20
30.1400538643
 10
-55.5630140261
 20
30.1345008894
 10
-55.5763537613
 20
30.1294245941
 10
-55.5895867392
 20
30.124831136
 10
-55.6026932416
 20
30.1207240009
 10
-55.6156588184
 20
30.1171090257
 10
-55.6284692654
 20
30.113991517
 10
-55.6411055151
 20
30.1113731069
 10
-55.6535536624
 20
30.1092576876
 10
-55.665800154
 20
30.1076486245
 10
-55.6778268281
 20
30.1065456674
 10
-55.6896204196
 20
30.105950721
 10
-55.701168267
 20
30.1058651659
 10
-55.7124535672
 20
30.1062868864
 10
-55.7234639587
 20
30.1072158084
 10
-55.7338721079
 20
30.1086091222
  0
LWPOLYLINE
  5
269
100
AcDbEntity
  8
RACCORDO
100
AcDbPolyline
 62
7
  6
CONTINUOUS
 90
9
 70
0
 10
-55.7319781977
 20
30.037552354
 10
-55.7319587456
 20
30.0374531866
 10
-55.7319199167
 20
30.0372445802
 10
-55.7319715611
 20
30.037593097
 10
-55.7320849354
 20
30.0385045945
 10
-55.7322314192
 20
30.0399767672
 10
-55.7323818945
 20
30.0419759152
 10
-55.7325122576
 20
30.0444868828
 10
-55.7325853758
 20
30.0467733441
  0
LWPOLYLINE
  5
26A
100
AcDbEntity
  8
RACCORDO
100
AcDbPolyline
 62
250
  6
CONTINUOUS
 90
22
 70
0
 10
-57.2322610696
 20
57.8122678847
 10
-57.2003925206
 20
57.5743395566
 10
-57.1665678831
 20
57.3384046056
 10
-57.1307980815
 20
57.1044819764
 10
-57.0929921219
 20
56.872337128
 10
-57.0532598086
 20
56.6422436454
 10
-57.0119312898
 20
56.4149702019
 10
-56.969053258
 20
56.1905789911
 10
-56.9246393317
 20
55.9690163107
 10
-56.8790007127
 20
55.7508550574
 10
-56.8321824419
 20
55.5360617493
 10
-56.7842241758
 20
55.3246563001
 10
-56.7354573492
 20
55.1172698933
 10
-56.6859683718
 20
54.9139558201
 10
-56.6357874012
 20
54.7146171607
 10
-56.585185867
 20
54.5196396989
 10
-56.5342406344
 20
54.3289945759
 10
-56.4830057996
 20
54.1426480716
 10
-56.43173673
 20
53.9609624335
 10
-56.3805713853
 20
53.7840273228
 10
-56.3295195733
 20
53.6116684606
 10
-56.2786526712
 20
53.4438434102
  0
LWPOLYLINE
  5
26B
100
AcDbEntity
  8
RACCORDO
100
AcDbPolyline
 62
250
  6
CONTINUOUS
 90
34
 70
0
 10
-54.9152968219
 20
18.9826251287
 10
-54.909297608
 20
18.9315536378
 10
-54.9078846608
 20
18.9192208755
 10
-54.9065615535
 20
18.9070775351
 10
-54.9053279743
 20
18.8950511836
 10
-54.9041852604
 20
18.8832175912
 10
-54.9031872796
 20
18.8718121477
 10
-54.9023548908
 20
18.8609406686
 10
-54.9016744618
 20
18.850503089
 10
-54.9011496317
 20
18.8404265551
 10
-54.9007839513
 20
18.8307013232
 10
-54.90057845
 20
18.8213406867
 10
-54.9005316763
 20
18.8123055973
 10
-54.9006485729
 20
18.8035874018
 10
-54.9009279076
 20
18.7951973545
 10
-54.9013585196
 20
18.787125965
 10
-54.9019462628
 20
18.7793745256
 10
-54.9026889851
 20
18.77194387
 10
-54.9035635492
 20
18.7648237174
 10
-54.9045750619
 20
18.7580165752
 10
-54.9057221613
 20
18.7515216673
 10
-54.9069721224
 20
18.7453237222
 10
-54.9083295181
 20
18.7394232487
 10
-54.9097935095
 20
18.7338211158
 10
-54.9113234204
 20
18.7285025447
 10
-54.9129198438
 20
18.7234743278
 10
-54.9145860008
 20
18.7187307626
 10
-54.9162851634
 20
18.7142382621
 10
-54.9180040958
 20
18.7100192396
 10
-54.9197595578
 20
18.7060520751
 10
-54.921558887
 20
18.7022369586
 10
-54.9234047025
 20
18.6985407097
 10
-54.9252957866
 20
18.6949968883
 10
-54.927232911
 20
18.6916056713
  0
LWPOLYLINE
  5
26C
100
AcDbEntity
  8
RACCORDO
100
AcDbPolyline
 62
250
  6
CONTINUOUS
 90
17
 70
0
 10
-56.9270805992
 20
53.5060389216
 10
-56.9155383232
 20
53.4067958364
 10
-56.9029011971
 20
53.3078151201
 10
-56.8892661438
 20
53.2091490536
 10
-56.8746719814
 20
53.1100942658
 10
-56.8592356488
 20
53.0114664801
 10
-56.8432725478
 20
52.9155298301
 10
-56.8270738916
 20
52.8228597487
 10
-56.8106750093
 20
52.7328055723
 10
-56.7941019958
 20
52.645714992
 10
-56.7774753765
 20
52.5615543228
 10
-56.7609204514
 20
52.4802665984
 10
-56.7444785601
 20
52.4021520145
 10
-56.7282698958
 20
52.3272764712
 10
-56.7123690342
 20
52.2554478116
 10
-56.6967460189
 20
52.1865784494
 10
-56.6666239589
 20
52.057580509
  0
LINE
  5
26D
100
AcDbEntity
  8
RACCORDO
100
AcDbLine
 62
250
  6
CONTINUOUS
 10
-54.0366398498
 20
19.9565462013
 11
-54.823320207
 21
19.4165060401
  0
LINE
  5
26E
100
AcDbEntity
  8
RACCORDO
100
AcDbLine
 62
250
  6
CONTINUOUS
 10
-54.2484811646
 20
20.3181819463
 11
-55.0377163037
 21
19.7763950675
  0
LINE
  5
26F
100
AcDbEntity
  8
RACCORDO
100
AcDbLine
 62
250
  6
CONTINUOUS
 10
-55.0377163037
 20
19.7763950675
 11
-55.0428885936
 21
19.7729025684
  0
LWPOLYLINE
  5
270
100
AcDbEntity
  8
RACCORDO
100
AcDbPolyline
 62
250
  6
CONTINUOUS
 90
48
 70
0
 10
-54.823320207
 20
19.4165060401
 10
-54.8263211021
 20
19.4144949881
 10
-54.8293988256
 20
19.4123134176
 10
-54.8325531609
 20
19.409959232
 10
-54.8357886182
 20
19.4074389835
 10
-54.8391001595
 20
19.4047417151
 10
-54.8424731788
 20
19.4018387591
 10
-54.8459115886
 20
19.398724912
 10
-54.8494106632
 20
19.3954000086
 10
-54.8529427518
 20
19.3918426311
 10
-54.8565070207
 20
19.3880507419
 10
-54.8601031666
 20
19.3840205863
 10
-54.8637042389
 20
19.3797280298
 10
-54.8673081798
 20
19.3751730544
 10
-54.870915494
 20
19.3703494292
 10
-54.8745029211
 20
19.365223356
 10
-54.8780706948
 20
19.3597919612
 10
-54.881616429
 20
19.3540510354
 10
-54.8851127085
 20
19.3479642568
 10
-54.8885593725
 20
19.3415282301
 10
-54.8919536657
 20
19.3347385168
 10
-54.8952639966
 20
19.3275567284
 10
-54.8984895364
 20
19.3199791341
 10
-54.9016272384
 20
19.3120009847
 10
-54.9046418325
 20
19.303581896
 10
-54.90753156
 20
19.2947179994
 10
-54.910293115
 20
19.2854041804
 10
-54.9128884719
 20
19.2755977401
 10
-54.9153141135
 20
19.2652993047
 10
-54.9175670485
 20
19.2544989796
 10
-54.9196093817
 20
19.2431375685
 10
-54.9214367483
 20
19.231220822
 10
-54.9230449612
 20
19.2187330579
 10
-54.9243951475
 20
19.2055813548
 10
-54.9254794222
 20
19.1916500391
 10
-54.9262929386
 20
19.177041728
 10
-54.9268029623
 20
19.1619948127
 10
-54.9269780648
 20
19.1464115711
 10
-54.9268407304
 20
19.1303876874
 10
-54.9264477802
 20
19.1144653932
 10
-54.9257912146
 20
19.0987900755
 10
-54.9248842948
 20
19.0832333957
 10
-54.9238229683
 20
19.0679360698
 10
-54.9226158279
 20
19.0529368595
 10
-54.9212612646
 20
19.038211983
 10
-54.9198407898
 20
19.0238084577
 10
-54.9183661208
 20
19.0097626382
 10
-54.9152968219
 20
18.9826251287
  0
LINE
  5
271
100
AcDbEntity
  8
RACCORDO
100
AcDbLine
 62
250
  6
CONTINUOUS
 10
-55.0428885936
 20
19.7729025684
 11
-55.0481433793
 21
19.7694119143
  0
LWPOLYLINE
  5
272
100
AcDbEntity
  8
RACCORDO
100
AcDbPolyline
 62
250
  6
CONTINUOUS
 90
26
 70
0
 10
-54.2484811646
 20
20.3181819463
 10
-54.2361098281
 20
20.3263305383
 10
-54.2241351777
 20
20.3347702307
 10
-54.2125709051
 20
20.3434913736
 10
-54.2014302328
 20
20.3524839953
 10
-54.1907258992
 20
20.3617378137
 10
-54.1804701435
 20
20.371242248
 10
-54.170674692
 20
20.3809864308
 10
-54.1613507448
 20
20.3909592208
 10
-54.152508963
 20
20.4011492149
 10
-54.1441594562
 20
20.4115447621
 10
-54.1363117711
 20
20.4221339762
 10
-54.1289748808
 20
20.4329047493
 10
-54.1221571743
 20
20.4438447664
 10
-54.1158664469
 20
20.4549415185
 10
-54.1101098914
 20
20.4661823178
 10
-54.1048940898
 20
20.4775543115
 10
-54.1002250058
 20
20.489044497
 10
-54.0961079781
 20
20.5006397363
 10
-54.0925477141
 20
20.5123267716
 10
-54.0895482845
 20
20.52409224
 10
-54.0871131188
 20
20.5359226887
 10
-54.0852450016
 20
20.5478045911
 10
-54.0839460686
 20
20.5597243612
 10
-54.0832178053
 20
20.5716683702
 10
-54.0830464677
 20
20.5809216089
  0
LINE
  5
273
100
AcDbEntity
  8
RACCORDO
100
AcDbLine
 62
250
  6
CONTINUOUS
 10
-55.0481433793
 20
19.7694119143
 11
-55.0534868902
 21
19.7659198324
  0
LINE
  5
274
100
AcDbEntity
  8
RACCORDO
100
AcDbLine
 62
250
  6
CONTINUOUS
 10
-55.0534868902
 20
19.7659198324
 11
-55.0589226504
 21
19.7624245019
  0
LINE
  5
275
100
AcDbEntity
  8
RACCORDO
100
AcDbLine
 62
250
  6
CONTINUOUS
 10
-55.0589226504
 20
19.7624245019
 11
-55.0644560743
 21
19.7589231582
  0
LINE
  5
276
100
AcDbEntity
  8
RACCORDO
100
AcDbLine
 62
250
  6
CONTINUOUS
 10
-55.0644560743
 20
19.7589231582
 11
-55.0700929198
 21
19.7554129387
  0
LINE
  5
277
100
AcDbEntity
  8
RACCORDO
100
AcDbLine
 62
250
  6
CONTINUOUS
 10
-55.0700929198
 20
19.7554129387
 11
-55.0758372024
 21
19.7518918463
  0
LINE
  5
278
100
AcDbEntity
  8
RACCORDO
100
AcDbLine
 62
250
  6
CONTINUOUS
 10
-55.0758372024
 20
19.7518918463
 11
-55.0816952138
 21
19.7483567559
  0
LINE
  5
279
100
AcDbEntity
  8
RACCORDO
100
AcDbLine
 62
250
  6
CONTINUOUS
 10
-55.0816952138
 20
19.7483567559
 11
-55.0876735851
 21
19.7448044199
  0
LINE
  5
27A
100
AcDbEntity
  8
RACCORDO
100
AcDbLine
 62
250
  6
CONTINUOUS
 10
-55.0876735851
 20
19.7448044199
 11
-55.0937767747
 21
19.7412326553
  0
LINE
  5
27B
100
AcDbEntity
  8
RACCORDO
100
AcDbLine
 62
250
  6
CONTINUOUS
 10
-55.0937767747
 20
19.7412326553
 11
-55.10001147
 21
19.7376382058
  0
LINE
  5
27C
100
AcDbEntity
  8
RACCORDO
100
AcDbLine
 62
250
  6
CONTINUOUS
 10
-55.10001147
 20
19.7376382058
 11
-55.1063850141
 21
19.7340174326
  0
LINE
  5
27D
100
AcDbEntity
  8
RACCORDO
100
AcDbLine
 62
250
  6
CONTINUOUS
 10
-55.1063850141
 20
19.7340174326
 11
-55.1129026406
 21
19.7303677115
  0
LINE
  5
27E
100
AcDbEntity
  8
RACCORDO
100
AcDbLine
 62
250
  6
CONTINUOUS
 10
-55.1129026406
 20
19.7303677115
 11
-55.1195727526
 21
19.7266847916
  0
LINE
  5
27F
100
AcDbEntity
  8
RACCORDO
100
AcDbLine
 62
250
  6
CONTINUOUS
 10
-55.1195727526
 20
19.7266847916
 11
-55.1264040794
 21
19.722964182
  0
LWPOLYLINE
  5
280
100
AcDbEntity
  8
RACCORDO
100
AcDbPolyline
 62
250
  6
CONTINUOUS
 90
110
 70
0
 10
-55.4300620614
 20
19.5718314266
 10
-55.4394533721
 20
19.5667888368
 10
-55.4489874724
 20
19.5616083083
 10
-55.4586291472
 20
19.5563126883
 10
-55.4681493997
 20
19.5510208201
 10
-55.4775049442
 20
19.5457522578
 10
-55.4867390662
 20
19.5404874473
 10
-55.4957526261
 20
19.5352865698
 10
-55.5045066667
 20
19.5301706394
 10
-55.5130401451
 20
19.5251186419
 10
-55.5213707928
 20
19.5201277162
 10
-55.5294947722
 20
19.5152005036
 10
-55.5374159209
 20
19.5103343627
 10
-55.5451634823
 20
19.5055185083
 10
-55.5527402438
 20
19.5007516821
 10
-55.5601434179
 20
19.4960351424
 10
-55.5673938866
 20
19.4913618795
 10
-55.5744930744
 20
19.4867313362
 10
-55.5814395567
 20
19.4821440697
 10
-55.5882499407
 20
19.4775947412
 10
-55.5949252647
 20
19.4730829548
 10
-55.6014644903
 20
19.4686091064
 10
-55.6078811102
 20
19.4641690458
 10
-55.6141759678
 20
19.459762433
 10
-55.6203482195
 20
19.455389608
 10
-55.6264088272
 20
19.4510474401
 10
-55.6323582769
 20
19.446735788
 10
-55.6381960825
 20
19.4424547932
 10
-55.6439317472
 20
19.4382017492
 10
-55.6495657015
 20
19.4339765192
 10
-55.6550975151
 20
19.42977924
 10
-55.6605353993
 20
19.425607616
 10
-55.6658795764
 20
19.4214616443
 10
-55.6711298243
 20
19.4173413278
 10
-55.676293688
 20
19.4132443797
 10
-55.6813715364
 20
19.4091706583
 10
-55.6863630007
 20
19.4051203053
 10
-55.6912745193
 20
19.4010914588
 10
-55.6961062591
 20
19.3970841187
 10
-55.7008580533
 20
19.3930982852
 10
-55.7055358404
 20
19.3891320969
 10
-55.7101398107
 20
19.3851855214
 10
-55.7146697739
 20
19.3812585911
 10
-55.7191310976
 20
19.3773495421
 10
-55.7235239806
 20
19.3734583182
 10
-55.7278482242
 20
19.3695849755
 10
-55.7321085988
 20
19.3657279189
 10
-55.7363053329
 20
19.361887045
 10
-55.7404381981
 20
19.3580624571
 10
-55.7445112801
 20
19.3542528707
 10
-55.7485246809
 20
19.3504582839
 10
-55.7524782984
 20
19.3466786984
 10
-55.7563759132
 20
19.3429128351
 10
-55.7602172663
 20
19.339161059
 10
-55.7640026166
 20
19.3354230052
 10
-55.7677365207
 20
19.3316962993
 10
-55.7714189068
 20
19.3279811605
 10
-55.7750498466
 20
19.3242773697
 10
-55.7786341123
 20
19.3205818962
 10
-55.782172642
 20
19.3168938682
 10
-55.7856644975
 20
19.3132141576
 10
-55.7891116355
 20
19.3095423494
 10
-55.7925149666
 20
19.305877447
 10
-55.7958735803
 20
19.3022204471
 10
-55.7991867019
 20
19.2985739256
 10
-55.8024544932
 20
19.294937601
 10
-55.8056767924
 20
19.2913117548
 10
-55.8088523393
 20
19.2876998073
 10
-55.8119808996
 20
19.2841019215
 10
-55.8150627076
 20
19.2805179344
 10
-55.8180972064
 20
19.2769507765
 10
-55.8210840699
 20
19.2734007651
 10
-55.8240236241
 20
19.269867583
 10
-55.8269162895
 20
19.2663532096
 10
-55.8297619253
 20
19.2628577829
 10
-55.8325606723
 20
19.259381165
 10
-55.8353133742
 20
19.2559249211
 10
-55.8380199984
 20
19.2524890714
 10
-55.8406805775
 20
19.2490735957
 10
-55.843296053
 20
19.2456799994
 10
-55.8458658641
 20
19.2423090451
 10
-55.8483905716
 20
19.2389599701
 10
-55.8508728
 20
19.2356319916
 10
-55.8533119412
 20
19.2323260697
 10
-55.8557086033
 20
19.2290412443
 10
-55.8580672357
 20
19.2257738529
 10
-55.8603879348
 20
19.2225239611
 10
-55.8626706041
 20
19.2192915033
 10
-55.8649194039
 20
19.2160726197
 10
-55.8671346317
 20
19.2128670632
 10
-55.8693159898
 20
19.2096750809
 10
-55.8714667455
 20
19.2064935545
 10
-55.8735870403
 20
19.2033224299
 10
-55.8756767327
 20
19.2001617612
 10
-55.877738665
 20
19.1970085926
 10
-55.8797729422
 20
19.1938629122
 10
-55.8817794593
 20
19.190724732
 10
-55.8837607442
 20
19.1875911322
 10
-55.885716886
 20
19.1844621178
 10
-55.8876477956
 20
19.1813376838
 10
-55.8895557332
 20
19.1782148956
 10
-55.8914407863
 20
19.175093758
 10
-55.8933028674
 20
19.1719742662
 10
-55.8951439742
 20
19.1688534711
 10
-55.8969642461
 20
19.1657312766
 10
-55.8987635438
 20
19.1626077788
 10
-55.9005434474
 20
19.1594803169
 10
-55.9023044837
 20
19.1563480038
 10
-55.9040461259
 20
19.1532117266
 10
-55.9057683741
 20
19.1500714853
  0
LINE
  5
281
100
AcDbEntity
  8
RACCORDO
100
AcDbLine
 62
250
  6
CONTINUOUS
 10
-55.1264040794
 20
19.722964182
 11
-55.133402578
 21
19.7192027788
  0
LINE
  5
282
100
AcDbEntity
  8
RACCORDO
100
AcDbLine
 62
250
  6
CONTINUOUS
 10
-55.133402578
 20
19.7192027788
 11
-55.1405770328
 21
19.7153959698
  0
LINE
  5
283
100
AcDbEntity
  8
RACCORDO
100
AcDbLine
 62
250
  6
CONTINUOUS
 10
-55.4117255161
 20
19.5815210296
 11
-55.4300620614
 21
19.5718314266
  0
LINE
  5
284
100
AcDbEntity
  8
RACCORDO
100
AcDbLine
 62
250
  6
CONTINUOUS
 10
-55.1405770328
 20
19.7153959698
 11
-55.1479388616
 21
19.7115375671
  0
LINE
  5
285
100
AcDbEntity
  8
RACCORDO
100
AcDbLine
 62
250
  6
CONTINUOUS
 10
-55.1479388616
 20
19.7115375671
 11
-55.1554958482
 21
19.707623307
  0
LINE
  5
286
100
AcDbEntity
  8
RACCORDO
100
AcDbLine
 62
250
  6
CONTINUOUS
 10
-55.3943884609
 20
19.5905086829
 11
-55.4117255161
 21
19.5815210296
  0
LINE
  5
287
100
AcDbEntity
  8
RACCORDO
100
AcDbLine
 62
250
  6
CONTINUOUS
 10
-55.3780283088
 20
19.5988545995
 11
-55.3943884609
 21
19.5905086829
  0
LINE
  5
288
100
AcDbEntity
  8
RACCORDO
100
AcDbLine
 62
250
  6
CONTINUOUS
 10
-55.1554958482
 20
19.707623307
 11
-55.1672245176
 21
19.7016320511
  0
LINE
  5
289
100
AcDbEntity
  8
RACCORDO
100
AcDbLine
 62
250
  6
CONTINUOUS
 10
-55.3625919283
 20
19.6066121319
 11
-55.3780283088
 21
19.5988545995
  0
LINE
  5
28A
100
AcDbEntity
  8
RACCORDO
100
AcDbLine
 62
250
  6
CONTINUOUS
 10
-55.1672245176
 20
19.7016320511
 11
-55.1794509389
 21
19.6954814719
  0
LINE
  5
28B
100
AcDbEntity
  8
RACCORDO
100
AcDbLine
 62
250
  6
CONTINUOUS
 10
-55.3478399172
 20
19.6139373577
 11
-55.3625919283
 21
19.6066121319
  0
LINE
  5
28C
100
AcDbEntity
  8
RACCORDO
100
AcDbLine
 62
250
  6
CONTINUOUS
 10
-55.1794509389
 20
19.6954814719
 11
-55.1922075716
 21
19.6891512461
  0
LINE
  5
28D
100
AcDbEntity
  8
RACCORDO
100
AcDbLine
 62
250
  6
CONTINUOUS
 10
-55.3269045313
 20
19.6242046479
 11
-55.3478399172
 21
19.6139373577
  0
LINE
  5
28E
100
AcDbEntity
  8
RACCORDO
100
AcDbLine
 62
250
  6
CONTINUOUS
 10
-55.1922075716
 20
19.6891512461
 11
-55.2101265626
 21
19.6803790001
  0
LINE
  5
28F
100
AcDbEntity
  8
RACCORDO
100
AcDbLine
 62
250
  6
CONTINUOUS
 10
-55.3009986635
 20
19.6367463232
 11
-55.3269045313
 21
19.6242046479
  0
LINE
  5
290
100
AcDbEntity
  8
RACCORDO
100
AcDbLine
 62
250
  6
CONTINUOUS
 10
-55.2101265626
 20
19.6803790001
 11
-55.2392104827
 21
19.6663432261
  0
LINE
  5
291
100
AcDbEntity
  8
RACCORDO
100
AcDbLine
 62
250
  6
CONTINUOUS
 10
-55.271380529
 20
19.6509480949
 11
-55.3009986635
 21
19.6367463232
  0
LWPOLYLINE
  5
292
100
AcDbEntity
  8
RACCORDO
100
AcDbPolyline
 62
250
  6
CONTINUOUS
 90
3
 70
0
 10
-55.2392104827
 20
19.6663432261
 10
-55.2602769027
 20
19.6562579605
 10
-55.271380529
 20
19.6509480949
  0
LINE
  5
293
100
AcDbEntity
  8
RACCORDO
100
AcDbLine
 62
250
  6
CONTINUOUS
 10
-56.6380012628
 20
51.9391159673
 11
-56.6111533754
 21
51.8305843126
  0
LINE
  5
294
100
AcDbEntity
  8
RACCORDO
100
AcDbLine
 62
250
  6
CONTINUOUS
 10
-56.6666239589
 20
52.057580509
 11
-56.6380012628
 21
51.9391159673
  0
LWPOLYLINE
  5
295
100
AcDbEntity
  8
RACCORDO
100
AcDbPolyline
 62
250
  6
CONTINUOUS
 90
22
 70
0
 10
-56.2786526712
 20
53.4438434102
 10
-56.2489116839
 20
53.3531729258
 10
-56.217577242
 20
53.2631966729
 10
-56.1846284387
 20
53.1739563279
 10
-56.1496686032
 20
53.0847683083
 10
-56.1130324404
 20
52.9964206353
 10
-56.0758924238
 20
52.911074892
 10
-56.038613417
 20
52.8292409892
 10
-56.0009964889
 20
52.7502990734
 10
-55.9634747613
 20
52.6746140048
 10
-55.9261712511
 20
52.6021510128
 10
-55.889125744
 20
52.5328225871
 10
-55.8526683673
 20
52.4668889611
 10
-55.8169760688
 20
52.4043947306
 10
-55.7820483338
 20
52.3451437377
 10
-55.7479548085
 20
52.2890256156
 10
-55.7148106602
 20
52.2360161609
 10
-55.6826542808
 20
52.1859981589
 10
-55.6514265958
 20
52.1387334088
 10
-55.6211460846
 20
52.094106046
 10
-55.5919168775
 20
52.052113636
 10
-55.5637980468
 20
52.0126972043
  0
LWPOLYLINE
  5
296
100
AcDbEntity
  8
0
100
AcDbPolyline
 62
7
  6
CONTINUOUS
 90
67
 70
0
 10
60.5890804682
 20
-74.1447556872
 10
60.6786081537
 20
-74.2072418598
 10
60.778081156
 20
-74.2747655543
 10
60.8771049266
 20
-74.3400201058
 10
60.9755767103
 20
-74.4029931195
 10
61.0735815157
 20
-74.4637924742
 10
61.1713904085
 20
-74.5226276352
 10
61.2689977365
 20
-74.5795276586
 10
61.3664017817
 20
-74.6345224529
 10
61.4638849317
 20
-74.6877939678
 10
61.561441808
 20
-74.7393532143
 10
61.65908059
 20
-74.789217486
 10
61.7571123536
 20
-74.8375498668
 10
61.8555454364
 20
-74.8843494164
 10
61.9543832333
 20
-74.9296119862
 10
62.0539393827
 20
-74.97346706
 10
62.1542377699
 20
-75.0159015396
 10
62.2552732111
 20
-75.0568888293
 10
62.3573254858
 20
-75.0965107842
 10
62.4604433047
 20
-75.1347454184
 10
62.5645995016
 20
-75.1715406949
 10
62.6699665221
 20
-75.2069115508
 10
62.7765648015
 20
-75.2408129594
 10
62.884389777
 20
-75.2731902874
 10
62.9935791842
 20
-75.3040276789
 10
63.1042192458
 20
-75.3332852434
 10
63.216230563
 20
-75.3608762196
 10
63.3294985757
 20
-75.3867108652
 10
63.4442580194
 20
-75.4107767629
 10
63.5602609987
 20
-75.4329546702
 10
63.6766474606
 20
-75.4530421454
 10
63.7933498906
 20
-75.4710143543
 10
63.9103784353
 20
-75.4868598693
 10
64.0269606189
 20
-75.5004807479
 10
64.1427544899
 20
-75.5118730989
 10
64.2580185621
 20
-75.521099271
 10
64.3728677619
 20
-75.5281933582
 10
64.4872094526
 20
-75.5331722032
 10
64.6010569618
 20
-75.5360594951
 10
64.714682496
 20
-75.5368761121
 10
64.8281242306
 20
-75.5356262711
 10
64.9412675089
 20
-75.532315576
 10
65.0541531492
 20
-75.5269474854
 10
65.1667668392
 20
-75.5195250102
 10
65.2790448611
 20
-75.5100553119
 10
65.3909512228
 20
-75.4985453907
 10
65.502445635
 20
-75.4850036872
 10
65.6134896312
 20
-75.4694395715
 10
65.7240479842
 20
-75.4518630387
 10
65.8340735734
 20
-75.4322873581
 10
65.9435354457
 20
-75.4107242393
 10
66.0524212339
 20
-75.3871817286
 10
66.1606877997
 20
-75.3616745202
 10
66.2683011627
 20
-75.3342163934
 10
66.3752613574
 20
-75.3048124096
 10
66.481530355
 20
-75.2734774294
 10
66.5870702031
 20
-75.2402274194
 10
66.6918796971
 20
-75.205066795
 10
66.7959205468
 20
-75.1680117001
 10
66.8991561423
 20
-75.1290788468
 10
67.0015865113
 20
-75.0882712137
 10
67.1031740971
 20
-75.0456060028
 10
67.2038827273
 20
-75.001100983
 10
67.3037130857
 20
-74.9547575139
 10
67.402628328
 20
-74.9065934476
 10
67.500592385
 20
-74.8566274217
 10
67.5717310765
 20
-74.8188929894
  0
LINE
  5
297
100
AcDbEntity
  8
0
100
AcDbLine
 62
7
  6
CONTINUOUS
 10
60.5890726315
 20
-74.1447501499
 11
-65.4587661101
 21
14.9845313782
  0
LINE
  5
298
100
AcDbEntity
  8
0
100
AcDbLine
 62
250
  6
CONTINUOUS
 10
59.8958736353
 20
-72.7879682853
 11
-66.1519651063
 21
16.3413132428
  0
LINE
  5
299
100
AcDbEntity
  8
RACCORDO
100
AcDbLine
 62
250
  6
CONTINUOUS
 10
50.4731735115
 20
-63.9068465787
 11
-57.2322610386
 21
12.2523965623
  0
LINE
  5
29A
100
AcDbEntity
  8
RACCORDO
100
AcDbLine
 62
250
  6
CONTINUOUS
 10
-56.6078859593
 20
14.9960108467
 11
49.748832546
 21
-60.2095460331
  0
LWPOLYLINE
  5
29B
100
AcDbEntity
  8
0
100
AcDbPolyline
 62
250
  6
CONTINUOUS
 90
85
 70
0
 10
-66.1519651063
 20
16.3413132428
 10
-66.180087941
 20
16.3614130881
 10
-66.2082367158
 20
16.3819576087
 10
-66.2364114265
 20
16.4029468083
 10
-66.2646209206
 20
16.4243875559
 10
-66.2928563321
 20
16.4462729973
 10
-66.3210910814
 20
16.4685825544
 10
-66.3493250288
 20
16.4913165588
 10
-66.3775582777
 20
16.5144747084
 10
-66.4057646084
 20
16.5380354781
 10
-66.43394395
 20
16.5619992559
 10
-66.4620963196
 20
16.5863656975
 10
-66.4901956251
 20
16.6111121831
 10
-66.5182417607
 20
16.6362390795
 10
-66.5462347614
 20
16.6617460772
 10
-66.5741487426
 20
16.6876095448
 10
-66.6019835885
 20
16.7138298523
 10
-66.6297393278
 20
16.7404067003
 10
-66.6573902898
 20
16.7673154557
 10
-66.6849363274
 20
16.7945564726
 10
-66.7123774853
 20
16.8221294798
 10
-66.7396883785
 20
16.8500089079
 10
-66.7668688236
 20
16.8781950879
 10
-66.7939188876
 20
16.9066877831
 10
-66.8208135593
 20
16.9354605741
 10
-66.8475526191
 20
16.9645137644
 10
-66.8741361576
 20
16.993847155
 10
-66.9005396286
 20
17.0234335734
 10
-66.9267627896
 20
17.0532733077
 10
-66.9528057428
 20
17.0833661835
 10
-66.9786444594
 20
17.113684334
 10
-67.0042786657
 20
17.1442280199
 10
-67.0297084853
 20
17.174997102
 10
-67.0549104877
 20
17.2059631122
 10
-67.079884376
 20
17.2371262911
 10
-67.104630289
 20
17.2684865259
 10
-67.1291254516
 20
17.3000148171
 10
-67.1533695373
 20
17.3317113729
 10
-67.1773627082
 20
17.3635761179
 10
-67.2010829264
 20
17.3955796244
 10
-67.224529847
 20
17.4277220803
 10
-67.2477036461
 20
17.4600034339
 10
-67.270583071
 20
17.4923938951
 10
-67.293167751
 20
17.5248936166
 10
-67.3154578855
 20
17.5575025839
 10
-67.3374330834
 20
17.5901907505
 10
-67.3590929592
 20
17.6229582473
 10
-67.3804377265
 20
17.6558050821
 10
-67.4014478995
 20
17.6887010186
 10
-67.4221230706
 20
17.72164615
 10
-67.4424634769
 20
17.7546405207
 10
-67.4624506082
 20
17.7876538141
 10
-67.4820840465
 20
17.820686101
 10
-67.5013640425
 20
17.8537374455
 10
-67.5202730987
 20
17.8867775138
 10
-67.5388107796
 20
17.9198063382
 10
-67.5569773583
 20
17.9528240172
 10
-67.5747564118
 20
17.9858003077
 10
-67.5921474966
 20
18.0187352169
 10
-67.6091509005
 20
18.0516288627
 10
-67.6257513089
 20
18.0844511595
 10
-67.6419482647
 20
18.1172020731
 10
-67.657742078
 20
18.1498817558
 10
-67.673118597
 20
18.182460391
 10
-67.6880773634
 20
18.214937924
 10
-67.7026186988
 20
18.2473145193
 10
-67.7167296352
 20
18.2795606783
 10
-67.7304097063
 20
18.3116763087
 10
-67.7436592533
 20
18.3436616032
 10
-67.756466534
 20
18.3754874789
 10
-67.7688310782
 20
18.4071538089
 10
-67.780753244
 20
18.43866081
 10
-67.7922225474
 20
18.4699799025
 10
-67.8032385155
 20
18.5011109203
 10
-67.8138015232
 20
18.5320541077
 10
-67.8239023746
 20
18.5627814884
 10
-67.8335406049
 20
18.5932928915
 10
-67.8427165961
 20
18.6235885538
 10
-67.8514224379
 20
18.6536410976
 10
-67.8596576917
 20
18.6834504489
 10
-67.8674227294
 20
18.7130167345
 10
-67.874710874
 20
18.7423128639
 10
-67.8815198871
 20
18.7713298168
 10
-67.8878519596
 20
18.8000766509
 10
-67.8937070668
 20
18.8285533858
  0
LWPOLYLINE
  5
29C
100
AcDbEntity
  8
0
100
AcDbPolyline
 62
250
  6
CONTINUOUS
 90
28
 70
0
 10
-65.4587823792
 20
14.9845428823
 10
-65.5041193248
 20
15.0180159148
 10
-65.5448180927
 20
15.0506160686
 10
-65.5843473186
 20
15.084802868
 10
-65.6226928274
 20
15.1205640539
 10
-65.6598408687
 20
15.1578868026
 10
-65.6957781216
 20
15.1967577303
 10
-65.7304916993
 20
15.2371628984
 10
-65.7639691536
 20
15.2790878178
 10
-65.7961984798
 20
15.3225174545
 10
-65.8271681208
 20
15.367436235
 10
-65.8568669709
 20
15.4138280517
 10
-65.8852843806
 20
15.4616762689
 10
-65.9124101593
 20
15.5109637285
 10
-65.9382345802
 20
15.5616727565
 10
-65.9627483827
 20
15.6137851689
 10
-65.9859427763
 20
15.6672822787
 10
-66.0078094437
 20
15.7221449021
 10
-66.0283405437
 20
15.7783533658
 10
-66.047528714
 20
15.8358875139
 10
-66.0653670739
 20
15.8947267151
 10
-66.0818492265
 20
15.95484987
 10
-66.0969692617
 20
16.016235419
 10
-66.1107217574
 20
16.0788613496
 10
-66.1231017821
 20
16.1427052047
 10
-66.1341048963
 20
16.2077440902
 10
-66.1437271546
 20
16.2739546838
 10
-66.1519651063
 20
16.3413132428
  0
LWPOLYLINE
  5
29D
100
AcDbEntity
  8
0
100
AcDbPolyline
 62
250
  6
CONTINUOUS
 90
28
 70
0
 10
60.5890726315
 20
-74.1447501499
 10
60.5437194173
 20
-74.1112656136
 10
60.5030206493
 20
-74.0786654598
 10
60.4634914234
 20
-74.0444786604
 10
60.4251459146
 20
-74.0087174746
 10
60.3879978732
 20
-73.9713947259
 10
60.3520606203
 20
-73.9325237981
 10
60.3173470426
 20
-73.8921186301
 10
60.2838695883
 20
-73.8501937107
 10
60.2516402621
 20
-73.806764074
 10
60.2206706211
 20
-73.7618452935
 10
60.1909717709
 20
-73.7154534768
 10
60.1625543613
 20
-73.6676052596
 10
60.1354285825
 20
-73.6183178
 10
60.1096041616
 20
-73.567608772
 10
60.0850903591
 20
-73.5154963595
 10
60.0618959655
 20
-73.4619992498
 10
60.040029298
 20
-73.4071366263
 10
60.019498198
 20
-73.3509281626
 10
60.0003100277
 20
-73.2933940144
 10
59.9824716678
 20
-73.2345548132
 10
59.9659895151
 20
-73.1744316583
 10
59.9508694799
 20
-73.1130461092
 10
59.9371169842
 20
-73.0504201786
 10
59.9247369595
 20
-72.9865763235
 10
59.9137338453
 20
-72.9215374379
 10
59.904111587
 20
-72.8553268443
 10
59.8958736353
 20
-72.7879682853
  0
LINE
  5
29E
100
AcDbEntity
  8
RACCORDO
100
AcDbLine
 62
250
  6
CONTINUOUS
 10
-54.927232911
 20
18.6916056713
 11
49.6201992217
 21
-55.2345925454
  0
LINE
  5
29F
100
AcDbEntity
  8
RACCORDO
100
AcDbLine
 62
250
  6
CONTINUOUS
 10
-54.823320207
 20
19.4165060401
 11
49.5749813063
 21
-54.4042409043
  0
LINE
  5
2A0
100
AcDbEntity
  8
RACCORDO
100
AcDbLine
 62
250
  6
CONTINUOUS
 10
49.5181474185
 20
-53.2677461004
 11
-54.0366398498
 21
19.9565462013
  0
LINE
  5
2A1
100
AcDbEntity
  8
0
100
AcDbLine
 62
7
  6
CONTINUOUS
 10
-54.0830464677
 20
21.1817835145
 11
49.4628822989
 21
-52.0362448806
  0
LINE
  5
2A2
100
AcDbEntity
  8
0
100
AcDbLine
 62
7
  6
CONTINUOUS
 10
-54.0830464677
 20
21.9805114328
 11
49.4290809462
 21
-51.2136157966
  0
LWPOLYLINE
  5
2A3
100
AcDbEntity
  8
RACCORDO
100
AcDbPolyline
 62
7
  6
CONTINUOUS
 90
65
 70
0
 10
49.5044252911
 20
-52.9725715353
 10
-53.7322294434
 20
20.0267799478
 10
-53.7393781028
 20
20.0319867866
 10
-53.7468027276
 20
20.0375715315
 10
-53.7544862923
 20
20.0435367044
 10
-53.7624023636
 20
20.049876394
 10
-53.7705365837
 20
20.0565928915
 10
-53.7788753347
 20
20.0636885889
 10
-53.7873920827
 20
20.0711541845
 10
-53.7960709767
 20
20.0789882169
 10
-53.8048968539
 20
20.0871889929
 10
-53.813843568
 20
20.0957438893
 10
-53.8228956157
 20
20.1046492069
 10
-53.8320358473
 20
20.1138986612
 10
-53.8412354328
 20
20.1234728797
 10
-53.8504785669
 20
20.133364781
 10
-53.8597476594
 20
20.1435643415
 10
-53.8690114527
 20
20.1540447177
 10
-53.8782533242
 20
20.1647940804
 10
-53.8874572741
 20
20.175800338
 10
-53.8965938897
 20
20.1870334344
 10
-53.90564775
 20
20.1984787642
 10
-53.914603787
 20
20.2101213851
 10
-53.923434705
 20
20.2219283627
 10
-53.9321267779
 20
20.2338828027
 10
-53.940666596
 20
20.2459676663
 10
-53.949029522
 20
20.2581478548
 10
-53.9572040763
 20
20.2704049475
 10
-53.965179023
 20
20.2827204202
 10
-53.9729327367
 20
20.2950575409
 10
-53.9804561423
 20
20.307396687
 10
-53.9877409702
 20
20.3197189826
 10
-53.9947696814
 20
20.3319879381
 10
-54.00153615
 20
20.3441839347
 10
-54.0080351431
 20
20.3562880671
 10
-54.0142533578
 20
20.3682647571
 10
-54.0201879416
 20
20.3800954244
 10
-54.0258367497
 20
20.3917615686
 10
-54.0311904506
 20
20.4032283397
 10
-54.0362491159
 20
20.4144778308
 10
-54.0410143314
 20
20.4254938092
 10
-54.0454819104
 20
20.4362451681
 10
-54.0496553811
 20
20.4467166617
 10
-54.0535391978
 20
20.4568935896
 10
-54.0571333731
 20
20.4667473818
 10
-54.0604441308
 20
20.4762640831
 10
-54.0634794291
 20
20.4854330547
 10
-54.0662443835
 20
20.4942327721
 10
-54.0687472436
 20
20.5026492206
 10
-54.0709993422
 20
20.5106775928
 10
-54.0730118054
 20
20.5183114444
 10
-54.0747955826
 20
20.5255423239
 10
-54.0763623387
 20
20.5323639429
 10
-54.0777246733
 20
20.5387731302
 10
-54.0788949927
 20
20.5447644726
 10
-54.0798859806
 20
20.5503320699
 10
-54.0807108548
 20
20.5554718897
 10
-54.0813833081
 20
20.560181055
 10
-54.0819171358
 20
20.5644545776
 10
-54.082326448
 20
20.5682855172
 10
-54.0826263039
 20
20.5716717302
 10
-54.0828322047
 20
20.5746126396
 10
-54.0829598649
 20
20.5771047463
 10
-54.0830256513
 20
20.5791474408
 10
-54.0830462744
 20
20.5807431568
  0
LWPOLYLINE
  5
2A4
100
AcDbEntity
  8
RACCORDO
100
AcDbPolyline
 62
250
  6
CONTINUOUS
 90
14
 70
0
 10
-55.5637980468
 20
52.0126972043
 10
-55.5282243426
 20
51.9647634464
 10
-55.4916087321
 20
51.9179597255
 10
-55.4539577794
 20
51.8722952563
 10
-55.4152773359
 20
51.8277781802
 10
-55.3755752386
 20
51.7844181292
 10
-55.3348614286
 20
51.7422260733
 10
-55.2931432173
 20
51.7012100487
 10
-55.2504283671
 20
51.6613780941
 10
-55.2067280097
 20
51.6227405282
 10
-55.1620508659
 20
51.5853051112
 10
-55.1164046775
 20
51.5490783488
 10
-55.069799511
 20
51.5140681419
 10
-55.0421197067
 20
51.4941717274
  0
LWPOLYLINE
  5
2A5
100
AcDbEntity
  8
RACCORDO
100
AcDbPolyline
 62
250
  6
CONTINUOUS
 90
16
 70
0
 10
-56.6111534081
 20
51.8305843375
 10
-56.5721424733
 20
51.7778932681
 10
-56.5320051658
 20
51.7264724252
 10
-56.4907414857
 20
51.6763218091
 10
-56.4483428333
 20
51.6274316371
 10
-56.4048178084
 20
51.5798116917
 10
-56.3601922095
 20
51.5334913202
 10
-56.3144647963
 20
51.4884709753
 10
-56.2676368091
 20
51.4447502042
 10
-56.2197377681
 20
51.4023569959
 10
-56.1707677251
 20
51.3612929109
 10
-56.1207266282
 20
51.3215563886
 10
-56.0696438418
 20
51.2831707366
 10
-56.017529154
 20
51.2461437243
 10
-55.9643727766
 20
51.2104675823
 10
-55.9101747097
 20
51.1761423107
  0
LWPOLYLINE
  5
2A6
100
AcDbEntity
  8
RACCORDO
100
AcDbPolyline
 62
250
  6
CONTINUOUS
 90
55
 70
0
 10
-54.0366398498
 20
19.9565462013
 10
-54.0432805451
 20
19.9605623588
 10
-54.0499130978
 20
19.9647718593
 10
-54.0565327477
 20
19.9691718892
 10
-54.063136011
 20
19.9737592187
 10
-54.0697166512
 20
19.9785309099
 10
-54.0762656919
 20
19.9834842023
 10
-54.0827808712
 20
19.9886178685
 10
-54.0892543962
 20
19.9939257552
 10
-54.0956690643
 20
19.9993966834
 10
-54.1020183969
 20
20.0050248293
 10
-54.1082990092
 20
20.0108062005
 10
-54.1144986076
 20
20.0167311612
 10
-54.1206113082
 20
20.0227933684
 10
-54.1266335795
 20
20.0289880141
 10
-54.1325569366
 20
20.0353071268
 10
-54.1383751611
 20
20.0417430461
 10
-54.1440856374
 20
20.0482915352
 10
-54.149685403
 20
20.0549496249
 10
-54.1551695667
 20
20.0617106868
 10
-54.1605344795
 20
20.0685693858
 10
-54.165778911
 20
20.0755248677
 10
-54.1708993683
 20
20.0825722922
 10
-54.1758908661
 20
20.0897045365
 10
-54.1807498111
 20
20.096917418
 10
-54.1854729109
 20
20.1042063344
 10
-54.1900552823
 20
20.1115636452
 10
-54.1944911195
 20
20.1189805242
 10
-54.1987765573
 20
20.1264508378
 10
-54.2029080785
 20
20.1339681396
 10
-54.206880801
 20
20.1415230348
 10
-54.2106906165
 20
20.1491078452
 10
-54.2143352002
 20
20.156717575
 10
-54.217812586
 20
20.1643468416
 10
-54.2211191739
 20
20.1719880746
 10
-54.2242526853
 20
20.1796362531
 10
-54.2272129654
 20
20.1872898027
 10
-54.2299972835
 20
20.1949430958
 10
-54.2326025478
 20
20.2025891517
 10
-54.2350277713
 20
20.2102242895
 10
-54.23727067
 20
20.217844347
 10
-54.2393279604
 20
20.2254407979
 10
-54.2411973413
 20
20.2330034516
 10
-54.2428766668
 20
20.2405275508
 10
-54.244363657
 20
20.2480054477
 10
-54.2456566534
 20
20.2554229652
 10
-54.2467542027
 20
20.2627755563
 10
-54.2476550669
 20
20.2700561785
 10
-54.2483592803
 20
20.27724766
 10
-54.2488662691
 20
20.2843429355
 10
-54.249176347
 20
20.2913390832
 10
-54.2492920683
 20
20.2982259403
 10
-54.249214756
 20
20.3049972875
 10
-54.2489442063
 20
20.3116506573
 10
-54.2484811646
 20
20.3181819463
  0
LWPOLYLINE
  5
2A7
100
AcDbEntity
  8
RACCORDO
100
AcDbPolyline
 62
7
  6
CONTINUOUS
 90
4
 70
0
 10
71.7213356559
 20
-53.597862848
 10
71.6421419103
 20
-53.5490224246
 10
71.5646169811
 20
-53.4980641543
 10
71.5135967603
 20
-53.4627283747
  0
LINE
  5
2A8
100
AcDbEntity
  8
RACCORDO
100
AcDbLine
 62
250
  6
CONTINUOUS
 10
-55.5225069334
 20
30.1525552833
 11
-55.7379565795
 21
30.3049011891
  0
LINE
  5
2A9
100
AcDbEntity
  8
RACCORDO
100
AcDbLine
 62
7
  6
CONTINUOUS
 10
-54.2943713331
 20
30.7239020742
 11
-54.8471600537
 21
31.1147827271
  0
LWPOLYLINE
  5
2AA
100
AcDbEntity
  8
RACCORDO
100
AcDbPolyline
 62
250
  6
CONTINUOUS
 90
27
 70
0
 10
-54.5522322594
 20
30.6896507326
 10
-55.1171512436
 20
31.0891513975
 10
-55.1293042267
 20
31.097306152
 10
-55.1414651513
 20
31.1049857328
 10
-55.15361923
 20
31.1121808018
 10
-55.1657516835
 20
31.1188826097
 10
-55.1778477589
 20
31.1250830072
 10
-55.1898927475
 20
31.1307744549
 10
-55.2018720028
 20
31.1359500318
 10
-55.2137709581
 20
31.1406034447
 10
-55.2255751445
 20
31.1447290349
 10
-55.2372702082
 20
31.1483217858
 10
-55.2488419282
 20
31.1513773288
 10
-55.2602762333
 20
31.1538919482
 10
-55.2715592197
 20
31.1558625864
 10
-55.2826771673
 20
31.157286847
 10
-55.2936165568
 20
31.1581629982
 10
-55.3043640861
 20
31.1584899745
 10
-55.3149066864
 20
31.1582673785
 10
-55.3252315379
 20
31.1574954807
 10
-55.3353260857
 20
31.1561752199
 10
-55.3451780551
 20
31.1543082013
 10
-55.354775466
 20
31.1518966953
 10
-55.3641066483
 20
31.1489436342
 10
-55.3731602553
 20
31.145452609
 10
-55.3819252779
 20
31.1414278646
 10
-55.3903715963
 20
31.1368847631
  0
LINE
  5
2AB
100
AcDbEntity
  8
RACCORDO
100
AcDbLine
 62
250
  6
CONTINUOUS
 10
-54.8498434178
 20
31.1166086756
 11
-54.8471600537
 21
31.1147827271
  0
LWPOLYLINE
  5
2AC
100
AcDbEntity
  8
RACCORDO
100
AcDbPolyline
 62
7
  6
CONTINUOUS
 90
3
 70
0
 10
71.7402060973
 20
-53.6101372553
 10
71.7338423606
 20
-53.6057638867
 10
71.7213356559
 20
-53.597862848
  0
LINE
  5
2AD
100
AcDbEntity
  8
RACCORDO
100
AcDbLine
 62
250
  6
CONTINUOUS
 10
71.3209443649
 20
-53.314743451
 11
71.7213356559
 21
-53.597862848
  0
LINE
  5
2AE
100
AcDbEntity
  8
RACCORDO
100
AcDbLine
 62
7
  6
CONTINUOUS
 10
71.3128453538
 20
-53.3079475755
 11
71.7402050947
 21
-53.6101365463
  0
LWPOLYLINE
  5
2AF
100
AcDbEntity
  8
RACCORDO
100
AcDbPolyline
 62
7
  6
CONTINUOUS
 90
83
 70
0
 10
71.5135967603
 20
-53.4627283747
 10
71.4887783511
 20
-53.4449998101
 10
71.4146445842
 20
-53.3898428069
 10
71.3422308823
 20
-53.3326049555
 10
71.2715493353
 20
-53.2732961102
 10
71.2026142874
 20
-53.2119281914
 10
71.1354434187
 20
-53.1485168809
 10
71.0700532978
 20
-53.0830783701
 10
71.0064605733
 20
-53.0156300436
 10
70.9446777077
 20
-52.9461859183
 10
70.8847144849
 20
-52.8747577858
 10
70.8265829234
 20
-52.8013598489
 10
70.770298399
 20
-52.7260114498
 10
70.7158751621
 20
-52.6487327756
 10
70.6633272002
 20
-52.5695446783
 10
70.6126647464
 20
-52.4884636257
 10
70.5638958301
 20
-52.4055039211
 10
70.5170303421
 20
-52.3206823506
 10
70.4720807983
 20
-52.2340215131
 10
70.4290585521
 20
-52.1455451036
 10
70.3879745691
 20
-52.055276942
 10
70.3488369845
 20
-51.9632361675
 10
70.3116522429
 20
-51.8694401621
 10
70.2764280987
 20
-51.7739085943
 10
70.2431739076
 20
-51.6766668095
 10
70.2118978655
 20
-51.5777413528
 10
70.1826077588
 20
-51.4771584229
 10
70.1553095935
 20
-51.3749400807
 10
70.1300081688
 20
-51.2711073612
 10
70.1067089605
 20
-51.165683103
 10
70.0854180519
 20
-51.0586948021
 10
70.0661404704
 20
-50.9501710926
 10
70.0488808432
 20
-50.8401399811
 10
70.0336428795
 20
-50.7286266275
 10
70.0204294624
 20
-50.6156560538
 10
70.0092435527
 20
-50.501254403
 10
70.0000880261
 20
-50.3854507709
 10
69.9929649363
 20
-50.2682751722
 10
69.9878758882
 20
-50.1497567907
 10
69.9848220661
 20
-50.0299240621
 10
69.9838040855
 20
-49.908806491
 10
69.9848221118
 20
-49.7864338069
 10
69.9878759612
 20
-49.6628359494
 10
69.9929650161
 20
-49.5380432398
 10
70.0000880926
 20
-49.4120856052
 10
70.0092435847
 20
-49.2849946819
 10
70.020429458
 20
-49.1568038692
 10
70.033642859
 20
-49.027546012
 10
70.0488808251
 20
-48.8972517452
 10
70.066140457
 20
-48.7659515826
 10
70.0854180373
 20
-48.6336759009
 10
70.1067089461
 20
-48.5004592799
 10
70.1300081544
 20
-48.3663389705
 10
70.1553095784
 20
-48.2313508532
 10
70.1826077426
 20
-48.0955257292
 10
70.2118978486
 20
-47.9588935833
 10
70.2431738909
 20
-47.821484988
 10
70.2764280826
 20
-47.6833371357
 10
70.3116522268
 20
-47.5444902709
 10
70.3488369661
 20
-47.404982697
 10
70.3879745472
 20
-47.2648453222
 10
70.4290585285
 20
-47.1241075704
 10
70.4720807778
 20
-46.9828002377
 10
70.5170303272
 20
-46.8409624997
 10
70.563895818
 20
-46.6986365809
 10
70.6126647294
 20
-46.5558624664
 10
70.6633271745
 20
-46.4126712443
 10
70.7158751319
 20
-46.2690919876
 10
70.7702983754
 20
-46.1251559219
 10
70.8265829121
 20
-45.9809033941
 10
70.8847144802
 20
-45.8363772999
 10
70.9446776948
 20
-45.6916184059
 10
71.006460545
 20
-45.5466582322
 10
71.0700532618
 20
-45.4015259243
 10
71.1354433943
 20
-45.2562535101
 10
71.202614284
 20
-45.1108815325
 10
71.2715493447
 20
-44.9654519723
 10
71.3422308843
 20
-44.8200052604
 10
71.4146445687
 20
-44.6745738574
 10
71.4887783245
 20
-44.5291878379
 10
71.5646169558
 20
-44.383881552
 10
71.6421418938
 20
-44.2386936273
 10
71.7338423606
 20
-44.0705493965
  0
LWPOLYLINE
  5
2B0
100
AcDbEntity
  8
RACCORDO
100
AcDbPolyline
 62
250
  6
CONTINUOUS
 90
22
 70
0
 10
-57.0697746477
 20
15.2253673509
 10
-57.0449847501
 20
15.2198296777
 10
-57.020323534
 20
15.2136983268
 10
-56.9958158856
 20
15.2069794852
 10
-56.9714865362
 20
15.1996799333
 10
-56.9473600371
 20
15.1918070371
 10
-56.923460735
 20
15.1833687413
 10
-56.8998127471
 20
15.1743735613
 10
-56.8764399373
 20
15.1648305743
 10
-56.8533658915
 20
15.1547494104
 10
-56.8306138943
 20
15.1441402426
 10
-56.8082069054
 20
15.133013777
 10
-56.7861675361
 20
15.1213812416
 10
-56.7645180268
 20
15.1092543749
 10
-56.7432802247
 20
15.0966454145
 10
-56.7224755613
 20
15.0835670844
 10
-56.702125031
 20
15.0700325823
 10
-56.6822491701
 20
15.0560555661
 10
-56.6628680357
 20
15.0416501404
 10
-56.6440011859
 20
15.0268308421
 10
-56.6256676595
 20
15.0116126255
 10
-56.6078859575
 20
14.9960108479
  0
LWPOLYLINE
  5
2B1
100
AcDbEntity
  8
RACCORDO
100
AcDbPolyline
 62
250
  6
CONTINUOUS
 90
52
 70
0
 10
-55.9057700107
 20
19.1500683583
 10
-55.8915649617
 20
19.148221075
 10
-55.8768914331
 20
19.1459965955
 10
-55.8617626208
 20
19.1433969264
 10
-55.846192262
 20
19.1404241553
 10
-55.8301942277
 20
19.1370812172
 10
-55.813782515
 20
19.1333718859
 10
-55.7969717625
 20
19.1292997457
 10
-55.7797772233
 20
19.1248682093
 10
-55.7622143598
 20
19.1200812782
 10
-55.7442989578
 20
19.1149432865
 10
-55.7260471514
 20
19.1094588273
 10
-55.7074753998
 20
19.1036327638
 10
-55.6886004021
 20
19.0974703548
 10
-55.6694391492
 20
19.0909771272
 10
-55.6500089458
 20
19.0841588017
 10
-55.6303272719
 20
19.0770215146
 10
-55.6104118345
 20
19.069571687
 10
-55.5902806176
 20
19.061815899
 10
-55.5699517542
 20
19.0537610892
 10
-55.5494435105
 20
19.0454145466
 10
-55.5287743363
 20
19.0367837814
 10
-55.5079628507
 20
19.0278765147
 10
-55.4870277525
 20
19.0187008057
 10
-55.4659878042
 20
19.0092650424
 10
-55.4448619398
 20
18.9995777046
 10
-55.4236691611
 20
18.989647516
 10
-55.4024284492
 20
18.9794835682
 10
-55.3811589014
 20
18.9690950278
 10
-55.3598796672
 20
18.958491216
 10
-55.3386098447
 20
18.9476817569
 10
-55.3173685542
 20
18.9366764046
 10
-55.2961749228
 20
18.9254850287
 10
-55.2750480211
 20
18.9141176916
 10
-55.2540068342
 20
18.9025846604
 10
-55.2330703148
 20
18.8908962699
 10
-55.2122573683
 20
18.8790629085
 10
-55.1915867087
 20
18.8670952422
 10
-55.1710769427
 20
18.8550040197
 10
-55.1507466224
 20
18.8427999367
 10
-55.1306140429
 20
18.8304939648
 10
-55.1106973107
 20
18.8180971863
 10
-55.0910144278
 20
18.8056206018
 10
-55.0715831153
 20
18.7930754125
 10
-55.0524208408
 20
18.7804729308
 10
-55.033544886
 20
18.7678244166
 10
-55.0149722549
 20
18.7551412108
 10
-54.9967196351
 20
18.7424347626
 10
-54.9788034259
 20
18.7297165396
 10
-54.9612397394
 20
18.7169979952
 10
-54.9440443859
 20
18.7042905575
 10
-54.9272328366
 20
18.6916056571
  0
LINE
  5
2B2
100
AcDbEntity
  8
ASSI
100
AcDbLine
 62
7
  6
CONTINUOUS
 10
-55.0421132701
 20
51.4941671761
 11
49.8853072322
 21
-22.7007233936
  0
LINE
  5
2B3
100
AcDbEntity
  8
RACCORDO
100
AcDbLine
 62
250
  6
CONTINUOUS
 10
-56.2786526712
 20
53.4438434102
 11
49.6963050423
 21
-21.491767825
  0
LINE
  5
2B4
100
AcDbEntity
  8
RACCORDO
100
AcDbLine
 62
250
  6
CONTINUOUS
 10
-57.2322610696
 20
57.8122678847
 11
50.4731735426
 21
-18.3469753002
  0
LWPOLYLINE
  5
2B5
100
AcDbEntity
  8
RACCORDO
100
AcDbPolyline
 62
250
  6
CONTINUOUS
 90
108
 70
0
 10
-55.9101747097
 20
51.1761423107
 10
-55.9084444215
 20
51.1750994055
 10
-55.9066933515
 20
51.1740857252
 10
-55.9049214995
 20
51.1731012697
 10
-55.9031294256
 20
51.1721462751
 10
-55.9013165699
 20
51.1712205054
 10
-55.8994812523
 20
51.1703232519
 10
-55.8976235072
 20
51.1694543891
 10
-55.8957433003
 20
51.1686140426
 10
-55.8938388489
 20
51.1678018795
 10
-55.8919102406
 20
51.1670178001
 10
-55.8899573879
 20
51.1662619042
 10
-55.887978245
 20
51.1655341591
 10
-55.8859732307
 20
51.1648345429
 10
-55.8839419263
 20
51.1641630775
 10
-55.8818810299
 20
51.1635197951
 10
-55.8797907869
 20
51.16290455
 10
-55.8776709519
 20
51.1623174879
 10
-55.8755174867
 20
51.1617590778
 10
-55.8733301318
 20
51.1612290599
 10
-55.8711091466
 20
51.1607276939
 10
-55.868851272
 20
51.1602562286
 10
-55.8665563203
 20
51.1598144939
 10
-55.864224479
 20
51.1594026598
 10
-55.8618530513
 20
51.1590224849
 10
-55.8594420628
 20
51.1586738685
 10
-55.8569914879
 20
51.1583569113
 10
-55.8544985527
 20
51.1580736739
 10
-55.8519632069
 20
51.1578240582
 10
-55.8493855009
 20
51.1576081623
 10
-55.8467628119
 20
51.1574283412
 10
-55.8440946478
 20
51.1572845267
 10
-55.8413815008
 20
51.1571767869
 10
-55.8386222244
 20
51.1571076815
 10
-55.835816487
 20
51.1570772388
 10
-55.8329646203
 20
51.1570854303
 10
-55.8300664728
 20
51.1571347303
 10
-55.8271219767
 20
51.157225205
 10
-55.8241312
 20
51.157356788
 10
-55.8210941946
 20
51.1575317553
 10
-55.8180110455
 20
51.1577501597
 10
-55.8148816679
 20
51.1580119483
 10
-55.8117058591
 20
51.1583192374
 10
-55.8084837577
 20
51.1586720502
 10
-55.8052152252
 20
51.1590703634
 10
-55.8018996438
 20
51.1595162233
 10
-55.7985370182
 20
51.1600096539
 10
-55.7951273438
 20
51.1605506312
 10
-55.7916699891
 20
51.1611411291
 10
-55.7881652373
 20
51.1617811012
 10
-55.7846128051
 20
51.162470594
 10
-55.781011211
 20
51.1632117206
 10
-55.7773611504
 20
51.1640042734
 10
-55.7736619278
 20
51.16484846
 10
-55.7699099753
 20
51.1657470165
 10
-55.7661055621
 20
51.1666997602
 10
-55.762248419
 20
51.1677068739
 10
-55.7583341707
 20
51.168771641
 10
-55.7543626205
 20
51.1698940055
 10
-55.7503339652
 20
51.1710740235
 10
-55.7462444195
 20
51.1723151474
 10
-55.7420940873
 20
51.17361725
 10
-55.7378828647
 20
51.1749804585
 10
-55.7336066551
 20
51.1764086069
 10
-55.7292656512
 20
51.1779015258
 10
-55.7248596603
 20
51.1794593846
 10
-55.7203840077
 20
51.1810865246
 10
-55.7158388393
 20
51.1827827784
 10
-55.7112240093
 20
51.1845483134
 10
-55.7065344055
 20
51.1863879744
 10
-55.7017702144
 20
51.1883015649
 10
-55.6969312496
 20
51.1902892812
 10
-55.6920118399
 20
51.1923565573
 10
-55.6870121308
 20
51.1945032016
 10
-55.6819319768
 20
51.1967294056
 10
-55.6767652705
 20
51.1990411775
 10
-55.6715123059
 20
51.2014382432
 10
-55.666172789
 20
51.2039208767
 10
-55.6607397303
 20
51.2064959086
 10
-55.6552133833
 20
51.2091630612
 10
-55.6495934945
 20
51.2119226122
 10
-55.6438723142
 20
51.2147822255
 10
-55.6380501276
 20
51.2177415885
 10
-55.6321266495
 20
51.2208010139
 10
-55.626093274
 20
51.223969103
 10
-55.6199503899
 20
51.2272454659
 10
-55.6136976083
 20
51.2306304926
 10
-55.6073251567
 20
51.234133955
 10
-55.6008338743
 20
51.237755167
 10
-55.5942229219
 20
51.2414948147
 10
-55.5874800094
 20
51.2453647292
 10
-55.5806060036
 20
51.2493641366
 10
-55.5736000377
 20
51.2534938108
 10
-55.5664472216
 20
51.2577679039
 10
-55.5591487705
 20
51.2621853572
 10
-55.5517034691
 20
51.2667472294
 10
-55.5440927815
 20
51.2714708493
 10
-55.5363194829
 20
51.2763540362
 10
-55.528380798
 20
51.2813989707
 10
-55.5202498649
 20
51.2866295233
 10
-55.511922492
 20
51.2920481119
 10
-55.5034028709
 20
51.2976523186
 10
-55.4946767152
 20
51.3034587605
 10
-55.4857107361
 20
51.3094911132
 10
-55.4765382224
 20
51.315725701
 10
-55.467244754
 20
51.3221081134
 10
-55.4577939678
 20
51.328667505
 10
-55.4387241996
 20
51.3420878875
  0
LINE
  5
2B6
100
AcDbEntity
  8
0
100
AcDbLine
 62
250
  6
CONTINUOUS
 10
-66.1519651063
 20
67.0490614914
 11
59.8958736353
 21
-22.0802200367
  0
LWPOLYLINE
  5
2B7
100
AcDbEntity
  8
0
100
AcDbPolyline
 62
250
  6
CONTINUOUS
 90
85
 70
0
 10
59.8958736353
 20
-22.0802200367
 10
59.9239448779
 20
-22.100356363
 10
59.9519392817
 20
-22.1210100405
 10
59.9798568511
 20
-22.1421810663
 10
60.0077063043
 20
-22.1638764014
 10
60.0354789412
 20
-22.1860890738
 10
60.0631486444
 20
-22.2087981789
 10
60.0907152098
 20
-22.2320040936
 10
60.1181788776
 20
-22.2557064192
 10
60.1455142007
 20
-22.2798830843
 10
60.1727210629
 20
-22.3045345089
 10
60.1997996342
 20
-22.3296602406
 10
60.2267249005
 20
-22.3552368972
 10
60.2534967301
 20
-22.381264864
 10
60.2801153256
 20
-22.407743713
 10
60.3065561777
 20
-22.4346488402
 10
60.3328191616
 20
-22.461980622
 10
60.3589044892
 20
-22.4897386294
 10
60.3847881593
 20
-22.5178970488
 10
60.4104700326
 20
-22.546456229
 10
60.4359503507
 20
-22.5754157593
 10
60.4612056867
 20
-22.6047486858
 10
60.4862358812
 20
-22.6344553226
 10
60.5110412101
 20
-22.6645352852
 10
60.5355989005
 20
-22.6949605716
 10
60.5599087726
 20
-22.7257314569
 10
60.5839711355
 20
-22.7568475878
 10
60.6077639512
 20
-22.7882800183
 10
60.6312870303
 20
-22.8200289989
 10
60.6545407026
 20
-22.8520941941
 10
60.677503709
 20
-22.8844457789
 10
60.7001758416
 20
-22.9170839672
 10
60.7225574583
 20
-22.9500084541
 10
60.7446281474
 20
-22.9831886372
 10
60.766387689
 20
-23.0166247025
 10
60.787836461
 20
-23.050316368
 10
60.8089549461
 20
-23.0842323308
 10
60.8297429051
 20
-23.1183727372
 10
60.8502007417
 20
-23.1527373411
 10
60.8703098996
 20
-23.1872942528
 10
60.8900701287
 20
-23.2220435932
 10
60.909481848
 20
-23.2569851391
 10
60.9285274995
 20
-23.2920864874
 10
60.9472068145
 20
-23.327347719
 10
60.9655202331
 20
-23.362768649
 10
60.9834512555
 20
-23.3983164796
 10
61.0009996019
 20
-23.4339912666
 10
61.018165724
 20
-23.4697928498
 10
61.0349342117
 20
-23.5056881107
 10
61.051304767
 20
-23.5416770651
 10
61.0672778586
 20
-23.5777595936
 10
61.0828392182
 20
-23.6139023803
 10
61.0979885376
 20
-23.6501054181
 10
61.1127262924
 20
-23.6863686121
 10
61.1270393809
 20
-23.7226585204
 10
61.1409274779
 20
-23.7589750971
 10
61.1543910709
 20
-23.7953182891
 10
61.1674182674
 20
-23.83165465
 10
61.1800087313
 20
-23.8679841107
 10
61.1921629542
 20
-23.9043066453
 10
61.2038702736
 20
-23.9405888785
 10
61.2151303372
 20
-23.9768307021
 10
61.2259436442
 20
-24.0130321345
 10
61.2363007963
 20
-24.0491599981
 10
61.2462014328
 20
-24.0852141691
 10
61.2556460511
 20
-24.1211946876
 10
61.2646265267
 20
-24.1570686303
 10
61.273142485
 20
-24.1928358399
 10
61.2811944257
 20
-24.2284963969
 10
61.2887755217
 20
-24.2640177433
 10
61.2958853866
 20
-24.2993996927
 10
61.3025245189
 20
-24.3346423626
 10
61.3086874035
 20
-24.3697136598
 10
61.3143736435
 20
-24.4046133644
 10
61.3195837338
 20
-24.4393416361
 10
61.3243134808
 20
-24.4738669611
 10
61.3285624809
 20
-24.5081891255
 10
61.3323312204
 20
-24.5423082921
 10
61.3356168244
 20
-24.5761935229
 10
61.3384188783
 20
-24.6098447266
 10
61.3407378633
 20
-24.6432619531
 10
61.3425722298
 20
-24.6764144859
 10
61.3439214742
 20
-24.7092920783
 10
61.3447861475
 20
-24.7419049474
 10
61.3451662747
 20
-24.7742530777
  0
LWPOLYLINE
  5
2B8
100
AcDbEntity
  8
RACCORDO
100
AcDbPolyline
 62
250
  6
CONTINUOUS
 90
49
 70
0
 10
-56.6159533998
 20
17.6445851472
 10
-56.5988531626
 20
17.646961341
 10
-56.5812305206
 20
17.6489113456
 10
-56.5631032394
 20
17.6504331953
 10
-56.5444895932
 20
17.6515253558
 10
-56.5254083464
 20
17.6521867262
 10
-56.505878735
 20
17.6524166398
 10
-56.485920447
 20
17.6522148647
 10
-56.4655536022
 20
17.6515816044
 10
-56.4447987328
 20
17.6505174973
 10
-56.4236767618
 20
17.6490236161
 10
-56.4022089823
 20
17.6471014667
 10
-56.3804170361
 20
17.644752987
 10
-56.3583228919
 20
17.6419805445
 10
-56.3359488228
 20
17.638786934
 10
-56.3133173843
 20
17.6351753751
 10
-56.2904513912
 20
17.6311495085
 10
-56.2673738949
 20
17.6267133929
 10
-56.2441081599
 20
17.6218715002
 10
-56.2206776406
 20
17.6166287117
 10
-56.1971059573
 20
17.6109903125
 10
-56.1734168729
 20
17.6049619869
 10
-56.1496342683
 20
17.5985498119
 10
-56.1257821191
 20
17.5917602518
 10
-56.1018844706
 20
17.5846001512
 10
-56.0779654142
 20
17.5770767281
 10
-56.0540490629
 20
17.569197567
 10
-56.0301595268
 20
17.5609706109
 10
-56.0063208891
 20
17.5524041534
 10
-55.9825571817
 20
17.5435068306
 10
-55.9588923609
 20
17.5342876117
 10
-55.9353502834
 20
17.5247557907
 10
-55.911954682
 20
17.5149209768
 10
-55.8887291419
 20
17.5047930844
 10
-55.8656970771
 20
17.4943823235
 10
-55.8428817061
 20
17.4836991894
 10
-55.8203060293
 20
17.4727544517
 10
-55.7979928054
 20
17.4615591438
 10
-55.7759645285
 20
17.4501245518
 10
-55.7542434053
 20
17.4384622031
 10
-55.7328513332
 20
17.4265838544
 10
-55.7118098774
 20
17.4145014805
 10
-55.6911402501
 20
17.4022272615
 10
-55.6708632883
 20
17.3897735713
 10
-55.6509994335
 20
17.3771529645
 10
-55.6315687104
 20
17.3643781639
 10
-55.6125907074
 20
17.3514620479
 10
-55.5940845561
 20
17.3384176374
 10
-55.5760689128
 20
17.3252580824
  0
LINE
  5
2B9
100
AcDbEntity
  8
RACCORDO
100
AcDbLine
 62
250
  6
CONTINUOUS
 10
-55.0497438416
 20
51.4838219593
 11
-55.0308160751
 21
51.4760925052
  0
LWPOLYLINE
  5
2BA
100
AcDbEntity
  8
RACCORDO
100
AcDbPolyline
 62
7
  6
CONTINUOUS
 90
9
 70
0
 10
-55.031979827
 20
51.4755455822
 10
-55.0251418611
 20
51.4726849904
 10
-55.018469311
 20
51.4697955833
 10
-55.011980062
 20
51.4668901809
 10
-55.005692416
 20
51.4639825856
 10
-54.9996052071
 20
51.4610782811
 10
-54.9937483755
 20
51.4581979386
 10
-54.9881316311
 20
51.4553536336
 10
-54.9846779814
 20
51.453554294
  0
LWPOLYLINE
  5
2BB
100
AcDbEntity
  8
RACCORDO
100
AcDbPolyline
 62
250
  6
CONTINUOUS
 90
4
 70
0
 10
-55.0308160751
 20
51.4760925052
 10
-55.0121975786
 20
51.467715564
 10
-54.9939050868
 20
51.4586986652
 10
-54.9857659617
 20
51.4543236122
  0
LWPOLYLINE
  5
2BC
100
AcDbEntity
  8
0
100
AcDbPolyline
 62
7
  6
CONTINUOUS
 90
60
 70
0
 10
-61.0901198761
 20
74.2658304834
 10
-61.1883200454
 20
74.3344147902
 10
-61.2864316162
 20
74.4012359703
 10
-61.3844545885
 20
74.4662940238
 10
-61.4824184151
 20
74.5296074726
 10
-61.5802936432
 20
74.5911577946
 10
-61.6779919145
 20
74.6508894245
 10
-61.7755130691
 20
74.70880072
 10
-61.8728572669
 20
74.7648933233
 10
-61.9699366287
 20
74.8191165959
 10
-62.0667509153
 20
74.8714688497
 10
-62.1633003659
 20
74.9219517728
 10
-62.259497819
 20
74.970519791
 10
-62.3553429569
 20
75.017171175
 10
-62.4508360972
 20
75.0619076541
 10
-62.545891032
 20
75.1046888417
 10
-62.6405073655
 20
75.1455129719
 10
-62.7346854935
 20
75.1843818106
 10
-62.8283403951
 20
75.2212602684
 10
-62.921471598
 20
75.2561465477
 10
-63.0140795747
 20
75.2890424461
 10
-63.1060807216
 20
75.3199182662
 10
-63.1974744908
 20
75.3487721837
 10
-63.2882614303
 20
75.3756060229
 10
-63.3783595807
 20
75.4003955591
 10
-63.4677683202
 20
75.4231389462
 10
-63.5564882706
 20
75.4438380304
 10
-63.6444393386
 20
75.4624741251
 10
-63.7316208298
 20
75.4790453675
 10
-63.8180334385
 20
75.4935536204
 10
-63.9035991545
 20
75.5059857863
 10
-63.9883172129
 20
75.5163399905
 10
-64.0721883786
 20
75.5246181077
 10
-64.1551369353
 20
75.5308126647
 10
-64.2371620501
 20
75.53492178
 10
-64.318264556
 20
75.5369473351
 10
-64.3983712365
 20
75.5368875014
 10
-64.4774811923
 20
75.5347403957
 10
-64.5555953226
 20
75.5305079013
 10
-64.6326431087
 20
75.524193839
 10
-64.7086235876
 20
75.5157963291
 10
-64.7835377223
 20
75.5053172514
 10
-64.8573178828
 20
75.492766066
 10
-64.9299630451
 20
75.4781409018
 10
-65.0014742332
 20
75.4614436299
 10
-65.0717868893
 20
75.442689324
 10
-65.140899931
 20
75.4218761266
 10
-65.2088144406
 20
75.3990058952
 10
-65.2754691073
 20
75.3740992764
 10
-65.3408627933
 20
75.3471544312
 10
-65.4049966363
 20
75.3181731985
 10
-65.4678127385
 20
75.2871817415
 10
-65.5293099098
 20
75.2541782451
 10
-65.5894893403
 20
75.2191645245
 10
-65.6482967021
 20
75.1821721888
 10
-65.705730756
 20
75.1431994515
 10
-65.7617927411
 20
75.1022480991
 10
-65.8164320465
 20
75.0593551012
 10
-65.8696473876
 20
75.0145187044
 10
-65.8985960785
 20
74.9887730542
  0
LINE
  5
2BD
100
AcDbEntity
  8
0
100
AcDbLine
 62
250
  6
CONTINUOUS
 10
-62.6898599481
 20
72.9665039734
 11
63.3579787934
 21
-16.1627775547
  0
LINE
  5
2BE
100
AcDbEntity
  8
0
100
AcDbLine
 62
7
  6
CONTINUOUS
 10
64.9577188655
 20
-14.8634510447
 11
-61.0901198761
 21
74.2658304834
  0
LWPOLYLINE
  5
2BF
100
AcDbEntity
  8
0
100
AcDbPolyline
 62
250
  6
CONTINUOUS
 90
85
 70
0
 10
63.3579787934
 20
-16.1627775547
 10
63.4530509132
 20
-16.2308662051
 10
63.5480443309
 20
-16.3006235834
 10
63.642930228
 20
-16.3720285913
 10
63.7376795656
 20
-16.4450595831
 10
63.8322638041
 20
-16.5196945319
 10
63.926654911
 20
-16.595911063
 10
64.0208242246
 20
-16.6736863091
 10
64.1147430551
 20
-16.7529966661
 10
64.2083834052
 20
-16.8338179886
 10
64.3017166477
 20
-16.916125897
 10
64.3947144452
 20
-16.9998955834
 10
64.487349352
 20
-17.0851016202
 10
64.5795929872
 20
-17.1717183361
 10
64.6714173062
 20
-17.2597196531
 10
64.7627955189
 20
-17.3490789443
 10
64.8536996577
 20
-17.4397693909
 10
64.9441019501
 20
-17.5317636568
 10
65.0339760865
 20
-17.6250337899
 10
65.1232945086
 20
-17.7195518315
 10
65.2120298701
 20
-17.8152893167
 10
65.3001564058
 20
-17.9122170161
 10
65.3876470265
 20
-18.0103058803
 10
65.4744749019
 20
-18.1095264117
 10
65.5606149195
 20
-18.2098482238
 10
65.6460405266
 20
-18.3112412476
 10
65.7307254879
 20
-18.413675037
 10
65.8146454654
 20
-18.5171181961
 10
65.897774554
 20
-18.6215397644
 10
65.9800871425
 20
-18.7269083846
 10
66.0615596685
 20
-18.833191663
 10
66.1421669133
 20
-18.9403577909
 10
66.2218839918
 20
-19.048374621
 10
66.3006882109
 20
-19.1572088894
 10
66.3785551288
 20
-19.2668280548
 10
66.455460631
 20
-19.3771992369
 10
66.531382919
 20
-19.488288345
 10
66.6062983685
 20
-19.6000621529
 10
66.6801837294
 20
-19.7124871738
 10
66.7530182022
 20
-19.8255286505
 10
66.8247790741
 20
-19.9391528083
 10
66.8954439909
 20
-20.0533255988
 10
66.9649931603
 20
-20.1680116235
 10
67.0334048147
 20
-20.2831766028
 10
67.1006575883
 20
-20.3987860649
 10
67.1667327922
 20
-20.5148041382
 10
67.2316096907
 20
-20.631196179
 10
67.2952679353
 20
-20.7479273384
 10
67.357689948
 20
-20.864961299
 10
67.4188560551
 20
-20.9822630949
 10
67.4787470117
 20
-21.099797646
 10
67.5373464424
 20
-21.2175283721
 10
67.5946358169
 20
-21.3354201366
 10
67.6505970162
 20
-21.453437668
 10
67.7052148674
 20
-21.5715441407
 10
67.7584720104
 20
-21.6897042884
 10
67.8103515307
 20
-21.8078827988
 10
67.8608395368
 20
-21.926042783
 10
67.9099199069
 20
-22.0441489902
 10
67.9575769543
 20
-22.162166115
 10
68.0037980759
 20
-22.2800572401
 10
68.0485684125
 20
-22.3977871709
 10
68.0918735733
 20
-22.5153207616
 10
68.1337023154
 20
-22.6326212709
 10
68.1740411068
 20
-22.7496537314
 10
68.2128768626
 20
-22.8663831779
 10
68.2501996879
 20
-22.9827730229
 10
68.2859974012
 20
-23.0987885599
 10
68.3202582804
 20
-23.2143951639
 10
68.3529738179
 20
-23.3295565684
 10
68.3841332069
 20
-23.4442384421
 10
68.4137261304
 20
-23.5584065766
 10
68.44174553
 20
-23.6720251384
 10
68.4681820393
 20
-23.7850602219
 10
68.4930267386
 20
-23.897478174
 10
68.5162739624
 20
-24.0092438315
 10
68.5379157261
 20
-24.1203239953
 10
68.5579446038
 20
-24.230685466
 10
68.5763565078
 20
-24.3402934227
 10
68.5931450459
 20
-24.4491151214
 10
68.6083041408
 20
-24.5571182629
 10
68.6218309267
 20
-24.6642690796
 10
68.6337212783
 20
-24.7705351454
 10
68.6439698075
 20
-24.875885368
 10
68.6525724988
 20
-24.9802883904
  0
LWPOLYLINE
  5
2C0
100
AcDbEntity
  8
RACCORDO
100
AcDbPolyline
 62
250
  6
CONTINUOUS
 90
21
 70
0
 10
49.8967503108
 20
-22.5317284766
 10
49.8821360755
 20
-22.5079802068
 10
49.8599160775
 20
-22.4690524876
 10
49.8387791899
 20
-22.4289230087
 10
49.8187763974
 20
-22.3874988905
 10
49.7999461401
 20
-22.3446108852
 10
49.7823663179
 20
-22.3001697146
 10
49.7661125902
 20
-22.2541232389
 10
49.7512335946
 20
-22.2063462359
 10
49.7378271353
 20
-22.1567120699
 10
49.725971841
 20
-22.1051958146
 10
49.7156818736
 20
-22.0518342819
 10
49.7070808715
 20
-21.9965992543
 10
49.7002079987
 20
-21.9393966685
 10
49.6949288535
 20
-21.8801900848
 10
49.6913405012
 20
-21.8185689509
 10
49.6895118091
 20
-21.7548338764
 10
49.6891597373
 20
-21.6901172414
 10
49.69013382
 20
-21.6248639991
 10
49.6925225572
 20
-21.5587336348
 10
49.7034525012
 20
-21.3649651227
  0
LWPOLYLINE
  5
2C1
100
AcDbEntity
  8
RACCORDO
100
AcDbPolyline
 62
250
  6
CONTINUOUS
 90
16
 70
0
 10
50.4731735115
 20
-63.9068465787
 10
50.4048713178
 20
-63.6635050547
 10
50.3392395111
 20
-63.4189178947
 10
50.2762669734
 20
-63.1731184891
 10
50.2158221909
 20
-62.9258813928
 10
50.1580176013
 20
-62.677495651
 10
50.1031900373
 20
-62.4287795056
 10
50.0513252858
 20
-62.1798269534
 10
50.0023773936
 20
-61.9306358795
 10
49.9566039416
 20
-61.6819027747
 10
49.9139689653
 20
-61.4336779411
 10
49.8744213189
 20
-61.1860177886
 10
49.8381676762
 20
-60.9396464785
 10
49.805232262
 20
-60.694849691
 10
49.7754728469
 20
-60.4514636087
 10
49.738639813
 20
-60.1194859117
  0
LWPOLYLINE
  5
2C2
100
AcDbEntity
  8
RACCORDO
100
AcDbPolyline
 62
250
  6
CONTINUOUS
 90
22
 70
0
 10
49.976145403
 20
-60.4675285921
 10
49.9727928156
 20
-60.453166525
 10
49.9686444566
 20
-60.4389264317
 10
49.9637045121
 20
-60.4248226823
 10
49.9579779671
 20
-60.4108695091
 10
49.9514706005
 20
-60.3970809926
 10
49.9441889789
 20
-60.3834710472
 10
49.9361404505
 20
-60.370053407
 10
49.9273331371
 20
-60.356841612
 10
49.9177759265
 20
-60.3438489946
 10
49.9074784631
 20
-60.3310886659
 10
49.8964511383
 20
-60.3185735026
 10
49.8847050799
 20
-60.3063161342
 10
49.8722521413
 20
-60.2943289298
 10
49.8591048889
 20
-60.2826239859
 10
49.8452765901
 20
-60.2712131144
 10
49.8307811991
 20
-60.2601078302
 10
49.8156333438
 20
-60.2493193399
 10
49.7998483101
 20
-60.2388585304
 10
49.7834420271
 20
-60.2287359579
 10
49.7664310508
 20
-60.2189618375
 10
49.7488325472
 20
-60.2095460324
  0
LWPOLYLINE
  5
2C3
100
AcDbEntity
  8
RACCORDO
100
AcDbPolyline
 62
250
  6
CONTINUOUS
 90
16
 70
0
 10
50.4731738583
 20
-63.9068477873
 10
50.4289084034
 20
-63.676653135
 10
50.3860852364
 20
-63.4459363496
 10
50.3447174665
 20
-63.2147192862
 10
50.3047765595
 20
-62.9828064745
 10
50.2663305158
 20
-62.7504425277
 10
50.2295226846
 20
-62.5183169619
 10
50.1943676737
 20
-62.2865107983
 10
50.1608689673
 20
-62.0550160813
 10
50.1291230284
 20
-61.8244030071
 10
50.0991279249
 20
-61.5947046474
 10
50.0708863951
 20
-61.3659644636
 10
50.0444717003
 20
-61.1387779952
 10
50.0198938375
 20
-60.913373351
 10
49.9971206799
 20
-60.6896092829
 10
49.9761453755
 20
-60.4675285958
  0
LWPOLYLINE
  5
2C4
100
AcDbEntity
  8
RACCORDO
100
AcDbPolyline
 62
250
  6
CONTINUOUS
 90
24
 70
0
 10
49.738639813
 20
-60.1194859117
 10
49.7285365828
 20
-60.0255315788
 10
49.7186174492
 20
-59.927638829
 10
49.7088534675
 20
-59.825442492
 10
49.6994758602
 20
-59.7192198885
 10
49.6909458799
 20
-59.6099085605
 10
49.6832647207
 20
-59.4967291955
 10
49.6766015163
 20
-59.3804093313
 10
49.6715329082
 20
-59.2642246584
 10
49.6680692712
 20
-59.148938866
 10
49.6661164902
 20
-59.0338769566
 10
49.6659511488
 20
-58.9202300293
 10
49.6675552776
 20
-58.8081600739
 10
49.6708165457
 20
-58.6976067261
 10
49.675815738
 20
-58.5894498484
 10
49.6824861721
 20
-58.4840675238
 10
49.6907232902
 20
-58.3811875964
 10
49.7005368561
 20
-58.2807174542
 10
49.7118868667
 20
-58.1826263339
 10
49.7246741314
 20
-58.0870250355
 10
49.7388261832
 20
-57.9940277439
 10
49.7542695295
 20
-57.903787873
 10
49.7709426391
 20
-57.8162192566
 10
49.7774313735
 20
-57.7852772426
  0
LWPOLYLINE
  5
2C5
100
AcDbEntity
  8
RACCORDO
100
AcDbPolyline
 62
250
  6
CONTINUOUS
 90
46
 70
0
 10
50.4731737611
 20
-63.9068467552
 10
50.3866911765
 20
-62.9649829567
 10
50.3041295863
 20
-62.0196754528
 10
50.2254904478
 20
-61.0709401662
 10
50.1507752146
 20
-60.1187931308
 10
50.0799851395
 20
-59.1632503228
 10
50.013121274
 20
-58.2043276607
 10
49.9501847874
 20
-57.2420412767
 10
49.8911768005
 20
-56.2764073734
 10
49.8360981887
 20
-55.3074420547
 10
49.7849499128
 20
-54.3351616225
 10
49.7377328851
 20
-53.3595824299
 10
49.694447805
 20
-52.3807207366
 10
49.6550954252
 20
-51.3985930021
 10
49.6196764499
 20
-50.4132157368
 10
49.5881914026
 20
-49.4246053529
 10
49.5606408278
 20
-48.4327784572
 10
49.537025222
 20
-47.437751722
 10
49.5173449346
 20
-46.4395417345
 10
49.5016003017
 20
-45.438165248
 10
49.4897916122
 20
-44.4336390926
 10
49.4819190409
 20
-43.4259800446
 10
49.477982716
 20
-42.4152050099
 10
49.4779827177
 20
-41.4013309657
 10
49.481919046
 20
-40.3843748693
 10
49.4897916208
 20
-39.3643537805
 10
49.5016003137
 20
-38.3412848172
 10
49.5173449499
 20
-37.3151850957
 10
49.5370252409
 20
-36.2860718234
 10
49.5606408501
 20
-35.25396226
 10
49.5881914283
 20
-34.218873671
 10
49.619676479
 20
-33.1808234003
 10
49.6550954577
 20
-32.1398288552
 10
49.6944478409
 20
-31.0959074651
 10
49.7377329243
 20
-30.0490767053
 10
49.7849499554
 20
-28.9993541307
 10
49.8360982347
 20
-27.9467573583
 10
49.89117685
 20
-26.8913040003
 10
49.9501848402
 20
-25.8330117488
 10
50.0131213302
 20
-24.7718984086
 10
50.0799852013
 20
-23.7079817036
 10
50.1507752823
 20
-22.6412794832
 10
50.2254905142
 20
-21.5718098079
 10
50.3041296407
 20
-20.4995906446
 10
50.386691209
 20
-19.4246398653
 10
50.4731737608
 20
-18.3469754545
  0
LINE
  5
2C6
100
AcDbEntity
  8
RACCORDO
100
AcDbLine
 62
250
  6
CONTINUOUS
 10
49.976145403
 20
-60.4675285921
 11
49.9604447795
 21
-60.2893322322
  0
LINE
  5
2C7
100
AcDbEntity
  8
RACCORDO
100
AcDbLine
 62
250
  6
CONTINUOUS
 10
49.9604447795
 20
-60.2893322322
 11
49.94702894
 21
-60.1251586218
  0
LWPOLYLINE
  5
2C8
100
AcDbEntity
  8
RACCORDO
100
AcDbPolyline
 62
250
  6
CONTINUOUS
 90
27
 70
0
 10
49.9355542911
 20
-21.9586593145
 10
49.9353891737
 20
-21.9514913543
 10
49.9341787862
 20
-21.9310380216
 10
49.9322305913
 20
-21.9106170141
 10
49.92954639
 20
-21.8902472092
 10
49.9261286635
 20
-21.8699474365
 10
49.9219805713
 20
-21.8497364613
 10
49.9171059478
 20
-21.8296329666
 10
49.9115092991
 20
-21.8096555361
 10
49.9051957988
 20
-21.7898226368
 10
49.898171283
 20
-21.7701526025
 10
49.8904422453
 20
-21.7506636161
 10
49.8820158304
 20
-21.7313736931
 10
49.8728998276
 20
-21.7123006653
 10
49.8631026638
 20
-21.6934621637
 10
49.8526333955
 20
-21.6748756028
 10
49.8415017005
 20
-21.6565581638
 10
49.8297178689
 20
-21.6385267795
 10
49.8172927938
 20
-21.620798118
 10
49.8042379609
 20
-21.6033885679
 10
49.790565438
 20
-21.5863142224
 10
49.7762878641
 20
-21.5695908652
 10
49.7614184374
 20
-21.5532339552
 10
49.7459709032
 20
-21.5372586129
 10
49.7299595411
 20
-21.5216796059
 10
49.7133991522
 20
-21.5065113353
 10
49.6963050448
 20
-21.4917678229
  0
LWPOLYLINE
  5
2C9
100
AcDbEntity
  8
RACCORDO
100
AcDbPolyline
 62
7
  6
CONTINUOUS
 90
34
 70
0
 10
49.9448092257
 20
-21.8219795831
 10
49.8732104975
 20
-22.8793717071
 10
49.7945742769
 20
-24.1090339724
 10
49.7211709749
 20
-25.3349958618
 10
49.6530025038
 20
-26.5572296994
 10
49.5900707196
 20
-27.7757079896
 10
49.5323772031
 20
-28.9904039673
 10
49.4799234849
 20
-30.2012904624
 10
49.4327110525
 20
-31.4083406177
 10
49.3907411473
 20
-32.6115283716
 10
49.3540149551
 20
-33.8108269083
 10
49.3225336447
 20
-35.0062093574
 10
49.2962981513
 20
-36.1976497952
 10
49.2753093127
 20
-37.3851216699
 10
49.2595679554
 20
-38.5685984239
 10
49.2490747053
 20
-39.7480543723
 10
49.2438300551
 20
-40.9234633917
 10
49.2438344924
 20
-42.0947990237
 10
49.2490883319
 20
-43.2620353358
 10
49.2595917186
 20
-44.42514648
 10
49.2753447878
 20
-45.5841062845
 10
49.2963475236
 20
-46.7388886048
 10
49.3225997154
 20
-47.889467687
 10
49.3541011427
 20
-49.0358178585
 10
49.3908514594
 20
-50.1779133698
 10
49.4328501065
 20
-51.3157288205
 10
49.4800965033
 20
-52.449238732
 10
49.5325899663
 20
-53.5784175198
 10
49.5903296005
 20
-54.7032401884
 10
49.6533144732
 20
-55.8236816012
 10
49.7215435479
 20
-56.9397162203
 10
49.7950155521
 20
-58.0513190126
 10
49.8737291641
 20
-59.1584649524
 10
49.94702894
 20
-60.1251586218
  0
LWPOLYLINE
  5
2CA
100
AcDbEntity
  8
RACCORDO
100
AcDbPolyline
 62
250
  6
CONTINUOUS
 90
21
 70
0
 10
49.9448079609
 20
-21.8219878499
 10
49.9503596766
 20
-21.7446131484
 10
49.962827653
 20
-21.5860971726
 10
49.9769844698
 20
-21.4247699597
 10
49.9928523774
 20
-21.2606984329
 10
50.0104238216
 20
-21.0941356157
 10
50.0297155228
 20
-20.9250610056
 10
50.0507479895
 20
-20.7534471716
 10
50.0734944127
 20
-20.57954112
 10
50.0979729275
 20
-20.4032614528
 10
50.1241882155
 20
-20.2246441632
 10
50.152064728
 20
-20.0441197209
 10
50.1815968855
 20
-19.861695707
 10
50.2127899195
 20
-19.677325917
 10
50.2455547018
 20
-19.4913699957
 10
50.2798904997
 20
-19.3037664892
 10
50.3157818131
 20
-19.1145456273
 10
50.3530881851
 20
-18.9242166764
 10
50.3917432201
 20
-18.7329450701
 10
50.4317757978
 20
-18.5405381646
 10
50.4731738354
 20
-18.3469745498
  0
LWPOLYLINE
  5
2CB
100
AcDbEntity
  8
RACCORDO
100
AcDbPolyline
 62
250
  6
CONTINUOUS
 90
21
 70
0
 10
49.7034525012
 20
-21.3649651227
 10
49.7134583561
 20
-21.2357805507
 10
49.7263939839
 20
-21.1041716724
 10
49.7423740909
 20
-20.9700383831
 10
49.7614317384
 20
-20.8333961698
 10
49.7835075988
 20
-20.6943847567
 10
49.8086789289
 20
-20.552986801
 10
49.8369994331
 20
-20.4091570669
 10
49.8683563639
 20
-20.2630096836
 10
49.9028305494
 20
-20.114483561
 10
49.9404577289
 20
-19.9635961607
 10
49.9810331469
 20
-19.8105995226
 10
50.024602478
 20
-19.6555178157
 10
50.0712047453
 20
-19.498313303
 10
50.1205969071
 20
-19.3391669717
 10
50.1728278437
 20
-19.1780500537
 10
50.227908986
 20
-19.0149998085
 10
50.2855104531
 20
-18.8503181984
 10
50.3455220396
 20
-18.6841232383
 10
50.4080727612
 20
-18.5163359573
 10
50.4731735426
 20
-18.3469753002
  0
LWPOLYLINE
  5
2CC
100
AcDbEntity
  8
0
100
AcDbPolyline
 62
250
  6
CONTINUOUS
 90
73
 70
0
 10
63.3579787934
 20
-16.1627775547
 10
63.2848125385
 20
-16.222905133
 10
63.2118182956
 20
-16.2842950296
 10
63.13902224
 20
-16.3469252305
 10
63.0664504757
 20
-16.4107732772
 10
62.9941290266
 20
-16.475816274
 10
62.9220838265
 20
-16.5420308971
 10
62.8503407103
 20
-16.6093934025
 10
62.7789254046
 20
-16.6778796343
 10
62.7078635183
 20
-16.747465034
 10
62.6371805338
 20
-16.8181246487
 10
62.5669017974
 20
-16.8898331404
 10
62.4970525106
 20
-16.962564795
 10
62.4276577208
 20
-17.0362935315
 10
62.3587423124
 20
-17.1109929112
 10
62.2903309981
 20
-17.1866361475
 10
62.2224483096
 20
-17.2631961153
 10
62.1551185891
 20
-17.3406453608
 10
62.0883659806
 20
-17.4189561113
 10
62.0222144212
 20
-17.498100285
 10
61.9566876321
 20
-17.5780495015
 10
61.891809111
 20
-17.6587750916
 10
61.8276021226
 20
-17.7402481076
 10
61.7640896913
 20
-17.822439334
 10
61.701294592
 20
-17.9053192975
 10
61.6392393426
 20
-17.9888582781
 10
61.5779461958
 20
-18.0730263193
 10
61.5174371306
 20
-18.1577932389
 10
61.4577338454
 20
-18.2431286403
 10
61.3988577492
 20
-18.3290019228
 10
61.3408299545
 20
-18.4153822929
 10
61.2836712697
 20
-18.5022387752
 10
61.2274021915
 20
-18.5895402235
 10
61.1720428975
 20
-18.6772553323
 10
61.1176132392
 20
-18.7653526476
 10
61.0641327347
 20
-18.8538005783
 10
61.0116205617
 20
-18.9425674076
 10
60.9600955506
 20
-19.0316213044
 10
60.9095761779
 20
-19.1209303347
 10
60.8600805596
 20
-19.2104624728
 10
60.8116264444
 20
-19.3001856133
 10
60.7642312075
 20
-19.390067582
 10
60.7179118445
 20
-19.4800761479
 10
60.6726849653
 20
-19.5701790347
 10
60.6285667879
 20
-19.6603439321
 10
60.5855731327
 20
-19.7505385076
 10
60.5437194169
 20
-19.8407304181
 10
60.5030206489
 20
-19.9308873215
 10
60.4634914231
 20
-20.0209768882
 10
60.4251459143
 20
-20.1109668127
 10
60.3879978729
 20
-20.2008248252
 10
60.35206062
 20
-20.2905187035
 10
60.3173470424
 20
-20.3800162838
 10
60.283869588
 20
-20.4692854731
 10
60.2516402618
 20
-20.5582942601
 10
60.2206706209
 20
-20.6470107268
 10
60.1909717707
 20
-20.7354030602
 10
60.1625543611
 20
-20.8234395635
 10
60.1354285823
 20
-20.9110886674
 10
60.1096041614
 20
-20.9983189416
 10
60.085090359
 20
-21.0850991059
 10
60.0618959653
 20
-21.1713980417
 10
60.0400292979
 20
-21.2571848028
 10
60.0194981979
 20
-21.3424286266
 10
60.0003100276
 20
-21.4270989454
 10
59.9824716677
 20
-21.511165397
 10
59.9659895151
 20
-21.5945978358
 10
59.9508694799
 20
-21.6773663436
 10
59.9371169842
 20
-21.7594412401
 10
59.9247369595
 20
-21.8407930939
 10
59.9137338453
 20
-21.9213927329
 10
59.904111587
 20
-22.0012112546
 10
59.8958736353
 20
-22.0802200367
  0
LINE
  5
2CD
100
AcDbEntity
  8
0
100
AcDbLine
 62
250
  6
CONTINUOUS
 10
64.9577188655
 20
-14.8634510447
 11
63.3579787934
 21
-16.1627775547
  0
LINE
  5
2CE
100
AcDbEntity
  8
0
100
AcDbLine
 62
250
  6
CONTINUOUS
 10
70.5783320816
 20
-23.8553769924
 11
68.6525724988
 21
-24.9802883904
  0
LWPOLYLINE
  5
2CF
100
AcDbEntity
  8
0
100
AcDbPolyline
 62
250
  6
CONTINUOUS
 90
76
 70
0
 10
68.6525724986
 20
-24.9802883902
 10
68.5685861404
 20
-25.0201817336
 10
68.4833369459
 20
-25.0590928142
 10
68.396857027
 20
-25.0970069747
 10
68.3091789595
 20
-25.1339099334
 10
68.2203357704
 20
-25.1697877895
 10
68.1303609257
 20
-25.2046270284
 10
68.0392883176
 20
-25.2384145266
 10
67.9471522518
 20
-25.2711375569
 10
67.8539874345
 20
-25.3027837929
 10
67.7598289598
 20
-25.333341314
 10
67.6647122955
 20
-25.3627986097
 10
67.5686732709
 20
-25.3911445837
 10
67.4717480624
 20
-25.4183685587
 10
67.3739731804
 20
-25.4444602796
 10
67.2753854551
 20
-25.4694099182
 10
67.1760220231
 20
-25.4932080763
 10
67.0759203132
 20
-25.5158457894
 10
66.9751180323
 20
-25.5373145302
 10
66.8736531511
 20
-25.5576062119
 10
66.7715638899
 20
-25.5767131908
 10
66.6688887043
 20
-25.5946282696
 10
66.5656662704
 20
-25.6113446999
 10
66.4619354708
 20
-25.626856185
 10
66.3577353792
 20
-25.6411568818
 10
66.2531052463
 20
-25.6542414035
 10
66.1480844848
 20
-25.6661048214
 10
66.0427126544
 20
-25.6767426667
 10
65.9370294471
 20
-25.6861509322
 10
65.8310746724
 20
-25.694326074
 10
65.7248882418
 20
-25.7012650127
 10
65.6185101541
 20
-25.7069651344
 10
65.5119804805
 20
-25.711424292
 10
65.4053393491
 20
-25.7146408058
 10
65.2986269301
 20
-25.7166134642
 10
65.1918834204
 20
-25.7173415241
 10
65.0851490289
 20
-25.7168247112
 10
64.9784639607
 20
-25.7150632203
 10
64.8718684027
 20
-25.7120577149
 10
64.7654025077
 20
-25.7078093271
 10
64.65910638
 20
-25.7023196571
 10
64.5530200596
 20
-25.695590773
 10
64.4471835079
 20
-25.6876252092
 10
64.3416365918
 20
-25.6784259665
 10
64.2364190694
 20
-25.6679965099
 10
64.1315705746
 20
-25.6563407682
 10
64.0271306022
 20
-25.6434631318
 10
63.9231384932
 20
-25.6293684516
 10
63.8196334201
 20
-25.6140620368
 10
63.7166543715
 20
-25.5975496531
 10
63.6142401383
 20
-25.5798375206
 10
63.5124292983
 20
-25.560932311
 10
63.4112602023
 20
-25.5408411458
 10
63.3107709591
 20
-25.519571593
 10
63.2109994215
 20
-25.4971316644
 10
63.1119831722
 20
-25.473529813
 10
63.0137595089
 20
-25.4487749291
 10
62.9163654312
 20
-25.4228763376
 10
62.8198376259
 20
-25.3958437941
 10
62.7242124537
 20
-25.3676874814
 10
62.6295259352
 20
-25.3384180054
 10
62.5358137374
 20
-25.3080463917
 10
62.4431111604
 20
-25.2765840808
 10
62.3514531237
 20
-25.244042924
 10
62.2608741538
 20
-25.2104351791
 10
62.1714083703
 20
-25.1757735057
 10
62.0830894737
 20
-25.1400709603
 10
61.9959507324
 20
-25.1033409916
 10
61.9100249703
 20
-25.0655974351
 10
61.8253445545
 20
-25.0268545084
 10
61.7419413827
 20
-24.9871268053
 10
61.6598468718
 20
-24.9464292907
 10
61.5790919455
 20
-24.9047772947
 10
61.4997070231
 20
-24.862186507
 10
61.4217220076
 20
-24.818672971
 10
61.345166275
 20
-24.7742530776
  0
LINE
  5
2D0
100
AcDbEntity
  8
0
100
AcDbLine
 62
250
  6
CONTINUOUS
 10
61.3451662747
 20
-24.7742530777
 11
61.3544246095
 21
-27.0297087115
  0
LINE
  5
2D1
100
AcDbEntity
  8
0
100
AcDbLine
 62
250
  6
CONTINUOUS
 10
61.3544246095
 20
-27.0297087115
 11
61.3628610433
 21
-29.2628096306
  0
LINE
  5
2D2
100
AcDbEntity
  8
0
100
AcDbLine
 62
250
  6
CONTINUOUS
 10
61.3628610433
 20
-29.2628096306
 11
61.3704776964
 21
-31.4734041511
  0
LINE
  5
2D3
100
AcDbEntity
  8
0
100
AcDbLine
 62
250
  6
CONTINUOUS
 10
61.3704776964
 20
-31.4734041511
 11
61.3772796517
 21
-33.6612481126
  0
LINE
  5
2D4
100
AcDbEntity
  8
0
100
AcDbLine
 62
250
  6
CONTINUOUS
 10
61.3772796517
 20
-33.6612481126
 11
61.3835794408
 21
-35.9490873007
  0
LINE
  5
2D5
100
AcDbEntity
  8
0
100
AcDbLine
 62
250
  6
CONTINUOUS
 10
61.3835794408
 20
-35.9490873007
 11
61.388457036
 21
-37.9687895757
  0
LINE
  5
2D6
100
AcDbEntity
  8
0
100
AcDbLine
 62
250
  6
CONTINUOUS
 10
61.388457036
 20
-37.9687895757
 11
61.392839247
 21
-40.0883445519
  0
LINE
  5
2D7
100
AcDbEntity
  8
0
100
AcDbLine
 62
250
  6
CONTINUOUS
 10
61.392839247
 20
-40.0883445519
 11
61.3965026775
 21
-42.2415842014
  0
LINE
  5
2D8
100
AcDbEntity
  8
0
100
AcDbLine
 62
250
  6
CONTINUOUS
 10
61.3965026775
 20
-42.2415842014
 11
61.3992915317
 21
-44.3403093705
  0
LINE
  5
2D9
100
AcDbEntity
  8
0
100
AcDbLine
 62
250
  6
CONTINUOUS
 10
61.3992915317
 20
-44.3403093705
 11
61.4013279237
 21
-46.5084471276
  0
LINE
  5
2DA
100
AcDbEntity
  8
0
100
AcDbLine
 62
250
  6
CONTINUOUS
 10
61.4013279237
 20
-46.5084471276
 11
61.4023836479
 21
-48.3367862775
  0
LINE
  5
2DB
100
AcDbEntity
  8
0
100
AcDbLine
 62
250
  6
CONTINUOUS
 10
61.4023836479
 20
-48.3367862775
 11
61.4027670993
 21
-50.4765054386
  0
LINE
  5
2DC
100
AcDbEntity
  8
0
100
AcDbLine
 62
250
  6
CONTINUOUS
 10
61.4027670993
 20
-50.4765054386
 11
61.4023836493
 21
-52.322177288
  0
LINE
  5
2DD
100
AcDbEntity
  8
0
100
AcDbLine
 62
250
  6
CONTINUOUS
 10
61.4023836493
 20
-52.322177288
 11
61.4011917107
 21
-54.2799409422
  0
LINE
  5
2DE
100
AcDbEntity
  8
0
100
AcDbLine
 62
250
  6
CONTINUOUS
 10
61.4011917107
 20
-54.2799409422
 11
61.3992046917
 21
-56.2143052781
  0
LINE
  5
2DF
100
AcDbEntity
  8
0
100
AcDbLine
 62
250
  6
CONTINUOUS
 10
61.3992046917
 20
-56.2143052781
 11
61.3964214978
 21
-58.1251612791
  0
LINE
  5
2E0
100
AcDbEntity
  8
0
100
AcDbLine
 62
250
  6
CONTINUOUS
 10
61.3964214978
 20
-58.1251612791
 11
61.392839248
 21
-60.0124804974
  0
LINE
  5
2E1
100
AcDbEntity
  8
0
100
AcDbLine
 62
250
  6
CONTINUOUS
 10
61.392839248
 20
-60.0124804974
 11
61.3884570369
 21
-61.876174276
  0
LINE
  5
2E2
100
AcDbEntity
  8
0
100
AcDbLine
 62
250
  6
CONTINUOUS
 10
61.3884570369
 20
-61.876174276
 11
61.383271826
 21
-63.7161475219
  0
LINE
  5
2E3
100
AcDbEntity
  8
0
100
AcDbLine
 62
250
  6
CONTINUOUS
 10
61.383271826
 20
-63.7161475219
 11
61.3772796535
 21
-65.5323051406
  0
LINE
  5
2E4
100
AcDbEntity
  8
0
100
AcDbLine
 62
250
  6
CONTINUOUS
 10
61.3772796535
 20
-65.5323051406
 11
61.3704776979
 21
-67.3245631049
  0
LINE
  5
2E5
100
AcDbEntity
  8
0
100
AcDbLine
 62
250
  6
CONTINUOUS
 10
61.3704776979
 20
-67.3245631049
 11
61.3628610436
 21
-69.0929301714
  0
LINE
  5
2E6
100
AcDbEntity
  8
0
100
AcDbLine
 62
250
  6
CONTINUOUS
 10
61.3628610436
 20
-69.0929301714
 11
61.3544246101
 21
-70.8371696156
  0
LINE
  5
2E7
100
AcDbEntity
  8
0
100
AcDbLine
 62
250
  6
CONTINUOUS
 10
61.3544246101
 20
-70.8371696156
 11
61.3451662747
 21
-72.5571303469
  0
LWPOLYLINE
  5
2E8
100
AcDbEntity
  8
0
100
AcDbPolyline
 62
250
  6
CONTINUOUS
 90
85
 70
0
 10
61.3451662747
 20
-72.5571303469
 10
61.3447861409
 20
-72.5811982277
 10
61.3439214612
 20
-72.6048562848
 10
61.3425722108
 20
-72.6281045376
 10
61.3407378384
 20
-72.6509500944
 10
61.338418848
 20
-72.6733858844
 10
61.3356167884
 20
-72.6953906656
 10
61.3323311786
 20
-72.7169639722
 10
61.3285624331
 20
-72.7381063229
 10
61.324313427
 20
-72.7587979663
 10
61.3195836741
 20
-72.7790385255
 10
61.314373578
 20
-72.7988284434
 10
61.3086873321
 20
-72.8181492114
 10
61.3025244416
 20
-72.8370004589
 10
61.2958853035
 20
-72.8553826349
 10
61.2887754327
 20
-72.8732784728
 10
61.2811943308
 20
-72.8906875835
 10
61.2731423841
 20
-72.9076104459
 10
61.26462642
 20
-72.9240311078
 10
61.2556459384
 20
-72.939949167
 10
61.2462013142
 20
-72.955365126
 10
61.2363006719
 20
-72.9702644008
 10
61.225943514
 20
-72.9846465766
 10
61.2151302011
 20
-72.998512178
 10
61.2038701316
 20
-73.0118480409
 10
61.1921628065
 20
-73.0246537452
 10
61.1800085777
 20
-73.036929829
 10
61.1674181081
 20
-73.0486645753
 10
61.1543909058
 20
-73.0598575511
 10
61.140927307
 20
-73.0705093145
 10
61.1270392044
 20
-73.080609645
 10
61.1127261102
 20
-73.0901581028
 10
61.0979883498
 20
-73.0991552583
 10
61.0828390248
 20
-73.1075924145
 10
61.0672776596
 20
-73.1154691221
 10
61.0513045625
 20
-73.1227859653
 10
61.0349340017
 20
-73.1295358054
 10
61.0181655085
 20
-73.1357181876
 10
61.000999381
 20
-73.1413337043
 10
60.9834510292
 20
-73.1463767941
 10
60.9655200016
 20
-73.1508469946
 10
60.9472065777
 20
-73.1547449068
 10
60.9285272579
 20
-73.1580665703
 10
60.9094816018
 20
-73.1608115181
 10
60.8900698784
 20
-73.1629803556
 10
60.8703096453
 20
-73.1645707354
 10
60.8502004835
 20
-73.1655821855
 10
60.8297426431
 20
-73.1660153143
 10
60.8089546804
 20
-73.1658693986
 10
60.7878361917
 20
-73.1651439628
 10
60.7663874161
 20
-73.1638396153
 10
60.7446278712
 20
-73.1619572618
 10
60.7225571788
 20
-73.1594964241
 10
60.7001755588
 20
-73.1564577081
 10
60.6775034231
 20
-73.1528436471
 10
60.6545404137
 20
-73.1486537612
 10
60.6312867384
 20
-73.1438886518
 10
60.6077636566
 20
-73.1385524754
 10
60.5839708382
 20
-73.1326447522
 10
60.5599084727
 20
-73.1261660756
 10
60.5355985981
 20
-73.1191222131
 10
60.5110409053
 20
-73.1115126831
 10
60.4862355742
 20
-73.1033380716
 10
60.4612053775
 20
-73.0946057477
 10
60.4359500393
 20
-73.0853152321
 10
60.4104697191
 20
-73.0754670981
 10
60.384787844
 20
-73.0650702918
 10
60.358904172
 20
-73.0541243394
 10
60.3328188427
 20
-73.0426297974
 10
60.3065558573
 20
-73.0305971564
 10
60.2801150038
 20
-73.0180259467
 10
60.2534964072
 20
-73.0049167083
 10
60.2267245765
 20
-72.9912814438
 10
60.1997993093
 20
-72.9771196757
 10
60.1727207372
 20
-72.9624319388
 10
60.1455138742
 20
-72.9472317505
 10
60.1181785501
 20
-72.9315186344
 10
60.0907148811
 20
-72.9152931104
 10
60.0631483146
 20
-72.8985701879
 10
60.0354785978
 20
-72.881349313
 10
60.0077059471
 20
-72.8636310689
 10
59.9798565177
 20
-72.8454321667
 10
59.951939022
 20
-72.8267581817
 10
59.9239447294
 20
-72.8076035533
 10
59.8958736353
 20
-72.7879682853
  0
LINE
  5
2E9
100
AcDbEntity
  8
0
100
AcDbLine
 62
250
  6
CONTINUOUS
 10
68.6525724988
 20
-24.9802883904
 11
68.6686925986
 21
-27.2415856488
  0
LINE
  5
2EA
100
AcDbEntity
  8
0
100
AcDbLine
 62
250
  6
CONTINUOUS
 10
68.6686925986
 20
-27.2415856488
 11
68.6833923131
 21
-29.4804745939
  0
LINE
  5
2EB
100
AcDbEntity
  8
0
100
AcDbLine
 62
250
  6
CONTINUOUS
 10
68.6833923131
 20
-29.4804745939
 11
68.6966757445
 21
-31.6968036846
  0
LINE
  5
2EC
100
AcDbEntity
  8
0
100
AcDbLine
 62
250
  6
CONTINUOUS
 10
68.6966757445
 20
-31.6968036846
 11
68.7085472765
 21
-33.8903265736
  0
LINE
  5
2ED
100
AcDbEntity
  8
0
100
AcDbLine
 62
250
  6
CONTINUOUS
 10
68.7085472765
 20
-33.8903265736
 11
68.7190120362
 21
-36.0610991066
  0
LINE
  5
2EE
100
AcDbEntity
  8
0
100
AcDbLine
 62
250
  6
CONTINUOUS
 10
68.7190120362
 20
-36.0610991066
 11
68.7280738883
 21
-38.2090555685
  0
LINE
  5
2EF
100
AcDbEntity
  8
0
100
AcDbLine
 62
250
  6
CONTINUOUS
 10
68.7280738883
 20
-38.2090555685
 11
68.7357359114
 21
-40.3341170612
  0
LWPOLYLINE
  5
2F0
100
AcDbEntity
  8
0
100
AcDbPolyline
 62
250
  6
CONTINUOUS
 90
34
 70
0
 10
68.7357359114
 20
-40.3341170612
 10
68.7420006311
 20
-42.4362018398
 10
68.744610089
 20
-43.4785938274
 10
68.7468711915
 20
-44.5152315698
 10
68.7487839673
 20
-45.5461050761
 10
68.750348805
 20
-46.5711919057
 10
68.7515656835
 20
-47.5904893425
 10
68.7524346795
 20
-48.6039772812
 10
68.7529561555
 20
-49.6116434362
 10
68.753130061
 20
-50.6134965061
 10
68.7529561544
 20
-51.6095202103
 10
68.7524346786
 20
-52.5996981417
 10
68.7515656841
 20
-53.584038366
 10
68.7503488066
 20
-54.56252832
 10
68.7487839688
 20
-55.5351475531
 10
68.7468711921
 20
-56.5018919668
 10
68.7446100894
 20
-57.4627393566
 10
68.7420006317
 20
-58.4176789063
 10
68.739042833
 20
-59.3667231935
 10
68.7357359125
 20
-60.3098602091
 10
68.7320795565
 20
-61.2470683986
 10
68.72807389
 20
-62.1783455728
 10
68.7237182192
 20
-63.1036746227
 10
68.7190120381
 20
-64.023038952
 10
68.7139553612
 20
-64.9364368295
 10
68.7085472765
 20
-65.8438447249
 10
68.7027873837
 20
-66.7452523017
 10
68.6966757471
 20
-67.6406770483
 10
68.6902110908
 20
-68.5301193901
 10
68.6833923154
 20
-69.4135441149
 10
68.6762195681
 20
-70.2909150912
 10
68.6686925988
 20
-71.162209029
 10
68.6608104321
 20
-72.0274152215
 10
68.6525724988
 20
-72.8865166786
  0
LWPOLYLINE
  5
2F1
100
AcDbEntity
  8
RACCORDO
100
AcDbPolyline
 62
250
  6
CONTINUOUS
 90
31
 70
0
 10
-56.9270805992
 20
53.5060389216
 10
-56.9034280303
 20
53.5114002718
 10
-56.8797158353
 20
53.5162607854
 10
-56.8559659337
 20
53.5206159693
 10
-56.8322002799
 20
53.5244617977
 10
-56.8084408429
 20
53.5277947154
 10
-56.7847095859
 20
53.5306116415
 10
-56.7610284462
 20
53.5329099719
 10
-56.7374193146
 20
53.5346875822
 10
-56.7139040154
 20
53.5359428292
 10
-56.6905042862
 20
53.5366745523
 10
-56.6672417577
 20
53.5368820753
 10
-56.6441379337
 20
53.5365652064
 10
-56.6212141716
 20
53.5357242383
 10
-56.5984916619
 20
53.5343599486
 10
-56.5759914096
 20
53.5324735984
 10
-56.5537342136
 20
53.5300669313
 10
-56.5317406488
 20
53.5271421722
 10
-56.5100310459
 20
53.5237020247
 10
-56.4886254733
 20
53.5197496688
 10
-56.4675437183
 20
53.5152887582
 10
-56.4468052689
 20
53.5103234164
 10
-56.4264292958
 20
53.5048582335
 10
-56.4064346344
 20
53.4988982615
 10
-56.386839768
 20
53.4924490097
 10
-56.36766281
 20
53.48551644
 10
-56.3489214877
 20
53.4781069606
 10
-56.3306331254
 20
53.470227421
 10
-56.312814629
 20
53.4618851051
 10
-56.2954824698
 20
53.4530877244
 10
-56.2786526699
 20
53.4438434113
  0
LWPOLYLINE
  5
2F2
100
AcDbEntity
  8
0
100
AcDbPolyline
 62
7
  6
CONTINUOUS
 90
85
 70
0
 10
70.5783320816
 20
-23.8553769924
 10
70.5663858878
 20
-23.7494551944
 10
70.5527601229
 20
-23.6426259685
 10
70.5374547871
 20
-23.5348893148
 10
70.5204642621
 20
-23.4262122569
 10
70.5017941661
 20
-23.3166277711
 10
70.4814613538
 20
-23.2062347866
 10
70.4594643238
 20
-23.0950325732
 10
70.4358045775
 20
-22.983021861
 10
70.4105034741
 20
-22.8703037696
 10
70.3835595316
 20
-22.7568776604
 10
70.3549742321
 20
-22.642744172
 10
70.3247733813
 20
-22.5280063401
 10
70.2929555204
 20
-22.412663619
 10
70.2595221083
 20
-22.2967165545
 10
70.2245033275
 20
-22.1802698197
 10
70.1878977465
 20
-22.0633229635
 10
70.1497067969
 20
-21.9458764371
 10
70.1099649561
 20
-21.8280362671
 10
70.0686708237
 20
-21.709802098
 10
70.0258258
 20
-21.5911742853
 10
69.9814685643
 20
-21.4722599223
 10
69.9355977509
 20
-21.3530587502
 10
69.8882147254
 20
-21.2335710278
 10
69.8393622636
 20
-21.1139046244
 10
69.7890390385
 20
-20.9940593788
 10
69.737246377
 20
-20.8740354523
 10
69.684031036
 20
-20.7539411984
 10
69.6293917305
 20
-20.6337765537
 10
69.5733297454
 20
-20.5135415816
 10
69.5158956915
 20
-20.3933448262
 10
69.4570883298
 20
-20.2731863221
 10
69.3969088992
 20
-20.1530660346
 10
69.3354117279
 20
-20.0330924044
 10
69.2725956257
 20
-19.9132655639
 10
69.2084617827
 20
-19.7935853806
 10
69.1430680967
 20
-19.6741598977
 10
69.07641343
 20
-19.5549893453
 10
69.0084989204
 20
-19.4360734933
 10
68.9393858787
 20
-19.317519695
 10
68.8690732227
 20
-19.1993282774
 10
68.7975620345
 20
-19.0814989133
 10
68.7249168722
 20
-18.9641379753
 10
68.6511367117
 20
-18.8472458863
 10
68.576222577
 20
-18.7308222233
 10
68.5002420981
 20
-18.6149720897
 10
68.423194312
 20
-18.4996960034
 10
68.3450801817
 20
-18.3849934464
 10
68.2659702259
 20
-18.2709679683
 10
68.1858635454
 20
-18.1576201807
 10
68.1047610395
 20
-18.0449494719
 10
68.0227359247
 20
-17.9330575575
 10
67.939787368
 20
-17.8219451405
 10
67.8559162023
 20
-17.7116115178
 10
67.7711981439
 20
-17.6021562948
 10
67.6856324279
 20
-17.4935802647
 10
67.5992198192
 20
-17.3858826343
 10
67.512038328
 20
-17.2791606294
 10
67.42408726
 20
-17.173415131
 10
67.3353673096
 20
-17.0686452581
 10
67.2459585702
 20
-16.9649455933
 10
67.1558604197
 20
-16.8623171032
 10
67.0650734802
 20
-16.7607588212
 10
66.973679711
 20
-16.6603624308
 10
66.8816785641
 20
-16.5611289812
 10
66.7890705874
 20
-16.463057423
 10
66.6959393845
 20
-16.3662362921
 10
66.6022844829
 20
-16.2706667177
 10
66.5081063549
 20
-16.1763475706
 10
66.4134900214
 20
-16.0833639989
 10
66.3184350866
 20
-15.9917172084
 10
66.2229419463
 20
-15.9014059933
 10
66.1270968084
 20
-15.8125118835
 10
66.0308993553
 20
-15.7250361589
 10
65.9343499047
 20
-15.6389775395
 10
65.8375356182
 20
-15.5544137162
 10
65.7404562563
 20
-15.4713460387
 10
65.6431120585
 20
-15.3897731572
 10
65.5455909039
 20
-15.3097687131
 10
65.4478926326
 20
-15.2313341228
 10
65.3500174045
 20
-15.1544679699
 10
65.2520535779
 20
-15.0792396464
 10
65.1540306056
 20
-15.005672283
 10
65.0559190348
 20
-14.9337427491
 10
64.9577188655
 20
-14.8634510447
  0
LWPOLYLINE
  5
2F3
100
AcDbEntity
  8
RACCORDO
100
AcDbPolyline
 62
7
  6
CONTINUOUS
 90
19
 70
0
 10
71.8740163891
 20
-43.5612796147
 10
71.8458545253
 20
-42.4950189641
 10
71.8125320873
 20
-41.4253090753
 10
71.7740490753
 20
-40.3521499483
 10
71.7304042835
 20
-39.275514427
 10
71.6815989176
 20
-38.1954296675
 10
71.6276365941
 20
-37.1119771381
 10
71.568516959
 20
-36.0251574813
 10
71.5042403662
 20
-34.9349700546
 10
71.434811494
 20
-33.841494398
 10
71.3602299596
 20
-32.7447301875
 10
71.2804961457
 20
-31.644677747
 10
71.1956158788
 20
-30.541417589
 10
71.1055888171
 20
-29.4349498322
 10
71.0104153024
 20
-28.3252743579
 10
70.9101021863
 20
-27.2124713212
 10
70.8046517528
 20
-26.0965674406
 10
70.6940617179
 20
-24.9775359977
 10
70.5783320816
 20
-23.8553769924
  0
LWPOLYLINE
  5
2F4
100
AcDbEntity
  8
RACCORDO
100
AcDbPolyline
 62
7
  6
CONTINUOUS
 90
24
 70
0
 10
71.8740163891
 20
-53.9295002914
 10
71.8741961916
 20
-53.9106416064
 10
71.8737877213
 20
-53.892132003
 10
71.8727916634
 20
-53.8739854966
 10
71.8712092562
 20
-53.8562160992
 10
71.8690418329
 20
-53.8388368882
 10
71.8662907587
 20
-53.8218600478
 10
71.8629581103
 20
-53.8052982721
 10
71.8590466204
 20
-53.7891640756
 10
71.8545591092
 20
-53.7734689588
 10
71.8494987474
 20
-53.758224564
 10
71.843869384
 20
-53.7434424336
 10
71.8376753291
 20
-53.7291334675
 10
71.8309208842
 20
-53.7153082919
 10
71.8236109687
 20
-53.701977276
 10
71.8157512859
 20
-53.6891504524
 10
71.8073471605
 20
-53.6768372396
 10
71.7984046108
 20
-53.6650469287
 10
71.7889308432
 20
-53.653788845
 10
71.7789323279
 20
-53.6430712959
 10
71.7684160455
 20
-53.6329022262
 10
71.7573904119
 20
-53.6232898821
 10
71.7458633531
 20
-53.6142416329
 10
71.7402060973
 20
-53.6101372553
  0
LWPOLYLINE
  5
2F5
100
AcDbEntity
  8
0
100
AcDbPolyline
 62
250
  6
CONTINUOUS
 90
34
 70
0
 10
68.6525724988
 20
-72.8865166786
 10
68.6439698121
 20
-72.9711315533
 10
68.6337212863
 20
-73.0543770788
 10
68.6218309365
 20
-73.1362275768
 10
68.6083041504
 20
-73.2166573184
 10
68.5931450538
 20
-73.295641968
 10
68.5763565146
 20
-73.3731585806
 10
68.5579446111
 20
-73.4491832045
 10
68.5379157344
 20
-73.5236923826
 10
68.5162739714
 20
-73.5966645849
 10
68.4930267474
 20
-73.6680772535
 10
68.4681820478
 20
-73.7379083415
 10
68.4417455383
 20
-73.8061377887
 10
68.4137261389
 20
-73.8727445015
 10
68.3841332157
 20
-73.9377078753
 10
68.352973827
 20
-74.0010093127
 10
68.3202582897
 20
-74.0626292284
 10
68.2859974107
 20
-74.1225485417
 10
68.2501996975
 20
-74.1807501737
 10
68.2128768723
 20
-74.237216092
 10
68.1740411167
 20
-74.2919288025
 10
68.1337023255
 20
-74.3448728222
 10
68.0918735835
 20
-74.3960317243
 10
68.0485684229
 20
-74.4453896452
 10
68.0037980865
 20
-74.4929327528
 10
67.9575769651
 20
-74.5386462907
 10
67.9099199179
 20
-74.5825160408
 10
67.8608395481
 20
-74.6245298064
 10
67.8103515423
 20
-74.6646745155
 10
67.7584720222
 20
-74.7029376677
 10
67.7052148795
 20
-74.7393087684
 10
67.6505970284
 20
-74.7737764827
 10
67.5946358294
 20
-74.8063300384
 10
67.5717452989
 20
-74.8188853847
  0
LWPOLYLINE
  5
2F6
100
AcDbEntity
  8
RACCORDO
100
AcDbPolyline
 62
7
  6
CONTINUOUS
 90
19
 70
0
 10
70.5783320816
 20
-71.8030285934
 10
70.6940617179
 20
-70.8445360093
 10
70.8046517528
 20
-69.8819024936
 10
70.9101021863
 20
-68.9151280463
 10
71.0104153024
 20
-67.9441891788
 10
71.1055888171
 20
-66.9691093798
 10
71.1956158788
 20
-65.9899591148
 10
71.2804961457
 20
-65.0067377813
 10
71.3602299596
 20
-64.0194459818
 10
71.434811494
 20
-63.0281559887
 10
71.5042403662
 20
-62.0328675848
 10
71.568516959
 20
-61.0335809873
 10
71.6276365941
 20
-60.0303691204
 10
71.6815989176
 20
-59.0232308407
 10
71.7304042835
 20
-58.0121672916
 10
71.7740490753
 20
-56.9972548267
 10
71.8125320873
 20
-55.9785188973
 10
71.8458545253
 20
-54.9559340522
 10
71.8740163891
 20
-53.9295002914
  0
LWPOLYLINE
  5
2F7
100
AcDbEntity
  8
RACCORDO
100
AcDbPolyline
 62
7
  6
CONTINUOUS
 90
24
 70
0
 10
71.7338423606
 20
-44.0705493965
 10
71.7458633531
 20
-44.0473937056
 10
71.7573904119
 20
-44.0242113195
 10
71.7684160455
 20
-44.0010207305
 10
71.7789323279
 20
-43.9778390275
 10
71.7889308432
 20
-43.9546818895
 10
71.7984046108
 20
-43.9315667829
 10
71.8073471605
 20
-43.908511516
 10
71.8157512859
 20
-43.885532188
 10
71.8236109687
 20
-43.8626462271
 10
71.8309208842
 20
-43.8398709564
 10
71.8376753291
 20
-43.8172221809
 10
71.843869384
 20
-43.7947168522
 10
71.8494987474
 20
-43.7723720543
 10
71.8545591092
 20
-43.7502036124
 10
71.8590466204
 20
-43.7282281319
 10
71.8629581103
 20
-43.7064621194
 10
71.8662907587
 20
-43.6849210351
 10
71.8690418329
 20
-43.6636208771
 10
71.8712092562
 20
-43.6425776575
 10
71.8727916634
 20
-43.6218066049
 10
71.8737877213
 20
-43.6013230535
 10
71.8741961916
 20
-43.5811423953
 10
71.8740163891
 20
-43.5612796147
  0
LWPOLYLINE
  5
2F8
100
AcDbEntity
  8
0
100
AcDbPolyline
 62
250
  6
CONTINUOUS
 90
76
 70
0
 10
68.6525724954
 20
-72.8865166751
 10
68.5685861373
 20
-72.938952785
 10
68.4833369428
 20
-72.9900725996
 10
68.3968570239
 20
-73.0398568629
 10
68.3091789565
 20
-73.0882868219
 10
68.2203357675
 20
-73.1353442337
 10
68.1303609228
 20
-73.1810113726
 10
68.0392883148
 20
-73.2252710363
 10
67.947152249
 20
-73.2681065528
 10
67.8539874319
 20
-73.3095017868
 10
67.7598289572
 20
-73.3494411451
 10
67.664712293
 20
-73.3879095833
 10
67.5686732685
 20
-73.4248926107
 10
67.47174806
 20
-73.4603762966
 10
67.373973178
 20
-73.4943472746
 10
67.2753854528
 20
-73.5267927484
 10
67.1760220209
 20
-73.5577004962
 10
67.0759203111
 20
-73.5870588756
 10
66.9751180302
 20
-73.6148568278
 10
66.8736531491
 20
-73.6410838815
 10
66.7715638879
 20
-73.6657301575
 10
66.6688887023
 20
-73.6887863719
 10
66.5656662686
 20
-73.7102438397
 10
66.461935469
 20
-73.7300944782
 10
66.3577353775
 20
-73.74833081
 10
66.2531052446
 20
-73.7649459657
 10
66.1480844832
 20
-73.7799336866
 10
66.0427126528
 20
-73.7932883271
 10
65.9370294457
 20
-73.8050048567
 10
65.831074671
 20
-73.8150788619
 10
65.7248882404
 20
-73.823506548
 10
65.6185101528
 20
-73.8302847404
 10
65.5119804793
 20
-73.8354108859
 10
65.4053393479
 20
-73.8388830535
 10
65.298626929
 20
-73.8406999353
 10
65.1918834194
 20
-73.8408608469
 10
65.0851490279
 20
-73.8393657278
 10
64.9784639598
 20
-73.836215141
 10
64.8718684018
 20
-73.8314102734
 10
64.7654025069
 20
-73.8249529349
 10
64.6591063792
 20
-73.8168455578
 10
64.5530200589
 20
-73.8070911962
 10
64.4471835072
 20
-73.7956935243
 10
64.3416365912
 20
-73.7826568355
 10
64.2364190688
 20
-73.7679860405
 10
64.131570574
 20
-73.7516866655
 10
64.0271306017
 20
-73.7337648504
 10
63.9231384928
 20
-73.714227346
 10
63.8196334196
 20
-73.6930815117
 10
63.7166543711
 20
-73.670335313
 10
63.6142401379
 20
-73.6459973179
 10
63.512429298
 20
-73.6200766943
 10
63.411260202
 20
-73.5925832061
 10
63.3107709588
 20
-73.5635272096
 10
63.2109994213
 20
-73.5329196499
 10
63.1119831719
 20
-73.5007720562
 10
63.0137595087
 20
-73.4670965383
 10
62.916365431
 20
-73.4319057811
 10
62.8198376257
 20
-73.3952130406
 10
62.7242124536
 20
-73.3570321382
 10
62.6295259351
 20
-73.3173774562
 10
62.5358137373
 20
-73.276263932
 10
62.4431111602
 20
-73.2337070524
 10
62.3514531236
 20
-73.189722848
 10
62.2608741537
 20
-73.1443278869
 10
62.1714083702
 20
-73.0975392688
 10
62.0830894735
 20
-73.0493746182
 10
61.9959507323
 20
-72.9998520782
 10
61.9100249702
 20
-72.9489903031
 10
61.8253445544
 20
-72.8968084518
 10
61.7419413826
 20
-72.8433261804
 10
61.6598468717
 20
-72.7885636349
 10
61.5790919454
 20
-72.7325414436
 10
61.4997070229
 20
-72.6752807093
 10
61.4217220074
 20
-72.6168030011
 10
61.3451662748
 20
-72.5571303468
  0
LINE
  5
2F9
100
AcDbEntity
  8
0
100
AcDbLine
 62
250
  6
CONTINUOUS
 10
70.5783320816
 20
-71.8030285934
 11
68.6525724988
 21
-72.8865166786
  0
LWPOLYLINE
  5
2FA
100
AcDbEntity
  8
0
100
AcDbPolyline
 62
7
  6
CONTINUOUS
 90
34
 70
0
 10
69.3698307333
 20
-73.8494227813
 10
69.3969088992
 20
-73.8345548638
 10
69.4570883298
 20
-73.7995411431
 10
69.5158956915
 20
-73.7625488075
 10
69.5733297454
 20
-73.7235760701
 10
69.6293917305
 20
-73.6826247177
 10
69.684031036
 20
-73.6397317198
 10
69.737246377
 20
-73.594895323
 10
69.7890390385
 20
-73.5481172807
 10
69.8393622636
 20
-73.4994398225
 10
69.8882147254
 20
-73.4488612333
 10
69.9355977509
 20
-73.3963832281
 10
69.9814685643
 20
-73.3420531825
 10
70.0258258
 20
-73.2858694238
 10
70.0686708237
 20
-73.2278336246
 10
70.1099649561
 20
-73.1679981777
 10
70.1497067969
 20
-73.1063614579
 10
70.1878977465
 20
-73.0429250904
 10
70.2245033275
 20
-72.9777463434
 10
70.2595221083
 20
-72.9108236433
 10
70.2929555204
 20
-72.8421585636
 10
70.3247733813
 20
-72.7718130929
 10
70.3549742321
 20
-72.6997857138
 10
70.3835595316
 20
-72.6260779437
 10
70.4105034741
 20
-72.5507563234
 10
70.4358045775
 20
-72.4738193955
 10
70.4594643238
 20
-72.3952686174
 10
70.4814613538
 20
-72.3151749022
 10
70.5017941661
 20
-72.2335368565
 10
70.5204642621
 20
-72.1503558738
 10
70.5374547871
 20
-72.0657070468
 10
70.5527601229
 20
-71.9796154065
 10
70.5663858878
 20
-71.8920559221
 10
70.5783320816
 20
-71.8030285934
  0
LINE
  5
2FB
100
AcDbEntity
  8
0
100
AcDbLine
 62
7
  6
CONTINUOUS
 10
69.3698228217
 20
-73.849427047
 11
67.5717453241
 21
-74.8188853712
  0
ARC
  5
2FC
100
AcDbEntity
  8
RACCORDO
100
AcDbCircle
 62
7
  6
CONTINUOUS
 10
-55.1358351883
 20
30.7065344366
 40
0.5
100
AcDbArc
 50
54.735607558
 51
120.8312015495
  0
ARC
  5
2FD
100
AcDbEntity
  8
RACCORDO
100
AcDbCircle
 62
7
  6
CONTINUOUS
 10
-54.5830464677
 20
30.3156537837
 40
0.5
100
AcDbArc
 50
0.0002402785
 51
54.7356103172
  0
ARC
  5
2FE
100
AcDbEntity
  8
RACCORDO
100
AcDbCircle
 62
7
  6
CONTINUOUS
 10
-54.5830464677
 20
42.6308596603
 40
0.5
100
AcDbArc
 50
305.7454930882
 51
360.0
  0
ENDSEC
  0
SECTION
  2
OBJECTS
  0
DICTIONARY
  5
C
100
AcDbDictionary
280
0
281
1
  3
ACAD_GROUP
350
D
  3
ACAD_MLINESTYLE
350
17
  3
ACAD_LAYOUT
350
1A
  3
ACAD_PLOTSETTINGS
350
19
  3
ACAD_PLOTSTYLENAME
350
E
  0
DICTIONARY
  5
D
102
{ACAD_REACTORS
330
C
102
}
100
AcDbDictionary
280
0
281
1
  0
ACDBDICTIONARYWDFLT
  5
E
102
{ACAD_REACTORS
330
C
102
}
100
AcDbDictionary
281
1
  3
Normal
350
F
100
AcDbDictionaryWithDefault
340
F
  0
DICTIONARY
  5
17
102
{ACAD_REACTORS
330
C
102
}
100
AcDbDictionary
280
0
281
1
  3
Standard
350
18
  0
DICTIONARY
  5
19
102
{ACAD_REACTORS
330
C
102
}
100
AcDbDictionary
281
1
  0
DICTIONARY
  5
1A
102
{ACAD_REACTORS
330
C
102
}
100
AcDbDictionary
281
1
  3
Model
350
2FF
  3
Layout1
350
300
  0
ACDBPLACEHOLDER
  5
F
102
{ACAD_REACTORS
330
E
102
}
  0
MLINESTYLE
  5
18
102
{ACAD_REACTORS
330
17
102
}
100
AcDbMlineStyle
  2
STANDARD
 70
0
  3

 62
256
 51
90.0
 52
90.0
 71
2
 49
0.5
 62
256
  6
BYLAYER
 49
-0.5
 62
256
  6
BYLAYER
  0
LAYOUT
  5
2FF
102
{ACAD_REACTORS
330
1A
102
}
100
AcDbPlotSettings
  1

  2
none_device
  4
ISO_A4_(297.00_x_210.00_MM)
  6

 40
0.0
 41
0.0
 42
0.0
 43
0.0
 44
297.0
 45
210.0
 46
0.0
 47
0.0
 48
0.0
 49
0.0
140
0.0
141
0.0
142
1.0
143
1.0
 70
1024
 72
1
 73
0
 74
0
  7

 75
0
147
1.0
148
0.0
149
0.0
100
AcDbLayout
  1
Model
 70
0
 71
0
 10
0.0
 20
0.0
 11
297.0
 21
210.0
 12
0.0
 22
0.0
 32
0.0
 14
0.0
 24
0.0
 34
0.0
 15
0.0
 25
0.0
 35
0.0
146
0.0
 13
0.0
 23
0.0
 33
0.0
 16
1.0
 26
0.0
 36
0.0
 17
0.0
 27
1.0
 37
0.0
 76
0
330
216
345
0
346
0
  0
LAYOUT
  5
300
102
{ACAD_REACTORS
330
1A
102
}
100
AcDbPlotSettings
  1

  2
none_device
  4
ISO_A4_(297.00_x_210.00_MM)
  6

 40
0.0
 41
0.0
 42
0.0
 43
0.0
 44
297.0
 45
210.0
 46
0.0
 47
0.0
 48
0.0
 49
0.0
140
0.0
141
0.0
142
1.0
143
1.0
 70
0
 72
1
 73
0
 74
0
  7

 75
0
147
1.0
148
0.0
149
0.0
100
AcDbLayout
  1
Layout1
 70
0
 71
1
 10
0.0
 20
0.0
 11
297.0
 21
210.0
 12
0.0
 22
0.0
 32
0.0
 14
0.0
 24
0.0
 34
0.0
 15
0.0
 25
0.0
 35
0.0
146
0.0
 13
0.0
 23
0.0
 33
0.0
 16
1.0
 26
0.0
 36
0.0
 17
0.0
 27
1.0
 37
0.0
 76
0
330
217
345
0
346
0
  0
ENDSEC
  0
EOF
