  0
SECTION
  2
HEADER
  9
$ACADVER
  1
AC1024
  9
$DWGCODEPAGE
  3
ANSI_1252
  9
$EXTMAX
 10
297.0
 20
210.0
 30
0.0
  9
$EXTMIN
 10
0.0
 20
0.0
 30
0.0
  9
$LIMMIN
 10
0.0
 20
0.0
  9
$LIMMAX
 10
297.0
 20
210.0
  9
$VIEWCTR
 10
148.5
 20
105.0
  9
$VIEWSIZE
 40
210.0
  9
$CLAYER
  8
0
  9
$LTSCALE
 40
16.335
  9
$CELTYPE
  6
BYLAYER
  9
$DIMSCALE
 40
1.0
  9
$DIMASZ
 40
3.0
  9
$DIMEXO
 40
0.5
  9
$DIMDLI
 40
11.286
  9
$DIMEXE
 40
1.5
  9
$DIMCEN
 40
2.673
  9
$DIMLFAC
 40
1.0
  9
$DIMBLK
  1
_FILLED
  9
$DIMALT
 70
0
  9
$DIMALTF
 40
0.0393700787
  9
$DIMTXT
 40
3.0
  9
$DIMTOL
 70
1
  9
$DIMLIM
 70
0
  9
$DIMTFAC
 40
1.0
  9
$DIMTP
 40
0.01
  9
$DIMTM
 40
0.01
  9
$DIMGAP
 40
0.625
  9
$DIMDSEP
 70
44
  9
$AUNITS
 70
0
  9
$PDMODE
 70
3
  9
$PDSIZE
 40
3.0
  9
$HANDSEED
  5
302
  9
$TILEMODE
 70
1
  9
$MEASUREMENT
 70
1
  9
$INSUNITS
 70
4
  0
ENDSEC
  0
SECTION
  2
CLASSES
  0
CLASS
  1
ACDBDICTIONARYWDFLT
  2
AcDbDictionaryWithDefault
  3
AutoCAD 2000
 90
0
 91
1
280
0
281
0
  0
CLASS
  1
ACDBPLACEHOLDER
  2
AcDbPlaceHolder
  3
AutoCAD 2000
 90
0
 91
1
280
0
281
0
  0
CLASS
  1
LAYOUT
  2
AcDbLayout
  3
AutoCAD 2000
 90
0
 91
0
280
0
281
0
  0
ENDSEC
  0
SECTION
  2
TABLES
  0
TABLE
  2
VPORT
  5
8
100
AcDbSymbolTable
 70
2
  0
VPORT
  5
1F4
100
AcDbSymbolTableRecord
100
AcDbViewportTableRecord
  2
*ACTIVE
 70
0
 10
0.0
 20
0.0
 11
1.0
 21
1.0
 12
148.5
 22
105.0
 13
0.0
 23
0.0
 14
1.0
 24
1.0
 15
0.0
 25
0.0
 16
0.0
 26
0.0
 36
1.0
 17
0.0
 27
0.0
 37
0.0
 40
210.0
 41
1.4142857143
 42
50.0
 43
0.0
 44
0.0
 50
0.0
 51
0.0
 71
0
 72
100
 73
1
 74
1
 75
0
 76
0
 77
0
 78
0
  0
ENDTAB
  0
TABLE
  2
LTYPE
  5
5
100
AcDbSymbolTable
 70
6
  0
LTYPE
  5
14
100
AcDbSymbolTableRecord
100
AcDbLinetypeTableRecord
  2
BYBLOCK
 70
0
  3

 72
65
 73
0
 40
0.0
  0
LTYPE
  5
15
100
AcDbSymbolTableRecord
100
AcDbLinetypeTableRecord
  2
BYLAYER
 70
0
  3

 72
65
 73
0
 40
0.0
  0
LTYPE
  5
16
100
AcDbSymbolTableRecord
100
AcDbLinetypeTableRecord
  2
CONTINUOUS
 70
64
  3
Solid line
 72
65
 73
0
 40
0.0
  0
LTYPE
  5
1F5
100
AcDbSymbolTableRecord
100
AcDbLinetypeTableRecord
  2
CENTER
 70
64
  3
____ _ ____ _ ____ _ ____ _ ____ _ ____ _ ____
 72
65
 73
4
 40
0.6
 49
0.375
 74
0
 49
-0.075
 74
0
 49
0.075
 74
0
 49
-0.075
 74
0
  0
LTYPE
  5
1F6
100
AcDbSymbolTableRecord
100
AcDbLinetypeTableRecord
  2
HIDDEN
 70
64
  3
- - - - - - - - - - - - - - - - - - - -
 72
65
 73
2
 40
0.2
 49
0.1
 74
0
 49
-0.1
 74
0
  0
LTYPE
  5
1F7
100
AcDbSymbolTableRecord
100
AcDbLinetypeTableRecord
  2
PHANTOM
 70
64
  3
_____ _ _ _____ _ _ _____ _ _ _____
 72
65
 73
6
 40
0.8
 49
0.45
 74
0
 49
-0.05
 74
0
 49
0.1
 74
0
 49
-0.05
 74
0
 49
0.1
 74
0
 49
-0.05
 74
0
  0
LTYPE
  5
1F8
100
AcDbSymbolTableRecord
100
AcDbLinetypeTableRecord
  2
DOT
 70
64
  3
. . . . . . . . . . . . . . . . . . . .
 72
65
 73
2
 40
0.2
 49
0.1
 74
0
 49
-0.1
 74
0
  0
LTYPE
  5
1F9
100
AcDbSymbolTableRecord
100
AcDbLinetypeTableRecord
  2
DASHED
 70
64
  3
- - - - - - - - - - - - - - - - - - - -
 72
65
 73
2
 40
0.2
 49
0.1
 74
0
 49
-0.1
 74
0
  0
ENDTAB
  0
TABLE
  2
LAYER
  5
2
100
AcDbSymbolTable
 70
36
  0
LAYER
  5
10
100
AcDbSymbolTableRecord
100
AcDbLayerTableRecord
  2
0
 70
0
 62
7
  6
CONTINUOUS
370
-3
390
F
  0
LAYER
  5
1FA
100
AcDbSymbolTableRecord
100
AcDbLayerTableRecord
  2
DEFAULT_1
 70
0
 62
7
  6
CENTER
370
-3
390
F
  0
LAYER
  5
1FB
100
AcDbSymbolTableRecord
100
AcDbLayerTableRecord
  2
DEFAULT_2
 70
0
 62
7
  6
HIDDEN
370
-3
390
F
  0
LAYER
  5
1FC
100
AcDbSymbolTableRecord
100
AcDbLayerTableRecord
  2
DEFAULT_3
 70
0
 62
7
  6
PHANTOM
370
-3
390
F
  0
LAYER
  5
1FD
100
AcDbSymbolTableRecord
100
AcDbLayerTableRecord
  2
26216763_GEN
 70
0
 62
7
  6
CONTINUOUS
370
-3
390
F
  0
LAYER
  5
1FE
100
AcDbSymbolTableRecord
100
AcDbLayerTableRecord
  2
ASSI
 70
0
 62
7
  6
CONTINUOUS
370
-3
390
F
  0
LAYER
  5
1FF
100
AcDbSymbolTableRecord
100
AcDbLayerTableRecord
  2
COORDINATE
 70
0
 62
7
  6
CONTINUOUS
370
-3
390
F
  0
LAYER
  5
200
100
AcDbSymbolTableRecord
100
AcDbLayerTableRecord
  2
COORD_ORIGINE
 70
0
 62
7
  6
CONTINUOUS
370
-3
390
F
  0
LAYER
  5
201
100
AcDbSymbolTableRecord
100
AcDbLayerTableRecord
  2
COSMETICI
 70
0
 62
7
  6
CONTINUOUS
370
-3
390
F
  0
LAYER
  5
202
100
AcDbSymbolTableRecord
100
AcDbLayerTableRecord
  2
CURVE
 70
0
 62
7
  6
CONTINUOUS
370
-3
390
F
  0
LAYER
  5
203
100
AcDbSymbolTableRecord
100
AcDbLayerTableRecord
  2
IGES_SCRITTE
 70
0
 62
7
  6
CONTINUOUS
370
-3
390
F
  0
LAYER
  5
204
100
AcDbSymbolTableRecord
100
AcDbLayerTableRecord
  2
INTF_1
 70
0
 62
7
  6
CONTINUOUS
370
-3
390
F
  0
LAYER
  5
205
100
AcDbSymbolTableRecord
100
AcDbLayerTableRecord
  2
INTF_7
 70
0
 62
7
  6
CONTINUOUS
370
-3
390
F
  0
LAYER
  5
206
100
AcDbSymbolTableRecord
100
AcDbLayerTableRecord
  2
NOTE
 70
0
 62
7
  6
CONTINUOUS
370
-3
390
F
  0
LAYER
  5
207
100
AcDbSymbolTableRecord
100
AcDbLayerTableRecord
  2
PIANI
 70
0
 62
7
  6
CONTINUOUS
370
-3
390
F
  0
LAYER
  5
208
100
AcDbSymbolTableRecord
100
AcDbLayerTableRecord
  2
PIANI_DI_RIFERIMENTO
 70
0
 62
7
  6
CONTINUOUS
370
-3
390
F
  0
LAYER
  5
209
100
AcDbSymbolTableRecord
100
AcDbLayerTableRecord
  2
PIANI_ORIGINE
 70
0
 62
7
  6
CONTINUOUS
370
-3
390
F
  0
LAYER
  5
20A
100
AcDbSymbolTableRecord
100
AcDbLayerTableRecord
  2
PUNTI
 70
0
 62
7
  6
CONTINUOUS
370
-3
390
F
  0
LAYER
  5
20B
100
AcDbSymbolTableRecord
100
AcDbLayerTableRecord
  2
RGB__255__255__255__
 70
0
 62
7
  6
CONTINUOUS
370
-3
390
F
  0
LAYER
  5
20C
100
AcDbSymbolTableRecord
100
AcDbLayerTableRecord
  2
RGB____0____0____0__
 70
0
 62
7
  6
CONTINUOUS
370
-3
390
F
  0
LAYER
  5
20D
100
AcDbSymbolTableRecord
100
AcDbLayerTableRecord
  2
SIMBOLI
 70
0
 62
7
  6
CONTINUOUS
370
-3
390
F
  0
LAYER
  5
20E
100
AcDbSymbolTableRecord
100
AcDbLayerTableRecord
  2
SNAPLINE
 70
0
 62
7
  6
CONTINUOUS
370
-3
390
F
  0
LAYER
  5
20F
100
AcDbSymbolTableRecord
100
AcDbLayerTableRecord
  2
SUPERFICI
 70
0
 62
7
  6
CONTINUOUS
370
-3
390
F
  0
LAYER
  5
210
100
AcDbSymbolTableRecord
100
AcDbLayerTableRecord
  2
TRASH
 70
0
 62
7
  6
CONTINUOUS
370
-3
390
F
  0
LAYER
  5
211
100
AcDbSymbolTableRecord
100
AcDbLayerTableRecord
  2
XSEC_DATUMS
 70
0
 62
7
  6
CONTINUOUS
370
-3
390
F
  0
ENDTAB
  0
TABLE
  2
STYLE
  5
3
100
AcDbSymbolTable
 70
1
  0
STYLE
  5
11
100
AcDbSymbolTableRecord
100
AcDbTextStyleTableRecord
  2
STANDARD
 70
0
 40
0.0
 41
0.8
 50
0.0
 71
0
 42
0.2
  3
txt
  4

  0
STYLE
  5
212
100
AcDbSymbolTableRecord
100
AcDbTextStyleTableRecord
  2
TEXTSTYLE_1
 70
0
 40
0.0
 41
0.8
 50
0.0
 71
0
 42
0.2
  3
gdt
  4

  0
ENDTAB
  0
TABLE
  2
VIEW
  5
6
100
AcDbSymbolTable
 70
0
  0
ENDTAB
  0
TABLE
  2
UCS
  5
7
100
AcDbSymbolTable
 70
0
  0
ENDTAB
  0
TABLE
  2
APPID
  5
9
100
AcDbSymbolTable
 70
1
  0
APPID
  5
213
100
AcDbSymbolTableRecord
100
AcDbRegAppTableRecord
  2
ACAD
 70
0
  0
ENDTAB
  0
TABLE
  2
BLOCK_RECORD
  5
1
100
AcDbSymbolTable
 70
0
  0
BLOCK_RECORD
  5
214
100
AcDbSymbolTableRecord
100
AcDbBlockTableRecord
  2
*Model_Space
  0
BLOCK_RECORD
  5
215
100
AcDbSymbolTableRecord
100
AcDbBlockTableRecord
  2
*Paper_Space
  0
BLOCK_RECORD
  5
216
100
AcDbSymbolTableRecord
100
AcDbBlockTableRecord
  2
_FILLED
  0
ENDTAB
  0
TABLE
  2
DIMSTYLE
  5
A
100
AcDbSymbolTable
 70
1
100
AcDbDimStyleTable
 71
0
  0
DIMSTYLE
105
217
100
AcDbSymbolTableRecord
100
AcDbDimStyleTableRecord
  2
STANDARD
 70
0
  3

  4

 40
1.0
 41
3.0
 42
0.5
 43
0.38
 44
1.5
 45
0.0
 46
0.0
 47
0.01
 48
0.01
140
3.0
141
0.09
142
0.0
143
25.4
144
1.0
145
0.0
146
1.0
147
0.625
 71
1
 72
0
 73
0
 74
0
 75
0
 76
0
 77
1
 78
8
 79
2
170
0
171
1
172
0
173
0
174
0
175
0
176
0
177
0
178
0
270
2
179
2
271
2
272
2
273
2
274
2
275
0
280
0
281
0
282
0
283
1
284
8
285
0
286
0
287
3
288
0
340
11
278
44
341
216
342
216
343
216
344
216
  0
ENDTAB
  0
ENDSEC
  0
SECTION
  2
BLOCKS
  0
BLOCK
  5
20
100
AcDbEntity
  8
0
100
AcDbBlockBegin
  2
*Model_Space
 70
0
 10
0.0
 20
0.0
 30
0.0
  3
*Model_Space
  1

  0
ENDBLK
  5
21
100
AcDbEntity
  8
0
100
AcDbBlockEnd
  0
BLOCK
  5
1C
100
AcDbEntity
  8
0
100
AcDbBlockBegin
  2
*Paper_Space
 70
0
 10
0.0
 20
0.0
 30
0.0
  3
*Paper_Space
  1

  0
ENDBLK
  5
1D
100
AcDbEntity
  8
0
100
AcDbBlockEnd
  0
BLOCK
  5
218
100
AcDbEntity
  8
0
100
AcDbBlockBegin
  2
_FILLED
 70
64
 10
0.0
 20
0.0
  3
_FILLED
  1

  0
SOLID
  5
219
100
AcDbEntity
  8
0
  6
BYBLOCK
 62
0
100
AcDbTrace
 10
0.0
 20
0.0
 11
-1.0
 21
0.3166666667
 12
-1.0
 22
-0.3166666667
 13
-1.0
 23
-0.3166666667
  0
ENDBLK
  5
21A
100
AcDbEntity
  8
0
  6
BYBLOCK
 62
0
100
AcDbBlockEnd
  0
ENDSEC
  0
SECTION
  2
ENTITIES
  0
LWPOLYLINE
  5
21B
100
AcDbEntity
  8
0
100
AcDbPolyline
 62
7
  6
CONTINUOUS
 90
18
 70
0
 10
-58.2609383886
 20
67.7727660113
 10
-58.3212455934
 20
67.7237944664
 10
-58.5307511349
 20
67.5436640159
 10
-58.7324499191
 20
67.3542512028
 10
-58.9260080761
 20
67.1558287012
 10
-59.1113088913
 20
66.9484286394
 10
-59.2878913212
 20
66.7324486336
 10
-59.455350005
 20
66.5082951785
 10
-59.6136023291
 20
66.2759470543
 10
-59.762233343
 20
66.0358289809
 10
-59.9008581868
 20
65.7883869512
 10
-60.029387827
 20
65.5335512734
 10
-60.1474580237
 20
65.271751938
 10
-60.2547213168
 20
65.0034666126
 10
-60.3510602659
 20
64.7285914915
 10
-60.4362010772
 20
64.4473727884
 10
-60.5097714393
 20
64.1604970133
 10
-60.5475588941
 20
63.989179662
  0
LINE
  5
21C
100
AcDbEntity
  8
0
100
AcDbLine
 62
7
  6
CONTINUOUS
 10
-56.9270469647
 20
68.8425247428
 11
-58.2613938207
 21
67.772401269
  0
LWPOLYLINE
  5
21D
100
AcDbEntity
  8
0
100
AcDbPolyline
 62
250
  6
CONTINUOUS
 90
26
 70
0
 10
-58.2609647297
 20
67.772745303
 10
-58.2149608996
 20
67.8086097756
 10
-58.0782207009
 20
67.9041419891
 10
-57.9342680589
 20
67.9889051371
 10
-57.7833600001
 20
68.0627441997
 10
-57.6257367329
 20
68.1255445744
 10
-57.4616494503
 20
68.1772104091
 10
-57.2913887757
 20
68.2176416344
 10
-57.1152288798
 20
68.2467778693
 10
-56.9334514613
 20
68.2645788067
 10
-56.746373792
 20
68.2710022521
 10
-56.5543003384
 20
68.2660432218
 10
-56.3575384774
 20
68.2497170759
 10
-56.1564225494
 20
68.2220390957
 10
-55.9512788461
 20
68.1830584391
 10
-55.7424389503
 20
68.1328450703
 10
-55.5302553096
 20
68.071471655
 10
-55.315070774
 20
67.9990404945
 10
-55.0972372129
 20
67.9156760265
 10
-54.8771288555
 20
67.8215114472
 10
-54.6551139219
 20
67.7167075137
 10
-54.4315464037
 20
67.6014385663
 10
-54.206784499
 20
67.4758829029
 10
-53.98119356
 20
67.3402428424
 10
-53.7551457986
 20
67.1947466013
 10
-53.5290121893
 20
67.0396337518
  0
LWPOLYLINE
  5
21E
100
AcDbEntity
  8
0
100
AcDbPolyline
 62
250
  6
CONTINUOUS
 90
31
 70
0
 10
-53.5290121893
 20
67.0396337518
 10
-53.7119622067
 20
66.896346534
 10
-53.8940519944
 20
66.7450542883
 10
-54.0748762652
 20
66.586093754
 10
-54.2540325488
 20
66.4198187381
 10
-54.4311220872
 20
66.246599328
 10
-54.6057507229
 20
66.0668210676
 10
-54.7775297753
 20
65.8808840989
 10
-54.9460769065
 20
65.689202272
 10
-55.111016972
 20
65.4922022235
 10
-55.2719828557
 20
65.2903224272
 10
-55.4286162873
 20
65.0840122177
 10
-55.5805686392
 20
64.8737307908
 10
-55.7275017028
 20
64.6599461814
 10
-55.8690884413
 20
64.4431342215
 10
-56.0050137173
 20
64.2237774811
 10
-56.1349749946
 20
64.0023641944
 10
-56.2586830114
 20
63.779387173
 10
-56.3758624241
 20
63.5553427088
 10
-56.48625242
 20
63.3307294699
 10
-56.5896072982
 20
63.1060473899
 10
-56.6856970162
 20
62.8817965561
 10
-56.7743077017
 20
62.6584760956
 10
-56.8552421294
 20
62.4365830649
 10
-56.9283201589
 20
62.2166113433
 10
-56.9933791366
 20
61.9990505338
 10
-57.0502742572
 20
61.7843848732
 10
-57.0988788861
 20
61.5730921546
 10
-57.1390848415
 20
61.3656426636
 10
-57.1708026346
 20
61.1624981317
 10
-57.1939616695
 20
60.9641107087
  0
LINE
  5
21F
100
AcDbEntity
  8
0
100
AcDbLine
 62
250
  6
CONTINUOUS
 10
-52.2115385537
 20
68.0402741611
 11
-53.5290121893
 21
67.0396337518
  0
LWPOLYLINE
  5
220
100
AcDbEntity
  8
0
100
AcDbPolyline
 62
250
  6
CONTINUOUS
 90
3
 70
0
 10
-59.8715744364
 20
55.9914651649
 10
-59.4744768091
 20
58.2521391741
 10
-59.0331362173
 20
60.5104008787
  0
LWPOLYLINE
  5
221
100
AcDbEntity
  8
0
100
AcDbPolyline
 62
250
  6
CONTINUOUS
 90
20
 70
0
 10
-60.547670913
 20
63.9886428727
 10
-60.5624693501
 20
63.9117567687
 10
-60.5897595976
 20
63.718487271
 10
-60.603343083
 20
63.5230799054
 10
-60.6031855025
 20
63.3260281564
 10
-60.589287254
 20
63.1278296612
 10
-60.5616834363
 20
62.9289849529
 10
-60.5204437605
 20
62.7299961968
 10
-60.4656723739
 20
62.5313659218
 10
-60.3975075968
 20
62.3335957515
 10
-60.3161215735
 20
62.1371851375
 10
-60.2217198374
 20
61.9426300976
 10
-60.1145407919
 20
61.7504219641
 10
-59.9948551085
 20
61.5610461418
 10
-59.8629650431
 20
61.3749808832
 10
-59.7192036725
 20
61.1926960799
 10
-59.5639340538
 20
61.0146520766
 10
-59.3975483071
 20
60.841298508
 10
-59.220466625
 20
60.6730731635
 10
-59.0331362122
 20
60.5104008818
  0
LWPOLYLINE
  5
222
100
AcDbEntity
  8
0
100
AcDbPolyline
 62
7
  6
CONTINUOUS
 90
22
 70
0
 10
-60.547670913
 20
63.9886428727
 10
-60.9932275697
 20
61.7339900829
 10
-61.4067592539
 20
59.4096903024
 10
-61.7749640072
 20
57.0792141047
 10
-62.0976250874
 20
54.7430618016
 10
-62.3745736608
 20
52.4017266607
 10
-62.6056540691
 20
50.0557240698
 10
-62.7907290271
 20
47.7055251505
 10
-62.9297020291
 20
45.3516263753
 10
-63.0224873125
 20
42.9945820875
 10
-63.0690167427
 20
40.6348803613
 10
-63.069267251
 20
38.2730257512
 10
-63.0232317773
 20
35.909596331
 10
-62.9309189665
 20
33.5450946192
 10
-62.7923824464
 20
31.1800069453
 10
-62.6076935107
 20
28.8148840837
 10
-62.3769338026
 20
26.4502174486
 10
-62.1002253778
 20
24.0864717254
 10
-61.7777081269
 20
21.7241528119
 10
-61.4095346343
 20
19.3637440852
 10
-60.9959052044
 20
17.0057379266
 10
-60.5512553367
 20
14.7202622351
  0
LINE
  5
223
100
AcDbEntity
  8
0
100
AcDbLine
 62
7
  6
CONTINUOUS
 10
-60.5475595245
 20
63.9891797928
 11
-60.547670913
 21
63.9886428727
  0
LWPOLYLINE
  5
224
100
AcDbEntity
  8
0
100
AcDbPolyline
 62
250
  6
CONTINUOUS
 90
37
 70
0
 10
-59.0331362173
 20
60.5104008787
 10
-59.0175524547
 20
60.5783453745
 10
-58.9992928424
 20
60.6437153058
 10
-58.9783579022
 20
60.7065103488
 10
-58.9547052595
 20
60.7668299176
 10
-58.9283782565
 20
60.8245739982
 10
-58.8995062633
 20
60.87944296
 10
-58.8680777092
 20
60.9314191092
 10
-58.8341057113
 20
60.9805191891
 10
-58.7977571834
 20
61.026494913
 10
-58.7590217176
 20
61.0693294245
 10
-58.7179116736
 20
61.1090383861
 10
-58.6746285552
 20
61.1454220227
 10
-58.6291625323
 20
61.1784634088
 10
-58.5815256726
 20
61.2081781055
 10
-58.5319526865
 20
61.2344148502
 10
-58.4804347245
 20
61.2571556532
 10
-58.4269830291
 20
61.2764170487
 10
-58.3718627242
 20
61.2920993935
 10
-58.3150666084
 20
61.3041838736
 10
-58.2566042903
 20
61.3126878419
 10
-58.1967662947
 20
61.3175657938
 10
-58.135547355
 20
61.3187988577
 10
-58.0729550148
 20
61.3164045255
 10
-58.0092991124
 20
61.3103917798
 10
-57.9445751219
 20
61.3007419551
 10
-57.8787895788
 20
61.2874725007
 10
-57.8122689306
 20
61.2706465611
 10
-57.7450092099
 20
61.2502451509
 10
-57.6770160072
 20
61.2262862743
 10
-57.6086300564
 20
61.1988885914
 10
-57.5398472949
 20
61.1680320874
 10
-57.4706729246
 20
61.1337360887
 10
-57.4014614735
 20
61.0961783295
 10
-57.3323313169
 20
61.0554179339
 10
-57.2631646667
 20
61.0113954232
 10
-57.1939616695
 20
60.9641107087
  0
LWPOLYLINE
  5
225
100
AcDbEntity
  8
0
100
AcDbPolyline
 62
250
  6
CONTINUOUS
 90
4
 70
0
 10
-61.4144672156
 20
40.1067224021
 10
-61.3263181627
 20
42.3823818695
 10
-61.1940789573
 20
44.6564807949
 10
-61.0177601594
 20
46.9283924567
  0
LINE
  5
226
100
AcDbEntity
  8
0
100
AcDbLine
 62
250
  6
CONTINUOUS
 10
-61.0177601594
 20
46.9283924567
 11
-60.7974232421
 21
49.1974632936
  0
LINE
  5
227
100
AcDbEntity
  8
0
100
AcDbLine
 62
250
  6
CONTINUOUS
 10
-60.7974232421
 20
49.1974632936
 11
-60.5330321192
 21
51.4639430358
  0
LWPOLYLINE
  5
228
100
AcDbEntity
  8
0
100
AcDbPolyline
 62
250
  6
CONTINUOUS
 90
3
 70
0
 10
-60.5330321192
 20
51.4639430358
 10
-60.2244389873
 20
53.7285673877
 10
-59.8715744364
 20
55.9914651649
  0
LWPOLYLINE
  5
229
100
AcDbEntity
  8
0
100
AcDbPolyline
 62
250
  6
CONTINUOUS
 90
15
 70
0
 10
-46.6890666042
 20
44.8735442277
 10
-46.6633616849
 20
44.9086887188
 10
-46.6351639024
 20
44.9416645079
 10
-46.6046877816
 20
44.972220583
 10
-46.5721662338
 20
45.0001249815
 10
-46.5378457007
 20
45.0251646744
 10
-46.5019843324
 20
45.0471472303
 10
-46.4648539399
 20
45.0659046738
 10
-46.4267383011
 20
45.0812949697
 10
-46.3879279544
 20
45.0932012524
 10
-46.3487182758
 20
45.1015329102
 10
-46.3094076773
 20
45.106226534
 10
-46.2702957713
 20
45.1072466535
 10
-46.2316802171
 20
45.1045855009
 10
-46.1938548958
 20
45.0982633248
  0
LWPOLYLINE
  5
22A
100
AcDbEntity
  8
0
100
AcDbPolyline
 62
250
  6
CONTINUOUS
 90
19
 70
0
 10
-47.1023503985
 20
45.1876306842
 10
-47.0745305374
 20
45.2211670933
 10
-47.0442316489
 20
45.2525456403
 10
-47.0116843221
 20
45.2815275143
 10
-46.9771362585
 20
45.307892144
 10
-46.9408503874
 20
45.3314388761
 10
-46.9031028651
 20
45.3519885025
 10
-46.8641809711
 20
45.3693846255
 10
-46.8243809236
 20
45.3834948471
 10
-46.7840056265
 20
45.3942117764
 10
-46.7433623597
 20
45.4014538483
 10
-46.7027604434
 20
45.4051659435
 10
-46.6625088861
 20
45.405319808
 10
-46.6229140272
 20
45.4019142689
 10
-46.5842772087
 20
45.3949752423
 10
-46.5468924846
 20
45.3845555377
 10
-46.5110443774
 20
45.370734455
 10
-46.4770057129
 20
45.3536171799
 10
-46.4450355475
 20
45.3333339847
  0
LINE
  5
22B
100
AcDbEntity
  8
0
100
AcDbLine
 62
250
  6
CONTINUOUS
 10
-46.1038847944
 20
45.0378761305
 11
-46.0832501015
 21
45.0512017431
  0
LWPOLYLINE
  5
22C
100
AcDbEntity
  8
0
100
AcDbPolyline
 62
250
  6
CONTINUOUS
 90
3
 70
0
 10
-46.1465789997
 20
45.0110886536
 10
-46.1250743122
 20
45.0244193013
 10
-46.1038847944
 20
45.0378761305
  0
LWPOLYLINE
  5
22D
100
AcDbEntity
  8
0
100
AcDbPolyline
 62
250
  6
CONTINUOUS
 90
14
 70
0
 10
-60.5508112812
 20
14.7180899408
 10
-60.5204442006
 20
14.5869009341
 10
-60.4656727825
 20
14.4026731619
 10
-60.3975079723
 20
14.2220235423
 10
-60.3161219145
 20
14.0454082903
 10
-60.2217201425
 20
13.8732734326
 10
-60.1145410598
 20
13.706053681
 10
-59.994855338
 20
13.5441713345
 10
-59.8629652332
 20
13.3880352132
 10
-59.7192038224
 20
13.2380396253
 10
-59.5639341628
 20
13.0945633718
 10
-59.3975483744
 20
12.9579687897
 10
-59.2204666503
 20
12.8286008368
 10
-59.0331361952
 20
12.7067862208
  0
LWPOLYLINE
  5
22E
100
AcDbEntity
  8
0
100
AcDbPolyline
 62
7
  6
CONTINUOUS
 90
25
 70
0
 10
-60.5508107903
 20
14.7180900411
 10
-60.5231610607
 20
14.5885120301
 10
-60.4657341254
 20
14.3484263186
 10
-60.3947672606
 20
14.0893795836
 10
-60.3067279268
 20
13.8068739022
 10
-60.201069034
 20
13.5068321956
 10
-60.0818216933
 20
13.2043019522
 10
-59.9486717028
 20
12.8994371132
 10
-59.8008537907
 20
12.5915830036
 10
-59.6444036155
 20
12.292873775
 10
-59.4820745077
 20
12.0064260267
 10
-59.3121105511
 20
11.7274654731
 10
-59.1350489637
 20
11.4559544638
 10
-58.9517956257
 20
11.1924564508
 10
-58.761688273
 20
10.9354475257
 10
-58.5628109811
 20
10.6822707768
 10
-58.353340691
 20
10.4310851887
 10
-58.1342157219
 20
10.1836480305
 10
-57.9074879345
 20
9.9426620942
 10
-57.6712284038
 20
9.7065319491
 10
-57.4262967825
 20
9.4767354801
 10
-57.1794671658
 20
9.259654835
 10
-56.9330937416
 20
9.056699073
 10
-56.6846043537
 20
8.8652417733
 10
-56.5009124593
 20
8.7319291576
  0
LINE
  5
22F
100
AcDbEntity
  8
0
100
AcDbLine
 62
7
  6
CONTINUOUS
 10
-60.5512553367
 20
14.7202622351
 11
-60.5508112812
 21
14.7180899408
  0
LWPOLYLINE
  5
230
100
AcDbEntity
  8
0
100
AcDbPolyline
 62
250
  6
CONTINUOUS
 90
13
 70
0
 10
-59.0331362173
 20
12.7067862031
 10
-59.4744733941
 20
14.995190337
 10
-59.8715691416
 20
17.2829928646
 10
-60.2244331508
 20
19.5699914249
 10
-60.5330273699
 20
21.8556593156
 10
-60.7974204576
 20
24.1401112831
 10
-61.0177587557
 20
26.4241256694
 10
-61.1940779245
 20
28.70798231
 10
-61.3263172132
 20
30.9910332172
 10
-61.4144664906
 20
33.2726743857
 10
-61.4585320191
 20
35.5522968098
 10
-61.4585322803
 20
37.8301053081
 10
-61.4144672156
 20
40.1067224021
  0
LWPOLYLINE
  5
231
100
AcDbEntity
  8
0
100
AcDbPolyline
 62
250
  6
CONTINUOUS
 90
16
 70
0
 10
-47.1023503923
 20
45.1876306789
 10
-47.2424494824
 20
42.8702807098
 10
-47.3625405348
 20
40.5662607983
 10
-47.4626235496
 20
38.2755709445
 10
-47.5427035137
 20
35.9980233679
 10
-47.6027754402
 20
33.733805849
 10
-47.6428243682
 20
31.4834817288
 10
-47.6628453136
 20
29.2470621801
 10
-47.6628432604
 20
27.02453603
 10
-47.6428182003
 20
24.8164331012
 10
-47.6027651518
 20
22.6227493057
 10
-47.5426890963
 20
20.4434887314
 10
-47.4626049703
 20
18.279193465
 10
-47.3625177527
 20
16.1300442018
 10
-47.2424224645
 20
13.9958602465
 10
-47.1023191059
 20
11.876641599
  0
LWPOLYLINE
  5
232
100
AcDbEntity
  8
0
100
AcDbPolyline
 62
250
  6
CONTINUOUS
 90
19
 70
0
 10
-48.3666122293
 20
51.0172359646
 10
-48.5754624927
 20
48.4112059109
 10
-48.7597953395
 20
45.8205524518
 10
-48.9195924509
 20
43.2455330496
 10
-49.0548379469
 20
40.6864036016
 10
-49.1655183863
 20
38.1434184487
 10
-49.2516227688
 20
35.6168303499
 10
-49.3131425382
 20
33.1068904262
 10
-49.350071583
 20
30.6138480911
 10
-49.3624062343
 20
28.1379510606
 10
-49.3501452665
 20
25.679445393
 10
-49.313289898
 20
23.2385754174
 10
-49.2518437903
 20
20.8155836654
 10
-49.1658130475
 20
18.4107109127
 10
-49.0552062186
 20
16.0241961856
 10
-48.9200342965
 20
13.6562766905
 10
-48.760310715
 20
11.3071877647
 10
-48.5760513467
 20
8.977162854
 10
-48.3672745032
 20
6.6664335196
  0
LWPOLYLINE
  5
233
100
AcDbEntity
  8
0
100
AcDbPolyline
 62
7
  6
CONTINUOUS
 90
8
 70
0
 10
50.5296057561
 20
-63.5737886846
 10
50.524696965
 20
-63.5728619561
 10
50.5081575261
 20
-63.5681458478
 10
50.4907903545
 20
-63.5616907301
 10
50.4729502791
 20
-63.5536257732
 10
50.4547555183
 20
-63.54399408
 10
50.4360876925
 20
-63.5327526763
 10
50.4169467618
 20
-63.519901594
  0
LWPOLYLINE
  5
234
100
AcDbEntity
  8
0
100
AcDbPolyline
 62
250
  6
CONTINUOUS
 90
16
 70
0
 10
-45.7561101315
 20
13.6886793304
 10
-45.755077407
 20
13.6735336474
 10
-45.752506556
 20
13.6574582813
 10
-45.7484257454
 20
13.6406293574
 10
-45.7428796852
 20
13.6232312571
 10
-45.7359291392
 20
13.6054545976
 10
-45.7276502592
 20
13.5874941437
 10
-45.7181337501
 20
13.5695466738
 10
-45.707483877
 20
13.5518088244
 10
-45.695817323
 20
13.5344749362
 10
-45.6832619091
 20
13.5177349223
 10
-45.6699551955
 20
13.5017721903
 10
-45.6560429757
 20
13.4867616331
 10
-45.6416776761
 20
13.4728677095
 10
-45.6270166853
 20
13.4602426425
 10
-45.6122206323
 20
13.4490247539
  0
LWPOLYLINE
  5
235
100
AcDbEntity
  8
0
100
AcDbPolyline
 62
250
  6
CONTINUOUS
 90
10
 70
0
 10
-48.3666122295
 20
51.0172359625
 10
-48.3440862876
 20
50.6625687432
 10
-48.3185595197
 20
50.3109388378
 10
-48.2902052007
 20
49.9624543311
 10
-48.2591940216
 20
49.6165979129
 10
-48.2257181198
 20
49.2740883384
 10
-48.1900166421
 20
48.9368542475
 10
-48.1523264878
 20
48.6055620806
 10
-48.1128553696
 20
48.2796419252
 10
-48.0718240145
 20
47.9591312041
  0
LINE
  5
236
100
AcDbEntity
  8
0
100
AcDbLine
 62
7
  6
CONTINUOUS
 10
-44.8369228623
 20
14.3546873551
 11
-44.8369228623
 21
44.1662149029
  0
LWPOLYLINE
  5
237
100
AcDbEntity
  8
0
100
AcDbPolyline
 62
250
  6
CONTINUOUS
 90
10
 70
0
 10
-48.0718077553
 20
8.9651010587
 10
-48.1129092962
 20
8.7063328398
 10
-48.1524506779
 20
8.4480909867
 10
-48.1902114144
 20
8.1903693381
 10
-48.2259830102
 20
7.93265924
 10
-48.259530182
 20
7.6754362278
 10
-48.2906169579
 20
7.4201303236
 10
-48.31905164
 20
7.1671584069
 10
-48.3446620828
 20
6.9159539892
 10
-48.3672745033
 20
6.6664335215
  0
LWPOLYLINE
  5
238
100
AcDbEntity
  8
0
100
AcDbPolyline
 62
250
  6
CONTINUOUS
 90
10
 70
0
 10
-47.8539416727
 20
8.8388686381
 10
-47.9218980643
 20
8.5900800205
 10
-47.9875134641
 20
8.342646633
 10
-48.0506926555
 20
8.0966874871
 10
-48.1115979447
 20
7.8520178086
 10
-48.1698625222
 20
7.6090785136
 10
-48.224660441
 20
7.3688849
 10
-48.2757235462
 20
7.1318090957
 10
-48.3232715805
 20
6.8976313473
 10
-48.3672745032
 20
6.6664335196
  0
LWPOLYLINE
  5
239
100
AcDbEntity
  8
0
100
AcDbPolyline
 62
250
  6
CONTINUOUS
 90
8
 70
0
 10
-47.1023191118
 20
11.8766415855
 10
-47.1281633834
 20
11.7959951848
 10
-47.1552481855
 20
11.7133356768
 10
-47.1835737233
 20
11.628723672
 10
-47.2131440111
 20
11.5422920407
 10
-47.2439430352
 20
11.4540345124
 10
-47.2759335603
 20
11.3638049238
 10
-47.3091036673
 20
11.2716642733
  0
LWPOLYLINE
  5
23A
100
AcDbEntity
  8
0
100
AcDbPolyline
 62
250
  6
CONTINUOUS
 90
11
 70
0
 10
-47.6934434607
 20
10.2446239581
 10
-47.7352365639
 20
10.1303487316
 10
-47.7772574511
 20
10.0135720939
 10
-47.8192731813
 20
9.8943289222
 10
-47.8605654655
 20
9.7720259135
 10
-47.9013967658
 20
9.6465743537
 10
-47.9413062384
 20
9.5180452763
 10
-47.9785131985
 20
9.3858724202
 10
-48.0124046534
 20
9.2496846816
 10
-48.0435099049
 20
9.1094802714
 10
-48.0718077553
 20
8.9651010587
  0
LINE
  5
23B
100
AcDbEntity
  8
0
100
AcDbLine
 62
250
  6
CONTINUOUS
 10
-47.3091036673
 20
11.2716642733
 11
-47.3788185215
 21
11.0817424241
  0
LINE
  5
23C
100
AcDbEntity
  8
0
100
AcDbLine
 62
250
  6
CONTINUOUS
 10
-47.3788185215
 20
11.0817424241
 11
-47.4910184419
 21
10.7825937586
  0
LWPOLYLINE
  5
23D
100
AcDbEntity
  8
0
100
AcDbPolyline
 62
250
  6
CONTINUOUS
 90
3
 70
0
 10
-47.4910184419
 20
10.7825937586
 10
-47.570126521
 20
10.5736112857
 10
-47.6934434607
 20
10.2446239581
  0
LWPOLYLINE
  5
23E
100
AcDbEntity
  8
0
100
AcDbPolyline
 62
250
  6
CONTINUOUS
 90
12
 70
0
 10
-46.4809482339
 20
11.5758369854
 10
-46.5189152972
 20
11.489520043
 10
-46.5587889952
 20
11.4016784596
 10
-46.6004124658
 20
11.3123517377
 10
-46.64376972
 20
11.2215592187
 10
-46.6889806024
 20
11.1293012445
 10
-46.7359577586
 20
11.0356246279
 10
-46.7845837489
 20
10.9405660051
 10
-46.8349181102
 20
10.8441188934
 10
-46.8868541969
 20
10.7463717652
 10
-46.9402601625
 20
10.647350562
 10
-46.9951385849
 20
10.5469665695
  0
LWPOLYLINE
  5
23F
100
AcDbEntity
  8
0
100
AcDbPolyline
 62
250
  6
CONTINUOUS
 90
7
 70
0
 10
-46.6890951486
 20
12.7753684955
 10
-46.7630089326
 20
12.6256759298
 10
-46.8349054668
 20
12.4759452639
 10
-46.9047847512
 20
12.3261764978
 10
-46.9726467859
 20
12.1763696317
 10
-47.0384915707
 20
12.0265246654
 10
-47.1023191059
 20
11.876641599
  0
LWPOLYLINE
  5
240
100
AcDbEntity
  8
0
100
AcDbPolyline
 62
250
  6
CONTINUOUS
 90
7
 70
0
 10
-46.0560529291
 20
12.5064652016
 10
-46.1257181556
 20
12.3653662399
 10
-46.1934796878
 20
12.2242381216
 10
-46.2593109311
 20
12.0831394469
 10
-46.3231861285
 20
11.9421287252
 10
-46.3850803698
 20
11.8012643511
 10
-46.4809482339
 20
11.5758369854
  0
LWPOLYLINE
  5
241
100
AcDbEntity
  8
0
100
AcDbPolyline
 62
250
  6
CONTINUOUS
 90
9
 70
0
 10
-47.4096123552
 20
9.8068525985
 10
-47.471231037
 20
9.6950130315
 10
-47.5323031412
 20
9.5806977666
 10
-47.5929498152
 20
9.4643099751
 10
-47.652470752
 20
9.3458807076
 10
-47.7088509775
 20
9.2239926427
 10
-47.7611753545
 20
9.0983757086
 10
-47.8096595783
 20
8.9698911175
 10
-47.8539416727
 20
8.8388686381
  0
LINE
  5
242
100
AcDbEntity
  8
0
100
AcDbLine
 62
250
  6
CONTINUOUS
 10
-46.9951385849
 20
10.5469665695
 11
-47.1087677063
 21
10.3425614773
  0
LWPOLYLINE
  5
243
100
AcDbEntity
  8
0
100
AcDbPolyline
 62
250
  6
CONTINUOUS
 90
3
 70
0
 10
-47.1087677063
 20
10.3425614773
 10
-47.2872065448
 20
10.0258439691
 10
-47.4096123552
 20
9.8068525985
  0
LWPOLYLINE
  5
244
100
AcDbEntity
  8
0
100
AcDbPolyline
 62
250
  6
CONTINUOUS
 90
22
 70
0
 10
-45.6122206323
 20
13.4490247539
 10
-45.6442929953
 20
13.4234942098
 10
-45.6754412787
 20
13.394243876
 10
-45.7055969332
 20
13.3611755171
 10
-45.734620544
 20
13.3241235371
 10
-45.7624741142
 20
13.2830795969
 10
-45.789222172
 20
13.238202533
 10
-45.814903906
 20
13.1886218239
 10
-45.8391991795
 20
13.1350820365
 10
-45.8617013233
 20
13.08037616
 10
-45.8820718683
 20
13.0249904204
 10
-45.9005514517
 20
12.9687685863
 10
-45.9177608361
 20
12.9137779062
 10
-45.9336166528
 20
12.860861364
 10
-45.9482962422
 20
12.8095445108
 10
-45.9628546057
 20
12.7599307483
 10
-45.9774862568
 20
12.71199529
 10
-45.9920546946
 20
12.6659674476
 10
-46.0070967652
 20
12.6222927917
 10
-46.0228247435
 20
12.5811676037
 10
-46.0391251357
 20
12.542539324
 10
-46.0560529291
 20
12.5064652016
  0
LWPOLYLINE
  5
245
100
AcDbEntity
  8
0
100
AcDbPolyline
 62
250
  6
CONTINUOUS
 90
47
 70
0
 10
-46.0064359953
 20
13.5117705001
 10
-46.0248936074
 20
13.4982970836
 10
-46.0438569439
 20
13.4843075872
 10
-46.0633233743
 20
13.4697962809
 10
-46.0833278947
 20
13.4546438399
 10
-46.1039610016
 20
13.4387834746
 10
-46.1251321984
 20
13.4222819747
 10
-46.1466049911
 20
13.4052203853
 10
-46.1684716976
 20
13.3875069847
 10
-46.19064
 20
13.3692334946
 10
-46.2125964505
 20
13.3507561251
 10
-46.2342909374
 20
13.3320867651
 10
-46.2557735725
 20
13.3132135257
 10
-46.2766812434
 20
13.2944569514
 10
-46.2969318142
 20
13.2758699208
 10
-46.3166074209
 20
13.2573995552
 10
-46.3355913592
 20
13.2392077634
 10
-46.3538015458
 20
13.2213715327
 10
-46.3713200641
 20
13.2038138757
 10
-46.3882764604
 20
13.186465739
 10
-46.4046816336
 20
13.1693233335
 10
-46.4205246849
 20
13.1523904484
 10
-46.4359024644
 20
13.1356093975
 10
-46.4508406644
 20
13.1189553006
 10
-46.4653135926
 20
13.1024530378
 10
-46.4793410221
 20
13.0861195639
 10
-46.4929143158
 20
13.0699665524
 10
-46.5060421109
 20
13.0539823298
 10
-46.5187700915
 20
13.0381488296
 10
-46.5311021371
 20
13.022463755
 10
-46.5430343682
 20
13.006929403
 10
-46.5546008306
 20
12.9915345972
 10
-46.565803553
 20
12.9762786011
 10
-46.5766405066
 20
12.9611621512
 10
-46.5871396509
 20
12.9461762809
 10
-46.597301572
 20
12.9313220537
 10
-46.6071256837
 20
12.916598406
 10
-46.616638187
 20
12.9019931807
 10
-46.6258402981
 20
12.8875065246
 10
-46.6347308009
 20
12.8731382908
 10
-46.6433322479
 20
12.8588758816
 10
-46.6516455169
 20
12.8447199142
 10
-46.6596697302
 20
12.8306697714
 10
-46.667424808
 20
12.8167110031
 10
-46.6749173904
 20
12.8028387927
 10
-46.6821408373
 20
12.7890579568
 10
-46.6890951486
 20
12.7753684955
  0
LINE
  5
246
100
AcDbEntity
  8
0
100
AcDbLine
 62
250
  6
CONTINUOUS
 10
-44.6955015061
 20
14.1132444564
 11
-45.6122206323
 21
13.4490247539
  0
LINE
  5
247
100
AcDbEntity
  8
0
100
AcDbLine
 62
250
  6
CONTINUOUS
 10
-44.8369228623
 20
14.3546873551
 11
-45.7680930176
 21
13.6800403407
  0
LINE
  5
248
100
AcDbEntity
  8
0
100
AcDbLine
 62
250
  6
CONTINUOUS
 10
-45.9709871656
 20
13.5372540374
 11
-46.0064359953
 21
13.5117705001
  0
LINE
  5
249
100
AcDbEntity
  8
0
100
AcDbLine
 62
250
  6
CONTINUOUS
 10
-45.7680930176
 20
13.6800403407
 11
-45.7929722509
 21
13.6622679036
  0
LINE
  5
24A
100
AcDbEntity
  8
0
100
AcDbLine
 62
250
  6
CONTINUOUS
 10
-45.9373786381
 20
13.561071127
 11
-45.9709871656
 21
13.5372540374
  0
LINE
  5
24B
100
AcDbEntity
  8
0
100
AcDbLine
 62
250
  6
CONTINUOUS
 10
-45.7929722509
 20
13.6622679036
 11
-45.8325747535
 21
13.6343731032
  0
LINE
  5
24C
100
AcDbEntity
  8
0
100
AcDbLine
 62
250
  6
CONTINUOUS
 10
-45.8325747535
 20
13.6343731032
 11
-45.9373786381
 21
13.561071127
  0
LWPOLYLINE
  5
24D
100
AcDbEntity
  8
0
100
AcDbPolyline
 62
250
  6
CONTINUOUS
 90
28
 70
0
 10
-48.0718240145
 20
47.9591312041
 10
-48.0441462936
 20
47.7842276574
 10
-48.0135728153
 20
47.6150849602
 10
-47.9801179336
 20
47.4518590828
 10
-47.9432175825
 20
47.2946114997
 10
-47.9035069729
 20
47.1436530613
 10
-47.8628494726
 20
46.9993753148
 10
-47.8217254025
 20
46.8620696349
 10
-47.7798507982
 20
46.7314788538
 10
-47.7379685442
 20
46.6069663555
 10
-47.6963300078
 20
46.4885210887
 10
-47.6548683247
 20
46.3760855236
 10
-47.6138379782
 20
46.268889505
 10
-47.5733504698
 20
46.1667943887
 10
-47.5334469839
 20
46.0698469524
 10
-47.4942643668
 20
45.9775406626
 10
-47.4558686015
 20
45.8897627284
 10
-47.4183136114
 20
45.8065222887
 10
-47.3817066829
 20
45.7274887239
 10
-47.3460942638
 20
45.6525825404
 10
-47.311515314
 20
45.5817701482
 10
-47.2780536518
 20
45.514783776
 10
-47.2457409085
 20
45.4515620474
 10
-47.2145959239
 20
45.3920480925
 10
-47.1846715616
 20
45.3359771793
 10
-47.1559908436
 20
45.2832213723
 10
-47.1285493786
 20
45.2337914588
 10
-47.1023503985
 20
45.1876306842
  0
LWPOLYLINE
  5
24E
100
AcDbEntity
  8
0
100
AcDbPolyline
 62
250
  6
CONTINUOUS
 90
10
 70
0
 10
-48.3666122293
 20
51.0172359646
 10
-48.3226999158
 20
50.6533201374
 10
-48.2752385117
 20
50.2933543667
 10
-48.2242574002
 20
49.9373783378
 10
-48.1695343881
 20
49.5847130887
 10
-48.1113384676
 20
49.2361223623
 10
-48.0505011899
 20
48.893764055
 10
-47.9873922576
 20
48.5583298059
 10
-47.9218480679
 20
48.2290936463
 10
-47.8539644686
 20
47.9060393961
  0
LWPOLYLINE
  5
24F
100
AcDbEntity
  8
0
100
AcDbPolyline
 62
250
  6
CONTINUOUS
 90
28
 70
0
 10
-47.8539644686
 20
47.9060393961
 10
-47.8105576595
 20
47.7357309556
 10
-47.7628735113
 20
47.571783986
 10
-47.7112314517
 20
47.4140464799
 10
-47.6553175697
 20
47.261893722
 10
-47.5960599705
 20
47.1156197776
 10
-47.5356343431
 20
46.9764337307
 10
-47.4747965128
 20
46.8446245463
 10
-47.4133720266
 20
46.7195170149
 10
-47.3520967507
 20
46.6008957398
 10
-47.291362988
 20
46.4887238242
 10
-47.2312273443
 20
46.3827080765
 10
-47.171840438
 20
46.2823130559
 10
-47.1133860158
 20
46.1873699453
 10
-47.05601588
 20
46.0977829015
 10
-46.9997715469
 20
46.0131781661
 10
-46.9447867969
 20
45.9334107519
 10
-46.8911984247
 20
45.8583953163
 10
-46.8390200089
 20
45.7878749343
 10
-46.7883754019
 20
45.7217380689
 10
-46.7393717986
 20
45.6598830029
 10
-46.6919803913
 20
45.6020811929
 10
-46.64631643
 20
45.5482399939
 10
-46.6024658775
 20
45.4982514311
 10
-46.56034376
 20
45.4518735056
 10
-46.5199784566
 20
45.4089651195
 10
-46.4815150476
 20
45.3694821821
 10
-46.4450355475
 20
45.3333339847
  0
LWPOLYLINE
  5
250
100
AcDbEntity
  8
0
100
AcDbPolyline
 62
7
  6
CONTINUOUS
 90
13
 70
0
 10
50.3104259786
 20
-63.5952080661
 10
50.3292651677
 20
-63.607886554
 10
50.347868683
 20
-63.619101338
 10
50.3661199275
 20
-63.6287805807
 10
50.3838979122
 20
-63.6368639964
 10
50.4010941096
 20
-63.6432985424
 10
50.4176126261
 20
-63.6480369279
 10
50.4333005222
 20
-63.6510419135
 10
50.4481007245
 20
-63.6523086063
 10
50.4620441118
 20
-63.651805082
 10
50.4750481081
 20
-63.649475294
 10
50.4869431035
 20
-63.6452829694
 10
50.497834901
 20
-63.6390482082
  0
LWPOLYLINE
  5
251
100
AcDbEntity
  8
0
100
AcDbPolyline
 62
7
  6
CONTINUOUS
 90
30
 70
0
 10
51.8691380739
 20
-67.8972683678
 10
52.0302298785
 20
-68.0085917047
 10
52.2572022515
 20
-68.1568170042
 10
52.4898377625
 20
-68.2985278427
 10
52.7290003081
 20
-68.433711967
 10
52.9746837961
 20
-68.5617676955
 10
53.2259499513
 20
-68.6816493504
 10
53.4832209951
 20
-68.7930366009
 10
53.7466360342
 20
-68.8954098695
 10
54.0146043729
 20
-68.9876476353
 10
54.2869118012
 20
-69.0692870878
 10
54.56371626
 20
-69.1399595303
 10
54.8436367865
 20
-69.198943999
 10
55.1262311591
 20
-69.245875931
 10
55.4112915105
 20
-69.2804485331
 10
55.697464823
 20
-69.3022762038
 10
55.9841814409
 20
-69.3111714845
 10
56.270941545
 20
-69.3069952966
 10
56.5562722921
 20
-69.2897136576
 10
56.8394499172
 20
-69.2593964315
 10
57.1199511018
 20
-69.2161424729
 10
57.396509201
 20
-69.160252447
 10
57.6684950308
 20
-69.0920264805
 10
57.9353500355
 20
-69.011794343
 10
58.1959243683
 20
-68.920151726
 10
58.4497200969
 20
-68.8175868079
 10
58.6962733807
 20
-68.7046215345
 10
58.9345786106
 20
-68.5821233099
 10
59.1641103382
 20
-68.4508545636
 10
59.2320513677
 20
-68.4093485124
  0
LINE
  5
252
100
AcDbEntity
  8
0
100
AcDbLine
 62
7
  6
CONTINUOUS
 10
51.8692696447
 20
-67.8973619764
 11
-56.5008995709
 21
8.7319195543
  0
LINE
  5
253
100
AcDbEntity
  8
0
100
AcDbLine
 62
250
  6
CONTINUOUS
 10
51.1762075424
 20
-66.5418103158
 11
-57.1939616695
 21
10.0874712123
  0
LWPOLYLINE
  5
254
100
AcDbEntity
  8
0
100
AcDbPolyline
 62
250
  6
CONTINUOUS
 90
37
 70
0
 10
-57.1939616695
 20
10.0874712123
 10
-57.2631687063
 20
10.1376369494
 10
-57.3323384027
 20
10.1901876016
 10
-57.4014706119
 20
10.2451232878
 10
-57.4706827946
 20
10.3025454131
 10
-57.5398569029
 20
10.3623530482
 10
-57.6086393922
 20
10.4242429207
 10
-57.6770253874
 20
10.4882245589
 10
-57.7450186241
 20
10.5542893576
 10
-57.8122783706
 20
10.6221069263
 10
-57.8787990428
 20
10.6916857153
 10
-57.9445846017
 20
10.7630185885
 10
-58.0093085831
 20
10.8357518164
 10
-58.072964446
 20
10.909892766
 10
-58.1355567217
 20
10.9854356963
 10
-58.1967755715
 20
11.0620072006
 10
-58.2566134683
 20
11.1396138224
 10
-58.3150756623
 20
11.2182508584
 10
-58.371871578
 20
11.2975279525
 10
-58.4269915675
 20
11.3774491006
 10
-58.4804428715
 20
11.4580122496
 10
-58.5319604333
 20
11.5388178182
 10
-58.5815330311
 20
11.6198672622
 10
-58.6291694936
 20
11.7011610543
 10
-58.6746351146
 20
11.7822979151
 10
-58.7179178267
 20
11.863277352
 10
-58.7590274597
 20
11.9441016575
 10
-58.7977625133
 20
12.0243734385
 10
-58.8341106255
 20
12.1040915879
 10
-58.8680822066
 20
12.183258779
 10
-58.8995103541
 20
12.2614829339
 10
-58.9283820249
 20
12.3387626703
 10
-58.9547087153
 20
12.4151006074
 10
-58.9783608451
 20
12.4901102551
 10
-58.9992950026
 20
12.5636629555
 10
-59.0175536338
 20
12.6358881335
 10
-59.0331362173
 20
12.7067862031
  0
LWPOLYLINE
  5
255
100
AcDbEntity
  8
0
100
AcDbPolyline
 62
250
  6
CONTINUOUS
 90
12
 70
0
 10
-56.5009126902
 20
8.7319288311
 10
-56.5896073696
 20
8.8002207387
 10
-56.685697079
 20
8.8885801934
 10
-56.7743077558
 20
8.9865862221
 10
-56.8552421746
 20
9.0940206874
 10
-56.9283201955
 20
9.2106444663
 10
-56.993379165
 20
9.3361979829
 10
-57.0502742779
 20
9.4704017857
 10
-57.0988788999
 20
9.61295717
 10
-57.1390848493
 20
9.7635468424
 10
-57.1708026378
 20
9.9218356271
 10
-57.1939616695
 20
10.0874712123
  0
LINE
  5
256
100
AcDbEntity
  8
0
100
AcDbLine
 62
7
  6
CONTINUOUS
 10
47.6128500989
 20
-62.6694674017
 11
48.0088442699
 21
-62.9494732884
  0
LINE
  5
257
100
AcDbEntity
  8
0
100
AcDbLine
 62
7
  6
CONTINUOUS
 10
46.182481975
 20
-61.6580444017
 11
46.5784662465
 21
-61.9380432884
  0
LINE
  5
258
100
AcDbEntity
  8
0
100
AcDbLine
 62
7
  6
CONTINUOUS
 10
44.6201194112
 20
-60.5532915151
 11
45.0161135821
 21
-60.8332974017
  0
LINE
  5
259
100
AcDbEntity
  8
0
100
AcDbLine
 62
7
  6
CONTINUOUS
 10
43.3244091671
 20
-59.6370860151
 11
43.7204181873
 21
-59.9171024017
  0
LINE
  5
25A
100
AcDbEntity
  8
0
100
AcDbLine
 62
7
  6
CONTINUOUS
 10
50.6827671488
 20
-64.8402222884
 11
51.1287933671
 21
-65.155606175
  0
LINE
  5
25B
100
AcDbEntity
  8
0
100
AcDbLine
 62
7
  6
CONTINUOUS
 10
45.4120983293
 20
-61.1133009017
 11
45.808092976
 21
-61.3933114017
  0
LINE
  5
25C
100
AcDbEntity
  8
0
100
AcDbLine
 62
7
  6
CONTINUOUS
 10
46.952860671
 20
-62.2027844017
 11
47.3488553177
 21
-62.4827949017
  0
LINE
  5
25D
100
AcDbEntity
  8
0
100
AcDbLine
 62
7
  6
CONTINUOUS
 10
49.5442707838
 20
-64.0351837884
 11
49.9402703803
 21
-64.3151977884
  0
LINE
  5
25E
100
AcDbEntity
  8
0
100
AcDbLine
 62
7
  6
CONTINUOUS
 10
48.8842764061
 20
-63.5684972884
 11
49.2802764783
 21
-63.8485159017
  0
LINE
  5
25F
100
AcDbEntity
  8
0
100
AcDbLine
 62
7
  6
CONTINUOUS
 10
48.0967458043
 20
-62.674739683
 11
48.7221513467
 21
-63.116968183
  0
LINE
  5
260
100
AcDbEntity
  8
0
100
AcDbLine
 62
7
  6
CONTINUOUS
 10
48.1822660685
 20
-62.4088930674
 11
48.5660892862
 21
-62.6802970674
  0
LINE
  5
261
100
AcDbEntity
  8
0
100
AcDbLine
 62
7
  6
CONTINUOUS
 10
49.8679318071
 20
-63.6008344431
 11
50.2135483843
 21
-63.8452265674
  0
LINE
  5
262
100
AcDbEntity
  8
0
100
AcDbLine
 62
7
  6
CONTINUOUS
 10
48.2887897868
 20
-62.3335694238
 11
48.4943802977
 21
-62.4789438683
  0
LINE
  5
263
100
AcDbEntity
  8
0
100
AcDbLine
 62
7
  6
CONTINUOUS
 10
49.8286437229
 20
-63.2545351519
 11
50.3104261079
 21
-63.5952065604
  0
LINE
  5
264
100
AcDbEntity
  8
0
100
AcDbLine
 62
7
  6
CONTINUOUS
 10
49.9351528389
 20
-63.1792218337
 11
50.4169352239
 21
-63.5198932422
  0
LINE
  5
265
100
AcDbEntity
  8
0
100
AcDbLine
 62
7
  6
CONTINUOUS
 10
49.7850356153
 20
-62.8035454224
 11
50.2668228207
 21
-63.1442204224
  0
LINE
  5
266
100
AcDbEntity
  8
0
100
AcDbLine
 62
250
  6
CONTINUOUS
 10
41.71812942
 20
-57.0335664804
 11
-48.3672745032
 21
6.6664335196
  0
LINE
  5
267
100
AcDbEntity
  8
0
100
AcDbLine
 62
7
  6
CONTINUOUS
 10
42.5064186459
 20
-57.336475627
 11
42.9024182423
 21
-57.616489627
  0
LINE
  5
268
100
AcDbEntity
  8
0
100
AcDbLine
 62
7
  6
CONTINUOUS
 10
43.7778454288
 20
-58.235510127
 11
44.1738450253
 21
-58.515524127
  0
LINE
  5
269
100
AcDbEntity
  8
0
100
AcDbLine
 62
7
  6
CONTINUOUS
 10
44.4378398065
 20
-58.702196627
 11
44.8338344532
 21
-58.982207127
  0
LINE
  5
26A
100
AcDbEntity
  8
0
100
AcDbLine
 62
7
  6
CONTINUOUS
 10
45.2298142507
 20
-59.262207127
 11
45.8284515587
 21
-59.685507627
  0
LINE
  5
26B
100
AcDbEntity
  8
0
100
AcDbLine
 62
7
  6
CONTINUOUS
 10
46.567933931
 20
-60.208400627
 11
47.1665712391
 21
-60.631701127
  0
LINE
  5
26C
100
AcDbEntity
  8
0
100
AcDbLine
 62
7
  6
CONTINUOUS
 10
48.0662666017
 20
-61.2678774853
 11
48.4622810474
 21
-61.5479019853
  0
LINE
  5
26D
100
AcDbEntity
  8
0
100
AcDbLine
 62
7
  6
CONTINUOUS
 10
49.3619867453
 20
-62.1840899853
 11
50.2892722804
 21
-62.8397800953
  0
LINE
  5
26E
100
AcDbEntity
  8
0
100
AcDbLine
 62
7
  6
CONTINUOUS
 10
42.6128948775
 20
-57.2611855617
 11
43.0088944739
 21
-57.5411995617
  0
LINE
  5
26F
100
AcDbEntity
  8
0
100
AcDbLine
 62
7
  6
CONTINUOUS
 10
43.8843216604
 20
-58.1602200617
 11
44.2803212569
 21
-58.4402340617
  0
LINE
  5
270
100
AcDbEntity
  8
0
100
AcDbLine
 62
7
  6
CONTINUOUS
 10
44.5443160381
 20
-58.6269065617
 11
44.9403106848
 21
-58.9069170617
  0
LINE
  5
271
100
AcDbEntity
  8
0
100
AcDbLine
 62
7
  6
CONTINUOUS
 10
45.3362904822
 20
-59.1869170617
 11
45.9349277903
 21
-59.6102175617
  0
LINE
  5
272
100
AcDbEntity
  8
0
100
AcDbLine
 62
7
  6
CONTINUOUS
 10
46.6744101626
 20
-60.1331105617
 11
47.2730474706
 21
-60.5564110617
  0
LINE
  5
273
100
AcDbEntity
  8
0
100
AcDbLine
 62
7
  6
CONTINUOUS
 10
48.1727428331
 20
-61.1925874201
 11
48.5687572788
 21
-61.4726119201
  0
LINE
  5
274
100
AcDbEntity
  8
0
100
AcDbLine
 62
7
  6
CONTINUOUS
 10
49.4684629766
 20
-62.1087999201
 11
50.3957485117
 21
-62.7644900301
  0
LINE
  5
275
100
AcDbEntity
  8
0
100
AcDbLine
 62
250
  6
CONTINUOUS
 10
-47.8539416727
 20
8.8388686381
 11
41.0598500229
 21
-54.0326764108
  0
LWPOLYLINE
  5
276
100
AcDbEntity
  8
0
100
AcDbPolyline
 62
7
  6
CONTINUOUS
 90
35
 70
0
 10
50.289272436
 20
-62.839778218
 10
50.3286268394
 20
-62.8687122721
 10
50.3680363226
 20
-62.899908594
 10
50.4073375325
 20
-62.9332357954
 10
50.4463769781
 20
-62.9685544156
 10
50.4849860502
 20
-63.005713508
 10
50.5229825462
 20
-63.0445490126
 10
50.5601761635
 20
-63.0848483724
 10
50.5964584111
 20
-63.1264791916
 10
50.6317669804
 20
-63.169397714
 10
50.6659461302
 20
-63.213419864
 10
50.698855852
 20
-63.2583702517
 10
50.7304368229
 20
-63.3042274664
 10
50.7606117081
 20
-63.3509185721
 10
50.7891400378
 20
-63.398125014
 10
50.8157336969
 20
-63.4454479453
 10
50.8403016678
 20
-63.4927010617
 10
50.8627141587
 20
-63.5396336748
 10
50.8827118286
 20
-63.5857525904
 10
50.9001985702
 20
-63.6306827295
 10
50.9152316561
 20
-63.6744101521
 10
50.927810869
 20
-63.7169909246
 10
50.9378974838
 20
-63.7582208872
 10
50.9454719482
 20
-63.7979304338
 10
50.9504972139
 20
-63.8361942325
 10
50.952929813
 20
-63.8729529271
 10
50.9527053412
 20
-63.9078427466
 10
50.9497770394
 20
-63.9404981684
 10
50.9441838836
 20
-63.9707549138
 10
50.9359740792
 20
-63.9984932788
 10
50.9252180073
 20
-64.0235083173
 10
50.9120538156
 20
-64.0456742244
 10
50.8965700179
 20
-64.0649988023
 10
50.8787898482
 20
-64.0815111777
 10
50.8712245469
 20
-64.0871984818
  0
LWPOLYLINE
  5
277
100
AcDbEntity
  8
0
100
AcDbPolyline
 62
250
  6
CONTINUOUS
 90
12
 70
0
 10
51.8691378087
 20
-67.8972687427
 10
51.7805619137
 20
-67.8290608486
 10
51.6844721958
 20
-67.7407013971
 10
51.5958615102
 20
-67.64269537
 10
51.5149270826
 20
-67.5352609045
 10
51.441849053
 20
-67.4186371233
 10
51.3767900753
 20
-67.2930836025
 10
51.3198949547
 20
-67.1588797931
 10
51.2712903258
 20
-67.0163243999
 10
51.2310843705
 20
-66.8657347161
 10
51.1993665773
 20
-66.7074459174
 10
51.1762075424
 20
-66.5418103158
  0
LINE
  5
278
100
AcDbEntity
  8
0
100
AcDbLine
 62
250
  6
CONTINUOUS
 10
-46.0560529291
 20
12.5064652016
 11
40.7836925318
 21
-48.8985076902
  0
LINE
  5
279
100
AcDbEntity
  8
0
100
AcDbLine
 62
250
  6
CONTINUOUS
 10
-45.6122206323
 20
13.4490247539
 11
40.707752293
 21
-47.5884134534
  0
LINE
  5
27A
100
AcDbEntity
  8
0
100
AcDbLine
 62
7
  6
CONTINUOUS
 10
-44.8369228623
 20
15.1243527917
 11
40.5935573617
 21
-45.2841190948
  0
LWPOLYLINE
  5
27B
100
AcDbEntity
  8
0
100
AcDbPolyline
 62
250
  6
CONTINUOUS
 90
10
 70
0
 10
-48.071807757
 20
8.9651010542
 10
-48.0446275704
 20
8.955420182
 10
-48.0179911998
 20
8.9445553826
 10
-47.9919877014
 20
8.9325429813
 10
-47.9667040151
 20
8.9194231404
 10
-47.9422246745
 20
8.9052397248
 10
-47.9186315237
 20
8.8900401552
 10
-47.896003444
 20
8.8738752499
 10
-47.8744160901
 20
8.8567990546
 10
-47.8539416372
 20
8.8388686619
  0
LWPOLYLINE
  5
27C
100
AcDbEntity
  8
0
100
AcDbPolyline
 62
7
  6
CONTINUOUS
 90
3
 70
0
 10
62.9300123185
 20
-47.3289097625
 10
62.7569530325
 20
-47.2181074788
 10
62.7324748175
 20
-47.2009887644
  0
LINE
  5
27D
100
AcDbEntity
  8
0
100
AcDbLine
 62
7
  6
CONTINUOUS
 10
62.9479590939
 20
-47.3405310392
 11
62.9300123185
 21
-47.3289097625
  0
LINE
  5
27E
100
AcDbEntity
  8
0
100
AcDbLine
 62
7
  6
CONTINUOUS
 10
62.5523293628
 20
-47.0607785735
 11
62.9479563294
 21
-47.3405290844
  0
LWPOLYLINE
  5
27F
100
AcDbEntity
  8
0
100
AcDbPolyline
 62
7
  6
CONTINUOUS
 90
36
 70
0
 10
62.7324748175
 20
-47.2009887644
 10
62.5923131299
 20
-47.0953108108
 10
62.4363539612
 20
-46.9606156729
 10
62.2892307845
 20
-46.8140271698
 10
62.1512971266
 20
-46.6557670624
 10
62.0230327735
 20
-46.4863627813
 10
61.9046165465
 20
-46.3060971984
 10
61.7961623759
 20
-46.1151944472
 10
61.6979189677
 20
-45.9142501778
 10
61.6100333962
 20
-45.7038231736
 10
61.5324511961
 20
-45.4840602777
 10
61.4650892445
 20
-45.2549677039
 10
61.4079973113
 20
-45.0168283996
 10
61.3612406737
 20
-44.7700192585
 10
61.3248085369
 20
-44.5146381119
 10
61.2987393872
 20
-44.2509242755
 10
61.2830878168
 20
-43.9793134423
 10
61.2778709317
 20
-43.7001934668
 10
61.2830898813
 20
-43.4139444411
 10
61.2987397816
 20
-43.1209359139
 10
61.3248048625
 20
-42.821556846
 10
61.3612335327
 20
-42.5162946792
 10
61.4079878183
 20
-42.2054662965
 10
61.4650805736
 20
-41.8892013448
 10
61.5324496465
 20
-41.5679488568
 10
61.6100457719
 20
-41.2420807645
 10
61.6979489724
 20
-40.9115916501
 10
61.7962146229
 20
-40.5765455648
 10
61.904694945
 20
-40.2377154098
 10
62.0231319967
 20
-39.8961736455
 10
62.1514056496
 20
-39.5523183814
 10
62.2893385233
 20
-39.2066738269
 10
62.4364514882
 20
-38.8605346825
 10
62.5923905658
 20
-38.5146521805
 10
62.7569983692
 20
-38.169221363
 10
62.9300123185
 20
-37.8247074755
  0
LWPOLYLINE
  5
280
100
AcDbEntity
  8
0
100
AcDbPolyline
 62
250
  6
CONTINUOUS
 90
7
 70
0
 10
-47.1023503923
 20
45.1876306789
 10
-47.0385160247
 20
45.1280533629
 10
-46.9726631516
 20
45.0713678765
 10
-46.904791773
 20
45.0175742199
 10
-46.834901889
 20
44.9666723929
 10
-46.7629934995
 20
44.9186623955
 10
-46.6890666044
 20
44.8735442278
  0
LWPOLYLINE
  5
281
100
AcDbEntity
  8
0
100
AcDbPolyline
 62
250
  6
CONTINUOUS
 90
5
 70
0
 10
-46.4450355475
 20
45.3333339847
 10
-46.3851432284
 20
45.2774112027
 10
-46.3232447452
 20
45.2241197608
 10
-46.2593641115
 20
45.1734840051
 10
-46.2038620605
 20
45.1327868793
  0
LWPOLYLINE
  5
282
100
AcDbEntity
  8
0
100
AcDbPolyline
 62
250
  6
CONTINUOUS
 90
19
 70
0
 10
-46.6890951484
 20
12.775368496
 10
-46.6633701116
 20
12.7728118877
 10
-46.6351556149
 20
12.7683610186
 10
-46.604666141
 20
12.762050145
 10
-46.5721350524
 20
12.7539244538
 10
-46.5378082571
 20
12.7440491344
 10
-46.5019424266
 20
12.7325087771
 10
-46.4648092237
 20
12.7193939083
 10
-46.4266925948
 20
12.704801558
 10
-46.3878821256
 20
12.6888438399
 10
-46.3486731115
 20
12.6716423742
 10
-46.3093640947
 20
12.6533277854
 10
-46.2702540708
 20
12.634039801
 10
-46.2316407137
 20
12.6139251715
 10
-46.1938179432
 20
12.5931368903
 10
-46.1570734863
 20
12.5718334326
 10
-46.1216869714
 20
12.5501769754
 10
-46.0879277992
 20
12.5283321666
 10
-46.0560529291
 20
12.5064652016
  0
LINE
  5
283
100
AcDbEntity
  8
0
100
AcDbLine
 62
7
  6
CONTINUOUS
 10
-46.2038620605
 20
45.1327868793
 11
41.0245179543
 21
-16.546992141
  0
LINE
  5
284
100
AcDbEntity
  8
0
100
AcDbLine
 62
250
  6
CONTINUOUS
 10
-47.8539644686
 20
47.9060393961
 11
41.0598728188
 21
-14.9655378911
  0
LWPOLYLINE
  5
285
100
AcDbEntity
  8
0
100
AcDbPolyline
 62
250
  6
CONTINUOUS
 90
10
 70
0
 10
41.1865824243
 20
-54.1501055468
 10
41.1784382382
 20
-54.1348092258
 10
41.168716301
 20
-54.1199656968
 10
41.1574491161
 20
-54.1056245881
 10
41.1446743537
 20
-54.0918338481
 10
41.1304347237
 20
-54.0786395853
 10
41.1147778341
 20
-54.066085914
 10
41.0977560307
 20
-54.0542148068
 10
41.0794262229
 20
-54.0430659544
 10
41.0598496932
 20
-54.0326766325
  0
LWPOLYLINE
  5
286
100
AcDbEntity
  8
0
100
AcDbPolyline
 62
250
  6
CONTINUOUS
 90
19
 70
0
 10
-47.1023191118
 20
11.8766415855
 10
-47.074496069
 20
11.8786503168
 10
-47.0441940144
 20
11.8787410983
 10
-47.0116435687
 20
11.8769132409
 10
-46.9770924624
 20
11.8731806567
 10
-46.9408036544
 20
11.8675717553
 10
-46.9030533318
 20
11.8601292271
 10
-46.8641288012
 20
11.8509097172
 10
-46.8243263028
 20
11.8399833938
 10
-46.7839487608
 20
11.8274334162
 10
-46.7433034747
 20
11.8133553001
 10
-46.7026997786
 20
11.7978561903
 10
-46.6624466885
 20
11.7810540457
 10
-46.6228505543
 20
11.7630767429
 10
-46.5842127234
 20
11.7440611003
 10
-46.5468272457
 20
11.7241518372
 10
-46.5109786432
 20
11.7035004743
 10
-46.4769397438
 20
11.6822641817
 10
-46.4449696004
 20
11.6606045801
  0
LWPOLYLINE
  5
287
100
AcDbEntity
  8
0
100
AcDbPolyline
 62
250
  6
CONTINUOUS
 90
40
 70
0
 10
-46.6890666044
 20
44.8735442278
 10
-46.6821133379
 20
44.869694802
 10
-46.6748916912
 20
44.8661346909
 10
-46.6674016644
 20
44.8628638945
 10
-46.6596499942
 20
44.8598779643
 10
-46.6516299438
 20
44.857181349
 10
-46.6433213032
 20
44.8547873938
 10
-46.6347249194
 20
44.8526941327
 10
-46.6258399454
 20
44.8509035318
 10
-46.6166436308
 20
44.8494348352
 10
-46.6071372224
 20
44.8482861537
 10
-46.5973194735
 20
44.8474593764
 10
-46.5871638931
 20
44.8469794155
 10
-46.576671225
 20
44.8468443176
 10
-46.5658407255
 20
44.847056036
 10
-46.5546436722
 20
44.8476453424
 10
-46.5430813578
 20
44.8486102032
 10
-46.5311524896
 20
44.849952652
 10
-46.5188244672
 20
44.8517095614
 10
-46.5061015512
 20
44.8538777793
 10
-46.492979481
 20
44.8564604579
 10
-46.4794128736
 20
44.8595039264
 10
-46.4653933037
 20
44.8630086713
 10
-46.4509291967
 20
44.866974206
 10
-46.4360004452
 20
44.8714454006
 10
-46.4206292725
 20
44.8764123017
 10
-46.4047934554
 20
44.8818848625
 10
-46.3884062165
 20
44.8879378126
 10
-46.3714915582
 20
44.8945537256
 10
-46.3540254783
 20
44.9017500278
 10
-46.3358491923
 20
44.9096537281
 10
-46.3168658894
 20
44.9183099077
 10
-46.2971723805
 20
44.9276734853
 10
-46.2769003147
 20
44.9377362265
 10
-46.2559751499
 20
44.9485579784
 10
-46.2344714281
 20
44.9600788939
 10
-46.2127444247
 20
44.9721111967
 10
-46.1907330809
 20
44.9847206969
 10
-46.1684984555
 20
44.9978415846
 10
-46.1465789997
 20
45.0110886536
  0
LINE
  5
288
100
AcDbEntity
  8
0
100
AcDbLine
 62
250
  6
CONTINUOUS
 10
-48.3666122293
 20
51.0172359646
 11
41.7187916939
 21
-12.6827640354
  0
LINE
  5
289
100
AcDbEntity
  8
0
100
AcDbLine
 62
250
  6
CONTINUOUS
 10
-57.1939616695
 20
60.9641107087
 11
51.1762075424
 21
-15.6651708194
  0
LWPOLYLINE
  5
28A
100
AcDbEntity
  8
0
100
AcDbPolyline
 62
250
  6
CONTINUOUS
 90
37
 70
0
 10
51.1762075424
 20
-15.6651708194
 10
51.2451171316
 20
-15.7155468836
 10
51.3134058869
 20
-15.7687204553
 10
51.3810739549
 20
-15.8246914457
 10
51.4482349372
 20
-15.8835639886
 10
51.5147758195
 20
-15.9452335957
 10
51.5803569604
 20
-16.0093871633
 10
51.6449715898
 20
-16.07603556
 10
51.7086276173
 20
-16.1451672287
 10
51.7710075237
 20
-16.2164353655
 10
51.8321045572
 20
-16.2898492462
 10
51.8919270926
 20
-16.3653986137
 10
51.9501803506
 20
-16.4427073338
 10
52.006857199
 20
-16.5217831921
 10
52.0619667797
 20
-16.6026171867
 10
52.1152387076
 20
-16.6848080133
 10
52.1666652356
 20
-16.7683623711
 10
52.2162563878
 20
-16.853272181
 10
52.2637683386
 20
-16.9391140294
 10
52.3091916504
 20
-17.0258917641
 10
52.3525381678
 20
-17.1136000763
 10
52.3935958026
 20
-17.2018019302
 10
52.4323538917
 20
-17.2904983867
 10
52.468825491
 20
-17.3796869292
 10
52.5028338159
 20
-17.4689253218
 10
52.5343675175
 20
-17.5582125637
 10
52.5634401822
 20
-17.6475482912
 10
52.5899120683
 20
-17.736491441
 10
52.6137713152
 20
-17.8250405518
 10
52.6350317354
 20
-17.913195891
 10
52.6535916582
 20
-18.0005192548
 10
52.6694380427
 20
-18.0870092595
 10
52.6825854765
 20
-18.1726663382
 10
52.6929732196
 20
-18.2570553237
 10
52.7005812433
 20
-18.3400310237
 10
52.7054305421
 20
-18.4217380316
 10
52.7075216369
 20
-18.5021760243
  0
LINE
  5
28B
100
AcDbEntity
  8
0
100
AcDbLine
 62
250
  6
CONTINUOUS
 10
-53.5290121893
 20
67.0396337518
 11
54.8411570226
 21
-9.5896477763
  0
LINE
  5
28C
100
AcDbEntity
  8
0
100
AcDbLine
 62
7
  6
CONTINUOUS
 10
56.1586306582
 20
-8.589007367
 11
-52.2115385537
 21
68.0402741611
  0
LWPOLYLINE
  5
28D
100
AcDbEntity
  8
0
100
AcDbPolyline
 62
250
  6
CONTINUOUS
 90
37
 70
0
 10
54.8411570226
 20
-9.5896477763
 10
55.0669960624
 20
-9.7541278876
 10
55.2921760799
 20
-9.9276979055
 10
55.5163261006
 20
-10.1100727567
 10
55.7390689351
 20
-10.3009507307
 10
55.9600442111
 20
-10.5000209835
 10
56.1789086647
 20
-10.7069658402
 10
56.3953045852
 20
-10.9214564158
 10
56.6088674706
 20
-11.143135337
 10
56.8192491792
 20
-11.3716249913
 10
57.0260950883
 20
-11.6065502515
 10
57.2290650977
 20
-11.8475305078
 10
57.4278411046
 20
-12.0941642657
 10
57.6220885695
 20
-12.3460504622
 10
57.8114841599
 20
-12.602778903
 10
57.9957367567
 20
-12.8639226039
 10
58.174536536
 20
-13.1290604956
 10
58.347581479
 20
-13.3977587458
 10
58.5146048737
 20
-13.6695622316
 10
58.6753229599
 20
-13.9440308134
 10
58.8294636252
 20
-14.220717826
 10
58.9767929844
 20
-14.4991523119
 10
59.1170581361
 20
-14.7788819735
 10
59.2500205789
 20
-15.0594537071
 10
59.3754851502
 20
-15.3403927324
 10
59.4932347673
 20
-15.6212431573
 10
59.6030662222
 20
-15.9015504671
 10
59.7048234427
 20
-16.1808426947
 10
59.7983284753
 20
-16.4586726903
 10
59.8834154628
 20
-16.7345853083
 10
59.9599670996
 20
-17.0081008658
 10
60.0278460452
 20
-17.2787702255
 10
60.0869308152
 20
-17.5461626742
 10
60.137149036
 20
-17.8098335165
 10
60.1784178811
 20
-18.0693522035
 10
60.2106452559
 20
-18.3243032122
 10
60.233765894
 20
-18.5742743057
  0
LWPOLYLINE
  5
28E
100
AcDbEntity
  8
0
100
AcDbPolyline
 62
250
  6
CONTINUOUS
 90
10
 70
0
 10
41.71812942
 20
-57.0335664804
 10
41.6248793757
 20
-56.7053125596
 10
41.5365410272
 20
-56.375043416
 10
41.4530844003
 20
-56.042840866
 10
41.3741934388
 20
-55.7081028877
 10
41.3001360162
 20
-55.3715837159
 10
41.2316935551
 20
-55.0354454864
 10
41.1690345994
 20
-54.7005117088
 10
41.1117852788
 20
-54.3662156011
 10
41.0598500229
 20
-54.0326764108
  0
LWPOLYLINE
  5
28F
100
AcDbEntity
  8
0
100
AcDbPolyline
 62
250
  6
CONTINUOUS
 90
3
 70
0
 10
-46.1938548958
 20
45.0982633248
 10
-46.1571081079
 20
45.088328489
 10
-46.1221891573
 20
45.0750354157
  0
LWPOLYLINE
  5
290
100
AcDbEntity
  8
0
100
AcDbPolyline
 62
7
  6
CONTINUOUS
 90
26
 70
0
 10
-52.2115385537
 20
68.0402741611
 10
-52.4409383197
 20
68.1978159038
 10
-52.6693270499
 20
68.3454286371
 10
-52.8967047443
 20
68.4831123609
 10
-53.1235438065
 20
68.6111082368
 10
-53.3493718328
 20
68.7291751033
 10
-53.5727716125
 20
68.8365894753
 10
-53.7934895998
 20
68.9331978178
 10
-54.0117793405
 20
69.0191536658
 10
-54.2269842604
 20
69.09419414
 10
-54.439357722
 20
69.1583538461
 10
-54.6486463627
 20
69.2115981785
 10
-54.8534335213
 20
69.2535604407
 10
-55.0534712536
 20
69.284135712
 10
-55.2490075037
 20
69.3034289131
 10
-55.4393694424
 20
69.3113881103
 10
-55.62466614
 20
69.3079787824
 10
-55.8047885261
 20
69.2932354505
 10
-55.9787365605
 20
69.2672097438
 10
-56.14646587
 20
69.2298205795
 10
-56.3080208278
 20
69.1811490404
 10
-56.4625345121
 20
69.121490003
 10
-56.6098836664
 20
69.0508520659
 10
-56.7501915473
 20
68.9692266305
 10
-56.8829610029
 20
68.8768827777
 10
-56.9271202162
 20
68.8424659935
  0
LWPOLYLINE
  5
291
100
AcDbEntity
  8
0
100
AcDbPolyline
 62
250
  6
CONTINUOUS
 90
6
 70
0
 10
41.0332327242
 20
-16.4166118143
 10
41.0260589851
 20
-16.4051487449
 10
40.9987940632
 20
-16.3556558967
 10
40.9741914364
 20
-16.3041262514
 10
40.9524663587
 20
-16.2503958866
 10
40.9338410353
 20
-16.1943699367
  0
LWPOLYLINE
  5
292
100
AcDbEntity
  8
0
100
AcDbPolyline
 62
250
  6
CONTINUOUS
 90
10
 70
0
 10
41.7181294198
 20
-57.0335664786
 10
41.6443670284
 20
-56.7158951065
 10
41.5739544668
 20
-56.3967869725
 10
41.5070270688
 20
-56.0763770312
 10
41.4436280903
 20
-55.754247759
 10
41.383962066
 20
-55.4310993129
 10
41.3283554061
 20
-55.1087694569
 10
41.2769343856
 20
-54.7879932191
 10
41.2296642625
 20
-54.4683818586
 10
41.1865757719
 20
-54.1501072111
  0
LWPOLYLINE
  5
293
100
AcDbEntity
  8
0
100
AcDbPolyline
 62
250
  6
CONTINUOUS
 90
18
 70
0
 10
41.0598500229
 20
-54.0326764108
 10
41.0303621978
 20
-53.8501117879
 10
41.0039536038
 20
-53.6690093685
 10
40.9802853636
 20
-53.4896837581
 10
40.9584008544
 20
-53.3119617793
 10
40.9386061445
 20
-53.1365795483
 10
40.9224659669
 20
-52.9651858397
 10
40.9100669641
 20
-52.7985949408
 10
40.9007124635
 20
-52.6364440846
 10
40.8948457307
 20
-52.4785699127
 10
40.8923877371
 20
-52.3252372328
 10
40.8929587418
 20
-52.176489912
 10
40.8966414041
 20
-52.0317776764
 10
40.9033296166
 20
-51.8911150289
 10
40.9127891456
 20
-51.7546983779
 10
40.9249730759
 20
-51.6222153018
 10
40.9397812946
 20
-51.4936910102
 10
40.9485475918
 20
-51.4304762894
  0
LINE
  5
294
100
AcDbEntity
  8
0
100
AcDbLine
 62
7
  6
CONTINUOUS
 10
44.557592772
 20
-59.937671835
 11
44.6201194112
 21
-60.5532915151
  0
LWPOLYLINE
  5
295
100
AcDbEntity
  8
0
100
AcDbPolyline
 62
250
  6
CONTINUOUS
 90
17
 70
0
 10
41.71812942
 20
-57.0335664804
 10
41.5093525768
 20
-54.7228371494
 10
41.3250932086
 20
-52.3928122409
 10
41.1653696271
 20
-50.0437233163
 10
41.0301977049
 20
-47.6758038208
 10
40.9195908759
 20
-45.2892890921
 10
40.8335601329
 20
-42.8844163377
 10
40.7721140251
 20
-40.4614245838
 10
40.7352586567
 20
-38.0205546062
 10
40.7229976888
 20
-35.5620489377
 10
40.7353323402
 20
-33.0861519081
 10
40.7722613849
 20
-30.5931095751
 10
40.8337811542
 20
-28.0831696534
 10
40.9198855367
 20
-25.5565815564
 10
41.030565976
 20
-23.0135964053
 10
41.1658114719
 20
-20.4544669578
 10
41.3256085833
 20
-17.8794475545
  0
LINE
  5
296
100
AcDbEntity
  8
0
100
AcDbLine
 62
7
  6
CONTINUOUS
 10
41.079347222
 20
-53.1854403474
 11
41.0791030399
 21
-53.182392092
  0
LWPOLYLINE
  5
297
100
AcDbEntity
  8
0
100
AcDbPolyline
 62
250
  6
CONTINUOUS
 90
10
 70
0
 10
41.1865916361
 20
-15.156099831
 10
41.1784473393
 20
-15.132971789
 10
41.1687257424
 20
-15.1101599197
 10
41.1574593382
 20
-15.0877404677
 10
41.1446857825
 20
-15.0657883658
 10
41.1304477686
 20
-15.0443769849
 10
41.1147928845
 20
-15.0235778886
 10
41.0977734537
 20
-15.0034605941
 10
41.0794463606
 20
-14.9840923398
 10
41.0598728601
 20
-14.9655378605
  0
LWPOLYLINE
  5
298
100
AcDbEntity
  8
0
100
AcDbPolyline
 62
250
  6
CONTINUOUS
 90
11
 70
0
 10
40.9338410353
 20
-16.1943699367
 10
40.9184413128
 20
-16.1358327996
 10
40.9063733309
 20
-16.0744107257
 10
40.897928055
 20
-16.0100304089
 10
40.8932409746
 20
-15.9424173563
 10
40.892251786
 20
-15.8708400946
 10
40.8954152223
 20
-15.7952619297
 10
40.9028310711
 20
-15.7153057235
 10
40.9140147277
 20
-15.6296428463
 10
40.9298318642
 20
-15.5381661011
 10
40.950173274
 20
-15.4404706511
  0
LWPOLYLINE
  5
299
100
AcDbEntity
  8
0
100
AcDbPolyline
 62
250
  6
CONTINUOUS
 90
7
 70
0
 10
41.1865757719
 20
-54.1501072111
 10
41.1632131483
 20
-53.9698397554
 10
41.1413595768
 20
-53.7925178377
 10
41.1212423492
 20
-53.6181481544
 10
41.1030222849
 20
-53.4462840705
 10
41.0870800409
 20
-53.277414632
 10
41.079347222
 20
-53.1854403474
  0
LINE
  5
29A
100
AcDbEntity
  8
0
100
AcDbLine
 62
7
  6
CONTINUOUS
 10
49.9906614733
 20
-63.6876189488
 11
50.0468253972
 21
-64.2398520133
  0
LINE
  5
29B
100
AcDbEntity
  8
0
100
AcDbLine
 62
7
  6
CONTINUOUS
 10
49.8679318071
 20
-63.6008344431
 11
49.9402703803
 21
-64.3151977884
  0
LINE
  5
29C
100
AcDbEntity
  8
0
100
AcDbLine
 62
7
  6
CONTINUOUS
 10
45.8479423115
 20
-60.6606560674
 11
45.9146479932
 21
-61.3179656265
  0
LINE
  5
29D
100
AcDbEntity
  8
0
100
AcDbLine
 62
7
  6
CONTINUOUS
 10
44.9229864103
 20
-59.9093406994
 11
45.0161135821
 21
-60.8332974017
  0
LINE
  5
29E
100
AcDbEntity
  8
0
100
AcDbLine
 62
7
  6
CONTINUOUS
 10
45.0295011756
 20
-59.8340235447
 11
45.1226685993
 21
-60.7579516265
  0
LINE
  5
29F
100
AcDbEntity
  8
0
100
AcDbLine
 62
7
  6
CONTINUOUS
 10
45.3189686831
 20
-60.1893424497
 11
45.4120983293
 21
-61.1133009017
  0
LINE
  5
2A0
100
AcDbEntity
  8
0
100
AcDbLine
 62
7
  6
CONTINUOUS
 10
47.2557256715
 20
-61.5588364497
 11
47.3488553177
 21
-62.4827949017
  0
LINE
  5
2A1
100
AcDbEntity
  8
0
100
AcDbLine
 62
7
  6
CONTINUOUS
 10
47.3622404368
 20
-61.4835192951
 11
47.4554103349
 21
-62.4074491265
  0
LINE
  5
2A2
100
AcDbEntity
  8
0
100
AcDbLine
 62
7
  6
CONTINUOUS
 10
49.4511411576
 20
-63.1112253221
 11
49.5442707838
 21
-64.0351837884
  0
LWPOLYLINE
  5
2A3
100
AcDbEntity
  8
0
100
AcDbPolyline
 62
7
  6
CONTINUOUS
 90
3
 70
0
 10
45.6860884328
 20
-60.1739125056
 10
45.705942289
 20
-60.3775301059
 10
45.808092976
 20
-61.3933114017
  0
LWPOLYLINE
  5
2A4
100
AcDbEntity
  8
0
100
AcDbPolyline
 62
7
  6
CONTINUOUS
 90
3
 70
0
 10
46.8308511781
 20
-60.9833820056
 10
46.8507058594
 20
-61.1870001893
 10
46.952860671
 20
-62.2027844017
  0
LINE
  5
2A5
100
AcDbEntity
  8
0
100
AcDbLine
 62
7
  6
CONTINUOUS
 10
49.9070412706
 20
-62.8898164486
 11
49.9351528389
 21
-63.1792218337
  0
LINE
  5
2A6
100
AcDbEntity
  8
0
100
AcDbLine
 62
7
  6
CONTINUOUS
 10
49.7850356153
 20
-62.8035454224
 11
49.8286437229
 21
-63.2545351519
  0
LINE
  5
2A7
100
AcDbEntity
  8
0
100
AcDbLine
 62
7
  6
CONTINUOUS
 10
44.9403106848
 20
-58.9069170617
 11
45.0295011756
 21
-59.8340235447
  0
LINE
  5
2A8
100
AcDbEntity
  8
0
100
AcDbLine
 62
7
  6
CONTINUOUS
 10
47.2730474706
 20
-60.5564110617
 11
47.3622404368
 21
-61.4835192951
  0
LWPOLYLINE
  5
2A9
100
AcDbEntity
  8
0
100
AcDbPolyline
 62
7
  6
CONTINUOUS
 90
3
 70
0
 10
44.4378398065
 20
-58.702196627
 10
44.4671155088
 20
-59.01159491
 10
44.557592772
 20
-59.937671835
  0
LINE
  5
2AA
100
AcDbEntity
  8
0
100
AcDbLine
 62
7
  6
CONTINUOUS
 10
44.8338344532
 20
-58.982207127
 11
44.9229864103
 21
-59.9093406994
  0
LINE
  5
2AB
100
AcDbEntity
  8
0
100
AcDbLine
 62
7
  6
CONTINUOUS
 10
45.2298142507
 20
-59.262207127
 11
45.3189686831
 21
-60.1893424497
  0
LINE
  5
2AC
100
AcDbEntity
  8
0
100
AcDbLine
 62
7
  6
CONTINUOUS
 10
47.1665712391
 20
-60.631701127
 11
47.2557256715
 21
-61.5588364497
  0
LINE
  5
2AD
100
AcDbEntity
  8
0
100
AcDbLine
 62
7
  6
CONTINUOUS
 10
49.3619867453
 20
-62.1840899853
 11
49.4511411576
 21
-63.1112253221
  0
LWPOLYLINE
  5
2AE
100
AcDbEntity
  8
0
100
AcDbPolyline
 62
7
  6
CONTINUOUS
 90
13
 70
0
 10
40.9077625942
 20
-18.2937510698
 10
40.730576132
 20
-21.3772136232
 10
40.5887797306
 20
-24.4378404779
 10
40.4823998134
 20
-27.4751946325
 10
40.4114579147
 20
-30.4888385364
 10
40.375970372
 20
-33.478347457
 10
40.375948791
 20
-36.4432940069
 10
40.411399597
 20
-39.3832432061
 10
40.482324199
 20
-42.2977803505
 10
40.5887191024
 20
-45.1864897719
 10
40.7305749217
 20
-48.048942252
 10
40.9078774043
 20
-50.8847261121
 10
41.0791053311
 20
-53.1824207452
  0
LINE
  5
2AF
100
AcDbEntity
  8
0
100
AcDbLine
 62
7
  6
CONTINUOUS
 10
40.9077625942
 20
-18.2937510698
 11
41.0546921495
 21
-16.0956813304
  0
LWPOLYLINE
  5
2B0
100
AcDbEntity
  8
0
100
AcDbPolyline
 62
250
  6
CONTINUOUS
 90
3
 70
0
 10
41.3256085833
 20
-17.8794475545
 10
41.5099414302
 20
-15.2887940929
 10
41.7187916939
 20
-12.6827640354
  0
LWPOLYLINE
  5
2B1
100
AcDbEntity
  8
0
100
AcDbPolyline
 62
250
  6
CONTINUOUS
 90
7
 70
0
 10
41.0546921495
 20
-16.0956813304
 10
41.0567646829
 20
-16.0680023659
 10
41.0666388348
 20
-15.9594420653
 10
41.0797850872
 20
-15.8445452239
 10
41.0961721818
 20
-15.7231898766
 10
41.1154280362
 20
-15.593862105
 10
41.1370800673
 20
-15.4560263472
  0
LINE
  5
2B2
100
AcDbEntity
  8
0
100
AcDbLine
 62
250
  6
CONTINUOUS
 10
41.1370800673
 20
-15.4560263472
 11
41.2297395848
 21
-14.8951383594
  0
LWPOLYLINE
  5
2B3
100
AcDbEntity
  8
0
100
AcDbPolyline
 62
250
  6
CONTINUOUS
 90
9
 70
0
 10
41.2297395848
 20
-14.8951383594
 10
41.2770728601
 20
-14.6306151836
 10
41.3285614229
 20
-14.3623900294
 10
41.3842427604
 20
-14.0897685597
 10
41.4439893341
 20
-13.8131627757
 10
41.5074681383
 20
-13.5341077977
 10
41.5744715387
 20
-13.2530436196
 10
41.6449579984
 20
-12.9692991704
 10
41.7187916937
 20
-12.6827640376
  0
LWPOLYLINE
  5
2B4
100
AcDbEntity
  8
0
100
AcDbPolyline
 62
250
  6
CONTINUOUS
 90
10
 70
0
 10
41.0598728188
 20
-14.9655378911
 10
41.111864774
 20
-14.7272725639
 10
41.1691753773
 20
-14.4849241972
 10
41.2319008297
 20
-14.2384763473
 10
41.3004182465
 20
-13.9875812992
 10
41.3745574335
 20
-13.7325518611
 10
41.4535289439
 20
-13.4744103451
 10
41.5370611978
 20
-13.2135421311
 10
41.6254723425
 20
-12.9496467839
 10
41.7187916939
 20
-12.6827640354
  0
LWPOLYLINE
  5
2B5
100
AcDbEntity
  8
0
100
AcDbPolyline
 62
250
  6
CONTINUOUS
 90
4
 70
0
 10
40.950173274
 20
-15.4404706511
 10
40.9984588098
 20
-15.2202178976
 10
41.0272191656
 20
-15.0972178791
 10
41.0598728188
 20
-14.9655378911
  0
LWPOLYLINE
  5
2B6
100
AcDbEntity
  8
0
100
AcDbPolyline
 62
250
  6
CONTINUOUS
 90
31
 70
0
 10
54.8411570226
 20
-9.5896477763
 10
54.6582069898
 20
-9.7329350072
 10
54.4761171877
 20
-9.8842272668
 10
54.2952929035
 20
-10.0431878154
 10
54.1161366078
 20
-10.2094628457
 10
53.9390470583
 20
-10.3826822703
 10
53.7644184131
 20
-10.5624605451
 10
53.5926393526
 20
-10.7483975275
 10
53.4240922148
 20
-10.9400793675
 10
53.2591521442
 20
-11.1370794282
 10
53.0981862568
 20
-11.3389592357
 10
52.941552823
 20
-11.5452694551
 10
52.7896004705
 20
-11.7555508903
 10
52.6426674077
 20
-11.9693355065
 10
52.5010806714
 20
-12.1861474716
 10
52.3651553988
 20
-12.4055042153
 10
52.235194126
 20
-12.6269175034
 10
52.1114861148
 20
-12.8498945242
 10
51.9943067086
 20
-13.0739389857
 10
51.8839167199
 20
-13.2985522201
 10
51.7805618494
 20
-13.5232342933
 10
51.6844721396
 20
-13.7474851186
 10
51.5958614623
 20
-13.9708055685
 10
51.5149270429
 20
-14.1926985869
 10
51.4418490214
 20
-14.4126702946
 10
51.3767900513
 20
-14.6302310885
 10
51.3198949377
 20
-14.8448967322
 10
51.2712903148
 20
-15.0561894327
 10
51.2310843645
 20
-15.2636389047
 10
51.1993665751
 20
-15.4667834168
 10
51.1762075424
 20
-15.6651708194
  0
LINE
  5
2B7
100
AcDbEntity
  8
0
100
AcDbLine
 62
250
  6
CONTINUOUS
 10
56.1586306582
 20
-8.589007367
 11
54.8411570226
 21
-9.5896477763
  0
LWPOLYLINE
  5
2B8
100
AcDbEntity
  8
0
100
AcDbPolyline
 62
250
  6
CONTINUOUS
 90
31
 70
0
 10
60.2337658699
 20
-18.5742742897
 10
60.0227076754
 20
-18.6823591845
 10
59.8029512516
 20
-18.7840251631
 10
59.5750515745
 20
-18.8790154767
 10
59.339584185
 20
-18.9670902356
 10
59.0971437357
 20
-19.0480270144
 10
58.8483424893
 20
-19.1216214143
 10
58.5938087719
 20
-19.1876875789
 10
58.3341853865
 20
-19.2460586639
 10
58.0701279895
 20
-19.2965872581
 10
57.8023034354
 20
-19.3391457558
 10
57.5313880918
 20
-19.3736266793
 10
57.2580661324
 20
-19.3999429499
 10
56.9830278081
 20
-19.4180281081
 10
56.7069677046
 20
-19.4278364815
 10
56.430582988
 20
-19.4293432999
 10
56.1545716441
 20
-19.4225447578
 10
55.8796307158
 20
-19.4074580244
 10
55.6064545427
 20
-19.3841212001
 10
55.3357330079
 20
-19.3525932198
 10
55.0681497953
 20
-19.3129537049
 10
54.8043806633
 20
-19.2653027615
 10
54.5450917381
 20
-19.2097607279
 10
54.2909378316
 20
-19.1464678709
 10
54.0425607877
 20
-19.075584031
 10
53.8005878612
 20
-18.9972882193
 10
53.565630134
 20
-18.9117781652
 10
53.3382809715
 20
-18.8192698169
 10
53.1191145247
 20
-18.7199967964
 10
52.9086842793
 20
-18.614209809
 10
52.7075216591
 20
-18.5021760108
  0
LINE
  5
2B9
100
AcDbEntity
  8
0
100
AcDbLine
 62
250
  6
CONTINUOUS
 10
61.7792438743
 20
-17.5809333147
 11
60.233765894
 21
-18.5742743057
  0
LWPOLYLINE
  5
2BA
100
AcDbEntity
  8
0
100
AcDbPolyline
 62
250
  6
CONTINUOUS
 90
10
 70
0
 10
-48.0718230215
 20
47.9591335138
 10
-48.0446445013
 20
47.95728413
 10
-48.0180096745
 20
47.9543877058
 10
-47.9920075623
 20
47.9504539226
 10
-47.966725071
 20
47.9454959287
 10
-47.9422467016
 20
47.9395302957
 10
-47.9186542679
 20
47.9325769631
 10
-47.8960266222
 20
47.9246591715
 10
-47.8744393926
 20
47.915803385
 10
-47.8539647296
 20
47.9060392026
  0
LWPOLYLINE
  5
2BB
100
AcDbEntity
  8
0
100
AcDbPolyline
 62
250
  6
CONTINUOUS
 90
22
 70
0
 10
52.7075216369
 20
-18.5021760243
 10
52.7288499663
 20
-21.0875909438
 10
52.7480422488
 20
-23.6426243615
 10
52.7650886224
 20
-26.1670877253
 10
52.7799655748
 20
-28.6604405804
 10
52.7926656113
 20
-31.1228549654
 10
52.8032265703
 20
-33.5551963201
 10
52.8116734923
 20
-35.9577568589
 10
52.8180066841
 20
-38.3298405627
 10
52.822238891
 20
-40.6708230434
 10
52.8243646697
 20
-42.9801021455
 10
52.824364657
 20
-45.2579108731
 10
52.8222388666
 20
-47.5048717673
 10
52.8180066956
 20
-49.7211906743
 10
52.8116735125
 20
-51.9062575447
 10
52.80322651
 20
-54.0594653105
 10
52.7926653659
 20
-56.1802077166
 10
52.7799652375
 20
-58.2687229218
 10
52.7650884165
 20
-60.3256610723
 10
52.7480422587
 20
-62.3510941463
 10
52.7288500914
 20
-64.344538151
 10
52.7075216369
 20
-66.3057906999
  0
LWPOLYLINE
  5
2BC
100
AcDbEntity
  8
0
100
AcDbPolyline
 62
250
  6
CONTINUOUS
 90
37
 70
0
 10
52.7075216369
 20
-66.3057906999
 10
52.7054301355
 20
-66.3641947262
 10
52.7005804391
 20
-66.4200824147
 10
52.6929720259
 20
-66.4734541801
 10
52.6825839072
 20
-66.524394314
 10
52.6694361039
 20
-66.5728192933
 10
52.6535893365
 20
-66.6184780296
 10
52.6350290071
 20
-66.6613549699
 10
52.6137681671
 20
-66.7014669039
 10
52.5899084979
 20
-66.7386116712
 10
52.56343619
 20
-66.7727748207
 10
52.5343631011
 20
-66.8039723697
 10
52.502828975
 20
-66.8320482142
 10
52.4688202243
 20
-66.8569880855
 10
52.4323481986
 20
-66.8788080523
 10
52.3935896875
 20
-66.8973978085
 10
52.3525316168
 20
-66.9127423515
 10
52.3091846676
 20
-66.9248586124
 10
52.2637609868
 20
-66.9336844086
 10
52.2162487623
 20
-66.9392041862
 10
52.166657399
 20
-66.9414354421
 10
52.1152306839
 20
-66.9403657207
 10
52.0619585796
 20
-66.9359795234
 10
52.0068488464
 20
-66.9282941891
 10
51.9501718703
 20
-66.9173465972
 10
51.8919185148
 20
-66.9031213426
 10
51.8320959068
 20
-66.8856354564
 10
51.7709988096
 20
-66.8649744871
 10
51.708618842
 20
-66.8411225703
 10
51.6449627623
 20
-66.8140968846
 10
51.5803480935
 20
-66.7840325026
 10
51.5147666004
 20
-66.75091236
 10
51.4482253788
 20
-66.714754444
 10
51.3810650506
 20
-66.6757463219
 10
51.3133989572
 20
-66.6339506773
 10
51.24511317
 20
-66.5893053023
 10
51.1762075424
 20
-66.5418103158
  0
LWPOLYLINE
  5
2BD
100
AcDbEntity
  8
0
100
AcDbPolyline
 62
7
  6
CONTINUOUS
 90
11
 70
0
 10
-46.190807345
 20
45.0822882407
 10
-46.1927889371
 20
45.0819214521
 10
-46.1931154359
 20
45.0818567669
 10
-46.1898181662
 20
45.0821225389
 10
-46.1833006877
 20
45.0822967812
 10
-46.1744657964
 20
45.0820351279
 10
-46.1636390979
 20
45.0810922695
 10
-46.1512782869
 20
45.0792787038
 10
-46.1385691714
 20
45.0766439101
 10
-46.1260498582
 20
45.0732919794
 10
-46.1142246599
 20
45.0694036655
  0
LWPOLYLINE
  5
2BE
100
AcDbEntity
  8
0
100
AcDbPolyline
 62
7
  6
CONTINUOUS
 90
10
 70
0
 10
63.0749281818
 20
-37.286835937
 10
63.0134303776
 20
-35.1506060586
 10
62.931307349
 20
-33.0009070788
 10
62.8285590962
 20
-30.8377389975
 10
62.7051743597
 20
-28.660914632
 10
62.5611643988
 20
-26.4706211649
 10
62.396562992
 20
-24.2674201448
 10
62.2113813987
 20
-22.0514987545
 10
62.0056083595
 20
-19.8226698111
 10
61.7792438743
 20
-17.5809333147
  0
LWPOLYLINE
  5
2BF
100
AcDbEntity
  8
0
100
AcDbPolyline
 62
7
  6
CONTINUOUS
 90
10
 70
0
 10
63.0749281818
 20
-47.6550566136
 10
63.0742046772
 20
-47.6056102373
 10
63.0694976303
 20
-47.5589426155
 10
63.0608377431
 20
-47.51530562
 10
63.0482765322
 20
-47.4749354034
 10
63.0318833985
 20
-47.4380469363
 10
63.0117443913
 20
-47.4048337559
 10
62.9879657061
 20
-47.3754722059
 10
62.9606739692
 20
-47.3501195933
 10
62.9479590939
 20
-47.3405310392
  0
LWPOLYLINE
  5
2C0
100
AcDbEntity
  8
0
100
AcDbPolyline
 62
250
  6
CONTINUOUS
 90
22
 70
0
 10
60.233765894
 20
-18.5742743057
 10
60.2629678735
 20
-21.1665028241
 10
60.2891839465
 20
-23.7283322928
 10
60.3124343388
 20
-26.2595421309
 10
60.3327368412
 20
-28.7595270944
 10
60.3501282835
 20
-31.2284628457
 10
60.3646260956
 20
-33.6672810594
 10
60.3762175745
 20
-36.0762368097
 10
60.3848960068
 20
-38.4546002572
 10
60.3906666072
 20
-40.8018124921
 10
60.3935418764
 20
-43.117232255
 10
60.3935418689
 20
-45.4010625199
 10
60.3906665731
 20
-47.6539991466
 10
60.3848959103
 20
-49.8762052682
 10
60.3762174521
 20
-52.0670334615
 10
60.3646260194
 20
-54.2259518541
 10
60.3501282862
 20
-56.3523085201
 10
60.3327367812
 20
-58.446307917
 10
60.3124340558
 20
-60.5086860938
 10
60.2891834865
 20
-62.5395098005
 10
60.2629674537
 20
-64.5382057556
 10
60.233765894
 20
-66.5045249074
  0
LWPOLYLINE
  5
2C1
100
AcDbEntity
  8
0
100
AcDbPolyline
 62
7
  6
CONTINUOUS
 90
37
 70
0
 10
61.7792438743
 20
-17.5809333147
 10
61.7486800793
 20
-17.3319189394
 10
61.7090754767
 20
-17.0785576257
 10
61.6604300666
 20
-16.8208493737
 10
61.6025981777
 20
-16.5582322976
 10
61.5357254813
 20
-16.2912682832
 10
61.460248991
 20
-16.0216429876
 10
61.3762229446
 20
-15.7496437741
 10
61.2835931043
 20
-15.4749832795
 10
61.1826337704
 20
-15.1984850714
 10
61.0731726869
 20
-14.9197919431
 10
60.9553821098
 20
-14.6392611013
 10
60.8300531074
 20
-14.3587877337
 10
60.6972836518
 20
-14.0786795161
 10
60.5569757709
 20
-13.7986287726
 10
60.4096266166
 20
-13.519607663
 10
60.2551129322
 20
-13.2414332777
 10
60.0935579745
 20
-12.9642885262
 10
59.9258286649
 20
-12.6896942976
 10
59.7518806306
 20
-12.4176689215
 10
59.5717582445
 20
-12.1481940683
 10
59.3864615469
 20
-11.8827356376
 10
59.1960996082
 20
-11.6214823993
 10
59.0005633581
 20
-11.3642455836
 10
58.8005256258
 20
-11.1119247809
 10
58.5957384672
 20
-10.864274266
 10
58.3864498264
 20
-10.6215397642
 10
58.1740763649
 20
-10.3853580407
 10
57.958871445
 20
-10.1560527985
 10
57.7405817043
 20
-9.9333003348
 10
57.5198637169
 20
-9.717766306
 10
57.2964639373
 20
-9.5092456798
 10
57.0706359109
 20
-9.3079434886
 10
56.8437968488
 20
-9.1151404864
 10
56.6164191544
 20
-8.931263591
 10
56.3880304242
 20
-8.7558858846
 10
56.1586306582
 20
-8.589007367
  0
LWPOLYLINE
  5
2C2
100
AcDbEntity
  8
0
100
AcDbPolyline
 62
250
  6
CONTINUOUS
 90
15
 70
0
 10
60.233765894
 20
-66.5045249074
 10
60.2106453416
 20
-66.7029995166
 10
60.1784180091
 20
-66.8936981647
 10
60.1371491713
 20
-67.0763009221
 10
60.0869309203
 20
-67.2504921023
 10
60.0278461035
 20
-67.4159887118
 10
59.9599671292
 20
-67.5725396439
 10
59.8834154959
 20
-67.7198833795
 10
59.7983285258
 20
-67.857767617
 10
59.7048235011
 20
-67.985977622
 10
59.6030662646
 20
-68.1042957171
 10
59.4932347837
 20
-68.2125235052
 10
59.375485153
 20
-68.3105000625
 10
59.2500205968
 20
-68.3980591928
 10
59.2320295094
 20
-68.409367372
  0
LWPOLYLINE
  5
2C3
100
AcDbEntity
  8
0
100
AcDbPolyline
 62
7
  6
CONTINUOUS
 90
10
 70
0
 10
61.7792438743
 20
-65.5285849157
 10
62.0056083595
 20
-63.6069761443
 10
62.2113813987
 20
-61.6691542238
 10
62.396562992
 20
-59.7151191542
 10
62.5611643988
 20
-57.744699676
 10
62.7051743597
 20
-55.7580670486
 10
62.8285590962
 20
-53.7557350509
 10
62.931307349
 20
-51.7378749422
 10
63.0134303776
 20
-49.7043154632
 10
63.0749281818
 20
-47.6550566136
  0
LWPOLYLINE
  5
2C4
100
AcDbEntity
  8
0
100
AcDbPolyline
 62
7
  6
CONTINUOUS
 90
10
 70
0
 10
62.9300123185
 20
-37.8247074755
 10
62.9606739692
 20
-37.761924241
 10
62.9879657061
 20
-37.6991271726
 10
63.0117443913
 20
-37.6366525429
 10
63.0318833985
 20
-37.5748350793
 10
63.0482765322
 20
-37.5140029645
 10
63.0608377431
 20
-37.4544763939
 10
63.0694976303
 20
-37.3965701409
 10
63.0742046772
 20
-37.3405915582
 10
63.0749281818
 20
-37.286835937
  0
LINE
  5
2C5
100
AcDbEntity
  8
0
100
AcDbLine
 62
7
  6
CONTINUOUS
 10
42.5064186459
 20
-57.336475627
 11
42.6128948775
 21
-57.2611855617
  0
LINE
  5
2C6
100
AcDbEntity
  8
0
100
AcDbLine
 62
7
  6
CONTINUOUS
 10
42.9024182423
 20
-57.616489627
 11
43.0088944739
 21
-57.5411995617
  0
LINE
  5
2C7
100
AcDbEntity
  8
0
100
AcDbLine
 62
7
  6
CONTINUOUS
 10
43.7778454288
 20
-58.235510127
 11
43.8843216604
 21
-58.1602200617
  0
LINE
  5
2C8
100
AcDbEntity
  8
0
100
AcDbLine
 62
7
  6
CONTINUOUS
 10
44.1738450253
 20
-58.515524127
 11
44.2803212569
 21
-58.4402340617
  0
LINE
  5
2C9
100
AcDbEntity
  8
0
100
AcDbLine
 62
7
  6
CONTINUOUS
 10
44.4378398065
 20
-58.702196627
 11
44.5443160381
 21
-58.6269065617
  0
LINE
  5
2CA
100
AcDbEntity
  8
0
100
AcDbLine
 62
7
  6
CONTINUOUS
 10
44.8338344532
 20
-58.982207127
 11
44.9403106848
 21
-58.9069170617
  0
LINE
  5
2CB
100
AcDbEntity
  8
0
100
AcDbLine
 62
7
  6
CONTINUOUS
 10
43.7204181873
 20
-59.9171024017
 11
43.8269732045
 21
-59.8417566265
  0
LINE
  5
2CC
100
AcDbEntity
  8
0
100
AcDbLine
 62
7
  6
CONTINUOUS
 10
45.2298142507
 20
-59.262207127
 11
45.3362904822
 21
-59.1869170617
  0
LINE
  5
2CD
100
AcDbEntity
  8
0
100
AcDbLine
 62
7
  6
CONTINUOUS
 10
45.8284515587
 20
-59.685507627
 11
45.9349277903
 21
-59.6102175617
  0
LINE
  5
2CE
100
AcDbEntity
  8
0
100
AcDbLine
 62
7
  6
CONTINUOUS
 10
45.0161135821
 20
-60.8332974017
 11
45.1226685993
 21
-60.7579516265
  0
LWPOLYLINE
  5
2CF
100
AcDbEntity
  8
0
100
AcDbPolyline
 62
7
  6
CONTINUOUS
 90
28
 70
0
 10
50.497834901
 20
-63.6390482082
 10
50.5069725142
 20
-63.6312127919
 10
50.5148772681
 20
-63.6213411803
 10
50.5211923368
 20
-63.6097457388
 10
50.5258680095
 20
-63.5965674901
 10
50.5288958342
 20
-63.5818977765
 10
50.530294691
 20
-63.5659193159
 10
50.5300932488
 20
-63.5489215389
 10
50.5283392847
 20
-63.5309375363
 10
50.5250345099
 20
-63.5117308167
 10
50.5200971723
 20
-63.4912346546
 10
50.5135249914
 20
-63.4697268143
 10
50.5054003413
 20
-63.4474615813
 10
50.4957392579
 20
-63.4245545917
 10
50.4845939144
 20
-63.4012088921
 10
50.4721996181
 20
-63.3778418178
 10
50.4587254316
 20
-63.3547074063
 10
50.4442376398
 20
-63.331880665
 10
50.4288761031
 20
-63.3095059237
 10
50.4128141849
 20
-63.2877879697
 10
50.3961266208
 20
-63.2667852247
 10
50.3787852541
 20
-63.2464236883
 10
50.3608359102
 20
-63.226771518
 10
50.3424391946
 20
-63.2080186111
 10
50.3237230119
 20
-63.1902818868
 10
50.3048070523
 20
-63.1736703161
 10
50.2858014535
 20
-63.1582855188
 10
50.2668228207
 20
-63.1442204224
  0
LWPOLYLINE
  5
2D0
100
AcDbEntity
  8
0
100
AcDbPolyline
 62
7
  6
CONTINUOUS
 90
35
 70
0
 10
50.9777460486
 20
-64.0118829557
 10
50.9852071805
 20
-64.0062714448
 10
51.0029457744
 20
-63.9898181583
 10
51.0184839885
 20
-63.9705153772
 10
51.0316016942
 20
-63.9484413636
 10
51.0423007509
 20
-63.9234971686
 10
51.0505804124
 20
-63.8957808538
 10
51.0562162684
 20
-63.8656664955
 10
51.059124582
 20
-63.8330434397
 10
51.059389682
 20
-63.7980218701
 10
51.05703859
 20
-63.761307652
 10
51.0520289599
 20
-63.7229853181
 10
51.0444029086
 20
-63.6829705207
 10
51.0343135759
 20
-63.6417162632
 10
51.0218019679
 20
-63.5993080537
 10
51.0068265048
 20
-63.5556608436
 10
50.9894161703
 20
-63.5109720224
 10
50.9694609479
 20
-63.4650189231
 10
50.9470701979
 20
-63.4180247371
 10
50.9226015843
 20
-63.3708559488
 10
50.8959815603
 20
-63.3235096422
 10
50.867282446
 20
-63.2759897111
 10
50.8370802399
 20
-63.2291732251
 10
50.8054222971
 20
-63.183194946
 10
50.7722598532
 20
-63.1379212344
 10
50.7380245414
 20
-63.0938267056
 10
50.7027593076
 20
-63.0509665842
 10
50.6664200341
 20
-63.0092865783
 10
50.6293077658
 20
-62.9690970231
 10
50.5913454087
 20
-62.9303309676
 10
50.5526092206
 20
-62.8930560279
 10
50.5136303282
 20
-62.8577843472
 10
50.4745856128
 20
-62.8246867679
 10
50.435297734
 20
-62.7935928126
 10
50.3957665773
 20
-62.7645025725
  0
LINE
  5
2D1
100
AcDbEntity
  8
0
100
AcDbLine
 62
7
  6
CONTINUOUS
 10
46.567933931
 20
-60.208400627
 11
46.6744101626
 21
-60.1331105617
  0
LINE
  5
2D2
100
AcDbEntity
  8
0
100
AcDbLine
 62
7
  6
CONTINUOUS
 10
45.808092976
 20
-61.3933114017
 11
45.9146479932
 21
-61.3179656265
  0
LINE
  5
2D3
100
AcDbEntity
  8
0
100
AcDbLine
 62
7
  6
CONTINUOUS
 10
47.1665712391
 20
-60.631701127
 11
47.2730474706
 21
-60.5564110617
  0
LINE
  5
2D4
100
AcDbEntity
  8
0
100
AcDbLine
 62
7
  6
CONTINUOUS
 10
46.5784662465
 20
-61.9380432884
 11
46.6850212635
 21
-61.8626975133
  0
LINE
  5
2D5
100
AcDbEntity
  8
0
100
AcDbLine
 62
7
  6
CONTINUOUS
 10
48.0662666017
 20
-61.2678774853
 11
48.1727428331
 21
-61.1925874201
  0
LINE
  5
2D6
100
AcDbEntity
  8
0
100
AcDbLine
 62
7
  6
CONTINUOUS
 10
48.4622810474
 20
-61.5479019853
 11
48.5687572788
 21
-61.4726119201
  0
LINE
  5
2D7
100
AcDbEntity
  8
0
100
AcDbLine
 62
7
  6
CONTINUOUS
 10
47.3488553177
 20
-62.4827949017
 11
47.4554103349
 21
-62.4074491265
  0
LINE
  5
2D8
100
AcDbEntity
  8
0
100
AcDbLine
 62
7
  6
CONTINUOUS
 10
48.1822660685
 20
-62.4088930674
 11
48.2887897868
 21
-62.3335694238
  0
LINE
  5
2D9
100
AcDbEntity
  8
0
100
AcDbLine
 62
7
  6
CONTINUOUS
 10
48.0088442699
 20
-62.9494732884
 11
48.1153992869
 21
-62.8741275133
  0
LINE
  5
2DA
100
AcDbEntity
  8
0
100
AcDbLine
 62
7
  6
CONTINUOUS
 10
49.3619867453
 20
-62.1840899853
 11
49.4684629766
 21
-62.1087999201
  0
LINE
  5
2DB
100
AcDbEntity
  8
0
100
AcDbLine
 62
7
  6
CONTINUOUS
 10
50.2892722804
 20
-62.8397800953
 11
50.3957485117
 21
-62.7644900301
  0
LINE
  5
2DC
100
AcDbEntity
  8
0
100
AcDbLine
 62
7
  6
CONTINUOUS
 10
49.8286437229
 20
-63.2545351519
 11
49.9351528389
 21
-63.1792218337
  0
LINE
  5
2DD
100
AcDbEntity
  8
0
100
AcDbLine
 62
7
  6
CONTINUOUS
 10
49.2802764783
 20
-63.8485159017
 11
49.3868314955
 21
-63.7731701265
  0
LINE
  5
2DE
100
AcDbEntity
  8
0
100
AcDbLine
 62
7
  6
CONTINUOUS
 10
50.3104261079
 20
-63.5952065604
 11
50.4169352239
 21
-63.5198932422
  0
LINE
  5
2DF
100
AcDbEntity
  8
0
100
AcDbLine
 62
7
  6
CONTINUOUS
 10
49.9402703803
 20
-64.3151977884
 11
50.0468253972
 21
-64.2398520133
  0
LINE
  5
2E0
100
AcDbEntity
  8
0
100
AcDbLine
 62
7
  6
CONTINUOUS
 10
50.9777427525
 20
-64.0118787362
 11
50.8712292903
 21
-64.0871951277
  0
LWPOLYLINE
  5
2E1
100
AcDbEntity
  8
0
100
AcDbPolyline
 62
7
  6
CONTINUOUS
 90
10
 70
0
 10
50.8712245469
 20
-64.0871984818
 10
50.8588204224
 20
-64.0951555774
 10
50.8367733587
 20
-64.1058919278
 10
50.8126497847
 20
-64.113737803
 10
50.7865223704
 20
-64.1186526576
 10
50.7585387453
 20
-64.1205903832
 10
50.7288072203
 20
-64.1195540435
 10
50.6974558399
 20
-64.1155493811
 10
50.6646290948
 20
-64.1085795866
 10
50.6304713944
 20
-64.0986681002
  0
LINE
  5
2E2
100
AcDbEntity
  8
0
100
AcDbLine
 62
7
  6
CONTINUOUS
 10
51.1287933671
 20
-65.155606175
 11
51.2353483839
 21
-65.0802604001
  0
LWPOLYLINE
  5
2E3
100
AcDbEntity
  8
0
100
AcDbPolyline
 62
250
  6
CONTINUOUS
 90
31
 70
0
 10
60.2337652702
 20
-66.5045243423
 10
60.0227070912
 20
-66.6465309163
 10
59.8029506842
 20
-66.779816011
 10
59.5750510252
 20
-66.9040430265
 10
59.3395836551
 20
-67.0188982381
 10
59.0971432263
 20
-67.1240915888
 10
58.8483420013
 20
-67.219357422
 10
58.5938083062
 20
-67.304455152
 10
58.3341849438
 20
-67.3791698719
 10
58.0701275705
 20
-67.4433128959
 10
57.8023030405
 20
-67.4967222366
 10
57.5313877214
 20
-67.5392630131
 10
57.2580657867
 20
-67.5708277924
 10
56.9830274871
 20
-67.5913368605
 10
56.7069674083
 20
-67.6007384233
 10
56.4305827161
 20
-67.5990087381
 10
56.1545713964
 20
-67.586152173
 10
55.8796304917
 20
-67.5622011962
 10
55.6064543417
 20
-67.5272162938
 10
55.3357328292
 20
-67.4812858172
 10
55.068149638
 20
-67.4245257598
 10
54.8043805264
 20
-67.3570794643
 10
54.5450916205
 20
-67.2791172604
 10
54.290937732
 20
-67.1908360349
 10
54.0425607048
 20
-67.0924587346
 10
53.8005877935
 20
-66.9842338027
 10
53.56563008
 20
-66.866434552
 10
53.3382809295
 20
-66.7393584744
 10
53.1191144928
 20
-66.6033264895
 10
52.9086842558
 20
-66.4586821344
 10
52.707521642
 20
-66.3057906958
  0
LINE
  5
2E4
100
AcDbEntity
  8
0
100
AcDbLine
 62
250
  6
CONTINUOUS
 10
61.7792438743
 20
-65.5285849157
 11
60.233765894
 21
-66.5045249074
  0
LWPOLYLINE
  5
2E5
100
AcDbEntity
  8
0
100
AcDbPolyline
 62
7
  6
CONTINUOUS
 90
15
 70
0
 10
60.6764407196
 20
-67.5138029509
 10
60.6972836518
 20
-67.5007158937
 10
60.8300531074
 20
-67.4083720409
 10
60.9553821098
 20
-67.3051406482
 10
61.0731726869
 20
-67.191190838
 10
61.1826337704
 20
-67.0672990586
 10
61.2835931043
 20
-66.9335789097
 10
61.3762229446
 20
-66.7899167915
 10
61.460248991
 20
-66.6367483525
 10
61.5357254813
 20
-66.4738629331
 10
61.6025981777
 20
-66.3014711929
 10
61.6604300666
 20
-66.1206407584
 10
61.7090754767
 20
-65.9317275051
 10
61.7486800793
 20
-65.7343755576
 10
61.7792438743
 20
-65.5285849157
  0
LINE
  5
2E6
100
AcDbEntity
  8
0
100
AcDbLine
 62
7
  6
CONTINUOUS
 10
60.6764969566
 20
-67.5137680841
 11
59.2315940084
 21
-68.4096374771
  0
ELLIPSE
  5
2E7
100
AcDbEntity
  8
0
100
AcDbEllipse
 62
7
  6
CONTINUOUS
 10
297.3874164703
 20
132.9451043392
 30
0.0
 11
251.3763073557
 21
250.6421339504
 31
0.0
 40
0.265596453
 41
-3.6233465496
 42
-3.6178175692
  0
ELLIPSE
  5
2E8
100
AcDbEntity
  8
0
100
AcDbEllipse
 62
7
  6
CONTINUOUS
 10
282.1766789931
 20
143.7007199562
 30
0.0
 11
107.2641732608
 21
342.7110191369
 31
0.0
 40
0.6912191856
 41
-3.8887476468
 42
-3.8807168543
  0
ELLIPSE
  5
2E9
100
AcDbEntity
  8
0
100
AcDbEllipse
 62
7
  6
CONTINUOUS
 10
299.4325967101
 20
131.4989435229
 30
0.0
 11
246.7691282628
 21
253.90672902
 31
0.0
 40
0.2906993817
 41
-3.6236945669
 42
-3.6184653186
  0
ELLIPSE
  5
2EA
100
AcDbEntity
  8
0
100
AcDbEllipse
 62
7
  6
CONTINUOUS
 10
285.8478150479
 20
141.1048347572
 30
0.0
 11
121.982707479
 21
335.4516945254
 31
0.0
 40
0.6762663434
 41
-3.8492559913
 42
-3.8439595729
  0
ELLIPSE
  5
2EB
100
AcDbEntity
  8
0
100
AcDbEllipse
 62
7
  6
CONTINUOUS
 10
287.7365562768
 20
139.7692930263
 30
0.0
 11
107.2644091222
 21
342.7109073413
 31
0.0
 40
0.6912189722
 41
-3.8862465391
 42
-3.8838221511
  0
ELLIPSE
  5
2EC
100
AcDbEntity
  8
0
100
AcDbEllipse
 62
7
  6
CONTINUOUS
 10
287.7368152224
 20
139.7691099241
 30
0.0
 11
107.2691965722
 21
342.7086381152
 31
0.0
 40
0.6912146399
 41
-3.8822841257
 42
-3.8807043517
  0
ELLIPSE
  5
2ED
100
AcDbEntity
  8
0
100
AcDbEllipse
 62
7
  6
CONTINUOUS
 10
301.6758727158
 20
129.9127078472
 30
0.0
 11
251.376529907
 21
250.6419766583
 31
0.0
 40
0.2655952353
 41
-3.6233465735
 42
-3.615315781
  0
ELLIPSE
  5
2EE
100
AcDbEntity
  8
0
100
AcDbEllipse
 62
7
  6
CONTINUOUS
 10
284.8616852188
 20
141.8021338464
 30
0.0
 11
-0.4289205336
 21
380.9563932144
 31
0.0
 40
0.7320502981
 41
-4.1429917753
 42
-4.1398859298
  0
ELLIPSE
  5
2EF
100
AcDbEntity
  8
0
100
AcDbEllipse
 62
7
  6
CONTINUOUS
 10
-44.6955015061
 20
14.2546873551
 30
0.0
 11
-0.1154602812
 21
0.1633186643
 31
0.0
 40
0.5000253781
 41
0.6155993881
 42
2.1863957149
  0
ELLIPSE
  5
2F0
100
AcDbEntity
  8
0
100
AcDbEllipse
 62
7
  6
CONTINUOUS
 10
297.7835782518
 20
132.6649756571
 30
0.0
 11
251.3773037201
 21
250.6414297526
 31
0.0
 40
0.2655910011
 41
-3.6233465667
 42
-3.6153157944
  0
ELLIPSE
  5
2F1
100
AcDbEntity
  8
0
100
AcDbEllipse
 62
7
  6
CONTINUOUS
 10
297.7835782518
 20
132.6649756571
 30
0.0
 11
251.2696167415
 21
250.5340580134
 31
0.0
 40
0.2655910011
 41
-3.6233088459
 42
-3.6152746025
  0
ELLIPSE
  5
2F2
100
AcDbEntity
  8
0
100
AcDbEllipse
 62
7
  6
CONTINUOUS
 10
282.5726902693
 20
143.4206976974
 30
0.0
 11
107.2644149842
 21
342.7109045628
 31
0.0
 40
0.6912189668
 41
-3.8887470432
 42
-3.8832180629
  0
ELLIPSE
  5
2F3
100
AcDbEntity
  8
0
100
AcDbEllipse
 62
7
  6
CONTINUOUS
 10
282.5726902693
 20
143.4206976974
 30
0.0
 11
107.2184642138
 21
342.5640913808
 31
0.0
 40
0.6912189668
 41
-3.8887093223
 42
-3.8836010609
  0
ELLIPSE
  5
2F4
100
AcDbEntity
  8
0
100
AcDbEllipse
 62
7
  6
CONTINUOUS
 10
299.8285117049
 20
131.2189893453
 30
0.0
 11
246.7686396958
 21
253.9070761013
 31
0.0
 40
0.2907020299
 41
-3.6209602955
 42
-3.6156638971
  0
ELLIPSE
  5
2F5
100
AcDbEntity
  8
0
100
AcDbEllipse
 62
7
  6
CONTINUOUS
 10
299.8285117049
 20
131.2189893453
 30
0.0
 11
246.6629270128
 21
253.798305399
 31
0.0
 40
0.2907020299
 41
-3.6191883569
 42
-3.6156227052
  0
ELLIPSE
  5
2F6
100
AcDbEntity
  8
0
100
AcDbEllipse
 62
7
  6
CONTINUOUS
 10
286.2437106621
 20
140.8248942837
 30
0.0
 11
121.9807878484
 21
335.4526787116
 31
0.0
 40
0.6762685217
 41
-3.8519951348
 42
-3.8467658865
  0
ELLIPSE
  5
2F7
100
AcDbEntity
  8
0
100
AcDbEllipse
 62
7
  6
CONTINUOUS
 10
286.2437106621
 20
140.8248942837
 30
0.0
 11
121.928532763
 21
335.3089748652
 31
0.0
 40
0.6762685217
 41
-3.8519574139
 42
-3.8472413585
  0
ELLIPSE
  5
2F8
100
AcDbEntity
  8
0
100
AcDbEllipse
 62
7
  6
CONTINUOUS
 10
302.0715394513
 20
129.6329292154
 30
0.0
 11
251.3745846524
 21
250.6433515025
 31
0.0
 40
0.2656058792
 41
-3.6208460012
 42
-3.6184216132
  0
ELLIPSE
  5
2F9
100
AcDbEntity
  8
0
100
AcDbEllipse
 62
7
  6
CONTINUOUS
 10
302.0715394513
 20
129.6329292154
 30
0.0
 11
251.2668988386
 21
250.5359789401
 31
0.0
 40
0.2656058792
 41
-3.6196834516
 42
-3.6183817643
  0
ELLIPSE
  5
2FA
100
AcDbEntity
  8
0
100
AcDbEllipse
 62
7
  6
CONTINUOUS
 10
288.1324891519
 20
139.4893262054
 30
0.0
 11
107.2630501307
 21
342.7115514854
 31
0.0
 40
0.6912202019
 41
-3.8887504712
 42
-3.8807196788
  0
ELLIPSE
  5
2FB
100
AcDbEntity
  8
0
100
AcDbEllipse
 62
7
  6
CONTINUOUS
 10
288.1324891519
 20
139.4893262054
 30
0.0
 11
107.217099945
 21
342.5647380263
 31
0.0
 40
0.6912202019
 41
-3.8887127503
 42
-3.8806784869
  0
ELLIPSE
  5
2FC
100
AcDbEntity
  8
0
100
AcDbEllipse
 62
7
  6
CONTINUOUS
 10
302.0719612524
 20
129.632630957
 30
0.0
 11
251.3770674426
 21
250.6415967457
 31
0.0
 40
0.265592294
 41
-3.6168955844
 42
-3.6153158104
  0
ELLIPSE
  5
2FD
100
AcDbEntity
  8
0
100
AcDbEllipse
 62
7
  6
CONTINUOUS
 10
302.0719612524
 20
129.632630957
 30
0.0
 11
251.2693805652
 21
250.534224935
 31
0.0
 40
0.265592294
 41
2.6670365899
 42
2.6679106886
  0
ELLIPSE
  5
2FE
100
AcDbEntity
  8
0
100
AcDbEllipse
 62
7
  6
CONTINUOUS
 10
285.3077933686
 20
141.4866877486
 30
0.0
 11
-0.4269199009
 21
380.9558765744
 31
0.0
 40
0.7320503028
 41
-4.1431804008
 42
-4.1398814032
  0
ELLIPSE
  5
2FF
100
AcDbEntity
  8
0
100
AcDbEllipse
 62
7
  6
CONTINUOUS
 10
285.3077933686
 20
141.4866877486
 30
0.0
 11
-0.4267370136
 21
380.7926797117
 31
0.0
 40
0.7320503028
 41
-4.1428162358
 42
-4.1398402114
  0
ENDSEC
  0
SECTION
  2
OBJECTS
  0
DICTIONARY
  5
C
100
AcDbDictionary
280
0
281
1
  3
ACAD_GROUP
350
D
  3
ACAD_MLINESTYLE
350
17
  3
ACAD_LAYOUT
350
1A
  3
ACAD_PLOTSETTINGS
350
19
  3
ACAD_PLOTSTYLENAME
350
E
  0
DICTIONARY
  5
D
102
{ACAD_REACTORS
330
C
102
}
100
AcDbDictionary
280
0
281
1
  0
ACDBDICTIONARYWDFLT
  5
E
102
{ACAD_REACTORS
330
C
102
}
100
AcDbDictionary
281
1
  3
Normal
350
F
100
AcDbDictionaryWithDefault
340
F
  0
DICTIONARY
  5
17
102
{ACAD_REACTORS
330
C
102
}
100
AcDbDictionary
280
0
281
1
  3
Standard
350
18
  0
DICTIONARY
  5
19
102
{ACAD_REACTORS
330
C
102
}
100
AcDbDictionary
281
1
  0
DICTIONARY
  5
1A
102
{ACAD_REACTORS
330
C
102
}
100
AcDbDictionary
281
1
  3
Model
350
300
  3
Layout1
350
301
  0
ACDBPLACEHOLDER
  5
F
102
{ACAD_REACTORS
330
E
102
}
  0
MLINESTYLE
  5
18
102
{ACAD_REACTORS
330
17
102
}
100
AcDbMlineStyle
  2
STANDARD
 70
0
  3

 62
256
 51
90.0
 52
90.0
 71
2
 49
0.5
 62
256
  6
BYLAYER
 49
-0.5
 62
256
  6
BYLAYER
  0
LAYOUT
  5
300
102
{ACAD_REACTORS
330
1A
102
}
100
AcDbPlotSettings
  1

  2
none_device
  4
ISO_A4_(297.00_x_210.00_MM)
  6

 40
0.0
 41
0.0
 42
0.0
 43
0.0
 44
297.0
 45
210.0
 46
0.0
 47
0.0
 48
0.0
 49
0.0
140
0.0
141
0.0
142
1.0
143
1.0
 70
1024
 72
1
 73
0
 74
0
  7

 75
0
147
1.0
148
0.0
149
0.0
100
AcDbLayout
  1
Model
 70
0
 71
0
 10
0.0
 20
0.0
 11
297.0
 21
210.0
 12
0.0
 22
0.0
 32
0.0
 14
0.0
 24
0.0
 34
0.0
 15
0.0
 25
0.0
 35
0.0
146
0.0
 13
0.0
 23
0.0
 33
0.0
 16
1.0
 26
0.0
 36
0.0
 17
0.0
 27
1.0
 37
0.0
 76
0
330
214
345
0
346
0
  0
LAYOUT
  5
301
102
{ACAD_REACTORS
330
1A
102
}
100
AcDbPlotSettings
  1

  2
none_device
  4
ISO_A4_(297.00_x_210.00_MM)
  6

 40
0.0
 41
0.0
 42
0.0
 43
0.0
 44
297.0
 45
210.0
 46
0.0
 47
0.0
 48
0.0
 49
0.0
140
0.0
141
0.0
142
1.0
143
1.0
 70
0
 72
1
 73
0
 74
0
  7

 75
0
147
1.0
148
0.0
149
0.0
100
AcDbLayout
  1
Layout1
 70
0
 71
1
 10
0.0
 20
0.0
 11
297.0
 21
210.0
 12
0.0
 22
0.0
 32
0.0
 14
0.0
 24
0.0
 34
0.0
 15
0.0
 25
0.0
 35
0.0
146
0.0
 13
0.0
 23
0.0
 33
0.0
 16
1.0
 26
0.0
 36
0.0
 17
0.0
 27
1.0
 37
0.0
 76
0
330
215
345
0
346
0
  0
ENDSEC
  0
EOF
