  0
SECTION
  2
HEADER
  9
$ACADVER
  1
AC1024
  9
$DWGCODEPAGE
  3
ANSI_1252
  9
$EXTMAX
 10
297.0
 20
210.0
 30
0.0
  9
$EXTMIN
 10
0.0
 20
0.0
 30
0.0
  9
$LIMMIN
 10
0.0
 20
0.0
  9
$LIMMAX
 10
297.0
 20
210.0
  9
$VIEWCTR
 10
148.5
 20
105.0
  9
$VIEWSIZE
 40
210.0
  9
$CLAYER
  8
0
  9
$LTSCALE
 40
16.335
  9
$CELTYPE
  6
BYLAYER
  9
$DIMSCALE
 40
1.0
  9
$DIMASZ
 40
3.0
  9
$DIMEXO
 40
0.5
  9
$DIMDLI
 40
11.286
  9
$DIMEXE
 40
1.5
  9
$DIMCEN
 40
2.673
  9
$DIMLFAC
 40
1.0
  9
$DIMBLK
  1
_FILLED
  9
$DIMALT
 70
0
  9
$DIMALTF
 40
0.0393700787
  9
$DIMTXT
 40
3.0
  9
$DIMTOL
 70
1
  9
$DIMLIM
 70
0
  9
$DIMTFAC
 40
1.0
  9
$DIMTP
 40
0.01
  9
$DIMTM
 40
0.01
  9
$DIMGAP
 40
0.625
  9
$DIMDSEP
 70
44
  9
$AUNITS
 70
0
  9
$PDMODE
 70
3
  9
$PDSIZE
 40
3.0
  9
$HANDSEED
  5
2FE
  9
$TILEMODE
 70
1
  9
$MEASUREMENT
 70
1
  9
$INSUNITS
 70
4
  0
ENDSEC
  0
SECTION
  2
CLASSES
  0
CLASS
  1
ACDBDICTIONARYWDFLT
  2
AcDbDictionaryWithDefault
  3
AutoCAD 2000
 90
0
 91
1
280
0
281
0
  0
CLASS
  1
ACDBPLACEHOLDER
  2
AcDbPlaceHolder
  3
AutoCAD 2000
 90
0
 91
1
280
0
281
0
  0
CLASS
  1
LAYOUT
  2
AcDbLayout
  3
AutoCAD 2000
 90
0
 91
0
280
0
281
0
  0
ENDSEC
  0
SECTION
  2
TABLES
  0
TABLE
  2
VPORT
  5
8
100
AcDbSymbolTable
 70
2
  0
VPORT
  5
1F4
100
AcDbSymbolTableRecord
100
AcDbViewportTableRecord
  2
*ACTIVE
 70
0
 10
0.0
 20
0.0
 11
1.0
 21
1.0
 12
148.5
 22
105.0
 13
0.0
 23
0.0
 14
1.0
 24
1.0
 15
0.0
 25
0.0
 16
0.0
 26
0.0
 36
1.0
 17
0.0
 27
0.0
 37
0.0
 40
210.0
 41
1.4142857143
 42
50.0
 43
0.0
 44
0.0
 50
0.0
 51
0.0
 71
0
 72
100
 73
1
 74
1
 75
0
 76
0
 77
0
 78
0
  0
ENDTAB
  0
TABLE
  2
LTYPE
  5
5
100
AcDbSymbolTable
 70
6
  0
LTYPE
  5
14
100
AcDbSymbolTableRecord
100
AcDbLinetypeTableRecord
  2
BYBLOCK
 70
0
  3

 72
65
 73
0
 40
0.0
  0
LTYPE
  5
15
100
AcDbSymbolTableRecord
100
AcDbLinetypeTableRecord
  2
BYLAYER
 70
0
  3

 72
65
 73
0
 40
0.0
  0
LTYPE
  5
16
100
AcDbSymbolTableRecord
100
AcDbLinetypeTableRecord
  2
CONTINUOUS
 70
64
  3
Solid line
 72
65
 73
0
 40
0.0
  0
LTYPE
  5
1F5
100
AcDbSymbolTableRecord
100
AcDbLinetypeTableRecord
  2
CENTER
 70
64
  3
____ _ ____ _ ____ _ ____ _ ____ _ ____ _ ____
 72
65
 73
4
 40
0.6
 49
0.375
 74
0
 49
-0.075
 74
0
 49
0.075
 74
0
 49
-0.075
 74
0
  0
LTYPE
  5
1F6
100
AcDbSymbolTableRecord
100
AcDbLinetypeTableRecord
  2
HIDDEN
 70
64
  3
- - - - - - - - - - - - - - - - - - - -
 72
65
 73
2
 40
0.2
 49
0.1
 74
0
 49
-0.1
 74
0
  0
LTYPE
  5
1F7
100
AcDbSymbolTableRecord
100
AcDbLinetypeTableRecord
  2
PHANTOM
 70
64
  3
_____ _ _ _____ _ _ _____ _ _ _____
 72
65
 73
6
 40
0.8
 49
0.45
 74
0
 49
-0.05
 74
0
 49
0.1
 74
0
 49
-0.05
 74
0
 49
0.1
 74
0
 49
-0.05
 74
0
  0
LTYPE
  5
1F8
100
AcDbSymbolTableRecord
100
AcDbLinetypeTableRecord
  2
DOT
 70
64
  3
. . . . . . . . . . . . . . . . . . . .
 72
65
 73
2
 40
0.2
 49
0.1
 74
0
 49
-0.1
 74
0
  0
LTYPE
  5
1F9
100
AcDbSymbolTableRecord
100
AcDbLinetypeTableRecord
  2
DASHED
 70
64
  3
- - - - - - - - - - - - - - - - - - - -
 72
65
 73
2
 40
0.2
 49
0.1
 74
0
 49
-0.1
 74
0
  0
ENDTAB
  0
TABLE
  2
LAYER
  5
2
100
AcDbSymbolTable
 70
36
  0
LAYER
  5
10
100
AcDbSymbolTableRecord
100
AcDbLayerTableRecord
  2
0
 70
0
 62
7
  6
CONTINUOUS
370
-3
390
F
  0
LAYER
  5
1FA
100
AcDbSymbolTableRecord
100
AcDbLayerTableRecord
  2
DEFAULT_1
 70
0
 62
7
  6
CENTER
370
-3
390
F
  0
LAYER
  5
1FB
100
AcDbSymbolTableRecord
100
AcDbLayerTableRecord
  2
DEFAULT_2
 70
0
 62
7
  6
HIDDEN
370
-3
390
F
  0
LAYER
  5
1FC
100
AcDbSymbolTableRecord
100
AcDbLayerTableRecord
  2
DEFAULT_3
 70
0
 62
7
  6
PHANTOM
370
-3
390
F
  0
LAYER
  5
1FD
100
AcDbSymbolTableRecord
100
AcDbLayerTableRecord
  2
26216763_GEN
 70
0
 62
7
  6
CONTINUOUS
370
-3
390
F
  0
LAYER
  5
1FE
100
AcDbSymbolTableRecord
100
AcDbLayerTableRecord
  2
ASSI
 70
0
 62
7
  6
CONTINUOUS
370
-3
390
F
  0
LAYER
  5
1FF
100
AcDbSymbolTableRecord
100
AcDbLayerTableRecord
  2
COORDINATE
 70
0
 62
7
  6
CONTINUOUS
370
-3
390
F
  0
LAYER
  5
200
100
AcDbSymbolTableRecord
100
AcDbLayerTableRecord
  2
COORD_ORIGINE
 70
0
 62
7
  6
CONTINUOUS
370
-3
390
F
  0
LAYER
  5
201
100
AcDbSymbolTableRecord
100
AcDbLayerTableRecord
  2
COSMETICI
 70
0
 62
7
  6
CONTINUOUS
370
-3
390
F
  0
LAYER
  5
202
100
AcDbSymbolTableRecord
100
AcDbLayerTableRecord
  2
CURVE
 70
0
 62
7
  6
CONTINUOUS
370
-3
390
F
  0
LAYER
  5
203
100
AcDbSymbolTableRecord
100
AcDbLayerTableRecord
  2
IGES_SCRITTE
 70
0
 62
7
  6
CONTINUOUS
370
-3
390
F
  0
LAYER
  5
204
100
AcDbSymbolTableRecord
100
AcDbLayerTableRecord
  2
INTF_1
 70
0
 62
7
  6
CONTINUOUS
370
-3
390
F
  0
LAYER
  5
205
100
AcDbSymbolTableRecord
100
AcDbLayerTableRecord
  2
INTF_7
 70
0
 62
7
  6
CONTINUOUS
370
-3
390
F
  0
LAYER
  5
206
100
AcDbSymbolTableRecord
100
AcDbLayerTableRecord
  2
NOTE
 70
0
 62
7
  6
CONTINUOUS
370
-3
390
F
  0
LAYER
  5
207
100
AcDbSymbolTableRecord
100
AcDbLayerTableRecord
  2
PIANI
 70
0
 62
7
  6
CONTINUOUS
370
-3
390
F
  0
LAYER
  5
208
100
AcDbSymbolTableRecord
100
AcDbLayerTableRecord
  2
PIANI_DI_RIFERIMENTO
 70
0
 62
7
  6
CONTINUOUS
370
-3
390
F
  0
LAYER
  5
209
100
AcDbSymbolTableRecord
100
AcDbLayerTableRecord
  2
PIANI_ORIGINE
 70
0
 62
7
  6
CONTINUOUS
370
-3
390
F
  0
LAYER
  5
20A
100
AcDbSymbolTableRecord
100
AcDbLayerTableRecord
  2
PUNTI
 70
0
 62
7
  6
CONTINUOUS
370
-3
390
F
  0
LAYER
  5
20B
100
AcDbSymbolTableRecord
100
AcDbLayerTableRecord
  2
RGB__255__255__255__
 70
0
 62
7
  6
CONTINUOUS
370
-3
390
F
  0
LAYER
  5
20C
100
AcDbSymbolTableRecord
100
AcDbLayerTableRecord
  2
RGB____0____0____0__
 70
0
 62
7
  6
CONTINUOUS
370
-3
390
F
  0
LAYER
  5
20D
100
AcDbSymbolTableRecord
100
AcDbLayerTableRecord
  2
SIMBOLI
 70
0
 62
7
  6
CONTINUOUS
370
-3
390
F
  0
LAYER
  5
20E
100
AcDbSymbolTableRecord
100
AcDbLayerTableRecord
  2
SNAPLINE
 70
0
 62
7
  6
CONTINUOUS
370
-3
390
F
  0
LAYER
  5
20F
100
AcDbSymbolTableRecord
100
AcDbLayerTableRecord
  2
SUPERFICI
 70
0
 62
7
  6
CONTINUOUS
370
-3
390
F
  0
LAYER
  5
210
100
AcDbSymbolTableRecord
100
AcDbLayerTableRecord
  2
TRASH
 70
0
 62
7
  6
CONTINUOUS
370
-3
390
F
  0
LAYER
  5
211
100
AcDbSymbolTableRecord
100
AcDbLayerTableRecord
  2
XSEC_DATUMS
 70
0
 62
7
  6
CONTINUOUS
370
-3
390
F
  0
ENDTAB
  0
TABLE
  2
STYLE
  5
3
100
AcDbSymbolTable
 70
1
  0
STYLE
  5
11
100
AcDbSymbolTableRecord
100
AcDbTextStyleTableRecord
  2
STANDARD
 70
0
 40
0.0
 41
0.8
 50
0.0
 71
0
 42
0.2
  3
txt
  4

  0
STYLE
  5
212
100
AcDbSymbolTableRecord
100
AcDbTextStyleTableRecord
  2
TEXTSTYLE_1
 70
0
 40
0.0
 41
0.8
 50
0.0
 71
0
 42
0.2
  3
gdt
  4

  0
ENDTAB
  0
TABLE
  2
VIEW
  5
6
100
AcDbSymbolTable
 70
0
  0
ENDTAB
  0
TABLE
  2
UCS
  5
7
100
AcDbSymbolTable
 70
0
  0
ENDTAB
  0
TABLE
  2
APPID
  5
9
100
AcDbSymbolTable
 70
1
  0
APPID
  5
213
100
AcDbSymbolTableRecord
100
AcDbRegAppTableRecord
  2
ACAD
 70
0
  0
ENDTAB
  0
TABLE
  2
BLOCK_RECORD
  5
1
100
AcDbSymbolTable
 70
0
  0
BLOCK_RECORD
  5
214
100
AcDbSymbolTableRecord
100
AcDbBlockTableRecord
  2
*Model_Space
  0
BLOCK_RECORD
  5
215
100
AcDbSymbolTableRecord
100
AcDbBlockTableRecord
  2
*Paper_Space
  0
BLOCK_RECORD
  5
216
100
AcDbSymbolTableRecord
100
AcDbBlockTableRecord
  2
_FILLED
  0
ENDTAB
  0
TABLE
  2
DIMSTYLE
  5
A
100
AcDbSymbolTable
 70
1
100
AcDbDimStyleTable
 71
0
  0
DIMSTYLE
105
217
100
AcDbSymbolTableRecord
100
AcDbDimStyleTableRecord
  2
STANDARD
 70
0
  3

  4

 40
1.0
 41
3.0
 42
0.5
 43
0.38
 44
1.5
 45
0.0
 46
0.0
 47
0.01
 48
0.01
140
3.0
141
0.09
142
0.0
143
25.4
144
1.0
145
0.0
146
1.0
147
0.625
 71
1
 72
0
 73
0
 74
0
 75
0
 76
0
 77
1
 78
8
 79
2
170
0
171
1
172
0
173
0
174
0
175
0
176
0
177
0
178
0
270
2
179
2
271
2
272
2
273
2
274
2
275
0
280
0
281
0
282
0
283
1
284
8
285
0
286
0
287
3
288
0
340
11
278
44
341
216
342
216
343
216
344
216
  0
ENDTAB
  0
ENDSEC
  0
SECTION
  2
BLOCKS
  0
BLOCK
  5
20
100
AcDbEntity
  8
0
100
AcDbBlockBegin
  2
*Model_Space
 70
0
 10
0.0
 20
0.0
 30
0.0
  3
*Model_Space
  1

  0
ENDBLK
  5
21
100
AcDbEntity
  8
0
100
AcDbBlockEnd
  0
BLOCK
  5
1C
100
AcDbEntity
  8
0
100
AcDbBlockBegin
  2
*Paper_Space
 70
0
 10
0.0
 20
0.0
 30
0.0
  3
*Paper_Space
  1

  0
ENDBLK
  5
1D
100
AcDbEntity
  8
0
100
AcDbBlockEnd
  0
BLOCK
  5
218
100
AcDbEntity
  8
0
100
AcDbBlockBegin
  2
_FILLED
 70
64
 10
0.0
 20
0.0
  3
_FILLED
  1

  0
SOLID
  5
219
100
AcDbEntity
  8
0
  6
BYBLOCK
 62
0
100
AcDbTrace
 10
0.0
 20
0.0
 11
-1.0
 21
0.3166666667
 12
-1.0
 22
-0.3166666667
 13
-1.0
 23
-0.3166666667
  0
ENDBLK
  5
21A
100
AcDbEntity
  8
0
  6
BYBLOCK
 62
0
100
AcDbBlockEnd
  0
ENDSEC
  0
SECTION
  2
ENTITIES
  0
LWPOLYLINE
  5
21B
100
AcDbEntity
  8
0
100
AcDbPolyline
 62
7
  6
CONTINUOUS
 90
18
 70
0
 10
-67.0997731534
 20
74.0227660113
 10
-67.1600803581
 20
73.9737944665
 10
-67.3695858996
 20
73.7936640161
 10
-67.5712846837
 20
73.6042512029
 10
-67.7648428408
 20
73.4058287013
 10
-67.950143656
 20
73.1984286396
 10
-68.1267260859
 20
72.9824486337
 10
-68.2941847698
 20
72.7582951786
 10
-68.4524370939
 20
72.5259470544
 10
-68.6010681079
 20
72.2858289809
 10
-68.7396929517
 20
72.0383869511
 10
-68.8682225919
 20
71.7835512732
 10
-68.9862927886
 20
71.5217519378
 10
-69.0935560817
 20
71.2534666124
 10
-69.1898950308
 20
70.9785914913
 10
-69.2750358421
 20
70.6973727882
 10
-69.3486062042
 20
70.4104970131
 10
-69.386393659
 20
70.2391796618
  0
LINE
  5
21C
100
AcDbEntity
  8
0
100
AcDbLine
 62
7
  6
CONTINUOUS
 10
-65.7658817296
 20
75.0925247428
 11
-67.1002285856
 21
74.022401269
  0
LWPOLYLINE
  5
21D
100
AcDbEntity
  8
0
100
AcDbPolyline
 62
250
  6
CONTINUOUS
 90
26
 70
0
 10
-67.0997994945
 20
74.022745303
 10
-67.0537956644
 20
74.0586097756
 10
-66.9170554657
 20
74.1541419891
 10
-66.7731028237
 20
74.2389051371
 10
-66.6221947649
 20
74.3127441997
 10
-66.4645714978
 20
74.3755445744
 10
-66.3004842151
 20
74.4272104091
 10
-66.1302235405
 20
74.4676416344
 10
-65.9540636447
 20
74.4967778693
 10
-65.7722862261
 20
74.5145788067
 10
-65.5852085568
 20
74.5210022521
 10
-65.3931351032
 20
74.5160432218
 10
-65.1963732423
 20
74.4997170759
 10
-64.9952573142
 20
74.4720390957
 10
-64.7901136109
 20
74.4330584391
 10
-64.5812737152
 20
74.3828450703
 10
-64.3690900744
 20
74.321471655
 10
-64.1539055388
 20
74.2490404945
 10
-63.9360719777
 20
74.1656760265
 10
-63.7159636203
 20
74.0715114472
 10
-63.4939486867
 20
73.9667075137
 10
-63.2703811685
 20
73.8514385663
 10
-63.0456192638
 20
73.7258829029
 10
-62.8200283248
 20
73.5902428424
 10
-62.5939805634
 20
73.4447466013
 10
-62.3678469541
 20
73.2896337518
  0
LWPOLYLINE
  5
21E
100
AcDbEntity
  8
0
100
AcDbPolyline
 62
250
  6
CONTINUOUS
 90
31
 70
0
 10
-62.3678469541
 20
73.2896337518
 10
-62.5507969715
 20
73.146346534
 10
-62.7328867592
 20
72.9950542883
 10
-62.91371103
 20
72.836093754
 10
-63.0928673136
 20
72.6698187381
 10
-63.2699568521
 20
72.496599328
 10
-63.4445854877
 20
72.3168210676
 10
-63.6163645401
 20
72.1308840989
 10
-63.7849116713
 20
71.939202272
 10
-63.9498517368
 20
71.7422022235
 10
-64.1108176206
 20
71.5403224272
 10
-64.2674510522
 20
71.3340122177
 10
-64.4194034041
 20
71.1237307908
 10
-64.5663364677
 20
70.9099461814
 10
-64.7079232061
 20
70.6931342215
 10
-64.8438484821
 20
70.4737774811
 10
-64.9738097595
 20
70.2523641944
 10
-65.0975177763
 20
70.029387173
 10
-65.2146971889
 20
69.8053427088
 10
-65.3250871848
 20
69.5807294699
 10
-65.4284420631
 20
69.3560473899
 10
-65.524531781
 20
69.1317965561
 10
-65.6131424666
 20
68.9084760956
 10
-65.6940768942
 20
68.6865830649
 10
-65.7671549237
 20
68.4666113433
 10
-65.8322139014
 20
68.2490505338
 10
-65.889109022
 20
68.0343848732
 10
-65.937713651
 20
67.8230921546
 10
-65.9779196063
 20
67.6156426636
 10
-66.0096373994
 20
67.4124981317
 10
-66.0327964344
 20
67.2141107087
  0
LINE
  5
21F
100
AcDbEntity
  8
0
100
AcDbLine
 62
250
  6
CONTINUOUS
 10
-61.0503733186
 20
74.2902741611
 11
-62.3678469541
 21
73.2896337518
  0
LWPOLYLINE
  5
220
100
AcDbEntity
  8
0
100
AcDbPolyline
 62
250
  6
CONTINUOUS
 90
21
 70
0
 10
-69.3948744578
 20
70.1966287528
 10
-69.422508644
 20
70.0214297978
 10
-69.438827216
 20
69.8443534439
 10
-69.4437961136
 20
69.665769284
 10
-69.4374049659
 20
69.4860500581
 10
-69.4196671123
 20
69.3055708753
 10
-69.3906195753
 20
69.1247084308
 10
-69.3503229827
 20
68.9438402199
 10
-69.2988614414
 20
68.7633437497
 10
-69.2363423616
 20
68.5835957515
 10
-69.1628962329
 20
68.4049713947
 10
-69.0786763516
 20
68.2278435029
 10
-68.9838585012
 20
68.0525817766
 10
-68.8786405848
 20
67.8795520214
 10
-68.7632422129
 20
67.7091153839
 10
-68.6379042443
 20
67.5416275988
 10
-68.5028882838
 20
67.3774382456
 10
-68.3584761361
 20
67.2168900197
 10
-68.2049692176
 20
67.0603180164
 10
-68.042687927
 20
66.9080490321
 10
-67.8719709771
 20
66.7604008818
  0
LWPOLYLINE
  5
221
100
AcDbEntity
  8
0
100
AcDbPolyline
 62
7
  6
CONTINUOUS
 90
22
 70
0
 10
-69.3865056778
 20
70.2386428727
 10
-69.8320623345
 20
67.9839900829
 10
-70.2455940188
 20
65.6596903022
 10
-70.613798772
 20
63.3292141045
 10
-70.9364598523
 20
60.9930618014
 10
-71.2134084256
 20
58.6517266604
 10
-71.444488834
 20
56.3057240694
 10
-71.629563792
 20
53.9555251501
 10
-71.768536794
 20
51.6016263749
 10
-71.8613220774
 20
49.2445820871
 10
-71.9078515076
 20
46.8848803609
 10
-71.9081020158
 20
44.5230257508
 10
-71.8620665421
 20
42.1595963306
 10
-71.7697537314
 20
39.7950946188
 10
-71.6312172112
 20
37.4300069449
 10
-71.4465282755
 20
35.0648840833
 10
-71.2157685674
 20
32.7002174483
 10
-70.9390601426
 20
30.3364717251
 10
-70.6165428917
 20
27.9741528117
 10
-70.2483693991
 20
25.613744085
 10
-69.8347399692
 20
23.2557379265
 10
-69.3900901015
 20
20.9702622351
  0
LINE
  5
222
100
AcDbEntity
  8
0
100
AcDbLine
 62
7
  6
CONTINUOUS
 10
-69.3863942894
 20
70.2391797926
 11
-69.3865056778
 21
70.2386428727
  0
LWPOLYLINE
  5
223
100
AcDbEntity
  8
0
100
AcDbPolyline
 62
250
  6
CONTINUOUS
 90
37
 70
0
 10
-67.8719709821
 20
66.7604008787
 10
-67.8563872195
 20
66.8283453746
 10
-67.8381276071
 20
66.8937153059
 10
-67.8171926669
 20
66.956510349
 10
-67.7935400242
 20
67.0168299178
 10
-67.7672130213
 20
67.0745739985
 10
-67.738341028
 20
67.1294429602
 10
-67.7069124739
 20
67.1814191093
 10
-67.672940476
 20
67.2305191893
 10
-67.6365919481
 20
67.2764949131
 10
-67.5978564823
 20
67.3193294247
 10
-67.5567464383
 20
67.3590383862
 10
-67.5134633199
 20
67.3954220228
 10
-67.467997297
 20
67.4284634089
 10
-67.4203604373
 20
67.4581781056
 10
-67.3707874512
 20
67.4844148502
 10
-67.3192694892
 20
67.5071556533
 10
-67.2658177938
 20
67.5264170487
 10
-67.2106974889
 20
67.5420993935
 10
-67.1539013731
 20
67.5541838736
 10
-67.095439055
 20
67.5626878419
 10
-67.0356010594
 20
67.5675657938
 10
-66.9743821197
 20
67.5687988577
 10
-66.9117897796
 20
67.5664045255
 10
-66.8481338771
 20
67.5603917798
 10
-66.7834098866
 20
67.5507419551
 10
-66.7176243435
 20
67.5374725006
 10
-66.6511036953
 20
67.5206465611
 10
-66.5838439747
 20
67.5002451509
 10
-66.515850772
 20
67.4762862742
 10
-66.4474648212
 20
67.4488885913
 10
-66.3786820597
 20
67.4180320873
 10
-66.3095076894
 20
67.3837360887
 10
-66.2402962383
 20
67.3461783295
 10
-66.1711660817
 20
67.3054179339
 10
-66.1019994315
 20
67.2613954232
 10
-66.0327964344
 20
67.2141107087
  0
LWPOLYLINE
  5
224
100
AcDbEntity
  8
0
100
AcDbPolyline
 62
250
  6
CONTINUOUS
 90
19
 70
0
 10
-55.9411851633
 20
51.4376306842
 10
-55.9133653023
 20
51.4711670933
 10
-55.8830664137
 20
51.5025456403
 10
-55.850519087
 20
51.5315275143
 10
-55.8159710234
 20
51.557892144
 10
-55.7796851522
 20
51.5814388761
 10
-55.7419376299
 20
51.6019885025
 10
-55.7030157359
 20
51.6193846255
 10
-55.6632156885
 20
51.6334948471
 10
-55.6228403914
 20
51.6442117764
 10
-55.5821971246
 20
51.6514538483
 10
-55.5415952082
 20
51.6551659435
 10
-55.501343651
 20
51.655319808
 10
-55.4617487921
 20
51.6519142689
 10
-55.4231119735
 20
51.6449752423
 10
-55.3857272494
 20
51.6345555377
 10
-55.3498791422
 20
51.620734455
 10
-55.3158404778
 20
51.6036171799
 10
-55.2838703123
 20
51.5833339847
  0
LWPOLYLINE
  5
225
100
AcDbEntity
  8
0
100
AcDbPolyline
 62
250
  6
CONTINUOUS
 90
17
 70
0
 10
-55.527901369
 20
51.1235442277
 10
-55.5060243369
 20
51.1537935489
 10
-55.4822950064
 20
51.1824772637
 10
-55.4568460015
 20
51.2094349129
 10
-55.4298206561
 20
51.2345163667
 10
-55.4013689808
 20
51.2575806462
 10
-55.3716468799
 20
51.2784967582
 10
-55.3408194507
 20
51.2971470386
 10
-55.3090602775
 20
51.3134279168
 10
-55.2765472691
 20
51.3272485107
 10
-55.2434622615
 20
51.3385315341
 10
-55.2099902857
 20
51.3472138902
 10
-55.1763188133
 20
51.3532471845
 10
-55.1426361496
 20
51.3565976754
 10
-55.1091306588
 20
51.3572466243
 10
-55.0759899879
 20
51.3551905591
 10
-55.0433994685
 20
51.3504409752
  0
LINE
  5
226
100
AcDbEntity
  8
0
100
AcDbLine
 62
250
  6
CONTINUOUS
 10
-54.9417632779
 20
51.2884618821
 11
-54.9248215323
 21
51.2994364603
  0
LWPOLYLINE
  5
227
100
AcDbEntity
  8
0
100
AcDbPolyline
 62
250
  6
CONTINUOUS
 90
3
 70
0
 10
-54.9824243283
 20
51.2629448808
 10
-54.9618105348
 20
51.2757462464
 10
-54.9417632779
 20
51.2884618821
  0
LWPOLYLINE
  5
228
100
AcDbEntity
  8
0
100
AcDbPolyline
 62
250
  6
CONTINUOUS
 90
15
 70
0
 10
-69.389646046
 20
20.9680899408
 10
-69.3503234171
 20
20.8031596933
 10
-69.298861847
 20
20.6360956881
 10
-69.2363427372
 20
20.4720235423
 10
-69.1628965771
 20
20.3112857064
 10
-69.0786766633
 20
20.1542176717
 10
-68.9838587793
 20
20.0011472698
 10
-68.8786408284
 20
19.8523939887
 10
-68.763242421
 20
19.7082683053
 10
-68.6379044162
 20
19.5690710382
 10
-68.5028884189
 20
19.4350927193
 10
-68.3584762338
 20
19.3066129874
 10
-68.2049692773
 20
19.1839000049
 10
-68.0426879484
 20
19.0672098977
 10
-67.87197096
 20
18.9567862208
  0
LWPOLYLINE
  5
229
100
AcDbEntity
  8
0
100
AcDbPolyline
 62
7
  6
CONTINUOUS
 90
25
 70
0
 10
-69.3896455551
 20
20.9680900411
 10
-69.3619958256
 20
20.8385120301
 10
-69.3045688903
 20
20.5984263186
 10
-69.2336020254
 20
20.3393795836
 10
-69.1455626917
 20
20.0568739022
 10
-69.0399037988
 20
19.7568321956
 10
-68.9206564581
 20
19.4543019522
 10
-68.7875064676
 20
19.1494371132
 10
-68.6396885556
 20
18.8415830036
 10
-68.4832383803
 20
18.542873775
 10
-68.3209092725
 20
18.2564260267
 10
-68.1509453159
 20
17.9774654731
 10
-67.9738837285
 20
17.7059544638
 10
-67.7906303905
 20
17.4424564508
 10
-67.6005230378
 20
17.1854475257
 10
-67.401645746
 20
16.9322707768
 10
-67.1921754558
 20
16.6810851887
 10
-66.9730504868
 20
16.4336480305
 10
-66.7463226993
 20
16.1926620942
 10
-66.5100631686
 20
15.9565319491
 10
-66.2651315474
 20
15.7267354801
 10
-66.0183019306
 20
15.509654835
 10
-65.7719285065
 20
15.306699073
 10
-65.5234391185
 20
15.1152417733
 10
-65.3397472242
 20
14.9819291576
  0
LINE
  5
22A
100
AcDbEntity
  8
0
100
AcDbLine
 62
7
  6
CONTINUOUS
 10
-69.3900901015
 20
20.9702622351
 11
-69.389646046
 21
20.9680899408
  0
LWPOLYLINE
  5
22B
100
AcDbEntity
  8
0
100
AcDbPolyline
 62
250
  6
CONTINUOUS
 90
22
 70
0
 10
-67.8719709821
 20
18.9567862031
 10
-68.3133081519
 20
21.245190302
 10
-68.7104038923
 20
23.532992781
 10
-69.0632678945
 20
25.8199912789
 10
-69.3718621033
 20
28.1056590468
 10
-69.6362551827
 20
30.3901108763
 10
-69.8565934841
 20
32.6741252503
 10
-70.0329126719
 20
34.957982107
 10
-70.1651519823
 20
37.2410333626
 10
-70.253301269
 20
39.5226748531
 10
-70.2973667897
 20
41.8022975501
 10
-70.2973670326
 20
44.0801062934
 10
-70.2533019483
 20
46.3567235081
 10
-70.1651528824
 20
48.6323828849
 10
-70.0329136712
 20
50.9064815895
 10
-69.8565948719
 20
53.1783930563
 10
-69.6362579529
 20
55.4474637898
 10
-69.3718668301
 20
57.7139434565
 10
-69.0632737029
 20
59.9785677248
 10
-68.710409163
 20
62.2414653981
 10
-68.313311552
 20
64.5021392949
 10
-67.8719709821
 20
66.7604008787
  0
LWPOLYLINE
  5
22C
100
AcDbEntity
  8
0
100
AcDbPolyline
 62
250
  6
CONTINUOUS
 90
16
 70
0
 10
-55.9411851572
 20
51.4376306789
 10
-56.0812842473
 20
49.120280709
 10
-56.2013752997
 20
46.816260797
 10
-56.3014583145
 20
44.5255709429
 10
-56.3815382786
 20
42.2480233666
 10
-56.4416102051
 20
39.9838058481
 10
-56.4816591331
 20
37.7334817283
 10
-56.5016800784
 20
35.4970621799
 10
-56.5016780252
 20
33.2745360302
 10
-56.4816529652
 20
31.0664331017
 10
-56.4415999166
 20
28.8727493065
 10
-56.3815238612
 20
26.6934887327
 10
-56.3014397352
 20
24.5291934663
 10
-56.2013525176
 20
22.380044203
 10
-56.0812572294
 20
20.2458602472
 10
-55.9411538707
 20
18.1266415989
  0
LWPOLYLINE
  5
22D
100
AcDbEntity
  8
0
100
AcDbPolyline
 62
250
  6
CONTINUOUS
 90
19
 70
0
 10
-57.2054469941
 20
57.2672359646
 10
-57.4142972575
 20
54.6612059109
 10
-57.5986301043
 20
52.0705524518
 10
-57.7584272157
 20
49.4955330496
 10
-57.8936727117
 20
46.9364036016
 10
-58.0043531511
 20
44.3934184487
 10
-58.0904575337
 20
41.8668303499
 10
-58.1519773031
 20
39.3568904262
 10
-58.1889063478
 20
36.8638480911
 10
-58.2012409991
 20
34.3879510606
 10
-58.1889800313
 20
31.929445393
 10
-58.1521246629
 20
29.4885754174
 10
-58.0906785551
 20
27.0655836654
 10
-58.0046478123
 20
24.6607109127
 10
-57.8940409835
 20
22.2741961856
 10
-57.7588690613
 20
19.9062766905
 10
-57.5991454798
 20
17.5571877647
 10
-57.4148861115
 20
15.227162854
 10
-57.206109268
 20
12.9164335196
  0
LWPOLYLINE
  5
22E
100
AcDbEntity
  8
0
100
AcDbPolyline
 62
250
  6
CONTINUOUS
 90
10
 70
0
 10
-56.9106425201
 20
15.2151010587
 10
-56.9517440611
 20
14.9563328398
 10
-56.9912854428
 20
14.6980909867
 10
-57.0290461792
 20
14.4403693381
 10
-57.064817775
 20
14.18265924
 10
-57.0983649468
 20
13.9254362278
 10
-57.1294517227
 20
13.6701303236
 10
-57.1578864048
 20
13.4171584069
 10
-57.1834968477
 20
13.1659539892
 10
-57.2061092682
 20
12.9164335215
  0
LWPOLYLINE
  5
22F
100
AcDbEntity
  8
0
100
AcDbPolyline
 62
250
  6
CONTINUOUS
 90
10
 70
0
 10
-56.6927764375
 20
15.0888686381
 10
-56.7607328292
 20
14.8400800205
 10
-56.826348229
 20
14.592646633
 10
-56.8895274204
 20
14.3466874871
 10
-56.9504327096
 20
14.1020178086
 10
-57.0086972871
 20
13.8590785136
 10
-57.0634952058
 20
13.6188849
 10
-57.114558311
 20
13.3818090957
 10
-57.1621063453
 20
13.1476313473
 10
-57.206109268
 20
12.9164335196
  0
LWPOLYLINE
  5
230
100
AcDbEntity
  8
0
100
AcDbPolyline
 62
250
  6
CONTINUOUS
 90
8
 70
0
 10
-55.9411538766
 20
18.1266415855
 10
-55.966964081
 20
18.0461017102
 10
-55.9940168992
 20
17.9635359682
 10
-56.022313104
 20
17.8790052185
 10
-56.0518560455
 20
17.7926474457
 10
-56.0826313848
 20
17.7044517921
 10
-56.1146062884
 20
17.6142582094
 10
-56.147770471
 20
17.5221272396
  0
LWPOLYLINE
  5
231
100
AcDbEntity
  8
0
100
AcDbPolyline
 62
250
  6
CONTINUOUS
 90
11
 70
0
 10
-56.5326100846
 20
16.4937356355
 10
-56.5745029401
 20
16.3791609449
 10
-56.6166696047
 20
16.2619426864
 10
-56.6588552363
 20
16.1421709126
 10
-56.7002989658
 20
16.0193237823
 10
-56.7412997715
 20
15.8930909586
 10
-56.7813574658
 20
15.7637660575
 10
-56.8185397132
 20
15.6314944035
 10
-56.8521895924
 20
15.496119262
 10
-56.8828947106
 20
15.3573798926
 10
-56.9106425201
 20
15.2151010587
  0
LINE
  5
232
100
AcDbEntity
  8
0
100
AcDbLine
 62
250
  6
CONTINUOUS
 10
-56.147770471
 20
17.5221272396
 11
-56.2175047365
 21
17.3321428919
  0
LINE
  5
233
100
AcDbEntity
  8
0
100
AcDbLine
 62
250
  6
CONTINUOUS
 10
-56.2175047365
 20
17.3321428919
 11
-56.3298314064
 21
17.032651426
  0
LWPOLYLINE
  5
234
100
AcDbEntity
  8
0
100
AcDbPolyline
 62
250
  6
CONTINUOUS
 90
3
 70
0
 10
-56.3298314064
 20
17.032651426
 10
-56.4090722777
 20
16.8233184204
 10
-56.5326100846
 20
16.4937356355
  0
LWPOLYLINE
  5
235
100
AcDbEntity
  8
0
100
AcDbPolyline
 62
250
  6
CONTINUOUS
 90
12
 70
0
 10
-55.3197335389
 20
17.8259478944
 10
-55.3576559036
 20
17.739728442
 10
-55.3974894534
 20
17.6519709097
 10
-55.4390737918
 20
17.5627189421
 10
-55.4823960747
 20
17.4719877072
 10
-55.5275854541
 20
17.3797651565
 10
-55.5745539128
 20
17.2860963631
 10
-55.6231829678
 20
17.1910200211
 10
-55.6735399721
 20
17.0945231929
 10
-55.7255198797
 20
16.9966896026
 10
-55.7789862211
 20
16.8975508428
 10
-55.8339398271
 20
16.7970274737
  0
LWPOLYLINE
  5
236
100
AcDbEntity
  8
0
100
AcDbPolyline
 62
250
  6
CONTINUOUS
 90
7
 70
0
 10
-55.5279299155
 20
19.0253684916
 10
-55.6020902972
 20
18.8751395889
 10
-55.6741347899
 20
18.7250871211
 10
-55.7440633936
 20
18.5752110882
 10
-55.8118761083
 20
18.4255114902
 10
-55.877572934
 20
18.2759883271
 10
-55.9411538707
 20
18.1266415989
  0
LWPOLYLINE
  5
237
100
AcDbEntity
  8
0
100
AcDbPolyline
 62
250
  6
CONTINUOUS
 90
7
 70
0
 10
-54.8948876939
 20
18.7564652016
 10
-54.9648136349
 20
18.6148307919
 10
-55.0327200528
 20
18.4733811767
 10
-55.0985888339
 20
18.3321755278
 10
-55.1624029428
 20
18.1912723912
 10
-55.2241464176
 20
18.0507296652
 10
-55.3197335389
 20
17.8259478944
  0
LWPOLYLINE
  5
238
100
AcDbEntity
  8
0
100
AcDbPolyline
 62
250
  6
CONTINUOUS
 90
9
 70
0
 10
-56.2492944275
 20
16.0553278811
 10
-56.3111643012
 20
15.9430041247
 10
-56.3724647317
 20
15.8281903406
 10
-56.4334028519
 20
15.7110882755
 10
-56.4931759001
 20
15.5919414957
 10
-56.5494891445
 20
15.4699872132
 10
-56.6013929876
 20
15.3451391213
 10
-56.6492564921
 20
15.2180030494
 10
-56.6927764375
 20
15.0888686381
  0
LINE
  5
239
100
AcDbEntity
  8
0
100
AcDbLine
 62
250
  6
CONTINUOUS
 10
-55.8339398271
 20
16.7970274737
 11
-55.9477597461
 21
16.5922818069
  0
LWPOLYLINE
  5
23A
100
AcDbEntity
  8
0
100
AcDbPolyline
 62
250
  6
CONTINUOUS
 90
3
 70
0
 10
-55.9477597461
 20
16.5922818069
 10
-56.1265152395
 20
16.2750018872
 10
-56.2492944275
 20
16.0553278811
  0
LWPOLYLINE
  5
23B
100
AcDbEntity
  8
0
100
AcDbPolyline
 62
7
  6
CONTINUOUS
 90
8
 70
0
 10
59.3684437152
 20
-69.8237892194
 10
59.3635275058
 20
-69.8228609545
 10
59.3469885434
 20
-69.8181446432
 10
59.3296220277
 20
-69.8116894691
 10
59.3117826671
 20
-69.8036246043
 10
59.2935886398
 20
-69.7939931524
 10
59.2749216065
 20
-69.7827521384
 10
59.2557815271
 20
-69.7699015943
  0
LWPOLYLINE
  5
23C
100
AcDbEntity
  8
0
100
AcDbPolyline
 62
250
  6
CONTINUOUS
 90
16
 70
0
 10
-54.5949448964
 20
19.9386793304
 10
-54.5939121698
 20
19.9235336499
 10
-54.5913413174
 20
19.9074582863
 10
-54.5872605058
 20
19.8906293647
 10
-54.5817144451
 20
19.8732312664
 10
-54.5747638992
 20
19.8554546088
 10
-54.5664850197
 20
19.8374941565
 10
-54.5569685116
 20
19.819546688
 10
-54.54631864
 20
19.8018088397
 10
-54.5346520874
 20
19.7844749518
 10
-54.5220966748
 20
19.7677349372
 10
-54.5087899623
 20
19.7517722037
 10
-54.4948777431
 20
19.7367616441
 10
-54.4805124432
 20
19.7228677172
 10
-54.4658514516
 20
19.7102426465
 10
-54.4510553971
 20
19.6990247539
  0
LWPOLYLINE
  5
23D
100
AcDbEntity
  8
0
100
AcDbPolyline
 62
250
  6
CONTINUOUS
 90
10
 70
0
 10
-57.2054469943
 20
57.2672359625
 10
-57.1829210525
 20
56.9125687432
 10
-57.1573942845
 20
56.5609388378
 10
-57.1290399655
 20
56.2124543311
 10
-57.0980287865
 20
55.8665979129
 10
-57.0645528847
 20
55.5240883384
 10
-57.028851407
 20
55.1868542475
 10
-56.9911612526
 20
54.8555620806
 10
-56.9516901344
 20
54.5296419252
 10
-56.9106587793
 20
54.2091312041
  0
LINE
  5
23E
100
AcDbEntity
  8
0
100
AcDbLine
 62
7
  6
CONTINUOUS
 10
-53.6757576271
 20
20.6046873551
 11
-53.6757576271
 21
50.4162149029
  0
LWPOLYLINE
  5
23F
100
AcDbEntity
  8
0
100
AcDbPolyline
 62
250
  6
CONTINUOUS
 90
22
 70
0
 10
-54.4510553971
 20
19.6990247539
 10
-54.4829526379
 20
19.6736653588
 10
-54.5139663071
 20
19.6445755491
 10
-54.5440284342
 20
19.6116529985
 10
-54.5730050711
 20
19.574732999
 10
-54.6008529975
 20
19.5337978815
 10
-54.6276206705
 20
19.488986662
 10
-54.6533415264
 20
19.4394261138
 10
-54.677698553
 20
19.3858549086
 10
-54.7002807217
 20
19.3310406995
 10
-54.720757229
 20
19.2754151643
 10
-54.7393519673
 20
19.2188680613
 10
-54.7566497849
 20
19.1636000934
 10
-54.772558767
 20
19.1105084531
 10
-54.7872715907
 20
19.0590740531
 10
-54.8018494384
 20
19.0093912036
 10
-54.8164952978
 20
18.9614367067
 10
-54.8310691151
 20
18.9154411507
 10
-54.8460953266
 20
18.8718393848
 10
-54.8617838232
 20
18.8308242681
 10
-54.8780287587
 20
18.792347183
 10
-54.8948876939
 20
18.7564652016
  0
LWPOLYLINE
  5
240
100
AcDbEntity
  8
0
100
AcDbPolyline
 62
250
  6
CONTINUOUS
 90
47
 70
0
 10
-54.8844146968
 20
19.7330469058
 10
-54.9030328079
 20
19.7191236629
 10
-54.9221934203
 20
19.7046117181
 10
-54.9418487184
 20
19.6895418846
 10
-54.9619088185
 20
19.67389191
 10
-54.9824806614
 20
19.6575695767
 10
-55.0034573063
 20
19.6406671024
 10
-55.0244280473
 20
19.6234388881
 10
-55.0453879572
 20
19.6058651455
 10
-55.0663419631
 20
19.5879656628
 10
-55.0868941406
 20
19.5700542052
 10
-55.1069816598
 20
19.55216279
 10
-55.1266673505
 20
19.5342594
 10
-55.1457437789
 20
19.5165617483
 10
-55.1641367979
 20
19.4991291923
 10
-55.1819205544
 20
19.4819023746
 10
-55.1991100558
 20
19.4649209362
 10
-55.2156648849
 20
19.448229041
 10
-55.2316254587
 20
19.431782525
 10
-55.2471280352
 20
19.4154885379
 10
-55.2622055359
 20
19.3993177292
 10
-55.2768250391
 20
19.3832994494
 10
-55.2910240384
 20
19.3674288996
 10
-55.3048055462
 20
19.3517041469
 10
-55.31816655
 20
19.3361271244
 10
-55.3311355054
 20
19.3206988319
 10
-55.3437093718
 20
19.3054246952
 10
-55.3558911898
 20
19.2902992887
 10
-55.3677185371
 20
19.2753073352
 10
-55.3791949339
 20
19.2604463198
 10
-55.3903168601
 20
19.2457187575
 10
-55.4011113332
 20
19.2311169152
 10
-55.4115792913
 20
19.2166410854
 10
-55.4217197963
 20
19.2022909757
 10
-55.4315570519
 20
19.188057976
 10
-55.4410916657
 20
19.1739428172
 10
-55.4503230301
 20
19.1599447684
 10
-55.4592735257
 20
19.1460530268
 10
-55.4679442012
 20
19.1322676411
 10
-55.476334008
 20
19.1185885626
 10
-55.4844621804
 20
19.1050048424
 10
-55.492329406
 20
19.0915170773
 10
-55.4999349972
 20
19.0781246705
 10
-55.5072961265
 20
19.0648148824
 10
-55.5144185181
 20
19.0515834667
 10
-55.5212964478
 20
19.0384346697
 10
-55.5279299155
 20
19.0253684916
  0
LINE
  5
241
100
AcDbEntity
  8
0
100
AcDbLine
 62
250
  6
CONTINUOUS
 10
-53.5343362709
 20
20.3632444564
 11
-54.4510553971
 21
19.6990247539
  0
LWPOLYLINE
  5
242
100
AcDbEntity
  8
0
100
AcDbPolyline
 62
250
  6
CONTINUOUS
 90
3
 70
0
 10
-54.8313589624
 20
19.7718259153
 10
-54.8486089686
 20
19.7593344169
 10
-54.8844146968
 20
19.7330469058
  0
LINE
  5
243
100
AcDbEntity
  8
0
100
AcDbLine
 62
250
  6
CONTINUOUS
 10
-53.6757576271
 20
20.6046873551
 11
-54.60637879
 21
19.9304338196
  0
LWPOLYLINE
  5
244
100
AcDbEntity
  8
0
100
AcDbPolyline
 62
250
  6
CONTINUOUS
 90
3
 70
0
 10
-54.60637879
 20
19.9304338196
 10
-54.6300746251
 20
19.9134975739
 10
-54.6423267452
 20
19.904819752
  0
LWPOLYLINE
  5
245
100
AcDbEntity
  8
0
100
AcDbPolyline
 62
250
  6
CONTINUOUS
 90
3
 70
0
 10
-54.7821792806
 20
19.8068735787
 10
-54.7981552309
 20
19.7955563961
 10
-54.8313589624
 20
19.7718259153
  0
LWPOLYLINE
  5
246
100
AcDbEntity
  8
0
100
AcDbPolyline
 62
250
  6
CONTINUOUS
 90
28
 70
0
 10
-56.9106587793
 20
54.2091312041
 10
-56.8835455989
 20
54.0369371372
 10
-56.853388374
 20
53.8696298021
 10
-56.8201929292
 20
53.7073797837
 10
-56.7833402836
 20
53.5499898162
 10
-56.7435060516
 20
53.3980687904
 10
-56.7026947213
 20
53.2528424962
 10
-56.661419247
 20
53.1148368234
 10
-56.6193655013
 20
52.9835618137
 10
-56.5773281326
 20
52.8584902537
 10
-56.5355833871
 20
52.739671561
 10
-56.4940407661
 20
52.6269798936
 10
-56.4529336183
 20
52.5195583821
 10
-56.4123658574
 20
52.4172401807
 10
-56.3723871369
 20
52.3200996761
 10
-56.3331374396
 20
52.2276295136
 10
-56.2946818261
 20
52.1397139985
 10
-56.2570752336
 20
52.0563635757
 10
-56.2204304421
 20
51.9772523637
 10
-56.1847955964
 20
51.9023044829
 10
-56.1502066417
 20
51.831480084
 10
-56.116745443
 20
51.764501042
 10
-56.0844438307
 20
51.7013059537
 10
-56.0533187797
 20
51.6418361087
 10
-56.0234184773
 20
51.5858143468
 10
-55.9947641733
 20
51.5331085228
 10
-55.9673521916
 20
51.4837329909
 10
-55.9411851633
 20
51.4376306842
  0
LWPOLYLINE
  5
247
100
AcDbEntity
  8
0
100
AcDbPolyline
 62
250
  6
CONTINUOUS
 90
10
 70
0
 10
-57.2054469941
 20
57.2672359646
 10
-57.1615346806
 20
56.9033201374
 10
-57.1140732765
 20
56.5433543667
 10
-57.063092165
 20
56.1873783378
 10
-57.0083691529
 20
55.8347130887
 10
-56.9501732324
 20
55.4861223623
 10
-56.8893359548
 20
55.143764055
 10
-56.8262270225
 20
54.8083298059
 10
-56.7606828327
 20
54.4790936464
 10
-56.6927992334
 20
54.1560393961
  0
LINE
  5
248
100
AcDbEntity
  8
0
100
AcDbLine
 62
250
  6
CONTINUOUS
 10
-54.6423267452
 20
19.904819752
 11
-54.6942722906
 21
19.8683964202
  0
LINE
  5
249
100
AcDbEntity
  8
0
100
AcDbLine
 62
250
  6
CONTINUOUS
 10
-54.6942722906
 20
19.8683964202
 11
-54.7821792806
 21
19.8068735787
  0
LWPOLYLINE
  5
24A
100
AcDbEntity
  8
0
100
AcDbPolyline
 62
250
  6
CONTINUOUS
 90
28
 70
0
 10
-56.6927992334
 20
54.1560393961
 10
-56.6501784555
 20
53.9884019894
 10
-56.6031405583
 20
53.8262223352
 10
-56.5519464013
 20
53.6693911086
 10
-56.496132267
 20
53.5170690881
 10
-56.4366567284
 20
53.3698613656
 10
-56.3759625267
 20
53.2297650739
 10
-56.3148969849
 20
53.0972742164
 10
-56.2532064608
 20
52.9715000887
 10
-56.1916948289
 20
52.852338166
 10
-56.1307986168
 20
52.7398076267
 10
-56.0705465238
 20
52.6335447719
 10
-56.0110500578
 20
52.5329339617
 10
-55.9524788148
 20
52.4377804332
 10
-55.8950008326
 20
52.3480126715
 10
-55.8386594346
 20
52.2632566314
 10
-55.7835892393
 20
52.1833645602
 10
-55.7299288854
 20
52.1082512919
 10
-55.677695621
 20
52.0376635417
 10
-55.6270186403
 20
51.9714925965
 10
-55.5780030285
 20
51.909630344
 10
-55.5306123956
 20
51.8518380675
 10
-55.4849634229
 20
51.7980227297
 10
-55.4411425631
 20
51.7480744174
 10
-55.3990549008
 20
51.7017397285
 10
-55.3587254748
 20
51.6588737631
 10
-55.3203031879
 20
51.6194355431
 10
-55.2838703123
 20
51.5833339847
  0
LWPOLYLINE
  5
24B
100
AcDbEntity
  8
0
100
AcDbPolyline
 62
250
  6
CONTINUOUS
 90
12
 70
0
 10
-65.339747455
 20
14.9819288311
 10
-65.4284421344
 20
15.0502207387
 10
-65.5245318439
 20
15.1385801934
 10
-65.6131425207
 20
15.2365862221
 10
-65.6940769395
 20
15.3440206874
 10
-65.7671549604
 20
15.4606444663
 10
-65.8322139298
 20
15.5861979829
 10
-65.8891090427
 20
15.7204017857
 10
-65.9377136647
 20
15.86295717
 10
-65.9779196142
 20
16.0135468424
 10
-66.0096374027
 20
16.1718356271
 10
-66.0327964344
 20
16.3374712123
  0
LWPOLYLINE
  5
24C
100
AcDbEntity
  8
0
100
AcDbPolyline
 62
7
  6
CONTINUOUS
 90
13
 70
0
 10
59.1492607434
 20
-69.8452080661
 10
59.1682353454
 20
-69.8579731966
 10
59.1869670164
 20
-69.8692508804
 10
59.20533677
 20
-69.8789686839
 10
59.2232268973
 20
-69.8870687582
 10
59.2405209578
 20
-69.8934942888
 10
59.2571057262
 20
-69.898193962
 10
59.2728243731
 20
-69.9011366715
 10
59.2876260671
 20
-69.902325408
 10
59.3015426429
 20
-69.9017335823
 10
59.3144943898
 20
-69.8993128649
 10
59.3263165651
 20
-69.8950354541
 10
59.3366690973
 20
-69.8890486102
  0
LWPOLYLINE
  5
24D
100
AcDbEntity
  8
0
100
AcDbPolyline
 62
7
  6
CONTINUOUS
 90
30
 70
0
 10
60.7079104381
 20
-74.1472242303
 10
60.8642418442
 20
-74.2553333875
 10
61.087572468
 20
-74.4014673949
 10
61.3178485821
 20
-74.5421599517
 10
61.5562570814
 20
-74.6774088256
 10
61.8026372008
 20
-74.8063246463
 10
62.0554144321
 20
-74.9273769612
 10
62.3150840694
 20
-75.0401676287
 10
62.581828429
 20
-75.1440738896
 10
62.8533290151
 20
-75.2376121672
 10
63.1293675027
 20
-75.3202913735
 10
63.4101148934
 20
-75.3917178087
 10
63.693407919
 20
-75.4509954164
 10
63.9787504191
 20
-75.4978282828
 10
64.2659170289
 20
-75.5319894372
 10
64.5527613365
 20
-75.5531388314
 10
64.8384017506
 20
-75.5612803642
 10
65.1225988857
 20
-75.5565010497
 10
65.4039384554
 20
-75.5389676524
 10
65.6812163594
 20
-75.5090129861
 10
65.9544658296
 20
-75.4669101611
 10
66.2240368704
 20
-75.4128007479
 10
66.4892883176
 20
-75.3469692981
 10
66.7497588105
 20
-75.2697011861
 10
67.0059921636
 20
-75.1809349559
 10
67.2574152208
 20
-75.0809032777
 10
67.5035145894
 20
-74.969859933
 10
67.7448207529
 20
-74.847542496
 10
67.981096256
 20
-74.7139387498
 10
68.0708679177
 20
-74.6593598125
  0
LINE
  5
24E
100
AcDbEntity
  8
0
100
AcDbLine
 62
7
  6
CONTINUOUS
 10
60.7081044095
 20
-74.1473619764
 11
-65.3397343358
 21
14.9819195543
  0
LINE
  5
24F
100
AcDbEntity
  8
0
100
AcDbLine
 62
7
  6
CONTINUOUS
 10
60.7081044095
 20
-74.1473619764
 11
60.7079101729
 21
-74.1472246052
  0
LINE
  5
250
100
AcDbEntity
  8
0
100
AcDbLine
 62
250
  6
CONTINUOUS
 10
60.0150423072
 20
-72.7918103158
 11
-66.0327964344
 21
16.3374712123
  0
LINE
  5
251
100
AcDbEntity
  8
0
100
AcDbLine
 62
7
  6
CONTINUOUS
 10
56.4516848638
 20
-68.9194674017
 11
56.8476790347
 21
-69.1994732884
  0
LINE
  5
252
100
AcDbEntity
  8
0
100
AcDbLine
 62
7
  6
CONTINUOUS
 10
55.0213167399
 20
-67.9080444017
 11
55.4173010113
 21
-68.1880432884
  0
LINE
  5
253
100
AcDbEntity
  8
0
100
AcDbLine
 62
7
  6
CONTINUOUS
 10
53.458954176
 20
-66.8032915151
 11
53.8549483469
 21
-67.0832974017
  0
LINE
  5
254
100
AcDbEntity
  8
0
100
AcDbLine
 62
7
  6
CONTINUOUS
 10
52.163243932
 20
-65.8870860151
 11
52.5592529522
 21
-66.1671024017
  0
LINE
  5
255
100
AcDbEntity
  8
0
100
AcDbLine
 62
7
  6
CONTINUOUS
 10
59.5216019136
 20
-71.0902222884
 11
59.967628132
 21
-71.405606175
  0
LINE
  5
256
100
AcDbEntity
  8
0
100
AcDbLine
 62
7
  6
CONTINUOUS
 10
54.2509330942
 20
-67.3633009017
 11
54.6469277409
 21
-67.6433114017
  0
LINE
  5
257
100
AcDbEntity
  8
0
100
AcDbLine
 62
7
  6
CONTINUOUS
 10
55.7916954358
 20
-68.4527844017
 11
56.1876900825
 21
-68.7327949017
  0
LINE
  5
258
100
AcDbEntity
  8
0
100
AcDbLine
 62
7
  6
CONTINUOUS
 10
58.3831055486
 20
-70.2851837884
 11
58.7791051451
 21
-70.5651977884
  0
LINE
  5
259
100
AcDbEntity
  8
0
100
AcDbLine
 62
7
  6
CONTINUOUS
 10
57.723111171
 20
-69.8184972884
 11
58.1191112432
 21
-70.0985159017
  0
LINE
  5
25A
100
AcDbEntity
  8
0
100
AcDbLine
 62
7
  6
CONTINUOUS
 10
56.9355805691
 20
-68.924739683
 11
57.5609861115
 21
-69.366968183
  0
LINE
  5
25B
100
AcDbEntity
  8
0
100
AcDbLine
 62
7
  6
CONTINUOUS
 10
57.0211008333
 20
-68.6588930674
 11
57.404924051
 21
-68.9302970674
  0
LINE
  5
25C
100
AcDbEntity
  8
0
100
AcDbLine
 62
7
  6
CONTINUOUS
 10
58.7067665719
 20
-69.8508344431
 11
59.0523831491
 21
-70.0952265674
  0
LINE
  5
25D
100
AcDbEntity
  8
0
100
AcDbLine
 62
7
  6
CONTINUOUS
 10
57.1276245516
 20
-68.5835694238
 11
57.3332150625
 21
-68.7289438683
  0
LINE
  5
25E
100
AcDbEntity
  8
0
100
AcDbLine
 62
7
  6
CONTINUOUS
 10
58.6674784878
 20
-69.5045351519
 11
59.1492608728
 21
-69.8452065604
  0
LINE
  5
25F
100
AcDbEntity
  8
0
100
AcDbLine
 62
7
  6
CONTINUOUS
 10
58.7739876037
 20
-69.4292218337
 11
59.2557699888
 21
-69.7698932422
  0
LINE
  5
260
100
AcDbEntity
  8
0
100
AcDbLine
 62
7
  6
CONTINUOUS
 10
58.6238703802
 20
-69.0535454224
 11
59.1056575855
 21
-69.3942204224
  0
LINE
  5
261
100
AcDbEntity
  8
0
100
AcDbLine
 62
250
  6
CONTINUOUS
 10
50.5569641848
 20
-63.2835664804
 11
-57.206109268
 21
12.9164335196
  0
LINE
  5
262
100
AcDbEntity
  8
0
100
AcDbLine
 62
7
  6
CONTINUOUS
 10
51.3452534107
 20
-63.586475627
 11
51.7412530072
 21
-63.866489627
  0
LINE
  5
263
100
AcDbEntity
  8
0
100
AcDbLine
 62
7
  6
CONTINUOUS
 10
52.6166801937
 20
-64.485510127
 11
53.0126797901
 21
-64.765524127
  0
LINE
  5
264
100
AcDbEntity
  8
0
100
AcDbLine
 62
7
  6
CONTINUOUS
 10
53.2766745713
 20
-64.952196627
 11
53.672669218
 21
-65.232207127
  0
LINE
  5
265
100
AcDbEntity
  8
0
100
AcDbLine
 62
7
  6
CONTINUOUS
 10
54.0686490155
 20
-65.512207127
 11
54.6672863236
 21
-65.935507627
  0
LINE
  5
266
100
AcDbEntity
  8
0
100
AcDbLine
 62
7
  6
CONTINUOUS
 10
55.4067686958
 20
-66.458400627
 11
56.0054060039
 21
-66.881701127
  0
LINE
  5
267
100
AcDbEntity
  8
0
100
AcDbLine
 62
7
  6
CONTINUOUS
 10
56.9051013666
 20
-67.5178774853
 11
57.3011158123
 21
-67.7979019853
  0
LINE
  5
268
100
AcDbEntity
  8
0
100
AcDbLine
 62
7
  6
CONTINUOUS
 10
58.2008215101
 20
-68.4340899853
 11
59.1281070452
 21
-69.0897800953
  0
LINE
  5
269
100
AcDbEntity
  8
0
100
AcDbLine
 62
7
  6
CONTINUOUS
 10
51.4517296423
 20
-63.5111855617
 11
51.8477292387
 21
-63.7911995617
  0
LINE
  5
26A
100
AcDbEntity
  8
0
100
AcDbLine
 62
7
  6
CONTINUOUS
 10
52.7231564252
 20
-64.4102200617
 11
53.1191560217
 21
-64.6902340617
  0
LINE
  5
26B
100
AcDbEntity
  8
0
100
AcDbLine
 62
7
  6
CONTINUOUS
 10
53.3831508029
 20
-64.8769065617
 11
53.7791454496
 21
-65.1569170617
  0
LINE
  5
26C
100
AcDbEntity
  8
0
100
AcDbLine
 62
7
  6
CONTINUOUS
 10
54.1751252471
 20
-65.4369170617
 11
54.7737625551
 21
-65.8602175617
  0
LINE
  5
26D
100
AcDbEntity
  8
0
100
AcDbLine
 62
7
  6
CONTINUOUS
 10
55.5132449274
 20
-66.3831105617
 11
56.1118822355
 21
-66.8064110617
  0
LINE
  5
26E
100
AcDbEntity
  8
0
100
AcDbLine
 62
7
  6
CONTINUOUS
 10
57.0115775979
 20
-67.4425874201
 11
57.4075920436
 21
-67.7226119201
  0
LINE
  5
26F
100
AcDbEntity
  8
0
100
AcDbLine
 62
7
  6
CONTINUOUS
 10
58.3072977415
 20
-68.3587999201
 11
59.2345832766
 21
-69.0144900301
  0
LINE
  5
270
100
AcDbEntity
  8
0
100
AcDbLine
 62
250
  6
CONTINUOUS
 10
-56.6927764375
 20
15.0888686381
 11
49.8986847877
 21
-60.2826764108
  0
LWPOLYLINE
  5
271
100
AcDbEntity
  8
0
100
AcDbPolyline
 62
250
  6
CONTINUOUS
 90
37
 70
0
 10
-66.0327964344
 20
16.3374712123
 10
-66.1020034711
 20
16.3876369494
 10
-66.1711731675
 20
16.4401876016
 10
-66.2403053768
 20
16.4951232878
 10
-66.3095175594
 20
16.5525454131
 10
-66.3786916678
 20
16.6123530482
 10
-66.447474157
 20
16.6742429207
 10
-66.5158601523
 20
16.7382245589
 10
-66.5838533889
 20
16.8042893576
 10
-66.6511131355
 20
16.8721069263
 10
-66.7176338076
 20
16.9416857153
 10
-66.7834193665
 20
17.0130185885
 10
-66.8481433479
 20
17.0857518164
 10
-66.9117992108
 20
17.159892766
 10
-66.9743914865
 20
17.2354356963
 10
-67.0356103363
 20
17.3120072006
 10
-67.0954482332
 20
17.3896138224
 10
-67.1539104272
 20
17.4682508584
 10
-67.2107063428
 20
17.5475279524
 10
-67.2658263323
 20
17.6274491006
 10
-67.3192776364
 20
17.7080122496
 10
-67.3707951981
 20
17.7888178182
 10
-67.4203677959
 20
17.8698672622
 10
-67.4680042584
 20
17.9511610543
 10
-67.5134698794
 20
18.0322979151
 10
-67.5567525915
 20
18.113277352
 10
-67.5978622245
 20
18.1941016575
 10
-67.6365972782
 20
18.2743734385
 10
-67.6729453904
 20
18.3540915879
 10
-67.7069169715
 20
18.433258779
 10
-67.7383451189
 20
18.5114829339
 10
-67.7672167897
 20
18.5887626703
 10
-67.7935434801
 20
18.6651006074
 10
-67.8171956099
 20
18.7401102551
 10
-67.8381297675
 20
18.8136629555
 10
-67.8563883986
 20
18.8858881335
 10
-67.8719709821
 20
18.9567862031
  0
LWPOLYLINE
  5
272
100
AcDbEntity
  8
0
100
AcDbPolyline
 62
7
  6
CONTINUOUS
 90
35
 70
0
 10
59.1281072008
 20
-69.089778218
 10
59.1674579269
 20
-69.1187094605
 10
59.2068635834
 20
-69.1499024399
 10
59.2461608673
 20
-69.1832257806
 10
59.2851962205
 20
-69.2185399328
 10
59.3238012147
 20
-69.2556940733
 10
59.3617940543
 20
-69.2945245376
 10
59.3989845136
 20
-69.3348189168
 10
59.4352640793
 20
-69.3764448382
 10
59.470570655
 20
-69.4193588219
 10
59.5047485636
 20
-69.4633769809
 10
59.5376576974
 20
-69.5083239089
 10
59.5692386791
 20
-69.5541781667
 10
59.5994141821
 20
-69.6008669171
 10
59.6279436585
 20
-69.6480716076
 10
59.6545388329
 20
-69.6953931931
 10
59.6791087273
 20
-69.7426455036
 10
59.7015234454
 20
-69.7895777515
 10
59.7215233723
 20
-69.8356961865
 10
59.7390124106
 20
-69.8806256617
 10
59.754047936
 20
-69.9243523666
 10
59.7666297311
 20
-69.9669321534
 10
59.776719112
 20
-70.0081606762
 10
59.784296727
 20
-70.0478687122
 10
59.7893257162
 20
-70.0861315584
 10
59.7917626247
 20
-70.1228898023
 10
59.7915430461
 20
-70.1577798543
 10
59.7886200839
 20
-70.190436955
 10
59.7830324841
 20
-70.2206967952
 10
59.7748282461
 20
-70.2484393787
 10
59.7640773703
 20
-70.2734598365
 10
59.7509176697
 20
-70.2956321202
 10
59.7354374452
 20
-70.3149636226
 10
59.7176596693
 20
-70.3314831761
 10
59.7100592929
 20
-70.337198495
  0
LWPOLYLINE
  5
273
100
AcDbEntity
  8
0
100
AcDbPolyline
 62
250
  6
CONTINUOUS
 90
12
 70
0
 10
60.7079101729
 20
-74.1472246052
 10
60.6193966785
 20
-74.0790608486
 10
60.5233069606
 20
-73.9907013971
 10
60.434696275
 20
-73.89269537
 10
60.3537618474
 20
-73.7852609045
 10
60.2806838179
 20
-73.6686371233
 10
60.2156248401
 20
-73.5430836025
 10
60.1587297195
 20
-73.4088797931
 10
60.1101250906
 20
-73.2663243999
 10
60.0699191353
 20
-73.1157347161
 10
60.0382013422
 20
-72.9574459175
 10
60.0150423072
 20
-72.7918103158
  0
LINE
  5
274
100
AcDbEntity
  8
0
100
AcDbLine
 62
250
  6
CONTINUOUS
 10
-54.8948876939
 20
18.7564652016
 11
49.6225272966
 21
-55.1485076902
  0
LINE
  5
275
100
AcDbEntity
  8
0
100
AcDbLine
 62
250
  6
CONTINUOUS
 10
-54.4510553971
 20
19.6990247539
 11
49.5465870578
 21
-53.8384134534
  0
LINE
  5
276
100
AcDbEntity
  8
0
100
AcDbLine
 62
7
  6
CONTINUOUS
 10
-53.6757576271
 20
21.3743527917
 11
49.4323921266
 21
-51.5341190948
  0
LWPOLYLINE
  5
277
100
AcDbEntity
  8
0
100
AcDbPolyline
 62
7
  6
CONTINUOUS
 90
3
 70
0
 10
71.7688470834
 20
-53.5789097625
 10
71.5957877973
 20
-53.4681074788
 10
71.5713095823
 20
-53.4509887645
  0
LWPOLYLINE
  5
278
100
AcDbEntity
  8
0
100
AcDbPolyline
 62
250
  6
CONTINUOUS
 90
10
 70
0
 10
-56.9106425218
 20
15.2151010542
 10
-56.8834623352
 20
15.205420182
 10
-56.8568259647
 20
15.1945553826
 10
-56.8308224662
 20
15.1825429813
 10
-56.80553878
 20
15.1694231404
 10
-56.7810594393
 20
15.1552397248
 10
-56.7574662885
 20
15.1400401552
 10
-56.7348382088
 20
15.1238752499
 10
-56.7132508549
 20
15.1067990546
 10
-56.6927764021
 20
15.0888686619
  0
LINE
  5
279
100
AcDbEntity
  8
0
100
AcDbLine
 62
7
  6
CONTINUOUS
 10
71.7867928378
 20
-53.5905303173
 11
71.7688470834
 21
-53.5789097625
  0
LINE
  5
27A
100
AcDbEntity
  8
0
100
AcDbLine
 62
7
  6
CONTINUOUS
 10
71.3911641276
 20
-53.3107785735
 11
71.7867910943
 21
-53.5905290844
  0
LWPOLYLINE
  5
27B
100
AcDbEntity
  8
0
100
AcDbPolyline
 62
7
  6
CONTINUOUS
 90
36
 70
0
 10
71.5713095823
 20
-53.4509887645
 10
71.4311478947
 20
-53.3453108108
 10
71.275188726
 20
-53.2106156729
 10
71.1280655494
 20
-53.0640271698
 10
70.9901318915
 20
-52.9057670624
 10
70.8618675383
 20
-52.7363627813
 10
70.7434513113
 20
-52.5560971984
 10
70.6349971408
 20
-52.3651944472
 10
70.5367537326
 20
-52.1642501778
 10
70.448868161
 20
-51.9538231736
 10
70.371285961
 20
-51.7340602777
 10
70.3039240093
 20
-51.5049677039
 10
70.2468320762
 20
-51.2668283996
 10
70.2000754385
 20
-51.0200192585
 10
70.1636433017
 20
-50.7646381119
 10
70.137574152
 20
-50.5009242755
 10
70.1219225816
 20
-50.2293134423
 10
70.1167056966
 20
-49.9501934668
 10
70.1219246461
 20
-49.6639444411
 10
70.1375745464
 20
-49.3709359139
 10
70.1636396273
 20
-49.071556846
 10
70.2000682975
 20
-48.7662946792
 10
70.2468225831
 20
-48.4554662965
 10
70.3039153384
 20
-48.1392013448
 10
70.3712844113
 20
-47.8179488568
 10
70.4488805368
 20
-47.4920807645
 10
70.5367837372
 20
-47.1615916501
 10
70.6350493877
 20
-46.8265455648
 10
70.7435297098
 20
-46.4877154098
 10
70.8619667616
 20
-46.1461736455
 10
70.9902404144
 20
-45.8023183814
 10
71.1281732881
 20
-45.4566738269
 10
71.2752862531
 20
-45.1105346825
 10
71.4312253306
 20
-44.7646521805
 10
71.595833134
 20
-44.419221363
 10
71.7688470834
 20
-44.0747074755
  0
LWPOLYLINE
  5
27C
100
AcDbEntity
  8
0
100
AcDbPolyline
 62
250
  6
CONTINUOUS
 90
5
 70
0
 10
-55.2838703123
 20
51.5833339847
 10
-55.2242146665
 20
51.5276234721
 10
-55.1624704651
 20
51.474442881
 10
-55.0986523457
 20
51.4238287703
 10
-55.0426968253
 20
51.3827868793
  0
LWPOLYLINE
  5
27D
100
AcDbEntity
  8
0
100
AcDbPolyline
 62
250
  6
CONTINUOUS
 90
7
 70
0
 10
-55.9411851572
 20
51.4376306789
 10
-55.8776041443
 20
51.3782459169
 10
-55.8119032841
 20
51.321675963
 10
-55.7440825768
 20
51.2679208173
 10
-55.6741420222
 20
51.2169804797
 10
-55.6020816204
 20
51.1688549502
 10
-55.5279013714
 20
51.1235442289
  0
LWPOLYLINE
  5
27E
100
AcDbEntity
  8
0
100
AcDbPolyline
 62
250
  6
CONTINUOUS
 90
22
 70
0
 10
-55.5279299132
 20
19.025368496
 10
-55.5060351723
 20
19.0232979932
 10
-55.4822908145
 20
19.0198305699
 10
-55.4568294262
 20
19.0149858965
 10
-55.4297946307
 20
19.0087883535
 10
-55.4013360756
 20
19.0012756962
 10
-55.3716086798
 20
18.992498763
 10
-55.3407774618
 20
18.9825092218
 10
-55.3090160889
 20
18.9713603172
 10
-55.2765017663
 20
18.9591153021
 10
-55.2434162729
 20
18.9458427938
 10
-55.2099447241
 20
18.9316168203
 10
-55.1762741159
 20
18.9165173213
 10
-55.1425927296
 20
18.9006287788
 10
-55.1090889875
 20
18.8840399282
 10
-55.0759501899
 20
18.866843678
 10
-55.0433616958
 20
18.8491361339
 10
-55.0115057659
 20
18.8310163027
 10
-54.9805604559
 20
18.8125857151
 10
-54.9506988073
 20
18.7939474819
 10
-54.9220878788
 20
18.7752057186
 10
-54.8948876939
 20
18.7564652016
  0
LINE
  5
27F
100
AcDbEntity
  8
0
100
AcDbLine
 62
7
  6
CONTINUOUS
 10
-55.0426968253
 20
51.3827868793
 11
49.8633527206
 21
-22.796992142
  0
LINE
  5
280
100
AcDbEntity
  8
0
100
AcDbLine
 62
250
  6
CONTINUOUS
 10
-56.6927992334
 20
54.1560393961
 11
49.8987075836
 21
-21.2155378911
  0
LINE
  5
281
100
AcDbEntity
  8
0
100
AcDbLine
 62
250
  6
CONTINUOUS
 10
-57.2054469941
 20
57.2672359646
 11
50.5576264587
 21
-18.9327640354
  0
LWPOLYLINE
  5
282
100
AcDbEntity
  8
0
100
AcDbPolyline
 62
250
  6
CONTINUOUS
 90
42
 70
0
 10
-55.5279013714
 20
51.1235442289
 10
-55.521268847
 20
51.119864145
 10
-55.5143925735
 20
51.1164472281
 10
-55.5072725511
 20
51.113293478
 10
-55.4999145834
 20
51.1103991532
 10
-55.4923128666
 20
51.1077679953
 10
-55.4844499896
 20
51.1054112295
 10
-55.4763266573
 20
51.103327204
 10
-55.4679421647
 20
51.1015175706
 10
-55.459276985
 20
51.0999985101
 10
-55.4503320861
 20
51.0987684611
 10
-55.4411065
 20
51.0978289849
 10
-55.4315777966
 20
51.0972009464
 10
-55.421746817
 20
51.0968827176
 10
-55.4116127201
 20
51.0968759264
 10
-55.401150552
 20
51.0972063209
 10
-55.3903607796
 20
51.0978723066
 10
-55.379242936
 20
51.098875478
 10
-55.3677706668
 20
51.1002463659
 10
-55.3559472821
 20
51.1019826414
 10
-55.3437694717
 20
51.1040866335
 10
-55.3312009515
 20
51.1065958607
 10
-55.318240595
 20
51.1095086427
 10
-55.3048895286
 20
51.1128266597
 10
-55.2911148475
 20
51.1165924707
 10
-55.2769133451
 20
51.1208059468
 10
-55.262288228
 20
51.1254672169
 10
-55.2472162113
 20
51.1306192256
 10
-55.2317389753
 20
51.1362417557
 10
-55.2158148398
 20
51.1423550244
 10
-55.1992954788
 20
51.1490626287
 10
-55.1821427145
 20
51.1563753939
 10
-55.1643947248
 20
51.1642824946
 10
-55.1460177174
 20
51.1728550516
 10
-55.1269253105
 20
51.1821444181
 10
-55.1072038859
 20
51.1920992409
 10
-55.0870787974
 20
51.2026365812
 10
-55.0664952185
 20
51.2138095842
 10
-55.0455079757
 20
51.2255651047
 10
-55.0245069025
 20
51.2376607686
 10
-55.0034725306
 20
51.250132753
 10
-54.9824243283
 20
51.2629448808
  0
LINE
  5
283
100
AcDbEntity
  8
0
100
AcDbLine
 62
250
  6
CONTINUOUS
 10
-66.0327964344
 20
67.2141107087
 11
60.0150423072
 21
-21.9151708194
  0
LWPOLYLINE
  5
284
100
AcDbEntity
  8
0
100
AcDbPolyline
 62
250
  6
CONTINUOUS
 90
37
 70
0
 10
60.0150423072
 20
-21.9151708194
 10
60.0839518964
 20
-21.9655468836
 10
60.1522406517
 20
-22.0187204553
 10
60.2199087197
 20
-22.0746914457
 10
60.2870697021
 20
-22.1335639886
 10
60.3536105843
 20
-22.1952335957
 10
60.4191917252
 20
-22.2593871633
 10
60.4838063546
 20
-22.32603556
 10
60.5474623822
 20
-22.3951672287
 10
60.6098422885
 20
-22.4664353655
 10
60.670939322
 20
-22.5398492462
 10
60.7307618574
 20
-22.6153986137
 10
60.7890151155
 20
-22.6927073338
 10
60.8456919638
 20
-22.7717831921
 10
60.9008015445
 20
-22.8526171867
 10
60.9540734724
 20
-22.9348080133
 10
61.0055000004
 20
-23.0183623711
 10
61.0550911526
 20
-23.103272181
 10
61.1026031034
 20
-23.1891140294
 10
61.1480264152
 20
-23.2758917641
 10
61.1913729327
 20
-23.3636000763
 10
61.2324305674
 20
-23.4518019302
 10
61.2711886565
 20
-23.5404983867
 10
61.3076602559
 20
-23.6296869292
 10
61.3416685808
 20
-23.7189253218
 10
61.3732022823
 20
-23.8082125637
 10
61.402274947
 20
-23.8975482912
 10
61.4287468332
 20
-23.986491441
 10
61.45260608
 20
-24.0750405518
 10
61.4738665002
 20
-24.163195891
 10
61.4924264231
 20
-24.2505192548
 10
61.5082728075
 20
-24.3370092595
 10
61.5214202414
 20
-24.4226663382
 10
61.5318079845
 20
-24.5070553237
 10
61.5394160082
 20
-24.5900310237
 10
61.5442653069
 20
-24.6717380316
 10
61.5463564018
 20
-24.7521760243
  0
LWPOLYLINE
  5
285
100
AcDbEntity
  8
0
100
AcDbPolyline
 62
250
  6
CONTINUOUS
 90
10
 70
0
 10
50.0254170059
 20
-60.4001055926
 10
50.0172728498
 20
-60.3848092675
 10
50.0075509408
 20
-60.3699657337
 10
49.9962837825
 20
-60.3556246194
 10
49.9835090448
 20
-60.3418338733
 10
49.9692694376
 20
-60.3286396038
 10
49.9536125688
 20
-60.3160859253
 10
49.9365907842
 20
-60.3042148103
 10
49.9182609932
 20
-60.2930659496
 10
49.8986844782
 20
-60.2826766189
  0
LWPOLYLINE
  5
286
100
AcDbEntity
  8
0
100
AcDbPolyline
 62
250
  6
CONTINUOUS
 90
19
 70
0
 10
-55.9411538766
 20
18.1266415855
 10
-55.9133308343
 20
18.1286503169
 10
-55.8830287803
 20
18.1287410985
 10
-55.8504783351
 20
18.1269132413
 10
-55.8159272293
 20
18.1231806574
 10
-55.7796384218
 20
18.1175717561
 10
-55.7418880997
 20
18.1101292282
 10
-55.7029635694
 20
18.1009097186
 10
-55.6631610712
 20
18.0899833954
 10
-55.6227835294
 20
18.077433418
 10
-55.5821382432
 20
18.0633553021
 10
-55.5415345469
 20
18.0478561923
 10
-55.5012814565
 20
18.0310540477
 10
-55.4616853219
 20
18.0130767447
 10
-55.4230474905
 20
17.994061102
 10
-55.3856620123
 20
17.9741518386
 10
-55.3498134092
 20
17.9535004753
 10
-55.3157745092
 20
17.9322641822
 10
-55.2838043653
 20
17.9106045801
  0
LWPOLYLINE
  5
287
100
AcDbEntity
  8
0
100
AcDbPolyline
 62
7
  6
CONTINUOUS
 90
26
 70
0
 10
-61.0503733186
 20
74.2902741611
 10
-61.2797730846
 20
74.4478159038
 10
-61.5081618148
 20
74.5954286371
 10
-61.7355395091
 20
74.7331123609
 10
-61.9623785713
 20
74.8611082368
 10
-62.1882065977
 20
74.9791751033
 10
-62.4116063773
 20
75.0865894753
 10
-62.6323243647
 20
75.1831978178
 10
-62.8506141053
 20
75.2691536658
 10
-63.0658190252
 20
75.34419414
 10
-63.2781924868
 20
75.4083538461
 10
-63.4874811276
 20
75.4615981785
 10
-63.6922682861
 20
75.5035604407
 10
-63.8923060185
 20
75.534135712
 10
-64.0878422686
 20
75.5534289131
 10
-64.2782042072
 20
75.5613881103
 10
-64.4635009048
 20
75.5579787824
 10
-64.643623291
 20
75.5432354505
 10
-64.8175713253
 20
75.5172097438
 10
-64.9853006349
 20
75.4798205795
 10
-65.1468555926
 20
75.4311490404
 10
-65.3013692769
 20
75.371490003
 10
-65.4487184313
 20
75.3008520659
 10
-65.5890263122
 20
75.2192266305
 10
-65.7217957678
 20
75.1268827777
 10
-65.7659549811
 20
75.0924659935
  0
LINE
  5
288
100
AcDbEntity
  8
0
100
AcDbLine
 62
250
  6
CONTINUOUS
 10
-62.3678469541
 20
73.2896337518
 11
63.6799917875
 21
-15.8396477763
  0
LINE
  5
289
100
AcDbEntity
  8
0
100
AcDbLine
 62
7
  6
CONTINUOUS
 10
64.997465423
 20
-14.839007367
 11
-61.0503733186
 21
74.2902741611
  0
LWPOLYLINE
  5
28A
100
AcDbEntity
  8
0
100
AcDbPolyline
 62
250
  6
CONTINUOUS
 90
37
 70
0
 10
63.6799917875
 20
-15.8396477763
 10
63.9058308273
 20
-16.0041278876
 10
64.1310108448
 20
-16.1776979055
 10
64.3551608654
 20
-16.3600727567
 10
64.5779037
 20
-16.5509507307
 10
64.7988789759
 20
-16.7500209835
 10
65.0177434295
 20
-16.9569658402
 10
65.2341393501
 20
-17.1714564158
 10
65.4477022355
 20
-17.393135337
 10
65.6580839441
 20
-17.6216249913
 10
65.8649298531
 20
-17.8565502515
 10
66.0678998625
 20
-18.0975305078
 10
66.2666758695
 20
-18.3441642657
 10
66.4609233343
 20
-18.5960504622
 10
66.6503189248
 20
-18.852778903
 10
66.8345715215
 20
-19.1139226039
 10
67.0133713009
 20
-19.3790604956
 10
67.1864162438
 20
-19.6477587458
 10
67.3534396385
 20
-19.9195622316
 10
67.5141577248
 20
-20.1940308134
 10
67.6682983901
 20
-20.470717826
 10
67.8156277492
 20
-20.7491523119
 10
67.955892901
 20
-21.0288819735
 10
68.0888553437
 20
-21.3094537071
 10
68.214319915
 20
-21.5903927324
 10
68.3320695321
 20
-21.8712431573
 10
68.441900987
 20
-22.1515504671
 10
68.5436582075
 20
-22.4308426947
 10
68.6371632401
 20
-22.7086726903
 10
68.7222502276
 20
-22.9845853083
 10
68.7988018645
 20
-23.2581008658
 10
68.86668081
 20
-23.5287702255
 10
68.92576558
 20
-23.7961626742
 10
68.9759838008
 20
-24.0598335165
 10
69.0172526459
 20
-24.3193522035
 10
69.0494800207
 20
-24.5743032122
 10
69.0726006588
 20
-24.8242743057
  0
LWPOLYLINE
  5
28B
100
AcDbEntity
  8
0
100
AcDbPolyline
 62
250
  6
CONTINUOUS
 90
6
 70
0
 10
49.8720670989
 20
-22.6666176741
 10
49.8650106664
 20
-22.6553472859
 10
49.8377265148
 20
-22.6058448216
 10
49.8130967214
 20
-22.5542869128
 10
49.7913430964
 20
-22.5005098387
 10
49.7726900836
 20
-22.4444149972
  0
LWPOLYLINE
  5
28C
100
AcDbEntity
  8
0
100
AcDbPolyline
 62
250
  6
CONTINUOUS
 90
10
 70
0
 10
50.5569641848
 20
-63.2835664804
 10
50.4637141405
 20
-62.9553125596
 10
50.375375792
 20
-62.625043416
 10
50.2919191652
 20
-62.292840866
 10
50.2130282036
 20
-61.9581028877
 10
50.138970781
 20
-61.6215837159
 10
50.0705283199
 20
-61.2854454864
 10
50.0078693642
 20
-60.9505117088
 10
49.9506200436
 20
-60.6162156011
 10
49.8986847877
 20
-60.2826764108
  0
LWPOLYLINE
  5
28D
100
AcDbEntity
  8
0
100
AcDbPolyline
 62
250
  6
CONTINUOUS
 90
10
 70
0
 10
50.5569641847
 20
-63.2835664786
 10
50.4832017933
 20
-62.9658951065
 10
50.4127892317
 20
-62.6467869725
 10
50.3458618336
 20
-62.3263770312
 10
50.2824628551
 20
-62.004247759
 10
50.2227968308
 20
-61.6810993129
 10
50.1671901709
 20
-61.3587694569
 10
50.1157691504
 20
-61.0379932191
 10
50.0684990273
 20
-60.7183818586
 10
50.0254105367
 20
-60.4001072111
  0
LWPOLYLINE
  5
28E
100
AcDbEntity
  8
0
100
AcDbPolyline
 62
250
  6
CONTINUOUS
 90
4
 70
0
 10
-55.0433994685
 20
51.3504409752
 10
-55.0115413564
 20
51.3430244318
 10
-54.9805940847
 20
51.332982562
 10
-54.9599103826
 20
51.3242480244
  0
LWPOLYLINE
  5
28F
100
AcDbEntity
  8
0
100
AcDbPolyline
 62
250
  6
CONTINUOUS
 90
10
 70
0
 10
50.025426401
 20
-21.406099831
 10
50.0172821041
 20
-21.382971789
 10
50.0075605072
 20
-21.3601599197
 10
49.996294103
 20
-21.3377404677
 10
49.9835205473
 20
-21.3157883658
 10
49.9692825335
 20
-21.2943769849
 10
49.9536276494
 20
-21.2735778886
 10
49.9366082186
 20
-21.2534605941
 10
49.9182811255
 20
-21.2340923398
 10
49.8987076249
 20
-21.2155378605
  0
LWPOLYLINE
  5
290
100
AcDbEntity
  8
0
100
AcDbPolyline
 62
250
  6
CONTINUOUS
 90
11
 70
0
 10
49.7726900836
 20
-22.4444149972
 10
49.7572656795
 20
-22.3857858599
 10
49.7451823875
 20
-22.3242532873
 10
49.7367349804
 20
-22.2597523807
 10
49.7320586187
 20
-22.1919971466
 10
49.7310956565
 20
-22.1202285092
 10
49.7343096412
 20
-22.0444043108
 10
49.7418028342
 20
-21.9641430012
 10
49.7530892439
 20
-21.8780850104
 10
49.7690713477
 20
-21.785908451
 10
49.7896373116
 20
-21.6873954459
  0
LWPOLYLINE
  5
291
100
AcDbEntity
  8
0
100
AcDbPolyline
 62
250
  6
CONTINUOUS
 90
18
 70
0
 10
49.8986847877
 20
-60.2826764108
 10
49.8696852318
 20
-60.1028882448
 10
49.8435156745
 20
-59.9237458687
 10
49.8198957151
 20
-59.7455239253
 10
49.7978929087
 20
-59.5677023947
 10
49.7779082468
 20
-59.3912924517
 10
49.7616141161
 20
-59.2188718101
 10
49.749102285
 20
-59.0515436665
 10
49.739654257
 20
-58.8886675806
 10
49.7337240313
 20
-58.7301901212
 10
49.7312297915
 20
-58.5764530023
 10
49.7317790552
 20
-58.4274313366
 10
49.7354511681
 20
-58.282465683
 10
49.7421407034
 20
-58.1415298498
 10
49.7516114001
 20
-58.0048619301
 10
49.7638133595
 20
-57.8721619296
 10
49.7786457533
 20
-57.7434576804
 10
49.7873828593
 20
-57.6804828399
  0
LWPOLYLINE
  5
292
100
AcDbEntity
  8
0
100
AcDbPolyline
 62
250
  6
CONTINUOUS
 90
7
 70
0
 10
50.0254105367
 20
-60.4001072111
 10
50.0024134804
 20
-60.2225921728
 10
49.9807638634
 20
-60.0471662991
 10
49.9607115724
 20
-59.8738292246
 10
49.9424130365
 20
-59.7018308351
 10
49.9263133194
 20
-59.5319513026
 10
49.9181932551
 20
-59.4355808621
  0
LINE
  5
293
100
AcDbEntity
  8
0
100
AcDbLine
 62
7
  6
CONTINUOUS
 10
54.6867770763
 20
-66.9106560674
 11
54.753482758
 21
-67.5679656265
  0
LINE
  5
294
100
AcDbEntity
  8
0
100
AcDbLine
 62
7
  6
CONTINUOUS
 10
53.3658267564
 20
-65.879332514
 11
53.458954176
 21
-66.8032915151
  0
LINE
  5
295
100
AcDbEntity
  8
0
100
AcDbLine
 62
7
  6
CONTINUOUS
 10
53.7618211751
 20
-66.1593406994
 11
53.8549483469
 21
-67.0832974017
  0
LINE
  5
296
100
AcDbEntity
  8
0
100
AcDbLine
 62
7
  6
CONTINUOUS
 10
53.8683359404
 20
-66.0840235447
 11
53.9615033641
 21
-67.0079516265
  0
LINE
  5
297
100
AcDbEntity
  8
0
100
AcDbLine
 62
7
  6
CONTINUOUS
 10
54.1578034479
 20
-66.4393424497
 11
54.2509330942
 21
-67.3633009017
  0
LINE
  5
298
100
AcDbEntity
  8
0
100
AcDbLine
 62
7
  6
CONTINUOUS
 10
56.0945604363
 20
-67.8088364497
 11
56.1876900825
 21
-68.7327949017
  0
LINE
  5
299
100
AcDbEntity
  8
0
100
AcDbLine
 62
7
  6
CONTINUOUS
 10
56.2010752016
 20
-67.7335192951
 11
56.2942450997
 21
-68.6574491265
  0
LWPOLYLINE
  5
29A
100
AcDbEntity
  8
0
100
AcDbPolyline
 62
7
  6
CONTINUOUS
 90
3
 70
0
 10
54.5249231977
 20
-66.4239125056
 10
54.5447770539
 20
-66.6275301059
 10
54.6469277409
 20
-67.6433114017
  0
LWPOLYLINE
  5
29B
100
AcDbEntity
  8
0
100
AcDbPolyline
 62
7
  6
CONTINUOUS
 90
3
 70
0
 10
55.6696859429
 20
-67.2333820056
 10
55.6895406242
 20
-67.4370001893
 10
55.7916954358
 20
-68.4527844017
  0
LINE
  5
29C
100
AcDbEntity
  8
0
100
AcDbLine
 62
7
  6
CONTINUOUS
 10
53.7791454496
 20
-65.1569170617
 11
53.8683359404
 21
-66.0840235447
  0
LINE
  5
29D
100
AcDbEntity
  8
0
100
AcDbLine
 62
7
  6
CONTINUOUS
 10
56.1118822355
 20
-66.8064110617
 11
56.2010752016
 21
-67.7335192951
  0
LINE
  5
29E
100
AcDbEntity
  8
0
100
AcDbLine
 62
7
  6
CONTINUOUS
 10
53.2766745713
 20
-64.952196627
 11
53.3658267564
 21
-65.879332514
  0
LINE
  5
29F
100
AcDbEntity
  8
0
100
AcDbLine
 62
7
  6
CONTINUOUS
 10
53.672669218
 20
-65.232207127
 11
53.7618211751
 21
-66.1593406994
  0
LINE
  5
2A0
100
AcDbEntity
  8
0
100
AcDbLine
 62
7
  6
CONTINUOUS
 10
54.0686490155
 20
-65.512207127
 11
54.1578034479
 21
-66.4393424497
  0
LINE
  5
2A1
100
AcDbEntity
  8
0
100
AcDbLine
 62
7
  6
CONTINUOUS
 10
56.0054060039
 20
-66.881701127
 11
56.0945604363
 21
-67.8088364497
  0
LWPOLYLINE
  5
2A2
100
AcDbEntity
  8
0
100
AcDbPolyline
 62
250
  6
CONTINUOUS
 90
17
 70
0
 10
50.5569641848
 20
-63.2835664804
 10
50.3481873416
 20
-60.9728371494
 10
50.1639279734
 20
-58.6428122409
 10
50.0042043919
 20
-56.2937233163
 10
49.8690324697
 20
-53.9258038208
 10
49.7584256407
 20
-51.5392890921
 10
49.6723948978
 20
-49.1344163377
 10
49.61094879
 20
-46.7114245838
 10
49.5740934215
 20
-44.2705546062
 10
49.5618324537
 20
-41.8120489377
 10
49.5741671051
 20
-39.3361519081
 10
49.6110961497
 20
-36.8431095751
 10
49.6726159191
 20
-34.3331696534
 10
49.7587203015
 20
-31.8065815564
 10
49.8694007408
 20
-29.2635964053
 10
50.0046462367
 20
-26.7044669578
 10
50.1644433481
 20
-24.1294475545
  0
LINE
  5
2A3
100
AcDbEntity
  8
0
100
AcDbLine
 62
7
  6
CONTINUOUS
 10
49.9181932551
 20
-59.4355808621
 11
49.917938481
 21
-59.4324005439
  0
LINE
  5
2A4
100
AcDbEntity
  8
0
100
AcDbLine
 62
7
  6
CONTINUOUS
 10
58.8294962381
 20
-69.9376189488
 11
58.8856601621
 21
-70.4898520133
  0
LINE
  5
2A5
100
AcDbEntity
  8
0
100
AcDbLine
 62
7
  6
CONTINUOUS
 10
58.7067665719
 20
-69.8508344431
 11
58.7791051451
 21
-70.5651977884
  0
LINE
  5
2A6
100
AcDbEntity
  8
0
100
AcDbLine
 62
7
  6
CONTINUOUS
 10
58.2899759225
 20
-69.3612253221
 11
58.3831055486
 21
-70.2851837884
  0
LINE
  5
2A7
100
AcDbEntity
  8
0
100
AcDbLine
 62
7
  6
CONTINUOUS
 10
58.7458760355
 20
-69.1398164486
 11
58.7739876037
 21
-69.4292218337
  0
LINE
  5
2A8
100
AcDbEntity
  8
0
100
AcDbLine
 62
7
  6
CONTINUOUS
 10
58.6238703802
 20
-69.0535454224
 11
58.6674784878
 21
-69.5045351519
  0
LINE
  5
2A9
100
AcDbEntity
  8
0
100
AcDbLine
 62
7
  6
CONTINUOUS
 10
58.2008215101
 20
-68.4340899853
 11
58.2899759225
 21
-69.3612253221
  0
LWPOLYLINE
  5
2AA
100
AcDbEntity
  8
0
100
AcDbPolyline
 62
7
  6
CONTINUOUS
 90
13
 70
0
 10
49.746597359
 20
-24.5437510698
 10
49.5694108969
 20
-27.6272136232
 10
49.4276144954
 20
-30.6878404779
 10
49.3212345783
 20
-33.7251946325
 10
49.2502926795
 20
-36.7388385364
 10
49.2148051368
 20
-39.728347457
 10
49.2147835558
 20
-42.6932940069
 10
49.2502343618
 20
-45.6332432061
 10
49.3211589638
 20
-48.5477803505
 10
49.4275538672
 20
-51.4364897719
 10
49.5694096865
 20
-54.298942252
 10
49.7467121691
 20
-57.1347261121
 10
49.9179409921
 20
-59.4324319482
  0
LINE
  5
2AB
100
AcDbEntity
  8
0
100
AcDbLine
 62
7
  6
CONTINUOUS
 10
49.746597359
 20
-24.5437510698
 11
49.8935264974
 21
-22.3456872467
  0
LWPOLYLINE
  5
2AC
100
AcDbEntity
  8
0
100
AcDbPolyline
 62
250
  6
CONTINUOUS
 90
3
 70
0
 10
50.1644433481
 20
-24.1294475545
 10
50.348776195
 20
-21.5387940929
 10
50.5576264587
 20
-18.9327640354
  0
LWPOLYLINE
  5
2AD
100
AcDbEntity
  8
0
100
AcDbPolyline
 62
250
  6
CONTINUOUS
 90
7
 70
0
 10
49.8935264974
 20
-22.3456872467
 10
49.8957162973
 20
-22.3165165022
 10
49.9056772396
 20
-22.207470711
 10
49.9189693505
 20
-22.0917000418
 10
49.9355419048
 20
-21.9693611718
 10
49.9549061476
 20
-21.8397412779
 10
49.9765087723
 20
-21.7025761399
  0
LINE
  5
2AE
100
AcDbEntity
  8
0
100
AcDbLine
 62
250
  6
CONTINUOUS
 10
49.9765087723
 20
-21.7025761399
 11
50.0685743497
 21
-21.1451383594
  0
LWPOLYLINE
  5
2AF
100
AcDbEntity
  8
0
100
AcDbPolyline
 62
250
  6
CONTINUOUS
 90
9
 70
0
 10
50.0685743497
 20
-21.1451383594
 10
50.1159076249
 20
-20.8806151836
 10
50.1673961878
 20
-20.6123900293
 10
50.2230775252
 20
-20.3397685596
 10
50.2828240989
 20
-20.0631627757
 10
50.3463029032
 20
-19.7841077977
 10
50.4133063035
 20
-19.5030436196
 10
50.4837927632
 20
-19.2192991704
 10
50.5576264585
 20
-18.9327640376
  0
LWPOLYLINE
  5
2B0
100
AcDbEntity
  8
0
100
AcDbPolyline
 62
250
  6
CONTINUOUS
 90
10
 70
0
 10
49.8987075836
 20
-21.2155378911
 10
49.9506995388
 20
-20.9772725639
 10
50.0080101421
 20
-20.7349241972
 10
50.0707355945
 20
-20.4884763473
 10
50.1392530114
 20
-20.2375812991
 10
50.2133921984
 20
-19.9825518611
 10
50.2923637087
 20
-19.7244103451
 10
50.3758959626
 20
-19.4635421311
 10
50.4643071074
 20
-19.1996467839
 10
50.5576264587
 20
-18.9327640354
  0
LWPOLYLINE
  5
2B1
100
AcDbEntity
  8
0
100
AcDbPolyline
 62
250
  6
CONTINUOUS
 90
4
 70
0
 10
49.7896373116
 20
-21.6873954459
 10
49.8380546533
 20
-21.4673149533
 10
49.8665764791
 20
-21.3454245303
 10
49.8987075836
 20
-21.2155378911
  0
LWPOLYLINE
  5
2B2
100
AcDbEntity
  8
0
100
AcDbPolyline
 62
250
  6
CONTINUOUS
 90
31
 70
0
 10
63.6799917875
 20
-15.8396477763
 10
63.4970417546
 20
-15.9829350072
 10
63.3149519525
 20
-16.1342272668
 10
63.1341276684
 20
-16.2931878154
 10
62.9549713726
 20
-16.4594628457
 10
62.7778818232
 20
-16.6326822703
 10
62.603253178
 20
-16.8124605451
 10
62.4314741175
 20
-16.9983975275
 10
62.2629269796
 20
-17.1900793675
 10
62.097986909
 20
-17.3870794282
 10
61.9370210216
 20
-17.5889592357
 10
61.7803875879
 20
-17.7952694551
 10
61.6284352353
 20
-18.0055508903
 10
61.4815021725
 20
-18.2193355065
 10
61.3399154362
 20
-18.4361474716
 10
61.2039901636
 20
-18.6555042153
 10
61.0740288908
 20
-18.8769175034
 10
60.9503208796
 20
-19.0998945242
 10
60.8331414734
 20
-19.3239389857
 10
60.7227514847
 20
-19.5485522201
 10
60.6193966142
 20
-19.7732342933
 10
60.5233069044
 20
-19.9974851186
 10
60.4346962271
 20
-20.2208055685
 10
60.3537618078
 20
-20.4426985869
 10
60.2806837863
 20
-20.6626702946
 10
60.2156248162
 20
-20.8802310885
 10
60.1587297025
 20
-21.0948967322
 10
60.1101250797
 20
-21.3061894327
 10
60.0699191293
 20
-21.5136389047
 10
60.0382013399
 20
-21.7167834168
 10
60.0150423072
 20
-21.9151708194
  0
LINE
  5
2B3
100
AcDbEntity
  8
0
100
AcDbLine
 62
250
  6
CONTINUOUS
 10
64.997465423
 20
-14.839007367
 11
63.6799917875
 21
-15.8396477763
  0
LWPOLYLINE
  5
2B4
100
AcDbEntity
  8
0
100
AcDbPolyline
 62
250
  6
CONTINUOUS
 90
34
 70
0
 10
69.0726006347
 20
-24.8242742897
 10
68.8810971506
 20
-24.9227945421
 10
68.6823639701
 20
-25.0160296746
 10
68.4768158882
 20
-25.1037850871
 10
68.2648819237
 20
-25.1858776171
 10
68.0470044244
 20
-25.2621359212
 10
67.823638143
 20
-25.3324008337
 10
67.5952492887
 20
-25.3965256979
 10
67.3623145535
 20
-25.4543766726
 10
67.1253201177
 20
-25.5058330116
 10
66.8847606351
 20
-25.5507873155
 10
66.6411382002
 20
-25.5891457558
 10
66.3949613006
 20
-25.6208282711
 10
66.1467437556
 20
-25.6457687336
 10
65.8970036436
 20
-25.6639150878
 10
65.6462622211
 20
-25.6752294588
 10
65.3950428344
 20
-25.6796882311
 10
65.1438698273
 20
-25.6772820985
 10
64.893267447
 20
-25.668016083
 10
64.6437587496
 20
-25.6519095247
 10
64.3958645085
 20
-25.628996041
 10
64.1501021273
 20
-25.5993234569
 10
63.9069845602
 20
-25.5629537049
 10
63.6670192409
 20
-25.5199626957
 10
63.430707024
 20
-25.4704401599
 10
63.1985411391
 20
-25.4144894608
 10
62.9710061619
 20
-25.3522273784
 10
62.7485770023
 20
-25.2837838658
 10
62.5317179133
 20
-25.209301778
 10
62.3208815222
 20
-25.1289365736
 10
62.1165078857
 20
-25.0428559906
 10
61.9190235716
 20
-24.9512396959
 10
61.7288407681
 20
-24.8542789106
 10
61.5463564239
 20
-24.7521760108
  0
LWPOLYLINE
  5
2B5
100
AcDbEntity
  8
0
100
AcDbPolyline
 62
250
  6
CONTINUOUS
 90
10
 70
0
 10
-56.9106578069
 20
54.209133466
 10
-56.8834792857
 20
54.2072840895
 10
-56.8568444576
 20
54.2043876722
 10
-56.8308423435
 20
54.2004538955
 10
-56.8055598498
 20
54.1954959077
 10
-56.7810814777
 20
54.1895302804
 10
-56.7574890408
 20
54.1825769531
 10
-56.7348613917
 20
54.1746591661
 10
-56.7132741583
 20
54.1658033837
 10
-56.6927994912
 20
54.156039205
  0
LWPOLYLINE
  5
2B6
100
AcDbEntity
  8
0
100
AcDbPolyline
 62
250
  6
CONTINUOUS
 90
22
 70
0
 10
61.5463564018
 20
-24.7521760243
 10
61.5676847311
 20
-27.3375909426
 10
61.5868770136
 20
-29.8926243587
 10
61.6039233872
 20
-32.4170877204
 10
61.6188003397
 20
-34.9104405714
 10
61.6315003761
 20
-37.3728549519
 10
61.6420613351
 20
-39.8051963064
 10
61.650508257
 20
-42.2077568522
 10
61.6568414488
 20
-44.5798405671
 10
61.6610736559
 20
-46.9208230578
 10
61.6631994345
 20
-49.2301021682
 10
61.6631994217
 20
-51.507910903
 10
61.6610736314
 20
-53.7548718005
 10
61.6568414604
 20
-55.9711907044
 10
61.6505082774
 20
-58.156257568
 10
61.6420612748
 20
-60.3094653278
 10
61.6315001307
 20
-62.4302077307
 10
61.6188000022
 20
-64.5187229336
 10
61.6039231813
 20
-66.5756610815
 10
61.5868770235
 20
-68.6010941526
 10
61.5676848562
 20
-70.5945381542
 10
61.5463564018
 20
-72.5557906999
  0
LINE
  5
2B7
100
AcDbEntity
  8
0
100
AcDbLine
 62
250
  6
CONTINUOUS
 10
70.6180786392
 20
-23.8309333147
 11
69.0726006588
 21
-24.8242743057
  0
LWPOLYLINE
  5
2B8
100
AcDbEntity
  8
0
100
AcDbPolyline
 62
7
  6
CONTINUOUS
 90
14
 70
0
 10
-55.020140848
 20
51.3345304715
 10
-55.0241375071
 20
51.3335147634
 10
-55.0297585628
 20
51.3322655534
 10
-55.0321197517
 20
51.3318412366
 10
-55.0313797327
 20
51.3319166718
 10
-55.0278699951
 20
51.3321642015
 10
-55.0216851709
 20
51.3322959362
 10
-55.013189419
 20
51.3320288578
 10
-55.0032511427
 20
51.3311807199
 10
-54.9922088659
 20
51.3296389577
 10
-54.9803816885
 20
51.327330305
 10
-54.9686363528
 20
51.3243762619
 10
-54.957382503
 20
51.3209131723
 10
-54.9528675002
 20
51.3192679545
  0
LWPOLYLINE
  5
2B9
100
AcDbEntity
  8
0
100
AcDbPolyline
 62
250
  6
CONTINUOUS
 90
22
 70
0
 10
69.0726006588
 20
-24.8242743057
 10
69.1018026384
 20
-27.4165028229
 10
69.1280187113
 20
-29.97833229
 10
69.1512691035
 20
-32.509542126
 10
69.1715716058
 20
-35.0095270854
 10
69.1889630481
 20
-37.4784628322
 10
69.2034608604
 20
-39.9172810456
 10
69.2150523394
 20
-42.326236803
 10
69.2237307718
 20
-44.7046002616
 10
69.229501372
 20
-47.0518125065
 10
69.2323766413
 20
-49.3672322778
 10
69.2323766338
 20
-51.6510625499
 10
69.2295013378
 20
-53.9039991798
 10
69.223730675
 20
-56.1262052984
 10
69.2150522167
 20
-58.3170334848
 10
69.2034607841
 20
-60.4759518714
 10
69.1889630509
 20
-62.6023085343
 10
69.171571546
 20
-64.6963079288
 10
69.1512688206
 20
-66.7586861031
 10
69.1280182513
 20
-68.7895098068
 10
69.1018022184
 20
-70.7882057589
 10
69.0726006588
 20
-72.7545249074
  0
LWPOLYLINE
  5
2BA
100
AcDbEntity
  8
0
100
AcDbPolyline
 62
250
  6
CONTINUOUS
 90
37
 70
0
 10
61.5463564018
 20
-72.5557906999
 10
61.5442649003
 20
-72.6141947265
 10
61.5394152039
 20
-72.6700824153
 10
61.5318067907
 20
-72.7234541808
 10
61.5214186718
 20
-72.7743943148
 10
61.5082708686
 20
-72.822819294
 10
61.4924241011
 20
-72.8684780301
 10
61.4738637717
 20
-72.9113549704
 10
61.4526029316
 20
-72.9514669044
 10
61.4287432624
 20
-72.9886116716
 10
61.4022709545
 20
-73.0227748211
 10
61.3731978656
 20
-73.05397237
 10
61.3416637395
 20
-73.0820482145
 10
61.3076549888
 20
-73.1069880857
 10
61.2711829631
 20
-73.1288080526
 10
61.2324244519
 20
-73.1473978087
 10
61.1913663812
 20
-73.1627423516
 10
61.148019432
 20
-73.1748586125
 10
61.1025957513
 20
-73.1836844087
 10
61.0550835267
 20
-73.1892041863
 10
61.0054921635
 20
-73.1914354421
 10
60.9540654484
 20
-73.1903657207
 10
60.900793344
 20
-73.1859795234
 10
60.8456836109
 20
-73.178294189
 10
60.7890066348
 20
-73.1673465971
 10
60.7307532794
 20
-73.1531213425
 10
60.6709306713
 20
-73.1356354563
 10
60.6098335742
 20
-73.114974487
 10
60.5474536067
 20
-73.0911225703
 10
60.4837975269
 20
-73.0640968846
 10
60.4191828581
 20
-73.0340325026
 10
60.3536013651
 20
-73.0009123599
 10
60.2870601435
 20
-72.964754444
 10
60.2198998154
 20
-72.9257463218
 10
60.152233722
 20
-72.8839506773
 10
60.0839479348
 20
-72.8393053023
 10
60.0150423072
 20
-72.7918103158
  0
LWPOLYLINE
  5
2BB
100
AcDbEntity
  8
0
100
AcDbPolyline
 62
7
  6
CONTINUOUS
 90
37
 70
0
 10
70.6180786392
 20
-23.8309333147
 10
70.5875148441
 20
-23.5819189394
 10
70.5479102415
 20
-23.3285576257
 10
70.4992648314
 20
-23.0708493737
 10
70.4414329425
 20
-22.8082322976
 10
70.3745602461
 20
-22.5412682832
 10
70.2990837558
 20
-22.2716429876
 10
70.2150577094
 20
-21.9996437742
 10
70.1224278691
 20
-21.7249832795
 10
70.0214685352
 20
-21.4484850714
 10
69.9120074517
 20
-21.1697919431
 10
69.7942168746
 20
-20.8892611014
 10
69.6688878722
 20
-20.6087877337
 10
69.5361184166
 20
-20.3286795161
 10
69.3958105357
 20
-20.0486287726
 10
69.2484613814
 20
-19.769607663
 10
69.0939476971
 20
-19.4914332777
 10
68.9323927393
 20
-19.2142885262
 10
68.7646634298
 20
-18.9396942976
 10
68.5907153954
 20
-18.6676689215
 10
68.4105930093
 20
-18.3981940683
 10
68.2252963117
 20
-18.1327356376
 10
68.034934373
 20
-17.8714823993
 10
67.8393981229
 20
-17.6142455836
 10
67.6393603906
 20
-17.3619247809
 10
67.434573232
 20
-17.114274266
 10
67.2252845913
 20
-16.8715397642
 10
67.0129111297
 20
-16.6353580407
 10
66.7977062098
 20
-16.4060527985
 10
66.5794164691
 20
-16.1833003348
 10
66.3586984818
 20
-15.967766306
 10
66.1352987021
 20
-15.7592456798
 10
65.9094706758
 20
-15.5579434886
 10
65.6826316136
 20
-15.3651404864
 10
65.4552539192
 20
-15.181263591
 10
65.226865189
 20
-15.0058858846
 10
64.997465423
 20
-14.839007367
  0
LWPOLYLINE
  5
2BC
100
AcDbEntity
  8
0
100
AcDbPolyline
 62
7
  6
CONTINUOUS
 90
10
 70
0
 10
71.9137629466
 20
-43.536835937
 10
71.8522651424
 20
-41.4006060586
 10
71.7701421139
 20
-39.2509070788
 10
71.6673938611
 20
-37.0877389975
 10
71.5440091245
 20
-34.910914632
 10
71.3999991636
 20
-32.7206211649
 10
71.2353977568
 20
-30.5174201448
 10
71.0502161636
 20
-28.3014987545
 10
70.8444431243
 20
-26.0726698111
 10
70.6180786392
 20
-23.8309333147
  0
LWPOLYLINE
  5
2BD
100
AcDbEntity
  8
0
100
AcDbPolyline
 62
7
  6
CONTINUOUS
 90
13
 70
0
 10
71.9137629466
 20
-53.9050566136
 10
71.9135917691
 20
-53.8677036377
 10
71.9111767252
 20
-53.8318858297
 10
71.9065287706
 20
-53.7977112085
 10
71.8996665885
 20
-53.7652852854
 10
71.8906125677
 20
-53.7347020722
 10
71.8793912897
 20
-53.7060451729
 10
71.8660360721
 20
-53.6794001097
 10
71.8505886147
 20
-53.6548477835
 10
71.8330925627
 20
-53.6324580482
 10
71.8135978649
 20
-53.6122980674
 10
71.7921619797
 20
-53.5944305565
 10
71.7867928378
 20
-53.5905303173
  0
LWPOLYLINE
  5
2BE
100
AcDbEntity
  8
0
100
AcDbPolyline
 62
250
  6
CONTINUOUS
 90
15
 70
0
 10
69.0726006588
 20
-72.7545249074
 10
69.0494801064
 20
-72.9529995166
 10
69.0172527739
 20
-73.1436981647
 10
68.9759839361
 20
-73.3263009221
 10
68.9257656851
 20
-73.5004921023
 10
68.8666808683
 20
-73.6659887119
 10
68.798801894
 20
-73.8225396439
 10
68.7222502608
 20
-73.9698833796
 10
68.6371632906
 20
-74.107767617
 10
68.543658266
 20
-74.235977622
 10
68.4419010294
 20
-74.3542957171
 10
68.3320695485
 20
-74.4625235052
 10
68.2143199178
 20
-74.5605000626
 10
68.0888553616
 20
-74.6480591928
 10
68.0708460823
 20
-74.6593786584
  0
LWPOLYLINE
  5
2BF
100
AcDbEntity
  8
0
100
AcDbPolyline
 62
7
  6
CONTINUOUS
 90
10
 70
0
 10
70.6180786392
 20
-71.7785849157
 10
70.8444431243
 20
-69.8569761443
 10
71.0502161636
 20
-67.9191542238
 10
71.2353977568
 20
-65.9651191542
 10
71.3999991636
 20
-63.994699676
 10
71.5440091245
 20
-62.0080670486
 10
71.6673938611
 20
-60.0057350509
 10
71.7701421139
 20
-57.9878749422
 10
71.8522651424
 20
-55.9543154632
 10
71.9137629466
 20
-53.9050566136
  0
LWPOLYLINE
  5
2C0
100
AcDbEntity
  8
0
100
AcDbPolyline
 62
7
  6
CONTINUOUS
 90
13
 70
0
 10
71.7688470834
 20
-44.0747074755
 10
71.7921619797
 20
-44.0276126549
 10
71.8135978649
 20
-43.9804717271
 10
71.8330925627
 20
-43.9334268698
 10
71.8505886147
 20
-43.8866230632
 10
71.8660360721
 20
-43.8401971026
 10
71.8793912897
 20
-43.7942775465
 10
71.8906125677
 20
-43.749000917
 10
71.8996665885
 20
-43.7045032057
 10
71.9065287706
 20
-43.6609098128
 10
71.9111767252
 20
-43.6183487572
 10
71.9135917691
 20
-43.5769496277
 10
71.9137629466
 20
-43.536835937
  0
LINE
  5
2C1
100
AcDbEntity
  8
0
100
AcDbLine
 62
7
  6
CONTINUOUS
 10
51.3452534107
 20
-63.586475627
 11
51.4517296423
 21
-63.5111855617
  0
LINE
  5
2C2
100
AcDbEntity
  8
0
100
AcDbLine
 62
7
  6
CONTINUOUS
 10
51.7412530072
 20
-63.866489627
 11
51.8477292387
 21
-63.7911995617
  0
LINE
  5
2C3
100
AcDbEntity
  8
0
100
AcDbLine
 62
7
  6
CONTINUOUS
 10
52.6166801937
 20
-64.485510127
 11
52.7231564252
 21
-64.4102200617
  0
LINE
  5
2C4
100
AcDbEntity
  8
0
100
AcDbLine
 62
7
  6
CONTINUOUS
 10
53.0126797901
 20
-64.765524127
 11
53.1191560217
 21
-64.6902340617
  0
LINE
  5
2C5
100
AcDbEntity
  8
0
100
AcDbLine
 62
7
  6
CONTINUOUS
 10
53.2766745713
 20
-64.952196627
 11
53.3831508029
 21
-64.8769065617
  0
LINE
  5
2C6
100
AcDbEntity
  8
0
100
AcDbLine
 62
7
  6
CONTINUOUS
 10
53.672669218
 20
-65.232207127
 11
53.7791454496
 21
-65.1569170617
  0
LINE
  5
2C7
100
AcDbEntity
  8
0
100
AcDbLine
 62
7
  6
CONTINUOUS
 10
52.5592529522
 20
-66.1671024017
 11
52.6658079693
 21
-66.0917566265
  0
LINE
  5
2C8
100
AcDbEntity
  8
0
100
AcDbLine
 62
7
  6
CONTINUOUS
 10
54.0686490155
 20
-65.512207127
 11
54.1751252471
 21
-65.4369170617
  0
LINE
  5
2C9
100
AcDbEntity
  8
0
100
AcDbLine
 62
7
  6
CONTINUOUS
 10
54.6672863236
 20
-65.935507627
 11
54.7737625551
 21
-65.8602175617
  0
LINE
  5
2CA
100
AcDbEntity
  8
0
100
AcDbLine
 62
7
  6
CONTINUOUS
 10
53.8549483469
 20
-67.0832974017
 11
53.9615033641
 21
-67.0079516265
  0
LINE
  5
2CB
100
AcDbEntity
  8
0
100
AcDbLine
 62
7
  6
CONTINUOUS
 10
55.4067686958
 20
-66.458400627
 11
55.5132449274
 21
-66.3831105617
  0
LINE
  5
2CC
100
AcDbEntity
  8
0
100
AcDbLine
 62
7
  6
CONTINUOUS
 10
54.6469277409
 20
-67.6433114017
 11
54.753482758
 21
-67.5679656265
  0
LINE
  5
2CD
100
AcDbEntity
  8
0
100
AcDbLine
 62
7
  6
CONTINUOUS
 10
56.0054060039
 20
-66.881701127
 11
56.1118822355
 21
-66.8064110617
  0
LINE
  5
2CE
100
AcDbEntity
  8
0
100
AcDbLine
 62
7
  6
CONTINUOUS
 10
55.4173010113
 20
-68.1880432884
 11
55.5238560283
 21
-68.1126975133
  0
LINE
  5
2CF
100
AcDbEntity
  8
0
100
AcDbLine
 62
7
  6
CONTINUOUS
 10
56.9051013666
 20
-67.5178774853
 11
57.0115775979
 21
-67.4425874201
  0
LINE
  5
2D0
100
AcDbEntity
  8
0
100
AcDbLine
 62
7
  6
CONTINUOUS
 10
57.3011158123
 20
-67.7979019853
 11
57.4075920436
 21
-67.7226119201
  0
LINE
  5
2D1
100
AcDbEntity
  8
0
100
AcDbLine
 62
7
  6
CONTINUOUS
 10
56.1876900825
 20
-68.7327949017
 11
56.2942450997
 21
-68.6574491265
  0
LINE
  5
2D2
100
AcDbEntity
  8
0
100
AcDbLine
 62
7
  6
CONTINUOUS
 10
57.0211008333
 20
-68.6588930674
 11
57.1276245516
 21
-68.5835694238
  0
LINE
  5
2D3
100
AcDbEntity
  8
0
100
AcDbLine
 62
7
  6
CONTINUOUS
 10
56.8476790347
 20
-69.1994732884
 11
56.9542340517
 21
-69.1241275133
  0
LINE
  5
2D4
100
AcDbEntity
  8
0
100
AcDbLine
 62
7
  6
CONTINUOUS
 10
58.2008215101
 20
-68.4340899853
 11
58.3072977415
 21
-68.3587999201
  0
LINE
  5
2D5
100
AcDbEntity
  8
0
100
AcDbLine
 62
7
  6
CONTINUOUS
 10
59.1281070452
 20
-69.0897800953
 11
59.2345832766
 21
-69.0144900301
  0
LINE
  5
2D6
100
AcDbEntity
  8
0
100
AcDbLine
 62
7
  6
CONTINUOUS
 10
58.6674784878
 20
-69.5045351519
 11
58.7739876037
 21
-69.4292218337
  0
LINE
  5
2D7
100
AcDbEntity
  8
0
100
AcDbLine
 62
7
  6
CONTINUOUS
 10
58.1191112432
 20
-70.0985159017
 11
58.2256662603
 21
-70.0231701265
  0
LINE
  5
2D8
100
AcDbEntity
  8
0
100
AcDbLine
 62
7
  6
CONTINUOUS
 10
59.1492608728
 20
-69.8452065604
 11
59.2557699888
 21
-69.7698932422
  0
LWPOLYLINE
  5
2D9
100
AcDbEntity
  8
0
100
AcDbPolyline
 62
7
  6
CONTINUOUS
 90
28
 70
0
 10
59.3366690973
 20
-69.8890486102
 10
59.3461601425
 20
-69.88084553
 10
59.3539654735
 20
-69.8709558349
 10
59.3601914962
 20
-69.8593720913
 10
59.3647934251
 20
-69.8462376634
 10
59.3677668031
 20
-69.8316457023
 10
59.3691346546
 20
-69.815769931
 10
59.368926442
 20
-69.7988952026
 10
59.3671898818
 20
-69.7810538853
 10
59.3639254485
 20
-69.762002509
 10
59.3590516737
 20
-69.741674096
 10
59.3525649427
 20
-69.7203401087
 10
59.3445396406
 20
-69.6982366716
 10
59.3349865541
 20
-69.6754746314
 10
59.3239533949
 20
-69.6522532847
 10
59.3116625373
 20
-69.6289726693
 10
59.2982721274
 20
-69.6058795917
 10
59.2838455462
 20
-69.5830541191
 10
59.2685204735
 20
-69.5606435609
 10
59.2524654829
 20
-69.5388544322
 10
59.235752722
 20
-69.5177490433
 10
59.2183572175
 20
-69.4972606703
 10
59.2003187815
 20
-69.4774564934
 10
59.1818020784
 20
-69.458538111
 10
59.1629565257
 20
-69.4406460843
 10
59.1439112625
 20
-69.4238975795
 10
59.1247719343
 20
-69.4083905895
 10
59.1056575855
 20
-69.3942204224
  0
LWPOLYLINE
  5
2DA
100
AcDbEntity
  8
0
100
AcDbPolyline
 62
7
  6
CONTINUOUS
 90
35
 70
0
 10
59.8165808249
 20
-70.2618829703
 10
59.8240385334
 20
-70.256274165
 10
59.8417773576
 20
-70.2398215656
 10
59.8573159426
 20
-70.2205194747
 10
59.8704340844
 20
-70.1984460269
 10
59.8811336556
 20
-70.1735022653
 10
59.8894138972
 20
-70.1457862593
 10
59.8950502829
 20
-70.1156719823
 10
59.8979590715
 20
-70.0830487512
 10
59.8982245965
 20
-70.0480267787
 10
59.8958737775
 20
-70.0113119137
 10
59.8908642497
 20
-69.9729886644
 10
59.8832381487
 20
-69.9329727076
 10
59.8731485683
 20
-69.8917171045
 10
59.8606364891
 20
-69.8493073327
 10
59.8456603566
 20
-69.8056583738
 10
59.8282491852
 20
-69.7609677666
 10
59.808292911
 20
-69.7150128036
 10
59.7859009416
 20
-69.6680167167
 10
59.7614311121
 20
-69.6208462601
 10
59.7348098565
 20
-69.5734985455
 10
59.706109514
 20
-69.5259774392
 10
59.6759063115
 20
-69.4791601979
 10
59.6442476403
 20
-69.4331816588
 10
59.6110846994
 20
-69.3879081072
 10
59.5768492406
 20
-69.3438141191
 10
59.5415842769
 20
-69.300954986
 10
59.5052456233
 20
-69.2592763491
 10
59.468134242
 20
-69.2190883024
 10
59.4301731028
 20
-69.1803239176
 10
59.3914383999
 20
-69.1430507882
 10
59.3524609846
 20
-69.1077807486
 10
59.3134176468
 20
-69.0746845382
 10
59.2741311377
 20
-69.0435917827
 10
59.2346013428
 20
-69.0145025729
  0
LINE
  5
2DB
100
AcDbEntity
  8
0
100
AcDbLine
 62
7
  6
CONTINUOUS
 10
58.7791051451
 20
-70.5651977884
 11
58.8856601621
 21
-70.4898520133
  0
LINE
  5
2DC
100
AcDbEntity
  8
0
100
AcDbLine
 62
7
  6
CONTINUOUS
 10
59.8165775174
 20
-70.2618787362
 11
59.7100640551
 21
-70.3371951277
  0
LINE
  5
2DD
100
AcDbEntity
  8
0
100
AcDbLine
 62
7
  6
CONTINUOUS
 10
59.967628132
 20
-71.405606175
 11
60.0741831487
 21
-71.3302604001
  0
LWPOLYLINE
  5
2DE
100
AcDbEntity
  8
0
100
AcDbPolyline
 62
250
  6
CONTINUOUS
 90
34
 70
0
 10
69.0726000351
 20
-72.7545243423
 10
68.8810965649
 20
-72.883976386
 10
68.6823633996
 20
-73.006246536
 10
68.4768153338
 20
-73.1210795906
 10
68.2648813866
 20
-73.228235871
 10
68.0470039055
 20
-73.3274917209
 10
67.8236376432
 20
-73.4186399742
 10
67.5952488087
 20
-73.5014903866
 10
67.362314094
 20
-73.5758700331
 10
67.1253196793
 20
-73.641623669
 10
66.8847602183
 20
-73.6986140535
 10
66.6411378053
 20
-73.7467222366
 10
66.394960928
 20
-73.7858478071
 10
66.1467434053
 20
-73.8159091024
 10
65.8970033159
 20
-73.8368433787
 10
65.6462619158
 20
-73.848606942
 10
65.3950425514
 20
-73.8511752395
 10
65.1438695665
 20
-73.8445429106
 10
64.893267208
 20
-73.8287237983
 10
64.6437585319
 20
-73.8037509203
 10
64.3958643116
 20
-73.7696763996
 10
64.1501019505
 20
-73.7265713566
 10
63.9069844028
 20
-73.6745257598
 10
63.6670191022
 20
-73.6136482386
 10
63.4307069029
 20
-73.5440658563
 10
63.1985410347
 20
-73.4659238447
 10
62.9710060731
 20
-73.3793853016
 10
62.7485769279
 20
-73.2846308498
 10
62.531717852
 20
-73.1818582602
 10
62.3208814727
 20
-73.0712820394
 10
62.1165078466
 20
-72.9531329814
 10
61.9190235414
 20
-72.8276576865
 10
61.7288407453
 20
-72.6951180459
 10
61.5463564069
 20
-72.5557906958
  0
LWPOLYLINE
  5
2DF
100
AcDbEntity
  8
0
100
AcDbPolyline
 62
7
  6
CONTINUOUS
 90
10
 70
0
 10
59.7100592929
 20
-70.337198495
 10
59.6976911327
 20
-70.3451347238
 10
59.6756433603
 20
-70.3558777382
 10
59.6515176967
 20
-70.3637293812
 10
59.6253866529
 20
-70.3686489244
 10
59.597397935
 20
-70.3705900052
 10
59.5676606846
 20
-70.3695555897
 10
59.5363033719
 20
-70.3655515668
 10
59.5034703522
 20
-70.3585812215
 10
59.4693061593
 20
-70.3486681002
  0
LINE
  5
2E0
100
AcDbEntity
  8
0
100
AcDbLine
 62
250
  6
CONTINUOUS
 10
70.6180786392
 20
-71.7785849157
 11
69.0726006588
 21
-72.7545249074
  0
LWPOLYLINE
  5
2E1
100
AcDbEntity
  8
0
100
AcDbPolyline
 62
7
  6
CONTINUOUS
 90
15
 70
0
 10
69.5152754844
 20
-73.7638029509
 10
69.5361184166
 20
-73.7507158937
 10
69.6688878722
 20
-73.6583720409
 10
69.7942168746
 20
-73.5551406482
 10
69.9120074517
 20
-73.441190838
 10
70.0214685352
 20
-73.3172990586
 10
70.1224278691
 20
-73.1835789097
 10
70.2150577094
 20
-73.0399167915
 10
70.2990837558
 20
-72.8867483525
 10
70.3745602461
 20
-72.7238629331
 10
70.4414329425
 20
-72.5514711929
 10
70.4992648314
 20
-72.3706407584
 10
70.5479102415
 20
-72.1817275051
 10
70.5875148441
 20
-71.9843755576
 10
70.6180786392
 20
-71.7785849157
  0
LINE
  5
2E2
100
AcDbEntity
  8
0
100
AcDbLine
 62
7
  6
CONTINUOUS
 10
69.5153317214
 20
-73.7637680841
 11
68.0704287732
 21
-74.6596374771
  0
ELLIPSE
  5
2E3
100
AcDbEntity
  8
0
100
AcDbEllipse
 62
7
  6
CONTINUOUS
 10
306.2262512351
 20
126.6951043392
 30
0.0
 11
251.3763073557
 21
250.6421339504
 31
0.0
 40
0.265596453
 41
-3.6233465496
 42
-3.6178175692
  0
ELLIPSE
  5
2E4
100
AcDbEntity
  8
0
100
AcDbEllipse
 62
7
  6
CONTINUOUS
 10
291.015513758
 20
137.4507199562
 30
0.0
 11
107.2641732608
 21
342.7110191369
 31
0.0
 40
0.6912191856
 41
-3.8887476468
 42
-3.8807168543
  0
ELLIPSE
  5
2E5
100
AcDbEntity
  8
0
100
AcDbEllipse
 62
7
  6
CONTINUOUS
 10
308.2714314749
 20
125.2489435229
 30
0.0
 11
246.7691282628
 21
253.90672902
 31
0.0
 40
0.2906993817
 41
-3.6236945669
 42
-3.6184653186
  0
ELLIPSE
  5
2E6
100
AcDbEntity
  8
0
100
AcDbEllipse
 62
7
  6
CONTINUOUS
 10
294.6866498127
 20
134.8548347572
 30
0.0
 11
121.982707479
 21
335.4516945254
 31
0.0
 40
0.6762663434
 41
-3.8492559913
 42
-3.8439595729
  0
ELLIPSE
  5
2E7
100
AcDbEntity
  8
0
100
AcDbEllipse
 62
7
  6
CONTINUOUS
 10
296.5753910416
 20
133.5192930263
 30
0.0
 11
107.2644091222
 21
342.7109073413
 31
0.0
 40
0.6912189722
 41
-3.8862465391
 42
-3.8838221511
  0
ELLIPSE
  5
2E8
100
AcDbEntity
  8
0
100
AcDbEllipse
 62
7
  6
CONTINUOUS
 10
296.5756499872
 20
133.5191099241
 30
0.0
 11
107.2691965722
 21
342.7086381152
 31
0.0
 40
0.6912146399
 41
-3.8822841257
 42
-3.8807043517
  0
ELLIPSE
  5
2E9
100
AcDbEntity
  8
0
100
AcDbEllipse
 62
7
  6
CONTINUOUS
 10
310.5147074806
 20
123.6627078472
 30
0.0
 11
251.376529907
 21
250.6419766583
 31
0.0
 40
0.2655952353
 41
-3.6233465735
 42
-3.615315781
  0
ELLIPSE
  5
2EA
100
AcDbEntity
  8
0
100
AcDbEllipse
 62
7
  6
CONTINUOUS
 10
293.7005199837
 20
135.5521338464
 30
0.0
 11
-0.4289205336
 21
380.9563932144
 31
0.0
 40
0.7320502981
 41
-4.1429917753
 42
-4.1398859298
  0
ELLIPSE
  5
2EB
100
AcDbEntity
  8
0
100
AcDbEllipse
 62
7
  6
CONTINUOUS
 10
-53.5343362709
 20
20.5046873551
 30
0.0
 11
-0.1154602812
 21
0.1633186643
 31
0.0
 40
0.5000253781
 41
0.6155993881
 42
2.1863957149
  0
ELLIPSE
  5
2EC
100
AcDbEntity
  8
0
100
AcDbEllipse
 62
7
  6
CONTINUOUS
 10
306.6224130166
 20
126.4149756571
 30
0.0
 11
251.3773037201
 21
250.6414297526
 31
0.0
 40
0.2655910011
 41
-3.6233465667
 42
-3.6153157944
  0
ELLIPSE
  5
2ED
100
AcDbEntity
  8
0
100
AcDbEllipse
 62
7
  6
CONTINUOUS
 10
306.6224130166
 20
126.4149756571
 30
0.0
 11
251.2696167415
 21
250.5340580134
 31
0.0
 40
0.2655910011
 41
-3.6233088459
 42
-3.6152746025
  0
ELLIPSE
  5
2EE
100
AcDbEntity
  8
0
100
AcDbEllipse
 62
7
  6
CONTINUOUS
 10
291.4115250341
 20
137.1706976974
 30
0.0
 11
107.2644149842
 21
342.7109045628
 31
0.0
 40
0.6912189668
 41
-3.8887470432
 42
-3.8832180629
  0
ELLIPSE
  5
2EF
100
AcDbEntity
  8
0
100
AcDbEllipse
 62
7
  6
CONTINUOUS
 10
291.4115250341
 20
137.1706976974
 30
0.0
 11
107.2184642138
 21
342.5640913808
 31
0.0
 40
0.6912189668
 41
-3.8887093223
 42
-3.8836010609
  0
ELLIPSE
  5
2F0
100
AcDbEntity
  8
0
100
AcDbEllipse
 62
7
  6
CONTINUOUS
 10
308.6673464697
 20
124.9689893453
 30
0.0
 11
246.7686396958
 21
253.9070761013
 31
0.0
 40
0.2907020299
 41
-3.6209602955
 42
-3.6156638971
  0
ELLIPSE
  5
2F1
100
AcDbEntity
  8
0
100
AcDbEllipse
 62
7
  6
CONTINUOUS
 10
308.6673464697
 20
124.9689893453
 30
0.0
 11
246.6629270128
 21
253.798305399
 31
0.0
 40
0.2907020299
 41
-3.6191883569
 42
-3.6156227052
  0
ELLIPSE
  5
2F2
100
AcDbEntity
  8
0
100
AcDbEllipse
 62
7
  6
CONTINUOUS
 10
295.082545427
 20
134.5748942837
 30
0.0
 11
121.9807878484
 21
335.4526787116
 31
0.0
 40
0.6762685217
 41
-3.8519951348
 42
-3.8467658865
  0
ELLIPSE
  5
2F3
100
AcDbEntity
  8
0
100
AcDbEllipse
 62
7
  6
CONTINUOUS
 10
295.082545427
 20
134.5748942837
 30
0.0
 11
121.928532763
 21
335.3089748652
 31
0.0
 40
0.6762685217
 41
-3.8519574139
 42
-3.8472413585
  0
ELLIPSE
  5
2F4
100
AcDbEntity
  8
0
100
AcDbEllipse
 62
7
  6
CONTINUOUS
 10
310.9103742161
 20
123.3829292154
 30
0.0
 11
251.3745846524
 21
250.6433515025
 31
0.0
 40
0.2656058792
 41
-3.6208460012
 42
-3.6184216132
  0
ELLIPSE
  5
2F5
100
AcDbEntity
  8
0
100
AcDbEllipse
 62
7
  6
CONTINUOUS
 10
310.9103742161
 20
123.3829292154
 30
0.0
 11
251.2668988386
 21
250.5359789401
 31
0.0
 40
0.2656058792
 41
-3.6196834516
 42
-3.6183817643
  0
ELLIPSE
  5
2F6
100
AcDbEntity
  8
0
100
AcDbEllipse
 62
7
  6
CONTINUOUS
 10
296.9713239167
 20
133.2393262054
 30
0.0
 11
107.2630501307
 21
342.7115514854
 31
0.0
 40
0.6912202019
 41
-3.8887504712
 42
-3.8807196788
  0
ELLIPSE
  5
2F7
100
AcDbEntity
  8
0
100
AcDbEllipse
 62
7
  6
CONTINUOUS
 10
296.9713239167
 20
133.2393262054
 30
0.0
 11
107.217099945
 21
342.5647380263
 31
0.0
 40
0.6912202019
 41
-3.8887127503
 42
-3.8806784869
  0
ELLIPSE
  5
2F8
100
AcDbEntity
  8
0
100
AcDbEllipse
 62
7
  6
CONTINUOUS
 10
310.9107960172
 20
123.382630957
 30
0.0
 11
251.3770674426
 21
250.6415967457
 31
0.0
 40
0.265592294
 41
-3.6168955844
 42
-3.6153158104
  0
ELLIPSE
  5
2F9
100
AcDbEntity
  8
0
100
AcDbEllipse
 62
7
  6
CONTINUOUS
 10
310.9107960172
 20
123.382630957
 30
0.0
 11
251.2693805652
 21
250.534224935
 31
0.0
 40
0.265592294
 41
2.6670365899
 42
2.6679106886
  0
ELLIPSE
  5
2FA
100
AcDbEntity
  8
0
100
AcDbEllipse
 62
7
  6
CONTINUOUS
 10
294.1466281334
 20
135.2366877486
 30
0.0
 11
-0.4269199009
 21
380.9558765744
 31
0.0
 40
0.7320503028
 41
-4.1431804008
 42
-4.1398814032
  0
ELLIPSE
  5
2FB
100
AcDbEntity
  8
0
100
AcDbEllipse
 62
7
  6
CONTINUOUS
 10
294.1466281334
 20
135.2366877486
 30
0.0
 11
-0.4267370136
 21
380.7926797117
 31
0.0
 40
0.7320503028
 41
-4.1428162358
 42
-4.1398402114
  0
ENDSEC
  0
SECTION
  2
OBJECTS
  0
DICTIONARY
  5
C
100
AcDbDictionary
280
0
281
1
  3
ACAD_GROUP
350
D
  3
ACAD_MLINESTYLE
350
17
  3
ACAD_LAYOUT
350
1A
  3
ACAD_PLOTSETTINGS
350
19
  3
ACAD_PLOTSTYLENAME
350
E
  0
DICTIONARY
  5
D
102
{ACAD_REACTORS
330
C
102
}
100
AcDbDictionary
280
0
281
1
  0
ACDBDICTIONARYWDFLT
  5
E
102
{ACAD_REACTORS
330
C
102
}
100
AcDbDictionary
281
1
  3
Normal
350
F
100
AcDbDictionaryWithDefault
340
F
  0
DICTIONARY
  5
17
102
{ACAD_REACTORS
330
C
102
}
100
AcDbDictionary
280
0
281
1
  3
Standard
350
18
  0
DICTIONARY
  5
19
102
{ACAD_REACTORS
330
C
102
}
100
AcDbDictionary
281
1
  0
DICTIONARY
  5
1A
102
{ACAD_REACTORS
330
C
102
}
100
AcDbDictionary
281
1
  3
Model
350
2FC
  3
Layout1
350
2FD
  0
ACDBPLACEHOLDER
  5
F
102
{ACAD_REACTORS
330
E
102
}
  0
MLINESTYLE
  5
18
102
{ACAD_REACTORS
330
17
102
}
100
AcDbMlineStyle
  2
STANDARD
 70
0
  3

 62
256
 51
90.0
 52
90.0
 71
2
 49
0.5
 62
256
  6
BYLAYER
 49
-0.5
 62
256
  6
BYLAYER
  0
LAYOUT
  5
2FC
102
{ACAD_REACTORS
330
1A
102
}
100
AcDbPlotSettings
  1

  2
none_device
  4
ISO_A4_(297.00_x_210.00_MM)
  6

 40
0.0
 41
0.0
 42
0.0
 43
0.0
 44
297.0
 45
210.0
 46
0.0
 47
0.0
 48
0.0
 49
0.0
140
0.0
141
0.0
142
1.0
143
1.0
 70
1024
 72
1
 73
0
 74
0
  7

 75
0
147
1.0
148
0.0
149
0.0
100
AcDbLayout
  1
Model
 70
0
 71
0
 10
0.0
 20
0.0
 11
297.0
 21
210.0
 12
0.0
 22
0.0
 32
0.0
 14
0.0
 24
0.0
 34
0.0
 15
0.0
 25
0.0
 35
0.0
146
0.0
 13
0.0
 23
0.0
 33
0.0
 16
1.0
 26
0.0
 36
0.0
 17
0.0
 27
1.0
 37
0.0
 76
0
330
214
345
0
346
0
  0
LAYOUT
  5
2FD
102
{ACAD_REACTORS
330
1A
102
}
100
AcDbPlotSettings
  1

  2
none_device
  4
ISO_A4_(297.00_x_210.00_MM)
  6

 40
0.0
 41
0.0
 42
0.0
 43
0.0
 44
297.0
 45
210.0
 46
0.0
 47
0.0
 48
0.0
 49
0.0
140
0.0
141
0.0
142
1.0
143
1.0
 70
0
 72
1
 73
0
 74
0
  7

 75
0
147
1.0
148
0.0
149
0.0
100
AcDbLayout
  1
Layout1
 70
0
 71
1
 10
0.0
 20
0.0
 11
297.0
 21
210.0
 12
0.0
 22
0.0
 32
0.0
 14
0.0
 24
0.0
 34
0.0
 15
0.0
 25
0.0
 35
0.0
146
0.0
 13
0.0
 23
0.0
 33
0.0
 16
1.0
 26
0.0
 36
0.0
 17
0.0
 27
1.0
 37
0.0
 76
0
330
215
345
0
346
0
  0
ENDSEC
  0
EOF
