  0
SECTION
  2
HEADER
  9
$ACADVER
  1
AC1015
  9
$DWGCODEPAGE
  3
ANSI_1252
  9
$EXTMAX
 10
297.0
 20
210.0
 30
0.0
  9
$EXTMIN
 10
0.0
 20
0.0
 30
0.0
  9
$LIMMIN
 10
0.0
 20
0.0
  9
$LIMMAX
 10
297.0
 20
210.0
  9
$VIEWCTR
 10
148.5
 20
105.0
  9
$VIEWSIZE
 40
210.0
  9
$CLAYER
  8
0
  9
$LTSCALE
 40
16.335
  9
$CELTYPE
  6
BYLAYER
  9
$DIMSCALE
 40
1.0
  9
$DIMASZ
 40
3.0
  9
$DIMEXO
 40
1.85625
  9
$DIMDLI
 40
11.286
  9
$DIMEXE
 40
5.346
  9
$DIMCEN
 40
2.673
  9
$DIMLFAC
 40
1.0
  9
$DIMBLK
  1
_FILLED
  9
$DIMTXT
 40
3.0
  9
$DIMTOL
 70
1
  9
$DIMLIM
 70
0
  9
$DIMTFAC
 40
1.0
  9
$DIMTP
 40
0.01
  9
$DIMTM
 40
0.01
  9
$PDMODE
 70
3
  9
$PDSIZE
 40
3.0
  9
$HANDSEED
  5
37E
  9
$TILEMODE
 70
1
  9
$MEASUREMENT
 70
1
  9
$INSUNITS
 70
4
  0
ENDSEC
  0
SECTION
  2
CLASSES
  0
CLASS
  1
ACDBDICTIONARYWDFLT
  2
AcDbDictionaryWithDefault
  3
AutoCAD 2000
 90
0
280
0
281
0
  0
CLASS
  1
ACDBPLACEHOLDER
  2
AcDbPlaceHolder
  3
AutoCAD 2000
 90
0
280
0
281
0
  0
CLASS
  1
LAYOUT
  2
AcDbLayout
  3
AutoCAD 2000
 90
0
280
0
281
0
  0
ENDSEC
  0
SECTION
  2
TABLES
  0
TABLE
  2
VPORT
  5
8
100
AcDbSymbolTable
 70
2
  0
VPORT
  5
1F4
100
AcDbSymbolTableRecord
100
AcDbViewportTableRecord
  2
*ACTIVE
 70
0
 10
0.0
 20
0.0
 11
1.0
 21
1.0
 12
148.5
 22
105.0
 13
0.0
 23
0.0
 14
1.0
 24
1.0
 15
0.0
 25
0.0
 16
0.0
 26
0.0
 36
1.0
 17
0.0
 27
0.0
 37
0.0
 40
210.0
 41
1.4142857143
 42
50.0
 43
0.0
 44
0.0
 50
0.0
 51
0.0
 71
0
 72
100
 73
1
 74
1
 75
0
 76
0
 77
0
 78
0
  0
ENDTAB
  0
TABLE
  2
LTYPE
  5
5
100
AcDbSymbolTable
 70
6
  0
LTYPE
  5
14
100
AcDbSymbolTableRecord
100
AcDbLinetypeTableRecord
  2
BYBLOCK
 70
0
  3

 72
65
 73
0
 40
0.0
  0
LTYPE
  5
15
100
AcDbSymbolTableRecord
100
AcDbLinetypeTableRecord
  2
BYLAYER
 70
0
  3

 72
65
 73
0
 40
0.0
  0
LTYPE
  5
16
100
AcDbSymbolTableRecord
100
AcDbLinetypeTableRecord
  2
CONTINUOUS
 70
64
  3
Solid line
 72
65
 73
0
 40
0.0
  0
LTYPE
  5
1F5
100
AcDbSymbolTableRecord
100
AcDbLinetypeTableRecord
  2
CENTER
 70
64
  3
____ _ ____ _ ____ _ ____ _ ____ _ ____ _ ____
 72
65
 73
4
 40
0.6
 49
0.375
 74
0
 49
-0.075
 74
0
 49
0.075
 74
0
 49
-0.075
 74
0
  0
LTYPE
  5
1F6
100
AcDbSymbolTableRecord
100
AcDbLinetypeTableRecord
  2
HIDDEN
 70
64
  3
- - - - - - - - - - - - - - - - - - - -
 72
65
 73
2
 40
0.2
 49
0.1
 74
0
 49
-0.1
 74
0
  0
LTYPE
  5
1F7
100
AcDbSymbolTableRecord
100
AcDbLinetypeTableRecord
  2
PHANTOM
 70
64
  3
_____ _ _ _____ _ _ _____ _ _ _____
 72
65
 73
6
 40
0.8
 49
0.45
 74
0
 49
-0.05
 74
0
 49
0.1
 74
0
 49
-0.05
 74
0
 49
0.1
 74
0
 49
-0.05
 74
0
  0
LTYPE
  5
1F8
100
AcDbSymbolTableRecord
100
AcDbLinetypeTableRecord
  2
DOT
 70
64
  3
. . . . . . . . . . . . . . . . . . . .
 72
65
 73
2
 40
0.2
 49
0.1
 74
0
 49
-0.1
 74
0
  0
LTYPE
  5
1F9
100
AcDbSymbolTableRecord
100
AcDbLinetypeTableRecord
  2
DASHED
 70
64
  3
- - - - - - - - - - - - - - - - - - - -
 72
65
 73
2
 40
0.2
 49
0.1
 74
0
 49
-0.1
 74
0
  0
ENDTAB
  0
TABLE
  2
LAYER
  5
2
100
AcDbSymbolTable
 70
36
  0
LAYER
  5
10
100
AcDbSymbolTableRecord
100
AcDbLayerTableRecord
  2
0
 70
0
 62
7
  6
CONTINUOUS
370
-3
390
F
  0
LAYER
  5
1FA
100
AcDbSymbolTableRecord
100
AcDbLayerTableRecord
  2
DEFAULT_1
 70
0
 62
7
  6
CENTER
370
-3
390
F
  0
LAYER
  5
1FB
100
AcDbSymbolTableRecord
100
AcDbLayerTableRecord
  2
DEFAULT_2
 70
0
 62
7
  6
HIDDEN
370
-3
390
F
  0
LAYER
  5
1FC
100
AcDbSymbolTableRecord
100
AcDbLayerTableRecord
  2
DEFAULT_3
 70
0
 62
7
  6
PHANTOM
370
-3
390
F
  0
LAYER
  5
1FD
100
AcDbSymbolTableRecord
100
AcDbLayerTableRecord
  2
ASSI
 70
0
 62
7
  6
CONTINUOUS
370
-3
390
F
  0
LAYER
  5
1FE
100
AcDbSymbolTableRecord
100
AcDbLayerTableRecord
  2
COORDINATE
 70
0
 62
7
  6
CONTINUOUS
370
-3
390
F
  0
LAYER
  5
1FF
100
AcDbSymbolTableRecord
100
AcDbLayerTableRecord
  2
COPY_PUBLISH
 70
0
 62
7
  6
CONTINUOUS
370
-3
390
F
  0
LAYER
  5
200
100
AcDbSymbolTableRecord
100
AcDbLayerTableRecord
  2
COSMETICI
 70
0
 62
7
  6
CONTINUOUS
370
-3
390
F
  0
LAYER
  5
201
100
AcDbSymbolTableRecord
100
AcDbLayerTableRecord
  2
CURVE
 70
0
 62
7
  6
CONTINUOUS
370
-3
390
F
  0
LAYER
  5
202
100
AcDbSymbolTableRecord
100
AcDbLayerTableRecord
  2
DRAFT
 70
0
 62
7
  6
CONTINUOUS
370
-3
390
F
  0
LAYER
  5
203
100
AcDbSymbolTableRecord
100
AcDbLayerTableRecord
  2
IMPORT_IGES
 70
0
 62
7
  6
CONTINUOUS
370
-3
390
F
  0
LAYER
  5
204
100
AcDbSymbolTableRecord
100
AcDbLayerTableRecord
  2
NOTE
 70
0
 62
7
  6
CONTINUOUS
370
-3
390
F
  0
LAYER
  5
205
100
AcDbSymbolTableRecord
100
AcDbLayerTableRecord
  2
PIANI
 70
0
 62
7
  6
CONTINUOUS
370
-3
390
F
  0
LAYER
  5
206
100
AcDbSymbolTableRecord
100
AcDbLayerTableRecord
  2
PUNTI
 70
0
 62
7
  6
CONTINUOUS
370
-3
390
F
  0
LAYER
  5
207
100
AcDbSymbolTableRecord
100
AcDbLayerTableRecord
  2
RACCORDO
 70
0
 62
7
  6
CONTINUOUS
370
-3
390
F
  0
LAYER
  5
208
100
AcDbSymbolTableRecord
100
AcDbLayerTableRecord
  2
SIMBOLI
 70
0
 62
7
  6
CONTINUOUS
370
-3
390
F
  0
LAYER
  5
209
100
AcDbSymbolTableRecord
100
AcDbLayerTableRecord
  2
SMUSSO
 70
0
 62
7
  6
CONTINUOUS
370
-3
390
F
  0
LAYER
  5
20A
100
AcDbSymbolTableRecord
100
AcDbLayerTableRecord
  2
SNAPLINE
 70
0
 62
7
  6
CONTINUOUS
370
-3
390
F
  0
LAYER
  5
20B
100
AcDbSymbolTableRecord
100
AcDbLayerTableRecord
  2
SUPERFICI
 70
0
 62
7
  6
CONTINUOUS
370
-3
390
F
  0
LAYER
  5
20C
100
AcDbSymbolTableRecord
100
AcDbLayerTableRecord
  2
TRASH
 70
0
 62
7
  6
CONTINUOUS
370
-3
390
F
  0
ENDTAB
  0
TABLE
  2
STYLE
  5
3
100
AcDbSymbolTable
 70
1
  0
STYLE
  5
11
100
AcDbSymbolTableRecord
100
AcDbTextStyleTableRecord
  2
STANDARD
 70
0
 40
0.0
 41
0.8
 50
0.0
 71
0
 42
0.2
  3
txt
  4

  0
STYLE
  5
20D
100
AcDbSymbolTableRecord
100
AcDbTextStyleTableRecord
  2
TEXTSTYLE_1
 70
0
 40
0.0
 41
0.8
 50
0.0
 71
0
 42
0.2
  3
gdt
  4

  0
ENDTAB
  0
TABLE
  2
VIEW
  5
6
100
AcDbSymbolTable
 70
0
  0
ENDTAB
  0
TABLE
  2
UCS
  5
7
100
AcDbSymbolTable
 70
0
  0
ENDTAB
  0
TABLE
  2
APPID
  5
9
100
AcDbSymbolTable
 70
1
  0
APPID
  5
20E
100
AcDbSymbolTableRecord
100
AcDbRegAppTableRecord
  2
ACAD
 70
0
  0
ENDTAB
  0
TABLE
  2
BLOCK_RECORD
  5
1
100
AcDbSymbolTable
 70
0
  0
BLOCK_RECORD
  5
20F
100
AcDbSymbolTableRecord
100
AcDbBlockTableRecord
  2
*Model_Space
  0
BLOCK_RECORD
  5
210
100
AcDbSymbolTableRecord
100
AcDbBlockTableRecord
  2
*Paper_Space
  0
ENDTAB
  0
TABLE
  2
DIMSTYLE
  5
A
100
AcDbSymbolTable
 70
1
100
AcDbDimStyleTable
 71
0
  0
DIMSTYLE
105
211
100
AcDbSymbolTableRecord
100
AcDbDimStyleTableRecord
  2
STANDARD
 70
0
  3

  4

 40
1.0
 41
3.0
 42
0.0625
 43
0.38
 44
0.18
 45
0.0
 46
0.0
 47
0.01
 48
0.01
140
3.0
141
0.09
142
0.0
143
25.4
144
1.0
145
0.0
146
1.0
147
0.09
 71
1.0
 72
0.0
 73
0
 74
0
 75
0
 76
0
 77
1
 78
8
170
0
171
2
172
0
173
0
174
0
175
0
176
0
177
0
178
0
270
2
271
2
272
2
273
2
274
2
275
0
280
0
281
0
282
0
283
1
284
8
285
0
286
0
287
3
288
0
340
11
  0
ENDTAB
  0
ENDSEC
  0
SECTION
  2
BLOCKS
  0
BLOCK
  5
20
100
AcDbEntity
  8
0
100
AcDbBlockBegin
  2
*Model_Space
 70
0
 10
0.0
 20
0.0
 30
0.0
  3
*Model_Space
  1

  0
ENDBLK
  5
21
100
AcDbEntity
  8
0
100
AcDbBlockEnd
  0
BLOCK
  5
1C
100
AcDbEntity
  8
0
100
AcDbBlockBegin
  2
*Paper_Space
 70
0
 10
0.0
 20
0.0
 30
0.0
  3
*Paper_Space
  1

  0
ENDBLK
  5
1D
100
AcDbEntity
  8
0
100
AcDbBlockEnd
  0
ENDSEC
  0
SECTION
  2
ENTITIES
  0
LWPOLYLINE
  5
212
100
AcDbEntity
  8
RACCORDO
100
AcDbPolyline
 62
253
  6
CONTINUOUS
 90
8
 70
0
 10
89.3579631456
 20
62.4268321533
 10
89.3380054053
 20
62.435097709
 10
89.3184307707
 20
62.4404580225
 10
89.299573535
 20
62.442821597
 10
89.28175571
 20
62.4421481135
 10
89.2652815919
 20
62.4384491187
 10
89.2504325482
 20
62.4317878612
 10
89.2447529347
 20
62.4281397482
  0
LINE
  5
213
100
AcDbEntity
  8
RACCORDO
100
AcDbLine
 62
7
  6
CONTINUOUS
 10
88.9934163208
 20
60.9870149824
 11
91.893108783
 21
59.3128214272
  0
LINE
  5
214
100
AcDbEntity
  8
RACCORDO
100
AcDbLine
 62
7
  6
CONTINUOUS
 10
73.7199098472
 20
69.8057461983
 11
76.6196023093
 21
68.1315526431
  0
LINE
  5
215
100
AcDbEntity
  8
RACCORDO
100
AcDbLine
 62
253
  6
CONTINUOUS
 10
91.6097639048
 20
59.6930791161
 11
92.2304052974
 21
59.3347922432
  0
LINE
  5
216
100
AcDbEntity
  8
RACCORDO
100
AcDbLine
 62
253
  6
CONTINUOUS
 10
76.3362574312
 20
68.511810332
 11
76.9568988238
 21
68.1535234591
  0
LINE
  5
217
100
AcDbEntity
  8
RACCORDO
100
AcDbLine
 62
253
  6
CONTINUOUS
 10
75.931142787
 20
68.799543973
 11
73.5651143117
 21
70.1656591613
  0
LINE
  5
218
100
AcDbEntity
  8
RACCORDO
100
AcDbLine
 62
253
  6
CONTINUOUS
 10
88.8386207854
 20
61.3469279454
 11
91.2046492606
 21
59.9808127571
  0
LINE
  5
219
100
AcDbEntity
  8
RACCORDO
100
AcDbLine
 62
253
  6
CONTINUOUS
 10
91.2046492606
 20
60.0656632446
 11
88.8386207854
 21
61.4317784329
  0
LINE
  5
21A
100
AcDbEntity
  8
RACCORDO
100
AcDbLine
 62
253
  6
CONTINUOUS
 10
75.931142787
 20
68.8843944605
 11
73.5651143117
 21
70.2505096488
  0
LINE
  5
21B
100
AcDbEntity
  8
RACCORDO
100
AcDbLine
 62
253
  6
CONTINUOUS
 10
91.7969326064
 20
61.0186017541
 11
89.3579631456
 21
62.4268321533
  0
LINE
  5
21C
100
AcDbEntity
  8
RACCORDO
100
AcDbLine
 62
253
  6
CONTINUOUS
 10
76.5234261327
 20
69.8373329699
 11
74.084456672
 21
71.2455633691
  0
LWPOLYLINE
  5
21D
100
AcDbEntity
  8
RACCORDO
100
AcDbPolyline
 62
253
  6
CONTINUOUS
 90
7
 70
0
 10
73.5651143117
 20
70.1656591613
 10
73.5487541243
 20
70.1763518142
 10
73.534802569
 20
70.1881276666
 10
73.5234725831
 20
70.2008069452
 10
73.5149370762
 20
70.2141961001
 10
73.5093263115
 20
70.2280907307
 10
73.5067452546
 20
70.2421730893
  0
LWPOLYLINE
  5
21E
100
AcDbEntity
  8
RACCORDO
100
AcDbPolyline
 62
253
  6
CONTINUOUS
 90
4
 70
0
 10
73.5651143117
 20
70.2505096488
 10
73.5487545953
 20
70.2612019492
 10
73.5348032965
 20
70.2729774442
 10
73.5234733721
 20
70.2856563893
  0
LWPOLYLINE
  5
21F
100
AcDbEntity
  8
RACCORDO
100
AcDbPolyline
 62
253
  6
CONTINUOUS
 90
8
 70
0
 10
88.8386207854
 20
61.3469279454
 10
88.8222605713
 20
61.3576206181
 10
88.8083090015
 20
61.3693964906
 10
88.7969790123
 20
61.3820757879
 10
88.7884435112
 20
61.3954649592
 10
88.7828327597
 20
61.4093596024
 10
88.7802323638
 20
61.4235475816
 10
88.7800421416
 20
61.4285829225
  0
LWPOLYLINE
  5
220
100
AcDbEntity
  8
RACCORDO
100
AcDbPolyline
 62
253
  6
CONTINUOUS
 90
4
 70
0
 10
88.8386207854
 20
61.4317784329
 10
88.822261069
 20
61.4424707333
 10
88.8083097702
 20
61.4542462283
 10
88.7969798458
 20
61.4669251734
  0
LWPOLYLINE
  5
221
100
AcDbEntity
  8
RACCORDO
100
AcDbPolyline
 62
253
  6
CONTINUOUS
 90
4
 70
0
 10
73.5234733721
 20
70.2856563893
 10
73.5149377655
 20
70.2990452491
 10
73.5093267667
 20
70.3129396521
 10
73.5067260236
 20
70.32712751
  0
LWPOLYLINE
  5
222
100
AcDbEntity
  8
RACCORDO
100
AcDbPolyline
 62
253
  6
CONTINUOUS
 90
12
 70
0
 10
73.6962753476
 20
112.7612968375
 10
73.6743187868
 20
112.7137786459
 10
73.6541580952
 20
112.6657516326
 10
73.6358898088
 20
112.6174165073
 10
73.6195913573
 20
112.5689792628
 10
73.6053211094
 20
112.5206502838
 10
73.5931418659
 20
112.4726354476
 10
73.5831103056
 20
112.4251365823
 10
73.575262119
 20
112.3783564629
 10
73.5696298625
 20
112.3324943137
 10
73.5662421968
 20
112.2877448203
 10
73.5651143117
 20
112.2442987108
  0
LWPOLYLINE
  5
223
100
AcDbEntity
  8
RACCORDO
100
AcDbPolyline
 62
7
  6
CONTINUOUS
 90
11
 70
0
 10
73.6419042018
 20
112.8415085329
 10
73.6245955521
 20
112.8064479653
 10
73.6006758004
 20
112.7532301695
 10
73.5791081937
 20
112.6989876759
 10
73.5600522842
 20
112.6440092905
 10
73.5436724277
 20
112.5886362274
 10
73.5300995143
 20
112.5330848192
 10
73.5194633893
 20
112.477596126
 10
73.5119126364
 20
112.4224746943
 10
73.5075914456
 20
112.3679362106
 10
73.5065452509
 20
112.3258185153
  0
LINE
  5
224
100
AcDbEntity
  8
RACCORDO
100
AcDbLine
 62
253
  6
CONTINUOUS
 10
73.7199280394
 20
112.8081059159
 11
73.6962753476
 21
112.7612968375
  0
LINE
  5
225
100
AcDbEntity
  8
RACCORDO
100
AcDbLine
 62
7
  6
CONTINUOUS
 10
74.1150793129
 20
113.7658583858
 11
73.6418986919
 21
112.8415131269
  0
LINE
  5
226
100
AcDbEntity
  8
RACCORDO
100
AcDbLine
 62
253
  6
CONTINUOUS
 10
74.1494568694
 20
113.6471786082
 11
73.7199280394
 21
112.8081059159
  0
LINE
  5
227
100
AcDbEntity
  8
RACCORDO
100
AcDbLine
 62
7
  6
CONTINUOUS
 10
74.3388656498
 20
113.9460909455
 11
74.1874991144
 21
113.8419350893
  0
LINE
  5
228
100
AcDbEntity
  8
DRAFT
100
AcDbLine
 62
7
  6
CONTINUOUS
 10
74.9840462486
 20
113.5735717538
 11
76.339118807
 21
114.5060020435
  0
LINE
  5
229
100
AcDbEntity
  8
RACCORDO
100
AcDbLine
 62
7
  6
CONTINUOUS
 10
75.4217511585
 20
114.9211344811
 11
102.0502351396
 21
129.2410714347
  0
LINE
  5
22A
100
AcDbEntity
  8
RACCORDO
100
AcDbLine
 62
253
  6
CONTINUOUS
 10
75.667313517
 20
114.8938939982
 11
102.2932184891
 21
129.2124440442
  0
LWPOLYLINE
  5
22B
100
AcDbEntity
  8
RACCORDO
100
AcDbPolyline
 62
7
  6
CONTINUOUS
 90
5
 70
0
 10
102.0502351396
 20
129.2410714347
 10
102.0954937032
 20
129.2625596003
 10
102.1431981433
 20
129.2795684405
 10
102.1928078596
 20
129.2917468569
 10
102.2437055102
 20
129.2988262568
  0
LWPOLYLINE
  5
22C
100
AcDbEntity
  8
RACCORDO
100
AcDbPolyline
 62
253
  6
CONTINUOUS
 90
10
 70
0
 10
102.0502351396
 20
129.2410714347
 10
102.068551342
 20
129.2495368877
 10
102.0929157907
 20
129.2570323834
 10
102.1187571312
 20
129.2610563239
 10
102.1458787716
 20
129.2615780965
 10
102.1740743798
 20
129.2585937315
 10
102.2031294531
 20
129.2521259331
 10
102.2328229508
 20
129.2422239061
 10
102.2629289749
 20
129.2289629816
 10
102.2932184891
 20
129.2124440442
  0
LWPOLYLINE
  5
22D
100
AcDbEntity
  8
RACCORDO
100
AcDbPolyline
 62
253
  6
CONTINUOUS
 90
8
 70
0
 10
74.084456672
 20
71.2455633691
 10
74.0644989316
 20
71.2538289248
 10
74.0449242971
 20
71.2591892384
 10
74.0260670614
 20
71.2615528129
 10
74.0082492364
 20
71.2608793293
 10
73.9917751183
 20
71.2571803346
 10
73.9769260746
 20
71.2505190771
 10
73.971246461
 20
71.2468709641
  0
LINE
  5
22E
100
AcDbEntity
  8
RACCORDO
100
AcDbLine
 62
7
  6
CONTINUOUS
 10
95.466411086
 20
61.0056888096
 11
94.794605796
 21
61.3935807644
  0
LINE
  5
22F
100
AcDbEntity
  8
DRAFT
100
AcDbLine
 62
7
  6
CONTINUOUS
 10
90.9299759314
 20
63.624969613
 11
79.5210993224
 21
70.2123119803
  0
LINE
  5
230
100
AcDbEntity
  8
RACCORDO
100
AcDbLine
 62
7
  6
CONTINUOUS
 10
76.3037419288
 20
73.0497381485
 11
76.4808644353
 21
72.9474698331
  0
LINE
  5
231
100
AcDbEntity
  8
RACCORDO
100
AcDbLine
 62
7
  6
CONTINUOUS
 10
79.379353694
 20
71.2739184617
 11
91.754370909
 21
64.1287386172
  0
LINE
  5
232
100
AcDbEntity
  8
RACCORDO
100
AcDbLine
 62
7
  6
CONTINUOUS
 10
94.6528601677
 20
62.4551872458
 11
94.8299826742
 21
62.3529189304
  0
LWPOLYLINE
  5
233
100
AcDbEntity
  8
RACCORDO
100
AcDbPolyline
 62
7
  6
CONTINUOUS
 90
8
 70
0
 10
73.5289736492
 20
70.0685394477
 10
73.5467516593
 20
70.0146343647
 10
73.5694208096
 20
69.965076958
 10
73.5968522742
 20
69.9199899879
 10
73.6287643377
 20
69.8797416791
 10
73.6641485554
 20
69.8452546014
 10
73.7020513433
 20
69.8167701613
 10
73.7191594398
 20
69.806200464
  0
LINE
  5
234
100
AcDbEntity
  8
RACCORDO
100
AcDbLine
 62
7
  6
CONTINUOUS
 10
73.5163234567
 20
70.1261149767
 11
73.5289736492
 21
70.0685394477
  0
LWPOLYLINE
  5
235
100
AcDbEntity
  8
RACCORDO
100
AcDbPolyline
 62
253
  6
CONTINUOUS
 90
13
 70
0
 10
76.1076999092
 20
111.429436364
 10
76.0810901494
 20
111.3852458349
 10
76.0561320699
 20
111.3397196977
 10
76.0329839069
 20
111.2930333784
 10
76.0117041123
 20
111.2451614154
 10
75.9925655066
 20
111.1965241952
 10
75.9759511965
 20
111.1479913426
 10
75.9619108941
 20
111.0997475345
 10
75.9504796209
 20
111.0520457266
 10
75.9417949617
 20
111.0058263399
 10
75.9357796486
 20
110.9614848001
 10
75.9322695323
 20
110.9189022194
 10
75.931142787
 20
110.8781835225
  0
LWPOLYLINE
  5
236
100
AcDbEntity
  8
RACCORDO
100
AcDbPolyline
 62
253
  6
CONTINUOUS
 90
13
 70
0
 10
76.3362574312
 20
111.2832478847
 10
76.3157942933
 20
111.2503148615
 10
76.2967953774
 20
111.2165657862
 10
76.2792606836
 20
111.1820006586
 10
76.2630271262
 20
111.1462819698
 10
76.2482577909
 20
111.1097472288
 10
76.2354419341
 20
111.0734089626
 10
76.224721408
 20
111.0372399708
 10
76.2159543604
 20
111.0012674539
 10
76.2092044923
 20
110.9665855403
 10
76.2044930372
 20
110.9335589398
 10
76.2017987615
 20
110.9018229427
 10
76.2011216651
 20
110.871377549
  0
LINE
  5
237
100
AcDbEntity
  8
RACCORDO
100
AcDbLine
 62
253
  6
CONTINUOUS
 10
76.6195924355
 20
112.2209532904
 11
76.1076999092
 21
111.429436364
  0
LINE
  5
238
100
AcDbEntity
  8
RACCORDO
100
AcDbLine
 62
253
  6
CONTINUOUS
 10
76.9568988238
 20
112.2429184059
 11
76.3362574312
 21
111.2832478847
  0
LWPOLYLINE
  5
239
100
AcDbEntity
  8
RACCORDO
100
AcDbPolyline
 62
253
  6
CONTINUOUS
 90
35
 70
0
 10
97.0927098168
 20
123.46025575
 10
96.9787926375
 20
123.3957668111
 10
96.8643788548
 20
123.3287924599
 10
96.7496261294
 20
123.2592824701
 10
96.6350214043
 20
123.1873953643
 10
96.5203984208
 20
123.1128829217
 10
96.4050034096
 20
123.0350578394
 10
96.289067328
 20
122.9538372721
 10
96.1728623519
 20
122.8691599172
 10
96.0558361719
 20
122.7803166231
 10
95.9383200627
 20
122.687200436
 10
95.8206997517
 20
122.5897345812
 10
95.7026630067
 20
122.487205797
 10
95.5843798718
 20
122.3792203903
 10
95.4666844367
 20
122.2659565468
 10
95.3503367285
 20
122.147551775
 10
95.2351825928
 20
122.0231779954
 10
95.1225131775
 20
121.8935052603
 10
95.0149162317
 20
121.7610402515
 10
94.9127797245
 20
121.6260514151
 10
94.816150496
 20
121.4883809618
 10
94.7264884073
 20
121.3500636423
 10
94.6441259314
 20
121.2118914727
 10
94.5685603361
 20
121.0733219701
 10
94.4997199901
 20
120.9344459603
 10
94.4377344319
 20
120.7958353159
 10
94.3822971382
 20
120.6571421297
 10
94.3328657529
 20
120.5170485013
 10
94.2896969986
 20
120.3761579255
 10
94.2527046567
 20
120.2340384861
 10
94.2214190071
 20
120.0877644594
 10
94.1963584547
 20
119.9374225525
 10
94.1780464076
 20
119.7830742682
 10
94.1668823474
 20
119.621727159
 10
94.1637771407
 20
119.4867554356
  0
LWPOLYLINE
  5
23A
100
AcDbEntity
  8
RACCORDO
100
AcDbPolyline
 62
253
  6
CONTINUOUS
 90
39
 70
0
 10
96.9537496216
 20
123.7066010405
 10
96.8373015823
 20
123.6408734976
 10
96.7206725404
 20
123.572506199
 10
96.6038624958
 20
123.5014991446
 10
96.4869827696
 20
123.4281256576
 10
96.3699220408
 20
123.3521124149
 10
96.2523463464
 20
123.2726394472
 10
96.1341240091
 20
123.1897301782
 10
96.0153867062
 20
123.1033611841
 10
95.8961955073
 20
123.012642225
 10
95.7763874619
 20
122.9175853796
 10
95.6561255205
 20
122.8181785691
 10
95.5359596042
 20
122.7134953163
 10
95.4154665649
 20
122.6032387525
 10
95.2950695508
 20
122.4877057464
 10
95.1765879277
 20
122.3668604263
 10
95.0594915828
 20
122.2398445625
 10
94.944310629
 20
122.1075163848
 10
94.8344547709
 20
121.9724147109
 10
94.7305062865
 20
121.8346363981
 10
94.6318828979
 20
121.6940845893
 10
94.5402474761
 20
121.5530075304
 10
94.4562201203
 20
121.412046338
 10
94.3791807314
 20
121.2705598956
 10
94.3089318832
 20
121.1288731005
 10
94.2455780155
 20
120.9874761157
 10
94.1890146886
 20
120.8458787782
 10
94.1387311564
 20
120.7029354967
 10
94.0945004778
 20
120.559204094
 10
94.056549594
 20
120.4141267473
 10
94.025048583
 20
120.2648843971
 10
93.9993846067
 20
120.1114836686
 10
93.9801705032
 20
119.9539179365
 10
93.9694148653
 20
119.7893482656
 10
93.9664329842
 20
119.6174450476
 10
93.9719095686
 20
119.4385378907
 10
93.9899073375
 20
119.2507766843
 10
94.0201939761
 20
119.0530137072
 10
94.0630017992
 20
118.8463966805
  0
LINE
  5
23B
100
AcDbEntity
  8
RACCORDO
100
AcDbLine
 62
253
  6
CONTINUOUS
 10
104.5234943948
 20
127.9247106882
 11
96.9537496216
 21
123.7066010405
  0
LINE
  5
23C
100
AcDbEntity
  8
RACCORDO
100
AcDbLine
 62
253
  6
CONTINUOUS
 10
104.662447608
 20
127.6783615098
 11
97.0927098168
 21
123.4602557527
  0
LWPOLYLINE
  5
23D
100
AcDbEntity
  8
RACCORDO
100
AcDbPolyline
 62
7
  6
CONTINUOUS
 90
10
 70
0
 10
105.230601176
 20
126.5366717627
 10
105.2614132663
 20
126.5522286504
 10
105.2915109824
 20
126.5644645278
 10
105.3208943244
 20
126.573379395
 10
105.3497703139
 20
126.5789900839
 10
105.3779319293
 20
126.5812797626
 10
105.4047581054
 20
126.5801979353
 10
105.430219173
 20
126.5756696976
 10
105.4543448012
 20
126.5677699541
 10
105.4744642672
 20
126.5579284902
  0
LWPOLYLINE
  5
23E
100
AcDbEntity
  8
RACCORDO
100
AcDbPolyline
 62
7
  6
CONTINUOUS
 90
9
 70
0
 10
104.0248174335
 20
126.5066076957
 10
104.0396712952
 20
126.5139328986
 10
104.0540403315
 20
126.5193337373
 10
104.0679245422
 20
126.5228102118
 10
104.0814613112
 20
126.5243583623
 10
104.0945132548
 20
126.5239821487
 10
104.1066682209
 20
126.5216934509
 10
104.1178975837
 20
126.5174312346
 10
104.1223255755
 20
126.5150825055
  0
LINE
  5
23F
100
AcDbEntity
  8
RACCORDO
100
AcDbLine
 62
7
  6
CONTINUOUS
 10
77.1372904362
 20
112.3303155464
 11
76.9568988238
 21
112.2429184059
  0
LWPOLYLINE
  5
240
100
AcDbEntity
  8
RACCORDO
100
AcDbPolyline
 62
253
  6
CONTINUOUS
 90
13
 70
0
 10
76.6544517977
 20
69.5870279678
 10
76.653006913
 20
69.6089040131
 10
76.6493915142
 20
69.6319172882
 10
76.6436672569
 20
69.6556748649
 10
76.6359318097
 20
69.6797710872
 10
76.626317195
 20
69.7037944794
 10
76.6149875415
 20
69.7273347721
 10
76.602136254
 20
69.7499899686
 10
76.5879827658
 20
69.771373105
 10
76.5727688199
 20
69.7911188647
 10
76.5567542484
 20
69.8088899616
 10
76.5402125185
 20
69.8243828797
 10
76.5234261324
 20
69.8373329698
  0
LINE
  5
241
100
AcDbEntity
  8
RACCORDO
100
AcDbLine
 62
253
  6
CONTINUOUS
 10
73.5067260236
 20
70.32712751
 11
73.5065359469
 21
70.3319716962
  0
LINE
  5
242
100
AcDbEntity
  8
RACCORDO
100
AcDbLine
 62
253
  6
CONTINUOUS
 10
73.5067260236
 20
112.3209165719
 11
73.5065358049
 21
112.3258185054
  0
LWPOLYLINE
  5
243
100
AcDbEntity
  8
RACCORDO
100
AcDbPolyline
 62
7
  6
CONTINUOUS
 90
3
 70
0
 10
73.506544695
 20
70.2474257217
 10
73.5088504365
 20
70.18703861
 10
73.5163234567
 20
70.1261149767
  0
LWPOLYLINE
  5
244
100
AcDbEntity
  8
RACCORDO
100
AcDbPolyline
 62
7
  6
CONTINUOUS
 90
3
 70
0
 10
73.5065456336
 20
112.2412104123
 10
73.5086121516
 20
112.1839682725
 10
73.5155503473
 20
112.124558578
  0
LWPOLYLINE
  5
245
100
AcDbEntity
  8
RACCORDO
100
AcDbPolyline
 62
253
  6
CONTINUOUS
 90
11
 70
0
 10
73.5651143117
 20
112.1594482232
 10
73.5665513992
 20
112.1121926449
 10
73.5708691858
 20
112.0670868917
 10
73.5780432011
 20
112.0243785077
 10
73.5880272462
 20
111.9843062831
 10
73.6007686563
 20
111.947088014
 10
73.6162092327
 20
111.9129198966
 10
73.6342572546
 20
111.8819946335
 10
73.6548112281
 20
111.8544851107
 10
73.6777762744
 20
111.8305333552
 10
73.7030171514
 20
111.8102785955
  0
LWPOLYLINE
  5
246
100
AcDbEntity
  8
RACCORDO
100
AcDbPolyline
 62
253
  6
CONTINUOUS
 90
13
 70
0
 10
75.931142787
 20
68.799543973
 10
75.9323193445
 20
68.7592108377
 10
75.9359455934
 20
68.7196389174
 10
75.942111927
 20
68.6810597542
 10
75.9509382182
 20
68.6435697999
 10
75.9624738191
 20
68.6075780955
 10
75.9766019561
 20
68.5737180289
 10
75.9933240452
 20
68.5421021361
 10
76.0125557148
 20
68.5129587528
 10
76.0338363331
 20
68.4868685704
 10
76.0568441497
 20
68.4639546056
 10
76.0815235541
 20
68.4440343122
 10
76.1076797362
 20
68.4270777901
  0
LWPOLYLINE
  5
247
100
AcDbEntity
  8
RACCORDO
100
AcDbPolyline
 62
253
  6
CONTINUOUS
 90
13
 70
0
 10
73.5651143117
 20
70.1656591613
 10
73.5662422225
 20
70.1237051668
 10
73.5696299116
 20
70.083416191
 10
73.5752621838
 20
70.0449654183
 10
73.5831103642
 20
70.008521252
 10
73.5931418985
 20
69.9742384976
 10
73.6053211251
 20
69.9422582625
 10
73.6195913905
 20
69.9127212093
 10
73.6358898811
 20
69.8857564228
 10
73.6541581967
 20
69.8614735922
 10
73.6743188858
 20
69.8399781843
 10
73.696275415
 20
69.8213705173
 10
73.7199099882
 20
69.8057461168
  0
LINE
  5
248
100
AcDbEntity
  8
RACCORDO
100
AcDbLine
 62
7
  6
CONTINUOUS
 10
73.506535668
 20
112.3259536295
 11
73.506535668
 21
112.2411031426
  0
LINE
  5
249
100
AcDbEntity
  8
RACCORDO
100
AcDbLine
 62
7
  6
CONTINUOUS
 10
73.506535668
 20
70.3321645675
 11
73.506535668
 21
70.247314089
  0
LINE
  5
24A
100
AcDbEntity
  8
RACCORDO
100
AcDbLine
 62
253
  6
CONTINUOUS
 10
73.5651143117
 20
112.2442987108
 11
73.5651143117
 21
112.1594482232
  0
LINE
  5
24B
100
AcDbEntity
  8
RACCORDO
100
AcDbLine
 62
253
  6
CONTINUOUS
 10
73.5651143117
 20
70.2505096488
 11
73.5651143117
 21
70.1656591613
  0
LWPOLYLINE
  5
24C
100
AcDbEntity
  8
RACCORDO
100
AcDbPolyline
 62
253
  6
CONTINUOUS
 90
9
 70
0
 10
104.8708774279
 20
127.5538024982
 10
104.8848852638
 20
127.5627850755
 10
104.897190185
 20
127.5725638661
 10
104.9076573762
 20
127.5830317316
 10
104.9161721566
 20
127.5940739838
 10
104.9226412366
 20
127.6055696416
 10
104.9269937395
 20
127.6173927561
 10
104.9291819785
 20
127.6294137909
 10
104.9294560717
 20
127.6354574168
  0
LWPOLYLINE
  5
24D
100
AcDbEntity
  8
RACCORDO
100
AcDbPolyline
 62
253
  6
CONTINUOUS
 90
20
 70
0
 10
100.4892835275
 20
122.6912078542
 10
100.2224166288
 20
122.534535989
 10
99.971183063
 20
122.37133784
 10
99.7355828302
 20
122.2016134071
 10
99.5151299289
 20
122.0248843535
 10
99.3103103606
 20
121.841629016
 10
99.1225821297
 20
121.6532824056
 10
98.9520999531
 20
121.459843483
 10
98.7987091139
 20
121.2613132876
 10
98.663403467
 20
121.0591299483
 10
98.5462973294
 20
120.8532788974
 10
98.4472763841
 20
120.6437747025
 10
98.3669915343
 20
120.4320991963
 10
98.3055562266
 20
120.2182276372
 10
98.2628570145
 20
120.0021847668
 10
98.2392044623
 20
119.7855266419
 10
98.2347303796
 20
119.5682354121
 10
98.2493029568
 20
119.3503289277
 10
98.2828373295
 20
119.1334167965
 10
98.3354772436
 20
118.9174991804
  0
LWPOLYLINE
  5
24E
100
AcDbEntity
  8
RACCORDO
100
AcDbPolyline
 62
253
  6
CONTINUOUS
 90
17
 70
0
 10
100.6283581595
 20
122.4449262769
 10
100.3690620308
 20
122.2930387924
 10
100.1239804025
 20
122.133947538
 10
99.8936901182
 20
121.9680852094
 10
99.6787365199
 20
121.7959196407
 10
99.4796062017
 20
121.6178924799
 10
99.2967323781
 20
121.4344156402
 10
99.1305431478
 20
121.2459845136
 10
98.9813998677
 20
121.0530811168
 10
98.8495931251
 20
120.8561064773
 10
98.7354278985
 20
120.6555707693
 10
98.6391597319
 20
120.4519851734
 10
98.5609755544
 20
120.2457559334
 10
98.5010614632
 20
120.0373929617
 10
98.4595662715
 20
119.82743706
 10
98.4365851549
 20
119.616343849
 10
98.4315375998
 20
119.4604127834
  0
LINE
  5
24F
100
AcDbEntity
  8
RACCORDO
100
AcDbLine
 62
7
  6
CONTINUOUS
 10
104.0248174335
 20
126.5066076957
 11
97.0927028348
 21
122.6438064596
  0
LINE
  5
250
100
AcDbEntity
  8
RACCORDO
100
AcDbLine
 62
7
  6
CONTINUOUS
 10
105.230601176
 20
126.5366717627
 11
97.5599645756
 21
122.2623418854
  0
LINE
  5
251
100
AcDbEntity
  8
RACCORDO
100
AcDbLine
 62
253
  6
CONTINUOUS
 10
106.2912613477
 20
125.9242598727
 11
100.4892835275
 21
122.6912078542
  0
LINE
  5
252
100
AcDbEntity
  8
RACCORDO
100
AcDbLine
 62
253
  6
CONTINUOUS
 10
106.430214561
 20
125.6779106943
 11
100.6283581581
 21
122.4449263335
  0
LINE
  5
253
100
AcDbEntity
  8
RACCORDO
100
AcDbLine
 62
7
  6
CONTINUOUS
 10
105.7925843864
 20
124.6693265643
 11
100.6282367408
 21
121.7915829573
  0
LWPOLYLINE
  5
254
100
AcDbEntity
  8
RACCORDO
100
AcDbPolyline
 62
7
  6
CONTINUOUS
 90
10
 70
0
 10
106.4265123465
 20
124.3661214933
 10
106.4520767889
 20
124.3797731949
 10
106.4772248027
 20
124.391159123
 10
106.501956388
 20
124.4002792775
 10
106.5263810453
 20
124.4071507741
 10
106.5503892742
 20
124.4117564971
 10
106.5736525723
 20
124.4140451002
 10
106.5960614391
 20
124.4139994679
 10
106.6177253753
 20
124.4116367157
 10
106.6386443809
 20
124.4069568436
  0
LWPOLYLINE
  5
255
100
AcDbEntity
  8
RACCORDO
100
AcDbPolyline
 62
7
  6
CONTINUOUS
 90
9
 70
0
 10
105.7925843864
 20
124.6693265643
 10
105.8074382482
 20
124.6766517671
 10
105.8218072844
 20
124.6820526058
 10
105.8356914951
 20
124.6855290804
 10
105.8492282642
 20
124.6870772309
 10
105.8622802078
 20
124.6867010173
 10
105.8744351739
 20
124.6844123195
 10
105.8856645367
 20
124.6801501031
 10
105.8900925285
 20
124.677801374
  0
LWPOLYLINE
  5
256
100
AcDbEntity
  8
RACCORDO
100
AcDbPolyline
 62
7
  6
CONTINUOUS
 90
9
 70
0
 10
105.6511630302
 20
123.948683838
 10
105.666016892
 20
123.9560090408
 10
105.6803859282
 20
123.9614098795
 10
105.6942701389
 20
123.9648863541
 10
105.707806908
 20
123.9664345046
 10
105.7208588515
 20
123.966058291
 10
105.7330138176
 20
123.9637695932
 10
105.7442431804
 20
123.9595073768
 10
105.7486711723
 20
123.9571586477
  0
LINE
  5
257
100
AcDbEntity
  8
DRAFT
100
AcDbLine
 62
7
  6
CONTINUOUS
 10
77.1372904362
 20
111.5138452696
 11
79.5210993224
 21
112.6687663735
  0
LINE
  5
258
100
AcDbEntity
  8
RACCORDO
100
AcDbLine
 62
253
  6
CONTINUOUS
 10
76.6544517977
 20
110.5163514329
 11
79.5210993224
 21
111.8520725502
  0
LINE
  5
259
100
AcDbEntity
  8
RACCORDO
100
AcDbLine
 62
7
  6
CONTINUOUS
 10
76.6103650145
 20
110.423526103
 11
79.4744687914
 21
111.7580619551
  0
LWPOLYLINE
  5
25A
100
AcDbEntity
  8
RACCORDO
100
AcDbPolyline
 62
253
  6
CONTINUOUS
 90
13
 70
0
 10
76.2011216651
 20
110.871377549
 10
76.1812478757
 20
110.8628994937
 10
76.1597151052
 20
110.8559011435
 10
76.1368520363
 20
110.8504893234
 10
76.1130076577
 20
110.8467466409
 10
76.0885459372
 20
110.8447302257
 10
76.0638402657
 20
110.8444708567
 10
76.0392677582
 20
110.8459724932
 10
76.0152034967
 20
110.8492122135
 10
75.9920148052
 20
110.8541405658
 10
75.970055643
 20
110.8606823222
 10
75.9496612013
 20
110.8687376273
 10
75.931142787
 20
110.8781835225
  0
LWPOLYLINE
  5
25B
100
AcDbEntity
  8
RACCORDO
100
AcDbPolyline
 62
253
  6
CONTINUOUS
 90
13
 70
0
 10
76.2011216651
 20
110.7865270615
 10
76.1812488217
 20
110.7780493596
 10
76.159716929
 20
110.7710511656
 10
76.1368545912
 20
110.7656393365
 10
76.1130107238
 20
110.761896519
 10
76.0885492624
 20
110.7598798924
 10
76.063843611
 20
110.7596202855
 10
76.0392708738
 20
110.761121703
 10
76.0152061583
 20
110.7643612675
 10
75.992016879
 20
110.7692895535
 10
75.9700570529
 20
110.775831351
 10
75.9496619009
 20
110.7838868275
 10
75.9311427871
 20
110.7933330373
  0
LINE
  5
25C
100
AcDbEntity
  8
RACCORDO
100
AcDbLine
 62
7
  6
CONTINUOUS
 10
109.3924207382
 20
121.8515131023
 11
111.0185607073
 21
122.3677463264
  0
LINE
  5
25D
100
AcDbEntity
  8
RACCORDO
100
AcDbLine
 62
253
  6
CONTINUOUS
 10
109.3733569861
 20
121.7995356979
 11
111.0815446031
 21
122.3418157093
  0
LINE
  5
25E
100
AcDbEntity
  8
RACCORDO
100
AcDbLine
 62
7
  6
CONTINUOUS
 10
111.0267286069
 20
122.3702592562
 11
111.0185435489
 21
122.3677313416
  0
LWPOLYLINE
  5
25F
100
AcDbEntity
  8
RACCORDO
100
AcDbPolyline
 62
253
  6
CONTINUOUS
 90
7
 70
0
 10
111.0185606357
 20
122.3677463037
 10
111.0203018933
 20
122.3682497709
 10
111.0313388552
 20
122.3693769841
 10
111.0431880247
 20
122.3672334008
 10
111.0556478115
 20
122.3618554493
 10
111.068506257
 20
122.3533345781
 10
111.0815446035
 20
122.3418157094
  0
LWPOLYLINE
  5
260
100
AcDbEntity
  8
RACCORDO
100
AcDbPolyline
 62
253
  6
CONTINUOUS
 90
4
 70
0
 10
88.7969798458
 20
61.4669251734
 10
88.7884442391
 20
61.4803140332
 10
88.7828332403
 20
61.4942084362
 10
88.7802324973
 20
61.5083962941
  0
LWPOLYLINE
  5
261
100
AcDbEntity
  8
RACCORDO
100
AcDbPolyline
 62
253
  6
CONTINUOUS
 90
18
 70
0
 10
76.2011216651
 20
110.7865270615
 10
76.2023933824
 20
110.7508990707
 10
76.2061210363
 20
110.7169697719
 10
76.2123046268
 20
110.6847391651
 10
76.2210016727
 20
110.6540276268
 10
76.2321546551
 20
110.6250147804
 10
76.2455910178
 20
110.5982394967
 10
76.2613513481
 20
110.5737557228
 10
76.2793950586
 20
110.5515095115
 10
76.29942783
 20
110.5318778922
 10
76.3214840685
 20
110.5149073224
 10
76.3455293679
 20
110.5005513447
 10
76.3711661906
 20
110.4890476158
 10
76.3984189151
 20
110.4804453447
 10
76.4272631629
 20
110.4746953225
 10
76.4572282605
 20
110.4718875795
 10
76.4883485593
 20
110.4720764817
 10
76.520589708
 20
110.4752076631
  0
LWPOLYLINE
  5
262
100
AcDbEntity
  8
RACCORDO
100
AcDbPolyline
 62
253
  6
CONTINUOUS
 90
12
 70
0
 10
75.931142787
 20
110.7933330349
 10
75.9327912547
 20
110.7459553108
 10
75.9377143086
 20
110.7005000114
 10
75.9458874762
 20
110.6572146809
 10
75.9572741279
 20
110.6163325953
 10
75.9718120234
 20
110.578077062
 10
75.9894142549
 20
110.5426608247
 10
76.0099950129
 20
110.5102731714
 10
76.0334469112
 20
110.481090429
 10
76.0596286542
 20
110.4552814518
 10
76.0884102514
 20
110.4329824317
 10
76.1075703157
 20
110.4209300618
  0
LWPOLYLINE
  5
263
100
AcDbEntity
  8
RACCORDO
100
AcDbPolyline
 62
253
  6
CONTINUOUS
 90
13
 70
0
 10
76.2011216651
 20
68.7927379995
 10
76.2018937426
 20
68.7623254144
 10
76.2046750447
 20
68.7327629873
 10
76.2094655715
 20
68.7040507183
 10
76.216282177
 20
68.6759129368
 10
76.2251080073
 20
68.6486253133
 10
76.2358925
 20
68.6230148593
 10
76.2488177943
 20
68.5991504445
 10
76.2637017512
 20
68.5769631991
 10
76.2799473912
 20
68.557073525
 10
76.2973557213
 20
68.5396882227
 10
76.3161257346
 20
68.5246004917
 10
76.3362574312
 20
68.511810332
  0
LINE
  5
264
100
AcDbEntity
  8
RACCORDO
100
AcDbLine
 62
7
  6
CONTINUOUS
 10
75.3138139743
 20
73.0497187728
 11
75.3138139743
 21
110.8792349935
  0
LINE
  5
265
100
AcDbEntity
  8
RACCORDO
100
AcDbLine
 62
7
  6
CONTINUOUS
 10
75.3138139743
 20
113.8004861091
 11
75.3138139743
 21
114.6898272416
  0
LINE
  5
266
100
AcDbEntity
  8
RACCORDO
100
AcDbLine
 62
253
  6
CONTINUOUS
 10
75.931142787
 20
110.8781835225
 11
75.931142787
 21
110.7933330349
  0
LINE
  5
267
100
AcDbEntity
  8
RACCORDO
100
AcDbLine
 62
253
  6
CONTINUOUS
 10
75.931142787
 20
68.8843944605
 11
75.931142787
 21
68.799543973
  0
LINE
  5
268
100
AcDbEntity
  8
RACCORDO
100
AcDbLine
 62
7
  6
CONTINUOUS
 10
76.1623421117
 20
110.3943768611
 11
76.1623421117
 21
73.2946498156
  0
LINE
  5
269
100
AcDbEntity
  8
RACCORDO
100
AcDbLine
 62
253
  6
CONTINUOUS
 10
76.2011216651
 20
110.871377549
 11
76.2011216651
 21
110.7865270615
  0
LINE
  5
26A
100
AcDbEntity
  8
RACCORDO
100
AcDbLine
 62
253
  6
CONTINUOUS
 10
76.2011216651
 20
68.877588487
 11
76.2011216651
 21
68.7927379995
  0
LINE
  5
26B
100
AcDbEntity
  8
DRAFT
100
AcDbLine
 62
7
  6
CONTINUOUS
 10
77.1372904362
 20
68.2409205996
 11
77.1372904362
 21
69.0573908764
  0
LINE
  5
26C
100
AcDbEntity
  8
DRAFT
100
AcDbLine
 62
7
  6
CONTINUOUS
 10
77.1372904362
 20
111.5138452696
 11
77.1372904362
 21
112.3303155464
  0
LWPOLYLINE
  5
26D
100
AcDbEntity
  8
RACCORDO
100
AcDbPolyline
 62
253
  6
CONTINUOUS
 90
8
 70
0
 10
76.6544517977
 20
110.5163514329
 10
76.6530067494
 20
110.4956480697
 10
76.6493909756
 20
110.4768089267
 10
76.6436662236
 20
110.4601557236
 10
76.6359302562
 20
110.4459728507
 10
76.626315182
 20
110.4345025116
 10
76.6149851995
 20
110.4259405878
 10
76.610369233
 20
110.4235280688
  0
LWPOLYLINE
  5
26E
100
AcDbEntity
  8
RACCORDO
100
AcDbPolyline
 62
253
  6
CONTINUOUS
 90
9
 70
0
 10
106.6386443809
 20
125.5533516827
 10
106.6526522169
 20
125.5623342601
 10
106.6649571381
 20
125.5721130507
 10
106.6754243293
 20
125.5825809163
 10
106.6839391097
 20
125.5936231686
 10
106.6904081897
 20
125.6051188264
 10
106.6947606926
 20
125.616941941
 10
106.6969489315
 20
125.6289629758
 10
106.6972230246
 20
125.6350066014
  0
LINE
  5
26F
100
AcDbEntity
  8
RACCORDO
100
AcDbLine
 62
7
  6
CONTINUOUS
 10
106.4265123465
 20
124.3661214933
 11
105.9315375997
 21
124.080329278
  0
LINE
  5
270
100
AcDbEntity
  8
RACCORDO
100
AcDbLine
 62
7
  6
CONTINUOUS
 10
105.6511630302
 20
123.948683838
 11
101.0671201913
 21
121.3943050705
  0
LWPOLYLINE
  5
271
100
AcDbEntity
  8
RACCORDO
100
AcDbPolyline
 62
253
  6
CONTINUOUS
 90
10
 70
0
 10
111.0815446031
 20
122.3418157093
 10
111.1172141219
 20
122.3544852035
 10
111.1524674984
 20
122.3639886224
 10
111.1870761103
 20
122.3702387937
 10
111.2208549996
 20
122.3731548902
 10
111.2535470671
 20
122.3727184444
 10
111.2848265378
 20
122.3689795296
 10
111.3144861787
 20
122.3619632201
 10
111.3423488798
 20
122.3517122902
 10
111.3645088994
 20
122.3404968801
  0
LWPOLYLINE
  5
272
100
AcDbEntity
  8
RACCORDO
100
AcDbPolyline
 62
7
  6
CONTINUOUS
 90
9
 70
0
 10
73.5155503473
 20
112.124558578
 10
73.5273510893
 20
112.0684018874
 10
73.5439707429
 20
112.0156934752
 10
73.5653116837
 20
111.9668176708
 10
73.5912483581
 20
111.9220529758
 10
73.6216465812
 20
111.8816418068
 10
73.656175011
 20
111.8460578763
 10
73.6944421461
 20
111.8156749745
 10
73.7198841517
 20
111.7995573073
  0
LINE
  5
273
100
AcDbEntity
  8
RACCORDO
100
AcDbLine
 62
7
  6
CONTINUOUS
 10
79.5210993224
 20
112.6687663735
 11
79.5210993224
 21
111.8520725502
  0
LINE
  5
274
100
AcDbEntity
  8
RACCORDO
100
AcDbLine
 62
7
  6
CONTINUOUS
 10
79.5210993224
 20
71.0290058035
 11
79.5210993224
 21
70.2123119803
  0
LWPOLYLINE
  5
275
100
AcDbEntity
  8
RACCORDO
100
AcDbPolyline
 62
7
  6
CONTINUOUS
 90
9
 70
0
 10
88.8025467464
 20
61.2495640631
 10
88.8163207803
 20
61.2063017616
 10
88.8332890124
 20
61.1656228221
 10
88.8533927467
 20
61.12766981
 10
88.8763700727
 20
61.0928404274
 10
88.902075661
 20
61.06122629
 10
88.9302713772
 20
61.0330118827
 10
88.9602769933
 20
61.0086235197
 10
88.9931276805
 20
60.9871990208
  0
LWPOLYLINE
  5
276
100
AcDbEntity
  8
RACCORDO
100
AcDbPolyline
 62
7
  6
CONTINUOUS
 90
8
 70
0
 10
109.3932625934
 20
121.8517798968
 10
109.3906233485
 20
121.8497295486
 10
109.3879844694
 20
121.8456553805
 10
109.3850829131
 20
121.8396144912
 10
109.3822214646
 20
121.8318434604
 10
109.379439733
 20
121.8225028438
 10
109.3765123677
 20
121.8116871446
 10
109.3733569861
 20
121.7995356979
  0
LWPOLYLINE
  5
277
100
AcDbEntity
  8
RACCORDO
100
AcDbPolyline
 62
7
  6
CONTINUOUS
 90
10
 70
0
 10
117.0808852197
 20
119.6468437938
 10
117.1231085001
 20
119.6676150158
 10
117.1650185708
 20
119.6829521958
 10
117.2062329274
 20
119.6930512564
 10
117.2462007403
 20
119.6981475944
 10
117.2848304515
 20
119.6985920941
 10
117.3223403797
 20
119.6946113584
 10
117.3584795463
 20
119.6863433339
 10
117.3926681524
 20
119.6740624463
 10
117.4245475006
 20
119.6581012134
  0
LWPOLYLINE
  5
278
100
AcDbEntity
  8
RACCORDO
100
AcDbPolyline
 62
253
  6
CONTINUOUS
 90
7
 70
0
 10
111.2789073995
 20
116.4137917753
 10
111.2921260574
 20
116.4194539632
 10
111.3076866112
 20
116.4225417293
 10
111.3244204716
 20
116.4224904974
 10
111.3420413175
 20
116.4193011442
 10
111.3602476514
 20
116.4130282403
 10
111.3787279578
 20
116.4037791169
  0
LWPOLYLINE
  5
279
100
AcDbEntity
  8
RACCORDO
100
AcDbPolyline
 62
253
  6
CONTINUOUS
 90
7
 70
0
 10
111.2789073995
 20
115.3878119951
 10
111.2921260574
 20
115.393474183
 10
111.3076866112
 20
115.396561949
 10
111.3244204716
 20
115.3965107172
 10
111.3420413175
 20
115.3933213639
 10
111.3602476514
 20
115.38704846
 10
111.3787279578
 20
115.3777993367
  0
LWPOLYLINE
  5
27A
100
AcDbEntity
  8
RACCORDO
100
AcDbPolyline
 62
7
  6
CONTINUOUS
 90
32
 70
0
 10
110.5050917941
 20
116.0389561901
 10
110.2062799906
 20
115.9198973456
 10
109.8968301604
 20
115.8092081959
 10
109.5774664053
 20
115.7071819448
 10
109.2489008904
 20
115.6140977833
 10
108.9119641737
 20
115.5302183215
 10
108.5675606036
 20
115.4557949129
 10
108.2165420281
 20
115.391051084
 10
107.8597655094
 20
115.3361585919
 10
107.4981486293
 20
115.2912687238
 10
107.1325758273
 20
115.2565180247
 10
106.7639525245
 20
115.2319995089
 10
106.3932315802
 20
115.2177779058
 10
106.0213307767
 20
115.213906935
 10
105.649170382
 20
115.2203972559
 10
105.2777082281
 20
115.2372244401
 10
104.9078661623
 20
115.2643568472
 10
104.5405608297
 20
115.3017227849
 10
104.1767391315
 20
115.3492092505
 10
103.8173059645
 20
115.4066994943
 10
103.4631509719
 20
115.4740404217
 10
103.1151879507
 20
115.5510309348
 10
102.7742916741
 20
115.6374675468
 10
102.4412915057
 20
115.7331202574
 10
102.1170153237
 20
115.8377118434
 10
101.8022765842
 20
115.9509589306
 10
101.4978356145
 20
116.0725594783
 10
101.2044171265
 20
116.2021712418
 10
100.922764161
 20
116.3394318619
 10
100.6535414653
 20
116.483978048
 10
100.3973317422
 20
116.635429991
 10
100.1548327758
 20
116.7933252955
  0
LINE
  5
27B
100
AcDbEntity
  8
RACCORDO
100
AcDbLine
 62
7
  6
CONTINUOUS
 10
88.7808174234
 20
61.3935486373
 11
88.7847404307
 21
61.3433962251
  0
LWPOLYLINE
  5
27C
100
AcDbEntity
  8
RACCORDO
100
AcDbPolyline
 62
253
  6
CONTINUOUS
 90
12
 70
0
 10
88.9697818885
 20
103.9425658266
 10
88.9478253593
 20
103.8950477762
 10
88.9276646702
 20
103.8470208359
 10
88.9093963547
 20
103.7986856805
 10
88.8930978641
 20
103.7502483336
 10
88.8788275987
 20
103.701919277
 10
88.8666483721
 20
103.6539044379
 10
88.8566168378
 20
103.606405594
 10
88.8487686574
 20
103.5596254674
 10
88.8431363852
 20
103.5137632674
 10
88.8397486961
 20
103.4690136994
 10
88.8386207854
 20
103.4255674949
  0
LWPOLYLINE
  5
27D
100
AcDbEntity
  8
RACCORDO
100
AcDbPolyline
 62
7
  6
CONTINUOUS
 90
11
 70
0
 10
88.9154110035
 20
104.0227771447
 10
88.898044163
 20
103.9875960702
 10
88.8741114289
 20
103.9343330036
 10
88.8525407798
 20
103.8800570399
 10
88.833487358
 20
103.8250561347
 10
88.8171166865
 20
103.7696748998
 10
88.8035577159
 20
103.7141315508
 10
88.7929366161
 20
103.6586647978
 10
88.7854014315
 20
103.6035764364
 10
88.7810925255
 20
103.5490822612
 10
88.7800512429
 20
103.5070850899
  0
LINE
  5
27E
100
AcDbEntity
  8
RACCORDO
100
AcDbLine
 62
253
  6
CONTINUOUS
 10
88.993434513
 20
103.9893747
 11
88.9697818885
 21
103.9425658266
  0
LINE
  5
27F
100
AcDbEntity
  8
RACCORDO
100
AcDbLine
 62
7
  6
CONTINUOUS
 10
89.3885857865
 20
104.94712717
 11
88.9154051655
 21
104.0227819109
  0
LINE
  5
280
100
AcDbEntity
  8
RACCORDO
100
AcDbLine
 62
253
  6
CONTINUOUS
 10
89.422963343
 20
104.8284473923
 11
88.993434513
 21
103.9893747
  0
LINE
  5
281
100
AcDbEntity
  8
RACCORDO
100
AcDbLine
 62
7
  6
CONTINUOUS
 10
89.461005588
 20
105.0232038735
 11
89.6123721235
 21
105.1273597296
  0
LINE
  5
282
100
AcDbEntity
  8
DRAFT
100
AcDbLine
 62
7
  6
CONTINUOUS
 10
90.2575527223
 20
104.7548405379
 11
91.6126252806
 21
105.6872708276
  0
LINE
  5
283
100
AcDbEntity
  8
RACCORDO
100
AcDbLine
 62
7
  6
CONTINUOUS
 10
111.2789073995
 20
116.4137917753
 11
117.0808852197
 21
119.6468437938
  0
LINE
  5
284
100
AcDbEntity
  8
RACCORDO
100
AcDbLine
 62
253
  6
CONTINUOUS
 10
111.3787279578
 20
116.4037791169
 11
117.180705778
 21
119.6368311354
  0
LINE
  5
285
100
AcDbEntity
  8
RACCORDO
100
AcDbLine
 62
7
  6
CONTINUOUS
 10
111.2789073995
 20
115.3878119951
 11
118.8486521727
 21
119.6059216427
  0
LINE
  5
286
100
AcDbEntity
  8
RACCORDO
100
AcDbLine
 62
253
  6
CONTINUOUS
 10
111.3787279578
 20
115.3777993367
 11
118.948472731
 21
119.5959089843
  0
LINE
  5
287
100
AcDbEntity
  8
RACCORDO
100
AcDbLine
 62
253
  6
CONTINUOUS
 10
111.2609133034
 20
115.3129045591
 11
111.3787279578
 21
115.3777993367
  0
LWPOLYLINE
  5
288
100
AcDbEntity
  8
RACCORDO
100
AcDbPolyline
 62
7
  6
CONTINUOUS
 90
52
 70
0
 10
111.2789012407
 20
115.3878086637
 10
110.9974979172
 20
115.2371219582
 10
110.6493595574
 20
115.0663169109
 10
110.2868818198
 20
114.9047993082
 10
109.9108387172
 20
114.7529531167
 10
109.522059733
 20
114.6111488278
 10
109.121414376
 20
114.4797343611
 10
108.709781378
 20
114.3590234924
 10
108.2880648001
 20
114.2493035391
 10
107.8572041791
 20
114.1508407285
 10
107.418148924
 20
114.0638668991
 10
106.9718687877
 20
113.9885909562
 10
106.519359679
 20
113.925192316
 10
106.061614479
 20
113.8738204814
 10
105.5996420486
 20
113.8345990246
 10
105.1344738037
 20
113.8076213252
 10
104.6671304968
 20
113.7929537468
 10
104.1986384509
 20
113.7906324918
 10
103.7300411203
 20
113.8006666265
 10
103.2623695578
 20
113.8230361267
 10
102.7966547155
 20
113.8576937449
 10
102.3339415965
 20
113.9045572137
 10
101.8752531761
 20
113.9635281756
 10
101.4216042094
 20
114.0344626278
 10
100.9740276119
 20
114.1171986271
 10
100.5335071659
 20
114.2115474913
 10
100.1010191109
 20
114.3172778424
 10
99.6775767324
 20
114.4341381842
 10
99.264110679
 20
114.5618507798
 10
98.8615253084
 20
114.7001001586
 10
98.4707744776
 20
114.8485429085
 10
98.0927524131
 20
115.0068024458
 10
97.7282191336
 20
115.1745026219
 10
97.3779146072
 20
115.3512760052
 10
97.0427457676
 20
115.5366176521
 10
96.7232602727
 20
115.7301508991
 10
96.4197245365
 20
115.931716153
 10
96.1327234533
 20
116.140967769
 10
95.8630825683
 20
116.3573177261
 10
95.6114888469
 20
116.5802441654
 10
95.3785361919
 20
116.8092348262
 10
95.1647674979
 20
117.0437255113
 10
94.9707539762
 20
117.2830842261
 10
94.7969437472
 20
117.5267183823
 10
94.643669201
 20
117.7740591912
 10
94.5112667231
 20
118.0245049588
 10
94.3999879575
 20
118.2774612131
 10
94.3099935732
 20
118.5323836029
 10
94.241418088
 20
118.7887827394
 10
94.194345476
 20
119.0460967259
 10
94.1688187401
 20
119.3038622001
 10
94.1637725183
 20
119.4786520928
  0
LWPOLYLINE
  5
289
100
AcDbEntity
  8
RACCORDO
100
AcDbPolyline
 62
7
  6
CONTINUOUS
 90
4
 70
0
 10
111.2788980284
 20
116.4137885497
 10
111.0678664388
 20
116.300797959
 10
110.7925334953
 20
116.16605885
 10
110.5050917941
 20
116.0389561901
  0
LINE
  5
28A
100
AcDbEntity
  8
RACCORDO
100
AcDbLine
 62
253
  6
CONTINUOUS
 10
111.0977965787
 20
116.2552024973
 11
111.3787279578
 21
116.4037791169
  0
LWPOLYLINE
  5
28B
100
AcDbEntity
  8
RACCORDO
100
AcDbPolyline
 62
253
  6
CONTINUOUS
 90
9
 70
0
 10
117.0808852197
 20
119.6468437938
 10
117.0854424526
 20
119.6491663622
 10
117.0971090328
 20
119.6533728918
 10
117.1096644768
 20
119.6555937521
 10
117.1229712228
 20
119.6558046117
 10
117.136883464
 20
119.6540031648
 10
117.1512487682
 20
119.6502091573
 10
117.1659097494
 20
119.6444641643
 10
117.1807057787
 20
119.6368311358
  0
LWPOLYLINE
  5
28C
100
AcDbEntity
  8
RACCORDO
100
AcDbPolyline
 62
253
  6
CONTINUOUS
 90
9
 70
0
 10
118.8486521727
 20
119.6059216427
 10
118.853209411
 20
119.6082442135
 10
118.8648759788
 20
119.6124507388
 10
118.8774314095
 20
119.614671599
 10
118.8907381424
 20
119.6148824624
 10
118.9046503778
 20
119.6130810213
 10
118.9190156866
 20
119.6092870178
 10
118.9336766814
 20
119.6035420234
 10
118.948472733
 20
119.5959089854
  0
LWPOLYLINE
  5
28D
100
AcDbEntity
  8
RACCORDO
100
AcDbPolyline
 62
253
  6
CONTINUOUS
 90
10
 70
0
 10
117.180705778
 20
119.6368311354
 10
117.2111508587
 20
119.6522767501
 10
117.2413234282
 20
119.6645430583
 10
117.2709989263
 20
119.6735387678
 10
117.2999564925
 20
119.6791969277
 10
117.3279806094
 20
119.681475427
 10
117.3548627071
 20
119.6803573081
 10
117.380402715
 20
119.6758508924
 10
117.4044105509
 20
119.667989719
 10
117.4245475006
 20
119.6581012134
  0
LWPOLYLINE
  5
28E
100
AcDbEntity
  8
RACCORDO
100
AcDbPolyline
 62
253
  6
CONTINUOUS
 90
10
 70
0
 10
118.948472731
 20
119.5959089843
 10
118.978917812
 20
119.6113545991
 10
119.0090903818
 20
119.6236209074
 10
119.0387658803
 20
119.6326166168
 10
119.067723447
 20
119.6382747767
 10
119.0957475646
 20
119.6405532759
 10
119.1226296623
 20
119.6394351567
 10
119.1481696693
 20
119.6349287409
 10
119.172177504
 20
119.6270675678
 10
119.1923144536
 20
119.6171790622
  0
LWPOLYLINE
  5
28F
100
AcDbEntity
  8
RACCORDO
100
AcDbPolyline
 62
7
  6
CONTINUOUS
 90
3
 70
0
 10
88.7847404307
 20
61.3433962251
 10
88.7919931502
 20
61.2953508037
 10
88.8025467464
 20
61.2495640631
  0
LINE
  5
290
100
AcDbEntity
  8
RACCORDO
100
AcDbLine
 62
253
  6
CONTINUOUS
 10
88.7802324973
 20
61.5083962941
 11
88.7800424205
 21
61.5132404803
  0
LINE
  5
291
100
AcDbEntity
  8
RACCORDO
100
AcDbLine
 62
253
  6
CONTINUOUS
 10
88.7802324973
 20
103.5021853561
 11
88.780042283
 21
103.5070850807
  0
LWPOLYLINE
  5
292
100
AcDbEntity
  8
RACCORDO
100
AcDbPolyline
 62
7
  6
CONTINUOUS
 90
3
 70
0
 10
88.7800521073
 20
103.4224791964
 10
88.7821186252
 20
103.3652370566
 10
88.7890568209
 20
103.3058273622
  0
LWPOLYLINE
  5
293
100
AcDbEntity
  8
RACCORDO
100
AcDbPolyline
 62
253
  6
CONTINUOUS
 90
11
 70
0
 10
88.8386207854
 20
103.3407170074
 10
88.8400578729
 20
103.293461429
 10
88.8443756594
 20
103.2483556758
 10
88.8515496748
 20
103.2056472918
 10
88.8615337198
 20
103.1655750672
 10
88.8742751299
 20
103.1283567981
 10
88.8897157063
 20
103.0941886808
 10
88.9077637283
 20
103.0632634177
 10
88.9283177017
 20
103.0357538948
 10
88.951282748
 20
103.0118021393
 10
88.9765236251
 20
102.9915473796
  0
LWPOLYLINE
  5
294
100
AcDbEntity
  8
RACCORDO
100
AcDbPolyline
 62
253
  6
CONTINUOUS
 90
13
 70
0
 10
88.8386207854
 20
61.3469279454
 10
88.8397486704
 20
61.3049740621
 10
88.8431363361
 20
61.2646851553
 10
88.8487685926
 20
61.2262344122
 10
88.8566167792
 20
61.189790221
 10
88.8666483395
 20
61.1555074115
 10
88.8788275831
 20
61.123527146
 10
88.893097831
 20
61.0939901164
 10
88.9093962825
 20
61.0670253642
 10
88.9276645689
 20
61.0427425299
 10
88.9478252606
 20
61.0212470786
 10
88.9697818212
 20
61.0026393563
 10
88.9934164618
 20
60.987014901
  0
LINE
  5
295
100
AcDbEntity
  8
RACCORDO
100
AcDbLine
 62
7
  6
CONTINUOUS
 10
88.7800516139
 20
61.4286649709
 11
88.7808174234
 21
61.3935486373
  0
LINE
  5
296
100
AcDbEntity
  8
RACCORDO
100
AcDbLine
 62
7
  6
CONTINUOUS
 10
88.7800421416
 20
103.5072224136
 11
88.7800421416
 21
103.4223719267
  0
LINE
  5
297
100
AcDbEntity
  8
RACCORDO
100
AcDbLine
 62
7
  6
CONTINUOUS
 10
88.7800421416
 20
61.5134333516
 11
88.7800421416
 21
61.4285828738
  0
LINE
  5
298
100
AcDbEntity
  8
RACCORDO
100
AcDbLine
 62
253
  6
CONTINUOUS
 10
88.8386207854
 20
103.4255674949
 11
88.8386207854
 21
103.3407170074
  0
LINE
  5
299
100
AcDbEntity
  8
RACCORDO
100
AcDbLine
 62
253
  6
CONTINUOUS
 10
88.8386207854
 20
61.4317784329
 11
88.8386207854
 21
61.3469279454
  0
LWPOLYLINE
  5
29A
100
AcDbEntity
  8
RACCORDO
100
AcDbPolyline
 62
253
  6
CONTINUOUS
 90
13
 70
0
 10
91.3812063828
 20
102.6107051482
 10
91.3550300236
 20
102.567273139
 10
91.3303506166
 20
102.5223549907
 10
91.3073427991
 20
102.4761108235
 10
91.2860621818
 20
102.4284546043
 10
91.2668305148
 20
102.3798486035
 10
91.2501084289
 20
102.3313085508
 10
91.2359802962
 20
102.2831318994
 10
91.2244447
 20
102.2354578629
 10
91.2156184112
 20
102.1890427267
 10
91.2094520765
 20
102.1442345578
 10
91.2058258241
 20
102.100995365
 10
91.2046492606
 20
102.0594523066
  0
LWPOLYLINE
  5
29B
100
AcDbEntity
  8
RACCORDO
100
AcDbPolyline
 62
253
  6
CONTINUOUS
 90
13
 70
0
 10
91.6097639048
 20
102.4645166689
 10
91.5896321991
 20
102.4322194775
 10
91.5708621788
 20
102.3989441454
 10
91.5534538439
 20
102.3646906727
 10
91.5372081987
 20
102.3290594388
 10
91.5223242388
 20
102.2924500643
 10
91.5093989512
 20
102.2560614107
 10
91.4986144861
 20
102.2200010993
 10
91.4897886933
 20
102.1841615088
 10
91.4829721085
 20
102.1494186372
 10
91.4781815772
 20
102.1160644837
 10
91.4754002539
 20
102.083807049
 10
91.4746281388
 20
102.0526463331
  0
LINE
  5
29C
100
AcDbEntity
  8
RACCORDO
100
AcDbLine
 62
253
  6
CONTINUOUS
 10
91.8930989091
 20
103.4022220745
 11
91.3812063828
 21
102.6107051482
  0
LINE
  5
29D
100
AcDbEntity
  8
RACCORDO
100
AcDbLine
 62
253
  6
CONTINUOUS
 10
92.2304052974
 20
103.42418719
 11
91.6097639048
 21
102.4645166689
  0
LINE
  5
29E
100
AcDbEntity
  8
RACCORDO
100
AcDbLine
 62
7
  6
CONTINUOUS
 10
112.1693076689
 20
120.4787190176
 11
112.5316543321
 21
120.8410890262
  0
LINE
  5
29F
100
AcDbEntity
  8
RACCORDO
100
AcDbLine
 62
253
  6
CONTINUOUS
 10
112.3904225227
 20
121.5860860026
 11
111.4041999422
 21
120.6269524275
  0
LINE
  5
2A0
100
AcDbEntity
  8
RACCORDO
100
AcDbLine
 62
253
  6
CONTINUOUS
 10
112.5611594604
 20
121.3636529962
 11
111.6966696968
 21
120.5229085497
  0
LINE
  5
2A1
100
AcDbEntity
  8
DRAFT
100
AcDbLine
 62
7
  6
CONTINUOUS
 10
112.0132631294
 20
120.3401114696
 11
112.1693076689
 21
120.4918698657
  0
LINE
  5
2A2
100
AcDbEntity
  8
RACCORDO
100
AcDbLine
 62
253
  6
CONTINUOUS
 10
95.466411086
 20
103.4621432028
 11
121.1787486366
 21
118.3081756283
  0
LINE
  5
2A3
100
AcDbEntity
  8
RACCORDO
100
AcDbLine
 62
253
  6
CONTINUOUS
 10
95.8199106287
 20
102.8498640351
 11
121.5322481793
 21
117.6958964605
  0
LINE
  5
2A4
100
AcDbEntity
  8
RACCORDO
100
AcDbLine
 62
7
  6
CONTINUOUS
 10
92.2304052974
 20
103.42418719
 11
92.4107969098
 21
103.5115843305
  0
LINE
  5
2A5
100
AcDbEntity
  8
DRAFT
100
AcDbLine
 62
7
  6
CONTINUOUS
 10
92.4107969098
 20
102.6951140537
 11
94.794605796
 21
103.8500351576
  0
LINE
  5
2A6
100
AcDbEntity
  8
RACCORDO
100
AcDbLine
 62
253
  6
CONTINUOUS
 10
91.9279582713
 20
101.697620217
 11
94.794605796
 21
103.0333413343
  0
LINE
  5
2A7
100
AcDbEntity
  8
RACCORDO
100
AcDbLine
 62
7
  6
CONTINUOUS
 10
91.8838714882
 20
101.6047948872
 11
94.747975265
 21
102.9393307392
  0
LWPOLYLINE
  5
2A8
100
AcDbEntity
  8
RACCORDO
100
AcDbPolyline
 62
253
  6
CONTINUOUS
 90
13
 70
0
 10
91.4746281388
 20
102.0526463331
 10
91.4547543493
 20
102.0441682778
 10
91.4332215788
 20
102.0371699276
 10
91.4103585099
 20
102.0317581075
 10
91.3865141313
 20
102.0280154251
 10
91.3620524108
 20
102.0259990098
 10
91.3373467394
 20
102.0257396408
 10
91.3127742318
 20
102.0272412773
 10
91.2887099703
 20
102.0304809977
 10
91.2655212789
 20
102.03540935
 10
91.2435621167
 20
102.0419511063
 10
91.223167675
 20
102.0500064114
 10
91.2046492606
 20
102.0594523066
  0
LWPOLYLINE
  5
2A9
100
AcDbEntity
  8
RACCORDO
100
AcDbPolyline
 62
253
  6
CONTINUOUS
 90
13
 70
0
 10
91.4746281388
 20
101.9677958456
 10
91.4547552953
 20
101.9593181437
 10
91.4332234026
 20
101.9523199497
 10
91.4103610649
 20
101.9469081206
 10
91.3865171974
 20
101.9431653031
 10
91.362055736
 20
101.9411486765
 10
91.3373500847
 20
101.9408890696
 10
91.3127773474
 20
101.9423904871
 10
91.288712632
 20
101.9456300516
 10
91.2655233526
 20
101.9505583376
 10
91.2435635265
 20
101.9571001351
 10
91.2231683745
 20
101.9651556116
 10
91.2046492607
 20
101.9746018214
  0
LWPOLYLINE
  5
2AA
100
AcDbEntity
  8
RACCORDO
100
AcDbPolyline
 62
253
  6
CONTINUOUS
 90
4
 70
0
 10
73.5234733721
 20
112.2794454512
 10
73.5149377655
 20
112.292834311
 10
73.5093267667
 20
112.306728714
 10
73.5067260236
 20
112.3209165719
  0
LWPOLYLINE
  5
2AB
100
AcDbEntity
  8
RACCORDO
100
AcDbPolyline
 62
253
  6
CONTINUOUS
 90
13
 70
0
 10
91.9279582713
 20
60.7682967519
 10
91.9265133867
 20
60.7901727973
 10
91.9228979879
 20
60.8131860723
 10
91.9171737305
 20
60.836943649
 10
91.9094382834
 20
60.8610398714
 10
91.8998236686
 20
60.8850632635
 10
91.8884940151
 20
60.9086035562
 10
91.8756427276
 20
60.9312587527
 10
91.8614892394
 20
60.9526418891
 10
91.8462752935
 20
60.9723876488
 10
91.830260722
 20
60.9901587457
 10
91.8137189921
 20
61.0056516639
 10
91.796932606
 20
61.0186017539
  0
LWPOLYLINE
  5
2AC
100
AcDbEntity
  8
RACCORDO
100
AcDbPolyline
 62
253
  6
CONTINUOUS
 90
18
 70
0
 10
91.4746281388
 20
101.9677958456
 10
91.4758998561
 20
101.9321678548
 10
91.4796275099
 20
101.898238556
 10
91.4858111004
 20
101.8660079492
 10
91.4945081463
 20
101.8352964109
 10
91.5056611288
 20
101.8062835645
 10
91.5190974914
 20
101.7795082808
 10
91.5348578217
 20
101.7550245069
 10
91.5529015322
 20
101.7327782956
 10
91.5729343036
 20
101.7131466763
 10
91.5949905421
 20
101.6961761066
 10
91.6190358415
 20
101.6818201288
 10
91.6446726642
 20
101.6703164
 10
91.6719253887
 20
101.6617141289
 10
91.7007696365
 20
101.6559641066
 10
91.7307347341
 20
101.6531563636
 10
91.7618550329
 20
101.6533452658
 10
91.7940961816
 20
101.6564764472
  0
LWPOLYLINE
  5
2AD
100
AcDbEntity
  8
RACCORDO
100
AcDbPolyline
 62
253
  6
CONTINUOUS
 90
12
 70
0
 10
91.2046492606
 20
101.9746018191
 10
91.2062977284
 20
101.927224095
 10
91.2112207822
 20
101.8817687956
 10
91.2193939499
 20
101.838483465
 10
91.2307806015
 20
101.7976013794
 10
91.245318497
 20
101.7593458461
 10
91.2629207285
 20
101.7239296089
 10
91.2835014866
 20
101.6915419555
 10
91.3069533849
 20
101.6623592131
 10
91.3331351279
 20
101.636550236
 10
91.361916725
 20
101.6142512158
 10
91.3810767894
 20
101.6021988459
  0
LWPOLYLINE
  5
2AE
100
AcDbEntity
  8
RACCORDO
100
AcDbPolyline
 62
253
  6
CONTINUOUS
 90
13
 70
0
 10
91.2046492606
 20
59.9808127571
 10
91.2057760036
 20
59.9412616163
 10
91.2092861181
 20
59.9022274367
 10
91.2153014299
 20
59.8639558241
 10
91.2239860879
 20
59.8265141554
 10
91.2354173603
 20
59.7903903744
 10
91.249457664
 20
59.7563758962
 10
91.2660719796
 20
59.7246590864
 10
91.2852105926
 20
59.6953913637
 10
91.3064903915
 20
59.6690822688
 10
91.329638554
 20
59.6458645813
 10
91.3545966298
 20
59.6256179013
 10
91.3811860896
 20
59.6083466437
  0
LWPOLYLINE
  5
2AF
100
AcDbEntity
  8
RACCORDO
100
AcDbPolyline
 62
253
  6
CONTINUOUS
 90
13
 70
0
 10
91.4746281388
 20
59.9740067836
 10
91.4753052191
 20
59.9442174663
 10
91.477999484
 20
59.9150921374
 10
91.4827109334
 20
59.8866307969
 10
91.4894608007
 20
59.8584893083
 10
91.4982278525
 20
59.8310118082
 10
91.5089483888
 20
59.8052307055
 10
91.5217642681
 20
59.7813106605
 10
91.536533632
 20
59.759087013
 10
91.5527672052
 20
59.7390981919
 10
91.5703018958
 20
59.7215236735
 10
91.5893007957
 20
59.7061839816
 10
91.6097639048
 20
59.6930791161
  0
LINE
  5
2B0
100
AcDbEntity
  8
RACCORDO
100
AcDbLine
 62
253
  6
CONTINUOUS
 10
91.2046492606
 20
102.0594523066
 11
91.2046492606
 21
101.9746018191
  0
LINE
  5
2B1
100
AcDbEntity
  8
RACCORDO
100
AcDbLine
 62
253
  6
CONTINUOUS
 10
91.2046492606
 20
60.0656632446
 11
91.2046492606
 21
59.9808127571
  0
LINE
  5
2B2
100
AcDbEntity
  8
RACCORDO
100
AcDbLine
 62
253
  6
CONTINUOUS
 10
91.4746281388
 20
102.0526463331
 11
91.4746281388
 21
101.9677958456
  0
LINE
  5
2B3
100
AcDbEntity
  8
RACCORDO
100
AcDbLine
 62
253
  6
CONTINUOUS
 10
91.4746281388
 20
60.0588572712
 11
91.4746281388
 21
59.9740067836
  0
LWPOLYLINE
  5
2B4
100
AcDbEntity
  8
RACCORDO
100
AcDbPolyline
 62
253
  6
CONTINUOUS
 90
8
 70
0
 10
91.9279582713
 20
101.697620217
 10
91.926513223
 20
101.6769168538
 10
91.9228974492
 20
101.6580777108
 10
91.9171726973
 20
101.6414245077
 10
91.9094367298
 20
101.6272416348
 10
91.8998216556
 20
101.6157712957
 10
91.8884916731
 20
101.6072093719
 10
91.8838757066
 20
101.604796853
  0
LWPOLYLINE
  5
2B5
100
AcDbEntity
  8
RACCORDO
100
AcDbPolyline
 62
253
  6
CONTINUOUS
 90
5
 70
0
 10
112.7137406784
 20
121.2713402674
 10
112.7264047549
 20
121.2864435588
 10
112.7351441915
 20
121.3024472335
 10
112.7397743524
 20
121.3190133812
 10
112.7405354984
 20
121.3289640879
  0
LINE
  5
2B6
100
AcDbEntity
  8
RACCORDO
100
AcDbLine
 62
253
  6
CONTINUOUS
 10
94.9713824913
 20
78.503392276
 11
94.9523512884
 21
78.5771317194
  0
LINE
  5
2B7
100
AcDbEntity
  8
RACCORDO
100
AcDbLine
 62
253
  6
CONTINUOUS
 10
94.9523512884
 20
78.5771317194
 11
94.923898182
 21
78.7095478248
  0
LWPOLYLINE
  5
2B8
100
AcDbEntity
  8
RACCORDO
100
AcDbPolyline
 62
7
  6
CONTINUOUS
 90
9
 70
0
 10
88.7890568209
 20
103.3058273622
 10
88.8008575629
 20
103.2496706716
 10
88.8174772165
 20
103.1969622593
 10
88.8388181573
 20
103.1480864549
 10
88.8647548317
 20
103.1033217599
 10
88.8951530548
 20
103.0629105909
 10
88.9296814846
 20
103.0273266604
 10
88.9679486197
 20
102.9969437586
 10
88.9933906253
 20
102.9808260914
  0
LINE
  5
2B9
100
AcDbEntity
  8
DRAFT
100
AcDbLine
 62
7
  6
CONTINUOUS
 10
92.4107969098
 20
103.5115843305
 11
92.4107969098
 21
102.6951140537
  0
LINE
  5
2BA
100
AcDbEntity
  8
DRAFT
100
AcDbLine
 62
7
  6
CONTINUOUS
 10
92.4107969098
 20
60.2386596605
 11
92.4107969098
 21
59.4221893837
  0
LINE
  5
2BB
100
AcDbEntity
  8
RACCORDO
100
AcDbLine
 62
7
  6
CONTINUOUS
 10
94.794605796
 20
103.8500351576
 11
94.794605796
 21
103.0333413343
  0
LINE
  5
2BC
100
AcDbEntity
  8
RACCORDO
100
AcDbLine
 62
7
  6
CONTINUOUS
 10
94.794605796
 20
62.2102745876
 11
94.794605796
 21
61.3935807644
  0
LINE
  5
2BD
100
AcDbEntity
  8
RACCORDO
100
AcDbLine
 62
7
  6
CONTINUOUS
 10
94.8653469625
 20
78.6624516259
 11
94.8653469625
 21
79.3175650027
  0
LINE
  5
2BE
100
AcDbEntity
  8
RACCORDO
100
AcDbLine
 62
7
  6
CONTINUOUS
 10
94.8653469627
 20
117.9436019264
 11
94.8653469627
 21
118.5987175876
  0
LINE
  5
2BF
100
AcDbEntity
  8
RACCORDO
100
AcDbLine
 62
7
  6
CONTINUOUS
 10
94.9713824913
 20
62.4345456331
 11
94.9713824913
 21
102.6049329922
  0
LINE
  5
2C0
100
AcDbEntity
  8
RACCORDO
100
AcDbLine
 62
7
  6
CONTINUOUS
 10
94.1637771407
 20
119.4867554356
 11
94.1637710795
 21
119.4786243946
  0
LWPOLYLINE
  5
2C1
100
AcDbEntity
  8
RACCORDO
100
AcDbPolyline
 62
253
  6
CONTINUOUS
 90
4
 70
0
 10
88.7969798458
 20
103.4607142353
 10
88.7884442391
 20
103.4741030952
 10
88.7828332403
 20
103.4879974982
 10
88.7802324973
 20
103.5021853561
  0
LWPOLYLINE
  5
2C2
100
AcDbEntity
  8
RACCORDO
100
AcDbPolyline
 62
253
  6
CONTINUOUS
 90
6
 70
0
 10
94.923898182
 20
78.7095478248
 10
94.901076527
 20
78.8421992679
 10
94.8838458018
 20
78.9752768951
 10
94.8722202375
 20
79.1088009438
 10
94.8662323142
 20
79.2425914848
 10
94.8653469627
 20
79.3174989088
  0
LINE
  5
2C3
100
AcDbEntity
  8
RACCORDO
100
AcDbLine
 62
253
  6
CONTINUOUS
 10
94.8834401994
 20
117.6161611082
 11
94.871948706
 21
117.7458068319
  0
LINE
  5
2C4
100
AcDbEntity
  8
RACCORDO
100
AcDbLine
 62
253
  6
CONTINUOUS
 10
94.871948706
 20
117.7458068319
 11
94.8661278269
 21
117.8756018372
  0
LWPOLYLINE
  5
2C5
100
AcDbEntity
  8
RACCORDO
100
AcDbPolyline
 62
7
  6
CONTINUOUS
 90
4
 70
0
 10
94.8653496515
 20
117.9476268955
 10
94.8669500105
 20
117.8440031696
 10
94.8848576714
 20
117.596044881
 10
94.9222474132
 20
117.3510770917
  0
LINE
  5
2C6
100
AcDbEntity
  8
RACCORDO
100
AcDbLine
 62
7
  6
CONTINUOUS
 10
95.8199106287
 20
102.8498640351
 11
95.8199106287
 21
61.2097555663
  0
LINE
  5
2C7
100
AcDbEntity
  8
RACCORDO
100
AcDbLine
 62
253
  6
CONTINUOUS
 10
97.0927028348
 20
122.6438064596
 11
97.0927098168
 21
123.4602557527
  0
LWPOLYLINE
  5
2C8
100
AcDbEntity
  8
RACCORDO
100
AcDbPolyline
 62
253
  6
CONTINUOUS
 90
4
 70
0
 10
94.1892358574
 20
78.3109767625
 10
94.1909637044
 20
78.3279013329
 10
94.2143594873
 20
78.4854199916
 10
94.2440694027
 20
78.6385879678
  0
LINE
  5
2C9
100
AcDbEntity
  8
RACCORDO
100
AcDbLine
 62
7
  6
CONTINUOUS
 10
94.1903899305
 20
78.2995938051
 11
94.2183421768
 21
78.4963310854
  0
LWPOLYLINE
  5
2CA
100
AcDbEntity
  8
RACCORDO
100
AcDbPolyline
 62
7
  6
CONTINUOUS
 90
8
 70
0
 10
94.2183421768
 20
78.4963310854
 10
94.2759521797
 20
78.7565764355
 10
94.353991038
 20
79.0154906713
 10
94.4523477843
 20
79.2725950249
 10
94.5708616443
 20
79.5273691174
 10
94.7093147464
 20
79.7792676296
 10
94.8674440118
 20
80.027741614
 10
94.9713824913
 20
80.1709259456
  0
LWPOLYLINE
  5
2CB
100
AcDbEntity
  8
RACCORDO
100
AcDbPolyline
 62
253
  6
CONTINUOUS
 90
12
 70
0
 10
94.2440694027
 20
78.6385879678
 10
94.27953997
 20
78.7873445524
 10
94.3211859674
 20
78.9347617605
 10
94.3690496267
 20
79.0812560866
 10
94.4228624332
 20
79.2262438475
 10
94.4831877122
 20
79.3712425248
 10
94.5503396159
 20
79.5166633112
 10
94.624170381
 20
79.6618743446
 10
94.7047550755
 20
79.8067977985
 10
94.7925052359
 20
79.9518898064
 10
94.8871597042
 20
80.0964514829
 10
94.9713824913
 20
80.215793402
  0
LWPOLYLINE
  5
2CC
100
AcDbEntity
  8
RACCORDO
100
AcDbPolyline
 62
253
  6
CONTINUOUS
 90
13
 70
0
 10
76.3362574312
 20
68.511810332
 10
76.3216796706
 20
68.4914276551
 10
76.3053016079
 20
68.4727641546
 10
76.2873819333
 20
68.456114619
 10
76.2682036869
 20
68.4417420268
 10
76.2480697877
 20
68.4298733919
 10
76.2272982491
 20
68.4206961786
 10
76.2062171561
 20
68.4143553402
 10
76.1851594831
 20
68.41095103
 10
76.1644578343
 20
68.4105370189
 10
76.1444391907
 20
68.4131198463
 10
76.1254197454
 20
68.4186587165
 10
76.1077084078
 20
68.427061237
  0
LWPOLYLINE
  5
2CD
100
AcDbEntity
  8
RACCORDO
100
AcDbPolyline
 62
253
  6
CONTINUOUS
 90
19
 70
0
 10
73.9682297585
 20
71.1504659852
 10
73.9305807111
 20
71.1124734712
 10
73.8938427533
 20
71.0716587747
 10
73.8581918837
 20
71.0282656123
 10
73.8238354903
 20
70.9825262747
 10
73.7909752937
 20
70.9346833619
 10
73.7597667612
 20
70.8850163337
 10
73.730389888
 20
70.8337932362
 10
73.7030171514
 20
70.7812865972
 10
73.6777762744
 20
70.7277958072
 10
73.6548112281
 20
70.6736103499
 10
73.6342572546
 20
70.6190195035
 10
73.6162092327
 20
70.5643283337
 10
73.6007686563
 20
70.5098336761
 10
73.5880272461
 20
70.455827403
 10
73.5780432011
 20
70.4026061511
 10
73.5708691858
 20
70.3504596103
 10
73.5665513992
 20
70.2996688423
 10
73.5651143117
 20
70.2505096488
  0
LINE
  5
2CE
100
AcDbEntity
  8
RACCORDO
100
AcDbLine
 62
253
  6
CONTINUOUS
 10
94.9005687967
 20
117.4868452169
 11
94.8834401994
 21
117.6161611082
  0
LINE
  5
2CF
100
AcDbEntity
  8
RACCORDO
100
AcDbLine
 62
253
  6
CONTINUOUS
 10
99.1136341479
 20
118.0384547007
 11
99.1048653815
 21
118.2107418618
  0
LWPOLYLINE
  5
2D0
100
AcDbEntity
  8
RACCORDO
100
AcDbPolyline
 62
253
  6
CONTINUOUS
 90
13
 70
0
 10
97.0927028348
 20
123.4602518622
 10
97.0918151133
 20
123.4824473408
 10
97.0885228233
 20
123.5056601871
 10
97.0828822965
 20
123.5294932232
 10
97.0749900439
 20
123.5535386591
 10
97.0649811036
 20
123.577385071
 10
97.0530267311
 20
123.600624441
 10
97.0393314685
 20
123.6228591368
 10
97.0241296453
 20
123.6437087165
 10
97.0076813685
 20
123.662816438
 10
96.9902680724
 20
123.6798553624
 10
96.9721877034
 20
123.6945339483
 10
96.9537496216
 20
123.7066010405
  0
LWPOLYLINE
  5
2D1
100
AcDbEntity
  8
RACCORDO
100
AcDbPolyline
 62
7
  6
CONTINUOUS
 90
6
 70
0
 10
99.1047385098
 20
118.2350115134
 10
99.1051421392
 20
118.1913007359
 10
99.114499955
 20
118.022871204
 10
99.1363023197
 20
117.8542638235
 10
99.1705875305
 20
117.6858977188
 10
99.1814403504
 20
117.6469872068
  0
LINE
  5
2D2
100
AcDbEntity
  8
RACCORDO
100
AcDbLine
 62
7
  6
CONTINUOUS
 10
98.4315375998
 20
119.4604127834
 11
98.4315381062
 21
119.4588272456
  0
LINE
  5
2D3
100
AcDbEntity
  8
RACCORDO
100
AcDbLine
 62
7
  6
CONTINUOUS
 10
99.1047356251
 20
118.2343856897
 11
99.1047356251
 21
118.7262301081
  0
LINE
  5
2D4
100
AcDbEntity
  8
RACCORDO
100
AcDbLine
 62
253
  6
CONTINUOUS
 10
100.6283581581
 20
122.4449263335
 11
100.6282367408
 21
121.7915829573
  0
LWPOLYLINE
  5
2D5
100
AcDbEntity
  8
RACCORDO
100
AcDbPolyline
 62
7
  6
CONTINUOUS
 90
5
 70
0
 10
94.9713824913
 20
80.1462722324
 10
94.9556433933
 20
80.0890462005
 10
94.9053092312
 20
79.8313489287
 10
94.8751912238
 20
79.5726722729
 10
94.865347143
 20
79.3185529994
  0
LWPOLYLINE
  5
2D6
100
AcDbEntity
  8
RACCORDO
100
AcDbPolyline
 62
253
  6
CONTINUOUS
 90
7
 70
0
 10
73.5651143117
 20
112.1594482232
 10
73.5487540719
 20
112.1701409125
 10
73.5348024881
 20
112.1819168021
 10
73.5234724956
 20
112.1945961156
 10
73.5149370002
 20
112.2079853011
 10
73.5093262615
 20
112.2218799552
 10
73.5067326084
 20
112.2360312474
  0
LWPOLYLINE
  5
2D7
100
AcDbEntity
  8
RACCORDO
100
AcDbPolyline
 62
253
  6
CONTINUOUS
 90
4
 70
0
 10
73.5651143117
 20
112.2442987108
 10
73.5487545953
 20
112.2549910111
 10
73.5348032965
 20
112.2667665062
 10
73.5234733721
 20
112.2794454512
  0
LWPOLYLINE
  5
2D8
100
AcDbEntity
  8
RACCORDO
100
AcDbPolyline
 62
253
  6
CONTINUOUS
 90
7
 70
0
 10
88.8386207854
 20
103.3407170074
 10
88.8222605455
 20
103.3514096966
 10
88.8083089617
 20
103.3631855862
 10
88.7969789693
 20
103.3758648997
 10
88.7884434738
 20
103.3892540852
 10
88.7828327352
 20
103.4031487393
 10
88.780239082
 20
103.4173000315
  0
LWPOLYLINE
  5
2D9
100
AcDbEntity
  8
RACCORDO
100
AcDbPolyline
 62
253
  6
CONTINUOUS
 90
4
 70
0
 10
88.8386207854
 20
103.4255674949
 10
88.822261069
 20
103.4362597953
 10
88.8083097702
 20
103.4480352903
 10
88.7969798458
 20
103.4607142353
  0
LINE
  5
2DA
100
AcDbEntity
  8
RACCORDO
100
AcDbLine
 62
253
  6
CONTINUOUS
 10
94.9259565413
 20
117.345877914
 11
94.9233195921
 21
117.3578396448
  0
LINE
  5
2DB
100
AcDbEntity
  8
RACCORDO
100
AcDbLine
 62
253
  6
CONTINUOUS
 10
94.9233195921
 20
117.3578396448
 11
94.9005687967
 21
117.4868452169
  0
LWPOLYLINE
  5
2DC
100
AcDbEntity
  8
RACCORDO
100
AcDbPolyline
 62
253
  6
CONTINUOUS
 90
13
 70
0
 10
100.6282367408
 20
122.4448586758
 10
100.6273490307
 20
122.4670540304
 10
100.624056775
 20
122.4902667602
 10
100.6184162992
 20
122.5140996947
 10
100.6105241097
 20
122.5381450452
 10
100.6005152371
 20
122.561991397
 10
100.5885609229
 20
122.5852307479
 10
100.5748656997
 20
122.6074654656
 10
100.5596638906
 20
122.6283151017
 10
100.5432155911
 20
122.6474229136
 10
100.5258022294
 20
122.6644619517
 10
100.5077217538
 20
122.6791406561
 10
100.4892835275
 20
122.6912078542
  0
LINE
  5
2DD
100
AcDbEntity
  8
RACCORDO
100
AcDbLine
 62
253
  6
CONTINUOUS
 10
102.1369758086
 20
121.9904636513
 11
102.1369758086
 21
122.6323017673
  0
LINE
  5
2DE
100
AcDbEntity
  8
RACCORDO
100
AcDbLine
 62
253
  6
CONTINUOUS
 10
102.1369758086
 20
124.8128024118
 11
102.1369758086
 21
125.4546405278
  0
LINE
  5
2DF
100
AcDbEntity
  8
RACCORDO
100
AcDbLine
 62
253
  6
CONTINUOUS
 10
102.4173288389
 20
122.1466855396
 11
102.4173288389
 21
122.7885236555
  0
LINE
  5
2E0
100
AcDbEntity
  8
RACCORDO
100
AcDbLine
 62
253
  6
CONTINUOUS
 10
102.4173288389
 20
124.9690243001
 11
102.4173288389
 21
125.610862416
  0
LWPOLYLINE
  5
2E1
100
AcDbEntity
  8
RACCORDO
100
AcDbPolyline
 62
7
  6
CONTINUOUS
 90
18
 70
0
 10
73.9712518592
 20
71.2468633406
 10
73.9502226225
 20
71.2313958143
 10
73.9024377158
 20
71.1921587947
 10
73.856700522
 20
71.1489553006
 10
73.8131441018
 20
71.1022207125
 10
73.7718236889
 20
71.0522726083
 10
73.7328274568
 20
70.9993949002
 10
73.6963214158
 20
70.9439725803
 10
73.6624815873
 20
70.8863612887
 10
73.6314762559
 20
70.8269158379
 10
73.6034777746
 20
70.7660124773
 10
73.5786735959
 20
70.7040183077
 10
73.5572238832
 20
70.6412960417
 10
73.5393049932
 20
70.5782118726
 10
73.5250999211
 20
70.5151207682
 10
73.5147622671
 20
70.4522586746
 10
73.508504406
 20
70.3898701619
 10
73.506545861
 20
70.3319717093
  0
LWPOLYLINE
  5
2E2
100
AcDbEntity
  8
RACCORDO
100
AcDbPolyline
 62
253
  6
CONTINUOUS
 90
4
 70
0
 10
74.084456672
 20
71.2455633691
 10
74.0454004498
 20
71.2171813974
 10
74.0065822655
 20
71.1854268788
 10
73.9682297585
 20
71.1504659852
  0
LINE
  5
2E3
100
AcDbEntity
  8
RACCORDO
100
AcDbLine
 62
7
  6
CONTINUOUS
 10
76.3750516062
 20
72.954031175
 11
73.9711197609
 21
71.2467811782
  0
LINE
  5
2E4
100
AcDbEntity
  8
RACCORDO
100
AcDbLine
 62
253
  6
CONTINUOUS
 10
76.4808644353
 20
72.9474698331
 11
74.084456672
 21
71.2455633691
  0
LWPOLYLINE
  5
2E5
100
AcDbEntity
  8
RACCORDO
100
AcDbPolyline
 62
253
  6
CONTINUOUS
 90
9
 70
0
 10
88.993434513
 20
103.9893747
 10
88.9757445365
 20
103.9978000789
 10
88.9599137055
 20
104.0051804513
 10
88.9461920482
 20
104.0113992566
 10
88.9347962587
 20
104.0163582899
 10
88.9259063133
 20
104.0199792362
 10
88.9196626021
 20
104.0222049209
 10
88.9161636734
 20
104.0230002279
 10
88.9154051606
 20
104.0227819013
  0
LWPOLYLINE
  5
2E6
100
AcDbEntity
  8
RACCORDO
100
AcDbPolyline
 62
7
  6
CONTINUOUS
 90
11
 70
0
 10
91.3810661949
 20
101.6022128736
 10
91.3909189033
 20
101.5966885784
 10
91.4388528059
 20
101.5742386107
 10
91.4895514679
 20
101.5574987668
 10
91.5425237381
 20
101.5466194121
 10
91.5972954345
 20
101.5416568308
 10
91.6534122389
 20
101.5426313679
 10
91.7105196705
 20
101.549524633
 10
91.7684551752
 20
101.5623203889
 10
91.8270014164
 20
101.5810540457
 10
91.8838700899
 20
101.6048088989
  0
LWPOLYLINE
  5
2E7
100
AcDbEntity
  8
RACCORDO
100
AcDbPolyline
 62
7
  6
CONTINUOUS
 90
11
 70
0
 10
76.1075597213
 20
110.4209440895
 10
76.1174124296
 20
110.4154197942
 10
76.1653463323
 20
110.3929698266
 10
76.2160449942
 20
110.3762299826
 10
76.2690172645
 20
110.365350628
 10
76.3237889609
 20
110.3603880467
 10
76.3799057653
 20
110.3613625838
 10
76.4370131969
 20
110.3682558489
 10
76.4949487016
 20
110.3810516048
 10
76.5534949428
 20
110.3997852616
 10
76.6103636163
 20
110.4235401148
  0
LINE
  5
2E8
100
AcDbEntity
  8
RACCORDO
100
AcDbLine
 62
7
  6
CONTINUOUS
 10
73.7197487448
 20
111.7996282788
 11
76.1078407819
 21
110.4207738663
  0
LINE
  5
2E9
100
AcDbEntity
  8
RACCORDO
100
AcDbLine
 62
7
  6
CONTINUOUS
 10
88.9932552184
 20
102.9808970629
 11
91.3813472556
 21
101.6020426504
  0
LINE
  5
2EA
100
AcDbEntity
  8
RACCORDO
100
AcDbLine
 62
253
  6
CONTINUOUS
 10
73.5651143117
 20
112.1594482232
 11
75.931142787
 21
110.7933330349
  0
LINE
  5
2EB
100
AcDbEntity
  8
RACCORDO
100
AcDbLine
 62
253
  6
CONTINUOUS
 10
88.8386207854
 20
103.3407170074
 11
91.2046492606
 21
101.9746018191
  0
LINE
  5
2EC
100
AcDbEntity
  8
RACCORDO
100
AcDbLine
 62
253
  6
CONTINUOUS
 10
75.931142787
 20
110.8781835225
 11
73.5651143117
 21
112.2442987108
  0
LINE
  5
2ED
100
AcDbEntity
  8
RACCORDO
100
AcDbLine
 62
253
  6
CONTINUOUS
 10
88.8386207854
 20
103.4255674949
 11
91.2046492606
 21
102.0594523066
  0
LINE
  5
2EE
100
AcDbEntity
  8
RACCORDO
100
AcDbLine
 62
253
  6
CONTINUOUS
 10
76.1076999092
 20
111.429436364
 11
73.7199280394
 21
112.8081059159
  0
LINE
  5
2EF
100
AcDbEntity
  8
RACCORDO
100
AcDbLine
 62
253
  6
CONTINUOUS
 10
88.993434513
 20
103.9893747
 11
91.3812063828
 21
102.6107051482
  0
LINE
  5
2F0
100
AcDbEntity
  8
RACCORDO
100
AcDbLine
 62
7
  6
CONTINUOUS
 10
76.6195924355
 20
112.2209532904
 11
74.1494568694
 21
113.6471786082
  0
LINE
  5
2F1
100
AcDbEntity
  8
RACCORDO
100
AcDbLine
 62
7
  6
CONTINUOUS
 10
89.422963343
 20
104.8284473923
 11
91.8930989091
 21
103.4022220745
  0
LINE
  5
2F2
100
AcDbEntity
  8
0
100
AcDbLine
 62
7
  6
CONTINUOUS
 10
74.3388656498
 20
113.9460909455
 11
77.1372904362
 21
112.3303155464
  0
LINE
  5
2F3
100
AcDbEntity
  8
0
100
AcDbLine
 62
7
  6
CONTINUOUS
 10
89.6123721235
 20
105.1273597296
 11
92.4107969098
 21
103.5115843305
  0
LINE
  5
2F4
100
AcDbEntity
  8
RACCORDO
100
AcDbLine
 62
7
  6
CONTINUOUS
 10
94.8299826742
 20
102.8498446593
 11
94.7075895447
 21
102.9205129184
  0
LINE
  5
2F5
100
AcDbEntity
  8
RACCORDO
100
AcDbLine
 62
7
  6
CONTINUOUS
 10
90.8384085621
 20
105.1545295255
 11
79.434083071
 21
111.7392441343
  0
LWPOLYLINE
  5
2F6
100
AcDbEntity
  8
RACCORDO
100
AcDbPolyline
 62
253
  6
CONTINUOUS
 90
13
 70
0
 10
76.3362574312
 20
111.2832478847
 10
76.3216804967
 20
111.29188564
 10
76.3053032614
 20
111.3017841705
 10
76.2873843287
 20
111.3127871797
 10
76.268206662
 20
111.3247209203
 10
76.2480731261
 20
111.3373969325
 10
76.2273017053
 20
111.3506150188
 10
76.2062204466
 20
111.3641664277
 10
76.185162349
 20
111.3778371058
 10
76.1644601111
 20
111.3914110723
 10
76.1444407724
 20
111.4046738976
 10
76.1254205489
 20
111.417416091
 10
76.1076999088
 20
111.4294363633
  0
LWPOLYLINE
  5
2F7
100
AcDbEntity
  8
RACCORDO
100
AcDbPolyline
 62
253
  6
CONTINUOUS
 90
13
 70
0
 10
91.6097639048
 20
102.4645166689
 10
91.5951868972
 20
102.4731544664
 10
91.5788095884
 20
102.4830530414
 10
91.5608905889
 20
102.4940560923
 10
91.5417128685
 20
102.5059898677
 10
91.521579297
 20
102.5186659041
 10
91.5008078632
 20
102.5318840009
 10
91.4797266182
 20
102.5454354037
 10
91.4586685581
 20
102.5591060602
 10
91.4379663738
 20
102.5726799944
 10
91.4179470993
 20
102.5859427797
 10
91.3989269485
 20
102.5986849268
 10
91.3812063839
 20
102.6107051497
  0
LWPOLYLINE
  5
2F8
100
AcDbEntity
  8
RACCORDO
100
AcDbPolyline
 62
253
  6
CONTINUOUS
 90
66
 70
0
 10
94.1230904704
 20
118.6325186567
 10
94.2007277795
 20
118.4108977232
 10
94.2956459366
 20
118.1820157926
 10
94.4118012358
 20
117.9489116557
 10
94.5501220774
 20
117.7109864374
 10
94.7096800611
 20
117.4688390127
 10
94.8916462799
 20
117.2273047971
 10
95.0975197362
 20
116.9861193389
 10
95.3258014276
 20
116.7455470898
 10
95.5731654396
 20
116.5112168205
 10
95.8396175468
 20
116.2841976821
 10
96.1251519745
 20
116.0634205234
 10
96.4264254845
 20
115.8513066619
 10
96.7423697081
 20
115.6486467136
 10
97.0740530139
 20
115.4546500624
 10
97.42133727
 20
115.2693661775
 10
97.7853468602
 20
115.09223189
 10
98.1649574008
 20
114.9238103688
 10
98.5566576085
 20
114.7658405896
 10
98.9624792954
 20
114.6181830517
 10
99.3803906495
 20
114.4809772558
 10
99.8007849514
 20
114.35638068
 10
100.2234236484
 20
114.2452235962
 10
100.6485452933
 20
114.1466757324
 10
101.0672588249
 20
114.060403751
 10
101.4784755843
 20
113.9869978689
 10
101.8832842303
 20
113.9258678691
 10
102.2760596785
 20
113.8749097625
 10
102.6560471114
 20
113.834305048
 10
103.0240013464
 20
113.8038722267
 10
103.3765617508
 20
113.7809628128
 10
103.7116955955
 20
113.7655021833
 10
104.0314356096
 20
113.7575649612
 10
104.3385193477
 20
113.7547265292
 10
104.6322133348
 20
113.7566122988
 10
104.913251046
 20
113.7635968585
 10
105.1865704605
 20
113.7743793568
 10
105.4521273848
 20
113.7886017432
 10
105.7099660124
 20
113.8066220681
 10
105.9651569036
 20
113.8282136312
 10
106.2186122451
 20
113.8532149059
 10
106.4694198502
 20
113.8817874188
 10
106.7199137188
 20
113.9141890482
 10
106.9710346354
 20
113.9504661675
 10
107.2218418156
 20
113.9905724033
 10
107.4718469057
 20
114.0346265141
 10
107.721994703
 20
114.0829012098
 10
107.9713404103
 20
114.1351237805
 10
108.2165612824
 20
114.1905948548
 10
108.4579722239
 20
114.249637612
 10
108.6952583303
 20
114.3119288728
 10
108.9241521423
 20
114.3757997281
 10
109.1434246027
 20
114.4410685436
 10
109.3543047687
 20
114.5079169535
 10
109.5562123529
 20
114.5752209526
 10
109.7485817087
 20
114.6427758569
 10
109.9319784827
 20
114.7107863502
 10
110.1075193277
 20
114.7787424787
 10
110.2751869286
 20
114.8465681047
 10
110.4349986004
 20
114.9143393659
 10
110.5881229413
 20
114.9817747215
 10
110.7345807535
 20
115.048816266
 10
110.8743512347
 20
115.115521905
 10
111.0085405765
 20
115.1817838139
 10
111.1375175096
 20
115.2475660515
 10
111.2609133034
 20
115.3129045591
  0
LINE
  5
2F9
100
AcDbEntity
  8
RACCORDO
100
AcDbLine
 62
253
  6
CONTINUOUS
 10
94.0630017992
 20
118.8463966805
 11
94.1230904704
 21
118.6325186567
  0
LINE
  5
2FA
100
AcDbEntity
  8
RACCORDO
100
AcDbLine
 62
253
  6
CONTINUOUS
 10
99.114499955
 20
118.022871204
 11
99.1136341479
 21
118.0384547007
  0
LWPOLYLINE
  5
2FB
100
AcDbEntity
  8
RACCORDO
100
AcDbPolyline
 62
253
  6
CONTINUOUS
 90
16
 70
0
 10
104.8708774279
 20
127.5538024982
 10
104.8697119004
 20
127.578617531
 10
104.8663730436
 20
127.6014824036
 10
104.8608608575
 20
127.6223971162
 10
104.8530643673
 20
127.6415809134
 10
104.8430945478
 20
127.6588145505
 10
104.8312843234
 20
127.6734402932
 10
104.8175877362
 20
127.6853325339
 10
104.8020507441
 20
127.6946168801
 10
104.7851441458
 20
127.7010124206
 10
104.7667817929
 20
127.7044180151
 10
104.7470498338
 20
127.7049348038
 10
104.7266775114
 20
127.7025852967
 10
104.7059079069
 20
127.6973769969
 10
104.6844979391
 20
127.6893024013
 10
104.662447608
 20
127.6783615098
  0
LWPOLYLINE
  5
2FC
100
AcDbEntity
  8
RACCORDO
100
AcDbPolyline
 62
7
  6
CONTINUOUS
 90
13
 70
0
 10
104.9294560717
 20
127.6354574169
 10
104.9280429471
 20
127.6718950855
 10
104.9239103418
 20
127.7065818601
 10
104.9172209605
 20
127.7394332963
 10
104.9081543941
 20
127.7703424399
 10
104.8968684707
 20
127.7993064572
 10
104.8834900265
 20
127.8263536573
 10
104.8682536723
 20
127.8513063874
 10
104.8513095029
 20
127.8741829124
 10
104.832606562
 20
127.8951856801
 10
104.8122147443
 20
127.9142672454
 10
104.7903924348
 20
127.9312267562
 10
104.7673361174
 20
127.9459807661
  0
LWPOLYLINE
  5
2FD
100
AcDbEntity
  8
RACCORDO
100
AcDbPolyline
 62
253
  6
CONTINUOUS
 90
16
 70
0
 10
104.662447608
 20
127.6783615098
 10
104.6619308782
 20
127.6960240619
 10
104.6598703679
 20
127.7143877277
 10
104.6562886523
 20
127.7332513111
 10
104.6512249736
 20
127.7524081387
 10
104.6447348104
 20
127.7716483244
 10
104.6368892704
 20
127.7907610686
 10
104.6277743109
 20
127.809536968
 10
104.6174897973
 20
127.8277703101
 10
104.6061484089
 20
127.8452613265
 10
104.5938744044
 20
127.8618183819
 10
104.5808022603
 20
127.8772600738
 10
104.5670751977
 20
127.8914172198
 10
104.5528436132
 20
127.9041347113
 10
104.5382634311
 20
127.9152732126
 10
104.5234943948
 20
127.9247106882
  0
LINE
  5
2FE
100
AcDbEntity
  8
RACCORDO
100
AcDbLine
 62
7
  6
CONTINUOUS
 10
104.1637706467
 20
125.94219886
 11
104.1637706467
 21
126.4235683547
  0
LINE
  5
2FF
100
AcDbEntity
  8
RACCORDO
100
AcDbLine
 62
253
  6
CONTINUOUS
 10
104.8708774279
 20
126.3362219116
 11
104.8708774279
 21
127.5538024982
  0
LINE
  5
300
100
AcDbEntity
  8
RACCORDO
100
AcDbLine
 62
7
  6
CONTINUOUS
 10
104.9294560717
 20
126.36886385
 11
104.9294560717
 21
127.6354574169
  0
LINE
  5
301
100
AcDbEntity
  8
RACCORDO
100
AcDbLine
 62
7
  6
CONTINUOUS
 10
105.9315375997
 20
124.080329278
 11
105.9315375997
 21
124.5862872233
  0
LINE
  5
302
100
AcDbEntity
  8
RACCORDO
100
AcDbLine
 62
253
  6
CONTINUOUS
 10
76.1623421117
 20
73.2946498156
 11
94.9713824913
 21
84.1547179884
  0
LINE
  5
303
100
AcDbEntity
  8
RACCORDO
100
AcDbLine
 62
253
  6
CONTINUOUS
 10
76.3037419288
 20
73.0497381485
 11
94.9713824913
 21
83.8281641098
  0
LWPOLYLINE
  5
304
100
AcDbEntity
  8
RACCORDO
100
AcDbPolyline
 62
253
  6
CONTINUOUS
 90
5
 70
0
 10
91.7940961816
 20
101.6564764472
 10
91.8268844526
 20
101.6624768398
 10
91.8600286032
 20
101.6713220877
 10
91.8937198761
 20
101.6830365467
 10
91.9279582713
 20
101.697620217
  0
LWPOLYLINE
  5
305
100
AcDbEntity
  8
RACCORDO
100
AcDbPolyline
 62
253
  6
CONTINUOUS
 90
9
 70
0
 10
73.7199280394
 20
112.8081059159
 10
73.7022381012
 20
112.8165312769
 10
73.6864072942
 20
112.8239116388
 10
73.6726856475
 20
112.8301304404
 10
73.6612898572
 20
112.8350894757
 10
73.6523999007
 20
112.8387104288
 10
73.6461561699
 20
112.8409361241
 10
73.6426572174
 20
112.8417314432
 10
73.6418986872
 20
112.8415131177
  0
LINE
  5
306
100
AcDbEntity
  8
RACCORDO
100
AcDbLine
 62
7
  6
CONTINUOUS
 10
75.667313517
 20
114.8938939982
 11
76.339118807
 21
114.5060020435
  0
LINE
  5
307
100
AcDbEntity
  8
DRAFT
100
AcDbLine
 62
7
  6
CONTINUOUS
 10
76.339118807
 20
114.5060020435
 11
94.794605796
 21
103.8500351576
  0
LINE
  5
308
100
AcDbEntity
  8
RACCORDO
100
AcDbLine
 62
7
  6
CONTINUOUS
 10
94.794605796
 20
103.8500351576
 11
95.466411086
 21
103.4621432028
  0
LWPOLYLINE
  5
309
100
AcDbEntity
  8
RACCORDO
100
AcDbPolyline
 62
253
  6
CONTINUOUS
 90
12
 70
0
 10
98.3354772436
 20
118.9174991804
 10
98.4070789532
 20
118.7025759173
 10
98.4971263556
 20
118.4902561295
 10
98.6057684852
 20
118.280552812
 10
98.7328563076
 20
118.0734529697
 10
98.8774266165
 20
117.8705267396
 10
99.0396057558
 20
117.6718182596
 10
99.2192673817
 20
117.4772833917
 10
99.4150692569
 20
117.2883598587
 10
99.6271285252
 20
117.1050904653
 10
99.8553280428
 20
116.9274324069
 10
100.0979741407
 20
116.7566949926
  0
LWPOLYLINE
  5
30A
100
AcDbEntity
  8
RACCORDO
100
AcDbPolyline
 62
253
  6
CONTINUOUS
 90
3
 70
0
 10
99.1885354801
 20
117.6391613409
 10
99.170096427
 20
117.7038648352
 10
99.1357621583
 20
117.8685339315
  0
LWPOLYLINE
  5
30B
100
AcDbEntity
  8
RACCORDO
100
AcDbPolyline
 62
253
  6
CONTINUOUS
 90
16
 70
0
 10
106.6386443809
 20
125.5533516827
 10
106.6374786127
 20
125.5781666652
 10
106.6341398455
 20
125.601031265
 10
106.6286280792
 20
125.6219454822
 10
106.6208325199
 20
125.6411282981
 10
106.6108639614
 20
125.6583607315
 10
106.5990547864
 20
125.6729858379
 10
106.5853589835
 20
125.684878491
 10
106.5698225639
 20
125.6941638173
 10
106.5529159445
 20
125.7005602516
 10
106.5345525344
 20
125.7039664688
 10
106.5148189245
 20
125.704483794
 10
106.4944453034
 20
125.7021346381
 10
106.4736750672
 20
125.6969264713
 10
106.4522648197
 20
125.6888518234
 10
106.430214561
 20
125.6779106943
  0
LWPOLYLINE
  5
30C
100
AcDbEntity
  8
RACCORDO
100
AcDbPolyline
 62
253
  6
CONTINUOUS
 90
16
 70
0
 10
106.430214561
 20
125.6779106943
 10
106.4296978312
 20
125.6955732464
 10
106.4276373208
 20
125.7139369122
 10
106.4240556053
 20
125.7328004956
 10
106.4189919265
 20
125.7519573233
 10
106.4125017634
 20
125.7711975089
 10
106.4046562234
 20
125.7903102531
 10
106.3955412638
 20
125.8090861526
 10
106.3852567503
 20
125.8273194947
 10
106.3739153619
 20
125.844810511
 10
106.3616413573
 20
125.8613675665
 10
106.3485692132
 20
125.8768092584
 10
106.3348421506
 20
125.8909664044
 10
106.3206105661
 20
125.9036838958
 10
106.306030384
 20
125.9148223972
 10
106.2912613477
 20
125.9242598727
  0
LINE
  5
30D
100
AcDbEntity
  8
RACCORDO
100
AcDbLine
 62
253
  6
CONTINUOUS
 10
106.6386443809
 20
124.4069568436
 11
106.6386443809
 21
125.5533516827
  0
LINE
  5
30E
100
AcDbEntity
  8
RACCORDO
100
AcDbLine
 62
7
  6
CONTINUOUS
 10
106.6972230246
 20
124.3789409711
 11
106.6972230246
 21
125.6350066014
  0
LWPOLYLINE
  5
30F
100
AcDbEntity
  8
RACCORDO
100
AcDbPolyline
 62
253
  6
CONTINUOUS
 90
22
 70
0
 10
76.5234261327
 20
69.8373329699
 10
76.4788324602
 20
69.8121487296
 10
76.4345734376
 20
69.7835361681
 10
76.3908767
 20
69.7516614445
 10
76.3479519428
 20
69.7167155583
 10
76.3060348761
 20
69.678891682
 10
76.2653857526
 20
69.6383847378
 10
76.2262148327
 20
69.5954252268
 10
76.1887209928
 20
69.5502574858
 10
76.1531353764
 20
69.5031174787
 10
76.1196424664
 20
69.454270745
 10
76.0884102514
 20
69.4039923283
 10
76.0596286542
 20
69.3525456739
 10
76.0334469112
 20
69.3002171866
 10
76.0099950129
 20
69.2472992267
 10
75.9894142549
 20
69.1940701582
 10
75.9718120234
 20
69.1408234682
 10
75.9572741279
 20
69.087854382
 10
75.9458874763
 20
69.0354428882
 10
75.9377143086
 20
68.9838731292
 10
75.9327912548
 20
68.9334317187
 10
75.931142787
 20
68.8843944605
  0
LWPOLYLINE
  5
310
100
AcDbEntity
  8
RACCORDO
100
AcDbPolyline
 62
253
  6
CONTINUOUS
 90
22
 70
0
 10
76.6544517977
 20
69.5870279678
 10
76.6202134025
 20
69.5684356183
 10
76.5865221297
 20
69.5475042034
 10
76.553377979
 20
69.5242337231
 10
76.520589708
 20
69.4984632249
 10
76.4883485593
 20
69.4703536613
 10
76.4572282604
 20
69.4403878896
 10
76.4272631628
 20
69.4085448293
 10
76.3984189151
 20
69.3748455611
 10
76.3711661906
 20
69.3398361841
 10
76.345529368
 20
69.3034911119
 10
76.3214840685
 20
69.2658359311
 10
76.29942783
 20
69.227493501
 10
76.2793950586
 20
69.1884507027
 10
76.261351348
 20
69.1487206552
 10
76.2455910177
 20
69.1089655747
 10
76.2321546552
 20
69.0691708423
 10
76.2210016729
 20
69.029351077
 10
76.2123046271
 20
68.9902123515
 10
76.2061210366
 20
68.9519900235
 10
76.2023933826
 20
68.9144487353
 10
76.2011216651
 20
68.877588487
  0
LINE
  5
311
100
AcDbEntity
  8
RACCORDO
100
AcDbLine
 62
253
  6
CONTINUOUS
 10
79.379353694
 20
71.2739184617
 11
76.5234261327
 21
69.8373329699
  0
LINE
  5
312
100
AcDbEntity
  8
RACCORDO
100
AcDbLine
 62
253
  6
CONTINUOUS
 10
79.5210993224
 20
71.0290058035
 11
76.6544517977
 21
69.5870279678
  0
LINE
  5
313
100
AcDbEntity
  8
DRAFT
100
AcDbLine
 62
7
  6
CONTINUOUS
 10
77.1372904362
 20
69.0573908764
 11
79.5210993224
 21
70.2123119803
  0
LINE
  5
314
100
AcDbEntity
  8
RACCORDO
100
AcDbLine
 62
7
  6
CONTINUOUS
 10
76.9568988238
 20
68.1535234591
 11
77.1372904362
 21
68.2409205996
  0
LWPOLYLINE
  5
315
100
AcDbEntity
  8
RACCORDO
100
AcDbPolyline
 62
253
  6
CONTINUOUS
 90
13
 70
0
 10
112.5611594604
 20
121.3636529962
 10
112.5599055754
 20
121.3856137395
 10
112.5557264305
 20
121.4081831437
 10
112.5486931218
 20
121.4309772545
 10
112.5389253012
 20
121.4536082952
 10
112.5265891402
 20
121.475691263
 10
112.5118945035
 20
121.4968504792
 10
112.4950913785
 20
121.5167259798
 10
112.4764656225
 20
121.5349796398
 10
112.4563340997
 20
121.5513009252
 10
112.4350392906
 20
121.5654121757
 10
112.4129434657
 20
121.5770733286
 10
112.3904225227
 20
121.5860860026
  0
LWPOLYLINE
  5
316
100
AcDbEntity
  8
RACCORDO
100
AcDbPolyline
 62
253
  6
CONTINUOUS
 90
7
 70
0
 10
112.7137406784
 20
121.2713402674
 10
112.7131432363
 20
121.2919343989
 10
112.711442608
 20
121.3109890092
 10
112.7086387935
 20
121.3285040983
 10
112.7046981543
 20
121.3445904301
 10
112.6996543288
 20
121.3591372407
 10
112.6936082321
 20
121.3718122387
  0
LWPOLYLINE
  5
317
100
AcDbEntity
  8
RACCORDO
100
AcDbPolyline
 62
7
  6
CONTINUOUS
 90
13
 70
0
 10
112.7405315779
 20
121.3289640806
 10
112.7404475507
 20
121.3390796795
 10
112.7386055028
 20
121.3753387617
 10
112.7343532504
 20
121.40993453
 10
112.727657069
 20
121.4429239974
 10
112.7184536801
 20
121.4742754611
 10
112.706632232
 20
121.5040549193
 10
112.6921097922
 20
121.5321517718
 10
112.6749807887
 20
121.5581615566
 10
112.6552924361
 20
121.5818801757
 10
112.633164407
 20
121.603068185
 10
112.6091178313
 20
121.6212462305
 10
112.5948756186
 20
121.630092708
  0
LINE
  5
318
100
AcDbEntity
  8
DRAFT
100
AcDbLine
 62
7
  6
CONTINUOUS
 10
112.1693076689
 20
120.4918698657
 11
112.1693076689
 21
120.4787190176
  0
LINE
  5
319
100
AcDbEntity
  8
RACCORDO
100
AcDbLine
 62
253
  6
CONTINUOUS
 10
112.7137406784
 20
120.9050715819
 11
112.7137406784
 21
121.2713402674
  0
LINE
  5
31A
100
AcDbEntity
  8
RACCORDO
100
AcDbLine
 62
7
  6
CONTINUOUS
 10
112.7405355976
 20
120.8896080319
 11
112.7405355976
 21
121.3290791287
  0
LWPOLYLINE
  5
31B
100
AcDbEntity
  8
RACCORDO
100
AcDbPolyline
 62
253
  6
CONTINUOUS
 90
13
 70
0
 10
91.6097639048
 20
59.6930791161
 10
91.5951861442
 20
59.6726964392
 10
91.5788080813
 20
59.6540329387
 10
91.5608884066
 20
59.6373834032
 10
91.54171016
 20
59.6230108111
 10
91.5215762605
 20
59.6111421763
 10
91.5008047217
 20
59.6019649632
 10
91.4797236284
 20
59.595624125
 10
91.458665955
 20
59.592219815
 10
91.4379643062
 20
59.591805804
 10
91.4179456629
 20
59.5943886312
 10
91.3989262182
 20
59.5999275011
 10
91.3812148815
 20
59.6083300211
  0
LWPOLYLINE
  5
31C
100
AcDbEntity
  8
RACCORDO
100
AcDbPolyline
 62
253
  6
CONTINUOUS
 90
19
 70
0
 10
89.2417362321
 20
62.3317347693
 10
89.2040871847
 20
62.2937422553
 10
89.1673492269
 20
62.2529275589
 10
89.1316983574
 20
62.2095343964
 10
89.0973419639
 20
62.1637950589
 10
89.0644817673
 20
62.115952146
 10
89.0332732348
 20
62.0662851178
 10
89.0038963616
 20
62.0150620204
 10
88.9765236251
 20
61.9625553814
 10
88.9512827481
 20
61.9090645913
 10
88.9283177017
 20
61.854879134
 10
88.9077637283
 20
61.8002882876
 10
88.8897157064
 20
61.7455971178
 10
88.8742751299
 20
61.6911024602
 10
88.8615337198
 20
61.6370961871
 10
88.8515496747
 20
61.5838749352
 10
88.8443756594
 20
61.5317283944
 10
88.8400578729
 20
61.4809376265
 10
88.8386207854
 20
61.4317784329
  0
LWPOLYLINE
  5
31D
100
AcDbEntity
  8
RACCORDO
100
AcDbPolyline
 62
253
  6
CONTINUOUS
 90
13
 70
0
 10
76.2011216651
 20
68.877588487
 10
76.1812478757
 20
68.8691104317
 10
76.1597151052
 20
68.8621120815
 10
76.1368520363
 20
68.8567002614
 10
76.1130076577
 20
68.852957579
 10
76.0885459372
 20
68.8509411637
 10
76.0638402657
 20
68.8506817947
 10
76.0392677582
 20
68.8521834312
 10
76.0152034967
 20
68.8554231516
 10
75.9920148052
 20
68.8603515039
 10
75.970055643
 20
68.8668932602
 10
75.9496612013
 20
68.8749485653
 10
75.931142787
 20
68.8843944605
  0
LWPOLYLINE
  5
31E
100
AcDbEntity
  8
RACCORDO
100
AcDbPolyline
 62
253
  6
CONTINUOUS
 90
13
 70
0
 10
76.2011216651
 20
68.7927379995
 10
76.1812486707
 20
68.7842602443
 10
76.1597166381
 20
68.7772620279
 10
76.136854184
 20
68.7718502021
 10
76.1130102356
 20
68.7681074074
 10
76.0885487336
 20
68.766090815
 10
76.0638430797
 20
68.7658312458
 10
76.0392703796
 20
68.7673326972
 10
76.0152057368
 20
68.7705722849
 10
75.992016551
 20
68.7755005794
 10
75.9700568301
 20
68.7820423682
 10
75.9496617904
 20
68.7900978149
 10
75.931142787
 20
68.7995439721
  0
LWPOLYLINE
  5
31F
100
AcDbEntity
  8
RACCORDO
100
AcDbPolyline
 62
253
  6
CONTINUOUS
 90
5
 70
0
 10
76.520589708
 20
110.4752076631
 10
76.5533779789
 20
110.4812080557
 10
76.5865221296
 20
110.4900533036
 10
76.6202134025
 20
110.5017677626
 10
76.6544517977
 20
110.5163514329
  0
LWPOLYLINE
  5
320
100
AcDbEntity
  8
RACCORDO
100
AcDbPolyline
 62
7
  6
CONTINUOUS
 90
15
 70
0
 10
100.1548327758
 20
116.7933252955
 10
99.9265594958
 20
116.9572757486
 10
99.7128260016
 20
117.1269898166
 10
99.5141778598
 20
117.3020144698
 10
99.3311392087
 20
117.481870679
 10
99.1640118683
 20
117.6662106697
 10
99.0131978763
 20
117.8545998769
 10
98.8791686374
 20
118.0464702321
 10
98.762263468
 20
118.2412558814
 10
98.6627675353
 20
118.4384089476
 10
98.5808873447
 20
118.6374630877
 10
98.5167299399
 20
118.8380009597
 10
98.470426804
 20
119.0394997521
 10
98.4420482101
 20
119.2415948304
 10
98.4315446103
 20
119.4589402329
  0
LWPOLYLINE
  5
321
100
AcDbEntity
  8
RACCORDO
100
AcDbPolyline
 62
253
  6
CONTINUOUS
 90
10
 70
0
 10
121.6725782792
 20
117.8964411401
 10
121.6709748824
 20
117.8733385204
 10
121.6656427528
 20
117.8485222982
 10
121.6566267116
 20
117.8241001841
 10
121.6440095158
 20
117.8002523752
 10
121.6279007718
 20
117.7771547079
 10
121.6084770216
 20
117.7550186027
 10
121.5859316332
 20
117.7340113252
 10
121.560450143
 20
117.714260355
 10
121.5322481793
 20
117.6958964605
  0
LWPOLYLINE
  5
322
100
AcDbEntity
  8
RACCORDO
100
AcDbPolyline
 62
7
  6
CONTINUOUS
 90
18
 70
0
 10
89.2447583328
 20
62.4281321247
 10
89.2237290961
 20
62.4126645985
 10
89.1759441894
 20
62.3734275789
 10
89.1302069957
 20
62.3302240847
 10
89.0866505755
 20
62.2834894967
 10
89.0453301625
 20
62.2335413924
 10
89.0063339304
 20
62.1806636843
 10
88.9698278894
 20
62.1252413644
 10
88.9359880609
 20
62.0676300728
 10
88.9049827295
 20
62.008184622
 10
88.8769842482
 20
61.9472812614
 10
88.8521800696
 20
61.8852870919
 10
88.8307303568
 20
61.8225648258
 10
88.8128114668
 20
61.7594806567
 10
88.7986063947
 20
61.6963895523
 10
88.7882687407
 20
61.6335274587
 10
88.7820108796
 20
61.571138946
 10
88.7800523346
 20
61.5132404934
  0
LWPOLYLINE
  5
323
100
AcDbEntity
  8
RACCORDO
100
AcDbPolyline
 62
253
  6
CONTINUOUS
 90
4
 70
0
 10
89.3579631456
 20
62.4268321533
 10
89.3189069235
 20
62.3984501815
 10
89.2800887391
 20
62.3666956629
 10
89.2417362321
 20
62.3317347693
  0
LINE
  5
324
100
AcDbEntity
  8
RACCORDO
100
AcDbLine
 62
7
  6
CONTINUOUS
 10
91.6485580798
 20
64.1352999591
 11
89.2446262345
 21
62.4280499623
  0
LINE
  5
325
100
AcDbEntity
  8
RACCORDO
100
AcDbLine
 62
253
  6
CONTINUOUS
 10
91.754370909
 20
64.1287386172
 11
89.3579631456
 21
62.4268321533
  0
LWPOLYLINE
  5
326
100
AcDbEntity
  8
RACCORDO
100
AcDbPolyline
 62
253
  6
CONTINUOUS
 90
33
 70
0
 10
100.0979741407
 20
116.7566949926
 10
100.355165763
 20
116.5929315428
 10
100.6268039655
 20
116.4360887371
 10
100.9108982468
 20
116.2873159237
 10
101.2075444215
 20
116.1466682499
 10
101.516646675
 20
116.0140905683
 10
101.8359270618
 20
115.8905667852
 10
102.1654631397
 20
115.7761625934
 10
102.5051773508
 20
115.6708123
 10
102.8525590767
 20
115.575302732
 10
103.2076883446
 20
115.4897047827
 10
103.5704851272
 20
115.4139475588
 10
103.9381987242
 20
115.3486052074
 10
104.3108545729
 20
115.2937620315
 10
104.6884272361
 20
115.2493337281
 10
105.0680897007
 20
115.2156415358
 10
105.4498447805
 20
115.1927669476
 10
105.8336896619
 20
115.1806284705
 10
106.2167888906
 20
115.1793028638
 10
106.5991133237
 20
115.1888651566
 10
106.9806921042
 20
115.2092403199
 10
107.3587772062
 20
115.2402800253
 10
107.7333271437
 20
115.2820490379
 10
108.1043834027
 20
115.3344825927
 10
108.4693224148
 20
115.3972380658
 10
108.8281207239
 20
115.4703805789
 10
109.1808017861
 20
115.5538450104
 10
109.5248124012
 20
115.6470933724
 10
109.8601519598
 20
115.7502126683
 10
110.1868210714
 20
115.8631158947
 10
110.5022683641
 20
115.9850040527
 10
110.8056433808
 20
116.1156108092
 10
111.0977965787
 20
116.2552024973
  0
LINE
  5
327
100
AcDbEntity
  8
RACCORDO
100
AcDbLine
 62
253
  6
CONTINUOUS
 10
121.5322481793
 20
117.6958964605
 11
121.5322481793
 21
77.1106508007
  0
LINE
  5
328
100
AcDbEntity
  8
RACCORDO
100
AcDbLine
 62
7
  6
CONTINUOUS
 10
121.6725782792
 20
117.896439979
 11
121.6725782792
 21
77.3111943192
  0
LWPOLYLINE
  5
329
100
AcDbEntity
  8
RACCORDO
100
AcDbPolyline
 62
253
  6
CONTINUOUS
 90
10
 70
0
 10
121.5322481793
 20
77.1106508007
 10
121.5314081892
 20
77.0761616661
 10
121.527838345
 20
77.0434605787
 10
121.521565805
 20
77.0127963172
 10
121.5126382884
 20
76.9844021646
 10
121.5011237129
 20
76.9584941337
 10
121.4871096771
 20
76.9352693241
 10
121.4707027952
 20
76.9149044219
 10
121.4520278849
 20
76.8975543563
 10
121.4355610686
 20
76.8859413915
  0
LWPOLYLINE
  5
32A
100
AcDbEntity
  8
RACCORDO
100
AcDbPolyline
 62
253
  6
CONTINUOUS
 90
10
 70
0
 10
121.6725782792
 20
77.3111954809
 10
121.6709748838
 20
77.2880928704
 10
121.6656427643
 20
77.2632766781
 10
121.6566267296
 20
77.2388545643
 10
121.644009506
 20
77.2150066993
 10
121.6279006969
 20
77.1919089528
 10
121.6084768913
 20
77.169772809
 10
121.5859314957
 20
77.1487655487
 10
121.5604500447
 20
77.1290146253
 10
121.5322481794
 20
77.1106508003
  0
LINE
  5
32B
100
AcDbEntity
  8
RACCORDO
100
AcDbLine
 62
253
  6
CONTINUOUS
 10
94.8299826742
 20
62.3529189304
 11
94.9687803039
 21
62.4387534666
  0
LWPOLYLINE
  5
32C
100
AcDbEntity
  8
RACCORDO
100
AcDbPolyline
 62
7
  6
CONTINUOUS
 90
9
 70
0
 10
111.4041999422
 20
120.6269524275
 10
111.426849017
 20
120.62784846
 10
111.4495629994
 20
120.6272396145
 10
111.4721969009
 20
120.6251178371
 10
111.4946569189
 20
120.6215728995
 10
111.5167123466
 20
120.6165545834
 10
111.5379921544
 20
120.6098657129
 10
111.5583001163
 20
120.6015967074
 10
111.576764934
 20
120.5922021006
  0
LWPOLYLINE
  5
32D
100
AcDbEntity
  8
RACCORDO
100
AcDbPolyline
 62
7
  6
CONTINUOUS
 90
6
 70
0
 10
121.4355610686
 20
76.8859413915
 10
121.4767967076
 20
76.9143936351
 10
121.5153760812
 20
76.9472033448
 10
121.5507248919
 20
76.9840779189
 10
121.5823019755
 20
77.0246171397
 10
121.609649928
 20
77.0683603119
  0
LINE
  5
32E
100
AcDbEntity
  8
RACCORDO
100
AcDbLine
 62
253
  6
CONTINUOUS
 10
95.8199106287
 20
61.2097555663
 11
121.5322481793
 21
77.1106508007
  0
LINE
  5
32F
100
AcDbEntity
  8
RACCORDO
100
AcDbLine
 62
7
  6
CONTINUOUS
 10
95.7207331059
 20
60.983506049
 11
121.4355610686
 21
76.8859413915
  0
LWPOLYLINE
  5
330
100
AcDbEntity
  8
RACCORDO
100
AcDbPolyline
 62
253
  6
CONTINUOUS
 90
22
 70
0
 10
91.7969326064
 20
61.0186017541
 10
91.7523389338
 20
60.9934175137
 10
91.7080799112
 20
60.9648049522
 10
91.6643831736
 20
60.9329302287
 10
91.6214584164
 20
60.8979843424
 10
91.5795413497
 20
60.8601604661
 10
91.5388922262
 20
60.8196535219
 10
91.4997213064
 20
60.7766940109
 10
91.4622274665
 20
60.7315262699
 10
91.4266418501
 20
60.6843862629
 10
91.39314894
 20
60.6355395291
 10
91.361916725
 20
60.5852611124
 10
91.3331351279
 20
60.5338144581
 10
91.3069533848
 20
60.4814859707
 10
91.2835014866
 20
60.4285680108
 10
91.2629207285
 20
60.3753389423
 10
91.245318497
 20
60.3220922523
 10
91.2307806015
 20
60.2691231661
 10
91.2193939499
 20
60.2167116723
 10
91.2112207822
 20
60.1651419133
 10
91.2062977284
 20
60.1147005028
 10
91.2046492606
 20
60.0656632446
  0
LWPOLYLINE
  5
331
100
AcDbEntity
  8
RACCORDO
100
AcDbPolyline
 62
253
  6
CONTINUOUS
 90
22
 70
0
 10
91.9279582713
 20
60.7682967519
 10
91.8937198762
 20
60.7497044024
 10
91.8600286033
 20
60.7287729875
 10
91.8268844526
 20
60.7055025072
 10
91.7940961817
 20
60.679732009
 10
91.7618550329
 20
60.6516224454
 10
91.730734734
 20
60.6216566737
 10
91.7007696365
 20
60.5898136135
 10
91.6719253887
 20
60.5561143452
 10
91.6446726643
 20
60.5211049683
 10
91.6190358416
 20
60.484759896
 10
91.5949905422
 20
60.4471047152
 10
91.5729343036
 20
60.4087622851
 10
91.5529015322
 20
60.3697194868
 10
91.5348578216
 20
60.3299894393
 10
91.5190974913
 20
60.2902343588
 10
91.5056611288
 20
60.2504396265
 10
91.4945081465
 20
60.2106198611
 10
91.4858111007
 20
60.1714811356
 10
91.4796275102
 20
60.1332588076
 10
91.4758998562
 20
60.0957175194
 10
91.4746281388
 20
60.0588572712
  0
LINE
  5
332
100
AcDbEntity
  8
RACCORDO
100
AcDbLine
 62
253
  6
CONTINUOUS
 10
94.6528601677
 20
62.4551872458
 11
91.7969326064
 21
61.0186017541
  0
LINE
  5
333
100
AcDbEntity
  8
RACCORDO
100
AcDbLine
 62
253
  6
CONTINUOUS
 10
94.794605796
 20
62.2102745876
 11
91.9279582713
 21
60.7682967519
  0
LINE
  5
334
100
AcDbEntity
  8
DRAFT
100
AcDbLine
 62
7
  6
CONTINUOUS
 10
92.4107969098
 20
60.2386596605
 11
94.794605796
 21
61.3935807644
  0
LWPOLYLINE
  5
335
100
AcDbEntity
  8
RACCORDO
100
AcDbPolyline
 62
253
  6
CONTINUOUS
 90
8
 70
0
 10
112.6491909518
 20
121.4055311281
 10
112.6379835289
 20
121.4059500791
 10
112.6261464356
 20
121.4041461305
 10
112.6137029856
 20
121.4001762578
 10
112.6009526192
 20
121.3941327764
 10
112.5879951495
 20
121.3860464583
 10
112.5747307632
 20
121.3758865316
 10
112.5611594604
 20
121.3636529962
  0
LWPOLYLINE
  5
336
100
AcDbEntity
  8
RACCORDO
100
AcDbPolyline
 62
253
  6
CONTINUOUS
 90
6
 70
0
 10
112.6936082321
 20
121.3718122387
 10
112.6865380304
 20
121.3825764935
 10
112.6784655575
 20
121.3914689357
 10
112.6695572292
 20
121.3982740653
 10
112.6597920182
 20
121.402946253
 10
112.6491909518
 20
121.4055311281
  0
LWPOLYLINE
  5
337
100
AcDbEntity
  8
RACCORDO
100
AcDbPolyline
 62
7
  6
CONTINUOUS
 90
6
 70
0
 10
121.609649928
 20
77.0683603119
 10
121.6324181075
 20
77.1148595737
 10
121.6503441765
 20
77.1637503727
 10
121.6631001882
 20
77.2143013141
 10
121.6704962441
 20
77.2656125222
 10
121.6725782255
 20
77.3113280895
  0
LINE
  5
338
100
AcDbEntity
  8
RACCORDO
100
AcDbLine
 62
7
  6
CONTINUOUS
 10
92.4107969098
 20
59.4221893837
 11
92.2304052974
 21
59.3347922432
  0
LWPOLYLINE
  5
339
100
AcDbEntity
  8
RACCORDO
100
AcDbPolyline
 62
253
  6
CONTINUOUS
 90
13
 70
0
 10
91.4746281388
 20
60.0588572712
 10
91.4547543493
 20
60.0503792158
 10
91.4332215788
 20
60.0433808656
 10
91.4103585099
 20
60.0379690455
 10
91.3865141313
 20
60.0342263631
 10
91.3620524108
 20
60.0322099478
 10
91.3373467394
 20
60.0319505789
 10
91.3127742318
 20
60.0334522153
 10
91.2887099703
 20
60.0366919357
 10
91.2655212789
 20
60.041620288
 10
91.2435621167
 20
60.0481620443
 10
91.223167675
 20
60.0562173494
 10
91.2046492606
 20
60.0656632446
  0
LWPOLYLINE
  5
33A
100
AcDbEntity
  8
RACCORDO
100
AcDbPolyline
 62
253
  6
CONTINUOUS
 90
13
 70
0
 10
91.4746281388
 20
59.9740067836
 10
91.4547550987
 20
59.9655290115
 10
91.4332230234
 20
59.9585307876
 10
91.4103605334
 20
59.9531189623
 10
91.386516559
 20
59.9493761742
 10
91.3620550429
 20
59.9473595924
 10
91.3373493866
 20
59.9471000353
 10
91.3127766967
 20
59.9486014981
 10
91.2887120752
 20
59.9518410943
 10
91.2655229184
 20
59.9567693926
 10
91.243563231
 20
59.9633111795
 10
91.2231682278
 20
59.9713666175
 10
91.2046492607
 20
59.9808127581
  0
LINE
  5
33B
100
AcDbEntity
  8
RACCORDO
100
AcDbLine
 62
7
  6
CONTINUOUS
 10
106.6525518951
 20
124.4023836131
 11
106.6386443809
 21
124.4069568436
  0
LWPOLYLINE
  5
33C
100
AcDbEntity
  8
RACCORDO
100
AcDbPolyline
 62
253
  6
CONTINUOUS
 90
10
 70
0
 10
112.5948929532
 20
121.6300883906
 10
112.5789758019
 20
121.637699404
 10
112.5588627575
 20
121.6434757792
 10
112.5373965461
 20
121.6457613052
 10
112.514766394
 20
121.6445062119
 10
112.4911674178
 20
121.6396924207
 10
112.4667213388
 20
121.6313876765
 10
112.4416172382
 20
121.6196497194
 10
112.4161080921
 20
121.6045201041
 10
112.3904225227
 20
121.5860860026
  0
LWPOLYLINE
  5
33D
100
AcDbEntity
  8
RACCORDO
100
AcDbPolyline
 62
7
  6
CONTINUOUS
 90
3
 70
0
 10
106.6712260646
 20
124.3939247953
 10
106.6647290988
 20
124.3973021527
 10
106.6525518951
 20
124.4023836131
  0
LWPOLYLINE
  5
33E
100
AcDbEntity
  8
RACCORDO
100
AcDbPolyline
 62
7
  6
CONTINUOUS
 90
10
 70
0
 10
111.3644756599
 20
122.3405103529
 10
111.345883975
 20
122.3505287567
 10
111.3098902127
 20
122.3662538718
 10
111.2720485356
 20
122.3782491482
 10
111.2327399995
 20
122.3864283992
 10
111.192434302
 20
122.3907442477
 10
111.1514352734
 20
122.391224845
 10
111.1099703541
 20
122.3879293093
 10
111.0683261958
 20
122.380919712
 10
111.0267286069
 20
122.3702592562
  0
LINE
  5
33F
100
AcDbEntity
  8
RACCORDO
100
AcDbLine
 62
253
  6
CONTINUOUS
 10
115.0559448224
 20
118.5184807008
 11
111.4041999422
 21
120.6269524275
  0
LINE
  5
340
100
AcDbEntity
  8
RACCORDO
100
AcDbLine
 62
253
  6
CONTINUOUS
 10
109.3733569861
 20
121.7995356979
 11
105.6511630302
 21
123.948683838
  0
LINE
  5
341
100
AcDbEntity
  8
RACCORDO
100
AcDbLine
 62
7
  6
CONTINUOUS
 10
115.1130780308
 20
118.5503171953
 11
111.5763473329
 21
120.5923811747
  0
LINE
  5
342
100
AcDbEntity
  8
RACCORDO
100
AcDbLine
 62
7
  6
CONTINUOUS
 10
109.3962829735
 20
121.8511230131
 11
105.7486997192
 21
123.9571918692
  0
LINE
  5
343
100
AcDbEntity
  8
DRAFT
100
AcDbLine
 62
7
  6
CONTINUOUS
 10
115.3146483073
 20
118.6626387534
 11
112.1693076689
 21
120.4787190176
  0
LINE
  5
344
100
AcDbEntity
  8
DRAFT
100
AcDbLine
 62
7
  6
CONTINUOUS
 10
109.6500577328
 20
121.9333023571
 11
105.9315375997
 21
124.080329278
  0
LINE
  5
345
100
AcDbEntity
  8
RACCORDO
100
AcDbLine
 62
253
  6
CONTINUOUS
 10
105.7913677993
 20
124.6672195093
 11
105.9315375997
 21
124.5862872233
  0
LINE
  5
346
100
AcDbEntity
  8
RACCORDO
100
AcDbLine
 62
253
  6
CONTINUOUS
 10
106.4265123465
 20
124.3661214933
 11
110.2888089295
 21
122.1360798523
  0
LINE
  5
347
100
AcDbEntity
  8
RACCORDO
100
AcDbLine
 62
253
  6
CONTINUOUS
 10
112.5316543321
 20
120.8410890262
 11
115.8184154933
 21
118.9433543246
  0
LINE
  5
348
100
AcDbEntity
  8
RACCORDO
100
AcDbLine
 62
7
  6
CONTINUOUS
 10
106.6706571275
 20
124.3942797871
 11
110.4778071361
 21
122.1960790869
  0
LINE
  5
349
100
AcDbEntity
  8
RACCORDO
100
AcDbLine
 62
7
  6
CONTINUOUS
 10
112.7144991917
 20
120.9046411264
 11
115.9674736793
 21
119.0264144265
  0
LINE
  5
34A
100
AcDbEntity
  8
RACCORDO
100
AcDbLine
 62
253
  6
CONTINUOUS
 10
112.3904225227
 20
121.5860860026
 11
111.0815446031
 21
122.3418157093
  0
LINE
  5
34B
100
AcDbEntity
  8
RACCORDO
100
AcDbLine
 62
253
  6
CONTINUOUS
 10
104.0236008463
 20
126.5045006407
 11
104.1637706467
 21
126.4235683547
  0
LINE
  5
34C
100
AcDbEntity
  8
RACCORDO
100
AcDbLine
 62
7
  6
CONTINUOUS
 10
112.5950639216
 20
121.629989856
 11
111.3645306155
 21
122.3404843649
  0
LINE
  5
34D
100
AcDbEntity
  8
RACCORDO
100
AcDbLine
 62
7
  6
CONTINUOUS
 10
112.7146347644
 20
120.9045482757
 11
112.7137406784
 21
120.9050715819
  0
LWPOLYLINE
  5
34E
100
AcDbEntity
  8
RACCORDO
100
AcDbPolyline
 62
7
  6
CONTINUOUS
 90
9
 70
0
 10
105.8900925285
 20
124.677801374
 10
105.895996922
 20
124.6739754027
 10
105.9051060558
 20
124.6660832016
 10
105.9129528995
 20
124.6564186882
 10
105.9195764916
 20
124.6450366742
 10
105.9247676735
 20
124.6322965788
 10
105.9284567257
 20
124.6183182083
 10
105.9307133678
 20
124.6029817565
 10
105.9315375997
 20
124.5862872233
  0
LWPOLYLINE
  5
34F
100
AcDbEntity
  8
RACCORDO
100
AcDbPolyline
 62
7
  6
CONTINUOUS
 90
9
 70
0
 10
104.1223255755
 20
126.5150825055
 10
104.1282299691
 20
126.5112565341
 10
104.1373391029
 20
126.5033643331
 10
104.1451859465
 20
126.4936998196
 10
104.1518095386
 20
126.4823178056
 10
104.1570007205
 20
126.4695777102
 10
104.1606897727
 20
126.4555993398
 10
104.1629464148
 20
126.4402628879
 10
104.1637706467
 20
126.4235683547
  0
LWPOLYLINE
  5
350
100
AcDbEntity
  8
RACCORDO
100
AcDbPolyline
 62
7
  6
CONTINUOUS
 90
10
 70
0
 10
106.5351030703
 20
125.9455299506
 10
106.5649401865
 20
125.9258437043
 10
106.5928884525
 20
125.902148729
 10
106.6184219526
 20
125.8745347332
 10
106.640990082
 20
125.8432533099
 10
106.6602099641
 20
125.8084872587
 10
106.6758301845
 20
125.7701588228
 10
106.6874833659
 20
125.728275594
 10
106.694732685
 20
125.683141676
 10
106.6972230246
 20
125.6350066014
  0
LWPOLYLINE
  5
351
100
AcDbEntity
  8
RACCORDO
100
AcDbPolyline
 62
253
  6
CONTINUOUS
 90
10
 70
0
 10
121.4225913584
 20
118.3294451293
 10
121.4017713687
 20
118.3396126156
 10
121.3776151928
 20
118.3474005647
 10
121.3519583526
 20
118.3518011325
 10
121.3249982782
 20
118.3527959101
 10
121.2969420382
 20
118.3503919224
 10
121.268060982
 20
118.3446363707
 10
121.2385966391
 20
118.3356130999
 10
121.2087521723
 20
118.3234190628
 10
121.178748637
 20
118.3081756281
  0
LWPOLYLINE
  5
352
100
AcDbEntity
  8
RACCORDO
100
AcDbPolyline
 62
253
  6
CONTINUOUS
 90
10
 70
0
 10
102.5370612107
 20
129.2337135453
 10
102.5162412721
 20
129.2438810108
 10
102.4920851131
 20
129.251668964
 10
102.4664282838
 20
129.2560695403
 10
102.4394682082
 20
129.257064328
 10
102.4114119583
 20
129.2546603481
 10
102.3825308887
 20
129.2489048004
 10
102.3530665306
 20
129.2398815299
 10
102.3232220455
 20
129.2276874884
 10
102.2932184891
 20
129.2124440442
  0
LWPOLYLINE
  5
353
100
AcDbEntity
  8
RACCORDO
100
AcDbPolyline
 62
253
  6
CONTINUOUS
 90
10
 70
0
 10
106.5351030704
 20
125.9455299506
 10
106.5149661206
 20
125.9554184563
 10
106.4909582848
 20
125.9632796297
 10
106.4654182768
 20
125.9677860453
 10
106.4385361792
 20
125.9689041643
 10
106.4105120622
 20
125.9666256649
 10
106.381554496
 20
125.960967505
 10
106.3518789979
 20
125.9519717956
 10
106.3217064285
 20
125.9397054874
 10
106.2912613477
 20
125.9242598727
  0
LWPOLYLINE
  5
354
100
AcDbEntity
  8
RACCORDO
100
AcDbPolyline
 62
253
  6
CONTINUOUS
 90
10
 70
0
 10
104.7673361173
 20
127.9459807661
 10
104.7471991678
 20
127.9558692717
 10
104.7231913331
 20
127.9637304448
 10
104.6976513261
 20
127.9682368606
 10
104.6707692284
 20
127.9693549798
 10
104.6427451108
 20
127.9670764806
 10
104.6137875441
 20
127.9614183207
 10
104.5841120456
 20
127.9524226113
 10
104.5539394758
 20
127.940156303
 10
104.5234943948
 20
127.9247106882
  0
LWPOLYLINE
  5
355
100
AcDbEntity
  8
RACCORDO
100
AcDbPolyline
 62
7
  6
CONTINUOUS
 90
10
 70
0
 10
119.1923144536
 20
119.6171790622
 10
119.1608760857
 20
119.6329508284
 10
119.1269987268
 20
119.6451996407
 10
119.0910077732
 20
119.6535377272
 10
119.053384865
 20
119.6576319602
 10
119.0144505301
 20
119.6572584934
 10
118.9742258024
 20
119.6521709412
 10
118.9328842047
 20
119.6420601091
 10
118.890900064
 20
119.6267034211
 10
118.8486521727
 20
119.6059216427
  0
LINE
  5
356
100
AcDbEntity
  8
RACCORDO
100
AcDbLine
 62
253
  6
CONTINUOUS
 10
118.0271069168
 20
119.1481297258
 11
117.180705778
 21
119.6368311354
  0
LINE
  5
357
100
AcDbEntity
  8
RACCORDO
100
AcDbLine
 62
253
  6
CONTINUOUS
 10
106.2912613477
 20
125.9242598727
 11
105.230601176
 21
126.5366717627
  0
LINE
  5
358
100
AcDbEntity
  8
RACCORDO
100
AcDbLine
 62
7
  6
CONTINUOUS
 10
118.1699399379
 20
119.227720962
 11
117.4245475006
 21
119.6581012134
  0
LINE
  5
359
100
AcDbEntity
  8
RACCORDO
100
AcDbLine
 62
7
  6
CONTINUOUS
 10
106.5351030703
 20
125.9455299506
 11
105.4744428986
 21
126.5579418406
  0
LINE
  5
35A
100
AcDbEntity
  8
RACCORDO
100
AcDbLine
 62
253
  6
CONTINUOUS
 10
102.2932184891
 20
129.2124440442
 11
104.5234943948
 21
127.9247106882
  0
LINE
  5
35B
100
AcDbEntity
  8
RACCORDO
100
AcDbLine
 62
253
  6
CONTINUOUS
 10
118.948472731
 20
119.5959089843
 11
121.1787486366
 21
118.3081756283
  0
LINE
  5
35C
100
AcDbEntity
  8
RACCORDO
100
AcDbLine
 62
7
  6
CONTINUOUS
 10
102.5370602117
 20
129.2337141221
 11
104.7673361174
 21
127.9459807661
  0
LINE
  5
35D
100
AcDbEntity
  8
RACCORDO
100
AcDbLine
 62
7
  6
CONTINUOUS
 10
119.1923144536
 20
119.6171790622
 11
121.4225903592
 21
118.3294457062
  0
LWPOLYLINE
  5
35E
100
AcDbEntity
  8
RACCORDO
100
AcDbPolyline
 62
253
  6
CONTINUOUS
 90
19
 70
0
 10
121.1787486366
 20
118.3081756283
 10
121.2100662377
 20
118.2891233894
 10
121.2410986433
 20
118.2670837508
 10
121.2716097697
 20
118.2422243825
 10
121.3013674986
 20
118.2147344059
 10
121.3301454437
 20
118.1848229553
 10
121.3577246722
 20
118.1527175867
 10
121.383895371
 20
118.1186625465
 10
121.4084584423
 20
118.0829169138
 10
121.4312270188
 20
118.045752629
 10
121.4520278851
 20
118.0074524253
 10
121.4707027952
 20
117.9683076773
 10
121.4871096772
 20
117.9286161846
 10
121.5011237129
 20
117.8886799063
 10
121.5126382885
 20
117.848802664
 10
121.521565805
 20
117.8092878299
 10
121.527838345
 20
117.7704360193
 10
121.5314081892
 20
117.7325428033
 10
121.5322481793
 20
117.6958964605
  0
LWPOLYLINE
  5
35F
100
AcDbEntity
  8
RACCORDO
100
AcDbPolyline
 62
7
  6
CONTINUOUS
 90
3
 70
0
 10
102.2437055102
 20
129.2988262568
 10
102.2952634652
 20
129.3006408799
 10
102.3469187752
 20
129.2971109594
  0
LWPOLYLINE
  5
360
100
AcDbEntity
  8
RACCORDO
100
AcDbPolyline
 62
7
  6
CONTINUOUS
 90
5
 70
0
 10
102.3469187752
 20
129.2971109594
 10
102.3982244867
 20
129.2881915106
 10
102.4483830629
 20
129.2739641794
 10
102.4965202724
 20
129.2547143665
 10
102.5371760403
 20
129.2336471822
  0
ARC
  5
361
100
AcDbEntity
  8
RACCORDO
100
AcDbCircle
 62
7
  6
CONTINUOUS
 10
121.1725782792
 20
117.896439979
 40
0.5
100
AcDbArc
 50
0.0385480344
 51
59.9614528475
  0
ELLIPSE
  5
362
100
AcDbEntity
  8
RACCORDO
100
AcDbEllipse
 62
7
  6
CONTINUOUS
 10
75.667421221
 20
72.8456747421
 30
0.0
 11
-0.2500120911
 21
0.4330057209
 31
0.0
 40
0.5775075436
 41
0.7855021057
 42
2.3265063599
  0
ELLIPSE
  5
363
100
AcDbEntity
  8
RACCORDO
100
AcDbEllipse
 62
7
  6
CONTINUOUS
 10
92.1018477755
 20
59.4232531353
 30
0.0
 11
0.2505330566
 21
0.0604046632
 31
0.0
 40
0.4927221957
 41
-2.6634399313
 42
-1.1543745879
  0
ELLIPSE
  5
364
100
AcDbEntity
  8
RACCORDO
100
AcDbEllipse
 62
7
  6
CONTINUOUS
 10
76.8283413018
 20
68.2419843512
 30
0.0
 11
0.2505330566
 21
0.0604046632
 31
0.0
 40
0.4927221957
 41
-2.6634399313
 42
-1.1543745879
  0
ELLIPSE
  5
365
100
AcDbEntity
  8
RACCORDO
100
AcDbEllipse
 62
7
  6
CONTINUOUS
 10
104.0653469625
 20
78.7549535867
 30
0.0
 11
9.1996242899
 21
0.1415521166
 31
0.0
 40
0.5873737521
 41
3.1325818834
 42
3.2837545151
  0
ELLIPSE
  5
366
100
AcDbEntity
  8
RACCORDO
100
AcDbEllipse
 62
7
  6
CONTINUOUS
 10
105.9315375997
 20
118.7295235073
 30
0.0
 11
7.4997336285
 21
-0.1114371883
 31
0.0
 40
0.5672251703
 41
8.6478078942
 42
9.3544288122
  0
ELLIPSE
  5
367
100
AcDbEntity
  8
RACCORDO
100
AcDbEllipse
 62
7
  6
CONTINUOUS
 10
104.1637706467
 20
118.5610605264
 30
0.0
 11
9.999644838
 21
-0.1485829178
 31
0.0
 40
0.5672251703
 41
8.6478078942
 42
9.3612408441
  0
ELLIPSE
  5
368
100
AcDbEntity
  8
RACCORDO
100
AcDbEllipse
 62
7
  6
CONTINUOUS
 10
94.8299395926
 20
102.6865506045
 30
0.0
 11
-0.1000048364
 21
0.1732022883
 31
0.0
 40
0.5775075436
 41
-2.3560905478
 42
-0.7855988075
  0
ELLIPSE
  5
369
100
AcDbEntity
  8
RACCORDO
100
AcDbEllipse
 62
7
  6
CONTINUOUS
 10
92.1018477755
 20
103.5126480821
 30
0.0
 11
0.2505330566
 21
0.0604046632
 31
0.0
 40
0.4927221957
 41
-2.6635034198
 42
-1.1543745879
  0
ELLIPSE
  5
36A
100
AcDbEntity
  8
RACCORDO
100
AcDbEllipse
 62
7
  6
CONTINUOUS
 10
76.8283413018
 20
112.331379298
 30
0.0
 11
0.2505330566
 21
0.0604046632
 31
0.0
 40
0.4927221957
 41
-2.6635034198
 42
-1.1543745879
  0
ELLIPSE
  5
36B
100
AcDbEntity
  8
RACCORDO
100
AcDbEllipse
 62
7
  6
CONTINUOUS
 10
91.7545868435
 20
63.9652950097
 30
0.0
 11
-0.1008284495
 21
0.1733613851
 31
0.0
 40
0.5764462677
 41
-0.788334703
 42
0.0528413721
  0
ELLIPSE
  5
36C
100
AcDbEntity
  8
RACCORDO
100
AcDbEllipse
 62
7
  6
CONTINUOUS
 10
95.466303382
 20
103.0539080657
 30
0.0
 11
-0.2500120911
 21
0.4330057209
 31
0.0
 40
0.5775075436
 41
-2.3560905478
 42
-0.7855988075
  0
ELLIPSE
  5
36D
100
AcDbEntity
  8
RACCORDO
100
AcDbEllipse
 62
7
  6
CONTINUOUS
 10
95.466303382
 20
61.4140483206
 30
0.0
 11
-0.2500882309
 21
0.4331376414
 31
0.0
 40
0.5771558487
 41
2.3562984914
 42
3.9267902317
  0
ELLIPSE
  5
36E
100
AcDbEntity
  8
RACCORDO
100
AcDbEllipse
 62
7
  6
CONTINUOUS
 10
76.4810803699
 20
72.7840262256
 30
0.0
 11
-0.1008284495
 21
0.1733613851
 31
0.0
 40
0.5764462677
 41
-0.788334703
 42
0.0528413721
  0
ELLIPSE
  5
36F
100
AcDbEntity
  8
RACCORDO
100
AcDbEllipse
 62
7
  6
CONTINUOUS
 10
75.667421221
 20
114.4855344872
 30
0.0
 11
-0.2500882309
 21
0.4331376414
 31
0.0
 40
0.5771558487
 41
-0.7852941622
 42
0.7851975781
  0
ELLIPSE
  5
370
100
AcDbEntity
  8
RACCORDO
100
AcDbEllipse
 62
7
  6
CONTINUOUS
 10
104.1637706467
 20
78.8137658905
 30
0.0
 11
9.9995916195
 21
0.1538609963
 31
0.0
 40
0.5873737521
 41
2.7282611269
 42
3.5366595879
  0
ELLIPSE
  5
371
100
AcDbEntity
  8
RACCORDO
100
AcDbEllipse
 62
7
  6
CONTINUOUS
 10
104.0653469627
 20
118.5062156269
 30
0.0
 11
9.199673251
 21
-0.1366962843
 31
0.0
 40
0.5672251703
 41
2.3646225871
 42
3.5229985736
  0
ELLIPSE
  5
372
100
AcDbEntity
  8
RACCORDO
100
AcDbEllipse
 62
7
  6
CONTINUOUS
 10
105.8047356251
 20
118.6588652951
 30
0.0
 11
6.6997620415
 21
-0.0995505549
 31
0.0
 40
0.5672251703
 41
2.364622587
 42
3.5896068125
  0
ELLIPSE
  5
373
100
AcDbEntity
  8
RACCORDO
100
AcDbEllipse
 62
7
  6
CONTINUOUS
 10
89.6142144766
 20
104.9489763715
 30
0.0
 11
0.2349969422
 21
0.0693758741
 31
0.0
 40
0.5450745446
 41
8.3937303342
 42
9.902859166
  0
ELLIPSE
  5
374
100
AcDbEntity
  8
RACCORDO
100
AcDbEllipse
 62
7
  6
CONTINUOUS
 10
112.5316543321
 20
120.4328538878
 30
0.0
 11
0.1684523637
 21
0.478397941
 31
0.0
 40
0.4107397944
 41
-0.0716457567
 42
0.7087034303
  0
ELLIPSE
  5
375
100
AcDbEntity
  8
RACCORDO
100
AcDbEllipse
 62
7
  6
CONTINUOUS
 10
76.3037850104
 20
73.2130322033
 30
0.0
 11
-0.1000048364
 21
0.1732022883
 31
0.0
 40
0.5775075436
 41
0.7855021057
 42
2.355993846
  0
ELLIPSE
  5
376
100
AcDbEntity
  8
RACCORDO
100
AcDbEllipse
 62
7
  6
CONTINUOUS
 10
74.340708003
 20
113.7677075874
 30
0.0
 11
0.2349969422
 21
0.0693758741
 31
0.0
 40
0.5450745446
 41
8.3937303342
 42
9.902859166
  0
ELLIPSE
  5
377
100
AcDbEntity
  8
RACCORDO
100
AcDbEllipse
 62
7
  6
CONTINUOUS
 10
79.3791377595
 20
71.11072421
 30
0.0
 11
-0.1006785842
 21
0.1730959295
 31
0.0
 40
0.5782025297
 41
-2.3591535909
 42
-0.7898783421
  0
ELLIPSE
  5
378
100
AcDbEntity
  8
RACCORDO
100
AcDbEllipse
 62
7
  6
CONTINUOUS
 10
94.6526442331
 20
62.2919929941
 30
0.0
 11
-0.1006785842
 21
0.1730959295
 31
0.0
 40
0.5782025297
 41
-2.3591535909
 42
-0.7898783421
  0
ELLIPSE
  5
379
100
AcDbEntity
  8
RACCORDO
100
AcDbEllipse
 62
7
  6
CONTINUOUS
 10
79.3791377595
 20
111.9342877981
 30
0.0
 11
-0.1008284495
 21
0.1733613851
 31
0.0
 40
0.5764462677
 41
-3.1943287709
 42
-2.3606521079
  0
ELLIPSE
  5
37A
100
AcDbEntity
  8
RACCORDO
100
AcDbEllipse
 62
7
  6
CONTINUOUS
 10
94.8299395926
 20
62.5162627348
 30
0.0
 11
-0.1000352924
 21
0.1732550566
 31
0.0
 40
0.5771558487
 41
-3.9268868158
 42
-2.3563950755
  0
ELLIPSE
  5
37B
100
AcDbEntity
  8
RACCORDO
100
AcDbEllipse
 62
7
  6
CONTINUOUS
 10
94.6526442331
 20
103.1155565823
 30
0.0
 11
-0.1008284495
 21
0.1733613851
 31
0.0
 40
0.5764462677
 41
-3.1943287709
 42
-2.3606521079
  0
ENDSEC
  0
SECTION
  2
OBJECTS
  0
DICTIONARY
  5
C
100
AcDbDictionary
280
0
281
1
  3
ACAD_GROUP
350
D
  3
ACAD_MLINESTYLE
350
17
  3
ACAD_LAYOUT
350
1A
  3
ACAD_PLOTSETTINGS
350
19
  3
ACAD_PLOTSTYLENAME
350
E
  0
DICTIONARY
  5
D
102
{ACAD_REACTORS
330
C
102
}
100
AcDbDictionary
280
0
281
1
  0
ACDBDICTIONARYWDFLT
  5
E
102
{ACAD_REACTORS
330
C
102
}
100
AcDbDictionary
281
1
  3
Normal
350
F
100
AcDbDictionaryWithDefault
340
F
  0
DICTIONARY
  5
17
102
{ACAD_REACTORS
330
C
102
}
100
AcDbDictionary
280
0
281
1
  3
Standard
350
18
  0
DICTIONARY
  5
19
102
{ACAD_REACTORS
330
C
102
}
100
AcDbDictionary
281
1
  0
DICTIONARY
  5
1A
102
{ACAD_REACTORS
330
C
102
}
100
AcDbDictionary
281
1
  3
Model
350
37C
  3
Layout1
350
37D
  0
ACDBPLACEHOLDER
  5
F
102
{ACAD_REACTORS
330
E
102
}
  0
MLINESTYLE
  5
18
102
{ACAD_REACTORS
330
17
102
}
100
AcDbMlineStyle
  2
STANDARD
 70
0
  3

 62
256
 51
90.0
 52
90.0
 71
2
 49
0.5
 62
256
  6
BYLAYER
 49
-0.5
 62
256
  6
BYLAYER
  0
LAYOUT
  5
37C
102
{ACAD_REACTORS
330
1A
102
}
100
AcDbPlotSettings
  1

  2
none_device
  4
ISO_A4_(297.00_x_210.00_MM)
  6

 40
0.0
 41
0.0
 42
0.0
 43
0.0
 44
297.0
 45
210.0
 46
0.0
 47
0.0
 48
0.0
 49
0.0
140
0.0
141
0.0
142
1.0
143
1.0
 70
1024
 72
1
 73
0
 74
0
  7

 75
0
147
1.0
148
0.0
149
0.0
100
AcDbLayout
  1
Model
 70
0
 71
0
 10
0.0
 20
0.0
 11
297.0
 21
210.0
 12
0.0
 22
0.0
 32
0.0
 14
0.0
 24
0.0
 34
0.0
 15
0.0
 25
0.0
 35
0.0
146
0.0
 13
0.0
 23
0.0
 33
0.0
 16
1.0
 26
0.0
 36
0.0
 17
0.0
 27
1.0
 37
0.0
 76
0
330
20F
345
0
346
0
  0
LAYOUT
  5
37D
102
{ACAD_REACTORS
330
1A
102
}
100
AcDbPlotSettings
  1

  2
none_device
  4
ISO_A4_(297.00_x_210.00_MM)
  6

 40
0.0
 41
0.0
 42
0.0
 43
0.0
 44
297.0
 45
210.0
 46
0.0
 47
0.0
 48
0.0
 49
0.0
140
0.0
141
0.0
142
1.0
143
1.0
 70
0
 72
1
 73
0
 74
0
  7

 75
0
147
1.0
148
0.0
149
0.0
100
AcDbLayout
  1
Layout1
 70
0
 71
1
 10
0.0
 20
0.0
 11
297.0
 21
210.0
 12
0.0
 22
0.0
 32
0.0
 14
0.0
 24
0.0
 34
0.0
 15
0.0
 25
0.0
 35
0.0
146
0.0
 13
0.0
 23
0.0
 33
0.0
 16
1.0
 26
0.0
 36
0.0
 17
0.0
 27
1.0
 37
0.0
 76
0
330
210
345
0
346
0
  0
ENDSEC
  0
EOF
