  0
SECTION
  2
HEADER
  9
$ACADVER
  1
AC1024
  9
$DWGCODEPAGE
  3
ANSI_1252
  9
$EXTMAX
 10
297.0
 20
210.0
 30
0.0
  9
$EXTMIN
 10
0.0
 20
0.0
 30
0.0
  9
$LIMMIN
 10
0.0
 20
0.0
  9
$LIMMAX
 10
297.0
 20
210.0
  9
$VIEWCTR
 10
148.5
 20
105.0
  9
$VIEWSIZE
 40
210.0
  9
$CLAYER
  8
0
  9
$LTSCALE
 40
16.335
  9
$CELTYPE
  6
BYLAYER
  9
$DIMSCALE
 40
1.0
  9
$DIMASZ
 40
3.0
  9
$DIMEXO
 40
0.5
  9
$DIMDLI
 40
11.286
  9
$DIMEXE
 40
1.5
  9
$DIMCEN
 40
2.673
  9
$DIMLFAC
 40
1.0
  9
$DIMBLK
  1
_FILLED
  9
$DIMALT
 70
0
  9
$DIMALTF
 40
0.0393700787
  9
$DIMTXT
 40
3.0
  9
$DIMTOL
 70
1
  9
$DIMLIM
 70
0
  9
$DIMTFAC
 40
1.0
  9
$DIMTP
 40
0.01
  9
$DIMTM
 40
0.01
  9
$DIMGAP
 40
0.625
  9
$DIMDSEP
 70
44
  9
$AUNITS
 70
0
  9
$PDMODE
 70
3
  9
$PDSIZE
 40
3.0
  9
$HANDSEED
  5
3AD
  9
$TILEMODE
 70
1
  9
$MEASUREMENT
 70
1
  9
$INSUNITS
 70
4
  0
ENDSEC
  0
SECTION
  2
CLASSES
  0
CLASS
  1
ACDBDICTIONARYWDFLT
  2
AcDbDictionaryWithDefault
  3
AutoCAD 2000
 90
0
 91
1
280
0
281
0
  0
CLASS
  1
ACDBPLACEHOLDER
  2
AcDbPlaceHolder
  3
AutoCAD 2000
 90
0
 91
1
280
0
281
0
  0
CLASS
  1
LAYOUT
  2
AcDbLayout
  3
AutoCAD 2000
 90
0
 91
0
280
0
281
0
  0
ENDSEC
  0
SECTION
  2
TABLES
  0
TABLE
  2
VPORT
  5
8
100
AcDbSymbolTable
 70
2
  0
VPORT
  5
1F4
100
AcDbSymbolTableRecord
100
AcDbViewportTableRecord
  2
*ACTIVE
 70
0
 10
0.0
 20
0.0
 11
1.0
 21
1.0
 12
148.5
 22
105.0
 13
0.0
 23
0.0
 14
1.0
 24
1.0
 15
0.0
 25
0.0
 16
0.0
 26
0.0
 36
1.0
 17
0.0
 27
0.0
 37
0.0
 40
210.0
 41
1.4142857143
 42
50.0
 43
0.0
 44
0.0
 50
0.0
 51
0.0
 71
0
 72
100
 73
1
 74
1
 75
0
 76
0
 77
0
 78
0
  0
ENDTAB
  0
TABLE
  2
LTYPE
  5
5
100
AcDbSymbolTable
 70
6
  0
LTYPE
  5
14
100
AcDbSymbolTableRecord
100
AcDbLinetypeTableRecord
  2
BYBLOCK
 70
0
  3

 72
65
 73
0
 40
0.0
  0
LTYPE
  5
15
100
AcDbSymbolTableRecord
100
AcDbLinetypeTableRecord
  2
BYLAYER
 70
0
  3

 72
65
 73
0
 40
0.0
  0
LTYPE
  5
16
100
AcDbSymbolTableRecord
100
AcDbLinetypeTableRecord
  2
CONTINUOUS
 70
64
  3
Solid line
 72
65
 73
0
 40
0.0
  0
LTYPE
  5
1F5
100
AcDbSymbolTableRecord
100
AcDbLinetypeTableRecord
  2
CENTER
 70
64
  3
____ _ ____ _ ____ _ ____ _ ____ _ ____ _ ____
 72
65
 73
4
 40
0.6
 49
0.375
 74
0
 49
-0.075
 74
0
 49
0.075
 74
0
 49
-0.075
 74
0
  0
LTYPE
  5
1F6
100
AcDbSymbolTableRecord
100
AcDbLinetypeTableRecord
  2
HIDDEN
 70
64
  3
- - - - - - - - - - - - - - - - - - - -
 72
65
 73
2
 40
0.2
 49
0.1
 74
0
 49
-0.1
 74
0
  0
LTYPE
  5
1F7
100
AcDbSymbolTableRecord
100
AcDbLinetypeTableRecord
  2
PHANTOM
 70
64
  3
_____ _ _ _____ _ _ _____ _ _ _____
 72
65
 73
6
 40
0.8
 49
0.45
 74
0
 49
-0.05
 74
0
 49
0.1
 74
0
 49
-0.05
 74
0
 49
0.1
 74
0
 49
-0.05
 74
0
  0
LTYPE
  5
1F8
100
AcDbSymbolTableRecord
100
AcDbLinetypeTableRecord
  2
DOT
 70
64
  3
. . . . . . . . . . . . . . . . . . . .
 72
65
 73
2
 40
0.2
 49
0.1
 74
0
 49
-0.1
 74
0
  0
LTYPE
  5
1F9
100
AcDbSymbolTableRecord
100
AcDbLinetypeTableRecord
  2
DASHED
 70
64
  3
- - - - - - - - - - - - - - - - - - - -
 72
65
 73
2
 40
0.2
 49
0.1
 74
0
 49
-0.1
 74
0
  0
ENDTAB
  0
TABLE
  2
LAYER
  5
2
100
AcDbSymbolTable
 70
36
  0
LAYER
  5
10
100
AcDbSymbolTableRecord
100
AcDbLayerTableRecord
  2
0
 70
0
 62
7
  6
CONTINUOUS
370
-3
390
F
  0
LAYER
  5
1FA
100
AcDbSymbolTableRecord
100
AcDbLayerTableRecord
  2
DEFAULT_1
 70
0
 62
7
  6
CENTER
370
-3
390
F
  0
LAYER
  5
1FB
100
AcDbSymbolTableRecord
100
AcDbLayerTableRecord
  2
DEFAULT_2
 70
0
 62
7
  6
HIDDEN
370
-3
390
F
  0
LAYER
  5
1FC
100
AcDbSymbolTableRecord
100
AcDbLayerTableRecord
  2
DEFAULT_3
 70
0
 62
7
  6
PHANTOM
370
-3
390
F
  0
LAYER
  5
1FD
100
AcDbSymbolTableRecord
100
AcDbLayerTableRecord
  2
ASSI
 70
0
 62
7
  6
CONTINUOUS
370
-3
390
F
  0
LAYER
  5
1FE
100
AcDbSymbolTableRecord
100
AcDbLayerTableRecord
  2
COLOR5
 70
0
 62
7
  6
CONTINUOUS
370
-3
390
F
  0
LAYER
  5
1FF
100
AcDbSymbolTableRecord
100
AcDbLayerTableRecord
  2
COORDINATE
 70
0
 62
7
  6
CONTINUOUS
370
-3
390
F
  0
LAYER
  5
200
100
AcDbSymbolTableRecord
100
AcDbLayerTableRecord
  2
COORD_ORIGINE
 70
0
 62
7
  6
CONTINUOUS
370
-3
390
F
  0
LAYER
  5
201
100
AcDbSymbolTableRecord
100
AcDbLayerTableRecord
  2
CURVE
 70
0
 62
7
  6
CONTINUOUS
370
-3
390
F
  0
LAYER
  5
202
100
AcDbSymbolTableRecord
100
AcDbLayerTableRecord
  2
DRAFT
 70
0
 62
7
  6
CONTINUOUS
370
-3
390
F
  0
LAYER
  5
203
100
AcDbSymbolTableRecord
100
AcDbLayerTableRecord
  2
INCISIONI
 70
0
 62
7
  6
CONTINUOUS
370
-3
390
F
  0
LAYER
  5
204
100
AcDbSymbolTableRecord
100
AcDbLayerTableRecord
  2
INTF_YELLOW
 70
0
 62
7
  6
CONTINUOUS
370
-3
390
F
  0
LAYER
  5
205
100
AcDbSymbolTableRecord
100
AcDbLayerTableRecord
  2
PIANI
 70
0
 62
7
  6
CONTINUOUS
370
-3
390
F
  0
LAYER
  5
206
100
AcDbSymbolTableRecord
100
AcDbLayerTableRecord
  2
PIANI_ORIGINE
 70
0
 62
7
  6
CONTINUOUS
370
-3
390
F
  0
LAYER
  5
207
100
AcDbSymbolTableRecord
100
AcDbLayerTableRecord
  2
PUNTI
 70
0
 62
7
  6
CONTINUOUS
370
-3
390
F
  0
LAYER
  5
208
100
AcDbSymbolTableRecord
100
AcDbLayerTableRecord
  2
RACCORDO
 70
0
 62
7
  6
CONTINUOUS
370
-3
390
F
  0
LAYER
  5
209
100
AcDbSymbolTableRecord
100
AcDbLayerTableRecord
  2
SNAPLINE
 70
0
 62
7
  6
CONTINUOUS
370
-3
390
F
  0
LAYER
  5
20A
100
AcDbSymbolTableRecord
100
AcDbLayerTableRecord
  2
SUPERFICI
 70
0
 62
7
  6
CONTINUOUS
370
-3
390
F
  0
LAYER
  5
20B
100
AcDbSymbolTableRecord
100
AcDbLayerTableRecord
  2
TRASH
 70
0
 62
7
  6
CONTINUOUS
370
-3
390
F
  0
LAYER
  5
20C
100
AcDbSymbolTableRecord
100
AcDbLayerTableRecord
  2
XSEC_DATUMS
 70
0
 62
7
  6
CONTINUOUS
370
-3
390
F
  0
ENDTAB
  0
TABLE
  2
STYLE
  5
3
100
AcDbSymbolTable
 70
1
  0
STYLE
  5
11
100
AcDbSymbolTableRecord
100
AcDbTextStyleTableRecord
  2
STANDARD
 70
0
 40
0.0
 41
0.8
 50
0.0
 71
0
 42
0.2
  3
txt
  4

  0
STYLE
  5
20D
100
AcDbSymbolTableRecord
100
AcDbTextStyleTableRecord
  2
TEXTSTYLE_1
 70
0
 40
0.0
 41
0.8
 50
0.0
 71
0
 42
0.2
  3
gdt
  4

  0
ENDTAB
  0
TABLE
  2
VIEW
  5
6
100
AcDbSymbolTable
 70
0
  0
ENDTAB
  0
TABLE
  2
UCS
  5
7
100
AcDbSymbolTable
 70
0
  0
ENDTAB
  0
TABLE
  2
APPID
  5
9
100
AcDbSymbolTable
 70
1
  0
APPID
  5
20E
100
AcDbSymbolTableRecord
100
AcDbRegAppTableRecord
  2
ACAD
 70
0
  0
ENDTAB
  0
TABLE
  2
BLOCK_RECORD
  5
1
100
AcDbSymbolTable
 70
0
  0
BLOCK_RECORD
  5
20F
100
AcDbSymbolTableRecord
100
AcDbBlockTableRecord
  2
*Model_Space
  0
BLOCK_RECORD
  5
210
100
AcDbSymbolTableRecord
100
AcDbBlockTableRecord
  2
*Paper_Space
  0
BLOCK_RECORD
  5
211
100
AcDbSymbolTableRecord
100
AcDbBlockTableRecord
  2
_FILLED
  0
ENDTAB
  0
TABLE
  2
DIMSTYLE
  5
A
100
AcDbSymbolTable
 70
1
100
AcDbDimStyleTable
 71
0
  0
DIMSTYLE
105
212
100
AcDbSymbolTableRecord
100
AcDbDimStyleTableRecord
  2
STANDARD
 70
0
  3

  4

 40
1.0
 41
3.0
 42
0.5
 43
0.38
 44
1.5
 45
0.0
 46
0.0
 47
0.01
 48
0.01
140
3.0
141
0.09
142
0.0
143
25.4
144
1.0
145
0.0
146
1.0
147
0.625
 71
1
 72
0
 73
0
 74
0
 75
0
 76
0
 77
1
 78
8
 79
2
170
0
171
1
172
0
173
0
174
0
175
0
176
0
177
0
178
0
270
2
179
2
271
2
272
2
273
2
274
2
275
0
280
0
281
0
282
0
283
1
284
8
285
0
286
0
287
3
288
0
340
11
278
44
341
211
342
211
343
211
344
211
  0
ENDTAB
  0
ENDSEC
  0
SECTION
  2
BLOCKS
  0
BLOCK
  5
20
100
AcDbEntity
  8
0
100
AcDbBlockBegin
  2
*Model_Space
 70
0
 10
0.0
 20
0.0
 30
0.0
  3
*Model_Space
  1

  0
ENDBLK
  5
21
100
AcDbEntity
  8
0
100
AcDbBlockEnd
  0
BLOCK
  5
1C
100
AcDbEntity
  8
0
100
AcDbBlockBegin
  2
*Paper_Space
 70
0
 10
0.0
 20
0.0
 30
0.0
  3
*Paper_Space
  1

  0
ENDBLK
  5
1D
100
AcDbEntity
  8
0
100
AcDbBlockEnd
  0
BLOCK
  5
213
100
AcDbEntity
  8
0
100
AcDbBlockBegin
  2
_FILLED
 70
64
 10
0.0
 20
0.0
  3
_FILLED
  1

  0
SOLID
  5
214
100
AcDbEntity
  8
0
  6
BYBLOCK
 62
0
100
AcDbTrace
 10
0.0
 20
0.0
 11
-1.0
 21
0.3166666667
 12
-1.0
 22
-0.3166666667
 13
-1.0
 23
-0.3166666667
  0
ENDBLK
  5
215
100
AcDbEntity
  8
0
  6
BYBLOCK
 62
0
100
AcDbBlockEnd
  0
ENDSEC
  0
SECTION
  2
ENTITIES
  0
LINE
  5
216
100
AcDbEntity
  8
RACCORDO
100
AcDbLine
 62
7
  6
CONTINUOUS
 10
-7.7622188115
 20
28.0966436854
 11
-5.5794916421
 21
29.8307408432
  0
LINE
  5
217
100
AcDbEntity
  8
RACCORDO
100
AcDbLine
 62
250
  6
CONTINUOUS
 10
-7.5531391198
 20
28.0638302567
 11
-5.3736281284
 21
29.7953722783
  0
LWPOLYLINE
  5
218
100
AcDbEntity
  8
RACCORDO
100
AcDbPolyline
 62
250
  6
CONTINUOUS
 90
19
 70
0
 10
-7.5531391198
 20
28.0638302567
 10
-7.5728764551
 20
28.0483926604
 10
-7.5924323064
 20
28.031510896
 10
-7.611681594
 20
28.0132929398
 10
-7.630501199
 20
27.9938553141
 10
-7.6487707508
 20
27.9733223424
 10
-7.666373397
 20
27.9518253541
 10
-7.6831965507
 20
27.9295018444
 10
-7.6991326106
 20
27.906494595
 10
-7.7140796493
 20
27.8829507606
 10
-7.7279420653
 20
27.8590209282
 10
-7.7406311941
 20
27.8348581536
 10
-7.752065876
 20
27.8106169823
 10
-7.7621729743
 20
27.7864524614
 10
-7.7708878439
 20
27.7625191477
 10
-7.7781547444
 20
27.7389701192
 10
-7.7839271963
 20
27.715955996
 10
-7.788168279
 20
27.693623977
 10
-7.7908508665
 20
27.6721168982
  0
LWPOLYLINE
  5
219
100
AcDbEntity
  8
RACCORDO
100
AcDbPolyline
 62
250
  6
CONTINUOUS
 90
15
 70
0
 10
-7.7622188115
 20
28.0966436854
 10
-7.7607509772
 20
28.097783809
 10
-7.7499010047
 20
28.1047956648
 10
-7.7379041371
 20
28.1102318191
 10
-7.7248273618
 20
28.1140619179
 10
-7.7107436961
 20
28.1162645749
 10
-7.6957317796
 20
28.1168274911
 10
-7.6798754349
 20
28.1157475232
 10
-7.6632631996
 20
28.1130307015
 10
-7.6459878323
 20
28.108692196
 10
-7.6281457941
 20
28.1027562319
 10
-7.6098367103
 20
28.095255954
 10
-7.591162814
 20
28.0862332419
 10
-7.5722283755
 20
28.0757384761
 10
-7.5531391198
 20
28.0638302567
  0
LWPOLYLINE
  5
21A
100
AcDbEntity
  8
RACCORDO
100
AcDbPolyline
 62
250
  6
CONTINUOUS
 90
10
 70
0
 10
3.6977606625
 20
-28.2410354348
 10
3.6956163009
 20
-28.2414427718
 10
3.693411907
 20
-28.2418905506
 10
3.6911479769
 20
-28.2423786705
 10
3.6888250201
 20
-28.2429070216
 10
3.6864435592
 20
-28.2434754851
 10
3.6840041304
 20
-28.244083933
 10
3.6815072825
 20
-28.2447322284
 10
3.6789535774
 20
-28.2454202254
 10
3.6763435898
 20
-28.2461477692
  0
LWPOLYLINE
  5
21B
100
AcDbEntity
  8
RACCORDO
100
AcDbPolyline
 62
250
  6
CONTINUOUS
 90
19
 70
0
 10
-5.5860747034
 20
23.2184452718
 10
-5.563557514
 20
23.2346928868
 10
-5.5394667558
 20
23.2495047509
 10
-5.513977783
 20
23.26277305
 10
-5.4872761271
 20
23.2744012057
 10
-5.4595561468
 20
23.2843045777
 10
-5.431019613
 20
23.2924110803
 10
-5.4018742403
 20
23.2986617073
 10
-5.3723321748
 20
23.3030109609
 10
-5.3426084502
 20
23.3054271833
 10
-5.3129194225
 20
23.3058927871
 10
-5.2834811951
 20
23.3044043832
 10
-5.2545080459
 20
23.3009728056
 10
-5.2262108673
 20
23.2956230323
 10
-5.1987956318
 20
23.2883940039
 10
-5.1724618921
 20
23.2793383396
 10
-5.1474013286
 20
23.2685219548
 10
-5.1237963548
 20
23.2560235807
 10
-5.1018187888
 20
23.2419341919
  0
LWPOLYLINE
  5
21C
100
AcDbEntity
  8
RACCORDO
100
AcDbPolyline
 62
250
  6
CONTINUOUS
 90
7
 70
0
 10
-5.7705881858
 20
-21.5661582742
 10
-5.7782317655
 20
-21.5645816445
 10
-5.7858896036
 20
-21.5629414914
 10
-5.7935600814
 20
-21.5612356591
 10
-5.8012415831
 20
-21.5594619415
 10
-5.8089324969
 20
-21.5576180823
 10
-5.8166312167
 20
-21.5557017752
  0
LINE
  5
21D
100
AcDbEntity
  8
ASSI
100
AcDbLine
 62
7
  6
CONTINUOUS
 10
5.743159474
 20
-29.7862680263
 11
-7.7465745293
 21
-20.2475856362
  0
LINE
  5
21E
100
AcDbEntity
  8
RACCORDO
100
AcDbLine
 62
250
  6
CONTINUOUS
 10
5.6988831367
 20
-29.6984000633
 11
3.724663487
 21
-28.3024159615
  0
LINE
  5
21F
100
AcDbEntity
  8
RACCORDO
100
AcDbLine
 62
250
  6
CONTINUOUS
 10
-5.8166312518
 20
-21.5557017504
 11
-7.7908508665
 21
-20.1597176733
  0
LINE
  5
220
100
AcDbEntity
  8
RACCORDO
100
AcDbLine
 62
250
  6
CONTINUOUS
 10
-5.7705881858
 20
-21.5661582742
 11
3.6763435721
 21
-28.2461477817
  0
LINE
  5
221
100
AcDbEntity
  8
0
100
AcDbLine
 62
7
  6
CONTINUOUS
 10
-0.4944405756
 20
25.3205729601
 11
0.1508023783
 21
25.8890100048
  0
LINE
  5
222
100
AcDbEntity
  8
0
100
AcDbLine
 62
7
  6
CONTINUOUS
 10
-0.1602912956
 20
25.0842937384
 11
0.1508023783
 21
25.3583566593
  0
LWPOLYLINE
  5
223
100
AcDbEntity
  8
RACCORDO
100
AcDbPolyline
 62
250
  6
CONTINUOUS
 90
19
 70
0
 10
-5.1093829167
 20
20.8164177329
 10
-5.0871720405
 20
20.8342520658
 10
-5.0633843294
 20
20.8506381572
 10
-5.0381930455
 20
20.8654566559
 10
-5.011781674
 20
20.8785996289
 10
-4.9843425872
 20
20.8899713467
 10
-4.9560756426
 20
20.8994889814
 10
-4.9271867276
 20
20.9070832095
 10
-4.89788626
 20
20.9126987172
 10
-4.8683876551
 20
20.9162946028
 10
-4.8389057714
 20
20.9178446751
 10
-4.8096553455
 20
20.9173376438
 10
-4.7808494284
 20
20.9147772019
 10
-4.7526978331
 20
20.9101819989
 10
-4.7254056071
 20
20.9035855049
 10
-4.6991715381
 20
20.8950357665
 10
-4.6741867069
 20
20.8845950575
 10
-4.650633095
 20
20.8723394245
 10
-4.6286822595
 20
20.8583581337
  0
LINE
  5
224
100
AcDbEntity
  8
RACCORDO
100
AcDbLine
 62
250
  6
CONTINUOUS
 10
-4.60847879
 20
20.7553725658
 11
-4.5688915647
 21
20.7814793884
  0
LINE
  5
225
100
AcDbEntity
  8
0
100
AcDbLine
 62
7
  6
CONTINUOUS
 10
2.749403767
 20
24.0515213413
 11
1.9804331585
 21
23.5705729601
  0
LWPOLYLINE
  5
226
100
AcDbEntity
  8
RACCORDO
100
AcDbPolyline
 62
250
  6
CONTINUOUS
 90
8
 70
0
 10
5.7431436328
 20
-29.7862568223
 10
5.7376681272
 20
-29.7820498878
 10
5.7275610289
 20
-29.7721789624
 10
5.7188461593
 20
-29.7605703355
 10
5.7115792588
 20
-29.7472982562
 10
5.7058068069
 20
-29.7324476128
 10
5.7015657242
 20
-29.7161133905
 10
5.6988831367
 20
-29.6984000633
  0
LWPOLYLINE
  5
227
100
AcDbEntity
  8
RACCORDO
100
AcDbPolyline
 62
250
  6
CONTINUOUS
 90
10
 70
0
 10
-5.7965101992
 20
-21.5275726742
 10
-5.7934215792
 20
-21.5316803017
 10
-5.7903835153
 20
-21.5358350698
 10
-5.7873966913
 20
-21.5400360437
 10
-5.7844617792
 20
-21.5442822779
 10
-5.7815794396
 20
-21.5485728169
 10
-5.7787503211
 20
-21.5529066951
 10
-5.7759750602
 20
-21.5572829374
 10
-5.7732542815
 20
-21.5617005588
 10
-5.7705885974
 20
-21.5661585653
  0
LINE
  5
228
100
AcDbEntity
  8
RACCORDO
100
AcDbLine
 62
250
  6
CONTINUOUS
 10
3.1358915722
 20
-21.367741292
 11
-4.6340097059
 21
-15.8735955821
  0
LINE
  5
229
100
AcDbEntity
  8
RACCORDO
100
AcDbLine
 62
250
  6
CONTINUOUS
 10
3.1120322103
 20
-20.8239595201
 11
-4.4353799354
 21
-15.4871128682
  0
LINE
  5
22A
100
AcDbEntity
  8
RACCORDO
100
AcDbLine
 62
250
  6
CONTINUOUS
 10
3.1062356008
 20
-20.6918482515
 11
-4.3746234817
 21
-15.4020810602
  0
LINE
  5
22B
100
AcDbEntity
  8
RACCORDO
100
AcDbLine
 62
7
  6
CONTINUOUS
 10
3.1009422422
 20
-20.5586959079
 11
-4.2302511828
 21
-15.374759323
  0
LINE
  5
22C
100
AcDbEntity
  8
ASSI
100
AcDbLine
 62
7
  6
CONTINUOUS
 10
-4.4131494418
 20
-15.1601955854
 11
3.0978257949
 21
-20.4712571085
  0
LINE
  5
22D
100
AcDbEntity
  8
0
100
AcDbLine
 62
7
  6
CONTINUOUS
 10
-4.4580068551
 20
-14.9516999089
 11
3.0913623191
 21
-20.2899100457
  0
LINE
  5
22E
100
AcDbEntity
  8
0
100
AcDbLine
 62
7
  6
CONTINUOUS
 10
-4.4580068551
 20
-14.5766999089
 11
3.0776512165
 21
-19.9052148321
  0
LWPOLYLINE
  5
22F
100
AcDbEntity
  8
RACCORDO
100
AcDbPolyline
 62
7
  6
CONTINUOUS
 90
26
 70
0
 10
-4.2302997152
 20
-15.3747223542
 10
-4.2457172535
 20
-15.3633452844
 10
-4.2601932505
 20
-15.3517877787
 10
-4.2749225972
 20
-15.3391532184
 10
-4.2897494776
 20
-15.3255149528
 10
-4.3045790345
 20
-15.3108928202
 10
-4.3192988089
 20
-15.2953341242
 10
-4.3337725359
 20
-15.2789341592
 10
-4.3479004929
 20
-15.2617560513
 10
-4.3615348261
 20
-15.2439130696
 10
-4.3745305608
 20
-15.2255794245
 10
-4.3867852528
 20
-15.2068911778
 10
-4.3981756527
 20
-15.1880179181
 10
-4.4085930308
 20
-15.169213203
 10
-4.4179832781
 20
-15.1506289138
 10
-4.4263193661
 20
-15.1324120312
 10
-4.4335682169
 20
-15.1148105605
 10
-4.4397587183
 20
-15.0979180304
 10
-4.4449354676
 20
-15.0818135992
 10
-4.4491167757
 20
-15.0667316227
 10
-4.4523849276
 20
-15.0527285503
 10
-4.4548232527
 20
-15.0398258182
 10
-4.4564888103
 20
-15.0282342244
 10
-4.457489134
 20
-15.0180510566
 10
-4.4579473329
 20
-15.0092168418
 10
-4.4580065348
 20
-15.0050909274
  0
LINE
  5
230
100
AcDbEntity
  8
RACCORDO
100
AcDbLine
 62
250
  6
CONTINUOUS
 10
3.7246634869
 20
-28.3024159614
 11
3.7192075499
 21
-28.2962824717
  0
LINE
  5
231
100
AcDbEntity
  8
RACCORDO
100
AcDbLine
 62
250
  6
CONTINUOUS
 10
3.7192075499
 20
-28.2962824717
 11
3.7083598642
 21
-28.2839257726
  0
LWPOLYLINE
  5
232
100
AcDbEntity
  8
RACCORDO
100
AcDbPolyline
 62
250
  6
CONTINUOUS
 90
4
 70
0
 10
3.7083598642
 20
-28.2839257726
 10
3.6975985576
 20
-28.2714509161
 10
3.6922510135
 20
-28.265169176
 10
3.6869259457
 20
-28.2588578834
  0
LINE
  5
233
100
AcDbEntity
  8
RACCORDO
100
AcDbLine
 62
250
  6
CONTINUOUS
 10
3.6869259457
 20
-28.2588578834
 11
3.6763435721
 21
-28.2461477817
  0
LWPOLYLINE
  5
234
100
AcDbEntity
  8
RACCORDO
100
AcDbPolyline
 62
250
  6
CONTINUOUS
 90
19
 70
0
 10
-6.0036601967
 20
12.2771158051
 10
-6.0263436581
 20
12.2633897479
 10
-6.05059892
 20
12.2510805848
 10
-6.0762494933
 20
12.2402778814
 10
-6.1031087364
 20
12.2310602414
 10
-6.130981213
 20
12.2234947353
 10
-6.1596641141
 20
12.2176364121
 10
-6.1889487339
 20
12.2135278989
 10
-6.2186219882
 20
12.2111990904
 10
-6.248467965
 20
12.2106669319
 10
-6.2782694956
 20
12.2119352954
 10
-6.3078097345
 20
12.214994952
 10
-6.3368737378
 20
12.2198236387
 10
-6.3652500265
 20
12.2263862203
 10
-6.3927321258
 20
12.2346349455
 10
-6.4191200673
 20
12.2445097939
 10
-6.4442218439
 20
12.2559389131
 10
-6.4678548071
 20
12.2688391411
 10
-6.4898469961
 20
12.2831166118
  0
LWPOLYLINE
  5
235
100
AcDbEntity
  8
RACCORDO
100
AcDbPolyline
 62
250
  6
CONTINUOUS
 90
22
 70
0
 10
6.1839314942
 20
18.1029178611
 10
6.1646726495
 20
18.0928559104
 10
6.1442402743
 20
18.0838157694
 10
6.1227436429
 20
18.0758458395
 10
6.1002977237
 20
18.0689888248
 10
6.0770225553
 20
18.0632814101
 10
6.0530426036
 20
18.0587540527
 10
6.0284861097
 20
18.0554309661
 10
6.0034844016
 20
18.0533299598
 10
5.9781711816
 20
18.0524622403
 10
5.9526818204
 20
18.0528324414
 10
5.9271526327
 20
18.0544386012
 10
5.9017201446
 20
18.0572721304
 10
5.8765203634
 20
18.0613178576
 10
5.8516880543
 20
18.0665541537
 10
5.8273560192
 20
18.0729530449
 10
5.8036543785
 20
18.0804802729
 10
5.7807098848
 20
18.0890955814
 10
5.7586452476
 20
18.0987529621
 10
5.7375784637
 20
18.1094007544
 10
5.7176221875
 20
18.1209819331
 10
5.6988831367
 20
18.1334345081
  0
LWPOLYLINE
  5
236
100
AcDbEntity
  8
RACCORDO
100
AcDbPolyline
 62
250
  6
CONTINUOUS
 90
10
 70
0
 10
-4.5375072651
 20
-15.1343005173
 10
-4.5469239626
 20
-15.1367817225
 10
-4.5562192081
 20
-15.1393414131
 10
-4.5653930016
 20
-15.1419795893
 10
-4.5744429409
 20
-15.1446990113
 10
-4.5833714282
 20
-15.1474969188
 10
-4.5921856702
 20
-15.150365031
 10
-4.6008880694
 20
-15.1533005878
 10
-4.6094762233
 20
-15.1563063494
 10
-4.6179501319
 20
-15.1593823157
  0
LWPOLYLINE
  5
237
100
AcDbEntity
  8
RACCORDO
100
AcDbPolyline
 62
250
  6
CONTINUOUS
 90
9
 70
0
 10
-4.4843951723
 20
-15.2211025942
 10
-4.496973594
 20
-15.2027232836
 10
-4.503313577
 20
-15.1932655753
 10
-4.5096626371
 20
-15.1836731183
 10
-4.5159384286
 20
-15.1739098808
 10
-4.5218933387
 20
-15.1640341647
 10
-4.5274433154
 20
-15.1541093737
 10
-4.5326490908
 20
-15.1441763156
 10
-4.537504478
 20
-15.1342998019
  0
LWPOLYLINE
  5
238
100
AcDbEntity
  8
RACCORDO
100
AcDbPolyline
 62
250
  6
CONTINUOUS
 90
6
 70
0
 10
-4.3746227707
 20
-15.4020801063
 10
-4.3825135555
 20
-15.3903739836
 10
-4.3901204667
 20
-15.3786737338
 10
-4.3974192269
 20
-15.3670055465
 10
-4.4044080393
 20
-15.3553084802
 10
-4.4110619153
 20
-15.3436866668
  0
LWPOLYLINE
  5
239
100
AcDbEntity
  8
RACCORDO
100
AcDbPolyline
 62
7
  6
CONTINUOUS
 90
13
 70
0
 10
-7.8931928487
 20
27.8528428762
 10
-7.9915909479
 20
26.6734904863
 10
-8.083651468
 20
25.4720379643
 10
-8.1669447765
 20
24.2764615017
 10
-8.2414634166
 20
23.0868507331
 10
-8.3072019815
 20
21.9032830062
 10
-8.3641566978
 20
20.7258245303
 10
-8.4123234814
 20
19.5545451752
 10
-8.4516980931
 20
18.3895213832
 10
-8.4822775201
 20
17.2308302088
 10
-8.5040593748
 20
16.0785475326
 10
-8.5170412977
 20
14.9327475589
 10
-8.5212240489
 20
13.8220298747
  0
LINE
  5
23A
100
AcDbEntity
  8
RACCORDO
100
AcDbLine
 62
250
  6
CONTINUOUS
 10
8.2738342737
 20
20.1451590678
 11
5.9365948834
 21
18.5251478666
  0
LINE
  5
23B
100
AcDbEntity
  8
RACCORDO
100
AcDbLine
 62
250
  6
CONTINUOUS
 10
8.5211708845
 20
19.7229290623
 11
6.1839318794
 21
18.1029181281
  0
LINE
  5
23C
100
AcDbEntity
  8
RACCORDO
100
AcDbLine
 62
250
  6
CONTINUOUS
 10
5.0256673574
 20
-16.5933129933
 11
3.0968027889
 21
-15.2293997769
  0
LINE
  5
23D
100
AcDbEntity
  8
RACCORDO
100
AcDbLine
 62
250
  6
CONTINUOUS
 10
-6.4898469961
 20
-8.450614705
 11
-8.4187115646
 21
-7.0867014887
  0
LWPOLYLINE
  5
23E
100
AcDbEntity
  8
RACCORDO
100
AcDbPolyline
 62
250
  6
CONTINUOUS
 90
35
 70
0
 10
3.6763435721
 20
-28.2461477817
 10
3.6743081762
 20
-28.2426350499
 10
3.6722574997
 20
-28.2390033207
 10
3.6701915736
 20
-28.235252572
 10
3.6681076391
 20
-28.2313788597
 10
3.666008522
 20
-28.2273860807
 10
3.6639026304
 20
-28.2232859747
 10
3.6617926484
 20
-28.2190829692
 10
3.6596759627
 20
-28.2147725867
 10
3.657553036
 20
-28.2103532088
 10
3.6554256386
 20
-28.2058288347
 10
3.6532920806
 20
-28.2011954085
 10
3.6511476413
 20
-28.1964392249
 10
3.6489925243
 20
-28.1915615042
 10
3.6468266246
 20
-28.1865609565
 10
3.644644773
 20
-28.181420102
 10
3.6424471528
 20
-28.1761402132
 10
3.6402337033
 20
-28.1707199313
 10
3.6379989066
 20
-28.165137816
 10
3.635741231
 20
-28.1593904048
 10
3.6334623646
 20
-28.1534810504
 10
3.6311616385
 20
-28.1473985225
 10
3.6288365204
 20
-28.1411351819
 10
3.6264897304
 20
-28.1346985359
 10
3.6241284841
 20
-28.128100069
 10
3.6217524278
 20
-28.1213369141
 10
3.6193621124
 20
-28.1144118001
 10
3.6169661014
 20
-28.1073446122
 10
3.6145651127
 20
-28.1001356191
 10
3.6121586216
 20
-28.092784417
 10
3.6097533118
 20
-28.0853098932
 10
3.6073496818
 20
-28.0777120472
 10
3.6049474183
 20
-28.0699907502
 10
3.602551968
 20
-28.0621647113
 10
3.6001636989
 20
-28.0542338159
  0
LWPOLYLINE
  5
23F
100
AcDbEntity
  8
RACCORDO
100
AcDbPolyline
 62
250
  6
CONTINUOUS
 90
10
 70
0
 10
-4.4347940785
 20
-15.3010990926
 10
-4.440199053
 20
-15.2915016842
 10
-4.4455116909
 20
-15.2822914996
 10
-4.4508130517
 20
-15.2733129245
 10
-4.4561021916
 20
-15.264530088
 10
-4.4614358719
 20
-15.2559244534
 10
-4.4669335135
 20
-15.2473405769
 10
-4.4725928395
 20
-15.2386868905
 10
-4.4783938859
 20
-15.2299580257
 10
-4.4843951723
 20
-15.2211025942
  0
LINE
  5
240
100
AcDbEntity
  8
RACCORDO
100
AcDbLine
 62
250
  6
CONTINUOUS
 10
-4.4110619153
 20
-15.3436866668
 11
-4.4347940785
 21
-15.3010990926
  0
LWPOLYLINE
  5
241
100
AcDbEntity
  8
RACCORDO
100
AcDbPolyline
 62
250
  6
CONTINUOUS
 90
8
 70
0
 10
-7.7908508665
 20
-20.1597176733
 10
-7.788168279
 20
-20.1774310005
 10
-7.7839271963
 20
-20.1937652228
 10
-7.7781547444
 20
-20.2086158661
 10
-7.7708878439
 20
-20.2218879455
 10
-7.7621729743
 20
-20.2334965723
 10
-7.752065876
 20
-20.2433674977
 10
-7.7465986689
 20
-20.2475685608
  0
LWPOLYLINE
  5
242
100
AcDbEntity
  8
RACCORDO
100
AcDbPolyline
 62
250
  6
CONTINUOUS
 90
11
 70
0
 10
-7.8927683961
 20
-19.9966036709
 10
-7.8908271364
 20
-20.0108217697
 10
-7.8866036666
 20
-20.029699989
 10
-7.8805506786
 20
-20.0482152704
 10
-7.8727005402
 20
-20.0662686226
 10
-7.8630952361
 20
-20.0837634658
 10
-7.8517861341
 20
-20.1006062388
 10
-7.8388337079
 20
-20.1167069257
 10
-7.8243072262
 20
-20.13197941
 10
-7.8082843816
 20
-20.146341945
 10
-7.7908508665
 20
-20.1597176733
  0
LWPOLYLINE
  5
243
100
AcDbEntity
  8
RACCORDO
100
AcDbPolyline
 62
250
  6
CONTINUOUS
 90
13
 70
0
 10
-7.7908508665
 20
-20.1597176733
 10
-7.891059189
 20
-19.1097701841
 10
-7.9825797464
 20
-18.0523999134
 10
-8.0654054927
 20
-16.9876738286
 10
-8.1395305516
 20
-15.9156477097
 10
-8.2049482352
 20
-14.8364009615
 10
-8.2616520334
 20
-13.7500373674
 10
-8.3096381559
 20
-12.6566273527
 10
-8.348903281
 20
-11.5562399159
 10
-8.3794441717
 20
-10.4489786448
 10
-8.4012594349
 20
-9.3349260617
 10
-8.4143486151
 20
-8.2141429446
 10
-8.4187115646
 20
-7.0867014887
  0
LWPOLYLINE
  5
244
100
AcDbEntity
  8
RACCORDO
100
AcDbPolyline
 62
250
  6
CONTINUOUS
 90
11
 70
0
 10
-8.5212241912
 20
-6.9117014887
 10
-8.5211708845
 20
-6.9160207389
 10
-8.5193771476
 20
-6.9370936033
 10
-8.5150501397
 20
-6.9579817066
 10
-8.5082213456
 20
-6.9785330604
 10
-8.4989404536
 20
-6.9985981266
 10
-8.4872749946
 20
-7.0180309053
 10
-8.47330985
 20
-7.0366899977
 10
-8.4571466347
 20
-7.0544396341
 10
-8.4389029573
 20
-7.0711506627
 10
-8.4187115646
 20
-7.0867014887
  0
LWPOLYLINE
  5
245
100
AcDbEntity
  8
RACCORDO
100
AcDbPolyline
 62
250
  6
CONTINUOUS
 90
11
 70
0
 10
-8.5212241912
 20
13.8220298281
 10
-8.5211708845
 20
13.8177105786
 10
-8.5193771477
 20
13.7966377142
 10
-8.5150501399
 20
13.7757496108
 10
-8.5082213458
 20
13.7551982569
 10
-8.4989404539
 20
13.7351331907
 10
-8.4872749948
 20
13.7157004118
 10
-8.4733098502
 20
13.6970413194
 10
-8.4571466348
 20
13.6792916829
 10
-8.4389029574
 20
13.6625806542
 10
-8.4187115646
 20
13.6470298281
  0
LWPOLYLINE
  5
246
100
AcDbEntity
  8
RACCORDO
100
AcDbPolyline
 62
7
  6
CONTINUOUS
 90
13
 70
0
 10
-8.5212240493
 20
-6.9117013203
 10
-8.5170227667
 20
-8.0185272941
 10
-8.5040196553
 20
-9.1448139241
 10
-8.4822131717
 20
-10.2643195077
 10
-8.4516044488
 20
-11.3769724459
 10
-8.4121946436
 20
-12.4826996281
 10
-8.3639855296
 20
-13.5814279374
 10
-8.3069801087
 20
-14.6730864721
 10
-8.2411812196
 20
-15.7576107073
 10
-8.1665913592
 20
-16.8349396979
 10
-8.0832146682
 20
-17.9050035752
 10
-7.9910573476
 20
-18.9677230024
 10
-7.892768267
 20
-19.996603664
  0
LINE
  5
247
100
AcDbEntity
  8
RACCORDO
100
AcDbLine
 62
7
  6
CONTINUOUS
 10
-8.5212241912
 20
-6.9117014887
 11
-8.5212241912
 21
13.8220298281
  0
LINE
  5
248
100
AcDbEntity
  8
RACCORDO
100
AcDbLine
 62
250
  6
CONTINUOUS
 10
-8.4187115646
 20
-7.0867014887
 11
-8.4187115646
 21
13.6470298281
  0
LWPOLYLINE
  5
249
100
AcDbEntity
  8
RACCORDO
100
AcDbPolyline
 62
250
  6
CONTINUOUS
 90
13
 70
0
 10
-8.4187115646
 20
13.6470298281
 10
-8.4143486214
 20
14.7810864472
 10
-8.4012594586
 20
15.9217169295
 10
-8.3794442209
 20
17.0688488732
 10
-8.3489033611
 20
18.2224210996
 10
-8.3096382691
 20
19.382348877
 10
-8.2616521763
 20
20.548523319
 10
-8.2049483991
 20
21.7208710493
 10
-8.139530724
 20
22.8993159686
 10
-8.0654056573
 20
24.0837434158
 10
-7.9825798826
 20
25.274063973
 10
-7.8910592718
 20
26.4702141103
 10
-7.7908508665
 20
27.6721168982
  0
LWPOLYLINE
  5
24A
100
AcDbEntity
  8
RACCORDO
100
AcDbPolyline
 62
250
  6
CONTINUOUS
 90
13
 70
0
 10
-7.8932026866
 20
27.8527305355
 10
-7.8937024425
 20
27.8439178509
 10
-7.8932183087
 20
27.8271861521
 10
-7.8908716589
 20
27.8103042673
 10
-7.8866670444
 20
27.7934715369
 10
-7.880624166
 20
27.7769138421
 10
-7.8727760655
 20
27.7604941277
 10
-7.8631683139
 20
27.7444033438
 10
-7.8518595761
 20
27.7288448405
 10
-7.8388934676
 20
27.713688883
 10
-7.8243333146
 20
27.6990133194
 10
-7.808282596
 20
27.6851002405
 10
-7.7908508665
 20
27.6721168982
  0
LWPOLYLINE
  5
24B
100
AcDbEntity
  8
RACCORDO
100
AcDbPolyline
 62
250
  6
CONTINUOUS
 90
13
 70
0
 10
-5.8179684947
 20
26.2607679852
 10
-5.9252974871
 20
25.064554286
 10
-6.0232880725
 20
23.8738875998
 10
-6.111938887
 20
22.6888411869
 10
-6.1912415072
 20
21.5095534453
 10
-6.2612044068
 20
20.3360305042
 10
-6.3218477564
 20
19.1681495845
 10
-6.3731739918
 20
18.0059208019
 10
-6.4151727485
 20
16.8494835057
 10
-6.4478411763
 20
15.6989112281
 10
-6.471177176
 20
14.5542773088
 10
-6.4851794024
 20
13.4156548881
 10
-6.4898469961
 20
12.2831166118
  0
LWPOLYLINE
  5
24C
100
AcDbEntity
  8
RACCORDO
100
AcDbPolyline
 62
250
  6
CONTINUOUS
 90
7
 70
0
 10
3.7246634904
 20
-28.3024159588
 10
3.7200430683
 20
-28.2923573518
 10
3.7154753614
 20
-28.282229637
 10
3.7109618195
 20
-28.2720331842
 10
3.7065038917
 20
-28.2617683854
 10
3.7021030256
 20
-28.2514356553
 10
3.6977606672
 20
-28.2410354317
  0
LWPOLYLINE
  5
24D
100
AcDbEntity
  8
RACCORDO
100
AcDbPolyline
 62
250
  6
CONTINUOUS
 90
7
 70
0
 10
-6.3214484895
 20
-15.1218444082
 10
-6.2606539516
 20
-16.211034194
 10
-6.190516753
 20
-17.2935573776
 10
-6.1110409657
 20
-18.3693534978
 10
-6.0222311572
 20
-19.4383565747
 10
-5.9240926421
 20
-20.5004953082
 10
-5.8166312518
 20
-21.5557017504
  0
LWPOLYLINE
  5
24E
100
AcDbEntity
  8
RACCORDO
100
AcDbPolyline
 62
250
  6
CONTINUOUS
 90
6
 70
0
 10
-5.8683904786
 20
-14.4408982175
 10
-5.8269887921
 20
-15.2806017645
 10
-5.7800751239
 20
-16.1163580737
 10
-5.7276514925
 20
-16.9481298024
 10
-5.6697158795
 20
-17.7759542933
 10
-5.6062682849
 20
-18.5998315464
  0
LWPOLYLINE
  5
24F
100
AcDbEntity
  8
RACCORDO
100
AcDbPolyline
 62
250
  6
CONTINUOUS
 90
7
 70
0
 10
-6.4898469961
 20
-8.450614705
 10
-6.4851683071
 20
-9.5783312007
 10
-6.4711327977
 20
-10.6998049049
 10
-6.4477413309
 20
-11.8149641329
 10
-6.4149952588
 20
-12.9237376496
 10
-6.3728966904
 20
-14.0260545794
 10
-6.3214484895
 20
-15.1218444082
  0
LWPOLYLINE
  5
250
100
AcDbEntity
  8
RACCORDO
100
AcDbPolyline
 62
250
  6
CONTINUOUS
 90
8
 70
0
 10
-6.0036601967
 20
-8.4566155117
 10
-6.0008978745
 20
-9.322770874
 10
-5.9926147432
 20
-10.1851803545
 10
-5.978810803
 20
-11.0438439535
 10
-5.9594851297
 20
-11.8987914469
 10
-5.9346386475
 20
-12.7499930587
 10
-5.9042741285
 20
-13.5973594601
 10
-5.8683904786
 20
-14.4408982175
  0
LINE
  5
251
100
AcDbEntity
  8
RACCORDO
100
AcDbLine
 62
250
  6
CONTINUOUS
 10
-6.4898469961
 20
12.2831166118
 11
-6.4898469961
 21
-8.450614705
  0
LINE
  5
252
100
AcDbEntity
  8
RACCORDO
100
AcDbLine
 62
250
  6
CONTINUOUS
 10
-6.0036601967
 20
12.2771158051
 11
-6.0036601967
 21
-8.4566155117
  0
LWPOLYLINE
  5
253
100
AcDbEntity
  8
RACCORDO
100
AcDbPolyline
 62
250
  6
CONTINUOUS
 90
13
 70
0
 10
-5.5860747036
 20
23.2184452695
 10
-5.6527450161
 20
22.2871514532
 10
-5.7136236862
 20
21.3593388449
 10
-5.7687107139
 20
20.4350074445
 10
-5.8180083505
 20
19.5141137411
 10
-5.8615143448
 20
18.5967012455
 10
-5.8992219429
 20
17.6829004905
 10
-5.9311299124
 20
16.7727212004
 10
-5.9572394858
 20
15.8661536507
 10
-5.9775476065
 20
14.9632992004
 10
-5.9920532559
 20
14.0641916359
 10
-6.0007574526
 20
13.1687971708
 10
-6.0036601967
 20
12.2771158051
  0
LWPOLYLINE
  5
254
100
AcDbEntity
  8
RACCORDO
100
AcDbPolyline
 62
250
  6
CONTINUOUS
 90
41
 70
0
 10
-4.5252773877
 20
4.6029052567
 10
-4.527721169
 20
4.5975438892
 10
-4.5301388113
 20
4.5921752508
 10
-4.5325290464
 20
4.5868007398
 10
-4.5348893728
 20
4.581420175
 10
-4.5372185617
 20
4.5760350863
 10
-4.5395153292
 20
4.5706469582
 10
-4.5417770567
 20
4.5652555793
 10
-4.5440025049
 20
4.5598625669
 10
-4.5461903801
 20
4.5544694802
 10
-4.5483379451
 20
4.5490760622
 10
-4.5504439543
 20
4.5436840108
 10
-4.5525071024
 20
4.5382949716
 10
-4.5545245226
 20
4.5329086556
 10
-4.5564949634
 20
4.5275268511
 10
-4.5584171119
 20
4.5221512854
 10
-4.5602879658
 20
4.5167816286
 10
-4.5621062708
 20
4.511419759
 10
-4.5638707072
 20
4.5060674919
 10
-4.5655781282
 20
4.5007244588
 10
-4.5672272797
 20
4.4953926316
 10
-4.5688168368
 20
4.4900739163
 10
-4.570343497
 20
4.4847679059
 10
-4.5718060096
 20
4.479476668
 10
-4.5732030471
 20
4.4742022035
 10
-4.5745311396
 20
4.4689440724
 10
-4.5757890445
 20
4.46370444
 10
-4.5769754346
 20
4.4584854061
 10
-4.5780866594
 20
4.4532865066
 10
-4.5791214871
 20
4.4481100193
 10
-4.5800785981
 20
4.4429581332
 10
-4.5809541537
 20
4.4378303315
 10
-4.5817469431
 20
4.432728978
 10
-4.5824556518
 20
4.4276563842
 10
-4.5830762298
 20
4.4226120419
 10
-4.5836074926
 20
4.4175984031
 10
-4.5840481425
 20
4.4126179014
 10
-4.584393911
 20
4.4076700896
 10
-4.5846425529
 20
4.4027565271
 10
-4.5847938927
 20
4.3978807508
 10
-4.5848467663
 20
4.3930453428
  0
LINE
  5
255
100
AcDbEntity
  8
RACCORDO
100
AcDbLine
 62
250
  6
CONTINUOUS
 10
-4.3963568233
 20
4.8572501994
 11
-4.3982072021
 21
4.8532577388
  0
LINE
  5
256
100
AcDbEntity
  8
RACCORDO
100
AcDbLine
 62
250
  6
CONTINUOUS
 10
-4.52031747
 20
4.6136019277
 11
-4.5252773877
 21
4.6029052567
  0
LINE
  5
257
100
AcDbEntity
  8
RACCORDO
100
AcDbLine
 62
250
  6
CONTINUOUS
 10
-4.3982072021
 20
4.8532577388
 11
-4.4020282465
 21
4.8451550577
  0
LINE
  5
258
100
AcDbEntity
  8
RACCORDO
100
AcDbLine
 62
250
  6
CONTINUOUS
 10
-4.5152724599
 20
4.6242588094
 11
-4.52031747
 21
4.6136019277
  0
LINE
  5
259
100
AcDbEntity
  8
RACCORDO
100
AcDbLine
 62
250
  6
CONTINUOUS
 10
-4.4020282465
 20
4.8451550577
 11
-4.4060044523
 21
4.8368954443
  0
LINE
  5
25A
100
AcDbEntity
  8
RACCORDO
100
AcDbLine
 62
250
  6
CONTINUOUS
 10
-4.5101553411
 20
4.6348695194
 11
-4.5152724599
 21
4.6242588094
  0
LINE
  5
25B
100
AcDbEntity
  8
RACCORDO
100
AcDbLine
 62
250
  6
CONTINUOUS
 10
-4.5049779068
 20
4.6454265462
 11
-4.5101553411
 21
4.6348695194
  0
LINE
  5
25C
100
AcDbEntity
  8
RACCORDO
100
AcDbLine
 62
250
  6
CONTINUOUS
 10
-4.4060044523
 20
4.8368954443
 11
-4.4101251369
 21
4.8284904871
  0
LINE
  5
25D
100
AcDbEntity
  8
RACCORDO
100
AcDbLine
 62
250
  6
CONTINUOUS
 10
-4.4997528047
 20
4.6559239497
 11
-4.5049779068
 21
4.6454265462
  0
LINE
  5
25E
100
AcDbEntity
  8
RACCORDO
100
AcDbLine
 62
250
  6
CONTINUOUS
 10
-4.4101251369
 20
4.8284904871
 11
-4.4143824508
 21
4.8199450317
  0
LINE
  5
25F
100
AcDbEntity
  8
RACCORDO
100
AcDbLine
 62
250
  6
CONTINUOUS
 10
-4.4944922833
 20
4.6663558508
 11
-4.4997528047
 21
4.6559239497
  0
LINE
  5
260
100
AcDbEntity
  8
RACCORDO
100
AcDbLine
 62
250
  6
CONTINUOUS
 10
-4.4143824508
 20
4.8199450317
 11
-4.4187701231
 21
4.8112597871
  0
LINE
  5
261
100
AcDbEntity
  8
RACCORDO
100
AcDbLine
 62
250
  6
CONTINUOUS
 10
-4.4865600128
 20
4.6818666484
 11
-4.4944922833
 21
4.6663558508
  0
LINE
  5
262
100
AcDbEntity
  8
RACCORDO
100
AcDbLine
 62
250
  6
CONTINUOUS
 10
-4.4187701231
 20
4.8112597871
 11
-4.4255814768
 21
4.7979718941
  0
LINE
  5
263
100
AcDbEntity
  8
RACCORDO
100
AcDbLine
 62
250
  6
CONTINUOUS
 10
-4.4786127679
 20
4.6971960706
 11
-4.4865600128
 21
4.6818666484
  0
LINE
  5
264
100
AcDbEntity
  8
RACCORDO
100
AcDbLine
 62
250
  6
CONTINUOUS
 10
-4.4255814768
 20
4.7979718941
 11
-4.4326440567
 21
4.7843824842
  0
LINE
  5
265
100
AcDbEntity
  8
RACCORDO
100
AcDbLine
 62
250
  6
CONTINUOUS
 10
-4.4654358638
 20
4.7222917031
 11
-4.4786127679
 21
4.6971960706
  0
LINE
  5
266
100
AcDbEntity
  8
RACCORDO
100
AcDbLine
 62
250
  6
CONTINUOUS
 10
-4.4326440567
 20
4.7843824842
 11
-4.4448968842
 21
4.761091863
  0
LINE
  5
267
100
AcDbEntity
  8
RACCORDO
100
AcDbLine
 62
250
  6
CONTINUOUS
 10
-4.4448968842
 20
4.761091863
 11
-4.4654358638
 21
4.7222917031
  0
LWPOLYLINE
  5
268
100
AcDbEntity
  8
RACCORDO
100
AcDbPolyline
 62
250
  6
CONTINUOUS
 90
7
 70
0
 10
-4.3725902946
 20
4.8904447585
 10
-4.3765603956
 20
4.8846214209
 10
-4.3805268914
 20
4.8789144478
 10
-4.3844897821
 20
4.873323839
 10
-4.3884490677
 20
4.8678495947
 10
-4.3924047481
 20
4.8624917148
 10
-4.3963568233
 20
4.8572501994
  0
LWPOLYLINE
  5
269
100
AcDbEntity
  8
RACCORDO
100
AcDbPolyline
 62
250
  6
CONTINUOUS
 90
11
 70
0
 10
-4.5375072651
 20
5.1612783947
 10
-4.5218965946
 20
5.1725329713
 10
-4.5077659445
 20
5.1847261815
 10
-4.495227687
 20
5.1977610602
 10
-4.4843815313
 20
5.2115339489
 10
-4.4753137301
 20
5.2259353205
 10
-4.4680963941
 20
5.2408506496
 10
-4.4627869182
 20
5.2561613238
 10
-4.4594275256
 20
5.2717455868
 10
-4.4580449313
 20
5.2874795065
 10
-4.4580068708
 20
5.2905021265
  0
LWPOLYLINE
  5
26A
100
AcDbEntity
  8
RACCORDO
100
AcDbPolyline
 62
250
  6
CONTINUOUS
 90
12
 70
0
 10
-4.3725905279
 20
4.8904449235
 10
-4.3571834096
 20
4.9006667262
 10
-4.3418935517
 20
4.9094653487
 10
-4.3268373195
 20
4.9167738292
 10
-4.3121293004
 20
4.9225365466
 10
-4.297881431
 20
4.9267096449
 10
-4.2842021448
 20
4.9292613665
 10
-4.2711955491
 20
4.9301722921
 10
-4.258960632
 20
4.9294354895
 10
-4.2475905086
 20
4.927056567
 10
-4.2371717121
 20
4.9230536305
 10
-4.2283003878
 20
4.9178258438
  0
LWPOLYLINE
  5
26B
100
AcDbEntity
  8
RACCORDO
100
AcDbPolyline
 62
250
  6
CONTINUOUS
 90
22
 70
0
 10
-5.0710407079
 20
4.3990520963
 10
-5.0516942648
 20
4.4107607111
 10
-5.0311755055
 20
4.4214491014
 10
-5.0095941953
 20
4.4310602164
 10
-4.9870658068
 20
4.439542431
 10
-4.9637107871
 20
4.4468508243
 10
-4.9396539051
 20
4.4529473826
 10
-4.9150237971
 20
4.4577999609
 10
-4.8899521271
 20
4.4613822843
 10
-4.8645727529
 20
4.4636750389
 10
-4.8390213389
 20
4.4646661274
 10
-4.8134344431
 20
4.4643501803
 10
-4.7879486187
 20
4.462728324
 10
-4.7627000773
 20
4.4598089833
 10
-4.7378237507
 20
4.4556080112
 10
-4.7134523842
 20
4.4501479691
 10
-4.6897162444
 20
4.4434573888
 10
-4.6667421986
 20
4.4355725864
 10
-4.644652866
 20
4.4265375939
 10
-4.6235663022
 20
4.4164013237
 10
-4.6035953341
 20
4.4052173065
 10
-4.584846769
 20
4.3930453409
  0
LWPOLYLINE
  5
26C
100
AcDbEntity
  8
RACCORDO
100
AcDbPolyline
 62
250
  6
CONTINUOUS
 90
94
 70
0
 10
-4.5615270948
 20
5.1537465513
 10
-4.5680172806
 20
5.1515208915
 10
-4.5745818308
 20
5.1491154823
 10
-4.5812207454
 20
5.146530324
 10
-4.5879381283
 20
5.1437649358
 10
-4.5947298756
 20
5.1408197983
 10
-4.6015836752
 20
5.1376963531
 10
-4.6084982325
 20
5.1343948405
 10
-4.6154748422
 20
5.1309150201
 10
-4.6225050756
 20
5.1272576119
 10
-4.6295889658
 20
5.1234224448
 10
-4.6367264797
 20
5.11940969
 10
-4.6439090896
 20
5.1152205807
 10
-4.6511373697
 20
5.1108545816
 10
-4.6584107457
 20
5.106312228
 10
-4.6657189671
 20
5.1015963597
 10
-4.6730618648
 20
5.0967068708
 10
-4.6804396079
 20
5.0916438671
 10
-4.6878424533
 20
5.0864105056
 10
-4.695270604
 20
5.0810064383
 10
-4.7027238569
 20
5.0754320132
 10
-4.7101918596
 20
5.0696914317
 10
-4.7176747974
 20
5.0637843236
 10
-4.725172485
 20
5.0577110591
 10
-4.7326740135
 20
5.0514769504
 10
-4.7401794418
 20
5.0450817143
 10
-4.747688711
 20
5.0385256341
 10
-4.7551907356
 20
5.031814871
 10
-4.7626854848
 20
5.024949213
 10
-4.7701729895
 20
5.0179288723
 10
-4.777642256
 20
5.0107606465
 10
-4.7850932917
 20
5.0034442949
 10
-4.7925260893
 20
4.9959800583
 10
-4.7999296338
 20
4.9883754568
 10
-4.8073039265
 20
4.980630247
 10
-4.814648966
 20
4.9727446723
 10
-4.8219537339
 20
4.9647269825
 10
-4.8292182009
 20
4.9565769642
 10
-4.8364423961
 20
4.9482948308
 10
-4.8436153893
 20
4.9398894726
 10
-4.8507371378
 20
4.9313606861
 10
-4.8578076842
 20
4.9227086748
 10
-4.8648162253
 20
4.9139429384
 10
-4.871762694
 20
4.9050633017
 10
-4.8786471575
 20
4.89606994
 10
-4.8854590138
 20
4.886972879
 10
-4.8921981914
 20
4.8777719473
 10
-4.8988647619
 20
4.8684673163
 10
-4.9054483378
 20
4.859069526
 10
-4.9119488204
 20
4.8495784408
 10
-4.9183663083
 20
4.8399941964
 10
-4.9246907108
 20
4.8303277396
 10
-4.9309219285
 20
4.8205789359
 10
-4.9370600607
 20
4.8107479198
 10
-4.9430953141
 20
4.8008460421
 10
-4.9490275646
 20
4.7908732071
 10
-4.9548569363
 20
4.7808295106
 10
-4.9605740081
 20
4.7707265907
 10
-4.966178655
 20
4.760564356
 10
-4.9716710019
 20
4.750342898
 10
-4.9770420029
 20
4.7400741287
 10
-4.9822915183
 20
4.7297579851
 10
-4.9874196877
 20
4.7193945304
 10
-4.9924178833
 20
4.7089958659
 10
-4.9972859625
 20
4.6985619398
 10
-5.002024068
 20
4.6880928041
 10
-5.0066240004
 20
4.6776007156
 10
-5.0110856084
 20
4.6670856466
 10
-5.0154090434
 20
4.6565476248
 10
-5.0195865607
 20
4.6459989913
 10
-5.0236180056
 20
4.6354397348
 10
-5.0275035329
 20
4.6248698665
 10
-5.0312358616
 20
4.6143017613
 10
-5.0348148352
 20
4.6037354241
 10
-5.0382406102
 20
4.5931708501
 10
-5.0415063758
 20
4.5826203993
 10
-5.0446119762
 20
4.5720840892
 10
-5.0475575672
 20
4.5615619023
 10
-5.0503368051
 20
4.5510661467
 10
-5.0529495364
 20
4.5405968484
 10
-5.0553959145
 20
4.5301539814
 10
-5.0576700558
 20
4.5197497758
 10
-5.0597718069
 20
4.5093842886
 10
-5.0617013211
 20
4.4990574628
 10
-5.0634531755
 20
4.4887813576
 10
-5.0650272277
 20
4.4785559999
 10
-5.0664236201
 20
4.4683813629
 10
-5.0676373567
 20
4.458269425
 10
-5.0686682959
 20
4.44822019
 10
-5.0695165794
 20
4.4382336543
 10
-5.070177636
 20
4.4283217847
 10
-5.0706499419
 20
4.4184885705
 10
-5.070935021
 20
4.4087300226
 10
-5.0710328731
 20
4.3990461409
  0
LWPOLYLINE
  5
26D
100
AcDbEntity
  8
RACCORDO
100
AcDbPolyline
 62
250
  6
CONTINUOUS
 90
7
 70
0
 10
-4.5375072651
 20
5.1612737928
 10
-4.5416058956
 20
5.1600505187
 10
-4.5456663959
 20
5.1588147381
 10
-4.549688766
 20
5.1575664511
 10
-4.5536730058
 20
5.1563056576
 10
-4.5576191154
 20
5.1550323577
 10
-4.5615270948
 20
5.1537465513
  0
LWPOLYLINE
  5
26E
100
AcDbEntity
  8
RACCORDO
100
AcDbPolyline
 62
250
  6
CONTINUOUS
 90
21
 70
0
 10
3.6977606672
 20
-28.2410354317
 10
3.6966477811
 20
-28.2383088576
 10
3.6955220278
 20
-28.235472199
 10
3.6943835445
 20
-28.2325253899
 10
3.6932310644
 20
-28.22946544
 10
3.6920661473
 20
-28.2262951986
 10
3.6908931133
 20
-28.2230233968
 10
3.6897134554
 20
-28.2196534988
 10
3.688525837
 20
-28.2161819934
 10
3.6873302746
 20
-28.2126071887
 10
3.6861278633
 20
-28.2089323693
 10
3.6849176697
 20
-28.2051542034
 10
3.6836967044
 20
-28.2012610533
 10
3.6824652742
 20
-28.1972540045
 10
3.6812233245
 20
-28.1931318734
 10
3.679967407
 20
-28.1888795678
 10
3.6786978743
 20
-28.1844982176
 10
3.6774147247
 20
-28.179986543
 10
3.6761140751
 20
-28.1753257825
 10
3.6747952938
 20
-28.1705130443
 10
3.6734594903
 20
-28.1655510066
  0
LINE
  5
26F
100
AcDbEntity
  8
RACCORDO
100
AcDbLine
 62
250
  6
CONTINUOUS
 10
-5.6849606108
 20
25.3867894446
 11
-5.6767919029
 21
25.2673757285
  0
LINE
  5
270
100
AcDbEntity
  8
RACCORDO
100
AcDbLine
 62
250
  6
CONTINUOUS
 10
-5.6767919029
 20
25.2673757285
 11
-5.6684409789
 21
25.1359884771
  0
LINE
  5
271
100
AcDbEntity
  8
RACCORDO
100
AcDbLine
 62
250
  6
CONTINUOUS
 10
-5.6684409789
 20
25.1359884771
 11
-5.6577747906
 21
24.954351504
  0
LINE
  5
272
100
AcDbEntity
  8
RACCORDO
100
AcDbLine
 62
250
  6
CONTINUOUS
 10
-5.6577747906
 20
24.954351504
 11
-5.6467075668
 21
24.7492604437
  0
LINE
  5
273
100
AcDbEntity
  8
RACCORDO
100
AcDbLine
 62
250
  6
CONTINUOUS
 10
-5.6467075668
 20
24.7492604437
 11
-5.6327295431
 21
24.4651413729
  0
LINE
  5
274
100
AcDbEntity
  8
RACCORDO
100
AcDbLine
 62
250
  6
CONTINUOUS
 10
-5.6327295431
 20
24.4651413729
 11
-5.6180535378
 21
24.1336036571
  0
LWPOLYLINE
  5
275
100
AcDbEntity
  8
RACCORDO
100
AcDbPolyline
 62
7
  6
CONTINUOUS
 90
10
 70
0
 10
-5.8179684947
 20
26.2607679852
 10
-5.8180199216
 20
26.2620523765
 10
-5.8179836356
 20
26.2634580938
 10
-5.8178596322
 20
26.2649851398
 10
-5.8175976145
 20
26.2666543566
 10
-5.8172478678
 20
26.2684449091
 10
-5.8169612667
 20
26.2702942815
 10
-5.8167881048
 20
26.2721816337
 10
-5.8166780888
 20
26.2741278056
 10
-5.8166312183
 20
26.2761327973
  0
LINE
  5
276
100
AcDbEntity
  8
RACCORDO
100
AcDbLine
 62
250
  6
CONTINUOUS
 10
-5.6180535378
 20
24.1336036571
 11
-5.6055484329
 21
23.8177843718
  0
LINE
  5
277
100
AcDbEntity
  8
RACCORDO
100
AcDbLine
 62
250
  6
CONTINUOUS
 10
-5.6055484329
 20
23.8177843718
 11
-5.5955966115
 21
23.5345165271
  0
LWPOLYLINE
  5
278
100
AcDbEntity
  8
RACCORDO
100
AcDbPolyline
 62
250
  6
CONTINUOUS
 90
3
 70
0
 10
-5.5955966115
 20
23.5345165271
 10
-5.5883474346
 20
23.3006223621
 10
-5.5860747041
 20
23.2184452724
  0
LWPOLYLINE
  5
279
100
AcDbEntity
  8
RACCORDO
100
AcDbPolyline
 62
250
  6
CONTINUOUS
 90
35
 70
0
 10
-4.5848467664
 20
0.6453794026
 10
-4.5847935934
 20
0.64059436
 10
-4.5846414737
 20
0.6358919429
 10
-4.5843915901
 20
0.6312730806
 10
-4.5840441226
 20
0.6267381364
 10
-4.5836013498
 20
0.6222884044
 10
-4.5830675986
 20
0.6179261501
 10
-4.5824441805
 20
0.6136521327
 10
-4.5817322952
 20
0.6094669558
 10
-4.5809360495
 20
0.6053726319
 10
-4.5800567761
 20
0.6013697886
 10
-4.5790956977
 20
0.5974588855
 10
-4.5780566981
 20
0.5936416761
 10
-4.5769411099
 20
0.589918631
 10
-4.5757501777
 20
0.586290122
 10
-4.5744875946
 20
0.5827577547
 10
-4.5731547012
 20
0.5793218925
 10
-4.5717527507
 20
0.5759827856
 10
-4.5702852492
 20
0.5727418736
 10
-4.5687535358
 20
0.5695994085
 10
-4.5671588712
 20
0.5665555433
 10
-4.5655045902
 20
0.5636115766
 10
-4.5637920288
 20
0.5607676614
 10
-4.5620224498
 20
0.5580238574
 10
-4.5601990267
 20
0.555381333
 10
-4.5583230886
 20
0.5528401487
 10
-4.5563958983
 20
0.5504002798
 10
-4.5544204817
 20
0.5480627772
 10
-4.552398161
 20
0.5458276184
 10
-4.5503301944
 20
0.5436946976
 10
-4.5482194674
 20
0.5416649535
 10
-4.5460672924
 20
0.5397382854
 10
-4.5438749214
 20
0.5379145135
 10
-4.5416451077
 20
0.5361944699
 10
-4.5403264871
 20
0.5352381533
  0
LWPOLYLINE
  5
27A
100
AcDbEntity
  8
RACCORDO
100
AcDbPolyline
 62
250
  6
CONTINUOUS
 90
86
 70
0
 10
-5.071032873
 20
0.6513802007
 10
-5.0709348417
 20
0.6418117214
 10
-5.0706493467
 20
0.6324162189
 10
-5.0701763881
 20
0.6231936933
 10
-5.0695144286
 20
0.6141422157
 10
-5.0686650055
 20
0.6052637149
 10
-5.06763273
 20
0.5965639776
 10
-5.0664174591
 20
0.5880431436
 10
-5.0650193358
 20
0.5797010729
 10
-5.0634434001
 20
0.5715431332
 10
-5.0616895142
 20
0.5635695012
 10
-5.0597578158
 20
0.5557800002
 10
-5.057653758
 20
0.5481794664
 10
-5.0553771865
 20
0.5407680346
 10
-5.0529282556
 20
0.5335455701
 10
-5.0503128811
 20
0.526516505
 10
-5.0475309107
 20
0.5196810164
 10
-5.0445824966
 20
0.5130389273
 10
-5.0414740117
 20
0.5065941391
 10
-5.0382053002
 20
0.500346838
 10
-5.0347765177
 20
0.4942968378
 10
-5.031194504
 20
0.4884474808
 10
-5.0274591037
 20
0.4827989693
 10
-5.0235704721
 20
0.4773511011
 10
-5.0195359149
 20
0.4721066118
 10
-5.0153552779
 20
0.4670657155
 10
-5.0110287153
 20
0.462228198
 10
-5.0065639954
 20
0.4575961532
 10
-5.001960969
 20
0.4531698093
 10
-4.9972197853
 20
0.448948938
 10
-4.9923486607
 20
0.4449349481
 10
-4.9873474526
 20
0.4411280784
 10
-4.9822163037
 20
0.4375280901
 10
-4.9769638581
 20
0.4341356755
 10
-4.9715899754
 20
0.4309510804
 10
-4.9660947961
 20
0.4279740589
 10
-4.9604873853
 20
0.4252045658
 10
-4.9547676179
 20
0.4226428569
 10
-4.9489356192
 20
0.4202886764
 10
-4.9430008298
 20
0.4181412114
 10
-4.9369631271
 20
0.4162007216
 10
-4.9308226338
 20
0.4144669473
 10
-4.9245891595
 20
0.4129382966
 10
-4.918262605
 20
0.4116150346
 10
-4.9118430696
 20
0.4104968962
 10
-4.9053406595
 20
0.4095814942
 10
-4.8987552762
 20
0.4088690944
 10
-4.8920870183
 20
0.408359431
 10
-4.8853462881
 20
0.4080493189
 10
-4.8785330151
 20
0.4079390238
 10
-4.8716472699
 20
0.40802828
 10
-4.8646996656
 20
0.4083131064
 10
-4.8576901345
 20
0.408793767
 10
-4.8506187445
 20
0.4094699978
 10
-4.843496312
 20
0.4103370261
 10
-4.8363227956
 20
0.4113951107
 10
-4.8290982367
 20
0.4126439927
 10
-4.8218335775
 20
0.4140781226
 10
-4.8145287886
 20
0.4156977526
 10
-4.8071838992
 20
0.4175026305
 10
-4.7998099392
 20
0.4194864497
 10
-4.7924069121
 20
0.4216494509
 10
-4.7849748144
 20
0.4239913935
 10
-4.7775246651
 20
0.4265052488
 10
-4.7700564682
 20
0.4291912493
 10
-4.7625702197
 20
0.4320491625
 10
-4.7550769259
 20
0.4350712621
 10
-4.7475765575
 20
0.4382578004
 10
-4.7400691439
 20
0.4416085251
 10
-4.7325657798
 20
0.4451149533
 10
-4.7250665281
 20
0.4487772884
 10
-4.7175713259
 20
0.4525953269
 10
-4.7100910803
 20
0.4565599754
 10
-4.7026259815
 20
0.4606713564
 10
-4.6951758392
 20
0.4649293474
 10
-4.6877509902
 20
0.4693244871
 10
-4.6803516346
 20
0.4738568566
 10
-4.6729775721
 20
0.4785263749
 10
-4.6656385386
 20
0.4833233381
 10
-4.6583343524
 20
0.4882480844
 10
-4.6510651951
 20
0.4933002755
 10
-4.6438413466
 20
0.4984691934
 10
-4.6366634273
 20
0.503754579
 10
-4.6295308169
 20
0.5091566914
 10
-4.622451934
 20
0.5146655885
 10
-4.6154267367
 20
0.5202814579
  0
LINE
  5
27B
100
AcDbEntity
  8
RACCORDO
100
AcDbLine
 62
250
  6
CONTINUOUS
 10
-5.0710328731
 20
4.3990461409
 11
-5.071032873
 21
0.6513802007
  0
LINE
  5
27C
100
AcDbEntity
  8
RACCORDO
100
AcDbLine
 62
250
  6
CONTINUOUS
 10
-4.5848467663
 20
4.3930453428
 11
-4.5848467664
 21
0.6453794026
  0
LINE
  5
27D
100
AcDbEntity
  8
RACCORDO
100
AcDbLine
 62
250
  6
CONTINUOUS
 10
-4.5375072651
 20
-15.1343005173
 11
-4.5375072651
 21
0.5332446152
  0
LINE
  5
27E
100
AcDbEntity
  8
RACCORDO
100
AcDbLine
 62
250
  6
CONTINUOUS
 10
-4.5375072651
 20
5.1612737928
 11
-4.5375072651
 21
20.7592873373
  0
LINE
  5
27F
100
AcDbEntity
  8
RACCORDO
100
AcDbLine
 62
7
  6
CONTINUOUS
 10
-4.4580068551
 20
-15.0050064742
 11
-4.4580068551
 21
0.4770293362
  0
LINE
  5
280
100
AcDbEntity
  8
RACCORDO
100
AcDbLine
 62
7
  6
CONTINUOUS
 10
-4.4580068551
 20
5.2905646852
 11
-4.4580068551
 21
20.7030720583
  0
LINE
  5
281
100
AcDbEntity
  8
RACCORDO
100
AcDbLine
 62
250
  6
CONTINUOUS
 10
-5.6062682883
 20
-18.5998315711
 11
-5.616573308
 21
-18.8927858486
  0
LWPOLYLINE
  5
282
100
AcDbEntity
  8
RACCORDO
100
AcDbPolyline
 62
250
  6
CONTINUOUS
 90
4
 70
0
 10
-4.60847879
 20
20.7553725658
 10
-4.607811338
 20
20.7733612054
 10
-4.6058127146
 20
20.7902370153
 10
-4.6029039816
 20
20.8039703801
  0
LINE
  5
283
100
AcDbEntity
  8
RACCORDO
100
AcDbLine
 62
250
  6
CONTINUOUS
 10
-5.616573308
 20
-18.8927858486
 11
-5.6325615963
 21
-19.2917724314
  0
LINE
  5
284
100
AcDbEntity
  8
RACCORDO
100
AcDbLine
 62
250
  6
CONTINUOUS
 10
-5.6325615963
 20
-19.2917724314
 11
-5.651046327
 21
-19.7096629055
  0
LINE
  5
285
100
AcDbEntity
  8
RACCORDO
100
AcDbLine
 62
250
  6
CONTINUOUS
 10
-5.651046327
 20
-19.7096629055
 11
-5.6724741018
 21
-20.1566483533
  0
LINE
  5
286
100
AcDbEntity
  8
RACCORDO
100
AcDbLine
 62
250
  6
CONTINUOUS
 10
-5.6724741018
 20
-20.1566483533
 11
-5.6899797091
 21
-20.4934327102
  0
LINE
  5
287
100
AcDbEntity
  8
RACCORDO
100
AcDbLine
 62
250
  6
CONTINUOUS
 10
-5.6899797091
 20
-20.4934327102
 11
-5.7027751784
 21
-20.7187522195
  0
LINE
  5
288
100
AcDbEntity
  8
RACCORDO
100
AcDbLine
 62
250
  6
CONTINUOUS
 10
-5.7027751784
 20
-20.7187522195
 11
-5.7104703538
 21
-20.843500718
  0
LINE
  5
289
100
AcDbEntity
  8
RACCORDO
100
AcDbLine
 62
250
  6
CONTINUOUS
 10
-5.7104703538
 20
-20.843500718
 11
-5.7176442924
 21
-20.951292893
  0
LINE
  5
28A
100
AcDbEntity
  8
RACCORDO
100
AcDbLine
 62
250
  6
CONTINUOUS
 10
-5.7176442924
 20
-20.951292893
 11
-5.7227409794
 21
-21.0224173123
  0
LINE
  5
28B
100
AcDbEntity
  8
RACCORDO
100
AcDbLine
 62
250
  6
CONTINUOUS
 10
-5.7227409794
 20
-21.0224173123
 11
-5.7276315393
 21
-21.0861589144
  0
LWPOLYLINE
  5
28C
100
AcDbEntity
  8
RACCORDO
100
AcDbPolyline
 62
250
  6
CONTINUOUS
 90
3
 70
0
 10
-5.7276315393
 20
-21.0861589144
 10
-5.7323429539
 20
-21.1432517171
 10
-5.7338775593
 20
-21.1609062487
  0
LWPOLYLINE
  5
28D
100
AcDbEntity
  8
RACCORDO
100
AcDbPolyline
 62
250
  6
CONTINUOUS
 90
22
 70
0
 10
-4.5615272178
 20
5.1537465427
 10
-4.5652086795
 20
5.1382971665
 10
-4.5676055952
 20
5.1223275958
 10
-4.56870274
 20
5.1059392622
 10
-4.568493146
 20
5.0892362561
 10
-4.5669781423
 20
5.0723246684
 10
-4.5641673467
 20
5.0553119163
 10
-4.5600786111
 20
5.0383060586
 10
-4.5547379066
 20
5.0214151084
 10
-4.5481791552
 20
5.0047463499
 10
-4.5404440152
 20
4.9884056561
 10
-4.531581617
 20
4.9724968161
 10
-4.521648251
 20
4.957120876
 10
-4.5107070094
 20
4.9423754974
 10
-4.4988273865
 20
4.9283543368
 10
-4.4860848369
 20
4.9151464503
 10
-4.4725602957
 20
4.9028357289
 10
-4.4583396649
 20
4.8915003651
 10
-4.4435132686
 20
4.8812123559
 10
-4.4281752777
 20
4.8720370463
 10
-4.4124231123
 20
4.864032714
 10
-4.3963568233
 20
4.8572501994
  0
LINE
  5
28E
100
AcDbEntity
  8
RACCORDO
100
AcDbLine
 62
250
  6
CONTINUOUS
 10
3.6001636989
 20
-28.0542338159
 11
3.5954126955
 21
-28.0380763287
  0
LINE
  5
28F
100
AcDbEntity
  8
RACCORDO
100
AcDbLine
 62
250
  6
CONTINUOUS
 10
3.5954126955
 20
-28.0380763287
 11
3.59070866
 21
-28.0215745109
  0
LINE
  5
290
100
AcDbEntity
  8
RACCORDO
100
AcDbLine
 62
250
  6
CONTINUOUS
 10
3.59070866
 20
-28.0215745109
 11
3.5860635539
 21
-28.0047859259
  0
LINE
  5
291
100
AcDbEntity
  8
RACCORDO
100
AcDbLine
 62
250
  6
CONTINUOUS
 10
-5.7245610222
 20
25.842386168
 11
-5.7209237219
 21
25.8086947838
  0
LINE
  5
292
100
AcDbEntity
  8
RACCORDO
100
AcDbLine
 62
250
  6
CONTINUOUS
 10
-5.7209237219
 20
25.8086947838
 11
-5.7172757613
 21
25.7733213392
  0
LINE
  5
293
100
AcDbEntity
  8
RACCORDO
100
AcDbLine
 62
250
  6
CONTINUOUS
 10
-5.7172757613
 20
25.7733213392
 11
-5.7117724372
 21
25.7168852136
  0
LINE
  5
294
100
AcDbEntity
  8
RACCORDO
100
AcDbLine
 62
250
  6
CONTINUOUS
 10
-5.7117724372
 20
25.7168852136
 11
-5.7062152396
 21
25.6560746512
  0
LINE
  5
295
100
AcDbEntity
  8
RACCORDO
100
AcDbLine
 62
250
  6
CONTINUOUS
 10
-5.7062152396
 20
25.6560746512
 11
-5.700576337
 21
25.590364426
  0
LINE
  5
296
100
AcDbEntity
  8
RACCORDO
100
AcDbLine
 62
250
  6
CONTINUOUS
 10
-5.700576337
 20
25.590364426
 11
-5.6948296406
 21
25.5191733276
  0
LINE
  5
297
100
AcDbEntity
  8
RACCORDO
100
AcDbLine
 62
250
  6
CONTINUOUS
 10
-5.6948296406
 20
25.5191733276
 11
-5.6889553347
 21
25.4419273923
  0
LINE
  5
298
100
AcDbEntity
  8
RACCORDO
100
AcDbLine
 62
250
  6
CONTINUOUS
 10
-5.6889553347
 20
25.4419273923
 11
-5.6849606108
 21
25.3867894446
  0
LINE
  5
299
100
AcDbEntity
  8
RACCORDO
100
AcDbLine
 62
250
  6
CONTINUOUS
 10
-5.7338775593
 20
-21.1609062487
 11
-5.7368975307
 21
-21.1943449427
  0
LINE
  5
29A
100
AcDbEntity
  8
RACCORDO
100
AcDbLine
 62
250
  6
CONTINUOUS
 10
-5.7368975307
 20
-21.1943449427
 11
-5.7398560343
 21
-21.225355252
  0
LINE
  5
29B
100
AcDbEntity
  8
RACCORDO
100
AcDbLine
 62
250
  6
CONTINUOUS
 10
-5.7398560343
 20
-21.225355252
 11
-5.7427578494
 21
-21.2541156553
  0
LINE
  5
29C
100
AcDbEntity
  8
RACCORDO
100
AcDbLine
 62
250
  6
CONTINUOUS
 10
-5.7427578494
 20
-21.2541156553
 11
-5.7456065887
 21
-21.2807803024
  0
LINE
  5
29D
100
AcDbEntity
  8
RACCORDO
100
AcDbLine
 62
250
  6
CONTINUOUS
 10
-5.7456065887
 20
-21.2807803024
 11
-5.7484063333
 21
-21.3054547386
  0
LINE
  5
29E
100
AcDbEntity
  8
RACCORDO
100
AcDbLine
 62
250
  6
CONTINUOUS
 10
-5.7484063333
 20
-21.3054547386
 11
-5.7511617003
 21
-21.3282946847
  0
LINE
  5
29F
100
AcDbEntity
  8
RACCORDO
100
AcDbLine
 62
250
  6
CONTINUOUS
 10
-5.7511617003
 20
-21.3282946847
 11
-5.7538728449
 21
-21.3494071125
  0
LWPOLYLINE
  5
2A0
100
AcDbEntity
  8
RACCORDO
100
AcDbPolyline
 62
250
  6
CONTINUOUS
 90
3
 70
0
 10
-5.1358904149
 20
-18.7436561484
 10
-5.1500336023
 20
-18.8472511812
 10
-5.1647716757
 20
-18.951738578
  0
LWPOLYLINE
  5
2A1
100
AcDbEntity
  8
RACCORDO
100
AcDbPolyline
 62
250
  6
CONTINUOUS
 90
35
 70
0
 10
-5.7538728449
 20
-21.3494071125
 10
-5.7565425574
 20
-21.3688750316
 10
-5.7578632011
 20
-21.3780419688
 10
-5.7591748402
 20
-21.3868303546
 10
-5.7604773913
 20
-21.395273342
 10
-5.7617711548
 20
-21.4033723
 10
-5.7630565986
 20
-21.411127254
 10
-5.7643338052
 20
-21.4185692062
 10
-5.7656031656
 20
-21.4257001226
 10
-5.7668649787
 20
-21.4325192376
 10
-5.7681191117
 20
-21.4390533403
 10
-5.7693658686
 20
-21.4453038042
 10
-5.7706055747
 20
-21.4512703051
 10
-5.7718380663
 20
-21.4569769917
 10
-5.7730631003
 20
-21.4624233063
 10
-5.7742814999
 20
-21.4676107338
 10
-5.775494616
 20
-21.4725663735
 10
-5.7767029593
 20
-21.4772931464
 10
-5.7779064827
 20
-21.4817888713
 10
-5.7791056149
 20
-21.4860728849
 10
-5.7803023512
 20
-21.4901509152
 10
-5.7814950841
 20
-21.4940178497
 10
-5.782678873
 20
-21.497676792
 10
-5.7838536447
 20
-21.5011250985
 10
-5.7850200168
 20
-21.5043661631
 10
-5.7861741844
 20
-21.5074122449
 10
-5.7873116232
 20
-21.5102541359
 10
-5.7884375124
 20
-21.5129018685
 10
-5.7895624424
 20
-21.5153963881
 10
-5.7906826161
 20
-21.5177387083
 10
-5.7918020755
 20
-21.5199281843
 10
-5.7929426367
 20
-21.5220027268
 10
-5.794111258
 20
-21.5239747
 10
-5.7953004186
 20
-21.525831303
 10
-5.7965098673
 20
-21.5275723543
  0
LINE
  5
2A2
100
AcDbEntity
  8
RACCORDO
100
AcDbLine
 62
250
  6
CONTINUOUS
 10
-5.1647716757
 20
-18.951738578
 11
-5.1964672151
 21
-19.1663122117
  0
LINE
  5
2A3
100
AcDbEntity
  8
RACCORDO
100
AcDbLine
 62
250
  6
CONTINUOUS
 10
-5.1964672151
 20
-19.1663122117
 11
-5.2279304453
 21
-19.3698215911
  0
LINE
  5
2A4
100
AcDbEntity
  8
RACCORDO
100
AcDbLine
 62
250
  6
CONTINUOUS
 10
-5.2279304453
 20
-19.3698215911
 11
-5.2582288914
 21
-19.5568274197
  0
LINE
  5
2A5
100
AcDbEntity
  8
RACCORDO
100
AcDbLine
 62
250
  6
CONTINUOUS
 10
-5.2582288914
 20
-19.5568274197
 11
-5.2862612712
 21
-19.7238674744
  0
LINE
  5
2A6
100
AcDbEntity
  8
RACCORDO
100
AcDbLine
 62
250
  6
CONTINUOUS
 10
-5.2862612712
 20
-19.7238674744
 11
-5.3124880482
 21
-19.8755990235
  0
LWPOLYLINE
  5
2A7
100
AcDbEntity
  8
RACCORDO
100
AcDbPolyline
 62
250
  6
CONTINUOUS
 90
3
 70
0
 10
-4.5879119341
 20
0.5437526853
 10
-4.5812006534
 20
0.5498470331
 10
-4.5758377184
 20
0.5548366194
  0
LWPOLYLINE
  5
2A8
100
AcDbEntity
  8
RACCORDO
100
AcDbPolyline
 62
250
  6
CONTINUOUS
 90
3
 70
0
 10
-4.6015460693
 20
0.5318230472
 10
-4.5946978657
 20
0.5377397258
 10
-4.5879119341
 20
0.5437526853
  0
LWPOLYLINE
  5
2A9
100
AcDbEntity
  8
RACCORDO
100
AcDbPolyline
 62
250
  6
CONTINUOUS
 90
3
 70
0
 10
-4.6154267367
 20
0.5202814579
 10
-4.608455267
 20
0.5260041122
 10
-4.6015460693
 20
0.5318230472
  0
LWPOLYLINE
  5
2AA
100
AcDbEntity
  8
RACCORDO
100
AcDbPolyline
 62
250
  6
CONTINUOUS
 90
22
 70
0
 10
-5.071032873
 20
0.6513800377
 10
-5.0516880573
 20
0.6632263294
 10
-5.0311706128
 20
0.6740429857
 10
-5.0095903298
 20
0.6837720298
 10
-4.9870627192
 20
0.6923617007
 10
-4.9637082503
 20
0.6997655575
 10
-4.9396516888
 20
0.7059428608
 10
-4.9150216934
 20
0.710860573
 10
-4.8899499676
 20
0.71449251
 10
-4.8645703903
 20
0.7168184905
 10
-4.8390186604
 20
0.717826028
 10
-4.8134313824
 20
0.7175100469
 10
-4.7879451533
 20
0.7158720833
 10
-4.7626962316
 20
0.7129206635
 10
-4.7378196
 20
0.7086719655
 10
-4.7134480585
 20
0.7031493608
 10
-4.6897119189
 20
0.6963819588
 10
-4.666738102
 20
0.6884062354
 10
-4.644649282
 20
0.6792662961
 10
-4.6235635516
 20
0.6690113358
 10
-4.6035937673
 20
0.657695552
 10
-4.5848467664
 20
0.6453794026
  0
LINE
  5
2AB
100
AcDbEntity
  8
RACCORDO
100
AcDbLine
 62
7
  6
CONTINUOUS
 10
2.9942901623
 20
-4.7925404202
 11
-4.540266333
 21
0.5351955709
  0
LINE
  5
2AC
100
AcDbEntity
  8
RACCORDO
100
AcDbLine
 62
250
  6
CONTINUOUS
 10
2.9942901623
 20
-4.7138797152
 11
-4.5848467664
 21
0.6453794026
  0
LINE
  5
2AD
100
AcDbEntity
  8
RACCORDO
100
AcDbLine
 62
250
  6
CONTINUOUS
 10
3.5860635539
 20
-28.0047859259
 11
3.5814851911
 21
-27.9877492094
  0
LINE
  5
2AE
100
AcDbEntity
  8
RACCORDO
100
AcDbLine
 62
250
  6
CONTINUOUS
 10
3.6734594903
 20
-28.1655510066
 11
3.6707318633
 21
-28.1551411556
  0
LINE
  5
2AF
100
AcDbEntity
  8
RACCORDO
100
AcDbLine
 62
250
  6
CONTINUOUS
 10
3.5814851911
 20
-27.9877492094
 11
3.5769842845
 21
-27.9705228073
  0
LINE
  5
2B0
100
AcDbEntity
  8
RACCORDO
100
AcDbLine
 62
250
  6
CONTINUOUS
 10
3.5769842845
 20
-27.9705228073
 11
3.5725706097
 21
-27.9531684021
  0
LINE
  5
2B1
100
AcDbEntity
  8
RACCORDO
100
AcDbLine
 62
250
  6
CONTINUOUS
 10
3.6707318633
 20
-28.1551411556
 11
3.6679351428
 21
-28.1440939915
  0
LINE
  5
2B2
100
AcDbEntity
  8
RACCORDO
100
AcDbLine
 62
250
  6
CONTINUOUS
 10
3.5725706097
 20
-27.9531684021
 11
3.5682503008
 21
-27.9357264354
  0
LINE
  5
2B3
100
AcDbEntity
  8
RACCORDO
100
AcDbLine
 62
250
  6
CONTINUOUS
 10
3.6679351428
 20
-28.1440939915
 11
3.6650818767
 21
-28.1324372025
  0
LINE
  5
2B4
100
AcDbEntity
  8
RACCORDO
100
AcDbLine
 62
250
  6
CONTINUOUS
 10
3.5682503008
 20
-27.9357264354
 11
3.5640354972
 21
-27.9182738534
  0
LINE
  5
2B5
100
AcDbEntity
  8
RACCORDO
100
AcDbLine
 62
250
  6
CONTINUOUS
 10
3.6650818767
 20
-28.1324372025
 11
3.6621881857
 21
-28.120225059
  0
LINE
  5
2B6
100
AcDbEntity
  8
RACCORDO
100
AcDbLine
 62
250
  6
CONTINUOUS
 10
3.5640354972
 20
-27.9182738534
 11
3.5599147695
 21
-27.9007906382
  0
LINE
  5
2B7
100
AcDbEntity
  8
RACCORDO
100
AcDbLine
 62
250
  6
CONTINUOUS
 10
3.5599147695
 20
-27.9007906382
 11
3.5558749805
 21
-27.8832346528
  0
LINE
  5
2B8
100
AcDbEntity
  8
RACCORDO
100
AcDbLine
 62
250
  6
CONTINUOUS
 10
3.6621881857
 20
-28.120225059
 11
3.6592634726
 21
-28.1074899009
  0
LINE
  5
2B9
100
AcDbEntity
  8
RACCORDO
100
AcDbLine
 62
250
  6
CONTINUOUS
 10
3.5558749805
 20
-27.8832346528
 11
3.5518844131
 21
-27.8654879622
  0
LINE
  5
2BA
100
AcDbEntity
  8
RACCORDO
100
AcDbLine
 62
250
  6
CONTINUOUS
 10
3.6592634726
 20
-28.1074899009
 11
3.6563198921
 21
-28.0942796397
  0
LINE
  5
2BB
100
AcDbEntity
  8
RACCORDO
100
AcDbLine
 62
250
  6
CONTINUOUS
 10
3.5518844131
 20
-27.8654879622
 11
3.5479114606
 21
-27.8474098843
  0
LINE
  5
2BC
100
AcDbEntity
  8
RACCORDO
100
AcDbLine
 62
250
  6
CONTINUOUS
 10
3.6563198921
 20
-28.0942796397
 11
3.6533678332
 21
-28.0806429588
  0
LINE
  5
2BD
100
AcDbEntity
  8
RACCORDO
100
AcDbLine
 62
250
  6
CONTINUOUS
 10
3.5479114606
 20
-27.8474098843
 11
3.5439375919
 21
-27.8289120155
  0
LINE
  5
2BE
100
AcDbEntity
  8
RACCORDO
100
AcDbLine
 62
250
  6
CONTINUOUS
 10
3.6533678332
 20
-28.0806429588
 11
3.6504139587
 21
-28.066612886
  0
LINE
  5
2BF
100
AcDbEntity
  8
RACCORDO
100
AcDbLine
 62
250
  6
CONTINUOUS
 10
3.5439375919
 20
-27.8289120155
 11
3.5399370681
 21
-27.8098648341
  0
LINE
  5
2C0
100
AcDbEntity
  8
RACCORDO
100
AcDbLine
 62
250
  6
CONTINUOUS
 10
3.5399370681
 20
-27.8098648341
 11
3.5358885421
 21
-27.7901405704
  0
LINE
  5
2C1
100
AcDbEntity
  8
RACCORDO
100
AcDbLine
 62
250
  6
CONTINUOUS
 10
3.6504139587
 20
-28.066612886
 11
3.6474675173
 21
-28.05223937
  0
LINE
  5
2C2
100
AcDbEntity
  8
RACCORDO
100
AcDbLine
 62
250
  6
CONTINUOUS
 10
3.5358885421
 20
-27.7901405704
 11
3.5317792123
 21
-27.7696540132
  0
LWPOLYLINE
  5
2C3
100
AcDbEntity
  8
RACCORDO
100
AcDbPolyline
 62
250
  6
CONTINUOUS
 90
3
 70
0
 10
3.6474675173
 20
-28.05223937
 10
3.6445369785
 20
-28.0375742521
 10
3.64307863
 20
-28.0301388885
  0
LINE
  5
2C4
100
AcDbEntity
  8
RACCORDO
100
AcDbLine
 62
250
  6
CONTINUOUS
 10
3.5317792123
 20
-27.7696540132
 11
3.5275907605
 21
-27.7482783121
  0
LWPOLYLINE
  5
2C5
100
AcDbEntity
  8
RACCORDO
100
AcDbPolyline
 62
250
  6
CONTINUOUS
 90
10
 70
0
 10
-5.5860747036
 20
23.2184452695
 10
-5.5450374035
 20
22.9416929107
 10
-5.5010149245
 20
22.6673936069
 10
-5.4540072667
 20
22.3955473578
 10
-5.4040103122
 20
22.1261380768
 10
-5.3510281789
 20
21.8591818506
 10
-5.2950732202
 20
21.5947269399
 10
-5.236149554
 20
21.3327894316
 10
-5.1742530624
 20
21.0733532387
 10
-5.1093837454
 20
20.8164183613
  0
LINE
  5
2C6
100
AcDbEntity
  8
RACCORDO
100
AcDbLine
 62
250
  6
CONTINUOUS
 10
-5.7465943617
 20
26.0142535594
 11
-5.7428412916
 21
25.9887310248
  0
LINE
  5
2C7
100
AcDbEntity
  8
RACCORDO
100
AcDbLine
 62
250
  6
CONTINUOUS
 10
-5.7428412916
 20
25.9887310248
 11
-5.7391368117
 21
25.9620646201
  0
LINE
  5
2C8
100
AcDbEntity
  8
RACCORDO
100
AcDbLine
 62
250
  6
CONTINUOUS
 10
-5.7391368117
 20
25.9620646201
 11
-5.7354701928
 21
25.9342088103
  0
LINE
  5
2C9
100
AcDbEntity
  8
RACCORDO
100
AcDbLine
 62
250
  6
CONTINUOUS
 10
-5.7354701928
 20
25.9342088103
 11
-5.7318249561
 21
25.9050331756
  0
LINE
  5
2CA
100
AcDbEntity
  8
RACCORDO
100
AcDbLine
 62
250
  6
CONTINUOUS
 10
-5.7318249561
 20
25.9050331756
 11
-5.7281923622
 21
25.8744631337
  0
LINE
  5
2CB
100
AcDbEntity
  8
RACCORDO
100
AcDbLine
 62
250
  6
CONTINUOUS
 10
-5.7281923622
 20
25.8744631337
 11
-5.7245610222
 21
25.842386168
  0
LINE
  5
2CC
100
AcDbEntity
  8
RACCORDO
100
AcDbLine
 62
7
  6
CONTINUOUS
 10
-0.0701765069
 20
25.163681795
 11
-0.0701765069
 21
25.0205729601
  0
LINE
  5
2CD
100
AcDbEntity
  8
0
100
AcDbLine
 62
7
  6
CONTINUOUS
 10
0.1508023783
 20
25.8890100048
 11
0.1508023783
 21
25.3583566593
  0
LINE
  5
2CE
100
AcDbEntity
  8
RACCORDO
100
AcDbLine
 62
250
  6
CONTINUOUS
 10
3.6024235135
 20
19.1914156783
 11
3.6054410738
 21
19.208668794
  0
LINE
  5
2CF
100
AcDbEntity
  8
RACCORDO
100
AcDbLine
 62
250
  6
CONTINUOUS
 10
-5.3124880482
 20
-19.8755990235
 11
-5.3487929311
 21
-20.0783863953
  0
LINE
  5
2D0
100
AcDbEntity
  8
RACCORDO
100
AcDbLine
 62
250
  6
CONTINUOUS
 10
3.6054410738
 20
19.208668794
 11
3.6083761579
 21
19.2249853109
  0
LINE
  5
2D1
100
AcDbEntity
  8
RACCORDO
100
AcDbLine
 62
250
  6
CONTINUOUS
 10
3.6083761579
 20
19.2249853109
 11
3.6112393343
 21
19.2404657637
  0
LINE
  5
2D2
100
AcDbEntity
  8
RACCORDO
100
AcDbLine
 62
250
  6
CONTINUOUS
 10
-5.3487929311
 20
-20.0783863953
 11
-5.3818026295
 21
-20.2560413188
  0
LINE
  5
2D3
100
AcDbEntity
  8
RACCORDO
100
AcDbLine
 62
250
  6
CONTINUOUS
 10
3.6112393343
 20
19.2404657637
 11
3.6140370173
 21
19.2551761954
  0
LINE
  5
2D4
100
AcDbEntity
  8
RACCORDO
100
AcDbLine
 62
250
  6
CONTINUOUS
 10
-5.3818026295
 20
-20.2560413188
 11
-5.411915846
 21
-20.4124861311
  0
LINE
  5
2D5
100
AcDbEntity
  8
RACCORDO
100
AcDbLine
 62
250
  6
CONTINUOUS
 10
3.6140370173
 20
19.2551761954
 11
3.6167818042
 21
19.2692150031
  0
LINE
  5
2D6
100
AcDbEntity
  8
RACCORDO
100
AcDbLine
 62
250
  6
CONTINUOUS
 10
-5.411915846
 20
-20.4124861311
 11
-5.4394868325
 21
-20.5507958814
  0
LINE
  5
2D7
100
AcDbEntity
  8
RACCORDO
100
AcDbLine
 62
250
  6
CONTINUOUS
 10
3.6167818042
 20
19.2692150031
 11
3.619488134
 21
19.2826778867
  0
LINE
  5
2D8
100
AcDbEntity
  8
RACCORDO
100
AcDbLine
 62
250
  6
CONTINUOUS
 10
-5.4394868325
 20
-20.5507958814
 11
-5.4566096126
 21
-20.6341354375
  0
LINE
  5
2D9
100
AcDbEntity
  8
RACCORDO
100
AcDbLine
 62
250
  6
CONTINUOUS
 10
3.619488134
 20
19.2826778867
 11
3.622165775
 21
19.2956279114
  0
LINE
  5
2DA
100
AcDbEntity
  8
RACCORDO
100
AcDbLine
 62
250
  6
CONTINUOUS
 10
-5.4566096126
 20
-20.6341354375
 11
-5.4728204593
 21
-20.7111481429
  0
LWPOLYLINE
  5
2DB
100
AcDbEntity
  8
RACCORDO
100
AcDbPolyline
 62
250
  6
CONTINUOUS
 90
22
 70
0
 10
-4.6179501319
 20
-15.1593823157
 10
-4.6215374504
 20
-15.1762372469
 10
-4.6237482355
 20
-15.1936662173
 10
-4.6245687815
 20
-15.2115611761
 10
-4.6239940014
 20
-15.2298111837
 10
-4.6220274585
 20
-15.248303099
 10
-4.6186813438
 20
-15.2669222813
 10
-4.6139764016
 20
-15.285553301
 10
-4.6079418002
 20
-15.304080655
 10
-4.6006149507
 20
-15.3223894831
 10
-4.5920412761
 20
-15.3403662795
 10
-4.5822739288
 20
-15.3578995972
 10
-4.5713734615
 20
-15.3748807385
 10
-4.5594074514
 20
-15.3912044286
 10
-4.546450082
 20
-15.4067694691
 10
-4.5325816828
 20
-15.4214793645
 10
-4.5178882306
 20
-15.4352429211
 10
-4.5024608176
 20
-15.4479748115
 10
-4.4863950865
 20
-15.4595961048
 10
-4.4697906367
 20
-15.4700347551
 10
-4.4527504075
 20
-15.4792260479
 10
-4.4353800395
 20
-15.4871130018
  0
LINE
  5
2DC
100
AcDbEntity
  8
RACCORDO
100
AcDbLine
 62
250
  6
CONTINUOUS
 10
3.622165775
 20
19.2956279114
 11
3.6248315293
 21
19.3081590169
  0
LINE
  5
2DD
100
AcDbEntity
  8
RACCORDO
100
AcDbLine
 62
250
  6
CONTINUOUS
 10
-5.4728204593
 20
-20.7111481429
 11
-5.4881962571
 21
-20.7824069634
  0
LWPOLYLINE
  5
2DE
100
AcDbEntity
  8
RACCORDO
100
AcDbPolyline
 62
250
  6
CONTINUOUS
 90
16
 70
0
 10
-5.1127737538
 20
-15.8022800565
 10
-5.1543611195
 20
-15.9927981516
 10
-5.1947119987
 20
-16.1827682845
 10
-5.2338263914
 20
-16.3721904552
 10
-5.2717061915
 20
-16.5610746454
 10
-5.3083495051
 20
-16.7494108734
 10
-5.3437506497
 20
-16.9371691945
 10
-5.3779094288
 20
-17.1243495254
 10
-5.4108260389
 20
-17.3109519494
 10
-5.4424953874
 20
-17.4969467719
 10
-5.4729172772
 20
-17.6823339145
 10
-5.5020919054
 20
-17.8671134556
 10
-5.5300147705
 20
-18.0512559353
 10
-5.5566843718
 20
-18.2347515337
 10
-5.5821022099
 20
-18.4176100707
 10
-5.6062682849
 20
-18.5998315464
  0
LWPOLYLINE
  5
2DF
100
AcDbEntity
  8
RACCORDO
100
AcDbPolyline
 62
250
  6
CONTINUOUS
 90
16
 70
0
 10
-4.6340097041
 20
-15.8735955834
 10
-4.6751618109
 20
-16.0620395623
 10
-4.715093799
 20
-16.2499617893
 10
-4.7538037
 20
-16.4373522614
 10
-4.7912896385
 20
-16.624200991
 10
-4.8275497421
 20
-16.8104980534
 10
-4.8625821417
 20
-16.996233588
 10
-4.8963851153
 20
-17.1813977263
 10
-4.9289570167
 20
-17.3659806186
 10
-4.9602961863
 20
-17.5499724827
 10
-4.990401095
 20
-17.7333635669
 10
-5.0192702849
 20
-17.9161441083
 10
-5.0469022999
 20
-18.0983043606
 10
-5.0732957877
 20
-18.2798346416
 10
-5.0984494991
 20
-18.4607253333
 10
-5.1358904149
 20
-18.7436561484
  0
LINE
  5
2E0
100
AcDbEntity
  8
RACCORDO
100
AcDbLine
 62
250
  6
CONTINUOUS
 10
3.6248315293
 20
19.3081590169
 11
3.627504478
 21
19.3203613039
  0
LINE
  5
2E1
100
AcDbEntity
  8
RACCORDO
100
AcDbLine
 62
250
  6
CONTINUOUS
 10
-5.4881962571
 20
-20.7824069634
 11
-5.5028004793
 21
-20.8482821183
  0
LINE
  5
2E2
100
AcDbEntity
  8
RACCORDO
100
AcDbLine
 62
250
  6
CONTINUOUS
 10
3.627504478
 20
19.3203613039
 11
3.6301985094
 21
19.3322944912
  0
LINE
  5
2E3
100
AcDbEntity
  8
RACCORDO
100
AcDbLine
 62
250
  6
CONTINUOUS
 10
-5.5028004793
 20
-20.8482821183
 11
-5.5166941576
 21
-20.9092668512
  0
LINE
  5
2E4
100
AcDbEntity
  8
RACCORDO
100
AcDbLine
 62
250
  6
CONTINUOUS
 10
3.6301985094
 20
19.3322944912
 11
3.632936371
 21
19.3440490769
  0
LINE
  5
2E5
100
AcDbEntity
  8
RACCORDO
100
AcDbLine
 62
250
  6
CONTINUOUS
 10
-5.5166941576
 20
-20.9092668512
 11
-5.5299340002
 21
-20.9657671675
  0
LWPOLYLINE
  5
2E6
100
AcDbEntity
  8
RACCORDO
100
AcDbPolyline
 62
250
  6
CONTINUOUS
 90
70
 70
0
 10
3.632936371
 20
19.3440490769
 10
3.635744251
 20
19.3557090539
 10
3.6371783107
 20
19.3615145816
 10
3.6386350287
 20
19.3673024049
 10
3.6401173993
 20
19.3730829881
 10
3.6416232997
 20
19.3788462003
 10
3.6431480821
 20
19.384562455
 10
3.6446926735
 20
19.3902332211
 10
3.6462568507
 20
19.3958573348
 10
3.6478340373
 20
19.4014012016
 10
3.6494245399
 20
19.406863939
 10
3.6510285037
 20
19.4122466741
 10
3.652638842
 20
19.4175187438
 10
3.6542559027
 20
19.4226793764
 10
3.6558795065
 20
19.4277295081
 10
3.6575014593
 20
19.4326409337
 10
3.6591220399
 20
19.4374125147
 10
3.6607407946
 20
19.4420454411
 10
3.6623480491
 20
19.4465148684
 10
3.6639427889
 20
19.4508163866
 10
3.6655254311
 20
19.4549542998
 10
3.6670880721
 20
19.4589166948
 10
3.6686275907
 20
19.4626956269
 10
3.6701461723
 20
19.4662987906
 10
3.6716436956
 20
19.4697376599
 10
3.6731185398
 20
19.473009763
 10
3.6745714297
 20
19.476117313
 10
3.6760058129
 20
19.4790788264
 10
3.6774212331
 20
19.4818948519
 10
3.678817415
 20
19.4845646269
 10
3.6801981982
 20
19.4871047462
 10
3.6815631096
 20
19.4895157896
 10
3.6829120414
 20
19.4917970093
 10
3.6842495186
 20
19.4939630632
 10
3.6855756131
 20
19.4960153536
 10
3.6868898405
 20
19.4979523707
 10
3.6881960255
 20
19.4997844604
 10
3.6894957591
 20
19.5015142132
 10
3.6907871849
 20
19.5031389886
 10
3.6920689917
 20
19.5046613006
 10
3.6933417984
 20
19.5060812391
 10
3.6946046713
 20
19.5073986349
 10
3.6958538854
 20
19.5086155709
 10
3.697088636
 20
19.5097305478
 10
3.6983092866
 20
19.5107449163
 10
3.699513767
 20
19.5116649849
 10
3.7007015519
 20
19.5124899227
 10
3.701872675
 20
19.5132203751
 10
3.7030258457
 20
19.5138648323
 10
3.7041607328
 20
19.5144227718
 10
3.7052771533
 20
19.5148945056
 10
3.7063739963
 20
19.5152897505
 10
3.7074508393
 20
19.5156080791
 10
3.7085075758
 20
19.5158496864
 10
3.7095435355
 20
19.5160252023
 10
3.7105574919
 20
19.5161345656
 10
3.7115501387
 20
19.5161775889
 10
3.7125236971
 20
19.5161647165
 10
3.7134771232
 20
19.5160967305
 10
3.7144110038
 20
19.5159726287
 10
3.7153300817
 20
19.5158002187
 10
3.7162337163
 20
19.5155808214
 10
3.717122216
 20
19.5153129564
 10
3.7180018638
 20
19.5150002931
 10
3.7188723019
 20
19.514644444
 10
3.7197336995
 20
19.514243714
 10
3.7205932703
 20
19.5137968919
 10
3.7214534403
 20
19.5133035956
 10
3.7223117659
 20
19.5127642235
 10
3.7231682302
 20
19.5121787787
  0
LINE
  5
2E7
100
AcDbEntity
  8
RACCORDO
100
AcDbLine
 62
250
  6
CONTINUOUS
 10
-5.5299340002
 20
-20.9657671675
 11
-5.5425658432
 21
-21.0180470592
  0
LINE
  5
2E8
100
AcDbEntity
  8
RACCORDO
100
AcDbLine
 62
250
  6
CONTINUOUS
 10
-5.5425658432
 20
-21.0180470592
 11
-5.5546359135
 21
-21.0664639381
  0
LINE
  5
2E9
100
AcDbEntity
  8
RACCORDO
100
AcDbLine
 62
250
  6
CONTINUOUS
 10
-5.5546359135
 20
-21.0664639381
 11
-5.5661865658
 21
-21.1113191619
  0
LWPOLYLINE
  5
2EA
100
AcDbEntity
  8
RACCORDO
100
AcDbPolyline
 62
250
  6
CONTINUOUS
 90
56
 70
0
 10
-5.5661865658
 20
-21.1113191619
 10
-5.5772513042
 20
-21.1528091756
 10
-5.5826134496
 20
-21.1723932491
 10
-5.5878653093
 20
-21.1912033319
 10
-5.5930137022
 20
-21.2093151951
 10
-5.5980606354
 20
-21.2267329363
 10
-5.6030080373
 20
-21.243455124
 10
-5.6078621153
 20
-21.2595489023
 10
-5.6126245252
 20
-21.2750177209
 10
-5.6172968263
 20
-21.2898603196
 10
-5.6218846824
 20
-21.3041365064
 10
-5.6263895189
 20
-21.31784937
 10
-5.6308125371
 20
-21.3309976189
 10
-5.6351587419
 20
-21.3436342711
 10
-5.6394289353
 20
-21.3557609913
 10
-5.6436244649
 20
-21.3673775917
 10
-5.6477508858
 20
-21.3785341276
 10
-5.651809923
 20
-21.3892347904
 10
-5.6558015935
 20
-21.39947659
 10
-5.6597286793
 20
-21.4092986643
 10
-5.66359102
 20
-21.4187005511
 10
-5.6673902178
 20
-21.4276837103
 10
-5.6711315255
 20
-21.4362900441
 10
-5.6748160234
 20
-21.4445223756
 10
-5.6784437908
 20
-21.4523786865
 10
-5.6820184311
 20
-21.4598935143
 10
-5.6855403008
 20
-21.4670680034
 10
-5.6890099893
 20
-21.4739016678
 10
-5.6924313328
 20
-21.4804265181
 10
-5.6958049521
 20
-21.4866442218
 10
-5.6991309921
 20
-21.4925536455
 10
-5.7024124807
 20
-21.498182533
 10
-5.7056497988
 20
-21.503532012
 10
-5.7088431876
 20
-21.5086013897
 10
-5.7119953905
 20
-21.5134156262
 10
-5.7151054941
 20
-21.5179743126
 10
-5.7181749173
 20
-21.5222782119
 10
-5.7212098348
 20
-21.5263539951
 10
-5.7242113522
 20
-21.5302041918
 10
-5.7271787599
 20
-21.5338265503
 10
-5.7301154556
 20
-21.5372405317
 10
-5.7330258178
 20
-21.5404503788
 10
-5.7359057855
 20
-21.5434520719
 10
-5.7387460709
 20
-21.5462526592
 10
-5.7415456124
 20
-21.5488494769
 10
-5.7443057528
 20
-21.5512453868
 10
-5.7470207939
 20
-21.5534557139
 10
-5.749679963
 20
-21.5554744621
 10
-5.7522942654
 20
-21.5573077914
 10
-5.7548906292
 20
-21.5589892326
 10
-5.7574618146
 20
-21.5605225595
 10
-5.7600152094
 20
-21.5619041028
 10
-5.762599629
 20
-21.5631561896
 10
-5.7652313628
 20
-21.5642862749
 10
-5.7678942016
 20
-21.5652869602
 10
-5.7705881858
 20
-21.5661582742
  0
LWPOLYLINE
  5
2EB
100
AcDbEntity
  8
RACCORDO
100
AcDbPolyline
 62
250
  6
CONTINUOUS
 90
19
 70
0
 10
5.5118541568
 20
4.1344175169
 10
5.4891706954
 20
4.1206914596
 10
5.4649154335
 20
4.1083822966
 10
5.4392648602
 20
4.0975795932
 10
5.4124056171
 20
4.0883619531
 10
5.3845331405
 20
4.080796447
 10
5.3558502394
 20
4.0749381239
 10
5.3265656196
 20
4.0708296106
 10
5.2968923653
 20
4.0685008022
 10
5.2670463885
 20
4.0679686436
 10
5.237244858
 20
4.0692370072
 10
5.207704619
 20
4.0722966638
 10
5.1786406157
 20
4.0771253504
 10
5.150264327
 20
4.0836879321
 10
5.1227822277
 20
4.0919366573
 10
5.0963942862
 20
4.1018115057
 10
5.0712925097
 20
4.1132406249
 10
5.0476595464
 20
4.1261408528
 10
5.0256673574
 20
4.1404183235
  0
LWPOLYLINE
  5
2EC
100
AcDbEntity
  8
RACCORDO
100
AcDbPolyline
 62
250
  6
CONTINUOUS
 90
6
 70
0
 10
-4.3725903251
 20
4.8904447347
 10
-4.3812423683
 20
4.9028192516
 10
-4.389673698
 20
4.9152838859
 10
-4.3978335155
 20
4.9278181217
 10
-4.4056683364
 20
4.9404995042
 10
-4.4131590965
 20
4.9532105594
  0
LWPOLYLINE
  5
2ED
100
AcDbEntity
  8
RACCORDO
100
AcDbPolyline
 62
250
  6
CONTINUOUS
 90
9
 70
0
 10
-4.4799807659
 20
5.0641639302
 10
-4.4940788639
 20
5.0853831312
 10
-4.5010836713
 20
5.0961499484
 10
-4.5080285962
 20
5.1069435058
 10
-4.5148478119
 20
5.1178119397
 10
-4.5212372489
 20
5.1287528038
 10
-4.5270950515
 20
5.1397034489
 10
-4.5325153304
 20
5.1505744942
 10
-4.5375057189
 20
5.1612742493
  0
LWPOLYLINE
  5
2EE
100
AcDbEntity
  8
RACCORDO
100
AcDbPolyline
 62
250
  6
CONTINUOUS
 90
7
 70
0
 10
-4.4407315455
 20
5.0009716777
 10
-4.4471746053
 20
5.011947378
 10
-4.4535616558
 20
5.0225779787
 10
-4.4600186711
 20
5.033049505
 10
-4.4665593972
 20
5.0434473901
 10
-4.4731914648
 20
5.0537841998
 10
-4.4799807659
 20
5.0641639302
  0
LINE
  5
2EF
100
AcDbEntity
  8
RACCORDO
100
AcDbLine
 62
250
  6
CONTINUOUS
 10
-4.4131590965
 20
4.9532105594
 11
-4.4407315455
 21
5.0009716777
  0
LINE
  5
2F0
100
AcDbEntity
  8
RACCORDO
100
AcDbLine
 62
250
  6
CONTINUOUS
 10
-5.4866670504
 20
25.3828564228
 11
-5.4737127721
 21
25.3254297991
  0
LINE
  5
2F1
100
AcDbEntity
  8
RACCORDO
100
AcDbLine
 62
250
  6
CONTINUOUS
 10
-5.4737127721
 20
25.3254297991
 11
-5.4535619424
 21
25.233734002
  0
LINE
  5
2F2
100
AcDbEntity
  8
RACCORDO
100
AcDbLine
 62
250
  6
CONTINUOUS
 10
-5.4535619424
 20
25.233734002
 11
-5.4326316632
 21
25.1355992592
  0
LINE
  5
2F3
100
AcDbEntity
  8
RACCORDO
100
AcDbLine
 62
250
  6
CONTINUOUS
 10
-5.4326316632
 20
25.1355992592
 11
-5.4109834717
 21
25.0311677826
  0
LINE
  5
2F4
100
AcDbEntity
  8
RACCORDO
100
AcDbLine
 62
250
  6
CONTINUOUS
 10
-5.4109834717
 20
25.0311677826
 11
-5.3885341321
 21
24.9198918969
  0
LINE
  5
2F5
100
AcDbEntity
  8
RACCORDO
100
AcDbLine
 62
250
  6
CONTINUOUS
 10
-5.3885341321
 20
24.9198918969
 11
-5.3651082763
 21
24.8007027852
  0
LINE
  5
2F6
100
AcDbEntity
  8
RACCORDO
100
AcDbLine
 62
250
  6
CONTINUOUS
 10
3.5275907605
 20
-27.7482783121
 11
3.523308744
 21
-27.7258883675
  0
LINE
  5
2F7
100
AcDbEntity
  8
RACCORDO
100
AcDbLine
 62
250
  6
CONTINUOUS
 10
-5.3651082763
 20
24.8007027852
 11
-5.3405624919
 21
24.6725965875
  0
LINE
  5
2F8
100
AcDbEntity
  8
RACCORDO
100
AcDbLine
 62
250
  6
CONTINUOUS
 10
3.64307863
 20
-28.0301388885
 11
3.6387471716
 21
-28.0075278688
  0
LINE
  5
2F9
100
AcDbEntity
  8
RACCORDO
100
AcDbLine
 62
250
  6
CONTINUOUS
 10
3.523308744
 20
-27.7258883675
 11
3.5189252565
 21
-27.7024004478
  0
LINE
  5
2FA
100
AcDbEntity
  8
RACCORDO
100
AcDbLine
 62
250
  6
CONTINUOUS
 10
-5.3405624919
 20
24.6725965875
 11
-5.3147851604
 21
24.534637125
  0
LINE
  5
2FB
100
AcDbEntity
  8
RACCORDO
100
AcDbLine
 62
250
  6
CONTINUOUS
 10
3.6387471716
 20
-28.0075278688
 11
3.6344957602
 21
-27.9845720694
  0
LINE
  5
2FC
100
AcDbEntity
  8
RACCORDO
100
AcDbLine
 62
250
  6
CONTINUOUS
 10
3.5189252565
 20
-27.7024004478
 11
3.5144287852
 21
-27.6776900806
  0
LINE
  5
2FD
100
AcDbEntity
  8
RACCORDO
100
AcDbLine
 62
250
  6
CONTINUOUS
 10
-5.3147851604
 20
24.534637125
 11
-5.2877167239
 21
24.3860593845
  0
LINE
  5
2FE
100
AcDbEntity
  8
RACCORDO
100
AcDbLine
 62
250
  6
CONTINUOUS
 10
3.6344957602
 20
-27.9845720694
 11
3.630347649
 21
-27.9614534748
  0
LINE
  5
2FF
100
AcDbEntity
  8
RACCORDO
100
AcDbLine
 62
250
  6
CONTINUOUS
 10
3.5144287852
 20
-27.6776900806
 11
3.5098114437
 21
-27.6516342201
  0
LINE
  5
300
100
AcDbEntity
  8
RACCORDO
100
AcDbLine
 62
250
  6
CONTINUOUS
 10
-5.2877167239
 20
24.3860593845
 11
-5.2593882947
 21
24.22647705
  0
LINE
  5
301
100
AcDbEntity
  8
RACCORDO
100
AcDbLine
 62
250
  6
CONTINUOUS
 10
3.630347649
 20
-27.9614534748
 11
3.6263008546
 21
-27.9382187892
  0
LINE
  5
302
100
AcDbEntity
  8
RACCORDO
100
AcDbLine
 62
250
  6
CONTINUOUS
 10
3.5098114437
 20
-27.6516342201
 11
3.5050701503
 21
-27.6241501096
  0
LINE
  5
303
100
AcDbEntity
  8
RACCORDO
100
AcDbLine
 62
250
  6
CONTINUOUS
 10
-5.2593882947
 20
24.22647705
 11
-5.2298803371
 21
24.0556336066
  0
LINE
  5
304
100
AcDbEntity
  8
RACCORDO
100
AcDbLine
 62
250
  6
CONTINUOUS
 10
3.6263008546
 20
-27.9382187892
 11
3.6223099074
 21
-27.914649437
  0
LINE
  5
305
100
AcDbEntity
  8
RACCORDO
100
AcDbLine
 62
250
  6
CONTINUOUS
 10
3.5050701503
 20
-27.6241501096
 11
3.5002000387
 21
-27.5951149931
  0
LINE
  5
306
100
AcDbEntity
  8
RACCORDO
100
AcDbLine
 62
250
  6
CONTINUOUS
 10
-5.2298803371
 20
24.0556336066
 11
-5.199303312
 21
23.8732144334
  0
LINE
  5
307
100
AcDbEntity
  8
RACCORDO
100
AcDbLine
 62
250
  6
CONTINUOUS
 10
3.6223099074
 20
-27.914649437
 11
3.616969137
 21
-27.8820932299
  0
LINE
  5
308
100
AcDbEntity
  8
RACCORDO
100
AcDbLine
 62
250
  6
CONTINUOUS
 10
3.5002000387
 20
-27.5951149931
 11
3.4951997806
 21
-27.5644071811
  0
LWPOLYLINE
  5
309
100
AcDbEntity
  8
RACCORDO
100
AcDbPolyline
 62
250
  6
CONTINUOUS
 90
9
 70
0
 10
-5.0610998831
 20
22.9673744082
 10
-5.0174055791
 20
22.6951837142
 10
-4.9707403016
 20
22.4253863616
 10
-4.9211073671
 20
22.158000419
 10
-4.8685128652
 20
21.8930558147
 10
-4.8129662878
 20
21.6305937833
 10
-4.7544751221
 20
21.3706429964
 10
-4.6930442204
 20
21.1132201128
 10
-4.628680073
 20
20.8583474764
  0
LINE
  5
30A
100
AcDbEntity
  8
RACCORDO
100
AcDbLine
 62
250
  6
CONTINUOUS
 10
-5.199303312
 20
23.8732144334
 11
-5.1676668412
 21
23.6778722697
  0
LINE
  5
30B
100
AcDbEntity
  8
RACCORDO
100
AcDbLine
 62
250
  6
CONTINUOUS
 10
3.4951997806
 20
-27.5644071811
 11
3.4900713073
 21
-27.5319443139
  0
LINE
  5
30C
100
AcDbEntity
  8
RACCORDO
100
AcDbLine
 62
250
  6
CONTINUOUS
 10
3.616969137
 20
-27.8820932299
 11
3.6114900687
 21
-27.8474872027
  0
LINE
  5
30D
100
AcDbEntity
  8
RACCORDO
100
AcDbLine
 62
250
  6
CONTINUOUS
 10
-5.1676668412
 20
23.6778722697
 11
-5.1459989119
 21
23.5396173357
  0
LINE
  5
30E
100
AcDbEntity
  8
RACCORDO
100
AcDbLine
 62
250
  6
CONTINUOUS
 10
3.4900713073
 20
-27.5319443139
 11
3.4848165332
 21
-27.4976045961
  0
LINE
  5
30F
100
AcDbEntity
  8
RACCORDO
100
AcDbLine
 62
250
  6
CONTINUOUS
 10
3.6114900687
 20
-27.8474872027
 11
3.6057663117
 21
-27.8100256317
  0
LINE
  5
310
100
AcDbEntity
  8
RACCORDO
100
AcDbLine
 62
250
  6
CONTINUOUS
 10
-5.1459989119
 20
23.5396173357
 11
-5.1240681149
 21
23.3943270892
  0
LINE
  5
311
100
AcDbEntity
  8
RACCORDO
100
AcDbLine
 62
250
  6
CONTINUOUS
 10
3.4848165332
 20
-27.4976045961
 11
3.4794409564
 21
-27.4612669147
  0
LINE
  5
312
100
AcDbEntity
  8
RACCORDO
100
AcDbLine
 62
250
  6
CONTINUOUS
 10
3.6057663117
 20
-27.8100256317
 11
3.5997032641
 21
-27.7688689945
  0
LINE
  5
313
100
AcDbEntity
  8
RACCORDO
100
AcDbLine
 62
250
  6
CONTINUOUS
 10
-5.1240681149
 20
23.3943270892
 11
-5.0610998831
 21
22.9673744082
  0
LINE
  5
314
100
AcDbEntity
  8
RACCORDO
100
AcDbLine
 62
250
  6
CONTINUOUS
 10
3.4794409564
 20
-27.4612669147
 11
3.473951935
 21
-27.4228486679
  0
LINE
  5
315
100
AcDbEntity
  8
RACCORDO
100
AcDbLine
 62
250
  6
CONTINUOUS
 10
3.5997032641
 20
-27.7688689945
 11
3.5932284562
 21
-27.7232191964
  0
LINE
  5
316
100
AcDbEntity
  8
RACCORDO
100
AcDbLine
 62
250
  6
CONTINUOUS
 10
3.473951935
 20
-27.4228486679
 11
3.4683585841
 21
-27.3822282139
  0
LINE
  5
317
100
AcDbEntity
  8
RACCORDO
100
AcDbLine
 62
250
  6
CONTINUOUS
 10
3.5932284562
 20
-27.7232191964
 11
3.5862857649
 21
-27.672280607
  0
LINE
  5
318
100
AcDbEntity
  8
RACCORDO
100
AcDbLine
 62
250
  6
CONTINUOUS
 10
3.4683585841
 20
-27.3822282139
 11
3.4626738434
 21
-27.3392842595
  0
LINE
  5
319
100
AcDbEntity
  8
RACCORDO
100
AcDbLine
 62
250
  6
CONTINUOUS
 10
3.5862857649
 20
-27.672280607
 11
3.5788313188
 21
-27.6152215989
  0
LINE
  5
31A
100
AcDbEntity
  8
RACCORDO
100
AcDbLine
 62
250
  6
CONTINUOUS
 10
3.4626738434
 20
-27.3392842595
 11
3.4569112015
 21
-27.2939333396
  0
LINE
  5
31B
100
AcDbEntity
  8
RACCORDO
100
AcDbLine
 62
250
  6
CONTINUOUS
 10
3.5788313188
 20
-27.6152215989
 11
3.5708432441
 21
-27.551247374
  0
LWPOLYLINE
  5
31C
100
AcDbEntity
  8
RACCORDO
100
AcDbPolyline
 62
250
  6
CONTINUOUS
 90
3
 70
0
 10
3.4569112015
 20
-27.2939333396
 10
3.4510877994
 20
-27.2460532441
 10
3.4481602726
 20
-27.2211243355
  0
LINE
  5
31D
100
AcDbEntity
  8
RACCORDO
100
AcDbLine
 62
250
  6
CONTINUOUS
 10
3.5708432441
 20
-27.551247374
 11
3.5666474384
 21
-27.5164204878
  0
LINE
  5
31E
100
AcDbEntity
  8
RACCORDO
100
AcDbLine
 62
250
  6
CONTINUOUS
 10
3.442284466
 20
-27.1692449795
 11
3.4364052542
 21
-27.1145493182
  0
LINE
  5
31F
100
AcDbEntity
  8
RACCORDO
100
AcDbLine
 62
250
  6
CONTINUOUS
 10
3.5532667982
 20
-27.3993252731
 11
3.5461557169
 21
-27.3330570291
  0
LINE
  5
320
100
AcDbEntity
  8
RACCORDO
100
AcDbLine
 62
250
  6
CONTINUOUS
 10
3.5461557169
 20
-27.3330570291
 11
3.5387935562
 21
-27.2611791156
  0
LINE
  5
321
100
AcDbEntity
  8
RACCORDO
100
AcDbLine
 62
250
  6
CONTINUOUS
 10
3.4364052542
 20
-27.1145493182
 11
3.4305475668
 21
-27.0569518708
  0
LINE
  5
322
100
AcDbEntity
  8
RACCORDO
100
AcDbLine
 62
250
  6
CONTINUOUS
 10
3.5387935562
 20
-27.2611791156
 11
3.531212672
 21
-27.1833419047
  0
LWPOLYLINE
  5
323
100
AcDbEntity
  8
RACCORDO
100
AcDbPolyline
 62
250
  6
CONTINUOUS
 90
3
 70
0
 10
3.724663487
 20
-28.3024159615
 10
3.6244450224
 20
-27.2523575539
 10
3.5329194216
 20
-26.1949138264
  0
LINE
  5
324
100
AcDbEntity
  8
RACCORDO
100
AcDbLine
 62
250
  6
CONTINUOUS
 10
3.4305475668
 20
-27.0569518708
 11
3.4247434582
 21
-26.9963289314
  0
LINE
  5
325
100
AcDbEntity
  8
RACCORDO
100
AcDbLine
 62
250
  6
CONTINUOUS
 10
3.531212672
 20
-27.1833419047
 11
3.5259937137
 21
-27.1272686694
  0
LINE
  5
326
100
AcDbEntity
  8
RACCORDO
100
AcDbLine
 62
250
  6
CONTINUOUS
 10
3.4247434582
 20
-26.9963289314
 11
3.4190314802
 21
-26.9325639388
  0
LINE
  5
327
100
AcDbEntity
  8
RACCORDO
100
AcDbLine
 62
250
  6
CONTINUOUS
 10
3.4190314802
 20
-26.9325639388
 11
3.4134454353
 21
-26.865556256
  0
LWPOLYLINE
  5
328
100
AcDbEntity
  8
RACCORDO
100
AcDbPolyline
 62
250
  6
CONTINUOUS
 90
11
 70
0
 10
3.5329194216
 20
-26.1949138264
 10
3.4500927393
 20
-25.1301525458
 10
3.3759706067
 20
-24.0581420704
 10
3.310557772
 20
-22.9789509323
 10
3.2538581034
 20
-21.8926478311
 10
3.2058752902
 20
-20.7993022771
 10
3.1666125653
 20
-19.6989843017
 10
3.1360722495
 20
-18.5917640367
 10
3.1142562713
 20
-17.477712231
 10
3.1011661633
 20
-16.3569002491
 10
3.0968027889
 20
-15.2293997769
  0
LINE
  5
329
100
AcDbEntity
  8
RACCORDO
100
AcDbLine
 62
250
  6
CONTINUOUS
 10
3.4134454353
 20
-26.865556256
 11
3.4080295786
 21
-26.7951761267
  0
LINE
  5
32A
100
AcDbEntity
  8
RACCORDO
100
AcDbLine
 62
250
  6
CONTINUOUS
 10
3.4080295786
 20
-26.7951761267
 11
3.4028207716
 21
-26.7210388674
  0
LINE
  5
32B
100
AcDbEntity
  8
RACCORDO
100
AcDbLine
 62
250
  6
CONTINUOUS
 10
3.4028207716
 20
-26.7210388674
 11
3.3978599969
 21
-26.6428621779
  0
LINE
  5
32C
100
AcDbEntity
  8
RACCORDO
100
AcDbLine
 62
250
  6
CONTINUOUS
 10
3.3978599969
 20
-26.6428621779
 11
3.3931988397
 21
-26.5601570389
  0
LWPOLYLINE
  5
32D
100
AcDbEntity
  8
RACCORDO
100
AcDbPolyline
 62
7
  6
CONTINUOUS
 90
6
 70
0
 10
3.1515263322
 20
-21.7240751081
 10
3.2085315129
 20
-22.8157357586
 10
3.2743304263
 20
-23.9002657842
 10
3.3489200595
 20
-24.977600879
 10
3.4322968432
 20
-26.0476726944
 10
3.5259937405
 20
-27.1272689632
  0
LWPOLYLINE
  5
32E
100
AcDbEntity
  8
RACCORDO
100
AcDbPolyline
 62
250
  6
CONTINUOUS
 90
3
 70
0
 10
3.3931988397
 20
-26.5601570389
 10
3.3889182772
 20
-26.4724654396
 10
3.3869398664
 20
-26.4266860771
  0
LINE
  5
32F
100
AcDbEntity
  8
RACCORDO
100
AcDbLine
 62
7
  6
CONTINUOUS
 10
3.103317963
 20
-20.6253519947
 11
3.1515263322
 21
-21.7240751081
  0
LWPOLYLINE
  5
330
100
AcDbEntity
  8
RACCORDO
100
AcDbPolyline
 62
7
  6
CONTINUOUS
 90
12
 70
0
 10
3.5207107799
 20
18.49061959
 10
3.4308191568
 20
17.3150695691
 10
3.3477235253
 20
16.1209713667
 10
3.2733821212
 20
14.9328279177
 10
3.2077997462
 20
13.7507138563
 10
3.1509806845
 20
12.574699415
 10
3.1029292342
 20
11.404858261
 10
3.0636487988
 20
10.241263307
 10
3.033142498
 20
9.0839837148
 10
3.0114132919
 20
7.933092821
 10
2.9984629564
 20
6.7886730144
 10
2.9942901656
 20
5.6793315345
  0
LINE
  5
331
100
AcDbEntity
  8
RACCORDO
100
AcDbLine
 62
250
  6
CONTINUOUS
 10
3.5207107209
 20
18.4906188503
 11
3.5265228678
 21
18.5609392968
  0
LINE
  5
332
100
AcDbEntity
  8
RACCORDO
100
AcDbLine
 62
250
  6
CONTINUOUS
 10
3.5265228678
 20
18.5609392968
 11
3.5311771132
 21
18.6139851535
  0
LINE
  5
333
100
AcDbEntity
  8
RACCORDO
100
AcDbLine
 62
250
  6
CONTINUOUS
 10
3.5311771132
 20
18.6139851535
 11
3.5358038327
 21
18.6641545117
  0
LINE
  5
334
100
AcDbEntity
  8
RACCORDO
100
AcDbLine
 62
250
  6
CONTINUOUS
 10
3.5358038327
 20
18.6641545117
 11
3.5404013131
 21
18.711706974
  0
LINE
  5
335
100
AcDbEntity
  8
RACCORDO
100
AcDbLine
 62
250
  6
CONTINUOUS
 10
3.5404013131
 20
18.711706974
 11
3.5449549974
 21
18.7567339911
  0
LINE
  5
336
100
AcDbEntity
  8
RACCORDO
100
AcDbLine
 62
250
  6
CONTINUOUS
 10
3.5449549974
 20
18.7567339911
 11
3.5494501915
 21
18.7993079415
  0
LINE
  5
337
100
AcDbEntity
  8
RACCORDO
100
AcDbLine
 62
250
  6
CONTINUOUS
 10
3.5494501915
 20
18.7993079415
 11
3.5538755613
 21
18.8395241573
  0
LINE
  5
338
100
AcDbEntity
  8
RACCORDO
100
AcDbLine
 62
250
  6
CONTINUOUS
 10
3.5538755613
 20
18.8395241573
 11
3.5582224133
 21
18.8774896991
  0
LINE
  5
339
100
AcDbEntity
  8
RACCORDO
100
AcDbLine
 62
250
  6
CONTINUOUS
 10
3.5582224133
 20
18.8774896991
 11
3.5624800061
 21
18.9132755161
  0
LINE
  5
33A
100
AcDbEntity
  8
RACCORDO
100
AcDbLine
 62
250
  6
CONTINUOUS
 10
3.5624800061
 20
18.9132755161
 11
3.5666423925
 21
18.9469890537
  0
LINE
  5
33B
100
AcDbEntity
  8
RACCORDO
100
AcDbLine
 62
250
  6
CONTINUOUS
 10
3.5666423925
 20
18.9469890537
 11
3.5707052024
 21
18.9787392375
  0
LINE
  5
33C
100
AcDbEntity
  8
RACCORDO
100
AcDbLine
 62
250
  6
CONTINUOUS
 10
3.5707052024
 20
18.9787392375
 11
3.5746616679
 21
19.0085983825
  0
LINE
  5
33D
100
AcDbEntity
  8
RACCORDO
100
AcDbLine
 62
250
  6
CONTINUOUS
 10
3.5746616679
 20
19.0085983825
 11
3.5785099634
 21
19.0366756957
  0
LINE
  5
33E
100
AcDbEntity
  8
RACCORDO
100
AcDbLine
 62
250
  6
CONTINUOUS
 10
3.5785099634
 20
19.0366756957
 11
3.5822496594
 21
19.0630799833
  0
LINE
  5
33F
100
AcDbEntity
  8
RACCORDO
100
AcDbLine
 62
250
  6
CONTINUOUS
 10
3.5822496594
 20
19.0630799833
 11
3.5858775445
 21
19.0878831545
  0
LINE
  5
340
100
AcDbEntity
  8
RACCORDO
100
AcDbLine
 62
250
  6
CONTINUOUS
 10
3.5858775445
 20
19.0878831545
 11
3.5893954833
 21
19.1111933627
  0
LINE
  5
341
100
AcDbEntity
  8
RACCORDO
100
AcDbLine
 62
250
  6
CONTINUOUS
 10
3.5893954833
 20
19.1111933627
 11
3.5928066766
 21
19.1331171939
  0
LINE
  5
342
100
AcDbEntity
  8
RACCORDO
100
AcDbLine
 62
250
  6
CONTINUOUS
 10
3.5928066766
 20
19.1331171939
 11
3.5961112176
 21
19.1537252012
  0
LINE
  5
343
100
AcDbEntity
  8
RACCORDO
100
AcDbLine
 62
250
  6
CONTINUOUS
 10
3.5961112176
 20
19.1537252012
 11
3.5993146199
 21
19.1731238334
  0
LINE
  5
344
100
AcDbEntity
  8
RACCORDO
100
AcDbLine
 62
250
  6
CONTINUOUS
 10
3.5993146199
 20
19.1731238334
 11
3.6024235135
 21
19.1914156783
  0
LWPOLYLINE
  5
345
100
AcDbEntity
  8
RACCORDO
100
AcDbPolyline
 62
7
  6
CONTINUOUS
 90
17
 70
0
 10
-4.6465520352
 20
0.5663595583
 10
-4.6469969372
 20
0.5662338164
 10
-4.647230447
 20
0.5661700655
 10
-4.64597419
 20
0.5664072404
 10
-4.6432360541
 20
0.5667839765
 10
-4.6390143364
 20
0.5671348461
 10
-4.633299246
 20
0.567284334
 10
-4.626200856
 20
0.5670481499
 10
-4.6179526568
 20
0.5662660532
 10
-4.6086470191
 20
0.564788547
 10
-4.5984380993
 20
0.5624812989
 10
-4.5876790081
 20
0.5592889012
 10
-4.5765127665
 20
0.5551414393
 10
-4.5651021312
 20
0.5499889349
 10
-4.5538136327
 20
0.5439157433
 10
-4.542856569
 20
0.5369942424
 10
-4.5403265531
 20
0.5352381999
  0
LINE
  5
346
100
AcDbEntity
  8
RACCORDO
100
AcDbLine
 62
250
  6
CONTINUOUS
 10
-4.5848467663
 20
4.3930453428
 11
2.9942901623
 21
-0.9662137749
  0
LINE
  5
347
100
AcDbEntity
  8
RACCORDO
100
AcDbLine
 62
250
  6
CONTINUOUS
 10
-4.3963568233
 20
4.8572501994
 11
2.9942901623
 21
-0.3687264015
  0
LINE
  5
348
100
AcDbEntity
  8
RACCORDO
100
AcDbLine
 62
250
  6
CONTINUOUS
 10
2.9942901623
 20
-0.3187263573
 11
-4.3725902946
 21
4.8904447585
  0
LINE
  5
349
100
AcDbEntity
  8
RACCORDO
100
AcDbLine
 62
7
  6
CONTINUOUS
 10
2.9942901623
 20
-0.189316879
 11
-4.2282530276
 21
4.917792388
  0
LINE
  5
34A
100
AcDbEntity
  8
0
100
AcDbLine
 62
7
  6
CONTINUOUS
 10
-4.4344963245
 20
5.1842188993
 11
2.9942901623
 21
-0.0687264015
  0
LINE
  5
34B
100
AcDbEntity
  8
RACCORDO
100
AcDbLine
 62
7
  6
CONTINUOUS
 10
-4.4580068551
 20
5.5758433549
 11
2.9942901623
 21
0.3062735985
  0
LWPOLYLINE
  5
34C
100
AcDbEntity
  8
RACCORDO
100
AcDbPolyline
 62
7
  6
CONTINUOUS
 90
26
 70
0
 10
-4.2283001411
 20
4.9178261924
 10
-4.2433316191
 20
4.9289244076
 10
-4.2577899926
 20
4.9404750619
 10
-4.2725862169
 20
4.9531862578
 10
-4.2875296668
 20
4.9669684495
 10
-4.3025183933
 20
4.9817985739
 10
-4.3174387153
 20
4.9976264902
 10
-4.3321298906
 20
5.0143337222
 10
-4.3464760468
 20
5.0318516646
 10
-4.3603323212
 20
5.0500621253
 10
-4.3735444649
 20
5.0687689343
 10
-4.3860006372
 20
5.0878343964
 10
-4.397580796
 20
5.1070846235
 10
-4.4081692775
 20
5.1262487589
 10
-4.4177120076
 20
5.1451735189
 10
-4.4261793337
 20
5.1637085708
 10
-4.4335309156
 20
5.1815831311
 10
-4.4398009764
 20
5.1987017084
 10
-4.4450321086
 20
5.2149780494
 10
-4.4492354253
 20
5.2301479203
 10
-4.4525007062
 20
5.2441502854
 10
-4.4549199547
 20
5.2569636189
 10
-4.4565549519
 20
5.2683619829
 10
-4.457520757
 20
5.2782535899
 10
-4.4579528088
 20
5.286708504
 10
-4.4580056467
 20
5.2905021261
  0
LWPOLYLINE
  5
34D
100
AcDbEntity
  8
RACCORDO
100
AcDbPolyline
 62
250
  6
CONTINUOUS
 90
9
 70
0
 10
-4.6286799076
 20
20.8583473599
 10
-4.625119708
 20
20.8469032389
 10
-4.6207416338
 20
20.836176933
 10
-4.6155591423
 20
20.8262019464
 10
-4.6095862466
 20
20.8170076566
 10
-4.6028429359
 20
20.8086240458
 10
-4.5953555507
 20
20.8010810856
 10
-4.5871489545
 20
20.7944023086
 10
-4.5860741328
 20
20.7936294081
  0
LWPOLYLINE
  5
34E
100
AcDbEntity
  8
RACCORDO
100
AcDbPolyline
 62
250
  6
CONTINUOUS
 90
25
 70
0
 10
-5.1093837454
 20
20.8164183613
 10
-5.1024349762
 20
20.7935681889
 10
-5.0939654646
 20
20.7723223691
 10
-5.0839752107
 20
20.7526809019
 10
-5.0724211096
 20
20.7345936137
 10
-5.0593462661
 20
20.7181106782
 10
-5.044879995
 20
20.7033826161
 10
-5.0290133788
 20
20.6904261512
 10
-5.011755335
 20
20.6792245597
 10
-4.9932619312
 20
20.6698781921
 10
-4.9735163442
 20
20.6624016456
 10
-4.9525353972
 20
20.6567803229
 10
-4.9305256278
 20
20.6530707827
 10
-4.9074797822
 20
20.651292434
 10
-4.8834051142
 20
20.6514258677
 10
-4.8585299224
 20
20.6534694152
 10
-4.8328512092
 20
20.6574386757
 10
-4.8063719722
 20
20.66331805
 10
-4.7793295037
 20
20.6710590714
 10
-4.7517007758
 20
20.6806874465
 10
-4.7235088163
 20
20.6921774687
 10
-4.6950600005
 20
20.7054035504
 10
-4.6664564534
 20
20.7203238293
 10
-4.6375960498
 20
20.7369801678
 10
-4.60847879
 20
20.7553725658
  0
LINE
  5
34F
100
AcDbEntity
  8
RACCORDO
100
AcDbLine
 62
250
  6
CONTINUOUS
 10
-5.6138915695
 20
25.8734662412
 11
-5.6039274776
 21
25.8404394846
  0
LINE
  5
350
100
AcDbEntity
  8
RACCORDO
100
AcDbLine
 62
250
  6
CONTINUOUS
 10
-5.6039274776
 20
25.8404394846
 11
-5.5938246669
 21
25.805933182
  0
LINE
  5
351
100
AcDbEntity
  8
RACCORDO
100
AcDbLine
 62
250
  6
CONTINUOUS
 10
-5.5938246669
 20
25.805933182
 11
-5.5835573948
 21
25.7698372684
  0
LINE
  5
352
100
AcDbEntity
  8
RACCORDO
100
AcDbLine
 62
250
  6
CONTINUOUS
 10
-5.5835573948
 20
25.7698372684
 11
-5.5731078695
 21
25.7320538801
  0
LINE
  5
353
100
AcDbEntity
  8
RACCORDO
100
AcDbLine
 62
250
  6
CONTINUOUS
 10
-5.5731078695
 20
25.7320538801
 11
-5.5624611614
 21
25.6925130628
  0
LINE
  5
354
100
AcDbEntity
  8
RACCORDO
100
AcDbLine
 62
250
  6
CONTINUOUS
 10
-5.5624611614
 20
25.6925130628
 11
-5.5515993633
 21
25.6511134831
  0
LINE
  5
355
100
AcDbEntity
  8
RACCORDO
100
AcDbLine
 62
250
  6
CONTINUOUS
 10
-5.5515993633
 20
25.6511134831
 11
-5.5404883682
 21
25.6076738985
  0
LINE
  5
356
100
AcDbEntity
  8
RACCORDO
100
AcDbLine
 62
250
  6
CONTINUOUS
 10
-5.5404883682
 20
25.6076738985
 11
-5.5291040073
 21
25.5620758275
  0
LINE
  5
357
100
AcDbEntity
  8
RACCORDO
100
AcDbLine
 62
250
  6
CONTINUOUS
 10
-5.5291040073
 20
25.5620758275
 11
-5.5174114555
 21
25.5141253064
  0
LINE
  5
358
100
AcDbEntity
  8
RACCORDO
100
AcDbLine
 62
250
  6
CONTINUOUS
 10
-5.5174114555
 20
25.5141253064
 11
-5.5053840321
 21
25.4636373443
  0
LWPOLYLINE
  5
359
100
AcDbEntity
  8
RACCORDO
100
AcDbPolyline
 62
250
  6
CONTINUOUS
 90
3
 70
0
 10
-5.5053840321
 20
25.4636373443
 10
-5.4930013283
 20
25.4104957808
 10
-5.4866670504
 20
25.3828564228
  0
LINE
  5
35A
100
AcDbEntity
  8
RACCORDO
100
AcDbLine
 62
250
  6
CONTINUOUS
 10
3.5666474384
 20
-27.5164204878
 11
3.5601028276
 21
-27.460331289
  0
LINE
  5
35B
100
AcDbEntity
  8
RACCORDO
100
AcDbLine
 62
250
  6
CONTINUOUS
 10
3.4481602726
 20
-27.2211243355
 11
3.442284466
 21
-27.1692449795
  0
LINE
  5
35C
100
AcDbEntity
  8
RACCORDO
100
AcDbLine
 62
250
  6
CONTINUOUS
 10
3.5601028276
 20
-27.460331289
 11
3.5532667982
 21
-27.3993252731
  0
LWPOLYLINE
  5
35D
100
AcDbEntity
  8
RACCORDO
100
AcDbPolyline
 62
250
  6
CONTINUOUS
 90
9
 70
0
 10
5.1005184975
 20
-21.0664172585
 10
5.1426201339
 20
-22.1688104117
 10
5.1940724776
 20
-23.2646714149
 10
5.2548724162
 20
-24.3539314176
 10
5.32501595
 20
-25.4365198466
 10
5.4044953873
 20
-26.5123320828
 10
5.4933036465
 20
-27.5812884429
 10
5.5914352449
 20
-28.6433334256
 10
5.6988831367
 20
-29.6984000633
  0
LINE
  5
35E
100
AcDbEntity
  8
RACCORDO
100
AcDbLine
 62
7
  6
CONTINUOUS
 10
3.0639085977
 20
-19.5196353602
 11
3.103317963
 21
-20.6253519947
  0
LWPOLYLINE
  5
35F
100
AcDbEntity
  8
RACCORDO
100
AcDbPolyline
 62
250
  6
CONTINUOUS
 90
12
 70
0
 10
3.3869398664
 20
-26.4266860771
 10
3.3833991831
 20
-26.330816601
 10
3.3818515374
 20
-26.2807174624
 10
3.3804923564
 20
-26.2290334318
 10
3.3793271382
 20
-26.1757568848
 10
3.3783681636
 20
-26.1208846128
 10
3.3776644141
 20
-26.0642809044
 10
3.3772222908
 20
-26.005936421
 10
3.3770568035
 20
-25.9458476412
 10
3.3772322542
 20
-25.8838861493
 10
3.3777558109
 20
-25.8200414782
 10
3.3786458648
 20
-25.7543089929
  0
LWPOLYLINE
  5
360
100
AcDbEntity
  8
RACCORDO
100
AcDbPolyline
 62
250
  6
CONTINUOUS
 90
11
 70
0
 10
2.9942901623
 20
-15.0543997769
 10
2.994343469
 20
-15.0587190271
 10
2.9961372059
 20
-15.0797918915
 10
3.0004642138
 20
-15.1006799948
 10
3.007293008
 20
-15.1212313486
 10
3.0165738999
 20
-15.1412964148
 10
3.0282393589
 20
-15.1607291936
 10
3.0422045035
 20
-15.1793882859
 10
3.0583677188
 20
-15.1971379223
 10
3.0766113962
 20
-15.2138489509
 10
3.0968027889
 20
-15.2293997769
  0
LWPOLYLINE
  5
361
100
AcDbEntity
  8
RACCORDO
100
AcDbPolyline
 62
250
  6
CONTINUOUS
 90
11
 70
0
 10
2.9942901623
 20
5.6793315345
 10
2.994343469
 20
5.6750122904
 10
2.9961372058
 20
5.653939426
 10
3.0004642136
 20
5.6330513226
 10
3.0072930077
 20
5.6124999687
 10
3.0165738997
 20
5.5924349025
 10
3.0282393587
 20
5.5730021236
 10
3.0422045033
 20
5.5543430312
 10
3.0583677187
 20
5.5365933946
 10
3.0766113961
 20
5.519882366
 10
3.0968027889
 20
5.5043315399
  0
LWPOLYLINE
  5
362
100
AcDbEntity
  8
RACCORDO
100
AcDbPolyline
 62
7
  6
CONTINUOUS
 90
5
 70
0
 10
2.9942901671
 20
-15.0543997672
 10
2.9984916818
 20
-16.1612071071
 10
3.0114942971
 20
-17.2874875668
 10
3.0333001247
 20
-18.4069905934
 10
3.0639085977
 20
-19.5196353602
  0
LINE
  5
363
100
AcDbEntity
  8
RACCORDO
100
AcDbLine
 62
7
  6
CONTINUOUS
 10
2.9942901623
 20
-15.0543997769
 11
2.9942901623
 21
5.6793315399
  0
LINE
  5
364
100
AcDbEntity
  8
RACCORDO
100
AcDbLine
 62
250
  6
CONTINUOUS
 10
3.0968027889
 20
-15.2293997769
 11
3.0968027889
 21
5.5043315399
  0
LWPOLYLINE
  5
365
100
AcDbEntity
  8
RACCORDO
100
AcDbPolyline
 62
250
  6
CONTINUOUS
 90
13
 70
0
 10
3.0968027889
 20
5.5043315399
 10
3.1011557641
 20
6.6370925446
 10
3.1142146746
 20
7.7763822555
 10
3.1359786612
 20
8.9221280269
 10
3.1664461985
 20
10.0742568456
 10
3.2056153673
 20
11.2326952447
 10
3.2534838577
 20
12.3973693098
 10
3.3100484524
 20
13.5682048759
 10
3.3753054794
 20
14.7451273156
 10
3.4492510892
 20
15.928061456
 10
3.5318805562
 20
17.1169318986
 10
3.6231882761
 20
18.3116630221
 10
3.723168223
 20
19.5121787743
  0
LINE
  5
366
100
AcDbEntity
  8
RACCORDO
100
AcDbLine
 62
250
  6
CONTINUOUS
 10
3.3786458648
 20
-25.7543089929
 11
3.3799862499
 21
-25.6865674546
  0
LINE
  5
367
100
AcDbEntity
  8
RACCORDO
100
AcDbLine
 62
250
  6
CONTINUOUS
 10
3.3799862499
 20
-25.6865674546
 11
3.3817841381
 21
-25.616812784
  0
LWPOLYLINE
  5
368
100
AcDbEntity
  8
RACCORDO
100
AcDbPolyline
 62
250
  6
CONTINUOUS
 90
4
 70
0
 10
3.3817841381
 20
-25.616812784
 10
3.3840626247
 20
-25.5450315064
 10
3.3869326691
 20
-25.4710864407
 10
3.3870943958
 20
-25.4675368003
  0
LWPOLYLINE
  5
369
100
AcDbEntity
  8
RACCORDO
100
AcDbPolyline
 62
250
  6
CONTINUOUS
 90
11
 70
0
 10
5.4933035008
 20
15.7451754501
 10
5.4044952108
 20
14.5590851701
 10
5.325015765
 20
13.3784438406
 10
5.2548722405
 20
12.2033406014
 10
5.1940723244
 20
11.0338892788
 10
5.1426200124
 20
9.8701658238
 10
5.1005184117
 20
8.712243761
 10
5.0677713063
 20
7.5602315859
 10
5.0443802703
 20
6.4142138997
 10
5.0303455725
 20
5.2742520118
 10
5.0256673574
 20
4.1404183235
  0
LWPOLYLINE
  5
36A
100
AcDbEntity
  8
RACCORDO
100
AcDbPolyline
 62
250
  6
CONTINUOUS
 90
3
 70
0
 10
5.6988831367
 20
18.1334345081
 10
5.5914351566
 20
16.9366508726
 10
5.4933035008
 20
15.7451754501
  0
LWPOLYLINE
  5
36B
100
AcDbEntity
  8
RACCORDO
100
AcDbPolyline
 62
250
  6
CONTINUOUS
 90
19
 70
0
 10
5.6988831367
 20
18.1334345081
 10
5.7015657242
 20
18.1549415869
 10
5.7058068069
 20
18.1772736059
 10
5.7115792588
 20
18.2002877291
 10
5.7188461593
 20
18.2238367576
 10
5.7275610289
 20
18.2477700713
 10
5.7376681272
 20
18.2719345922
 10
5.7491028091
 20
18.2961757635
 10
5.761791938
 20
18.3203385382
 10
5.7756543539
 20
18.3442683706
 10
5.7906013926
 20
18.3678122049
 10
5.8065374525
 20
18.3908194544
 10
5.8233606062
 20
18.4131429641
 10
5.8409632524
 20
18.4346399523
 10
5.8592328042
 20
18.455172924
 10
5.8780524092
 20
18.4746105497
 10
5.8973016968
 20
18.4928285059
 10
5.9168575481
 20
18.5097102703
 10
5.9365948834
 20
18.5251478666
  0
LWPOLYLINE
  5
36C
100
AcDbEntity
  8
RACCORDO
100
AcDbPolyline
 62
250
  6
CONTINUOUS
 90
6
 70
0
 10
-4.4353799585
 20
-15.4871128518
 10
-4.4373839143
 20
-15.4909609222
 10
-4.4394356968
 20
-15.4948473861
 10
-4.4415344559
 20
-15.4987721841
 10
-4.443679796
 20
-15.5027360616
 10
-4.4458703612
 20
-15.5067381079
  0
LWPOLYLINE
  5
36D
100
AcDbEntity
  8
RACCORDO
100
AcDbPolyline
 62
250
  6
CONTINUOUS
 90
30
 70
0
 10
-4.5682791141
 20
-15.714469926
 10
-4.5711570879
 20
-15.7197854625
 10
-4.5740119745
 20
-15.7251207409
 10
-4.5768422754
 20
-15.7304742312
 10
-4.5796463964
 20
-15.7358445034
 10
-4.5824210006
 20
-15.7412326573
 10
-4.5851645449
 20
-15.7466370426
 10
-4.5878753808
 20
-15.7520561134
 10
-4.5905499353
 20
-15.7574910713
 10
-4.5931866185
 20
-15.762940133
 10
-4.5957837274
 20
-15.7684016333
 10
-4.5983374339
 20
-15.7738768883
 10
-4.6008461064
 20
-15.7793639848
 10
-4.6033079789
 20
-15.7848611173
 10
-4.6057189271
 20
-15.7903696899
 10
-4.6080772618
 20
-15.7958876104
 10
-4.6103811708
 20
-15.8014129625
 10
-4.6126262404
 20
-15.8069473295
 10
-4.6148107727
 20
-15.8124885544
 10
-4.6169328505
 20
-15.8180344727
 10
-4.6189876231
 20
-15.8235865612
 10
-4.6209732584
 20
-15.8291422178
 10
-4.6228878899
 20
-15.8346993941
 10
-4.6247264822
 20
-15.840260281
 10
-4.6264874198
 20
-15.8458229598
 10
-4.6281684495
 20
-15.8513843173
 10
-4.6297635048
 20
-15.8569446448
 10
-4.6312692992
 20
-15.862502256
 10
-4.6326853257
 20
-15.8680534866
 10
-4.6340097059
 20
-15.8735955821
  0
LINE
  5
36E
100
AcDbEntity
  8
RACCORDO
100
AcDbLine
 62
250
  6
CONTINUOUS
 10
-4.5624648193
 20
-15.7038964101
 11
-4.5682791141
 21
-15.714469926
  0
LINE
  5
36F
100
AcDbEntity
  8
RACCORDO
100
AcDbLine
 62
250
  6
CONTINUOUS
 10
-4.4458703612
 20
-15.5067381079
 11
-4.4503788975
 21
-15.5148474081
  0
LINE
  5
370
100
AcDbEntity
  8
RACCORDO
100
AcDbLine
 62
250
  6
CONTINUOUS
 10
-4.556584132
 20
-15.693406511
 11
-4.5624648193
 21
-15.7038964101
  0
LINE
  5
371
100
AcDbEntity
  8
RACCORDO
100
AcDbLine
 62
250
  6
CONTINUOUS
 10
-4.4503788975
 20
-15.5148474081
 11
-4.4550512723
 21
-15.5230958713
  0
LINE
  5
372
100
AcDbEntity
  8
RACCORDO
100
AcDbLine
 62
250
  6
CONTINUOUS
 10
-4.5506531798
 20
-15.6830039168
 11
-4.556584132
 21
-15.693406511
  0
LINE
  5
373
100
AcDbEntity
  8
RACCORDO
100
AcDbLine
 62
250
  6
CONTINUOUS
 10
-4.4550512723
 20
-15.5230958713
 11
-4.459880049
 21
-15.5314830116
  0
LINE
  5
374
100
AcDbEntity
  8
RACCORDO
100
AcDbLine
 62
250
  6
CONTINUOUS
 10
-4.5446873702
 20
-15.6726924799
 11
-4.5506531798
 21
-15.6830039168
  0
LINE
  5
375
100
AcDbEntity
  8
RACCORDO
100
AcDbLine
 62
250
  6
CONTINUOUS
 10
-4.459880049
 20
-15.5314830116
 11
-4.4648579998
 21
-15.54000933
  0
LINE
  5
376
100
AcDbEntity
  8
RACCORDO
100
AcDbLine
 62
250
  6
CONTINUOUS
 10
-4.5387004659
 20
-15.6624776707
 11
-4.5446873702
 21
-15.6726924799
  0
LINE
  5
377
100
AcDbEntity
  8
RACCORDO
100
AcDbLine
 62
250
  6
CONTINUOUS
 10
-4.4648579998
 20
-15.54000933
 11
-4.469976823
 21
-15.5486731017
  0
LINE
  5
378
100
AcDbEntity
  8
RACCORDO
100
AcDbLine
 62
250
  6
CONTINUOUS
 10
-4.5297124048
 20
-15.6473437602
 11
-4.5387004659
 21
-15.6624776707
  0
LINE
  5
379
100
AcDbEntity
  8
RACCORDO
100
AcDbLine
 62
250
  6
CONTINUOUS
 10
-4.469976823
 20
-15.5486731017
 11
-4.4778982034
 21
-15.5619208606
  0
LINE
  5
37A
100
AcDbEntity
  8
RACCORDO
100
AcDbLine
 62
250
  6
CONTINUOUS
 10
-4.5177844546
 20
-15.6275368657
 11
-4.5297124048
 21
-15.6473437602
  0
LINE
  5
37B
100
AcDbEntity
  8
RACCORDO
100
AcDbLine
 62
250
  6
CONTINUOUS
 10
-4.4778982034
 20
-15.5619208606
 11
-4.4916703444
 21
-15.584657112
  0
LINE
  5
37C
100
AcDbEntity
  8
RACCORDO
100
AcDbLine
 62
250
  6
CONTINUOUS
 10
-4.4916703444
 20
-15.584657112
 11
-4.5177844546
 21
-15.6275368657
  0
LWPOLYLINE
  5
37D
100
AcDbEntity
  8
RACCORDO
100
AcDbPolyline
 62
250
  6
CONTINUOUS
 90
19
 70
0
 10
-6.0036601967
 20
-8.4566155117
 10
-6.0263436578
 20
-8.4703415688
 10
-6.0505989194
 20
-8.4826507317
 10
-6.0762494925
 20
-8.4934534351
 10
-6.1031087354
 20
-8.5026710751
 10
-6.1309812118
 20
-8.5102365813
 10
-6.1596641128
 20
-8.5160949045
 10
-6.1889487325
 20
-8.5202034178
 10
-6.2186219867
 20
-8.5225322263
 10
-6.2484679636
 20
-8.523064385
 10
-6.2782694942
 20
-8.5217960215
 10
-6.3078097333
 20
-8.5187363649
 10
-6.3368737367
 20
-8.5139076784
 10
-6.3652500256
 20
-8.5073450968
 10
-6.3927321251
 20
-8.4990963716
 10
-6.4191200667
 20
-8.4892215231
 10
-6.4442218435
 20
-8.4777924039
 10
-6.4678548069
 20
-8.4648921758
 10
-6.4898469961
 20
-8.450614705
  0
LWPOLYLINE
  5
37E
100
AcDbEntity
  8
RACCORDO
100
AcDbPolyline
 62
250
  6
CONTINUOUS
 90
139
 70
0
 10
3.4390681756
 20
17.4229454086
 10
3.4339875908
 20
17.4735996753
 10
3.4279568817
 20
17.5400362581
 10
3.4226318663
 20
17.6042856915
 10
3.4179831055
 20
17.6663429604
 10
3.4140090515
 20
17.726187023
 10
3.4105775461
 20
17.7841139532
 10
3.4076656534
 20
17.8401310348
 10
3.4052714299
 20
17.8942102639
 10
3.4032978
 20
17.9465977776
 10
3.4017273729
 20
17.9973125252
 10
3.4005574498
 20
18.0463189738
 10
3.3997155695
 20
18.0937836692
 10
3.3991887961
 20
18.1397066116
 10
3.3989731978
 20
18.1840740014
 10
3.399011659
 20
18.2270332
 10
3.3992936845
 20
18.2685815426
 10
3.3998156568
 20
18.3087102427
 10
3.4005323483
 20
18.3475587616
 10
3.4014351092
 20
18.3851247158
 10
3.402520869
 20
18.4214010487
 10
3.4037541525
 20
18.4565213316
 10
3.4051277959
 20
18.4904835769
 10
3.4066393066
 20
18.5232820458
 10
3.4082614394
 20
18.5550456633
 10
3.4099882345
 20
18.5857728462
 10
3.4118177675
 20
18.6154589064
 10
3.4137299277
 20
18.644228973
 10
3.4157197275
 20
18.6720818039
 10
3.4177857849
 20
18.6990136008
 10
3.4199143573
 20
18.7251464172
 10
3.4221012442
 20
18.750479401
 10
3.4243455663
 20
18.7750094023
 10
3.4266394149
 20
18.7988556977
 10
3.4289808186
 20
18.8220307408
 10
3.4313677894
 20
18.8445189698
 10
3.4337930388
 20
18.8663981435
 10
3.4362556723
 20
18.8876798757
 10
3.4387533299
 20
18.9083500076
 10
3.4412768897
 20
18.9284479241
 10
3.4438247788
 20
18.9479742102
 10
3.4463957176
 20
18.96692606
 10
3.4489812435
 20
18.9853379437
 10
3.4515797279
 20
19.0032084755
 10
3.4541903049
 20
19.0205371069
 10
3.4568058499
 20
19.0373597158
 10
3.4594249569
 20
19.0536754882
 10
3.4620468737
 20
19.0694835705
 10
3.464665638
 20
19.084819922
 10
3.4672799989
 20
19.0996838966
 10
3.4698893524
 20
19.1140747121
 10
3.4724888737
 20
19.1280282524
 10
3.4750774521
 20
19.1415440491
 10
3.4776546156
 20
19.1546213556
 10
3.4802166488
 20
19.167295755
 10
3.4827625651
 20
19.1795669419
 10
3.4852920104
 20
19.1914341952
 10
3.487802356
 20
19.2029325797
 10
3.4902927184
 20
19.2140619165
 10
3.4927628535
 20
19.2248215232
 10
3.495211214
 20
19.2352458039
 10
3.4976370044
 20
19.2453346887
 10
3.5000400789
 20
19.2550875302
 10
3.5024199764
 20
19.2645379495
 10
3.5047759551
 20
19.2736859047
 10
3.5071079771
 20
19.2825308451
 10
3.5094167357
 20
19.2911057035
 10
3.5117015982
 20
19.2994106966
 10
3.5139625579
 20
19.3074451225
 10
3.5162013346
 20
19.3152406035
 10
3.5184172813
 20
19.3227972052
 10
3.5206105248
 20
19.3301144676
 10
3.5227840235
 20
19.3372232836
 10
3.5249371736
 20
19.3441238304
 10
3.527070161
 20
19.3508156145
 10
3.5291871987
 20
19.3573285751
 10
3.5312877219
 20
19.363663007
 10
3.5333719651
 20
19.3698183656
 10
3.5354454028
 20
19.3758233778
 10
3.5375074624
 20
19.381678359
 10
3.5395584607
 20
19.3873828003
 10
3.5416052625
 20
19.3929642346
 10
3.5436472802
 20
19.3984230499
 10
3.5456849092
 20
19.4037587131
 10
3.5477265401
 20
19.4089974139
 10
3.5497715426
 20
19.4141396318
 10
3.5518204099
 20
19.4191847837
 10
3.553883265
 20
19.4241575015
 10
3.5559593269
 20
19.4290582511
 10
3.558049288
 20
19.4338864996
 10
3.5601655262
 20
19.4386654138
 10
3.5623074761
 20
19.4433963976
 10
3.5644756597
 20
19.448078014
 10
3.5666841268
 20
19.4527291986
 10
3.568935622
 20
19.4573577161
 10
3.5712273997
 20
19.4619558005
 10
3.5735652933
 20
19.4665191062
 10
3.5759530552
 20
19.4710549704
 10
3.5783869319
 20
19.4755560545
 10
3.580861479
 20
19.4799959835
 10
3.5833777896
 20
19.4843752507
 10
3.5859347261
 20
19.4886933292
 10
3.5885234557
 20
19.4929222823
 10
3.5911445288
 20
19.4970609619
 10
3.5937973073
 20
19.5011104501
 10
3.596471134
 20
19.5050461249
 10
3.5991669572
 20
19.5088668058
 10
3.6018837056
 20
19.512573581
 10
3.6046076553
 20
19.5161452036
 10
3.6073400571
 20
19.5195800718
 10
3.6100795091
 20
19.5228796744
 10
3.612808277
 20
19.5260273767
 10
3.6155251148
 20
19.5290187107
 10
3.6182310974
 20
19.5318580166
 10
3.6209119529
 20
19.5345418579
 10
3.6235634659
 20
19.5370648501
 10
3.6261896846
 20
19.539432253
 10
3.6287887361
 20
19.5416565985
 10
3.6313586505
 20
19.543736753
 10
3.6339012607
 20
19.545673748
 10
3.6364204141
 20
19.5474833759
 10
3.6389156538
 20
19.5491663603
 10
3.64138733
 20
19.5507218981
 10
3.6438405176
 20
19.5521635034
 10
3.646274552
 20
19.5534919846
 10
3.6486900148
 20
19.5547064713
 10
3.6510938626
 20
19.5558179695
 10
3.6534867261
 20
19.5568278323
 10
3.6558679106
 20
19.5577346588
 10
3.6582423957
 20
19.5585453311
 10
3.6606131987
 20
19.5592609533
 10
3.6629772511
 20
19.5598803831
 10
3.6653304084
 20
19.5604071368
 10
3.667677479
 20
19.5608405536
 10
3.6700136098
 20
19.5611812611
 10
3.6723201631
 20
19.5614347074
 10
3.6745909119
 20
19.561602698
 10
3.6768320416
 20
19.5616833964
 10
3.6790435332
 20
19.5616767886
  0
LWPOLYLINE
  5
37F
100
AcDbEntity
  8
RACCORDO
100
AcDbPolyline
 62
250
  6
CONTINUOUS
 90
5
 70
0
 10
5.0256673574
 20
-16.5933129933
 10
5.0303455796
 20
-17.7209773807
 10
5.044380296
 20
-18.8424290928
 10
5.067771359
 20
-19.9575959347
 10
5.1005184975
 20
-21.0664172585
  0
LWPOLYLINE
  5
380
100
AcDbEntity
  8
RACCORDO
100
AcDbPolyline
 62
250
  6
CONTINUOUS
 90
13
 70
0
 10
5.5118541568
 20
-16.5993137999
 10
5.516525999
 20
-17.7251267277
 10
5.530537095
 20
-18.8445931861
 10
5.5538874448
 20
-19.9577131753
 10
5.5865798043
 20
-21.0645680386
 10
5.6286114177
 20
-22.1650764326
 10
5.6799740173
 20
-23.2589943269
 10
5.7406704739
 20
-24.3463188353
 10
5.8106979167
 20
-25.427052844
 10
5.8900394666
 20
-26.5009609809
 10
5.978689497
 20
-27.5679647887
 10
6.0766536345
 20
-28.6281427247
 10
6.183931879
 20
-29.6814947889
  0
LINE
  5
381
100
AcDbEntity
  8
RACCORDO
100
AcDbLine
 62
250
  6
CONTINUOUS
 10
5.0256673574
 20
4.1404183235
 11
5.0256673574
 21
-16.5933129933
  0
LINE
  5
382
100
AcDbEntity
  8
RACCORDO
100
AcDbLine
 62
250
  6
CONTINUOUS
 10
5.5118541568
 20
4.1344175169
 11
5.5118541568
 21
-16.5993137999
  0
LWPOLYLINE
  5
383
100
AcDbEntity
  8
RACCORDO
100
AcDbPolyline
 62
250
  6
CONTINUOUS
 90
10
 70
0
 10
5.8900393425
 20
14.5348044809
 10
5.8106977736
 20
13.3562621092
 10
5.7406703231
 20
12.1831771306
 10
5.6799738717
 20
11.0158073707
 10
5.6286112963
 20
9.8541538289
 10
5.58657972
 20
8.6982155059
 10
5.5538873929
 20
7.5482472303
 10
5.530537065
 20
6.4043339451
 10
5.5165259863
 20
5.2663907073
 10
5.5118541568
 20
4.1344175169
  0
LWPOLYLINE
  5
384
100
AcDbEntity
  8
RACCORDO
100
AcDbPolyline
 62
250
  6
CONTINUOUS
 90
4
 70
0
 10
6.1839318794
 20
18.1029181281
 10
6.076653582
 20
16.9080895194
 10
5.978689403
 20
15.7187183036
 10
5.8900393425
 20
14.5348044809
  0
LWPOLYLINE
  5
385
100
AcDbEntity
  8
RACCORDO
100
AcDbPolyline
 62
250
  6
CONTINUOUS
 90
10
 70
0
 10
-4.3746234817
 20
-15.4020810602
 10
-4.3812256917
 20
-15.412559691
 10
-4.3878652105
 20
-15.4227733355
 10
-4.3945420378
 20
-15.4327219938
 10
-4.4012564162
 20
-15.4423959013
 10
-4.4080081032
 20
-15.4518048226
 10
-4.4147963713
 20
-15.4609780506
 10
-4.4216209782
 20
-15.4699253497
 10
-4.4284821662
 20
-15.4786369556
 10
-4.4353799354
 20
-15.4871128682
  0
LINE
  5
386
100
AcDbEntity
  8
RACCORDO
100
AcDbLine
 62
250
  6
CONTINUOUS
 10
5.0256673574
 20
4.1404183235
 11
3.0968027889
 21
5.5043315399
  0
LINE
  5
387
100
AcDbEntity
  8
RACCORDO
100
AcDbLine
 62
250
  6
CONTINUOUS
 10
-6.4898469961
 20
12.2831166118
 11
-8.4187115646
 21
13.6470298281
  0
LWPOLYLINE
  5
388
100
AcDbEntity
  8
RACCORDO
100
AcDbPolyline
 62
250
  6
CONTINUOUS
 90
22
 70
0
 10
6.1839314942
 20
18.1029178611
 10
6.1826099367
 20
18.1213429152
 10
6.1799730685
 20
18.1406961272
 10
6.1760293774
 20
18.1608743035
 10
6.1707916861
 20
18.1817798254
 10
6.1642849883
 20
18.2032887407
 10
6.1565528398
 20
18.2252487053
 10
6.1476438333
 20
18.2475242724
 10
6.1376037514
 20
18.2700031896
 10
6.1264871564
 20
18.2925628401
 10
6.1143546585
 20
18.315079114
 10
6.1012746499
 20
18.337424067
 10
6.0873218294
 20
18.3594697364
 10
6.0725749702
 20
18.3810917813
 10
6.0571158985
 20
18.4021703427
 10
6.0410308693
 20
18.4225877837
 10
6.0244096782
 20
18.4422300495
 10
6.0073454114
 20
18.4609870637
 10
5.9899337393
 20
18.4787536426
 10
5.9722721334
 20
18.4954303414
 10
5.9544593037
 20
18.5109239683
 10
5.9365948834
 20
18.5251478666
  0
LINE
  5
389
100
AcDbEntity
  8
RACCORDO
100
AcDbLine
 62
7
  6
CONTINUOUS
 10
8.5211708845
 20
19.7229290623
 11
8.5211708845
 21
-28.2192122274
  0
LWPOLYLINE
  5
38A
100
AcDbEntity
  8
RACCORDO
100
AcDbPolyline
 62
250
  6
CONTINUOUS
 90
10
 70
0
 10
6.1839314942
 20
-29.6814950296
 10
6.1825984083
 20
-29.6998984882
 10
6.1799399304
 20
-29.7171885251
 10
6.1759709048
 20
-29.7332685973
 10
6.1707134933
 20
-29.7480489178
 10
6.1641970521
 20
-29.7614469571
 10
6.1564579672
 20
-29.7733879041
 10
6.1475394517
 20
-29.7838050835
 10
6.1374913043
 20
-29.7926403287
 10
6.1308693595
 20
-29.7972075461
  0
LINE
  5
38B
100
AcDbEntity
  8
RACCORDO
100
AcDbLine
 62
250
  6
CONTINUOUS
 10
-5.8133607017
 20
-21.5510279238
 11
-5.8166312132
 21
-21.5557017724
  0
LINE
  5
38C
100
AcDbEntity
  8
RACCORDO
100
AcDbLine
 62
250
  6
CONTINUOUS
 10
-5.8067120448
 20
-21.5416608315
 11
-5.8133607017
 21
-21.5510279238
  0
LWPOLYLINE
  5
38D
100
AcDbEntity
  8
RACCORDO
100
AcDbPolyline
 62
250
  6
CONTINUOUS
 90
3
 70
0
 10
-5.7965098673
 20
-21.5275723543
 10
-5.7999376959
 20
-21.5322725522
 10
-5.8067120448
 20
-21.5416608315
  0
LWPOLYLINE
  5
38E
100
AcDbEntity
  8
RACCORDO
100
AcDbPolyline
 62
250
  6
CONTINUOUS
 90
11
 70
0
 10
-4.5375072651
 20
-15.1342927646
 10
-4.5218965946
 20
-15.123038188
 10
-4.5077659445
 20
-15.1108449778
 10
-4.495227687
 20
-15.0978100992
 10
-4.4843815313
 20
-15.0840372104
 10
-4.4753137301
 20
-15.0696358389
 10
-4.468096394
 20
-15.0547205098
 10
-4.4627869182
 20
-15.0394098356
 10
-4.4594275256
 20
-15.0238255726
 10
-4.4580449313
 20
-15.0080916529
 10
-4.4580068836
 20
-15.0050909272
  0
LWPOLYLINE
  5
38F
100
AcDbEntity
  8
RACCORDO
100
AcDbPolyline
 62
250
  6
CONTINUOUS
 90
16
 70
0
 10
-4.3746000604
 20
-15.4020976215
 10
-4.3626828739
 20
-15.3940733868
 10
-4.3508191854
 20
-15.3868896465
 10
-4.3390629875
 20
-15.380579224
 10
-4.3274675903
 20
-15.3751708884
 10
-4.3160860075
 20
-15.3706895219
 10
-4.3049706724
 20
-15.3671558367
 10
-4.2941723611
 20
-15.364585954
 10
-4.2837400197
 20
-15.3629914978
 10
-4.273721138
 20
-15.3623797211
 10
-4.2641612817
 20
-15.3627534095
 10
-4.2551039856
 20
-15.3641108619
 10
-4.2465905517
 20
-15.3664458651
 10
-4.2386597298
 20
-15.3697477486
 10
-4.2313475581
 20
-15.3740014645
 10
-4.2303009881
 20
-15.3747241417
  0
LWPOLYLINE
  5
390
100
AcDbEntity
  8
RACCORDO
100
AcDbPolyline
 62
250
  6
CONTINUOUS
 90
33
 70
0
 10
-5.7710141986
 20
26.2438789351
 10
-5.7656875648
 20
26.2364041082
 10
-5.7604153596
 20
26.2286518983
 10
-5.75519745
 20
26.2206224043
 10
-5.750033931
 20
26.2123026405
 10
-5.7449244052
 20
26.2037058172
 10
-5.7398680062
 20
26.1948713237
 10
-5.7348675658
 20
26.1858071013
 10
-5.729919942
 20
26.1765054394
 10
-5.7250153292
 20
26.1669822328
 10
-5.720158464
 20
26.157252167
 10
-5.715344286
 20
26.147300798
 10
-5.7105482903
 20
26.1371003294
 10
-5.7057694281
 20
26.1266549896
 10
-5.7010083653
 20
26.1159608361
 10
-5.6962431315
 20
26.1049778445
 10
-5.6914688561
 20
26.0936990783
 10
-5.6866899359
 20
26.0821318282
 10
-5.6818982577
 20
26.0702574433
 10
-5.6770888996
 20
26.0580648234
 10
-5.6722662284
 20
26.0455654842
 10
-5.6674360489
 20
26.0327747109
 10
-5.6625977933
 20
26.0196906193
 10
-5.6577514427
 20
26.0063155336
 10
-5.6529036392
 20
25.9926710416
 10
-5.6480580979
 20
25.9787687241
 10
-5.643210509
 20
25.9645974475
 10
-5.638355473
 20
25.9501447327
 10
-5.6334951395
 20
25.9354204496
 10
-5.6286266947
 20
25.9204152291
 10
-5.6237372299
 20
25.9050877803
 10
-5.6188253136
 20
25.8894378198
 10
-5.6138915695
 20
25.8734662412
  0
LWPOLYLINE
  5
391
100
AcDbEntity
  8
RACCORDO
100
AcDbPolyline
 62
250
  6
CONTINUOUS
 90
79
 70
0
 10
-4.6179501319
 20
-15.1593823157
 10
-4.624679296
 20
-15.1619373225
 10
-4.631483923
 20
-15.1646798552
 10
-4.6383640129
 20
-15.1676099138
 10
-4.6453241684
 20
-15.1707282017
 10
-4.6523597868
 20
-15.1740340154
 10
-4.6594570601
 20
-15.1775252448
 10
-4.6666145688
 20
-15.1812015908
 10
-4.6738337324
 20
-15.1850633523
 10
-4.6811050012
 20
-15.1891093165
 10
-4.6884282781
 20
-15.1933396112
 10
-4.6958036601
 20
-15.1977541084
 10
-4.7032218885
 20
-15.2023512115
 10
-4.7106834815
 20
-15.2071314559
 10
-4.7181879209
 20
-15.2120943062
 10
-4.7257243931
 20
-15.2172365596
 10
-4.7332928218
 20
-15.2225583952
 10
-4.7408932834
 20
-15.2280596339
 10
-4.7485151933
 20
-15.2337365352
 10
-4.7561587263
 20
-15.2395894529
 10
-4.7638237075
 20
-15.2456180332
 10
-4.7714990282
 20
-15.2518174734
 10
-4.7791847181
 20
-15.2581880294
 10
-4.7868807473
 20
-15.2647294453
 10
-4.794575917
 20
-15.271436151
 10
-4.8022702797
 20
-15.2783084234
 10
-4.8099637829
 20
-15.2853459856
 10
-4.81764507
 20
-15.2925424361
 10
-4.8253141608
 20
-15.2998980281
 10
-4.8329710356
 20
-15.3074125085
 10
-4.8406042783
 20
-15.3150787162
 10
-4.8482138909
 20
-15.3228968903
 10
-4.8557998716
 20
-15.3308667917
 10
-4.8633507986
 20
-15.3389805422
 10
-4.8708666546
 20
-15.3472383632
 10
-4.878347457
 20
-15.3556400333
 10
-4.8857818369
 20
-15.36417701
 10
-4.8931697588
 20
-15.3728494962
 10
-4.9005112582
 20
-15.3816572889
 10
-4.9077950728
 20
-15.3905912372
 10
-4.9150211504
 20
-15.3996515244
 10
-4.9221895432
 20
-15.4088379672
 10
-4.9292891453
 20
-15.4181408641
 10
-4.9363198887
 20
-15.4275603776
 10
-4.9432818415
 20
-15.4370963453
 10
-4.9501641022
 20
-15.4467385787
 10
-4.9569665884
 20
-15.4564872182
 10
-4.9636893824
 20
-15.4663421233
 10
-4.97032183
 20
-15.476292684
 10
-4.9768638366
 20
-15.4863390188
 10
-4.9833154969
 20
-15.4964810091
 10
-4.9896664402
 20
-15.5067076886
 10
-4.9959165615
 20
-15.5170191533
 10
-5.0020659659
 20
-15.5274153072
 10
-5.0081045987
 20
-15.5378848964
 10
-5.0140323481
 20
-15.5484279978
 10
-5.019849326
 20
-15.5590445345
 10
-5.0255458123
 20
-15.569723022
 10
-5.0311216869
 20
-15.5804635096
 10
-5.03657707
 20
-15.591265948
 10
-5.0419026027
 20
-15.602118704
 10
-5.0470981702
 20
-15.6130218257
 10
-5.0521638873
 20
-15.6239752651
 10
-5.0570907387
 20
-15.6349672441
 10
-5.0618785856
 20
-15.6459977326
 10
-5.0665275668
 20
-15.6570667609
 10
-5.0710290834
 20
-15.6681626413
 10
-5.0753830691
 20
-15.6792855172
 10
-5.0795895902
 20
-15.6904352453
 10
-5.0836402473
 20
-15.701599708
 10
-5.0875348017
 20
-15.7127784867
 10
-5.0912734921
 20
-15.723972
 10
-5.0948486346
 20
-15.7351693861
 10
-5.0982604774
 20
-15.7463719597
 10
-5.1015087722
 20
-15.7575784062
 10
-5.1045850901
 20
-15.7687739196
 10
-5.1074866216
 20
-15.7799535649
 10
-5.1102161761
 20
-15.7911222771
 10
-5.1127737538
 20
-15.8022800565
  0
LWPOLYLINE
  5
392
100
AcDbEntity
  8
RACCORDO
100
AcDbPolyline
 62
250
  6
CONTINUOUS
 90
22
 70
0
 10
-5.6062680219
 20
-18.5998317731
 10
-5.5870937273
 20
-18.5905449967
 10
-5.5667452026
 20
-18.5822760601
 10
-5.5453312909
 20
-18.5750691934
 10
-5.5229665343
 20
-18.568962946
 10
-5.4997705607
 20
-18.5639899799
 10
-5.475867444
 20
-18.5601768951
 10
-5.4513850408
 20
-18.5575440879
 10
-5.4264543064
 20
-18.556105641
 10
-5.4012085936
 20
-18.5558692487
 10
-5.3757829407
 20
-18.5568361756
 10
-5.3503133483
 20
-18.5590012498
 10
-5.3249360519
 20
-18.5623528906
 10
-5.2997867935
 20
-18.5668731703
 10
-5.2750000955
 20
-18.5725379105
 10
-5.2507085407
 20
-18.5793168108
 10
-5.2270420636
 20
-18.5871736114
 10
-5.2041272556
 20
-18.5960662869
 10
-5.1820866869
 20
-18.6059472709
 10
-5.1610382517
 20
-18.6167637108
 10
-5.1410945378
 20
-18.62845775
 10
-5.1223622236
 20
-18.6409668376
  0
LWPOLYLINE
  5
393
100
AcDbEntity
  8
RACCORDO
100
AcDbPolyline
 62
250
  6
CONTINUOUS
 90
22
 70
0
 10
-5.1127737538
 20
-15.8022800565
 10
-5.0939787696
 20
-15.795188397
 10
-5.0740064681
 20
-15.7891037458
 10
-5.0529637809
 20
-15.7840586801
 10
-5.0309633705
 20
-15.7800802113
 10
-5.008123027
 20
-15.77718964
 10
-4.9845650376
 20
-15.7754024424
 10
-4.9604155317
 20
-15.7747281873
 10
-4.9358038058
 20
-15.7751704845
 10
-4.910861631
 20
-15.776726966
 10
-4.8857225476
 20
-15.7793892984
 10
-4.8605211502
 20
-15.7831432275
 10
-4.8353923671
 20
-15.7879686548
 10
-4.8104707378
 20
-15.7938397449
 10
-4.7858896924
 20
-15.800725064
 10
-4.7617808381
 20
-15.8085877482
 10
-4.7382732534
 20
-15.8173857007
 10
-4.715492798
 20
-15.8270718171
 10
-4.6935614384
 20
-15.8375942383
 10
-4.6725965951
 20
-15.8488966274
 10
-4.6527105139
 20
-15.8609184712
 10
-4.6340096647
 20
-15.8735954049
  0
LINE
  5
394
100
AcDbEntity
  8
RACCORDO
100
AcDbLine
 62
7
  6
CONTINUOUS
 10
3.2915569639
 20
15.2233029306
 11
-4.5859648688
 21
20.7935520375
  0
LINE
  5
395
100
AcDbEntity
  8
RACCORDO
100
AcDbLine
 62
250
  6
CONTINUOUS
 10
3.2936296149
 20
15.2564285723
 11
-4.6286799076
 21
20.8583473599
  0
LWPOLYLINE
  5
396
100
AcDbEntity
  8
RACCORDO
100
AcDbPolyline
 62
250
  6
CONTINUOUS
 90
33
 70
0
 10
-5.8182251755
 20
26.2590690814
 10
-5.8155079953
 20
26.2568652045
 10
-5.8128065304
 20
26.2542107621
 10
-5.8101211558
 20
26.251105963
 10
-5.8074451545
 20
26.247536901
 10
-5.8047858299
 20
26.2435180076
 10
-5.8021652983
 20
26.2390915134
 10
-5.7995908024
 20
26.23424959
 10
-5.7970572893
 20
26.2289994264
 10
-5.7945693546
 20
26.2234051026
 10
-5.7921321297
 20
26.2174739433
 10
-5.7897429577
 20
26.2111975983
 10
-5.7873948508
 20
26.2046165223
 10
-5.7850877692
 20
26.1977297793
 10
-5.7828237515
 20
26.1905374707
 10
-5.780598771
 20
26.1830816906
 10
-5.778415478
 20
26.175371765
 10
-5.7762730745
 20
26.1673974954
 10
-5.7741621351
 20
26.1591718519
 10
-5.7720843503
 20
26.1507068336
 10
-5.7700394014
 20
26.1419898608
 10
-5.7680143761
 20
26.1329974482
 10
-5.7660083243
 20
26.1237327091
 10
-5.7640229057
 20
26.1141924992
 10
-5.7620486207
 20
26.1043444256
 10
-5.7600832517
 20
26.0941818835
 10
-5.7581292614
 20
26.0837119003
 10
-5.7561838943
 20
26.0729228182
 10
-5.7542455662
 20
26.0618053592
 10
-5.752315995
 20
26.050369365
 10
-5.7503973742
 20
26.0386318638
 10
-5.7484902489
 20
26.026593261
 10
-5.7465943617
 20
26.0142535594
  0
LWPOLYLINE
  5
397
100
AcDbEntity
  8
RACCORDO
100
AcDbPolyline
 62
250
  6
CONTINUOUS
 90
19
 70
0
 10
5.5118541568
 20
-16.5993137999
 10
5.4891706957
 20
-16.613039857
 10
5.4649154341
 20
-16.6253490199
 10
5.439264861
 20
-16.6361517233
 10
5.4124056181
 20
-16.6453693633
 10
5.3845331417
 20
-16.6529348695
 10
5.3558502407
 20
-16.6587931927
 10
5.326565621
 20
-16.662901706
 10
5.2968923668
 20
-16.6652305146
 10
5.26704639
 20
-16.6657626732
 10
5.2372448593
 20
-16.6644943097
 10
5.2077046202
 20
-16.6614346532
 10
5.1786406168
 20
-16.6566059666
 10
5.1502643279
 20
-16.650043385
 10
5.1227822284
 20
-16.6417946598
 10
5.0963942868
 20
-16.6319198113
 10
5.07129251
 20
-16.6204906921
 10
5.0476595466
 20
-16.6075904641
 10
5.0256673574
 20
-16.5933129933
  0
LINE
  5
398
100
AcDbEntity
  8
RACCORDO
100
AcDbLine
 62
7
  6
CONTINUOUS
 10
-5.7710141986
 20
26.2438789351
 11
3.6790435332
 21
19.5616767886
  0
LINE
  5
399
100
AcDbEntity
  8
RACCORDO
100
AcDbLine
 62
250
  6
CONTINUOUS
 10
3.679191767
 20
19.5615719715
 11
5.6988831367
 21
18.1334345081
  0
LINE
  5
39A
100
AcDbEntity
  8
RACCORDO
100
AcDbLine
 62
250
  6
CONTINUOUS
 10
-5.8166312185
 20
26.276132776
 11
-7.7908508665
 21
27.6721168982
  0
LINE
  5
39B
100
AcDbEntity
  8
RACCORDO
100
AcDbLine
 62
250
  6
CONTINUOUS
 10
5.9365948834
 20
18.5251478666
 11
-7.5531391198
 21
28.0638302567
  0
LWPOLYLINE
  5
39C
100
AcDbEntity
  8
RACCORDO
100
AcDbPolyline
 62
7
  6
CONTINUOUS
 90
13
 70
0
 10
3.679191767
 20
19.5615719715
 10
3.6840073007
 20
19.5580077524
 10
3.688627166
 20
19.5543199946
 10
3.6930513646
 20
19.5505086993
 10
3.69728838
 20
19.5465601878
 10
3.7013297359
 20
19.5424881431
 10
3.7051499958
 20
19.5383336099
 10
3.7087484548
 20
19.5340946307
 10
3.7121258303
 20
19.5297731706
 10
3.7152588184
 20
19.5254161579
 10
3.7181396559
 20
19.5210392382
 10
3.7207761212
 20
19.5166267752
 10
3.723168223
 20
19.5121787743
  0
LINE
  5
39D
100
AcDbEntity
  8
0
100
AcDbLine
 62
7
  6
CONTINUOUS
 10
1.9804331585
 20
23.5705729601
 11
-0.4944405756
 21
25.3205729601
  0
LWPOLYLINE
  5
39E
100
AcDbEntity
  8
RACCORDO
100
AcDbPolyline
 62
7
  6
CONTINUOUS
 90
14
 70
0
 10
-4.6579783536
 20
20.8205715879
 10
-4.6590465502
 20
20.8203606656
 10
-4.6609904465
 20
20.820040268
 10
-4.661020792
 20
20.8200271688
 10
-4.6591953651
 20
20.8200976937
 10
-4.6555832629
 20
20.8200276431
 10
-4.6502222238
 20
20.8195853749
 10
-4.6432639333
 20
20.8185408822
 10
-4.6349818022
 20
20.816702243
 10
-4.6255009351
 20
20.8138670679
 10
-4.6150532242
 20
20.8098652685
 10
-4.6040753869
 20
20.8046470666
 10
-4.5928578209
 20
20.7981670076
 10
-4.5860781999
 20
20.7936323733
  0
LINE
  5
39F
100
AcDbEntity
  8
RACCORDO
100
AcDbLine
 62
7
  6
CONTINUOUS
 10
8.2738342737
 20
20.1451590678
 11
2.749403767
 21
24.0515213413
  0
LINE
  5
3A0
100
AcDbEntity
  8
RACCORDO
100
AcDbLine
 62
7
  6
CONTINUOUS
 10
0.1508023783
 20
25.8890100048
 11
-5.3736281284
 21
29.7953722783
  0
LWPOLYLINE
  5
3A1
100
AcDbEntity
  8
RACCORDO
100
AcDbPolyline
 62
7
  6
CONTINUOUS
 90
10
 70
0
 10
-5.8174192775
 20
26.2595209892
 10
-5.8120735284
 20
26.2583570363
 10
-5.8068282789
 20
26.2572563349
 10
-5.8016847029
 20
26.2562178707
 10
-5.7967260047
 20
26.2555099958
 10
-5.7918675156
 20
26.2548648002
 10
-5.7868754877
 20
26.253466267
 10
-5.7816864943
 20
26.2510333633
 10
-5.7763886471
 20
26.2478316949
 10
-5.7709855278
 20
26.2438590662
  0
LWPOLYLINE
  5
3A2
100
AcDbEntity
  8
RACCORDO
100
AcDbPolyline
 62
250
  6
CONTINUOUS
 90
22
 70
0
 10
6.1839314942
 20
-29.6814950296
 10
6.1646643916
 20
-29.6951263904
 10
6.1444088911
 20
-29.7074840873
 10
6.1231708803
 20
-29.7186688346
 10
6.1008752544
 20
-29.7288524956
 10
6.0775734466
 20
-29.737947035
 10
6.0535492507
 20
-29.7456673133
 10
6.0290082161
 20
-29.7520699613
 10
6.0039724373
 20
-29.7572229697
 10
5.9785879907
 20
-29.760906639
 10
5.9530734467
 20
-29.7631883705
 10
5.9275473506
 20
-29.764164013
 10
5.902063722
 20
-29.7636424428
 10
5.8768091368
 20
-29.7616942894
 10
5.8519569742
 20
-29.758436767
 10
5.8275634655
 20
-29.7537164231
 10
5.803807636
 20
-29.747629841
 10
5.7808521305
 20
-29.7403068462
 10
5.7587394784
 20
-29.7316184718
 10
5.7375916231
 20
-29.7216011172
 10
5.7175947834
 20
-29.7104783674
 10
5.6988831367
 20
-29.6984000633
  0
LINE
  5
3A3
100
AcDbEntity
  8
RACCORDO
100
AcDbLine
 62
250
  6
CONTINUOUS
 10
6.183931879
 20
-29.6814947889
 11
8.5211708845
 21
-28.2192122274
  0
LINE
  5
3A4
100
AcDbEntity
  8
RACCORDO
100
AcDbLine
 62
7
  6
CONTINUOUS
 10
6.1308693595
 20
-29.7972075461
 11
8.4716773336
 21
-28.3326920762
  0
ARC
  5
3A5
100
AcDbEntity
  8
RACCORDO
100
AcDbCircle
 62
7
  6
CONTINUOUS
 10
-7.544501935
 20
27.8226010578
 40
0.35
100
AcDbArc
 50
128.4658609972
 51
175.0616252443
  0
ARC
  5
3A6
100
AcDbEntity
  8
RACCORDO
100
AcDbCircle
 62
7
  6
CONTINUOUS
 10
-7.544501935
 20
-19.9618118329
 40
0.35
100
AcDbArc
 50
185.7030346624
 51
234.7307699019
  0
ARC
  5
3A7
100
AcDbEntity
  8
RACCORDO
100
AcDbCircle
 62
7
  6
CONTINUOUS
 10
5.9452320682
 20
-29.500494223
 40
0.35
100
AcDbArc
 50
234.7324340137
 51
302.0319621419
  0
ELLIPSE
  5
3A8
100
AcDbEntity
  8
RACCORDO
100
AcDbEllipse
 62
7
  6
CONTINUOUS
 10
-5.3733265113
 20
29.5475207749
 30
0.0
 11
-0.2022345323
 21
0.2861667783
 31
0.0
 40
0.4994261019
 41
-0.9543698342
 42
0.0280630922
  0
ELLIPSE
  5
3A9
100
AcDbEntity
  8
RACCORDO
100
AcDbEllipse
 62
7
  6
CONTINUOUS
 10
8.2735326566
 20
-28.04380394
 30
0.0
 11
-0.2022345323
 21
0.2861667783
 31
0.0
 40
0.4994261019
 41
-3.1696557521
 42
-2.5263841361
  0
ELLIPSE
  5
3AA
100
AcDbEntity
  8
RACCORDO
100
AcDbEllipse
 62
7
  6
CONTINUOUS
 10
8.2735326566
 20
19.8977341154
 30
0.0
 11
-0.2021571376
 21
0.2857289658
 31
0.0
 40
0.5005744201
 41
-2.5258428156
 42
-0.956264464
  0
ENDSEC
  0
SECTION
  2
OBJECTS
  0
DICTIONARY
  5
C
100
AcDbDictionary
280
0
281
1
  3
ACAD_GROUP
350
D
  3
ACAD_MLINESTYLE
350
17
  3
ACAD_LAYOUT
350
1A
  3
ACAD_PLOTSETTINGS
350
19
  3
ACAD_PLOTSTYLENAME
350
E
  0
DICTIONARY
  5
D
102
{ACAD_REACTORS
330
C
102
}
100
AcDbDictionary
280
0
281
1
  0
ACDBDICTIONARYWDFLT
  5
E
102
{ACAD_REACTORS
330
C
102
}
100
AcDbDictionary
281
1
  3
Normal
350
F
100
AcDbDictionaryWithDefault
340
F
  0
DICTIONARY
  5
17
102
{ACAD_REACTORS
330
C
102
}
100
AcDbDictionary
280
0
281
1
  3
Standard
350
18
  0
DICTIONARY
  5
19
102
{ACAD_REACTORS
330
C
102
}
100
AcDbDictionary
281
1
  0
DICTIONARY
  5
1A
102
{ACAD_REACTORS
330
C
102
}
100
AcDbDictionary
281
1
  3
Model
350
3AB
  3
Layout1
350
3AC
  0
ACDBPLACEHOLDER
  5
F
102
{ACAD_REACTORS
330
E
102
}
  0
MLINESTYLE
  5
18
102
{ACAD_REACTORS
330
17
102
}
100
AcDbMlineStyle
  2
STANDARD
 70
0
  3

 62
256
 51
90.0
 52
90.0
 71
2
 49
0.5
 62
256
  6
BYLAYER
 49
-0.5
 62
256
  6
BYLAYER
  0
LAYOUT
  5
3AB
102
{ACAD_REACTORS
330
1A
102
}
100
AcDbPlotSettings
  1

  2
none_device
  4
ISO_A4_(297.00_x_210.00_MM)
  6

 40
0.0
 41
0.0
 42
0.0
 43
0.0
 44
297.0
 45
210.0
 46
0.0
 47
0.0
 48
0.0
 49
0.0
140
0.0
141
0.0
142
1.0
143
1.0
 70
1024
 72
1
 73
0
 74
0
  7

 75
0
147
1.0
148
0.0
149
0.0
100
AcDbLayout
  1
Model
 70
0
 71
0
 10
0.0
 20
0.0
 11
297.0
 21
210.0
 12
0.0
 22
0.0
 32
0.0
 14
0.0
 24
0.0
 34
0.0
 15
0.0
 25
0.0
 35
0.0
146
0.0
 13
0.0
 23
0.0
 33
0.0
 16
1.0
 26
0.0
 36
0.0
 17
0.0
 27
1.0
 37
0.0
 76
0
330
20F
345
0
346
0
  0
LAYOUT
  5
3AC
102
{ACAD_REACTORS
330
1A
102
}
100
AcDbPlotSettings
  1

  2
none_device
  4
ISO_A4_(297.00_x_210.00_MM)
  6

 40
0.0
 41
0.0
 42
0.0
 43
0.0
 44
297.0
 45
210.0
 46
0.0
 47
0.0
 48
0.0
 49
0.0
140
0.0
141
0.0
142
1.0
143
1.0
 70
0
 72
1
 73
0
 74
0
  7

 75
0
147
1.0
148
0.0
149
0.0
100
AcDbLayout
  1
Layout1
 70
0
 71
1
 10
0.0
 20
0.0
 11
297.0
 21
210.0
 12
0.0
 22
0.0
 32
0.0
 14
0.0
 24
0.0
 34
0.0
 15
0.0
 25
0.0
 35
0.0
146
0.0
 13
0.0
 23
0.0
 33
0.0
 16
1.0
 26
0.0
 36
0.0
 17
0.0
 27
1.0
 37
0.0
 76
0
330
210
345
0
346
0
  0
ENDSEC
  0
EOF
